  0
SECTION
  2
HEADER
  9
$ACADVER
  1
AC1012
  9
$DWGCODEPAGE
  3
ansi_1252
  9
$INSBASE
 10
0.0
 20
0.0
 30
0.0
  9
$EXTMIN
 10
-445.5118249957165
 20
-186.1335674660516
 30
0.0
  9
$EXTMAX
 10
197.5795194368649
 20
186.1335674660516
 30
0.0
  9
$LIMMIN
 10
0.0
 20
0.0
  9
$LIMMAX
 10
420.0
 20
297.0
  9
$ORTHOMODE
 70
     1
  9
$REGENMODE
 70
     1
  9
$FILLMODE
 70
     1
  9
$QTEXTMODE
 70
     0
  9
$MIRRTEXT
 70
     1
  9
$DRAGMODE
 70
     2
  9
$LTSCALE
 40
20.0
  9
$OSMODE
 70
    39
  9
$ATTMODE
 70
     1
  9
$TEXTSIZE
 40
2.5
  9
$TRACEWID
 40
1.0
  9
$TEXTSTYLE
  7
SIMPLEX
  9
$CLAYER
  8
L1
  9
$CELTYPE
  6
BYLAYER
  9
$CECOLOR
 62
   256
  9
$CELTSCALE
 40
1.0
  9
$DELOBJ
 70
     1
  9
$DISPSILH
 70
     0
  9
$DIMSCALE
 40
1.0
  9
$DIMASZ
 40
3.5
  9
$DIMEXO
 40
0.1
  9
$DIMDLI
 40
0.38
  9
$DIMRND
 40
0.0
  9
$DIMDLE
 40
0.0
  9
$DIMEXE
 40
0.18
  9
$DIMTP
 40
0.0
  9
$DIMTM
 40
0.0
  9
$DIMTXT
 40
3.5
  9
$DIMCEN
 40
1.0
  9
$DIMTSZ
 40
0.0
  9
$DIMTOL
 70
     0
  9
$DIMLIM
 70
     0
  9
$DIMTIH
 70
     0
  9
$DIMTOH
 70
     0
  9
$DIMSE1
 70
     0
  9
$DIMSE2
 70
     0
  9
$DIMTAD
 70
     1
  9
$DIMZIN
 70
     8
  9
$DIMBLK
  1

  9
$DIMASO
 70
     1
  9
$DIMSHO
 70
     1
  9
$DIMPOST
  1

  9
$DIMAPOST
  1

  9
$DIMALT
 70
     0
  9
$DIMALTD
 70
     2
  9
$DIMALTF
 40
25.4
  9
$DIMLFAC
 40
1.0
  9
$DIMTOFL
 70
     1
  9
$DIMTVP
 40
0.0
  9
$DIMTIX
 70
     0
  9
$DIMSOXD
 70
     0
  9
$DIMSAH
 70
     0
  9
$DIMBLK1
  1

  9
$DIMBLK2
  1

  9
$DIMSTYLE
  2
FIBOX
  9
$DIMCLRD
 70
     1
  9
$DIMCLRE
 70
     1
  9
$DIMCLRT
 70
     3
  9
$DIMTFAC
 40
1.0
  9
$DIMGAP
 40
1.0
  9
$DIMJUST
 70
     0
  9
$DIMSD1
 70
     0
  9
$DIMSD2
 70
     0
  9
$DIMTOLJ
 70
     1
  9
$DIMTZIN
 70
     8
  9
$DIMALTZ
 70
     0
  9
$DIMALTTZ
 70
     0
  9
$DIMFIT
 70
     3
  9
$DIMUPT
 70
     0
  9
$DIMUNIT
 70
     2
  9
$DIMDEC
 70
     1
  9
$DIMTDEC
 70
     2
  9
$DIMALTU
 70
     2
  9
$DIMALTTD
 70
     2
  9
$DIMTXSTY
  7
SIMPLEX
  9
$DIMAUNIT
 70
     0
  9
$LUNITS
 70
     2
  9
$LUPREC
 70
     4
  9
$SKETCHINC
 40
1.0
  9
$FILLETRAD
 40
0.0
  9
$AUNITS
 70
     0
  9
$AUPREC
 70
     0
  9
$MENU
  1
C:\r13\win\SUPPORT\acad
  9
$ELEVATION
 40
0.0
  9
$PELEVATION
 40
0.0
  9
$THICKNESS
 40
0.0
  9
$LIMCHECK
 70
     0
  9
$BLIPMODE
 70
     0
  9
$CHAMFERA
 40
10.0
  9
$CHAMFERB
 40
10.0
  9
$CHAMFERC
 40
0.0
  9
$CHAMFERD
 40
0.0
  9
$SKPOLY
 70
     0
  9
$TDCREATE
 40
2450511.539299583
  9
$TDUPDATE
 40
2450780.387847280
  9
$TDINDWG
 40
1.0104761343
  9
$TDUSRTIMER
 40
1.0104761343
  9
$USRTIMER
 70
     1
  9
$ANGBASE
 50
0.0
  9
$ANGDIR
 70
     0
  9
$PDMODE
 70
     0
  9
$PDSIZE
 40
0.0
  9
$PLINEWID
 40
0.0
  9
$COORDS
 70
     1
  9
$SPLFRAME
 70
     0
  9
$SPLINETYPE
 70
     6
  9
$SPLINESEGS
 70
     8
  9
$ATTDIA
 70
     0
  9
$ATTREQ
 70
     1
  9
$HANDLING
 70
     1
  9
$HANDSEED
  5
C03
  9
$SURFTAB1
 70
     6
  9
$SURFTAB2
 70
     6
  9
$SURFTYPE
 70
     6
  9
$SURFU
 70
     6
  9
$SURFV
 70
     6
  9
$UCSNAME
  2

  9
$UCSORG
 10
0.0
 20
0.0
 30
0.0
  9
$UCSXDIR
 10
1.0
 20
0.0
 30
0.0
  9
$UCSYDIR
 10
0.0
 20
1.0
 30
0.0
  9
$PUCSNAME
  2

  9
$PUCSORG
 10
0.0
 20
0.0
 30
0.0
  9
$PUCSXDIR
 10
1.0
 20
0.0
 30
0.0
  9
$PUCSYDIR
 10
0.0
 20
1.0
 30
0.0
  9
$USERI1
 70
     0
  9
$USERI2
 70
     0
  9
$USERI3
 70
     0
  9
$USERI4
 70
     0
  9
$USERI5
 70
     0
  9
$USERR1
 40
0.0
  9
$USERR2
 40
0.0
  9
$USERR3
 40
0.0
  9
$USERR4
 40
0.0
  9
$USERR5
 40
0.0
  9
$WORLDVIEW
 70
     1
  9
$SHADEDGE
 70
     3
  9
$SHADEDIF
 70
    70
  9
$TILEMODE
 70
     1
  9
$MAXACTVP
 70
    16
  9
$PINSBASE
 10
0.0
 20
0.0
 30
0.0
  9
$PLIMCHECK
 70
     0
  9
$PEXTMIN
 10
-834.9999999999999
 20
-5.0
 30
0.0
  9
$PEXTMAX
 10
5.0
 20
588.9999999999999
 30
0.0
  9
$PLIMMIN
 10
0.0
 20
0.0
  9
$PLIMMAX
 10
420.0
 20
297.0
  9
$UNITMODE
 70
     0
  9
$VISRETAIN
 70
     0
  9
$PLINEGEN
 70
     0
  9
$PSLTSCALE
 70
     1
  9
$TREEDEPTH
 70
  3020
  9
$PICKSTYLE
 70
     1
  9
$CMLSTYLE
  2
STANDARD
  9
$CMLJUST
 70
     0
  9
$CMLSCALE
 40
1.0
  9
$SAVEIMAGES
 70
     1
  0
ENDSEC
  0
SECTION
  2
CLASSES
  0
CLASS
  1
ACMESCOPE
  2
AcMeScope
  3
ACME_MODULE_NAME
 90
    32768
280
     1
281
     0
  0
CLASS
  1
ACMECOMMANDHISTORY
  2
AcMeCommandHistory
  3
ACME_MODULE_NAME
 90
    32768
280
     1
281
     0
  0
CLASS
  1
AcRfInsAdjusterMgr
  2
AcRfInsAdjusterMgr
  3
ACME_MODULE_NAME
 90
    32768
280
     1
281
     0
  0
CLASS
  1
ACGREFMASTER
  2
AcGrefMaster
  3
"AcadRfServer"
 90
    32768
280
     1
281
     0
  0
CLASS
  1
AmiMaster
  2
AmiMaster
  3
"AmiServices"
 90
    32768
280
     1
281
     0
  0
CLASS
  1
ACASGREFMASTER
  2
AcAsGrefMaster
  3
"AutoSurfResolver"
 90
    32768
280
     1
281
     0
  0
CLASS
  1
ADAPPL
  2
AcAdAppl
  3
"DesignerServices"
 90
    32768
280
     1
281
     0
  0
CLASS
  1
DEPMGR
  2
AcAdDepMgr
  3
"DesignerServices"
 90
    32768
280
     1
281
     0
  0
CLASS
  1
PARAMMGR
  2
AcAdParamMgr
  3
"DesignerServices"
 90
    32768
280
     1
281
     0
  0
CLASS
  1
PARAMSCOPE
  2
AcAdParamScope
  3
"DesignerServices"
 90
    32768
280
     1
281
     0
  0
CLASS
  1
"IM_SYSVAR_MAN"
  2
AcImSysVarManager
  3
"ADAM"
 90
    32768
280
     1
281
     0
  0
CLASS
  1
SYSTEM_VAR_INT
  2
AcImIntSysVar
  3
"ADAM"
 90
    32768
280
     1
281
     0
  0
CLASS
  1
SYSTEM_VAR_REAL
  2
AcImRealSysVar
  3
"ADAM"
 90
    32768
280
     1
281
     0
  0
CLASS
  1
SYSTEM_VAR_STR
  2
AcImStrSysVar
  3
"ADAM"
 90
    32768
280
     1
281
     0
  0
CLASS
  1
NAMEDAPPL
  2
AcAdNamedAppl
  3
"DesignerServices"
 90
    32768
280
     1
281
     0
  0
CLASS
  1
ADPART
  2
AcAdPart
  3
"DesignerServices"
 90
    32768
280
     1
281
     1
  0
CLASS
  1
ADBASE
  2
AcAdBase
  3
"DesignerServices"
 90
    32768
280
     1
281
     0
  0
CLASS
  1
BODYID
  2
AcAdBodyId
  3
"DesignerServices"
 90
    32768
280
     1
281
     0
  0
CLASS
  1
WORKPLANEDISPLAYMGR
  2
AcAdDisplayMgr
  3
"DesignerServices"
 90
    32768
280
     1
281
     0
  0
CLASS
  1
ADHNTMPLT
  2
AdHoleNoteTemplateMgr
  3
"DesignerServices"
 90
    32768
280
     1
281
     0
  0
CLASS
  1
AM_HNTEMPLATE_MGR_NAME
  2
AdHoleNoteTemplateMgrName
  3
"DesignerServices"
 90
    32768
280
     1
281
     0
  0
CLASS
  1
AcAdGrefModule
  2
AcAdGrefModule
  3
AD_GREF_SERVICES_NSTR
 90
    32768
280
     1
281
     0
  0
CLASS
  1
AM_DRAWING_MGR
  2
AcDmDwgMgr
  3
"Designer_Drawing_Mgmt"
 90
    32768
280
     1
281
     0
  0
CLASS
  1
AM_DWG_DOCUMENT
  2
AcDmDwgDocument
  3
"Designer_Drawing_Mgmt"
 90
    32768
280
     1
281
     0
  0
CLASS
  1
AM_DWG_SHEET
  2
AcDmSheet
  3
"Designer_Drawing_Mgmt"
 90
    32768
280
     1
281
     0
  0
CLASS
  1
AM_VIEWDIMPARMAP
  2
AcDmViewDimParMap
  3
"Designer_Drawing_Mgmt"
 90
    32768
280
     1
281
     0
  0
CLASS
  1
AM_DWGMGR_NAME
  2
AcDmDwgMgrName
  3
"Designer_Drawing_Mgmt"
 90
    32768
280
     1
281
     0
  0
CLASS
  1
ACAMPROJECT
  2
AcAmProject
  3
"DesignerAssemblies"
 90
    32768
280
     1
281
     0
  0
CLASS
  1
ACAMGRCOMPDEF
  2
AcAmGrCompDef
  3
"DesignerAssemblies"
 90
    32768
280
     1
281
     0
  0
CLASS
  1
ACAMCOMPDEF
  2
AcAmCompDef
  3
"DesignerAssemblies"
 90
    32768
280
     1
281
     0
  0
CLASS
  1
ACAMCOMPDEFMGR
  2
AcAmCompDefMgr
  3
"DesignerAssemblies"
 90
    32768
280
     1
281
     0
  0
CLASS
  1
AMCONTEXTMGR
  2
AcAmContextMgr
  3
"DesignerAssemblies"
 90
    32768
280
     1
281
     0
  0
CLASS
  1
AcAmContextModeler
  2
AcAmContextModeler
  3
"DesignerAssemblies"
 90
    32768
280
     1
281
     0
  0
CLASS
  1
ACAMDRAWINGMAN
  2
AcAmDrawingMan
  3
"DesignerAssemblies"
 90
    32768
280
     1
281
     0
  0
CLASS
  1
ASSYSVARS
  2
AcAsSysVars
  3
"AutoSurf"
 90
    32768
280
     1
281
     0
  0
CLASS
  1
ASSTATICVARS
  2
AcAsStaticVars
  3
"AutoSurf"
 90
    32768
280
     1
281
     0
  0
CLASS
  1
ASAPP
  2
AcAsAppObject
  3
"AutoSurf"
 90
    32768
280
     1
281
     0
  0
CLASS
  1
AGDICTIONARY
  2
AgDictionary
  3
"AccelView"
 90
    32768
280
     1
281
     0
  0
CLASS
  1
ADDATUMPLANEABS
  2
AcAdDatumPlaneAbs
  3
"DesignerServices"
 90
    32768
280
     1
281
     0
  0
CLASS
  1
ADDATUMAXISABS
  2
AcAdDatumAxisAbs
  3
"DesignerServices"
 90
    32768
280
     1
281
     0
  0
CLASS
  1
ADDATUMORIENTEDPLANE
  2
AcAdDatumOrientedPlane
  3
"DesignerServices"
 90
    32768
280
     1
281
     0
  0
CLASS
  1
ACADPLLINEACAD
  2
AcAdVirtualLinePlineAcad
  3
"DesignerServices"
 90
    32768
280
     1
281
     0
  0
CLASS
  1
ACADREFLINEACAD
  2
AcAdVirtualReferenceLine
  3
"DesignerServices"
 90
    32768
280
     1
281
     0
  0
CLASS
  1
ACADCONSLINE
  2
AcAdConstrainedLine
  3
"DesignerServices"
 90
    32768
280
     1
281
     0
  0
CLASS
  1
ACADCONSGROUP
  2
AcAdConstraintGroup
  3
"DesignerServices"
 90
    32768
280
     1
281
     0
  0
CLASS
  1
ACADIMPPTACAD
  2
AcAdVirtualImplicitPoint
  3
"DesignerServices"
 90
    32768
280
     1
281
     0
  0
CLASS
  1
ACADCONSPOINT
  2
AcAdConstrainedPoint
  3
"DesignerServices"
 90
    32768
280
     1
281
     0
  0
CLASS
  1
ADPCURCNS
  2
AcAdPointCurveConstr
  3
"DesignerServices"
 90
    32768
280
     1
281
     0
  0
CLASS
  1
ADVERCNS
  2
AcAdVerticalConstr
  3
"DesignerServices"
 90
    32768
280
     1
281
     0
  0
CLASS
  1
ADHORCNS
  2
AcAdHorizontalConstr
  3
"DesignerServices"
 90
    32768
280
     1
281
     0
  0
CLASS
  1
ADCLPROF2D
  2
AcAdClosedProfile2d
  3
"DesignerServices"
 90
    32768
280
     1
281
     0
  0
CLASS
  1
ADCONSDISP
  2
AcAdConstraintDisplay
  3
"DesignerServices"
 90
    32768
280
     1
281
     1
  0
CLASS
  1
ADCONSTDSP
  2
AcAdConstraintDisplayTag
  3
"DesignerServices"
 90
    32768
280
     1
281
     1
  0
CLASS
  1
ADPARCNS
  2
AcAdParallelConstr
  3
"DesignerServices"
 90
    32768
280
     1
281
     0
  0
CLASS
  1
PARAM
  2
AcAdParam
  3
"DesignerServices"
 90
    32768
280
     1
281
     0
  0
CLASS
  1
ADVDISTCNS
  2
AcAdLinearDistanceConstr
  3
"DesignerServices"
 90
    32768
280
     1
281
     0
  0
CLASS
  1
ACMELINEARARROW
  2
AcImLinearArrowDisplay
  3
ACME_MODULE_NAME
 90
    32768
280
     1
281
     1
  0
CLASS
  1
ADEXTRUSIONBLIND
  2
AcAdExtrusionBlind
  3
"DesignerServices"
 90
    32768
280
     1
281
     0
  0
CLASS
  1
ACADCIRCLEACAD
  2
AcAdVirtualCircleAcad
  3
"DesignerServices"
 90
    32768
280
     1
281
     0
  0
CLASS
  1
ACADCONSCIRCLE
  2
AcAdConstrainedCircle
  3
"DesignerServices"
 90
    32768
280
     1
281
     0
  0
CLASS
  1
ADCTRPTCNS
  2
AcAdCenterPointConstr
  3
"DesignerServices"
 90
    32768
280
     1
281
     0
  0
CLASS
  1
ADDIACNS
  2
AcAdAcadDiameterConstr
  3
"DesignerServices"
 90
    32768
280
     1
281
     0
  0
CLASS
  1
HVREFID
  2
AcAdHVRefId
  3
"DesignerServices"
 90
    32768
280
     1
281
     0
  0
CLASS
  1
ACADLINEDEPID
  2
AcAdVirtualPointDepId
  3
"DesignerServices"
 90
    32768
280
     1
281
     0
  0
CLASS
  1
ADVDISTCNS
  2
AcAdVerticalDistanceConstr
  3
"DesignerServices"
 90
    32768
280
     1
281
     0
  0
CLASS
  1
ADHDISTCNS
  2
AcAdHorizontalDistanceConstr
  3
"DesignerServices"
 90
    32768
280
     1
281
     0
  0
CLASS
  1
ADFEATRECTARRAY
  2
AcAdRectangularFeatArray
  3
"DesignerServices"
 90
    32768
280
     1
281
     0
  0
CLASS
  1
ADPLANEID
  2
AcAdPlaneId
  3
"DesignerServices"
 90
    32768
280
     1
281
     0
  0
CLASS
  1
ADDATUMPLANEFACE
  2
AcAdDatumPlaneFace
  3
"DesignerServices"
 90
    32768
280
     1
281
     0
  0
CLASS
  1
ADSTRAIGHTID
  2
AcAdStraightId
  3
"DesignerServices"
 90
    32768
280
     1
281
     0
  0
CLASS
  1
ADDATUMAXISEDGE
  2
AcAdDatumAxisEdge
  3
"DesignerServices"
 90
    32768
280
     1
281
     0
  0
CLASS
  1
ACADPLARCACAD
  2
AcAdVirtualArcPlineAcad
  3
"DesignerServices"
 90
    32768
280
     1
281
     0
  0
CLASS
  1
ADCOLNCNS
  2
AcAdColinearConstr
  3
"DesignerServices"
 90
    32768
280
     1
281
     0
  0
CLASS
  1
ADTANCNS
  2
AcAdTangentConstr
  3
"DesignerServices"
 90
    32768
280
     1
281
     0
  0
CLASS
  1
ADEQRADCNS
  2
AcAdEqualRadiusConstr
  3
"DesignerServices"
 90
    32768
280
     1
281
     0
  0
CLASS
  1
STREFID
  2
AcAdStraightRefId
  3
"DesignerServices"
 90
    32768
280
     1
281
     0
  0
CLASS
  1
ACADLINEDEPID
  2
AcAdVirtualLineDepId
  3
"DesignerServices"
 90
    32768
280
     1
281
     0
  0
CLASS
  1
RAYREFID
  2
AcAdRayRefId
  3
"DesignerServices"
 90
    32768
280
     1
281
     0
  0
CLASS
  1
ADPDISTCNS
  2
AcAdParallelDistanceConstr
  3
"DesignerServices"
 90
    32768
280
     1
281
     0
  0
CLASS
  1
ADRADCNS
  2
AcAdAcadRadiusConstr
  3
"DesignerServices"
 90
    32768
280
     1
281
     0
  0
CLASS
  1
ADPERPCNS
  2
AcAdPerpendicularConstr
  3
"DesignerServices"
 90
    32768
280
     1
281
     0
  0
CLASS
  1
CIRREFID
  2
AcAdCircleRefId
  3
"DesignerServices"
 90
    32768
280
     1
281
     0
  0
CLASS
  1
ACADCIRCDEPID
  2
AcAdVirtualCircleDepId
  3
"DesignerServices"
 90
    32768
280
     1
281
     0
  0
CLASS
  1
ADPLANEID
  2
AcAdSurfGeomId
  3
"DesignerServices"
 90
    32768
280
     1
281
     0
  0
CLASS
  1
ADDATUMAXISCENTER
  2
AcAdDatumAxisCenter
  3
"DesignerServices"
 90
    32768
280
     1
281
     0
  0
CLASS
  1
ADDATUMPOINTAXISPLANE
  2
AcAdDatumPointAxisPlane
  3
"DesignerServices"
 90
    32768
280
     1
281
     0
  0
CLASS
  1
ADHOLEFEAT
  2
AcAdHoleFeat
  3
"DesignerServices"
 90
    32768
280
     1
281
     0
  0
CLASS
  1
ADCONCCNS
  2
AcAdConcentricConstr
  3
"DesignerServices"
 90
    32768
280
     1
281
     0
  0
CLASS
  1
ADEXTRUSIONTOPLANE
  2
AcAdExtrusionToPlane
  3
"DesignerServices"
 90
    32768
280
     1
281
     0
  0
CLASS
  1
ADBDISTCNS
  2
AcAdAcadAngleConstr
  3
"DesignerServices"
 90
    32768
280
     1
281
     0
  0
CLASS
  1
ADPATH2D
  2
AcAdPath2d
  3
"DesignerServices"
 90
    32768
280
     1
281
     0
  0
CLASS
  1
DATUMPLANEDISPLAY
  2
AcAdDatumPlaneDisplay
  3
"DesignerServices"
 90
    32768
280
     1
281
     1
  0
CLASS
  1
ADDATUMPLANEXSECT
  2
AcAdDatumPlaneXSect
  3
"DesignerServices"
 90
    32768
280
     1
281
     0
  0
CLASS
  1
DATUMPOINTDISPLAY
  2
AcAdDatumPointDisplay
  3
"DesignerServices"
 90
    32768
280
     1
281
     1
  0
CLASS
  1
ADDATUMPOINTPATHSTART
  2
AcAdDatumPointPathStart
  3
"DesignerServices"
 90
    32768
280
     1
281
     0
  0
CLASS
  1
ACADVIRTUALPOINTDATUMID
  2
AcAdVirtualPointDatumId
  3
"DesignerServices"
 90
    32768
280
     1
281
     0
  0
CLASS
  1
ADSWEEP
  2
AcAdSweep
  3
"DesignerServices"
 90
    32768
280
     1
281
     0
  0
CLASS
  1
ADEXTRUSIONTHRU
  2
AcAdExtrusionThru
  3
"DesignerServices"
 90
    32768
280
     1
281
     0
  0
CLASS
  1
EDGEID
  2
AcAdEdgeId
  3
"DesignerServices"
 90
    32768
280
     1
281
     0
  0
CLASS
  1
ADFILLET
  2
AcAdFillet
  3
"DesignerServices"
 90
    32768
280
     1
281
     0
  0
CLASS
  1
AM_VIEW_SELECT_FILTER
  2
AcDmActivePartViewEntFilter
  3
"Designer_Drawing_Mgmt"
 90
    32768
280
     1
281
     0
  0
CLASS
  1
AM_ABS_PLANE
  2
AcDmAbsPlnDef
  3
DM_MODULE_NAME
 90
    32768
280
     1
281
     0
  0
CLASS
  1
AM_ABS_AXIS
  2
AcDmAbsAxisDef
  3
DM_MODULE_NAME
 90
    32768
280
     1
281
     0
  0
CLASS
  1
AM_BASE_VIEW_ORIENT
  2
AcDmBaseViewOr
  3
"Designer_Drawing_Mgmt"
 90
    32768
280
     1
281
     0
  0
CLASS
  1
AM_DWG_VIEWPORT
  2
AcDmViewport
  3
"Designer_Drawing_Mgmt"
 90
    32768
280
     1
281
     0
  0
CLASS
  1
AM_VIEW_DISPLAY
  2
AcDmDwgViewDisplay
  3
"Designer_Drawing_Mgmt"
 90
    32768
280
     1
281
     0
  0
CLASS
  1
AM_BASE_VIEW
  2
AcDmBaseView
  3
"Designer_Drawing_Mgmt"
 90
    32768
280
     1
281
     0
  0
CLASS
  1
ACDMVWEDLINE
  2
AcDmViewEdgeLine
  3
"Designer_Drawing_Mgmt"
 90
    32768
280
     1
281
     1
  0
CLASS
  1
ACDMVWEDARC
  2
AcDmViewEdgeArc
  3
"Designer_Drawing_Mgmt"
 90
    32768
280
     1
281
     1
  0
CLASS
  1
ACDMVWEDSPLINE
  2
AcDmViewEdgeSpline
  3
"Designer_Drawing_Mgmt"
 90
    32768
280
     1
281
     1
  0
CLASS
  1
ACDMVWEDCIRC
  2
AcDmViewEdgeCircle
  3
"Designer_Drawing_Mgmt"
 90
    32768
280
     1
281
     1
  0
CLASS
  1
ACADSKETCHPOINTRES
  2
AcAdSketchPointRes
  3
"DesignerServices"
 90
    32768
280
     1
281
     0
  0
CLASS
  1
ACADSKETCHCIRCARCRES
  2
AcAdSketchCircArcRes
  3
"DesignerServices"
 90
    32768
280
     1
281
     0
  0
CLASS
  1
ACADSKETCHLINERES
  2
AcAdSketchLineRes
  3
"DesignerServices"
 90
    32768
280
     1
281
     0
  0
CLASS
  1
AM_VIEWDIMLINEAR
  2
AcDmViewDimLinear
  3
"Designer_Drawing_Mgmt"
 90
    32768
280
     1
281
     0
  0
CLASS
  1
AM_VIEWDIMDIAMETER
  2
AcDmViewDimDiameter
  3
"Designer_Drawing_Mgmt"
 90
    32768
280
     1
281
     0
  0
CLASS
  1
AM_VIEWDIMRADIUS
  2
AcDmViewDimRadius
  3
"Designer_Drawing_Mgmt"
 90
    32768
280
     1
281
     0
  0
CLASS
  1
AM_VIEWDIMPARALLEL
  2
AcDmViewDimParallel
  3
"Designer_Drawing_Mgmt"
 90
    32768
280
     1
281
     0
  0
CLASS
  1
AM_VIEWDIMANGULAR
  2
AcDmViewDimAngular
  3
"Designer_Drawing_Mgmt"
 90
    32768
280
     1
281
     0
  0
CLASS
  1
AM_ORTHO_VIEW_ORIENT
  2
AcDmOrthoViewOr
  3
"Designer_Drawing_Mgmt"
 90
    32768
280
     1
281
     0
  0
CLASS
  1
AM_ORTHO_VIEW
  2
AcDmOrthoView
  3
"Designer_Drawing_Mgmt"
 90
    32768
280
     1
281
     0
  0
CLASS
  1
CNRREFID
  2
AcAdCornerId
  3
"DesignerServices"
 90
    32768
280
     1
281
     0
  0
CLASS
  1
ACADPARTPOINTRES
  2
AcAdPartPointRes
  3
AD_GREF_SERVICES_NSTR
 90
    32768
280
     1
281
     0
  0
CLASS
  1
ACADPartSketchPlaneAxisRes
  2
AcAdPartSketchPlaneAxisRes
  3
"DesignerServices"
 90
    32768
280
     1
281
     0
  0
CLASS
  1
AM_ISO_VIEW_ORIENT
  2
AcDmIsoViewOr
  3
"Designer_Drawing_Mgmt"
 90
    32768
280
     1
281
     0
  0
CLASS
  1
AM_ISO_VIEW
  2
AcDmIsoView
  3
"Designer_Drawing_Mgmt"
 90
    32768
280
     1
281
     0
  0
CLASS
  1
ACADPARTLINEDGRES
  2
AcAdPartLinEdgRes
  3
AD_GREF_SERVICES_NSTR
 90
    32768
280
     1
281
     0
  0
CLASS
  1
AcAdPartCircEdgRES
  2
AcAdPartCircEdgRes
  3
AD_GREF_SERVICES_NSTR
 90
    32768
280
     1
281
     0
  0
CLASS
  1
ACDMVISEDIT
  2
AcDmViewEntityVisEdit
  3
"Designer_Drawing_Mgmt"
 90
    32768
280
     1
281
     0
  0
CLASS
  1
SILEDGEID
  2
AcAdSilhouetteEdgeId
  3
"DesignerServices"
 90
    32768
280
     1
281
     0
  0
CLASS
  1
ACAMGRCOMPSET
  2
AcAmGrCompSet
  3
DesignerAssemblies
 90
    32768
280
     1
281
     0
  0
CLASS
  1
ACAMGRCOMPDEFSET
  2
AcAmGrCompDefSet
  3
DesignerAssemblies
 90
    32768
280
     1
281
     0
  0
CLASS
  1
ACDMVIEWGEOM
  2
AcDmViewGeometry
  3
AcMechDwgViewMgmt
 90
    32768
280
     1
281
     1
  0
CLASS
  1
ACADCIRCLEACAD
  2
AcAdVirtualVertex
  3
DesignerServices
 90
    32768
280
     1
281
     0
  0
CLASS
  1
ACADCIRCLEACAD
  2
AcAdVirtualContainer
  3
DesignerServices
 90
    32768
280
     1
281
     0
  0
CLASS
  1
ELLREFID
  2
AcAdEllipseRefId
  3
DesignerServices
 90
    32768
280
     1
281
     0
  0
CLASS
  1
ACADELLDEPID
  2
AcAdVirtualEllipseDepId
  3
DesignerServices
 90
    32768
280
     1
281
     0
  0
CLASS
  1
ACADCONSELL
  2
AcAdConstrainedEllipse
  3
DesignerServices
 90
    32768
280
     1
281
     0
  0
CLASS
  1
ADPROJCNS
  2
AcAdProjectionConstr
  3
DesignerServices
 90
    32768
280
     1
281
     0
  0
CLASS
  1
ACADPARTELLIPSEEDGERES
  2
AcAdPartEllipseEdgeRes
  3
AD_GREF_SERVICES_NSTR
 90
    32768
280
     1
281
     0
  0
CLASS
  1
AM_DETAIL_VIEW
  2
AcDmDetailView
  3
AcMechDwgViewMgmt
 90
    32768
280
     1
281
     0
  0
CLASS
  1
AM_DETAILSYMBOL
  2
AcDmDetailSymbol
  3
AcMechDwgViewMgmt
 90
    32768
280
     1
281
     0
  0
CLASS
  1
AM_DETAILVWLBL
  2
AcDmDetailViewLabel
  3
AcMechDwgViewMgmt
 90
    32768
280
     1
281
     0
  0
CLASS
  1
AM_FULLPOINTSECTION
  2
AcDmFullPointSection
  3
AcMechDwgViewMgmt
 90
    32768
280
     1
281
     0
  0
CLASS
  1
AM_SECTIONSYMBOL
  2
AcDmSectionSymbol
  3
AcMechDwgViewMgmt
 90
    32768
280
     1
281
     0
  0
CLASS
  1
AM_VIEWLABEL
  2
AcDmViewLabel
  3
AcMechDwgViewMgmt
 90
    32768
280
     1
281
     0
  0
CLASS
  1
LWPOLYLINE
  2
AcDbPolyline
  3
"AutoCAD"
 90
    32768
280
     0
281
     1
  0
CLASS
  1
DxfZombieEntity
  2
AcDbDxfZombieEntity
  3
AutoCAD
 90
        0
280
     1
281
     1
  0
CLASS
  1
DxfZombieObject
  2
AcDbDxfZombieObject
  3
AutoCAD
 90
        0
280
     1
281
     0
  0
ENDSEC
  0
SECTION
  2
TABLES
  0
TABLE
  2
VPORT
  5
12
100
AcDbSymbolTable
 70
     5
  0
VPORT
  5
C02
100
AcDbSymbolTableRecord
100
AcDbViewportTableRecord
  2
*ACTIVE
 70
     0
 10
0.0
 20
0.0
 11
1.0
 21
1.0
 12
323.001537750231
 22
-198.2156493309029
 13
0.0
 23
0.0
 14
10.0
 24
10.0
 15
10.0
 25
10.0
 16
0.0
 26
0.0
 36
1.0
 17
-440.2172382497051
 27
196.6687939211121
 37
177.4349090934998
 40
400.0000000420916
 41
1.672965116279069
 42
50.0
 43
0.0
 44
0.0
 50
0.0
 51
0.0
 71
     0
 72
  1000
 73
     1
 74
     1
 75
     0
 76
     0
 77
     0
 78
     0
  0
ENDTAB
  0
TABLE
  2
LTYPE
  5
D
100
AcDbSymbolTable
 70
     3
  0
LTYPE
  5
E
100
AcDbSymbolTableRecord
100
AcDbLinetypeTableRecord
  2
BYBLOCK
 70
    64
  3

 72
    65
 73
     0
 40
0.0
  0
LTYPE
  5
F
100
AcDbSymbolTableRecord
100
AcDbLinetypeTableRecord
  2
BYLAYER
 70
    64
  3

 72
    65
 73
     0
 40
0.0
  0
LTYPE
  5
5
100
AcDbSymbolTableRecord
100
AcDbLinetypeTableRecord
  2
CONTINUOUS
 70
    64
  3
Solid line
 72
    65
 73
     0
 40
0.0
  0
LTYPE
  5
1C
100
AcDbSymbolTableRecord
100
AcDbLinetypeTableRecord
  2
HIDDEN
 70
    64
  3
__ __ __ __ __ __ __ __ __ __ __ __ __ __ __ __
 72
    65
 73
     2
 40
0.375
 49
0.25
 74
     0
 49
-0.125
 74
     0
  0
LTYPE
  5
27
100
AcDbSymbolTableRecord
100
AcDbLinetypeTableRecord
  2
CENTER
 70
    64
  3
____ _ ____ _ ____ _ ____ _ ____ _ ____ _ ____ 
 72
    65
 73
     4
 40
2.0
 49
1.25
 74
     0
 49
-0.25
 74
     0
 49
0.25
 74
     0
 49
-0.25
 74
     0
  0
ENDTAB
  0
TABLE
  2
LAYER
  5
A
100
AcDbSymbolTable
 70
     4
  0
LAYER
  5
4
100
AcDbSymbolTableRecord
100
AcDbLayerTableRecord
  2
0
 70
    64
 62
     7
  6
CONTINUOUS
  0
LAYER
  5
1B
100
AcDbSymbolTableRecord
100
AcDbLayerTableRecord
  2
L2
 70
    64
 62
     1
  6
HIDDEN
  0
LAYER
  5
21
100
AcDbSymbolTableRecord
100
AcDbLayerTableRecord
  2
L1
 70
    64
 62
     7
  6
CONTINUOUS
  0
LAYER
  5
26
100
AcDbSymbolTableRecord
100
AcDbLayerTableRecord
  2
L6
 70
    64
 62
     1
  6
CENTER
  0
ENDTAB
  0
TABLE
  2
STYLE
  5
B
100
AcDbSymbolTable
 70
     2
  0
STYLE
  5
C
100
AcDbSymbolTableRecord
100
AcDbTextStyleTableRecord
  2
STANDARD
 70
    64
 40
0.0
 41
1.0
 50
0.0
 71
     0
 42
2.5
  3
ISOCP
  4

  0
STYLE
  5
1D
100
AcDbSymbolTableRecord
100
AcDbTextStyleTableRecord
  2
SIMPLEX
 70
    64
 40
0.0
 41
0.8
 50
0.0
 71
     0
 42
2.5
  3
SIMPLEX.SHX
  4

  0
ENDTAB
  0
TABLE
  2
VIEW
  5
10
100
AcDbSymbolTable
 70
     0
  0
ENDTAB
  0
TABLE
  2
UCS
  5
11
100
AcDbSymbolTable
 70
     0
  0
ENDTAB
  0
TABLE
  2
APPID
  5
14
100
AcDbSymbolTable
 70
     1
  0
APPID
  5
15
100
AcDbSymbolTableRecord
100
AcDbRegAppTableRecord
  2
ACAD
 70
    64
  0
ENDTAB
  0
TABLE
  2
DIMSTYLE
  5
16
100
AcDbSymbolTable
 70
     1
  0
DIMSTYLE
105
1F
100
AcDbSymbolTableRecord
100
AcDbDimStyleTableRecord
  2
FIBOX
 70
    64
  3

  4

  5

  6

  7

 40
1.0
 41
3.5
 42
0.1
 43
0.38
 44
0.18
 45
0.0
 46
0.0
 47
0.0
 48
0.0
140
3.5
141
1.0
142
0.0
143
25.4
144
1.0
145
0.0
146
1.0
147
1.0
 71
     0
 72
     0
 73
     0
 74
     0
 75
     0
 76
     0
 77
     1
 78
     8
170
     0
171
     2
172
     1
173
     0
174
     0
175
     0
176
     1
177
     1
178
     3
270
     2
271
     1
272
     2
273
     2
274
     2
340
1D
275
     0
280
     0
281
     0
282
     0
283
     1
284
     8
285
     0
286
     0
287
     3
288
     0
  0
ENDTAB
  0
TABLE
  2
BLOCK_RECORD
  5
1
100
AcDbSymbolTable
 70
     0
  0
BLOCK_RECORD
  5
2
100
AcDbSymbolTableRecord
100
AcDbBlockTableRecord
  2
*MODEL_SPACE
  0
BLOCK_RECORD
  5
7
100
AcDbSymbolTableRecord
100
AcDbBlockTableRecord
  2
*PAPER_SPACE
  0
ENDTAB
  0
ENDSEC
  0
SECTION
  2
BLOCKS
  0
BLOCK
  5
3
100
AcDbEntity
  8
0
100
AcDbBlockBegin
  2
*MODEL_SPACE
 70
    64
 10
0.0
 20
0.0
 30
0.0
  3
*MODEL_SPACE
  1

  0
ENDBLK
  5
6
100
AcDbEntity
  8
0
100
AcDbBlockEnd
  0
BLOCK
  5
8
100
AcDbEntity
 67
     1
  8
0
100
AcDbBlockBegin
  2
*PAPER_SPACE
 70
    64
 10
0.0
 20
0.0
 30
0.0
  3
*PAPER_SPACE
  1

  0
ENDBLK
  5
9
100
AcDbEntity
 67
     1
  8
0
100
AcDbBlockEnd
  0
ENDSEC
  0
SECTION
  2
ENTITIES
  0
LINE
  5
20
100
AcDbEntity
  8
L1
100
AcDbLine
 10
89.55703282317893
 20
178.1335674660516
 30
0.0
 11
-89.27268985814089
 21
178.1335674660516
 31
0.0
  0
LINE
  5
22
100
AcDbEntity
  8
L1
100
AcDbLine
 10
75.68924605283962
 20
129.1335674660516
 30
0.0
 11
-75.40490308780158
 21
129.1335674660516
 31
0.0
  0
LINE
  5
23
100
AcDbEntity
  8
L1
100
AcDbLine
 10
89.55703282317893
 20
-178.1335674660516
 30
0.0
 11
-89.27268985814089
 21
-178.1335674660516
 31
0.0
  0
LINE
  5
24
100
AcDbEntity
  8
L1
100
AcDbLine
 10
75.68924605283962
 20
-129.1335674660516
 30
0.0
 11
-75.40490308780158
 21
-129.1335674660516
 31
0.0
  0
LINE
  5
25
100
AcDbEntity
  8
L6
100
AcDbLine
 10
-99.99857870842312
 20
0.0
 30
0.0
 11
99.99857870842312
 21
0.0
 31
0.0
  0
LINE
  5
29
100
AcDbEntity
  8
L1
100
AcDbLine
 10
72.15000000000009
 20
-89.27268985814084
 30
0.0
 11
-72.14999999999998
 21
-89.27268985814084
 31
0.0
  0
LINE
  5
2A
100
AcDbEntity
  8
L1
100
AcDbLine
 10
-72.15000000000009
 20
89.27268985814071
 30
0.0
 11
72.14999999999998
 21
89.27268985814071
 31
0.0
  0
LINE
  5
2B
100
AcDbEntity
  8
L1
100
AcDbLine
 10
-86.54999999999995
 20
-89.44999999999998
 30
0.0
 11
86.55000000000001
 21
-89.44999999999998
 31
0.0
  0
LINE
  5
2C
100
AcDbEntity
  8
L1
100
AcDbLine
 10
86.54494244821012
 20
-90.04480917893472
 30
0.0
 11
-86.54494244821012
 21
-90.04480917893472
 31
0.0
  0
LINE
  5
2D
100
AcDbEntity
  8
L1
100
AcDbLine
 10
86.55000000000006
 20
89.44999999999998
 30
0.0
 11
-86.54999999999995
 21
89.44999999999998
 31
0.0
  0
LINE
  5
2E
100
AcDbEntity
  8
L1
100
AcDbLine
 10
71.94858692778655
 20
-84.02063810469469
 30
0.0
 11
-71.94858692778666
 21
-84.02063810469469
 31
0.0
  0
LINE
  5
2F
100
AcDbEntity
  8
L1
100
AcDbLine
 10
-71.94858692778666
 20
84.02063810469456
 30
0.0
 11
71.94858692778666
 21
84.02063810469469
 31
0.0
  0
LINE
  5
30
100
AcDbEntity
  8
L1
100
AcDbLine
 10
-86.54494244821012
 20
90.04480917893472
 30
0.0
 11
86.54494244821012
 21
90.04480917893472
 31
0.0
  0
LINE
  5
31
100
AcDbEntity
  8
L1
100
AcDbLine
 10
-72.14999999999998
 20
-86.62721114182602
 30
0.0
 11
72.15000000000009
 21
-86.62721114182602
 31
0.0
  0
LINE
  5
32
100
AcDbEntity
  8
L1
100
AcDbLine
 10
72.14999999999998
 20
86.62721114182597
 30
0.0
 11
-72.15000000000009
 21
86.62721114182597
 31
0.0
  0
LINE
  5
33
100
AcDbEntity
  8
L6
100
AcDbLine
 10
-345.5132462872934
 20
-99.99857870842305
 30
0.0
 11
-345.5132462872934
 21
99.99857870842317
 31
0.0
  0
LINE
  5
34
100
AcDbEntity
  8
L2
100
AcDbLine
 10
-143.5795194368649
 20
72.548564081625
 30
0.0
 11
-143.5795194368649
 21
-72.54856408162499
 31
0.0
  0
LINE
  5
35
100
AcDbEntity
  8
L1
100
AcDbLine
 10
-140.5795194368649
 20
75.14094883660965
 30
0.0
 11
-140.5795194368649
 21
-75.14094883656702
 31
0.0
  0
LINE
  5
36
100
AcDbEntity
  8
L1
100
AcDbLine
 10
-188.9847102579301
 20
-90.04480917893472
 30
0.0
 11
-188.9847102579301
 21
90.0448091789347
 31
0.0
  0
LINE
  5
37
100
AcDbEntity
  8
L1
100
AcDbLine
 10
-189.579519436865
 20
89.44999999999993
 30
0.0
 11
-189.579519436865
 21
-89.44999999999996
 31
0.0
  0
LINE
  5
38
100
AcDbEntity
  8
L1
100
AcDbLine
 10
-89.27268985814079
 20
-72.15000000000003
 30
0.0
 11
-89.27268985814079
 21
72.14999999999992
 31
0.0
  0
LINE
  5
39
100
AcDbEntity
  8
L1
100
AcDbLine
 10
-90.04480917893465
 20
-86.54494244821012
 30
0.0
 11
-90.04480917893465
 21
86.54494244821018
 31
0.0
  0
LINE
  5
3A
100
AcDbEntity
  8
L1
100
AcDbLine
 10
-89.44999999999993
 20
86.55000000000001
 30
0.0
 11
-89.44999999999993
 21
-86.55000000000001
 31
0.0
  0
LINE
  5
3B
100
AcDbEntity
  8
L1
100
AcDbLine
 10
-84.02063810469462
 20
-71.94858692778666
 30
0.0
 11
-84.02063810469462
 21
71.94858692778649
 31
0.0
  0
LINE
  5
3C
100
AcDbEntity
  8
L1
100
AcDbLine
 10
-86.62721114182591
 20
72.14999999999992
 30
0.0
 11
-86.62721114182591
 21
-72.15000000000009
 31
0.0
  0
LINE
  5
3D
100
AcDbEntity
  8
L1
100
AcDbLine
 10
-435.5580554662282
 20
86.54494244821007
 30
0.0
 11
-435.5580554662282
 21
-86.54494244821018
 31
0.0
  0
LINE
  5
3E
100
AcDbEntity
  8
L1
100
AcDbLine
 10
-255.4684371083587
 20
-86.54494244821012
 30
0.0
 11
-255.4684371083587
 21
86.54494244821018
 31
0.0
  0
LINE
  5
3F
100
AcDbEntity
  8
L1
100
AcDbLine
 10
-255.8865374528061
 20
-75.12615673989689
 30
0.0
 11
-255.8865374528061
 21
75.12615673993997
 31
0.0
  0
LINE
  5
40
100
AcDbEntity
  8
L1
100
AcDbLine
 10
-435.1399551217808
 20
75.126156739902
 30
0.0
 11
-435.1399551217808
 21
-75.12615673993997
 31
0.0
  0
LINE
  5
41
100
AcDbEntity
  8
L6
100
AcDbLine
 10
-445.5118249957165
 20
0.0
 30
0.0
 11
-245.5146675788703
 21
0.0
 31
0.0
  0
LINE
  5
42
100
AcDbEntity
  8
L1
100
AcDbLine
 10
-432.0581887355035
 20
-90.04480917893472
 30
0.0
 11
-258.9683038390834
 21
-90.04480917893472
 31
0.0
  0
LINE
  5
43
100
AcDbEntity
  8
L1
100
AcDbLine
 10
-420.6394030271987
 20
-89.62670883448737
 30
0.0
 11
-270.3870895473535
 21
-89.62670883448737
 31
0.0
  0
LINE
  5
44
100
AcDbEntity
  8
L6
100
AcDbLine
 10
-427.2632462872935
 20
-88.03088265810066
 30
0.0
 11
-427.2632462872935
 21
-75.45130511101859
 31
0.0
  0
ELLIPSE
  5
45
100
AcDbEntity
  8
L1
100
AcDbEllipse
 10
-434.8109137281822
 20
-77.49716484343434
 30
0.0
 11
0.0
 21
-1.696497829367981
 31
0.0
210
0.0
220
0.0
230
1.0
 40
0.0087265354983808
 41
-3.132866339598172
 42
-1.570796326794896
  0
LINE
  5
46
100
AcDbEntity
  8
L1
100
AcDbLine
 10
-432.4242810291683
 20
-85.81362995559221
 30
0.0
 11
-432.4242810291683
 21
-75.21102331877068
 31
0.0
  0
LINE
  5
47
100
AcDbEntity
  8
L1
100
AcDbLine
 10
-434.4294714566498
 20
-75.21102331877068
 30
0.0
 11
-434.4294714566498
 21
-86.11633178475335
 31
0.0
  0
ARC
  5
48
100
AcDbEntity
  8
L1
100
AcDbCircle
 10
-427.5181493751181
 20
-82.0049030878016
 30
0.0
 40
7.000000000000105
100
AcDbArc
 50
359.9999999999988
 51
90.0
  0
POLYLINE
  5
49
100
AcDbEntity
  8
L1
100
AcDb2dPolyline
 66
     1
 10
0.0
 20
0.0
 30
0.0
  0
VERTEX
  5
4BD
100
AcDbEntity
  8
L1
100
AcDbVertex
100
AcDb2dVertex
 10
-435.5580518439267
 20
-86.54999999999995
 30
0.0
  0
VERTEX
  5
4BE
100
AcDbEntity
  8
L1
100
AcDbVertex
100
AcDb2dVertex
 10
-435.4920271006464
 20
-87.22163427376234
 30
0.0
  0
VERTEX
  5
4BF
100
AcDbEntity
  8
L1
100
AcDbVertex
100
AcDb2dVertex
 10
-435.2907003616788
 20
-87.88663729905215
 30
0.0
  0
VERTEX
  5
4C0
100
AcDbEntity
  8
L1
100
AcDbVertex
100
AcDb2dVertex
 10
-434.9619721112979
 20
-88.49876236080637
 30
0.0
  0
VERTEX
  5
4C1
100
AcDbEntity
  8
L1
100
AcDbVertex
100
AcDb2dVertex
 10
-434.53300226286
 20
-89.01975597554359
 30
0.0
  0
VERTEX
  5
4C2
100
AcDbEntity
  8
L1
100
AcDbVertex
100
AcDb2dVertex
 10
-434.0120086481229
 20
-89.44872582398136
 30
0.0
  0
VERTEX
  5
4C3
100
AcDbEntity
  8
L1
100
AcDbVertex
100
AcDb2dVertex
 10
-433.3998835863686
 20
-89.77745407436236
 30
0.0
  0
VERTEX
  5
4C4
100
AcDbEntity
  8
L1
100
AcDbVertex
100
AcDb2dVertex
 10
-432.7348805610789
 20
-89.97878081332965
 30
0.0
  0
VERTEX
  5
4C5
100
AcDbEntity
  8
L1
100
AcDbVertex
100
AcDb2dVertex
 10
-432.0632462873166
 20
-90.04480555661007
 30
0.0
  0
SEQEND
  5
4C6
100
AcDbEntity
  8
L1
  0
LINE
  5
4A
100
AcDbEntity
  8
L1
100
AcDbLine
 10
-420.5181493751179
 20
-82.00490308780173
 30
0.0
 11
-420.5181493751181
 21
-86.90490308780136
 31
0.0
  0
LINE
  5
4B
100
AcDbEntity
  8
L1
100
AcDbLine
 10
-426.802517192375
 20
-86.21368138797254
 30
0.0
 11
-424.5840133385545
 21
-85.61923507193602
 31
0.0
  0
ARC
  5
4C
100
AcDbEntity
  8
L1
100
AcDbCircle
 10
-431.326876242909
 20
-85.81362995559221
 30
0.0
 40
1.097404786259232
100
AcDbArc
 50
180.0
 51
270.0
  0
LINE
  5
4D
100
AcDbEntity
  8
L1
100
AcDbLine
 10
-429.480867166016
 20
-85.90107538765414
 30
0.0
 11
-427.9718714894744
 21
-86.1671520392008
 31
0.0
  0
ARC
  5
4E
100
AcDbEntity
  8
L1
100
AcDbCircle
 10
-427.2632462873165
 20
-81.74999999999988
 30
0.0
 40
4.70630101413334
100
AcDbArc
 50
304.7004760816999
 51
145.2995239183055
  0
LINE
  5
4F
100
AcDbEntity
  8
L1
100
AcDbLine
 10
-434.825718276713
 20
-86.51257860481655
 30
0.0
 11
-434.825718276713
 21
-77.49716484343434
 31
0.0
  0
LINE
  5
50
100
AcDbEntity
  8
L1
100
AcDbLine
 10
-423.0104111307509
 20
-89.31247198939628
 30
0.0
 11
-432.0258248921334
 21
-89.31247198939628
 31
0.0
  0
LINE
  5
51
100
AcDbEntity
  8
L1
100
AcDbLine
 10
-426.7850634567934
 20
-86.86563218274306
 30
0.0
 11
-428.0414176947588
 21
-86.86563218274306
 31
0.0
  0
LINE
  5
52
100
AcDbEntity
  8
L1
100
AcDbLine
 10
-420.7242696060875
 20
-86.91103474185149
 30
0.0
 11
-431.326876242909
 21
-86.91103474185149
 31
0.0
  0
LINE
  5
53
100
AcDbEntity
  8
L1
100
AcDbLine
 10
-431.62957807207
 20
-88.91622516933308
 30
0.0
 11
-420.7242696060875
 21
-88.91622516933308
 31
0.0
  0
ARC
  5
54
100
AcDbEntity
  8
L1
100
AcDbCircle
 10
-428.0747874605658
 20
-86.50960726819432
 30
0.0
 40
0.3575853479233129
100
AcDbArc
 50
275.3546174105725
 51
73.2732224881472
  0
LINE
  5
55
100
AcDbEntity
  8
L1
100
AcDbLine
 10
-428.0457811286543
 20
-86.86126874884768
 30
0.0
 11
-428.0414176947589
 21
-86.86563218274306
 31
0.0
  0
POLYLINE
  5
56
100
AcDbEntity
  8
L1
100
AcDb2dPolyline
 66
     1
 10
0.0
 20
0.0
 30
0.0
  0
VERTEX
  5
4C7
100
AcDbEntity
  8
L1
100
AcDbVertex
100
AcDb2dVertex
 10
-434.4294714566498
 20
-86.11633178475335
 30
0.0
  0
VERTEX
  5
4C8
100
AcDbEntity
  8
L1
100
AcDbVertex
100
AcDb2dVertex
 10
-434.4141314028349
 20
-86.40900505734714
 30
0.0
  0
VERTEX
  5
4C9
100
AcDbEntity
  8
L1
100
AcDbVertex
100
AcDb2dVertex
 10
-434.3682840695946
 20
-86.69846996520869
 30
0.0
  0
VERTEX
  5
4CA
100
AcDbEntity
  8
L1
100
AcDbVertex
100
AcDb2dVertex
 10
-434.2924317212466
 20
-86.9815553774481
 30
0.0
  0
VERTEX
  5
4CB
100
AcDbEntity
  8
L1
100
AcDbVertex
100
AcDb2dVertex
 10
-434.1874053314894
 20
-87.25516005149358
 30
0.0
  0
VERTEX
  5
4CC
100
AcDbEntity
  8
L1
100
AcDbVertex
100
AcDb2dVertex
 10
-434.0543554799607
 20
-87.51628660766334
 30
0.0
  0
VERTEX
  5
4CD
100
AcDbEntity
  8
L1
100
AcDbVertex
100
AcDb2dVertex
 10
-433.8947397474676
 20
-87.76207436590254
 30
0.0
  0
VERTEX
  5
4CE
100
AcDbEntity
  8
L1
100
AcDbVertex
100
AcDb2dVertex
 10
-433.7103067479736
 20
-87.98983068495704
 30
0.0
  0
VERTEX
  5
4CF
100
AcDbEntity
  8
L1
100
AcDbVertex
100
AcDb2dVertex
 10
-433.5030769722739
 20
-88.19706046065688
 30
0.0
  0
VERTEX
  5
4D0
100
AcDbEntity
  8
L1
100
AcDbVertex
100
AcDb2dVertex
 10
-433.2753206532193
 20
-88.38149346015075
 30
0.0
  0
VERTEX
  5
4D1
100
AcDbEntity
  8
L1
100
AcDbVertex
100
AcDb2dVertex
 10
-433.0295328949802
 20
-88.54110919264394
 30
0.0
  0
VERTEX
  5
4D2
100
AcDbEntity
  8
L1
100
AcDbVertex
100
AcDb2dVertex
 10
-432.7684063388104
 20
-88.67415904417271
 30
0.0
  0
VERTEX
  5
4D3
100
AcDbEntity
  8
L1
100
AcDbVertex
100
AcDb2dVertex
 10
-432.4948016647648
 20
-88.77918543392979
 30
0.0
  0
VERTEX
  5
4D4
100
AcDbEntity
  8
L1
100
AcDbVertex
100
AcDb2dVertex
 10
-432.2117162525254
 20
-88.8550377822777
 30
0.0
  0
VERTEX
  5
4D5
100
AcDbEntity
  8
L1
100
AcDbVertex
100
AcDb2dVertex
 10
-431.9222513446638
 20
-88.90088511551812
 30
0.0
  0
VERTEX
  5
4D6
100
AcDbEntity
  8
L1
100
AcDbVertex
100
AcDb2dVertex
 10
-431.62957807207
 20
-88.91622516933296
 30
0.0
  0
SEQEND
  5
4D7
100
AcDbEntity
  8
L1
  0
POLYLINE
  5
57
100
AcDbEntity
  8
L1
100
AcDb2dPolyline
 66
     1
 10
0.0
 20
0.0
 30
0.0
  0
VERTEX
  5
4D8
100
AcDbEntity
  8
L1
100
AcDbVertex
100
AcDb2dVertex
 10
-432.0258248921334
 20
-89.31247198939628
 30
0.0
  0
VERTEX
  5
4D9
100
AcDbEntity
  8
L1
100
AcDbVertex
100
AcDb2dVertex
 10
-432.3633251967085
 20
-89.29206062352125
 30
0.0
  0
VERTEX
  5
4DA
100
AcDbEntity
  8
L1
100
AcDbVertex
100
AcDb2dVertex
 10
-432.6959010211912
 20
-89.23111863372866
 30
0.0
  0
VERTEX
  5
4DB
100
AcDbEntity
  8
L1
100
AcDbVertex
100
AcDb2dVertex
 10
-433.0187031308099
 20
-89.13053460540027
 30
0.0
  0
VERTEX
  5
4DC
100
AcDbEntity
  8
L1
100
AcDbVertex
100
AcDb2dVertex
 10
-433.3270247997628
 20
-88.99177513812526
 30
0.0
  0
VERTEX
  5
4DD
100
AcDbEntity
  8
L1
100
AcDbVertex
100
AcDb2dVertex
 10
-433.6163704392311
 20
-88.81686346144737
 30
0.0
  0
VERTEX
  5
4DE
100
AcDbEntity
  8
L1
100
AcDbVertex
100
AcDb2dVertex
 10
-433.8825211468396
 20
-88.60834993447872
 30
0.0
  0
VERTEX
  5
4DF
100
AcDbEntity
  8
L1
100
AcDbVertex
100
AcDb2dVertex
 10
-434.1215962217956
 20
-88.36927485952287
 30
0.0
  0
VERTEX
  5
4E0
100
AcDbEntity
  8
L1
100
AcDbVertex
100
AcDb2dVertex
 10
-434.3301097487641
 20
-88.10312415191436
 30
0.0
  0
VERTEX
  5
4E1
100
AcDbEntity
  8
L1
100
AcDbVertex
100
AcDb2dVertex
 10
-434.505021425442
 20
-87.81377851244599
 30
0.0
  0
VERTEX
  5
4E2
100
AcDbEntity
  8
L1
100
AcDbVertex
100
AcDb2dVertex
 10
-434.643780892717
 20
-87.50545684349322
 30
0.0
  0
VERTEX
  5
4E3
100
AcDbEntity
  8
L1
100
AcDbVertex
100
AcDb2dVertex
 10
-434.7443649210455
 20
-87.18265473387441
 30
0.0
  0
VERTEX
  5
4E4
100
AcDbEntity
  8
L1
100
AcDbVertex
100
AcDb2dVertex
 10
-434.8053069108381
 20
-86.85007890939175
 30
0.0
  0
VERTEX
  5
4E5
100
AcDbEntity
  8
L1
100
AcDbVertex
100
AcDb2dVertex
 10
-434.825718276713
 20
-86.51257860481655
 30
0.0
  0
SEQEND
  5
4E6
100
AcDbEntity
  8
L1
  0
ELLIPSE
  5
58
100
AcDbEntity
  8
L1
100
AcDbEllipse
 10
-420.7242696060875
 20
-87.21102331877068
 30
0.0
 11
-0.2121320343559519
 21
0.2121320343559682
 31
0.0
210
0.0
220
0.0
230
1.0
 40
0.9999238504775703
 41
-2.356156413981367
 42
-0.7854362396083489
  0
ELLIPSE
  5
59
100
AcDbEntity
  8
L1
100
AcDbEllipse
 10
-420.7242696060876
 20
-88.61623659241377
 30
0.0
 11
0.2121320343562742
 21
0.212132034355646
 31
0.0
210
0.0
220
0.0
230
1.0
 40
0.9999238504775703
 41
-2.356156413979925
 42
-0.7854362396069068
  0
LINE
  5
5A
100
AcDbEntity
  8
L1
100
AcDbLine
 10
-420.4242810291683
 20
-88.61623659241377
 30
0.0
 11
-420.4242810291683
 21
-87.21102331877068
 31
0.0
  0
LINE
  5
5B
100
AcDbEntity
  8
L1
100
AcDbLine
 10
-420.5181493751181
 20
-86.90490308780136
 30
0.0
 11
-420.7181379520376
 21
-86.90490308780136
 31
0.0
  0
LINE
  5
5C
100
AcDbEntity
  8
L1
100
AcDbLine
 10
-420.7181379520376
 20
-86.90490308780146
 30
0.0
 11
-420.7242696060876
 21
-86.91103474185149
 31
0.0
  0
POLYLINE
  5
5D
100
AcDbEntity
  8
L1
100
AcDb2dPolyline
 66
     1
 10
0.0
 20
0.0
 30
0.0
  0
VERTEX
  5
4E7
100
AcDbEntity
  8
L1
100
AcDbVertex
100
AcDb2dVertex
 10
-420.9385380888989
 20
-88.92235682338299
 30
0.0
  0
VERTEX
  5
4E8
100
AcDbEntity
  8
L1
100
AcDbVertex
100
AcDb2dVertex
 10
-420.7634514795978
 20
-88.97874963208005
 30
0.0
  0
VERTEX
  5
4E9
100
AcDbEntity
  8
L1
100
AcDbVertex
100
AcDb2dVertex
 10
-420.6541951239036
 20
-89.12672787295525
 30
0.0
  0
SEQEND
  5
4EA
100
AcDbEntity
  8
L1
  0
POLYLINE
  5
5E
100
AcDbEntity
  8
L1
100
AcDb2dPolyline
 66
     1
 10
0.0
 20
0.0
 30
0.0
  0
VERTEX
  5
4EB
100
AcDbEntity
  8
L1
100
AcDbVertex
100
AcDb2dVertex
 10
-420.6541951239036
 20
-89.12672787295525
 30
0.0
  0
VERTEX
  5
4EC
100
AcDbEntity
  8
L1
100
AcDbVertex
100
AcDb2dVertex
 10
-420.6386370430426
 20
-89.21982649261043
 30
0.0
  0
SEQEND
  5
4ED
100
AcDbEntity
  8
L1
  0
POLYLINE
  5
5F
100
AcDbEntity
  8
L1
100
AcDb2dPolyline
 66
     1
 10
0.0
 20
0.0
 30
0.0
  0
VERTEX
  5
4EE
100
AcDbEntity
  8
L1
100
AcDbVertex
100
AcDb2dVertex
 10
-420.6386370430426
 20
-89.21982649261043
 30
0.0
  0
VERTEX
  5
4EF
100
AcDbEntity
  8
L1
100
AcDbVertex
100
AcDb2dVertex
 10
-420.6376253906009
 20
-89.51039703712513
 30
0.0
  0
VERTEX
  5
4F0
100
AcDbEntity
  8
L1
100
AcDbVertex
100
AcDb2dVertex
 10
-420.6394030272334
 20
-89.62670883448732
 30
0.0
  0
SEQEND
  5
4F1
100
AcDbEntity
  8
L1
  0
LINE
  5
60
100
AcDbEntity
  8
L1
100
AcDbLine
 10
-420.6394030272333
 20
-89.62670883448732
 30
0.0
 11
-421.0104872787545
 21
-89.99779308605434
 31
0.0
  0
LINE
  5
61
100
AcDbEntity
  8
L1
100
AcDbLine
 10
-421.0104872788236
 20
-89.99779308605445
 30
0.0
 11
-421.0140007387597
 21
-89.59519018830519
 31
0.0
  0
ELLIPSE
  5
62
100
AcDbEntity
  8
L1
100
AcDbEllipse
 10
-421.3139778939028
 20
-89.59778520528402
 30
0.0
 11
-0.212132034356148
 21
0.2121320343557347
 31
0.0
210
0.0
220
0.0
230
1.0
 40
0.9999238504775703
 41
-2.34750592014437
 42
-0.7854362396093615
  0
LINE
  5
63
100
AcDbEntity
  8
L1
100
AcDbLine
 10
-426.7850634567934
 20
-86.86563218274296
 30
0.0
 11
-426.7850634567934
 21
-86.60779985432872
 31
0.0
  0
LINE
  5
64
100
AcDbEntity
  8
L1
100
AcDbLine
 10
-426.7850634567934
 20
-86.60779985432339
 30
0.0
 11
-426.7889044929439
 21
-86.56948465170968
 31
0.0
  0
LINE
  5
65
100
AcDbEntity
  8
L1
100
AcDbLine
 10
-426.7889044929364
 20
-86.56948464196682
 30
0.0
 11
-426.8014120740371
 21
-86.44471870625352
 31
0.0
  0
LINE
  5
66
100
AcDbEntity
  8
L1
100
AcDbLine
 10
-426.8014120740377
 20
-86.44471870703956
 30
0.0
 11
-426.802517192375
 21
-86.43369490217446
 31
0.0
  0
LINE
  5
67
100
AcDbEntity
  8
L1
100
AcDbLine
 10
-426.802517192375
 20
-86.43369490217981
 30
0.0
 11
-426.802517192375
 21
-86.21368138797242
 31
0.0
  0
ELLIPSE
  5
68
100
AcDbEntity
  8
L1
100
AcDbEllipse
 10
-423.0104111307509
 20
-89.29766744086533
 30
0.0
 11
1.696497829367979
 21
0.0
 31
0.0
210
0.0
220
0.0
230
1.0
 40
0.0087265354983806
 41
-1.570796326794896
 42
-0.008726313991621
  0
LINE
  5
69
100
AcDbEntity
  8
L6
100
AcDbLine
 10
-420.2343159595767
 20
-81.74999999995685
 30
0.0
 11
-434.2356774040755
 21
-81.74999999995685
 31
0.0
  0
CIRCLE
  5
6A
100
AcDbEntity
  8
L1
100
AcDbCircle
 10
-427.2632462873165
 20
-81.74999999999988
 30
0.0
 40
2.25
  0
CIRCLE
  5
6B
100
AcDbEntity
  8
L1
100
AcDbCircle
 10
-427.2632462873165
 20
-81.74999999999988
 30
0.0
 40
3.457965408492953
  0
CIRCLE
  5
6C
100
AcDbEntity
  8
L1
100
AcDbCircle
 10
-427.2632462873165
 20
-81.74999999999988
 30
0.0
 40
3.9
  0
ARC
  5
6D
100
AcDbEntity
  8
L1
100
AcDbCircle
 10
-427.2632462873165
 20
-81.74999999999988
 30
0.0
 40
4.925022672948151
100
AcDbArc
 50
214.1232037095356
 51
235.8767962904583
  0
POLYLINE
  5
6E
100
AcDbEntity
  8
L1
100
AcDb2dPolyline
 66
     1
 10
0.0
 20
0.0
 30
0.0
  0
VERTEX
  5
4F2
100
AcDbEntity
  8
L1
100
AcDbVertex
100
AcDb2dVertex
 10
-430.0260574208992
 20
-85.82709737058166
 30
0.0
  0
VERTEX
  5
4F3
100
AcDbEntity
  8
L1
100
AcDbVertex
100
AcDb2dVertex
 10
-429.7501236323419
 20
-85.86380514308769
 30
0.0
  0
VERTEX
  5
4F4
100
AcDbEntity
  8
L1
100
AcDbVertex
100
AcDb2dVertex
 10
-429.4808671660161
 20
-85.90107538765403
 30
0.0
  0
SEQEND
  5
4F5
100
AcDbEntity
  8
L1
  0
ARC
  5
6F
100
AcDbEntity
  8
L1
100
AcDbCircle
 10
-432.0209388870814
 20
-82.58077094859823
 30
0.0
 40
0.3617837154469492
100
AcDbArc
 50
19.73199303915226
 51
171.6401670603169
  0
LINE
  5
70
100
AcDbEntity
  8
L1
100
AcDbLine
 10
-431.1324813592529
 20
-79.07076705123813
 30
0.0
 11
-431.7269276752893
 21
-81.28927090505852
 31
0.0
  0
LINE
  5
71
100
AcDbEntity
  8
L1
100
AcDbLine
 10
-431.6803983265177
 20
-82.4586252021578
 30
0.0
 11
-431.4143216749711
 21
-83.96762087869888
 31
0.0
  0
LINE
  5
72
100
AcDbEntity
  8
L1
100
AcDbLine
 10
-431.946941189491
 20
-81.28927090505817
 30
0.0
 11
-431.9579649943563
 21
-81.28816578672104
 31
0.0
  0
LINE
  5
73
100
AcDbEntity
  8
L1
100
AcDbLine
 10
-431.9579649935703
 20
-81.28816578672047
 30
0.0
 11
-432.0827309292837
 21
-81.27565820561972
 31
0.0
  0
LINE
  5
74
100
AcDbEntity
  8
L1
100
AcDbLine
 10
-432.0827309390264
 20
-81.27565820562722
 30
0.0
 11
-432.1210461416401
 21
-81.27181716947678
 31
0.0
  0
LINE
  5
75
100
AcDbEntity
  8
L1
100
AcDbLine
 10
-432.1210461416454
 20
-81.27181716947678
 30
0.0
 11
-432.3788784700599
 21
-81.27181716947678
 31
0.0
  0
LINE
  5
76
100
AcDbEntity
  8
L1
100
AcDbLine
 10
-432.3788784700599
 20
-82.52817140744218
 30
0.0
 11
-432.3788784700599
 21
-81.27181716947665
 31
0.0
  0
LINE
  5
77
100
AcDbEntity
  8
L1
100
AcDbLine
 10
-432.3788784700599
 20
-82.52817140744218
 30
0.0
 11
-432.3745150361645
 21
-82.53253484133756
 31
0.0
  0
LINE
  5
78
100
AcDbEntity
  8
L1
100
AcDbLine
 10
-431.7269276752904
 20
-81.28927090505817
 30
0.0
 11
-431.9469411894965
 21
-81.28927090505817
 31
0.0
  0
POLYLINE
  5
79
100
AcDbEntity
  8
L1
100
AcDb2dPolyline
 66
     1
 10
0.0
 20
0.0
 30
0.0
  0
VERTEX
  5
4F6
100
AcDbEntity
  8
L1
100
AcDbVertex
100
AcDb2dVertex
 10
-431.4143216749711
 20
-83.96762087869888
 30
0.0
  0
VERTEX
  5
4F7
100
AcDbEntity
  8
L1
100
AcDbVertex
100
AcDb2dVertex
 10
-431.3770514304046
 20
-84.23687734502482
 30
0.0
  0
VERTEX
  5
4F8
100
AcDbEntity
  8
L1
100
AcDbVertex
100
AcDb2dVertex
 10
-431.3403436578986
 20
-84.51281113358209
 30
0.0
  0
SEQEND
  5
4F9
100
AcDbEntity
  8
L1
  0
ARC
  5
7A
100
AcDbEntity
  8
L1
100
AcDbCircle
 10
-427.2632462873165
 20
-81.74999999999988
 30
0.0
 40
4.70630101413334
100
AcDbArc
 50
208.112382794938
 51
241.887617205056
  0
LINE
  5
7B
100
AcDbEntity
  8
L1
100
AcDbLine
 10
-435.5110393733711
 20
-75.49724099150694
 30
0.0
 11
-435.108436475622
 21
-75.50075445144296
 31
0.0
  0
LINE
  5
7C
100
AcDbEntity
  8
L1
100
AcDbLine
 10
-435.5110393733711
 20
-75.49724099150694
 30
0.0
 11
-435.139955121804
 21
-75.12615673993991
 31
0.0
  0
POLYLINE
  5
7D
100
AcDbEntity
  8
L1
100
AcDb2dPolyline
 66
     1
 10
0.0
 20
0.0
 30
0.0
  0
VERTEX
  5
4FA
100
AcDbEntity
  8
L1
100
AcDbVertex
100
AcDb2dVertex
 10
-432.7181379520375
 20
-74.90490308780147
 30
0.0
  0
VERTEX
  5
4FB
100
AcDbEntity
  8
L1
100
AcDbVertex
100
AcDb2dVertex
 10
-432.5060126092948
 20
-74.99276632197791
 30
0.0
  0
VERTEX
  5
4FC
100
AcDbEntity
  8
L1
100
AcDbVertex
100
AcDb2dVertex
 10
-432.4181493751183
 20
-75.20489166472066
 30
0.0
  0
SEQEND
  5
4FD
100
AcDbEntity
  8
L1
  0
LINE
  5
7E
100
AcDbEntity
  8
L1
100
AcDbLine
 10
-432.4181493751183
 20
-75.20489166472066
 30
0.0
 11
-432.4181493751183
 21
-75.00490308780149
 31
0.0
  0
LINE
  5
7F
100
AcDbEntity
  8
L1
100
AcDbLine
 10
-432.4242810291683
 20
-75.21102331877068
 30
0.0
 11
-432.4181493751183
 21
-75.20489166472066
 31
0.0
  0
ELLIPSE
  5
80
100
AcDbEntity
  8
L1
100
AcDbEllipse
 10
-432.7242696060875
 20
-75.21102331877068
 30
0.0
 11
-0.2121320343559519
 21
0.2121320343559682
 31
0.0
210
0.0
220
0.0
230
1.0
 40
0.9999238504775703
 41
-2.356156413981367
 42
-0.7854362396083489
  0
LINE
  5
81
100
AcDbEntity
  8
L1
100
AcDbLine
 10
-432.7181379520375
 20
-74.90490308780147
 30
0.0
 11
-432.7242696060875
 21
-74.91103474185149
 31
0.0
  0
LINE
  5
82
100
AcDbEntity
  8
L1
100
AcDbLine
 10
-432.4181493751183
 20
-75.00490308780149
 30
0.0
 11
-427.5181493751182
 21
-75.00490308780149
 31
0.0
  0
POLYLINE
  5
83
100
AcDbEntity
  8
L1
100
AcDb2dPolyline
 66
     1
 10
0.0
 20
0.0
 30
0.0
  0
VERTEX
  5
4FE
100
AcDbEntity
  8
L1
100
AcDbVertex
100
AcDb2dVertex
 10
-434.6399741602718
 20
-75.14094883660959
 30
0.0
  0
VERTEX
  5
4FF
100
AcDbEntity
  8
L1
100
AcDbVertex
100
AcDb2dVertex
 10
-434.4919959193967
 20
-75.25020519230384
 30
0.0
  0
VERTEX
  5
500
100
AcDbEntity
  8
L1
100
AcDbVertex
100
AcDb2dVertex
 10
-434.4356031106998
 20
-75.42529180160489
 30
0.0
  0
SEQEND
  5
501
100
AcDbEntity
  8
L1
  0
LINE
  5
84
100
AcDbEntity
  8
L1
100
AcDbLine
 10
-434.4356031106998
 20
-75.20489166472066
 30
0.0
 11
-434.4356031106998
 21
-75.42529180160477
 31
0.0
  0
POLYLINE
  5
85
100
AcDbEntity
  8
L1
100
AcDb2dPolyline
 66
     1
 10
0.0
 20
0.0
 30
0.0
  0
VERTEX
  5
502
100
AcDbEntity
  8
L1
100
AcDbVertex
100
AcDb2dVertex
 10
-434.4356031106998
 20
-75.20489166472066
 30
0.0
  0
VERTEX
  5
503
100
AcDbEntity
  8
L1
100
AcDbVertex
100
AcDb2dVertex
 10
-434.3477398765234
 20
-74.99276632197791
 30
0.0
  0
VERTEX
  5
504
100
AcDbEntity
  8
L1
100
AcDbVertex
100
AcDb2dVertex
 10
-434.1356145337805
 20
-74.90490308780147
 30
0.0
  0
SEQEND
  5
505
100
AcDbEntity
  8
L1
  0
POLYLINE
  5
86
100
AcDbEntity
  8
L1
100
AcDb2dPolyline
 66
     1
 10
0.0
 20
0.0
 30
0.0
  0
VERTEX
  5
506
100
AcDbEntity
  8
L1
100
AcDbVertex
100
AcDb2dVertex
 10
-435.139955121804
 20
-75.12615673993991
 30
0.0
  0
VERTEX
  5
507
100
AcDbEntity
  8
L1
100
AcDbVertex
100
AcDb2dVertex
 10
-435.0236433244418
 20
-75.12437910330709
 30
0.0
  0
VERTEX
  5
508
100
AcDbEntity
  8
L1
100
AcDbVertex
100
AcDb2dVertex
 10
-434.7330727799272
 20
-75.12539075574853
 30
0.0
  0
SEQEND
  5
509
100
AcDbEntity
  8
L1
  0
POLYLINE
  5
87
100
AcDbEntity
  8
L1
100
AcDb2dPolyline
 66
     1
 10
0.0
 20
0.0
 30
0.0
  0
VERTEX
  5
50A
100
AcDbEntity
  8
L1
100
AcDbVertex
100
AcDb2dVertex
 10
-434.7330727799272
 20
-75.12539075574853
 30
0.0
  0
VERTEX
  5
50B
100
AcDbEntity
  8
L1
100
AcDbVertex
100
AcDb2dVertex
 10
-434.6399741602718
 20
-75.14094883660959
 30
0.0
  0
SEQEND
  5
50C
100
AcDbEntity
  8
L1
  0
ELLIPSE
  5
88
100
AcDbEntity
  8
L1
100
AcDbEllipse
 10
-435.1110314926008
 20
-75.80073160658628
 30
0.0
 11
0.212132034355621
 21
-0.2121320343562821
 31
0.0
210
0.0
220
0.0
230
1.0
 40
0.9999238504775695
 41
0.785436239609946
 42
2.347505920144955
  0
ELLIPSE
  5
89
100
AcDbEntity
  8
L1
100
AcDbEllipse
 10
-434.1294828797304
 20
-75.21102331877068
 30
0.0
 11
0.2121320343559661
 21
0.2121320343559824
 31
0.0
210
0.0
220
0.0
230
1.0
 40
0.9999238504775703
 41
0.7854362396083489
 42
2.356156413981367
  0
LINE
  5
8A
100
AcDbEntity
  8
L1
100
AcDbLine
 10
-434.1294828797304
 20
-74.91103474185149
 30
0.0
 11
-434.1356145337805
 21
-74.90490308780147
 31
0.0
  0
LINE
  5
8B
100
AcDbEntity
  8
L1
100
AcDbLine
 10
-434.4356031106998
 20
-75.20489166472066
 30
0.0
 11
-434.4294714566498
 21
-75.21102331877068
 31
0.0
  0
LINE
  5
8C
100
AcDbEntity
  8
L1
100
AcDbLine
 10
-434.1356145337805
 20
-74.90490308780147
 30
0.0
 11
-432.7181379520375
 21
-74.90490308780147
 31
0.0
  0
LINE
  5
8D
100
AcDbEntity
  8
L1
100
AcDbLine
 10
-432.7242696060875
 20
-74.91103474185149
 30
0.0
 11
-434.1294828797304
 21
-74.91103474185149
 31
0.0
  0
LINE
  5
8E
100
AcDbEntity
  8
L1
100
AcDbLine
 10
-75.40490308780158
 20
-129.1335674660516
 30
0.0
 11
-75.43116286074996
 21
-172.134941119339
 31
0.0
  0
LINE
  5
8F
100
AcDbEntity
  8
L1
100
AcDbLine
 10
-89.62670883448732
 20
-129.6292041983023
 30
0.0
 11
-89.99779308605445
 21
-172.151247669621
 31
0.0
  0
LINE
  5
90
100
AcDbEntity
  8
L1
100
AcDbLine
 10
-88.91622516933319
 20
-128.4309495054021
 30
0.0
 11
-89.31247198939649
 21
-173.8363377344445
 31
0.0
  0
LINE
  5
91
100
AcDbEntity
  8
L1
100
AcDbLine
 10
-77.43116248782872
 20
-174.1337197737949
 30
0.0
 11
-90.01509385800648
 21
-174.1337197737949
 31
0.0
  0
LINE
  5
92
100
AcDbEntity
  8
L1
100
AcDbLine
 10
-89.44999999999993
 20
-178.1335674660516
 30
0.0
 11
-88.44999999999993
 21
-178.1335674660516
 31
0.0
  0
LINE
  5
93
100
AcDbEntity
  8
L1
100
AcDbLine
 10
-90.04480917893465
 20
-177.5387582871168
 30
0.0
 11
-89.44999999999993
 21
-178.1335674660516
 31
0.0
  0
LINE
  5
94
100
AcDbEntity
  8
L1
100
AcDbLine
 10
-90.04480917893465
 20
-177.5387582871168
 30
0.0
 11
-89.99779308605445
 21
-172.1512476696203
 31
0.0
  0
ARC
  5
95
100
AcDbEntity
  8
L1
100
AcDbCircle
 10
-89.61246056631569
 20
-173.8337197737949
 30
0.0
 40
0.3
100
AcDbArc
 50
270.0
 51
359.4999999999995
  0
LINE
  5
96
100
AcDbEntity
  8
L1
100
AcDbLine
 10
-89.27267354654929
 20
-178.1316983427972
 30
0.0
 11
-89.27268985814089
 21
-178.1335674660516
 31
0.0
  0
LINE
  5
97
100
AcDbEntity
  8
L1
100
AcDbLine
 10
-88.05875576872859
 20
-178.1335674660516
 30
0.0
 11
-87.9812481580492
 21
-178.1335674660516
 31
0.0
  0
LINE
  5
98
100
AcDbEntity
  8
L1
100
AcDbLine
 10
-88.17473926436855
 20
-178.1335674660516
 30
0.0
 11
-88.05875576872859
 21
-178.1335674660516
 31
0.0
  0
LINE
  5
99
100
AcDbEntity
  8
L1
100
AcDbLine
 10
-88.28920063101861
 20
-178.1335674660516
 30
0.0
 11
-88.17473926436855
 21
-178.1335674660516
 31
0.0
  0
LINE
  5
9A
100
AcDbEntity
  8
L1
100
AcDbLine
 10
-88.38009311746601
 20
-178.1335674660516
 30
0.0
 11
-88.28920063101861
 21
-178.1335674660516
 31
0.0
  0
LINE
  5
9B
100
AcDbEntity
  8
L1
100
AcDbLine
 10
-88.43615246538115
 20
-178.1335674660516
 30
0.0
 11
-88.38009311746601
 21
-178.1335674660516
 31
0.0
  0
LINE
  5
9C
100
AcDbEntity
  8
L1
100
AcDbLine
 10
-88.44999999999993
 20
-178.1335674660516
 30
0.0
 11
-88.43615246538115
 21
-178.1335674660516
 31
0.0
  0
LINE
  5
9D
100
AcDbEntity
  8
L1
100
AcDbLine
 10
-87.98124815804886
 20
-178.1335674660516
 30
0.0
 11
-88.4499999999997
 21
-178.1335674660516
 31
0.0
  0
ARC
  5
9E
100
AcDbEntity
  8
L1
100
AcDbCircle
 10
-77.43116248782872
 20
-172.1337197737948
 30
0.0
 40
2.0
100
AcDbArc
 50
270.0
 51
359.9650110253217
  0
LINE
  5
9F
100
AcDbEntity
  8
L1
100
AcDbLine
 10
-85.81362995559244
 20
-128.1335674660516
 30
0.0
 11
-75.21102331877091
 21
-128.1335674660516
 31
0.0
  0
ARC
  5
A0
100
AcDbEntity
  8
L1
100
AcDbCircle
 10
-88.616236592414
 20
-128.4335674660515
 30
0.0
 40
0.2999999999999999
100
AcDbArc
 50
90.0
 51
179.4999999999992
  0
LINE
  5
A1
100
AcDbEntity
  8
L1
100
AcDbLine
 10
-88.97874963208028
 20
-129.1335674660516
 30
0.0
 11
-89.12672787295525
 21
-129.1335674660516
 31
0.0
  0
LINE
  5
A2
100
AcDbEntity
  8
L1
100
AcDbLine
 10
-88.92235682338322
 20
-129.1335674660516
 30
0.0
 11
-88.97874963208028
 21
-129.1335674660516
 31
0.0
  0
LINE
  5
A3
100
AcDbEntity
  8
L1
100
AcDbLine
 10
-89.12672787295525
 20
-129.1335674660516
 30
0.0
 11
-89.21982649261066
 21
-129.1423112731967
 31
0.0
  0
LINE
  5
A4
100
AcDbEntity
  8
L1
100
AcDbLine
 10
-89.51039703712524
 20
-129.3129462370832
 30
0.0
 11
-89.62670883448742
 21
-129.6292041983023
 31
0.0
  0
LINE
  5
A5
100
AcDbEntity
  8
L1
100
AcDbLine
 10
-89.21982649261066
 20
-129.1423112731967
 30
0.0
 11
-89.51039703712524
 21
-129.3129462370832
 31
0.0
  0
ELLIPSE
  5
A6
100
AcDbEntity
  8
L1
100
AcDbEllipse
 10
-88.616236592414
 20
-128.4335674660515
 30
0.0
 11
0.2999885769192656
 21
-0.0026179606495144
 31
0.0
210
0.0
220
0.0
230
-1.0
 40
0.0087262032439414
 41
-3.141592653572773
 42
-2.785207044477743
  0
LINE
  5
A7
100
AcDbEntity
  8
L1
100
AcDbLine
 10
-85.81362995559244
 20
-128.1335674660516
 30
0.0
 11
-88.616236592414
 21
-128.1335674660516
 31
0.0
  0
LINE
  5
A8
100
AcDbEntity
  8
L1
100
AcDbLine
 10
-74.91103474185172
 20
-128.4309495054021
 30
0.0
 11
-74.9049030878017
 21
-129.1335674660516
 31
0.0
  0
ARC
  5
A9
100
AcDbEntity
  8
L1
100
AcDbCircle
 10
-75.21102331877091
 20
-128.4335674660515
 30
0.0
 40
0.2999999999999971
100
AcDbArc
 50
0.4999999999980352
 51
90.0
  0
LINE
  5
AA
100
AcDbEntity
  8
L6
100
AcDbLine
 10
-131.5795194368649
 20
0.0
 30
0.0
 11
-197.5795194368649
 21
0.0
 31
0.0
  0
LINE
  5
AB
100
AcDbEntity
  8
L1
100
AcDbLine
 10
-139.8769014762153
 20
-88.91622516933313
 30
0.0
 11
-185.2822897052577
 21
-89.31247198939638
 31
0.0
  0
LINE
  5
AC
100
AcDbEntity
  8
L1
100
AcDbLine
 10
-183.5971996404337
 20
-89.99779308605452
 30
0.0
 11
-141.0751561691157
 21
-89.62670883448737
 31
0.0
  0
LINE
  5
AD
100
AcDbEntity
  8
L1
100
AcDbLine
 10
-141.0751561691157
 20
-75.12615673989689
 30
0.0
 11
-183.5971996404343
 21
-75.49724099141986
 31
0.0
  0
LINE
  5
AE
100
AcDbEntity
  8
L6
100
AcDbLine
 10
-263.7632462872935
 20
-88.03088265810066
 30
0.0
 11
-263.7632462872935
 21
-75.45130511101859
 31
0.0
  0
ELLIPSE
  5
AF
100
AcDbEntity
  8
L1
100
AcDbEllipse
 10
-256.2155788464278
 20
-77.49716484343434
 30
0.0
 11
0.0
 21
-1.696497829367981
 31
0.0
210
0.0
220
0.0
230
-1.0
 40
0.0087265354983808
 41
-3.132866339598172
 42
-1.570796326794896
  0
ARC
  5
B0
100
AcDbEntity
  8
L1
100
AcDbCircle
 10
-263.5083431994919
 20
-82.0049030878016
 30
0.0
 40
7.000000000000105
100
AcDbArc
 50
90.0
 51
180.0000000000011
  0
LINE
  5
B1
100
AcDbEntity
  8
L1
100
AcDbLine
 10
-256.5970211179602
 20
-75.21102331877068
 30
0.0
 11
-256.5970211179602
 21
-86.11633178475335
 31
0.0
  0
LINE
  5
B2
100
AcDbEntity
  8
L1
100
AcDbLine
 10
-258.6022115454417
 20
-85.81362995559221
 30
0.0
 11
-258.6022115454417
 21
-75.21102331877068
 31
0.0
  0
LINE
  5
B3
100
AcDbEntity
  8
L6
100
AcDbLine
 10
-270.7921766150103
 20
-81.74999999995685
 30
0.0
 11
-256.7908151705115
 21
-81.74999999995685
 31
0.0
  0
LINE
  5
B4
100
AcDbEntity
  8
L1
100
AcDbLine
 10
-259.3969145025399
 20
-88.91622516933308
 30
0.0
 11
-270.3022229685225
 21
-88.91622516933308
 31
0.0
  0
LINE
  5
B5
100
AcDbEntity
  8
L1
100
AcDbLine
 10
-270.3022229685225
 20
-86.91103474185149
 30
0.0
 11
-259.6996163317009
 21
-86.91103474185149
 31
0.0
  0
LINE
  5
B6
100
AcDbEntity
  8
L1
100
AcDbLine
 10
-268.0160814438591
 20
-89.31247198939628
 30
0.0
 11
-259.0006676824766
 21
-89.31247198939628
 31
0.0
  0
LINE
  5
B7
100
AcDbEntity
  8
L1
100
AcDbLine
 10
-264.223975382235
 20
-86.21368138797254
 30
0.0
 11
-266.4424792360555
 21
-85.61923507193602
 31
0.0
  0
CIRCLE
  5
B8
100
AcDbEntity
  8
L1
100
AcDbCircle
 10
-263.7632462872935
 20
-81.74999999999988
 30
0.0
 40
3.9
  0
CIRCLE
  5
B9
100
AcDbEntity
  8
L1
100
AcDbCircle
 10
-263.7632462872935
 20
-81.74999999999988
 30
0.0
 40
3.457965408492953
  0
ARC
  5
BA
100
AcDbEntity
  8
L1
100
AcDbCircle
 10
-263.7632462872935
 20
-81.74999999999988
 30
0.0
 40
4.70630101413334
100
AcDbArc
 50
34.70047608169447
 51
235.2995239183
  0
LINE
  5
BB
100
AcDbEntity
  8
L1
100
AcDbLine
 10
-270.508343199492
 20
-82.00490308780173
 30
0.0
 11
-270.5083431994919
 21
-86.90490308780136
 31
0.0
  0
ELLIPSE
  5
BC
100
AcDbEntity
  8
L1
100
AcDbEllipse
 10
-268.0160814438591
 20
-89.29766744086533
 30
0.0
 11
-1.696497829367979
 21
0.0
 31
0.0
210
0.0
220
0.0
230
-1.0
 40
0.0087265354983806
 41
-1.570796326794896
 42
-0.008726313991621
  0
ELLIPSE
  5
BD
100
AcDbEntity
  8
L1
100
AcDbEllipse
 10
-269.7125146807071
 20
-89.59778520528402
 30
0.0
 11
0.212132034356148
 21
0.2121320343557347
 31
0.0
210
0.0
220
0.0
230
-1.0
 40
0.9999238504775703
 41
-2.34750592014437
 42
-0.7854362396093615
  0
LINE
  5
BE
100
AcDbEntity
  8
L1
100
AcDbLine
 10
-270.0160052957863
 20
-89.99779308605445
 30
0.0
 11
-270.0124918358503
 21
-89.59519018830519
 31
0.0
  0
LINE
  5
BF
100
AcDbEntity
  8
L1
100
AcDbLine
 10
-270.3870895473767
 20
-89.62670883448732
 30
0.0
 11
-270.0160052958555
 21
-89.99779308605434
 31
0.0
  0
POLYLINE
  5
C0
100
AcDbEntity
  8
L1
100
AcDb2dPolyline
 66
     1
 10
0.0
 20
0.0
 30
0.0
  0
VERTEX
  5
50D
100
AcDbEntity
  8
L1
100
AcDbVertex
100
AcDb2dVertex
 10
-270.3878555315674
 20
-89.21982649261043
 30
0.0
  0
VERTEX
  5
50E
100
AcDbEntity
  8
L1
100
AcDbVertex
100
AcDb2dVertex
 10
-270.388867184009
 20
-89.51039703712513
 30
0.0
  0
VERTEX
  5
50F
100
AcDbEntity
  8
L1
100
AcDbVertex
100
AcDb2dVertex
 10
-270.3870895473766
 20
-89.62670883448732
 30
0.0
  0
SEQEND
  5
510
100
AcDbEntity
  8
L1
  0
POLYLINE
  5
C1
100
AcDbEntity
  8
L1
100
AcDb2dPolyline
 66
     1
 10
0.0
 20
0.0
 30
0.0
  0
VERTEX
  5
511
100
AcDbEntity
  8
L1
100
AcDbVertex
100
AcDb2dVertex
 10
-270.3722974507064
 20
-89.12672787295525
 30
0.0
  0
VERTEX
  5
512
100
AcDbEntity
  8
L1
100
AcDbVertex
100
AcDb2dVertex
 10
-270.3878555315674
 20
-89.21982649261043
 30
0.0
  0
SEQEND
  5
513
100
AcDbEntity
  8
L1
  0
POLYLINE
  5
C2
100
AcDbEntity
  8
L1
100
AcDb2dPolyline
 66
     1
 10
0.0
 20
0.0
 30
0.0
  0
VERTEX
  5
514
100
AcDbEntity
  8
L1
100
AcDbVertex
100
AcDb2dVertex
 10
-270.087954485711
 20
-88.92235682338299
 30
0.0
  0
VERTEX
  5
515
100
AcDbEntity
  8
L1
100
AcDbVertex
100
AcDb2dVertex
 10
-270.2630410950122
 20
-88.97874963208005
 30
0.0
  0
VERTEX
  5
516
100
AcDbEntity
  8
L1
100
AcDbVertex
100
AcDb2dVertex
 10
-270.3722974507064
 20
-89.12672787295525
 30
0.0
  0
SEQEND
  5
517
100
AcDbEntity
  8
L1
  0
LINE
  5
C3
100
AcDbEntity
  8
L1
100
AcDbLine
 10
-270.3083546225724
 20
-86.90490308780146
 30
0.0
 11
-270.3022229685223
 21
-86.91103474185149
 31
0.0
  0
LINE
  5
C4
100
AcDbEntity
  8
L1
100
AcDbLine
 10
-270.5083431994919
 20
-86.90490308780136
 30
0.0
 11
-270.3083546225724
 21
-86.90490308780136
 31
0.0
  0
LINE
  5
C5
100
AcDbEntity
  8
L1
100
AcDbLine
 10
-270.6022115454417
 20
-88.61623659241377
 30
0.0
 11
-270.6022115454417
 21
-87.21102331877068
 31
0.0
  0
ELLIPSE
  5
C6
100
AcDbEntity
  8
L1
100
AcDbEllipse
 10
-270.3022229685223
 20
-88.61623659241377
 30
0.0
 11
-0.2121320343562742
 21
0.212132034355646
 31
0.0
210
0.0
220
0.0
230
-1.0
 40
0.9999238504775703
 41
-2.356156413979925
 42
-0.7854362396069068
  0
ELLIPSE
  5
C7
100
AcDbEntity
  8
L1
100
AcDbEllipse
 10
-270.3022229685225
 20
-87.21102331877068
 30
0.0
 11
0.2121320343559519
 21
0.2121320343559682
 31
0.0
210
0.0
220
0.0
230
-1.0
 40
0.9999238504775703
 41
-2.356156413981367
 42
-0.7854362396083489
  0
LINE
  5
C8
100
AcDbEntity
  8
L1
100
AcDbLine
 10
-261.5456254085941
 20
-85.90107538765414
 30
0.0
 11
-263.0546210851356
 21
-86.1671520392008
 31
0.0
  0
ARC
  5
C9
100
AcDbEntity
  8
L1
100
AcDbCircle
 10
-259.6996163317009
 20
-85.81362995559221
 30
0.0
 40
1.097404786259232
100
AcDbArc
 50
270.0
 51
0.0
  0
LINE
  5
CA
100
AcDbEntity
  8
L1
100
AcDbLine
 10
-256.200774297897
 20
-86.51257860481655
 30
0.0
 11
-256.200774297897
 21
-77.49716484343434
 31
0.0
  0
POLYLINE
  5
CB
100
AcDbEntity
  8
L1
100
AcDb2dPolyline
 66
     1
 10
0.0
 20
0.0
 30
0.0
  0
VERTEX
  5
518
100
AcDbEntity
  8
L1
100
AcDbVertex
100
AcDb2dVertex
 10
-255.4684407306833
 20
-86.54999999999995
 30
0.0
  0
VERTEX
  5
519
100
AcDbEntity
  8
L1
100
AcDbVertex
100
AcDb2dVertex
 10
-255.5344654739637
 20
-87.22163427376234
 30
0.0
  0
VERTEX
  5
51A
100
AcDbEntity
  8
L1
100
AcDbVertex
100
AcDb2dVertex
 10
-255.7357922129312
 20
-87.88663729905215
 30
0.0
  0
VERTEX
  5
51B
100
AcDbEntity
  8
L1
100
AcDbVertex
100
AcDb2dVertex
 10
-256.064520463312
 20
-88.49876236080637
 30
0.0
  0
VERTEX
  5
51C
100
AcDbEntity
  8
L1
100
AcDbVertex
100
AcDb2dVertex
 10
-256.4934903117499
 20
-89.01975597554359
 30
0.0
  0
VERTEX
  5
51D
100
AcDbEntity
  8
L1
100
AcDbVertex
100
AcDb2dVertex
 10
-257.014483926487
 20
-89.44872582398136
 30
0.0
  0
VERTEX
  5
51E
100
AcDbEntity
  8
L1
100
AcDbVertex
100
AcDb2dVertex
 10
-257.6266089882413
 20
-89.77745407436236
 30
0.0
  0
VERTEX
  5
51F
100
AcDbEntity
  8
L1
100
AcDbVertex
100
AcDb2dVertex
 10
-258.2916120135311
 20
-89.97878081332965
 30
0.0
  0
VERTEX
  5
520
100
AcDbEntity
  8
L1
100
AcDbVertex
100
AcDb2dVertex
 10
-258.9632462872935
 20
-90.04480555661007
 30
0.0
  0
SEQEND
  5
521
100
AcDbEntity
  8
L1
  0
POLYLINE
  5
CC
100
AcDbEntity
  8
L1
100
AcDb2dPolyline
 66
     1
 10
0.0
 20
0.0
 30
0.0
  0
VERTEX
  5
522
100
AcDbEntity
  8
L1
100
AcDbVertex
100
AcDb2dVertex
 10
-259.0006676824766
 20
-89.31247198939628
 30
0.0
  0
VERTEX
  5
523
100
AcDbEntity
  8
L1
100
AcDbVertex
100
AcDb2dVertex
 10
-258.6631673779015
 20
-89.29206062352125
 30
0.0
  0
VERTEX
  5
524
100
AcDbEntity
  8
L1
100
AcDbVertex
100
AcDb2dVertex
 10
-258.3305915534188
 20
-89.23111863372866
 30
0.0
  0
VERTEX
  5
525
100
AcDbEntity
  8
L1
100
AcDbVertex
100
AcDb2dVertex
 10
-258.0077894438001
 20
-89.13053460540027
 30
0.0
  0
VERTEX
  5
526
100
AcDbEntity
  8
L1
100
AcDbVertex
100
AcDb2dVertex
 10
-257.6994677748472
 20
-88.99177513812526
 30
0.0
  0
VERTEX
  5
527
100
AcDbEntity
  8
L1
100
AcDbVertex
100
AcDb2dVertex
 10
-257.4101221353789
 20
-88.81686346144737
 30
0.0
  0
VERTEX
  5
528
100
AcDbEntity
  8
L1
100
AcDbVertex
100
AcDb2dVertex
 10
-257.1439714277704
 20
-88.60834993447872
 30
0.0
  0
VERTEX
  5
529
100
AcDbEntity
  8
L1
100
AcDbVertex
100
AcDb2dVertex
 10
-256.9048963528144
 20
-88.36927485952287
 30
0.0
  0
VERTEX
  5
52A
100
AcDbEntity
  8
L1
100
AcDbVertex
100
AcDb2dVertex
 10
-256.6963828258459
 20
-88.10312415191436
 30
0.0
  0
VERTEX
  5
52B
100
AcDbEntity
  8
L1
100
AcDbVertex
100
AcDb2dVertex
 10
-256.5214711491679
 20
-87.81377851244599
 30
0.0
  0
VERTEX
  5
52C
100
AcDbEntity
  8
L1
100
AcDbVertex
100
AcDb2dVertex
 10
-256.382711681893
 20
-87.50545684349322
 30
0.0
  0
VERTEX
  5
52D
100
AcDbEntity
  8
L1
100
AcDbVertex
100
AcDb2dVertex
 10
-256.2821276535645
 20
-87.18265473387441
 30
0.0
  0
VERTEX
  5
52E
100
AcDbEntity
  8
L1
100
AcDbVertex
100
AcDb2dVertex
 10
-256.2211856637719
 20
-86.85007890939175
 30
0.0
  0
VERTEX
  5
52F
100
AcDbEntity
  8
L1
100
AcDbVertex
100
AcDb2dVertex
 10
-256.200774297897
 20
-86.51257860481655
 30
0.0
  0
SEQEND
  5
530
100
AcDbEntity
  8
L1
  0
POLYLINE
  5
CD
100
AcDbEntity
  8
L1
100
AcDb2dPolyline
 66
     1
 10
0.0
 20
0.0
 30
0.0
  0
VERTEX
  5
531
100
AcDbEntity
  8
L1
100
AcDbVertex
100
AcDb2dVertex
 10
-256.5970211179602
 20
-86.11633178475335
 30
0.0
  0
VERTEX
  5
532
100
AcDbEntity
  8
L1
100
AcDbVertex
100
AcDb2dVertex
 10
-256.612361171775
 20
-86.40900505734714
 30
0.0
  0
VERTEX
  5
533
100
AcDbEntity
  8
L1
100
AcDbVertex
100
AcDb2dVertex
 10
-256.6582085050155
 20
-86.69846996520869
 30
0.0
  0
VERTEX
  5
534
100
AcDbEntity
  8
L1
100
AcDbVertex
100
AcDb2dVertex
 10
-256.7340608533634
 20
-86.9815553774481
 30
0.0
  0
VERTEX
  5
535
100
AcDbEntity
  8
L1
100
AcDbVertex
100
AcDb2dVertex
 10
-256.8390872431206
 20
-87.25516005149358
 30
0.0
  0
VERTEX
  5
536
100
AcDbEntity
  8
L1
100
AcDbVertex
100
AcDb2dVertex
 10
-256.9721370946493
 20
-87.51628660766334
 30
0.0
  0
VERTEX
  5
537
100
AcDbEntity
  8
L1
100
AcDbVertex
100
AcDb2dVertex
 10
-257.1317528271424
 20
-87.76207436590254
 30
0.0
  0
VERTEX
  5
538
100
AcDbEntity
  8
L1
100
AcDbVertex
100
AcDb2dVertex
 10
-257.3161858266364
 20
-87.98983068495704
 30
0.0
  0
VERTEX
  5
539
100
AcDbEntity
  8
L1
100
AcDbVertex
100
AcDb2dVertex
 10
-257.5234156023361
 20
-88.19706046065688
 30
0.0
  0
VERTEX
  5
53A
100
AcDbEntity
  8
L1
100
AcDbVertex
100
AcDb2dVertex
 10
-257.7511719213907
 20
-88.38149346015075
 30
0.0
  0
VERTEX
  5
53B
100
AcDbEntity
  8
L1
100
AcDbVertex
100
AcDb2dVertex
 10
-257.9969596796298
 20
-88.54110919264394
 30
0.0
  0
VERTEX
  5
53C
100
AcDbEntity
  8
L1
100
AcDbVertex
100
AcDb2dVertex
 10
-258.2580862357996
 20
-88.67415904417271
 30
0.0
  0
VERTEX
  5
53D
100
AcDbEntity
  8
L1
100
AcDbVertex
100
AcDb2dVertex
 10
-258.5316909098452
 20
-88.77918543392979
 30
0.0
  0
VERTEX
  5
53E
100
AcDbEntity
  8
L1
100
AcDbVertex
100
AcDb2dVertex
 10
-258.8147763220846
 20
-88.8550377822777
 30
0.0
  0
VERTEX
  5
53F
100
AcDbEntity
  8
L1
100
AcDbVertex
100
AcDb2dVertex
 10
-259.1042412299461
 20
-88.90088511551812
 30
0.0
  0
VERTEX
  5
540
100
AcDbEntity
  8
L1
100
AcDbVertex
100
AcDb2dVertex
 10
-259.3969145025399
 20
-88.91622516933296
 30
0.0
  0
SEQEND
  5
541
100
AcDbEntity
  8
L1
  0
LINE
  5
CE
100
AcDbEntity
  8
L1
100
AcDbLine
 10
-264.2414291178166
 20
-86.86563218274306
 30
0.0
 11
-262.9850748798512
 21
-86.86563218274306
 31
0.0
  0
LINE
  5
CF
100
AcDbEntity
  8
L1
100
AcDbLine
 10
-264.223975382235
 20
-86.43369490217981
 30
0.0
 11
-264.223975382235
 21
-86.21368138797242
 31
0.0
  0
LINE
  5
D0
100
AcDbEntity
  8
L1
100
AcDbLine
 10
-264.2250805005722
 20
-86.44471870703956
 30
0.0
 11
-264.223975382235
 21
-86.43369490217446
 31
0.0
  0
LINE
  5
D1
100
AcDbEntity
  8
L1
100
AcDbLine
 10
-264.2375880816735
 20
-86.56948464196682
 30
0.0
 11
-264.2250805005729
 21
-86.44471870625352
 31
0.0
  0
LINE
  5
D2
100
AcDbEntity
  8
L1
100
AcDbLine
 10
-264.2414291178166
 20
-86.60779985432339
 30
0.0
 11
-264.2375880816662
 21
-86.56948465170968
 31
0.0
  0
LINE
  5
D3
100
AcDbEntity
  8
L1
100
AcDbLine
 10
-264.2414291178166
 20
-86.86563218274296
 30
0.0
 11
-264.2414291178166
 21
-86.60779985432872
 31
0.0
  0
LINE
  5
D4
100
AcDbEntity
  8
L1
100
AcDbLine
 10
-262.9807114459557
 20
-86.86126874884768
 30
0.0
 11
-262.9850748798511
 21
-86.86563218274306
 31
0.0
  0
ARC
  5
D5
100
AcDbEntity
  8
L1
100
AcDbCircle
 10
-262.9517051140442
 20
-86.50960726819432
 30
0.0
 40
0.3575853479233129
100
AcDbArc
 50
106.7267775118527
 51
264.6453825894274
  0
POLYLINE
  5
D6
100
AcDbEntity
  8
L1
100
AcDb2dPolyline
 66
     1
 10
0.0
 20
0.0
 30
0.0
  0
VERTEX
  5
542
100
AcDbEntity
  8
L1
100
AcDbVertex
100
AcDb2dVertex
 10
-261.0004351537109
 20
-85.82709737058166
 30
0.0
  0
VERTEX
  5
543
100
AcDbEntity
  8
L1
100
AcDbVertex
100
AcDb2dVertex
 10
-261.276368942268
 20
-85.86380514308769
 30
0.0
  0
VERTEX
  5
544
100
AcDbEntity
  8
L1
100
AcDbVertex
100
AcDb2dVertex
 10
-261.5456254085939
 20
-85.90107538765403
 30
0.0
  0
SEQEND
  5
545
100
AcDbEntity
  8
L1
  0
ARC
  5
D7
100
AcDbEntity
  8
L1
100
AcDbCircle
 10
-263.7632462872935
 20
-81.74999999999988
 30
0.0
 40
4.925022672948151
100
AcDbArc
 50
304.1232037095416
 51
325.8767962904643
  0
LINE
  5
D8
100
AcDbEntity
  8
L1
100
AcDbLine
 10
-259.2995648993196
 20
-81.28927090505817
 30
0.0
 11
-259.0795513851135
 21
-81.28927090505817
 31
0.0
  0
LINE
  5
D9
100
AcDbEntity
  8
L1
100
AcDbLine
 10
-258.6476141045501
 20
-82.52817140744218
 30
0.0
 11
-258.6519775384455
 21
-82.53253484133756
 31
0.0
  0
LINE
  5
DA
100
AcDbEntity
  8
L1
100
AcDbLine
 10
-258.6476141045501
 20
-82.52817140744218
 30
0.0
 11
-258.6476141045501
 21
-81.27181716947665
 31
0.0
  0
LINE
  5
DB
100
AcDbEntity
  8
L1
100
AcDbLine
 10
-258.9054464329647
 20
-81.27181716947678
 30
0.0
 11
-258.6476141045501
 21
-81.27181716947678
 31
0.0
  0
LINE
  5
DC
100
AcDbEntity
  8
L1
100
AcDbLine
 10
-258.9437616355836
 20
-81.27565820562722
 30
0.0
 11
-258.9054464329699
 21
-81.27181716947678
 31
0.0
  0
LINE
  5
DD
100
AcDbEntity
  8
L1
100
AcDbLine
 10
-259.0685275810396
 20
-81.28816578672047
 30
0.0
 11
-258.9437616453263
 21
-81.27565820561972
 31
0.0
  0
LINE
  5
DE
100
AcDbEntity
  8
L1
100
AcDbLine
 10
-259.079551385119
 20
-81.28927090505817
 30
0.0
 11
-259.0685275802537
 21
-81.28816578672104
 31
0.0
  0
LINE
  5
DF
100
AcDbEntity
  8
L1
100
AcDbLine
 10
-259.3460942480924
 20
-82.4586252021578
 30
0.0
 11
-259.6121708996389
 21
-83.96762087869888
 31
0.0
  0
LINE
  5
E0
100
AcDbEntity
  8
L1
100
AcDbLine
 10
-259.8940112153572
 20
-79.07076705123813
 30
0.0
 11
-259.2995648993206
 21
-81.28927090505852
 31
0.0
  0
ARC
  5
E1
100
AcDbEntity
  8
L1
100
AcDbCircle
 10
-259.0055536875286
 20
-82.58077094859823
 30
0.0
 40
0.3617837154469492
100
AcDbArc
 50
8.359832939683009
 51
160.2680069608477
  0
CIRCLE
  5
E2
100
AcDbEntity
  8
L1
100
AcDbCircle
 10
-263.7632462872935
 20
-81.74999999999988
 30
0.0
 40
2.25
  0
ARC
  5
E3
100
AcDbEntity
  8
L1
100
AcDbCircle
 10
-263.7632462872935
 20
-81.74999999999988
 30
0.0
 40
4.70630101413334
100
AcDbArc
 50
298.1123827949439
 51
331.8876172050619
  0
POLYLINE
  5
E4
100
AcDbEntity
  8
L1
100
AcDb2dPolyline
 66
     1
 10
0.0
 20
0.0
 30
0.0
  0
VERTEX
  5
546
100
AcDbEntity
  8
L1
100
AcDbVertex
100
AcDb2dVertex
 10
-259.6121708996389
 20
-83.96762087869888
 30
0.0
  0
VERTEX
  5
547
100
AcDbEntity
  8
L1
100
AcDbVertex
100
AcDb2dVertex
 10
-259.6494411442054
 20
-84.23687734502482
 30
0.0
  0
VERTEX
  5
548
100
AcDbEntity
  8
L1
100
AcDbVertex
100
AcDb2dVertex
 10
-259.6861489167114
 20
-84.51281113358209
 30
0.0
  0
SEQEND
  5
549
100
AcDbEntity
  8
L1
  0
LINE
  5
E5
100
AcDbEntity
  8
L1
100
AcDbLine
 10
-258.3022229685225
 20
-74.91103474185149
 30
0.0
 11
-256.8970096948795
 21
-74.91103474185149
 31
0.0
  0
LINE
  5
E6
100
AcDbEntity
  8
L1
100
AcDbLine
 10
-256.8908780408295
 20
-74.90490308780147
 30
0.0
 11
-258.3083546225725
 21
-74.90490308780147
 31
0.0
  0
LINE
  5
E7
100
AcDbEntity
  8
L1
100
AcDbLine
 10
-258.6083431994917
 20
-75.00490308780149
 30
0.0
 11
-263.5083431994918
 21
-75.00490308780149
 31
0.0
  0
LINE
  5
E8
100
AcDbEntity
  8
L1
100
AcDbLine
 10
-258.3083546225725
 20
-74.90490308780147
 30
0.0
 11
-258.3022229685225
 21
-74.91103474185149
 31
0.0
  0
ELLIPSE
  5
E9
100
AcDbEntity
  8
L1
100
AcDbEllipse
 10
-258.3022229685225
 20
-75.21102331877068
 30
0.0
 11
0.2121320343559519
 21
0.2121320343559682
 31
0.0
210
0.0
220
0.0
230
-1.0
 40
0.9999238504775703
 41
-2.356156413981367
 42
-0.7854362396083489
  0
LINE
  5
EA
100
AcDbEntity
  8
L1
100
AcDbLine
 10
-258.6022115454417
 20
-75.21102331877068
 30
0.0
 11
-258.6083431994917
 21
-75.20489166472066
 31
0.0
  0
LINE
  5
EB
100
AcDbEntity
  8
L1
100
AcDbLine
 10
-258.6083431994917
 20
-75.20489166472066
 30
0.0
 11
-258.6083431994917
 21
-75.00490308780149
 31
0.0
  0
POLYLINE
  5
EC
100
AcDbEntity
  8
L1
100
AcDb2dPolyline
 66
     1
 10
0.0
 20
0.0
 30
0.0
  0
VERTEX
  5
54A
100
AcDbEntity
  8
L1
100
AcDbVertex
100
AcDb2dVertex
 10
-258.3083546225725
 20
-74.90490308780147
 30
0.0
  0
VERTEX
  5
54B
100
AcDbEntity
  8
L1
100
AcDbVertex
100
AcDb2dVertex
 10
-258.5204799653153
 20
-74.99276632197791
 30
0.0
  0
VERTEX
  5
54C
100
AcDbEntity
  8
L1
100
AcDbVertex
100
AcDb2dVertex
 10
-258.6083431994917
 20
-75.20489166472066
 30
0.0
  0
SEQEND
  5
54D
100
AcDbEntity
  8
L1
  0
LINE
  5
ED
100
AcDbEntity
  8
L1
100
AcDbLine
 10
-255.515453201239
 20
-75.49724099150694
 30
0.0
 11
-255.886537452806
 21
-75.12615673993991
 31
0.0
  0
LINE
  5
EE
100
AcDbEntity
  8
L1
100
AcDbLine
 10
-255.515453201239
 20
-75.49724099150694
 30
0.0
 11
-255.918056098988
 21
-75.50075445144296
 31
0.0
  0
LINE
  5
EF
100
AcDbEntity
  8
L1
100
AcDbLine
 10
-256.5908894639102
 20
-75.20489166472066
 30
0.0
 11
-256.5970211179602
 21
-75.21102331877068
 31
0.0
  0
LINE
  5
F0
100
AcDbEntity
  8
L1
100
AcDbLine
 10
-256.8970096948795
 20
-74.91103474185149
 30
0.0
 11
-256.8908780408295
 21
-74.90490308780147
 31
0.0
  0
ELLIPSE
  5
F1
100
AcDbEntity
  8
L1
100
AcDbEllipse
 10
-256.8970096948795
 20
-75.21102331877068
 30
0.0
 11
-0.2121320343559661
 21
0.2121320343559824
 31
0.0
210
0.0
220
0.0
230
-1.0
 40
0.9999238504775703
 41
0.7854362396083489
 42
2.356156413981367
  0
ELLIPSE
  5
F2
100
AcDbEntity
  8
L1
100
AcDbEllipse
 10
-255.9154610820093
 20
-75.80073160658628
 30
0.0
 11
-0.212132034355621
 21
-0.2121320343562821
 31
0.0
210
0.0
220
0.0
230
-1.0
 40
0.9999238504775695
 41
0.785436239609946
 42
2.347505920144955
  0
POLYLINE
  5
F3
100
AcDbEntity
  8
L1
100
AcDb2dPolyline
 66
     1
 10
0.0
 20
0.0
 30
0.0
  0
VERTEX
  5
54E
100
AcDbEntity
  8
L1
100
AcDbVertex
100
AcDb2dVertex
 10
-256.2934197946828
 20
-75.12539075574853
 30
0.0
  0
VERTEX
  5
54F
100
AcDbEntity
  8
L1
100
AcDbVertex
100
AcDb2dVertex
 10
-256.3865184143381
 20
-75.14094883660959
 30
0.0
  0
SEQEND
  5
550
100
AcDbEntity
  8
L1
  0
POLYLINE
  5
F4
100
AcDbEntity
  8
L1
100
AcDb2dPolyline
 66
     1
 10
0.0
 20
0.0
 30
0.0
  0
VERTEX
  5
551
100
AcDbEntity
  8
L1
100
AcDbVertex
100
AcDb2dVertex
 10
-255.886537452806
 20
-75.12615673993991
 30
0.0
  0
VERTEX
  5
552
100
AcDbEntity
  8
L1
100
AcDbVertex
100
AcDb2dVertex
 10
-256.0028492501682
 20
-75.12437910330709
 30
0.0
  0
VERTEX
  5
553
100
AcDbEntity
  8
L1
100
AcDbVertex
100
AcDb2dVertex
 10
-256.2934197946828
 20
-75.12539075574853
 30
0.0
  0
SEQEND
  5
554
100
AcDbEntity
  8
L1
  0
POLYLINE
  5
F5
100
AcDbEntity
  8
L1
100
AcDb2dPolyline
 66
     1
 10
0.0
 20
0.0
 30
0.0
  0
VERTEX
  5
555
100
AcDbEntity
  8
L1
100
AcDbVertex
100
AcDb2dVertex
 10
-256.5908894639102
 20
-75.20489166472066
 30
0.0
  0
VERTEX
  5
556
100
AcDbEntity
  8
L1
100
AcDbVertex
100
AcDb2dVertex
 10
-256.6787526980866
 20
-74.99276632197791
 30
0.0
  0
VERTEX
  5
557
100
AcDbEntity
  8
L1
100
AcDbVertex
100
AcDb2dVertex
 10
-256.8908780408295
 20
-74.90490308780147
 30
0.0
  0
SEQEND
  5
558
100
AcDbEntity
  8
L1
  0
LINE
  5
F6
100
AcDbEntity
  8
L1
100
AcDbLine
 10
-256.5908894639102
 20
-75.20489166472066
 30
0.0
 11
-256.5908894639102
 21
-75.42529180160477
 31
0.0
  0
POLYLINE
  5
F7
100
AcDbEntity
  8
L1
100
AcDb2dPolyline
 66
     1
 10
0.0
 20
0.0
 30
0.0
  0
VERTEX
  5
559
100
AcDbEntity
  8
L1
100
AcDbVertex
100
AcDb2dVertex
 10
-256.3865184143381
 20
-75.14094883660959
 30
0.0
  0
VERTEX
  5
55A
100
AcDbEntity
  8
L1
100
AcDbVertex
100
AcDb2dVertex
 10
-256.5344966552132
 20
-75.25020519230384
 30
0.0
  0
VERTEX
  5
55B
100
AcDbEntity
  8
L1
100
AcDbVertex
100
AcDb2dVertex
 10
-256.5908894639102
 20
-75.42529180160489
 30
0.0
  0
SEQEND
  5
55C
100
AcDbEntity
  8
L1
  0
ELLIPSE
  5
F8
100
AcDbEntity
  8
L1
100
AcDbEllipse
 10
-183.5797478984799
 20
-77.49716484343441
 30
0.0
 11
0.0
 21
2.0
 31
0.0
210
0.0
220
0.0
230
-1.0
 40
0.9999619230641712
 41
-1.570796326794896
 42
-0.0087263139929164
  0
LINE
  5
F9
100
AcDbEntity
  8
L1
100
AcDbLine
 10
-185.5796717446082
 20
-77.49716484343441
 30
0.0
 11
-185.5796717446082
 21
-86.51522712728194
 31
0.0
  0
LINE
  5
FD
100
AcDbEntity
  8
L1
100
AcDbLine
 10
-189.5795194368649
 20
-89.44999999999998
 30
0.0
 11
-188.9847138802547
 21
-90.04480555661018
 31
0.0
  0
POLYLINE
  5
101
100
AcDbEntity
  8
L1
100
AcDb2dPolyline
 66
     1
 10
0.0
 20
0.0
 30
0.0
  0
VERTEX
  5
56F
100
AcDbEntity
  8
L1
100
AcDbVertex
100
AcDb2dVertex
 10
-185.5796717446082
 20
-86.51522712728194
 30
0.0
  0
VERTEX
  5
570
100
AcDbEntity
  8
L1
100
AcDbVertex
100
AcDb2dVertex
 10
-185.5796717446082
 20
-87.59676404444229
 30
0.0
  0
VERTEX
  5
571
100
AcDbEntity
  8
L1
100
AcDbVertex
100
AcDb2dVertex
 10
-185.5796717446082
 20
-88.5724166842238
 30
0.0
  0
VERTEX
  5
572
100
AcDbEntity
  8
L1
100
AcDbVertex
100
AcDb2dVertex
 10
-185.5796717446082
 20
-89.34669055203414
 30
0.0
  0
VERTEX
  5
573
100
AcDbEntity
  8
L1
100
AcDbVertex
100
AcDb2dVertex
 10
-185.5796717446082
 20
-89.84380161504452
 30
0.0
  0
VERTEX
  5
574
100
AcDbEntity
  8
L1
100
AcDbVertex
100
AcDb2dVertex
 10
-185.5796717446082
 20
-90.01509385800659
 30
0.0
  0
SEQEND
  5
575
100
AcDbEntity
  8
L1
  0
LINE
  5
102
100
AcDbEntity
  8
L1
100
AcDbLine
 10
-183.5971996404337
 20
-89.99779308605452
 30
0.0
 11
-185.5796717446082
 21
-90.01509385800648
 31
0.0
  0
LINE
  5
103
100
AcDbEntity
  8
L1
100
AcDbLine
 10
-185.5796717446082
 20
-90.01509385800654
 30
0.0
 11
-188.9847102579301
 21
-90.04480917893472
 31
0.0
  0
ARC
  5
104
100
AcDbEntity
  8
L1
100
AcDbCircle
 10
-185.2796717446083
 20
-89.61246056631564
 30
0.0
 40
0.299999999999996
100
AcDbArc
 50
90.49999999999858
 51
180.0
  0
POLYLINE
  5
107
100
AcDbEntity
  8
L1
100
AcDb2dPolyline
 66
     1
 10
0.0
 20
0.0
 30
0.0
  0
VERTEX
  5
576
100
AcDbEntity
  8
L1
100
AcDbVertex
100
AcDb2dVertex
 10
-189.5792663384883
 20
-76.11189511497935
 30
0.0
  0
VERTEX
  5
577
100
AcDbEntity
  8
L1
100
AcDbVertex
100
AcDb2dVertex
 10
-189.5795194368648
 20
-76.11189094038627
 30
0.0
  0
SEQEND
  5
578
100
AcDbEntity
  8
L1
  0
LINE
  5
108
100
AcDbEntity
  8
L1
100
AcDbLine
 10
-189.5795194368649
 20
-73.527211141826
 30
0.0
 11
-189.578701702889
 21
-73.52721827808228
 31
0.0
  0
ARC
  5
109
100
AcDbEntity
  8
L1
100
AcDbCircle
 10
-189.2795194368649
 20
-73.24739336317856
 30
0.0
 40
0.3
100
AcDbArc
 50
179.9043305178756
 51
180.0
  0
LINE
  5
10A
100
AcDbEntity
  8
L6
100
AcDbLine
 10
-88.7789303277168
 20
-81.75000000000006
 30
0.0
 11
-74.77756888321801
 21
-81.75000000000006
 31
0.0
  0
CIRCLE
  5
10B
100
AcDbEntity
  8
L1
100
AcDbCircle
 10
-81.74999999999988
 20
-81.75000000000006
 30
0.0
 40
2.25
  0
LINE
  5
10C
100
AcDbEntity
  8
L1
100
AcDbLine
 10
-76.41188856451265
 20
-88.45000000000004
 30
0.0
 11
-86.54999999999995
 21
-88.45000000000004
 31
0.0
  0
ARC
  5
10D
100
AcDbEntity
  8
L1
100
AcDbCircle
 10
-81.75
 20
-81.75
 30
0.0
 40
5.099999999999953
100
AcDbArc
 50
352.9999999999995
 51
97.00000000000017
  0
ARC
  5
10E
100
AcDbEntity
  8
L1
100
AcDbCircle
 10
-81.75
 20
-81.75000000000006
 30
0.0
 40
5.577310141859214
100
AcDbArc
 50
0.0
 51
90.0
  0
ARC
  5
10F
100
AcDbEntity
  8
L1
100
AcDbCircle
 10
-81.75
 20
-81.75000000000006
 30
0.0
 40
8.22278885817408
100
AcDbArc
 50
359.9999999999992
 51
90.0
  0
ARC
  5
110
100
AcDbEntity
  8
L1
100
AcDbCircle
 10
-81.75
 20
-81.75000000000006
 30
0.0
 40
9.201435918374905
100
AcDbArc
 50
54.74474163330196
 51
90.0
  0
CIRCLE
  5
111
100
AcDbEntity
  8
L1
100
AcDbCircle
 10
-81.75
 20
-81.75000000000006
 30
0.0
 40
4.0
  0
LINE
  5
112
100
AcDbEntity
  8
L1
100
AcDbLine
 10
-139.5795194368649
 20
-75.21102331877091
 30
0.0
 11
-139.5795194368649
 21
-86.11633178475353
 31
0.0
  0
ARC
  5
113
100
AcDbEntity
  8
L1
100
AcDbCircle
 10
-139.8795194368649
 20
-88.61623659241393
 30
0.0
 40
0.2999999999999971
100
AcDbArc
 50
270.5000000000008
 51
0.0
  0
POLYLINE
  5
114
100
AcDbEntity
  8
L1
100
AcDb2dPolyline
 66
     1
 10
0.0
 20
0.0
 30
0.0
  0
VERTEX
  5
579
100
AcDbEntity
  8
L1
100
AcDbVertex
100
AcDb2dVertex
 10
-139.5795194368649
 20
-86.11633178475353
 30
0.0
  0
VERTEX
  5
57A
100
AcDbEntity
  8
L1
100
AcDbVertex
100
AcDb2dVertex
 10
-139.5795194368649
 20
-86.39623892210067
 30
0.0
  0
VERTEX
  5
57B
100
AcDbEntity
  8
L1
100
AcDbVertex
100
AcDb2dVertex
 10
-139.5795194368649
 20
-86.67262401171161
 30
0.0
  0
VERTEX
  5
57C
100
AcDbEntity
  8
L1
100
AcDbVertex
100
AcDb2dVertex
 10
-139.5795194368649
 20
-86.94201168736539
 30
0.0
  0
VERTEX
  5
57D
100
AcDbEntity
  8
L1
100
AcDbVertex
100
AcDb2dVertex
 10
-139.5795194368649
 20
-87.20101457085878
 30
0.0
  0
VERTEX
  5
57E
100
AcDbEntity
  8
L1
100
AcDbVertex
100
AcDb2dVertex
 10
-139.5795194368649
 20
-87.44637586612629
 30
0.0
  0
VERTEX
  5
57F
100
AcDbEntity
  8
L1
100
AcDbVertex
100
AcDb2dVertex
 10
-139.5795194368649
 20
-87.67501031137351
 30
0.0
  0
VERTEX
  5
580
100
AcDbEntity
  8
L1
100
AcDbVertex
100
AcDb2dVertex
 10
-139.5795194368649
 20
-87.88404297427684
 30
0.0
  0
VERTEX
  5
581
100
AcDbEntity
  8
L1
100
AcDbVertex
100
AcDb2dVertex
 10
-139.5795194368649
 20
-88.07084540242318
 30
0.0
  0
VERTEX
  5
582
100
AcDbEntity
  8
L1
100
AcDbVertex
100
AcDb2dVertex
 10
-139.5795194368649
 20
-88.23306867442296
 30
0.0
  0
VERTEX
  5
583
100
AcDbEntity
  8
L1
100
AcDbVertex
100
AcDb2dVertex
 10
-139.5795194368649
 20
-88.36867293609822
 30
0.0
  0
VERTEX
  5
584
100
AcDbEntity
  8
L1
100
AcDbVertex
100
AcDb2dVertex
 10
-139.5795194368649
 20
-88.47595305034815
 30
0.0
  0
VERTEX
  5
585
100
AcDbEntity
  8
L1
100
AcDbVertex
100
AcDb2dVertex
 10
-139.5795194368649
 20
-88.55356003816035
 30
0.0
  0
VERTEX
  5
586
100
AcDbEntity
  8
L1
100
AcDbVertex
100
AcDb2dVertex
 10
-139.5795194368649
 20
-88.60051804116142
 30
0.0
  0
VERTEX
  5
587
100
AcDbEntity
  8
L1
100
AcDbVertex
100
AcDb2dVertex
 10
-139.5795194368649
 20
-88.616236592414
 30
0.0
  0
SEQEND
  5
588
100
AcDbEntity
  8
L1
  0
POLYLINE
  5
115
100
AcDbEntity
  8
L1
100
AcDb2dPolyline
 66
     1
 10
0.0
 20
0.0
 30
0.0
  0
VERTEX
  5
589
100
AcDbEntity
  8
L1
100
AcDbVertex
100
AcDb2dVertex
 10
-140.58826324401
 20
-89.21982649261058
 30
0.0
  0
VERTEX
  5
58A
100
AcDbEntity
  8
L1
100
AcDbVertex
100
AcDb2dVertex
 10
-140.5795194368649
 20
-89.12672787295537
 30
0.0
  0
SEQEND
  5
58B
100
AcDbEntity
  8
L1
  0
POLYLINE
  5
116
100
AcDbEntity
  8
L1
100
AcDb2dPolyline
 66
     1
 10
0.0
 20
0.0
 30
0.0
  0
VERTEX
  5
58C
100
AcDbEntity
  8
L1
100
AcDbVertex
100
AcDb2dVertex
 10
-141.0751561691157
 20
-89.62670883448742
 30
0.0
  0
VERTEX
  5
58D
100
AcDbEntity
  8
L1
100
AcDbVertex
100
AcDb2dVertex
 10
-140.7588982078965
 20
-89.51039703712524
 30
0.0
  0
VERTEX
  5
58E
100
AcDbEntity
  8
L1
100
AcDbVertex
100
AcDb2dVertex
 10
-140.58826324401
 20
-89.21982649261058
 30
0.0
  0
SEQEND
  5
58F
100
AcDbEntity
  8
L1
  0
POLYLINE
  5
117
100
AcDbEntity
  8
L1
100
AcDb2dPolyline
 66
     1
 10
0.0
 20
0.0
 30
0.0
  0
VERTEX
  5
590
100
AcDbEntity
  8
L1
100
AcDbVertex
100
AcDb2dVertex
 10
-140.5795194368649
 20
-88.92235674845762
 30
0.0
  0
VERTEX
  5
591
100
AcDbEntity
  8
L1
100
AcDbVertex
100
AcDb2dVertex
 10
-140.5795194368649
 20
-88.92230898813449
 30
0.0
  0
VERTEX
  5
592
100
AcDbEntity
  8
L1
100
AcDbVertex
100
AcDb2dVertex
 10
-140.5795194368649
 20
-88.92217299392326
 30
0.0
  0
SEQEND
  5
593
100
AcDbEntity
  8
L1
  0
POLYLINE
  5
118
100
AcDbEntity
  8
L1
100
AcDb2dPolyline
 66
     1
 10
0.0
 20
0.0
 30
0.0
  0
VERTEX
  5
594
100
AcDbEntity
  8
L1
100
AcDbVertex
100
AcDb2dVertex
 10
-140.5795194368649
 20
-89.12672787295537
 30
0.0
  0
VERTEX
  5
595
100
AcDbEntity
  8
L1
100
AcDbVertex
100
AcDb2dVertex
 10
-140.5795194368649
 20
-88.97874963208028
 30
0.0
  0
VERTEX
  5
596
100
AcDbEntity
  8
L1
100
AcDbVertex
100
AcDb2dVertex
 10
-140.5795194368649
 20
-88.92235682338322
 30
0.0
  0
SEQEND
  5
597
100
AcDbEntity
  8
L1
  0
ARC
  5
119
100
AcDbEntity
  8
L1
100
AcDbCircle
 10
-139.8795194368649
 20
-75.21102331877091
 30
0.0
 40
0.2999999999999959
100
AcDbArc
 50
0.0
 51
89.50000000000059
  0
LINE
  5
11A
100
AcDbEntity
  8
L1
100
AcDbLine
 10
-140.5794212386022
 20
-74.90490394476495
 30
0.0
 11
-139.8769014762153
 21
-74.91103474185166
 31
0.0
  0
POLYLINE
  5
11B
100
AcDbEntity
  8
L1
100
AcDb2dPolyline
 66
     1
 10
0.0
 20
0.0
 30
0.0
  0
VERTEX
  5
598
100
AcDbEntity
  8
L1
100
AcDbVertex
100
AcDb2dVertex
 10
-140.58826324401
 20
-75.125390755706
 30
0.0
  0
VERTEX
  5
599
100
AcDbEntity
  8
L1
100
AcDbVertex
100
AcDb2dVertex
 10
-140.7588982078966
 20
-75.1243791032644
 30
0.0
  0
VERTEX
  5
59A
100
AcDbEntity
  8
L1
100
AcDbVertex
100
AcDb2dVertex
 10
-141.0751561691157
 20
-75.12615673989689
 30
0.0
  0
SEQEND
  5
59B
100
AcDbEntity
  8
L1
  0
POLYLINE
  5
11C
100
AcDbEntity
  8
L1
100
AcDb2dPolyline
 66
     1
 10
0.0
 20
0.0
 30
0.0
  0
VERTEX
  5
59C
100
AcDbEntity
  8
L1
100
AcDbVertex
100
AcDb2dVertex
 10
-140.5795194368649
 20
-75.14094883656707
 30
0.0
  0
VERTEX
  5
59D
100
AcDbEntity
  8
L1
100
AcDbVertex
100
AcDb2dVertex
 10
-140.58826324401
 20
-75.12539075570606
 30
0.0
  0
SEQEND
  5
59E
100
AcDbEntity
  8
L1
  0
LINE
  5
11D
100
AcDbEntity
  8
L6
100
AcDbLine
 10
-81.75
 20
-75.46911734185624
 30
0.0
 11
-81.75
 21
-88.04869488893832
 31
0.0
  0
ARC
  5
11E
100
AcDbEntity
  8
L1
100
AcDbCircle
 10
-85.25
 20
-72.15000000000003
 30
0.0
 40
4.022689858140807
100
AcDbArc
 50
180.0
 51
269.9999999999996
  0
LINE
  5
11F
100
AcDbEntity
  8
L1
100
AcDbLine
 10
-88.44999999999993
 20
-86.55000000000001
 30
0.0
 11
-88.44999999999993
 21
-76.41188856451271
 31
0.0
  0
ARC
  5
120
100
AcDbEntity
  8
L1
100
AcDbCircle
 10
-85.25
 20
-72.15000000000003
 30
0.0
 40
4.854985757674703
100
AcDbArc
 50
235.7665849683211
 51
276.9999999999999
  0
ARC
  5
121
100
AcDbEntity
  8
L1
100
AcDbCircle
 10
-86.54999999999995
 20
-86.55000000000001
 30
0.0
 40
1.9
100
AcDbArc
 50
180.0
 51
270.0
  0
ARC
  5
122
100
AcDbEntity
  8
L1
100
AcDbCircle
 10
-86.54999999999995
 20
-86.55000000000001
 30
0.0
 40
2.900000000000025
100
AcDbArc
 50
180.0
 51
270.0
  0
POLYLINE
  5
123
100
AcDbEntity
  8
L1
100
AcDb2dPolyline
 66
     1
 10
0.0
 20
0.0
 30
0.0
  0
VERTEX
  5
59F
100
AcDbEntity
  8
L1
100
AcDbVertex
100
AcDb2dVertex
 10
-86.54999999999995
 20
-90.04480555661018
 30
0.0
  0
VERTEX
  5
5A0
100
AcDbEntity
  8
L1
100
AcDbVertex
100
AcDb2dVertex
 10
-87.22163427376234
 20
-89.9787808133297
 30
0.0
  0
VERTEX
  5
5A1
100
AcDbEntity
  8
L1
100
AcDbVertex
100
AcDb2dVertex
 10
-87.88663729905215
 20
-89.77745407436236
 30
0.0
  0
VERTEX
  5
5A2
100
AcDbEntity
  8
L1
100
AcDbVertex
100
AcDb2dVertex
 10
-88.49876236080637
 20
-89.44872582398147
 30
0.0
  0
VERTEX
  5
5A3
100
AcDbEntity
  8
L1
100
AcDbVertex
100
AcDb2dVertex
 10
-89.01975597554359
 20
-89.01975597554367
 30
0.0
  0
VERTEX
  5
5A4
100
AcDbEntity
  8
L1
100
AcDbVertex
100
AcDb2dVertex
 10
-89.44872582398136
 20
-88.49876236080644
 30
0.0
  0
VERTEX
  5
5A5
100
AcDbEntity
  8
L1
100
AcDbVertex
100
AcDb2dVertex
 10
-89.77745407436236
 20
-87.88663729905209
 30
0.0
  0
VERTEX
  5
5A6
100
AcDbEntity
  8
L1
100
AcDbVertex
100
AcDb2dVertex
 10
-89.97878081332975
 20
-87.22163427376239
 30
0.0
  0
VERTEX
  5
5A7
100
AcDbEntity
  8
L1
100
AcDbVertex
100
AcDb2dVertex
 10
-90.04480555661007
 20
-86.55000000000001
 30
0.0
  0
SEQEND
  5
5A8
100
AcDbEntity
  8
L1
  0
POLYLINE
  5
124
100
AcDbEntity
  8
L1
100
AcDb2dPolyline
 66
     1
 10
0.0
 20
0.0
 30
0.0
  0
VERTEX
  5
5A9
100
AcDbEntity
  8
L1
100
AcDbVertex
100
AcDb2dVertex
 10
-90.04480555661007
 20
-86.55000000000001
 30
0.0
  0
VERTEX
  5
5AA
100
AcDbEntity
  8
L1
100
AcDbVertex
100
AcDb2dVertex
 10
-90.0448082733534
 20
-86.54747121693175
 30
0.0
  0
VERTEX
  5
5AB
100
AcDbEntity
  8
L1
100
AcDbVertex
100
AcDb2dVertex
 10
-90.04480917893465
 20
-86.54494244821012
 30
0.0
  0
SEQEND
  5
5AC
100
AcDbEntity
  8
L1
  0
POLYLINE
  5
125
100
AcDbEntity
  8
L1
100
AcDb2dPolyline
 66
     1
 10
0.0
 20
0.0
 30
0.0
  0
VERTEX
  5
5AD
100
AcDbEntity
  8
L1
100
AcDbVertex
100
AcDb2dVertex
 10
-86.54494244821012
 20
-90.04480917893477
 30
0.0
  0
VERTEX
  5
5AE
100
AcDbEntity
  8
L1
100
AcDbVertex
100
AcDb2dVertex
 10
-86.54747121693162
 20
-90.04480827335356
 30
0.0
  0
VERTEX
  5
5AF
100
AcDbEntity
  8
L1
100
AcDbVertex
100
AcDb2dVertex
 10
-86.54999999999995
 20
-90.04480555661018
 30
0.0
  0
SEQEND
  5
5B0
100
AcDbEntity
  8
L1
  0
LINE
  5
126
100
AcDbEntity
  8
L1
100
AcDbLine
 10
-82.37153365136624
 20
-76.6880146266293
 30
0.0
 11
-84.65832607347079
 21
-76.96879743005348
 31
0.0
  0
LINE
  5
127
100
AcDbEntity
  8
L1
100
AcDbLine
 10
-81.75
 20
-76.17268985814082
 30
0.0
 11
-85.25
 21
-76.17268985814082
 31
0.0
  0
POLYLINE
  5
128
100
AcDbEntity
  8
L1
100
AcDb2dPolyline
 66
     1
 10
0.0
 20
0.0
 30
0.0
  0
VERTEX
  5
5B1
100
AcDbEntity
  8
L1
100
AcDbVertex
100
AcDb2dVertex
 10
-84.02063810469451
 20
-71.94858692778666
 30
0.0
  0
VERTEX
  5
5B2
100
AcDbEntity
  8
L1
100
AcDbVertex
100
AcDb2dVertex
 10
-84.19636457304751
 20
-72.37283761327228
 30
0.0
  0
VERTEX
  5
5B3
100
AcDbEntity
  8
L1
100
AcDbVertex
100
AcDb2dVertex
 10
-84.620615258533
 20
-72.54856408162516
 30
0.0
  0
SEQEND
  5
5B4
100
AcDbEntity
  8
L1
  0
LINE
  5
129
100
AcDbEntity
  8
L1
100
AcDbLine
 10
-85.25
 20
-73.527211141826
 30
0.0
 11
-81.75
 21
-73.527211141826
 31
0.0
  0
ARC
  5
12A
100
AcDbEntity
  8
L1
100
AcDbCircle
 10
-85.25
 20
-72.15000000000003
 30
0.0
 40
1.377211141825941
100
AcDbArc
 50
180.0
 51
269.9999999999993
  0
LINE
  5
12B
100
AcDbEntity
  8
L1
100
AcDbLine
 10
-81.75
 20
-72.54856408162516
 30
0.0
 11
-84.620615258533
 21
-72.54856408162516
 31
0.0
  0
POLYLINE
  5
12C
100
AcDbEntity
  8
L1
100
AcDb2dPolyline
 66
     1
 10
0.0
 20
0.0
 30
0.0
  0
VERTEX
  5
5B5
100
AcDbEntity
  8
L1
100
AcDbVertex
100
AcDb2dVertex
 10
-88.44999999999993
 20
-76.41188856451271
 30
0.0
  0
VERTEX
  5
5B6
100
AcDbEntity
  8
L1
100
AcDbVertex
100
AcDb2dVertex
 10
-88.43615246538115
 20
-76.32178688011999
 30
0.0
  0
VERTEX
  5
5B7
100
AcDbEntity
  8
L1
100
AcDbVertex
100
AcDb2dVertex
 10
-88.38009311746601
 20
-76.21937327043434
 30
0.0
  0
VERTEX
  5
5B8
100
AcDbEntity
  8
L1
100
AcDbVertex
100
AcDb2dVertex
 10
-88.28920063101861
 20
-76.14612854333086
 30
0.0
  0
VERTEX
  5
5B9
100
AcDbEntity
  8
L1
100
AcDbVertex
100
AcDb2dVertex
 10
-88.17473926436855
 20
-76.11291017977584
 30
0.0
  0
VERTEX
  5
5BA
100
AcDbEntity
  8
L1
100
AcDbVertex
100
AcDb2dVertex
 10
-88.05875576872859
 20
-76.12611375956664
 30
0.0
  0
VERTEX
  5
5BB
100
AcDbEntity
  8
L1
100
AcDbVertex
100
AcDb2dVertex
 10
-87.9812481580492
 20
-76.16387222098279
 30
0.0
  0
SEQEND
  5
5BC
100
AcDbEntity
  8
L1
  0
CIRCLE
  5
12D
100
AcDbEntity
  8
L1
100
AcDbCircle
 10
-50.0
 20
-70.0
 30
0.0
 40
4.591897474510698
  0
ARC
  5
12E
100
AcDbEntity
  8
L1
100
AcDbCircle
 10
-50.0
 20
-70.0
 30
0.0
 40
3.361708113720398
100
AcDbArc
 50
306.8046934460398
 51
36.804693446043
  0
ARC
  5
12F
100
AcDbEntity
  8
L1
100
AcDbCircle
 10
-81.75
 20
-81.75000000000006
 30
0.0
 40
9.201435918374905
100
AcDbArc
 50
0.0
 51
35.25525836669881
  0
LINE
  5
130
100
AcDbEntity
  8
L1
100
AcDbLine
 10
-56.71165091966781
 20
-82.05000000000012
 30
0.0
 11
-66.71165091966781
 21
-82.05000000000012
 31
0.0
  0
LINE
  5
131
100
AcDbEntity
  8
L1
100
AcDbLine
 10
-66.71165091966781
 20
-81.4500000000001
 30
0.0
 11
-56.71165091966781
 21
-81.4500000000001
 31
0.0
  0
ARC
  5
132
100
AcDbEntity
  8
L1
100
AcDbCircle
 10
-72.14999999999998
 20
-85.25000000000005
 30
0.0
 40
1.377211141825884
100
AcDbArc
 50
180.0
 51
270.0
  0
ARC
  5
133
100
AcDbEntity
  8
L1
100
AcDbCircle
 10
-72.14999999999998
 20
-85.25000000000005
 30
0.0
 40
4.022689858140751
100
AcDbArc
 50
180.0
 51
270.0
  0
ARC
  5
134
100
AcDbEntity
  8
L1
100
AcDbCircle
 10
-72.14999999999998
 20
-85.25000000000005
 30
0.0
 40
4.854985757674693
100
AcDbArc
 50
173.0000000000007
 51
214.2334150316797
  0
POLYLINE
  5
135
100
AcDbEntity
  8
L1
100
AcDb2dPolyline
 66
     1
 10
0.0
 20
0.0
 30
0.0
  0
VERTEX
  5
5BD
100
AcDbEntity
  8
L1
100
AcDbVertex
100
AcDb2dVertex
 10
-76.16387222098274
 20
-87.9812481580493
 30
0.0
  0
VERTEX
  5
5BE
100
AcDbEntity
  8
L1
100
AcDbVertex
100
AcDb2dVertex
 10
-76.12463258036825
 20
-88.06353015795565
 30
0.0
  0
VERTEX
  5
5BF
100
AcDbEntity
  8
L1
100
AcDbVertex
100
AcDb2dVertex
 10
-76.11336543544735
 20
-88.17973794330503
 30
0.0
  0
VERTEX
  5
5C0
100
AcDbEntity
  8
L1
100
AcDbVertex
100
AcDb2dVertex
 10
-76.14730608945729
 20
-88.29142619726615
 30
0.0
  0
VERTEX
  5
5C1
100
AcDbEntity
  8
L1
100
AcDbVertex
100
AcDb2dVertex
 10
-76.22130453474835
 20
-88.38169517476904
 30
0.0
  0
VERTEX
  5
5C2
100
AcDbEntity
  8
L1
100
AcDbVertex
100
AcDb2dVertex
 10
-76.32416350158258
 20
-88.43688985481037
 30
0.0
  0
VERTEX
  5
5C3
100
AcDbEntity
  8
L1
100
AcDbVertex
100
AcDb2dVertex
 10
-76.41188856451265
 20
-88.45000000000004
 30
0.0
  0
SEQEND
  5
5C4
100
AcDbEntity
  8
L1
  0
LINE
  5
136
100
AcDbEntity
  8
L1
100
AcDbLine
 10
-76.17268985814075
 20
-85.25000000000005
 30
0.0
 11
-76.17268985814075
 21
-81.75000000000006
 31
0.0
  0
POLYLINE
  5
137
100
AcDbEntity
  8
L1
100
AcDb2dPolyline
 66
     1
 10
0.0
 20
0.0
 30
0.0
  0
VERTEX
  5
5C5
100
AcDbEntity
  8
L1
100
AcDbVertex
100
AcDb2dVertex
 10
-72.54856408162504
 20
-84.62061525853318
 30
0.0
  0
VERTEX
  5
5C6
100
AcDbEntity
  8
L1
100
AcDbVertex
100
AcDb2dVertex
 10
-72.37283761327216
 20
-84.19636457304761
 30
0.0
  0
VERTEX
  5
5C7
100
AcDbEntity
  8
L1
100
AcDbVertex
100
AcDb2dVertex
 10
-71.94858692778666
 20
-84.02063810469474
 30
0.0
  0
SEQEND
  5
5C8
100
AcDbEntity
  8
L1
  0
LINE
  5
138
100
AcDbEntity
  8
L1
100
AcDbLine
 10
-73.527211141826
 20
-81.75000000000006
 30
0.0
 11
-73.527211141826
 21
-85.25000000000005
 31
0.0
  0
LINE
  5
139
100
AcDbEntity
  8
L1
100
AcDbLine
 10
-72.54856408162504
 20
-84.62061525853318
 30
0.0
 11
-72.54856408162504
 21
-81.75000000000006
 31
0.0
  0
LINE
  5
13A
100
AcDbEntity
  8
L1
100
AcDbLine
 10
-76.96879743005343
 20
-84.65832607347095
 30
0.0
 11
-76.68801462662918
 21
-82.37153365136629
 31
0.0
  0
LINE
  5
13B
100
AcDbEntity
  8
L1
100
AcDbLine
 10
-66.71165091966781
 20
-80.85000000000007
 30
0.0
 11
-66.71165091966781
 21
-81.4500000000001
 31
0.0
  0
LINE
  5
13C
100
AcDbEntity
  8
L1
100
AcDbLine
 10
-69.75
 20
-81.75000000000011
 30
0.0
 11
-66.71165091966781
 21
-80.85000000000007
 31
0.0
  0
LINE
  5
13D
100
AcDbEntity
  8
L1
100
AcDbLine
 10
-66.7116509196677
 20
-82.65000000000004
 30
0.0
 11
-69.75
 21
-81.75000000000006
 31
0.0
  0
LINE
  5
13E
100
AcDbEntity
  8
L1
100
AcDbLine
 10
-66.71165091966781
 20
-82.05000000000012
 30
0.0
 11
-66.71165091966781
 21
-82.65000000000009
 31
0.0
  0
LINE
  5
13F
100
AcDbEntity
  8
L1
100
AcDbLine
 10
-56.7116509196677
 20
-81.45000000000004
 30
0.0
 11
-56.7116509196677
 21
-82.05000000000012
 31
0.0
  0
ARC
  5
140
100
AcDbEntity
  8
L1
100
AcDbCircle
 10
-74.75320479565778
 20
-73.50543578868964
 30
0.0
 40
0.3
100
AcDbArc
 50
44.99999999999902
 51
129.9999999999994
  0
ARC
  5
141
100
AcDbEntity
  8
L1
100
AcDbCircle
 10
-73.50543578868962
 20
-74.7532047956578
 30
0.0
 40
0.3
100
AcDbArc
 50
320.0000000000005
 51
45.00000000000131
  0
LINE
  5
142
100
AcDbEntity
  8
L1
100
AcDbLine
 10
-74.56400414403879
 20
-73.81834184412736
 30
0.0
 11
-73.8183418441273
 21
-74.56400414403884
 31
0.0
  0
POLYLINE
  5
143
100
AcDbEntity
  8
L1
100
AcDb2dPolyline
 66
     1
 10
0.0
 20
0.0
 30
0.0
  0
VERTEX
  5
5C9
100
AcDbEntity
  8
L1
100
AcDbVertex
100
AcDb2dVertex
 10
-73.8183418441273
 20
-74.56400414403891
 30
0.0
  0
VERTEX
  5
5CA
100
AcDbEntity
  8
L1
100
AcDbVertex
100
AcDb2dVertex
 10
-73.73076129788945
 20
-74.76304271985089
 30
0.0
  0
VERTEX
  5
5CB
100
AcDbEntity
  8
L1
100
AcDbVertex
100
AcDb2dVertex
 10
-73.80066121879725
 20
-74.96895704134818
 30
0.0
  0
SEQEND
  5
5CC
100
AcDbEntity
  8
L1
  0
LINE
  5
144
100
AcDbEntity
  8
L1
100
AcDbLine
 10
-73.80066121879725
 20
-74.96895704134812
 30
0.0
 11
-74.71309323779621
 21
-76.05635117798811
 31
0.0
  0
POLYLINE
  5
145
100
AcDbEntity
  8
L1
100
AcDb2dPolyline
 66
     1
 10
0.0
 20
0.0
 30
0.0
  0
VERTEX
  5
5CD
100
AcDbEntity
  8
L1
100
AcDbVertex
100
AcDb2dVertex
 10
-74.72247474059418
 20
-76.43024133155961
 30
0.0
  0
VERTEX
  5
5CE
100
AcDbEntity
  8
L1
100
AcDbVertex
100
AcDb2dVertex
 10
-74.76289542924883
 20
-76.3578696778934
 30
0.0
  0
VERTEX
  5
5CF
100
AcDbEntity
  8
L1
100
AcDbVertex
100
AcDb2dVertex
 10
-74.7832126313333
 20
-76.24291210711618
 30
0.0
  0
VERTEX
  5
5D0
100
AcDbEntity
  8
L1
100
AcDbVertex
100
AcDb2dVertex
 10
-74.75811165416849
 20
-76.12890668846006
 30
0.0
  0
VERTEX
  5
5D1
100
AcDbEntity
  8
L1
100
AcDbVertex
100
AcDb2dVertex
 10
-74.71309323779621
 20
-76.05635117798811
 30
0.0
  0
SEQEND
  5
5D2
100
AcDbEntity
  8
L1
  0
POLYLINE
  5
146
100
AcDbEntity
  8
L1
100
AcDb2dPolyline
 66
     1
 10
0.0
 20
0.0
 30
0.0
  0
VERTEX
  5
5D3
100
AcDbEntity
  8
L1
100
AcDbVertex
100
AcDb2dVertex
 10
-74.96895704134806
 20
-73.8006612187973
 30
0.0
  0
VERTEX
  5
5D4
100
AcDbEntity
  8
L1
100
AcDbVertex
100
AcDb2dVertex
 10
-74.76304271985077
 20
-73.7307612978895
 30
0.0
  0
VERTEX
  5
5D5
100
AcDbEntity
  8
L1
100
AcDbVertex
100
AcDb2dVertex
 10
-74.56400414403879
 20
-73.81834184412736
 30
0.0
  0
SEQEND
  5
5D6
100
AcDbEntity
  8
L1
  0
LINE
  5
147
100
AcDbEntity
  8
L1
100
AcDbLine
 10
-76.05635117798806
 20
-74.71309323779627
 30
0.0
 11
-74.96895704134806
 21
-73.8006612187973
 31
0.0
  0
POLYLINE
  5
148
100
AcDbEntity
  8
L1
100
AcDb2dPolyline
 66
     1
 10
0.0
 20
0.0
 30
0.0
  0
VERTEX
  5
5D7
100
AcDbEntity
  8
L1
100
AcDbVertex
100
AcDb2dVertex
 10
-76.05635117798806
 20
-74.71309323779627
 30
0.0
  0
VERTEX
  5
5D8
100
AcDbEntity
  8
L1
100
AcDbVertex
100
AcDb2dVertex
 10
-76.12889388409496
 20
-74.75810605001237
 30
0.0
  0
VERTEX
  5
5D9
100
AcDbEntity
  8
L1
100
AcDbVertex
100
AcDb2dVertex
 10
-76.2429012223098
 20
-74.78321240365892
 30
0.0
  0
VERTEX
  5
5DA
100
AcDbEntity
  8
L1
100
AcDbVertex
100
AcDb2dVertex
 10
-76.35785653158996
 20
-74.76290053926476
 30
0.0
  0
VERTEX
  5
5DB
100
AcDbEntity
  8
L1
100
AcDbVertex
100
AcDb2dVertex
 10
-76.43024133155961
 20
-74.72247474059418
 30
0.0
  0
SEQEND
  5
5DC
100
AcDbEntity
  8
L1
  0
POLYLINE
  5
149
100
AcDbEntity
  8
L1
100
AcDb2dPolyline
 66
     1
 10
0.0
 20
0.0
 30
0.0
  0
VERTEX
  5
5DD
100
AcDbEntity
  8
L1
100
AcDbVertex
100
AcDb2dVertex
 10
-74.22104981009034
 20
-76.07275752463118
 30
0.0
  0
VERTEX
  5
5DE
100
AcDbEntity
  8
L1
100
AcDbVertex
100
AcDb2dVertex
 10
-74.26301853518203
 20
-76.13857228353407
 30
0.0
  0
VERTEX
  5
5DF
100
AcDbEntity
  8
L1
100
AcDbVertex
100
AcDb2dVertex
 10
-74.29092332483413
 20
-76.25192421523667
 30
0.0
  0
VERTEX
  5
5E0
100
AcDbEntity
  8
L1
100
AcDbVertex
100
AcDb2dVertex
 10
-74.27344722080727
 20
-76.36734783859964
 30
0.0
  0
VERTEX
  5
5E1
100
AcDbEntity
  8
L1
100
AcDbVertex
100
AcDb2dVertex
 10
-74.2362124749111
 20
-76.43874591195469
 30
0.0
  0
SEQEND
  5
5E2
100
AcDbEntity
  8
L1
  0
LINE
  5
14A
100
AcDbEntity
  8
L1
100
AcDbLine
 10
-73.27562245575393
 20
-74.94604107856376
 30
0.0
 11
-74.22104981009034
 21
-76.07275752463118
 31
0.0
  0
LINE
  5
14B
100
AcDbEntity
  8
L1
100
AcDbLine
 10
-74.54107276130184
 20
-73.29330375433368
 30
0.0
 11
-73.29330375433369
 21
-74.54107276130184
 31
0.0
  0
LINE
  5
14C
100
AcDbEntity
  8
L1
100
AcDbLine
 10
-76.07275752463113
 20
-74.22104981009039
 30
0.0
 11
-74.94604107856378
 21
-73.27562245575395
 31
0.0
  0
POLYLINE
  5
14D
100
AcDbEntity
  8
L1
100
AcDb2dPolyline
 66
     1
 10
0.0
 20
0.0
 30
0.0
  0
VERTEX
  5
5E3
100
AcDbEntity
  8
L1
100
AcDbVertex
100
AcDb2dVertex
 10
-76.43874591195469
 20
-74.2362124749111
 30
0.0
  0
VERTEX
  5
5E4
100
AcDbEntity
  8
L1
100
AcDbVertex
100
AcDb2dVertex
 10
-76.36968992376921
 20
-74.27259163832565
 30
0.0
  0
VERTEX
  5
5E5
100
AcDbEntity
  8
L1
100
AcDbVertex
100
AcDb2dVertex
 10
-76.25191249057547
 20
-74.29092279007858
 30
0.0
  0
VERTEX
  5
5E6
100
AcDbEntity
  8
L1
100
AcDbVertex
100
AcDb2dVertex
 10
-76.1385588096781
 20
-74.26301223762215
 30
0.0
  0
VERTEX
  5
5E7
100
AcDbEntity
  8
L1
100
AcDbVertex
100
AcDb2dVertex
 10
-76.07275752463124
 20
-74.22104981009039
 30
0.0
  0
SEQEND
  5
5E8
100
AcDbEntity
  8
L1
  0
ARC
  5
14E
100
AcDbEntity
  8
L1
100
AcDbCircle
 10
-81.75
 20
-81.75000000000006
 30
0.0
 40
8.813962988465215
100
AcDbArc
 50
37.12531743510254
 51
52.87468256489773
  0
ARC
  5
14F
100
AcDbEntity
  8
L1
100
AcDbCircle
 10
-50.0
 20
-70.0
 30
0.0
 40
3.403605588231097
100
AcDbArc
 50
36.57089414763726
 51
143.4291058523617
  0
POLYLINE
  5
150
100
AcDbEntity
  8
L1
100
AcDb2dPolyline
 66
     1
 10
0.0
 20
0.0
 30
0.0
  0
VERTEX
  5
5E9
100
AcDbEntity
  8
L1
100
AcDbVertex
100
AcDb2dVertex
 10
-47.26649543034432
 20
-67.97207402306952
 30
0.0
  0
VERTEX
  5
5EA
100
AcDbEntity
  8
L1
100
AcDbVertex
100
AcDb2dVertex
 10
-47.30833982030708
 20
-67.98603701153473
 30
0.0
  0
SEQEND
  5
5EB
100
AcDbEntity
  8
L1
  0
ARC
  5
151
100
AcDbEntity
  8
L1
100
AcDbCircle
 10
-50.0
 20
-70.0
 30
0.0
 40
2.0
100
AcDbArc
 50
9.58591239916023
 51
170.4140876008398
  0
POLYLINE
  5
152
100
AcDbEntity
  8
L1
100
AcDb2dPolyline
 66
     1
 10
0.0
 20
0.0
 30
0.0
  0
VERTEX
  5
5EC
100
AcDbEntity
  8
L1
100
AcDbVertex
100
AcDb2dVertex
 10
-48.01396298846521
 20
-69.76408266529574
 30
0.0
  0
VERTEX
  5
5ED
100
AcDbEntity
  8
L1
100
AcDbVertex
100
AcDb2dVertex
 10
-48.02034862754442
 20
-69.71542936986634
 30
0.0
  0
VERTEX
  5
5EE
100
AcDbEntity
  8
L1
100
AcDbVertex
100
AcDb2dVertex
 10
-48.02792597693041
 20
-69.66694738023227
 30
0.0
  0
SEQEND
  5
5EF
100
AcDbEntity
  8
L1
  0
ARC
  5
153
100
AcDbEntity
  8
L1
100
AcDbCircle
 10
-50.0
 20
-70.0
 30
0.0
 40
2.0
100
AcDbArc
 50
179.9999999999983
 51
270.0
  0
LINE
  5
154
100
AcDbEntity
  8
L1
100
AcDbLine
 10
-52.0
 20
-69.99999999999994
 30
0.0
 11
-52.0
 21
-67.99999999999994
 31
0.0
  0
POLYLINE
  5
155
100
AcDbEntity
  8
L1
100
AcDb2dPolyline
 66
     1
 10
0.0
 20
0.0
 30
0.0
  0
VERTEX
  5
5F0
100
AcDbEntity
  8
L1
100
AcDbVertex
100
AcDb2dVertex
 10
-51.97207402306958
 20
-69.66694738023227
 30
0.0
  0
VERTEX
  5
5F1
100
AcDbEntity
  8
L1
100
AcDbVertex
100
AcDb2dVertex
 10
-51.98427559335789
 20
-69.74969944146192
 30
0.0
  0
VERTEX
  5
5F2
100
AcDbEntity
  8
L1
100
AcDbVertex
100
AcDb2dVertex
 10
-51.99300627772959
 20
-69.83288932729948
 30
0.0
  0
VERTEX
  5
5F3
100
AcDbEntity
  8
L1
100
AcDbVertex
100
AcDb2dVertex
 10
-51.9982508045112
 20
-69.91637152237178
 30
0.0
  0
VERTEX
  5
5F4
100
AcDbEntity
  8
L1
100
AcDbVertex
100
AcDb2dVertex
 10
-52.0
 20
-69.99999999999994
 30
0.0
  0
SEQEND
  5
5F5
100
AcDbEntity
  8
L1
  0
LINE
  5
156
100
AcDbEntity
  8
L1
100
AcDbLine
 10
-52.0
 20
-67.99999999999994
 30
0.0
 11
-52.14144032422109
 21
-67.99999999999994
 31
0.0
  0
POLYLINE
  5
157
100
AcDbEntity
  8
L1
100
AcDb2dPolyline
 66
     1
 10
0.0
 20
0.0
 30
0.0
  0
VERTEX
  5
5F6
100
AcDbEntity
  8
L1
100
AcDbVertex
100
AcDb2dVertex
 10
-52.14144032422109
 20
-67.99999999999994
 30
0.0
  0
VERTEX
  5
5F7
100
AcDbEntity
  8
L1
100
AcDbVertex
100
AcDb2dVertex
 10
-52.2561596320262
 20
-67.99992044563322
 30
0.0
  0
VERTEX
  5
5F8
100
AcDbEntity
  8
L1
100
AcDbVertex
100
AcDb2dVertex
 10
-52.36753175819206
 20
-67.99967195326786
 30
0.0
  0
VERTEX
  5
5F9
100
AcDbEntity
  8
L1
100
AcDbVertex
100
AcDb2dVertex
 10
-52.45420257652369
 20
-67.99932637051466
 30
0.0
  0
VERTEX
  5
5FA
100
AcDbEntity
  8
L1
100
AcDbVertex
100
AcDb2dVertex
 10
-52.53186610719524
 20
-67.99884680160608
 30
0.0
  0
VERTEX
  5
5FB
100
AcDbEntity
  8
L1
100
AcDbVertex
100
AcDb2dVertex
 10
-52.58733525937242
 20
-67.9983327271982
 30
0.0
  0
VERTEX
  5
5FC
100
AcDbEntity
  8
L1
100
AcDbVertex
100
AcDb2dVertex
 10
-52.62928792396895
 20
-67.99773023522647
 30
0.0
  0
VERTEX
  5
5FD
100
AcDbEntity
  8
L1
100
AcDbVertex
100
AcDb2dVertex
 10
-52.65242946816409
 20
-67.99713442957955
 30
0.0
  0
VERTEX
  5
5FE
100
AcDbEntity
  8
L1
100
AcDbVertex
100
AcDb2dVertex
 10
-52.65995545660053
 20
-67.99660062999044
 30
0.0
  0
SEQEND
  5
5FF
100
AcDbEntity
  8
L1
  0
POLYLINE
  5
158
100
AcDbEntity
  8
L1
100
AcDb2dPolyline
 66
     1
 10
0.0
 20
0.0
 30
0.0
  0
VERTEX
  5
600
100
AcDbEntity
  8
L1
100
AcDbVertex
100
AcDb2dVertex
 10
-52.65995545660047
 20
-67.99660062999044
 30
0.0
  0
VERTEX
  5
601
100
AcDbEntity
  8
L1
100
AcDbVertex
100
AcDb2dVertex
 10
-52.6916601796932
 20
-67.98603701153479
 30
0.0
  0
SEQEND
  5
602
100
AcDbEntity
  8
L1
  0
POLYLINE
  5
159
100
AcDbEntity
  8
L1
100
AcDb2dPolyline
 66
     1
 10
0.0
 20
0.0
 30
0.0
  0
VERTEX
  5
603
100
AcDbEntity
  8
L1
100
AcDbVertex
100
AcDb2dVertex
 10
-52.6916601796932
 20
-67.98603701153479
 30
0.0
  0
VERTEX
  5
604
100
AcDbEntity
  8
L1
100
AcDbVertex
100
AcDb2dVertex
 10
-52.73350456965573
 20
-67.97207402306952
 30
0.0
  0
SEQEND
  5
605
100
AcDbEntity
  8
L1
  0
LINE
  5
15A
100
AcDbEntity
  8
L1
100
AcDbLine
 10
-48.0
 20
-72.14144032422109
 30
0.0
 11
-48.0
 21
-71.99999999999994
 31
0.0
  0
POLYLINE
  5
15B
100
AcDbEntity
  8
L1
100
AcDb2dPolyline
 66
     1
 10
0.0
 20
0.0
 30
0.0
  0
VERTEX
  5
606
100
AcDbEntity
  8
L1
100
AcDbVertex
100
AcDb2dVertex
 10
-47.98603701153479
 20
-72.69166017969315
 30
0.0
  0
VERTEX
  5
607
100
AcDbEntity
  8
L1
100
AcDbVertex
100
AcDb2dVertex
 10
-47.99660062999055
 20
-72.65995545660047
 30
0.0
  0
SEQEND
  5
608
100
AcDbEntity
  8
L1
  0
POLYLINE
  5
15C
100
AcDbEntity
  8
L1
100
AcDb2dPolyline
 66
     1
 10
0.0
 20
0.0
 30
0.0
  0
VERTEX
  5
609
100
AcDbEntity
  8
L1
100
AcDbVertex
100
AcDb2dVertex
 10
-47.99660062999055
 20
-72.65995545660053
 30
0.0
  0
VERTEX
  5
60A
100
AcDbEntity
  8
L1
100
AcDbVertex
100
AcDb2dVertex
 10
-47.99713442957965
 20
-72.65242946816409
 30
0.0
  0
VERTEX
  5
60B
100
AcDbEntity
  8
L1
100
AcDbVertex
100
AcDb2dVertex
 10
-47.99773023522653
 20
-72.629287923969
 30
0.0
  0
VERTEX
  5
60C
100
AcDbEntity
  8
L1
100
AcDbVertex
100
AcDb2dVertex
 10
-47.99833272719832
 20
-72.58733525937248
 30
0.0
  0
VERTEX
  5
60D
100
AcDbEntity
  8
L1
100
AcDbVertex
100
AcDb2dVertex
 10
-47.99884680160618
 20
-72.53186610719524
 30
0.0
  0
VERTEX
  5
60E
100
AcDbEntity
  8
L1
100
AcDbVertex
100
AcDb2dVertex
 10
-47.99932637051472
 20
-72.45420257652381
 30
0.0
  0
VERTEX
  5
60F
100
AcDbEntity
  8
L1
100
AcDbVertex
100
AcDb2dVertex
 10
-47.99967195326792
 20
-72.36753175819206
 30
0.0
  0
VERTEX
  5
610
100
AcDbEntity
  8
L1
100
AcDbVertex
100
AcDb2dVertex
 10
-47.99992044563333
 20
-72.25615963202614
 30
0.0
  0
VERTEX
  5
611
100
AcDbEntity
  8
L1
100
AcDbVertex
100
AcDb2dVertex
 10
-48.0
 20
-72.14144032422109
 30
0.0
  0
SEQEND
  5
612
100
AcDbEntity
  8
L1
  0
LINE
  5
15D
100
AcDbEntity
  8
L1
100
AcDbLine
 10
-48.01396298846521
 20
-69.76408266529574
 30
0.0
 11
-48.01396298846521
 21
-67.98603701153473
 31
0.0
  0
LINE
  5
15E
100
AcDbEntity
  8
L1
100
AcDbLine
 10
-48.01396298846521
 20
-67.98603701153473
 30
0.0
 11
-47.30833982030708
 21
-67.98603701153473
 31
0.0
  0
ARC
  5
15F
100
AcDbEntity
  8
L1
100
AcDbCircle
 10
-50.0
 20
-70.0
 30
0.0
 40
2.0
100
AcDbArc
 50
276.7743060722754
 51
6.774306072261453
  0
LINE
  5
160
100
AcDbEntity
  8
L1
100
AcDbLine
 10
-48.0
 20
-71.99999999999994
 30
0.0
 11
-50.0
 21
-71.99999999999994
 31
0.0
  0
POLYLINE
  5
161
100
AcDbEntity
  8
L1
100
AcDb2dPolyline
 66
     1
 10
0.0
 20
0.0
 30
0.0
  0
VERTEX
  5
613
100
AcDbEntity
  8
L1
100
AcDbVertex
100
AcDb2dVertex
 10
-50.0
 20
-72.0
 30
0.0
  0
VERTEX
  5
614
100
AcDbEntity
  8
L1
100
AcDbVertex
100
AcDb2dVertex
 10
-49.92119777331424
 20
-71.99844694927572
 30
0.0
  0
VERTEX
  5
615
100
AcDbEntity
  8
L1
100
AcDbVertex
100
AcDb2dVertex
 10
-49.84251793048372
 20
-71.99379020906935
 30
0.0
  0
VERTEX
  5
616
100
AcDbEntity
  8
L1
100
AcDbVertex
100
AcDb2dVertex
 10
-49.76408266529529
 20
-71.98603701153473
 30
0.0
  0
SEQEND
  5
617
100
AcDbEntity
  8
L1
  0
CIRCLE
  5
162
100
AcDbEntity
  8
L1
100
AcDbCircle
 10
-50.0
 20
-70.0
 30
0.0
 40
1.6
  0
CIRCLE
  5
163
100
AcDbEntity
  8
L1
100
AcDbCircle
 10
-70.0
 20
-50.0
 30
0.0
 40
4.591897474510698
  0
ARC
  5
164
100
AcDbEntity
  8
L1
100
AcDbCircle
 10
-70.0
 20
-50.0
 30
0.0
 40
2.0
100
AcDbArc
 50
279.5859123991511
 51
80.41408760082907
  0
ARC
  5
165
100
AcDbEntity
  8
L1
100
AcDbCircle
 10
-70.0
 20
-50.0
 30
0.0
 40
3.403605588231097
100
AcDbArc
 50
306.5708941476372
 51
53.42910585236274
  0
LINE
  5
166
100
AcDbEntity
  8
L1
100
AcDbLine
 10
-72.0
 20
-50.00000000000006
 30
0.0
 11
-72.0
 21
-48.00000000000006
 31
0.0
  0
ARC
  5
167
100
AcDbEntity
  8
L1
100
AcDbCircle
 10
-70.0
 20
-50.0
 30
0.0
 40
2.0
100
AcDbArc
 50
83.22569392772463
 51
173.2256939277385
  0
ARC
  5
168
100
AcDbEntity
  8
L1
100
AcDbCircle
 10
-70.0
 20
-50.0
 30
0.0
 40
2.0
100
AcDbArc
 50
180.0000000000016
 51
270.0
  0
POLYLINE
  5
169
100
AcDbEntity
  8
L1
100
AcDb2dPolyline
 66
     1
 10
0.0
 20
0.0
 30
0.0
  0
VERTEX
  5
618
100
AcDbEntity
  8
L1
100
AcDbVertex
100
AcDb2dVertex
 10
-71.98603701153479
 20
-49.76408266529574
 30
0.0
  0
VERTEX
  5
619
100
AcDbEntity
  8
L1
100
AcDbVertex
100
AcDb2dVertex
 10
-71.9937902090694
 20
-49.842517930484
 30
0.0
  0
VERTEX
  5
61A
100
AcDbEntity
  8
L1
100
AcDbVertex
100
AcDb2dVertex
 10
-71.99844694927572
 20
-49.92119777331442
 30
0.0
  0
VERTEX
  5
61B
100
AcDbEntity
  8
L1
100
AcDbVertex
100
AcDb2dVertex
 10
-72.0
 20
-50.00000000000006
 30
0.0
  0
SEQEND
  5
61C
100
AcDbEntity
  8
L1
  0
LINE
  5
16A
100
AcDbEntity
  8
L1
100
AcDbLine
 10
-68.0
 20
-52.00000000000006
 30
0.0
 11
-70.0
 21
-52.00000000000006
 31
0.0
  0
POLYLINE
  5
16B
100
AcDbEntity
  8
L1
100
AcDb2dPolyline
 66
     1
 10
0.0
 20
0.0
 30
0.0
  0
VERTEX
  5
61D
100
AcDbEntity
  8
L1
100
AcDbVertex
100
AcDb2dVertex
 10
-70.0
 20
-52.0
 30
0.0
  0
VERTEX
  5
61E
100
AcDbEntity
  8
L1
100
AcDbVertex
100
AcDb2dVertex
 10
-69.91637152237195
 20
-51.9982508045112
 30
0.0
  0
VERTEX
  5
61F
100
AcDbEntity
  8
L1
100
AcDbVertex
100
AcDb2dVertex
 10
-69.83288932729966
 20
-51.99300627772959
 30
0.0
  0
VERTEX
  5
620
100
AcDbEntity
  8
L1
100
AcDbVertex
100
AcDb2dVertex
 10
-69.74969944146221
 20
-51.98427559335783
 30
0.0
  0
VERTEX
  5
621
100
AcDbEntity
  8
L1
100
AcDbVertex
100
AcDb2dVertex
 10
-69.66694738023261
 20
-51.97207402306964
 30
0.0
  0
SEQEND
  5
622
100
AcDbEntity
  8
L1
  0
LINE
  5
16C
100
AcDbEntity
  8
L1
100
AcDbLine
 10
-68.0
 20
-52.14144032422109
 30
0.0
 11
-68.0
 21
-52.00000000000006
 31
0.0
  0
POLYLINE
  5
16D
100
AcDbEntity
  8
L1
100
AcDb2dPolyline
 66
     1
 10
0.0
 20
0.0
 30
0.0
  0
VERTEX
  5
623
100
AcDbEntity
  8
L1
100
AcDbVertex
100
AcDb2dVertex
 10
-67.98603701153479
 20
-52.69166017969315
 30
0.0
  0
VERTEX
  5
624
100
AcDbEntity
  8
L1
100
AcDbVertex
100
AcDb2dVertex
 10
-67.99660062999056
 20
-52.65995545660047
 30
0.0
  0
SEQEND
  5
625
100
AcDbEntity
  8
L1
  0
POLYLINE
  5
16E
100
AcDbEntity
  8
L1
100
AcDb2dPolyline
 66
     1
 10
0.0
 20
0.0
 30
0.0
  0
VERTEX
  5
626
100
AcDbEntity
  8
L1
100
AcDbVertex
100
AcDb2dVertex
 10
-67.97207402306958
 20
-52.73350456965573
 30
0.0
  0
VERTEX
  5
627
100
AcDbEntity
  8
L1
100
AcDbVertex
100
AcDb2dVertex
 10
-67.98603701153479
 20
-52.69166017969315
 30
0.0
  0
SEQEND
  5
628
100
AcDbEntity
  8
L1
  0
POLYLINE
  5
16F
100
AcDbEntity
  8
L1
100
AcDb2dPolyline
 66
     1
 10
0.0
 20
0.0
 30
0.0
  0
VERTEX
  5
629
100
AcDbEntity
  8
L1
100
AcDbVertex
100
AcDb2dVertex
 10
-67.99660062999056
 20
-52.65995545660053
 30
0.0
  0
VERTEX
  5
62A
100
AcDbEntity
  8
L1
100
AcDbVertex
100
AcDb2dVertex
 10
-67.99713442957965
 20
-52.65242946816414
 30
0.0
  0
VERTEX
  5
62B
100
AcDbEntity
  8
L1
100
AcDbVertex
100
AcDb2dVertex
 10
-67.99773023522653
 20
-52.629287923969
 30
0.0
  0
VERTEX
  5
62C
100
AcDbEntity
  8
L1
100
AcDbVertex
100
AcDb2dVertex
 10
-67.99833272719832
 20
-52.58733525937248
 30
0.0
  0
VERTEX
  5
62D
100
AcDbEntity
  8
L1
100
AcDbVertex
100
AcDb2dVertex
 10
-67.99884680160619
 20
-52.53186610719524
 30
0.0
  0
VERTEX
  5
62E
100
AcDbEntity
  8
L1
100
AcDbVertex
100
AcDb2dVertex
 10
-67.99932637051472
 20
-52.45420257652381
 30
0.0
  0
VERTEX
  5
62F
100
AcDbEntity
  8
L1
100
AcDbVertex
100
AcDb2dVertex
 10
-67.99967195326792
 20
-52.36753175819206
 30
0.0
  0
VERTEX
  5
630
100
AcDbEntity
  8
L1
100
AcDbVertex
100
AcDb2dVertex
 10
-67.99992044563328
 20
-52.25615963202614
 30
0.0
  0
VERTEX
  5
631
100
AcDbEntity
  8
L1
100
AcDbVertex
100
AcDb2dVertex
 10
-68.0
 20
-52.14144032422109
 30
0.0
  0
SEQEND
  5
632
100
AcDbEntity
  8
L1
  0
CIRCLE
  5
170
100
AcDbEntity
  8
L1
100
AcDbCircle
 10
-70.0
 20
-50.0
 30
0.0
 40
1.6
  0
ARC
  5
171
100
AcDbEntity
  8
L1
100
AcDbCircle
 10
-70.0
 20
-50.0
 30
0.0
 40
3.361708113720398
100
AcDbArc
 50
53.19530655395766
 51
143.1953065539615
  0
POLYLINE
  5
172
100
AcDbEntity
  8
L1
100
AcDb2dPolyline
 66
     1
 10
0.0
 20
0.0
 30
0.0
  0
VERTEX
  5
633
100
AcDbEntity
  8
L1
100
AcDbVertex
100
AcDb2dVertex
 10
-72.65995545660064
 20
-47.99660062999061
 30
0.0
  0
VERTEX
  5
634
100
AcDbEntity
  8
L1
100
AcDbVertex
100
AcDb2dVertex
 10
-72.69166017969325
 20
-47.9860370115349
 30
0.0
  0
SEQEND
  5
635
100
AcDbEntity
  8
L1
  0
LINE
  5
173
100
AcDbEntity
  8
L1
100
AcDbLine
 10
-72.0
 20
-48.00000000000006
 30
0.0
 11
-72.14144032422121
 21
-48.00000000000006
 31
0.0
  0
POLYLINE
  5
174
100
AcDbEntity
  8
L1
100
AcDb2dPolyline
 66
     1
 10
0.0
 20
0.0
 30
0.0
  0
VERTEX
  5
636
100
AcDbEntity
  8
L1
100
AcDbVertex
100
AcDb2dVertex
 10
-72.14144032422121
 20
-48.00000000000006
 30
0.0
  0
VERTEX
  5
637
100
AcDbEntity
  8
L1
100
AcDbVertex
100
AcDb2dVertex
 10
-72.25615963202631
 20
-47.99992044563333
 30
0.0
  0
VERTEX
  5
638
100
AcDbEntity
  8
L1
100
AcDbVertex
100
AcDb2dVertex
 10
-72.36753175819217
 20
-47.99967195326792
 30
0.0
  0
VERTEX
  5
639
100
AcDbEntity
  8
L1
100
AcDbVertex
100
AcDb2dVertex
 10
-72.45420257652381
 20
-47.99932637051478
 30
0.0
  0
VERTEX
  5
63A
100
AcDbEntity
  8
L1
100
AcDbVertex
100
AcDb2dVertex
 10
-72.53186610719535
 20
-47.99884680160618
 30
0.0
  0
VERTEX
  5
63B
100
AcDbEntity
  8
L1
100
AcDbVertex
100
AcDb2dVertex
 10
-72.58733525937259
 20
-47.99833272719832
 30
0.0
  0
VERTEX
  5
63C
100
AcDbEntity
  8
L1
100
AcDbVertex
100
AcDb2dVertex
 10
-72.62928792396905
 20
-47.99773023522658
 30
0.0
  0
VERTEX
  5
63D
100
AcDbEntity
  8
L1
100
AcDbVertex
100
AcDb2dVertex
 10
-72.6524294681642
 20
-47.99713442957972
 30
0.0
  0
VERTEX
  5
63E
100
AcDbEntity
  8
L1
100
AcDbVertex
100
AcDb2dVertex
 10
-72.65995545660053
 20
-47.99660062999055
 30
0.0
  0
SEQEND
  5
63F
100
AcDbEntity
  8
L1
  0
POLYLINE
  5
175
100
AcDbEntity
  8
L1
100
AcDb2dPolyline
 66
     1
 10
0.0
 20
0.0
 30
0.0
  0
VERTEX
  5
640
100
AcDbEntity
  8
L1
100
AcDbVertex
100
AcDb2dVertex
 10
-69.66694738023193
 20
-48.02792597693048
 30
0.0
  0
VERTEX
  5
641
100
AcDbEntity
  8
L1
100
AcDbVertex
100
AcDb2dVertex
 10
-69.71542936986589
 20
-48.02034862754448
 30
0.0
  0
VERTEX
  5
642
100
AcDbEntity
  8
L1
100
AcDbVertex
100
AcDb2dVertex
 10
-69.76408266529529
 20
-48.01396298846526
 30
0.0
  0
SEQEND
  5
643
100
AcDbEntity
  8
L1
  0
POLYLINE
  5
176
100
AcDbEntity
  8
L1
100
AcDb2dPolyline
 66
     1
 10
0.0
 20
0.0
 30
0.0
  0
VERTEX
  5
644
100
AcDbEntity
  8
L1
100
AcDbVertex
100
AcDb2dVertex
 10
-67.98603701153479
 20
-47.30833982030702
 30
0.0
  0
VERTEX
  5
645
100
AcDbEntity
  8
L1
100
AcDbVertex
100
AcDb2dVertex
 10
-67.97207402306958
 20
-47.26649543034426
 30
0.0
  0
SEQEND
  5
646
100
AcDbEntity
  8
L1
  0
LINE
  5
177
100
AcDbEntity
  8
L1
100
AcDbLine
 10
-67.98603701153479
 20
-47.30833982030702
 30
0.0
 11
-67.98603701153479
 21
-48.01396298846526
 31
0.0
  0
LINE
  5
178
100
AcDbEntity
  8
L1
100
AcDbLine
 10
-67.98603701153479
 20
-48.01396298846526
 30
0.0
 11
-69.76408266529529
 21
-48.01396298846526
 31
0.0
  0
CIRCLE
  5
179
100
AcDbEntity
  8
L1
100
AcDbCircle
 10
-70.0
 20
0.0
 30
0.0
 40
4.591897474510698
  0
ARC
  5
17A
100
AcDbEntity
  8
L1
100
AcDbCircle
 10
-70.0
 20
0.0
 30
0.0
 40
2.0
100
AcDbArc
 50
83.22569392773774
 51
276.7743060722614
  0
ARC
  5
17B
100
AcDbEntity
  8
L1
100
AcDbCircle
 10
-70.0
 20
0.0
 30
0.0
 40
3.403605588231097
100
AcDbArc
 50
306.5708941476355
 51
53.42910585236446
  0
CIRCLE
  5
17C
100
AcDbEntity
  8
L1
100
AcDbCircle
 10
-70.0
 20
0.0
 30
0.0
 40
1.6
  0
CIRCLE
  5
17D
100
AcDbEntity
  8
L1
100
AcDbCircle
 10
-70.0
 20
-10.0
 30
0.0
 40
1.2581025254893
  0
POLYLINE
  5
17E
100
AcDbEntity
  8
L1
100
AcDb2dPolyline
 66
     1
 10
0.0
 20
0.0
 30
0.0
  0
VERTEX
  5
647
100
AcDbEntity
  8
L1
100
AcDbVertex
100
AcDb2dVertex
 10
-67.97207402306958
 20
-2.733504569655792
 30
0.0
  0
VERTEX
  5
648
100
AcDbEntity
  8
L1
100
AcDbVertex
100
AcDb2dVertex
 10
-67.98263764152534
 20
-2.701853931434015
 30
0.0
  0
SEQEND
  5
649
100
AcDbEntity
  8
L1
  0
POLYLINE
  5
17F
100
AcDbEntity
  8
L1
100
AcDb2dPolyline
 66
     1
 10
0.0
 20
0.0
 30
0.0
  0
VERTEX
  5
64A
100
AcDbEntity
  8
L1
100
AcDbVertex
100
AcDb2dVertex
 10
-67.98263764152534
 20
-2.701853931434072
 30
0.0
  0
VERTEX
  5
64B
100
AcDbEntity
  8
L1
100
AcDbVertex
100
AcDb2dVertex
 10
-67.98317231306487
 20
-2.694327222759
 30
0.0
  0
VERTEX
  5
64C
100
AcDbEntity
  8
L1
100
AcDbVertex
100
AcDb2dVertex
 10
-67.98376902709844
 20
-2.671185009003977
 30
0.0
  0
VERTEX
  5
64D
100
AcDbEntity
  8
L1
100
AcDbVertex
100
AcDb2dVertex
 10
-67.98437165134146
 20
-2.629295732131311
 30
0.0
  0
VERTEX
  5
64E
100
AcDbEntity
  8
L1
100
AcDbVertex
100
AcDb2dVertex
 10
-67.98488604447323
 20
-2.57389734930814
 30
0.0
  0
VERTEX
  5
64F
100
AcDbEntity
  8
L1
100
AcDbVertex
100
AcDb2dVertex
 10
-67.9853649221335
 20
-2.496513979689837
 30
0.0
  0
VERTEX
  5
650
100
AcDbEntity
  8
L1
100
AcDbVertex
100
AcDb2dVertex
 10
-67.98571019259305
 20
-2.410131526208203
 30
0.0
  0
VERTEX
  5
651
100
AcDbEntity
  8
L1
100
AcDbVertex
100
AcDb2dVertex
 10
-67.98595766314395
 20
-2.299553275057007
 30
0.0
  0
VERTEX
  5
652
100
AcDbEntity
  8
L1
100
AcDbVertex
100
AcDb2dVertex
 10
-67.98603701153479
 20
-2.18563645989019
 30
0.0
  0
SEQEND
  5
653
100
AcDbEntity
  8
L1
  0
LINE
  5
180
100
AcDbEntity
  8
L1
100
AcDbLine
 10
-67.98603701153479
 20
-2.18563645989019
 30
0.0
 11
-67.98603701153479
 21
-1.98603701153479
 31
0.0
  0
LINE
  5
181
100
AcDbEntity
  8
L1
100
AcDbLine
 10
-67.98603701153479
 20
-1.98603701153479
 30
0.0
 11
-69.76408266529574
 21
-1.98603701153479
 31
0.0
  0
POLYLINE
  5
182
100
AcDbEntity
  8
L1
100
AcDb2dPolyline
 66
     1
 10
0.0
 20
0.0
 30
0.0
  0
VERTEX
  5
654
100
AcDbEntity
  8
L1
100
AcDbVertex
100
AcDb2dVertex
 10
-69.76408266529574
 20
-1.98603701153479
 30
0.0
  0
VERTEX
  5
655
100
AcDbEntity
  8
L1
100
AcDbVertex
100
AcDb2dVertex
 10
-69.71542936986622
 20
-1.979651372455577
 30
0.0
  0
VERTEX
  5
656
100
AcDbEntity
  8
L1
100
AcDbVertex
100
AcDb2dVertex
 10
-69.66694738023216
 20
-1.972074023069581
 30
0.0
  0
SEQEND
  5
657
100
AcDbEntity
  8
L1
  0
POLYLINE
  5
183
100
AcDbEntity
  8
L1
100
AcDb2dPolyline
 66
     1
 10
0.0
 20
0.0
 30
0.0
  0
VERTEX
  5
658
100
AcDbEntity
  8
L1
100
AcDbVertex
100
AcDb2dVertex
 10
-67.98603701153479
 20
2.18563645989019
 30
0.0
  0
VERTEX
  5
659
100
AcDbEntity
  8
L1
100
AcDbVertex
100
AcDb2dVertex
 10
-67.98595766314395
 20
2.299553275057064
 30
0.0
  0
VERTEX
  5
65A
100
AcDbEntity
  8
L1
100
AcDbVertex
100
AcDb2dVertex
 10
-67.98571019259316
 20
2.410131526208203
 30
0.0
  0
VERTEX
  5
65B
100
AcDbEntity
  8
L1
100
AcDbVertex
100
AcDb2dVertex
 10
-67.9853649221335
 20
2.49651397968995
 30
0.0
  0
VERTEX
  5
65C
100
AcDbEntity
  8
L1
100
AcDbVertex
100
AcDb2dVertex
 10
-67.98488604447323
 20
2.573897349308253
 30
0.0
  0
VERTEX
  5
65D
100
AcDbEntity
  8
L1
100
AcDbVertex
100
AcDb2dVertex
 10
-67.98437165134146
 20
2.629295732131311
 30
0.0
  0
VERTEX
  5
65E
100
AcDbEntity
  8
L1
100
AcDbVertex
100
AcDb2dVertex
 10
-67.98376902709844
 20
2.671185009003977
 30
0.0
  0
VERTEX
  5
65F
100
AcDbEntity
  8
L1
100
AcDbVertex
100
AcDb2dVertex
 10
-67.98317231306487
 20
2.694327222759056
 30
0.0
  0
VERTEX
  5
660
100
AcDbEntity
  8
L1
100
AcDbVertex
100
AcDb2dVertex
 10
-67.98263764152534
 20
2.701853931434129
 30
0.0
  0
SEQEND
  5
661
100
AcDbEntity
  8
L1
  0
POLYLINE
  5
184
100
AcDbEntity
  8
L1
100
AcDb2dPolyline
 66
     1
 10
0.0
 20
0.0
 30
0.0
  0
VERTEX
  5
662
100
AcDbEntity
  8
L1
100
AcDbVertex
100
AcDb2dVertex
 10
-67.98263764152534
 20
2.701853931434015
 30
0.0
  0
VERTEX
  5
663
100
AcDbEntity
  8
L1
100
AcDbVertex
100
AcDb2dVertex
 10
-67.97207402306958
 20
2.733504569655792
 30
0.0
  0
SEQEND
  5
664
100
AcDbEntity
  8
L1
  0
LINE
  5
185
100
AcDbEntity
  8
L1
100
AcDbLine
 10
-67.98603701153479
 20
1.98603701153479
 30
0.0
 11
-67.98603701153479
 21
2.18563645989019
 31
0.0
  0
LINE
  5
186
100
AcDbEntity
  8
L1
100
AcDbLine
 10
-69.76408266529574
 20
1.98603701153479
 30
0.0
 11
-67.98603701153479
 21
1.98603701153479
 31
0.0
  0
POLYLINE
  5
187
100
AcDbEntity
  8
L1
100
AcDb2dPolyline
 66
     1
 10
0.0
 20
0.0
 30
0.0
  0
VERTEX
  5
665
100
AcDbEntity
  8
L1
100
AcDbVertex
100
AcDb2dVertex
 10
-69.66694738023216
 20
1.972074023069581
 30
0.0
  0
VERTEX
  5
666
100
AcDbEntity
  8
L1
100
AcDbVertex
100
AcDb2dVertex
 10
-69.71542936986622
 20
1.979651372455577
 30
0.0
  0
VERTEX
  5
667
100
AcDbEntity
  8
L1
100
AcDbVertex
100
AcDb2dVertex
 10
-69.76408266529574
 20
1.98603701153479
 30
0.0
  0
SEQEND
  5
668
100
AcDbEntity
  8
L1
  0
CIRCLE
  5
188
100
AcDbEntity
  8
L1
100
AcDbCircle
 10
-70.0
 20
10.0
 30
0.0
 40
1.2581025254893
  0
CIRCLE
  5
189
100
AcDbEntity
  8
L1
100
AcDbCircle
 10
-70.0
 20
50.0
 30
0.0
 40
4.591897474510698
  0
ARC
  5
18A
100
AcDbEntity
  8
L1
100
AcDbCircle
 10
-70.0
 20
50.00000000000006
 30
0.0
 40
2.0
100
AcDbArc
 50
90.00000000000078
 51
180.0000000000007
  0
ARC
  5
18B
100
AcDbEntity
  8
L1
100
AcDbCircle
 10
-70.0
 20
50.00000000000006
 30
0.0
 40
3.361708113720398
100
AcDbArc
 50
216.8046934460402
 51
306.8046934460391
  0
ARC
  5
18C
100
AcDbEntity
  8
L1
100
AcDbCircle
 10
-70.0
 20
50.00000000000006
 30
0.0
 40
2.0
100
AcDbArc
 50
186.7743060722548
 51
276.7743060722549
  0
LINE
  5
18D
100
AcDbEntity
  8
L1
100
AcDbLine
 10
-72.14144032422109
 20
48.0
 30
0.0
 11
-72.0
 21
48.0
 31
0.0
  0
POLYLINE
  5
18E
100
AcDbEntity
  8
L1
100
AcDb2dPolyline
 66
     1
 10
0.0
 20
0.0
 30
0.0
  0
VERTEX
  5
669
100
AcDbEntity
  8
L1
100
AcDbVertex
100
AcDb2dVertex
 10
-72.69166017969315
 20
47.98603701153479
 30
0.0
  0
VERTEX
  5
66A
100
AcDbEntity
  8
L1
100
AcDbVertex
100
AcDb2dVertex
 10
-72.65995545660053
 20
47.99660062999049
 30
0.0
  0
SEQEND
  5
66B
100
AcDbEntity
  8
L1
  0
POLYLINE
  5
18F
100
AcDbEntity
  8
L1
100
AcDb2dPolyline
 66
     1
 10
0.0
 20
0.0
 30
0.0
  0
VERTEX
  5
66C
100
AcDbEntity
  8
L1
100
AcDbVertex
100
AcDb2dVertex
 10
-72.65995545660053
 20
47.99660062999049
 30
0.0
  0
VERTEX
  5
66D
100
AcDbEntity
  8
L1
100
AcDbVertex
100
AcDb2dVertex
 10
-72.65242946816409
 20
47.9971344295796
 30
0.0
  0
VERTEX
  5
66E
100
AcDbEntity
  8
L1
100
AcDbVertex
100
AcDb2dVertex
 10
-72.62928792396895
 20
47.99773023522653
 30
0.0
  0
VERTEX
  5
66F
100
AcDbEntity
  8
L1
100
AcDbVertex
100
AcDb2dVertex
 10
-72.58733525937237
 20
47.99833272719832
 30
0.0
  0
VERTEX
  5
670
100
AcDbEntity
  8
L1
100
AcDbVertex
100
AcDb2dVertex
 10
-72.53186610719524
 20
47.99884680160613
 30
0.0
  0
VERTEX
  5
671
100
AcDbEntity
  8
L1
100
AcDbVertex
100
AcDb2dVertex
 10
-72.45420257652369
 20
47.99932637051466
 30
0.0
  0
VERTEX
  5
672
100
AcDbEntity
  8
L1
100
AcDbVertex
100
AcDb2dVertex
 10
-72.36753175819206
 20
47.99967195326786
 30
0.0
  0
VERTEX
  5
673
100
AcDbEntity
  8
L1
100
AcDbVertex
100
AcDb2dVertex
 10
-72.25615963202631
 20
47.99992044563333
 30
0.0
  0
VERTEX
  5
674
100
AcDbEntity
  8
L1
100
AcDbVertex
100
AcDb2dVertex
 10
-72.14144032422109
 20
48.0
 30
0.0
  0
SEQEND
  5
675
100
AcDbEntity
  8
L1
  0
LINE
  5
190
100
AcDbEntity
  8
L1
100
AcDbLine
 10
-72.0
 20
48.0
 30
0.0
 11
-72.0
 21
50.0
 31
0.0
  0
POLYLINE
  5
191
100
AcDbEntity
  8
L1
100
AcDb2dPolyline
 66
     1
 10
0.0
 20
0.0
 30
0.0
  0
VERTEX
  5
676
100
AcDbEntity
  8
L1
100
AcDbVertex
100
AcDb2dVertex
 10
-72.0
 20
50.0
 30
0.0
  0
VERTEX
  5
677
100
AcDbEntity
  8
L1
100
AcDbVertex
100
AcDb2dVertex
 10
-71.99844694927572
 20
49.92119777331447
 30
0.0
  0
VERTEX
  5
678
100
AcDbEntity
  8
L1
100
AcDbVertex
100
AcDb2dVertex
 10
-71.9937902090694
 20
49.84251793048418
 30
0.0
  0
VERTEX
  5
679
100
AcDbEntity
  8
L1
100
AcDbVertex
100
AcDb2dVertex
 10
-71.98603701153479
 20
49.76408266529602
 30
0.0
  0
SEQEND
  5
67A
100
AcDbEntity
  8
L1
  0
ARC
  5
192
100
AcDbEntity
  8
L1
100
AcDbCircle
 10
-70.0
 20
50.00000000000006
 30
0.0
 40
3.403605588231097
100
AcDbArc
 50
306.5708941476368
 51
53.42910585236314
  0
POLYLINE
  5
193
100
AcDbEntity
  8
L1
100
AcDb2dPolyline
 66
     1
 10
0.0
 20
0.0
 30
0.0
  0
VERTEX
  5
67B
100
AcDbEntity
  8
L1
100
AcDbVertex
100
AcDb2dVertex
 10
-67.97207402306958
 20
47.26649543034426
 30
0.0
  0
VERTEX
  5
67C
100
AcDbEntity
  8
L1
100
AcDbVertex
100
AcDb2dVertex
 10
-67.98603701153479
 20
47.30833982030691
 30
0.0
  0
SEQEND
  5
67D
100
AcDbEntity
  8
L1
  0
ARC
  5
194
100
AcDbEntity
  8
L1
100
AcDbCircle
 10
-70.0
 20
50.00000000000006
 30
0.0
 40
2.0
100
AcDbArc
 50
279.5859123991561
 51
80.41408760083402
  0
POLYLINE
  5
195
100
AcDbEntity
  8
L1
100
AcDb2dPolyline
 66
     1
 10
0.0
 20
0.0
 30
0.0
  0
VERTEX
  5
67E
100
AcDbEntity
  8
L1
100
AcDbVertex
100
AcDb2dVertex
 10
-69.76408266529597
 20
48.01396298846521
 30
0.0
  0
VERTEX
  5
67F
100
AcDbEntity
  8
L1
100
AcDbVertex
100
AcDb2dVertex
 10
-69.71542936986657
 20
48.02034862754436
 30
0.0
  0
VERTEX
  5
680
100
AcDbEntity
  8
L1
100
AcDbVertex
100
AcDb2dVertex
 10
-69.66694738023239
 20
48.02792597693041
 30
0.0
  0
SEQEND
  5
681
100
AcDbEntity
  8
L1
  0
LINE
  5
196
100
AcDbEntity
  8
L1
100
AcDbLine
 10
-70.0
 20
52.0
 30
0.0
 11
-68.0
 21
52.0
 31
0.0
  0
POLYLINE
  5
197
100
AcDbEntity
  8
L1
100
AcDb2dPolyline
 66
     1
 10
0.0
 20
0.0
 30
0.0
  0
VERTEX
  5
682
100
AcDbEntity
  8
L1
100
AcDbVertex
100
AcDb2dVertex
 10
-69.66694738023204
 20
51.97207402306958
 30
0.0
  0
VERTEX
  5
683
100
AcDbEntity
  8
L1
100
AcDbVertex
100
AcDb2dVertex
 10
-69.74969944146187
 20
51.98427559335783
 30
0.0
  0
VERTEX
  5
684
100
AcDbEntity
  8
L1
100
AcDbVertex
100
AcDb2dVertex
 10
-69.83288932729942
 20
51.99300627772965
 30
0.0
  0
VERTEX
  5
685
100
AcDbEntity
  8
L1
100
AcDbVertex
100
AcDb2dVertex
 10
-69.91637152237183
 20
51.9982508045112
 30
0.0
  0
VERTEX
  5
686
100
AcDbEntity
  8
L1
100
AcDbVertex
100
AcDb2dVertex
 10
-70.0
 20
52.00000000000006
 30
0.0
  0
SEQEND
  5
687
100
AcDbEntity
  8
L1
  0
LINE
  5
198
100
AcDbEntity
  8
L1
100
AcDbLine
 10
-68.0
 20
52.0
 30
0.0
 11
-68.0
 21
52.14144032422115
 31
0.0
  0
POLYLINE
  5
199
100
AcDbEntity
  8
L1
100
AcDb2dPolyline
 66
     1
 10
0.0
 20
0.0
 30
0.0
  0
VERTEX
  5
688
100
AcDbEntity
  8
L1
100
AcDbVertex
100
AcDb2dVertex
 10
-68.0
 20
52.14144032422115
 30
0.0
  0
VERTEX
  5
689
100
AcDbEntity
  8
L1
100
AcDbVertex
100
AcDb2dVertex
 10
-67.99992044563328
 20
52.25615963202625
 30
0.0
  0
VERTEX
  5
68A
100
AcDbEntity
  8
L1
100
AcDbVertex
100
AcDb2dVertex
 10
-67.99967195326792
 20
52.36753175819211
 30
0.0
  0
VERTEX
  5
68B
100
AcDbEntity
  8
L1
100
AcDbVertex
100
AcDb2dVertex
 10
-67.99932637051472
 20
52.45420257652376
 30
0.0
  0
VERTEX
  5
68C
100
AcDbEntity
  8
L1
100
AcDbVertex
100
AcDb2dVertex
 10
-67.99884680160619
 20
52.5318661071953
 30
0.0
  0
VERTEX
  5
68D
100
AcDbEntity
  8
L1
100
AcDbVertex
100
AcDb2dVertex
 10
-67.99833272719832
 20
52.58733525937248
 30
0.0
  0
VERTEX
  5
68E
100
AcDbEntity
  8
L1
100
AcDbVertex
100
AcDb2dVertex
 10
-67.99773023522653
 20
52.629287923969
 30
0.0
  0
VERTEX
  5
68F
100
AcDbEntity
  8
L1
100
AcDbVertex
100
AcDb2dVertex
 10
-67.99713442957965
 20
52.6524294681642
 30
0.0
  0
VERTEX
  5
690
100
AcDbEntity
  8
L1
100
AcDbVertex
100
AcDb2dVertex
 10
-67.99660062999056
 20
52.65995545660058
 30
0.0
  0
SEQEND
  5
691
100
AcDbEntity
  8
L1
  0
POLYLINE
  5
19A
100
AcDbEntity
  8
L1
100
AcDb2dPolyline
 66
     1
 10
0.0
 20
0.0
 30
0.0
  0
VERTEX
  5
692
100
AcDbEntity
  8
L1
100
AcDbVertex
100
AcDb2dVertex
 10
-67.99660062999056
 20
52.65995545660058
 30
0.0
  0
VERTEX
  5
693
100
AcDbEntity
  8
L1
100
AcDbVertex
100
AcDb2dVertex
 10
-67.98603701153479
 20
52.6916601796932
 30
0.0
  0
SEQEND
  5
694
100
AcDbEntity
  8
L1
  0
POLYLINE
  5
19B
100
AcDbEntity
  8
L1
100
AcDb2dPolyline
 66
     1
 10
0.0
 20
0.0
 30
0.0
  0
VERTEX
  5
695
100
AcDbEntity
  8
L1
100
AcDbVertex
100
AcDb2dVertex
 10
-67.98603701153479
 20
52.6916601796932
 30
0.0
  0
VERTEX
  5
696
100
AcDbEntity
  8
L1
100
AcDbVertex
100
AcDb2dVertex
 10
-67.97207402306958
 20
52.73350456965579
 30
0.0
  0
SEQEND
  5
697
100
AcDbEntity
  8
L1
  0
LINE
  5
19C
100
AcDbEntity
  8
L1
100
AcDbLine
 10
-69.76408266529597
 20
48.01396298846521
 30
0.0
 11
-67.98603701153479
 21
48.01396298846521
 31
0.0
  0
LINE
  5
19D
100
AcDbEntity
  8
L1
100
AcDbLine
 10
-67.98603701153479
 20
48.01396298846521
 30
0.0
 11
-67.98603701153479
 21
47.30833982030691
 31
0.0
  0
CIRCLE
  5
19E
100
AcDbEntity
  8
L1
100
AcDbCircle
 10
-70.0
 20
50.00000000000006
 30
0.0
 40
1.6
  0
LINE
  5
19F
100
AcDbEntity
  8
L1
100
AcDbLine
 10
-258.9683038390834
 20
90.04480917893472
 30
0.0
 11
-432.0581887355037
 21
90.04480917893472
 31
0.0
  0
LINE
  5
1A0
100
AcDbEntity
  8
L1
100
AcDbLine
 10
-270.3870895473767
 20
89.62670883448737
 30
0.0
 11
-420.6394030272334
 21
89.62670883448737
 31
0.0
  0
ARC
  5
1A1
100
AcDbEntity
  8
L1
100
AcDbCircle
 10
-427.5181493751181
 20
82.00490308780166
 30
0.0
 40
7.000000000000105
100
AcDbArc
 50
270.0
 51
0.0000000000011704
  0
POLYLINE
  5
1A2
100
AcDbEntity
  8
L1
100
AcDb2dPolyline
 66
     1
 10
0.0
 20
0.0
 30
0.0
  0
VERTEX
  5
698
100
AcDbEntity
  8
L1
100
AcDbVertex
100
AcDb2dVertex
 10
-435.5580518439267
 20
86.55000000000001
 30
0.0
  0
VERTEX
  5
699
100
AcDbEntity
  8
L1
100
AcDbVertex
100
AcDb2dVertex
 10
-435.4920271006464
 20
87.22163427376239
 30
0.0
  0
VERTEX
  5
69A
100
AcDbEntity
  8
L1
100
AcDbVertex
100
AcDb2dVertex
 10
-435.2907003616788
 20
87.88663729905222
 30
0.0
  0
VERTEX
  5
69B
100
AcDbEntity
  8
L1
100
AcDbVertex
100
AcDb2dVertex
 10
-434.9619721112979
 20
88.49876236080644
 30
0.0
  0
VERTEX
  5
69C
100
AcDbEntity
  8
L1
100
AcDbVertex
100
AcDb2dVertex
 10
-434.53300226286
 20
89.01975597554367
 30
0.0
  0
VERTEX
  5
69D
100
AcDbEntity
  8
L1
100
AcDbVertex
100
AcDb2dVertex
 10
-434.0120086481229
 20
89.44872582398142
 30
0.0
  0
VERTEX
  5
69E
100
AcDbEntity
  8
L1
100
AcDbVertex
100
AcDb2dVertex
 10
-433.3998835863686
 20
89.77745407436243
 30
0.0
  0
VERTEX
  5
69F
100
AcDbEntity
  8
L1
100
AcDbVertex
100
AcDb2dVertex
 10
-432.7348805610789
 20
89.9787808133297
 30
0.0
  0
VERTEX
  5
6A0
100
AcDbEntity
  8
L1
100
AcDbVertex
100
AcDb2dVertex
 10
-432.0632462873166
 20
90.04480555661013
 30
0.0
  0
SEQEND
  5
6A1
100
AcDbEntity
  8
L1
  0
LINE
  5
1A3
100
AcDbEntity
  8
L1
100
AcDbLine
 10
-435.5110393733711
 20
75.497240991507
 30
0.0
 11
-435.139955121804
 21
75.12615673993997
 31
0.0
  0
LINE
  5
1A4
100
AcDbEntity
  8
L1
100
AcDbLine
 10
-435.5110393733711
 20
75.497240991507
 30
0.0
 11
-435.108436475622
 21
75.50075445144301
 31
0.0
  0
LINE
  5
1A5
100
AcDbEntity
  8
L6
100
AcDbLine
 10
-427.2632462872935
 20
88.03088265814375
 30
0.0
 11
-427.2632462872935
 21
75.45130511106169
 31
0.0
  0
LINE
  5
1A6
100
AcDbEntity
  8
L1
100
AcDbLine
 10
-431.6803983265177
 20
82.45862520215785
 30
0.0
 11
-431.4143216749711
 21
83.96762087869893
 31
0.0
  0
CIRCLE
  5
1A7
100
AcDbEntity
  8
L1
100
AcDbCircle
 10
-427.2632462873165
 20
81.74999999999995
 30
0.0
 40
2.25
  0
LINE
  5
1A8
100
AcDbEntity
  8
L1
100
AcDbLine
 10
-434.825718276713
 20
86.51257860481662
 30
0.0
 11
-434.825718276713
 21
77.49716484343441
 31
0.0
  0
LINE
  5
1A9
100
AcDbEntity
  8
L1
100
AcDbLine
 10
-434.4294714566498
 20
75.21102331877074
 30
0.0
 11
-434.4294714566498
 21
86.11633178475342
 31
0.0
  0
LINE
  5
1AA
100
AcDbEntity
  8
L1
100
AcDbLine
 10
-432.4242810291683
 20
85.81362995559226
 30
0.0
 11
-432.4242810291683
 21
75.21102331877074
 31
0.0
  0
CIRCLE
  5
1AB
100
AcDbEntity
  8
L1
100
AcDbCircle
 10
-427.2632462873165
 20
81.74999999999995
 30
0.0
 40
3.9
  0
CIRCLE
  5
1AC
100
AcDbEntity
  8
L1
100
AcDbCircle
 10
-427.2632462873165
 20
81.74999999999995
 30
0.0
 40
3.457965408492953
  0
LINE
  5
1AD
100
AcDbEntity
  8
L1
100
AcDbLine
 10
-420.5181493751179
 20
82.00490308780178
 30
0.0
 11
-420.5181493751181
 21
86.90490308780141
 31
0.0
  0
ARC
  5
1AE
100
AcDbEntity
  8
L1
100
AcDbCircle
 10
-427.2632462873165
 20
81.74999999999995
 30
0.0
 40
4.70630101413334
100
AcDbArc
 50
214.7004760816944
 51
55.29952391830001
  0
LINE
  5
1AF
100
AcDbEntity
  8
L6
100
AcDbLine
 10
-420.2343159595767
 20
81.74999999999995
 30
0.0
 11
-434.2356774040755
 21
81.74999999999995
 31
0.0
  0
LINE
  5
1B0
100
AcDbEntity
  8
L1
100
AcDbLine
 10
-432.4181493751183
 20
75.00490308780155
 30
0.0
 11
-427.5181493751182
 21
75.00490308780155
 31
0.0
  0
LINE
  5
1B1
100
AcDbEntity
  8
L1
100
AcDbLine
 10
-431.7269276752904
 20
81.28927090505824
 30
0.0
 11
-431.9469411894965
 21
81.28927090505824
 31
0.0
  0
LINE
  5
1B2
100
AcDbEntity
  8
L1
100
AcDbLine
 10
-432.3788784700599
 20
82.52817140744225
 30
0.0
 11
-432.3745150361645
 21
82.53253484133763
 31
0.0
  0
LINE
  5
1B3
100
AcDbEntity
  8
L1
100
AcDbLine
 10
-432.3788784700599
 20
82.52817140744225
 30
0.0
 11
-432.3788784700599
 21
81.27181716947672
 31
0.0
  0
LINE
  5
1B4
100
AcDbEntity
  8
L1
100
AcDbLine
 10
-432.1210461416454
 20
81.27181716947683
 30
0.0
 11
-432.3788784700599
 21
81.27181716947683
 31
0.0
  0
LINE
  5
1B5
100
AcDbEntity
  8
L1
100
AcDbLine
 10
-432.0827309390264
 20
81.27565820562727
 30
0.0
 11
-432.1210461416401
 21
81.27181716947683
 31
0.0
  0
LINE
  5
1B6
100
AcDbEntity
  8
L1
100
AcDbLine
 10
-431.9579649935703
 20
81.28816578672052
 30
0.0
 11
-432.0827309292837
 21
81.27565820561978
 31
0.0
  0
LINE
  5
1B7
100
AcDbEntity
  8
L1
100
AcDbLine
 10
-431.946941189491
 20
81.28927090505824
 30
0.0
 11
-431.9579649943563
 21
81.28816578672109
 31
0.0
  0
ELLIPSE
  5
1B8
100
AcDbEntity
  8
L1
100
AcDbEllipse
 10
-434.8109137281822
 20
77.49716484343441
 30
0.0
 11
0.0
 21
1.696497829367981
 31
0.0
210
0.0
220
0.0
230
-1.0
 40
0.0087265354983808
 41
-3.132866339598172
 42
-1.570796326794896
  0
LINE
  5
1B9
100
AcDbEntity
  8
L1
100
AcDbLine
 10
-432.7181379520375
 20
74.90490308780152
 30
0.0
 11
-432.7242696060875
 21
74.91103474185155
 31
0.0
  0
LINE
  5
1BA
100
AcDbEntity
  8
L1
100
AcDbLine
 10
-434.4356031106998
 20
75.20489166472072
 30
0.0
 11
-434.4294714566498
 21
75.21102331877074
 31
0.0
  0
LINE
  5
1BB
100
AcDbEntity
  8
L1
100
AcDbLine
 10
-434.1294828797304
 20
74.91103474185155
 30
0.0
 11
-434.1356145337805
 21
74.90490308780152
 31
0.0
  0
ELLIPSE
  5
1BC
100
AcDbEntity
  8
L1
100
AcDbEllipse
 10
-434.1294828797304
 20
75.21102331877074
 30
0.0
 11
0.2121320343559661
 21
-0.2121320343559824
 31
0.0
210
0.0
220
0.0
230
-1.0
 40
0.9999238504775703
 41
0.7854362396083489
 42
2.356156413981367
  0
LINE
  5
1BD
100
AcDbEntity
  8
L1
100
AcDbLine
 10
-432.7242696060875
 20
74.91103474185155
 30
0.0
 11
-434.1294828797304
 21
74.91103474185155
 31
0.0
  0
ELLIPSE
  5
1BE
100
AcDbEntity
  8
L1
100
AcDbEllipse
 10
-432.7242696060875
 20
75.21102331877074
 30
0.0
 11
-0.2121320343559519
 21
-0.2121320343559682
 31
0.0
210
0.0
220
0.0
230
-1.0
 40
0.9999238504775703
 41
-2.356156413981367
 42
-0.7854362396083489
  0
ELLIPSE
  5
1BF
100
AcDbEntity
  8
L1
100
AcDbEllipse
 10
-435.1110314926008
 20
75.80073160658634
 30
0.0
 11
0.212132034355621
 21
0.2121320343562821
 31
0.0
210
0.0
220
0.0
230
-1.0
 40
0.9999238504775695
 41
0.785436239609946
 42
2.347505920144955
  0
POLYLINE
  5
1C0
100
AcDbEntity
  8
L1
100
AcDb2dPolyline
 66
     1
 10
0.0
 20
0.0
 30
0.0
  0
VERTEX
  5
6A2
100
AcDbEntity
  8
L1
100
AcDbVertex
100
AcDb2dVertex
 10
-434.7330727799272
 20
75.12539075574858
 30
0.0
  0
VERTEX
  5
6A3
100
AcDbEntity
  8
L1
100
AcDbVertex
100
AcDb2dVertex
 10
-434.6399741602718
 20
75.14094883660965
 30
0.0
  0
SEQEND
  5
6A4
100
AcDbEntity
  8
L1
  0
POLYLINE
  5
1C1
100
AcDbEntity
  8
L1
100
AcDb2dPolyline
 66
     1
 10
0.0
 20
0.0
 30
0.0
  0
VERTEX
  5
6A5
100
AcDbEntity
  8
L1
100
AcDbVertex
100
AcDb2dVertex
 10
-435.139955121804
 20
75.12615673993997
 30
0.0
  0
VERTEX
  5
6A6
100
AcDbEntity
  8
L1
100
AcDbVertex
100
AcDb2dVertex
 10
-435.0236433244418
 20
75.12437910330715
 30
0.0
  0
VERTEX
  5
6A7
100
AcDbEntity
  8
L1
100
AcDbVertex
100
AcDb2dVertex
 10
-434.7330727799272
 20
75.12539075574858
 30
0.0
  0
SEQEND
  5
6A8
100
AcDbEntity
  8
L1
  0
LINE
  5
1C2
100
AcDbEntity
  8
L1
100
AcDbLine
 10
-432.4242810291683
 20
75.21102331877074
 30
0.0
 11
-432.4181493751183
 21
75.20489166472072
 31
0.0
  0
LINE
  5
1C3
100
AcDbEntity
  8
L1
100
AcDbLine
 10
-432.4181493751183
 20
75.20489166472072
 30
0.0
 11
-432.4181493751183
 21
75.00490308780155
 31
0.0
  0
POLYLINE
  5
1C4
100
AcDbEntity
  8
L1
100
AcDb2dPolyline
 66
     1
 10
0.0
 20
0.0
 30
0.0
  0
VERTEX
  5
6A9
100
AcDbEntity
  8
L1
100
AcDbVertex
100
AcDb2dVertex
 10
-432.7181379520375
 20
74.90490308780152
 30
0.0
  0
VERTEX
  5
6AA
100
AcDbEntity
  8
L1
100
AcDbVertex
100
AcDb2dVertex
 10
-432.5060126092948
 20
74.99276632197797
 30
0.0
  0
VERTEX
  5
6AB
100
AcDbEntity
  8
L1
100
AcDbVertex
100
AcDb2dVertex
 10
-432.4181493751183
 20
75.20489166472072
 30
0.0
  0
SEQEND
  5
6AC
100
AcDbEntity
  8
L1
  0
LINE
  5
1C5
100
AcDbEntity
  8
L1
100
AcDbLine
 10
-434.1356145337805
 20
74.90490308780152
 30
0.0
 11
-432.7181379520375
 21
74.90490308780152
 31
0.0
  0
POLYLINE
  5
1C6
100
AcDbEntity
  8
L1
100
AcDb2dPolyline
 66
     1
 10
0.0
 20
0.0
 30
0.0
  0
VERTEX
  5
6AD
100
AcDbEntity
  8
L1
100
AcDbVertex
100
AcDb2dVertex
 10
-434.4356031106998
 20
75.20489166472072
 30
0.0
  0
VERTEX
  5
6AE
100
AcDbEntity
  8
L1
100
AcDbVertex
100
AcDb2dVertex
 10
-434.3477398765234
 20
74.99276632197797
 30
0.0
  0
VERTEX
  5
6AF
100
AcDbEntity
  8
L1
100
AcDbVertex
100
AcDb2dVertex
 10
-434.1356145337805
 20
74.90490308780152
 30
0.0
  0
SEQEND
  5
6B0
100
AcDbEntity
  8
L1
  0
LINE
  5
1C7
100
AcDbEntity
  8
L1
100
AcDbLine
 10
-434.4356031106998
 20
75.20489166472072
 30
0.0
 11
-434.4356031106998
 21
75.42529180160483
 31
0.0
  0
POLYLINE
  5
1C8
100
AcDbEntity
  8
L1
100
AcDb2dPolyline
 66
     1
 10
0.0
 20
0.0
 30
0.0
  0
VERTEX
  5
6B1
100
AcDbEntity
  8
L1
100
AcDbVertex
100
AcDb2dVertex
 10
-434.6399741602718
 20
75.14094883660965
 30
0.0
  0
VERTEX
  5
6B2
100
AcDbEntity
  8
L1
100
AcDbVertex
100
AcDb2dVertex
 10
-434.4919959193967
 20
75.25020519230389
 30
0.0
  0
VERTEX
  5
6B3
100
AcDbEntity
  8
L1
100
AcDbVertex
100
AcDb2dVertex
 10
-434.4356031106998
 20
75.42529180160494
 30
0.0
  0
SEQEND
  5
6B4
100
AcDbEntity
  8
L1
  0
LINE
  5
1C9
100
AcDbEntity
  8
L1
100
AcDbLine
 10
-431.1324813592529
 20
79.07076705123819
 30
0.0
 11
-431.7269276752893
 21
81.28927090505857
 31
0.0
  0
ARC
  5
1CA
100
AcDbEntity
  8
L1
100
AcDbCircle
 10
-432.0209388870814
 20
82.58077094859828
 30
0.0
 40
0.3617837154469492
100
AcDbArc
 50
188.3598329396829
 51
340.2680069608477
  0
LINE
  5
1CB
100
AcDbEntity
  8
L1
100
AcDbLine
 10
-426.7850634567934
 20
86.86563218274313
 30
0.0
 11
-428.0414176947588
 21
86.86563218274313
 31
0.0
  0
LINE
  5
1CC
100
AcDbEntity
  8
L1
100
AcDbLine
 10
-431.62957807207
 20
88.91622516933313
 30
0.0
 11
-420.7242696060875
 21
88.91622516933313
 31
0.0
  0
LINE
  5
1CD
100
AcDbEntity
  8
L1
100
AcDbLine
 10
-420.7242696060875
 20
86.91103474185155
 30
0.0
 11
-431.326876242909
 21
86.91103474185155
 31
0.0
  0
LINE
  5
1CE
100
AcDbEntity
  8
L1
100
AcDbLine
 10
-423.0104111307509
 20
89.31247198939633
 30
0.0
 11
-432.0258248921334
 21
89.31247198939633
 31
0.0
  0
POLYLINE
  5
1CF
100
AcDbEntity
  8
L1
100
AcDb2dPolyline
 66
     1
 10
0.0
 20
0.0
 30
0.0
  0
VERTEX
  5
6B5
100
AcDbEntity
  8
L1
100
AcDbVertex
100
AcDb2dVertex
 10
-432.0258248921334
 20
89.31247198939633
 30
0.0
  0
VERTEX
  5
6B6
100
AcDbEntity
  8
L1
100
AcDbVertex
100
AcDb2dVertex
 10
-432.3633251967085
 20
89.29206062352131
 30
0.0
  0
VERTEX
  5
6B7
100
AcDbEntity
  8
L1
100
AcDbVertex
100
AcDb2dVertex
 10
-432.6959010211912
 20
89.23111863372872
 30
0.0
  0
VERTEX
  5
6B8
100
AcDbEntity
  8
L1
100
AcDbVertex
100
AcDb2dVertex
 10
-433.0187031308099
 20
89.13053460540032
 30
0.0
  0
VERTEX
  5
6B9
100
AcDbEntity
  8
L1
100
AcDbVertex
100
AcDb2dVertex
 10
-433.3270247997628
 20
88.99177513812531
 30
0.0
  0
VERTEX
  5
6BA
100
AcDbEntity
  8
L1
100
AcDbVertex
100
AcDb2dVertex
 10
-433.6163704392311
 20
88.81686346144745
 30
0.0
  0
VERTEX
  5
6BB
100
AcDbEntity
  8
L1
100
AcDbVertex
100
AcDb2dVertex
 10
-433.8825211468396
 20
88.60834993447879
 30
0.0
  0
VERTEX
  5
6BC
100
AcDbEntity
  8
L1
100
AcDbVertex
100
AcDb2dVertex
 10
-434.1215962217956
 20
88.36927485952292
 30
0.0
  0
VERTEX
  5
6BD
100
AcDbEntity
  8
L1
100
AcDbVertex
100
AcDb2dVertex
 10
-434.3301097487641
 20
88.10312415191441
 30
0.0
  0
VERTEX
  5
6BE
100
AcDbEntity
  8
L1
100
AcDbVertex
100
AcDb2dVertex
 10
-434.505021425442
 20
87.81377851244604
 30
0.0
  0
VERTEX
  5
6BF
100
AcDbEntity
  8
L1
100
AcDbVertex
100
AcDb2dVertex
 10
-434.643780892717
 20
87.50545684349328
 30
0.0
  0
VERTEX
  5
6C0
100
AcDbEntity
  8
L1
100
AcDbVertex
100
AcDb2dVertex
 10
-434.7443649210455
 20
87.18265473387447
 30
0.0
  0
VERTEX
  5
6C1
100
AcDbEntity
  8
L1
100
AcDbVertex
100
AcDb2dVertex
 10
-434.8053069108381
 20
86.8500789093918
 30
0.0
  0
VERTEX
  5
6C2
100
AcDbEntity
  8
L1
100
AcDbVertex
100
AcDb2dVertex
 10
-434.825718276713
 20
86.51257860481662
 30
0.0
  0
SEQEND
  5
6C3
100
AcDbEntity
  8
L1
  0
LINE
  5
1D0
100
AcDbEntity
  8
L1
100
AcDbLine
 10
-428.0457811286543
 20
86.86126874884775
 30
0.0
 11
-428.0414176947589
 21
86.86563218274313
 31
0.0
  0
LINE
  5
1D1
100
AcDbEntity
  8
L1
100
AcDbLine
 10
-429.480867166016
 20
85.90107538765421
 30
0.0
 11
-427.9718714894744
 21
86.16715203920085
 31
0.0
  0
POLYLINE
  5
1D2
100
AcDbEntity
  8
L1
100
AcDb2dPolyline
 66
     1
 10
0.0
 20
0.0
 30
0.0
  0
VERTEX
  5
6C4
100
AcDbEntity
  8
L1
100
AcDbVertex
100
AcDb2dVertex
 10
-430.0260574208992
 20
85.82709737058172
 30
0.0
  0
VERTEX
  5
6C5
100
AcDbEntity
  8
L1
100
AcDbVertex
100
AcDb2dVertex
 10
-429.7501236323419
 20
85.86380514308775
 30
0.0
  0
VERTEX
  5
6C6
100
AcDbEntity
  8
L1
100
AcDbVertex
100
AcDb2dVertex
 10
-429.4808671660161
 20
85.90107538765408
 30
0.0
  0
SEQEND
  5
6C7
100
AcDbEntity
  8
L1
  0
ARC
  5
1D3
100
AcDbEntity
  8
L1
100
AcDbCircle
 10
-427.2632462873165
 20
81.74999999999995
 30
0.0
 40
4.925022672948151
100
AcDbArc
 50
124.1232037095415
 51
145.8767962904643
  0
POLYLINE
  5
1D4
100
AcDbEntity
  8
L1
100
AcDb2dPolyline
 66
     1
 10
0.0
 20
0.0
 30
0.0
  0
VERTEX
  5
6C8
100
AcDbEntity
  8
L1
100
AcDbVertex
100
AcDb2dVertex
 10
-434.4294714566498
 20
86.11633178475342
 30
0.0
  0
VERTEX
  5
6C9
100
AcDbEntity
  8
L1
100
AcDbVertex
100
AcDb2dVertex
 10
-434.4141314028349
 20
86.4090050573472
 30
0.0
  0
VERTEX
  5
6CA
100
AcDbEntity
  8
L1
100
AcDbVertex
100
AcDb2dVertex
 10
-434.3682840695946
 20
86.69846996520874
 30
0.0
  0
VERTEX
  5
6CB
100
AcDbEntity
  8
L1
100
AcDbVertex
100
AcDb2dVertex
 10
-434.2924317212466
 20
86.98155537744815
 30
0.0
  0
VERTEX
  5
6CC
100
AcDbEntity
  8
L1
100
AcDbVertex
100
AcDb2dVertex
 10
-434.1874053314894
 20
87.25516005149364
 30
0.0
  0
VERTEX
  5
6CD
100
AcDbEntity
  8
L1
100
AcDbVertex
100
AcDb2dVertex
 10
-434.0543554799607
 20
87.51628660766341
 30
0.0
  0
VERTEX
  5
6CE
100
AcDbEntity
  8
L1
100
AcDbVertex
100
AcDb2dVertex
 10
-433.8947397474676
 20
87.7620743659026
 30
0.0
  0
VERTEX
  5
6CF
100
AcDbEntity
  8
L1
100
AcDbVertex
100
AcDb2dVertex
 10
-433.7103067479736
 20
87.9898306849571
 30
0.0
  0
VERTEX
  5
6D0
100
AcDbEntity
  8
L1
100
AcDbVertex
100
AcDb2dVertex
 10
-433.5030769722739
 20
88.19706046065693
 30
0.0
  0
VERTEX
  5
6D1
100
AcDbEntity
  8
L1
100
AcDbVertex
100
AcDb2dVertex
 10
-433.2753206532193
 20
88.38149346015081
 30
0.0
  0
VERTEX
  5
6D2
100
AcDbEntity
  8
L1
100
AcDbVertex
100
AcDb2dVertex
 10
-433.0295328949802
 20
88.541109192644
 30
0.0
  0
VERTEX
  5
6D3
100
AcDbEntity
  8
L1
100
AcDbVertex
100
AcDb2dVertex
 10
-432.7684063388104
 20
88.67415904417276
 30
0.0
  0
VERTEX
  5
6D4
100
AcDbEntity
  8
L1
100
AcDbVertex
100
AcDb2dVertex
 10
-432.4948016647648
 20
88.77918543392985
 30
0.0
  0
VERTEX
  5
6D5
100
AcDbEntity
  8
L1
100
AcDbVertex
100
AcDb2dVertex
 10
-432.2117162525254
 20
88.85503778227775
 30
0.0
  0
VERTEX
  5
6D6
100
AcDbEntity
  8
L1
100
AcDbVertex
100
AcDb2dVertex
 10
-431.9222513446638
 20
88.90088511551818
 30
0.0
  0
VERTEX
  5
6D7
100
AcDbEntity
  8
L1
100
AcDbVertex
100
AcDb2dVertex
 10
-431.62957807207
 20
88.91622516933301
 30
0.0
  0
SEQEND
  5
6D8
100
AcDbEntity
  8
L1
  0
ARC
  5
1D5
100
AcDbEntity
  8
L1
100
AcDbCircle
 10
-431.326876242909
 20
85.81362995559226
 30
0.0
 40
1.097404786259232
100
AcDbArc
 50
90.0
 51
180.0
  0
ARC
  5
1D6
100
AcDbEntity
  8
L1
100
AcDbCircle
 10
-428.0747874605658
 20
86.50960726819439
 30
0.0
 40
0.3575853479233129
100
AcDbArc
 50
286.7267775118527
 51
84.6453825894274
  0
ARC
  5
1D7
100
AcDbEntity
  8
L1
100
AcDbCircle
 10
-427.2632462873165
 20
81.74999999999995
 30
0.0
 40
4.70630101413334
100
AcDbArc
 50
118.1123827949439
 51
151.8876172050619
  0
POLYLINE
  5
1D8
100
AcDbEntity
  8
L1
100
AcDb2dPolyline
 66
     1
 10
0.0
 20
0.0
 30
0.0
  0
VERTEX
  5
6D9
100
AcDbEntity
  8
L1
100
AcDbVertex
100
AcDb2dVertex
 10
-431.4143216749711
 20
83.96762087869893
 30
0.0
  0
VERTEX
  5
6DA
100
AcDbEntity
  8
L1
100
AcDbVertex
100
AcDb2dVertex
 10
-431.3770514304046
 20
84.23687734502488
 30
0.0
  0
VERTEX
  5
6DB
100
AcDbEntity
  8
L1
100
AcDbVertex
100
AcDb2dVertex
 10
-431.3403436578986
 20
84.51281113358215
 30
0.0
  0
SEQEND
  5
6DC
100
AcDbEntity
  8
L1
  0
LINE
  5
1D9
100
AcDbEntity
  8
L1
100
AcDbLine
 10
-426.802517192375
 20
86.43369490217986
 30
0.0
 11
-426.802517192375
 21
86.21368138797249
 31
0.0
  0
LINE
  5
1DA
100
AcDbEntity
  8
L1
100
AcDbLine
 10
-426.8014120740377
 20
86.44471870703961
 30
0.0
 11
-426.802517192375
 21
86.43369490217452
 31
0.0
  0
LINE
  5
1DB
100
AcDbEntity
  8
L1
100
AcDbLine
 10
-426.7889044929364
 20
86.56948464196688
 30
0.0
 11
-426.8014120740371
 21
86.44471870625357
 31
0.0
  0
LINE
  5
1DC
100
AcDbEntity
  8
L1
100
AcDbLine
 10
-426.7850634567934
 20
86.60779985432345
 30
0.0
 11
-426.7889044929439
 21
86.56948465170973
 31
0.0
  0
LINE
  5
1DD
100
AcDbEntity
  8
L1
100
AcDbLine
 10
-426.7850634567934
 20
86.86563218274301
 30
0.0
 11
-426.7850634567934
 21
86.60779985432879
 31
0.0
  0
ELLIPSE
  5
1DE
100
AcDbEntity
  8
L1
100
AcDbEllipse
 10
-423.0104111307509
 20
89.29766744086538
 30
0.0
 11
1.696497829367979
 21
0.0
 31
0.0
210
0.0
220
0.0
230
-1.0
 40
0.0087265354983806
 41
-1.570796326794896
 42
-0.008726313991621
  0
ELLIPSE
  5
1DF
100
AcDbEntity
  8
L1
100
AcDbEllipse
 10
-421.3139778939028
 20
89.59778520528407
 30
0.0
 11
-0.212132034356148
 21
-0.2121320343557347
 31
0.0
210
0.0
220
0.0
230
-1.0
 40
0.9999238504775703
 41
-2.34750592014437
 42
-0.7854362396093615
  0
LINE
  5
1E0
100
AcDbEntity
  8
L1
100
AcDbLine
 10
-421.0104872788236
 20
89.99779308605452
 30
0.0
 11
-421.0140007387597
 21
89.59519018830524
 31
0.0
  0
LINE
  5
1E1
100
AcDbEntity
  8
L1
100
AcDbLine
 10
-420.6394030272333
 20
89.62670883448737
 30
0.0
 11
-421.0104872787545
 21
89.9977930860544
 31
0.0
  0
POLYLINE
  5
1E2
100
AcDbEntity
  8
L1
100
AcDb2dPolyline
 66
     1
 10
0.0
 20
0.0
 30
0.0
  0
VERTEX
  5
6DD
100
AcDbEntity
  8
L1
100
AcDbVertex
100
AcDb2dVertex
 10
-420.6386370430426
 20
89.21982649261048
 30
0.0
  0
VERTEX
  5
6DE
100
AcDbEntity
  8
L1
100
AcDbVertex
100
AcDb2dVertex
 10
-420.6376253906009
 20
89.51039703712519
 30
0.0
  0
VERTEX
  5
6DF
100
AcDbEntity
  8
L1
100
AcDbVertex
100
AcDb2dVertex
 10
-420.6394030272334
 20
89.62670883448737
 30
0.0
  0
SEQEND
  5
6E0
100
AcDbEntity
  8
L1
  0
POLYLINE
  5
1E3
100
AcDbEntity
  8
L1
100
AcDb2dPolyline
 66
     1
 10
0.0
 20
0.0
 30
0.0
  0
VERTEX
  5
6E1
100
AcDbEntity
  8
L1
100
AcDbVertex
100
AcDb2dVertex
 10
-420.6541951239036
 20
89.12672787295532
 30
0.0
  0
VERTEX
  5
6E2
100
AcDbEntity
  8
L1
100
AcDbVertex
100
AcDb2dVertex
 10
-420.6386370430426
 20
89.21982649261048
 30
0.0
  0
SEQEND
  5
6E3
100
AcDbEntity
  8
L1
  0
POLYLINE
  5
1E4
100
AcDbEntity
  8
L1
100
AcDb2dPolyline
 66
     1
 10
0.0
 20
0.0
 30
0.0
  0
VERTEX
  5
6E4
100
AcDbEntity
  8
L1
100
AcDbVertex
100
AcDb2dVertex
 10
-420.9385380888989
 20
88.92235682338304
 30
0.0
  0
VERTEX
  5
6E5
100
AcDbEntity
  8
L1
100
AcDbVertex
100
AcDb2dVertex
 10
-420.7634514795978
 20
88.9787496320801
 30
0.0
  0
VERTEX
  5
6E6
100
AcDbEntity
  8
L1
100
AcDbVertex
100
AcDb2dVertex
 10
-420.6541951239036
 20
89.12672787295532
 30
0.0
  0
SEQEND
  5
6E7
100
AcDbEntity
  8
L1
  0
LINE
  5
1E5
100
AcDbEntity
  8
L1
100
AcDbLine
 10
-420.7181379520376
 20
86.90490308780153
 30
0.0
 11
-420.7242696060876
 21
86.91103474185155
 31
0.0
  0
LINE
  5
1E6
100
AcDbEntity
  8
L1
100
AcDbLine
 10
-420.5181493751181
 20
86.90490308780141
 30
0.0
 11
-420.7181379520376
 21
86.90490308780141
 31
0.0
  0
LINE
  5
1E7
100
AcDbEntity
  8
L1
100
AcDbLine
 10
-420.4242810291683
 20
88.61623659241383
 30
0.0
 11
-420.4242810291683
 21
87.21102331877075
 31
0.0
  0
ELLIPSE
  5
1E8
100
AcDbEntity
  8
L1
100
AcDbEllipse
 10
-420.7242696060876
 20
88.61623659241383
 30
0.0
 11
0.2121320343562742
 21
-0.212132034355646
 31
0.0
210
0.0
220
0.0
230
-1.0
 40
0.9999238504775703
 41
-2.356156413979925
 42
-0.7854362396069068
  0
ELLIPSE
  5
1E9
100
AcDbEntity
  8
L1
100
AcDbEllipse
 10
-420.7242696060875
 20
87.21102331877075
 30
0.0
 11
-0.2121320343559519
 21
-0.2121320343559682
 31
0.0
210
0.0
220
0.0
230
-1.0
 40
0.9999238504775703
 41
-2.356156413981367
 42
-0.7854362396083489
  0
LINE
  5
1EA
100
AcDbEntity
  8
L1
100
AcDbLine
 10
-426.802517192375
 20
86.2136813879726
 30
0.0
 11
-424.5840133385545
 21
85.61923507193609
 31
0.0
  0
LINE
  5
1EB
100
AcDbEntity
  8
L1
100
AcDbLine
 10
-183.5971996404337
 20
75.497240991507
 30
0.0
 11
-141.0751561691157
 21
75.12615673993997
 31
0.0
  0
LINE
  5
1EC
100
AcDbEntity
  8
L1
100
AcDbLine
 10
-185.2822897052577
 20
89.31247198939633
 30
0.0
 11
-139.8769014762153
 21
88.91622516933313
 31
0.0
  0
LINE
  5
1ED
100
AcDbEntity
  8
L1
100
AcDbLine
 10
-141.0751561691157
 20
89.62670883448737
 30
0.0
 11
-183.5971996404342
 21
89.9977930860544
 31
0.0
  0
LINE
  5
1EE
100
AcDbEntity
  8
L6
100
AcDbLine
 10
-270.7921766150103
 20
81.74999999999995
 30
0.0
 11
-256.7908151705115
 21
81.74999999999995
 31
0.0
  0
ARC
  5
1EF
100
AcDbEntity
  8
L1
100
AcDbCircle
 10
-263.7632462872935
 20
81.74999999999995
 30
0.0
 40
4.70630101413334
100
AcDbArc
 50
124.7004760816999
 51
325.2995239183054
  0
LINE
  5
1F0
100
AcDbEntity
  8
L1
100
AcDbLine
 10
-268.0160814438591
 20
89.31247198939633
 30
0.0
 11
-259.0006676824766
 21
89.31247198939633
 31
0.0
  0
LINE
  5
1F1
100
AcDbEntity
  8
L1
100
AcDbLine
 10
-259.3969145025399
 20
88.91622516933313
 30
0.0
 11
-270.3022229685225
 21
88.91622516933313
 31
0.0
  0
LINE
  5
1F2
100
AcDbEntity
  8
L1
100
AcDbLine
 10
-270.3022229685225
 20
86.91103474185155
 30
0.0
 11
-259.6996163317009
 21
86.91103474185155
 31
0.0
  0
CIRCLE
  5
1F3
100
AcDbEntity
  8
L1
100
AcDbCircle
 10
-263.7632462872935
 20
81.74999999999995
 30
0.0
 40
3.9
  0
CIRCLE
  5
1F4
100
AcDbEntity
  8
L1
100
AcDbCircle
 10
-263.7632462872935
 20
81.74999999999995
 30
0.0
 40
3.457965408492953
  0
LINE
  5
1F5
100
AcDbEntity
  8
L1
100
AcDbLine
 10
-264.223975382235
 20
86.2136813879726
 30
0.0
 11
-266.4424792360555
 21
85.61923507193609
 31
0.0
  0
ARC
  5
1F6
100
AcDbEntity
  8
L1
100
AcDbCircle
 10
-263.5083431994919
 20
82.00490308780166
 30
0.0
 40
7.000000000000105
100
AcDbArc
 50
179.9999999999988
 51
270.0
  0
LINE
  5
1F7
100
AcDbEntity
  8
L1
100
AcDbLine
 10
-270.508343199492
 20
82.00490308780178
 30
0.0
 11
-270.5083431994919
 21
86.90490308780141
 31
0.0
  0
ELLIPSE
  5
1F8
100
AcDbEntity
  8
L1
100
AcDbEllipse
 10
-268.0160814438591
 20
89.29766744086538
 30
0.0
 11
-1.696497829367979
 21
0.0
 31
0.0
210
0.0
220
0.0
230
1.0
 40
0.0087265354983806
 41
-1.570796326794896
 42
-0.008726313991621
  0
LINE
  5
1F9
100
AcDbEntity
  8
L1
100
AcDbLine
 10
-270.3083546225724
 20
86.90490308780153
 30
0.0
 11
-270.3022229685223
 21
86.91103474185155
 31
0.0
  0
ELLIPSE
  5
1FA
100
AcDbEntity
  8
L1
100
AcDbEllipse
 10
-270.3022229685223
 20
88.61623659241383
 30
0.0
 11
-0.2121320343562742
 21
-0.212132034355646
 31
0.0
210
0.0
220
0.0
230
1.0
 40
0.9999238504775703
 41
-2.356156413979925
 42
-0.7854362396069068
  0
LINE
  5
1FB
100
AcDbEntity
  8
L1
100
AcDbLine
 10
-270.6022115454417
 20
88.61623659241383
 30
0.0
 11
-270.6022115454417
 21
87.21102331877075
 31
0.0
  0
ELLIPSE
  5
1FC
100
AcDbEntity
  8
L1
100
AcDbEllipse
 10
-270.3022229685225
 20
87.21102331877075
 30
0.0
 11
0.2121320343559519
 21
-0.2121320343559682
 31
0.0
210
0.0
220
0.0
230
1.0
 40
0.9999238504775703
 41
-2.356156413981367
 42
-0.7854362396083489
  0
ELLIPSE
  5
1FD
100
AcDbEntity
  8
L1
100
AcDbEllipse
 10
-269.7125146807071
 20
89.59778520528407
 30
0.0
 11
0.212132034356148
 21
-0.2121320343557347
 31
0.0
210
0.0
220
0.0
230
1.0
 40
0.9999238504775703
 41
-2.34750592014437
 42
-0.7854362396093615
  0
LINE
  5
1FE
100
AcDbEntity
  8
L1
100
AcDbLine
 10
-270.0160052957863
 20
89.99779308605452
 30
0.0
 11
-270.0124918358503
 21
89.59519018830524
 31
0.0
  0
LINE
  5
1FF
100
AcDbEntity
  8
L1
100
AcDbLine
 10
-270.3870895473767
 20
89.62670883448737
 30
0.0
 11
-270.0160052958555
 21
89.9977930860544
 31
0.0
  0
POLYLINE
  5
200
100
AcDbEntity
  8
L1
100
AcDb2dPolyline
 66
     1
 10
0.0
 20
0.0
 30
0.0
  0
VERTEX
  5
6E8
100
AcDbEntity
  8
L1
100
AcDbVertex
100
AcDb2dVertex
 10
-270.3878555315674
 20
89.21982649261048
 30
0.0
  0
VERTEX
  5
6E9
100
AcDbEntity
  8
L1
100
AcDbVertex
100
AcDb2dVertex
 10
-270.388867184009
 20
89.51039703712519
 30
0.0
  0
VERTEX
  5
6EA
100
AcDbEntity
  8
L1
100
AcDbVertex
100
AcDb2dVertex
 10
-270.3870895473766
 20
89.62670883448737
 30
0.0
  0
SEQEND
  5
6EB
100
AcDbEntity
  8
L1
  0
POLYLINE
  5
201
100
AcDbEntity
  8
L1
100
AcDb2dPolyline
 66
     1
 10
0.0
 20
0.0
 30
0.0
  0
VERTEX
  5
6EC
100
AcDbEntity
  8
L1
100
AcDbVertex
100
AcDb2dVertex
 10
-270.3722974507064
 20
89.12672787295532
 30
0.0
  0
VERTEX
  5
6ED
100
AcDbEntity
  8
L1
100
AcDbVertex
100
AcDb2dVertex
 10
-270.3878555315674
 20
89.21982649261048
 30
0.0
  0
SEQEND
  5
6EE
100
AcDbEntity
  8
L1
  0
POLYLINE
  5
202
100
AcDbEntity
  8
L1
100
AcDb2dPolyline
 66
     1
 10
0.0
 20
0.0
 30
0.0
  0
VERTEX
  5
6EF
100
AcDbEntity
  8
L1
100
AcDbVertex
100
AcDb2dVertex
 10
-270.087954485711
 20
88.92235682338304
 30
0.0
  0
VERTEX
  5
6F0
100
AcDbEntity
  8
L1
100
AcDbVertex
100
AcDb2dVertex
 10
-270.2630410950122
 20
88.9787496320801
 30
0.0
  0
VERTEX
  5
6F1
100
AcDbEntity
  8
L1
100
AcDbVertex
100
AcDb2dVertex
 10
-270.3722974507064
 20
89.12672787295532
 30
0.0
  0
SEQEND
  5
6F2
100
AcDbEntity
  8
L1
  0
LINE
  5
203
100
AcDbEntity
  8
L1
100
AcDbLine
 10
-270.5083431994919
 20
86.90490308780141
 30
0.0
 11
-270.3083546225724
 21
86.90490308780141
 31
0.0
  0
LINE
  5
204
100
AcDbEntity
  8
L6
100
AcDbLine
 10
-263.7632462872935
 20
88.03088265814375
 30
0.0
 11
-263.7632462872935
 21
75.45130511106169
 31
0.0
  0
CIRCLE
  5
205
100
AcDbEntity
  8
L1
100
AcDbCircle
 10
-263.7632462872935
 20
81.74999999999995
 30
0.0
 40
2.25
  0
LINE
  5
206
100
AcDbEntity
  8
L1
100
AcDbLine
 10
-256.200774297897
 20
86.51257860481662
 30
0.0
 11
-256.200774297897
 21
77.49716484343441
 31
0.0
  0
LINE
  5
207
100
AcDbEntity
  8
L1
100
AcDbLine
 10
-256.5970211179602
 20
75.21102331877074
 30
0.0
 11
-256.5970211179602
 21
86.11633178475342
 31
0.0
  0
LINE
  5
208
100
AcDbEntity
  8
L1
100
AcDbLine
 10
-259.3460942480924
 20
82.45862520215785
 30
0.0
 11
-259.6121708996389
 21
83.96762087869893
 31
0.0
  0
LINE
  5
209
100
AcDbEntity
  8
L1
100
AcDbLine
 10
-258.6022115454417
 20
85.81362995559226
 30
0.0
 11
-258.6022115454417
 21
75.21102331877074
 31
0.0
  0
LINE
  5
20A
100
AcDbEntity
  8
L1
100
AcDbLine
 10
-258.3022229685225
 20
74.91103474185155
 30
0.0
 11
-256.8970096948795
 21
74.91103474185155
 31
0.0
  0
LINE
  5
20B
100
AcDbEntity
  8
L1
100
AcDbLine
 10
-256.8908780408295
 20
74.90490308780152
 30
0.0
 11
-258.3083546225725
 21
74.90490308780152
 31
0.0
  0
ARC
  5
20C
100
AcDbEntity
  8
L1
100
AcDbCircle
 10
-259.0055536875286
 20
82.58077094859828
 30
0.0
 40
0.3617837154469492
100
AcDbArc
 50
199.7319930391523
 51
351.6401670603169
  0
LINE
  5
20D
100
AcDbEntity
  8
L1
100
AcDbLine
 10
-259.8940112153572
 20
79.07076705123819
 30
0.0
 11
-259.2995648993206
 21
81.28927090505857
 31
0.0
  0
LINE
  5
20E
100
AcDbEntity
  8
L1
100
AcDbLine
 10
-259.2995648993196
 20
81.28927090505824
 30
0.0
 11
-259.0795513851135
 21
81.28927090505824
 31
0.0
  0
LINE
  5
20F
100
AcDbEntity
  8
L1
100
AcDbLine
 10
-258.3083546225725
 20
74.90490308780152
 30
0.0
 11
-258.3022229685225
 21
74.91103474185155
 31
0.0
  0
ELLIPSE
  5
210
100
AcDbEntity
  8
L1
100
AcDbEllipse
 10
-258.3022229685225
 20
75.21102331877074
 30
0.0
 11
0.2121320343559519
 21
-0.2121320343559682
 31
0.0
210
0.0
220
0.0
230
1.0
 40
0.9999238504775703
 41
-2.356156413981367
 42
-0.7854362396083489
  0
LINE
  5
211
100
AcDbEntity
  8
L1
100
AcDbLine
 10
-258.6476141045501
 20
82.52817140744225
 30
0.0
 11
-258.6519775384455
 21
82.53253484133763
 31
0.0
  0
LINE
  5
212
100
AcDbEntity
  8
L1
100
AcDbLine
 10
-258.6022115454417
 20
75.21102331877074
 30
0.0
 11
-258.6083431994917
 21
75.20489166472072
 31
0.0
  0
LINE
  5
213
100
AcDbEntity
  8
L1
100
AcDbLine
 10
-258.6476141045501
 20
82.52817140744225
 30
0.0
 11
-258.6476141045501
 21
81.27181716947672
 31
0.0
  0
LINE
  5
214
100
AcDbEntity
  8
L1
100
AcDbLine
 10
-258.9054464329647
 20
81.27181716947683
 30
0.0
 11
-258.6476141045501
 21
81.27181716947683
 31
0.0
  0
LINE
  5
215
100
AcDbEntity
  8
L1
100
AcDbLine
 10
-258.9437616355836
 20
81.27565820562727
 30
0.0
 11
-258.9054464329699
 21
81.27181716947683
 31
0.0
  0
LINE
  5
216
100
AcDbEntity
  8
L1
100
AcDbLine
 10
-259.0685275810396
 20
81.28816578672052
 30
0.0
 11
-258.9437616453263
 21
81.27565820561978
 31
0.0
  0
LINE
  5
217
100
AcDbEntity
  8
L1
100
AcDbLine
 10
-259.079551385119
 20
81.28927090505824
 30
0.0
 11
-259.0685275802537
 21
81.28816578672109
 31
0.0
  0
LINE
  5
218
100
AcDbEntity
  8
L1
100
AcDbLine
 10
-258.6083431994917
 20
75.00490308780155
 30
0.0
 11
-263.5083431994918
 21
75.00490308780155
 31
0.0
  0
LINE
  5
219
100
AcDbEntity
  8
L1
100
AcDbLine
 10
-258.6083431994917
 20
75.20489166472072
 30
0.0
 11
-258.6083431994917
 21
75.00490308780155
 31
0.0
  0
POLYLINE
  5
21A
100
AcDbEntity
  8
L1
100
AcDb2dPolyline
 66
     1
 10
0.0
 20
0.0
 30
0.0
  0
VERTEX
  5
6F3
100
AcDbEntity
  8
L1
100
AcDbVertex
100
AcDb2dVertex
 10
-258.3083546225725
 20
74.90490308780152
 30
0.0
  0
VERTEX
  5
6F4
100
AcDbEntity
  8
L1
100
AcDbVertex
100
AcDb2dVertex
 10
-258.5204799653153
 20
74.99276632197797
 30
0.0
  0
VERTEX
  5
6F5
100
AcDbEntity
  8
L1
100
AcDbVertex
100
AcDb2dVertex
 10
-258.6083431994917
 20
75.20489166472072
 30
0.0
  0
SEQEND
  5
6F6
100
AcDbEntity
  8
L1
  0
LINE
  5
21B
100
AcDbEntity
  8
L1
100
AcDbLine
 10
-255.515453201239
 20
75.497240991507
 30
0.0
 11
-255.886537452806
 21
75.12615673993997
 31
0.0
  0
LINE
  5
21C
100
AcDbEntity
  8
L1
100
AcDbLine
 10
-255.515453201239
 20
75.497240991507
 30
0.0
 11
-255.918056098988
 21
75.50075445144301
 31
0.0
  0
ELLIPSE
  5
21D
100
AcDbEntity
  8
L1
100
AcDbEllipse
 10
-256.2155788464278
 20
77.49716484343441
 30
0.0
 11
0.0
 21
1.696497829367981
 31
0.0
210
0.0
220
0.0
230
1.0
 40
0.0087265354983808
 41
-3.132866339598172
 42
-1.570796326794896
  0
LINE
  5
21E
100
AcDbEntity
  8
L1
100
AcDbLine
 10
-256.5908894639102
 20
75.20489166472072
 30
0.0
 11
-256.5970211179602
 21
75.21102331877074
 31
0.0
  0
LINE
  5
21F
100
AcDbEntity
  8
L1
100
AcDbLine
 10
-256.8970096948795
 20
74.91103474185155
 30
0.0
 11
-256.8908780408295
 21
74.90490308780152
 31
0.0
  0
ELLIPSE
  5
220
100
AcDbEntity
  8
L1
100
AcDbEllipse
 10
-256.8970096948795
 20
75.21102331877074
 30
0.0
 11
-0.2121320343559661
 21
-0.2121320343559824
 31
0.0
210
0.0
220
0.0
230
1.0
 40
0.9999238504775703
 41
0.7854362396083489
 42
2.356156413981367
  0
ELLIPSE
  5
221
100
AcDbEntity
  8
L1
100
AcDbEllipse
 10
-255.9154610820093
 20
75.80073160658634
 30
0.0
 11
-0.212132034355621
 21
0.2121320343562821
 31
0.0
210
0.0
220
0.0
230
1.0
 40
0.9999238504775695
 41
0.785436239609946
 42
2.347505920144955
  0
POLYLINE
  5
222
100
AcDbEntity
  8
L1
100
AcDb2dPolyline
 66
     1
 10
0.0
 20
0.0
 30
0.0
  0
VERTEX
  5
6F7
100
AcDbEntity
  8
L1
100
AcDbVertex
100
AcDb2dVertex
 10
-256.2934197946828
 20
75.12539075574858
 30
0.0
  0
VERTEX
  5
6F8
100
AcDbEntity
  8
L1
100
AcDbVertex
100
AcDb2dVertex
 10
-256.3865184143381
 20
75.14094883660965
 30
0.0
  0
SEQEND
  5
6F9
100
AcDbEntity
  8
L1
  0
POLYLINE
  5
223
100
AcDbEntity
  8
L1
100
AcDb2dPolyline
 66
     1
 10
0.0
 20
0.0
 30
0.0
  0
VERTEX
  5
6FA
100
AcDbEntity
  8
L1
100
AcDbVertex
100
AcDb2dVertex
 10
-255.886537452806
 20
75.12615673993997
 30
0.0
  0
VERTEX
  5
6FB
100
AcDbEntity
  8
L1
100
AcDbVertex
100
AcDb2dVertex
 10
-256.0028492501682
 20
75.12437910330715
 30
0.0
  0
VERTEX
  5
6FC
100
AcDbEntity
  8
L1
100
AcDbVertex
100
AcDb2dVertex
 10
-256.2934197946828
 20
75.12539075574858
 30
0.0
  0
SEQEND
  5
6FD
100
AcDbEntity
  8
L1
  0
POLYLINE
  5
224
100
AcDbEntity
  8
L1
100
AcDb2dPolyline
 66
     1
 10
0.0
 20
0.0
 30
0.0
  0
VERTEX
  5
6FE
100
AcDbEntity
  8
L1
100
AcDbVertex
100
AcDb2dVertex
 10
-256.5908894639102
 20
75.20489166472072
 30
0.0
  0
VERTEX
  5
6FF
100
AcDbEntity
  8
L1
100
AcDbVertex
100
AcDb2dVertex
 10
-256.6787526980866
 20
74.99276632197797
 30
0.0
  0
VERTEX
  5
700
100
AcDbEntity
  8
L1
100
AcDbVertex
100
AcDb2dVertex
 10
-256.8908780408295
 20
74.90490308780152
 30
0.0
  0
SEQEND
  5
701
100
AcDbEntity
  8
L1
  0
LINE
  5
225
100
AcDbEntity
  8
L1
100
AcDbLine
 10
-256.5908894639102
 20
75.20489166472072
 30
0.0
 11
-256.5908894639102
 21
75.42529180160483
 31
0.0
  0
POLYLINE
  5
226
100
AcDbEntity
  8
L1
100
AcDb2dPolyline
 66
     1
 10
0.0
 20
0.0
 30
0.0
  0
VERTEX
  5
702
100
AcDbEntity
  8
L1
100
AcDbVertex
100
AcDb2dVertex
 10
-256.3865184143381
 20
75.14094883660965
 30
0.0
  0
VERTEX
  5
703
100
AcDbEntity
  8
L1
100
AcDbVertex
100
AcDb2dVertex
 10
-256.5344966552132
 20
75.25020519230389
 30
0.0
  0
VERTEX
  5
704
100
AcDbEntity
  8
L1
100
AcDbVertex
100
AcDb2dVertex
 10
-256.5908894639102
 20
75.42529180160494
 30
0.0
  0
SEQEND
  5
705
100
AcDbEntity
  8
L1
  0
POLYLINE
  5
227
100
AcDbEntity
  8
L1
100
AcDb2dPolyline
 66
     1
 10
0.0
 20
0.0
 30
0.0
  0
VERTEX
  5
706
100
AcDbEntity
  8
L1
100
AcDbVertex
100
AcDb2dVertex
 10
-255.4684407306833
 20
86.55000000000001
 30
0.0
  0
VERTEX
  5
707
100
AcDbEntity
  8
L1
100
AcDbVertex
100
AcDb2dVertex
 10
-255.5344654739637
 20
87.22163427376239
 30
0.0
  0
VERTEX
  5
708
100
AcDbEntity
  8
L1
100
AcDbVertex
100
AcDb2dVertex
 10
-255.7357922129312
 20
87.88663729905222
 30
0.0
  0
VERTEX
  5
709
100
AcDbEntity
  8
L1
100
AcDbVertex
100
AcDb2dVertex
 10
-256.064520463312
 20
88.49876236080644
 30
0.0
  0
VERTEX
  5
70A
100
AcDbEntity
  8
L1
100
AcDbVertex
100
AcDb2dVertex
 10
-256.4934903117499
 20
89.01975597554367
 30
0.0
  0
VERTEX
  5
70B
100
AcDbEntity
  8
L1
100
AcDbVertex
100
AcDb2dVertex
 10
-257.014483926487
 20
89.44872582398142
 30
0.0
  0
VERTEX
  5
70C
100
AcDbEntity
  8
L1
100
AcDbVertex
100
AcDb2dVertex
 10
-257.6266089882413
 20
89.77745407436243
 30
0.0
  0
VERTEX
  5
70D
100
AcDbEntity
  8
L1
100
AcDbVertex
100
AcDb2dVertex
 10
-258.2916120135311
 20
89.9787808133297
 30
0.0
  0
VERTEX
  5
70E
100
AcDbEntity
  8
L1
100
AcDbVertex
100
AcDb2dVertex
 10
-258.9632462872935
 20
90.04480555661013
 30
0.0
  0
SEQEND
  5
70F
100
AcDbEntity
  8
L1
  0
POLYLINE
  5
228
100
AcDbEntity
  8
L1
100
AcDb2dPolyline
 66
     1
 10
0.0
 20
0.0
 30
0.0
  0
VERTEX
  5
710
100
AcDbEntity
  8
L1
100
AcDbVertex
100
AcDb2dVertex
 10
-259.0006676824766
 20
89.31247198939633
 30
0.0
  0
VERTEX
  5
711
100
AcDbEntity
  8
L1
100
AcDbVertex
100
AcDb2dVertex
 10
-258.6631673779015
 20
89.29206062352131
 30
0.0
  0
VERTEX
  5
712
100
AcDbEntity
  8
L1
100
AcDbVertex
100
AcDb2dVertex
 10
-258.3305915534188
 20
89.23111863372872
 30
0.0
  0
VERTEX
  5
713
100
AcDbEntity
  8
L1
100
AcDbVertex
100
AcDb2dVertex
 10
-258.0077894438001
 20
89.13053460540032
 30
0.0
  0
VERTEX
  5
714
100
AcDbEntity
  8
L1
100
AcDbVertex
100
AcDb2dVertex
 10
-257.6994677748472
 20
88.99177513812531
 30
0.0
  0
VERTEX
  5
715
100
AcDbEntity
  8
L1
100
AcDbVertex
100
AcDb2dVertex
 10
-257.4101221353789
 20
88.81686346144745
 30
0.0
  0
VERTEX
  5
716
100
AcDbEntity
  8
L1
100
AcDbVertex
100
AcDb2dVertex
 10
-257.1439714277704
 20
88.60834993447879
 30
0.0
  0
VERTEX
  5
717
100
AcDbEntity
  8
L1
100
AcDbVertex
100
AcDb2dVertex
 10
-256.9048963528144
 20
88.36927485952292
 30
0.0
  0
VERTEX
  5
718
100
AcDbEntity
  8
L1
100
AcDbVertex
100
AcDb2dVertex
 10
-256.6963828258459
 20
88.10312415191441
 30
0.0
  0
VERTEX
  5
719
100
AcDbEntity
  8
L1
100
AcDbVertex
100
AcDb2dVertex
 10
-256.5214711491679
 20
87.81377851244604
 30
0.0
  0
VERTEX
  5
71A
100
AcDbEntity
  8
L1
100
AcDbVertex
100
AcDb2dVertex
 10
-256.382711681893
 20
87.50545684349328
 30
0.0
  0
VERTEX
  5
71B
100
AcDbEntity
  8
L1
100
AcDbVertex
100
AcDb2dVertex
 10
-256.2821276535645
 20
87.18265473387447
 30
0.0
  0
VERTEX
  5
71C
100
AcDbEntity
  8
L1
100
AcDbVertex
100
AcDb2dVertex
 10
-256.2211856637719
 20
86.8500789093918
 30
0.0
  0
VERTEX
  5
71D
100
AcDbEntity
  8
L1
100
AcDbVertex
100
AcDb2dVertex
 10
-256.200774297897
 20
86.51257860481662
 30
0.0
  0
SEQEND
  5
71E
100
AcDbEntity
  8
L1
  0
POLYLINE
  5
229
100
AcDbEntity
  8
L1
100
AcDb2dPolyline
 66
     1
 10
0.0
 20
0.0
 30
0.0
  0
VERTEX
  5
71F
100
AcDbEntity
  8
L1
100
AcDbVertex
100
AcDb2dVertex
 10
-256.5970211179602
 20
86.11633178475342
 30
0.0
  0
VERTEX
  5
720
100
AcDbEntity
  8
L1
100
AcDbVertex
100
AcDb2dVertex
 10
-256.612361171775
 20
86.4090050573472
 30
0.0
  0
VERTEX
  5
721
100
AcDbEntity
  8
L1
100
AcDbVertex
100
AcDb2dVertex
 10
-256.6582085050155
 20
86.69846996520874
 30
0.0
  0
VERTEX
  5
722
100
AcDbEntity
  8
L1
100
AcDbVertex
100
AcDb2dVertex
 10
-256.7340608533634
 20
86.98155537744815
 30
0.0
  0
VERTEX
  5
723
100
AcDbEntity
  8
L1
100
AcDbVertex
100
AcDb2dVertex
 10
-256.8390872431206
 20
87.25516005149364
 30
0.0
  0
VERTEX
  5
724
100
AcDbEntity
  8
L1
100
AcDbVertex
100
AcDb2dVertex
 10
-256.9721370946493
 20
87.51628660766341
 30
0.0
  0
VERTEX
  5
725
100
AcDbEntity
  8
L1
100
AcDbVertex
100
AcDb2dVertex
 10
-257.1317528271424
 20
87.7620743659026
 30
0.0
  0
VERTEX
  5
726
100
AcDbEntity
  8
L1
100
AcDbVertex
100
AcDb2dVertex
 10
-257.3161858266364
 20
87.9898306849571
 30
0.0
  0
VERTEX
  5
727
100
AcDbEntity
  8
L1
100
AcDbVertex
100
AcDb2dVertex
 10
-257.5234156023361
 20
88.19706046065693
 30
0.0
  0
VERTEX
  5
728
100
AcDbEntity
  8
L1
100
AcDbVertex
100
AcDb2dVertex
 10
-257.7511719213907
 20
88.38149346015081
 30
0.0
  0
VERTEX
  5
729
100
AcDbEntity
  8
L1
100
AcDbVertex
100
AcDb2dVertex
 10
-257.9969596796298
 20
88.541109192644
 30
0.0
  0
VERTEX
  5
72A
100
AcDbEntity
  8
L1
100
AcDbVertex
100
AcDb2dVertex
 10
-258.2580862357996
 20
88.67415904417276
 30
0.0
  0
VERTEX
  5
72B
100
AcDbEntity
  8
L1
100
AcDbVertex
100
AcDb2dVertex
 10
-258.5316909098452
 20
88.77918543392985
 30
0.0
  0
VERTEX
  5
72C
100
AcDbEntity
  8
L1
100
AcDbVertex
100
AcDb2dVertex
 10
-258.8147763220846
 20
88.85503778227775
 30
0.0
  0
VERTEX
  5
72D
100
AcDbEntity
  8
L1
100
AcDbVertex
100
AcDb2dVertex
 10
-259.1042412299461
 20
88.90088511551818
 30
0.0
  0
VERTEX
  5
72E
100
AcDbEntity
  8
L1
100
AcDbVertex
100
AcDb2dVertex
 10
-259.3969145025399
 20
88.91622516933301
 30
0.0
  0
SEQEND
  5
72F
100
AcDbEntity
  8
L1
  0
ARC
  5
22A
100
AcDbEntity
  8
L1
100
AcDbCircle
 10
-262.9517051140442
 20
86.50960726819439
 30
0.0
 40
0.3575853479233129
100
AcDbArc
 50
95.35461741057259
 51
253.2732224881471
  0
LINE
  5
22B
100
AcDbEntity
  8
L1
100
AcDbLine
 10
-262.9807114459557
 20
86.86126874884775
 30
0.0
 11
-262.9850748798511
 21
86.86563218274313
 31
0.0
  0
ARC
  5
22C
100
AcDbEntity
  8
L1
100
AcDbCircle
 10
-259.6996163317009
 20
85.81362995559226
 30
0.0
 40
1.097404786259232
100
AcDbArc
 50
0.0
 51
90.0
  0
LINE
  5
22D
100
AcDbEntity
  8
L1
100
AcDbLine
 10
-261.5456254085941
 20
85.90107538765421
 30
0.0
 11
-263.0546210851356
 21
86.16715203920085
 31
0.0
  0
ARC
  5
22E
100
AcDbEntity
  8
L1
100
AcDbCircle
 10
-263.7632462872935
 20
81.74999999999995
 30
0.0
 40
4.70630101413334
100
AcDbArc
 50
28.112382794938
 51
61.88761720505606
  0
POLYLINE
  5
22F
100
AcDbEntity
  8
L1
100
AcDb2dPolyline
 66
     1
 10
0.0
 20
0.0
 30
0.0
  0
VERTEX
  5
730
100
AcDbEntity
  8
L1
100
AcDbVertex
100
AcDb2dVertex
 10
-261.0004351537109
 20
85.82709737058172
 30
0.0
  0
VERTEX
  5
731
100
AcDbEntity
  8
L1
100
AcDbVertex
100
AcDb2dVertex
 10
-261.276368942268
 20
85.86380514308775
 30
0.0
  0
VERTEX
  5
732
100
AcDbEntity
  8
L1
100
AcDbVertex
100
AcDb2dVertex
 10
-261.5456254085939
 20
85.90107538765408
 30
0.0
  0
SEQEND
  5
733
100
AcDbEntity
  8
L1
  0
POLYLINE
  5
230
100
AcDbEntity
  8
L1
100
AcDb2dPolyline
 66
     1
 10
0.0
 20
0.0
 30
0.0
  0
VERTEX
  5
734
100
AcDbEntity
  8
L1
100
AcDbVertex
100
AcDb2dVertex
 10
-259.6121708996389
 20
83.96762087869893
 30
0.0
  0
VERTEX
  5
735
100
AcDbEntity
  8
L1
100
AcDbVertex
100
AcDb2dVertex
 10
-259.6494411442054
 20
84.23687734502488
 30
0.0
  0
VERTEX
  5
736
100
AcDbEntity
  8
L1
100
AcDbVertex
100
AcDb2dVertex
 10
-259.6861489167114
 20
84.51281113358215
 30
0.0
  0
SEQEND
  5
737
100
AcDbEntity
  8
L1
  0
ARC
  5
231
100
AcDbEntity
  8
L1
100
AcDbCircle
 10
-263.7632462872935
 20
81.74999999999995
 30
0.0
 40
4.925022672948151
100
AcDbArc
 50
34.1232037095356
 51
55.87679629045839
  0
LINE
  5
232
100
AcDbEntity
  8
L1
100
AcDbLine
 10
-264.223975382235
 20
86.43369490217986
 30
0.0
 11
-264.223975382235
 21
86.21368138797249
 31
0.0
  0
LINE
  5
233
100
AcDbEntity
  8
L1
100
AcDbLine
 10
-264.2250805005722
 20
86.44471870703961
 30
0.0
 11
-264.223975382235
 21
86.43369490217452
 31
0.0
  0
LINE
  5
234
100
AcDbEntity
  8
L1
100
AcDbLine
 10
-264.2375880816735
 20
86.56948464196688
 30
0.0
 11
-264.2250805005729
 21
86.44471870625357
 31
0.0
  0
LINE
  5
235
100
AcDbEntity
  8
L1
100
AcDbLine
 10
-264.2414291178166
 20
86.60779985432345
 30
0.0
 11
-264.2375880816662
 21
86.56948465170973
 31
0.0
  0
LINE
  5
236
100
AcDbEntity
  8
L1
100
AcDbLine
 10
-264.2414291178166
 20
86.86563218274313
 30
0.0
 11
-262.9850748798512
 21
86.86563218274313
 31
0.0
  0
LINE
  5
237
100
AcDbEntity
  8
L1
100
AcDbLine
 10
-264.2414291178166
 20
86.86563218274301
 30
0.0
 11
-264.2414291178166
 21
86.60779985432879
 31
0.0
  0
ARC
  5
238
100
AcDbEntity
  8
L1
100
AcDbCircle
 10
-189.2795194368649
 20
73.24739336317844
 30
0.0
 40
0.3
100
AcDbArc
 50
180.0
 51
180.135934661658
  0
LINE
  5
239
100
AcDbEntity
  8
L1
100
AcDbLine
 10
-189.5795194368649
 20
73.52721114182594
 30
0.0
 11
-189.578701702889
 21
73.52721827808221
 31
0.0
  0
LINE
  5
23A
100
AcDbEntity
  8
L1
100
AcDbLine
 10
-185.5796717446082
 20
86.51522712728189
 30
0.0
 11
-185.5796717446082
 21
77.49716484343429
 31
0.0
  0
LINE
  5
23B
100
AcDbEntity
  8
L1
100
AcDbLine
 10
-189.5792252202161
 20
76.65000256758975
 30
0.0
 11
-189.5795194368649
 21
76.64999999999992
 31
0.0
  0
LINE
  5
23C
100
AcDbEntity
  8
L1
100
AcDbLine
 10
-189.5795194368649
 20
77.00498575767466
 30
0.0
 11
-189.578701702889
 21
77.00499289393093
 31
0.0
  0
POLYLINE
  5
23D
100
AcDbEntity
  8
L1
100
AcDb2dPolyline
 66
     1
 10
0.0
 20
0.0
 30
0.0
  0
VERTEX
  5
738
100
AcDbEntity
  8
L1
100
AcDbVertex
100
AcDb2dVertex
 10
-189.5795194368649
 20
76.11189094038621
 30
0.0
  0
VERTEX
  5
739
100
AcDbEntity
  8
L1
100
AcDbVertex
100
AcDb2dVertex
 10
-189.5792663355207
 20
76.11189511502818
 30
0.0
  0
SEQEND
  5
73A
100
AcDbEntity
  8
L1
  0
LINE
  5
23E
100
AcDbEntity
  8
L1
100
AcDbLine
 10
-189.5789897674409
 20
76.17268523578587
 30
0.0
 11
-189.5795194368649
 21
76.17268985814092
 31
0.0
  0
ELLIPSE
  5
23F
100
AcDbEntity
  8
L1
100
AcDbEllipse
 10
-183.5797478984799
 20
77.49716484343441
 30
0.0
 11
0.0
 21
1.999999999999999
 31
0.0
210
0.0
220
0.0
230
-1.0
 40
0.9999619230641712
 41
-3.132866339596876
 42
-1.570796326794896
  0
POLYLINE
  5
242
100
AcDbEntity
  8
L1
100
AcDb2dPolyline
 66
     1
 10
0.0
 20
0.0
 30
0.0
  0
VERTEX
  5
745
100
AcDbEntity
  8
L1
100
AcDbVertex
100
AcDb2dVertex
 10
-188.9847138802547
 20
90.04480555661013
 30
0.0
  0
VERTEX
  5
746
100
AcDbEntity
  8
L1
100
AcDbVertex
100
AcDb2dVertex
 10
-188.9847111635115
 20
90.04480827335346
 30
0.0
  0
VERTEX
  5
747
100
AcDbEntity
  8
L1
100
AcDbVertex
100
AcDb2dVertex
 10
-188.9847102579301
 20
90.04480917893472
 30
0.0
  0
SEQEND
  5
748
100
AcDbEntity
  8
L1
  0
LINE
  5
243
100
AcDbEntity
  8
L1
100
AcDbLine
 10
-189.5795194368649
 20
89.44999999999998
 30
0.0
 11
-188.9847138802547
 21
90.04480555661013
 31
0.0
  0
LINE
  5
244
100
AcDbEntity
  8
L1
100
AcDbLine
 10
-189.5795194368649
 20
86.62721114182597
 30
0.0
 11
-189.5794618515944
 21
86.62721164436499
 31
0.0
  0
POLYLINE
  5
245
100
AcDbEntity
  8
L1
100
AcDb2dPolyline
 66
     1
 10
0.0
 20
0.0
 30
0.0
  0
VERTEX
  5
749
100
AcDbEntity
  8
L1
100
AcDbVertex
100
AcDb2dVertex
 10
-188.9847102579301
 20
86.54494244821018
 30
0.0
  0
VERTEX
  5
74A
100
AcDbEntity
  8
L1
100
AcDbVertex
100
AcDb2dVertex
 10
-188.9847111635115
 20
86.54747121693167
 30
0.0
  0
VERTEX
  5
74B
100
AcDbEntity
  8
L1
100
AcDbVertex
100
AcDb2dVertex
 10
-188.9847138802547
 20
86.55000000000001
 30
0.0
  0
SEQEND
  5
74C
100
AcDbEntity
  8
L1
  0
ARC
  5
246
100
AcDbEntity
  8
L1
100
AcDbCircle
 10
-189.2795194368649
 20
86.14739336317853
 30
0.0
 40
0.3
100
AcDbArc
 50
180.0
 51
180.7454932218261
  0
LINE
  5
247
100
AcDbEntity
  8
L1
100
AcDbLine
 10
-185.5796253926596
 20
90.0150934534991
 30
0.0
 11
-183.5971996404335
 21
89.9977930860544
 31
0.0
  0
POLYLINE
  5
248
100
AcDbEntity
  8
L1
100
AcDb2dPolyline
 66
     1
 10
0.0
 20
0.0
 30
0.0
  0
VERTEX
  5
74D
100
AcDbEntity
  8
L1
100
AcDbVertex
100
AcDb2dVertex
 10
-185.5796717446082
 20
90.01509385800654
 30
0.0
  0
VERTEX
  5
74E
100
AcDbEntity
  8
L1
100
AcDbVertex
100
AcDb2dVertex
 10
-185.5796717446082
 20
89.84380161504446
 30
0.0
  0
VERTEX
  5
74F
100
AcDbEntity
  8
L1
100
AcDbVertex
100
AcDb2dVertex
 10
-185.5796717446082
 20
89.34669055203409
 30
0.0
  0
VERTEX
  5
750
100
AcDbEntity
  8
L1
100
AcDbVertex
100
AcDb2dVertex
 10
-185.5796717446082
 20
88.5724166842238
 30
0.0
  0
VERTEX
  5
751
100
AcDbEntity
  8
L1
100
AcDbVertex
100
AcDb2dVertex
 10
-185.5796717446082
 20
87.59676404444229
 30
0.0
  0
VERTEX
  5
752
100
AcDbEntity
  8
L1
100
AcDbVertex
100
AcDb2dVertex
 10
-185.5796717446082
 20
86.51522712728189
 30
0.0
  0
SEQEND
  5
753
100
AcDbEntity
  8
L1
  0
LINE
  5
249
100
AcDbEntity
  8
L1
100
AcDbLine
 10
-188.9847102579301
 20
90.04480917893472
 30
0.0
 11
-185.5796717446082
 21
90.01509385800654
 31
0.0
  0
ARC
  5
24A
100
AcDbEntity
  8
L1
100
AcDbCircle
 10
-185.2796717446083
 20
89.61246056631551
 30
0.0
 40
0.2999999999999993
100
AcDbArc
 50
180.061652521661
 51
269.5000000000009
  0
LINE
  5
24B
100
AcDbEntity
  8
L1
100
AcDbLine
 10
-88.91622516933319
 20
128.4309495054021
 30
0.0
 11
-89.31247198939649
 21
173.8363377344445
 31
0.0
  0
LINE
  5
24C
100
AcDbEntity
  8
L1
100
AcDbLine
 10
-75.40490308780158
 20
129.1335674660516
 30
0.0
 11
-75.43116286074996
 21
172.134941119339
 31
0.0
  0
LINE
  5
24D
100
AcDbEntity
  8
L1
100
AcDbLine
 10
-89.62670883448732
 20
129.6292041983023
 30
0.0
 11
-89.99779308605445
 21
172.151247669621
 31
0.0
  0
LINE
  5
24F
100
AcDbEntity
  8
L6
100
AcDbLine
 10
-88.7789303277167
 20
81.74999999999995
 30
0.0
 11
-74.77756888321789
 21
81.74999999999995
 31
0.0
  0
LINE
  5
250
100
AcDbEntity
  8
L1
100
AcDbLine
 10
-85.81362995559244
 20
128.1335674660516
 30
0.0
 11
-75.21102331877091
 21
128.1335674660516
 31
0.0
  0
CIRCLE
  5
251
100
AcDbEntity
  8
L1
100
AcDbCircle
 10
-81.75
 20
81.74999999999995
 30
0.0
 40
4.0
  0
CIRCLE
  5
252
100
AcDbEntity
  8
L1
100
AcDbCircle
 10
-81.74999999999988
 20
81.74999999999995
 30
0.0
 40
2.25
  0
ARC
  5
253
100
AcDbEntity
  8
L1
100
AcDbCircle
 10
-81.75
 20
81.74999999999995
 30
0.0
 40
5.577310141859172
100
AcDbArc
 50
270.0
 51
0.0
  0
ARC
  5
254
100
AcDbEntity
  8
L1
100
AcDbCircle
 10
-81.75
 20
81.74999999999995
 30
0.0
 40
8.222788858174038
100
AcDbArc
 50
270.0
 51
0.0
  0
ARC
  5
255
100
AcDbEntity
  8
L1
100
AcDbCircle
 10
-81.75
 20
81.74999999999995
 30
0.0
 40
9.201435918374905
100
AcDbArc
 50
270.0
 51
305.2552583666985
  0
ARC
  5
256
100
AcDbEntity
  8
L1
100
AcDbCircle
 10
-81.75
 20
81.74999999999995
 30
0.0
 40
5.099999999999999
100
AcDbArc
 50
262.9999999999999
 51
6.999999999999818
  0
LINE
  5
257
100
AcDbEntity
  8
L1
100
AcDbLine
 10
-86.54999999999995
 20
88.44999999999998
 30
0.0
 11
-76.41188856451265
 21
88.44999999999998
 31
0.0
  0
LINE
  5
258
100
AcDbEntity
  8
L1
100
AcDbLine
 10
-139.5795194368649
 20
86.11633178475342
 30
0.0
 11
-139.5795194368649
 21
75.21102331877074
 31
0.0
  0
ARC
  5
259
100
AcDbEntity
  8
L1
100
AcDbCircle
 10
-139.8795194368649
 20
75.21102331877074
 30
0.0
 40
0.3000000000000243
100
AcDbArc
 50
270.4999999999993
 51
0.0
  0
LINE
  5
25A
100
AcDbEntity
  8
L1
100
AcDbLine
 10
-139.8769014762153
 20
74.91103474185155
 30
0.0
 11
-140.5794212386022
 21
74.90490394476484
 31
0.0
  0
POLYLINE
  5
25B
100
AcDbEntity
  8
L1
100
AcDb2dPolyline
 66
     1
 10
0.0
 20
0.0
 30
0.0
  0
VERTEX
  5
754
100
AcDbEntity
  8
L1
100
AcDbVertex
100
AcDb2dVertex
 10
-140.58826324401
 20
75.12539075574858
 30
0.0
  0
VERTEX
  5
755
100
AcDbEntity
  8
L1
100
AcDbVertex
100
AcDb2dVertex
 10
-140.5795194368649
 20
75.14094883660965
 30
0.0
  0
SEQEND
  5
756
100
AcDbEntity
  8
L1
  0
POLYLINE
  5
25C
100
AcDbEntity
  8
L1
100
AcDb2dPolyline
 66
     1
 10
0.0
 20
0.0
 30
0.0
  0
VERTEX
  5
757
100
AcDbEntity
  8
L1
100
AcDbVertex
100
AcDb2dVertex
 10
-141.0751561691157
 20
75.12615673993997
 30
0.0
  0
VERTEX
  5
758
100
AcDbEntity
  8
L1
100
AcDbVertex
100
AcDb2dVertex
 10
-140.7588982078966
 20
75.12437910330715
 30
0.0
  0
VERTEX
  5
759
100
AcDbEntity
  8
L1
100
AcDbVertex
100
AcDb2dVertex
 10
-140.58826324401
 20
75.12539075574858
 30
0.0
  0
SEQEND
  5
75A
100
AcDbEntity
  8
L1
  0
ARC
  5
25D
100
AcDbEntity
  8
L1
100
AcDbCircle
 10
-139.8795194368649
 20
88.61623659241383
 30
0.0
 40
0.299999999999996
100
AcDbArc
 50
0.0
 51
89.49999999999915
  0
POLYLINE
  5
25E
100
AcDbEntity
  8
L1
100
AcDb2dPolyline
 66
     1
 10
0.0
 20
0.0
 30
0.0
  0
VERTEX
  5
75B
100
AcDbEntity
  8
L1
100
AcDbVertex
100
AcDb2dVertex
 10
-140.58826324401
 20
89.21982649261048
 30
0.0
  0
VERTEX
  5
75C
100
AcDbEntity
  8
L1
100
AcDbVertex
100
AcDb2dVertex
 10
-140.7588982078965
 20
89.51039703712519
 30
0.0
  0
VERTEX
  5
75D
100
AcDbEntity
  8
L1
100
AcDbVertex
100
AcDb2dVertex
 10
-141.0751561691157
 20
89.62670883448737
 30
0.0
  0
SEQEND
  5
75E
100
AcDbEntity
  8
L1
  0
POLYLINE
  5
25F
100
AcDbEntity
  8
L1
100
AcDb2dPolyline
 66
     1
 10
0.0
 20
0.0
 30
0.0
  0
VERTEX
  5
75F
100
AcDbEntity
  8
L1
100
AcDbVertex
100
AcDb2dVertex
 10
-140.5795194368649
 20
89.12672787295532
 30
0.0
  0
VERTEX
  5
760
100
AcDbEntity
  8
L1
100
AcDbVertex
100
AcDb2dVertex
 10
-140.58826324401
 20
89.21982649261048
 30
0.0
  0
SEQEND
  5
761
100
AcDbEntity
  8
L1
  0
POLYLINE
  5
260
100
AcDbEntity
  8
L1
100
AcDb2dPolyline
 66
     1
 10
0.0
 20
0.0
 30
0.0
  0
VERTEX
  5
762
100
AcDbEntity
  8
L1
100
AcDbVertex
100
AcDb2dVertex
 10
-140.5795194368649
 20
88.9225620176772
 30
0.0
  0
VERTEX
  5
763
100
AcDbEntity
  8
L1
100
AcDbVertex
100
AcDb2dVertex
 10
-140.5795194368649
 20
88.98202918348118
 30
0.0
  0
VERTEX
  5
764
100
AcDbEntity
  8
L1
100
AcDbVertex
100
AcDb2dVertex
 10
-140.5795194368649
 20
89.12672787295532
 30
0.0
  0
SEQEND
  5
765
100
AcDbEntity
  8
L1
  0
POLYLINE
  5
261
100
AcDbEntity
  8
L1
100
AcDb2dPolyline
 66
     1
 10
0.0
 20
0.0
 30
0.0
  0
VERTEX
  5
766
100
AcDbEntity
  8
L1
100
AcDbVertex
100
AcDb2dVertex
 10
-139.5795194368649
 20
88.61623659241383
 30
0.0
  0
VERTEX
  5
767
100
AcDbEntity
  8
L1
100
AcDbVertex
100
AcDb2dVertex
 10
-139.5795194368649
 20
88.60051804116125
 30
0.0
  0
VERTEX
  5
768
100
AcDbEntity
  8
L1
100
AcDbVertex
100
AcDb2dVertex
 10
-139.5795194368649
 20
88.55356003816012
 30
0.0
  0
VERTEX
  5
769
100
AcDbEntity
  8
L1
100
AcDbVertex
100
AcDb2dVertex
 10
-139.5795194368649
 20
88.47595305034799
 30
0.0
  0
VERTEX
  5
76A
100
AcDbEntity
  8
L1
100
AcDbVertex
100
AcDb2dVertex
 10
-139.5795194368649
 20
88.36867293609799
 30
0.0
  0
VERTEX
  5
76B
100
AcDbEntity
  8
L1
100
AcDbVertex
100
AcDb2dVertex
 10
-139.5795194368649
 20
88.23306867442278
 30
0.0
  0
VERTEX
  5
76C
100
AcDbEntity
  8
L1
100
AcDbVertex
100
AcDb2dVertex
 10
-139.5795194368649
 20
88.070845402423
 30
0.0
  0
VERTEX
  5
76D
100
AcDbEntity
  8
L1
100
AcDbVertex
100
AcDb2dVertex
 10
-139.5795194368649
 20
87.88404297427661
 30
0.0
  0
VERTEX
  5
76E
100
AcDbEntity
  8
L1
100
AcDbVertex
100
AcDb2dVertex
 10
-139.5795194368649
 20
87.67501031137333
 30
0.0
  0
VERTEX
  5
76F
100
AcDbEntity
  8
L1
100
AcDbVertex
100
AcDb2dVertex
 10
-139.5795194368649
 20
87.44637586612606
 30
0.0
  0
VERTEX
  5
770
100
AcDbEntity
  8
L1
100
AcDbVertex
100
AcDb2dVertex
 10
-139.5795194368649
 20
87.2010145708586
 30
0.0
  0
VERTEX
  5
771
100
AcDbEntity
  8
L1
100
AcDbVertex
100
AcDb2dVertex
 10
-139.5795194368649
 20
86.94201168736531
 30
0.0
  0
VERTEX
  5
772
100
AcDbEntity
  8
L1
100
AcDbVertex
100
AcDb2dVertex
 10
-139.5795194368649
 20
86.67262401171143
 30
0.0
  0
VERTEX
  5
773
100
AcDbEntity
  8
L1
100
AcDbVertex
100
AcDb2dVertex
 10
-139.5795194368649
 20
86.39623892210051
 30
0.0
  0
VERTEX
  5
774
100
AcDbEntity
  8
L1
100
AcDbVertex
100
AcDb2dVertex
 10
-139.5795194368649
 20
86.11633178475342
 30
0.0
  0
SEQEND
  5
775
100
AcDbEntity
  8
L1
  0
ARC
  5
262
100
AcDbEntity
  8
L1
100
AcDbCircle
 10
-85.25
 20
72.14999999999992
 30
0.0
 40
4.022689858140807
100
AcDbArc
 50
89.99999999999898
 51
180.0
  0
POLYLINE
  5
263
100
AcDbEntity
  8
L1
100
AcDb2dPolyline
 66
     1
 10
0.0
 20
0.0
 30
0.0
  0
VERTEX
  5
776
100
AcDbEntity
  8
L1
100
AcDbVertex
100
AcDb2dVertex
 10
-84.62061525853313
 20
72.5485640816251
 30
0.0
  0
VERTEX
  5
777
100
AcDbEntity
  8
L1
100
AcDbVertex
100
AcDb2dVertex
 10
-84.19636457304751
 20
72.37283761327211
 30
0.0
  0
VERTEX
  5
778
100
AcDbEntity
  8
L1
100
AcDbVertex
100
AcDb2dVertex
 10
-84.02063810469462
 20
71.94858692778649
 30
0.0
  0
SEQEND
  5
779
100
AcDbEntity
  8
L1
  0
ARC
  5
264
100
AcDbEntity
  8
L1
100
AcDbCircle
 10
-85.25
 20
72.14999999999992
 30
0.0
 40
1.377211141825941
100
AcDbArc
 50
89.99999999999941
 51
180.0000000000011
  0
LINE
  5
265
100
AcDbEntity
  8
L1
100
AcDbLine
 10
-81.75
 20
73.52721114182594
 30
0.0
 11
-85.25
 21
73.52721114182594
 31
0.0
  0
LINE
  5
266
100
AcDbEntity
  8
L1
100
AcDbLine
 10
-84.62061525853313
 20
72.54856408162499
 30
0.0
 11
-81.75
 21
72.54856408162499
 31
0.0
  0
LINE
  5
267
100
AcDbEntity
  8
L6
100
AcDbLine
 10
-81.74999999999988
 20
88.03088265814375
 30
0.0
 11
-81.74999999999988
 21
75.45130511106169
 31
0.0
  0
LINE
  5
268
100
AcDbEntity
  8
L1
100
AcDbLine
 10
-88.44999999999993
 20
76.41188856451259
 30
0.0
 11
-88.44999999999993
 21
86.55000000000001
 31
0.0
  0
LINE
  5
269
100
AcDbEntity
  8
L1
100
AcDbLine
 10
-85.25
 20
76.17268985814082
 30
0.0
 11
-81.75
 21
76.17268985814082
 31
0.0
  0
LINE
  5
26A
100
AcDbEntity
  8
L1
100
AcDbLine
 10
-84.65832607347079
 20
76.96879743005348
 30
0.0
 11
-82.37153365136624
 21
76.68801462662924
 31
0.0
  0
ARC
  5
26B
100
AcDbEntity
  8
L1
100
AcDbCircle
 10
-85.25
 20
72.14999999999992
 30
0.0
 40
4.854985757674699
100
AcDbArc
 50
82.99999999999938
 51
124.2334150316799
  0
POLYLINE
  5
26C
100
AcDbEntity
  8
L1
100
AcDb2dPolyline
 66
     1
 10
0.0
 20
0.0
 30
0.0
  0
VERTEX
  5
77A
100
AcDbEntity
  8
L1
100
AcDbVertex
100
AcDb2dVertex
 10
-87.9812481580493
 20
76.16387222098268
 30
0.0
  0
VERTEX
  5
77B
100
AcDbEntity
  8
L1
100
AcDbVertex
100
AcDb2dVertex
 10
-88.06114181857651
 20
76.12536262439727
 30
0.0
  0
VERTEX
  5
77C
100
AcDbEntity
  8
L1
100
AcDbVertex
100
AcDb2dVertex
 10
-88.17973681345723
 20
76.11336532300953
 30
0.0
  0
VERTEX
  5
77D
100
AcDbEntity
  8
L1
100
AcDbVertex
100
AcDb2dVertex
 10
-88.29142519603738
 20
76.1473055543193
 30
0.0
  0
VERTEX
  5
77E
100
AcDbEntity
  8
L1
100
AcDbVertex
100
AcDb2dVertex
 10
-88.38169445360472
 20
76.22130365795811
 30
0.0
  0
VERTEX
  5
77F
100
AcDbEntity
  8
L1
100
AcDbVertex
100
AcDb2dVertex
 10
-88.43688952284196
 20
76.32416241575907
 30
0.0
  0
VERTEX
  5
780
100
AcDbEntity
  8
L1
100
AcDbVertex
100
AcDb2dVertex
 10
-88.44999999999993
 20
76.41188856451259
 30
0.0
  0
SEQEND
  5
781
100
AcDbEntity
  8
L1
  0
ARC
  5
26D
100
AcDbEntity
  8
L1
100
AcDbCircle
 10
-86.54999999999995
 20
86.55000000000001
 30
0.0
 40
2.899999999999996
100
AcDbArc
 50
90.0
 51
180.0000000000005
  0
POLYLINE
  5
26E
100
AcDbEntity
  8
L1
100
AcDb2dPolyline
 66
     1
 10
0.0
 20
0.0
 30
0.0
  0
VERTEX
  5
782
100
AcDbEntity
  8
L1
100
AcDbVertex
100
AcDb2dVertex
 10
-90.04480555661018
 20
86.55000000000001
 30
0.0
  0
VERTEX
  5
783
100
AcDbEntity
  8
L1
100
AcDbVertex
100
AcDb2dVertex
 10
-89.97878081332975
 20
87.22163427376239
 30
0.0
  0
VERTEX
  5
784
100
AcDbEntity
  8
L1
100
AcDbVertex
100
AcDb2dVertex
 10
-89.77745407436236
 20
87.88663729905222
 30
0.0
  0
VERTEX
  5
785
100
AcDbEntity
  8
L1
100
AcDbVertex
100
AcDb2dVertex
 10
-89.44872582398136
 20
88.49876236080644
 30
0.0
  0
VERTEX
  5
786
100
AcDbEntity
  8
L1
100
AcDbVertex
100
AcDb2dVertex
 10
-89.01975597554359
 20
89.01975597554367
 30
0.0
  0
VERTEX
  5
787
100
AcDbEntity
  8
L1
100
AcDbVertex
100
AcDb2dVertex
 10
-88.49876236080637
 20
89.44872582398142
 30
0.0
  0
VERTEX
  5
788
100
AcDbEntity
  8
L1
100
AcDbVertex
100
AcDb2dVertex
 10
-87.88663729905215
 20
89.77745407436243
 30
0.0
  0
VERTEX
  5
789
100
AcDbEntity
  8
L1
100
AcDbVertex
100
AcDb2dVertex
 10
-87.22163427376234
 20
89.9787808133297
 30
0.0
  0
VERTEX
  5
78A
100
AcDbEntity
  8
L1
100
AcDbVertex
100
AcDb2dVertex
 10
-86.54999999999995
 20
90.04480555661013
 30
0.0
  0
SEQEND
  5
78B
100
AcDbEntity
  8
L1
  0
ARC
  5
26F
100
AcDbEntity
  8
L1
100
AcDbCircle
 10
-86.54999999999995
 20
86.55000000000001
 30
0.0
 40
1.9
100
AcDbArc
 50
90.0
 51
180.0
  0
POLYLINE
  5
270
100
AcDbEntity
  8
L1
100
AcDb2dPolyline
 66
     1
 10
0.0
 20
0.0
 30
0.0
  0
VERTEX
  5
78C
100
AcDbEntity
  8
L1
100
AcDbVertex
100
AcDb2dVertex
 10
-90.04480917893465
 20
86.54494244821018
 30
0.0
  0
VERTEX
  5
78D
100
AcDbEntity
  8
L1
100
AcDbVertex
100
AcDb2dVertex
 10
-90.0448082733534
 20
86.54747121693167
 30
0.0
  0
VERTEX
  5
78E
100
AcDbEntity
  8
L1
100
AcDbVertex
100
AcDb2dVertex
 10
-90.04480555661018
 20
86.55000000000001
 30
0.0
  0
SEQEND
  5
78F
100
AcDbEntity
  8
L1
  0
POLYLINE
  5
271
100
AcDbEntity
  8
L1
100
AcDb2dPolyline
 66
     1
 10
0.0
 20
0.0
 30
0.0
  0
VERTEX
  5
790
100
AcDbEntity
  8
L1
100
AcDbVertex
100
AcDb2dVertex
 10
-86.54999999999995
 20
90.04480555661013
 30
0.0
  0
VERTEX
  5
791
100
AcDbEntity
  8
L1
100
AcDbVertex
100
AcDb2dVertex
 10
-86.54747121693162
 20
90.04480827335346
 30
0.0
  0
VERTEX
  5
792
100
AcDbEntity
  8
L1
100
AcDbVertex
100
AcDb2dVertex
 10
-86.54494244821012
 20
90.04480917893472
 30
0.0
  0
SEQEND
  5
793
100
AcDbEntity
  8
L1
  0
ARC
  5
272
100
AcDbEntity
  8
L1
100
AcDbCircle
 10
-88.616236592414
 20
128.4335674660515
 30
0.0
 40
0.2999999999999999
100
AcDbArc
 50
180.5000000000007
 51
270.0
  0
LINE
  5
273
100
AcDbEntity
  8
L1
100
AcDbLine
 10
-88.97874963208028
 20
129.1335674660516
 30
0.0
 11
-89.12672787295525
 21
129.1335674660516
 31
0.0
  0
LINE
  5
274
100
AcDbEntity
  8
L1
100
AcDbLine
 10
-88.92235682338322
 20
129.1335674660516
 30
0.0
 11
-88.97874963208028
 21
129.1335674660516
 31
0.0
  0
LINE
  5
275
100
AcDbEntity
  8
L1
100
AcDbLine
 10
-89.12672787295525
 20
129.1335674660516
 30
0.0
 11
-89.21982649261066
 21
129.1423112731967
 31
0.0
  0
LINE
  5
276
100
AcDbEntity
  8
L1
100
AcDbLine
 10
-89.51039703712524
 20
129.3129462370832
 30
0.0
 11
-89.62670883448742
 21
129.6292041983023
 31
0.0
  0
LINE
  5
277
100
AcDbEntity
  8
L1
100
AcDbLine
 10
-89.21982649261066
 20
129.1423112731967
 30
0.0
 11
-89.51039703712524
 21
129.3129462370832
 31
0.0
  0
ELLIPSE
  5
278
100
AcDbEntity
  8
L1
100
AcDbEllipse
 10
-88.616236592414
 20
128.4335674660515
 30
0.0
 11
0.2999885769192656
 21
0.0026179606495144
 31
0.0
210
0.0
220
0.0
230
1.0
 40
0.0087262032439414
 41
-3.141592653572773
 42
-2.785207044459466
  0
LINE
  5
279
100
AcDbEntity
  8
L1
100
AcDbLine
 10
-85.81362995559244
 20
128.1335674660516
 30
0.0
 11
-88.616236592414
 21
128.1335674660516
 31
0.0
  0
CIRCLE
  5
27B
100
AcDbEntity
  8
L1
100
AcDbCircle
 10
-50.0
 20
70.00000000000006
 30
0.0
 40
4.591897474510698
  0
ARC
  5
27C
100
AcDbEntity
  8
L1
100
AcDbCircle
 10
-50.0
 20
69.99999999999994
 30
0.0
 40
3.361708113720398
100
AcDbArc
 50
323.1953065539598
 51
53.19530655396113
  0
LINE
  5
27D
100
AcDbEntity
  8
L1
100
AcDbLine
 10
-74.96895704134806
 20
73.80066121879718
 30
0.0
 11
-76.05635117798806
 21
74.71309323779616
 31
0.0
  0
LINE
  5
27E
100
AcDbEntity
  8
L1
100
AcDbLine
 10
-73.8183418441273
 20
74.56400414403862
 30
0.0
 11
-74.56400414403879
 21
73.81834184412713
 31
0.0
  0
LINE
  5
27F
100
AcDbEntity
  8
L1
100
AcDbLine
 10
-73.29330375433357
 20
74.5410727613017
 30
0.0
 11
-74.54107276130162
 21
73.29330375433347
 31
0.0
  0
ARC
  5
280
100
AcDbEntity
  8
L1
100
AcDbCircle
 10
-74.75320479565755
 20
73.50543578868943
 30
0.0
 40
0.3
100
AcDbArc
 50
230.0
 51
314.9999999999999
  0
POLYLINE
  5
281
100
AcDbEntity
  8
L1
100
AcDb2dPolyline
 66
     1
 10
0.0
 20
0.0
 30
0.0
  0
VERTEX
  5
794
100
AcDbEntity
  8
L1
100
AcDbVertex
100
AcDb2dVertex
 10
-74.56400414403879
 20
73.81834184412724
 30
0.0
  0
VERTEX
  5
795
100
AcDbEntity
  8
L1
100
AcDbVertex
100
AcDb2dVertex
 10
-74.76304271985077
 20
73.73076129788938
 30
0.0
  0
VERTEX
  5
796
100
AcDbEntity
  8
L1
100
AcDbVertex
100
AcDb2dVertex
 10
-74.96895704134806
 20
73.80066121879718
 30
0.0
  0
SEQEND
  5
797
100
AcDbEntity
  8
L1
  0
POLYLINE
  5
282
100
AcDbEntity
  8
L1
100
AcDb2dPolyline
 66
     1
 10
0.0
 20
0.0
 30
0.0
  0
VERTEX
  5
798
100
AcDbEntity
  8
L1
100
AcDbVertex
100
AcDb2dVertex
 10
-76.07275752463124
 20
74.22104981009027
 30
0.0
  0
VERTEX
  5
799
100
AcDbEntity
  8
L1
100
AcDbVertex
100
AcDb2dVertex
 10
-76.14084439225303
 20
74.26406890234324
 30
0.0
  0
VERTEX
  5
79A
100
AcDbEntity
  8
L1
100
AcDbVertex
100
AcDb2dVertex
 10
-76.25442521873583
 20
74.29102689083362
 30
0.0
  0
VERTEX
  5
79B
100
AcDbEntity
  8
L1
100
AcDbVertex
100
AcDb2dVertex
 10
-76.36969911828237
 20
74.27258823594826
 30
0.0
  0
VERTEX
  5
79C
100
AcDbEntity
  8
L1
100
AcDbVertex
100
AcDb2dVertex
 10
-76.43874591195469
 20
74.23621247491104
 30
0.0
  0
SEQEND
  5
79D
100
AcDbEntity
  8
L1
  0
LINE
  5
283
100
AcDbEntity
  8
L1
100
AcDbLine
 10
-74.94604107856355
 20
73.27562245575373
 30
0.0
 11
-76.07275752463124
 21
74.22104981009039
 31
0.0
  0
ARC
  5
284
100
AcDbEntity
  8
L1
100
AcDbCircle
 10
-50.0
 20
69.99999999999994
 30
0.0
 40
2.0
100
AcDbArc
 50
90.00000000000078
 51
180.0
  0
LINE
  5
285
100
AcDbEntity
  8
L1
100
AcDbLine
 10
-52.00000000000011
 20
67.99999999999994
 30
0.0
 11
-52.00000000000011
 21
69.99999999999994
 31
0.0
  0
POLYLINE
  5
286
100
AcDbEntity
  8
L1
100
AcDb2dPolyline
 66
     1
 10
0.0
 20
0.0
 30
0.0
  0
VERTEX
  5
79E
100
AcDbEntity
  8
L1
100
AcDbVertex
100
AcDb2dVertex
 10
-52.0
 20
69.99999999999994
 30
0.0
  0
VERTEX
  5
79F
100
AcDbEntity
  8
L1
100
AcDbVertex
100
AcDb2dVertex
 10
-51.99825080451126
 20
69.91637152237188
 30
0.0
  0
VERTEX
  5
7A0
100
AcDbEntity
  8
L1
100
AcDbVertex
100
AcDb2dVertex
 10
-51.99300627772965
 20
69.83288932729959
 30
0.0
  0
VERTEX
  5
7A1
100
AcDbEntity
  8
L1
100
AcDbVertex
100
AcDb2dVertex
 10
-51.98427559335789
 20
69.74969944146216
 30
0.0
  0
VERTEX
  5
7A2
100
AcDbEntity
  8
L1
100
AcDbVertex
100
AcDb2dVertex
 10
-51.97207402306969
 20
69.66694738023256
 30
0.0
  0
SEQEND
  5
7A3
100
AcDbEntity
  8
L1
  0
ARC
  5
287
100
AcDbEntity
  8
L1
100
AcDbCircle
 10
-50.0
 20
69.99999999999994
 30
0.0
 40
2.0
100
AcDbArc
 50
189.5859123991511
 51
350.4140876008298
  0
LINE
  5
288
100
AcDbEntity
  8
L1
100
AcDbLine
 10
-52.14144032422109
 20
67.99999999999994
 30
0.0
 11
-52.00000000000011
 21
67.99999999999994
 31
0.0
  0
POLYLINE
  5
289
100
AcDbEntity
  8
L1
100
AcDb2dPolyline
 66
     1
 10
0.0
 20
0.0
 30
0.0
  0
VERTEX
  5
7A4
100
AcDbEntity
  8
L1
100
AcDbVertex
100
AcDb2dVertex
 10
-48.02792597693053
 20
69.66694738023187
 30
0.0
  0
VERTEX
  5
7A5
100
AcDbEntity
  8
L1
100
AcDbVertex
100
AcDb2dVertex
 10
-48.02034862754453
 20
69.71542936986594
 30
0.0
  0
VERTEX
  5
7A6
100
AcDbEntity
  8
L1
100
AcDbVertex
100
AcDb2dVertex
 10
-48.01396298846532
 20
69.76408266529523
 30
0.0
  0
SEQEND
  5
7A7
100
AcDbEntity
  8
L1
  0
POLYLINE
  5
28A
100
AcDbEntity
  8
L1
100
AcDb2dPolyline
 66
     1
 10
0.0
 20
0.0
 30
0.0
  0
VERTEX
  5
7A8
100
AcDbEntity
  8
L1
100
AcDbVertex
100
AcDb2dVertex
 10
-52.69166017969325
 20
67.98603701153473
 30
0.0
  0
VERTEX
  5
7A9
100
AcDbEntity
  8
L1
100
AcDbVertex
100
AcDb2dVertex
 10
-52.65995545660053
 20
67.99660062999049
 30
0.0
  0
SEQEND
  5
7AA
100
AcDbEntity
  8
L1
  0
POLYLINE
  5
28B
100
AcDbEntity
  8
L1
100
AcDb2dPolyline
 66
     1
 10
0.0
 20
0.0
 30
0.0
  0
VERTEX
  5
7AB
100
AcDbEntity
  8
L1
100
AcDbVertex
100
AcDb2dVertex
 10
-52.73350456965579
 20
67.97207402306952
 30
0.0
  0
VERTEX
  5
7AC
100
AcDbEntity
  8
L1
100
AcDbVertex
100
AcDb2dVertex
 10
-52.69166017969325
 20
67.98603701153473
 30
0.0
  0
SEQEND
  5
7AD
100
AcDbEntity
  8
L1
  0
ARC
  5
28C
100
AcDbEntity
  8
L1
100
AcDbCircle
 10
-50.0
 20
69.99999999999994
 30
0.0
 40
3.403605588231097
100
AcDbArc
 50
216.5708941476372
 51
323.4291058523627
  0
POLYLINE
  5
28D
100
AcDbEntity
  8
L1
100
AcDb2dPolyline
 66
     1
 10
0.0
 20
0.0
 30
0.0
  0
VERTEX
  5
7AE
100
AcDbEntity
  8
L1
100
AcDbVertex
100
AcDb2dVertex
 10
-47.30833982030697
 20
67.98603701153485
 30
0.0
  0
VERTEX
  5
7AF
100
AcDbEntity
  8
L1
100
AcDbVertex
100
AcDb2dVertex
 10
-47.26649543034432
 20
67.97207402306952
 30
0.0
  0
SEQEND
  5
7B0
100
AcDbEntity
  8
L1
  0
POLYLINE
  5
28E
100
AcDbEntity
  8
L1
100
AcDb2dPolyline
 66
     1
 10
0.0
 20
0.0
 30
0.0
  0
VERTEX
  5
7B1
100
AcDbEntity
  8
L1
100
AcDbVertex
100
AcDb2dVertex
 10
-52.65995545660053
 20
67.99660062999049
 30
0.0
  0
VERTEX
  5
7B2
100
AcDbEntity
  8
L1
100
AcDbVertex
100
AcDb2dVertex
 10
-52.6524294681642
 20
67.9971344295796
 30
0.0
  0
VERTEX
  5
7B3
100
AcDbEntity
  8
L1
100
AcDbVertex
100
AcDb2dVertex
 10
-52.62928792396905
 20
67.99773023522647
 30
0.0
  0
VERTEX
  5
7B4
100
AcDbEntity
  8
L1
100
AcDbVertex
100
AcDb2dVertex
 10
-52.58733525937248
 20
67.99833272719826
 30
0.0
  0
VERTEX
  5
7B5
100
AcDbEntity
  8
L1
100
AcDbVertex
100
AcDb2dVertex
 10
-52.53186610719524
 20
67.99884680160613
 30
0.0
  0
VERTEX
  5
7B6
100
AcDbEntity
  8
L1
100
AcDbVertex
100
AcDb2dVertex
 10
-52.45420257652381
 20
67.99932637051466
 30
0.0
  0
VERTEX
  5
7B7
100
AcDbEntity
  8
L1
100
AcDbVertex
100
AcDb2dVertex
 10
-52.36753175819217
 20
67.99967195326786
 30
0.0
  0
VERTEX
  5
7B8
100
AcDbEntity
  8
L1
100
AcDbVertex
100
AcDb2dVertex
 10
-52.25615963202625
 20
67.99992044563333
 30
0.0
  0
VERTEX
  5
7B9
100
AcDbEntity
  8
L1
100
AcDbVertex
100
AcDb2dVertex
 10
-52.14144032422109
 20
67.99999999999994
 30
0.0
  0
SEQEND
  5
7BA
100
AcDbEntity
  8
L1
  0
LINE
  5
28F
100
AcDbEntity
  8
L1
100
AcDbLine
 10
-50.00000000000006
 20
72.00000000000006
 30
0.0
 11
-48.00000000000006
 21
72.00000000000006
 31
0.0
  0
POLYLINE
  5
290
100
AcDbEntity
  8
L1
100
AcDb2dPolyline
 66
     1
 10
0.0
 20
0.0
 30
0.0
  0
VERTEX
  5
7BB
100
AcDbEntity
  8
L1
100
AcDbVertex
100
AcDb2dVertex
 10
-49.76408266529574
 20
71.98603701153473
 30
0.0
  0
VERTEX
  5
7BC
100
AcDbEntity
  8
L1
100
AcDbVertex
100
AcDb2dVertex
 10
-49.84251793048406
 20
71.99379020906935
 30
0.0
  0
VERTEX
  5
7BD
100
AcDbEntity
  8
L1
100
AcDbVertex
100
AcDb2dVertex
 10
-49.92119777331447
 20
71.99844694927566
 30
0.0
  0
VERTEX
  5
7BE
100
AcDbEntity
  8
L1
100
AcDbVertex
100
AcDb2dVertex
 10
-50.00000000000011
 20
71.99999999999994
 30
0.0
  0
SEQEND
  5
7BF
100
AcDbEntity
  8
L1
  0
LINE
  5
291
100
AcDbEntity
  8
L1
100
AcDbLine
 10
-47.30833982030697
 20
67.98603701153473
 30
0.0
 11
-48.01396298846532
 21
67.98603701153473
 31
0.0
  0
LINE
  5
292
100
AcDbEntity
  8
L1
100
AcDbLine
 10
-48.01396298846532
 20
67.98603701153473
 30
0.0
 11
-48.01396298846532
 21
69.76408266529523
 31
0.0
  0
ARC
  5
293
100
AcDbEntity
  8
L1
100
AcDbCircle
 10
-50.0
 20
69.99999999999994
 30
0.0
 40
2.0
100
AcDbArc
 50
353.2256939277246
 51
83.22569392773855
  0
POLYLINE
  5
294
100
AcDbEntity
  8
L1
100
AcDb2dPolyline
 66
     1
 10
0.0
 20
0.0
 30
0.0
  0
VERTEX
  5
7C0
100
AcDbEntity
  8
L1
100
AcDbVertex
100
AcDb2dVertex
 10
-47.99660062999055
 20
72.65995545660047
 30
0.0
  0
VERTEX
  5
7C1
100
AcDbEntity
  8
L1
100
AcDbVertex
100
AcDb2dVertex
 10
-47.98603701153484
 20
72.6916601796932
 30
0.0
  0
SEQEND
  5
7C2
100
AcDbEntity
  8
L1
  0
LINE
  5
295
100
AcDbEntity
  8
L1
100
AcDbLine
 10
-48.00000000000006
 20
71.99999999999994
 30
0.0
 11
-48.00000000000006
 21
72.14144032422104
 31
0.0
  0
POLYLINE
  5
296
100
AcDbEntity
  8
L1
100
AcDb2dPolyline
 66
     1
 10
0.0
 20
0.0
 30
0.0
  0
VERTEX
  5
7C3
100
AcDbEntity
  8
L1
100
AcDbVertex
100
AcDb2dVertex
 10
-48.00000000000006
 20
72.14144032422115
 30
0.0
  0
VERTEX
  5
7C4
100
AcDbEntity
  8
L1
100
AcDbVertex
100
AcDb2dVertex
 10
-47.99992044563339
 20
72.25615963202625
 30
0.0
  0
VERTEX
  5
7C5
100
AcDbEntity
  8
L1
100
AcDbVertex
100
AcDb2dVertex
 10
-47.99967195326792
 20
72.36753175819211
 30
0.0
  0
VERTEX
  5
7C6
100
AcDbEntity
  8
L1
100
AcDbVertex
100
AcDb2dVertex
 10
-47.99932637051472
 20
72.45420257652376
 30
0.0
  0
VERTEX
  5
7C7
100
AcDbEntity
  8
L1
100
AcDbVertex
100
AcDb2dVertex
 10
-47.99884680160618
 20
72.53186610719518
 30
0.0
  0
VERTEX
  5
7C8
100
AcDbEntity
  8
L1
100
AcDbVertex
100
AcDb2dVertex
 10
-47.99833272719832
 20
72.58733525937242
 30
0.0
  0
VERTEX
  5
7C9
100
AcDbEntity
  8
L1
100
AcDbVertex
100
AcDb2dVertex
 10
-47.99773023522653
 20
72.629287923969
 30
0.0
  0
VERTEX
  5
7CA
100
AcDbEntity
  8
L1
100
AcDbVertex
100
AcDb2dVertex
 10
-47.99713442957965
 20
72.65242946816414
 30
0.0
  0
VERTEX
  5
7CB
100
AcDbEntity
  8
L1
100
AcDbVertex
100
AcDb2dVertex
 10
-47.99660062999055
 20
72.65995545660047
 30
0.0
  0
SEQEND
  5
7CC
100
AcDbEntity
  8
L1
  0
CIRCLE
  5
297
100
AcDbEntity
  8
L1
100
AcDbCircle
 10
-50.0
 20
69.99999999999994
 30
0.0
 40
1.6
  0
LINE
  5
298
100
AcDbEntity
  8
L1
100
AcDbLine
 10
-76.17268985814087
 20
81.74999999999995
 30
0.0
 11
-76.17268985814087
 21
85.24999999999995
 31
0.0
  0
LINE
  5
299
100
AcDbEntity
  8
L1
100
AcDbLine
 10
-73.527211141826
 20
85.24999999999995
 30
0.0
 11
-73.527211141826
 21
81.74999999999995
 31
0.0
  0
LINE
  5
29A
100
AcDbEntity
  8
L1
100
AcDbLine
 10
-72.54856408162516
 20
81.74999999999995
 30
0.0
 11
-72.54856408162516
 21
84.62061525853306
 31
0.0
  0
LINE
  5
29B
100
AcDbEntity
  8
L1
100
AcDbLine
 10
-76.6880146266293
 20
82.37153365136618
 30
0.0
 11
-76.96879743005343
 21
84.65832607347085
 31
0.0
  0
ARC
  5
29C
100
AcDbEntity
  8
L1
100
AcDbCircle
 10
-73.50543578868951
 20
74.75320479565766
 30
0.0
 40
0.3
100
AcDbArc
 50
315.0000000000039
 51
40.0
  0
POLYLINE
  5
29D
100
AcDbEntity
  8
L1
100
AcDb2dPolyline
 66
     1
 10
0.0
 20
0.0
 30
0.0
  0
VERTEX
  5
7CD
100
AcDbEntity
  8
L1
100
AcDbVertex
100
AcDb2dVertex
 10
-76.43024133155961
 20
74.722474740594
 30
0.0
  0
VERTEX
  5
7CE
100
AcDbEntity
  8
L1
100
AcDbVertex
100
AcDb2dVertex
 10
-76.35318544024745
 20
74.76467145819589
 30
0.0
  0
VERTEX
  5
7CF
100
AcDbEntity
  8
L1
100
AcDbVertex
100
AcDb2dVertex
 10
-76.23790487712312
 20
74.78306615272249
 30
0.0
  0
VERTEX
  5
7D0
100
AcDbEntity
  8
L1
100
AcDbVertex
100
AcDb2dVertex
 10
-76.12205803946858
 20
74.75501153855344
 30
0.0
  0
VERTEX
  5
7D1
100
AcDbEntity
  8
L1
100
AcDbVertex
100
AcDb2dVertex
 10
-76.05635117798806
 20
74.71309323779616
 30
0.0
  0
SEQEND
  5
7D2
100
AcDbEntity
  8
L1
  0
POLYLINE
  5
29E
100
AcDbEntity
  8
L1
100
AcDb2dPolyline
 66
     1
 10
0.0
 20
0.0
 30
0.0
  0
VERTEX
  5
7D3
100
AcDbEntity
  8
L1
100
AcDbVertex
100
AcDb2dVertex
 10
-73.80066121879725
 20
74.968957041348
 30
0.0
  0
VERTEX
  5
7D4
100
AcDbEntity
  8
L1
100
AcDbVertex
100
AcDb2dVertex
 10
-73.73076129788945
 20
74.76304271985071
 30
0.0
  0
VERTEX
  5
7D5
100
AcDbEntity
  8
L1
100
AcDbVertex
100
AcDb2dVertex
 10
-73.8183418441273
 20
74.56400414403862
 30
0.0
  0
SEQEND
  5
7D6
100
AcDbEntity
  8
L1
  0
LINE
  5
29F
100
AcDbEntity
  8
L1
100
AcDbLine
 10
-74.71309323779621
 20
76.05635117798801
 30
0.0
 11
-73.80066121879725
 21
74.968957041348
 31
0.0
  0
POLYLINE
  5
2A0
100
AcDbEntity
  8
L1
100
AcDb2dPolyline
 66
     1
 10
0.0
 20
0.0
 30
0.0
  0
VERTEX
  5
7D7
100
AcDbEntity
  8
L1
100
AcDbVertex
100
AcDb2dVertex
 10
-74.71309323779621
 20
76.05635117798801
 30
0.0
  0
VERTEX
  5
7D8
100
AcDbEntity
  8
L1
100
AcDbVertex
100
AcDb2dVertex
 10
-74.7570926175191
 20
76.12660459593342
 30
0.0
  0
VERTEX
  5
7D9
100
AcDbEntity
  8
L1
100
AcDbVertex
100
AcDb2dVertex
 10
-74.78321243666016
 20
76.24290279887958
 30
0.0
  0
VERTEX
  5
7DA
100
AcDbEntity
  8
L1
100
AcDbVertex
100
AcDb2dVertex
 10
-74.76289996798437
 20
76.35785800138757
 30
0.0
  0
VERTEX
  5
7DB
100
AcDbEntity
  8
L1
100
AcDbVertex
100
AcDb2dVertex
 10
-74.72247474059418
 20
76.43024133155944
 30
0.0
  0
SEQEND
  5
7DC
100
AcDbEntity
  8
L1
  0
LINE
  5
2A1
100
AcDbEntity
  8
L1
100
AcDbLine
 10
-74.22104981009045
 20
76.07275752463107
 30
0.0
 11
-73.27562245575382
 21
74.94604107856364
 31
0.0
  0
POLYLINE
  5
2A2
100
AcDbEntity
  8
L1
100
AcDb2dPolyline
 66
     1
 10
0.0
 20
0.0
 30
0.0
  0
VERTEX
  5
7DD
100
AcDbEntity
  8
L1
100
AcDbVertex
100
AcDb2dVertex
 10
-74.2362124749111
 20
76.43874591195464
 30
0.0
  0
VERTEX
  5
7DE
100
AcDbEntity
  8
L1
100
AcDbVertex
100
AcDb2dVertex
 10
-74.27171382761253
 20
76.37203217043481
 30
0.0
  0
VERTEX
  5
7DF
100
AcDbEntity
  8
L1
100
AcDbVertex
100
AcDb2dVertex
 10
-74.29110933917468
 20
76.25691851812888
 30
0.0
  0
VERTEX
  5
7E0
100
AcDbEntity
  8
L1
100
AcDbVertex
100
AcDb2dVertex
 10
-74.26509563087074
 20
76.14311480282919
 30
0.0
  0
VERTEX
  5
7E1
100
AcDbEntity
  8
L1
100
AcDbVertex
100
AcDb2dVertex
 10
-74.22104981009034
 20
76.07275752463107
 30
0.0
  0
SEQEND
  5
7E2
100
AcDbEntity
  8
L1
  0
ARC
  5
2A3
100
AcDbEntity
  8
L1
100
AcDbCircle
 10
-81.75
 20
81.74999999999995
 30
0.0
 40
9.201435918374905
100
AcDbArc
 50
324.7447416333017
 51
0.0
  0
ARC
  5
2A4
100
AcDbEntity
  8
L1
100
AcDbCircle
 10
-81.75
 20
81.74999999999995
 30
0.0
 40
8.813962988465215
100
AcDbArc
 50
307.1253174351024
 51
322.8746825648975
  0
ARC
  5
2A5
100
AcDbEntity
  8
L1
100
AcDbCircle
 10
-72.15000000000009
 20
85.24999999999995
 30
0.0
 40
4.022689858140807
100
AcDbArc
 50
90.0
 51
180.0
  0
POLYLINE
  5
2A6
100
AcDbEntity
  8
L1
100
AcDb2dPolyline
 66
     1
 10
0.0
 20
0.0
 30
0.0
  0
VERTEX
  5
7E3
100
AcDbEntity
  8
L1
100
AcDbVertex
100
AcDb2dVertex
 10
-71.94858692778666
 20
84.02063810469469
 30
0.0
  0
VERTEX
  5
7E4
100
AcDbEntity
  8
L1
100
AcDbVertex
100
AcDb2dVertex
 10
-72.37283761327216
 20
84.19636457304756
 30
0.0
  0
VERTEX
  5
7E5
100
AcDbEntity
  8
L1
100
AcDbVertex
100
AcDb2dVertex
 10
-72.54856408162516
 20
84.62061525853306
 30
0.0
  0
SEQEND
  5
7E6
100
AcDbEntity
  8
L1
  0
ARC
  5
2A7
100
AcDbEntity
  8
L1
100
AcDbCircle
 10
-72.15000000000009
 20
85.24999999999995
 30
0.0
 40
1.377211141825941
100
AcDbArc
 50
90.0
 51
180.0000000000011
  0
ARC
  5
2A8
100
AcDbEntity
  8
L1
100
AcDbCircle
 10
-72.15000000000009
 20
85.24999999999995
 30
0.0
 40
4.854985757674684
100
AcDbArc
 50
145.7665849683195
 51
186.9999999999999
  0
POLYLINE
  5
2A9
100
AcDbEntity
  8
L1
100
AcDb2dPolyline
 66
     1
 10
0.0
 20
0.0
 30
0.0
  0
VERTEX
  5
7E7
100
AcDbEntity
  8
L1
100
AcDbVertex
100
AcDb2dVertex
 10
-76.41188856451265
 20
88.44999999999998
 30
0.0
  0
VERTEX
  5
7E8
100
AcDbEntity
  8
L1
100
AcDbVertex
100
AcDb2dVertex
 10
-76.32178688012004
 20
88.43615246538121
 30
0.0
  0
VERTEX
  5
7E9
100
AcDbEntity
  8
L1
100
AcDbVertex
100
AcDb2dVertex
 10
-76.21937327043429
 20
88.38009311746606
 30
0.0
  0
VERTEX
  5
7EA
100
AcDbEntity
  8
L1
100
AcDbVertex
100
AcDb2dVertex
 10
-76.14612854333086
 20
88.28920063101879
 30
0.0
  0
VERTEX
  5
7EB
100
AcDbEntity
  8
L1
100
AcDbVertex
100
AcDb2dVertex
 10
-76.11291017977578
 20
88.17473926436873
 30
0.0
  0
VERTEX
  5
7EC
100
AcDbEntity
  8
L1
100
AcDbVertex
100
AcDb2dVertex
 10
-76.12611375956658
 20
88.05875576872887
 30
0.0
  0
VERTEX
  5
7ED
100
AcDbEntity
  8
L1
100
AcDbVertex
100
AcDb2dVertex
 10
-76.16387222098274
 20
87.98124815804925
 30
0.0
  0
SEQEND
  5
7EE
100
AcDbEntity
  8
L1
  0
LINE
  5
2AA
100
AcDbEntity
  8
L1
100
AcDbLine
 10
-74.91103474185172
 20
128.4309495054021
 30
0.0
 11
-74.9049030878017
 21
129.1335674660516
 31
0.0
  0
ARC
  5
2AB
100
AcDbEntity
  8
L1
100
AcDbCircle
 10
-75.21102331877091
 20
128.4335674660515
 30
0.0
 40
0.2999999999999971
100
AcDbArc
 50
270.0
 51
359.500000000002
  0
LINE
  5
2AC
100
AcDbEntity
  8
L1
100
AcDbLine
 10
-77.43116248782872
 20
174.1337197737949
 30
0.0
 11
-90.01509385800648
 21
174.1337197737949
 31
0.0
  0
LINE
  5
2B7
100
AcDbEntity
  8
L1
100
AcDbLine
 10
-90.04480917893465
 20
177.5387582871168
 30
0.0
 11
-89.44999999999993
 21
178.1335674660516
 31
0.0
  0
LINE
  5
2B9
100
AcDbEntity
  8
L1
100
AcDbLine
 10
-90.04480917893465
 20
177.5387582871168
 30
0.0
 11
-89.99779308605445
 21
172.1512476696203
 31
0.0
  0
ARC
  5
2BA
100
AcDbEntity
  8
L1
100
AcDbCircle
 10
-89.61246056631569
 20
173.8337197737949
 30
0.0
 40
0.3
100
AcDbArc
 50
0.5000000000004269
 51
90.0
  0
LINE
  5
2BD
100
AcDbEntity
  8
L1
100
AcDbLine
 10
-89.44999999999993
 20
178.1335674660516
 30
0.0
 11
-88.44999999999993
 21
178.1335674660516
 31
0.0
  0
LINE
  5
2BE
100
AcDbEntity
  8
L1
100
AcDbLine
 10
-89.27267354654929
 20
178.1316983427972
 30
0.0
 11
-89.27268985814089
 21
178.1335674660516
 31
0.0
  0
LINE
  5
2BF
100
AcDbEntity
  8
L1
100
AcDbLine
 10
-88.05875576872859
 20
178.1335674660516
 30
0.0
 11
-87.9812481580492
 21
178.1335674660516
 31
0.0
  0
LINE
  5
2C0
100
AcDbEntity
  8
L1
100
AcDbLine
 10
-88.17473926436855
 20
178.1335674660516
 30
0.0
 11
-88.05875576872859
 21
178.1335674660516
 31
0.0
  0
LINE
  5
2C1
100
AcDbEntity
  8
L1
100
AcDbLine
 10
-88.28920063101861
 20
178.1335674660516
 30
0.0
 11
-88.17473926436855
 21
178.1335674660516
 31
0.0
  0
LINE
  5
2C2
100
AcDbEntity
  8
L1
100
AcDbLine
 10
-88.38009311746601
 20
178.1335674660516
 30
0.0
 11
-88.28920063101861
 21
178.1335674660516
 31
0.0
  0
LINE
  5
2C3
100
AcDbEntity
  8
L1
100
AcDbLine
 10
-88.43615246538115
 20
178.1335674660516
 30
0.0
 11
-88.38009311746601
 21
178.1335674660516
 31
0.0
  0
LINE
  5
2C4
100
AcDbEntity
  8
L1
100
AcDbLine
 10
-88.44999999999993
 20
178.1335674660516
 30
0.0
 11
-88.43615246538115
 21
178.1335674660516
 31
0.0
  0
LINE
  5
2C5
100
AcDbEntity
  8
L1
100
AcDbLine
 10
-87.98124815804886
 20
178.1335674660516
 30
0.0
 11
-88.4499999999997
 21
178.1335674660516
 31
0.0
  0
LINE
  5
2C7
100
AcDbEntity
  8
L2
100
AcDbLine
 10
-72.9474047862592
 20
177.8361854267011
 30
0.0
 11
-72.54856408162504
 21
132.1335674660516
 31
0.0
  0
LINE
  5
2CD
100
AcDbEntity
  8
L2
100
AcDbLine
 10
-72.54856408162504
 20
132.1335674660516
 30
0.0
 11
72.54856408162527
 21
132.1335674660513
 31
0.0
  0
ARC
  5
2DE
100
AcDbEntity
  8
L2
100
AcDbCircle
 10
-73.24739336317851
 20
177.8335674660516
 30
0.0
 40
0.2999999999999971
100
AcDbArc
 50
0.5000000000001216
 51
90.0
  0
ARC
  5
2E0
100
AcDbEntity
  8
L1
100
AcDbCircle
 10
-77.43116248782872
 20
172.1337197737948
 30
0.0
 40
2.0
100
AcDbArc
 50
0.0349889746782609
 51
90.0
  0
LINE
  5
2E5
100
AcDbEntity
  8
L6
100
AcDbLine
 10
0.0
 20
-99.99857870842305
 30
0.0
 11
0.0
 21
99.99857870842317
 31
0.0
  0
LINE
  5
2E6
100
AcDbEntity
  8
L1
100
AcDbLine
 10
89.27268985814079
 20
72.14999999999992
 30
0.0
 11
89.27268985814079
 21
-72.15000000000014
 31
0.0
  0
LINE
  5
2E7
100
AcDbEntity
  8
L1
100
AcDbLine
 10
89.45000000000005
 20
-86.55000000000001
 30
0.0
 11
89.45000000000005
 21
86.55000000000001
 31
0.0
  0
LINE
  5
2E8
100
AcDbEntity
  8
L1
100
AcDbLine
 10
90.04480917893477
 20
86.54494244821007
 30
0.0
 11
90.04480917893477
 21
-86.54494244821018
 31
0.0
  0
LINE
  5
2E9
100
AcDbEntity
  8
L1
100
AcDbLine
 10
81.45000000000004
 20
46.71165091966776
 30
0.0
 11
81.45000000000004
 21
66.71165091966776
 31
0.0
  0
LINE
  5
2EA
100
AcDbEntity
  8
L1
100
AcDbLine
 10
82.05000000000007
 20
66.71165091966776
 30
0.0
 11
82.05000000000007
 21
46.71165091966776
 31
0.0
  0
LINE
  5
2EB
100
AcDbEntity
  8
L1
100
AcDbLine
 10
84.02063810469474
 20
71.94858692778649
 30
0.0
 11
84.02063810469474
 21
-71.94858692778677
 31
0.0
  0
LINE
  5
2EC
100
AcDbEntity
  8
L1
100
AcDbLine
 10
86.62721114182602
 20
-72.15000000000009
 30
0.0
 11
86.62721114182602
 21
72.14999999999992
 31
0.0
  0
LINE
  5
2F0
100
AcDbEntity
  8
L1
100
AcDbLine
 10
89.20056813437122
 20
-128.4309495054021
 30
0.0
 11
89.59681495443453
 21
-173.8363377344445
 31
0.0
  0
LINE
  5
2F1
100
AcDbEntity
  8
L1
100
AcDbLine
 10
75.68924605283962
 20
-129.1335674660516
 30
0.0
 11
75.715505825788
 21
-172.134941119339
 31
0.0
  0
LINE
  5
2F2
100
AcDbEntity
  8
L1
100
AcDbLine
 10
89.91105179952535
 20
-129.6292041983023
 30
0.0
 11
90.28213605109248
 21
-172.151247669621
 31
0.0
  0
LINE
  5
2F3
100
AcDbEntity
  8
L6
100
AcDbLine
 10
0.1421714825190179
 20
-186.1335674660516
 30
0.0
 11
0.1421714825190179
 21
-120.1335674660515
 31
0.0
  0
LINE
  5
2F4
100
AcDbEntity
  8
L1
100
AcDbLine
 10
88.72049543041919
 20
-178.1335674660516
 30
0.0
 11
88.66443608250405
 21
-178.1335674660516
 31
0.0
  0
LINE
  5
2F5
100
AcDbEntity
  8
L1
100
AcDbLine
 10
88.26559112308689
 20
-178.1335674660516
 30
0.0
 11
88.73434296503774
 21
-178.1335674660516
 31
0.0
  0
LINE
  5
2F6
100
AcDbEntity
  8
L1
100
AcDbLine
 10
77.71550545286675
 20
-174.1337197737949
 30
0.0
 11
90.29943682304452
 21
-174.1337197737949
 31
0.0
  0
ARC
  5
2F7
100
AcDbEntity
  8
L1
100
AcDbCircle
 10
77.71550545286675
 20
-172.1337197737948
 30
0.0
 40
2.0
100
AcDbArc
 50
180.0349889746782
 51
270.0
  0
LINE
  5
2F8
100
AcDbEntity
  8
L1
100
AcDbLine
 10
88.34309873376662
 20
-178.1335674660516
 30
0.0
 11
88.26559112308723
 21
-178.1335674660516
 31
0.0
  0
LINE
  5
2F9
100
AcDbEntity
  8
L1
100
AcDbLine
 10
88.45908222940659
 20
-178.1335674660516
 30
0.0
 11
88.34309873376662
 21
-178.1335674660516
 31
0.0
  0
LINE
  5
2FA
100
AcDbEntity
  8
L1
100
AcDbLine
 10
88.57354359605665
 20
-178.1335674660516
 30
0.0
 11
88.45908222940659
 21
-178.1335674660516
 31
0.0
  0
LINE
  5
2FB
100
AcDbEntity
  8
L1
100
AcDbLine
 10
88.66443608250405
 20
-178.1335674660516
 30
0.0
 11
88.57354359605665
 21
-178.1335674660516
 31
0.0
  0
LINE
  5
2FC
100
AcDbEntity
  8
L1
100
AcDbLine
 10
90.32915214397268
 20
-177.5387582871168
 30
0.0
 11
90.28213605109248
 21
-172.1512476696203
 31
0.0
  0
LINE
  5
2FD
100
AcDbEntity
  8
L1
100
AcDbLine
 10
88.73434296503797
 20
-178.1335674660516
 30
0.0
 11
88.72049543041919
 21
-178.1335674660516
 31
0.0
  0
LINE
  5
2FE
100
AcDbEntity
  8
L1
100
AcDbLine
 10
90.32915214397268
 20
-177.5387582871168
 30
0.0
 11
89.73434296503796
 21
-178.1335674660516
 31
0.0
  0
ARC
  5
2FF
100
AcDbEntity
  8
L1
100
AcDbCircle
 10
89.89680353135373
 20
-173.8337197737949
 30
0.0
 40
0.3
100
AcDbArc
 50
180.5000000000004
 51
270.0
  0
LINE
  5
300
100
AcDbEntity
  8
L1
100
AcDbLine
 10
89.55701651158733
 20
-178.1316983427972
 30
0.0
 11
89.55703282317893
 21
-178.1335674660516
 31
0.0
  0
LINE
  5
301
100
AcDbEntity
  8
L1
100
AcDbLine
 10
89.73434296503796
 20
-178.1335674660516
 30
0.0
 11
88.73434296503797
 21
-178.1335674660516
 31
0.0
  0
LINE
  5
302
100
AcDbEntity
  8
L1
100
AcDbLine
 10
86.09797292063047
 20
-128.1335674660516
 30
0.0
 11
88.90057955745204
 21
-128.1335674660516
 31
0.0
  0
LINE
  5
303
100
AcDbEntity
  8
L1
100
AcDbLine
 10
86.09797292063047
 20
-128.1335674660516
 30
0.0
 11
75.49536628380895
 21
-128.1335674660516
 31
0.0
  0
LINE
  5
304
100
AcDbEntity
  8
L1
100
AcDbLine
 10
75.19537770688976
 20
-128.4309495054021
 30
0.0
 11
75.18924605283974
 21
-129.1335674660516
 31
0.0
  0
ARC
  5
305
100
AcDbEntity
  8
L1
100
AcDbCircle
 10
75.49536628380895
 20
-128.4335674660515
 30
0.0
 40
0.2999999999999971
100
AcDbArc
 50
90.0
 51
179.5000000000019
  0
LINE
  5
306
100
AcDbEntity
  8
L1
100
AcDbLine
 10
89.26309259711832
 20
-129.1335674660516
 30
0.0
 11
89.41107083799328
 21
-129.1335674660516
 31
0.0
  0
LINE
  5
307
100
AcDbEntity
  8
L1
100
AcDbLine
 10
89.20669978842125
 20
-129.1335674660516
 30
0.0
 11
89.26309259711832
 21
-129.1335674660516
 31
0.0
  0
LINE
  5
308
100
AcDbEntity
  8
L1
100
AcDbLine
 10
89.41107083799328
 20
-129.1335674660516
 30
0.0
 11
89.50416945764869
 21
-129.1423112731967
 31
0.0
  0
LINE
  5
309
100
AcDbEntity
  8
L1
100
AcDbLine
 10
89.79474000216328
 20
-129.3129462370832
 30
0.0
 11
89.91105179952546
 21
-129.6292041983023
 31
0.0
  0
LINE
  5
30A
100
AcDbEntity
  8
L1
100
AcDbLine
 10
89.50416945764869
 20
-129.1423112731967
 30
0.0
 11
89.79474000216328
 21
-129.3129462370832
 31
0.0
  0
ARC
  5
30B
100
AcDbEntity
  8
L1
100
AcDbCircle
 10
88.90057955745204
 20
-128.4335674660515
 30
0.0
 40
0.2999999999999999
100
AcDbArc
 50
0.5000000000008086
 51
90.0
  0
ELLIPSE
  5
30C
100
AcDbEntity
  8
L1
100
AcDbEllipse
 10
88.90057955745204
 20
-128.4335674660515
 30
0.0
 11
-0.2999885769192656
 21
-0.0026179606495144
 31
0.0
210
0.0
220
0.0
230
1.0
 40
0.0087262032439414
 41
-3.14159265358363
 42
-2.785207044477743
  0
CIRCLE
  5
30D
100
AcDbEntity
  8
L1
100
AcDbCircle
 10
0.0
 20
-70.0
 30
0.0
 40
4.591897474510698
  0
ARC
  5
30E
100
AcDbEntity
  8
L1
100
AcDbCircle
 10
0.0
 20
-70.0
 30
0.0
 40
3.403605588231097
100
AcDbArc
 50
36.57089414763726
 51
143.4291058523617
  0
CIRCLE
  5
30F
100
AcDbEntity
  8
L1
100
AcDbCircle
 10
-10.0
 20
-70.0
 30
0.0
 40
1.2581025254893
  0
ARC
  5
310
100
AcDbEntity
  8
L1
100
AcDbCircle
 10
0.0
 20
-70.0
 30
0.0
 40
2.0
100
AcDbArc
 50
173.2256939277451
 51
6.774306072268005
  0
POLYLINE
  5
311
100
AcDbEntity
  8
L1
100
AcDb2dPolyline
 66
     1
 10
0.0
 20
0.0
 30
0.0
  0
VERTEX
  5
7F5
100
AcDbEntity
  8
L1
100
AcDbVertex
100
AcDb2dVertex
 10
2.733504569655679
 20
-67.97207402306952
 30
0.0
  0
VERTEX
  5
7F6
100
AcDbEntity
  8
L1
100
AcDbVertex
100
AcDb2dVertex
 10
2.701853931433902
 20
-67.98263764152522
 30
0.0
  0
SEQEND
  5
7F7
100
AcDbEntity
  8
L1
  0
POLYLINE
  5
312
100
AcDbEntity
  8
L1
100
AcDb2dPolyline
 66
     1
 10
0.0
 20
0.0
 30
0.0
  0
VERTEX
  5
7F8
100
AcDbEntity
  8
L1
100
AcDbVertex
100
AcDb2dVertex
 10
2.701853931434015
 20
-67.98263764152522
 30
0.0
  0
VERTEX
  5
7F9
100
AcDbEntity
  8
L1
100
AcDbVertex
100
AcDb2dVertex
 10
2.694327222758943
 20
-67.98317231306481
 30
0.0
  0
VERTEX
  5
7FA
100
AcDbEntity
  8
L1
100
AcDbVertex
100
AcDb2dVertex
 10
2.67118500900392
 20
-67.98376902709827
 30
0.0
  0
VERTEX
  5
7FB
100
AcDbEntity
  8
L1
100
AcDbVertex
100
AcDb2dVertex
 10
2.629295732131254
 20
-67.98437165134129
 30
0.0
  0
VERTEX
  5
7FC
100
AcDbEntity
  8
L1
100
AcDbVertex
100
AcDb2dVertex
 10
2.57389734930814
 20
-67.98488604447311
 30
0.0
  0
VERTEX
  5
7FD
100
AcDbEntity
  8
L1
100
AcDbVertex
100
AcDb2dVertex
 10
2.49651397968978
 20
-67.9853649221335
 30
0.0
  0
VERTEX
  5
7FE
100
AcDbEntity
  8
L1
100
AcDbVertex
100
AcDb2dVertex
 10
2.410131526208147
 20
-67.98571019259305
 30
0.0
  0
VERTEX
  5
7FF
100
AcDbEntity
  8
L1
100
AcDbVertex
100
AcDb2dVertex
 10
2.299553275056837
 20
-67.98595766314389
 30
0.0
  0
VERTEX
  5
800
100
AcDbEntity
  8
L1
100
AcDbVertex
100
AcDb2dVertex
 10
2.185636459890019
 20
-67.98603701153473
 30
0.0
  0
SEQEND
  5
801
100
AcDbEntity
  8
L1
  0
LINE
  5
313
100
AcDbEntity
  8
L1
100
AcDbLine
 10
2.185636459890019
 20
-67.98603701153473
 30
0.0
 11
1.98603701153479
 21
-67.98603701153473
 31
0.0
  0
LINE
  5
314
100
AcDbEntity
  8
L1
100
AcDbLine
 10
1.986037011534733
 20
-67.98603701153473
 30
0.0
 11
1.986037011534733
 21
-69.76408266529552
 31
0.0
  0
POLYLINE
  5
315
100
AcDbEntity
  8
L1
100
AcDb2dPolyline
 66
     1
 10
0.0
 20
0.0
 30
0.0
  0
VERTEX
  5
802
100
AcDbEntity
  8
L1
100
AcDbVertex
100
AcDb2dVertex
 10
1.98603701153479
 20
-69.76408266529552
 30
0.0
  0
VERTEX
  5
803
100
AcDbEntity
  8
L1
100
AcDbVertex
100
AcDb2dVertex
 10
1.979651372455577
 20
-69.71542936986612
 30
0.0
  0
VERTEX
  5
804
100
AcDbEntity
  8
L1
100
AcDbVertex
100
AcDb2dVertex
 10
1.972074023069581
 20
-69.6669473802321
 30
0.0
  0
SEQEND
  5
805
100
AcDbEntity
  8
L1
  0
POLYLINE
  5
316
100
AcDbEntity
  8
L1
100
AcDb2dPolyline
 66
     1
 10
0.0
 20
0.0
 30
0.0
  0
VERTEX
  5
806
100
AcDbEntity
  8
L1
100
AcDbVertex
100
AcDb2dVertex
 10
-2.185636459890019
 20
-67.98603701153473
 30
0.0
  0
VERTEX
  5
807
100
AcDbEntity
  8
L1
100
AcDbVertex
100
AcDb2dVertex
 10
-2.299553275056837
 20
-67.98595766314389
 30
0.0
  0
VERTEX
  5
808
100
AcDbEntity
  8
L1
100
AcDbVertex
100
AcDb2dVertex
 10
-2.41013152620809
 20
-67.98571019259298
 30
0.0
  0
VERTEX
  5
809
100
AcDbEntity
  8
L1
100
AcDbVertex
100
AcDb2dVertex
 10
-2.49651397968978
 20
-67.9853649221335
 30
0.0
  0
VERTEX
  5
80A
100
AcDbEntity
  8
L1
100
AcDbVertex
100
AcDb2dVertex
 10
-2.57389734930814
 20
-67.98488604447311
 30
0.0
  0
VERTEX
  5
80B
100
AcDbEntity
  8
L1
100
AcDbVertex
100
AcDb2dVertex
 10
-2.629295732131254
 20
-67.98437165134129
 30
0.0
  0
VERTEX
  5
80C
100
AcDbEntity
  8
L1
100
AcDbVertex
100
AcDb2dVertex
 10
-2.67118500900392
 20
-67.98376902709833
 30
0.0
  0
VERTEX
  5
80D
100
AcDbEntity
  8
L1
100
AcDbVertex
100
AcDb2dVertex
 10
-2.694327222758943
 20
-67.98317231306481
 30
0.0
  0
VERTEX
  5
80E
100
AcDbEntity
  8
L1
100
AcDbVertex
100
AcDb2dVertex
 10
-2.701853931434015
 20
-67.98263764152522
 30
0.0
  0
SEQEND
  5
80F
100
AcDbEntity
  8
L1
  0
POLYLINE
  5
317
100
AcDbEntity
  8
L1
100
AcDb2dPolyline
 66
     1
 10
0.0
 20
0.0
 30
0.0
  0
VERTEX
  5
810
100
AcDbEntity
  8
L1
100
AcDbVertex
100
AcDb2dVertex
 10
-2.701853931433902
 20
-67.98263764152522
 30
0.0
  0
VERTEX
  5
811
100
AcDbEntity
  8
L1
100
AcDbVertex
100
AcDb2dVertex
 10
-2.733504569655679
 20
-67.97207402306952
 30
0.0
  0
SEQEND
  5
812
100
AcDbEntity
  8
L1
  0
LINE
  5
318
100
AcDbEntity
  8
L1
100
AcDbLine
 10
-1.98603701153479
 20
-67.98603701153473
 30
0.0
 11
-2.185636459890019
 21
-67.98603701153473
 31
0.0
  0
LINE
  5
319
100
AcDbEntity
  8
L1
100
AcDbLine
 10
-1.98603701153479
 20
-69.76408266529597
 30
0.0
 11
-1.98603701153479
 21
-67.98603701153473
 31
0.0
  0
POLYLINE
  5
31A
100
AcDbEntity
  8
L1
100
AcDb2dPolyline
 66
     1
 10
0.0
 20
0.0
 30
0.0
  0
VERTEX
  5
813
100
AcDbEntity
  8
L1
100
AcDbVertex
100
AcDb2dVertex
 10
-1.972074023069581
 20
-69.66694738023244
 30
0.0
  0
VERTEX
  5
814
100
AcDbEntity
  8
L1
100
AcDbVertex
100
AcDb2dVertex
 10
-1.979651372455634
 20
-69.71542936986651
 30
0.0
  0
VERTEX
  5
815
100
AcDbEntity
  8
L1
100
AcDbVertex
100
AcDb2dVertex
 10
-1.98603701153479
 20
-69.76408266529597
 30
0.0
  0
SEQEND
  5
816
100
AcDbEntity
  8
L1
  0
CIRCLE
  5
31B
100
AcDbEntity
  8
L1
100
AcDbCircle
 10
0.0
 20
-70.0
 30
0.0
 40
1.6
  0
CIRCLE
  5
31C
100
AcDbEntity
  8
L1
100
AcDbCircle
 10
10.0
 20
-70.0
 30
0.0
 40
1.2581025254893
  0
CIRCLE
  5
31D
100
AcDbEntity
  8
L1
100
AcDbCircle
 10
50.0
 20
-70.0
 30
0.0
 40
4.591897474510698
  0
ARC
  5
31E
100
AcDbEntity
  8
L1
100
AcDbCircle
 10
50.0
 20
-70.0
 30
0.0
 40
3.403605588231097
100
AcDbArc
 50
36.57089414763726
 51
143.4291058523614
  0
ARC
  5
31F
100
AcDbEntity
  8
L1
100
AcDbCircle
 10
50.0
 20
-70.0
 30
0.0
 40
3.361708113720398
100
AcDbArc
 50
143.195306553958
 51
233.1953065539601
  0
ARC
  5
320
100
AcDbEntity
  8
L1
100
AcDbCircle
 10
50.0
 20
-70.0
 30
0.0
 40
2.0
100
AcDbArc
 50
269.9999999999983
 51
359.9999999999983
  0
LINE
  5
321
100
AcDbEntity
  8
L1
100
AcDbLine
 10
51.99999999999988
 20
-67.99999999999994
 30
0.0
 11
51.99999999999988
 21
-70.00000000000006
 31
0.0
  0
POLYLINE
  5
322
100
AcDbEntity
  8
L1
100
AcDb2dPolyline
 66
     1
 10
0.0
 20
0.0
 30
0.0
  0
VERTEX
  5
817
100
AcDbEntity
  8
L1
100
AcDbVertex
100
AcDb2dVertex
 10
52.0
 20
-70.00000000000006
 30
0.0
  0
VERTEX
  5
818
100
AcDbEntity
  8
L1
100
AcDbVertex
100
AcDb2dVertex
 10
51.99825080451114
 20
-69.91637152237178
 30
0.0
  0
VERTEX
  5
819
100
AcDbEntity
  8
L1
100
AcDbVertex
100
AcDb2dVertex
 10
51.99300627772959
 20
-69.83288932729931
 30
0.0
  0
VERTEX
  5
81A
100
AcDbEntity
  8
L1
100
AcDbVertex
100
AcDb2dVertex
 10
51.98427559335778
 20
-69.7496994414617
 30
0.0
  0
VERTEX
  5
81B
100
AcDbEntity
  8
L1
100
AcDbVertex
100
AcDb2dVertex
 10
51.97207402306947
 20
-69.66694738023187
 30
0.0
  0
SEQEND
  5
81C
100
AcDbEntity
  8
L1
  0
ARC
  5
323
100
AcDbEntity
  8
L1
100
AcDbCircle
 10
50.0
 20
-70.0
 30
0.0
 40
2.0
100
AcDbArc
 50
9.585912399170116
 51
170.4140876008496
  0
LINE
  5
324
100
AcDbEntity
  8
L1
100
AcDbLine
 10
52.14144032422098
 20
-67.99999999999994
 30
0.0
 11
51.99999999999988
 21
-67.99999999999994
 31
0.0
  0
POLYLINE
  5
325
100
AcDbEntity
  8
L1
100
AcDb2dPolyline
 66
     1
 10
0.0
 20
0.0
 30
0.0
  0
VERTEX
  5
81D
100
AcDbEntity
  8
L1
100
AcDbVertex
100
AcDb2dVertex
 10
48.02792597693031
 20
-69.66694738023261
 30
0.0
  0
VERTEX
  5
81E
100
AcDbEntity
  8
L1
100
AcDbVertex
100
AcDb2dVertex
 10
48.02034862754431
 20
-69.71542936986674
 30
0.0
  0
VERTEX
  5
81F
100
AcDbEntity
  8
L1
100
AcDbVertex
100
AcDb2dVertex
 10
48.01396298846509
 20
-69.7640826652962
 30
0.0
  0
SEQEND
  5
820
100
AcDbEntity
  8
L1
  0
POLYLINE
  5
326
100
AcDbEntity
  8
L1
100
AcDb2dPolyline
 66
     1
 10
0.0
 20
0.0
 30
0.0
  0
VERTEX
  5
821
100
AcDbEntity
  8
L1
100
AcDbVertex
100
AcDb2dVertex
 10
52.69166017969315
 20
-67.98603701153485
 30
0.0
  0
VERTEX
  5
822
100
AcDbEntity
  8
L1
100
AcDbVertex
100
AcDb2dVertex
 10
52.65995545660041
 20
-67.99660062999044
 30
0.0
  0
SEQEND
  5
823
100
AcDbEntity
  8
L1
  0
POLYLINE
  5
327
100
AcDbEntity
  8
L1
100
AcDb2dPolyline
 66
     1
 10
0.0
 20
0.0
 30
0.0
  0
VERTEX
  5
824
100
AcDbEntity
  8
L1
100
AcDbVertex
100
AcDb2dVertex
 10
52.73350456965568
 20
-67.97207402306952
 30
0.0
  0
VERTEX
  5
825
100
AcDbEntity
  8
L1
100
AcDbVertex
100
AcDb2dVertex
 10
52.69166017969315
 20
-67.98603701153485
 30
0.0
  0
SEQEND
  5
826
100
AcDbEntity
  8
L1
  0
POLYLINE
  5
328
100
AcDbEntity
  8
L1
100
AcDb2dPolyline
 66
     1
 10
0.0
 20
0.0
 30
0.0
  0
VERTEX
  5
827
100
AcDbEntity
  8
L1
100
AcDbVertex
100
AcDb2dVertex
 10
47.30833982030697
 20
-67.98603701153473
 30
0.0
  0
VERTEX
  5
828
100
AcDbEntity
  8
L1
100
AcDbVertex
100
AcDb2dVertex
 10
47.26649543034432
 20
-67.97207402306952
 30
0.0
  0
SEQEND
  5
829
100
AcDbEntity
  8
L1
  0
POLYLINE
  5
329
100
AcDbEntity
  8
L1
100
AcDb2dPolyline
 66
     1
 10
0.0
 20
0.0
 30
0.0
  0
VERTEX
  5
82A
100
AcDbEntity
  8
L1
100
AcDbVertex
100
AcDb2dVertex
 10
52.65995545660041
 20
-67.99660062999044
 30
0.0
  0
VERTEX
  5
82B
100
AcDbEntity
  8
L1
100
AcDbVertex
100
AcDb2dVertex
 10
52.65242946816409
 20
-67.99713442957955
 30
0.0
  0
VERTEX
  5
82C
100
AcDbEntity
  8
L1
100
AcDbVertex
100
AcDb2dVertex
 10
52.62928792396895
 20
-67.99773023522647
 30
0.0
  0
VERTEX
  5
82D
100
AcDbEntity
  8
L1
100
AcDbVertex
100
AcDb2dVertex
 10
52.58733525937237
 20
-67.9983327271982
 30
0.0
  0
VERTEX
  5
82E
100
AcDbEntity
  8
L1
100
AcDbVertex
100
AcDb2dVertex
 10
52.53186610719513
 20
-67.99884680160613
 30
0.0
  0
VERTEX
  5
82F
100
AcDbEntity
  8
L1
100
AcDbVertex
100
AcDb2dVertex
 10
52.45420257652369
 20
-67.99932637051466
 30
0.0
  0
VERTEX
  5
830
100
AcDbEntity
  8
L1
100
AcDbVertex
100
AcDb2dVertex
 10
52.36753175819206
 20
-67.99967195326781
 30
0.0
  0
VERTEX
  5
831
100
AcDbEntity
  8
L1
100
AcDbVertex
100
AcDb2dVertex
 10
52.25615963202608
 20
-67.99992044563322
 30
0.0
  0
VERTEX
  5
832
100
AcDbEntity
  8
L1
100
AcDbVertex
100
AcDb2dVertex
 10
52.14144032422098
 20
-67.99999999999994
 30
0.0
  0
SEQEND
  5
833
100
AcDbEntity
  8
L1
  0
LINE
  5
32A
100
AcDbEntity
  8
L1
100
AcDbLine
 10
49.99999999999989
 20
-72.0
 30
0.0
 11
47.99999999999989
 21
-72.0
 31
0.0
  0
POLYLINE
  5
32B
100
AcDbEntity
  8
L1
100
AcDb2dPolyline
 66
     1
 10
0.0
 20
0.0
 30
0.0
  0
VERTEX
  5
834
100
AcDbEntity
  8
L1
100
AcDbVertex
100
AcDb2dVertex
 10
49.7640826652962
 20
-71.98603701153484
 30
0.0
  0
VERTEX
  5
835
100
AcDbEntity
  8
L1
100
AcDbVertex
100
AcDb2dVertex
 10
49.84251793048429
 20
-71.9937902090694
 30
0.0
  0
VERTEX
  5
836
100
AcDbEntity
  8
L1
100
AcDbVertex
100
AcDb2dVertex
 10
49.92119777331447
 20
-71.99844694927572
 30
0.0
  0
VERTEX
  5
837
100
AcDbEntity
  8
L1
100
AcDbVertex
100
AcDb2dVertex
 10
49.99999999999989
 20
-72.0
 30
0.0
  0
SEQEND
  5
838
100
AcDbEntity
  8
L1
  0
LINE
  5
32C
100
AcDbEntity
  8
L1
100
AcDbLine
 10
47.30833982030697
 20
-67.98603701153473
 30
0.0
 11
48.01396298846509
 21
-67.98603701153473
 31
0.0
  0
LINE
  5
32D
100
AcDbEntity
  8
L1
100
AcDbLine
 10
48.01396298846509
 20
-67.98603701153473
 30
0.0
 11
48.01396298846509
 21
-69.7640826652962
 31
0.0
  0
ARC
  5
32E
100
AcDbEntity
  8
L1
100
AcDbCircle
 10
50.0
 20
-70.0
 30
0.0
 40
2.0
100
AcDbArc
 50
173.2256939277516
 51
263.2256939277516
  0
POLYLINE
  5
32F
100
AcDbEntity
  8
L1
100
AcDb2dPolyline
 66
     1
 10
0.0
 20
0.0
 30
0.0
  0
VERTEX
  5
839
100
AcDbEntity
  8
L1
100
AcDbVertex
100
AcDb2dVertex
 10
47.99660062999044
 20
-72.65995545660047
 30
0.0
  0
VERTEX
  5
83A
100
AcDbEntity
  8
L1
100
AcDbVertex
100
AcDb2dVertex
 10
47.98603701153479
 20
-72.69166017969315
 30
0.0
  0
SEQEND
  5
83B
100
AcDbEntity
  8
L1
  0
LINE
  5
330
100
AcDbEntity
  8
L1
100
AcDbLine
 10
47.99999999999989
 20
-72.00000000000006
 30
0.0
 11
47.99999999999989
 21
-72.14144032422104
 31
0.0
  0
POLYLINE
  5
331
100
AcDbEntity
  8
L1
100
AcDb2dPolyline
 66
     1
 10
0.0
 20
0.0
 30
0.0
  0
VERTEX
  5
83C
100
AcDbEntity
  8
L1
100
AcDbVertex
100
AcDb2dVertex
 10
47.99999999999989
 20
-72.14144032422104
 30
0.0
  0
VERTEX
  5
83D
100
AcDbEntity
  8
L1
100
AcDbVertex
100
AcDb2dVertex
 10
47.99992044563317
 20
-72.2561596320262
 30
0.0
  0
VERTEX
  5
83E
100
AcDbEntity
  8
L1
100
AcDbVertex
100
AcDb2dVertex
 10
47.99967195326781
 20
-72.36753175819206
 30
0.0
  0
VERTEX
  5
83F
100
AcDbEntity
  8
L1
100
AcDbVertex
100
AcDb2dVertex
 10
47.99932637051461
 20
-72.45420257652364
 30
0.0
  0
VERTEX
  5
840
100
AcDbEntity
  8
L1
100
AcDbVertex
100
AcDb2dVertex
 10
47.99884680160608
 20
-72.53186610719518
 30
0.0
  0
VERTEX
  5
841
100
AcDbEntity
  8
L1
100
AcDbVertex
100
AcDb2dVertex
 10
47.9983327271982
 20
-72.58733525937242
 30
0.0
  0
VERTEX
  5
842
100
AcDbEntity
  8
L1
100
AcDbVertex
100
AcDb2dVertex
 10
47.99773023522641
 20
-72.62928792396895
 30
0.0
  0
VERTEX
  5
843
100
AcDbEntity
  8
L1
100
AcDbVertex
100
AcDb2dVertex
 10
47.99713442957954
 20
-72.65242946816403
 30
0.0
  0
VERTEX
  5
844
100
AcDbEntity
  8
L1
100
AcDbVertex
100
AcDb2dVertex
 10
47.99660062999044
 20
-72.65995545660053
 30
0.0
  0
SEQEND
  5
845
100
AcDbEntity
  8
L1
  0
CIRCLE
  5
332
100
AcDbEntity
  8
L1
100
AcDbCircle
 10
50.0
 20
-70.0
 30
0.0
 40
1.6
  0
LINE
  5
333
100
AcDbEntity
  8
L1
100
AcDbLine
 10
82.05000000000007
 20
-46.71165091966787
 30
0.0
 11
82.05000000000007
 21
-66.71165091966788
 31
0.0
  0
LINE
  5
334
100
AcDbEntity
  8
L1
100
AcDbLine
 10
81.45000000000004
 20
-66.71165091966788
 30
0.0
 11
81.45000000000004
 21
-46.71165091966787
 31
0.0
  0
LINE
  5
335
100
AcDbEntity
  8
L6
100
AcDbLine
 10
74.72106967228331
 20
-81.75000000000006
 30
0.0
 11
88.7224311167821
 21
-81.75000000000006
 31
0.0
  0
ARC
  5
336
100
AcDbEntity
  8
L1
100
AcDbCircle
 10
86.55000000000006
 20
-86.55000000000001
 30
0.0
 40
2.900000000000025
100
AcDbArc
 50
270.0
 51
0.0
  0
POLYLINE
  5
337
100
AcDbEntity
  8
L1
100
AcDb2dPolyline
 66
     1
 10
0.0
 20
0.0
 30
0.0
  0
VERTEX
  5
846
100
AcDbEntity
  8
L1
100
AcDbVertex
100
AcDb2dVertex
 10
90.04480555661018
 20
-86.55000000000001
 30
0.0
  0
VERTEX
  5
847
100
AcDbEntity
  8
L1
100
AcDbVertex
100
AcDb2dVertex
 10
89.97878081332975
 20
-87.2216342737625
 30
0.0
  0
VERTEX
  5
848
100
AcDbEntity
  8
L1
100
AcDbVertex
100
AcDb2dVertex
 10
89.77745407436248
 20
-87.88663729905222
 30
0.0
  0
VERTEX
  5
849
100
AcDbEntity
  8
L1
100
AcDbVertex
100
AcDb2dVertex
 10
89.4487258239816
 20
-88.49876236080644
 30
0.0
  0
VERTEX
  5
84A
100
AcDbEntity
  8
L1
100
AcDbVertex
100
AcDb2dVertex
 10
89.01975597554359
 20
-89.01975597554367
 30
0.0
  0
VERTEX
  5
84B
100
AcDbEntity
  8
L1
100
AcDbVertex
100
AcDb2dVertex
 10
88.4987623608065
 20
-89.4487258239816
 30
0.0
  0
VERTEX
  5
84C
100
AcDbEntity
  8
L1
100
AcDbVertex
100
AcDb2dVertex
 10
87.88663729905215
 20
-89.77745407436248
 30
0.0
  0
VERTEX
  5
84D
100
AcDbEntity
  8
L1
100
AcDbVertex
100
AcDb2dVertex
 10
87.22163427376234
 20
-89.97878081332983
 30
0.0
  0
VERTEX
  5
84E
100
AcDbEntity
  8
L1
100
AcDbVertex
100
AcDb2dVertex
 10
86.55000000000006
 20
-90.04480555661018
 30
0.0
  0
SEQEND
  5
84F
100
AcDbEntity
  8
L1
  0
ARC
  5
338
100
AcDbEntity
  8
L1
100
AcDbCircle
 10
85.25000000000011
 20
-72.15000000000009
 30
0.0
 40
4.022689858140751
100
AcDbArc
 50
270.0
 51
0.0
  0
ARC
  5
339
100
AcDbEntity
  8
L1
100
AcDbCircle
 10
86.55000000000006
 20
-86.55000000000001
 30
0.0
 40
1.9
100
AcDbArc
 50
270.0
 51
0.0
  0
LINE
  5
33A
100
AcDbEntity
  8
L6
100
AcDbLine
 10
81.75000000000011
 20
-75.46911734185624
 30
0.0
 11
81.75000000000011
 21
-88.04869488893832
 31
0.0
  0
ARC
  5
33B
100
AcDbEntity
  8
L1
100
AcDbCircle
 10
81.75000000000011
 20
-81.75000000000011
 30
0.0
 40
5.577310141859271
100
AcDbArc
 50
90.0
 51
180.0000000000006
  0
ARC
  5
33C
100
AcDbEntity
  8
L1
100
AcDbCircle
 10
81.75
 20
-81.75000000000006
 30
0.0
 40
9.201435918374905
100
AcDbArc
 50
144.7447416333011
 51
180.0
  0
ARC
  5
33D
100
AcDbEntity
  8
L1
100
AcDbCircle
 10
81.75000000000011
 20
-81.75000000000011
 30
0.0
 40
8.222788858174137
100
AcDbArc
 50
90.0
 51
180.0
  0
ARC
  5
33E
100
AcDbEntity
  8
L1
100
AcDbCircle
 10
81.75
 20
-81.75000000000006
 30
0.0
 40
5.099999999999999
100
AcDbArc
 50
82.99999999999958
 51
186.9999999999997
  0
LINE
  5
33F
100
AcDbEntity
  8
L1
100
AcDbLine
 10
88.45000000000004
 20
-76.41188856451276
 30
0.0
 11
88.45000000000004
 21
-86.55000000000001
 31
0.0
  0
ARC
  5
340
100
AcDbEntity
  8
L1
100
AcDbCircle
 10
85.25000000000011
 20
-72.15000000000009
 30
0.0
 40
4.854985757674691
100
AcDbArc
 50
263.0000000000007
 51
304.2334150316787
  0
LINE
  5
341
100
AcDbEntity
  8
L1
100
AcDbLine
 10
56.71165091966793
 20
-81.4500000000001
 30
0.0
 11
66.71165091966793
 21
-81.4500000000001
 31
0.0
  0
LINE
  5
342
100
AcDbEntity
  8
L1
100
AcDbLine
 10
66.71165091966793
 20
-82.05000000000001
 30
0.0
 11
56.71165091966793
 21
-82.05000000000001
 31
0.0
  0
LINE
  5
343
100
AcDbEntity
  8
L1
100
AcDbLine
 10
56.71165091966793
 20
-82.05000000000001
 30
0.0
 11
56.71165091966793
 21
-81.45000000000004
 31
0.0
  0
LINE
  5
344
100
AcDbEntity
  8
L1
100
AcDbLine
 10
66.71165091966793
 20
-82.65000000000004
 30
0.0
 11
66.71165091966793
 21
-82.05000000000001
 31
0.0
  0
LINE
  5
345
100
AcDbEntity
  8
L1
100
AcDbLine
 10
69.75
 20
-81.75000000000006
 30
0.0
 11
66.71165091966793
 21
-82.65000000000004
 31
0.0
  0
LINE
  5
346
100
AcDbEntity
  8
L1
100
AcDbLine
 10
66.71165091966793
 20
-80.85000000000013
 30
0.0
 11
69.75
 21
-81.75000000000011
 31
0.0
  0
LINE
  5
347
100
AcDbEntity
  8
L1
100
AcDbLine
 10
66.71165091966793
 20
-81.45000000000004
 30
0.0
 11
66.71165091966793
 21
-80.85000000000007
 31
0.0
  0
ARC
  5
348
100
AcDbEntity
  8
L1
100
AcDbCircle
 10
72.15000000000009
 20
-85.25000000000005
 30
0.0
 40
4.022689858140751
100
AcDbArc
 50
270.0
 51
0.0
  0
ARC
  5
349
100
AcDbEntity
  8
L1
100
AcDbCircle
 10
72.15000000000009
 20
-85.25000000000005
 30
0.0
 40
1.377211141825884
100
AcDbArc
 50
270.0
 51
0.0
  0
ARC
  5
34A
100
AcDbEntity
  8
L1
100
AcDbCircle
 10
72.15000000000009
 20
-85.25000000000005
 30
0.0
 40
4.854985757674692
100
AcDbArc
 50
325.7665849683212
 51
6.999999999999271
  0
LINE
  5
34B
100
AcDbEntity
  8
L1
100
AcDbLine
 10
86.55000000000006
 20
-88.44999999999998
 30
0.0
 11
76.41188856451276
 21
-88.44999999999998
 31
0.0
  0
POLYLINE
  5
34C
100
AcDbEntity
  8
L1
100
AcDb2dPolyline
 66
     1
 10
0.0
 20
0.0
 30
0.0
  0
VERTEX
  5
850
100
AcDbEntity
  8
L1
100
AcDbVertex
100
AcDb2dVertex
 10
76.41188856451276
 20
-88.44999999999998
 30
0.0
  0
VERTEX
  5
851
100
AcDbEntity
  8
L1
100
AcDbVertex
100
AcDb2dVertex
 10
76.31940115266764
 20
-88.43539043176178
 30
0.0
  0
VERTEX
  5
852
100
AcDbEntity
  8
L1
100
AcDbVertex
100
AcDb2dVertex
 10
76.21745950685249
 20
-88.37847839226316
 30
0.0
  0
VERTEX
  5
853
100
AcDbEntity
  8
L1
100
AcDbVertex
100
AcDb2dVertex
 10
76.1449762393654
 20
-88.2869779621339
 30
0.0
  0
VERTEX
  5
854
100
AcDbEntity
  8
L1
100
AcDbVertex
100
AcDb2dVertex
 10
76.11291071795972
 20
-88.17474577545812
 30
0.0
  0
VERTEX
  5
855
100
AcDbEntity
  8
L1
100
AcDbVertex
100
AcDb2dVertex
 10
76.12611177158965
 20
-88.05876199324108
 30
0.0
  0
VERTEX
  5
856
100
AcDbEntity
  8
L1
100
AcDbVertex
100
AcDb2dVertex
 10
76.16387222098286
 20
-87.98124815804925
 30
0.0
  0
SEQEND
  5
857
100
AcDbEntity
  8
L1
  0
POLYLINE
  5
34D
100
AcDbEntity
  8
L1
100
AcDb2dPolyline
 66
     1
 10
0.0
 20
0.0
 30
0.0
  0
VERTEX
  5
858
100
AcDbEntity
  8
L1
100
AcDbVertex
100
AcDb2dVertex
 10
86.55000000000006
 20
-90.04480555661018
 30
0.0
  0
VERTEX
  5
859
100
AcDbEntity
  8
L1
100
AcDbVertex
100
AcDb2dVertex
 10
86.54747121693175
 20
-90.04480827335356
 30
0.0
  0
VERTEX
  5
85A
100
AcDbEntity
  8
L1
100
AcDbVertex
100
AcDb2dVertex
 10
86.54494244821012
 20
-90.04480917893477
 30
0.0
  0
SEQEND
  5
85B
100
AcDbEntity
  8
L1
  0
CIRCLE
  5
34E
100
AcDbEntity
  8
L1
100
AcDbCircle
 10
81.75
 20
-81.75000000000006
 30
0.0
 40
4.0
  0
CIRCLE
  5
34F
100
AcDbEntity
  8
L1
100
AcDbCircle
 10
81.75000000000011
 20
-81.75000000000006
 30
0.0
 40
2.25
  0
LINE
  5
350
100
AcDbEntity
  8
L1
100
AcDbLine
 10
76.17268985814075
 20
-81.75000000000011
 30
0.0
 11
76.17268985814075
 21
-85.25000000000005
 31
0.0
  0
LINE
  5
351
100
AcDbEntity
  8
L1
100
AcDbLine
 10
72.54856408162516
 20
-81.75000000000006
 30
0.0
 11
72.54856408162516
 21
-84.62061525853318
 31
0.0
  0
POLYLINE
  5
352
100
AcDbEntity
  8
L1
100
AcDb2dPolyline
 66
     1
 10
0.0
 20
0.0
 30
0.0
  0
VERTEX
  5
85C
100
AcDbEntity
  8
L1
100
AcDbVertex
100
AcDb2dVertex
 10
71.94858692778655
 20
-84.02063810469469
 30
0.0
  0
VERTEX
  5
85D
100
AcDbEntity
  8
L1
100
AcDbVertex
100
AcDb2dVertex
 10
72.37283761327216
 20
-84.19636457304756
 30
0.0
  0
VERTEX
  5
85E
100
AcDbEntity
  8
L1
100
AcDbVertex
100
AcDb2dVertex
 10
72.54856408162504
 20
-84.62061525853318
 30
0.0
  0
SEQEND
  5
85F
100
AcDbEntity
  8
L1
  0
LINE
  5
353
100
AcDbEntity
  8
L1
100
AcDbLine
 10
73.52721114182589
 20
-85.25000000000005
 30
0.0
 11
73.52721114182589
 21
-81.75000000000011
 31
0.0
  0
LINE
  5
354
100
AcDbEntity
  8
L1
100
AcDbLine
 10
76.6880146266293
 20
-82.37153365136629
 30
0.0
 11
76.96879743005343
 21
-84.65832607347095
 31
0.0
  0
LINE
  5
355
100
AcDbEntity
  8
L1
100
AcDbLine
 10
84.65832607347101
 20
-76.9687974300536
 30
0.0
 11
82.37153365136624
 21
-76.68801462662941
 31
0.0
  0
LINE
  5
356
100
AcDbEntity
  8
L1
100
AcDbLine
 10
81.75000000000011
 20
-69.75000000000005
 30
0.0
 11
80.85000000000002
 21
-66.71165091966788
 31
0.0
  0
LINE
  5
357
100
AcDbEntity
  8
L1
100
AcDbLine
 10
82.65000000000009
 20
-66.71165091966788
 30
0.0
 11
81.75
 21
-69.75000000000005
 31
0.0
  0
ARC
  5
358
100
AcDbEntity
  8
L1
100
AcDbCircle
 10
81.75
 20
-81.75000000000006
 30
0.0
 40
9.201435918374905
100
AcDbArc
 50
90.0
 51
125.2552583666992
  0
ARC
  5
359
100
AcDbEntity
  8
L1
100
AcDbCircle
 10
73.50543578868957
 20
-74.75320479565772
 30
0.0
 40
0.3
100
AcDbArc
 50
135.0
 51
220.0
  0
ARC
  5
35A
100
AcDbEntity
  8
L1
100
AcDbCircle
 10
74.75320479565772
 20
-73.50543578868959
 30
0.0
 40
0.3
100
AcDbArc
 50
50.00000000000169
 51
135.0
  0
LINE
  5
35B
100
AcDbEntity
  8
L1
100
AcDbLine
 10
74.96895704134806
 20
-73.80066121879725
 30
0.0
 11
76.05635117798806
 21
-74.71309323779633
 31
0.0
  0
POLYLINE
  5
35C
100
AcDbEntity
  8
L1
100
AcDb2dPolyline
 66
     1
 10
0.0
 20
0.0
 30
0.0
  0
VERTEX
  5
860
100
AcDbEntity
  8
L1
100
AcDbVertex
100
AcDb2dVertex
 10
74.71309323779621
 20
-76.05635117798811
 30
0.0
  0
VERTEX
  5
861
100
AcDbEntity
  8
L1
100
AcDbVertex
100
AcDb2dVertex
 10
74.7570926175191
 20
-76.12660459593354
 30
0.0
  0
VERTEX
  5
862
100
AcDbEntity
  8
L1
100
AcDbVertex
100
AcDb2dVertex
 10
74.78321243666005
 20
-76.24290279887969
 30
0.0
  0
VERTEX
  5
863
100
AcDbEntity
  8
L1
100
AcDbVertex
100
AcDb2dVertex
 10
74.76198149280435
 20
-76.36019210243552
 30
0.0
  0
VERTEX
  5
864
100
AcDbEntity
  8
L1
100
AcDbVertex
100
AcDb2dVertex
 10
74.72247474059418
 20
-76.43024133155961
 30
0.0
  0
SEQEND
  5
865
100
AcDbEntity
  8
L1
  0
LINE
  5
35D
100
AcDbEntity
  8
L1
100
AcDbLine
 10
74.71309323779621
 20
-76.05635117798811
 30
0.0
 11
73.80066121879713
 21
-74.968957041348
 31
0.0
  0
POLYLINE
  5
35E
100
AcDbEntity
  8
L1
100
AcDb2dPolyline
 66
     1
 10
0.0
 20
0.0
 30
0.0
  0
VERTEX
  5
866
100
AcDbEntity
  8
L1
100
AcDbVertex
100
AcDb2dVertex
 10
73.80066121879713
 20
-74.96895704134806
 30
0.0
  0
VERTEX
  5
867
100
AcDbEntity
  8
L1
100
AcDbVertex
100
AcDb2dVertex
 10
73.73076129788933
 20
-74.76304271985071
 30
0.0
  0
VERTEX
  5
868
100
AcDbEntity
  8
L1
100
AcDbVertex
100
AcDb2dVertex
 10
73.8183418441273
 20
-74.56400414403873
 30
0.0
  0
SEQEND
  5
869
100
AcDbEntity
  8
L1
  0
LINE
  5
35F
100
AcDbEntity
  8
L1
100
AcDbLine
 10
73.8183418441273
 20
-74.56400414403873
 30
0.0
 11
74.56400414403868
 21
-73.8183418441273
 31
0.0
  0
POLYLINE
  5
360
100
AcDbEntity
  8
L1
100
AcDb2dPolyline
 66
     1
 10
0.0
 20
0.0
 30
0.0
  0
VERTEX
  5
86A
100
AcDbEntity
  8
L1
100
AcDbVertex
100
AcDb2dVertex
 10
74.56400414403879
 20
-73.8183418441273
 30
0.0
  0
VERTEX
  5
86B
100
AcDbEntity
  8
L1
100
AcDbVertex
100
AcDb2dVertex
 10
74.76304271985077
 20
-73.73076129788945
 30
0.0
  0
VERTEX
  5
86C
100
AcDbEntity
  8
L1
100
AcDbVertex
100
AcDb2dVertex
 10
74.96895704134806
 20
-73.80066121879725
 30
0.0
  0
SEQEND
  5
86D
100
AcDbEntity
  8
L1
  0
ARC
  5
361
100
AcDbEntity
  8
L1
100
AcDbCircle
 10
81.75
 20
-81.75000000000006
 30
0.0
 40
8.813962988465215
100
AcDbArc
 50
127.1253174351026
 51
142.8746825648975
  0
POLYLINE
  5
362
100
AcDbEntity
  8
L1
100
AcDb2dPolyline
 66
     1
 10
0.0
 20
0.0
 30
0.0
  0
VERTEX
  5
86E
100
AcDbEntity
  8
L1
100
AcDbVertex
100
AcDb2dVertex
 10
76.43024133155961
 20
-74.72247474059424
 30
0.0
  0
VERTEX
  5
86F
100
AcDbEntity
  8
L1
100
AcDbVertex
100
AcDb2dVertex
 10
76.3555300518567
 20
-74.7637936823694
 30
0.0
  0
VERTEX
  5
870
100
AcDbEntity
  8
L1
100
AcDbVertex
100
AcDb2dVertex
 10
76.23790320491787
 20
-74.7830660898224
 30
0.0
  0
VERTEX
  5
871
100
AcDbEntity
  8
L1
100
AcDbVertex
100
AcDb2dVertex
 10
76.12205652371461
 20
-74.75501082940997
 30
0.0
  0
VERTEX
  5
872
100
AcDbEntity
  8
L1
100
AcDbVertex
100
AcDb2dVertex
 10
76.05635117798806
 20
-74.71309323779633
 30
0.0
  0
SEQEND
  5
873
100
AcDbEntity
  8
L1
  0
POLYLINE
  5
363
100
AcDbEntity
  8
L1
100
AcDb2dPolyline
 66
     1
 10
0.0
 20
0.0
 30
0.0
  0
VERTEX
  5
874
100
AcDbEntity
  8
L1
100
AcDbVertex
100
AcDb2dVertex
 10
76.07275752463124
 20
-74.22104981009045
 30
0.0
  0
VERTEX
  5
875
100
AcDbEntity
  8
L1
100
AcDbVertex
100
AcDb2dVertex
 10
76.13681884710024
 20
-74.26219213473746
 30
0.0
  0
VERTEX
  5
876
100
AcDbEntity
  8
L1
100
AcDbVertex
100
AcDb2dVertex
 10
76.25001150466778
 20
-74.29083000596557
 30
0.0
  0
VERTEX
  5
877
100
AcDbEntity
  8
L1
100
AcDbVertex
100
AcDb2dVertex
 10
76.36551201568057
 20
-74.27410249485359
 30
0.0
  0
VERTEX
  5
878
100
AcDbEntity
  8
L1
100
AcDbVertex
100
AcDb2dVertex
 10
76.43874591195469
 20
-74.2362124749111
 30
0.0
  0
SEQEND
  5
879
100
AcDbEntity
  8
L1
  0
LINE
  5
364
100
AcDbEntity
  8
L1
100
AcDbLine
 10
74.94604107856367
 20
-73.27562245575389
 30
0.0
 11
76.07275752463124
 21
-74.2210498100905
 31
0.0
  0
LINE
  5
365
100
AcDbEntity
  8
L1
100
AcDbLine
 10
73.29330375433357
 20
-74.54107276130176
 30
0.0
 11
74.54107276130173
 21
-73.29330375433364
 31
0.0
  0
LINE
  5
366
100
AcDbEntity
  8
L1
100
AcDbLine
 10
74.22104981009045
 20
-76.07275752463118
 30
0.0
 11
73.27562245575387
 21
-74.94604107856368
 31
0.0
  0
POLYLINE
  5
367
100
AcDbEntity
  8
L1
100
AcDb2dPolyline
 66
     1
 10
0.0
 20
0.0
 30
0.0
  0
VERTEX
  5
87A
100
AcDbEntity
  8
L1
100
AcDbVertex
100
AcDb2dVertex
 10
74.2362124749111
 20
-76.43874591195469
 30
0.0
  0
VERTEX
  5
87B
100
AcDbEntity
  8
L1
100
AcDbVertex
100
AcDb2dVertex
 10
74.27193050249536
 20
-76.37145951394217
 30
0.0
  0
VERTEX
  5
87C
100
AcDbEntity
  8
L1
100
AcDbVertex
100
AcDb2dVertex
 10
74.291018127612
 20
-76.25419227959111
 30
0.0
  0
VERTEX
  5
87D
100
AcDbEntity
  8
L1
100
AcDbVertex
100
AcDb2dVertex
 10
74.26307361071781
 20
-76.13869019390887
 30
0.0
  0
VERTEX
  5
87E
100
AcDbEntity
  8
L1
100
AcDbVertex
100
AcDb2dVertex
 10
74.22104981009045
 20
-76.07275752463118
 30
0.0
  0
SEQEND
  5
87F
100
AcDbEntity
  8
L1
  0
LINE
  5
368
100
AcDbEntity
  8
L1
100
AcDbLine
 10
85.25000000000011
 20
-76.17268985814082
 30
0.0
 11
81.75000000000011
 21
-76.17268985814082
 31
0.0
  0
LINE
  5
369
100
AcDbEntity
  8
L1
100
AcDbLine
 10
84.62061525853323
 20
-72.54856408162516
 30
0.0
 11
81.75
 21
-72.54856408162516
 31
0.0
  0
POLYLINE
  5
36A
100
AcDbEntity
  8
L1
100
AcDb2dPolyline
 66
     1
 10
0.0
 20
0.0
 30
0.0
  0
VERTEX
  5
880
100
AcDbEntity
  8
L1
100
AcDbVertex
100
AcDb2dVertex
 10
84.62061525853323
 20
-72.54856408162521
 30
0.0
  0
VERTEX
  5
881
100
AcDbEntity
  8
L1
100
AcDbVertex
100
AcDb2dVertex
 10
84.19636457304761
 20
-72.37283761327233
 30
0.0
  0
VERTEX
  5
882
100
AcDbEntity
  8
L1
100
AcDbVertex
100
AcDb2dVertex
 10
84.02063810469474
 20
-71.94858692778672
 30
0.0
  0
SEQEND
  5
883
100
AcDbEntity
  8
L1
  0
ARC
  5
36B
100
AcDbEntity
  8
L1
100
AcDbCircle
 10
85.25000000000011
 20
-72.15000000000009
 30
0.0
 40
1.377211141825884
100
AcDbArc
 50
270.0
 51
0.0
  0
LINE
  5
36C
100
AcDbEntity
  8
L1
100
AcDbLine
 10
81.75000000000011
 20
-73.527211141826
 30
0.0
 11
85.25000000000011
 21
-73.527211141826
 31
0.0
  0
POLYLINE
  5
36D
100
AcDbEntity
  8
L1
100
AcDb2dPolyline
 66
     1
 10
0.0
 20
0.0
 30
0.0
  0
VERTEX
  5
884
100
AcDbEntity
  8
L1
100
AcDbVertex
100
AcDb2dVertex
 10
87.9812481580493
 20
-76.16387222098286
 30
0.0
  0
VERTEX
  5
885
100
AcDbEntity
  8
L1
100
AcDbVertex
100
AcDb2dVertex
 10
88.06353701077501
 20
-76.12463051690236
 30
0.0
  0
VERTEX
  5
886
100
AcDbEntity
  8
L1
100
AcDbVertex
100
AcDb2dVertex
 10
88.17974506341
 20
-76.11336614410999
 30
0.0
  0
VERTEX
  5
887
100
AcDbEntity
  8
L1
100
AcDbVertex
100
AcDb2dVertex
 10
88.29143250679818
 20
-76.14730946189678
 30
0.0
  0
VERTEX
  5
888
100
AcDbEntity
  8
L1
100
AcDbVertex
100
AcDb2dVertex
 10
88.38169971935144
 20
-76.22131006019873
 30
0.0
  0
VERTEX
  5
889
100
AcDbEntity
  8
L1
100
AcDbVertex
100
AcDb2dVertex
 10
88.43689194672629
 20
-76.32417034429266
 30
0.0
  0
VERTEX
  5
88A
100
AcDbEntity
  8
L1
100
AcDbVertex
100
AcDb2dVertex
 10
88.45000000000004
 20
-76.41188856451276
 30
0.0
  0
SEQEND
  5
88B
100
AcDbEntity
  8
L1
  0
LINE
  5
36E
100
AcDbEntity
  8
L1
100
AcDbLine
 10
80.85000000000002
 20
-66.71165091966788
 30
0.0
 11
81.45000000000004
 21
-66.71165091966788
 31
0.0
  0
LINE
  5
36F
100
AcDbEntity
  8
L1
100
AcDbLine
 10
82.05000000000007
 20
-66.71165091966788
 30
0.0
 11
82.65000000000009
 21
-66.71165091966788
 31
0.0
  0
POLYLINE
  5
370
100
AcDbEntity
  8
L1
100
AcDb2dPolyline
 66
     1
 10
0.0
 20
0.0
 30
0.0
  0
VERTEX
  5
88C
100
AcDbEntity
  8
L1
100
AcDbVertex
100
AcDb2dVertex
 10
90.04480917893477
 20
-86.54494244821012
 30
0.0
  0
VERTEX
  5
88D
100
AcDbEntity
  8
L1
100
AcDbVertex
100
AcDb2dVertex
 10
90.04480827335362
 20
-86.54747121693175
 30
0.0
  0
VERTEX
  5
88E
100
AcDbEntity
  8
L1
100
AcDbVertex
100
AcDb2dVertex
 10
90.04480555661018
 20
-86.55000000000001
 30
0.0
  0
SEQEND
  5
88F
100
AcDbEntity
  8
L1
  0
CIRCLE
  5
371
100
AcDbEntity
  8
L1
100
AcDbCircle
 10
70.0
 20
-50.0
 30
0.0
 40
4.591897474510698
  0
ARC
  5
372
100
AcDbEntity
  8
L1
100
AcDbCircle
 10
70.0
 20
-50.0
 30
0.0
 40
2.0
100
AcDbArc
 50
270.0
 51
359.9999999999983
  0
ARC
  5
373
100
AcDbEntity
  8
L1
100
AcDbCircle
 10
70.0
 20
-50.0
 30
0.0
 40
3.361708113720398
100
AcDbArc
 50
36.8046934460371
 51
126.8046934460411
  0
ARC
  5
374
100
AcDbEntity
  8
L1
100
AcDbCircle
 10
70.0
 20
-50.0
 30
0.0
 40
2.0
100
AcDbArc
 50
6.774306072274583
 51
96.77430607227458
  0
ARC
  5
375
100
AcDbEntity
  8
L1
100
AcDbCircle
 10
70.0
 20
-50.0
 30
0.0
 40
3.403605588231097
100
AcDbArc
 50
126.5708941476398
 51
233.42910585236
  0
ARC
  5
376
100
AcDbEntity
  8
L1
100
AcDbCircle
 10
70.0
 20
-50.0
 30
0.0
 40
2.0
100
AcDbArc
 50
99.58591239917012
 51
260.4140876008496
  0
LINE
  5
377
100
AcDbEntity
  8
L1
100
AcDbLine
 10
70.0
 20
-52.00000000000006
 30
0.0
 11
67.99999999999989
 21
-52.00000000000006
 31
0.0
  0
LINE
  5
378
100
AcDbEntity
  8
L1
100
AcDbLine
 10
67.97207402306947
 20
-51.97207402306964
 30
0.0
 11
69.66694738023261
 21
-51.97207402306964
 31
0.0
  0
POLYLINE
  5
379
100
AcDbEntity
  8
L1
100
AcDb2dPolyline
 66
     1
 10
0.0
 20
0.0
 30
0.0
  0
VERTEX
  5
890
100
AcDbEntity
  8
L1
100
AcDbVertex
100
AcDb2dVertex
 10
69.66694738023261
 20
-51.97207402306964
 30
0.0
  0
VERTEX
  5
891
100
AcDbEntity
  8
L1
100
AcDbVertex
100
AcDb2dVertex
 10
69.74969944146221
 20
-51.98427559335783
 30
0.0
  0
VERTEX
  5
892
100
AcDbEntity
  8
L1
100
AcDbVertex
100
AcDb2dVertex
 10
69.83288932729966
 20
-51.99300627772959
 30
0.0
  0
VERTEX
  5
893
100
AcDbEntity
  8
L1
100
AcDbVertex
100
AcDb2dVertex
 10
69.91637152237195
 20
-51.9982508045112
 30
0.0
  0
VERTEX
  5
894
100
AcDbEntity
  8
L1
100
AcDbVertex
100
AcDb2dVertex
 10
70.0
 20
-52.0
 30
0.0
  0
SEQEND
  5
895
100
AcDbEntity
  8
L1
  0
LINE
  5
37A
100
AcDbEntity
  8
L1
100
AcDbLine
 10
67.99999999999989
 20
-52.00000000000006
 30
0.0
 11
67.99999999999989
 21
-52.14144032422098
 31
0.0
  0
POLYLINE
  5
37B
100
AcDbEntity
  8
L1
100
AcDb2dPolyline
 66
     1
 10
0.0
 20
0.0
 30
0.0
  0
VERTEX
  5
896
100
AcDbEntity
  8
L1
100
AcDbVertex
100
AcDb2dVertex
 10
67.99999999999989
 20
-52.14144032422098
 30
0.0
  0
VERTEX
  5
897
100
AcDbEntity
  8
L1
100
AcDbVertex
100
AcDb2dVertex
 10
67.99992044563317
 20
-52.2561596320262
 30
0.0
  0
VERTEX
  5
898
100
AcDbEntity
  8
L1
100
AcDbVertex
100
AcDb2dVertex
 10
67.99967195326781
 20
-52.367531758192
 30
0.0
  0
VERTEX
  5
899
100
AcDbEntity
  8
L1
100
AcDbVertex
100
AcDb2dVertex
 10
67.99932637051461
 20
-52.45420257652364
 30
0.0
  0
VERTEX
  5
89A
100
AcDbEntity
  8
L1
100
AcDbVertex
100
AcDb2dVertex
 10
67.99884680160608
 20
-52.53186610719518
 30
0.0
  0
VERTEX
  5
89B
100
AcDbEntity
  8
L1
100
AcDbVertex
100
AcDb2dVertex
 10
67.9983327271982
 20
-52.58733525937237
 30
0.0
  0
VERTEX
  5
89C
100
AcDbEntity
  8
L1
100
AcDbVertex
100
AcDb2dVertex
 10
67.99773023522641
 20
-52.62928792396895
 30
0.0
  0
VERTEX
  5
89D
100
AcDbEntity
  8
L1
100
AcDbVertex
100
AcDb2dVertex
 10
67.99713442957955
 20
-52.65242946816403
 30
0.0
  0
VERTEX
  5
89E
100
AcDbEntity
  8
L1
100
AcDbVertex
100
AcDb2dVertex
 10
67.99660062999044
 20
-52.65995545660047
 30
0.0
  0
SEQEND
  5
89F
100
AcDbEntity
  8
L1
  0
POLYLINE
  5
37C
100
AcDbEntity
  8
L1
100
AcDb2dPolyline
 66
     1
 10
0.0
 20
0.0
 30
0.0
  0
VERTEX
  5
8A0
100
AcDbEntity
  8
L1
100
AcDbVertex
100
AcDb2dVertex
 10
67.99660062999044
 20
-52.65995545660047
 30
0.0
  0
VERTEX
  5
8A1
100
AcDbEntity
  8
L1
100
AcDbVertex
100
AcDb2dVertex
 10
67.98603701153467
 20
-52.69166017969308
 30
0.0
  0
SEQEND
  5
8A2
100
AcDbEntity
  8
L1
  0
POLYLINE
  5
37D
100
AcDbEntity
  8
L1
100
AcDb2dPolyline
 66
     1
 10
0.0
 20
0.0
 30
0.0
  0
VERTEX
  5
8A3
100
AcDbEntity
  8
L1
100
AcDbVertex
100
AcDb2dVertex
 10
67.98603701153467
 20
-52.69166017969308
 30
0.0
  0
VERTEX
  5
8A4
100
AcDbEntity
  8
L1
100
AcDbVertex
100
AcDb2dVertex
 10
67.97207402306947
 20
-52.73350456965562
 30
0.0
  0
SEQEND
  5
8A5
100
AcDbEntity
  8
L1
  0
LINE
  5
37E
100
AcDbEntity
  8
L1
100
AcDbLine
 10
67.97207402306947
 20
-52.73350456965562
 30
0.0
 11
67.97207402306947
 21
-51.97207402306964
 31
0.0
  0
LINE
  5
37F
100
AcDbEntity
  8
L1
100
AcDbLine
 10
67.99999999999989
 20
-52.00000000000006
 30
0.0
 11
67.97207402306947
 21
-51.97207402306964
 31
0.0
  0
CIRCLE
  5
380
100
AcDbEntity
  8
L1
100
AcDbCircle
 10
70.0
 20
-50.0
 30
0.0
 40
1.6
  0
LINE
  5
381
100
AcDbEntity
  8
L1
100
AcDbLine
 10
67.97207402306947
 20
-48.02792597693048
 30
0.0
 11
67.97207402306947
 21
-47.26649543034437
 31
0.0
  0
POLYLINE
  5
382
100
AcDbEntity
  8
L1
100
AcDb2dPolyline
 66
     1
 10
0.0
 20
0.0
 30
0.0
  0
VERTEX
  5
8A6
100
AcDbEntity
  8
L1
100
AcDbVertex
100
AcDb2dVertex
 10
67.97207402306947
 20
-47.26649543034437
 30
0.0
  0
VERTEX
  5
8A7
100
AcDbEntity
  8
L1
100
AcDbVertex
100
AcDb2dVertex
 10
67.98603701153467
 20
-47.30833982030685
 30
0.0
  0
SEQEND
  5
8A8
100
AcDbEntity
  8
L1
  0
LINE
  5
383
100
AcDbEntity
  8
L1
100
AcDbLine
 10
69.66694738023193
 20
-48.02792597693048
 30
0.0
 11
67.97207402306947
 21
-48.02792597693048
 31
0.0
  0
LINE
  5
384
100
AcDbEntity
  8
L1
100
AcDbLine
 10
67.98603701153467
 20
-48.01396298846526
 30
0.0
 11
67.97207402306947
 21
-48.02792597693048
 31
0.0
  0
POLYLINE
  5
385
100
AcDbEntity
  8
L1
100
AcDb2dPolyline
 66
     1
 10
0.0
 20
0.0
 30
0.0
  0
VERTEX
  5
8A9
100
AcDbEntity
  8
L1
100
AcDbVertex
100
AcDb2dVertex
 10
69.76408266529529
 20
-48.01396298846526
 30
0.0
  0
VERTEX
  5
8AA
100
AcDbEntity
  8
L1
100
AcDbVertex
100
AcDb2dVertex
 10
69.71542936986589
 20
-48.02034862754448
 30
0.0
  0
VERTEX
  5
8AB
100
AcDbEntity
  8
L1
100
AcDbVertex
100
AcDb2dVertex
 10
69.66694738023193
 20
-48.02792597693048
 30
0.0
  0
SEQEND
  5
8AC
100
AcDbEntity
  8
L1
  0
LINE
  5
386
100
AcDbEntity
  8
L1
100
AcDbLine
 10
69.76408266529529
 20
-48.01396298846526
 30
0.0
 11
67.98603701153467
 21
-48.01396298846526
 31
0.0
  0
LINE
  5
387
100
AcDbEntity
  8
L1
100
AcDbLine
 10
67.98603701153467
 20
-48.01396298846526
 30
0.0
 11
67.98603701153467
 21
-47.30833982030685
 31
0.0
  0
LINE
  5
388
100
AcDbEntity
  8
L1
100
AcDbLine
 10
71.98603701153468
 20
-49.76408266529529
 30
0.0
 11
71.98603701153468
 21
-47.98603701153484
 31
0.0
  0
LINE
  5
389
100
AcDbEntity
  8
L1
100
AcDbLine
 10
71.99999999999988
 20
-48.00000000000006
 30
0.0
 11
71.99999999999988
 21
-50.00000000000006
 31
0.0
  0
POLYLINE
  5
38A
100
AcDbEntity
  8
L1
100
AcDb2dPolyline
 66
     1
 10
0.0
 20
0.0
 30
0.0
  0
VERTEX
  5
8AD
100
AcDbEntity
  8
L1
100
AcDbVertex
100
AcDb2dVertex
 10
72.0
 20
-50.00000000000006
 30
0.0
  0
VERTEX
  5
8AE
100
AcDbEntity
  8
L1
100
AcDbVertex
100
AcDb2dVertex
 10
71.99844694927572
 20
-49.92119777331424
 30
0.0
  0
VERTEX
  5
8AF
100
AcDbEntity
  8
L1
100
AcDbVertex
100
AcDb2dVertex
 10
71.99379020906929
 20
-49.84251793048372
 30
0.0
  0
VERTEX
  5
8B0
100
AcDbEntity
  8
L1
100
AcDbVertex
100
AcDb2dVertex
 10
71.98603701153468
 20
-49.76408266529529
 30
0.0
  0
SEQEND
  5
8B1
100
AcDbEntity
  8
L1
  0
LINE
  5
38B
100
AcDbEntity
  8
L1
100
AcDbLine
 10
72.14144032422109
 20
-48.00000000000006
 30
0.0
 11
71.99999999999988
 21
-48.00000000000006
 31
0.0
  0
POLYLINE
  5
38C
100
AcDbEntity
  8
L1
100
AcDb2dPolyline
 66
     1
 10
0.0
 20
0.0
 30
0.0
  0
VERTEX
  5
8B2
100
AcDbEntity
  8
L1
100
AcDbVertex
100
AcDb2dVertex
 10
72.69166017969315
 20
-47.9860370115349
 30
0.0
  0
VERTEX
  5
8B3
100
AcDbEntity
  8
L1
100
AcDbVertex
100
AcDb2dVertex
 10
72.65995545660053
 20
-47.99660062999061
 30
0.0
  0
SEQEND
  5
8B4
100
AcDbEntity
  8
L1
  0
POLYLINE
  5
38D
100
AcDbEntity
  8
L1
100
AcDb2dPolyline
 66
     1
 10
0.0
 20
0.0
 30
0.0
  0
VERTEX
  5
8B5
100
AcDbEntity
  8
L1
100
AcDbVertex
100
AcDb2dVertex
 10
72.65995545660053
 20
-47.99660062999055
 30
0.0
  0
VERTEX
  5
8B6
100
AcDbEntity
  8
L1
100
AcDbVertex
100
AcDb2dVertex
 10
72.6524294681642
 20
-47.9971344295796
 30
0.0
  0
VERTEX
  5
8B7
100
AcDbEntity
  8
L1
100
AcDbVertex
100
AcDb2dVertex
 10
72.62928792396895
 20
-47.99773023522658
 30
0.0
  0
VERTEX
  5
8B8
100
AcDbEntity
  8
L1
100
AcDbVertex
100
AcDb2dVertex
 10
72.58733525937248
 20
-47.99833272719832
 30
0.0
  0
VERTEX
  5
8B9
100
AcDbEntity
  8
L1
100
AcDbVertex
100
AcDb2dVertex
 10
72.53186610719524
 20
-47.99884680160618
 30
0.0
  0
VERTEX
  5
8BA
100
AcDbEntity
  8
L1
100
AcDbVertex
100
AcDb2dVertex
 10
72.45420257652381
 20
-47.99932637051478
 30
0.0
  0
VERTEX
  5
8BB
100
AcDbEntity
  8
L1
100
AcDbVertex
100
AcDb2dVertex
 10
72.36753175819206
 20
-47.99967195326797
 30
0.0
  0
VERTEX
  5
8BC
100
AcDbEntity
  8
L1
100
AcDbVertex
100
AcDb2dVertex
 10
72.2561596320262
 20
-47.99992044563333
 30
0.0
  0
VERTEX
  5
8BD
100
AcDbEntity
  8
L1
100
AcDbVertex
100
AcDb2dVertex
 10
72.14144032422109
 20
-48.00000000000006
 30
0.0
  0
SEQEND
  5
8BE
100
AcDbEntity
  8
L1
  0
LINE
  5
38E
100
AcDbEntity
  8
L1
100
AcDbLine
 10
71.98603701153468
 20
-47.98603701153484
 30
0.0
 11
72.69166017969315
 21
-47.98603701153484
 31
0.0
  0
LINE
  5
38F
100
AcDbEntity
  8
L1
100
AcDbLine
 10
71.99999999999988
 20
-48.00000000000006
 30
0.0
 11
71.98603701153468
 21
-47.98603701153484
 31
0.0
  0
LINE
  5
390
100
AcDbEntity
  8
L1
100
AcDbLine
 10
81.45000000000004
 20
-46.71165091966793
 30
0.0
 11
82.05000000000007
 21
-46.71165091966793
 31
0.0
  0
CIRCLE
  5
391
100
AcDbEntity
  8
L1
100
AcDbCircle
 10
0.0
 20
0.0
 30
0.0
 40
1.0
  0
CIRCLE
  5
392
100
AcDbEntity
  8
L1
100
AcDbCircle
 10
70.0
 20
0.0
 30
0.0
 40
4.591897474510698
  0
ARC
  5
393
100
AcDbEntity
  8
L1
100
AcDbCircle
 10
70.00000000000011
 20
0.0
 30
0.0
 40
2.0
100
AcDbArc
 50
263.2256939277516
 51
96.77430607227458
  0
ARC
  5
394
100
AcDbEntity
  8
L1
100
AcDbCircle
 10
70.00000000000011
 20
0.0
 30
0.0
 40
3.403605588231097
100
AcDbArc
 50
126.570894147642
 51
233.429105852358
  0
CIRCLE
  5
395
100
AcDbEntity
  8
L1
100
AcDbCircle
 10
70.00000000000011
 20
0.0
 30
0.0
 40
1.6
  0
CIRCLE
  5
396
100
AcDbEntity
  8
L1
100
AcDbCircle
 10
70.00000000000011
 20
-10.0
 30
0.0
 40
1.2581025254893
  0
POLYLINE
  5
397
100
AcDbEntity
  8
L1
100
AcDb2dPolyline
 66
     1
 10
0.0
 20
0.0
 30
0.0
  0
VERTEX
  5
8BF
100
AcDbEntity
  8
L1
100
AcDbVertex
100
AcDb2dVertex
 10
67.98603701153467
 20
-2.185636459889906
 30
0.0
  0
VERTEX
  5
8C0
100
AcDbEntity
  8
L1
100
AcDbVertex
100
AcDb2dVertex
 10
67.98595766314384
 20
-2.299553275056837
 30
0.0
  0
VERTEX
  5
8C1
100
AcDbEntity
  8
L1
100
AcDbVertex
100
AcDb2dVertex
 10
67.98571019259293
 20
-2.410131526207976
 30
0.0
  0
VERTEX
  5
8C2
100
AcDbEntity
  8
L1
100
AcDbVertex
100
AcDb2dVertex
 10
67.98536492213338
 20
-2.496513979689609
 30
0.0
  0
VERTEX
  5
8C3
100
AcDbEntity
  8
L1
100
AcDbVertex
100
AcDb2dVertex
 10
67.984886044473
 20
-2.573897349307969
 30
0.0
  0
VERTEX
  5
8C4
100
AcDbEntity
  8
L1
100
AcDbVertex
100
AcDb2dVertex
 10
67.98437165134123
 20
-2.62929573213114
 30
0.0
  0
VERTEX
  5
8C5
100
AcDbEntity
  8
L1
100
AcDbVertex
100
AcDb2dVertex
 10
67.98376902709822
 20
-2.671185009003863
 30
0.0
  0
VERTEX
  5
8C6
100
AcDbEntity
  8
L1
100
AcDbVertex
100
AcDb2dVertex
 10
67.98317231306476
 20
-2.694327222758886
 30
0.0
  0
VERTEX
  5
8C7
100
AcDbEntity
  8
L1
100
AcDbVertex
100
AcDb2dVertex
 10
67.98263764152522
 20
-2.701853931433902
 30
0.0
  0
SEQEND
  5
8C8
100
AcDbEntity
  8
L1
  0
POLYLINE
  5
398
100
AcDbEntity
  8
L1
100
AcDb2dPolyline
 66
     1
 10
0.0
 20
0.0
 30
0.0
  0
VERTEX
  5
8C9
100
AcDbEntity
  8
L1
100
AcDbVertex
100
AcDb2dVertex
 10
67.98263764152522
 20
-2.701853931433845
 30
0.0
  0
VERTEX
  5
8CA
100
AcDbEntity
  8
L1
100
AcDbVertex
100
AcDb2dVertex
 10
67.97207402306947
 20
-2.733504569655508
 30
0.0
  0
SEQEND
  5
8CB
100
AcDbEntity
  8
L1
  0
LINE
  5
399
100
AcDbEntity
  8
L1
100
AcDbLine
 10
67.97207402306947
 20
-2.733504569655508
 30
0.0
 11
67.97207402306947
 21
-1.972074023069637
 31
0.0
  0
LINE
  5
39A
100
AcDbEntity
  8
L1
100
AcDbLine
 10
67.98603701153467
 20
-1.986037011534847
 30
0.0
 11
67.98603701153467
 21
-2.185636459889906
 31
0.0
  0
LINE
  5
39B
100
AcDbEntity
  8
L1
100
AcDbLine
 10
69.76408266529631
 20
-1.986037011534847
 30
0.0
 11
67.98603701153467
 21
-1.986037011534847
 31
0.0
  0
LINE
  5
39C
100
AcDbEntity
  8
L1
100
AcDbLine
 10
67.98603701153467
 20
-1.986037011534847
 30
0.0
 11
67.97207402306947
 21
-1.972074023069637
 31
0.0
  0
LINE
  5
39D
100
AcDbEntity
  8
L1
100
AcDbLine
 10
67.97207402306947
 20
-1.972074023069637
 30
0.0
 11
69.66694738023273
 21
-1.972074023069637
 31
0.0
  0
POLYLINE
  5
39E
100
AcDbEntity
  8
L1
100
AcDb2dPolyline
 66
     1
 10
0.0
 20
0.0
 30
0.0
  0
VERTEX
  5
8CC
100
AcDbEntity
  8
L1
100
AcDbVertex
100
AcDb2dVertex
 10
69.66694738023273
 20
-1.972074023069637
 30
0.0
  0
VERTEX
  5
8CD
100
AcDbEntity
  8
L1
100
AcDbVertex
100
AcDb2dVertex
 10
69.71542936986679
 20
-1.979651372455634
 30
0.0
  0
VERTEX
  5
8CE
100
AcDbEntity
  8
L1
100
AcDbVertex
100
AcDb2dVertex
 10
69.76408266529631
 20
-1.986037011534847
 30
0.0
  0
SEQEND
  5
8CF
100
AcDbEntity
  8
L1
  0
POLYLINE
  5
39F
100
AcDbEntity
  8
L1
100
AcDb2dPolyline
 66
     1
 10
0.0
 20
0.0
 30
0.0
  0
VERTEX
  5
8D0
100
AcDbEntity
  8
L1
100
AcDbVertex
100
AcDb2dVertex
 10
67.97207402306947
 20
2.733504569655508
 30
0.0
  0
VERTEX
  5
8D1
100
AcDbEntity
  8
L1
100
AcDbVertex
100
AcDb2dVertex
 10
67.98263764152522
 20
2.701853931433845
 30
0.0
  0
SEQEND
  5
8D2
100
AcDbEntity
  8
L1
  0
POLYLINE
  5
3A0
100
AcDbEntity
  8
L1
100
AcDb2dPolyline
 66
     1
 10
0.0
 20
0.0
 30
0.0
  0
VERTEX
  5
8D3
100
AcDbEntity
  8
L1
100
AcDbVertex
100
AcDb2dVertex
 10
67.98263764152522
 20
2.701853931433902
 30
0.0
  0
VERTEX
  5
8D4
100
AcDbEntity
  8
L1
100
AcDbVertex
100
AcDb2dVertex
 10
67.98317231306476
 20
2.694327222758886
 30
0.0
  0
VERTEX
  5
8D5
100
AcDbEntity
  8
L1
100
AcDbVertex
100
AcDb2dVertex
 10
67.98376902709822
 20
2.671185009003863
 30
0.0
  0
VERTEX
  5
8D6
100
AcDbEntity
  8
L1
100
AcDbVertex
100
AcDb2dVertex
 10
67.98437165134123
 20
2.62929573213114
 30
0.0
  0
VERTEX
  5
8D7
100
AcDbEntity
  8
L1
100
AcDbVertex
100
AcDb2dVertex
 10
67.984886044473
 20
2.573897349307969
 30
0.0
  0
VERTEX
  5
8D8
100
AcDbEntity
  8
L1
100
AcDbVertex
100
AcDb2dVertex
 10
67.98536492213338
 20
2.496513979689609
 30
0.0
  0
VERTEX
  5
8D9
100
AcDbEntity
  8
L1
100
AcDbVertex
100
AcDb2dVertex
 10
67.98571019259293
 20
2.410131526207976
 30
0.0
  0
VERTEX
  5
8DA
100
AcDbEntity
  8
L1
100
AcDbVertex
100
AcDb2dVertex
 10
67.98595766314384
 20
2.299553275056723
 30
0.0
  0
VERTEX
  5
8DB
100
AcDbEntity
  8
L1
100
AcDbVertex
100
AcDb2dVertex
 10
67.98603701153467
 20
2.185636459889906
 30
0.0
  0
SEQEND
  5
8DC
100
AcDbEntity
  8
L1
  0
LINE
  5
3A1
100
AcDbEntity
  8
L1
100
AcDbLine
 10
67.98603701153467
 20
2.185636459889906
 30
0.0
 11
67.98603701153467
 21
1.986037011534733
 31
0.0
  0
LINE
  5
3A2
100
AcDbEntity
  8
L1
100
AcDbLine
 10
67.98603701153467
 20
1.986037011534733
 30
0.0
 11
67.97207402306947
 21
1.972074023069524
 31
0.0
  0
LINE
  5
3A3
100
AcDbEntity
  8
L1
100
AcDbLine
 10
67.98603701153467
 20
1.986037011534733
 30
0.0
 11
69.7640826652954
 21
1.986037011534733
 31
0.0
  0
POLYLINE
  5
3A4
100
AcDbEntity
  8
L1
100
AcDb2dPolyline
 66
     1
 10
0.0
 20
0.0
 30
0.0
  0
VERTEX
  5
8DD
100
AcDbEntity
  8
L1
100
AcDbVertex
100
AcDb2dVertex
 10
69.7640826652954
 20
1.986037011534733
 30
0.0
  0
VERTEX
  5
8DE
100
AcDbEntity
  8
L1
100
AcDbVertex
100
AcDb2dVertex
 10
69.715429369866
 20
1.979651372455521
 30
0.0
  0
VERTEX
  5
8DF
100
AcDbEntity
  8
L1
100
AcDbVertex
100
AcDb2dVertex
 10
69.66694738023204
 20
1.972074023069524
 30
0.0
  0
SEQEND
  5
8E0
100
AcDbEntity
  8
L1
  0
LINE
  5
3A5
100
AcDbEntity
  8
L1
100
AcDbLine
 10
67.97207402306947
 20
1.972074023069524
 30
0.0
 11
67.97207402306947
 21
2.733504569655508
 31
0.0
  0
LINE
  5
3A6
100
AcDbEntity
  8
L1
100
AcDbLine
 10
69.66694738023204
 20
1.972074023069524
 30
0.0
 11
67.97207402306947
 21
1.972074023069524
 31
0.0
  0
CIRCLE
  5
3A7
100
AcDbEntity
  8
L1
100
AcDbCircle
 10
70.00000000000011
 20
10.0
 30
0.0
 40
1.2581025254893
  0
CIRCLE
  5
3A8
100
AcDbEntity
  8
L1
100
AcDbCircle
 10
70.0
 20
50.00000000000006
 30
0.0
 40
4.591897474510698
  0
ARC
  5
3A9
100
AcDbEntity
  8
L1
100
AcDbCircle
 10
70.0
 20
50.00000000000006
 30
0.0
 40
2.0
100
AcDbArc
 50
359.9999999999992
 51
90.0
  0
ARC
  5
3AA
100
AcDbEntity
  8
L1
100
AcDbCircle
 10
70.0
 20
50.00000000000006
 30
0.0
 40
2.0
100
AcDbArc
 50
263.2256939277385
 51
353.2256939277385
  0
ARC
  5
3AB
100
AcDbEntity
  8
L1
100
AcDbCircle
 10
70.0
 20
50.00000000000006
 30
0.0
 40
3.361708113720398
100
AcDbArc
 50
233.1953065539591
 51
323.1953065539601
  0
LINE
  5
3AC
100
AcDbEntity
  8
L1
100
AcDbLine
 10
67.99999999999989
 20
52.00000000000006
 30
0.0
 11
70.0
 21
52.00000000000006
 31
0.0
  0
POLYLINE
  5
3AD
100
AcDbEntity
  8
L1
100
AcDb2dPolyline
 66
     1
 10
0.0
 20
0.0
 30
0.0
  0
VERTEX
  5
8E1
100
AcDbEntity
  8
L1
100
AcDbVertex
100
AcDb2dVertex
 10
70.0
 20
52.00000000000006
 30
0.0
  0
VERTEX
  5
8E2
100
AcDbEntity
  8
L1
100
AcDbVertex
100
AcDb2dVertex
 10
69.91637152237183
 20
51.9982508045112
 30
0.0
  0
VERTEX
  5
8E3
100
AcDbEntity
  8
L1
100
AcDbVertex
100
AcDb2dVertex
 10
69.83288932729942
 20
51.99300627772965
 30
0.0
  0
VERTEX
  5
8E4
100
AcDbEntity
  8
L1
100
AcDbVertex
100
AcDb2dVertex
 10
69.74969944146187
 20
51.98427559335789
 30
0.0
  0
VERTEX
  5
8E5
100
AcDbEntity
  8
L1
100
AcDbVertex
100
AcDb2dVertex
 10
69.66694738023227
 20
51.97207402306964
 30
0.0
  0
SEQEND
  5
8E6
100
AcDbEntity
  8
L1
  0
ARC
  5
3AE
100
AcDbEntity
  8
L1
100
AcDbCircle
 10
70.0
 20
50.00000000000006
 30
0.0
 40
2.0
100
AcDbArc
 50
99.58591239916019
 51
260.4140876008398
  0
LINE
  5
3AF
100
AcDbEntity
  8
L1
100
AcDbLine
 10
68.0
 20
52.14144032422109
 30
0.0
 11
68.0
 21
52.00000000000006
 31
0.0
  0
POLYLINE
  5
3B0
100
AcDbEntity
  8
L1
100
AcDb2dPolyline
 66
     1
 10
0.0
 20
0.0
 30
0.0
  0
VERTEX
  5
8E7
100
AcDbEntity
  8
L1
100
AcDbVertex
100
AcDb2dVertex
 10
69.66694738023227
 20
48.02792597693048
 30
0.0
  0
VERTEX
  5
8E8
100
AcDbEntity
  8
L1
100
AcDbVertex
100
AcDb2dVertex
 10
69.71542936986634
 20
48.02034862754448
 30
0.0
  0
VERTEX
  5
8E9
100
AcDbEntity
  8
L1
100
AcDbVertex
100
AcDb2dVertex
 10
69.76408266529574
 20
48.01396298846526
 30
0.0
  0
SEQEND
  5
8EA
100
AcDbEntity
  8
L1
  0
POLYLINE
  5
3B1
100
AcDbEntity
  8
L1
100
AcDb2dPolyline
 66
     1
 10
0.0
 20
0.0
 30
0.0
  0
VERTEX
  5
8EB
100
AcDbEntity
  8
L1
100
AcDbVertex
100
AcDb2dVertex
 10
67.98603701153467
 20
52.6916601796932
 30
0.0
  0
VERTEX
  5
8EC
100
AcDbEntity
  8
L1
100
AcDbVertex
100
AcDb2dVertex
 10
67.99660062999044
 20
52.65995545660053
 30
0.0
  0
SEQEND
  5
8ED
100
AcDbEntity
  8
L1
  0
POLYLINE
  5
3B2
100
AcDbEntity
  8
L1
100
AcDb2dPolyline
 66
     1
 10
0.0
 20
0.0
 30
0.0
  0
VERTEX
  5
8EE
100
AcDbEntity
  8
L1
100
AcDbVertex
100
AcDb2dVertex
 10
67.97207402306958
 20
52.73350456965579
 30
0.0
  0
VERTEX
  5
8EF
100
AcDbEntity
  8
L1
100
AcDbVertex
100
AcDb2dVertex
 10
67.98603701153467
 20
52.6916601796932
 30
0.0
  0
SEQEND
  5
8F0
100
AcDbEntity
  8
L1
  0
ARC
  5
3B3
100
AcDbEntity
  8
L1
100
AcDbCircle
 10
70.0
 20
50.00000000000006
 30
0.0
 40
3.403605588231097
100
AcDbArc
 50
126.5708941476383
 51
233.4291058523603
  0
POLYLINE
  5
3B4
100
AcDbEntity
  8
L1
100
AcDb2dPolyline
 66
     1
 10
0.0
 20
0.0
 30
0.0
  0
VERTEX
  5
8F1
100
AcDbEntity
  8
L1
100
AcDbVertex
100
AcDb2dVertex
 10
67.98603701153467
 20
47.30833982030685
 30
0.0
  0
VERTEX
  5
8F2
100
AcDbEntity
  8
L1
100
AcDbVertex
100
AcDb2dVertex
 10
67.97207402306947
 20
47.26649543034443
 30
0.0
  0
SEQEND
  5
8F3
100
AcDbEntity
  8
L1
  0
POLYLINE
  5
3B5
100
AcDbEntity
  8
L1
100
AcDb2dPolyline
 66
     1
 10
0.0
 20
0.0
 30
0.0
  0
VERTEX
  5
8F4
100
AcDbEntity
  8
L1
100
AcDbVertex
100
AcDb2dVertex
 10
67.99660062999044
 20
52.65995545660047
 30
0.0
  0
VERTEX
  5
8F5
100
AcDbEntity
  8
L1
100
AcDbVertex
100
AcDb2dVertex
 10
67.99713442957955
 20
52.65242946816414
 30
0.0
  0
VERTEX
  5
8F6
100
AcDbEntity
  8
L1
100
AcDbVertex
100
AcDb2dVertex
 10
67.99773023522653
 20
52.629287923969
 30
0.0
  0
VERTEX
  5
8F7
100
AcDbEntity
  8
L1
100
AcDbVertex
100
AcDb2dVertex
 10
67.9983327271982
 20
52.58733525937242
 30
0.0
  0
VERTEX
  5
8F8
100
AcDbEntity
  8
L1
100
AcDbVertex
100
AcDb2dVertex
 10
67.99884680160608
 20
52.53186610719524
 30
0.0
  0
VERTEX
  5
8F9
100
AcDbEntity
  8
L1
100
AcDbVertex
100
AcDb2dVertex
 10
67.99932637051461
 20
52.45420257652376
 30
0.0
  0
VERTEX
  5
8FA
100
AcDbEntity
  8
L1
100
AcDbVertex
100
AcDb2dVertex
 10
67.99967195326781
 20
52.36753175819211
 30
0.0
  0
VERTEX
  5
8FB
100
AcDbEntity
  8
L1
100
AcDbVertex
100
AcDb2dVertex
 10
67.99992044563328
 20
52.25615963202625
 30
0.0
  0
VERTEX
  5
8FC
100
AcDbEntity
  8
L1
100
AcDbVertex
100
AcDb2dVertex
 10
67.99999999999989
 20
52.14144032422109
 30
0.0
  0
SEQEND
  5
8FD
100
AcDbEntity
  8
L1
  0
LINE
  5
3B6
100
AcDbEntity
  8
L1
100
AcDbLine
 10
67.98603701153467
 20
47.30833982030685
 30
0.0
 11
67.98603701153467
 21
48.01396298846526
 31
0.0
  0
LINE
  5
3B7
100
AcDbEntity
  8
L1
100
AcDbLine
 10
67.98603701153467
 20
48.01396298846526
 30
0.0
 11
69.76408266529574
 21
48.01396298846526
 31
0.0
  0
CIRCLE
  5
3B8
100
AcDbEntity
  8
L1
100
AcDbCircle
 10
70.0
 20
50.00000000000006
 30
0.0
 40
1.6
  0
LINE
  5
3B9
100
AcDbEntity
  8
L1
100
AcDbLine
 10
72.0
 20
50.00000000000006
 30
0.0
 11
72.0
 21
48.00000000000006
 31
0.0
  0
POLYLINE
  5
3BA
100
AcDbEntity
  8
L1
100
AcDb2dPolyline
 66
     1
 10
0.0
 20
0.0
 30
0.0
  0
VERTEX
  5
8FE
100
AcDbEntity
  8
L1
100
AcDbVertex
100
AcDb2dVertex
 10
71.98603701153479
 20
49.7640826652958
 30
0.0
  0
VERTEX
  5
8FF
100
AcDbEntity
  8
L1
100
AcDbVertex
100
AcDb2dVertex
 10
71.9937902090694
 20
49.84251793048406
 30
0.0
  0
VERTEX
  5
900
100
AcDbEntity
  8
L1
100
AcDbVertex
100
AcDb2dVertex
 10
71.99844694927572
 20
49.92119777331442
 30
0.0
  0
VERTEX
  5
901
100
AcDbEntity
  8
L1
100
AcDbVertex
100
AcDb2dVertex
 10
72.0
 20
50.00000000000006
 30
0.0
  0
SEQEND
  5
902
100
AcDbEntity
  8
L1
  0
POLYLINE
  5
3BB
100
AcDbEntity
  8
L1
100
AcDb2dPolyline
 66
     1
 10
0.0
 20
0.0
 30
0.0
  0
VERTEX
  5
903
100
AcDbEntity
  8
L1
100
AcDbVertex
100
AcDb2dVertex
 10
72.65995545660041
 20
47.99660062999055
 30
0.0
  0
VERTEX
  5
904
100
AcDbEntity
  8
L1
100
AcDbVertex
100
AcDb2dVertex
 10
72.69166017969315
 20
47.98603701153484
 30
0.0
  0
SEQEND
  5
905
100
AcDbEntity
  8
L1
  0
LINE
  5
3BC
100
AcDbEntity
  8
L1
100
AcDbLine
 10
72.0
 20
48.00000000000006
 30
0.0
 11
72.14144032422109
 21
48.00000000000006
 31
0.0
  0
POLYLINE
  5
3BD
100
AcDbEntity
  8
L1
100
AcDb2dPolyline
 66
     1
 10
0.0
 20
0.0
 30
0.0
  0
VERTEX
  5
906
100
AcDbEntity
  8
L1
100
AcDbVertex
100
AcDb2dVertex
 10
72.14144032422109
 20
48.00000000000006
 30
0.0
  0
VERTEX
  5
907
100
AcDbEntity
  8
L1
100
AcDbVertex
100
AcDb2dVertex
 10
72.25615963202608
 20
47.99992044563333
 30
0.0
  0
VERTEX
  5
908
100
AcDbEntity
  8
L1
100
AcDbVertex
100
AcDb2dVertex
 10
72.36753175819206
 20
47.99967195326792
 30
0.0
  0
VERTEX
  5
909
100
AcDbEntity
  8
L1
100
AcDbVertex
100
AcDb2dVertex
 10
72.45420257652369
 20
47.99932637051478
 30
0.0
  0
VERTEX
  5
90A
100
AcDbEntity
  8
L1
100
AcDbVertex
100
AcDb2dVertex
 10
72.53186610719524
 20
47.99884680160618
 30
0.0
  0
VERTEX
  5
90B
100
AcDbEntity
  8
L1
100
AcDbVertex
100
AcDb2dVertex
 10
72.58733525937237
 20
47.99833272719837
 30
0.0
  0
VERTEX
  5
90C
100
AcDbEntity
  8
L1
100
AcDbVertex
100
AcDb2dVertex
 10
72.62928792396895
 20
47.99773023522658
 30
0.0
  0
VERTEX
  5
90D
100
AcDbEntity
  8
L1
100
AcDbVertex
100
AcDb2dVertex
 10
72.65242946816409
 20
47.99713442957972
 30
0.0
  0
VERTEX
  5
90E
100
AcDbEntity
  8
L1
100
AcDbVertex
100
AcDb2dVertex
 10
72.65995545660041
 20
47.99660062999061
 30
0.0
  0
SEQEND
  5
90F
100
AcDbEntity
  8
L1
  0
LINE
  5
3BE
100
AcDbEntity
  8
L1
100
AcDbLine
 10
82.05000000000007
 20
46.71165091966776
 30
0.0
 11
81.45000000000004
 21
46.71165091966776
 31
0.0
  0
LINE
  5
3E0
100
AcDbEntity
  8
L1
100
AcDbLine
 10
89.91105179952535
 20
129.6292041983023
 30
0.0
 11
90.28213605109248
 21
172.151247669621
 31
0.0
  0
LINE
  5
3E1
100
AcDbEntity
  8
L1
100
AcDbLine
 10
75.68924605283962
 20
129.1335674660516
 30
0.0
 11
75.715505825788
 21
172.134941119339
 31
0.0
  0
LINE
  5
3E2
100
AcDbEntity
  8
L1
100
AcDbLine
 10
89.20056813437122
 20
128.4309495054021
 30
0.0
 11
89.59681495443453
 21
173.8363377344445
 31
0.0
  0
LINE
  5
3E3
100
AcDbEntity
  8
L6
100
AcDbLine
 10
0.1421714825190179
 20
186.1335674660516
 30
0.0
 11
0.1421714825190179
 21
120.1335674660515
 31
0.0
  0
CIRCLE
  5
3E4
100
AcDbEntity
  8
L1
100
AcDbCircle
 10
0.0
 20
69.99999999999994
 30
0.0
 40
4.591897474510698
  0
CIRCLE
  5
3E5
100
AcDbEntity
  8
L1
100
AcDbCircle
 10
-10.0
 20
69.99999999999994
 30
0.0
 40
1.2581025254893
  0
ARC
  5
3E6
100
AcDbEntity
  8
L1
100
AcDbCircle
 10
0.0
 20
69.99999999999994
 30
0.0
 40
2.0
100
AcDbArc
 50
353.2256939277238
 51
186.7743060722474
  0
ARC
  5
3E7
100
AcDbEntity
  8
L1
100
AcDbCircle
 10
0.0
 20
69.99999999999994
 30
0.0
 40
3.403605588231097
100
AcDbArc
 50
216.5708941476372
 51
323.4291058523624
  0
POLYLINE
  5
3E8
100
AcDbEntity
  8
L1
100
AcDb2dPolyline
 66
     1
 10
0.0
 20
0.0
 30
0.0
  0
VERTEX
  5
952
100
AcDbEntity
  8
L1
100
AcDbVertex
100
AcDb2dVertex
 10
-2.733504569655679
 20
67.97207402306952
 30
0.0
  0
VERTEX
  5
953
100
AcDbEntity
  8
L1
100
AcDbVertex
100
AcDb2dVertex
 10
-2.701853931433959
 20
67.98263764152529
 30
0.0
  0
SEQEND
  5
954
100
AcDbEntity
  8
L1
  0
POLYLINE
  5
3E9
100
AcDbEntity
  8
L1
100
AcDb2dPolyline
 66
     1
 10
0.0
 20
0.0
 30
0.0
  0
VERTEX
  5
955
100
AcDbEntity
  8
L1
100
AcDbVertex
100
AcDb2dVertex
 10
-2.701853931434015
 20
67.98263764152529
 30
0.0
  0
VERTEX
  5
956
100
AcDbEntity
  8
L1
100
AcDbVertex
100
AcDb2dVertex
 10
-2.694327222759056
 20
67.98317231306493
 30
0.0
  0
VERTEX
  5
957
100
AcDbEntity
  8
L1
100
AcDbVertex
100
AcDb2dVertex
 10
-2.671185009004034
 20
67.98376902709839
 30
0.0
  0
VERTEX
  5
958
100
AcDbEntity
  8
L1
100
AcDbVertex
100
AcDb2dVertex
 10
-2.629295732131254
 20
67.98437165134129
 30
0.0
  0
VERTEX
  5
959
100
AcDbEntity
  8
L1
100
AcDbVertex
100
AcDb2dVertex
 10
-2.57389734930814
 20
67.98488604447317
 30
0.0
  0
VERTEX
  5
95A
100
AcDbEntity
  8
L1
100
AcDbVertex
100
AcDb2dVertex
 10
-2.49651397968978
 20
67.98536492213344
 30
0.0
  0
VERTEX
  5
95B
100
AcDbEntity
  8
L1
100
AcDbVertex
100
AcDb2dVertex
 10
-2.410131526208147
 20
67.9857101925931
 30
0.0
  0
VERTEX
  5
95C
100
AcDbEntity
  8
L1
100
AcDbVertex
100
AcDb2dVertex
 10
-2.29955327505695
 20
67.98595766314389
 30
0.0
  0
VERTEX
  5
95D
100
AcDbEntity
  8
L1
100
AcDbVertex
100
AcDb2dVertex
 10
-2.185636459890133
 20
67.98603701153473
 30
0.0
  0
SEQEND
  5
95E
100
AcDbEntity
  8
L1
  0
LINE
  5
3EA
100
AcDbEntity
  8
L1
100
AcDbLine
 10
-2.185636459890133
 20
67.98603701153473
 30
0.0
 11
-1.986037011534847
 21
67.98603701153473
 31
0.0
  0
LINE
  5
3EB
100
AcDbEntity
  8
L1
100
AcDbLine
 10
-1.986037011534847
 20
67.98603701153473
 30
0.0
 11
-1.986037011534847
 21
69.76408266529614
 31
0.0
  0
POLYLINE
  5
3EC
100
AcDbEntity
  8
L1
100
AcDb2dPolyline
 66
     1
 10
0.0
 20
0.0
 30
0.0
  0
VERTEX
  5
95F
100
AcDbEntity
  8
L1
100
AcDbVertex
100
AcDb2dVertex
 10
-1.986037011534847
 20
69.76408266529626
 30
0.0
  0
VERTEX
  5
960
100
AcDbEntity
  8
L1
100
AcDbVertex
100
AcDb2dVertex
 10
-1.979651372455691
 20
69.71542936986662
 30
0.0
  0
VERTEX
  5
961
100
AcDbEntity
  8
L1
100
AcDbVertex
100
AcDb2dVertex
 10
-1.972074023069637
 20
69.66694738023256
 30
0.0
  0
SEQEND
  5
962
100
AcDbEntity
  8
L1
  0
POLYLINE
  5
3ED
100
AcDbEntity
  8
L1
100
AcDb2dPolyline
 66
     1
 10
0.0
 20
0.0
 30
0.0
  0
VERTEX
  5
963
100
AcDbEntity
  8
L1
100
AcDbVertex
100
AcDb2dVertex
 10
2.185636459890133
 20
67.98603701153473
 30
0.0
  0
VERTEX
  5
964
100
AcDbEntity
  8
L1
100
AcDbVertex
100
AcDb2dVertex
 10
2.29955327505695
 20
67.98595766314389
 30
0.0
  0
VERTEX
  5
965
100
AcDbEntity
  8
L1
100
AcDbVertex
100
AcDb2dVertex
 10
2.410131526208147
 20
67.98571019259298
 30
0.0
  0
VERTEX
  5
966
100
AcDbEntity
  8
L1
100
AcDbVertex
100
AcDb2dVertex
 10
2.49651397968978
 20
67.98536492213344
 30
0.0
  0
VERTEX
  5
967
100
AcDbEntity
  8
L1
100
AcDbVertex
100
AcDb2dVertex
 10
2.57389734930814
 20
67.98488604447317
 30
0.0
  0
VERTEX
  5
968
100
AcDbEntity
  8
L1
100
AcDbVertex
100
AcDb2dVertex
 10
2.629295732131254
 20
67.98437165134129
 30
0.0
  0
VERTEX
  5
969
100
AcDbEntity
  8
L1
100
AcDbVertex
100
AcDb2dVertex
 10
2.671185009004034
 20
67.98376902709839
 30
0.0
  0
VERTEX
  5
96A
100
AcDbEntity
  8
L1
100
AcDbVertex
100
AcDb2dVertex
 10
2.694327222758943
 20
67.98317231306493
 30
0.0
  0
VERTEX
  5
96B
100
AcDbEntity
  8
L1
100
AcDbVertex
100
AcDb2dVertex
 10
2.701853931434015
 20
67.98263764152529
 30
0.0
  0
SEQEND
  5
96C
100
AcDbEntity
  8
L1
  0
POLYLINE
  5
3EE
100
AcDbEntity
  8
L1
100
AcDb2dPolyline
 66
     1
 10
0.0
 20
0.0
 30
0.0
  0
VERTEX
  5
96D
100
AcDbEntity
  8
L1
100
AcDbVertex
100
AcDb2dVertex
 10
2.701853931433959
 20
67.98263764152529
 30
0.0
  0
VERTEX
  5
96E
100
AcDbEntity
  8
L1
100
AcDbVertex
100
AcDb2dVertex
 10
2.733504569655679
 20
67.97207402306952
 30
0.0
  0
SEQEND
  5
96F
100
AcDbEntity
  8
L1
  0
LINE
  5
3EF
100
AcDbEntity
  8
L1
100
AcDbLine
 10
1.986037011534733
 20
67.98603701153473
 30
0.0
 11
2.185636459890133
 21
67.98603701153473
 31
0.0
  0
LINE
  5
3F0
100
AcDbEntity
  8
L1
100
AcDbLine
 10
1.986037011534733
 20
69.76408266529523
 30
0.0
 11
1.986037011534733
 21
67.98603701153473
 31
0.0
  0
POLYLINE
  5
3F1
100
AcDbEntity
  8
L1
100
AcDb2dPolyline
 66
     1
 10
0.0
 20
0.0
 30
0.0
  0
VERTEX
  5
970
100
AcDbEntity
  8
L1
100
AcDbVertex
100
AcDb2dVertex
 10
1.972074023069524
 20
69.66694738023187
 30
0.0
  0
VERTEX
  5
971
100
AcDbEntity
  8
L1
100
AcDbVertex
100
AcDb2dVertex
 10
1.979651372455521
 20
69.71542936986594
 30
0.0
  0
VERTEX
  5
972
100
AcDbEntity
  8
L1
100
AcDbVertex
100
AcDb2dVertex
 10
1.986037011534733
 20
69.76408266529523
 30
0.0
  0
SEQEND
  5
973
100
AcDbEntity
  8
L1
  0
CIRCLE
  5
3F2
100
AcDbEntity
  8
L1
100
AcDbCircle
 10
0.0
 20
69.99999999999994
 30
0.0
 40
1.6
  0
CIRCLE
  5
3F3
100
AcDbEntity
  8
L1
100
AcDbCircle
 10
10.0
 20
69.99999999999994
 30
0.0
 40
1.2581025254893
  0
CIRCLE
  5
3F4
100
AcDbEntity
  8
L1
100
AcDbCircle
 10
50.0
 20
70.00000000000006
 30
0.0
 40
4.591897474510698
  0
ARC
  5
3F5
100
AcDbEntity
  8
L1
100
AcDbCircle
 10
50.0
 20
69.99999999999994
 30
0.0
 40
3.361708113720398
100
AcDbArc
 50
126.8046934460395
 51
216.8046934460405
  0
CIRCLE
  5
3F6
100
AcDbEntity
  8
L1
100
AcDbCircle
 10
50.0
 20
69.99999999999994
 30
0.0
 40
2.0
  0
ARC
  5
3F7
100
AcDbEntity
  8
L1
100
AcDbCircle
 10
50.0
 20
69.99999999999994
 30
0.0
 40
3.403605588231097
100
AcDbArc
 50
216.5708941476372
 51
323.4291058523627
  0
POLYLINE
  5
3F8
100
AcDbEntity
  8
L1
100
AcDb2dPolyline
 66
     1
 10
0.0
 20
0.0
 30
0.0
  0
VERTEX
  5
974
100
AcDbEntity
  8
L1
100
AcDbVertex
100
AcDb2dVertex
 10
47.26649543034421
 20
67.97207402306952
 30
0.0
  0
VERTEX
  5
975
100
AcDbEntity
  8
L1
100
AcDbVertex
100
AcDb2dVertex
 10
47.30833982030685
 20
67.98603701153473
 30
0.0
  0
SEQEND
  5
976
100
AcDbEntity
  8
L1
  0
ARC
  5
3F9
100
AcDbEntity
  8
L1
100
AcDbCircle
 10
50.0
 20
69.99999999999994
 30
0.0
 40
2.0
100
AcDbArc
 50
359.9999999999992
 51
90.0
  0
LINE
  5
3FA
100
AcDbEntity
  8
L1
100
AcDbLine
 10
52.0
 20
69.99999999999994
 30
0.0
 11
52.0
 21
67.99999999999994
 31
0.0
  0
LINE
  5
3FB
100
AcDbEntity
  8
L1
100
AcDbLine
 10
52.0
 20
67.99999999999994
 30
0.0
 11
52.14144032422109
 21
67.99999999999994
 31
0.0
  0
POLYLINE
  5
3FC
100
AcDbEntity
  8
L1
100
AcDb2dPolyline
 66
     1
 10
0.0
 20
0.0
 30
0.0
  0
VERTEX
  5
977
100
AcDbEntity
  8
L1
100
AcDbVertex
100
AcDb2dVertex
 10
52.14144032422109
 20
67.99999999999994
 30
0.0
  0
VERTEX
  5
978
100
AcDbEntity
  8
L1
100
AcDbVertex
100
AcDb2dVertex
 10
52.25615963202608
 20
67.99992044563333
 30
0.0
  0
VERTEX
  5
979
100
AcDbEntity
  8
L1
100
AcDbVertex
100
AcDb2dVertex
 10
52.36753175819206
 20
67.99967195326786
 30
0.0
  0
VERTEX
  5
97A
100
AcDbEntity
  8
L1
100
AcDbVertex
100
AcDb2dVertex
 10
52.45420257652369
 20
67.99932637051466
 30
0.0
  0
VERTEX
  5
97B
100
AcDbEntity
  8
L1
100
AcDbVertex
100
AcDb2dVertex
 10
52.53186610719524
 20
67.99884680160613
 30
0.0
  0
VERTEX
  5
97C
100
AcDbEntity
  8
L1
100
AcDbVertex
100
AcDb2dVertex
 10
52.58733525937237
 20
67.99833272719826
 30
0.0
  0
VERTEX
  5
97D
100
AcDbEntity
  8
L1
100
AcDbVertex
100
AcDb2dVertex
 10
52.62928792396895
 20
67.99773023522647
 30
0.0
  0
VERTEX
  5
97E
100
AcDbEntity
  8
L1
100
AcDbVertex
100
AcDb2dVertex
 10
52.65242946816409
 20
67.9971344295796
 30
0.0
  0
VERTEX
  5
97F
100
AcDbEntity
  8
L1
100
AcDbVertex
100
AcDb2dVertex
 10
52.65995545660041
 20
67.99660062999049
 30
0.0
  0
SEQEND
  5
980
100
AcDbEntity
  8
L1
  0
POLYLINE
  5
3FD
100
AcDbEntity
  8
L1
100
AcDb2dPolyline
 66
     1
 10
0.0
 20
0.0
 30
0.0
  0
VERTEX
  5
981
100
AcDbEntity
  8
L1
100
AcDbVertex
100
AcDb2dVertex
 10
52.65995545660041
 20
67.99660062999049
 30
0.0
  0
VERTEX
  5
982
100
AcDbEntity
  8
L1
100
AcDbVertex
100
AcDb2dVertex
 10
52.69166017969315
 20
67.98603701153473
 30
0.0
  0
SEQEND
  5
983
100
AcDbEntity
  8
L1
  0
POLYLINE
  5
3FE
100
AcDbEntity
  8
L1
100
AcDb2dPolyline
 66
     1
 10
0.0
 20
0.0
 30
0.0
  0
VERTEX
  5
984
100
AcDbEntity
  8
L1
100
AcDbVertex
100
AcDb2dVertex
 10
52.69166017969315
 20
67.98603701153473
 30
0.0
  0
VERTEX
  5
985
100
AcDbEntity
  8
L1
100
AcDbVertex
100
AcDb2dVertex
 10
52.73350456965568
 20
67.97207402306952
 30
0.0
  0
SEQEND
  5
986
100
AcDbEntity
  8
L1
  0
LINE
  5
3FF
100
AcDbEntity
  8
L1
100
AcDbLine
 10
48.0
 20
72.14144032422104
 30
0.0
 11
48.0
 21
71.99999999999994
 31
0.0
  0
POLYLINE
  5
400
100
AcDbEntity
  8
L1
100
AcDb2dPolyline
 66
     1
 10
0.0
 20
0.0
 30
0.0
  0
VERTEX
  5
987
100
AcDbEntity
  8
L1
100
AcDbVertex
100
AcDb2dVertex
 10
47.98603701153479
 20
72.6916601796932
 30
0.0
  0
VERTEX
  5
988
100
AcDbEntity
  8
L1
100
AcDbVertex
100
AcDb2dVertex
 10
47.99660062999055
 20
72.65995545660058
 30
0.0
  0
SEQEND
  5
989
100
AcDbEntity
  8
L1
  0
POLYLINE
  5
401
100
AcDbEntity
  8
L1
100
AcDb2dPolyline
 66
     1
 10
0.0
 20
0.0
 30
0.0
  0
VERTEX
  5
98A
100
AcDbEntity
  8
L1
100
AcDbVertex
100
AcDb2dVertex
 10
47.99660062999044
 20
72.65995545660047
 30
0.0
  0
VERTEX
  5
98B
100
AcDbEntity
  8
L1
100
AcDbVertex
100
AcDb2dVertex
 10
47.99713442957965
 20
72.65242946816403
 30
0.0
  0
VERTEX
  5
98C
100
AcDbEntity
  8
L1
100
AcDbVertex
100
AcDb2dVertex
 10
47.99773023522653
 20
72.62928792396889
 30
0.0
  0
VERTEX
  5
98D
100
AcDbEntity
  8
L1
100
AcDbVertex
100
AcDb2dVertex
 10
47.9983327271982
 20
72.58733525937242
 30
0.0
  0
VERTEX
  5
98E
100
AcDbEntity
  8
L1
100
AcDbVertex
100
AcDb2dVertex
 10
47.99884680160618
 20
72.53186610719518
 30
0.0
  0
VERTEX
  5
98F
100
AcDbEntity
  8
L1
100
AcDbVertex
100
AcDb2dVertex
 10
47.99932637051472
 20
72.45420257652364
 30
0.0
  0
VERTEX
  5
990
100
AcDbEntity
  8
L1
100
AcDbVertex
100
AcDb2dVertex
 10
47.99967195326792
 20
72.367531758192
 30
0.0
  0
VERTEX
  5
991
100
AcDbEntity
  8
L1
100
AcDbVertex
100
AcDb2dVertex
 10
47.99992044563327
 20
72.25615963202614
 30
0.0
  0
VERTEX
  5
992
100
AcDbEntity
  8
L1
100
AcDbVertex
100
AcDb2dVertex
 10
48.0
 20
72.14144032422104
 30
0.0
  0
SEQEND
  5
993
100
AcDbEntity
  8
L1
  0
LINE
  5
402
100
AcDbEntity
  8
L1
100
AcDbLine
 10
48.01396298846521
 20
69.76408266529569
 30
0.0
 11
48.01396298846521
 21
67.98603701153473
 31
0.0
  0
LINE
  5
403
100
AcDbEntity
  8
L1
100
AcDbLine
 10
48.01396298846521
 20
67.98603701153473
 30
0.0
 11
47.30833982030685
 21
67.98603701153473
 31
0.0
  0
LINE
  5
404
100
AcDbEntity
  8
L1
100
AcDbLine
 10
48.0
 20
72.00000000000006
 30
0.0
 11
50.0
 21
72.00000000000006
 31
0.0
  0
CIRCLE
  5
405
100
AcDbEntity
  8
L1
100
AcDbCircle
 10
50.0
 20
69.99999999999994
 30
0.0
 40
1.6
  0
LINE
  5
406
100
AcDbEntity
  8
L6
100
AcDbLine
 10
74.72106967228331
 20
81.74999999999995
 30
0.0
 11
88.7224311167821
 21
81.74999999999995
 31
0.0
  0
ARC
  5
407
100
AcDbEntity
  8
L1
100
AcDbCircle
 10
85.25000000000011
 20
72.14999999999992
 30
0.0
 40
4.022689858140807
100
AcDbArc
 50
359.9999999999992
 51
90.0
  0
ARC
  5
408
100
AcDbEntity
  8
L1
100
AcDbCircle
 10
86.55000000000006
 20
86.55000000000001
 30
0.0
 40
2.900000000000025
100
AcDbArc
 50
0.0
 51
90.0
  0
POLYLINE
  5
409
100
AcDbEntity
  8
L1
100
AcDb2dPolyline
 66
     1
 10
0.0
 20
0.0
 30
0.0
  0
VERTEX
  5
994
100
AcDbEntity
  8
L1
100
AcDbVertex
100
AcDb2dVertex
 10
86.55000000000006
 20
90.04480555661013
 30
0.0
  0
VERTEX
  5
995
100
AcDbEntity
  8
L1
100
AcDbVertex
100
AcDb2dVertex
 10
87.22163427376257
 20
89.9787808133297
 30
0.0
  0
VERTEX
  5
996
100
AcDbEntity
  8
L1
100
AcDbVertex
100
AcDb2dVertex
 10
87.88663729905227
 20
89.77745407436243
 30
0.0
  0
VERTEX
  5
997
100
AcDbEntity
  8
L1
100
AcDbVertex
100
AcDb2dVertex
 10
88.4987623608065
 20
89.44872582398142
 30
0.0
  0
VERTEX
  5
998
100
AcDbEntity
  8
L1
100
AcDbVertex
100
AcDb2dVertex
 10
89.01975597554372
 20
89.01975597554367
 30
0.0
  0
VERTEX
  5
999
100
AcDbEntity
  8
L1
100
AcDbVertex
100
AcDb2dVertex
 10
89.44872582398147
 20
88.49876236080632
 30
0.0
  0
VERTEX
  5
99A
100
AcDbEntity
  8
L1
100
AcDbVertex
100
AcDb2dVertex
 10
89.77745407436248
 20
87.88663729905209
 30
0.0
  0
VERTEX
  5
99B
100
AcDbEntity
  8
L1
100
AcDbVertex
100
AcDb2dVertex
 10
89.97878081332975
 20
87.22163427376228
 30
0.0
  0
VERTEX
  5
99C
100
AcDbEntity
  8
L1
100
AcDbVertex
100
AcDb2dVertex
 10
90.04480555661018
 20
86.55000000000001
 30
0.0
  0
SEQEND
  5
99D
100
AcDbEntity
  8
L1
  0
ARC
  5
40A
100
AcDbEntity
  8
L1
100
AcDbCircle
 10
86.55000000000006
 20
86.55000000000001
 30
0.0
 40
1.9
100
AcDbArc
 50
359.9999999999991
 51
90.0
  0
LINE
  5
40B
100
AcDbEntity
  8
L1
100
AcDbLine
 10
76.05635117798806
 20
74.71309323779616
 30
0.0
 11
74.96895704134806
 21
73.80066121879718
 31
0.0
  0
LINE
  5
40C
100
AcDbEntity
  8
L1
100
AcDbLine
 10
74.56400414403868
 20
73.81834184412724
 30
0.0
 11
73.8183418441273
 21
74.56400414403862
 31
0.0
  0
LINE
  5
40D
100
AcDbEntity
  8
L1
100
AcDbLine
 10
74.54107276130168
 20
73.29330375433352
 30
0.0
 11
73.29330375433352
 21
74.54107276130173
 31
0.0
  0
ARC
  5
40E
100
AcDbEntity
  8
L1
100
AcDbCircle
 10
81.75
 20
81.74999999999995
 30
0.0
 40
8.22278885817408
100
AcDbArc
 50
180.0
 51
270.0
  0
ARC
  5
40F
100
AcDbEntity
  8
L1
100
AcDbCircle
 10
81.75
 20
81.74999999999995
 30
0.0
 40
9.201435918374905
100
AcDbArc
 50
234.7447416333012
 51
270.0
  0
ARC
  5
410
100
AcDbEntity
  8
L1
100
AcDbCircle
 10
74.75320479565766
 20
73.50543578868948
 30
0.0
 40
0.3
100
AcDbArc
 50
225.0
 51
309.9999999999994
  0
POLYLINE
  5
411
100
AcDbEntity
  8
L1
100
AcDb2dPolyline
 66
     1
 10
0.0
 20
0.0
 30
0.0
  0
VERTEX
  5
99E
100
AcDbEntity
  8
L1
100
AcDbVertex
100
AcDb2dVertex
 10
74.96895704134806
 20
73.80066121879718
 30
0.0
  0
VERTEX
  5
99F
100
AcDbEntity
  8
L1
100
AcDbVertex
100
AcDb2dVertex
 10
74.76304271985077
 20
73.73076129788938
 30
0.0
  0
VERTEX
  5
9A0
100
AcDbEntity
  8
L1
100
AcDbVertex
100
AcDb2dVertex
 10
74.56400414403879
 20
73.81834184412724
 30
0.0
  0
SEQEND
  5
9A1
100
AcDbEntity
  8
L1
  0
LINE
  5
412
100
AcDbEntity
  8
L1
100
AcDbLine
 10
76.07275752463113
 20
74.22104981009039
 30
0.0
 11
74.9460410785636
 21
73.27562245575379
 31
0.0
  0
POLYLINE
  5
413
100
AcDbEntity
  8
L1
100
AcDb2dPolyline
 66
     1
 10
0.0
 20
0.0
 30
0.0
  0
VERTEX
  5
9A2
100
AcDbEntity
  8
L1
100
AcDbVertex
100
AcDb2dVertex
 10
76.43874591195469
 20
74.23621247491104
 30
0.0
  0
VERTEX
  5
9A3
100
AcDbEntity
  8
L1
100
AcDbVertex
100
AcDb2dVertex
 10
76.36779484271517
 20
74.27328562878568
 30
0.0
  0
VERTEX
  5
9A4
100
AcDbEntity
  8
L1
100
AcDbVertex
100
AcDb2dVertex
 10
76.25239280511118
 20
74.29094432068001
 30
0.0
  0
VERTEX
  5
9A5
100
AcDbEntity
  8
L1
100
AcDbVertex
100
AcDb2dVertex
 10
76.13903666380281
 20
74.26323508532624
 30
0.0
  0
VERTEX
  5
9A6
100
AcDbEntity
  8
L1
100
AcDbVertex
100
AcDb2dVertex
 10
76.07275752463113
 20
74.22104981009039
 30
0.0
  0
SEQEND
  5
9A7
100
AcDbEntity
  8
L1
  0
LINE
  5
414
100
AcDbEntity
  8
L1
100
AcDbLine
 10
82.65000000000009
 20
66.71165091966776
 30
0.0
 11
82.05000000000007
 21
66.71165091966776
 31
0.0
  0
LINE
  5
415
100
AcDbEntity
  8
L1
100
AcDbLine
 10
81.75000000000011
 20
69.74999999999994
 30
0.0
 11
82.65000000000009
 21
66.71165091966776
 31
0.0
  0
LINE
  5
416
100
AcDbEntity
  8
L1
100
AcDbLine
 10
80.85000000000002
 20
66.71165091966776
 30
0.0
 11
81.75
 21
69.74999999999983
 31
0.0
  0
LINE
  5
417
100
AcDbEntity
  8
L1
100
AcDbLine
 10
81.45000000000004
 20
66.71165091966776
 30
0.0
 11
80.85000000000002
 21
66.71165091966776
 31
0.0
  0
LINE
  5
418
100
AcDbEntity
  8
L1
100
AcDbLine
 10
81.75
 20
72.54856408162499
 30
0.0
 11
84.62061525853323
 21
72.54856408162499
 31
0.0
  0
POLYLINE
  5
419
100
AcDbEntity
  8
L1
100
AcDb2dPolyline
 66
     1
 10
0.0
 20
0.0
 30
0.0
  0
VERTEX
  5
9A8
100
AcDbEntity
  8
L1
100
AcDbVertex
100
AcDb2dVertex
 10
84.02063810469462
 20
71.94858692778649
 30
0.0
  0
VERTEX
  5
9A9
100
AcDbEntity
  8
L1
100
AcDbVertex
100
AcDb2dVertex
 10
84.19636457304761
 20
72.37283761327223
 30
0.0
  0
VERTEX
  5
9AA
100
AcDbEntity
  8
L1
100
AcDbVertex
100
AcDb2dVertex
 10
84.62061525853323
 20
72.5485640816251
 30
0.0
  0
SEQEND
  5
9AB
100
AcDbEntity
  8
L1
  0
LINE
  5
41A
100
AcDbEntity
  8
L1
100
AcDbLine
 10
85.25000000000011
 20
73.52721114182583
 30
0.0
 11
81.75
 21
73.52721114182583
 31
0.0
  0
ARC
  5
41B
100
AcDbEntity
  8
L1
100
AcDbCircle
 10
85.25000000000011
 20
72.14999999999992
 30
0.0
 40
1.377211141825884
100
AcDbArc
 50
0.0
 51
90.0
  0
LINE
  5
41C
100
AcDbEntity
  8
L6
100
AcDbLine
 10
81.75000000000011
 20
88.03088265814375
 30
0.0
 11
81.75000000000011
 21
75.45130511106169
 31
0.0
  0
CIRCLE
  5
41D
100
AcDbEntity
  8
L1
100
AcDbCircle
 10
81.75000000000011
 20
81.74999999999995
 30
0.0
 40
2.25
  0
LINE
  5
41E
100
AcDbEntity
  8
L1
100
AcDbLine
 10
76.17268985814075
 20
85.24999999999995
 30
0.0
 11
76.17268985814075
 21
81.74999999999995
 31
0.0
  0
LINE
  5
41F
100
AcDbEntity
  8
L1
100
AcDbLine
 10
72.54856408162516
 20
84.62061525853318
 30
0.0
 11
72.54856408162516
 21
81.74999999999995
 31
0.0
  0
LINE
  5
420
100
AcDbEntity
  8
L1
100
AcDbLine
 10
73.527211141826
 20
81.74999999999995
 30
0.0
 11
73.527211141826
 21
85.24999999999995
 31
0.0
  0
LINE
  5
421
100
AcDbEntity
  8
L1
100
AcDbLine
 10
76.96879743005343
 20
84.65832607347085
 30
0.0
 11
76.6880146266293
 21
82.37153365136618
 31
0.0
  0
CIRCLE
  5
422
100
AcDbEntity
  8
L1
100
AcDbCircle
 10
81.75
 20
81.74999999999995
 30
0.0
 40
4.0
  0
LINE
  5
423
100
AcDbEntity
  8
L1
100
AcDbLine
 10
88.45000000000004
 20
86.55000000000001
 30
0.0
 11
88.45000000000004
 21
76.41188856451259
 31
0.0
  0
ARC
  5
424
100
AcDbEntity
  8
L1
100
AcDbCircle
 10
81.75
 20
81.74999999999995
 30
0.0
 40
5.099999999999988
100
AcDbArc
 50
173.0000000000001
 51
277.0000000000004
  0
ARC
  5
425
100
AcDbEntity
  8
L1
100
AcDbCircle
 10
81.75
 20
81.74999999999995
 30
0.0
 40
5.577310141859214
100
AcDbArc
 50
180.0
 51
270.0
  0
ARC
  5
426
100
AcDbEntity
  8
L1
100
AcDbCircle
 10
73.50543578868951
 20
74.7532047956577
 30
0.0
 40
0.3
100
AcDbArc
 50
140.0000000000005
 51
225.0
  0
LINE
  5
427
100
AcDbEntity
  8
L1
100
AcDbLine
 10
73.80066121879725
 20
74.968957041348
 30
0.0
 11
74.71309323779621
 21
76.05635117798801
 31
0.0
  0
POLYLINE
  5
428
100
AcDbEntity
  8
L1
100
AcDb2dPolyline
 66
     1
 10
0.0
 20
0.0
 30
0.0
  0
VERTEX
  5
9AC
100
AcDbEntity
  8
L1
100
AcDbVertex
100
AcDb2dVertex
 10
76.05635117798806
 20
74.71309323779616
 30
0.0
  0
VERTEX
  5
9AD
100
AcDbEntity
  8
L1
100
AcDbVertex
100
AcDb2dVertex
 10
76.12889388409474
 20
74.75810605001226
 30
0.0
  0
VERTEX
  5
9AE
100
AcDbEntity
  8
L1
100
AcDbVertex
100
AcDb2dVertex
 10
76.24290122230957
 20
74.78321240365898
 30
0.0
  0
VERTEX
  5
9AF
100
AcDbEntity
  8
L1
100
AcDbVertex
100
AcDb2dVertex
 10
76.36019063742458
 20
74.76198207637043
 30
0.0
  0
VERTEX
  5
9B0
100
AcDbEntity
  8
L1
100
AcDbVertex
100
AcDb2dVertex
 10
76.4302413315595
 20
74.72247474059412
 30
0.0
  0
SEQEND
  5
9B1
100
AcDbEntity
  8
L1
  0
POLYLINE
  5
429
100
AcDbEntity
  8
L1
100
AcDb2dPolyline
 66
     1
 10
0.0
 20
0.0
 30
0.0
  0
VERTEX
  5
9B2
100
AcDbEntity
  8
L1
100
AcDbVertex
100
AcDb2dVertex
 10
73.8183418441273
 20
74.56400414403862
 30
0.0
  0
VERTEX
  5
9B3
100
AcDbEntity
  8
L1
100
AcDbVertex
100
AcDb2dVertex
 10
73.73076129788945
 20
74.76304271985071
 30
0.0
  0
VERTEX
  5
9B4
100
AcDbEntity
  8
L1
100
AcDbVertex
100
AcDb2dVertex
 10
73.80066121879725
 20
74.968957041348
 30
0.0
  0
SEQEND
  5
9B5
100
AcDbEntity
  8
L1
  0
ARC
  5
42A
100
AcDbEntity
  8
L1
100
AcDbCircle
 10
81.75
 20
81.74999999999995
 30
0.0
 40
8.813962988465215
100
AcDbArc
 50
217.1253174351023
 51
232.8746825648969
  0
LINE
  5
42B
100
AcDbEntity
  8
L1
100
AcDbLine
 10
73.27562245575382
 20
74.94604107856367
 30
0.0
 11
74.22104981009034
 21
76.07275752463107
 31
0.0
  0
ARC
  5
42C
100
AcDbEntity
  8
L1
100
AcDbCircle
 10
81.75
 20
81.74999999999995
 30
0.0
 40
9.201435918374905
100
AcDbArc
 50
180.0
 51
215.2552583666985
  0
POLYLINE
  5
42D
100
AcDbEntity
  8
L1
100
AcDb2dPolyline
 66
     1
 10
0.0
 20
0.0
 30
0.0
  0
VERTEX
  5
9B6
100
AcDbEntity
  8
L1
100
AcDbVertex
100
AcDb2dVertex
 10
74.72247474059418
 20
76.43024133155956
 30
0.0
  0
VERTEX
  5
9B7
100
AcDbEntity
  8
L1
100
AcDbVertex
100
AcDb2dVertex
 10
74.76289542924883
 20
76.35786967789323
 30
0.0
  0
VERTEX
  5
9B8
100
AcDbEntity
  8
L1
100
AcDbVertex
100
AcDb2dVertex
 10
74.78314983492646
 20
76.24040787129053
 30
0.0
  0
VERTEX
  5
9B9
100
AcDbEntity
  8
L1
100
AcDbVertex
100
AcDb2dVertex
 10
74.75709773614017
 20
76.12661603012321
 30
0.0
  0
VERTEX
  5
9BA
100
AcDbEntity
  8
L1
100
AcDbVertex
100
AcDb2dVertex
 10
74.71309323779621
 20
76.05635117798801
 30
0.0
  0
SEQEND
  5
9BB
100
AcDbEntity
  8
L1
  0
POLYLINE
  5
42E
100
AcDbEntity
  8
L1
100
AcDb2dPolyline
 66
     1
 10
0.0
 20
0.0
 30
0.0
  0
VERTEX
  5
9BC
100
AcDbEntity
  8
L1
100
AcDbVertex
100
AcDb2dVertex
 10
74.22104981009034
 20
76.07275752463107
 30
0.0
  0
VERTEX
  5
9BD
100
AcDbEntity
  8
L1
100
AcDbVertex
100
AcDb2dVertex
 10
74.26235207416823
 20
76.13715591950887
 30
0.0
  0
VERTEX
  5
9BE
100
AcDbEntity
  8
L1
100
AcDbVertex
100
AcDb2dVertex
 10
74.29082520838654
 20
76.24991949609437
 30
0.0
  0
VERTEX
  5
9BF
100
AcDbEntity
  8
L1
100
AcDbVertex
100
AcDb2dVertex
 10
74.27341271979924
 20
76.36744346327947
 30
0.0
  0
VERTEX
  5
9C0
100
AcDbEntity
  8
L1
100
AcDbVertex
100
AcDb2dVertex
 10
74.2362124749111
 20
76.43874591195464
 30
0.0
  0
SEQEND
  5
9C1
100
AcDbEntity
  8
L1
  0
LINE
  5
42F
100
AcDbEntity
  8
L1
100
AcDbLine
 10
81.75
 20
76.1726898581407
 30
0.0
 11
85.25000000000011
 21
76.1726898581407
 31
0.0
  0
LINE
  5
430
100
AcDbEntity
  8
L1
100
AcDbLine
 10
82.37153365136624
 20
76.68801462662924
 30
0.0
 11
84.6583260734709
 21
76.96879743005348
 31
0.0
  0
ARC
  5
431
100
AcDbEntity
  8
L1
100
AcDbCircle
 10
85.25000000000011
 20
72.14999999999992
 30
0.0
 40
4.854985757674742
100
AcDbArc
 50
55.76658496832066
 51
96.99999999999983
  0
POLYLINE
  5
432
100
AcDbEntity
  8
L1
100
AcDb2dPolyline
 66
     1
 10
0.0
 20
0.0
 30
0.0
  0
VERTEX
  5
9C2
100
AcDbEntity
  8
L1
100
AcDbVertex
100
AcDb2dVertex
 10
88.45000000000004
 20
76.41188856451259
 30
0.0
  0
VERTEX
  5
9C3
100
AcDbEntity
  8
L1
100
AcDbVertex
100
AcDb2dVertex
 10
88.43689249691795
 20
76.32417214408047
 30
0.0
  0
VERTEX
  5
9C4
100
AcDbEntity
  8
L1
100
AcDbVertex
100
AcDb2dVertex
 10
88.38009384610904
 20
76.21937414137068
 30
0.0
  0
VERTEX
  5
9C5
100
AcDbEntity
  8
L1
100
AcDbVertex
100
AcDb2dVertex
 10
88.28920163680072
 20
76.14612907010081
 30
0.0
  0
VERTEX
  5
9C6
100
AcDbEntity
  8
L1
100
AcDbVertex
100
AcDb2dVertex
 10
88.17724113350777
 20
76.11312749583754
 30
0.0
  0
VERTEX
  5
9C7
100
AcDbEntity
  8
L1
100
AcDbVertex
100
AcDb2dVertex
 10
88.06115153439554
 20
76.12535961046984
 30
0.0
  0
VERTEX
  5
9C8
100
AcDbEntity
  8
L1
100
AcDbVertex
100
AcDb2dVertex
 10
87.9812481580493
 20
76.16387222098268
 30
0.0
  0
SEQEND
  5
9C9
100
AcDbEntity
  8
L1
  0
LINE
  5
433
100
AcDbEntity
  8
L1
100
AcDbLine
 10
76.41188856451265
 20
88.45000000000011
 30
0.0
 11
86.55000000000006
 21
88.45000000000011
 31
0.0
  0
POLYLINE
  5
434
100
AcDbEntity
  8
L1
100
AcDb2dPolyline
 66
     1
 10
0.0
 20
0.0
 30
0.0
  0
VERTEX
  5
9CA
100
AcDbEntity
  8
L1
100
AcDbVertex
100
AcDb2dVertex
 10
72.54856408162516
 20
84.62061525853318
 30
0.0
  0
VERTEX
  5
9CB
100
AcDbEntity
  8
L1
100
AcDbVertex
100
AcDb2dVertex
 10
72.37283761327228
 20
84.19636457304756
 30
0.0
  0
VERTEX
  5
9CC
100
AcDbEntity
  8
L1
100
AcDbVertex
100
AcDb2dVertex
 10
71.94858692778666
 20
84.02063810469469
 30
0.0
  0
SEQEND
  5
9CD
100
AcDbEntity
  8
L1
  0
ARC
  5
435
100
AcDbEntity
  8
L1
100
AcDbCircle
 10
72.14999999999998
 20
85.24999999999995
 30
0.0
 40
1.377211141825941
100
AcDbArc
 50
0.0
 51
90.0
  0
ARC
  5
436
100
AcDbEntity
  8
L1
100
AcDbCircle
 10
72.14999999999998
 20
85.24999999999995
 30
0.0
 40
4.022689858140807
100
AcDbArc
 50
359.9999999999992
 51
90.0
  0
ARC
  5
437
100
AcDbEntity
  8
L1
100
AcDbCircle
 10
72.14999999999998
 20
85.25000000000005
 30
0.0
 40
4.854985757674741
100
AcDbArc
 50
353.0000000000001
 51
34.23341503167962
  0
POLYLINE
  5
438
100
AcDbEntity
  8
L1
100
AcDb2dPolyline
 66
     1
 10
0.0
 20
0.0
 30
0.0
  0
VERTEX
  5
9CE
100
AcDbEntity
  8
L1
100
AcDbVertex
100
AcDb2dVertex
 10
76.16387222098274
 20
87.98124815804925
 30
0.0
  0
VERTEX
  5
9CF
100
AcDbEntity
  8
L1
100
AcDbVertex
100
AcDb2dVertex
 10
76.12536262439732
 20
88.06114181857656
 30
0.0
  0
VERTEX
  5
9D0
100
AcDbEntity
  8
L1
100
AcDbVertex
100
AcDb2dVertex
 10
76.11312851262858
 20
88.17725229485068
 30
0.0
  0
VERTEX
  5
9D1
100
AcDbEntity
  8
L1
100
AcDbVertex
100
AcDb2dVertex
 10
76.14730816797077
 20
88.29143008602143
 30
0.0
  0
VERTEX
  5
9D2
100
AcDbEntity
  8
L1
100
AcDbVertex
100
AcDb2dVertex
 10
76.22130794022917
 20
88.38169797574137
 30
0.0
  0
VERTEX
  5
9D3
100
AcDbEntity
  8
L1
100
AcDbVertex
100
AcDb2dVertex
 10
76.32416771893531
 20
88.43689114413752
 30
0.0
  0
VERTEX
  5
9D4
100
AcDbEntity
  8
L1
100
AcDbVertex
100
AcDb2dVertex
 10
76.41188856451265
 20
88.44999999999998
 30
0.0
  0
SEQEND
  5
9D5
100
AcDbEntity
  8
L1
  0
POLYLINE
  5
439
100
AcDbEntity
  8
L1
100
AcDb2dPolyline
 66
     1
 10
0.0
 20
0.0
 30
0.0
  0
VERTEX
  5
9D6
100
AcDbEntity
  8
L1
100
AcDbVertex
100
AcDb2dVertex
 10
86.54494244821012
 20
90.04480917893472
 30
0.0
  0
VERTEX
  5
9D7
100
AcDbEntity
  8
L1
100
AcDbVertex
100
AcDb2dVertex
 10
86.54747121693175
 20
90.04480827335346
 30
0.0
  0
VERTEX
  5
9D8
100
AcDbEntity
  8
L1
100
AcDbVertex
100
AcDb2dVertex
 10
86.55000000000006
 20
90.04480555661013
 30
0.0
  0
SEQEND
  5
9D9
100
AcDbEntity
  8
L1
  0
POLYLINE
  5
43A
100
AcDbEntity
  8
L1
100
AcDb2dPolyline
 66
     1
 10
0.0
 20
0.0
 30
0.0
  0
VERTEX
  5
9DA
100
AcDbEntity
  8
L1
100
AcDbVertex
100
AcDb2dVertex
 10
90.04480555661018
 20
86.55000000000001
 30
0.0
  0
VERTEX
  5
9DB
100
AcDbEntity
  8
L1
100
AcDbVertex
100
AcDb2dVertex
 10
90.04480827335362
 20
86.54747121693167
 30
0.0
  0
VERTEX
  5
9DC
100
AcDbEntity
  8
L1
100
AcDbVertex
100
AcDb2dVertex
 10
90.04480917893477
 20
86.54494244821007
 30
0.0
  0
SEQEND
  5
9DD
100
AcDbEntity
  8
L1
  0
LINE
  5
43B
100
AcDbEntity
  8
L1
100
AcDbLine
 10
86.09797292063047
 20
128.1335674660516
 30
0.0
 11
88.90057955745204
 21
128.1335674660516
 31
0.0
  0
LINE
  5
43C
100
AcDbEntity
  8
L1
100
AcDbLine
 10
86.09797292063047
 20
128.1335674660516
 30
0.0
 11
75.49536628380895
 21
128.1335674660516
 31
0.0
  0
ARC
  5
43D
100
AcDbEntity
  8
L1
100
AcDbCircle
 10
75.49536628380895
 20
128.4335674660515
 30
0.0
 40
0.2999999999999971
100
AcDbArc
 50
180.499999999998
 51
270.0
  0
LINE
  5
43E
100
AcDbEntity
  8
L1
100
AcDbLine
 10
75.19537770688976
 20
128.4309495054021
 30
0.0
 11
75.18924605283974
 21
129.1335674660516
 31
0.0
  0
ELLIPSE
  5
43F
100
AcDbEntity
  8
L1
100
AcDbEllipse
 10
88.90057955745204
 20
128.4335674660515
 30
0.0
 11
-0.2999885769192656
 21
0.0026179606495144
 31
0.0
210
0.0
220
0.0
230
-1.0
 40
0.0087262032439414
 41
-3.141592653572773
 42
-2.785207044459466
  0
ARC
  5
440
100
AcDbEntity
  8
L1
100
AcDbCircle
 10
88.90057955745204
 20
128.4335674660515
 30
0.0
 40
0.2999999999999999
100
AcDbArc
 50
270.0
 51
359.4999999999992
  0
LINE
  5
441
100
AcDbEntity
  8
L1
100
AcDbLine
 10
89.50416945764869
 20
129.1423112731967
 30
0.0
 11
89.79474000216328
 21
129.3129462370832
 31
0.0
  0
LINE
  5
442
100
AcDbEntity
  8
L1
100
AcDbLine
 10
89.79474000216328
 20
129.3129462370832
 30
0.0
 11
89.91105179952546
 21
129.6292041983023
 31
0.0
  0
LINE
  5
443
100
AcDbEntity
  8
L1
100
AcDbLine
 10
89.41107083799328
 20
129.1335674660516
 30
0.0
 11
89.50416945764869
 21
129.1423112731967
 31
0.0
  0
LINE
  5
444
100
AcDbEntity
  8
L1
100
AcDbLine
 10
89.20669978842125
 20
129.1335674660516
 30
0.0
 11
89.26309259711832
 21
129.1335674660516
 31
0.0
  0
LINE
  5
445
100
AcDbEntity
  8
L1
100
AcDbLine
 10
89.26309259711832
 20
129.1335674660516
 30
0.0
 11
89.41107083799328
 21
129.1335674660516
 31
0.0
  0
LINE
  5
446
100
AcDbEntity
  8
L2
100
AcDbLine
 10
-8.741897474510665
 20
132.1335674660516
 30
0.0
 11
-8.928091704658072
 21
139.2440382453747
 31
0.0
  0
LINE
  5
447
100
AcDbEntity
  8
L2
100
AcDbLine
 10
-11.07190829534192
 20
139.2440382453747
 30
0.0
 11
-11.25810252548933
 21
132.1335674660516
 31
0.0
  0
ARC
  5
448
100
AcDbEntity
  8
L2
100
AcDbCircle
 10
-9.327954634648278
 20
139.2335674660516
 30
0.0
 40
0.4
100
AcDbArc
 50
1.500000000000033
 51
90.0
  0
ARC
  5
449
100
AcDbEntity
  8
L2
100
AcDbCircle
 10
-10.67204536535172
 20
139.2335674660516
 30
0.0
 40
0.4
100
AcDbArc
 50
90.0
 51
178.500000000002
  0
LINE
  5
44B
100
AcDbEntity
  8
L2
100
AcDbLine
 10
-9.327954634648278
 20
139.6335674660516
 30
0.0
 11
-10.67204536535172
 21
139.6335674660516
 31
0.0
  0
ARC
  5
44C
100
AcDbEntity
  8
L2
100
AcDbCircle
 10
2.972045365351732
 20
139.2335674660516
 30
0.0
 40
0.4
100
AcDbArc
 50
1.500000000000033
 51
90.0
  0
ARC
  5
44D
100
AcDbEntity
  8
L2
100
AcDbCircle
 10
-2.972045365351732
 20
139.2335674660516
 30
0.0
 40
0.4
100
AcDbArc
 50
90.0
 51
178.500000000002
  0
LINE
  5
44E
100
AcDbEntity
  8
L2
100
AcDbLine
 10
3.558162431781056
 20
132.1312797370685
 30
0.0
 11
3.371908295341938
 21
139.2440382453748
 31
0.0
  0
LINE
  5
44F
100
AcDbEntity
  8
L2
100
AcDbLine
 10
-3.371908295341938
 20
139.2440382453747
 30
0.0
 11
-3.558162431781056
 21
132.1312797370683
 31
0.0
  0
LINE
  5
450
100
AcDbEntity
  8
L2
100
AcDbLine
 10
2.972045365351732
 20
139.6335674660516
 30
0.0
 11
-2.972045365351732
 21
139.6335674660516
 31
0.0
  0
LINE
  5
451
100
AcDbEntity
  8
L2
100
AcDbLine
 10
11.25810252548933
 20
132.1335674660516
 30
0.0
 11
11.07190829534192
 21
139.2440382453747
 31
0.0
  0
LINE
  5
452
100
AcDbEntity
  8
L2
100
AcDbLine
 10
8.928091704658072
 20
139.2440382453747
 30
0.0
 11
8.741897474510665
 21
132.1335674660516
 31
0.0
  0
ARC
  5
453
100
AcDbEntity
  8
L2
100
AcDbCircle
 10
10.67204536535172
 20
139.2335674660516
 30
0.0
 40
0.4
100
AcDbArc
 50
1.500000000000033
 51
90.0
  0
ARC
  5
454
100
AcDbEntity
  8
L2
100
AcDbCircle
 10
9.327954634648278
 20
139.2335674660516
 30
0.0
 40
0.4
100
AcDbArc
 50
90.0
 51
178.500000000002
  0
LINE
  5
456
100
AcDbEntity
  8
L2
100
AcDbLine
 10
10.67204536535172
 20
139.6335674660516
 30
0.0
 11
9.327954634648278
 21
139.6335674660516
 31
0.0
  0
LINE
  5
469
100
AcDbEntity
  8
L2
100
AcDbLine
 10
72.94740478625943
 20
177.8361854267011
 30
0.0
 11
72.54856408162527
 21
132.1335674660513
 31
0.0
  0
LINE
  5
487
100
AcDbEntity
  8
L1
100
AcDbLine
 10
88.26559112308689
 20
178.1335674660516
 30
0.0
 11
88.73434296503774
 21
178.1335674660516
 31
0.0
  0
LINE
  5
488
100
AcDbEntity
  8
L1
100
AcDbLine
 10
88.72049543041919
 20
178.1335674660516
 30
0.0
 11
88.66443608250405
 21
178.1335674660516
 31
0.0
  0
LINE
  5
489
100
AcDbEntity
  8
L1
100
AcDbLine
 10
77.71550545286675
 20
174.1337197737949
 30
0.0
 11
90.29943682304452
 21
174.1337197737949
 31
0.0
  0
ARC
  5
48A
100
AcDbEntity
  8
L2
100
AcDbCircle
 10
73.24739336317851
 20
177.8335674660516
 30
0.0
 40
0.2999999999999971
100
AcDbArc
 50
90.0
 51
179.4999999999999
  0
ARC
  5
48D
100
AcDbEntity
  8
L1
100
AcDbCircle
 10
77.71550545286675
 20
172.1337197737948
 30
0.0
 40
2.0
100
AcDbArc
 50
90.0
 51
179.9650110253217
  0
LINE
  5
490
100
AcDbEntity
  8
L1
100
AcDbLine
 10
88.66443608250405
 20
178.1335674660516
 30
0.0
 11
88.57354359605665
 21
178.1335674660516
 31
0.0
  0
LINE
  5
491
100
AcDbEntity
  8
L1
100
AcDbLine
 10
88.57354359605665
 20
178.1335674660516
 30
0.0
 11
88.45908222940659
 21
178.1335674660516
 31
0.0
  0
LINE
  5
492
100
AcDbEntity
  8
L1
100
AcDbLine
 10
88.45908222940659
 20
178.1335674660516
 30
0.0
 11
88.34309873376662
 21
178.1335674660516
 31
0.0
  0
LINE
  5
493
100
AcDbEntity
  8
L1
100
AcDbLine
 10
88.34309873376662
 20
178.1335674660516
 30
0.0
 11
88.26559112308723
 21
178.1335674660516
 31
0.0
  0
LINE
  5
494
100
AcDbEntity
  8
L1
100
AcDbLine
 10
90.32915214397268
 20
177.5387582871168
 30
0.0
 11
89.73434296503796
 21
178.1335674660516
 31
0.0
  0
LINE
  5
495
100
AcDbEntity
  8
L1
100
AcDbLine
 10
90.32915214397268
 20
177.5387582871168
 30
0.0
 11
90.28213605109248
 21
172.1512476696203
 31
0.0
  0
ARC
  5
496
100
AcDbEntity
  8
L1
100
AcDbCircle
 10
89.89680353135373
 20
173.8337197737949
 30
0.0
 40
0.3
100
AcDbArc
 50
90.0
 51
179.4999999999995
  0
LINE
  5
497
100
AcDbEntity
  8
L1
100
AcDbLine
 10
89.73434296503796
 20
178.1335674660516
 30
0.0
 11
88.73434296503797
 21
178.1335674660516
 31
0.0
  0
LINE
  5
498
100
AcDbEntity
  8
L1
100
AcDbLine
 10
89.55701651158733
 20
178.1316983427972
 30
0.0
 11
89.55703282317893
 21
178.1335674660516
 31
0.0
  0
LINE
  5
499
100
AcDbEntity
  8
L1
100
AcDbLine
 10
88.73434296503797
 20
178.1335674660516
 30
0.0
 11
88.72049543041919
 21
178.1335674660516
 31
0.0
  0
LINE
  5
A6B
100
AcDbEntity
  8
L2
100
AcDbLine
 10
-143.5795194368649
 20
72.548564081625
 30
0.0
 11
-189.579519436865
 21
72.54856408162499
 31
0.0
  0
LINE
  5
B11
100
AcDbEntity
  8
L2
100
AcDbLine
 10
-72.54856408162504
 20
-132.1335674660516
 30
0.0
 11
72.54856408162527
 21
-132.1335674660513
 31
0.0
  0
LINE
  5
B12
100
AcDbEntity
  8
L2
100
AcDbLine
 10
72.94740478625943
 20
-177.8361854267011
 30
0.0
 11
72.54856408162527
 21
-132.1335674660513
 31
0.0
  0
LINE
  5
B13
100
AcDbEntity
  8
L2
100
AcDbLine
 10
-72.9474047862592
 20
-177.8361854267011
 30
0.0
 11
-72.54856408162504
 21
-132.1335674660516
 31
0.0
  0
LINE
  5
B14
100
AcDbEntity
  8
L2
100
AcDbLine
 10
-9.327954634648278
 20
-139.6335674660516
 30
0.0
 11
-10.67204536535172
 21
-139.6335674660516
 31
0.0
  0
ARC
  5
B15
100
AcDbEntity
  8
L2
100
AcDbCircle
 10
-10.67204536535172
 20
-139.2335674660516
 30
0.0
 40
0.4
100
AcDbArc
 50
181.4999999999979
 51
270.0
  0
ARC
  5
B16
100
AcDbEntity
  8
L2
100
AcDbCircle
 10
-9.327954634648278
 20
-139.2335674660516
 30
0.0
 40
0.4
100
AcDbArc
 50
270.0
 51
358.4999999999999
  0
LINE
  5
B17
100
AcDbEntity
  8
L2
100
AcDbLine
 10
-11.07190829534192
 20
-139.2440382453747
 30
0.0
 11
-11.25810252548933
 21
-132.1335674660516
 31
0.0
  0
LINE
  5
B18
100
AcDbEntity
  8
L2
100
AcDbLine
 10
-8.741897474510665
 20
-132.1335674660516
 30
0.0
 11
-8.928091704658072
 21
-139.2440382453747
 31
0.0
  0
LINE
  5
B19
100
AcDbEntity
  8
L2
100
AcDbLine
 10
2.972045365351732
 20
-139.6335674660516
 30
0.0
 11
-2.972045365351732
 21
-139.6335674660516
 31
0.0
  0
LINE
  5
B1A
100
AcDbEntity
  8
L2
100
AcDbLine
 10
-3.371908295341938
 20
-139.2440382453747
 30
0.0
 11
-3.558162431781056
 21
-132.1312797370683
 31
0.0
  0
LINE
  5
B1B
100
AcDbEntity
  8
L2
100
AcDbLine
 10
3.558162431781056
 20
-132.1312797370685
 30
0.0
 11
3.371908295341938
 21
-139.2440382453748
 31
0.0
  0
ARC
  5
B1C
100
AcDbEntity
  8
L2
100
AcDbCircle
 10
-2.972045365351732
 20
-139.2335674660516
 30
0.0
 40
0.4
100
AcDbArc
 50
181.4999999999979
 51
270.0
  0
ARC
  5
B1D
100
AcDbEntity
  8
L2
100
AcDbCircle
 10
2.972045365351732
 20
-139.2335674660516
 30
0.0
 40
0.4
100
AcDbArc
 50
270.0
 51
358.4999999999999
  0
LINE
  5
B1E
100
AcDbEntity
  8
L2
100
AcDbLine
 10
10.67204536535172
 20
-139.6335674660516
 30
0.0
 11
9.327954634648278
 21
-139.6335674660516
 31
0.0
  0
ARC
  5
B1F
100
AcDbEntity
  8
L2
100
AcDbCircle
 10
9.327954634648278
 20
-139.2335674660516
 30
0.0
 40
0.4
100
AcDbArc
 50
181.4999999999979
 51
270.0
  0
ARC
  5
B20
100
AcDbEntity
  8
L2
100
AcDbCircle
 10
10.67204536535172
 20
-139.2335674660516
 30
0.0
 40
0.4
100
AcDbArc
 50
270.0
 51
358.4999999999999
  0
LINE
  5
B21
100
AcDbEntity
  8
L2
100
AcDbLine
 10
8.928091704658072
 20
-139.2440382453747
 30
0.0
 11
8.741897474510665
 21
-132.1335674660516
 31
0.0
  0
LINE
  5
B22
100
AcDbEntity
  8
L2
100
AcDbLine
 10
11.25810252548933
 20
-132.1335674660516
 30
0.0
 11
11.07190829534192
 21
-139.2440382453747
 31
0.0
  0
LINE
  5
B26
100
AcDbEntity
  8
L2
100
AcDbLine
 10
-143.5795194368651
 20
-11.11593104297031
 30
0.0
 11
-150.6899902161882
 21
-10.9297368128229
 31
0.0
  0
LINE
  5
B27
100
AcDbEntity
  8
L2
100
AcDbLine
 10
-150.6899902161882
 20
-8.785920222139054
 30
0.0
 11
-143.5795194368651
 21
-8.599725991991647
 31
0.0
  0
LINE
  5
B28
100
AcDbEntity
  8
L2
100
AcDbLine
 10
-143.577231707882
 20
-3.415990949262038
 30
0.0
 11
-150.6899902161883
 21
-3.22973681282292
 31
0.0
  0
LINE
  5
B29
100
AcDbEntity
  8
L2
100
AcDbLine
 10
-150.6899902161882
 20
3.514079777860956
 30
0.0
 11
-143.5772317078819
 21
3.700333914300074
 31
0.0
  0
LINE
  5
B2A
100
AcDbEntity
  8
L2
100
AcDbLine
 10
-143.5795194368651
 20
8.884068957029683
 30
0.0
 11
-150.6899902161882
 21
9.07026318717709
 31
0.0
  0
LINE
  5
B2B
100
AcDbEntity
  8
L2
100
AcDbLine
 10
-150.6899902161882
 20
11.21407977786094
 30
0.0
 11
-143.5795194368651
 21
11.40027400800835
 31
0.0
  0
ARC
  5
B2C
100
AcDbEntity
  8
L2
100
AcDbCircle
 10
-150.6795194368651
 20
9.470126117167296
 30
0.0
 40
0.4
100
AcDbArc
 50
180.0
 51
268.5
  0
ARC
  5
B2D
100
AcDbEntity
  8
L2
100
AcDbCircle
 10
-150.6795194368651
 20
10.81421684787073
 30
0.0
 40
0.4
100
AcDbArc
 50
91.49999999999796
 51
180.0
  0
LINE
  5
B2E
100
AcDbEntity
  8
L2
100
AcDbLine
 10
-151.0795194368651
 20
9.470126117167296
 30
0.0
 11
-151.0795194368651
 21
10.81421684787073
 31
0.0
  0
ARC
  5
B2F
100
AcDbEntity
  8
L2
100
AcDbCircle
 10
-150.6795194368651
 20
-2.829873882832714
 30
0.0
 40
0.4
100
AcDbArc
 50
180.0
 51
268.5
  0
ARC
  5
B30
100
AcDbEntity
  8
L2
100
AcDbCircle
 10
-150.6795194368651
 20
3.11421684787075
 30
0.0
 40
0.4
100
AcDbArc
 50
91.49999999999796
 51
180.0
  0
LINE
  5
B31
100
AcDbEntity
  8
L2
100
AcDbLine
 10
-151.0795194368651
 20
-2.829873882832714
 30
0.0
 11
-151.0795194368651
 21
3.11421684787075
 31
0.0
  0
ARC
  5
B32
100
AcDbEntity
  8
L2
100
AcDbCircle
 10
-150.6795194368651
 20
-10.5298738828327
 30
0.0
 40
0.4
100
AcDbArc
 50
180.0
 51
268.5
  0
ARC
  5
B33
100
AcDbEntity
  8
L2
100
AcDbCircle
 10
-150.6795194368651
 20
-9.18578315212926
 30
0.0
 40
0.4
100
AcDbArc
 50
91.49999999999796
 51
180.0
  0
LINE
  5
B34
100
AcDbEntity
  8
L2
100
AcDbLine
 10
-151.0795194368651
 20
-10.5298738828327
 30
0.0
 11
-151.0795194368651
 21
-9.18578315212926
 31
0.0
  0
LINE
  5
B4A
100
AcDbEntity
  8
L2
100
AcDbLine
 10
-143.5795194368649
 20
-72.54856408162499
 30
0.0
 11
-189.579519436865
 21
-72.54856408162499
 31
0.0
  0
LINE
  5
B4B
100
AcDbEntity
  8
L1
100
AcDbLine
 10
189.579519436865
 20
89.44999999999993
 30
0.0
 11
189.579519436865
 21
-89.44999999999996
 31
0.0
  0
LINE
  5
B4C
100
AcDbEntity
  8
L1
100
AcDbLine
 10
188.9847102579301
 20
-90.04480917893472
 30
0.0
 11
188.9847102579301
 21
90.0448091789347
 31
0.0
  0
LINE
  5
B4D
100
AcDbEntity
  8
L1
100
AcDbLine
 10
140.5795194368649
 20
75.14094883660965
 30
0.0
 11
140.5795194368649
 21
-75.14094883656702
 31
0.0
  0
LINE
  5
B4E
100
AcDbEntity
  8
L2
100
AcDbLine
 10
143.5795194368649
 20
72.548564081625
 30
0.0
 11
143.5795194368649
 21
-72.54856408162499
 31
0.0
  0
LINE
  5
B4F
100
AcDbEntity
  8
L2
100
AcDbLine
 10
143.5795194368649
 20
-72.54856408162499
 30
0.0
 11
189.579519436865
 21
-72.54856408162499
 31
0.0
  0
LINE
  5
B50
100
AcDbEntity
  8
L2
100
AcDbLine
 10
150.6899902161882
 20
11.21407977786094
 30
0.0
 11
143.5795194368651
 21
11.40027400800835
 31
0.0
  0
LINE
  5
B51
100
AcDbEntity
  8
L2
100
AcDbLine
 10
143.5795194368651
 20
8.884068957029683
 30
0.0
 11
150.6899902161882
 21
9.07026318717709
 31
0.0
  0
LINE
  5
B52
100
AcDbEntity
  8
L2
100
AcDbLine
 10
150.6899902161882
 20
3.514079777860956
 30
0.0
 11
143.5772317078819
 21
3.700333914300074
 31
0.0
  0
LINE
  5
B53
100
AcDbEntity
  8
L2
100
AcDbLine
 10
143.577231707882
 20
-3.415990949262038
 30
0.0
 11
150.6899902161883
 21
-3.22973681282292
 31
0.0
  0
LINE
  5
B54
100
AcDbEntity
  8
L2
100
AcDbLine
 10
150.6899902161882
 20
-8.785920222139054
 30
0.0
 11
143.5795194368651
 21
-8.599725991991647
 31
0.0
  0
LINE
  5
B55
100
AcDbEntity
  8
L2
100
AcDbLine
 10
143.5795194368651
 20
-11.11593104297031
 30
0.0
 11
150.6899902161882
 21
-10.9297368128229
 31
0.0
  0
LINE
  5
B56
100
AcDbEntity
  8
L1
100
AcDbLine
 10
141.0751561691157
 20
-75.12615673989689
 30
0.0
 11
183.5971996404343
 21
-75.49724099141986
 31
0.0
  0
LINE
  5
B57
100
AcDbEntity
  8
L1
100
AcDbLine
 10
183.5971996404337
 20
-89.99779308605452
 30
0.0
 11
141.0751561691157
 21
-89.62670883448737
 31
0.0
  0
LINE
  5
B58
100
AcDbEntity
  8
L1
100
AcDbLine
 10
139.8769014762153
 20
-88.91622516933313
 30
0.0
 11
185.2822897052577
 21
-89.31247198939638
 31
0.0
  0
LINE
  5
B59
100
AcDbEntity
  8
L6
100
AcDbLine
 10
131.5795194368649
 20
0.0
 30
0.0
 11
197.5795194368649
 21
0.0
 31
0.0
  0
LINE
  5
B5A
100
AcDbEntity
  8
L1
100
AcDbLine
 10
185.5796717446082
 20
-77.49716484343441
 30
0.0
 11
185.5796717446082
 21
-86.51522712728194
 31
0.0
  0
POLYLINE
  5
B5B
100
AcDbEntity
  8
L1
100
AcDb2dPolyline
 66
     1
 10
0.0
 20
0.0
 30
0.0
  0
VERTEX
  5
B5C
100
AcDbEntity
  8
L1
100
AcDbVertex
100
AcDb2dVertex
 10
185.5796717446082
 20
-86.51522712728194
 30
0.0
  0
VERTEX
  5
B5D
100
AcDbEntity
  8
L1
100
AcDbVertex
100
AcDb2dVertex
 10
185.5796717446082
 20
-87.59676404444229
 30
0.0
  0
VERTEX
  5
B5E
100
AcDbEntity
  8
L1
100
AcDbVertex
100
AcDb2dVertex
 10
185.5796717446082
 20
-88.5724166842238
 30
0.0
  0
VERTEX
  5
B5F
100
AcDbEntity
  8
L1
100
AcDbVertex
100
AcDb2dVertex
 10
185.5796717446082
 20
-89.34669055203414
 30
0.0
  0
VERTEX
  5
B60
100
AcDbEntity
  8
L1
100
AcDbVertex
100
AcDb2dVertex
 10
185.5796717446082
 20
-89.84380161504452
 30
0.0
  0
VERTEX
  5
B61
100
AcDbEntity
  8
L1
100
AcDbVertex
100
AcDb2dVertex
 10
185.5796717446082
 20
-90.01509385800659
 30
0.0
  0
SEQEND
  5
B62
100
AcDbEntity
  8
L1
  0
ARC
  5
B63
100
AcDbEntity
  8
L1
100
AcDbCircle
 10
185.2796717446083
 20
-89.61246056631564
 30
0.0
 40
0.299999999999996
100
AcDbArc
 50
0.0
 51
89.50000000000141
  0
LINE
  5
B64
100
AcDbEntity
  8
L1
100
AcDbLine
 10
185.5796717446082
 20
-90.01509385800654
 30
0.0
 11
188.9847102579301
 21
-90.04480917893472
 31
0.0
  0
LINE
  5
B65
100
AcDbEntity
  8
L1
100
AcDbLine
 10
183.5971996404337
 20
-89.99779308605452
 30
0.0
 11
185.5796717446082
 21
-90.01509385800648
 31
0.0
  0
LINE
  5
B66
100
AcDbEntity
  8
L1
100
AcDbLine
 10
189.5795194368649
 20
-89.44999999999998
 30
0.0
 11
188.9847138802547
 21
-90.04480555661018
 31
0.0
  0
ARC
  5
B67
100
AcDbEntity
  8
L1
100
AcDbCircle
 10
189.2795194368649
 20
-73.24739336317856
 30
0.0
 40
0.3
100
AcDbArc
 50
0.0
 51
0.095669482124349
  0
LINE
  5
B68
100
AcDbEntity
  8
L1
100
AcDbLine
 10
189.5795194368649
 20
-73.527211141826
 30
0.0
 11
189.578701702889
 21
-73.52721827808228
 31
0.0
  0
POLYLINE
  5
B69
100
AcDbEntity
  8
L1
100
AcDb2dPolyline
 66
     1
 10
0.0
 20
0.0
 30
0.0
  0
VERTEX
  5
B6A
100
AcDbEntity
  8
L1
100
AcDbVertex
100
AcDb2dVertex
 10
189.5792663384883
 20
-76.11189511497935
 30
0.0
  0
VERTEX
  5
B6B
100
AcDbEntity
  8
L1
100
AcDbVertex
100
AcDb2dVertex
 10
189.5795194368648
 20
-76.11189094038627
 30
0.0
  0
SEQEND
  5
B6C
100
AcDbEntity
  8
L1
  0
ELLIPSE
  5
B6D
100
AcDbEntity
  8
L1
100
AcDbEllipse
 10
183.5797478984799
 20
-77.49716484343441
 30
0.0
 11
0.0
 21
2.0
 31
0.0
210
0.0
220
0.0
230
1.0
 40
0.9999619230641712
 41
-1.570796326794896
 42
-0.0087263139929164
  0
LINE
  5
B6E
100
AcDbEntity
  8
L2
100
AcDbLine
 10
151.0795194368651
 20
-2.829873882832714
 30
0.0
 11
151.0795194368651
 21
3.11421684787075
 31
0.0
  0
LINE
  5
B6F
100
AcDbEntity
  8
L2
100
AcDbLine
 10
151.0795194368651
 20
-10.5298738828327
 30
0.0
 11
151.0795194368651
 21
-9.18578315212926
 31
0.0
  0
ARC
  5
B70
100
AcDbEntity
  8
L2
100
AcDbCircle
 10
150.6795194368651
 20
-9.18578315212926
 30
0.0
 40
0.4
100
AcDbArc
 50
0.0
 51
88.50000000000203
  0
ARC
  5
B71
100
AcDbEntity
  8
L2
100
AcDbCircle
 10
150.6795194368651
 20
-10.5298738828327
 30
0.0
 40
0.4
100
AcDbArc
 50
271.4999999999999
 51
0.0
  0
ARC
  5
B72
100
AcDbEntity
  8
L2
100
AcDbCircle
 10
150.6795194368651
 20
-2.829873882832714
 30
0.0
 40
0.4
100
AcDbArc
 50
271.4999999999999
 51
0.0
  0
ARC
  5
B73
100
AcDbEntity
  8
L2
100
AcDbCircle
 10
150.6795194368651
 20
3.11421684787075
 30
0.0
 40
0.4
100
AcDbArc
 50
0.0
 51
88.50000000000203
  0
LINE
  5
B74
100
AcDbEntity
  8
L2
100
AcDbLine
 10
151.0795194368651
 20
9.470126117167296
 30
0.0
 11
151.0795194368651
 21
10.81421684787073
 31
0.0
  0
ARC
  5
B75
100
AcDbEntity
  8
L2
100
AcDbCircle
 10
150.6795194368651
 20
10.81421684787073
 30
0.0
 40
0.4
100
AcDbArc
 50
0.0
 51
88.50000000000203
  0
ARC
  5
B76
100
AcDbEntity
  8
L2
100
AcDbCircle
 10
150.6795194368651
 20
9.470126117167296
 30
0.0
 40
0.4
100
AcDbArc
 50
271.4999999999999
 51
0.0
  0
LINE
  5
B77
100
AcDbEntity
  8
L1
100
AcDbLine
 10
139.5795194368649
 20
-75.21102331877091
 30
0.0
 11
139.5795194368649
 21
-86.11633178475353
 31
0.0
  0
POLYLINE
  5
B78
100
AcDbEntity
  8
L1
100
AcDb2dPolyline
 66
     1
 10
0.0
 20
0.0
 30
0.0
  0
VERTEX
  5
B79
100
AcDbEntity
  8
L1
100
AcDbVertex
100
AcDb2dVertex
 10
139.5795194368649
 20
-86.11633178475353
 30
0.0
  0
VERTEX
  5
B7A
100
AcDbEntity
  8
L1
100
AcDbVertex
100
AcDb2dVertex
 10
139.5795194368649
 20
-86.39623892210067
 30
0.0
  0
VERTEX
  5
B7B
100
AcDbEntity
  8
L1
100
AcDbVertex
100
AcDb2dVertex
 10
139.5795194368649
 20
-86.67262401171161
 30
0.0
  0
VERTEX
  5
B7C
100
AcDbEntity
  8
L1
100
AcDbVertex
100
AcDb2dVertex
 10
139.5795194368649
 20
-86.94201168736539
 30
0.0
  0
VERTEX
  5
B7D
100
AcDbEntity
  8
L1
100
AcDbVertex
100
AcDb2dVertex
 10
139.5795194368649
 20
-87.20101457085878
 30
0.0
  0
VERTEX
  5
B7E
100
AcDbEntity
  8
L1
100
AcDbVertex
100
AcDb2dVertex
 10
139.5795194368649
 20
-87.44637586612629
 30
0.0
  0
VERTEX
  5
B7F
100
AcDbEntity
  8
L1
100
AcDbVertex
100
AcDb2dVertex
 10
139.5795194368649
 20
-87.67501031137351
 30
0.0
  0
VERTEX
  5
B80
100
AcDbEntity
  8
L1
100
AcDbVertex
100
AcDb2dVertex
 10
139.5795194368649
 20
-87.88404297427684
 30
0.0
  0
VERTEX
  5
B81
100
AcDbEntity
  8
L1
100
AcDbVertex
100
AcDb2dVertex
 10
139.5795194368649
 20
-88.07084540242318
 30
0.0
  0
VERTEX
  5
B82
100
AcDbEntity
  8
L1
100
AcDbVertex
100
AcDb2dVertex
 10
139.5795194368649
 20
-88.23306867442296
 30
0.0
  0
VERTEX
  5
B83
100
AcDbEntity
  8
L1
100
AcDbVertex
100
AcDb2dVertex
 10
139.5795194368649
 20
-88.36867293609822
 30
0.0
  0
VERTEX
  5
B84
100
AcDbEntity
  8
L1
100
AcDbVertex
100
AcDb2dVertex
 10
139.5795194368649
 20
-88.47595305034815
 30
0.0
  0
VERTEX
  5
B85
100
AcDbEntity
  8
L1
100
AcDbVertex
100
AcDb2dVertex
 10
139.5795194368649
 20
-88.55356003816035
 30
0.0
  0
VERTEX
  5
B86
100
AcDbEntity
  8
L1
100
AcDbVertex
100
AcDb2dVertex
 10
139.5795194368649
 20
-88.60051804116142
 30
0.0
  0
VERTEX
  5
B87
100
AcDbEntity
  8
L1
100
AcDbVertex
100
AcDb2dVertex
 10
139.5795194368649
 20
-88.616236592414
 30
0.0
  0
SEQEND
  5
B88
100
AcDbEntity
  8
L1
  0
ARC
  5
B89
100
AcDbEntity
  8
L1
100
AcDbCircle
 10
139.8795194368649
 20
-88.61623659241393
 30
0.0
 40
0.2999999999999971
100
AcDbArc
 50
180.0
 51
269.4999999999992
  0
POLYLINE
  5
B8A
100
AcDbEntity
  8
L1
100
AcDb2dPolyline
 66
     1
 10
0.0
 20
0.0
 30
0.0
  0
VERTEX
  5
B8B
100
AcDbEntity
  8
L1
100
AcDbVertex
100
AcDb2dVertex
 10
140.5795194368649
 20
-89.12672787295537
 30
0.0
  0
VERTEX
  5
B8C
100
AcDbEntity
  8
L1
100
AcDbVertex
100
AcDb2dVertex
 10
140.5795194368649
 20
-88.97874963208028
 30
0.0
  0
VERTEX
  5
B8D
100
AcDbEntity
  8
L1
100
AcDbVertex
100
AcDb2dVertex
 10
140.5795194368649
 20
-88.92235682338322
 30
0.0
  0
SEQEND
  5
B8E
100
AcDbEntity
  8
L1
  0
POLYLINE
  5
B8F
100
AcDbEntity
  8
L1
100
AcDb2dPolyline
 66
     1
 10
0.0
 20
0.0
 30
0.0
  0
VERTEX
  5
B90
100
AcDbEntity
  8
L1
100
AcDbVertex
100
AcDb2dVertex
 10
140.5795194368649
 20
-88.92235674845762
 30
0.0
  0
VERTEX
  5
B91
100
AcDbEntity
  8
L1
100
AcDbVertex
100
AcDb2dVertex
 10
140.5795194368649
 20
-88.92230898813449
 30
0.0
  0
VERTEX
  5
B92
100
AcDbEntity
  8
L1
100
AcDbVertex
100
AcDb2dVertex
 10
140.5795194368649
 20
-88.92217299392326
 30
0.0
  0
SEQEND
  5
B93
100
AcDbEntity
  8
L1
  0
POLYLINE
  5
B94
100
AcDbEntity
  8
L1
100
AcDb2dPolyline
 66
     1
 10
0.0
 20
0.0
 30
0.0
  0
VERTEX
  5
B95
100
AcDbEntity
  8
L1
100
AcDbVertex
100
AcDb2dVertex
 10
141.0751561691157
 20
-89.62670883448742
 30
0.0
  0
VERTEX
  5
B96
100
AcDbEntity
  8
L1
100
AcDbVertex
100
AcDb2dVertex
 10
140.7588982078965
 20
-89.51039703712524
 30
0.0
  0
VERTEX
  5
B97
100
AcDbEntity
  8
L1
100
AcDbVertex
100
AcDb2dVertex
 10
140.58826324401
 20
-89.21982649261058
 30
0.0
  0
SEQEND
  5
B98
100
AcDbEntity
  8
L1
  0
POLYLINE
  5
B99
100
AcDbEntity
  8
L1
100
AcDb2dPolyline
 66
     1
 10
0.0
 20
0.0
 30
0.0
  0
VERTEX
  5
B9A
100
AcDbEntity
  8
L1
100
AcDbVertex
100
AcDb2dVertex
 10
140.58826324401
 20
-89.21982649261058
 30
0.0
  0
VERTEX
  5
B9B
100
AcDbEntity
  8
L1
100
AcDbVertex
100
AcDb2dVertex
 10
140.5795194368649
 20
-89.12672787295537
 30
0.0
  0
SEQEND
  5
B9C
100
AcDbEntity
  8
L1
  0
ARC
  5
B9D
100
AcDbEntity
  8
L1
100
AcDbCircle
 10
139.8795194368649
 20
-75.21102331877091
 30
0.0
 40
0.2999999999999959
100
AcDbArc
 50
90.49999999999942
 51
180.0
  0
POLYLINE
  5
B9E
100
AcDbEntity
  8
L1
100
AcDb2dPolyline
 66
     1
 10
0.0
 20
0.0
 30
0.0
  0
VERTEX
  5
B9F
100
AcDbEntity
  8
L1
100
AcDbVertex
100
AcDb2dVertex
 10
140.5795194368649
 20
-75.14094883656707
 30
0.0
  0
VERTEX
  5
BA0
100
AcDbEntity
  8
L1
100
AcDbVertex
100
AcDb2dVertex
 10
140.58826324401
 20
-75.12539075570606
 30
0.0
  0
SEQEND
  5
BA1
100
AcDbEntity
  8
L1
  0
POLYLINE
  5
BA2
100
AcDbEntity
  8
L1
100
AcDb2dPolyline
 66
     1
 10
0.0
 20
0.0
 30
0.0
  0
VERTEX
  5
BA3
100
AcDbEntity
  8
L1
100
AcDbVertex
100
AcDb2dVertex
 10
140.58826324401
 20
-75.125390755706
 30
0.0
  0
VERTEX
  5
BA4
100
AcDbEntity
  8
L1
100
AcDbVertex
100
AcDb2dVertex
 10
140.7588982078966
 20
-75.1243791032644
 30
0.0
  0
VERTEX
  5
BA5
100
AcDbEntity
  8
L1
100
AcDbVertex
100
AcDb2dVertex
 10
141.0751561691157
 20
-75.12615673989689
 30
0.0
  0
SEQEND
  5
BA6
100
AcDbEntity
  8
L1
  0
LINE
  5
BA7
100
AcDbEntity
  8
L1
100
AcDbLine
 10
140.5794212386022
 20
-74.90490394476495
 30
0.0
 11
139.8769014762153
 21
-74.91103474185166
 31
0.0
  0
LINE
  5
BA8
100
AcDbEntity
  8
L2
100
AcDbLine
 10
143.5795194368649
 20
72.548564081625
 30
0.0
 11
189.579519436865
 21
72.54856408162499
 31
0.0
  0
LINE
  5
BA9
100
AcDbEntity
  8
L1
100
AcDbLine
 10
141.0751561691157
 20
89.62670883448737
 30
0.0
 11
183.5971996404342
 21
89.9977930860544
 31
0.0
  0
LINE
  5
BAA
100
AcDbEntity
  8
L1
100
AcDbLine
 10
185.2822897052577
 20
89.31247198939633
 30
0.0
 11
139.8769014762153
 21
88.91622516933313
 31
0.0
  0
LINE
  5
BAB
100
AcDbEntity
  8
L1
100
AcDbLine
 10
183.5971996404337
 20
75.497240991507
 30
0.0
 11
141.0751561691157
 21
75.12615673993997
 31
0.0
  0
LINE
  5
BAC
100
AcDbEntity
  8
L1
100
AcDbLine
 10
185.5796717446082
 20
86.51522712728189
 30
0.0
 11
185.5796717446082
 21
77.49716484343429
 31
0.0
  0
ELLIPSE
  5
BAD
100
AcDbEntity
  8
L1
100
AcDbEllipse
 10
183.5797478984799
 20
77.49716484343441
 30
0.0
 11
0.0
 21
1.999999999999999
 31
0.0
210
0.0
220
0.0
230
1.0
 40
0.9999619230641712
 41
-3.132866339596876
 42
-1.570796326794896
  0
LINE
  5
BAE
100
AcDbEntity
  8
L1
100
AcDbLine
 10
189.5789897674409
 20
76.17268523578587
 30
0.0
 11
189.5795194368649
 21
76.17268985814092
 31
0.0
  0
POLYLINE
  5
BAF
100
AcDbEntity
  8
L1
100
AcDb2dPolyline
 66
     1
 10
0.0
 20
0.0
 30
0.0
  0
VERTEX
  5
BB0
100
AcDbEntity
  8
L1
100
AcDbVertex
100
AcDb2dVertex
 10
189.5795194368649
 20
76.11189094038621
 30
0.0
  0
VERTEX
  5
BB1
100
AcDbEntity
  8
L1
100
AcDbVertex
100
AcDb2dVertex
 10
189.5792663355207
 20
76.11189511502818
 30
0.0
  0
SEQEND
  5
BB2
100
AcDbEntity
  8
L1
  0
LINE
  5
BB3
100
AcDbEntity
  8
L1
100
AcDbLine
 10
189.5795194368649
 20
77.00498575767466
 30
0.0
 11
189.578701702889
 21
77.00499289393093
 31
0.0
  0
LINE
  5
BB4
100
AcDbEntity
  8
L1
100
AcDbLine
 10
189.5792252202161
 20
76.65000256758975
 30
0.0
 11
189.5795194368649
 21
76.64999999999992
 31
0.0
  0
LINE
  5
BB5
100
AcDbEntity
  8
L1
100
AcDbLine
 10
189.5795194368649
 20
73.52721114182594
 30
0.0
 11
189.578701702889
 21
73.52721827808221
 31
0.0
  0
ARC
  5
BB6
100
AcDbEntity
  8
L1
100
AcDbCircle
 10
189.2795194368649
 20
73.24739336317844
 30
0.0
 40
0.3
100
AcDbArc
 50
359.8640653383419
 51
0.0
  0
ARC
  5
BB7
100
AcDbEntity
  8
L1
100
AcDbCircle
 10
185.2796717446083
 20
89.61246056631551
 30
0.0
 40
0.2999999999999993
100
AcDbArc
 50
270.499999999999
 51
359.9383474783389
  0
LINE
  5
BB8
100
AcDbEntity
  8
L1
100
AcDbLine
 10
188.9847102579301
 20
90.04480917893472
 30
0.0
 11
185.5796717446082
 21
90.01509385800654
 31
0.0
  0
POLYLINE
  5
BB9
100
AcDbEntity
  8
L1
100
AcDb2dPolyline
 66
     1
 10
0.0
 20
0.0
 30
0.0
  0
VERTEX
  5
BBA
100
AcDbEntity
  8
L1
100
AcDbVertex
100
AcDb2dVertex
 10
185.5796717446082
 20
90.01509385800654
 30
0.0
  0
VERTEX
  5
BBB
100
AcDbEntity
  8
L1
100
AcDbVertex
100
AcDb2dVertex
 10
185.5796717446082
 20
89.84380161504446
 30
0.0
  0
VERTEX
  5
BBC
100
AcDbEntity
  8
L1
100
AcDbVertex
100
AcDb2dVertex
 10
185.5796717446082
 20
89.34669055203409
 30
0.0
  0
VERTEX
  5
BBD
100
AcDbEntity
  8
L1
100
AcDbVertex
100
AcDb2dVertex
 10
185.5796717446082
 20
88.5724166842238
 30
0.0
  0
VERTEX
  5
BBE
100
AcDbEntity
  8
L1
100
AcDbVertex
100
AcDb2dVertex
 10
185.5796717446082
 20
87.59676404444229
 30
0.0
  0
VERTEX
  5
BBF
100
AcDbEntity
  8
L1
100
AcDbVertex
100
AcDb2dVertex
 10
185.5796717446082
 20
86.51522712728189
 30
0.0
  0
SEQEND
  5
BC0
100
AcDbEntity
  8
L1
  0
LINE
  5
BC1
100
AcDbEntity
  8
L1
100
AcDbLine
 10
185.5796253926596
 20
90.0150934534991
 30
0.0
 11
183.5971996404335
 21
89.9977930860544
 31
0.0
  0
ARC
  5
BC2
100
AcDbEntity
  8
L1
100
AcDbCircle
 10
189.2795194368649
 20
86.14739336317853
 30
0.0
 40
0.3
100
AcDbArc
 50
359.2545067781738
 51
0.0
  0
POLYLINE
  5
BC3
100
AcDbEntity
  8
L1
100
AcDb2dPolyline
 66
     1
 10
0.0
 20
0.0
 30
0.0
  0
VERTEX
  5
BC4
100
AcDbEntity
  8
L1
100
AcDbVertex
100
AcDb2dVertex
 10
188.9847102579301
 20
86.54494244821018
 30
0.0
  0
VERTEX
  5
BC5
100
AcDbEntity
  8
L1
100
AcDbVertex
100
AcDb2dVertex
 10
188.9847111635115
 20
86.54747121693167
 30
0.0
  0
VERTEX
  5
BC6
100
AcDbEntity
  8
L1
100
AcDbVertex
100
AcDb2dVertex
 10
188.9847138802547
 20
86.55000000000001
 30
0.0
  0
SEQEND
  5
BC7
100
AcDbEntity
  8
L1
  0
LINE
  5
BC8
100
AcDbEntity
  8
L1
100
AcDbLine
 10
189.5795194368649
 20
86.62721114182597
 30
0.0
 11
189.5794618515944
 21
86.62721164436499
 31
0.0
  0
LINE
  5
BC9
100
AcDbEntity
  8
L1
100
AcDbLine
 10
189.5795194368649
 20
89.44999999999998
 30
0.0
 11
188.9847138802547
 21
90.04480555661013
 31
0.0
  0
POLYLINE
  5
BCA
100
AcDbEntity
  8
L1
100
AcDb2dPolyline
 66
     1
 10
0.0
 20
0.0
 30
0.0
  0
VERTEX
  5
BCB
100
AcDbEntity
  8
L1
100
AcDbVertex
100
AcDb2dVertex
 10
188.9847138802547
 20
90.04480555661013
 30
0.0
  0
VERTEX
  5
BCC
100
AcDbEntity
  8
L1
100
AcDbVertex
100
AcDb2dVertex
 10
188.9847111635115
 20
90.04480827335346
 30
0.0
  0
VERTEX
  5
BCD
100
AcDbEntity
  8
L1
100
AcDbVertex
100
AcDb2dVertex
 10
188.9847102579301
 20
90.04480917893472
 30
0.0
  0
SEQEND
  5
BCE
100
AcDbEntity
  8
L1
  0
LINE
  5
BCF
100
AcDbEntity
  8
L1
100
AcDbLine
 10
139.5795194368649
 20
86.11633178475342
 30
0.0
 11
139.5795194368649
 21
75.21102331877074
 31
0.0
  0
ARC
  5
BD0
100
AcDbEntity
  8
L1
100
AcDbCircle
 10
139.8795194368649
 20
75.21102331877074
 30
0.0
 40
0.3000000000000243
100
AcDbArc
 50
180.0
 51
269.5000000000006
  0
POLYLINE
  5
BD1
100
AcDbEntity
  8
L1
100
AcDb2dPolyline
 66
     1
 10
0.0
 20
0.0
 30
0.0
  0
VERTEX
  5
BD2
100
AcDbEntity
  8
L1
100
AcDbVertex
100
AcDb2dVertex
 10
141.0751561691157
 20
75.12615673993997
 30
0.0
  0
VERTEX
  5
BD3
100
AcDbEntity
  8
L1
100
AcDbVertex
100
AcDb2dVertex
 10
140.7588982078966
 20
75.12437910330715
 30
0.0
  0
VERTEX
  5
BD4
100
AcDbEntity
  8
L1
100
AcDbVertex
100
AcDb2dVertex
 10
140.58826324401
 20
75.12539075574858
 30
0.0
  0
SEQEND
  5
BD5
100
AcDbEntity
  8
L1
  0
POLYLINE
  5
BD6
100
AcDbEntity
  8
L1
100
AcDb2dPolyline
 66
     1
 10
0.0
 20
0.0
 30
0.0
  0
VERTEX
  5
BD7
100
AcDbEntity
  8
L1
100
AcDbVertex
100
AcDb2dVertex
 10
140.58826324401
 20
75.12539075574858
 30
0.0
  0
VERTEX
  5
BD8
100
AcDbEntity
  8
L1
100
AcDbVertex
100
AcDb2dVertex
 10
140.5795194368649
 20
75.14094883660965
 30
0.0
  0
SEQEND
  5
BD9
100
AcDbEntity
  8
L1
  0
LINE
  5
BDA
100
AcDbEntity
  8
L1
100
AcDbLine
 10
139.8769014762153
 20
74.91103474185155
 30
0.0
 11
140.5794212386022
 21
74.90490394476484
 31
0.0
  0
ARC
  5
BDB
100
AcDbEntity
  8
L1
100
AcDbCircle
 10
139.8795194368649
 20
88.61623659241383
 30
0.0
 40
0.299999999999996
100
AcDbArc
 50
90.50000000000084
 51
180.0
  0
POLYLINE
  5
BDC
100
AcDbEntity
  8
L1
100
AcDb2dPolyline
 66
     1
 10
0.0
 20
0.0
 30
0.0
  0
VERTEX
  5
BDD
100
AcDbEntity
  8
L1
100
AcDbVertex
100
AcDb2dVertex
 10
139.5795194368649
 20
88.61623659241383
 30
0.0
  0
VERTEX
  5
BDE
100
AcDbEntity
  8
L1
100
AcDbVertex
100
AcDb2dVertex
 10
139.5795194368649
 20
88.60051804116125
 30
0.0
  0
VERTEX
  5
BDF
100
AcDbEntity
  8
L1
100
AcDbVertex
100
AcDb2dVertex
 10
139.5795194368649
 20
88.55356003816012
 30
0.0
  0
VERTEX
  5
BE0
100
AcDbEntity
  8
L1
100
AcDbVertex
100
AcDb2dVertex
 10
139.5795194368649
 20
88.47595305034799
 30
0.0
  0
VERTEX
  5
BE1
100
AcDbEntity
  8
L1
100
AcDbVertex
100
AcDb2dVertex
 10
139.5795194368649
 20
88.36867293609799
 30
0.0
  0
VERTEX
  5
BE2
100
AcDbEntity
  8
L1
100
AcDbVertex
100
AcDb2dVertex
 10
139.5795194368649
 20
88.23306867442278
 30
0.0
  0
VERTEX
  5
BE3
100
AcDbEntity
  8
L1
100
AcDbVertex
100
AcDb2dVertex
 10
139.5795194368649
 20
88.070845402423
 30
0.0
  0
VERTEX
  5
BE4
100
AcDbEntity
  8
L1
100
AcDbVertex
100
AcDb2dVertex
 10
139.5795194368649
 20
87.88404297427661
 30
0.0
  0
VERTEX
  5
BE5
100
AcDbEntity
  8
L1
100
AcDbVertex
100
AcDb2dVertex
 10
139.5795194368649
 20
87.67501031137333
 30
0.0
  0
VERTEX
  5
BE6
100
AcDbEntity
  8
L1
100
AcDbVertex
100
AcDb2dVertex
 10
139.5795194368649
 20
87.44637586612606
 30
0.0
  0
VERTEX
  5
BE7
100
AcDbEntity
  8
L1
100
AcDbVertex
100
AcDb2dVertex
 10
139.5795194368649
 20
87.2010145708586
 30
0.0
  0
VERTEX
  5
BE8
100
AcDbEntity
  8
L1
100
AcDbVertex
100
AcDb2dVertex
 10
139.5795194368649
 20
86.94201168736531
 30
0.0
  0
VERTEX
  5
BE9
100
AcDbEntity
  8
L1
100
AcDbVertex
100
AcDb2dVertex
 10
139.5795194368649
 20
86.67262401171143
 30
0.0
  0
VERTEX
  5
BEA
100
AcDbEntity
  8
L1
100
AcDbVertex
100
AcDb2dVertex
 10
139.5795194368649
 20
86.39623892210051
 30
0.0
  0
VERTEX
  5
BEB
100
AcDbEntity
  8
L1
100
AcDbVertex
100
AcDb2dVertex
 10
139.5795194368649
 20
86.11633178475342
 30
0.0
  0
SEQEND
  5
BEC
100
AcDbEntity
  8
L1
  0
POLYLINE
  5
BED
100
AcDbEntity
  8
L1
100
AcDb2dPolyline
 66
     1
 10
0.0
 20
0.0
 30
0.0
  0
VERTEX
  5
BEE
100
AcDbEntity
  8
L1
100
AcDbVertex
100
AcDb2dVertex
 10
140.5795194368649
 20
88.9225620176772
 30
0.0
  0
VERTEX
  5
BEF
100
AcDbEntity
  8
L1
100
AcDbVertex
100
AcDb2dVertex
 10
140.5795194368649
 20
88.98202918348118
 30
0.0
  0
VERTEX
  5
BF0
100
AcDbEntity
  8
L1
100
AcDbVertex
100
AcDb2dVertex
 10
140.5795194368649
 20
89.12672787295532
 30
0.0
  0
SEQEND
  5
BF1
100
AcDbEntity
  8
L1
  0
POLYLINE
  5
BF2
100
AcDbEntity
  8
L1
100
AcDb2dPolyline
 66
     1
 10
0.0
 20
0.0
 30
0.0
  0
VERTEX
  5
BF3
100
AcDbEntity
  8
L1
100
AcDbVertex
100
AcDb2dVertex
 10
140.5795194368649
 20
89.12672787295532
 30
0.0
  0
VERTEX
  5
BF4
100
AcDbEntity
  8
L1
100
AcDbVertex
100
AcDb2dVertex
 10
140.58826324401
 20
89.21982649261048
 30
0.0
  0
SEQEND
  5
BF5
100
AcDbEntity
  8
L1
  0
POLYLINE
  5
BF6
100
AcDbEntity
  8
L1
100
AcDb2dPolyline
 66
     1
 10
0.0
 20
0.0
 30
0.0
  0
VERTEX
  5
BF7
100
AcDbEntity
  8
L1
100
AcDbVertex
100
AcDb2dVertex
 10
140.58826324401
 20
89.21982649261048
 30
0.0
  0
VERTEX
  5
BF8
100
AcDbEntity
  8
L1
100
AcDbVertex
100
AcDb2dVertex
 10
140.7588982078965
 20
89.51039703712519
 30
0.0
  0
VERTEX
  5
BF9
100
AcDbEntity
  8
L1
100
AcDbVertex
100
AcDb2dVertex
 10
141.0751561691157
 20
89.62670883448737
 30
0.0
  0
SEQEND
  5
BFA
100
AcDbEntity
  8
L1
  0
ENDSEC
  0
SECTION
  2
OBJECTS
  0
DICTIONARY
  5
1A
100
AcDbDictionary
  3
ACAD_GROUP
350
18
  3
ACAD_MLINESTYLE
350
19
  0
DICTIONARY
  5
18
102
{ACAD_REACTORS
330
1A
102
}
100
AcDbDictionary
  0
DICTIONARY
  5
19
102
{ACAD_REACTORS
330
1A
102
}
100
AcDbDictionary
  3
STANDARD
350
1E
  0
MLINESTYLE
  5
1E
102
{ACAD_REACTORS
330
19
102
}
100
AcDbMlineStyle
  2
STANDARD
 70
     0
  3

 62
     0
 51
90.0
 52
90.0
 71
     2
 49
0.5
 62
   256
  6
BYLAYER
 49
-0.5
 62
   256
  6
BYLAYER
  0
ENDSEC
  0
EOF
