  0
SECTION
  2
HEADER
  9
$ACADVER
  1
AC1009
  9
$INSBASE
 10
0.0
 20
0.0
 30
0.0
  9
$EXTMIN
 10
5.4236726197692633
 20
-7.1080055106286864
 30
0.0
  9
$EXTMAX
 10
665.56720612274262
 20
424.86115252075939
 30
0.0
  9
$LIMMIN
 10
0.0
 20
0.0
  9
$LIMMAX
 10
665.08384606558172
 20
418.7349139956786
  9
$ORTHOMODE
 70
     1
  9
$REGENMODE
 70
     1
  9
$FILLMODE
 70
     1
  9
$QTEXTMODE
 70
     0
  9
$MIRRTEXT
 70
     1
  9
$DRAGMODE
 70
     2
  9
$LTSCALE
 40
15.0
  9
$OSMODE
 70
     5
  9
$ATTMODE
 70
     1
  9
$TEXTSIZE
 40
2.5
  9
$TRACEWID
 40
1.0
  9
$TEXTSTYLE
  7
SIMPLEX
  9
$CLAYER
  8
L2
  9
$CELTYPE
  6
BYLAYER
  9
$CECOLOR
 62
   256
  9
$DIMSCALE
 40
1.0
  9
$DIMASZ
 40
3.5
  9
$DIMEXO
 40
0.1
  9
$DIMDLI
 40
0.38
  9
$DIMRND
 40
0.0
  9
$DIMDLE
 40
0.0
  9
$DIMEXE
 40
0.18
  9
$DIMTP
 40
0.0
  9
$DIMTM
 40
0.0
  9
$DIMTXT
 40
3.5
  9
$DIMCEN
 40
1.0
  9
$DIMTSZ
 40
0.0
  9
$DIMTOL
 70
     0
  9
$DIMLIM
 70
     0
  9
$DIMTIH
 70
     0
  9
$DIMTOH
 70
     0
  9
$DIMSE1
 70
     0
  9
$DIMSE2
 70
     0
  9
$DIMTAD
 70
     1
  9
$DIMZIN
 70
     8
  9
$DIMBLK
  1

  9
$DIMASO
 70
     1
  9
$DIMSHO
 70
     1
  9
$DIMPOST
  1

  9
$DIMAPOST
  1

  9
$DIMALT
 70
     0
  9
$DIMALTD
 70
     2
  9
$DIMALTF
 40
25.399999999999999
  9
$DIMLFAC
 40
1.0
  9
$DIMTOFL
 70
     1
  9
$DIMTVP
 40
0.0
  9
$DIMTIX
 70
     0
  9
$DIMSOXD
 70
     0
  9
$DIMSAH
 70
     0
  9
$DIMBLK1
  1

  9
$DIMBLK2
  1

  9
$DIMSTYLE
  2
FIBOX
  9
$DIMCLRD
 70
     1
  9
$DIMCLRE
 70
     1
  9
$DIMCLRT
 70
     3
  9
$DIMTFAC
 40
1.0
  9
$DIMGAP
 40
1.0
  9
$LUNITS
 70
     2
  9
$LUPREC
 70
     4
  9
$SKETCHINC
 40
1.0
  9
$FILLETRAD
 40
0.0
  9
$AUNITS
 70
     0
  9
$AUPREC
 70
     0
  9
$MENU
  1
.
  9
$ELEVATION
 40
0.0
  9
$PELEVATION
 40
0.0
  9
$THICKNESS
 40
0.0
  9
$LIMCHECK
 70
     0
  9
$BLIPMODE
 70
     0
  9
$CHAMFERA
 40
10.0
  9
$CHAMFERB
 40
10.0
  9
$SKPOLY
 70
     0
  9
$TDCREATE
 40
2450519.5748858559
  9
$TDUPDATE
 40
2452502.5304776621
  9
$TDINDWG
 40
0.6483938079
  9
$TDUSRTIMER
 40
0.6483938079
  9
$USRTIMER
 70
     1
  9
$ANGBASE
 50
0.0
  9
$ANGDIR
 70
     0
  9
$PDMODE
 70
     0
  9
$PDSIZE
 40
0.0
  9
$PLINEWID
 40
0.0
  9
$COORDS
 70
     2
  9
$SPLFRAME
 70
     0
  9
$SPLINETYPE
 70
     6
  9
$SPLINESEGS
 70
     8
  9
$ATTDIA
 70
     0
  9
$ATTREQ
 70
     1
  9
$HANDLING
 70
 22529
  9
$HANDSEED
  5
1A3B
  9
$SURFTAB1
 70
     6
  9
$SURFTAB2
 70
     6
  9
$SURFTYPE
 70
     6
  9
$SURFU
 70
     6
  9
$SURFV
 70
     6
  9
$UCSNAME
  2

  9
$UCSORG
 10
0.0
 20
0.0
 30
0.0
  9
$UCSXDIR
 10
1.0
 20
0.0
 30
0.0
  9
$UCSYDIR
 10
0.0
 20
1.0
 30
0.0
  9
$PUCSNAME
  2

  9
$PUCSORG
 10
0.0
 20
0.0
 30
0.0
  9
$PUCSXDIR
 10
1.0
 20
0.0
 30
0.0
  9
$PUCSYDIR
 10
0.0
 20
1.0
 30
0.0
  9
$USERI1
 70
     0
  9
$USERI2
 70
     0
  9
$USERI3
 70
     0
  9
$USERI4
 70
     0
  9
$USERI5
 70
     0
  9
$USERR1
 40
0.0
  9
$USERR2
 40
0.0
  9
$USERR3
 40
0.0
  9
$USERR4
 40
0.0
  9
$USERR5
 40
0.0
  9
$WORLDVIEW
 70
     1
  9
$SHADEDGE
 70
     3
  9
$SHADEDIF
 70
    70
  9
$TILEMODE
 70
     1
  9
$MAXACTVP
 70
    16
  9
$PLIMCHECK
 70
     0
  9
$PEXTMIN
 10
-654.13216052409575
 20
-8.3302140657851851
 30
0.0
  9
$PEXTMAX
 10
185.86783947590419
 20
585.66978593421481
 30
0.0
  9
$PLIMMIN
 10
0.0
 20
0.0
  9
$PLIMMAX
 10
420.0
 20
297.0
  9
$UNITMODE
 70
     0
  9
$VISRETAIN
 70
     0
  9
$PLINEGEN
 70
     0
  9
$PSLTSCALE
 70
     1
  0
ENDSEC
  0
SECTION
  2
TABLES
  0
TABLE
  2
VPORT
 70
     2
  0
VPORT
  2
*ACTIVE
 70
     0
 10
0.0
 20
0.0
 11
1.0
 21
1.0
 12
669.85837651666236
 22
-49.24076521924701
 13
0.0
 23
0.0
 14
1.0
 24
1.0
 15
10.0
 25
10.0
 16
0.0
 26
0.0
 36
1.0
 17
-334.35810888310817
 27
258.11733970324087
 37
132.0370600466286
 40
436.29967142372141
 41
1.5205479452054791
 42
50.0
 43
0.0
 44
0.0
 50
0.0
 51
0.0
 71
     0
 72
   500
 73
     1
 74
     1
 75
     0
 76
     0
 77
     0
 78
     0
  0
ENDTAB
  0
TABLE
  2
LTYPE
 70
     3
  0
LTYPE
  2
CONTINUOUS
 70
     0
  3
Solid line
 72
    65
 73
     0
 40
0.0
  0
LTYPE
  2
HIDDEN
 70
     0
  3
__ __ __ __ __ __ __ __ __ __ __ __ __ __ __ __
 72
    65
 73
     2
 40
0.375
 49
0.25
 49
-0.125
  0
LTYPE
  2
CENTER
 70
     0
  3
____ _ ____ _ ____ _ ____ _ ____ _ ____ _ ____ 
 72
    65
 73
     4
 40
2.0
 49
1.25
 49
-0.25
 49
0.25
 49
-0.25
  0
ENDTAB
  0
TABLE
  2
LAYER
 70
     4
  0
LAYER
  2
0
 70
     0
 62
     7
  6
CONTINUOUS
  0
LAYER
  2
L2
 70
     0
 62
     1
  6
HIDDEN
  0
LAYER
  2
L1
 70
     0
 62
     7
  6
CONTINUOUS
  0
LAYER
  2
L6
 70
     0
 62
     1
  6
CENTER
  0
ENDTAB
  0
TABLE
  2
STYLE
 70
     2
  0
STYLE
  2
STANDARD
 70
     0
 40
0.0
 41
1.0
 50
0.0
 71
     0
 42
2.5
  3
ISOCP
  4

  0
STYLE
  2
SIMPLEX
 70
     0
 40
0.0
 41
0.8
 50
0.0
 71
     0
 42
2.5
  3
SIMPLEX.SHX
  4

  0
ENDTAB
  0
TABLE
  2
VIEW
 70
     0
  0
ENDTAB
  0
TABLE
  2
UCS
 70
     0
  0
ENDTAB
  0
TABLE
  2
APPID
 70
     1
  0
APPID
  2
ACAD
 70
     0
  0
ENDTAB
  0
TABLE
  2
DIMSTYLE
 70
     1
  0
DIMSTYLE
  2
FIBOX
 70
     0
  3

  4

  5

  6

  7

 40
1.0
 41
3.5
 42
0.1
 43
0.38
 44
0.18
 45
0.0
 46
0.0
 47
0.0
 48
0.0
140
3.5
141
1.0
142
0.0
143
25.399999999999999
144
1.0
145
0.0
146
1.0
147
1.0
 71
     0
 72
     0
 73
     0
 74
     0
 75
     0
 76
     0
 77
     1
 78
     8
170
     0
171
     2
172
     1
173
     0
174
     0
175
     0
176
     1
177
     1
178
     3
  0
ENDTAB
  0
ENDSEC
  0
SECTION
  2
BLOCKS
  0
BLOCK
  8
0
  2
$MODEL_SPACE
 70
     0
 10
0.0
 20
0.0
 30
0.0
  3
$MODEL_SPACE
  1

  0
ENDBLK
  5
6
  8
0
  0
BLOCK
 67
     1
  8
0
  2
$PAPER_SPACE
 70
     0
 10
0.0
 20
0.0
 30
0.0
  3
$PAPER_SPACE
  1

  0
ENDBLK
  5
9
 67
     1
  8
0
  0
ENDSEC
  0
SECTION
  2
ENTITIES
  0
LINE
  5
1F
  8
L6
 10
356.04448138849472
 20
208.87657350506529
 30
0.0
 11
548.15546731736742
 21
208.87657350506529
 31
0.0
  0
LINE
  5
22
  8
L1
 10
366.78713177803547
 20
120.4104133473372
 30
0.0
 11
537.12849716411154
 21
120.4104133473372
 31
0.0
  0
LINE
  5
23
  8
L1
 10
382.5831709381012
 20
124.1427149160704
 30
0.0
 11
521.33249657791816
 21
124.1427149160704
 31
0.0
  0
LINE
  5
24
  8
L1
 10
522.70565562985337
 20
122.02552020570521
 30
0.0
 11
381.20997331229341
 21
122.02552020570521
 31
0.0
  0
LINE
  5
25
  8
L1
 10
382.94551034016422
 20
137.86426937415609
 30
0.0
 11
520.97011860198268
 21
137.86426937415609
 31
0.0
  0
LINE
  5
26
  8
L1
 10
380.0150065341906
 20
120.8305534276022
 30
0.0
 11
523.90062240795635
 21
120.8305534276022
 31
0.0
  0
LINE
  5
27
  8
L1
 10
538.47491523034159
 20
118.86426937415609
 30
0.0
 11
365.4407137118053
 21
118.86426937415609
 31
0.0
  0
LINE
  5
2E
  8
L1
 10
538.47491523034159
 20
298.8888776359745
 30
0.0
 11
365.4407137118053
 21
298.8888776359745
 31
0.0
  0
LINE
  5
2F
  8
L1
 10
380.0150065341906
 20
296.92259358252852
 30
0.0
 11
523.90062240795635
 21
296.92259358252852
 31
0.0
  0
LINE
  5
30
  8
L1
 10
382.94551034016422
 20
279.88887763597461
 30
0.0
 11
520.97011860198268
 21
279.88887763597461
 31
0.0
  0
LINE
  5
31
  8
L1
 10
522.70565562985337
 20
295.72762680442548
 30
0.0
 11
381.20997331229341
 21
295.72762680442548
 31
0.0
  0
LINE
  5
32
  8
L1
 10
382.5831709381012
 20
293.61043209406029
 30
0.0
 11
521.33249657791816
 21
293.61043209406029
 31
0.0
  0
LINE
  5
33
  8
L1
 10
366.78713177803547
 20
297.34273366279348
 30
0.0
 11
537.12849716411154
 21
297.34273366279348
 31
0.0
  0
LINE
  5
3A
  8
L6
 10
100.8589748229513
 20
307.78372303370742
 30
0.0
 11
100.8589748229513
 21
111.4293097525333
 31
0.0
  0
LINE
  5
3B
  8
L1
 10
12.40897482295127
 20
281.0265735050653
 30
0.0
 11
12.40897482295127
 21
136.72657350506529
 31
0.0
  0
LINE
  5
3C
  8
L1
 10
13.40897482295116
 20
136.72657350506529
 30
0.0
 11
13.40897482295116
 21
281.0265735050653
 31
0.0
  0
LINE
  5
3D
  8
L1
 10
11.565950722726649
 20
122.31957350506531
 30
0.0
 11
11.565950722726649
 21
295.43357350506523
 31
0.0
  0
LINE
  5
3E
  8
L1
 10
10.84667069204221
 20
295.39367426433353
 30
0.0
 11
10.84667069204221
 21
122.35947274579711
 31
0.0
  0
LINE
  5
3F
  8
L1
 10
14.24791130923944
 20
136.86540718884609
 30
0.0
 11
14.24791130923944
 21
280.88773982128453
 31
0.0
  0
LINE
  5
40
  8
L1
 10
380.94551034016422
 20
277.88887763597461
 30
0.0
 11
380.94551034016422
 21
139.86426937415609
 31
0.0
  0
LINE
  5
41
  8
L1
 10
363.49165431334518
 20
294.04725619810341
 30
0.0
 11
363.49165431334518
 21
123.70589081202731
 31
0.0
  0
LINE
  5
42
  8
L1
 10
367.2239558820782
 20
278.25121703803609
 30
0.0
 11
367.2239558820782
 21
139.501891398205
 31
0.0
  0
LINE
  5
43
  8
L1
 10
365.10676117171312
 20
138.12873234628529
 30
0.0
 11
365.10676117171312
 21
279.6244146638453
 31
0.0
  0
LINE
  5
44
  8
L1
 10
363.91179439361008
 20
280.81938144194822
 30
0.0
 11
363.91179439361008
 21
136.93376556818239
 31
0.0
  0
LINE
  5
45
  8
L1
 10
361.94551034016422
 20
122.35947274579711
 30
0.0
 11
361.94551034016422
 21
295.39367426433353
 31
0.0
  0
LINE
  5
46
  8
L1
 10
246.34842281940431
 20
138.1234535432144
 30
0.0
 11
246.34842281940431
 21
293.73587353512079
 31
0.0
  0
LINE
  5
47
  8
L1
 10
299.01905727840858
 20
296.82678919820029
 30
0.0
 11
299.01905727840858
 21
120.92678919820079
 31
0.0
  0
LINE
  5
4B
  8
L2
 10
248.64842281940429
 20
278.45399568662879
 30
0.0
 11
248.64842281940429
 21
139.29915132350189
 31
0.0
  0
LINE
  5
4D
  8
L1
 10
189.30897482295131
 20
281.0265735050653
 30
0.0
 11
189.30897482295131
 21
136.72657350506529
 31
0.0
  0
LINE
  5
4E
  8
L1
 10
188.3089748229514
 20
136.72657350506529
 30
0.0
 11
188.3089748229514
 21
281.0265735050653
 31
0.0
  0
LINE
  5
4F
  8
L1
 10
190.151998923176
 20
122.31957350506531
 30
0.0
 11
190.151998923176
 21
295.43357350506523
 31
0.0
  0
LINE
  5
50
  8
L1
 10
190.87127895386041
 20
295.39367426433353
 30
0.0
 11
190.87127895386041
 21
122.35947274579711
 31
0.0
  0
LINE
  5
51
  8
L1
 10
187.47003833666309
 20
136.86540718884609
 30
0.0
 11
187.47003833666309
 21
280.88773982128453
 31
0.0
  0
LINE
  5
52
  8
L6
 10
5.4236726197692633
 20
208.87657350506529
 30
0.0
 11
196.8041971779044
 21
208.87657350506529
 31
0.0
  0
LINE
  5
53
  8
L1
 10
173.0089748229513
 20
121.42657350506521
 30
0.0
 11
28.70897482295134
 21
121.42657350506521
 31
0.0
  0
LINE
  5
54
  8
L1
 10
28.70897482295134
 20
120.42657350506521
 30
0.0
 11
173.0089748229513
 21
120.42657350506521
 31
0.0
  0
LINE
  5
55
  8
L1
 10
187.4159748229512
 20
119.5835494048405
 30
0.0
 11
14.30197482295142
 21
119.5835494048405
 31
0.0
  0
LINE
  5
56
  8
L1
 10
14.34187406368318
 20
118.86426937415609
 30
0.0
 11
187.3760755822193
 21
118.86426937415609
 31
0.0
  0
LINE
  5
57
  8
L1
 10
172.87014113917041
 20
122.2655099913535
 30
0.0
 11
28.847808506732179
 21
122.2655099913535
 31
0.0
  0
LINE
  5
58
  8
L1
 10
25.167558851605971
 20
124.0135313735735
 30
0.0
 11
22.411398918989502
 21
121.2573714409569
 31
0.0
  0
ARC
  5
59
  8
L1
 10
19.108974822951211
 20
127.1265735050652
 30
0.0
 40
6.3999999999999941
 50
0.0
 51
90.000000000001023
  0
POLYLINE
  5
5A
  8
L1
 66
     1
 10
0.0
 20
0.0
 30
0.0
  0
VERTEX
  5
1403
  8
L1
 10
24.748505906581549
 20
134.69553718240931
 30
0.0
  0
VERTEX
  5
1404
  8
L1
 10
24.820041322311731
 20
134.65610894851449
 30
0.0
  0
VERTEX
  5
1405
  8
L1
 10
24.937558322771501
 20
134.6362838726603
 30
0.0
  0
VERTEX
  5
1406
  8
L1
 10
25.051300071704809
 20
134.66276433011859
 30
0.0
  0
VERTEX
  5
1407
  8
L1
 10
25.120586271403049
 20
134.70633496622651
 30
0.0
  0
SEQEND
  5
1408
  8
L1
  0
ARC
  5
5B
  8
L1
 10
19.108974822951321
 20
127.1265735050652
 30
0.0
 40
4.981314598045679
 50
357.35159765871231
 51
92.648402341288346
  0
ARC
  5
5C
  8
L1
 10
19.108974822951211
 20
127.1265735050652
 30
0.0
 40
7.4000000000000181
 50
0.0
 51
90.0
  0
ARC
  5
5D
  8
L1
 10
23.147911309239529
 20
131.1655099913535
 30
0.0
 40
5.3999999999999986
 50
0.0
 51
90.0
  0
LINE
  5
5E
  8
L1
 10
26.481882926501211
 20
120.6265735050652
 30
0.0
 11
15.20897482295134
 21
120.6265735050652
 31
0.0
  0
POLYLINE
  5
5F
  8
L1
 66
     1
 10
0.0
 20
0.0
 30
0.0
  0
VERTEX
  5
1409
  8
L1
 10
15.85449518013632
 20
133.52657350506519
 30
0.0
  0
VERTEX
  5
140A
  8
L1
 10
15.965616105579951
 20
133.49286848521859
 30
0.0
  0
VERTEX
  5
140B
  8
L1
 10
16.039283701049211
 20
133.40311370930749
 30
0.0
  0
VERTEX
  5
140C
  8
L1
 10
16.050668288870551
 20
133.28756104236601
 30
0.0
  0
VERTEX
  5
140D
  8
L1
 10
15.995932691459471
 20
133.18515753371989
 30
0.0
  0
SEQEND
  5
140E
  8
L1
  0
ARC
  5
60
  8
L1
 10
15.608974822951319
 20
136.7265735050652
 30
0.0
 40
3.200000000000057
 50
219.51794668407501
 51
269.99999999999892
  0
LINE
  5
61
  8
L1
 10
12.60897482295143
 20
123.2265735050652
 30
0.0
 11
12.60897482295143
 21
134.4994816086151
 31
0.0
  0
LINE
  5
62
  8
L1
 10
19.339145840885461
 20
122.1505794910811
 30
0.0
 11
24.084968836935719
 21
126.8964024871313
 31
0.0
  0
ARC
  5
63
  8
L1
 10
19.108974822951321
 20
127.1265735050652
 30
0.0
 40
4.981314598045679
 50
177.35159765871231
 51
272.64840234128889
  0
ARC
  5
64
  8
L1
 10
15.20897482295134
 20
123.2265735050652
 30
0.0
 40
2.6000000000000001
 50
180.0
 51
270.0
  0
POLYLINE
  5
65
  8
L1
 66
     1
 10
0.0
 20
0.0
 30
0.0
  0
VERTEX
  5
140F
  8
L1
 10
14.34187406368318
 20
118.86426937415609
 30
0.0
  0
VERTEX
  5
1410
  8
L1
 10
14.32192679091321
 20
118.8643232978764
 30
0.0
  0
VERTEX
  5
1411
  8
L1
 10
14.30197482295142
 20
118.8644850672911
 30
0.0
  0
SEQEND
  5
1412
  8
L1
  0
POLYLINE
  5
66
  8
L1
 66
     1
 10
0.0
 20
0.0
 30
0.0
  0
VERTEX
  5
1413
  8
L1
 10
14.30197482295142
 20
118.8644850672911
 30
0.0
  0
VERTEX
  5
1414
  8
L1
 10
13.6401872205061
 20
118.9348591149508
 30
0.0
  0
VERTEX
  5
1415
  8
L1
 10
12.98520243671026
 20
119.1369885030628
 30
0.0
  0
VERTEX
  5
1416
  8
L1
 10
12.38235559205526
 20
119.4631327548792
 30
0.0
  0
VERTEX
  5
1417
  8
L1
 10
11.869045703877701
 20
119.8866443859916
 30
0.0
  0
VERTEX
  5
1418
  8
L1
 10
11.44553407276538
 20
120.3999542741693
 30
0.0
  0
VERTEX
  5
1419
  8
L1
 10
11.119389820948919
 20
121.00280111882429
 30
0.0
  0
VERTEX
  5
141A
  8
L1
 10
10.91726043283705
 20
121.65778590262001
 30
0.0
  0
VERTEX
  5
141B
  8
L1
 10
10.846886385177349
 20
122.31957350506531
 30
0.0
  0
SEQEND
  5
141C
  8
L1
  0
POLYLINE
  5
67
  8
L1
 66
     1
 10
0.0
 20
0.0
 30
0.0
  0
VERTEX
  5
141D
  8
L1
 10
10.846886385177349
 20
122.31957350506531
 30
0.0
  0
VERTEX
  5
141E
  8
L1
 10
10.84672461576263
 20
122.339525473027
 30
0.0
  0
VERTEX
  5
141F
  8
L1
 10
10.84667069204232
 20
122.35947274579711
 30
0.0
  0
SEQEND
  5
1420
  8
L1
  0
ARC
  5
68
  8
L1
 10
14.30197482295142
 20
122.31957350506531
 30
0.0
 40
2.7360241002247609
 50
180.0
 51
270.0
  0
POLYLINE
  5
69
  8
L1
 66
     1
 10
0.0
 20
0.0
 30
0.0
  0
VERTEX
  5
1421
  8
L1
 10
22.32352240692029
 20
121.0426522701981
 30
0.0
  0
VERTEX
  5
1422
  8
L1
 10
22.410455787844221
 20
120.8314478528612
 30
0.0
  0
VERTEX
  5
1423
  8
L1
 10
22.887662095160351
 20
120.6265735050652
 30
0.0
  0
SEQEND
  5
1424
  8
L1
  0
POLYLINE
  5
6A
  8
L1
 66
     1
 10
0.0
 20
0.0
 30
0.0
  0
VERTEX
  5
1425
  8
L1
 10
22.32352240692029
 20
121.0426522701981
 30
0.0
  0
VERTEX
  5
1426
  8
L1
 10
22.345864706188699
 20
121.15884371828879
 30
0.0
  0
VERTEX
  5
1427
  8
L1
 10
22.411398918989502
 20
121.2573714409569
 30
0.0
  0
SEQEND
  5
1428
  8
L1
  0
LINE
  5
6B
  8
L1
 10
18.878803805017409
 20
132.1025675190495
 30
0.0
 11
14.13298080896692
 21
127.35674452299909
 31
0.0
  0
POLYLINE
  5
6C
  8
L1
 66
     1
 10
0.0
 20
0.0
 30
0.0
  0
VERTEX
  5
1429
  8
L1
 10
12.608974822951319
 20
130.90526077727409
 30
0.0
  0
VERTEX
  5
142A
  8
L1
 10
12.813849170747339
 20
130.428054469958
 30
0.0
  0
VERTEX
  5
142B
  8
L1
 10
13.025053588084059
 20
130.34112108903409
 30
0.0
  0
SEQEND
  5
142C
  8
L1
  0
LINE
  5
6D
  8
L1
 10
13.239772758842999
 20
130.4289976011033
 30
0.0
 11
15.995932691459471
 21
133.1851575337198
 31
0.0
  0
POLYLINE
  5
6E
  8
L1
 66
     1
 10
0.0
 20
0.0
 30
0.0
  0
VERTEX
  5
142D
  8
L1
 10
13.23977275884311
 20
130.4289976011033
 30
0.0
  0
VERTEX
  5
142E
  8
L1
 10
13.14124503617489
 20
130.36346338830259
 30
0.0
  0
VERTEX
  5
142F
  8
L1
 10
13.025053588084059
 20
130.34112108903409
 30
0.0
  0
SEQEND
  5
1430
  8
L1
  0
LINE
  5
6F
  8
L1
 10
14.54780850673211
 20
136.56550999135339
 30
0.0
 11
19.108974822951211
 21
136.56550999135339
 31
0.0
  0
LINE
  5
70
  8
L1
 10
19.108974822951211
 20
133.52657350506519
 30
0.0
 11
16.308974822951249
 21
133.52657350506519
 31
0.0
  0
LINE
  5
71
  8
L1
 10
15.608974822951209
 20
134.5265735050651
 30
0.0
 11
19.108974822951211
 21
134.5265735050651
 31
0.0
  0
POLYLINE
  5
72
  8
L1
 66
     1
 10
0.0
 20
0.0
 30
0.0
  0
VERTEX
  5
1431
  8
L1
 10
12.60897482295143
 20
134.4994816086151
 30
0.0
  0
VERTEX
  5
1432
  8
L1
 10
12.60943745859395
 20
134.51613653046809
 30
0.0
  0
VERTEX
  5
1433
  8
L1
 10
12.63956765564938
 20
134.6314677998437
 30
0.0
  0
VERTEX
  5
1434
  8
L1
 10
12.710342721962601
 20
134.7243042147914
 30
0.0
  0
VERTEX
  5
1435
  8
L1
 10
12.81119092065677
 20
134.78309263761599
 30
0.0
  0
VERTEX
  5
1436
  8
L1
 10
12.926847123233699
 20
134.79893690427051
 30
0.0
  0
VERTEX
  5
1437
  8
L1
 10
13.03980556437608
 20
134.7694339948207
 30
0.0
  0
VERTEX
  5
1438
  8
L1
 10
13.132138966543661
 20
134.6999605036672
 30
0.0
  0
VERTEX
  5
1439
  8
L1
 10
13.140413838737169
 20
134.69034987608541
 30
0.0
  0
SEQEND
  5
143A
  8
L1
  0
LINE
  5
73
  8
L1
 10
16.308974822951249
 20
133.52657350506519
 30
0.0
 11
15.608974822951209
 21
133.52657350506519
 31
0.0
  0
POLYLINE
  5
74
  8
L1
 66
     1
 10
0.0
 20
0.0
 30
0.0
  0
VERTEX
  5
143B
  8
L1
 10
14.54750048592148
 20
136.56551030760909
 30
0.0
  0
VERTEX
  5
143C
  8
L1
 10
14.54765445677452
 20
136.56551007041739
 30
0.0
  0
VERTEX
  5
143D
  8
L1
 10
14.54780850673199
 20
136.56550999135339
 30
0.0
  0
SEQEND
  5
143E
  8
L1
  0
POLYLINE
  5
75
  8
L1
 66
     1
 10
0.0
 20
0.0
 30
0.0
  0
VERTEX
  5
143F
  8
L1
 10
14.2479116254953
 20
136.86509916803581
 30
0.0
  0
VERTEX
  5
1440
  8
L1
 10
14.3358640911785
 20
136.6534627732926
 30
0.0
  0
VERTEX
  5
1441
  8
L1
 10
14.547500485921709
 20
136.56551030760929
 30
0.0
  0
SEQEND
  5
1442
  8
L1
  0
POLYLINE
  5
76
  8
L1
 66
     1
 10
0.0
 20
0.0
 30
0.0
  0
VERTEX
  5
1443
  8
L1
 10
14.24791130923944
 20
136.86540718884609
 30
0.0
  0
VERTEX
  5
1444
  8
L1
 10
14.2479113883034
 20
136.86525313888859
 30
0.0
  0
VERTEX
  5
1445
  8
L1
 10
14.24791162549519
 20
136.8650991680357
 30
0.0
  0
SEQEND
  5
1446
  8
L1
  0
ARC
  5
77
  8
L1
 10
15.608974822951319
 20
136.7265735050652
 30
0.0
 40
2.200000000000033
 50
180.0
 51
269.99999999999852
  0
ARC
  5
78
  8
L1
 10
15.608974822951319
 20
136.7265735050652
 30
0.0
 40
3.200000000000057
 50
180.0
 51
219.51794668407501
  0
LINE
  5
79
  8
L1
 10
23.147911309239529
 20
136.56550999135351
 30
0.0
 11
19.108974822951211
 21
136.56550999135351
 31
0.0
  0
ARC
  5
7A
  8
L1
 10
19.108974822951211
 20
127.12657350506539
 30
0.0
 40
9.4389364862881635
 50
53.310709947555509
 51
90.000000000000725
  0
LINE
  5
7B
  8
L1
 10
27.350811438685518
 20
133.92721539754641
 30
0.0
 11
26.688736284112512
 21
133.13818495351691
 31
0.0
  0
ARC
  5
7C
  8
L1
 10
28.70897482295134
 20
123.6265735050652
 30
0.0
 40
3.2000000000000282
 50
180.0
 51
230.48205331592459
  0
ARC
  5
7D
  8
L1
 10
28.70897482295134
 20
123.6265735050652
 30
0.0
 40
2.2000000000000051
 50
180.0
 51
270.0
  0
LINE
  5
7E
  8
L1
 10
28.54791130923951
 20
127.12657350506539
 30
0.0
 11
28.54791130923951
 21
122.56540718884609
 31
0.0
  0
POLYLINE
  5
7F
  8
L1
 66
     1
 10
0.0
 20
0.0
 30
0.0
  0
VERTEX
  5
1447
  8
L1
 10
28.84750048592144
 20
122.2655103076092
 30
0.0
  0
VERTEX
  5
1448
  8
L1
 10
28.847654456774482
 20
122.26551007041741
 30
0.0
  0
VERTEX
  5
1449
  8
L1
 10
28.847808506732061
 20
122.2655099913535
 30
0.0
  0
SEQEND
  5
144A
  8
L1
  0
POLYLINE
  5
80
  8
L1
 66
     1
 10
0.0
 20
0.0
 30
0.0
  0
VERTEX
  5
144B
  8
L1
 10
28.54791162549526
 20
122.5650991680357
 30
0.0
  0
VERTEX
  5
144C
  8
L1
 10
28.635864091178458
 20
122.35346277329251
 30
0.0
  0
VERTEX
  5
144D
  8
L1
 10
28.847500485921671
 20
122.2655103076093
 30
0.0
  0
SEQEND
  5
144E
  8
L1
  0
POLYLINE
  5
81
  8
L1
 66
     1
 10
0.0
 20
0.0
 30
0.0
  0
VERTEX
  5
144F
  8
L1
 10
28.54791130923951
 20
122.56540718884609
 30
0.0
  0
VERTEX
  5
1450
  8
L1
 10
28.547911388303358
 20
122.56525313888859
 30
0.0
  0
VERTEX
  5
1451
  8
L1
 10
28.54791162549526
 20
122.5650991680357
 30
0.0
  0
SEQEND
  5
1452
  8
L1
  0
POLYLINE
  5
82
  8
L1
 66
     1
 10
0.0
 20
0.0
 30
0.0
  0
VERTEX
  5
1453
  8
L1
 10
26.672751193971351
 20
121.1580125208511
 30
0.0
  0
VERTEX
  5
1454
  8
L1
 10
26.683277954881241
 20
121.14891108942859
 30
0.0
  0
VERTEX
  5
1455
  8
L1
 10
26.75396859727601
 20
121.0529078089085
 30
0.0
  0
VERTEX
  5
1456
  8
L1
 10
26.78159424995437
 20
120.9394641279351
 30
0.0
  0
VERTEX
  5
1457
  8
L1
 10
26.762961270401259
 20
120.8217301913464
 30
0.0
  0
VERTEX
  5
1458
  8
L1
 10
26.701667662668729
 20
120.7223807080785
 30
0.0
  0
VERTEX
  5
1459
  8
L1
 10
26.607095059538938
 20
120.6539520183223
 30
0.0
  0
VERTEX
  5
145A
  8
L1
 10
26.493557728998152
 20
120.6268007435218
 30
0.0
  0
VERTEX
  5
145B
  8
L1
 10
26.481882926501211
 20
120.6265735050652
 30
0.0
  0
SEQEND
  5
145C
  8
L1
  0
ARC
  5
83
  8
L1
 10
28.70897482295134
 20
123.6265735050652
 30
0.0
 40
3.2000000000000282
 50
230.48205331592459
 51
270.0
  0
POLYLINE
  5
84
  8
L1
 66
     1
 10
0.0
 20
0.0
 30
0.0
  0
VERTEX
  5
145D
  8
L1
 10
25.167558851605971
 20
124.0135313735735
 30
0.0
  0
VERTEX
  5
145E
  8
L1
 10
25.269962360252229
 20
124.06826697098469
 30
0.0
  0
VERTEX
  5
145F
  8
L1
 10
25.385515027193769
 20
124.0568823831632
 30
0.0
  0
VERTEX
  5
1460
  8
L1
 10
25.475269803104819
 20
123.9832147876941
 30
0.0
  0
VERTEX
  5
1461
  8
L1
 10
25.508974822951298
 20
123.8720938622504
 30
0.0
  0
SEQEND
  5
1462
  8
L1
  0
LINE
  5
85
  8
L1
 10
25.508974822951298
 20
123.6265735050652
 30
0.0
 11
25.508974822951298
 21
124.3265735050653
 31
0.0
  0
LINE
  5
86
  8
L1
 10
28.547911309239389
 20
127.12657350506539
 30
0.0
 11
28.547911309239389
 21
131.1655099913535
 31
0.0
  0
POLYLINE
  5
87
  8
L1
 66
     1
 10
0.0
 20
0.0
 30
0.0
  0
VERTEX
  5
1463
  8
L1
 10
26.688736284112618
 20
133.13818495351691
 30
0.0
  0
VERTEX
  5
1464
  8
L1
 10
26.646198319726121
 20
133.071158052627
 30
0.0
  0
VERTEX
  5
1465
  8
L1
 10
26.618685159566152
 20
132.9551560625282
 30
0.0
  0
VERTEX
  5
1466
  8
L1
 10
26.63761600653396
 20
132.83999481813231
 30
0.0
  0
VERTEX
  5
1467
  8
L1
 10
26.67793850029528
 20
132.7661045886955
 30
0.0
  0
SEQEND
  5
1468
  8
L1
  0
ARC
  5
88
  8
L1
 10
19.108974822951211
 20
127.12657350506539
 30
0.0
 40
9.4389364862881635
 50
0.0
 51
36.689290052442303
  0
LINE
  5
89
  8
L1
 10
25.508974822951298
 20
124.3265735050653
 30
0.0
 11
25.508974822951298
 21
127.1265735050652
 31
0.0
  0
LINE
  5
8A
  8
L1
 10
26.508974822951298
 20
127.1265735050652
 30
0.0
 11
26.508974822951298
 21
123.6265735050652
 31
0.0
  0
ARC
  5
8B
  8
L1
 10
27.12099810574983
 20
134.12005168045241
 30
0.0
 40
0.3
 50
319.99999999999028
 51
45.000000000003197
  0
ARC
  5
8C
  8
L1
 10
26.102452998338489
 20
135.13859678786361
 30
0.0
 40
0.3
 50
45.00000000000238
 51
129.99999999999989
  0
LINE
  5
8D
  8
L1
 10
25.120586271403049
 20
134.70633496622659
 30
0.0
 11
25.909616715432492
 21
135.3684101207993
 31
0.0
  0
LINE
  5
8E
  8
L1
 10
26.314585032694421
 20
135.35072882221959
 30
0.0
 11
27.333130140105759
 21
134.33218371480839
 31
0.0
  0
LINE
  5
A5
  8
L6
 10
307.0192729715435
 20
208.87657350506529
 30
0.0
 11
238.34842281940419
 21
208.87657350506529
 31
0.0
  0
ARC
  5
A8
  8
L1
 10
186.1089748229513
 20
136.7265735050652
 30
0.0
 40
3.200000000000057
 50
270.00000000000102
 51
320.48205331592487
  0
POLYLINE
  5
A9
  8
L1
 66
     1
 10
0.0
 20
0.0
 30
0.0
  0
VERTEX
  5
1469
  8
L1
 10
185.8634544657663
 20
133.52657350506519
 30
0.0
  0
VERTEX
  5
146A
  8
L1
 10
185.7523335403227
 20
133.49286848521859
 30
0.0
  0
VERTEX
  5
146B
  8
L1
 10
185.67866594485341
 20
133.40311370930749
 30
0.0
  0
VERTEX
  5
146C
  8
L1
 10
185.66728135703201
 20
133.28756104236601
 30
0.0
  0
VERTEX
  5
146D
  8
L1
 10
185.72201695444309
 20
133.18515753371989
 30
0.0
  0
SEQEND
  5
146E
  8
L1
  0
LINE
  5
AA
  8
L1
 10
189.10897482295121
 20
123.2265735050652
 30
0.0
 11
189.10897482295121
 21
134.4994816086151
 31
0.0
  0
LINE
  5
AB
  8
L1
 10
174.3671382072171
 20
133.92721539754641
 30
0.0
 11
175.02921336179011
 21
133.13818495351691
 31
0.0
  0
ARC
  5
AC
  8
L1
 10
178.57003833666309
 20
131.1655099913535
 30
0.0
 40
5.3999999999999986
 50
90.0
 51
180.0
  0
ARC
  5
AD
  8
L1
 10
182.60897482295141
 20
127.1265735050652
 30
0.0
 40
7.4000000000000181
 50
90.0
 51
180.0
  0
ARC
  5
AE
  8
L1
 10
182.60897482295141
 20
127.1265735050652
 30
0.0
 40
6.3999999999999941
 50
89.999999999998977
 51
180.0
  0
LINE
  5
AF
  8
L1
 10
176.55039079429659
 20
124.0135313735735
 30
0.0
 11
179.30655072691309
 21
121.2573714409569
 31
0.0
  0
LINE
  5
B0
  8
L1
 10
175.23606671940141
 20
120.6265735050652
 30
0.0
 11
186.5089748229513
 21
120.6265735050652
 31
0.0
  0
ARC
  5
B1
  8
L1
 10
182.6089748229513
 20
127.1265735050652
 30
0.0
 40
4.981314598045679
 50
87.351597658711654
 51
182.64840234128761
  0
LINE
  5
B2
  8
L1
 10
182.3788038050171
 20
122.1505794910811
 30
0.0
 11
177.63298080896689
 21
126.8964024871313
 31
0.0
  0
ARC
  5
B3
  8
L1
 10
173.0089748229513
 20
123.6265735050652
 30
0.0
 40
3.2000000000000282
 50
309.51794668407541
 51
0.0
  0
LINE
  5
B4
  8
L1
 10
173.17003833666311
 20
127.12657350506539
 30
0.0
 11
173.17003833666311
 21
122.56540718884609
 31
0.0
  0
ARC
  5
B5
  8
L1
 10
173.0089748229513
 20
123.6265735050652
 30
0.0
 40
2.2000000000000051
 50
270.0
 51
0.0
  0
POLYLINE
  5
B6
  8
L1
 66
     1
 10
0.0
 20
0.0
 30
0.0
  0
VERTEX
  5
146F
  8
L1
 10
173.17003833666311
 20
122.56540718884609
 30
0.0
  0
VERTEX
  5
1470
  8
L1
 10
173.1700382575992
 20
122.56525313888859
 30
0.0
  0
VERTEX
  5
1471
  8
L1
 10
173.17003802040739
 20
122.5650991680357
 30
0.0
  0
SEQEND
  5
1472
  8
L1
  0
POLYLINE
  5
B7
  8
L1
 66
     1
 10
0.0
 20
0.0
 30
0.0
  0
VERTEX
  5
1473
  8
L1
 10
173.17003802040739
 20
122.5650991680357
 30
0.0
  0
VERTEX
  5
1474
  8
L1
 10
173.0820855547241
 20
122.35346277329251
 30
0.0
  0
VERTEX
  5
1475
  8
L1
 10
172.87044915998089
 20
122.2655103076093
 30
0.0
  0
SEQEND
  5
1476
  8
L1
  0
POLYLINE
  5
B8
  8
L1
 66
     1
 10
0.0
 20
0.0
 30
0.0
  0
VERTEX
  5
1477
  8
L1
 10
172.87044915998109
 20
122.2655103076092
 30
0.0
  0
VERTEX
  5
1478
  8
L1
 10
172.87029518912809
 20
122.26551007041741
 30
0.0
  0
VERTEX
  5
1479
  8
L1
 10
172.8701411391705
 20
122.2655099913535
 30
0.0
  0
SEQEND
  5
147A
  8
L1
  0
ARC
  5
B9
  8
L1
 10
173.0089748229513
 20
123.6265735050652
 30
0.0
 40
3.2000000000000282
 50
270.0
 51
309.51794668407541
  0
POLYLINE
  5
BA
  8
L1
 66
     1
 10
0.0
 20
0.0
 30
0.0
  0
VERTEX
  5
147B
  8
L1
 10
175.04519845193121
 20
121.1580125208511
 30
0.0
  0
VERTEX
  5
147C
  8
L1
 10
175.0346716910214
 20
121.14891108942859
 30
0.0
  0
VERTEX
  5
147D
  8
L1
 10
174.96398104862661
 20
121.0529078089085
 30
0.0
  0
VERTEX
  5
147E
  8
L1
 10
174.9363553959482
 20
120.9394641279351
 30
0.0
  0
VERTEX
  5
147F
  8
L1
 10
174.9549883755013
 20
120.8217301913464
 30
0.0
  0
VERTEX
  5
1480
  8
L1
 10
175.01628198323391
 20
120.7223807080785
 30
0.0
  0
VERTEX
  5
1481
  8
L1
 10
175.1108545863637
 20
120.6539520183223
 30
0.0
  0
VERTEX
  5
1482
  8
L1
 10
175.22439191690441
 20
120.6268007435218
 30
0.0
  0
VERTEX
  5
1483
  8
L1
 10
175.23606671940141
 20
120.6265735050652
 30
0.0
  0
SEQEND
  5
1484
  8
L1
  0
LINE
  5
BB
  8
L1
 10
176.20897482295129
 20
123.6265735050652
 30
0.0
 11
176.20897482295129
 21
124.3265735050653
 31
0.0
  0
POLYLINE
  5
BC
  8
L1
 66
     1
 10
0.0
 20
0.0
 30
0.0
  0
VERTEX
  5
1485
  8
L1
 10
176.55039079429659
 20
124.0135313735735
 30
0.0
  0
VERTEX
  5
1486
  8
L1
 10
176.44798728565041
 20
124.06826697098469
 30
0.0
  0
VERTEX
  5
1487
  8
L1
 10
176.33243461870879
 20
124.0568823831632
 30
0.0
  0
VERTEX
  5
1488
  8
L1
 10
176.2426798427978
 20
123.9832147876941
 30
0.0
  0
VERTEX
  5
1489
  8
L1
 10
176.20897482295129
 20
123.8720938622504
 30
0.0
  0
SEQEND
  5
148A
  8
L1
  0
LINE
  5
BD
  8
L1
 10
175.20897482295129
 20
127.1265735050652
 30
0.0
 11
175.20897482295129
 21
123.6265735050652
 31
0.0
  0
LINE
  5
BE
  8
L1
 10
176.20897482295129
 20
124.3265735050653
 30
0.0
 11
176.20897482295129
 21
127.1265735050652
 31
0.0
  0
LINE
  5
BF
  8
L1
 10
173.1700383366632
 20
127.12657350506539
 30
0.0
 11
173.1700383366632
 21
131.1655099913535
 31
0.0
  0
ARC
  5
C0
  8
L1
 10
182.60897482295141
 20
127.12657350506539
 30
0.0
 40
9.4389364862881635
 50
143.3107099475576
 51
180.0
  0
POLYLINE
  5
C1
  8
L1
 66
     1
 10
0.0
 20
0.0
 30
0.0
  0
VERTEX
  5
148B
  8
L1
 10
175.02921336179
 20
133.13818495351691
 30
0.0
  0
VERTEX
  5
148C
  8
L1
 10
175.0717513261765
 20
133.071158052627
 30
0.0
  0
VERTEX
  5
148D
  8
L1
 10
175.09926448633649
 20
132.9551560625282
 30
0.0
  0
VERTEX
  5
148E
  8
L1
 10
175.08033363936869
 20
132.83999481813231
 30
0.0
  0
VERTEX
  5
148F
  8
L1
 10
175.04001114560731
 20
132.7661045886955
 30
0.0
  0
SEQEND
  5
1490
  8
L1
  0
ARC
  5
C2
  8
L1
 10
182.6089748229513
 20
127.1265735050652
 30
0.0
 40
4.981314598045679
 50
267.35159765871089
 51
2.648402341287694
  0
ARC
  5
C3
  8
L1
 10
186.5089748229513
 20
123.2265735050652
 30
0.0
 40
2.6000000000000001
 50
270.0
 51
0.0
  0
POLYLINE
  5
C4
  8
L1
 66
     1
 10
0.0
 20
0.0
 30
0.0
  0
VERTEX
  5
1491
  8
L1
 10
179.3944272389823
 20
121.0426522701981
 30
0.0
  0
VERTEX
  5
1492
  8
L1
 10
179.37208493971389
 20
121.15884371828879
 30
0.0
  0
VERTEX
  5
1493
  8
L1
 10
179.30655072691309
 20
121.2573714409569
 30
0.0
  0
SEQEND
  5
1494
  8
L1
  0
POLYLINE
  5
C5
  8
L1
 66
     1
 10
0.0
 20
0.0
 30
0.0
  0
VERTEX
  5
1495
  8
L1
 10
179.3944272389823
 20
121.0426522701981
 30
0.0
  0
VERTEX
  5
1496
  8
L1
 10
179.30749385805839
 20
120.8314478528612
 30
0.0
  0
VERTEX
  5
1497
  8
L1
 10
178.8302875507423
 20
120.6265735050652
 30
0.0
  0
SEQEND
  5
1498
  8
L1
  0
ARC
  5
C6
  8
L1
 10
187.4159748229512
 20
122.31957350506531
 30
0.0
 40
2.7360241002247609
 50
270.0
 51
0.0
  0
POLYLINE
  5
C7
  8
L1
 66
     1
 10
0.0
 20
0.0
 30
0.0
  0
VERTEX
  5
1499
  8
L1
 10
190.87106326072521
 20
122.31957350506531
 30
0.0
  0
VERTEX
  5
149A
  8
L1
 10
190.87122503014001
 20
122.339525473027
 30
0.0
  0
VERTEX
  5
149B
  8
L1
 10
190.8712789538603
 20
122.35947274579711
 30
0.0
  0
SEQEND
  5
149C
  8
L1
  0
POLYLINE
  5
C8
  8
L1
 66
     1
 10
0.0
 20
0.0
 30
0.0
  0
VERTEX
  5
149D
  8
L1
 10
187.4159748229512
 20
118.8644850672911
 30
0.0
  0
VERTEX
  5
149E
  8
L1
 10
188.07776242539649
 20
118.9348591149508
 30
0.0
  0
VERTEX
  5
149F
  8
L1
 10
188.7327472091923
 20
119.1369885030628
 30
0.0
  0
VERTEX
  5
14A0
  8
L1
 10
189.3355940538473
 20
119.4631327548792
 30
0.0
  0
VERTEX
  5
14A1
  8
L1
 10
189.84890394202489
 20
119.8866443859916
 30
0.0
  0
VERTEX
  5
14A2
  8
L1
 10
190.27241557313721
 20
120.3999542741693
 30
0.0
  0
VERTEX
  5
14A3
  8
L1
 10
190.5985598249537
 20
121.00280111882429
 30
0.0
  0
VERTEX
  5
14A4
  8
L1
 10
190.80068921306551
 20
121.65778590262001
 30
0.0
  0
VERTEX
  5
14A5
  8
L1
 10
190.87106326072521
 20
122.31957350506531
 30
0.0
  0
SEQEND
  5
14A6
  8
L1
  0
POLYLINE
  5
C9
  8
L1
 66
     1
 10
0.0
 20
0.0
 30
0.0
  0
VERTEX
  5
14A7
  8
L1
 10
187.37607558221941
 20
118.86426937415609
 30
0.0
  0
VERTEX
  5
14A8
  8
L1
 10
187.39602285498941
 20
118.8643232978764
 30
0.0
  0
VERTEX
  5
14A9
  8
L1
 10
187.4159748229512
 20
118.8644850672911
 30
0.0
  0
SEQEND
  5
14AA
  8
L1
  0
LINE
  5
CA
  8
L1
 10
188.47817688705959
 20
130.4289976011033
 30
0.0
 11
185.72201695444309
 21
133.1851575337198
 31
0.0
  0
LINE
  5
CB
  8
L1
 10
182.83914584088521
 20
132.1025675190495
 30
0.0
 11
187.5849688369357
 21
127.35674452299909
 31
0.0
  0
POLYLINE
  5
CC
  8
L1
 66
     1
 10
0.0
 20
0.0
 30
0.0
  0
VERTEX
  5
14AB
  8
L1
 10
188.4781768870595
 20
130.4289976011033
 30
0.0
  0
VERTEX
  5
14AC
  8
L1
 10
188.5767046097277
 20
130.36346338830259
 30
0.0
  0
VERTEX
  5
14AD
  8
L1
 10
188.6928960578185
 20
130.34112108903409
 30
0.0
  0
SEQEND
  5
14AE
  8
L1
  0
POLYLINE
  5
CD
  8
L1
 66
     1
 10
0.0
 20
0.0
 30
0.0
  0
VERTEX
  5
14AF
  8
L1
 10
189.1089748229513
 20
130.90526077727409
 30
0.0
  0
VERTEX
  5
14B0
  8
L1
 10
188.9041004751553
 20
130.428054469958
 30
0.0
  0
VERTEX
  5
14B1
  8
L1
 10
188.6928960578185
 20
130.34112108903409
 30
0.0
  0
SEQEND
  5
14B2
  8
L1
  0
LINE
  5
CE
  8
L1
 10
178.57003833666309
 20
136.56550999135351
 30
0.0
 11
182.60897482295141
 21
136.56550999135351
 31
0.0
  0
ARC
  5
CF
  8
L1
 10
182.60897482295141
 20
127.12657350506539
 30
0.0
 40
9.4389364862881635
 50
89.999999999999275
 51
126.68929005244441
  0
POLYLINE
  5
D0
  8
L1
 66
     1
 10
0.0
 20
0.0
 30
0.0
  0
VERTEX
  5
14B3
  8
L1
 10
176.96944373932101
 20
134.69553718240931
 30
0.0
  0
VERTEX
  5
14B4
  8
L1
 10
176.89790832359091
 20
134.65610894851449
 30
0.0
  0
VERTEX
  5
14B5
  8
L1
 10
176.78039132313111
 20
134.6362838726603
 30
0.0
  0
VERTEX
  5
14B6
  8
L1
 10
176.66664957419781
 20
134.66276433011859
 30
0.0
  0
VERTEX
  5
14B7
  8
L1
 10
176.59736337449959
 20
134.70633496622651
 30
0.0
  0
SEQEND
  5
14B8
  8
L1
  0
LINE
  5
D1
  8
L1
 10
176.59736337449959
 20
134.70633496622659
 30
0.0
 11
175.8083329304701
 21
135.3684101207993
 31
0.0
  0
ARC
  5
D2
  8
L1
 10
175.6154966475641
 20
135.13859678786361
 30
0.0
 40
0.3
 50
50.000000000000043
 51
134.99999999999761
  0
ARC
  5
D3
  8
L1
 10
174.59695154015279
 20
134.12005168045241
 30
0.0
 40
0.3
 50
134.9999999999967
 51
220.00000000000961
  0
LINE
  5
D4
  8
L1
 10
175.4033646132082
 20
135.35072882221959
 30
0.0
 11
174.3848195057968
 21
134.33218371480839
 31
0.0
  0
POLYLINE
  5
D5
  8
L1
 66
     1
 10
0.0
 20
0.0
 30
0.0
  0
VERTEX
  5
14B9
  8
L1
 10
187.47003802040729
 20
136.86509916803581
 30
0.0
  0
VERTEX
  5
14BA
  8
L1
 10
187.38208555472411
 20
136.6534627732926
 30
0.0
  0
VERTEX
  5
14BB
  8
L1
 10
187.1704491599809
 20
136.56551030760929
 30
0.0
  0
SEQEND
  5
14BC
  8
L1
  0
ARC
  5
D6
  8
L1
 10
186.1089748229513
 20
136.7265735050652
 30
0.0
 40
2.200000000000033
 50
270.00000000000142
 51
0.0
  0
LINE
  5
D7
  8
L1
 10
185.40897482295139
 20
133.52657350506519
 30
0.0
 11
186.10897482295141
 21
133.52657350506519
 31
0.0
  0
LINE
  5
D8
  8
L1
 10
186.10897482295141
 20
134.5265735050651
 30
0.0
 11
182.60897482295141
 21
134.5265735050651
 31
0.0
  0
LINE
  5
D9
  8
L1
 10
182.60897482295141
 20
133.52657350506519
 30
0.0
 11
185.40897482295139
 21
133.52657350506519
 31
0.0
  0
POLYLINE
  5
DA
  8
L1
 66
     1
 10
0.0
 20
0.0
 30
0.0
  0
VERTEX
  5
14BD
  8
L1
 10
187.1704491599811
 20
136.56551030760909
 30
0.0
  0
VERTEX
  5
14BE
  8
L1
 10
187.1702951891281
 20
136.56551007041739
 30
0.0
  0
VERTEX
  5
14BF
  8
L1
 10
187.1701411391706
 20
136.56550999135339
 30
0.0
  0
SEQEND
  5
14C0
  8
L1
  0
LINE
  5
DB
  8
L1
 10
187.17014113917051
 20
136.56550999135339
 30
0.0
 11
182.60897482295141
 21
136.56550999135339
 31
0.0
  0
POLYLINE
  5
DC
  8
L1
 66
     1
 10
0.0
 20
0.0
 30
0.0
  0
VERTEX
  5
14C1
  8
L1
 10
189.10897482295121
 20
134.4994816086151
 30
0.0
  0
VERTEX
  5
14C2
  8
L1
 10
189.10851218730861
 20
134.51613653046809
 30
0.0
  0
VERTEX
  5
14C3
  8
L1
 10
189.07838199025321
 20
134.6314677998437
 30
0.0
  0
VERTEX
  5
14C4
  8
L1
 10
189.00760692393999
 20
134.7243042147914
 30
0.0
  0
VERTEX
  5
14C5
  8
L1
 10
188.90675872524579
 20
134.78309263761599
 30
0.0
  0
VERTEX
  5
14C6
  8
L1
 10
188.79110252266889
 20
134.79893690427051
 30
0.0
  0
VERTEX
  5
14C7
  8
L1
 10
188.67814408152651
 20
134.7694339948207
 30
0.0
  0
VERTEX
  5
14C8
  8
L1
 10
188.5858106793589
 20
134.6999605036672
 30
0.0
  0
VERTEX
  5
14C9
  8
L1
 10
188.57753580716539
 20
134.69034987608541
 30
0.0
  0
SEQEND
  5
14CA
  8
L1
  0
POLYLINE
  5
DD
  8
L1
 66
     1
 10
0.0
 20
0.0
 30
0.0
  0
VERTEX
  5
14CB
  8
L1
 10
187.47003833666309
 20
136.86540718884609
 30
0.0
  0
VERTEX
  5
14CC
  8
L1
 10
187.47003825759921
 20
136.86525313888859
 30
0.0
  0
VERTEX
  5
14CD
  8
L1
 10
187.4700380204074
 20
136.8650991680357
 30
0.0
  0
SEQEND
  5
14CE
  8
L1
  0
ARC
  5
DE
  8
L1
 10
186.1089748229513
 20
136.7265735050652
 30
0.0
 40
3.200000000000057
 50
320.48205331592487
 51
0.0
  0
LINE
  5
E1
  8
L1
 10
271.34842281940428
 20
120.4104133473372
 30
0.0
 11
271.34842281940428
 21
134.73678059172229
 31
0.0
  0
LINE
  5
E3
  8
L1
 10
297.22914278871991
 20
118.86426937415609
 30
0.0
 11
271.53795562815571
 21
120.21068744038629
 31
0.0
  0
ARC
  5
E7
  8
L1
 10
271.54842281940432
 20
120.4104133473372
 30
0.0
 40
0.2
 50
180.0
 51
267.00000000000028
  0
LINE
  5
EE
  8
L1
 10
297.9484228194043
 20
120.6265767810779
 30
0.0
 11
297.9484228194043
 21
298.16959760529022
 31
0.0
  0
LINE
  5
EF
  8
L1
 10
297.9484228194043
 20
120.62657350506529
 30
0.0
 11
297.9484228194043
 21
119.5835494048405
 31
0.0
  0
LINE
  5
F0
  8
L1
 10
297.9484228194043
 20
119.5835494048405
 30
0.0
 11
297.22914278871991
 21
118.86426937415609
 31
0.0
  0
LINE
  5
F4
  8
L2
 10
249.9699188850399
 20
137.80120702136989
 30
0.0
 11
273.54842281940432
 21
136.56550999135339
 31
0.0
  0
ARC
  5
F6
  8
L2
 10
250.14842281940429
 20
139.29915132350189
 30
0.0
 40
1.5
 50
180.0
 51
266.99999999999977
  0
LINE
  5
F7
  8
L2
 10
297.9484228194043
 20
135.92657350506531
 30
0.0
 11
273.54842281940432
 21
136.56550999135351
 31
0.0
  0
ARC
  5
F8
  8
L1
 10
271.1484228194044
 20
134.73678059172229
 30
0.0
 40
0.2
 50
0.0
 51
87.000000000000327
  0
POLYLINE
  5
FA
  8
L1
 66
     1
 10
0.0
 20
0.0
 30
0.0
  0
VERTEX
  5
14CF
  8
L1
 10
366.7871317780353
 20
120.4104133473372
 30
0.0
  0
VERTEX
  5
14D0
  8
L1
 10
366.63914264239583
 20
120.4137291955867
 30
0.0
  0
VERTEX
  5
14D1
  8
L1
 10
366.49146866345092
 20
120.423670085922
 30
0.0
  0
VERTEX
  5
14D2
  8
L1
 10
366.344406200859
 20
120.4402160684584
 30
0.0
  0
VERTEX
  5
14D3
  8
L1
 10
366.19825038705631
 20
120.4633339378758
 30
0.0
  0
VERTEX
  5
14D4
  8
L1
 10
366.05329453497018
 20
120.49297730005701
 30
0.0
  0
VERTEX
  5
14D5
  8
L1
 10
365.9098295493838
 20
120.5290866651939
 30
0.0
  0
VERTEX
  5
14D6
  8
L1
 10
365.76814334313332
 20
120.5715895671743
 30
0.0
  0
VERTEX
  5
14D7
  8
L1
 10
365.62852025931011
 20
120.6204007090108
 30
0.0
  0
VERTEX
  5
14D8
  8
L1
 10
365.49124050062647
 20
120.6754221340191
 30
0.0
  0
VERTEX
  5
14D9
  8
L1
 10
365.35657956709042
 20
120.7365434224029
 30
0.0
  0
VERTEX
  5
14DA
  8
L1
 10
365.22480770311847
 20
120.803641912849
 30
0.0
  0
VERTEX
  5
14DB
  8
L1
 10
365.09618935519512
 20
120.8765829486909
 30
0.0
  0
VERTEX
  5
14DC
  8
L1
 10
364.97098264116852
 20
120.9552201481451
 30
0.0
  0
VERTEX
  5
14DD
  8
L1
 10
364.84943883224611
 20
121.0393956980765
 30
0.0
  0
VERTEX
  5
14DE
  8
L1
 10
364.73180184873081
 20
121.1289406707065
 30
0.0
  0
VERTEX
  5
14DF
  8
L1
 10
364.61830777050972
 20
121.2236753626256
 30
0.0
  0
VERTEX
  5
14E0
  8
L1
 10
364.50918436327629
 20
121.3234096554314
 30
0.0
  0
VERTEX
  5
14E1
  8
L1
 10
364.40465062143937
 20
121.42794339726829
 30
0.0
  0
VERTEX
  5
14E2
  8
L1
 10
364.30491632863362
 20
121.53706680450171
 30
0.0
  0
VERTEX
  5
14E3
  8
L1
 10
364.21018163671459
 20
121.6505608827228
 30
0.0
  0
VERTEX
  5
14E4
  8
L1
 10
364.1206366640846
 20
121.768197866238
 30
0.0
  0
VERTEX
  5
14E5
  8
L1
 10
364.0364611141531
 20
121.88974167516049
 30
0.0
  0
VERTEX
  5
14E6
  8
L1
 10
363.95782391469902
 20
122.0149483891871
 30
0.0
  0
VERTEX
  5
14E7
  8
L1
 10
363.88488287885701
 20
122.1435667371105
 30
0.0
  0
VERTEX
  5
14E8
  8
L1
 10
363.81778438841093
 20
122.2753386010824
 30
0.0
  0
VERTEX
  5
14E9
  8
L1
 10
363.7566631000272
 20
122.40999953461839
 30
0.0
  0
VERTEX
  5
14EA
  8
L1
 10
363.70164167501878
 20
122.5472792933021
 30
0.0
  0
VERTEX
  5
14EB
  8
L1
 10
363.6528305331824
 20
122.68690237712531
 30
0.0
  0
VERTEX
  5
14EC
  8
L1
 10
363.61032763120198
 20
122.8285885833757
 30
0.0
  0
VERTEX
  5
14ED
  8
L1
 10
363.57421826606509
 20
122.9720535689622
 30
0.0
  0
VERTEX
  5
14EE
  8
L1
 10
363.54457490388381
 20
123.11700942104829
 30
0.0
  0
VERTEX
  5
14EF
  8
L1
 10
363.52145703446638
 20
123.263165234851
 30
0.0
  0
VERTEX
  5
14F0
  8
L1
 10
363.50491105192998
 20
123.41022769744281
 30
0.0
  0
VERTEX
  5
14F1
  8
L1
 10
363.49497016159472
 20
123.5579016763878
 30
0.0
  0
VERTEX
  5
14F2
  8
L1
 10
363.49165431334518
 20
123.70589081202721
 30
0.0
  0
SEQEND
  5
14F3
  8
L1
  0
POLYLINE
  5
FB
  8
L1
 66
     1
 10
0.0
 20
0.0
 30
0.0
  0
VERTEX
  5
14F4
  8
L1
 10
365.26074138212579
 20
137.38534048900891
 30
0.0
  0
VERTEX
  5
14F5
  8
L1
 10
365.37155706036867
 20
137.16738665341879
 30
0.0
  0
VERTEX
  5
14F6
  8
L1
 10
365.51097135240337
 20
136.9592108253876
 30
0.0
  0
VERTEX
  5
14F7
  8
L1
 10
365.74515304768221
 20
136.69986117450401
 30
0.0
  0
VERTEX
  5
14F8
  8
L1
 10
366.02262171003679
 20
136.48111088918441
 30
0.0
  0
VERTEX
  5
14F9
  8
L1
 10
366.34699230999991
 20
136.30658677950871
 30
0.0
  0
VERTEX
  5
14FA
  8
L1
 10
366.69504277154221
 20
136.19339535098939
 30
0.0
  0
VERTEX
  5
14FB
  8
L1
 10
366.748281944116
 20
136.18200213547379
 30
0.0
  0
SEQEND
  5
14FC
  8
L1
  0
LINE
  5
FC
  8
L1
 10
370.42816300054648
 20
134.93650649867331
 30
0.0
 11
365.90905346311928
 21
134.93650649867331
 31
0.0
  0
LINE
  5
FD
  8
L1
 10
365.25751533338672
 20
127.3454144349367
 30
0.0
 11
369.98897354120191
 21
132.07687264275199
 31
0.0
  0
CIRCLE
  5
FE
  8
L1
 10
370.20781447107328
 20
127.12657350506539
 30
0.0
 40
6.097393363178492
  0
ARC
  5
FF
  8
L1
 10
370.20781447107328
 20
127.12657350506539
 30
0.0
 40
4.9551339946734032
 50
177.4687382067074
 51
272.53126179329121
  0
CIRCLE
  5
100
  8
L1
 10
370.20781447107328
 20
127.12657350506539
 30
0.0
 40
5.7974047862592784
  0
POLYLINE
  5
101
  8
L1
 66
     1
 10
0.0
 20
0.0
 30
0.0
  0
VERTEX
  5
14FD
  8
L1
 10
361.94572603329931
 20
122.31957350506531
 30
0.0
  0
VERTEX
  5
14FE
  8
L1
 10
361.96480039868737
 20
121.990942936433
 30
0.0
  0
VERTEX
  5
14FF
  8
L1
 10
362.01610008095901
 20
121.65778590262001
 30
0.0
  0
VERTEX
  5
1500
  8
L1
 10
362.10079001073041
 20
121.32642156189149
 30
0.0
  0
VERTEX
  5
1501
  8
L1
 10
362.21822946907088
 20
121.00280111882439
 30
0.0
  0
VERTEX
  5
1502
  8
L1
 10
362.36705797207281
 20
120.692376802182
 30
0.0
  0
VERTEX
  5
1503
  8
L1
 10
362.54437372088728
 20
120.3999542741694
 30
0.0
  0
VERTEX
  5
1504
  8
L1
 10
362.74641385549307
 20
120.1301744868211
 30
0.0
  0
VERTEX
  5
1505
  8
L1
 10
362.96788535199971
 20
119.8866443859917
 30
0.0
  0
VERTEX
  5
1506
  8
L1
 10
363.21141545282899
 20
119.66517288948511
 30
0.0
  0
VERTEX
  5
1507
  8
L1
 10
363.48119524017733
 20
119.4631327548793
 30
0.0
  0
VERTEX
  5
1508
  8
L1
 10
363.77361776818998
 20
119.2858170060649
 30
0.0
  0
VERTEX
  5
1509
  8
L1
 10
364.08404208483239
 20
119.1369885030629
 30
0.0
  0
VERTEX
  5
150A
  8
L1
 10
364.40766252789939
 20
119.0195490447224
 30
0.0
  0
VERTEX
  5
150B
  8
L1
 10
364.73902686862812
 20
118.934859114951
 30
0.0
  0
VERTEX
  5
150C
  8
L1
 10
365.072183902441
 20
118.88355943267931
 30
0.0
  0
VERTEX
  5
150D
  8
L1
 10
365.40081447107337
 20
118.8644850672913
 30
0.0
  0
SEQEND
  5
150E
  8
L1
  0
POLYLINE
  5
104
  8
L1
 66
     1
 10
0.0
 20
0.0
 30
0.0
  0
VERTEX
  5
150F
  8
L1
 10
365.26074138212579
 20
137.38534048900891
 30
0.0
  0
VERTEX
  5
1510
  8
L1
 10
365.14561435641741
 20
137.74798384416351
 30
0.0
  0
VERTEX
  5
1511
  8
L1
 10
365.10676117171312
 20
138.1287323462854
 30
0.0
  0
SEQEND
  5
1512
  8
L1
  0
POLYLINE
  5
105
  8
L1
 66
     1
 10
0.0
 20
0.0
 30
0.0
  0
VERTEX
  5
1513
  8
L1
 10
365.90905346311928
 20
134.93650649867331
 30
0.0
  0
VERTEX
  5
1514
  8
L1
 10
365.70004998744048
 20
134.94738546033761
 30
0.0
  0
VERTEX
  5
1515
  8
L1
 10
365.49339430752912
 20
134.9800177364404
 30
0.0
  0
VERTEX
  5
1516
  8
L1
 10
365.29134270412078
 20
135.03404704557721
 30
0.0
  0
VERTEX
  5
1517
  8
L1
 10
365.0961011903313
 20
135.1088834920846
 30
0.0
  0
VERTEX
  5
1518
  8
L1
 10
364.90980142625619
 20
135.20371000656189
 30
0.0
  0
VERTEX
  5
1519
  8
L1
 10
364.73447744536071
 20
135.31749126668959
 30
0.0
  0
VERTEX
  5
151A
  8
L1
 10
364.57204344676438
 20
135.44898500094911
 30
0.0
  0
VERTEX
  5
151B
  8
L1
 10
364.42427289588602
 20
135.59675555182761
 30
0.0
  0
VERTEX
  5
151C
  8
L1
 10
364.29277916162641
 20
135.7591895504238
 30
0.0
  0
VERTEX
  5
151D
  8
L1
 10
364.17899790149869
 20
135.9345135313194
 30
0.0
  0
VERTEX
  5
151E
  8
L1
 10
364.08417138702151
 20
136.1208132953945
 30
0.0
  0
VERTEX
  5
151F
  8
L1
 10
364.00933494051412
 20
136.3160548091839
 30
0.0
  0
VERTEX
  5
1520
  8
L1
 10
363.95530563137731
 20
136.5181064125922
 30
0.0
  0
VERTEX
  5
1521
  8
L1
 10
363.92267335527441
 20
136.7247620925036
 30
0.0
  0
VERTEX
  5
1522
  8
L1
 10
363.91179439361008
 20
136.93376556818251
 30
0.0
  0
SEQEND
  5
1523
  8
L1
  0
POLYLINE
  5
106
  8
L1
 66
     1
 10
0.0
 20
0.0
 30
0.0
  0
VERTEX
  5
1524
  8
L1
 10
378.01774746468129
 20
127.34692203453859
 30
0.0
  0
VERTEX
  5
1525
  8
L1
 10
378.01474905193783
 20
127.5599699349751
 30
0.0
  0
VERTEX
  5
1526
  8
L1
 10
378.0057867970558
 20
127.7728348917535
 30
0.0
  0
VERTEX
  5
1527
  8
L1
 10
377.99086772649702
 20
127.985350017461
 30
0.0
  0
VERTEX
  5
1528
  8
L1
 10
377.97000353690299
 20
128.19734869895441
 30
0.0
  0
VERTEX
  5
1529
  8
L1
 10
377.94321058592459
 20
128.40866472798601
 30
0.0
  0
VERTEX
  5
152A
  8
L1
 10
377.91050987939718
 20
128.6191324315117
 30
0.0
  0
VERTEX
  5
152B
  8
L1
 10
377.87192705487229
 20
128.8285868015798
 30
0.0
  0
VERTEX
  5
152C
  8
L1
 10
377.82749236151773
 20
129.0368636246979
 30
0.0
  0
VERTEX
  5
152D
  8
L1
 10
377.7772406364017
 20
129.24379961057801
 30
0.0
  0
VERTEX
  5
152E
  8
L1
 10
377.72121127718032
 20
129.4492325201561
 30
0.0
  0
VERTEX
  5
152F
  8
L1
 10
377.65944821120991
 20
129.6530012927895
 30
0.0
  0
VERTEX
  5
1530
  8
L1
 10
377.59199986110758
 20
129.85494617252871
 30
0.0
  0
VERTEX
  5
1531
  8
L1
 10
377.51891910678751
 20
130.05490883336711
 30
0.0
  0
VERTEX
  5
1532
  8
L1
 10
377.44026324400289
 20
130.25273250337011
 30
0.0
  0
VERTEX
  5
1533
  8
L1
 10
377.35609393942542
 20
130.44826208758471
 30
0.0
  0
VERTEX
  5
1534
  8
L1
 10
377.26647718229867
 20
130.6413442896349
 30
0.0
  0
VERTEX
  5
1535
  8
L1
 10
377.17148323270209
 20
130.83182773190711
 30
0.0
  0
VERTEX
  5
1536
  8
L1
 10
377.07118656646628
 20
131.0195630742312
 30
0.0
  0
VERTEX
  5
1537
  8
L1
 10
376.96566581678388
 20
131.2044031309641
 30
0.0
  0
VERTEX
  5
1538
  8
L1
 10
376.8550037125604
 20
131.38620298638401
 30
0.0
  0
VERTEX
  5
1539
  8
L1
 10
376.73928701355447
 20
131.5648201083053
 30
0.0
  0
VERTEX
  5
153A
  8
L1
 10
376.61860644235759
 20
131.74011445982481
 30
0.0
  0
VERTEX
  5
153B
  8
L1
 10
376.49305661326702
 20
131.91194860911139
 30
0.0
  0
VERTEX
  5
153C
  8
L1
 10
376.36273595810769
 20
132.08018783715309
 30
0.0
  0
VERTEX
  5
153D
  8
L1
 10
376.22774664906109
 20
132.24470024337839
 30
0.0
  0
VERTEX
  5
153E
  8
L1
 10
376.08819451856118
 20
132.40535684906641
 30
0.0
  0
VERTEX
  5
153F
  8
L1
 10
375.94418897632221
 20
132.56203169846711
 30
0.0
  0
VERTEX
  5
1540
  8
L1
 10
375.79584292355941
 20
132.71460195755151
 30
0.0
  0
VERTEX
  5
1541
  8
L1
 10
375.64327266447498
 20
132.8629480103142
 30
0.0
  0
VERTEX
  5
1542
  8
L1
 10
375.48659781507439
 20
133.00695355255331
 30
0.0
  0
VERTEX
  5
1543
  8
L1
 10
375.32594120938631
 20
133.14650568305311
 30
0.0
  0
VERTEX
  5
1544
  8
L1
 10
375.16142880316107
 20
133.28149499209979
 30
0.0
  0
VERTEX
  5
1545
  8
L1
 10
374.99318957511929
 20
133.41181564725909
 30
0.0
  0
VERTEX
  5
1546
  8
L1
 10
374.82135542583268
 20
133.53736547634961
 30
0.0
  0
VERTEX
  5
1547
  8
L1
 10
374.64606107431331
 20
133.65804604754649
 30
0.0
  0
VERTEX
  5
1548
  8
L1
 10
374.46744395239187
 20
133.77376274655239
 30
0.0
  0
VERTEX
  5
1549
  8
L1
 10
374.28564409697202
 20
133.88442485077601
 30
0.0
  0
VERTEX
  5
154A
  8
L1
 10
374.1008040402391
 20
133.98994560045841
 30
0.0
  0
VERTEX
  5
154B
  8
L1
 10
373.91306869791498
 20
134.09024226669419
 30
0.0
  0
VERTEX
  5
154C
  8
L1
 10
373.7225852556428
 20
134.1852362162908
 30
0.0
  0
VERTEX
  5
154D
  8
L1
 10
373.52950305359258
 20
134.2748529734175
 30
0.0
  0
VERTEX
  5
154E
  8
L1
 10
373.33397346937812
 20
134.35902227799491
 30
0.0
  0
VERTEX
  5
154F
  8
L1
 10
373.13614979937512
 20
134.43767814077961
 30
0.0
  0
VERTEX
  5
1550
  8
L1
 10
372.93618713853658
 20
134.51075889509971
 30
0.0
  0
VERTEX
  5
1551
  8
L1
 10
372.73424225879739
 20
134.57820724520201
 30
0.0
  0
VERTEX
  5
1552
  8
L1
 10
372.53047348616411
 20
134.63997031117231
 30
0.0
  0
VERTEX
  5
1553
  8
L1
 10
372.32504057658599
 20
134.69599967039369
 30
0.0
  0
VERTEX
  5
1554
  8
L1
 10
372.11810459070591
 20
134.7462513955098
 30
0.0
  0
VERTEX
  5
1555
  8
L1
 10
371.90982776758767
 20
134.79068608886431
 30
0.0
  0
VERTEX
  5
1556
  8
L1
 10
371.70037339751968
 20
134.8292689133892
 30
0.0
  0
VERTEX
  5
1557
  8
L1
 10
371.48990569399388
 20
134.86196961991661
 30
0.0
  0
VERTEX
  5
1558
  8
L1
 10
371.27858966496228
 20
134.8887625708951
 30
0.0
  0
VERTEX
  5
1559
  8
L1
 10
371.06659098346893
 20
134.90962676048909
 30
0.0
  0
VERTEX
  5
155A
  8
L1
 10
370.85407585776142
 20
134.92454583104791
 30
0.0
  0
VERTEX
  5
155B
  8
L1
 10
370.64121090098303
 20
134.93350808592999
 30
0.0
  0
VERTEX
  5
155C
  8
L1
 10
370.42816300054648
 20
134.93650649867331
 30
0.0
  0
SEQEND
  5
155D
  8
L1
  0
POLYLINE
  5
107
  8
L1
 66
     1
 10
0.0
 20
0.0
 30
0.0
  0
VERTEX
  5
155E
  8
L1
 10
371.63703208612259
 20
136.14537558424939
 30
0.0
  0
VERTEX
  5
155F
  8
L1
 10
371.68190948461501
 20
136.14524184627919
 30
0.0
  0
VERTEX
  5
1560
  8
L1
 10
371.87595700207112
 20
136.14149596570471
 30
0.0
  0
VERTEX
  5
1561
  8
L1
 10
372.33376053725488
 20
136.1122658015702
 30
0.0
  0
VERTEX
  5
1562
  8
L1
 10
372.58063600625741
 20
136.0847709152377
 30
0.0
  0
VERTEX
  5
1563
  8
L1
 10
372.87709756281771
 20
136.04073778688971
 30
0.0
  0
VERTEX
  5
1564
  8
L1
 10
373.2181012831748
 20
135.974964947525
 30
0.0
  0
VERTEX
  5
1565
  8
L1
 10
373.59860324356822
 20
135.88225092814289
 30
0.0
  0
VERTEX
  5
1566
  8
L1
 10
374.04384511980408
 20
135.74693875223019
 30
0.0
  0
VERTEX
  5
1567
  8
L1
 10
374.47962284040011
 20
135.58479151294199
 30
0.0
  0
VERTEX
  5
1568
  8
L1
 10
374.90470410331301
 20
135.39631627015319
 30
0.0
  0
VERTEX
  5
1569
  8
L1
 10
375.31785660649979
 20
135.18202008373851
 30
0.0
  0
VERTEX
  5
156A
  8
L1
 10
375.90637198547319
 20
134.81762789432901
 30
0.0
  0
VERTEX
  5
156B
  8
L1
 10
376.45950317793972
 20
134.40140904314441
 30
0.0
  0
VERTEX
  5
156C
  8
L1
 10
377.01734825439831
 20
133.89205087060719
 30
0.0
  0
VERTEX
  5
156D
  8
L1
 10
377.52206196450982
 20
133.3299585748801
 30
0.0
  0
VERTEX
  5
156E
  8
L1
 10
377.91563858337292
 20
132.80004846313611
 30
0.0
  0
VERTEX
  5
156F
  8
L1
 10
378.26203780507922
 20
132.2380748708413
 30
0.0
  0
VERTEX
  5
1570
  8
L1
 10
378.56319131354257
 20
131.63809012037939
 30
0.0
  0
VERTEX
  5
1571
  8
L1
 10
378.81031804431387
 20
131.01395802266279
 30
0.0
  0
VERTEX
  5
1572
  8
L1
 10
379.00722590628021
 20
130.34720643907821
 30
0.0
  0
VERTEX
  5
1573
  8
L1
 10
379.14254740770241
 20
129.66502538039791
 30
0.0
  0
VERTEX
  5
1574
  8
L1
 10
379.19160886522491
 20
129.27144265991689
 30
0.0
  0
VERTEX
  5
1575
  8
L1
 10
379.21977012113581
 20
128.87271991952321
 30
0.0
  0
VERTEX
  5
1576
  8
L1
 10
379.22523249224531
 20
128.69919532306741
 30
0.0
  0
VERTEX
  5
1577
  8
L1
 10
379.22663705156958
 20
128.55581162142701
 30
0.0
  0
SEQEND
  5
1578
  8
L1
  0
LINE
  5
108
  8
L1
 10
381.16551419181621
 20
135.92568935870429
 30
0.0
 11
381.20428264102338
 21
125.4660864364849
 31
0.0
  0
POLYLINE
  5
109
  8
L1
 66
     1
 10
0.0
 20
0.0
 30
0.0
  0
VERTEX
  5
1579
  8
L1
 10
379.26323945841381
 20
123.6671246288912
 30
0.0
  0
VERTEX
  5
157A
  8
L1
 10
379.34874867645198
 20
123.3641129603224
 30
0.0
  0
VERTEX
  5
157B
  8
L1
 10
379.4810428163866
 20
123.0755811701918
 30
0.0
  0
VERTEX
  5
157C
  8
L1
 10
379.67677244480728
 20
122.78425407613391
 30
0.0
  0
VERTEX
  5
157D
  8
L1
 10
379.91695355972848
 20
122.5314386874866
 30
0.0
  0
VERTEX
  5
157E
  8
L1
 10
380.18154842285031
 20
122.3313343934627
 30
0.0
  0
VERTEX
  5
157F
  8
L1
 10
380.46642425241879
 20
122.1795689156928
 30
0.0
  0
SEQEND
  5
1580
  8
L1
  0
POLYLINE
  5
10A
  8
L1
 66
     1
 10
0.0
 20
0.0
 30
0.0
  0
VERTEX
  5
1581
  8
L1
 10
380.46642425241879
 20
122.1795689156928
 30
0.0
  0
VERTEX
  5
1582
  8
L1
 10
380.57811417040222
 20
122.2831849063525
 30
0.0
  0
VERTEX
  5
1583
  8
L1
 10
380.58515571132409
 20
122.2897173142057
 30
0.0
  0
VERTEX
  5
1584
  8
L1
 10
380.77287495220628
 20
122.46385868293559
 30
0.0
  0
VERTEX
  5
1585
  8
L1
 10
380.9683054309084
 20
122.6451428826538
 30
0.0
  0
VERTEX
  5
1586
  8
L1
 10
381.1627041231622
 20
122.8254588214965
 30
0.0
  0
VERTEX
  5
1587
  8
L1
 10
381.35436873967382
 20
123.0032282094584
 30
0.0
  0
VERTEX
  5
1588
  8
L1
 10
381.54159642802978
 20
123.1768730189463
 30
0.0
  0
VERTEX
  5
1589
  8
L1
 10
381.72268415872469
 20
123.3448152729945
 30
0.0
  0
VERTEX
  5
158A
  8
L1
 10
381.8959287941172
 20
123.50547701420309
 30
0.0
  0
VERTEX
  5
158B
  8
L1
 10
382.05962714226638
 20
123.6572802827868
 30
0.0
  0
VERTEX
  5
158C
  8
L1
 10
382.52551851564817
 20
124.0892926742701
 30
0.0
  0
VERTEX
  5
158D
  8
L1
 10
382.5263258761666
 20
124.0900412965609
 30
0.0
  0
VERTEX
  5
158E
  8
L1
 10
382.58313236422867
 20
124.1427149160704
 30
0.0
  0
SEQEND
  5
158F
  8
L1
  0
LINE
  5
10B
  8
L1
 10
378.01774746468129
 20
122.8278124971113
 30
0.0
 11
378.01774746468129
 21
127.34692203453849
 31
0.0
  0
LINE
  5
10C
  8
L1
 10
375.15811360876012
 20
126.907732575194
 30
0.0
 11
370.42665540094458
 21
122.1762743673785
 31
0.0
  0
POLYLINE
  5
10D
  8
L1
 66
     1
 10
0.0
 20
0.0
 30
0.0
  0
VERTEX
  5
1590
  8
L1
 10
381.2099733122933
 20
122.02552020570521
 30
0.0
  0
VERTEX
  5
1591
  8
L1
 10
380.82914059061642
 20
122.064390837006
 30
0.0
  0
VERTEX
  5
1592
  8
L1
 10
380.46642425241879
 20
122.1795689156928
 30
0.0
  0
SEQEND
  5
1593
  8
L1
  0
POLYLINE
  5
10E
  8
L1
 66
     1
 10
0.0
 20
0.0
 30
0.0
  0
VERTEX
  5
1594
  8
L1
 10
380.01500653419038
 20
120.8305534276022
 30
0.0
  0
VERTEX
  5
1595
  8
L1
 10
379.80600305851152
 20
120.8414323892665
 30
0.0
  0
VERTEX
  5
1596
  8
L1
 10
379.59934737860021
 20
120.8740646653693
 30
0.0
  0
VERTEX
  5
1597
  8
L1
 10
379.39729577519182
 20
120.9280939745061
 30
0.0
  0
VERTEX
  5
1598
  8
L1
 10
379.2020542614024
 20
121.0029304210136
 30
0.0
  0
VERTEX
  5
1599
  8
L1
 10
379.01575449732729
 20
121.09775693549091
 30
0.0
  0
VERTEX
  5
159A
  8
L1
 10
378.84043051643181
 20
121.2115381956185
 30
0.0
  0
VERTEX
  5
159B
  8
L1
 10
378.6779965178356
 20
121.34303192987799
 30
0.0
  0
VERTEX
  5
159C
  8
L1
 10
378.53022596695712
 20
121.4908024807565
 30
0.0
  0
VERTEX
  5
159D
  8
L1
 10
378.39873223269751
 20
121.6532364793528
 30
0.0
  0
VERTEX
  5
159E
  8
L1
 10
378.2849509725699
 20
121.8285604602483
 30
0.0
  0
VERTEX
  5
159F
  8
L1
 10
378.19012445809261
 20
122.0148602243234
 30
0.0
  0
VERTEX
  5
15A0
  8
L1
 10
378.11528801158522
 20
122.2101017381128
 30
0.0
  0
VERTEX
  5
15A1
  8
L1
 10
378.06125870244841
 20
122.4121533415211
 30
0.0
  0
VERTEX
  5
15A2
  8
L1
 10
378.02862642634551
 20
122.6188090214325
 30
0.0
  0
VERTEX
  5
15A3
  8
L1
 10
378.01774746468129
 20
122.8278124971113
 30
0.0
  0
SEQEND
  5
15A4
  8
L1
  0
ARC
  5
10F
  8
L1
 10
370.20781447107328
 20
127.12657350506539
 30
0.0
 40
4.9551339946734032
 50
357.46873820670811
 51
92.531261793292543
  0
POLYLINE
  5
110
  8
L1
 66
     1
 10
0.0
 20
0.0
 30
0.0
  0
VERTEX
  5
15A5
  8
L1
 10
381.20428264102338
 20
125.4660864364849
 30
0.0
  0
VERTEX
  5
15A6
  8
L1
 10
380.73828226324582
 20
125.0341699957102
 30
0.0
  0
VERTEX
  5
15A7
  8
L1
 10
380.57453667453149
 20
124.88240898271999
 30
0.0
  0
VERTEX
  5
15A8
  8
L1
 10
380.40123679499789
 20
124.7217970099457
 30
0.0
  0
VERTEX
  5
15A9
  8
L1
 10
380.22008542451448
 20
124.553912471226
 30
0.0
  0
VERTEX
  5
15AA
  8
L1
 10
380.03278546880023
 20
124.38033361002729
 30
0.0
  0
VERTEX
  5
15AB
  8
L1
 10
379.84103991985779
 20
124.2026385066592
 30
0.0
  0
VERTEX
  5
15AC
  8
L1
 10
379.64655284349061
 20
124.02240392739969
 30
0.0
  0
VERTEX
  5
15AD
  8
L1
 10
379.45103571827559
 20
123.84119813941641
 30
0.0
  0
VERTEX
  5
15AE
  8
L1
 10
379.26323945841381
 20
123.6671246288912
 30
0.0
  0
SEQEND
  5
15AF
  8
L1
  0
POLYLINE
  5
111
  8
L1
 66
     1
 10
0.0
 20
0.0
 30
0.0
  0
VERTEX
  5
15B0
  8
L1
 10
382.58313236422867
 20
124.1427149160704
 30
0.0
  0
VERTEX
  5
15B1
  8
L1
 10
382.39309977716721
 20
124.15128562103151
 30
0.0
  0
VERTEX
  5
15B2
  8
L1
 10
382.14346849910999
 20
124.1924603954449
 30
0.0
  0
VERTEX
  5
15B3
  8
L1
 10
381.90441312413299
 20
124.2733505345482
 30
0.0
  0
VERTEX
  5
15B4
  8
L1
 10
381.70544437725221
 20
124.38501383105729
 30
0.0
  0
VERTEX
  5
15B5
  8
L1
 10
381.53280358513189
 20
124.5336513545731
 30
0.0
  0
VERTEX
  5
15B6
  8
L1
 10
381.39439050779299
 20
124.71540016520279
 30
0.0
  0
VERTEX
  5
15B7
  8
L1
 10
381.29494994054852
 20
124.9214470144826
 30
0.0
  0
VERTEX
  5
15B8
  8
L1
 10
381.22546925267051
 20
125.18914713232451
 30
0.0
  0
VERTEX
  5
15B9
  8
L1
 10
381.20428264102338
 20
125.4660864364849
 30
0.0
  0
SEQEND
  5
15BA
  8
L1
  0
POLYLINE
  5
112
  8
L1
 66
     1
 10
0.0
 20
0.0
 30
0.0
  0
VERTEX
  5
15BB
  8
L1
 10
379.22678719414432
 20
124.0368522265744
 30
0.0
  0
VERTEX
  5
15BC
  8
L1
 10
379.22682705679853
 20
124.0245621071809
 30
0.0
  0
VERTEX
  5
15BD
  8
L1
 10
379.2274504202083
 20
123.9866007458908
 30
0.0
  0
VERTEX
  5
15BE
  8
L1
 10
379.22894054268778
 20
123.9463289218186
 30
0.0
  0
VERTEX
  5
15BF
  8
L1
 10
379.23814998727022
 20
123.82938685277971
 30
0.0
  0
VERTEX
  5
15C0
  8
L1
 10
379.26323945841381
 20
123.6671246288912
 30
0.0
  0
SEQEND
  5
15C1
  8
L1
  0
POLYLINE
  5
113
  8
L1
 66
     1
 10
0.0
 20
0.0
 30
0.0
  0
VERTEX
  5
15C2
  8
L1
 10
379.22663705156958
 20
128.55581162142701
 30
0.0
  0
VERTEX
  5
15C3
  8
L1
 10
379.22674686896721
 20
127.9224088432024
 30
0.0
  0
VERTEX
  5
15C4
  8
L1
 10
379.22682170177973
 20
127.58935245357409
 30
0.0
  0
VERTEX
  5
15C5
  8
L1
 10
379.22686078638702
 20
127.3240465632713
 30
0.0
  0
VERTEX
  5
15C6
  8
L1
 10
379.22686224405709
 20
126.8724000579583
 30
0.0
  0
VERTEX
  5
15C7
  8
L1
 10
379.22683988365571
 20
126.62391633160649
 30
0.0
  0
VERTEX
  5
15C8
  8
L1
 10
379.2268123081202
 20
126.3188968818968
 30
0.0
  0
VERTEX
  5
15C9
  8
L1
 10
379.22679895007349
 20
126.13547639963549
 30
0.0
  0
VERTEX
  5
15CA
  8
L1
 10
379.22678715071879
 20
125.9262701531582
 30
0.0
  0
VERTEX
  5
15CB
  8
L1
 10
379.22677786421451
 20
125.6873941980061
 30
0.0
  0
VERTEX
  5
15CC
  8
L1
 10
379.22677204471921
 20
125.4149645897201
 30
0.0
  0
VERTEX
  5
15CD
  8
L1
 10
379.22678719414432
 20
124.0368522265744
 30
0.0
  0
SEQEND
  5
15CE
  8
L1
  0
LINE
  5
114
  8
L1
 10
378.69399859030301
 20
138.09096126886749
 30
0.0
 11
368.31971246569242
 21
138.1371838307945
 31
0.0
  0
POLYLINE
  5
115
  8
L1
 66
     1
 10
0.0
 20
0.0
 30
0.0
  0
VERTEX
  5
15CF
  8
L1
 10
367.1180822088985
 20
136.1455352444525
 30
0.0
  0
VERTEX
  5
15D0
  8
L1
 10
368.87384100160392
 20
136.14554624522751
 30
0.0
  0
VERTEX
  5
15D1
  8
L1
 10
369.10699459684622
 20
136.14556014822929
 30
0.0
  0
VERTEX
  5
15D2
  8
L1
 10
369.31331801496918
 20
136.14557520203971
 30
0.0
  0
VERTEX
  5
15D3
  8
L1
 10
369.66916430685058
 20
136.14560277989841
 30
0.0
  0
VERTEX
  5
15D4
  8
L1
 10
370.31948462210971
 20
136.1456059412524
 30
0.0
  0
VERTEX
  5
15D5
  8
L1
 10
370.53890088682459
 20
136.1455805716686
 30
0.0
  0
VERTEX
  5
15D6
  8
L1
 10
370.73295988215051
 20
136.14554449936711
 30
0.0
  0
VERTEX
  5
15D7
  8
L1
 10
371.06445041386291
 20
136.14545969487989
 30
0.0
  0
VERTEX
  5
15D8
  8
L1
 10
371.63703208612259
 20
136.14537558424939
 30
0.0
  0
SEQEND
  5
15D9
  8
L1
  0
POLYLINE
  5
116
  8
L1
 66
     1
 10
0.0
 20
0.0
 30
0.0
  0
VERTEX
  5
15DA
  8
L1
 10
366.748281944116
 20
136.18200213547379
 30
0.0
  0
VERTEX
  5
15DB
  8
L1
 10
366.8364248310545
 20
136.16656442687801
 30
0.0
  0
VERTEX
  5
15DC
  8
L1
 10
366.95574825770098
 20
136.152477359269
 30
0.0
  0
VERTEX
  5
15DD
  8
L1
 10
367.02791025868243
 20
136.14767174854859
 30
0.0
  0
VERTEX
  5
15DE
  8
L1
 10
367.07205865264177
 20
136.14609150697629
 30
0.0
  0
VERTEX
  5
15DF
  8
L1
 10
367.10656051337901
 20
136.14557027405141
 30
0.0
  0
VERTEX
  5
15E0
  8
L1
 10
367.1180822088985
 20
136.1455352444525
 30
0.0
  0
SEQEND
  5
15E1
  8
L1
  0
POLYLINE
  5
117
  8
L1
 66
     1
 10
0.0
 20
0.0
 30
0.0
  0
VERTEX
  5
15E2
  8
L1
 10
368.54746105067511
 20
138.12308455313729
 30
0.0
  0
VERTEX
  5
15E3
  8
L1
 10
368.31971246569242
 20
138.1371838307945
 30
0.0
  0
VERTEX
  5
15E4
  8
L1
 10
368.05915409011192
 20
138.1942501624583
 30
0.0
  0
VERTEX
  5
15E5
  8
L1
 10
367.81597146714341
 20
138.30168721508781
 30
0.0
  0
VERTEX
  5
15E6
  8
L1
 10
367.63835614008281
 20
138.43015293549661
 30
0.0
  0
VERTEX
  5
15E7
  8
L1
 10
367.48997821181717
 20
138.5914594719107
 30
0.0
  0
VERTEX
  5
15E8
  8
L1
 10
367.36341325843051
 20
138.8038196513302
 30
0.0
  0
VERTEX
  5
15E9
  8
L1
 10
367.2800424968782
 20
139.03724669064471
 30
0.0
  0
VERTEX
  5
15EA
  8
L1
 10
367.23720251840922
 20
139.26716570269281
 30
0.0
  0
VERTEX
  5
15EB
  8
L1
 10
367.2239558820782
 20
139.50192997209459
 30
0.0
  0
SEQEND
  5
15EC
  8
L1
  0
ARC
  5
118
  8
L1
 10
382.94551034016422
 20
139.86426937415609
 30
0.0
 40
2.0
 50
180.0
 51
270.0
  0
ARC
  5
119
  8
L1
 10
379.0081821740996
 20
135.9564089034358
 30
0.0
 40
2.157550723643304
 50
359.18418616200489
 51
98.373211771443394
  0
LINE
  5
11A
  8
L1
 10
173.0089748229513
 20
296.32657350506543
 30
0.0
 11
28.70897482295134
 21
296.32657350506543
 31
0.0
  0
LINE
  5
11B
  8
L1
 10
28.70897482295134
 20
297.32657350506543
 30
0.0
 11
173.0089748229513
 21
297.32657350506543
 31
0.0
  0
LINE
  5
11C
  8
L1
 10
187.4159748229512
 20
298.16959760528999
 30
0.0
 11
14.30197482295142
 21
298.16959760528999
 31
0.0
  0
LINE
  5
11D
  8
L1
 10
14.34187406368318
 20
298.8888776359745
 30
0.0
 11
187.3760755822193
 21
298.8888776359745
 31
0.0
  0
LINE
  5
11E
  8
L1
 10
172.87014113917041
 20
295.48763701877709
 30
0.0
 11
28.847808506732179
 21
295.48763701877709
 31
0.0
  0
LINE
  5
11F
  8
L1
 10
25.167558851605971
 20
293.73961563655712
 30
0.0
 11
22.411398918989502
 21
296.4957755691737
 31
0.0
  0
LINE
  5
120
  8
L1
 10
26.481882926501211
 20
297.12657350506532
 30
0.0
 11
15.20897482295134
 21
297.12657350506532
 31
0.0
  0
ARC
  5
121
  8
L1
 10
19.108974822951321
 20
290.62657350506538
 30
0.0
 40
4.981314598045679
 50
267.35159765871163
 51
2.648402341287694
  0
POLYLINE
  5
122
  8
L1
 66
     1
 10
0.0
 20
0.0
 30
0.0
  0
VERTEX
  5
15ED
  8
L1
 10
24.748505906581549
 20
283.05760982772131
 30
0.0
  0
VERTEX
  5
15EE
  8
L1
 10
24.820041322311731
 20
283.0970380616161
 30
0.0
  0
VERTEX
  5
15EF
  8
L1
 10
24.937558322771501
 20
283.11686313747032
 30
0.0
  0
VERTEX
  5
15F0
  8
L1
 10
25.051300071704809
 20
283.090382680012
 30
0.0
  0
VERTEX
  5
15F1
  8
L1
 10
25.120586271403049
 20
283.04681204390403
 30
0.0
  0
SEQEND
  5
15F2
  8
L1
  0
ARC
  5
123
  8
L1
 10
23.147911309239529
 20
286.587637018777
 30
0.0
 40
5.3999999999999986
 50
270.0
 51
0.0
  0
ARC
  5
124
  8
L1
 10
19.108974822951211
 20
290.62657350506538
 30
0.0
 40
7.4000000000000181
 50
270.0
 51
0.0
  0
ARC
  5
125
  8
L1
 10
19.108974822951211
 20
290.62657350506538
 30
0.0
 40
6.3999999999999941
 50
269.99999999999892
 51
0.0
  0
LINE
  5
126
  8
L1
 10
12.60897482295143
 20
294.5265735050653
 30
0.0
 11
12.60897482295143
 21
283.25366540151549
 31
0.0
  0
ARC
  5
127
  8
L1
 10
19.108974822951321
 20
290.62657350506538
 30
0.0
 40
4.981314598045679
 50
87.351597658710986
 51
182.64840234128761
  0
LINE
  5
128
  8
L1
 10
19.339145840885461
 20
295.6025675190495
 30
0.0
 11
24.084968836935719
 21
290.85674452299918
 31
0.0
  0
ARC
  5
129
  8
L1
 10
15.608974822951319
 20
281.0265735050653
 30
0.0
 40
3.200000000000057
 50
140.4820533159249
 51
180.0
  0
ARC
  5
12A
  8
L1
 10
15.608974822951319
 20
281.0265735050653
 30
0.0
 40
2.200000000000033
 50
90.000000000001421
 51
180.0
  0
ARC
  5
12B
  8
L1
 10
19.108974822951211
 20
290.6265735050651
 30
0.0
 40
9.4389364862881635
 50
269.9999999999992
 51
306.68929005244439
  0
LINE
  5
12C
  8
L1
 10
14.54780850673211
 20
281.18763701877708
 30
0.0
 11
19.108974822951211
 21
281.18763701877708
 31
0.0
  0
POLYLINE
  5
12D
  8
L1
 66
     1
 10
0.0
 20
0.0
 30
0.0
  0
VERTEX
  5
15F3
  8
L1
 10
14.24791130923944
 20
280.88773982128453
 30
0.0
  0
VERTEX
  5
15F4
  8
L1
 10
14.2479113883034
 20
280.887893871242
 30
0.0
  0
VERTEX
  5
15F5
  8
L1
 10
14.24791162549519
 20
280.88804784209492
 30
0.0
  0
SEQEND
  5
15F6
  8
L1
  0
POLYLINE
  5
12E
  8
L1
 66
     1
 10
0.0
 20
0.0
 30
0.0
  0
VERTEX
  5
15F7
  8
L1
 10
14.2479116254953
 20
280.88804784209469
 30
0.0
  0
VERTEX
  5
15F8
  8
L1
 10
14.3358640911785
 20
281.09968423683802
 30
0.0
  0
VERTEX
  5
15F9
  8
L1
 10
14.547500485921709
 20
281.18763670252127
 30
0.0
  0
SEQEND
  5
15FA
  8
L1
  0
POLYLINE
  5
12F
  8
L1
 66
     1
 10
0.0
 20
0.0
 30
0.0
  0
VERTEX
  5
15FB
  8
L1
 10
14.54750048592148
 20
281.18763670252139
 30
0.0
  0
VERTEX
  5
15FC
  8
L1
 10
14.54765445677452
 20
281.18763693971317
 30
0.0
  0
VERTEX
  5
15FD
  8
L1
 10
14.54780850673199
 20
281.18763701877708
 30
0.0
  0
SEQEND
  5
15FE
  8
L1
  0
LINE
  5
130
  8
L1
 10
23.147911309239529
 20
281.18763701877702
 30
0.0
 11
19.108974822951211
 21
281.18763701877702
 31
0.0
  0
LINE
  5
131
  8
L1
 10
15.608974822951209
 20
283.2265735050654
 30
0.0
 11
19.108974822951211
 21
283.2265735050654
 31
0.0
  0
LINE
  5
132
  8
L1
 10
19.108974822951211
 20
284.2265735050654
 30
0.0
 11
16.308974822951249
 21
284.2265735050654
 31
0.0
  0
LINE
  5
133
  8
L1
 10
18.878803805017409
 20
285.65057949108098
 30
0.0
 11
14.13298080896692
 21
290.39640248713141
 31
0.0
  0
ARC
  5
134
  8
L1
 10
15.608974822951319
 20
281.0265735050653
 30
0.0
 40
3.200000000000057
 50
90.000000000001023
 51
140.4820533159249
  0
LINE
  5
135
  8
L1
 10
16.308974822951249
 20
284.2265735050654
 30
0.0
 11
15.608974822951209
 21
284.2265735050654
 31
0.0
  0
POLYLINE
  5
136
  8
L1
 66
     1
 10
0.0
 20
0.0
 30
0.0
  0
VERTEX
  5
15FF
  8
L1
 10
12.60897482295143
 20
283.25366540151549
 30
0.0
  0
VERTEX
  5
1600
  8
L1
 10
12.60943745859395
 20
283.2370104796625
 30
0.0
  0
VERTEX
  5
1601
  8
L1
 10
12.63956765564938
 20
283.1216792102868
 30
0.0
  0
VERTEX
  5
1602
  8
L1
 10
12.710342721962601
 20
283.02884279533907
 30
0.0
  0
VERTEX
  5
1603
  8
L1
 10
12.81119092065677
 20
282.9700543725146
 30
0.0
  0
VERTEX
  5
1604
  8
L1
 10
12.926847123233699
 20
282.95421010586
 30
0.0
  0
VERTEX
  5
1605
  8
L1
 10
13.03980556437608
 20
282.98371301530989
 30
0.0
  0
VERTEX
  5
1606
  8
L1
 10
13.132138966543661
 20
283.05318650646331
 30
0.0
  0
VERTEX
  5
1607
  8
L1
 10
13.140413838737169
 20
283.06279713404518
 30
0.0
  0
SEQEND
  5
1608
  8
L1
  0
POLYLINE
  5
137
  8
L1
 66
     1
 10
0.0
 20
0.0
 30
0.0
  0
VERTEX
  5
1609
  8
L1
 10
13.23977275884311
 20
287.32414940902731
 30
0.0
  0
VERTEX
  5
160A
  8
L1
 10
13.14124503617489
 20
287.389683621828
 30
0.0
  0
VERTEX
  5
160B
  8
L1
 10
13.025053588084059
 20
287.41202592109647
 30
0.0
  0
SEQEND
  5
160C
  8
L1
  0
LINE
  5
138
  8
L1
 10
13.239772758842999
 20
287.32414940902731
 30
0.0
 11
15.995932691459471
 21
284.56798947641079
 31
0.0
  0
POLYLINE
  5
139
  8
L1
 66
     1
 10
0.0
 20
0.0
 30
0.0
  0
VERTEX
  5
160D
  8
L1
 10
15.85449518013632
 20
284.2265735050654
 30
0.0
  0
VERTEX
  5
160E
  8
L1
 10
15.965616105579951
 20
284.26027852491188
 30
0.0
  0
VERTEX
  5
160F
  8
L1
 10
16.039283701049211
 20
284.35003330082299
 30
0.0
  0
VERTEX
  5
1610
  8
L1
 10
16.050668288870551
 20
284.46558596776453
 30
0.0
  0
VERTEX
  5
1611
  8
L1
 10
15.995932691459471
 20
284.56798947641067
 30
0.0
  0
SEQEND
  5
1612
  8
L1
  0
POLYLINE
  5
13A
  8
L1
 66
     1
 10
0.0
 20
0.0
 30
0.0
  0
VERTEX
  5
1613
  8
L1
 10
12.608974822951319
 20
286.84788623285641
 30
0.0
  0
VERTEX
  5
1614
  8
L1
 10
12.813849170747339
 20
287.32509254017248
 30
0.0
  0
VERTEX
  5
1615
  8
L1
 10
13.025053588084059
 20
287.41202592109647
 30
0.0
  0
SEQEND
  5
1616
  8
L1
  0
ARC
  5
13B
  8
L1
 10
14.30197482295142
 20
295.43357350506523
 30
0.0
 40
2.7360241002247609
 50
90.0
 51
180.0
  0
POLYLINE
  5
13C
  8
L1
 66
     1
 10
0.0
 20
0.0
 30
0.0
  0
VERTEX
  5
1617
  8
L1
 10
10.846886385177349
 20
295.43357350506523
 30
0.0
  0
VERTEX
  5
1618
  8
L1
 10
10.84672461576263
 20
295.41362153710361
 30
0.0
  0
VERTEX
  5
1619
  8
L1
 10
10.84667069204232
 20
295.39367426433353
 30
0.0
  0
SEQEND
  5
161A
  8
L1
  0
POLYLINE
  5
13D
  8
L1
 66
     1
 10
0.0
 20
0.0
 30
0.0
  0
VERTEX
  5
161B
  8
L1
 10
14.30197482295142
 20
298.88866194283941
 30
0.0
  0
VERTEX
  5
161C
  8
L1
 10
13.6401872205061
 20
298.81828789517971
 30
0.0
  0
VERTEX
  5
161D
  8
L1
 10
12.98520243671026
 20
298.61615850706772
 30
0.0
  0
VERTEX
  5
161E
  8
L1
 10
12.38235559205526
 20
298.29001425525138
 30
0.0
  0
VERTEX
  5
161F
  8
L1
 10
11.869045703877701
 20
297.866502624139
 30
0.0
  0
VERTEX
  5
1620
  8
L1
 10
11.44553407276538
 20
297.35319273596127
 30
0.0
  0
VERTEX
  5
1621
  8
L1
 10
11.119389820948919
 20
296.75034589130632
 30
0.0
  0
VERTEX
  5
1622
  8
L1
 10
10.91726043283705
 20
296.0953611075106
 30
0.0
  0
VERTEX
  5
1623
  8
L1
 10
10.846886385177349
 20
295.43357350506523
 30
0.0
  0
SEQEND
  5
1624
  8
L1
  0
POLYLINE
  5
13E
  8
L1
 66
     1
 10
0.0
 20
0.0
 30
0.0
  0
VERTEX
  5
1625
  8
L1
 10
14.34187406368318
 20
298.8888776359745
 30
0.0
  0
VERTEX
  5
1626
  8
L1
 10
14.32192679091321
 20
298.88882371225412
 30
0.0
  0
VERTEX
  5
1627
  8
L1
 10
14.30197482295142
 20
298.88866194283941
 30
0.0
  0
SEQEND
  5
1628
  8
L1
  0
ARC
  5
13F
  8
L1
 10
15.20897482295134
 20
294.5265735050653
 30
0.0
 40
2.6000000000000001
 50
90.0
 51
180.0
  0
POLYLINE
  5
140
  8
L1
 66
     1
 10
0.0
 20
0.0
 30
0.0
  0
VERTEX
  5
1629
  8
L1
 10
22.32352240692029
 20
296.71049473993253
 30
0.0
  0
VERTEX
  5
162A
  8
L1
 10
22.345864706188699
 20
296.5943032918417
 30
0.0
  0
VERTEX
  5
162B
  8
L1
 10
22.411398918989502
 20
296.4957755691737
 30
0.0
  0
SEQEND
  5
162C
  8
L1
  0
POLYLINE
  5
141
  8
L1
 66
     1
 10
0.0
 20
0.0
 30
0.0
  0
VERTEX
  5
162D
  8
L1
 10
22.32352240692029
 20
296.71049473993253
 30
0.0
  0
VERTEX
  5
162E
  8
L1
 10
22.410455787844221
 20
296.9216991572693
 30
0.0
  0
VERTEX
  5
162F
  8
L1
 10
22.887662095160351
 20
297.12657350506532
 30
0.0
  0
SEQEND
  5
1630
  8
L1
  0
LINE
  5
142
  8
L1
 10
26.508974822951298
 20
290.62657350506538
 30
0.0
 11
26.508974822951298
 21
294.12657350506532
 31
0.0
  0
LINE
  5
143
  8
L1
 10
25.508974822951298
 20
293.42657350506528
 30
0.0
 11
25.508974822951298
 21
290.62657350506538
 31
0.0
  0
LINE
  5
144
  8
L1
 10
28.54791130923951
 20
290.6265735050651
 30
0.0
 11
28.54791130923951
 21
295.18773982128448
 31
0.0
  0
LINE
  5
145
  8
L1
 10
25.120586271403049
 20
283.04681204390391
 30
0.0
 11
25.909616715432492
 21
282.38473688933129
 31
0.0
  0
ARC
  5
146
  8
L1
 10
26.102452998338489
 20
282.61455022226698
 30
0.0
 40
0.3
 50
230.0
 51
314.99999999999761
  0
LINE
  5
147
  8
L1
 10
28.547911309239389
 20
290.6265735050651
 30
0.0
 11
28.547911309239389
 21
286.587637018777
 31
0.0
  0
LINE
  5
148
  8
L1
 10
27.350811438685518
 20
283.82593161258421
 30
0.0
 11
26.688736284112512
 21
284.61496205661359
 31
0.0
  0
ARC
  5
149
  8
L1
 10
27.12099810574983
 20
283.63309532967821
 30
0.0
 40
0.3
 50
314.99999999999682
 51
40.000000000009607
  0
ARC
  5
14A
  8
L1
 10
19.108974822951211
 20
290.6265735050651
 30
0.0
 40
9.4389364862881635
 50
323.31070994755771
 51
0.0
  0
POLYLINE
  5
14B
  8
L1
 66
     1
 10
0.0
 20
0.0
 30
0.0
  0
VERTEX
  5
1631
  8
L1
 10
26.688736284112618
 20
284.61496205661359
 30
0.0
  0
VERTEX
  5
1632
  8
L1
 10
26.646198319726121
 20
284.68198895750351
 30
0.0
  0
VERTEX
  5
1633
  8
L1
 10
26.618685159566152
 20
284.79799094760239
 30
0.0
  0
VERTEX
  5
1634
  8
L1
 10
26.63761600653396
 20
284.91315219199822
 30
0.0
  0
VERTEX
  5
1635
  8
L1
 10
26.67793850029528
 20
284.98704242143509
 30
0.0
  0
SEQEND
  5
1636
  8
L1
  0
LINE
  5
14C
  8
L1
 10
26.314585032694421
 20
282.402418187911
 30
0.0
 11
27.333130140105759
 21
283.42096329532211
 31
0.0
  0
ARC
  5
14D
  8
L1
 10
28.70897482295134
 20
294.12657350506532
 30
0.0
 40
3.2000000000000282
 50
129.5179466840753
 51
180.0
  0
LINE
  5
14E
  8
L1
 10
25.508974822951298
 20
294.12657350506532
 30
0.0
 11
25.508974822951298
 21
293.42657350506528
 31
0.0
  0
POLYLINE
  5
14F
  8
L1
 66
     1
 10
0.0
 20
0.0
 30
0.0
  0
VERTEX
  5
1637
  8
L1
 10
25.167558851605971
 20
293.73961563655712
 30
0.0
  0
VERTEX
  5
1638
  8
L1
 10
25.269962360252229
 20
293.68488003914592
 30
0.0
  0
VERTEX
  5
1639
  8
L1
 10
25.385515027193769
 20
293.69626462696732
 30
0.0
  0
VERTEX
  5
163A
  8
L1
 10
25.475269803104819
 20
293.76993222243652
 30
0.0
  0
VERTEX
  5
163B
  8
L1
 10
25.508974822951298
 20
293.8810531478801
 30
0.0
  0
SEQEND
  5
163C
  8
L1
  0
POLYLINE
  5
150
  8
L1
 66
     1
 10
0.0
 20
0.0
 30
0.0
  0
VERTEX
  5
163D
  8
L1
 10
28.54791130923951
 20
295.18773982128448
 30
0.0
  0
VERTEX
  5
163E
  8
L1
 10
28.547911388303358
 20
295.1878938712419
 30
0.0
  0
VERTEX
  5
163F
  8
L1
 10
28.54791162549526
 20
295.18804784209482
 30
0.0
  0
SEQEND
  5
1640
  8
L1
  0
POLYLINE
  5
151
  8
L1
 66
     1
 10
0.0
 20
0.0
 30
0.0
  0
VERTEX
  5
1641
  8
L1
 10
28.54791162549526
 20
295.18804784209482
 30
0.0
  0
VERTEX
  5
1642
  8
L1
 10
28.635864091178458
 20
295.39968423683803
 30
0.0
  0
VERTEX
  5
1643
  8
L1
 10
28.847500485921671
 20
295.48763670252117
 30
0.0
  0
SEQEND
  5
1644
  8
L1
  0
POLYLINE
  5
152
  8
L1
 66
     1
 10
0.0
 20
0.0
 30
0.0
  0
VERTEX
  5
1645
  8
L1
 10
28.84750048592144
 20
295.48763670252129
 30
0.0
  0
VERTEX
  5
1646
  8
L1
 10
28.847654456774482
 20
295.48763693971318
 30
0.0
  0
VERTEX
  5
1647
  8
L1
 10
28.847808506732061
 20
295.48763701877709
 30
0.0
  0
SEQEND
  5
1648
  8
L1
  0
ARC
  5
153
  8
L1
 10
28.70897482295134
 20
294.12657350506532
 30
0.0
 40
3.2000000000000282
 50
90.0
 51
129.5179466840753
  0
ARC
  5
154
  8
L1
 10
28.70897482295134
 20
294.12657350506532
 30
0.0
 40
2.2000000000000051
 50
90.0
 51
180.0
  0
POLYLINE
  5
155
  8
L1
 66
     1
 10
0.0
 20
0.0
 30
0.0
  0
VERTEX
  5
1649
  8
L1
 10
26.672751193971351
 20
296.59513448927947
 30
0.0
  0
VERTEX
  5
164A
  8
L1
 10
26.683277954881241
 20
296.60423592070191
 30
0.0
  0
VERTEX
  5
164B
  8
L1
 10
26.75396859727601
 20
296.70023920122202
 30
0.0
  0
VERTEX
  5
164C
  8
L1
 10
26.78159424995437
 20
296.81368288219539
 30
0.0
  0
VERTEX
  5
164D
  8
L1
 10
26.762961270401259
 20
296.93141681878421
 30
0.0
  0
VERTEX
  5
164E
  8
L1
 10
26.701667662668729
 20
297.03076630205209
 30
0.0
  0
VERTEX
  5
164F
  8
L1
 10
26.607095059538938
 20
297.0991949918083
 30
0.0
  0
VERTEX
  5
1650
  8
L1
 10
26.493557728998152
 20
297.12634626660878
 30
0.0
  0
VERTEX
  5
1651
  8
L1
 10
26.481882926501211
 20
297.12657350506532
 30
0.0
  0
SEQEND
  5
1652
  8
L1
  0
LINE
  5
15A
  8
L1
 10
175.20897482295129
 20
290.62657350506538
 30
0.0
 11
175.20897482295129
 21
294.12657350506532
 31
0.0
  0
LINE
  5
15B
  8
L1
 10
173.17003833666311
 20
290.6265735050651
 30
0.0
 11
173.17003833666311
 21
295.18773982128448
 31
0.0
  0
LINE
  5
15C
  8
L1
 10
189.10897482295121
 20
294.5265735050653
 30
0.0
 11
189.10897482295121
 21
283.25366540151549
 31
0.0
  0
LINE
  5
15D
  8
L1
 10
176.20897482295129
 20
293.42657350506528
 30
0.0
 11
176.20897482295129
 21
290.62657350506538
 31
0.0
  0
ARC
  5
15E
  8
L1
 10
182.6089748229513
 20
290.62657350506538
 30
0.0
 40
4.981314598045679
 50
357.35159765871231
 51
92.648402341289
  0
LINE
  5
15F
  8
L1
 10
182.3788038050171
 20
295.6025675190495
 30
0.0
 11
177.63298080896689
 21
290.85674452299918
 31
0.0
  0
ARC
  5
160
  8
L1
 10
182.60897482295141
 20
290.62657350506538
 30
0.0
 40
7.4000000000000181
 50
180.0
 51
270.0
  0
ARC
  5
161
  8
L1
 10
182.60897482295141
 20
290.6265735050651
 30
0.0
 40
9.4389364862881635
 50
233.31070994755541
 51
270.00000000000068
  0
LINE
  5
162
  8
L1
 10
178.57003833666309
 20
281.18763701877702
 30
0.0
 11
182.60897482295141
 21
281.18763701877702
 31
0.0
  0
ARC
  5
163
  8
L1
 10
182.60897482295141
 20
290.62657350506538
 30
0.0
 40
6.3999999999999941
 50
180.0
 51
270.00000000000102
  0
ARC
  5
164
  8
L1
 10
182.6089748229513
 20
290.62657350506538
 30
0.0
 40
4.981314598045679
 50
177.35159765871231
 51
272.64840234128832
  0
ARC
  5
165
  8
L1
 10
178.57003833666309
 20
286.587637018777
 30
0.0
 40
5.3999999999999986
 50
180.0
 51
270.0
  0
ARC
  5
166
  8
L1
 10
175.6154966475641
 20
282.61455022226698
 30
0.0
 40
0.3
 50
225.0000000000023
 51
309.99999999999989
  0
ARC
  5
167
  8
L1
 10
174.59695154015279
 20
283.63309532967821
 30
0.0
 40
0.3
 50
139.99999999999031
 51
225.0000000000031
  0
ARC
  5
168
  8
L1
 10
182.60897482295141
 20
290.6265735050651
 30
0.0
 40
9.4389364862881635
 50
180.0
 51
216.6892900524422
  0
LINE
  5
169
  8
L1
 10
174.3671382072171
 20
283.82593161258421
 30
0.0
 11
175.02921336179011
 21
284.61496205661359
 31
0.0
  0
POLYLINE
  5
16A
  8
L1
 66
     1
 10
0.0
 20
0.0
 30
0.0
  0
VERTEX
  5
1653
  8
L1
 10
175.02921336179
 20
284.61496205661359
 30
0.0
  0
VERTEX
  5
1654
  8
L1
 10
175.0717513261765
 20
284.68198895750351
 30
0.0
  0
VERTEX
  5
1655
  8
L1
 10
175.09926448633649
 20
284.79799094760239
 30
0.0
  0
VERTEX
  5
1656
  8
L1
 10
175.08033363936869
 20
284.91315219199822
 30
0.0
  0
VERTEX
  5
1657
  8
L1
 10
175.04001114560731
 20
284.98704242143509
 30
0.0
  0
SEQEND
  5
1658
  8
L1
  0
POLYLINE
  5
16B
  8
L1
 66
     1
 10
0.0
 20
0.0
 30
0.0
  0
VERTEX
  5
1659
  8
L1
 10
176.96944373932101
 20
283.05760982772131
 30
0.0
  0
VERTEX
  5
165A
  8
L1
 10
176.89790832359091
 20
283.0970380616161
 30
0.0
  0
VERTEX
  5
165B
  8
L1
 10
176.78039132313111
 20
283.11686313747032
 30
0.0
  0
VERTEX
  5
165C
  8
L1
 10
176.66664957419781
 20
283.090382680012
 30
0.0
  0
VERTEX
  5
165D
  8
L1
 10
176.59736337449959
 20
283.04681204390403
 30
0.0
  0
SEQEND
  5
165E
  8
L1
  0
LINE
  5
16C
  8
L1
 10
176.59736337449959
 20
283.04681204390391
 30
0.0
 11
175.8083329304701
 21
282.38473688933129
 31
0.0
  0
LINE
  5
16D
  8
L1
 10
175.4033646132082
 20
282.402418187911
 30
0.0
 11
174.3848195057968
 21
283.42096329532211
 31
0.0
  0
LINE
  5
16E
  8
L1
 10
173.1700383366632
 20
290.6265735050651
 30
0.0
 11
173.1700383366632
 21
286.587637018777
 31
0.0
  0
ARC
  5
16F
  8
L1
 10
186.1089748229513
 20
281.0265735050653
 30
0.0
 40
3.200000000000057
 50
0.0
 51
39.517946684075078
  0
ARC
  5
170
  8
L1
 10
186.1089748229513
 20
281.0265735050653
 30
0.0
 40
2.200000000000033
 50
0.0
 51
89.999999999998565
  0
POLYLINE
  5
171
  8
L1
 66
     1
 10
0.0
 20
0.0
 30
0.0
  0
VERTEX
  5
165F
  8
L1
 10
187.47003802040729
 20
280.88804784209469
 30
0.0
  0
VERTEX
  5
1660
  8
L1
 10
187.38208555472411
 20
281.09968423683802
 30
0.0
  0
VERTEX
  5
1661
  8
L1
 10
187.1704491599809
 20
281.18763670252127
 30
0.0
  0
SEQEND
  5
1662
  8
L1
  0
LINE
  5
172
  8
L1
 10
187.17014113917051
 20
281.18763701877708
 30
0.0
 11
182.60897482295141
 21
281.18763701877708
 31
0.0
  0
POLYLINE
  5
173
  8
L1
 66
     1
 10
0.0
 20
0.0
 30
0.0
  0
VERTEX
  5
1663
  8
L1
 10
187.1704491599811
 20
281.18763670252139
 30
0.0
  0
VERTEX
  5
1664
  8
L1
 10
187.1702951891281
 20
281.18763693971317
 30
0.0
  0
VERTEX
  5
1665
  8
L1
 10
187.1701411391706
 20
281.18763701877708
 30
0.0
  0
SEQEND
  5
1666
  8
L1
  0
POLYLINE
  5
174
  8
L1
 66
     1
 10
0.0
 20
0.0
 30
0.0
  0
VERTEX
  5
1667
  8
L1
 10
187.47003833666309
 20
280.88773982128453
 30
0.0
  0
VERTEX
  5
1668
  8
L1
 10
187.47003825759921
 20
280.887893871242
 30
0.0
  0
VERTEX
  5
1669
  8
L1
 10
187.4700380204074
 20
280.88804784209492
 30
0.0
  0
SEQEND
  5
166A
  8
L1
  0
ARC
  5
175
  8
L1
 10
186.1089748229513
 20
281.0265735050653
 30
0.0
 40
3.200000000000057
 50
39.517946684075078
 51
89.999999999998977
  0
LINE
  5
176
  8
L1
 10
188.47817688705959
 20
287.32414940902731
 30
0.0
 11
185.72201695444309
 21
284.56798947641079
 31
0.0
  0
LINE
  5
177
  8
L1
 10
182.83914584088521
 20
285.65057949108098
 30
0.0
 11
187.5849688369357
 21
290.39640248713141
 31
0.0
  0
LINE
  5
178
  8
L1
 10
186.10897482295141
 20
283.2265735050654
 30
0.0
 11
182.60897482295141
 21
283.2265735050654
 31
0.0
  0
LINE
  5
179
  8
L1
 10
185.40897482295139
 20
284.2265735050654
 30
0.0
 11
186.10897482295141
 21
284.2265735050654
 31
0.0
  0
LINE
  5
17A
  8
L1
 10
182.60897482295141
 20
284.2265735050654
 30
0.0
 11
185.40897482295139
 21
284.2265735050654
 31
0.0
  0
POLYLINE
  5
17B
  8
L1
 66
     1
 10
0.0
 20
0.0
 30
0.0
  0
VERTEX
  5
166B
  8
L1
 10
185.8634544657663
 20
284.2265735050654
 30
0.0
  0
VERTEX
  5
166C
  8
L1
 10
185.7523335403227
 20
284.26027852491188
 30
0.0
  0
VERTEX
  5
166D
  8
L1
 10
185.67866594485341
 20
284.35003330082299
 30
0.0
  0
VERTEX
  5
166E
  8
L1
 10
185.66728135703201
 20
284.46558596776453
 30
0.0
  0
VERTEX
  5
166F
  8
L1
 10
185.72201695444309
 20
284.56798947641067
 30
0.0
  0
SEQEND
  5
1670
  8
L1
  0
POLYLINE
  5
17C
  8
L1
 66
     1
 10
0.0
 20
0.0
 30
0.0
  0
VERTEX
  5
1671
  8
L1
 10
189.10897482295121
 20
283.25366540151549
 30
0.0
  0
VERTEX
  5
1672
  8
L1
 10
189.10851218730861
 20
283.2370104796625
 30
0.0
  0
VERTEX
  5
1673
  8
L1
 10
189.07838199025321
 20
283.1216792102868
 30
0.0
  0
VERTEX
  5
1674
  8
L1
 10
189.00760692393999
 20
283.02884279533907
 30
0.0
  0
VERTEX
  5
1675
  8
L1
 10
188.90675872524579
 20
282.9700543725146
 30
0.0
  0
VERTEX
  5
1676
  8
L1
 10
188.79110252266889
 20
282.95421010586
 30
0.0
  0
VERTEX
  5
1677
  8
L1
 10
188.67814408152651
 20
282.98371301530989
 30
0.0
  0
VERTEX
  5
1678
  8
L1
 10
188.5858106793589
 20
283.05318650646331
 30
0.0
  0
VERTEX
  5
1679
  8
L1
 10
188.57753580716539
 20
283.06279713404518
 30
0.0
  0
SEQEND
  5
167A
  8
L1
  0
POLYLINE
  5
17D
  8
L1
 66
     1
 10
0.0
 20
0.0
 30
0.0
  0
VERTEX
  5
167B
  8
L1
 10
188.4781768870595
 20
287.32414940902731
 30
0.0
  0
VERTEX
  5
167C
  8
L1
 10
188.5767046097277
 20
287.389683621828
 30
0.0
  0
VERTEX
  5
167D
  8
L1
 10
188.6928960578185
 20
287.41202592109647
 30
0.0
  0
SEQEND
  5
167E
  8
L1
  0
POLYLINE
  5
17E
  8
L1
 66
     1
 10
0.0
 20
0.0
 30
0.0
  0
VERTEX
  5
167F
  8
L1
 10
189.1089748229513
 20
286.84788623285641
 30
0.0
  0
VERTEX
  5
1680
  8
L1
 10
188.9041004751553
 20
287.32509254017248
 30
0.0
  0
VERTEX
  5
1681
  8
L1
 10
188.6928960578185
 20
287.41202592109647
 30
0.0
  0
SEQEND
  5
1682
  8
L1
  0
LINE
  5
17F
  8
L1
 10
175.23606671940141
 20
297.12657350506532
 30
0.0
 11
186.5089748229513
 21
297.12657350506532
 31
0.0
  0
LINE
  5
180
  8
L1
 10
176.55039079429659
 20
293.73961563655712
 30
0.0
 11
179.30655072691309
 21
296.4957755691737
 31
0.0
  0
ARC
  5
181
  8
L1
 10
173.0089748229513
 20
294.12657350506532
 30
0.0
 40
3.2000000000000282
 50
50.482053315924631
 51
90.0
  0
ARC
  5
182
  8
L1
 10
173.0089748229513
 20
294.12657350506532
 30
0.0
 40
2.2000000000000051
 50
0.0
 51
90.0
  0
POLYLINE
  5
183
  8
L1
 66
     1
 10
0.0
 20
0.0
 30
0.0
  0
VERTEX
  5
1683
  8
L1
 10
173.17003833666311
 20
295.18773982128448
 30
0.0
  0
VERTEX
  5
1684
  8
L1
 10
173.1700382575992
 20
295.1878938712419
 30
0.0
  0
VERTEX
  5
1685
  8
L1
 10
173.17003802040739
 20
295.18804784209482
 30
0.0
  0
SEQEND
  5
1686
  8
L1
  0
POLYLINE
  5
184
  8
L1
 66
     1
 10
0.0
 20
0.0
 30
0.0
  0
VERTEX
  5
1687
  8
L1
 10
173.17003802040739
 20
295.18804784209482
 30
0.0
  0
VERTEX
  5
1688
  8
L1
 10
173.0820855547241
 20
295.39968423683803
 30
0.0
  0
VERTEX
  5
1689
  8
L1
 10
172.87044915998089
 20
295.48763670252117
 30
0.0
  0
SEQEND
  5
168A
  8
L1
  0
POLYLINE
  5
185
  8
L1
 66
     1
 10
0.0
 20
0.0
 30
0.0
  0
VERTEX
  5
168B
  8
L1
 10
172.87044915998109
 20
295.48763670252129
 30
0.0
  0
VERTEX
  5
168C
  8
L1
 10
172.87029518912809
 20
295.48763693971318
 30
0.0
  0
VERTEX
  5
168D
  8
L1
 10
172.8701411391705
 20
295.48763701877709
 30
0.0
  0
SEQEND
  5
168E
  8
L1
  0
POLYLINE
  5
186
  8
L1
 66
     1
 10
0.0
 20
0.0
 30
0.0
  0
VERTEX
  5
168F
  8
L1
 10
175.04519845193121
 20
296.59513448927947
 30
0.0
  0
VERTEX
  5
1690
  8
L1
 10
175.0346716910214
 20
296.60423592070191
 30
0.0
  0
VERTEX
  5
1691
  8
L1
 10
174.96398104862661
 20
296.70023920122202
 30
0.0
  0
VERTEX
  5
1692
  8
L1
 10
174.9363553959482
 20
296.81368288219539
 30
0.0
  0
VERTEX
  5
1693
  8
L1
 10
174.9549883755013
 20
296.93141681878421
 30
0.0
  0
VERTEX
  5
1694
  8
L1
 10
175.01628198323391
 20
297.03076630205209
 30
0.0
  0
VERTEX
  5
1695
  8
L1
 10
175.1108545863637
 20
297.0991949918083
 30
0.0
  0
VERTEX
  5
1696
  8
L1
 10
175.22439191690441
 20
297.12634626660878
 30
0.0
  0
VERTEX
  5
1697
  8
L1
 10
175.23606671940141
 20
297.12657350506532
 30
0.0
  0
SEQEND
  5
1698
  8
L1
  0
ARC
  5
187
  8
L1
 10
173.0089748229513
 20
294.12657350506532
 30
0.0
 40
3.2000000000000282
 50
0.0
 51
50.482053315924631
  0
LINE
  5
188
  8
L1
 10
176.20897482295129
 20
294.12657350506532
 30
0.0
 11
176.20897482295129
 21
293.42657350506528
 31
0.0
  0
POLYLINE
  5
189
  8
L1
 66
     1
 10
0.0
 20
0.0
 30
0.0
  0
VERTEX
  5
1699
  8
L1
 10
176.55039079429659
 20
293.73961563655712
 30
0.0
  0
VERTEX
  5
169A
  8
L1
 10
176.44798728565041
 20
293.68488003914592
 30
0.0
  0
VERTEX
  5
169B
  8
L1
 10
176.33243461870879
 20
293.69626462696732
 30
0.0
  0
VERTEX
  5
169C
  8
L1
 10
176.2426798427978
 20
293.76993222243652
 30
0.0
  0
VERTEX
  5
169D
  8
L1
 10
176.20897482295129
 20
293.8810531478801
 30
0.0
  0
SEQEND
  5
169E
  8
L1
  0
ARC
  5
18A
  8
L1
 10
186.5089748229513
 20
294.5265735050653
 30
0.0
 40
2.6000000000000001
 50
0.0
 51
90.0
  0
POLYLINE
  5
18B
  8
L1
 66
     1
 10
0.0
 20
0.0
 30
0.0
  0
VERTEX
  5
169F
  8
L1
 10
179.3944272389823
 20
296.71049473993253
 30
0.0
  0
VERTEX
  5
16A0
  8
L1
 10
179.37208493971389
 20
296.5943032918417
 30
0.0
  0
VERTEX
  5
16A1
  8
L1
 10
179.30655072691309
 20
296.4957755691737
 30
0.0
  0
SEQEND
  5
16A2
  8
L1
  0
POLYLINE
  5
18C
  8
L1
 66
     1
 10
0.0
 20
0.0
 30
0.0
  0
VERTEX
  5
16A3
  8
L1
 10
179.3944272389823
 20
296.71049473993253
 30
0.0
  0
VERTEX
  5
16A4
  8
L1
 10
179.30749385805839
 20
296.9216991572693
 30
0.0
  0
VERTEX
  5
16A5
  8
L1
 10
178.8302875507423
 20
297.12657350506532
 30
0.0
  0
SEQEND
  5
16A6
  8
L1
  0
ARC
  5
18D
  8
L1
 10
187.4159748229512
 20
295.43357350506523
 30
0.0
 40
2.7360241002247609
 50
0.0
 51
90.0
  0
POLYLINE
  5
18E
  8
L1
 66
     1
 10
0.0
 20
0.0
 30
0.0
  0
VERTEX
  5
16A7
  8
L1
 10
190.87106326072521
 20
295.43357350506523
 30
0.0
  0
VERTEX
  5
16A8
  8
L1
 10
190.87122503014001
 20
295.41362153710361
 30
0.0
  0
VERTEX
  5
16A9
  8
L1
 10
190.8712789538603
 20
295.39367426433353
 30
0.0
  0
SEQEND
  5
16AA
  8
L1
  0
POLYLINE
  5
18F
  8
L1
 66
     1
 10
0.0
 20
0.0
 30
0.0
  0
VERTEX
  5
16AB
  8
L1
 10
187.4159748229512
 20
298.88866194283941
 30
0.0
  0
VERTEX
  5
16AC
  8
L1
 10
188.07776242539649
 20
298.81828789517971
 30
0.0
  0
VERTEX
  5
16AD
  8
L1
 10
188.7327472091923
 20
298.61615850706772
 30
0.0
  0
VERTEX
  5
16AE
  8
L1
 10
189.3355940538473
 20
298.29001425525138
 30
0.0
  0
VERTEX
  5
16AF
  8
L1
 10
189.84890394202489
 20
297.866502624139
 30
0.0
  0
VERTEX
  5
16B0
  8
L1
 10
190.27241557313721
 20
297.35319273596127
 30
0.0
  0
VERTEX
  5
16B1
  8
L1
 10
190.5985598249537
 20
296.75034589130632
 30
0.0
  0
VERTEX
  5
16B2
  8
L1
 10
190.80068921306551
 20
296.0953611075106
 30
0.0
  0
VERTEX
  5
16B3
  8
L1
 10
190.87106326072521
 20
295.43357350506523
 30
0.0
  0
SEQEND
  5
16B4
  8
L1
  0
POLYLINE
  5
190
  8
L1
 66
     1
 10
0.0
 20
0.0
 30
0.0
  0
VERTEX
  5
16B5
  8
L1
 10
187.37607558221941
 20
298.8888776359745
 30
0.0
  0
VERTEX
  5
16B6
  8
L1
 10
187.39602285498941
 20
298.88882371225412
 30
0.0
  0
VERTEX
  5
16B7
  8
L1
 10
187.4159748229512
 20
298.88866194283941
 30
0.0
  0
SEQEND
  5
16B8
  8
L1
  0
LINE
  5
191
  8
L1
 10
297.9484228194043
 20
284.2265735050654
 30
0.0
 11
297.9484228194043
 21
294.52657350506541
 31
0.0
  0
LINE
  5
194
  8
L1
 10
271.34842281940428
 20
297.34273366279348
 30
0.0
 11
271.34842281940428
 21
134.73678059172229
 31
0.0
  0
LINE
  5
195
  8
L1
 10
271.1588900106529
 20
282.81664051145748
 30
0.0
 11
248.0894347030742
 21
281.60762158951792
 31
0.0
  0
LINE
  5
196
  8
L2
 10
249.9699188850399
 20
279.95193998876073
 30
0.0
 11
273.54842281940432
 21
281.18763701877731
 31
0.0
  0
LINE
  5
197
  8
L1
 10
248.0894347030742
 20
281.60762158951792
 30
0.0
 11
246.34842281940431
 21
279.62969346691631
 31
0.0
  0
ARC
  5
198
  8
L2
 10
250.14842281940429
 20
278.45399568662879
 30
0.0
 40
1.5
 50
93.000000000000156
 51
180.0
  0
LINE
  5
19A
  8
L2
 10
297.9484228194043
 20
281.82657350506543
 30
0.0
 11
273.54842281940432
 21
281.1876370187772
 31
0.0
  0
ARC
  5
19C
  8
L1
 10
271.1484228194044
 20
283.01636641840838
 30
0.0
 40
0.2
 50
272.9999999999996
 51
0.0
  0
ARC
  5
1A4
  8
L1
 10
271.54842281940432
 20
297.34273366279348
 30
0.0
 40
0.2
 50
92.999999999999659
 51
180.0
  0
LINE
  5
1AA
  8
L1
 10
297.9484228194043
 20
297.12657350506532
 30
0.0
 11
297.9484228194043
 21
298.16959760529011
 31
0.0
  0
LINE
  5
1AB
  8
L1
 10
297.9484228194043
 20
298.16959760529011
 30
0.0
 11
297.22914278871991
 21
298.8888776359745
 31
0.0
  0
POLYLINE
  5
1AC
  8
L1
 66
     1
 10
0.0
 20
0.0
 30
0.0
  0
VERTEX
  5
16B9
  8
L1
 10
366.7871317780353
 20
297.34273366279348
 30
0.0
  0
VERTEX
  5
16BA
  8
L1
 10
366.63914264239583
 20
297.33941781454399
 30
0.0
  0
VERTEX
  5
16BB
  8
L1
 10
366.49146866345092
 20
297.32947692420868
 30
0.0
  0
VERTEX
  5
16BC
  8
L1
 10
366.344406200859
 20
297.31293094167228
 30
0.0
  0
VERTEX
  5
16BD
  8
L1
 10
366.19825038705631
 20
297.2898130722549
 30
0.0
  0
VERTEX
  5
16BE
  8
L1
 10
366.05329453497018
 20
297.26016971007363
 30
0.0
  0
VERTEX
  5
16BF
  8
L1
 10
365.9098295493838
 20
297.22406034493679
 30
0.0
  0
VERTEX
  5
16C0
  8
L1
 10
365.76814334313332
 20
297.18155744295638
 30
0.0
  0
VERTEX
  5
16C1
  8
L1
 10
365.62852025931011
 20
297.13274630111988
 30
0.0
  0
VERTEX
  5
16C2
  8
L1
 10
365.49124050062647
 20
297.07772487611152
 30
0.0
  0
VERTEX
  5
16C3
  8
L1
 10
365.35657956709042
 20
297.01660358772767
 30
0.0
  0
VERTEX
  5
16C4
  8
L1
 10
365.22480770311847
 20
296.9495050972817
 30
0.0
  0
VERTEX
  5
16C5
  8
L1
 10
365.09618935519512
 20
296.87656406143981
 30
0.0
  0
VERTEX
  5
16C6
  8
L1
 10
364.97098264116852
 20
296.79792686198562
 30
0.0
  0
VERTEX
  5
16C7
  8
L1
 10
364.84943883224611
 20
296.71375131205423
 30
0.0
  0
VERTEX
  5
16C8
  8
L1
 10
364.73180184873081
 20
296.62420633942412
 30
0.0
  0
VERTEX
  5
16C9
  8
L1
 10
364.61830777050972
 20
296.52947164750509
 30
0.0
  0
VERTEX
  5
16CA
  8
L1
 10
364.50918436327629
 20
296.42973735469928
 30
0.0
  0
VERTEX
  5
16CB
  8
L1
 10
364.40465062143937
 20
296.32520361286242
 30
0.0
  0
VERTEX
  5
16CC
  8
L1
 10
364.30491632863362
 20
296.216080205629
 30
0.0
  0
VERTEX
  5
16CD
  8
L1
 10
364.21018163671459
 20
296.10258612740779
 30
0.0
  0
VERTEX
  5
16CE
  8
L1
 10
364.1206366640846
 20
295.98494914389261
 30
0.0
  0
VERTEX
  5
16CF
  8
L1
 10
364.0364611141531
 20
295.8634053349702
 30
0.0
  0
VERTEX
  5
16D0
  8
L1
 10
363.95782391469902
 20
295.73819862094359
 30
0.0
  0
VERTEX
  5
16D1
  8
L1
 10
363.88488287885701
 20
295.60958027302019
 30
0.0
  0
VERTEX
  5
16D2
  8
L1
 10
363.81778438841093
 20
295.47780840904829
 30
0.0
  0
VERTEX
  5
16D3
  8
L1
 10
363.7566631000272
 20
295.34314747551218
 30
0.0
  0
VERTEX
  5
16D4
  8
L1
 10
363.70164167501878
 20
295.20586771682849
 30
0.0
  0
VERTEX
  5
16D5
  8
L1
 10
363.6528305331824
 20
295.0662446330054
 30
0.0
  0
VERTEX
  5
16D6
  8
L1
 10
363.61032763120198
 20
294.92455842675491
 30
0.0
  0
VERTEX
  5
16D7
  8
L1
 10
363.57421826606509
 20
294.78109344116848
 30
0.0
  0
VERTEX
  5
16D8
  8
L1
 10
363.54457490388381
 20
294.63613758908241
 30
0.0
  0
VERTEX
  5
16D9
  8
L1
 10
363.52145703446638
 20
294.48998177527972
 30
0.0
  0
VERTEX
  5
16DA
  8
L1
 10
363.50491105192998
 20
294.3429193126878
 30
0.0
  0
VERTEX
  5
16DB
  8
L1
 10
363.49497016159472
 20
294.19524533374289
 30
0.0
  0
VERTEX
  5
16DC
  8
L1
 10
363.49165431334518
 20
294.04725619810341
 30
0.0
  0
SEQEND
  5
16DD
  8
L1
  0
LINE
  5
1AD
  8
L1
 10
365.25751533338672
 20
290.40773257519402
 30
0.0
 11
369.98897354120191
 21
285.67627436737871
 31
0.0
  0
LINE
  5
1AE
  8
L1
 10
370.42816300054648
 20
282.81664051145742
 30
0.0
 11
365.90905346311928
 21
282.81664051145742
 31
0.0
  0
POLYLINE
  5
1AF
  8
L1
 66
     1
 10
0.0
 20
0.0
 30
0.0
  0
VERTEX
  5
16DE
  8
L1
 10
365.26074138212579
 20
280.36780652112168
 30
0.0
  0
VERTEX
  5
16DF
  8
L1
 10
365.37155706036867
 20
280.58576035671177
 30
0.0
  0
VERTEX
  5
16E0
  8
L1
 10
365.51097135240337
 20
280.79393618474302
 30
0.0
  0
VERTEX
  5
16E1
  8
L1
 10
365.74515304768221
 20
281.0532858356267
 30
0.0
  0
VERTEX
  5
16E2
  8
L1
 10
366.02262171003679
 20
281.27203612094621
 30
0.0
  0
VERTEX
  5
16E3
  8
L1
 10
366.34699230999991
 20
281.44656023062203
 30
0.0
  0
VERTEX
  5
16E4
  8
L1
 10
366.69504277154221
 20
281.55975165914128
 30
0.0
  0
VERTEX
  5
16E5
  8
L1
 10
366.748281944116
 20
281.5711448746568
 30
0.0
  0
SEQEND
  5
16E6
  8
L1
  0
CIRCLE
  5
1B0
  8
L1
 10
370.20781447107328
 20
290.62657350506538
 30
0.0
 40
5.7974047862592784
  0
ARC
  5
1B1
  8
L1
 10
370.20781447107328
 20
290.62657350506538
 30
0.0
 40
4.9551339946734032
 50
87.468738206708764
 51
182.53126179329249
  0
CIRCLE
  5
1B2
  8
L1
 10
370.20781447107328
 20
290.62657350506538
 30
0.0
 40
6.097393363178492
  0
POLYLINE
  5
1B5
  8
L1
 66
     1
 10
0.0
 20
0.0
 30
0.0
  0
VERTEX
  5
16E7
  8
L1
 10
365.90905346311928
 20
282.81664051145742
 30
0.0
  0
VERTEX
  5
16E8
  8
L1
 10
365.70004998744048
 20
282.80576154979309
 30
0.0
  0
VERTEX
  5
16E9
  8
L1
 10
365.49339430752912
 20
282.7731292736903
 30
0.0
  0
VERTEX
  5
16EA
  8
L1
 10
365.29134270412078
 20
282.71909996455349
 30
0.0
  0
VERTEX
  5
16EB
  8
L1
 10
365.0961011903313
 20
282.64426351804599
 30
0.0
  0
VERTEX
  5
16EC
  8
L1
 10
364.90980142625619
 20
282.5494370035687
 30
0.0
  0
VERTEX
  5
16ED
  8
L1
 10
364.73447744536071
 20
282.43565574344109
 30
0.0
  0
VERTEX
  5
16EE
  8
L1
 10
364.57204344676438
 20
282.3041620091816
 30
0.0
  0
VERTEX
  5
16EF
  8
L1
 10
364.42427289588602
 20
282.15639145830312
 30
0.0
  0
VERTEX
  5
16F0
  8
L1
 10
364.29277916162641
 20
281.99395745970679
 30
0.0
  0
VERTEX
  5
16F1
  8
L1
 10
364.17899790149869
 20
281.81863347881131
 30
0.0
  0
VERTEX
  5
16F2
  8
L1
 10
364.08417138702151
 20
281.63233371473621
 30
0.0
  0
VERTEX
  5
16F3
  8
L1
 10
364.00933494051412
 20
281.43709220094678
 30
0.0
  0
VERTEX
  5
16F4
  8
L1
 10
363.95530563137731
 20
281.2350405975385
 30
0.0
  0
VERTEX
  5
16F5
  8
L1
 10
363.92267335527441
 20
281.02838491762708
 30
0.0
  0
VERTEX
  5
16F6
  8
L1
 10
363.91179439361008
 20
280.81938144194822
 30
0.0
  0
SEQEND
  5
16F7
  8
L1
  0
POLYLINE
  5
1B6
  8
L1
 66
     1
 10
0.0
 20
0.0
 30
0.0
  0
VERTEX
  5
16F8
  8
L1
 10
365.26074138212579
 20
280.36780652112168
 30
0.0
  0
VERTEX
  5
16F9
  8
L1
 10
365.14561435641741
 20
280.00516316596719
 30
0.0
  0
VERTEX
  5
16FA
  8
L1
 10
365.10676117171312
 20
279.6244146638453
 30
0.0
  0
SEQEND
  5
16FB
  8
L1
  0
POLYLINE
  5
1B7
  8
L1
 66
     1
 10
0.0
 20
0.0
 30
0.0
  0
VERTEX
  5
16FC
  8
L1
 10
361.94572603329931
 20
295.43357350506528
 30
0.0
  0
VERTEX
  5
16FD
  8
L1
 10
361.96480039868737
 20
295.76220407369772
 30
0.0
  0
VERTEX
  5
16FE
  8
L1
 10
362.01610008095901
 20
296.09536110751071
 30
0.0
  0
VERTEX
  5
16FF
  8
L1
 10
362.10079001073041
 20
296.42672544823921
 30
0.0
  0
VERTEX
  5
1700
  8
L1
 10
362.21822946907088
 20
296.75034589130632
 30
0.0
  0
VERTEX
  5
1701
  8
L1
 10
362.36705797207281
 20
297.06077020794868
 30
0.0
  0
VERTEX
  5
1702
  8
L1
 10
362.54437372088728
 20
297.35319273596127
 30
0.0
  0
VERTEX
  5
1703
  8
L1
 10
362.74641385549307
 20
297.62297252330961
 30
0.0
  0
VERTEX
  5
1704
  8
L1
 10
362.96788535199971
 20
297.866502624139
 30
0.0
  0
VERTEX
  5
1705
  8
L1
 10
363.21141545282899
 20
298.08797412064558
 30
0.0
  0
VERTEX
  5
1706
  8
L1
 10
363.48119524017733
 20
298.29001425525138
 30
0.0
  0
VERTEX
  5
1707
  8
L1
 10
363.77361776818998
 20
298.46733000406579
 30
0.0
  0
VERTEX
  5
1708
  8
L1
 10
364.08404208483239
 20
298.61615850706772
 30
0.0
  0
VERTEX
  5
1709
  8
L1
 10
364.40766252789939
 20
298.73359796540831
 30
0.0
  0
VERTEX
  5
170A
  8
L1
 10
364.73902686862812
 20
298.81828789517971
 30
0.0
  0
VERTEX
  5
170B
  8
L1
 10
365.072183902441
 20
298.8695875774514
 30
0.0
  0
VERTEX
  5
170C
  8
L1
 10
365.40081447107337
 20
298.88866194283941
 30
0.0
  0
SEQEND
  5
170D
  8
L1
  0
LINE
  5
1B8
  8
L1
 10
375.15811360876012
 20
290.84541443493657
 30
0.0
 11
370.42665540094458
 21
295.57687264275211
 31
0.0
  0
POLYLINE
  5
1B9
  8
L1
 66
     1
 10
0.0
 20
0.0
 30
0.0
  0
VERTEX
  5
170E
  8
L1
 10
379.22663705156958
 20
289.19733538870378
 30
0.0
  0
VERTEX
  5
170F
  8
L1
 10
379.22674686896721
 20
289.83073816692831
 30
0.0
  0
VERTEX
  5
1710
  8
L1
 10
379.22682170177973
 20
290.16379455655652
 30
0.0
  0
VERTEX
  5
1711
  8
L1
 10
379.22686078638702
 20
290.42910044685948
 30
0.0
  0
VERTEX
  5
1712
  8
L1
 10
379.22686224405709
 20
290.88074695217239
 30
0.0
  0
VERTEX
  5
1713
  8
L1
 10
379.22683988365571
 20
291.12923067852421
 30
0.0
  0
VERTEX
  5
1714
  8
L1
 10
379.2268123081202
 20
291.43425012823383
 30
0.0
  0
VERTEX
  5
1715
  8
L1
 10
379.22679895007349
 20
291.61767061049522
 30
0.0
  0
VERTEX
  5
1716
  8
L1
 10
379.22678715071879
 20
291.82687685697238
 30
0.0
  0
VERTEX
  5
1717
  8
L1
 10
379.22677786421451
 20
292.06575281212457
 30
0.0
  0
VERTEX
  5
1718
  8
L1
 10
379.22677204471921
 20
292.33818242041048
 30
0.0
  0
VERTEX
  5
1719
  8
L1
 10
379.22678719414432
 20
293.71629478355629
 30
0.0
  0
SEQEND
  5
171A
  8
L1
  0
LINE
  5
1BA
  8
L1
 10
378.01774746468129
 20
294.92533451301932
 30
0.0
 11
378.01774746468129
 21
290.40622497559212
 31
0.0
  0
LINE
  5
1BB
  8
L1
 10
381.16551419181621
 20
281.82745765142641
 30
0.0
 11
381.20428264102338
 21
292.28706057364582
 31
0.0
  0
POLYLINE
  5
1BC
  8
L1
 66
     1
 10
0.0
 20
0.0
 30
0.0
  0
VERTEX
  5
171B
  8
L1
 10
371.63703208612259
 20
281.60777142588131
 30
0.0
  0
VERTEX
  5
171C
  8
L1
 10
371.68190948461501
 20
281.6079051638514
 30
0.0
  0
VERTEX
  5
171D
  8
L1
 10
371.87595700207112
 20
281.61165104442603
 30
0.0
  0
VERTEX
  5
171E
  8
L1
 10
372.33376053725488
 20
281.64088120856042
 30
0.0
  0
VERTEX
  5
171F
  8
L1
 10
372.58063600625741
 20
281.66837609489289
 30
0.0
  0
VERTEX
  5
1720
  8
L1
 10
372.87709756281771
 20
281.71240922324102
 30
0.0
  0
VERTEX
  5
1721
  8
L1
 10
373.2181012831748
 20
281.77818206260559
 30
0.0
  0
VERTEX
  5
1722
  8
L1
 10
373.59860324356822
 20
281.87089608198789
 30
0.0
  0
VERTEX
  5
1723
  8
L1
 10
374.04384511980408
 20
282.00620825790048
 30
0.0
  0
VERTEX
  5
1724
  8
L1
 10
374.47962284040011
 20
282.16835549718871
 30
0.0
  0
VERTEX
  5
1725
  8
L1
 10
374.90470410331301
 20
282.35683073997751
 30
0.0
  0
VERTEX
  5
1726
  8
L1
 10
375.31785660649979
 20
282.57112692639208
 30
0.0
  0
VERTEX
  5
1727
  8
L1
 10
375.90637198547319
 20
282.93551911580158
 30
0.0
  0
VERTEX
  5
1728
  8
L1
 10
376.45950317793972
 20
283.35173796698632
 30
0.0
  0
VERTEX
  5
1729
  8
L1
 10
377.01734825439831
 20
283.8610961395234
 30
0.0
  0
VERTEX
  5
172A
  8
L1
 10
377.52206196450982
 20
284.42318843525061
 30
0.0
  0
VERTEX
  5
172B
  8
L1
 10
377.91563858337292
 20
284.95309854699462
 30
0.0
  0
VERTEX
  5
172C
  8
L1
 10
378.26203780507922
 20
285.51507213928932
 30
0.0
  0
VERTEX
  5
172D
  8
L1
 10
378.56319131354257
 20
286.1150568897512
 30
0.0
  0
VERTEX
  5
172E
  8
L1
 10
378.81031804431387
 20
286.7391889874678
 30
0.0
  0
VERTEX
  5
172F
  8
L1
 10
379.00722590628021
 20
287.4059405710525
 30
0.0
  0
VERTEX
  5
1730
  8
L1
 10
379.14254740770241
 20
288.08812162973283
 30
0.0
  0
VERTEX
  5
1731
  8
L1
 10
379.19160886522491
 20
288.48170435021382
 30
0.0
  0
VERTEX
  5
1732
  8
L1
 10
379.21977012113581
 20
288.88042709060738
 30
0.0
  0
VERTEX
  5
1733
  8
L1
 10
379.22523249224531
 20
289.05395168706332
 30
0.0
  0
VERTEX
  5
1734
  8
L1
 10
379.22663705156958
 20
289.19733538870378
 30
0.0
  0
SEQEND
  5
1735
  8
L1
  0
LINE
  5
1BD
  8
L1
 10
378.69399859030301
 20
279.66218574126322
 30
0.0
 11
368.31971246569242
 21
279.61596317933612
 31
0.0
  0
POLYLINE
  5
1BE
  8
L1
 66
     1
 10
0.0
 20
0.0
 30
0.0
  0
VERTEX
  5
1736
  8
L1
 10
366.748281944116
 20
281.5711448746568
 30
0.0
  0
VERTEX
  5
1737
  8
L1
 10
366.8364248310545
 20
281.58658258325272
 30
0.0
  0
VERTEX
  5
1738
  8
L1
 10
366.95574825770098
 20
281.60066965086168
 30
0.0
  0
VERTEX
  5
1739
  8
L1
 10
367.02791025868243
 20
281.60547526158211
 30
0.0
  0
VERTEX
  5
173A
  8
L1
 10
367.07205865264177
 20
281.6070555031543
 30
0.0
  0
VERTEX
  5
173B
  8
L1
 10
367.10656051337901
 20
281.60757673607918
 30
0.0
  0
VERTEX
  5
173C
  8
L1
 10
367.1180822088985
 20
281.6076117656782
 30
0.0
  0
SEQEND
  5
173D
  8
L1
  0
POLYLINE
  5
1BF
  8
L1
 66
     1
 10
0.0
 20
0.0
 30
0.0
  0
VERTEX
  5
173E
  8
L1
 10
367.1180822088985
 20
281.6076117656782
 30
0.0
  0
VERTEX
  5
173F
  8
L1
 10
368.87384100160392
 20
281.60760076490322
 30
0.0
  0
VERTEX
  5
1740
  8
L1
 10
369.10699459684622
 20
281.60758686190132
 30
0.0
  0
VERTEX
  5
1741
  8
L1
 10
369.31331801496918
 20
281.607571808091
 30
0.0
  0
VERTEX
  5
1742
  8
L1
 10
369.66916430685058
 20
281.60754423023218
 30
0.0
  0
VERTEX
  5
1743
  8
L1
 10
370.31948462210971
 20
281.60754106887822
 30
0.0
  0
VERTEX
  5
1744
  8
L1
 10
370.53890088682459
 20
281.60756643846202
 30
0.0
  0
VERTEX
  5
1745
  8
L1
 10
370.73295988215051
 20
281.60760251076363
 30
0.0
  0
VERTEX
  5
1746
  8
L1
 10
371.06445041386291
 20
281.60768731525081
 30
0.0
  0
VERTEX
  5
1747
  8
L1
 10
371.63703208612259
 20
281.60777142588131
 30
0.0
  0
SEQEND
  5
1748
  8
L1
  0
POLYLINE
  5
1C0
  8
L1
 66
     1
 10
0.0
 20
0.0
 30
0.0
  0
VERTEX
  5
1749
  8
L1
 10
368.54746105067511
 20
279.63006245699341
 30
0.0
  0
VERTEX
  5
174A
  8
L1
 10
368.31971246569242
 20
279.61596317933612
 30
0.0
  0
VERTEX
  5
174B
  8
L1
 10
368.05915409011192
 20
279.55889684767232
 30
0.0
  0
VERTEX
  5
174C
  8
L1
 10
367.81597146714341
 20
279.45145979504281
 30
0.0
  0
VERTEX
  5
174D
  8
L1
 10
367.63835614008281
 20
279.32299407463398
 30
0.0
  0
VERTEX
  5
174E
  8
L1
 10
367.48997821181717
 20
279.16168753821989
 30
0.0
  0
VERTEX
  5
174F
  8
L1
 10
367.36341325843051
 20
278.94932735880042
 30
0.0
  0
VERTEX
  5
1750
  8
L1
 10
367.2800424968782
 20
278.71590031948591
 30
0.0
  0
VERTEX
  5
1751
  8
L1
 10
367.23720251840922
 20
278.48598130743778
 30
0.0
  0
VERTEX
  5
1752
  8
L1
 10
367.2239558820782
 20
278.25121703803609
 30
0.0
  0
SEQEND
  5
1753
  8
L1
  0
ARC
  5
1C1
  8
L1
 10
382.94551034016422
 20
277.88887763597461
 30
0.0
 40
2.0
 50
90.0
 51
180.0
  0
ARC
  5
1C2
  8
L1
 10
379.0081821740996
 20
281.79673810669482
 30
0.0
 40
2.157550723643304
 50
261.62678822855662
 51
0.8158138379951013
  0
POLYLINE
  5
1C3
  8
L1
 66
     1
 10
0.0
 20
0.0
 30
0.0
  0
VERTEX
  5
1754
  8
L1
 10
378.01774746468129
 20
290.40622497559212
 30
0.0
  0
VERTEX
  5
1755
  8
L1
 10
378.01474905193783
 20
290.19317707515557
 30
0.0
  0
VERTEX
  5
1756
  8
L1
 10
378.0057867970558
 20
289.98031211837719
 30
0.0
  0
VERTEX
  5
1757
  8
L1
 10
377.99086772649702
 20
289.76779699266967
 30
0.0
  0
VERTEX
  5
1758
  8
L1
 10
377.97000353690299
 20
289.55579831117632
 30
0.0
  0
VERTEX
  5
1759
  8
L1
 10
377.94321058592459
 20
289.34448228214472
 30
0.0
  0
VERTEX
  5
175A
  8
L1
 10
377.91050987939718
 20
289.13401457861897
 30
0.0
  0
VERTEX
  5
175B
  8
L1
 10
377.87192705487229
 20
288.92456020855087
 30
0.0
  0
VERTEX
  5
175C
  8
L1
 10
377.82749236151773
 20
288.7162833854328
 30
0.0
  0
VERTEX
  5
175D
  8
L1
 10
377.7772406364017
 20
288.50934739955261
 30
0.0
  0
VERTEX
  5
175E
  8
L1
 10
377.72121127718032
 20
288.30391448997449
 30
0.0
  0
VERTEX
  5
175F
  8
L1
 10
377.65944821120991
 20
288.10014571734109
 30
0.0
  0
VERTEX
  5
1760
  8
L1
 10
377.59199986110758
 20
287.89820083760202
 30
0.0
  0
VERTEX
  5
1761
  8
L1
 10
377.51891910678751
 20
287.69823817676348
 30
0.0
  0
VERTEX
  5
1762
  8
L1
 10
377.44026324400289
 20
287.50041450676048
 30
0.0
  0
VERTEX
  5
1763
  8
L1
 10
377.35609393942542
 20
287.30488492254591
 30
0.0
  0
VERTEX
  5
1764
  8
L1
 10
377.26647718229867
 20
287.11180272049569
 30
0.0
  0
VERTEX
  5
1765
  8
L1
 10
377.17148323270209
 20
286.92131927822362
 30
0.0
  0
VERTEX
  5
1766
  8
L1
 10
377.07118656646628
 20
286.7335839358995
 30
0.0
  0
VERTEX
  5
1767
  8
L1
 10
376.96566581678388
 20
286.54874387916658
 30
0.0
  0
VERTEX
  5
1768
  8
L1
 10
376.8550037125604
 20
286.36694402374661
 30
0.0
  0
VERTEX
  5
1769
  8
L1
 10
376.73928701355447
 20
286.18832690182529
 30
0.0
  0
VERTEX
  5
176A
  8
L1
 10
376.61860644235759
 20
286.01303255030581
 30
0.0
  0
VERTEX
  5
176B
  8
L1
 10
376.49305661326702
 20
285.84119840101931
 30
0.0
  0
VERTEX
  5
176C
  8
L1
 10
376.36273595810769
 20
285.67295917297753
 30
0.0
  0
VERTEX
  5
176D
  8
L1
 10
376.22774664906109
 20
285.50844676675229
 30
0.0
  0
VERTEX
  5
176E
  8
L1
 10
376.08819451856118
 20
285.34779016106421
 30
0.0
  0
VERTEX
  5
176F
  8
L1
 10
375.94418897632221
 20
285.19111531166351
 30
0.0
  0
VERTEX
  5
1770
  8
L1
 10
375.79584292355941
 20
285.0385450525792
 30
0.0
  0
VERTEX
  5
1771
  8
L1
 10
375.64327266447498
 20
284.89019899981639
 30
0.0
  0
VERTEX
  5
1772
  8
L1
 10
375.48659781507439
 20
284.74619345757742
 30
0.0
  0
VERTEX
  5
1773
  8
L1
 10
375.32594120938631
 20
284.60664132707751
 30
0.0
  0
VERTEX
  5
1774
  8
L1
 10
375.16142880316107
 20
284.47165201803091
 30
0.0
  0
VERTEX
  5
1775
  8
L1
 10
374.99318957511929
 20
284.34133136287159
 30
0.0
  0
VERTEX
  5
1776
  8
L1
 10
374.82135542583268
 20
284.21578153378101
 30
0.0
  0
VERTEX
  5
1777
  8
L1
 10
374.64606107431331
 20
284.09510096258413
 30
0.0
  0
VERTEX
  5
1778
  8
L1
 10
374.46744395239187
 20
283.9793842635782
 30
0.0
  0
VERTEX
  5
1779
  8
L1
 10
374.28564409697202
 20
283.86872215935472
 30
0.0
  0
VERTEX
  5
177A
  8
L1
 10
374.1008040402391
 20
283.76320140967232
 30
0.0
  0
VERTEX
  5
177B
  8
L1
 10
373.91306869791498
 20
283.66290474343651
 30
0.0
  0
VERTEX
  5
177C
  8
L1
 10
373.7225852556428
 20
283.56791079383993
 30
0.0
  0
VERTEX
  5
177D
  8
L1
 10
373.52950305359258
 20
283.47829403671318
 30
0.0
  0
VERTEX
  5
177E
  8
L1
 10
373.33397346937812
 20
283.39412473213571
 30
0.0
  0
VERTEX
  5
177F
  8
L1
 10
373.13614979937512
 20
283.31546886935109
 30
0.0
  0
VERTEX
  5
1780
  8
L1
 10
372.93618713853658
 20
283.24238811503102
 30
0.0
  0
VERTEX
  5
1781
  8
L1
 10
372.73424225879739
 20
283.17493976492869
 30
0.0
  0
VERTEX
  5
1782
  8
L1
 10
372.53047348616411
 20
283.11317669895828
 30
0.0
  0
VERTEX
  5
1783
  8
L1
 10
372.32504057658599
 20
283.0571473397369
 30
0.0
  0
VERTEX
  5
1784
  8
L1
 10
372.11810459070591
 20
283.00689561462087
 30
0.0
  0
VERTEX
  5
1785
  8
L1
 10
371.90982776758767
 20
282.96246092126631
 30
0.0
  0
VERTEX
  5
1786
  8
L1
 10
371.70037339751968
 20
282.92387809674148
 30
0.0
  0
VERTEX
  5
1787
  8
L1
 10
371.48990569399388
 20
282.89117739021412
 30
0.0
  0
VERTEX
  5
1788
  8
L1
 10
371.27858966496228
 20
282.86438443923549
 30
0.0
  0
VERTEX
  5
1789
  8
L1
 10
371.06659098346893
 20
282.84352024964159
 30
0.0
  0
VERTEX
  5
178A
  8
L1
 10
370.85407585776142
 20
282.8286011790828
 30
0.0
  0
VERTEX
  5
178B
  8
L1
 10
370.64121090098303
 20
282.81963892420072
 30
0.0
  0
VERTEX
  5
178C
  8
L1
 10
370.42816300054648
 20
282.81664051145742
 30
0.0
  0
SEQEND
  5
178D
  8
L1
  0
ARC
  5
1C4
  8
L1
 10
370.20781447107328
 20
290.62657350506538
 30
0.0
 40
4.9551339946734032
 50
267.46873820670743
 51
2.531261793291907
  0
POLYLINE
  5
1C5
  8
L1
 66
     1
 10
0.0
 20
0.0
 30
0.0
  0
VERTEX
  5
178E
  8
L1
 10
380.01500653419038
 20
296.92259358252852
 30
0.0
  0
VERTEX
  5
178F
  8
L1
 10
379.80600305851152
 20
296.91171462086419
 30
0.0
  0
VERTEX
  5
1790
  8
L1
 10
379.59934737860021
 20
296.8790823447614
 30
0.0
  0
VERTEX
  5
1791
  8
L1
 10
379.39729577519182
 20
296.82505303562448
 30
0.0
  0
VERTEX
  5
1792
  8
L1
 10
379.2020542614024
 20
296.75021658911709
 30
0.0
  0
VERTEX
  5
1793
  8
L1
 10
379.01575449732729
 20
296.6553900746398
 30
0.0
  0
VERTEX
  5
1794
  8
L1
 10
378.84043051643181
 20
296.54160881451219
 30
0.0
  0
VERTEX
  5
1795
  8
L1
 10
378.6779965178356
 20
296.41011508025258
 30
0.0
  0
VERTEX
  5
1796
  8
L1
 10
378.53022596695712
 20
296.26234452937422
 30
0.0
  0
VERTEX
  5
1797
  8
L1
 10
378.39873223269751
 20
296.09991053077789
 30
0.0
  0
VERTEX
  5
1798
  8
L1
 10
378.2849509725699
 20
295.92458654988241
 30
0.0
  0
VERTEX
  5
1799
  8
L1
 10
378.19012445809261
 20
295.73828678580719
 30
0.0
  0
VERTEX
  5
179A
  8
L1
 10
378.11528801158522
 20
295.54304527201788
 30
0.0
  0
VERTEX
  5
179B
  8
L1
 10
378.06125870244841
 20
295.3409936686096
 30
0.0
  0
VERTEX
  5
179C
  8
L1
 10
378.02862642634551
 20
295.13433798869818
 30
0.0
  0
VERTEX
  5
179D
  8
L1
 10
378.01774746468129
 20
294.92533451301932
 30
0.0
  0
SEQEND
  5
179E
  8
L1
  0
POLYLINE
  5
1C6
  8
L1
 66
     1
 10
0.0
 20
0.0
 30
0.0
  0
VERTEX
  5
179F
  8
L1
 10
379.22678719414432
 20
293.71629478355629
 30
0.0
  0
VERTEX
  5
17A0
  8
L1
 10
379.22682705679853
 20
293.72858490294982
 30
0.0
  0
VERTEX
  5
17A1
  8
L1
 10
379.2274504202083
 20
293.76654626423988
 30
0.0
  0
VERTEX
  5
17A2
  8
L1
 10
379.22894054268778
 20
293.80681808831201
 30
0.0
  0
VERTEX
  5
17A3
  8
L1
 10
379.23814998727022
 20
293.9237601573509
 30
0.0
  0
VERTEX
  5
17A4
  8
L1
 10
379.26323945841381
 20
294.0860223812395
 30
0.0
  0
SEQEND
  5
17A5
  8
L1
  0
POLYLINE
  5
1C7
  8
L1
 66
     1
 10
0.0
 20
0.0
 30
0.0
  0
VERTEX
  5
17A6
  8
L1
 10
380.46642425241879
 20
295.57357809443789
 30
0.0
  0
VERTEX
  5
17A7
  8
L1
 10
380.57811417040222
 20
295.46996210377819
 30
0.0
  0
VERTEX
  5
17A8
  8
L1
 10
380.58515571132409
 20
295.46342969592502
 30
0.0
  0
VERTEX
  5
17A9
  8
L1
 10
380.77287495220628
 20
295.28928832719498
 30
0.0
  0
VERTEX
  5
17AA
  8
L1
 10
380.9683054309084
 20
295.10800412747682
 30
0.0
  0
VERTEX
  5
17AB
  8
L1
 10
381.1627041231622
 20
294.92768818863408
 30
0.0
  0
VERTEX
  5
17AC
  8
L1
 10
381.35436873967382
 20
294.74991880067222
 30
0.0
  0
VERTEX
  5
17AD
  8
L1
 10
381.54159642802978
 20
294.57627399118439
 30
0.0
  0
VERTEX
  5
17AE
  8
L1
 10
381.72268415872469
 20
294.40833173713622
 30
0.0
  0
VERTEX
  5
17AF
  8
L1
 10
381.8959287941172
 20
294.24766999592748
 30
0.0
  0
VERTEX
  5
17B0
  8
L1
 10
382.05962714226638
 20
294.09586672734389
 30
0.0
  0
VERTEX
  5
17B1
  8
L1
 10
382.52551851564817
 20
293.66385433586061
 30
0.0
  0
VERTEX
  5
17B2
  8
L1
 10
382.5263258761666
 20
293.66310571356979
 30
0.0
  0
VERTEX
  5
17B3
  8
L1
 10
382.58313236422867
 20
293.61043209406029
 30
0.0
  0
SEQEND
  5
17B4
  8
L1
  0
POLYLINE
  5
1C8
  8
L1
 66
     1
 10
0.0
 20
0.0
 30
0.0
  0
VERTEX
  5
17B5
  8
L1
 10
381.2099733122933
 20
295.72762680442548
 30
0.0
  0
VERTEX
  5
17B6
  8
L1
 10
380.82914059061642
 20
295.68875617312472
 30
0.0
  0
VERTEX
  5
17B7
  8
L1
 10
380.46642425241879
 20
295.57357809443789
 30
0.0
  0
SEQEND
  5
17B8
  8
L1
  0
POLYLINE
  5
1C9
  8
L1
 66
     1
 10
0.0
 20
0.0
 30
0.0
  0
VERTEX
  5
17B9
  8
L1
 10
382.58313236422867
 20
293.61043209406029
 30
0.0
  0
VERTEX
  5
17BA
  8
L1
 10
382.39309977716721
 20
293.60186138909921
 30
0.0
  0
VERTEX
  5
17BB
  8
L1
 10
382.14346849910999
 20
293.56068661468572
 30
0.0
  0
VERTEX
  5
17BC
  8
L1
 10
381.90441312413299
 20
293.47979647558242
 30
0.0
  0
VERTEX
  5
17BD
  8
L1
 10
381.70544437725221
 20
293.36813317907342
 30
0.0
  0
VERTEX
  5
17BE
  8
L1
 10
381.53280358513189
 20
293.21949565555758
 30
0.0
  0
VERTEX
  5
17BF
  8
L1
 10
381.39439050779299
 20
293.03774684492788
 30
0.0
  0
VERTEX
  5
17C0
  8
L1
 10
381.29494994054852
 20
292.83169999564808
 30
0.0
  0
VERTEX
  5
17C1
  8
L1
 10
381.22546925267051
 20
292.56399987780611
 30
0.0
  0
VERTEX
  5
17C2
  8
L1
 10
381.20428264102338
 20
292.28706057364582
 30
0.0
  0
SEQEND
  5
17C3
  8
L1
  0
POLYLINE
  5
1CA
  8
L1
 66
     1
 10
0.0
 20
0.0
 30
0.0
  0
VERTEX
  5
17C4
  8
L1
 10
381.20428264102338
 20
292.28706057364582
 30
0.0
  0
VERTEX
  5
17C5
  8
L1
 10
380.73828226324582
 20
292.71897701442049
 30
0.0
  0
VERTEX
  5
17C6
  8
L1
 10
380.57453667453149
 20
292.87073802741082
 30
0.0
  0
VERTEX
  5
17C7
  8
L1
 10
380.40123679499789
 20
293.031350000185
 30
0.0
  0
VERTEX
  5
17C8
  8
L1
 10
380.22008542451448
 20
293.1992345389047
 30
0.0
  0
VERTEX
  5
17C9
  8
L1
 10
380.03278546880023
 20
293.37281340010333
 30
0.0
  0
VERTEX
  5
17CA
  8
L1
 10
379.84103991985779
 20
293.55050850347152
 30
0.0
  0
VERTEX
  5
17CB
  8
L1
 10
379.64655284349061
 20
293.73074308273101
 30
0.0
  0
VERTEX
  5
17CC
  8
L1
 10
379.45103571827559
 20
293.9119488707143
 30
0.0
  0
VERTEX
  5
17CD
  8
L1
 10
379.26323945841381
 20
294.0860223812395
 30
0.0
  0
SEQEND
  5
17CE
  8
L1
  0
POLYLINE
  5
1CB
  8
L1
 66
     1
 10
0.0
 20
0.0
 30
0.0
  0
VERTEX
  5
17CF
  8
L1
 10
379.26323945841381
 20
294.0860223812395
 30
0.0
  0
VERTEX
  5
17D0
  8
L1
 10
379.34874867645198
 20
294.38903404980817
 30
0.0
  0
VERTEX
  5
17D1
  8
L1
 10
379.4810428163866
 20
294.67756583993878
 30
0.0
  0
VERTEX
  5
17D2
  8
L1
 10
379.67677244480728
 20
294.96889293399681
 30
0.0
  0
VERTEX
  5
17D3
  8
L1
 10
379.91695355972848
 20
295.22170832264402
 30
0.0
  0
VERTEX
  5
17D4
  8
L1
 10
380.18154842285031
 20
295.42181261666798
 30
0.0
  0
VERTEX
  5
17D5
  8
L1
 10
380.46642425241879
 20
295.57357809443789
 30
0.0
  0
SEQEND
  5
17D6
  8
L1
  0
LINE
  5
1E3
  8
L6
 10
451.95781447107339
 20
306.32383747406652
 30
0.0
 11
451.95781447107339
 21
114.5033103121436
 31
0.0
  0
LINE
  5
1E6
  8
L1
 10
541.97011860198256
 20
122.35947274579711
 30
0.0
 11
541.97011860198256
 21
295.39367426433353
 31
0.0
  0
LINE
  5
1E7
  8
L1
 10
540.00383454853659
 20
280.81938144194822
 30
0.0
 11
540.00383454853659
 21
136.93376556818239
 31
0.0
  0
LINE
  5
1E8
  8
L1
 10
538.80886777043384
 20
138.12873234628529
 30
0.0
 11
538.80886777043384
 21
279.6244146638453
 31
0.0
  0
LINE
  5
1E9
  8
L1
 10
522.97011860198256
 20
277.88887763597461
 30
0.0
 11
522.97011860198256
 21
139.86426937415609
 31
0.0
  0
LINE
  5
1EA
  8
L1
 10
536.69167306006864
 20
278.25121703803609
 30
0.0
 11
536.69167306006864
 21
139.501891398205
 31
0.0
  0
LINE
  5
1EB
  8
L1
 10
540.42397462880172
 20
294.04725619810341
 30
0.0
 11
540.42397462880172
 21
123.70589081202731
 31
0.0
  0
POLYLINE
  5
203
  8
L1
 66
     1
 10
0.0
 20
0.0
 30
0.0
  0
VERTEX
  5
17D7
  8
L1
 10
532.27859685602425
 20
136.14537558424939
 30
0.0
  0
VERTEX
  5
17D8
  8
L1
 10
532.23371945753183
 20
136.14524184627919
 30
0.0
  0
VERTEX
  5
17D9
  8
L1
 10
532.03967194007578
 20
136.14149596570471
 30
0.0
  0
VERTEX
  5
17DA
  8
L1
 10
531.58186840489179
 20
136.1122658015702
 30
0.0
  0
VERTEX
  5
17DB
  8
L1
 10
531.33499293588943
 20
136.0847709152377
 30
0.0
  0
VERTEX
  5
17DC
  8
L1
 10
531.03853137932924
 20
136.04073778688971
 30
0.0
  0
VERTEX
  5
17DD
  8
L1
 10
530.69752765897215
 20
135.974964947525
 30
0.0
  0
VERTEX
  5
17DE
  8
L1
 10
530.31702569857862
 20
135.88225092814289
 30
0.0
  0
VERTEX
  5
17DF
  8
L1
 10
529.87178382234265
 20
135.74693875223019
 30
0.0
  0
VERTEX
  5
17E0
  8
L1
 10
529.43600610174656
 20
135.58479151294199
 30
0.0
  0
VERTEX
  5
17E1
  8
L1
 10
529.01092483883394
 20
135.39631627015319
 30
0.0
  0
VERTEX
  5
17E2
  8
L1
 10
528.59777233564705
 20
135.18202008373851
 30
0.0
  0
VERTEX
  5
17E3
  8
L1
 10
528.00925695667365
 20
134.81762789432901
 30
0.0
  0
VERTEX
  5
17E4
  8
L1
 10
527.45612576420706
 20
134.40140904314441
 30
0.0
  0
VERTEX
  5
17E5
  8
L1
 10
526.89828068774864
 20
133.89205087060719
 30
0.0
  0
VERTEX
  5
17E6
  8
L1
 10
526.39356697763685
 20
133.3299585748801
 30
0.0
  0
VERTEX
  5
17E7
  8
L1
 10
525.99999035877374
 20
132.80004846313611
 30
0.0
  0
VERTEX
  5
17E8
  8
L1
 10
525.65359113706768
 20
132.2380748708413
 30
0.0
  0
VERTEX
  5
17E9
  8
L1
 10
525.35243762860409
 20
131.63809012037939
 30
0.0
  0
VERTEX
  5
17EA
  8
L1
 10
525.10531089783285
 20
131.01395802266279
 30
0.0
  0
VERTEX
  5
17EB
  8
L1
 10
524.90840303586674
 20
130.34720643907821
 30
0.0
  0
VERTEX
  5
17EC
  8
L1
 10
524.77308153444437
 20
129.66502538039791
 30
0.0
  0
VERTEX
  5
17ED
  8
L1
 10
524.72402007692187
 20
129.27144265991689
 30
0.0
  0
VERTEX
  5
17EE
  8
L1
 10
524.69585882101103
 20
128.87271991952321
 30
0.0
  0
VERTEX
  5
17EF
  8
L1
 10
524.69039644990153
 20
128.69919532306741
 30
0.0
  0
VERTEX
  5
17F0
  8
L1
 10
524.6889918905772
 20
128.55581162142701
 30
0.0
  0
SEQEND
  5
17F1
  8
L1
  0
POLYLINE
  5
204
  8
L1
 66
     1
 10
0.0
 20
0.0
 30
0.0
  0
VERTEX
  5
17F2
  8
L1
 10
525.8978814774656
 20
127.34692203453859
 30
0.0
  0
VERTEX
  5
17F3
  8
L1
 10
525.9008798902089
 20
127.5599699349751
 30
0.0
  0
VERTEX
  5
17F4
  8
L1
 10
525.90984214509103
 20
127.7728348917535
 30
0.0
  0
VERTEX
  5
17F5
  8
L1
 10
525.92476121564982
 20
127.985350017461
 30
0.0
  0
VERTEX
  5
17F6
  8
L1
 10
525.94562540524385
 20
128.19734869895441
 30
0.0
  0
VERTEX
  5
17F7
  8
L1
 10
525.97241835622231
 20
128.40866472798601
 30
0.0
  0
VERTEX
  5
17F8
  8
L1
 10
526.00511906274971
 20
128.6191324315117
 30
0.0
  0
VERTEX
  5
17F9
  8
L1
 10
526.04370188727455
 20
128.8285868015798
 30
0.0
  0
VERTEX
  5
17FA
  8
L1
 10
526.08813658062911
 20
129.0368636246979
 30
0.0
  0
VERTEX
  5
17FB
  8
L1
 10
526.13838830574514
 20
129.24379961057801
 30
0.0
  0
VERTEX
  5
17FC
  8
L1
 10
526.19441766496652
 20
129.4492325201561
 30
0.0
  0
VERTEX
  5
17FD
  8
L1
 10
526.25618073093676
 20
129.6530012927895
 30
0.0
  0
VERTEX
  5
17FE
  8
L1
 10
526.32362908103914
 20
129.85494617252871
 30
0.0
  0
VERTEX
  5
17FF
  8
L1
 10
526.39670983535927
 20
130.05490883336711
 30
0.0
  0
VERTEX
  5
1800
  8
L1
 10
526.47536569814395
 20
130.25273250337011
 30
0.0
  0
VERTEX
  5
1801
  8
L1
 10
526.55953500272153
 20
130.44826208758471
 30
0.0
  0
VERTEX
  5
1802
  8
L1
 10
526.649151759848
 20
130.6413442896349
 30
0.0
  0
VERTEX
  5
1803
  8
L1
 10
526.74414570944475
 20
130.83182773190711
 30
0.0
  0
VERTEX
  5
1804
  8
L1
 10
526.8444423756805
 20
131.0195630742312
 30
0.0
  0
VERTEX
  5
1805
  8
L1
 10
526.94996312536296
 20
131.2044031309641
 30
0.0
  0
VERTEX
  5
1806
  8
L1
 10
527.06062522958655
 20
131.38620298638401
 30
0.0
  0
VERTEX
  5
1807
  8
L1
 10
527.17634192859236
 20
131.5648201083053
 30
0.0
  0
VERTEX
  5
1808
  8
L1
 10
527.29702249978936
 20
131.74011445982481
 30
0.0
  0
VERTEX
  5
1809
  8
L1
 10
527.42257232887982
 20
131.91194860911139
 30
0.0
  0
VERTEX
  5
180A
  8
L1
 10
527.55289298403898
 20
132.08018783715309
 30
0.0
  0
VERTEX
  5
180B
  8
L1
 10
527.68788229308575
 20
132.24470024337839
 30
0.0
  0
VERTEX
  5
180C
  8
L1
 10
527.8274344235856
 20
132.40535684906641
 30
0.0
  0
VERTEX
  5
180D
  8
L1
 10
527.97143996582463
 20
132.56203169846711
 30
0.0
  0
VERTEX
  5
180E
  8
L1
 10
528.11978601858743
 20
132.71460195755151
 30
0.0
  0
VERTEX
  5
180F
  8
L1
 10
528.27235627767175
 20
132.8629480103142
 30
0.0
  0
VERTEX
  5
1810
  8
L1
 10
528.42903112707245
 20
133.00695355255331
 30
0.0
  0
VERTEX
  5
1811
  8
L1
 10
528.58968773276035
 20
133.14650568305311
 30
0.0
  0
VERTEX
  5
1812
  8
L1
 10
528.75420013898588
 20
133.28149499209979
 30
0.0
  0
VERTEX
  5
1813
  8
L1
 10
528.92243936702755
 20
133.41181564725909
 30
0.0
  0
VERTEX
  5
1814
  8
L1
 10
529.09427351631405
 20
133.53736547634961
 30
0.0
  0
VERTEX
  5
1815
  8
L1
 10
529.26956786783353
 20
133.65804604754649
 30
0.0
  0
VERTEX
  5
1816
  8
L1
 10
529.44818498975485
 20
133.77376274655239
 30
0.0
  0
VERTEX
  5
1817
  8
L1
 10
529.62998484517482
 20
133.88442485077601
 30
0.0
  0
VERTEX
  5
1818
  8
L1
 10
529.81482490190774
 20
133.98994560045841
 30
0.0
  0
VERTEX
  5
1819
  8
L1
 10
530.00256024423174
 20
134.09024226669419
 30
0.0
  0
VERTEX
  5
181A
  8
L1
 10
530.1930436865041
 20
134.1852362162908
 30
0.0
  0
VERTEX
  5
181B
  8
L1
 10
530.38612588855415
 20
134.2748529734175
 30
0.0
  0
VERTEX
  5
181C
  8
L1
 10
530.5816554727686
 20
134.35902227799491
 30
0.0
  0
VERTEX
  5
181D
  8
L1
 10
530.77947914277183
 20
134.43767814077961
 30
0.0
  0
VERTEX
  5
181E
  8
L1
 10
530.97944180361014
 20
134.51075889509971
 30
0.0
  0
VERTEX
  5
181F
  8
L1
 10
531.1813866833495
 20
134.57820724520201
 30
0.0
  0
VERTEX
  5
1820
  8
L1
 10
531.38515545598284
 20
134.63997031117231
 30
0.0
  0
VERTEX
  5
1821
  8
L1
 10
531.59058836556085
 20
134.69599967039369
 30
0.0
  0
VERTEX
  5
1822
  8
L1
 10
531.79752435144098
 20
134.7462513955098
 30
0.0
  0
VERTEX
  5
1823
  8
L1
 10
532.00580117455911
 20
134.79068608886431
 30
0.0
  0
VERTEX
  5
1824
  8
L1
 10
532.21525554462721
 20
134.8292689133892
 30
0.0
  0
VERTEX
  5
1825
  8
L1
 10
532.42572324815285
 20
134.86196961991661
 30
0.0
  0
VERTEX
  5
1826
  8
L1
 10
532.6370392771845
 20
134.8887625708951
 30
0.0
  0
VERTEX
  5
1827
  8
L1
 10
532.84903795867797
 20
134.90962676048909
 30
0.0
  0
VERTEX
  5
1828
  8
L1
 10
533.06155308438542
 20
134.92454583104791
 30
0.0
  0
VERTEX
  5
1829
  8
L1
 10
533.27441804116393
 20
134.93350808592999
 30
0.0
  0
VERTEX
  5
182A
  8
L1
 10
533.48746594160025
 20
134.93650649867331
 30
0.0
  0
SEQEND
  5
182B
  8
L1
  0
LINE
  5
205
  8
L1
 10
522.75011475033045
 20
135.92568935870429
 30
0.0
 11
522.7113463011234
 21
125.4660864364849
 31
0.0
  0
POLYLINE
  5
206
  8
L1
 66
     1
 10
0.0
 20
0.0
 30
0.0
  0
VERTEX
  5
182C
  8
L1
 10
537.12849716411154
 20
120.4104133473372
 30
0.0
  0
VERTEX
  5
182D
  8
L1
 10
537.2764862997509
 20
120.4137291955867
 30
0.0
  0
VERTEX
  5
182E
  8
L1
 10
537.42416027869592
 20
120.423670085922
 30
0.0
  0
VERTEX
  5
182F
  8
L1
 10
537.57122274128767
 20
120.4402160684584
 30
0.0
  0
VERTEX
  5
1830
  8
L1
 10
537.71737855509059
 20
120.4633339378758
 30
0.0
  0
VERTEX
  5
1831
  8
L1
 10
537.86233440717649
 20
120.49297730005701
 30
0.0
  0
VERTEX
  5
1832
  8
L1
 10
538.00579939276304
 20
120.5290866651939
 30
0.0
  0
VERTEX
  5
1833
  8
L1
 10
538.14748559901352
 20
120.5715895671743
 30
0.0
  0
VERTEX
  5
1834
  8
L1
 10
538.28710868283679
 20
120.6204007090108
 30
0.0
  0
VERTEX
  5
1835
  8
L1
 10
538.42438844152025
 20
120.6754221340191
 30
0.0
  0
VERTEX
  5
1836
  8
L1
 10
538.55904937505636
 20
120.7365434224029
 30
0.0
  0
VERTEX
  5
1837
  8
L1
 10
538.69082123902831
 20
120.803641912849
 30
0.0
  0
VERTEX
  5
1838
  8
L1
 10
538.81943958695172
 20
120.8765829486909
 30
0.0
  0
VERTEX
  5
1839
  8
L1
 10
538.94464630097821
 20
120.9552201481451
 30
0.0
  0
VERTEX
  5
183A
  8
L1
 10
539.06619010990073
 20
121.0393956980765
 30
0.0
  0
VERTEX
  5
183B
  8
L1
 10
539.18382709341608
 20
121.1289406707065
 30
0.0
  0
VERTEX
  5
183C
  8
L1
 10
539.29732117163712
 20
121.2236753626256
 30
0.0
  0
VERTEX
  5
183D
  8
L1
 10
539.40644457887038
 20
121.3234096554314
 30
0.0
  0
VERTEX
  5
183E
  8
L1
 10
539.51097832070741
 20
121.42794339726829
 30
0.0
  0
VERTEX
  5
183F
  8
L1
 10
539.61071261351321
 20
121.53706680450171
 30
0.0
  0
VERTEX
  5
1840
  8
L1
 10
539.70544730543224
 20
121.6505608827228
 30
0.0
  0
VERTEX
  5
1841
  8
L1
 10
539.7949922780623
 20
121.768197866238
 30
0.0
  0
VERTEX
  5
1842
  8
L1
 10
539.87916782799368
 20
121.88974167516049
 30
0.0
  0
VERTEX
  5
1843
  8
L1
 10
539.95780502744776
 20
122.0149483891871
 30
0.0
  0
VERTEX
  5
1844
  8
L1
 10
540.03074606328983
 20
122.1435667371105
 30
0.0
  0
VERTEX
  5
1845
  8
L1
 10
540.09784455373597
 20
122.2753386010824
 30
0.0
  0
VERTEX
  5
1846
  8
L1
 10
540.15896584211964
 20
122.40999953461839
 30
0.0
  0
VERTEX
  5
1847
  8
L1
 10
540.213987267128
 20
122.5472792933021
 30
0.0
  0
VERTEX
  5
1848
  8
L1
 10
540.2627984089645
 20
122.68690237712531
 30
0.0
  0
VERTEX
  5
1849
  8
L1
 10
540.30530131094486
 20
122.8285885833757
 30
0.0
  0
VERTEX
  5
184A
  8
L1
 10
540.34141067608175
 20
122.9720535689622
 30
0.0
  0
VERTEX
  5
184B
  8
L1
 10
540.37105403826308
 20
123.11700942104829
 30
0.0
  0
VERTEX
  5
184C
  8
L1
 10
540.39417190768029
 20
123.263165234851
 30
0.0
  0
VERTEX
  5
184D
  8
L1
 10
540.4107178902168
 20
123.41022769744281
 30
0.0
  0
VERTEX
  5
184E
  8
L1
 10
540.420658780552
 20
123.5579016763878
 30
0.0
  0
VERTEX
  5
184F
  8
L1
 10
540.42397462880149
 20
123.70589081202721
 30
0.0
  0
SEQEND
  5
1850
  8
L1
  0
LINE
  5
207
  8
L1
 10
538.65811360876023
 20
127.3454144349367
 30
0.0
 11
533.92665540094492
 21
132.07687264275199
 31
0.0
  0
CIRCLE
  5
208
  8
L1
 10
533.70781447107345
 20
127.12657350506539
 30
0.0
 40
5.7974047862592784
  0
ARC
  5
209
  8
L1
 10
533.70781447107345
 20
127.12657350506539
 30
0.0
 40
4.9551339946734032
 50
267.46873820670868
 51
2.5312617932925421
  0
CIRCLE
  5
20A
  8
L1
 10
533.70781447107345
 20
127.12657350506539
 30
0.0
 40
6.097393363178492
  0
POLYLINE
  5
20B
  8
L1
 66
     1
 10
0.0
 20
0.0
 30
0.0
  0
VERTEX
  5
1851
  8
L1
 10
523.44920468972805
 20
122.1795689156928
 30
0.0
  0
VERTEX
  5
1852
  8
L1
 10
523.33751477174451
 20
122.2831849063525
 30
0.0
  0
VERTEX
  5
1853
  8
L1
 10
523.33047323082269
 20
122.2897173142057
 30
0.0
  0
VERTEX
  5
1854
  8
L1
 10
523.1427539899405
 20
122.46385868293559
 30
0.0
  0
VERTEX
  5
1855
  8
L1
 10
522.94732351123844
 20
122.6451428826538
 30
0.0
  0
VERTEX
  5
1856
  8
L1
 10
522.75292481898464
 20
122.8254588214965
 30
0.0
  0
VERTEX
  5
1857
  8
L1
 10
522.56126020247302
 20
123.0032282094584
 30
0.0
  0
VERTEX
  5
1858
  8
L1
 10
522.37403251411706
 20
123.1768730189463
 30
0.0
  0
VERTEX
  5
1859
  8
L1
 10
522.19294478342215
 20
123.3448152729945
 30
0.0
  0
VERTEX
  5
185A
  8
L1
 10
522.01970014802964
 20
123.50547701420309
 30
0.0
  0
VERTEX
  5
185B
  8
L1
 10
521.85600179988035
 20
123.6572802827868
 30
0.0
  0
VERTEX
  5
185C
  8
L1
 10
521.39011042649872
 20
124.0892926742701
 30
0.0
  0
VERTEX
  5
185D
  8
L1
 10
521.38930306598024
 20
124.0900412965609
 30
0.0
  0
VERTEX
  5
185E
  8
L1
 10
521.33249657791816
 20
124.1427149160704
 30
0.0
  0
SEQEND
  5
185F
  8
L1
  0
POLYLINE
  5
20C
  8
L1
 66
     1
 10
0.0
 20
0.0
 30
0.0
  0
VERTEX
  5
1860
  8
L1
 10
524.65238948373303
 20
123.6671246288912
 30
0.0
  0
VERTEX
  5
1861
  8
L1
 10
524.56688026569486
 20
123.3641129603224
 30
0.0
  0
VERTEX
  5
1862
  8
L1
 10
524.43458612576023
 20
123.0755811701918
 30
0.0
  0
VERTEX
  5
1863
  8
L1
 10
524.23885649733961
 20
122.78425407613391
 30
0.0
  0
VERTEX
  5
1864
  8
L1
 10
523.99867538241836
 20
122.5314386874866
 30
0.0
  0
VERTEX
  5
1865
  8
L1
 10
523.73408051929664
 20
122.3313343934627
 30
0.0
  0
VERTEX
  5
1866
  8
L1
 10
523.44920468972805
 20
122.1795689156928
 30
0.0
  0
SEQEND
  5
1867
  8
L1
  0
LINE
  5
20D
  8
L1
 10
528.75751533338666
 20
126.907732575194
 30
0.0
 11
533.48897354120231
 21
122.1762743673785
 31
0.0
  0
LINE
  5
20E
  8
L1
 10
525.8978814774656
 20
122.8278124971113
 30
0.0
 11
525.8978814774656
 21
127.34692203453849
 31
0.0
  0
POLYLINE
  5
20F
  8
L1
 66
     1
 10
0.0
 20
0.0
 30
0.0
  0
VERTEX
  5
1868
  8
L1
 10
523.90062240795635
 20
120.8305534276022
 30
0.0
  0
VERTEX
  5
1869
  8
L1
 10
524.1096258836352
 20
120.8414323892665
 30
0.0
  0
VERTEX
  5
186A
  8
L1
 10
524.31628156354657
 20
120.8740646653693
 30
0.0
  0
VERTEX
  5
186B
  8
L1
 10
524.51833316695502
 20
120.9280939745061
 30
0.0
  0
VERTEX
  5
186C
  8
L1
 10
524.71357468074427
 20
121.0029304210136
 30
0.0
  0
VERTEX
  5
186D
  8
L1
 10
524.89987444481937
 20
121.09775693549091
 30
0.0
  0
VERTEX
  5
186E
  8
L1
 10
525.07519842571514
 20
121.2115381956185
 30
0.0
  0
VERTEX
  5
186F
  8
L1
 10
525.2376324243113
 20
121.34303192987799
 30
0.0
  0
VERTEX
  5
1870
  8
L1
 10
525.38540297518978
 20
121.4908024807565
 30
0.0
  0
VERTEX
  5
1871
  8
L1
 10
525.51689670944927
 20
121.6532364793528
 30
0.0
  0
VERTEX
  5
1872
  8
L1
 10
525.63067796957694
 20
121.8285604602483
 30
0.0
  0
VERTEX
  5
1873
  8
L1
 10
525.72550448405423
 20
122.0148602243234
 30
0.0
  0
VERTEX
  5
1874
  8
L1
 10
525.80034093056156
 20
122.2101017381128
 30
0.0
  0
VERTEX
  5
1875
  8
L1
 10
525.85437023969837
 20
122.4121533415211
 30
0.0
  0
VERTEX
  5
1876
  8
L1
 10
525.88700251580133
 20
122.6188090214325
 30
0.0
  0
VERTEX
  5
1877
  8
L1
 10
525.8978814774656
 20
122.8278124971113
 30
0.0
  0
SEQEND
  5
1878
  8
L1
  0
POLYLINE
  5
210
  8
L1
 66
     1
 10
0.0
 20
0.0
 30
0.0
  0
VERTEX
  5
1879
  8
L1
 10
522.70565562985337
 20
122.02552020570521
 30
0.0
  0
VERTEX
  5
187A
  8
L1
 10
523.08648835153031
 20
122.064390837006
 30
0.0
  0
VERTEX
  5
187B
  8
L1
 10
523.44920468972805
 20
122.1795689156928
 30
0.0
  0
SEQEND
  5
187C
  8
L1
  0
ARC
  5
211
  8
L1
 10
533.70781447107345
 20
127.12657350506539
 30
0.0
 40
4.9551339946734032
 50
87.468738206707457
 51
182.53126179329189
  0
POLYLINE
  5
212
  8
L1
 66
     1
 10
0.0
 20
0.0
 30
0.0
  0
VERTEX
  5
187D
  8
L1
 10
524.68884174800246
 20
124.0368522265744
 30
0.0
  0
VERTEX
  5
187E
  8
L1
 10
524.68880188534831
 20
124.0245621071809
 30
0.0
  0
VERTEX
  5
187F
  8
L1
 10
524.68817852193865
 20
123.9866007458908
 30
0.0
  0
VERTEX
  5
1880
  8
L1
 10
524.68668839945917
 20
123.9463289218186
 30
0.0
  0
VERTEX
  5
1881
  8
L1
 10
524.67747895487673
 20
123.82938685277971
 30
0.0
  0
VERTEX
  5
1882
  8
L1
 10
524.65238948373303
 20
123.6671246288912
 30
0.0
  0
SEQEND
  5
1883
  8
L1
  0
POLYLINE
  5
213
  8
L1
 66
     1
 10
0.0
 20
0.0
 30
0.0
  0
VERTEX
  5
1884
  8
L1
 10
521.33249657791816
 20
124.1427149160704
 30
0.0
  0
VERTEX
  5
1885
  8
L1
 10
521.52252916497957
 20
124.15128562103151
 30
0.0
  0
VERTEX
  5
1886
  8
L1
 10
521.7721604430368
 20
124.1924603954449
 30
0.0
  0
VERTEX
  5
1887
  8
L1
 10
522.01121581801385
 20
124.2733505345482
 30
0.0
  0
VERTEX
  5
1888
  8
L1
 10
522.21018456489458
 20
124.38501383105729
 30
0.0
  0
VERTEX
  5
1889
  8
L1
 10
522.38282535701489
 20
124.5336513545731
 30
0.0
  0
VERTEX
  5
188A
  8
L1
 10
522.5212384343539
 20
124.71540016520279
 30
0.0
  0
VERTEX
  5
188B
  8
L1
 10
522.62067900159832
 20
124.9214470144826
 30
0.0
  0
VERTEX
  5
188C
  8
L1
 10
522.69015968947633
 20
125.18914713232451
 30
0.0
  0
VERTEX
  5
188D
  8
L1
 10
522.7113463011234
 20
125.4660864364849
 30
0.0
  0
SEQEND
  5
188E
  8
L1
  0
POLYLINE
  5
214
  8
L1
 66
     1
 10
0.0
 20
0.0
 30
0.0
  0
VERTEX
  5
188F
  8
L1
 10
522.7113463011234
 20
125.4660864364849
 30
0.0
  0
VERTEX
  5
1890
  8
L1
 10
523.17734667890113
 20
125.0341699957102
 30
0.0
  0
VERTEX
  5
1891
  8
L1
 10
523.34109226761529
 20
124.88240898271999
 30
0.0
  0
VERTEX
  5
1892
  8
L1
 10
523.51439214714901
 20
124.7217970099457
 30
0.0
  0
VERTEX
  5
1893
  8
L1
 10
523.69554351763225
 20
124.553912471226
 30
0.0
  0
VERTEX
  5
1894
  8
L1
 10
523.8828434733465
 20
124.38033361002729
 30
0.0
  0
VERTEX
  5
1895
  8
L1
 10
524.07458902228905
 20
124.2026385066592
 30
0.0
  0
VERTEX
  5
1896
  8
L1
 10
524.26907609865623
 20
124.02240392739969
 30
0.0
  0
VERTEX
  5
1897
  8
L1
 10
524.46459322387125
 20
123.84119813941641
 30
0.0
  0
VERTEX
  5
1898
  8
L1
 10
524.65238948373303
 20
123.6671246288912
 30
0.0
  0
SEQEND
  5
1899
  8
L1
  0
POLYLINE
  5
215
  8
L1
 66
     1
 10
0.0
 20
0.0
 30
0.0
  0
VERTEX
  5
189A
  8
L1
 10
524.6889918905772
 20
128.55581162142701
 30
0.0
  0
VERTEX
  5
189B
  8
L1
 10
524.68888207317957
 20
127.9224088432024
 30
0.0
  0
VERTEX
  5
189C
  8
L1
 10
524.68880724036705
 20
127.58935245357409
 30
0.0
  0
VERTEX
  5
189D
  8
L1
 10
524.6887681557597
 20
127.3240465632713
 30
0.0
  0
VERTEX
  5
189E
  8
L1
 10
524.68876669808969
 20
126.8724000579583
 30
0.0
  0
VERTEX
  5
189F
  8
L1
 10
524.68878905849124
 20
126.62391633160649
 30
0.0
  0
VERTEX
  5
18A0
  8
L1
 10
524.68881663402669
 20
126.3188968818968
 30
0.0
  0
VERTEX
  5
18A1
  8
L1
 10
524.68882999207335
 20
126.13547639963549
 30
0.0
  0
VERTEX
  5
18A2
  8
L1
 10
524.6888417914281
 20
125.9262701531582
 30
0.0
  0
VERTEX
  5
18A3
  8
L1
 10
524.68885107793244
 20
125.6873941980061
 30
0.0
  0
VERTEX
  5
18A4
  8
L1
 10
524.68885689742774
 20
125.4149645897201
 30
0.0
  0
VERTEX
  5
18A5
  8
L1
 10
524.68884174800246
 20
124.0368522265744
 30
0.0
  0
SEQEND
  5
18A6
  8
L1
  0
POLYLINE
  5
216
  8
L1
 66
     1
 10
0.0
 20
0.0
 30
0.0
  0
VERTEX
  5
18A7
  8
L1
 10
541.96990290884764
 20
122.31957350506531
 30
0.0
  0
VERTEX
  5
18A8
  8
L1
 10
541.95082854345935
 20
121.990942936433
 30
0.0
  0
VERTEX
  5
18A9
  8
L1
 10
541.89952886118783
 20
121.65778590262001
 30
0.0
  0
VERTEX
  5
18AA
  8
L1
 10
541.81483893141649
 20
121.32642156189149
 30
0.0
  0
VERTEX
  5
18AB
  8
L1
 10
541.69739947307585
 20
121.00280111882439
 30
0.0
  0
VERTEX
  5
18AC
  8
L1
 10
541.54857097007402
 20
120.692376802182
 30
0.0
  0
VERTEX
  5
18AD
  8
L1
 10
541.3712552212595
 20
120.3999542741694
 30
0.0
  0
VERTEX
  5
18AE
  8
L1
 10
541.16921508665382
 20
120.1301744868211
 30
0.0
  0
VERTEX
  5
18AF
  8
L1
 10
540.94774359014718
 20
119.8866443859917
 30
0.0
  0
VERTEX
  5
18B0
  8
L1
 10
540.70421348931779
 20
119.66517288948511
 30
0.0
  0
VERTEX
  5
18B1
  8
L1
 10
540.4344337019694
 20
119.4631327548793
 30
0.0
  0
VERTEX
  5
18B2
  8
L1
 10
540.14201117395692
 20
119.2858170060649
 30
0.0
  0
VERTEX
  5
18B3
  8
L1
 10
539.83158685731451
 20
119.1369885030629
 30
0.0
  0
VERTEX
  5
18B4
  8
L1
 10
539.50796641424745
 20
119.0195490447224
 30
0.0
  0
VERTEX
  5
18B5
  8
L1
 10
539.17660207351878
 20
118.934859114951
 30
0.0
  0
VERTEX
  5
18B6
  8
L1
 10
538.84344503970567
 20
118.88355943267931
 30
0.0
  0
VERTEX
  5
18B7
  8
L1
 10
538.51481447107335
 20
118.8644850672913
 30
0.0
  0
SEQEND
  5
18B8
  8
L1
  0
LINE
  5
217
  8
L1
 10
533.48746594160025
 20
134.93650649867331
 30
0.0
 11
538.00657547902745
 21
134.93650649867331
 31
0.0
  0
POLYLINE
  5
218
  8
L1
 66
     1
 10
0.0
 20
0.0
 30
0.0
  0
VERTEX
  5
18B9
  8
L1
 10
538.65488756002105
 20
137.38534048900891
 30
0.0
  0
VERTEX
  5
18BA
  8
L1
 10
538.54407188177822
 20
137.16738665341879
 30
0.0
  0
VERTEX
  5
18BB
  8
L1
 10
538.40465758974346
 20
136.9592108253876
 30
0.0
  0
VERTEX
  5
18BC
  8
L1
 10
538.17047589446463
 20
136.69986117450401
 30
0.0
  0
VERTEX
  5
18BD
  8
L1
 10
537.89300723210988
 20
136.48111088918441
 30
0.0
  0
VERTEX
  5
18BE
  8
L1
 10
537.56863663214699
 20
136.30658677950871
 30
0.0
  0
VERTEX
  5
18BF
  8
L1
 10
537.22058617060475
 20
136.19339535098939
 30
0.0
  0
VERTEX
  5
18C0
  8
L1
 10
537.16734699803067
 20
136.18200213547379
 30
0.0
  0
SEQEND
  5
18C1
  8
L1
  0
LINE
  5
219
  8
L1
 10
525.22163035184383
 20
138.09096126886749
 30
0.0
 11
535.59591647645436
 21
138.1371838307945
 31
0.0
  0
ARC
  5
21A
  8
L1
 10
520.97011860198268
 20
139.86426937415609
 30
0.0
 40
2.0
 50
270.0
 51
0.0
  0
ARC
  5
21B
  8
L1
 10
524.90744676804729
 20
135.9564089034358
 30
0.0
 40
2.157550723643304
 50
81.62678822855662
 51
180.81581383799511
  0
POLYLINE
  5
21C
  8
L1
 66
     1
 10
0.0
 20
0.0
 30
0.0
  0
VERTEX
  5
18C2
  8
L1
 10
537.16734699803067
 20
136.18200213547379
 30
0.0
  0
VERTEX
  5
18C3
  8
L1
 10
537.07920411109239
 20
136.16656442687801
 30
0.0
  0
VERTEX
  5
18C4
  8
L1
 10
536.95988068444569
 20
136.152477359269
 30
0.0
  0
VERTEX
  5
18C5
  8
L1
 10
536.88771868346441
 20
136.14767174854859
 30
0.0
  0
VERTEX
  5
18C6
  8
L1
 10
536.84357028950512
 20
136.14609150697629
 30
0.0
  0
VERTEX
  5
18C7
  8
L1
 10
536.80906842876777
 20
136.14557027405141
 30
0.0
  0
VERTEX
  5
18C8
  8
L1
 10
536.79754673324828
 20
136.1455352444525
 30
0.0
  0
SEQEND
  5
18C9
  8
L1
  0
POLYLINE
  5
21D
  8
L1
 66
     1
 10
0.0
 20
0.0
 30
0.0
  0
VERTEX
  5
18CA
  8
L1
 10
536.79754673324828
 20
136.1455352444525
 30
0.0
  0
VERTEX
  5
18CB
  8
L1
 10
535.04178794054292
 20
136.14554624522751
 30
0.0
  0
VERTEX
  5
18CC
  8
L1
 10
534.80863434530045
 20
136.14556014822929
 30
0.0
  0
VERTEX
  5
18CD
  8
L1
 10
534.60231092717777
 20
136.14557520203971
 30
0.0
  0
VERTEX
  5
18CE
  8
L1
 10
534.24646463529609
 20
136.14560277989841
 30
0.0
  0
VERTEX
  5
18CF
  8
L1
 10
533.59614432003707
 20
136.1456059412524
 30
0.0
  0
VERTEX
  5
18D0
  8
L1
 10
533.37672805532225
 20
136.1455805716686
 30
0.0
  0
VERTEX
  5
18D1
  8
L1
 10
533.18266905999644
 20
136.14554449936711
 30
0.0
  0
VERTEX
  5
18D2
  8
L1
 10
532.85117852828398
 20
136.14545969487989
 30
0.0
  0
VERTEX
  5
18D3
  8
L1
 10
532.27859685602425
 20
136.14537558424939
 30
0.0
  0
SEQEND
  5
18D4
  8
L1
  0
POLYLINE
  5
21E
  8
L1
 66
     1
 10
0.0
 20
0.0
 30
0.0
  0
VERTEX
  5
18D5
  8
L1
 10
535.36816789147178
 20
138.12308455313729
 30
0.0
  0
VERTEX
  5
18D6
  8
L1
 10
535.59591647645436
 20
138.1371838307945
 30
0.0
  0
VERTEX
  5
18D7
  8
L1
 10
535.85647485203492
 20
138.1942501624583
 30
0.0
  0
VERTEX
  5
18D8
  8
L1
 10
536.09965747500326
 20
138.30168721508781
 30
0.0
  0
VERTEX
  5
18D9
  8
L1
 10
536.27727280206398
 20
138.43015293549661
 30
0.0
  0
VERTEX
  5
18DA
  8
L1
 10
536.42565073032961
 20
138.5914594719107
 30
0.0
  0
VERTEX
  5
18DB
  8
L1
 10
536.55221568371644
 20
138.8038196513302
 30
0.0
  0
VERTEX
  5
18DC
  8
L1
 10
536.63558644526859
 20
139.03724669064471
 30
0.0
  0
VERTEX
  5
18DD
  8
L1
 10
536.67842642373751
 20
139.26716570269281
 30
0.0
  0
VERTEX
  5
18DE
  8
L1
 10
536.69167306006864
 20
139.50192997209459
 30
0.0
  0
SEQEND
  5
18DF
  8
L1
  0
POLYLINE
  5
21F
  8
L1
 66
     1
 10
0.0
 20
0.0
 30
0.0
  0
VERTEX
  5
18E0
  8
L1
 10
538.65488756002105
 20
137.38534048900891
 30
0.0
  0
VERTEX
  5
18E1
  8
L1
 10
538.77001458572931
 20
137.74798384416351
 30
0.0
  0
VERTEX
  5
18E2
  8
L1
 10
538.80886777043372
 20
138.1287323462854
 30
0.0
  0
SEQEND
  5
18E3
  8
L1
  0
POLYLINE
  5
220
  8
L1
 66
     1
 10
0.0
 20
0.0
 30
0.0
  0
VERTEX
  5
18E4
  8
L1
 10
538.00657547902745
 20
134.93650649867331
 30
0.0
  0
VERTEX
  5
18E5
  8
L1
 10
538.21557895470642
 20
134.94738546033761
 30
0.0
  0
VERTEX
  5
18E6
  8
L1
 10
538.42223463461767
 20
134.9800177364404
 30
0.0
  0
VERTEX
  5
18E7
  8
L1
 10
538.62428623802612
 20
135.03404704557721
 30
0.0
  0
VERTEX
  5
18E8
  8
L1
 10
538.81952775181537
 20
135.1088834920846
 30
0.0
  0
VERTEX
  5
18E9
  8
L1
 10
539.00582751589059
 20
135.20371000656189
 30
0.0
  0
VERTEX
  5
18EA
  8
L1
 10
539.18115149678624
 20
135.31749126668959
 30
0.0
  0
VERTEX
  5
18EB
  8
L1
 10
539.3435854953824
 20
135.44898500094911
 30
0.0
  0
VERTEX
  5
18EC
  8
L1
 10
539.49135604626076
 20
135.59675555182761
 30
0.0
  0
VERTEX
  5
18ED
  8
L1
 10
539.62284978052037
 20
135.7591895504238
 30
0.0
  0
VERTEX
  5
18EE
  8
L1
 10
539.73663104064804
 20
135.9345135313194
 30
0.0
  0
VERTEX
  5
18EF
  8
L1
 10
539.83145755512521
 20
136.1208132953945
 30
0.0
  0
VERTEX
  5
18F0
  8
L1
 10
539.90629400163266
 20
136.3160548091839
 30
0.0
  0
VERTEX
  5
18F1
  8
L1
 10
539.96032331076947
 20
136.5181064125922
 30
0.0
  0
VERTEX
  5
18F2
  8
L1
 10
539.99295558687243
 20
136.7247620925036
 30
0.0
  0
VERTEX
  5
18F3
  8
L1
 10
540.00383454853659
 20
136.93376556818251
 30
0.0
  0
SEQEND
  5
18F4
  8
L1
  0
LINE
  5
22D
  8
L1
 10
522.75011475033045
 20
281.82745765142641
 30
0.0
 11
522.7113463011234
 21
292.28706057364582
 31
0.0
  0
LINE
  5
22E
  8
L1
 10
525.8978814774656
 20
294.92533451301932
 30
0.0
 11
525.8978814774656
 21
290.40622497559212
 31
0.0
  0
POLYLINE
  5
22F
  8
L1
 66
     1
 10
0.0
 20
0.0
 30
0.0
  0
VERTEX
  5
18F5
  8
L1
 10
524.6889918905772
 20
289.19733538870378
 30
0.0
  0
VERTEX
  5
18F6
  8
L1
 10
524.68888207317957
 20
289.83073816692831
 30
0.0
  0
VERTEX
  5
18F7
  8
L1
 10
524.68880724036705
 20
290.16379455655652
 30
0.0
  0
VERTEX
  5
18F8
  8
L1
 10
524.6887681557597
 20
290.42910044685948
 30
0.0
  0
VERTEX
  5
18F9
  8
L1
 10
524.68876669808969
 20
290.88074695217239
 30
0.0
  0
VERTEX
  5
18FA
  8
L1
 10
524.68878905849124
 20
291.12923067852421
 30
0.0
  0
VERTEX
  5
18FB
  8
L1
 10
524.68881663402669
 20
291.43425012823383
 30
0.0
  0
VERTEX
  5
18FC
  8
L1
 10
524.68882999207335
 20
291.61767061049522
 30
0.0
  0
VERTEX
  5
18FD
  8
L1
 10
524.6888417914281
 20
291.82687685697238
 30
0.0
  0
VERTEX
  5
18FE
  8
L1
 10
524.68885107793244
 20
292.06575281212457
 30
0.0
  0
VERTEX
  5
18FF
  8
L1
 10
524.68885689742774
 20
292.33818242041048
 30
0.0
  0
VERTEX
  5
1900
  8
L1
 10
524.68884174800246
 20
293.71629478355629
 30
0.0
  0
SEQEND
  5
1901
  8
L1
  0
CIRCLE
  5
230
  8
L1
 10
533.70781447107345
 20
290.62657350506538
 30
0.0
 40
6.097393363178492
  0
ARC
  5
231
  8
L1
 10
533.70781447107345
 20
290.62657350506538
 30
0.0
 40
4.9551339946734032
 50
357.46873820670743
 51
92.53126179329125
  0
LINE
  5
232
  8
L1
 10
528.75751533338666
 20
290.84541443493657
 30
0.0
 11
533.48897354120231
 21
295.57687264275211
 31
0.0
  0
CIRCLE
  5
233
  8
L1
 10
533.70781447107345
 20
290.62657350506538
 30
0.0
 40
5.7974047862592784
  0
LINE
  5
234
  8
L1
 10
533.48746594160025
 20
282.81664051145742
 30
0.0
 11
538.00657547902745
 21
282.81664051145742
 31
0.0
  0
POLYLINE
  5
235
  8
L1
 66
     1
 10
0.0
 20
0.0
 30
0.0
  0
VERTEX
  5
1902
  8
L1
 10
538.65488756002105
 20
280.36780652112168
 30
0.0
  0
VERTEX
  5
1903
  8
L1
 10
538.54407188177822
 20
280.58576035671177
 30
0.0
  0
VERTEX
  5
1904
  8
L1
 10
538.40465758974346
 20
280.79393618474302
 30
0.0
  0
VERTEX
  5
1905
  8
L1
 10
538.17047589446463
 20
281.0532858356267
 30
0.0
  0
VERTEX
  5
1906
  8
L1
 10
537.89300723210988
 20
281.27203612094621
 30
0.0
  0
VERTEX
  5
1907
  8
L1
 10
537.56863663214699
 20
281.44656023062203
 30
0.0
  0
VERTEX
  5
1908
  8
L1
 10
537.22058617060475
 20
281.55975165914128
 30
0.0
  0
VERTEX
  5
1909
  8
L1
 10
537.16734699803067
 20
281.5711448746568
 30
0.0
  0
SEQEND
  5
190A
  8
L1
  0
LINE
  5
236
  8
L1
 10
538.65811360876023
 20
290.40773257519402
 30
0.0
 11
533.92665540094492
 21
285.67627436737871
 31
0.0
  0
POLYLINE
  5
237
  8
L1
 66
     1
 10
0.0
 20
0.0
 30
0.0
  0
VERTEX
  5
190B
  8
L1
 10
532.27859685602425
 20
281.60777142588131
 30
0.0
  0
VERTEX
  5
190C
  8
L1
 10
532.23371945753183
 20
281.6079051638514
 30
0.0
  0
VERTEX
  5
190D
  8
L1
 10
532.03967194007578
 20
281.61165104442603
 30
0.0
  0
VERTEX
  5
190E
  8
L1
 10
531.58186840489179
 20
281.64088120856042
 30
0.0
  0
VERTEX
  5
190F
  8
L1
 10
531.33499293588943
 20
281.66837609489289
 30
0.0
  0
VERTEX
  5
1910
  8
L1
 10
531.03853137932924
 20
281.71240922324102
 30
0.0
  0
VERTEX
  5
1911
  8
L1
 10
530.69752765897215
 20
281.77818206260559
 30
0.0
  0
VERTEX
  5
1912
  8
L1
 10
530.31702569857862
 20
281.87089608198789
 30
0.0
  0
VERTEX
  5
1913
  8
L1
 10
529.87178382234265
 20
282.00620825790048
 30
0.0
  0
VERTEX
  5
1914
  8
L1
 10
529.43600610174656
 20
282.16835549718871
 30
0.0
  0
VERTEX
  5
1915
  8
L1
 10
529.01092483883394
 20
282.35683073997751
 30
0.0
  0
VERTEX
  5
1916
  8
L1
 10
528.59777233564705
 20
282.57112692639208
 30
0.0
  0
VERTEX
  5
1917
  8
L1
 10
528.00925695667365
 20
282.93551911580158
 30
0.0
  0
VERTEX
  5
1918
  8
L1
 10
527.45612576420706
 20
283.35173796698632
 30
0.0
  0
VERTEX
  5
1919
  8
L1
 10
526.89828068774864
 20
283.8610961395234
 30
0.0
  0
VERTEX
  5
191A
  8
L1
 10
526.39356697763685
 20
284.42318843525061
 30
0.0
  0
VERTEX
  5
191B
  8
L1
 10
525.99999035877374
 20
284.95309854699462
 30
0.0
  0
VERTEX
  5
191C
  8
L1
 10
525.65359113706768
 20
285.51507213928932
 30
0.0
  0
VERTEX
  5
191D
  8
L1
 10
525.35243762860409
 20
286.1150568897512
 30
0.0
  0
VERTEX
  5
191E
  8
L1
 10
525.10531089783285
 20
286.7391889874678
 30
0.0
  0
VERTEX
  5
191F
  8
L1
 10
524.90840303586674
 20
287.4059405710525
 30
0.0
  0
VERTEX
  5
1920
  8
L1
 10
524.77308153444437
 20
288.08812162973283
 30
0.0
  0
VERTEX
  5
1921
  8
L1
 10
524.72402007692187
 20
288.48170435021382
 30
0.0
  0
VERTEX
  5
1922
  8
L1
 10
524.69585882101103
 20
288.88042709060738
 30
0.0
  0
VERTEX
  5
1923
  8
L1
 10
524.69039644990153
 20
289.05395168706332
 30
0.0
  0
VERTEX
  5
1924
  8
L1
 10
524.6889918905772
 20
289.19733538870378
 30
0.0
  0
SEQEND
  5
1925
  8
L1
  0
LINE
  5
238
  8
L1
 10
525.22163035184383
 20
279.66218574126322
 30
0.0
 11
535.59591647645436
 21
279.61596317933612
 31
0.0
  0
ARC
  5
239
  8
L1
 10
524.90744676804729
 20
281.79673810669482
 30
0.0
 40
2.157550723643304
 50
179.18418616200481
 51
278.37321177144332
  0
ARC
  5
23A
  8
L1
 10
520.97011860198268
 20
277.88887763597461
 30
0.0
 40
2.0
 50
0.0
 51
90.0
  0
POLYLINE
  5
23B
  8
L1
 66
     1
 10
0.0
 20
0.0
 30
0.0
  0
VERTEX
  5
1926
  8
L1
 10
536.79754673324828
 20
281.6076117656782
 30
0.0
  0
VERTEX
  5
1927
  8
L1
 10
535.04178794054292
 20
281.60760076490322
 30
0.0
  0
VERTEX
  5
1928
  8
L1
 10
534.80863434530045
 20
281.60758686190132
 30
0.0
  0
VERTEX
  5
1929
  8
L1
 10
534.60231092717777
 20
281.607571808091
 30
0.0
  0
VERTEX
  5
192A
  8
L1
 10
534.24646463529609
 20
281.60754423023218
 30
0.0
  0
VERTEX
  5
192B
  8
L1
 10
533.59614432003707
 20
281.60754106887822
 30
0.0
  0
VERTEX
  5
192C
  8
L1
 10
533.37672805532225
 20
281.60756643846202
 30
0.0
  0
VERTEX
  5
192D
  8
L1
 10
533.18266905999644
 20
281.60760251076363
 30
0.0
  0
VERTEX
  5
192E
  8
L1
 10
532.85117852828398
 20
281.60768731525081
 30
0.0
  0
VERTEX
  5
192F
  8
L1
 10
532.27859685602425
 20
281.60777142588131
 30
0.0
  0
SEQEND
  5
1930
  8
L1
  0
POLYLINE
  5
23C
  8
L1
 66
     1
 10
0.0
 20
0.0
 30
0.0
  0
VERTEX
  5
1931
  8
L1
 10
537.16734699803067
 20
281.5711448746568
 30
0.0
  0
VERTEX
  5
1932
  8
L1
 10
537.07920411109239
 20
281.58658258325272
 30
0.0
  0
VERTEX
  5
1933
  8
L1
 10
536.95988068444569
 20
281.60066965086168
 30
0.0
  0
VERTEX
  5
1934
  8
L1
 10
536.88771868346441
 20
281.60547526158211
 30
0.0
  0
VERTEX
  5
1935
  8
L1
 10
536.84357028950512
 20
281.6070555031543
 30
0.0
  0
VERTEX
  5
1936
  8
L1
 10
536.80906842876777
 20
281.60757673607918
 30
0.0
  0
VERTEX
  5
1937
  8
L1
 10
536.79754673324828
 20
281.6076117656782
 30
0.0
  0
SEQEND
  5
1938
  8
L1
  0
POLYLINE
  5
23D
  8
L1
 66
     1
 10
0.0
 20
0.0
 30
0.0
  0
VERTEX
  5
1939
  8
L1
 10
535.36816789147178
 20
279.63006245699341
 30
0.0
  0
VERTEX
  5
193A
  8
L1
 10
535.59591647645436
 20
279.61596317933612
 30
0.0
  0
VERTEX
  5
193B
  8
L1
 10
535.85647485203492
 20
279.55889684767232
 30
0.0
  0
VERTEX
  5
193C
  8
L1
 10
536.09965747500326
 20
279.45145979504281
 30
0.0
  0
VERTEX
  5
193D
  8
L1
 10
536.27727280206398
 20
279.32299407463398
 30
0.0
  0
VERTEX
  5
193E
  8
L1
 10
536.42565073032961
 20
279.16168753821989
 30
0.0
  0
VERTEX
  5
193F
  8
L1
 10
536.55221568371644
 20
278.94932735880042
 30
0.0
  0
VERTEX
  5
1940
  8
L1
 10
536.63558644526859
 20
278.71590031948591
 30
0.0
  0
VERTEX
  5
1941
  8
L1
 10
536.67842642373751
 20
278.48598130743778
 30
0.0
  0
VERTEX
  5
1942
  8
L1
 10
536.69167306006864
 20
278.25121703803609
 30
0.0
  0
SEQEND
  5
1943
  8
L1
  0
POLYLINE
  5
23E
  8
L1
 66
     1
 10
0.0
 20
0.0
 30
0.0
  0
VERTEX
  5
1944
  8
L1
 10
525.8978814774656
 20
290.40622497559212
 30
0.0
  0
VERTEX
  5
1945
  8
L1
 10
525.9008798902089
 20
290.19317707515557
 30
0.0
  0
VERTEX
  5
1946
  8
L1
 10
525.90984214509103
 20
289.98031211837719
 30
0.0
  0
VERTEX
  5
1947
  8
L1
 10
525.92476121564982
 20
289.76779699266967
 30
0.0
  0
VERTEX
  5
1948
  8
L1
 10
525.94562540524385
 20
289.55579831117632
 30
0.0
  0
VERTEX
  5
1949
  8
L1
 10
525.97241835622231
 20
289.34448228214472
 30
0.0
  0
VERTEX
  5
194A
  8
L1
 10
526.00511906274971
 20
289.13401457861897
 30
0.0
  0
VERTEX
  5
194B
  8
L1
 10
526.04370188727455
 20
288.92456020855087
 30
0.0
  0
VERTEX
  5
194C
  8
L1
 10
526.08813658062911
 20
288.7162833854328
 30
0.0
  0
VERTEX
  5
194D
  8
L1
 10
526.13838830574514
 20
288.50934739955261
 30
0.0
  0
VERTEX
  5
194E
  8
L1
 10
526.19441766496652
 20
288.30391448997449
 30
0.0
  0
VERTEX
  5
194F
  8
L1
 10
526.25618073093676
 20
288.10014571734109
 30
0.0
  0
VERTEX
  5
1950
  8
L1
 10
526.32362908103914
 20
287.89820083760202
 30
0.0
  0
VERTEX
  5
1951
  8
L1
 10
526.39670983535927
 20
287.69823817676348
 30
0.0
  0
VERTEX
  5
1952
  8
L1
 10
526.47536569814395
 20
287.50041450676048
 30
0.0
  0
VERTEX
  5
1953
  8
L1
 10
526.55953500272153
 20
287.30488492254591
 30
0.0
  0
VERTEX
  5
1954
  8
L1
 10
526.649151759848
 20
287.11180272049569
 30
0.0
  0
VERTEX
  5
1955
  8
L1
 10
526.74414570944475
 20
286.92131927822362
 30
0.0
  0
VERTEX
  5
1956
  8
L1
 10
526.8444423756805
 20
286.7335839358995
 30
0.0
  0
VERTEX
  5
1957
  8
L1
 10
526.94996312536296
 20
286.54874387916658
 30
0.0
  0
VERTEX
  5
1958
  8
L1
 10
527.06062522958655
 20
286.36694402374661
 30
0.0
  0
VERTEX
  5
1959
  8
L1
 10
527.17634192859236
 20
286.18832690182529
 30
0.0
  0
VERTEX
  5
195A
  8
L1
 10
527.29702249978936
 20
286.01303255030581
 30
0.0
  0
VERTEX
  5
195B
  8
L1
 10
527.42257232887982
 20
285.84119840101931
 30
0.0
  0
VERTEX
  5
195C
  8
L1
 10
527.55289298403898
 20
285.67295917297753
 30
0.0
  0
VERTEX
  5
195D
  8
L1
 10
527.68788229308575
 20
285.50844676675229
 30
0.0
  0
VERTEX
  5
195E
  8
L1
 10
527.8274344235856
 20
285.34779016106421
 30
0.0
  0
VERTEX
  5
195F
  8
L1
 10
527.97143996582463
 20
285.19111531166351
 30
0.0
  0
VERTEX
  5
1960
  8
L1
 10
528.11978601858743
 20
285.0385450525792
 30
0.0
  0
VERTEX
  5
1961
  8
L1
 10
528.27235627767175
 20
284.89019899981639
 30
0.0
  0
VERTEX
  5
1962
  8
L1
 10
528.42903112707245
 20
284.74619345757742
 30
0.0
  0
VERTEX
  5
1963
  8
L1
 10
528.58968773276035
 20
284.60664132707751
 30
0.0
  0
VERTEX
  5
1964
  8
L1
 10
528.75420013898588
 20
284.47165201803091
 30
0.0
  0
VERTEX
  5
1965
  8
L1
 10
528.92243936702755
 20
284.34133136287159
 30
0.0
  0
VERTEX
  5
1966
  8
L1
 10
529.09427351631405
 20
284.21578153378101
 30
0.0
  0
VERTEX
  5
1967
  8
L1
 10
529.26956786783353
 20
284.09510096258413
 30
0.0
  0
VERTEX
  5
1968
  8
L1
 10
529.44818498975485
 20
283.9793842635782
 30
0.0
  0
VERTEX
  5
1969
  8
L1
 10
529.62998484517482
 20
283.86872215935472
 30
0.0
  0
VERTEX
  5
196A
  8
L1
 10
529.81482490190774
 20
283.76320140967232
 30
0.0
  0
VERTEX
  5
196B
  8
L1
 10
530.00256024423174
 20
283.66290474343651
 30
0.0
  0
VERTEX
  5
196C
  8
L1
 10
530.1930436865041
 20
283.56791079383993
 30
0.0
  0
VERTEX
  5
196D
  8
L1
 10
530.38612588855415
 20
283.47829403671318
 30
0.0
  0
VERTEX
  5
196E
  8
L1
 10
530.5816554727686
 20
283.39412473213571
 30
0.0
  0
VERTEX
  5
196F
  8
L1
 10
530.77947914277183
 20
283.31546886935109
 30
0.0
  0
VERTEX
  5
1970
  8
L1
 10
530.97944180361014
 20
283.24238811503102
 30
0.0
  0
VERTEX
  5
1971
  8
L1
 10
531.1813866833495
 20
283.17493976492869
 30
0.0
  0
VERTEX
  5
1972
  8
L1
 10
531.38515545598284
 20
283.11317669895828
 30
0.0
  0
VERTEX
  5
1973
  8
L1
 10
531.59058836556085
 20
283.0571473397369
 30
0.0
  0
VERTEX
  5
1974
  8
L1
 10
531.79752435144098
 20
283.00689561462087
 30
0.0
  0
VERTEX
  5
1975
  8
L1
 10
532.00580117455911
 20
282.96246092126631
 30
0.0
  0
VERTEX
  5
1976
  8
L1
 10
532.21525554462721
 20
282.92387809674148
 30
0.0
  0
VERTEX
  5
1977
  8
L1
 10
532.42572324815285
 20
282.89117739021412
 30
0.0
  0
VERTEX
  5
1978
  8
L1
 10
532.6370392771845
 20
282.86438443923549
 30
0.0
  0
VERTEX
  5
1979
  8
L1
 10
532.84903795867797
 20
282.84352024964159
 30
0.0
  0
VERTEX
  5
197A
  8
L1
 10
533.06155308438542
 20
282.8286011790828
 30
0.0
  0
VERTEX
  5
197B
  8
L1
 10
533.27441804116393
 20
282.81963892420072
 30
0.0
  0
VERTEX
  5
197C
  8
L1
 10
533.48746594160025
 20
282.81664051145742
 30
0.0
  0
SEQEND
  5
197D
  8
L1
  0
ARC
  5
23F
  8
L1
 10
533.70781447107345
 20
290.62657350506538
 30
0.0
 40
4.9551339946734032
 50
177.468738206708
 51
272.53126179329251
  0
POLYLINE
  5
240
  8
L1
 66
     1
 10
0.0
 20
0.0
 30
0.0
  0
VERTEX
  5
197E
  8
L1
 10
538.00657547902745
 20
282.81664051145742
 30
0.0
  0
VERTEX
  5
197F
  8
L1
 10
538.21557895470642
 20
282.80576154979309
 30
0.0
  0
VERTEX
  5
1980
  8
L1
 10
538.42223463461767
 20
282.7731292736903
 30
0.0
  0
VERTEX
  5
1981
  8
L1
 10
538.62428623802612
 20
282.71909996455349
 30
0.0
  0
VERTEX
  5
1982
  8
L1
 10
538.81952775181537
 20
282.64426351804599
 30
0.0
  0
VERTEX
  5
1983
  8
L1
 10
539.00582751589059
 20
282.5494370035687
 30
0.0
  0
VERTEX
  5
1984
  8
L1
 10
539.18115149678624
 20
282.43565574344109
 30
0.0
  0
VERTEX
  5
1985
  8
L1
 10
539.3435854953824
 20
282.3041620091816
 30
0.0
  0
VERTEX
  5
1986
  8
L1
 10
539.49135604626076
 20
282.15639145830312
 30
0.0
  0
VERTEX
  5
1987
  8
L1
 10
539.62284978052037
 20
281.99395745970679
 30
0.0
  0
VERTEX
  5
1988
  8
L1
 10
539.73663104064804
 20
281.81863347881131
 30
0.0
  0
VERTEX
  5
1989
  8
L1
 10
539.83145755512521
 20
281.63233371473621
 30
0.0
  0
VERTEX
  5
198A
  8
L1
 10
539.90629400163266
 20
281.43709220094678
 30
0.0
  0
VERTEX
  5
198B
  8
L1
 10
539.96032331076947
 20
281.2350405975385
 30
0.0
  0
VERTEX
  5
198C
  8
L1
 10
539.99295558687243
 20
281.02838491762708
 30
0.0
  0
VERTEX
  5
198D
  8
L1
 10
540.00383454853659
 20
280.81938144194822
 30
0.0
  0
SEQEND
  5
198E
  8
L1
  0
POLYLINE
  5
241
  8
L1
 66
     1
 10
0.0
 20
0.0
 30
0.0
  0
VERTEX
  5
198F
  8
L1
 10
538.65488756002105
 20
280.36780652112168
 30
0.0
  0
VERTEX
  5
1990
  8
L1
 10
538.77001458572931
 20
280.00516316596719
 30
0.0
  0
VERTEX
  5
1991
  8
L1
 10
538.80886777043372
 20
279.6244146638453
 30
0.0
  0
SEQEND
  5
1992
  8
L1
  0
POLYLINE
  5
242
  8
L1
 66
     1
 10
0.0
 20
0.0
 30
0.0
  0
VERTEX
  5
1993
  8
L1
 10
537.12849716411154
 20
297.34273366279348
 30
0.0
  0
VERTEX
  5
1994
  8
L1
 10
537.2764862997509
 20
297.33941781454399
 30
0.0
  0
VERTEX
  5
1995
  8
L1
 10
537.42416027869592
 20
297.32947692420868
 30
0.0
  0
VERTEX
  5
1996
  8
L1
 10
537.57122274128767
 20
297.31293094167228
 30
0.0
  0
VERTEX
  5
1997
  8
L1
 10
537.71737855509059
 20
297.2898130722549
 30
0.0
  0
VERTEX
  5
1998
  8
L1
 10
537.86233440717649
 20
297.26016971007363
 30
0.0
  0
VERTEX
  5
1999
  8
L1
 10
538.00579939276304
 20
297.22406034493679
 30
0.0
  0
VERTEX
  5
199A
  8
L1
 10
538.14748559901352
 20
297.18155744295638
 30
0.0
  0
VERTEX
  5
199B
  8
L1
 10
538.28710868283679
 20
297.13274630111988
 30
0.0
  0
VERTEX
  5
199C
  8
L1
 10
538.42438844152025
 20
297.07772487611152
 30
0.0
  0
VERTEX
  5
199D
  8
L1
 10
538.55904937505636
 20
297.01660358772767
 30
0.0
  0
VERTEX
  5
199E
  8
L1
 10
538.69082123902831
 20
296.9495050972817
 30
0.0
  0
VERTEX
  5
199F
  8
L1
 10
538.81943958695172
 20
296.87656406143981
 30
0.0
  0
VERTEX
  5
19A0
  8
L1
 10
538.94464630097821
 20
296.79792686198562
 30
0.0
  0
VERTEX
  5
19A1
  8
L1
 10
539.06619010990073
 20
296.71375131205423
 30
0.0
  0
VERTEX
  5
19A2
  8
L1
 10
539.18382709341608
 20
296.62420633942412
 30
0.0
  0
VERTEX
  5
19A3
  8
L1
 10
539.29732117163712
 20
296.52947164750509
 30
0.0
  0
VERTEX
  5
19A4
  8
L1
 10
539.40644457887038
 20
296.42973735469928
 30
0.0
  0
VERTEX
  5
19A5
  8
L1
 10
539.51097832070741
 20
296.32520361286242
 30
0.0
  0
VERTEX
  5
19A6
  8
L1
 10
539.61071261351321
 20
296.216080205629
 30
0.0
  0
VERTEX
  5
19A7
  8
L1
 10
539.70544730543224
 20
296.10258612740779
 30
0.0
  0
VERTEX
  5
19A8
  8
L1
 10
539.7949922780623
 20
295.98494914389261
 30
0.0
  0
VERTEX
  5
19A9
  8
L1
 10
539.87916782799368
 20
295.8634053349702
 30
0.0
  0
VERTEX
  5
19AA
  8
L1
 10
539.95780502744776
 20
295.73819862094359
 30
0.0
  0
VERTEX
  5
19AB
  8
L1
 10
540.03074606328983
 20
295.60958027302019
 30
0.0
  0
VERTEX
  5
19AC
  8
L1
 10
540.09784455373597
 20
295.47780840904829
 30
0.0
  0
VERTEX
  5
19AD
  8
L1
 10
540.15896584211964
 20
295.34314747551218
 30
0.0
  0
VERTEX
  5
19AE
  8
L1
 10
540.213987267128
 20
295.20586771682849
 30
0.0
  0
VERTEX
  5
19AF
  8
L1
 10
540.2627984089645
 20
295.0662446330054
 30
0.0
  0
VERTEX
  5
19B0
  8
L1
 10
540.30530131094486
 20
294.92455842675491
 30
0.0
  0
VERTEX
  5
19B1
  8
L1
 10
540.34141067608175
 20
294.78109344116848
 30
0.0
  0
VERTEX
  5
19B2
  8
L1
 10
540.37105403826308
 20
294.63613758908241
 30
0.0
  0
VERTEX
  5
19B3
  8
L1
 10
540.39417190768029
 20
294.48998177527972
 30
0.0
  0
VERTEX
  5
19B4
  8
L1
 10
540.4107178902168
 20
294.3429193126878
 30
0.0
  0
VERTEX
  5
19B5
  8
L1
 10
540.420658780552
 20
294.19524533374289
 30
0.0
  0
VERTEX
  5
19B6
  8
L1
 10
540.42397462880149
 20
294.04725619810341
 30
0.0
  0
SEQEND
  5
19B7
  8
L1
  0
POLYLINE
  5
243
  8
L1
 66
     1
 10
0.0
 20
0.0
 30
0.0
  0
VERTEX
  5
19B8
  8
L1
 10
523.90062240795635
 20
296.92259358252852
 30
0.0
  0
VERTEX
  5
19B9
  8
L1
 10
524.1096258836352
 20
296.91171462086419
 30
0.0
  0
VERTEX
  5
19BA
  8
L1
 10
524.31628156354657
 20
296.8790823447614
 30
0.0
  0
VERTEX
  5
19BB
  8
L1
 10
524.51833316695502
 20
296.82505303562448
 30
0.0
  0
VERTEX
  5
19BC
  8
L1
 10
524.71357468074427
 20
296.75021658911709
 30
0.0
  0
VERTEX
  5
19BD
  8
L1
 10
524.89987444481937
 20
296.6553900746398
 30
0.0
  0
VERTEX
  5
19BE
  8
L1
 10
525.07519842571514
 20
296.54160881451219
 30
0.0
  0
VERTEX
  5
19BF
  8
L1
 10
525.2376324243113
 20
296.41011508025258
 30
0.0
  0
VERTEX
  5
19C0
  8
L1
 10
525.38540297518978
 20
296.26234452937422
 30
0.0
  0
VERTEX
  5
19C1
  8
L1
 10
525.51689670944927
 20
296.09991053077789
 30
0.0
  0
VERTEX
  5
19C2
  8
L1
 10
525.63067796957694
 20
295.92458654988241
 30
0.0
  0
VERTEX
  5
19C3
  8
L1
 10
525.72550448405423
 20
295.73828678580719
 30
0.0
  0
VERTEX
  5
19C4
  8
L1
 10
525.80034093056156
 20
295.54304527201788
 30
0.0
  0
VERTEX
  5
19C5
  8
L1
 10
525.85437023969837
 20
295.3409936686096
 30
0.0
  0
VERTEX
  5
19C6
  8
L1
 10
525.88700251580133
 20
295.13433798869818
 30
0.0
  0
VERTEX
  5
19C7
  8
L1
 10
525.8978814774656
 20
294.92533451301932
 30
0.0
  0
SEQEND
  5
19C8
  8
L1
  0
POLYLINE
  5
244
  8
L1
 66
     1
 10
0.0
 20
0.0
 30
0.0
  0
VERTEX
  5
19C9
  8
L1
 10
524.68884174800246
 20
293.71629478355629
 30
0.0
  0
VERTEX
  5
19CA
  8
L1
 10
524.68880188534831
 20
293.72858490294982
 30
0.0
  0
VERTEX
  5
19CB
  8
L1
 10
524.68817852193865
 20
293.76654626423988
 30
0.0
  0
VERTEX
  5
19CC
  8
L1
 10
524.68668839945917
 20
293.80681808831201
 30
0.0
  0
VERTEX
  5
19CD
  8
L1
 10
524.67747895487673
 20
293.9237601573509
 30
0.0
  0
VERTEX
  5
19CE
  8
L1
 10
524.65238948373303
 20
294.0860223812395
 30
0.0
  0
SEQEND
  5
19CF
  8
L1
  0
POLYLINE
  5
245
  8
L1
 66
     1
 10
0.0
 20
0.0
 30
0.0
  0
VERTEX
  5
19D0
  8
L1
 10
524.65238948373303
 20
294.0860223812395
 30
0.0
  0
VERTEX
  5
19D1
  8
L1
 10
524.56688026569486
 20
294.38903404980817
 30
0.0
  0
VERTEX
  5
19D2
  8
L1
 10
524.43458612576023
 20
294.67756583993878
 30
0.0
  0
VERTEX
  5
19D3
  8
L1
 10
524.23885649733961
 20
294.96889293399681
 30
0.0
  0
VERTEX
  5
19D4
  8
L1
 10
523.99867538241836
 20
295.22170832264402
 30
0.0
  0
VERTEX
  5
19D5
  8
L1
 10
523.73408051929664
 20
295.42181261666798
 30
0.0
  0
VERTEX
  5
19D6
  8
L1
 10
523.44920468972805
 20
295.57357809443789
 30
0.0
  0
SEQEND
  5
19D7
  8
L1
  0
POLYLINE
  5
246
  8
L1
 66
     1
 10
0.0
 20
0.0
 30
0.0
  0
VERTEX
  5
19D8
  8
L1
 10
522.7113463011234
 20
292.28706057364582
 30
0.0
  0
VERTEX
  5
19D9
  8
L1
 10
523.17734667890113
 20
292.71897701442049
 30
0.0
  0
VERTEX
  5
19DA
  8
L1
 10
523.34109226761529
 20
292.87073802741082
 30
0.0
  0
VERTEX
  5
19DB
  8
L1
 10
523.51439214714901
 20
293.031350000185
 30
0.0
  0
VERTEX
  5
19DC
  8
L1
 10
523.69554351763225
 20
293.1992345389047
 30
0.0
  0
VERTEX
  5
19DD
  8
L1
 10
523.8828434733465
 20
293.37281340010333
 30
0.0
  0
VERTEX
  5
19DE
  8
L1
 10
524.07458902228905
 20
293.55050850347152
 30
0.0
  0
VERTEX
  5
19DF
  8
L1
 10
524.26907609865623
 20
293.73074308273101
 30
0.0
  0
VERTEX
  5
19E0
  8
L1
 10
524.46459322387125
 20
293.9119488707143
 30
0.0
  0
VERTEX
  5
19E1
  8
L1
 10
524.65238948373303
 20
294.0860223812395
 30
0.0
  0
SEQEND
  5
19E2
  8
L1
  0
POLYLINE
  5
247
  8
L1
 66
     1
 10
0.0
 20
0.0
 30
0.0
  0
VERTEX
  5
19E3
  8
L1
 10
521.33249657791816
 20
293.61043209406029
 30
0.0
  0
VERTEX
  5
19E4
  8
L1
 10
521.52252916497957
 20
293.60186138909921
 30
0.0
  0
VERTEX
  5
19E5
  8
L1
 10
521.7721604430368
 20
293.56068661468572
 30
0.0
  0
VERTEX
  5
19E6
  8
L1
 10
522.01121581801385
 20
293.47979647558242
 30
0.0
  0
VERTEX
  5
19E7
  8
L1
 10
522.21018456489458
 20
293.36813317907342
 30
0.0
  0
VERTEX
  5
19E8
  8
L1
 10
522.38282535701489
 20
293.21949565555758
 30
0.0
  0
VERTEX
  5
19E9
  8
L1
 10
522.5212384343539
 20
293.03774684492788
 30
0.0
  0
VERTEX
  5
19EA
  8
L1
 10
522.62067900159832
 20
292.83169999564808
 30
0.0
  0
VERTEX
  5
19EB
  8
L1
 10
522.69015968947633
 20
292.56399987780611
 30
0.0
  0
VERTEX
  5
19EC
  8
L1
 10
522.7113463011234
 20
292.28706057364582
 30
0.0
  0
SEQEND
  5
19ED
  8
L1
  0
POLYLINE
  5
248
  8
L1
 66
     1
 10
0.0
 20
0.0
 30
0.0
  0
VERTEX
  5
19EE
  8
L1
 10
522.70565562985337
 20
295.72762680442548
 30
0.0
  0
VERTEX
  5
19EF
  8
L1
 10
523.08648835153031
 20
295.68875617312472
 30
0.0
  0
VERTEX
  5
19F0
  8
L1
 10
523.44920468972805
 20
295.57357809443789
 30
0.0
  0
SEQEND
  5
19F1
  8
L1
  0
POLYLINE
  5
249
  8
L1
 66
     1
 10
0.0
 20
0.0
 30
0.0
  0
VERTEX
  5
19F2
  8
L1
 10
523.44920468972805
 20
295.57357809443789
 30
0.0
  0
VERTEX
  5
19F3
  8
L1
 10
523.33751477174451
 20
295.46996210377819
 30
0.0
  0
VERTEX
  5
19F4
  8
L1
 10
523.33047323082269
 20
295.46342969592502
 30
0.0
  0
VERTEX
  5
19F5
  8
L1
 10
523.1427539899405
 20
295.28928832719498
 30
0.0
  0
VERTEX
  5
19F6
  8
L1
 10
522.94732351123844
 20
295.10800412747682
 30
0.0
  0
VERTEX
  5
19F7
  8
L1
 10
522.75292481898464
 20
294.92768818863408
 30
0.0
  0
VERTEX
  5
19F8
  8
L1
 10
522.56126020247302
 20
294.74991880067222
 30
0.0
  0
VERTEX
  5
19F9
  8
L1
 10
522.37403251411706
 20
294.57627399118439
 30
0.0
  0
VERTEX
  5
19FA
  8
L1
 10
522.19294478342215
 20
294.40833173713622
 30
0.0
  0
VERTEX
  5
19FB
  8
L1
 10
522.01970014802964
 20
294.24766999592748
 30
0.0
  0
VERTEX
  5
19FC
  8
L1
 10
521.85600179988035
 20
294.09586672734389
 30
0.0
  0
VERTEX
  5
19FD
  8
L1
 10
521.39011042649872
 20
293.66385433586061
 30
0.0
  0
VERTEX
  5
19FE
  8
L1
 10
521.38930306598024
 20
293.66310571356979
 30
0.0
  0
VERTEX
  5
19FF
  8
L1
 10
521.33249657791816
 20
293.61043209406029
 30
0.0
  0
SEQEND
  5
1A00
  8
L1
  0
POLYLINE
  5
24A
  8
L1
 66
     1
 10
0.0
 20
0.0
 30
0.0
  0
VERTEX
  5
1A01
  8
L1
 10
541.96990290884764
 20
295.43357350506528
 30
0.0
  0
VERTEX
  5
1A02
  8
L1
 10
541.95082854345935
 20
295.76220407369772
 30
0.0
  0
VERTEX
  5
1A03
  8
L1
 10
541.89952886118783
 20
296.09536110751071
 30
0.0
  0
VERTEX
  5
1A04
  8
L1
 10
541.81483893141649
 20
296.42672544823921
 30
0.0
  0
VERTEX
  5
1A05
  8
L1
 10
541.69739947307585
 20
296.75034589130632
 30
0.0
  0
VERTEX
  5
1A06
  8
L1
 10
541.54857097007402
 20
297.06077020794868
 30
0.0
  0
VERTEX
  5
1A07
  8
L1
 10
541.3712552212595
 20
297.35319273596127
 30
0.0
  0
VERTEX
  5
1A08
  8
L1
 10
541.16921508665382
 20
297.62297252330961
 30
0.0
  0
VERTEX
  5
1A09
  8
L1
 10
540.94774359014718
 20
297.866502624139
 30
0.0
  0
VERTEX
  5
1A0A
  8
L1
 10
540.70421348931779
 20
298.08797412064558
 30
0.0
  0
VERTEX
  5
1A0B
  8
L1
 10
540.4344337019694
 20
298.29001425525138
 30
0.0
  0
VERTEX
  5
1A0C
  8
L1
 10
540.14201117395692
 20
298.46733000406579
 30
0.0
  0
VERTEX
  5
1A0D
  8
L1
 10
539.83158685731451
 20
298.61615850706772
 30
0.0
  0
VERTEX
  5
1A0E
  8
L1
 10
539.50796641424745
 20
298.73359796540831
 30
0.0
  0
VERTEX
  5
1A0F
  8
L1
 10
539.17660207351878
 20
298.81828789517971
 30
0.0
  0
VERTEX
  5
1A10
  8
L1
 10
538.84344503970567
 20
298.8695875774514
 30
0.0
  0
VERTEX
  5
1A11
  8
L1
 10
538.51481447107335
 20
298.88866194283941
 30
0.0
  0
SEQEND
  5
1A12
  8
L1
  0
LINE
  5
AC9
  8
L1
 10
298.71260457937569
 20
120.56157309316841
 30
0.0
 11
297.95139710283507
 21
120.4273516771373
 31
0.0
  0
ARC
  5
ACA
  8
L1
 10
298.64820712626931
 20
120.92678919820079
 30
0.0
 40
0.3708501521392529
 50
279.99999999999432
 51
0.0
  0
POLYLINE
  5
ACB
  8
L1
 66
     1
 10
0.0
 20
0.0
 30
0.0
  0
VERTEX
  5
1A13
  8
L1
 10
297.22914278871991
 20
118.8647007604266
 30
0.0
  0
VERTEX
  5
1A14
  8
L1
 10
297.23542645767952
 20
118.9350748080864
 30
0.0
  0
VERTEX
  5
1A15
  8
L1
 10
297.23999882839172
 20
119.1372041961983
 30
0.0
  0
VERTEX
  5
1A16
  8
L1
 10
297.2426920721403
 20
119.4633484480145
 30
0.0
  0
VERTEX
  5
1A17
  8
L1
 10
297.2435498700076
 20
119.886860079127
 30
0.0
  0
VERTEX
  5
1A18
  8
L1
 10
297.2426920721403
 20
120.40016996730461
 30
0.0
  0
VERTEX
  5
1A19
  8
L1
 10
297.23999882839161
 20
121.0030168119597
 30
0.0
  0
VERTEX
  5
1A1A
  8
L1
 10
297.23542645767952
 20
121.65800159575539
 30
0.0
  0
VERTEX
  5
1A1B
  8
L1
 10
297.21903538113742
 20
298.88857492632218
 30
0.0
  0
SEQEND
  5
1A1C
  8
L1
  0
ARC
  5
AD8
  8
L1
 10
298.64820712626931
 20
296.82678919820029
 30
0.0
 40
0.3708501521392529
 50
0.0
 51
80.000000000005627
  0
LINE
  5
AD9
  8
L1
 10
298.71260457937569
 20
297.1920053032328
 30
0.0
 11
297.95139710283507
 21
297.3262267192639
 31
0.0
  0
LINE
  5
BE2
  8
L1
 10
248.08943470307409
 20
295.71380165772229
 30
0.0
 11
271.1487826030704
 21
296.9222908728762
 31
0.0
  0
LINE
  5
C2C
  8
L1
 10
271.52784822057322
 20
297.54215686009201
 30
0.0
 11
297.21903538113742
 21
298.88857492632218
 31
0.0
  0
ARC
  5
C2D
  8
L1
 10
271.63831541182179
 20
296.72366415859148
 30
0.0
 40
0.3
 50
180.0
 51
183.28332664581129
  0
ARC
  5
C2E
  8
L1
 10
271.13831541182179
 20
297.12201677982699
 30
0.0
 40
0.1999999999999957
 50
272.9999999999996
 51
0.0
  0
ARC
  5
C2F
  8
L1
 10
271.53831541182183
 20
297.3424309531411
 30
0.0
 40
0.1999999999999879
 50
92.99999999999865
 51
180.0
  0
ARC
  5
C30
  8
L1
 10
271.63831541182179
 20
121.02887743223469
 30
0.0
 40
0.3
 50
176.7166733541886
 51
180.0
  0
ARC
  5
C31
  8
L1
 10
271.53831541182183
 20
120.41011063768499
 30
0.0
 40
0.1999999999999879
 50
180.0
 51
267.00000000000131
  0
ARC
  5
C32
  8
L1
 10
271.13831541182179
 20
120.63052481099911
 30
0.0
 40
0.1999999999999957
 50
0.0
 51
87.000000000000327
  0
LINE
  5
CFA
  8
L1
 10
248.08943470307409
 20
295.71380165772229
 30
0.0
 11
246.34842281940431
 21
293.73587353512079
 31
0.0
  0
LINE
  5
CFB
  8
L1
 10
246.34842281940431
 20
279.62969346691631
 30
0.0
 11
246.34842281940431
 21
124.0172734750099
 31
0.0
  0
LINE
  5
CFC
  8
L1
 10
248.08943470307409
 20
122.0393453524084
 30
0.0
 11
271.1487826030704
 21
120.8308561372545
 31
0.0
  0
LINE
  5
CFD
  8
L1
 10
248.08943470307409
 20
122.0393453524084
 30
0.0
 11
246.34842281940431
 21
124.0172734750099
 31
0.0
  0
LINE
  5
CFE
  8
L1
 10
271.1588900106529
 20
134.9365064986732
 30
0.0
 11
248.0894347030742
 21
136.14552542061281
 31
0.0
  0
LINE
  5
CFF
  8
L1
 10
248.0894347030742
 20
136.14552542061281
 30
0.0
 11
246.34842281940431
 21
138.1234535432144
 31
0.0
  0
LINE
  5
D00
  8
L1
 10
248.08943470307409
 20
295.71380165772229
 30
0.0
 11
248.08943470307409
 21
122.0393453524084
 31
0.0
  0
LINE
  5
D01
  8
L2
 10
246.84842281940431
 20
279.88887763597461
 30
0.0
 11
246.84842281940431
 21
137.86426937415609
 31
0.0
  0
LINE
  5
D02
  8
L2
 10
246.84842281940431
 20
137.86426937415609
 30
0.0
 11
246.34842281940431
 21
137.86426937415609
 31
0.0
  0
LINE
  5
D03
  8
L2
 10
246.84842281940431
 20
279.88887763597461
 30
0.0
 11
246.34842281940431
 21
279.88887763597461
 31
0.0
  0
LINE
  5
D04
  8
L2
 10
657.06720612274262
 20
279.88887763597461
 30
0.0
 11
657.06720612274262
 21
137.86426937415609
 31
0.0
  0
LINE
  5
D05
  8
L2
 10
655.26720612274255
 20
278.45399568662879
 30
0.0
 11
655.26720612274255
 21
139.29915132350189
 31
0.0
  0
LINE
  5
D06
  8
L1
 10
655.82619423907272
 20
295.71380165772229
 30
0.0
 11
655.82619423907272
 21
122.0393453524084
 31
0.0
  0
LINE
  5
D07
  8
L1
 10
657.56720612274262
 20
279.62969346691631
 30
0.0
 11
657.56720612274262
 21
124.0172734750099
 31
0.0
  0
LINE
  5
D08
  8
L1
 10
657.56720612274262
 20
138.1234535432144
 30
0.0
 11
657.56720612274262
 21
293.73587353512079
 31
0.0
  0
POLYLINE
  5
D09
  8
L1
 66
     1
 10
0.0
 20
0.0
 30
0.0
  0
VERTEX
  5
1A1D
  8
L1
 10
606.68648615342704
 20
118.8647007604266
 30
0.0
  0
VERTEX
  5
1A1E
  8
L1
 10
606.68020248446726
 20
118.9350748080864
 30
0.0
  0
VERTEX
  5
1A1F
  8
L1
 10
606.67563011375523
 20
119.1372041961983
 30
0.0
  0
VERTEX
  5
1A20
  8
L1
 10
606.67293687000665
 20
119.4633484480145
 30
0.0
  0
VERTEX
  5
1A21
  8
L1
 10
606.67207907213924
 20
119.886860079127
 30
0.0
  0
VERTEX
  5
1A22
  8
L1
 10
606.67293687000665
 20
120.40016996730461
 30
0.0
  0
VERTEX
  5
1A23
  8
L1
 10
606.67563011375523
 20
121.0030168119597
 30
0.0
  0
VERTEX
  5
1A24
  8
L1
 10
606.68020248446726
 20
121.65800159575539
 30
0.0
  0
VERTEX
  5
1A25
  8
L1
 10
606.69659356100942
 20
298.88857492632218
 30
0.0
  0
SEQEND
  5
1A26
  8
L1
  0
LINE
  5
D0A
  8
L1
 10
632.56720612274262
 20
297.34273366279348
 30
0.0
 11
632.56720612274262
 21
134.73678059172229
 31
0.0
  0
LINE
  5
D0B
  8
L1
 10
605.96720612274237
 20
120.6265767810779
 30
0.0
 11
605.96720612274237
 21
298.16959760529022
 31
0.0
  0
LINE
  5
D0C
  8
L1
 10
604.89657166373831
 20
296.82678919820029
 30
0.0
 11
604.89657166373831
 21
120.92678919820079
 31
0.0
  0
LINE
  5
D0D
  8
L2
 10
605.96720612274237
 20
135.92657350506531
 30
0.0
 11
630.36720612274246
 21
136.56550999135351
 31
0.0
  0
LINE
  5
D0E
  8
L1
 10
606.68648615342704
 20
118.86426937415609
 30
0.0
 11
632.37767331399107
 21
120.21068744038629
 31
0.0
  0
LINE
  5
D0F
  8
L1
 10
632.75673893149406
 20
134.9365064986732
 30
0.0
 11
655.82619423907272
 21
136.14552542061281
 31
0.0
  0
LINE
  5
D10
  8
L1
 10
655.82619423907272
 20
122.0393453524084
 30
0.0
 11
632.76684633907644
 21
120.8308561372545
 31
0.0
  0
LINE
  5
D11
  8
L2
 10
653.94571005710691
 20
137.80120702136989
 30
0.0
 11
630.36720612274246
 21
136.56550999135339
 31
0.0
  0
LINE
  5
D12
  8
L1
 10
655.82619423907272
 20
122.0393453524084
 30
0.0
 11
657.56720612274262
 21
124.0172734750099
 31
0.0
  0
LINE
  5
D13
  8
L2
 10
657.06720612274262
 20
137.86426937415609
 30
0.0
 11
657.56720612274262
 21
137.86426937415609
 31
0.0
  0
LINE
  5
D14
  8
L1
 10
655.82619423907272
 20
136.14552542061281
 30
0.0
 11
657.56720612274262
 21
138.1234535432144
 31
0.0
  0
ARC
  5
D15
  8
L2
 10
653.76720612274255
 20
139.29915132350189
 30
0.0
 40
1.5
 50
273.00000000000011
 51
0.000000000000007
  0
LINE
  5
D16
  8
L1
 10
632.56720612274262
 20
120.4104133473372
 30
0.0
 11
632.56720612274262
 21
134.73678059172229
 31
0.0
  0
ARC
  5
D17
  8
L1
 10
632.77731353032505
 20
120.63052481099911
 30
0.0
 40
0.1999999999999957
 50
92.999999999999659
 51
180.0
  0
ARC
  5
D18
  8
L1
 10
632.37731353032495
 20
120.41011063768499
 30
0.0
 40
0.1999999999999879
 50
272.99999999999858
 51
0.000000000000007
  0
ARC
  5
D19
  8
L1
 10
632.27731353032505
 20
121.02887743223469
 30
0.0
 40
0.3
 50
0.000000000000007
 51
3.2833266458113251
  0
ARC
  5
D1A
  8
L1
 10
632.36720612274246
 20
120.4104133473372
 30
0.0
 40
0.2
 50
272.9999999999996
 51
0.000000000000007
  0
ARC
  5
D1B
  8
L1
 10
632.76720612274244
 20
134.73678059172229
 30
0.0
 40
0.2
 50
92.999999999999659
 51
180.0
  0
ARC
  5
D1C
  8
L1
 10
605.26742181587758
 20
120.92678919820079
 30
0.0
 40
0.3708501521392529
 50
180.0
 51
260.00000000000563
  0
LINE
  5
D1D
  8
L1
 10
605.2030243627712
 20
120.56157309316841
 30
0.0
 11
605.96423183931165
 21
120.4273516771373
 31
0.0
  0
LINE
  5
D1E
  8
L1
 10
605.96720612274237
 20
119.5835494048405
 30
0.0
 11
606.68648615342704
 21
118.86426937415609
 31
0.0
  0
LINE
  5
D1F
  8
L1
 10
605.96720612274237
 20
120.62657350506529
 30
0.0
 11
605.96720612274237
 21
119.5835494048405
 31
0.0
  0
LINE
  5
D20
  8
L6
 10
596.89635597060328
 20
208.87657350506529
 30
0.0
 11
665.56720612274262
 21
208.87657350506529
 31
0.0
  0
LINE
  5
D21
  8
L1
 10
632.38778072157345
 20
297.54215686009201
 30
0.0
 11
606.69659356100942
 21
298.88857492632218
 31
0.0
  0
LINE
  5
D22
  8
L2
 10
605.96720612274237
 20
281.82657350506543
 30
0.0
 11
630.36720612274246
 21
281.1876370187772
 31
0.0
  0
LINE
  5
D23
  8
L1
 10
655.82619423907272
 20
295.71380165772229
 30
0.0
 11
632.76684633907644
 21
296.9222908728762
 31
0.0
  0
LINE
  5
D24
  8
L2
 10
653.94571005710691
 20
279.95193998876073
 30
0.0
 11
630.36720612274246
 21
281.18763701877731
 31
0.0
  0
LINE
  5
D25
  8
L1
 10
632.75673893149406
 20
282.81664051145748
 30
0.0
 11
655.82619423907272
 21
281.60762158951792
 31
0.0
  0
LINE
  5
D26
  8
L2
 10
657.06720612274262
 20
279.88887763597461
 30
0.0
 11
657.56720612274262
 21
279.88887763597461
 31
0.0
  0
LINE
  5
D27
  8
L1
 10
655.82619423907272
 20
281.60762158951792
 30
0.0
 11
657.56720612274262
 21
279.62969346691631
 31
0.0
  0
ARC
  5
D28
  8
L2
 10
653.76720612274255
 20
278.45399568662879
 30
0.0
 40
1.5
 50
0.000000000000007
 51
86.999999999999844
  0
LINE
  5
D29
  8
L1
 10
655.82619423907272
 20
295.71380165772229
 30
0.0
 11
657.56720612274262
 21
293.73587353512079
 31
0.0
  0
ARC
  5
D2A
  8
L1
 10
632.76720612274244
 20
283.01636641840838
 30
0.0
 40
0.2
 50
180.0
 51
267.00000000000028
  0
ARC
  5
D2B
  8
L1
 10
632.37731353032495
 20
297.3424309531411
 30
0.0
 40
0.1999999999999879
 50
0.000000000000007
 51
87.000000000001364
  0
ARC
  5
D2C
  8
L1
 10
632.77731353032505
 20
297.12201677982699
 30
0.0
 40
0.1999999999999957
 50
180.0
 51
267.00000000000028
  0
ARC
  5
D2D
  8
L1
 10
632.27731353032505
 20
296.72366415859148
 30
0.0
 40
0.3
 50
356.71667335418869
 51
0.000000000000007
  0
ARC
  5
D2E
  8
L1
 10
632.36720612274246
 20
297.34273366279348
 30
0.0
 40
0.2
 50
0.000000000000007
 51
87.000000000000341
  0
LINE
  5
D2F
  8
L1
 10
605.96720612274237
 20
284.2265735050654
 30
0.0
 11
605.96720612274237
 21
294.52657350506541
 31
0.0
  0
LINE
  5
D30
  8
L1
 10
605.2030243627712
 20
297.1920053032328
 30
0.0
 11
605.96423183931165
 21
297.3262267192639
 31
0.0
  0
ARC
  5
D31
  8
L1
 10
605.26742181587758
 20
296.82678919820029
 30
0.0
 40
0.3708501521392529
 50
99.999999999994358
 51
180.0
  0
LINE
  5
D32
  8
L1
 10
605.96720612274237
 20
298.16959760529011
 30
0.0
 11
606.68648615342704
 21
298.8888776359745
 31
0.0
  0
LINE
  5
D33
  8
L1
 10
605.96720612274237
 20
297.12657350506532
 30
0.0
 11
605.96720612274237
 21
298.16959760529011
 31
0.0
  0
LINE
  5
D34
  8
L1
 10
364.00759877793843
 20
364.19051806175509
 30
0.0
 11
539.90759877793789
 21
364.19051806175509
 31
0.0
  0
LINE
  5
D35
  8
L1
 10
540.20781119506091
 20
365.26115252075931
 30
0.0
 11
362.66479037084861
 21
365.26115252075931
 31
0.0
  0
LINE
  5
D36
  8
L1
 10
363.49165431334518
 20
391.86115252075939
 30
0.0
 11
526.09760738441639
 21
391.86115252075939
 31
0.0
  0
POLYLINE
  5
D37
  8
L1
 66
     1
 10
0.0
 20
0.0
 30
0.0
  0
VERTEX
  5
1A27
  8
L1
 10
541.96968721571216
 20
365.98043255144381
 30
0.0
  0
VERTEX
  5
1A28
  8
L1
 10
541.89931316805234
 20
365.9741488824842
 30
0.0
  0
VERTEX
  5
1A29
  8
L1
 10
541.69718377994047
 20
365.969576511772
 30
0.0
  0
VERTEX
  5
1A2A
  8
L1
 10
541.37103952812424
 20
365.96688326802342
 30
0.0
  0
VERTEX
  5
1A2B
  8
L1
 10
540.94752789701181
 20
365.96602547015601
 30
0.0
  0
VERTEX
  5
1A2C
  8
L1
 10
540.43421800883414
 20
365.96688326802342
 30
0.0
  0
VERTEX
  5
1A2D
  8
L1
 10
539.83137116417913
 20
365.969576511772
 30
0.0
  0
VERTEX
  5
1A2E
  8
L1
 10
539.17638638038329
 20
365.9741488824842
 30
0.0
  0
VERTEX
  5
1A2F
  8
L1
 10
361.94581304981648
 20
365.99053995902619
 30
0.0
  0
SEQEND
  5
1A30
  8
L1
  0
LINE
  5
D38
  8
L1
 10
522.71093443292443
 20
416.86115252075939
 30
0.0
 11
367.09851444101793
 21
416.86115252075939
 31
0.0
  0
LINE
  5
D39
  8
L1
 10
381.20469450922241
 20
416.86115252075939
 30
0.0
 11
536.81711450112891
 21
416.86115252075939
 31
0.0
  0
LINE
  5
D3A
  8
L1
 10
365.12058631841649
 20
415.12014063708949
 30
0.0
 11
538.79504262373041
 21
415.12014063708949
 31
0.0
  0
LINE
  5
D3B
  8
L2
 10
382.38039228950998
 20
414.56115252075932
 30
0.0
 11
521.53523665263685
 21
414.56115252075932
 31
0.0
  0
LINE
  5
D3C
  8
L2
 10
380.94551034016422
 20
416.36115252075939
 30
0.0
 11
522.97011860198279
 21
416.36115252075939
 31
0.0
  0
LINE
  5
D3D
  8
L6
 10
451.95781447107339
 20
356.19030236862022
 30
0.0
 11
451.95781447107339
 21
424.86115252075939
 31
0.0
  0
LINE
  5
D3E
  8
L2
 10
523.0331809547688
 20
413.23965645512368
 30
0.0
 11
524.26887798478538
 21
389.66115252075929
 31
0.0
  0
LINE
  5
D3F
  8
L1
 10
538.79504262373041
 20
415.12014063708949
 30
0.0
 11
540.00353183888433
 21
392.06079273709321
 31
0.0
  0
LINE
  5
D40
  8
L1
 10
525.8978814774656
 20
392.05068532951083
 30
0.0
 11
524.68886255552604
 21
415.12014063708949
 31
0.0
  0
LINE
  5
D41
  8
L1
 10
541.97011860198256
 20
365.98043255144381
 30
0.0
 11
540.6237005357525
 21
391.67161971200801
 31
0.0
  0
LINE
  5
D42
  8
L2
 10
524.90781447107338
 20
365.26115252075931
 30
0.0
 11
524.26887798478515
 21
389.66115252075929
 31
0.0
  0
LINE
  5
D43
  8
L1
 10
540.27281488297035
 20
364.49697076078797
 30
0.0
 11
540.40703629900145
 21
365.25817823732848
 31
0.0
  0
ARC
  5
D44
  8
L1
 10
539.90759877793789
 20
364.56136821389453
 30
0.0
 40
0.3708501521392529
 50
270.0
 51
350.00000000000563
  0
LINE
  5
D45
  8
L1
 10
540.20781447107345
 20
365.26115252075931
 30
0.0
 11
541.25083857129823
 21
365.26115252075931
 31
0.0
  0
LINE
  5
D46
  8
L1
 10
541.25083857129823
 20
365.26115252075931
 30
0.0
 11
541.97011860198256
 21
365.98043255144381
 31
0.0
  0
LINE
  5
D47
  8
L1
 10
540.42397462880149
 20
391.86115252075939
 30
0.0
 11
526.09760738441639
 21
391.86115252075939
 31
0.0
  0
ARC
  5
D48
  8
L1
 10
540.42397462880149
 20
391.66115252075952
 30
0.0
 40
0.2
 50
2.9999999999996692
 51
90.000000000000028
  0
ARC
  5
D49
  8
L1
 10
539.80551054390401
 20
391.57125992834187
 30
0.0
 40
0.3
 50
90.000000000000028
 51
93.283326645811314
  0
ARC
  5
D4A
  8
L1
 10
540.42427733845375
 20
391.67125992834178
 30
0.0
 40
0.1999999999999879
 50
2.99999999999863
 51
90.000000000000028
  0
ARC
  5
D4B
  8
L1
 10
540.20386316513964
 20
392.07125992834187
 30
0.0
 40
0.1999999999999957
 50
182.9999999999996
 51
270.0
  0
ARC
  5
D4C
  8
L1
 10
526.09760738441639
 20
392.06115252075932
 30
0.0
 40
0.2
 50
182.9999999999996
 51
270.0
  0
LINE
  5
D4D
  8
L1
 10
538.79504262373041
 20
415.12014063708949
 30
0.0
 11
536.81711450112891
 21
416.86115252075939
 31
0.0
  0
ARC
  5
D4E
  8
L2
 10
521.53523665263685
 20
413.06115252075938
 30
0.0
 40
1.5
 50
3.0000000000001492
 51
90.000000000000028
  0
LINE
  5
D4F
  8
L1
 10
524.68886255552604
 20
415.12014063708949
 30
0.0
 11
522.71093443292443
 21
416.86115252075939
 31
0.0
  0
LINE
  5
D50
  8
L2
 10
522.97011860198279
 20
416.36115252075939
 30
0.0
 11
522.97011860198256
 21
416.86115252075939
 31
0.0
  0
LINE
  5
D51
  8
L1
 10
378.01774746468129
 20
392.05068532951083
 30
0.0
 11
379.2267663866208
 21
415.12014063708949
 31
0.0
  0
LINE
  5
D52
  8
L2
 10
380.8824479873781
 20
413.23965645512368
 30
0.0
 11
379.64675095736152
 21
389.66115252075929
 31
0.0
  0
LINE
  5
D53
  8
L1
 10
365.12058631841649
 20
415.12014063708949
 30
0.0
 11
363.91209710326251
 21
392.06079273709321
 31
0.0
  0
LINE
  5
D54
  8
L2
 10
379.00781447107329
 20
365.26115252075931
 30
0.0
 11
379.64675095736158
 21
389.66115252075929
 31
0.0
  0
LINE
  5
D55
  8
L1
 10
363.29223111604671
 20
391.68172711959028
 30
0.0
 11
361.94581304981648
 21
365.99053995902619
 31
0.0
  0
LINE
  5
D56
  8
L1
 10
376.6078144710732
 20
365.26115252075931
 30
0.0
 11
366.3078144710733
 21
365.26115252075931
 31
0.0
  0
LINE
  5
D57
  8
L1
 10
363.64238267290602
 20
364.49697076078797
 30
0.0
 11
363.50816125687493
 21
365.25817823732848
 31
0.0
  0
ARC
  5
D58
  8
L1
 10
364.00759877793848
 20
364.56136821389453
 30
0.0
 40
0.3708501521392529
 50
189.99999999999429
 51
270.0
  0
LINE
  5
D59
  8
L1
 10
363.70781447107339
 20
365.26115252075931
 30
0.0
 11
362.66479037084861
 21
365.26115252075931
 31
0.0
  0
LINE
  5
D5A
  8
L1
 10
362.66479037084861
 20
365.26115252075931
 30
0.0
 11
361.94551034016422
 21
365.98043255144381
 31
0.0
  0
ARC
  5
D5B
  8
L1
 10
377.81802155773028
 20
392.06115252075932
 30
0.0
 40
0.2
 50
270.0
 51
357.00000000000028
  0
ARC
  5
D5C
  8
L1
 10
363.49165431334529
 20
391.66115252075952
 30
0.0
 40
0.2
 50
90.000000000000028
 51
177.00000000000031
  0
ARC
  5
D5D
  8
L1
 10
364.1107238175473
 20
391.57125992834187
 30
0.0
 40
0.3
 50
86.716673354188714
 51
90.000000000000028
  0
ARC
  5
D5E
  8
L1
 10
363.71237119631178
 20
392.07125992834187
 30
0.0
 40
0.1999999999999957
 50
270.0
 51
357.00000000000028
  0
ARC
  5
D5F
  8
L1
 10
363.49195702299772
 20
391.67125992834178
 30
0.0
 40
0.1999999999999879
 50
90.000000000000028
 51
177.00000000000131
  0
ARC
  5
D60
  8
L2
 10
382.38039228950993
 20
413.06115252075938
 30
0.0
 40
1.5
 50
90.000000000000028
 51
176.9999999999998
  0
LINE
  5
D61
  8
L1
 10
379.2267663866208
 20
415.12014063708949
 30
0.0
 11
381.20469450922241
 21
416.86115252075939
 31
0.0
  0
LINE
  5
D62
  8
L2
 10
380.94551034016422
 20
416.36115252075939
 30
0.0
 11
380.94551034016422
 21
416.86115252075939
 31
0.0
  0
LINE
  5
D63
  8
L1
 10
365.12058631841649
 20
415.12014063708949
 30
0.0
 11
367.09851444101793
 21
416.86115252075939
 31
0.0
  0
POLYLINE
  5
D64
  8
L1
 66
     1
 10
0.0
 20
0.0
 30
0.0
  0
VERTEX
  5
1A31
  8
L1
 10
541.96968721571216
 20
51.772714458686892
 30
0.0
  0
VERTEX
  5
1A32
  8
L1
 10
541.89931316805234
 20
51.77899812764656
 30
0.0
  0
VERTEX
  5
1A33
  8
L1
 10
541.69718377994047
 20
51.783570498358699
 30
0.0
  0
VERTEX
  5
1A34
  8
L1
 10
541.37103952812424
 20
51.78626374210728
 30
0.0
  0
VERTEX
  5
1A35
  8
L1
 10
540.94752789701181
 20
51.787121539974692
 30
0.0
  0
VERTEX
  5
1A36
  8
L1
 10
540.43421800883414
 20
51.78626374210728
 30
0.0
  0
VERTEX
  5
1A37
  8
L1
 10
539.83137116417913
 20
51.783570498358699
 30
0.0
  0
VERTEX
  5
1A38
  8
L1
 10
539.17638638038329
 20
51.77899812764656
 30
0.0
  0
VERTEX
  5
1A39
  8
L1
 10
361.94581304981648
 20
51.762607051104503
 30
0.0
  0
SEQEND
  5
1A3A
  8
L1
  0
LINE
  5
D65
  8
L1
 10
541.97011860198256
 20
51.772714458686892
 30
0.0
 11
540.6237005357525
 21
26.081527298122751
 31
0.0
  0
LINE
  5
D66
  8
L1
 10
540.20781447107345
 20
52.49199448937145
 30
0.0
 11
541.25083857129823
 21
52.49199448937145
 31
0.0
  0
LINE
  5
D67
  8
L1
 10
364.00759877793843
 20
53.562628948375618
 30
0.0
 11
539.90759877793789
 21
53.562628948375618
 31
0.0
  0
LINE
  5
D68
  8
L1
 10
540.20781119506091
 20
52.49199448937145
 30
0.0
 11
362.66479037084861
 21
52.49199448937145
 31
0.0
  0
LINE
  5
D69
  8
L1
 10
363.49165431334518
 20
25.89199448937131
 30
0.0
 11
526.09760738441639
 21
25.89199448937131
 31
0.0
  0
LINE
  5
D6A
  8
L1
 10
522.71093443292443
 20
0.8919944893713137
 30
0.0
 11
367.09851444101793
 21
0.8919944893713137
 31
0.0
  0
LINE
  5
D6B
  8
L1
 10
381.20469450922241
 20
0.8919944893713137
 30
0.0
 11
536.81711450112891
 21
0.8919944893713137
 31
0.0
  0
LINE
  5
D6C
  8
L1
 10
365.12058631841649
 20
2.6330063730412121
 30
0.0
 11
538.79504262373041
 21
2.6330063730412121
 31
0.0
  0
LINE
  5
D6D
  8
L2
 10
382.38039228950998
 20
3.191994489371381
 30
0.0
 11
521.53523665263685
 21
3.191994489371381
 31
0.0
  0
LINE
  5
D6E
  8
L2
 10
380.94551034016422
 20
1.391994489371313
 30
0.0
 11
522.97011860198279
 21
1.391994489371313
 31
0.0
  0
LINE
  5
D6F
  8
L2
 10
380.8824479873781
 20
4.5134905550070243
 30
0.0
 11
379.64675095736152
 21
28.091994489371348
 31
0.0
  0
LINE
  5
D70
  8
L1
 10
378.01774746468129
 20
25.702461680619869
 30
0.0
 11
379.2267663866208
 21
2.6330063730412121
 31
0.0
  0
LINE
  5
D71
  8
L1
 10
365.12058631841649
 20
2.6330063730412121
 30
0.0
 11
363.91209710326251
 21
25.692354273037491
 31
0.0
  0
LINE
  5
D72
  8
L2
 10
379.00781447107329
 20
52.49199448937145
 30
0.0
 11
379.64675095736158
 21
28.091994489371348
 31
0.0
  0
LINE
  5
D73
  8
L1
 10
363.29223111604671
 20
26.071419890540369
 30
0.0
 11
361.94581304981648
 21
51.762607051104503
 31
0.0
  0
LINE
  5
D74
  8
L1
 10
376.6078144710732
 20
52.49199448937145
 30
0.0
 11
366.3078144710733
 21
52.49199448937145
 31
0.0
  0
LINE
  5
D75
  8
L1
 10
363.64238267290602
 20
53.25617624934273
 30
0.0
 11
363.50816125687493
 21
52.494968772802167
 31
0.0
  0
ARC
  5
D76
  8
L1
 10
364.00759877793848
 20
53.191778796236228
 30
0.0
 40
0.3708501521392529
 50
90.000000000000028
 51
170.0000000000056
  0
LINE
  5
D77
  8
L1
 10
363.70781447107339
 20
52.49199448937145
 30
0.0
 11
362.66479037084861
 21
52.49199448937145
 31
0.0
  0
LINE
  5
D78
  8
L1
 10
362.66479037084861
 20
52.49199448937145
 30
0.0
 11
361.94551034016422
 21
51.772714458686892
 31
0.0
  0
ARC
  5
D79
  8
L1
 10
363.49165431334529
 20
26.091994489371238
 30
0.0
 40
0.2
 50
182.9999999999996
 51
270.0
  0
ARC
  5
D7A
  8
L1
 10
363.49195702299772
 20
26.08188708178886
 30
0.0
 40
0.1999999999999879
 50
182.99999999999861
 51
270.0
  0
ARC
  5
D7B
  8
L1
 10
364.1107238175473
 20
26.181887081788769
 30
0.0
 40
0.3
 50
270.0
 51
273.28332664581131
  0
ARC
  5
D7C
  8
L1
 10
363.71237119631178
 20
25.681887081788769
 30
0.0
 40
0.1999999999999957
 50
2.999999999999674
 51
90.000000000000028
  0
ARC
  5
D7D
  8
L1
 10
377.81802155773028
 20
25.691994489371378
 30
0.0
 40
0.2
 50
2.999999999999674
 51
90.000000000000028
  0
LINE
  5
D7E
  8
L1
 10
365.12058631841649
 20
2.6330063730412121
 30
0.0
 11
367.09851444101793
 21
0.8919944893713137
 31
0.0
  0
ARC
  5
D7F
  8
L2
 10
382.38039228950993
 20
4.6919944893712682
 30
0.0
 40
1.5
 50
183.00000000000011
 51
270.0
  0
LINE
  5
D80
  8
L1
 10
379.2267663866208
 20
2.6330063730412121
 30
0.0
 11
381.20469450922241
 21
0.8919944893713137
 31
0.0
  0
LINE
  5
D81
  8
L2
 10
380.94551034016422
 20
1.391994489371313
 30
0.0
 11
380.94551034016422
 21
0.8919944893713137
 31
0.0
  0
LINE
  5
D82
  8
L2
 10
523.0331809547688
 20
4.5134905550070243
 30
0.0
 11
524.26887798478538
 21
28.091994489371348
 31
0.0
  0
LINE
  5
D83
  8
L6
 10
451.95781447107339
 20
61.56284464151053
 30
0.0
 11
451.95781447107339
 21
-7.1080055106286864
 31
0.0
  0
LINE
  5
D84
  8
L1
 10
538.79504262373041
 20
2.6330063730412121
 30
0.0
 11
540.00353183888433
 21
25.692354273037491
 31
0.0
  0
LINE
  5
D85
  8
L1
 10
525.8978814774656
 20
25.702461680619869
 30
0.0
 11
524.68886255552604
 21
2.6330063730412121
 31
0.0
  0
LINE
  5
D86
  8
L2
 10
524.90781447107338
 20
52.49199448937145
 30
0.0
 11
524.26887798478515
 21
28.091994489371348
 31
0.0
  0
LINE
  5
D87
  8
L1
 10
540.27281488297035
 20
53.25617624934273
 30
0.0
 11
540.40703629900145
 21
52.494968772802167
 31
0.0
  0
ARC
  5
D88
  8
L1
 10
539.90759877793789
 20
53.191778796236228
 30
0.0
 40
0.3708501521392529
 50
9.9999999999944063
 51
90.000000000000028
  0
LINE
  5
D89
  8
L1
 10
540.42397462880149
 20
25.89199448937131
 30
0.0
 11
526.09760738441639
 21
25.89199448937131
 31
0.0
  0
ARC
  5
D8A
  8
L1
 10
526.09760738441639
 20
25.691994489371378
 30
0.0
 40
0.2
 50
90.000000000000028
 51
177.00000000000031
  0
ARC
  5
D8B
  8
L1
 10
540.42397462880149
 20
26.091994489371238
 30
0.0
 40
0.2
 50
270.0
 51
357.00000000000028
  0
ARC
  5
D8C
  8
L1
 10
539.80551054390401
 20
26.181887081788769
 30
0.0
 40
0.3
 50
266.71667335418857
 51
270.0
  0
ARC
  5
D8D
  8
L1
 10
540.42427733845375
 20
26.08188708178886
 30
0.0
 40
0.1999999999999879
 50
270.0
 51
357.00000000000131
  0
ARC
  5
D8E
  8
L1
 10
540.20386316513964
 20
25.681887081788769
 30
0.0
 40
0.1999999999999957
 50
90.000000000000028
 51
177.00000000000031
  0
ARC
  5
D8F
  8
L2
 10
521.53523665263685
 20
4.6919944893712682
 30
0.0
 40
1.5
 50
270.0
 51
356.99999999999977
  0
LINE
  5
D90
  8
L1
 10
524.68886255552604
 20
2.6330063730412121
 30
0.0
 11
522.71093443292443
 21
0.8919944893713137
 31
0.0
  0
LINE
  5
D91
  8
L2
 10
522.97011860198279
 20
1.391994489371313
 30
0.0
 11
522.97011860198256
 21
0.8919944893713137
 31
0.0
  0
LINE
  5
D92
  8
L1
 10
538.79504262373041
 20
2.6330063730412121
 30
0.0
 11
536.81711450112891
 21
0.8919944893713137
 31
0.0
  0
LINE
  5
D93
  8
L1
 10
541.25083857129823
 20
52.49199448937145
 30
0.0
 11
541.97011860198256
 21
51.772714458686892
 31
0.0
  0
ENDSEC
  0
EOF
