  0
SECTION
  2
HEADER
  9
$ACADVER
  1
AC1009
  9
$INSBASE
 10
0.0
 20
0.0
 30
0.0
  9
$EXTMIN
 10
-13.60601947228067
 20
-42.961421660901628
 30
0.0
  9
$EXTMAX
 10
587.82901474925654
 20
327.04996671922862
 30
0.0
  9
$LIMMIN
 10
0.0
 20
0.0
  9
$LIMMAX
 10
571.84598788675544
 20
282.45921431323222
  9
$ORTHOMODE
 70
     1
  9
$REGENMODE
 70
     1
  9
$FILLMODE
 70
     1
  9
$QTEXTMODE
 70
     0
  9
$MIRRTEXT
 70
     1
  9
$DRAGMODE
 70
     2
  9
$LTSCALE
 40
15.0
  9
$OSMODE
 70
     5
  9
$ATTMODE
 70
     1
  9
$TEXTSIZE
 40
3.5
  9
$TRACEWID
 40
1.0
  9
$TEXTSTYLE
  7
SIMPLEX
  9
$CLAYER
  8
L1
  9
$CELTYPE
  6
BYLAYER
  9
$CECOLOR
 62
   256
  9
$DIMSCALE
 40
1.0
  9
$DIMASZ
 40
3.5
  9
$DIMEXO
 40
0.0625
  9
$DIMDLI
 40
0.38
  9
$DIMRND
 40
0.0
  9
$DIMDLE
 40
0.0
  9
$DIMEXE
 40
0.18
  9
$DIMTP
 40
0.0
  9
$DIMTM
 40
0.0
  9
$DIMTXT
 40
3.5
  9
$DIMCEN
 40
1.0
  9
$DIMTSZ
 40
0.0
  9
$DIMTOL
 70
     0
  9
$DIMLIM
 70
     0
  9
$DIMTIH
 70
     0
  9
$DIMTOH
 70
     0
  9
$DIMSE1
 70
     0
  9
$DIMSE2
 70
     0
  9
$DIMTAD
 70
     1
  9
$DIMZIN
 70
     8
  9
$DIMBLK
  1

  9
$DIMASO
 70
     1
  9
$DIMSHO
 70
     1
  9
$DIMPOST
  1

  9
$DIMAPOST
  1

  9
$DIMALT
 70
     0
  9
$DIMALTD
 70
     2
  9
$DIMALTF
 40
25.399999999999999
  9
$DIMLFAC
 40
1.0
  9
$DIMTOFL
 70
     0
  9
$DIMTVP
 40
0.0
  9
$DIMTIX
 70
     0
  9
$DIMSOXD
 70
     0
  9
$DIMSAH
 70
     0
  9
$DIMBLK1
  1

  9
$DIMBLK2
  1

  9
$DIMSTYLE
  2
FIBOX
  9
$DIMCLRD
 70
     1
  9
$DIMCLRE
 70
     1
  9
$DIMCLRT
 70
     3
  9
$DIMTFAC
 40
1.0
  9
$DIMGAP
 40
0.8
  9
$LUNITS
 70
     2
  9
$LUPREC
 70
     4
  9
$SKETCHINC
 40
1.0
  9
$FILLETRAD
 40
0.0
  9
$AUNITS
 70
     0
  9
$AUPREC
 70
     0
  9
$MENU
  1
.
  9
$ELEVATION
 40
0.0
  9
$PELEVATION
 40
0.0
  9
$THICKNESS
 40
0.0
  9
$LIMCHECK
 70
     0
  9
$BLIPMODE
 70
     0
  9
$CHAMFERA
 40
10.0
  9
$CHAMFERB
 40
10.0
  9
$SKPOLY
 70
     0
  9
$TDCREATE
 40
2450458.5830949759
  9
$TDUPDATE
 40
2452502.5302991662
  9
$TDINDWG
 40
0.6979522454
  9
$TDUSRTIMER
 40
0.6979522454
  9
$USRTIMER
 70
     1
  9
$ANGBASE
 50
0.0
  9
$ANGDIR
 70
     0
  9
$PDMODE
 70
     0
  9
$PDSIZE
 40
0.0
  9
$PLINEWID
 40
0.0
  9
$COORDS
 70
     2
  9
$SPLFRAME
 70
     0
  9
$SPLINETYPE
 70
     6
  9
$SPLINESEGS
 70
     8
  9
$ATTDIA
 70
     0
  9
$ATTREQ
 70
     1
  9
$HANDLING
 70
 22529
  9
$HANDSEED
  5
2246
  9
$SURFTAB1
 70
     6
  9
$SURFTAB2
 70
     6
  9
$SURFTYPE
 70
     6
  9
$SURFU
 70
     6
  9
$SURFV
 70
     6
  9
$UCSNAME
  2

  9
$UCSORG
 10
0.0
 20
0.0
 30
0.0
  9
$UCSXDIR
 10
1.0
 20
0.0
 30
0.0
  9
$UCSYDIR
 10
0.0
 20
1.0
 30
0.0
  9
$PUCSNAME
  2

  9
$PUCSORG
 10
0.0
 20
0.0
 30
0.0
  9
$PUCSXDIR
 10
1.0
 20
0.0
 30
0.0
  9
$PUCSYDIR
 10
0.0
 20
1.0
 30
0.0
  9
$USERI1
 70
     0
  9
$USERI2
 70
     0
  9
$USERI3
 70
     0
  9
$USERI4
 70
     0
  9
$USERI5
 70
     0
  9
$USERR1
 40
0.0
  9
$USERR2
 40
0.0
  9
$USERR3
 40
0.0
  9
$USERR4
 40
0.0
  9
$USERR5
 40
0.0
  9
$WORLDVIEW
 70
     1
  9
$SHADEDGE
 70
     3
  9
$SHADEDIF
 70
    70
  9
$TILEMODE
 70
     1
  9
$MAXACTVP
 70
    16
  9
$PLIMCHECK
 70
     0
  9
$PEXTMIN
 10
-563.59530269305765
 20
-0.2105770487715972
 30
0.0
  9
$PEXTMAX
 10
30.404697306942349
 20
419.7894229512284
 30
0.0
  9
$PLIMMIN
 10
0.0
 20
0.0
  9
$PLIMMAX
 10
420.0
 20
297.0
  9
$UNITMODE
 70
     0
  9
$VISRETAIN
 70
     0
  9
$PLINEGEN
 70
     0
  9
$PSLTSCALE
 70
     1
  0
ENDSEC
  0
SECTION
  2
TABLES
  0
TABLE
  2
VPORT
 70
     2
  0
VPORT
  2
*ACTIVE
 70
     0
 10
0.0
 20
0.0
 11
1.0
 21
1.0
 12
528.3026936103679
 22
-29.451339062370259
 13
0.0
 23
0.0
 14
10.0
 24
10.0
 15
10.0
 25
10.0
 16
0.0
 26
0.0
 36
1.0
 17
-241.20173189795719
 27
171.50037569982149
 37
-221.07012254811389
 40
397.49673432071683
 41
1.5205479452054791
 42
50.0
 43
0.0
 44
0.0
 50
0.0
 51
0.0
 71
     0
 72
   500
 73
     1
 74
     1
 75
     0
 76
     0
 77
     0
 78
     0
  0
ENDTAB
  0
TABLE
  2
LTYPE
 70
     3
  0
LTYPE
  2
CONTINUOUS
 70
     0
  3
Solid line
 72
    65
 73
     0
 40
0.0
  0
LTYPE
  2
HIDDEN
 70
     0
  3
__ __ __ __ __ __ __ __ __ __ __ __ __ __ __ __
 72
    65
 73
     2
 40
0.375
 49
0.25
 49
-0.125
  0
LTYPE
  2
CENTER
 70
     0
  3
____ _ ____ _ ____ _ ____ _ ____ _ ____ _ ____ 
 72
    65
 73
     4
 40
2.0
 49
1.25
 49
-0.25
 49
0.25
 49
-0.25
  0
ENDTAB
  0
TABLE
  2
LAYER
 70
     5
  0
LAYER
  2
0
 70
     0
 62
     7
  6
CONTINUOUS
  0
LAYER
  2
L2
 70
     0
 62
     1
  6
HIDDEN
  0
LAYER
  2
L1
 70
     0
 62
     7
  6
CONTINUOUS
  0
LAYER
  2
L6
 70
     0
 62
     1
  6
CENTER
  0
LAYER
  2
DEFPOINTS
 70
     0
 62
     7
  6
CONTINUOUS
  0
ENDTAB
  0
TABLE
  2
STYLE
 70
     2
  0
STYLE
  2
STANDARD
 70
     0
 40
0.0
 41
1.0
 50
0.0
 71
     0
 42
2.5
  3
ISOCP
  4

  0
STYLE
  2
SIMPLEX
 70
     0
 40
0.0
 41
0.8
 50
0.0
 71
     0
 42
3.5
  3
simplex.shx
  4

  0
ENDTAB
  0
TABLE
  2
VIEW
 70
     0
  0
ENDTAB
  0
TABLE
  2
UCS
 70
     0
  0
ENDTAB
  0
TABLE
  2
APPID
 70
     1
  0
APPID
  2
ACAD
 70
     0
  0
ENDTAB
  0
TABLE
  2
DIMSTYLE
 70
     1
  0
DIMSTYLE
  2
FIBOX
 70
     0
  3

  4

  5

  6

  7

 40
1.0
 41
3.5
 42
0.0625
 43
0.38
 44
0.18
 45
0.0
 46
0.0
 47
0.0
 48
0.0
140
3.5
141
1.0
142
0.0
143
25.399999999999999
144
1.0
145
0.0
146
1.0
147
0.8
 71
     0
 72
     0
 73
     0
 74
     0
 75
     0
 76
     0
 77
     1
 78
     8
170
     0
171
     2
172
     0
173
     0
174
     0
175
     0
176
     1
177
     1
178
     3
  0
ENDTAB
  0
ENDSEC
  0
SECTION
  2
BLOCKS
  0
BLOCK
  8
0
  2
$MODEL_SPACE
 70
     0
 10
0.0
 20
0.0
 30
0.0
  3
$MODEL_SPACE
  1

  0
ENDBLK
  5
6
  8
0
  0
BLOCK
 67
     1
  8
0
  2
$PAPER_SPACE
 70
     0
 10
0.0
 20
0.0
 30
0.0
  3
$PAPER_SPACE
  1

  0
ENDBLK
  5
9
 67
     1
  8
0
  0
ENDSEC
  0
SECTION
  2
ENTITIES
  0
LINE
  5
16DA
  8
L1
 10
-1.8372974623309231
 20
213.49507139766331
 30
0.0
 11
-1.8372974623309231
 21
142.04427252916361
 31
0.0
  0
LINE
  5
16DB
  8
L1
 10
-3.137297462330991
 20
214.1945573851267
 30
0.0
 11
-3.1372974623309058
 21
142.04427252916349
 31
0.0
  0
LINE
  5
16DC
  8
L1
 10
-4.6372974623309906
 20
228.5425573851266
 30
0.0
 11
-4.6372974623309906
 21
142.04427252916349
 31
0.0
  0
LINE
  5
16DD
  8
L1
 10
-3.8771358446118138
 20
142.04427252916349
 30
0.0
 11
-3.8771358446118138
 21
228.5425573851266
 31
0.0
  0
LINE
  5
16DE
  8
L6
 10
85.362702537668994
 20
236.18199183638171
 30
0.0
 11
85.362702537668994
 21
29.047981675808551
 31
0.0
  0
LINE
  5
1731
  8
L1
 10
13.92235014285148
 20
229.2445573851266
 30
0.0
 11
85.362702537668994
 21
229.2445573851266
 31
0.0
  0
LINE
  5
1732
  8
L1
 10
13.2228641553882
 20
230.54455738512661
 30
0.0
 11
85.362702537668994
 21
230.54455738512661
 31
0.0
  0
LINE
  5
1733
  8
L6
 10
-13.60601947228067
 20
142.04427252916349
 30
0.0
 11
188.37396396648359
 21
142.04427252916349
 31
0.0
  0
LINE
  5
1734
  8
L1
 10
85.362702537669023
 20
231.24455738512651
 30
0.0
 11
-1.175135844611759
 21
231.24455738512651
 31
0.0
  0
LINE
  5
1735
  8
L1
 10
-1.1751358446118161
 20
232.04427252916349
 30
0.0
 11
85.362702537668994
 21
232.0444390287775
 31
0.0
  0
POLYLINE
  5
1736
  8
L1
 66
     1
 10
0.0
 20
0.0
 30
0.0
  0
VERTEX
  5
1DC1
  8
L1
 10
13.92235014285148
 20
229.2445573851266
 30
0.0
  0
VERTEX
  5
1DC2
  8
L1
 10
13.741569192513159
 20
229.23362647872631
 30
0.0
  0
VERTEX
  5
1DC3
  8
L1
 10
13.56343711925177
 20
229.20099301788591
 30
0.0
  0
VERTEX
  5
1DC4
  8
L1
 10
13.39054922677604
 20
229.14713245736431
 30
0.0
  0
VERTEX
  5
1DC5
  8
L1
 10
13.225424413453821
 20
229.0728295211583
 30
0.0
  0
VERTEX
  5
1DC6
  8
L1
 10
13.070468473102149
 20
228.9791667694291
 30
0.0
  0
VERTEX
  5
1DC7
  8
L1
 10
12.927939043659929
 20
228.86750882609019
 30
0.0
  0
VERTEX
  5
1DC8
  8
L1
 10
12.79991271442457
 20
228.73948249685481
 30
0.0
  0
VERTEX
  5
1DC9
  8
L1
 10
12.68825477108561
 20
228.59695306741261
 30
0.0
  0
VERTEX
  5
1DCA
  8
L1
 10
12.59459201935641
 20
228.44199712706089
 30
0.0
  0
VERTEX
  5
1DCB
  8
L1
 10
12.520289083150431
 20
228.27687231373869
 30
0.0
  0
VERTEX
  5
1DCC
  8
L1
 10
12.466428522628741
 20
228.10398442126299
 30
0.0
  0
VERTEX
  5
1DCD
  8
L1
 10
12.43379506178843
 20
227.9258523480016
 30
0.0
  0
VERTEX
  5
1DCE
  8
L1
 10
12.42286415538814
 20
227.74507139766331
 30
0.0
  0
SEQEND
  5
1DCF
  8
L1
  0
ARC
  5
1737
  8
L1
 10
13.2228641553882
 20
227.24455738512651
 30
0.0
 40
3.3000000000000149
 50
90.0
 51
131.40989698076501
  0
ARC
  5
1738
  8
L1
 10
3.6228641553881848
 20
223.79455738512669
 30
0.0
 40
8.8000000000000114
 50
322.71452609940189
 51
0.0
  0
ARC
  5
1739
  8
L1
 10
3.6228641553881848
 20
223.79455738512661
 30
0.0
 40
5.0261806033722758
 50
267.26858442957098
 51
2.7314155704273362
  0
LINE
  5
173A
  8
L1
 10
-2.8372974623310361
 20
227.6445573851266
 30
0.0
 11
-2.8372974623310361
 21
216.575720612466
 31
0.0
  0
LINE
  5
173B
  8
L1
 10
3.373237077921373
 20
218.7745693174528
 30
0.0
 11
-1.3971239122857351
 21
223.54493030765991
 31
0.0
  0
ARC
  5
173C
  8
L1
 10
3.6228641553881848
 20
223.79455738512661
 30
0.0
 40
6.3000000000000487
 50
270.0
 51
0.0
  0
LINE
  5
173D
  8
L1
 10
3.6228641553881848
 20
217.4945573851266
 30
0.0
 11
1.1228641553881851
 21
217.4945573851266
 31
0.0
  0
LINE
  5
173E
  8
L1
 10
3.6228641553881848
 20
214.99455738512671
 30
0.0
 11
-0.3378114748675784
 21
214.99455738512671
 31
0.0
  0
ARC
  5
173F
  8
L1
 10
0.162702537668963
 20
214.1945573851267
 30
0.0
 40
3.2999999999999439
 50
138.5901030192355
 51
180.0
  0
POLYLINE
  5
1740
  8
L1
 66
     1
 10
0.0
 20
0.0
 30
0.0
  0
VERTEX
  5
1DD0
  8
L1
 10
-0.3378114748675784
 20
214.9945573851266
 30
0.0
  0
VERTEX
  5
1DD1
  8
L1
 10
-0.5185924252058954
 20
214.98362647872639
 30
0.0
  0
VERTEX
  5
1DD2
  8
L1
 10
-0.696724498467404
 20
214.95099301788591
 30
0.0
  0
VERTEX
  5
1DD3
  8
L1
 10
-0.8696123909431321
 20
214.89713245736431
 30
0.0
  0
VERTEX
  5
1DD4
  8
L1
 10
-1.0347372042652401
 20
214.82282952115841
 30
0.0
  0
VERTEX
  5
1DD5
  8
L1
 10
-1.1896931446169099
 20
214.7291667694291
 30
0.0
  0
VERTEX
  5
1DD6
  8
L1
 10
-1.33222257405913
 20
214.61750882609019
 30
0.0
  0
VERTEX
  5
1DD7
  8
L1
 10
-1.460248903294598
 20
214.48948249685481
 30
0.0
  0
VERTEX
  5
1DD8
  8
L1
 10
-1.571906846633339
 20
214.34695306741261
 30
0.0
  0
VERTEX
  5
1DD9
  8
L1
 10
-1.665569598362765
 20
214.19199712706089
 30
0.0
  0
VERTEX
  5
1DDA
  8
L1
 10
-1.739872534568633
 20
214.02687231373881
 30
0.0
  0
VERTEX
  5
1DDB
  8
L1
 10
-1.7937330950902031
 20
213.85398442126311
 30
0.0
  0
VERTEX
  5
1DDC
  8
L1
 10
-1.826366555930746
 20
213.6758523480016
 30
0.0
  0
VERTEX
  5
1DDD
  8
L1
 10
-1.8372974623310361
 20
213.49507139766331
 30
0.0
  0
SEQEND
  5
1DDE
  8
L1
  0
POLYLINE
  5
1741
  8
L1
 66
     1
 10
0.0
 20
0.0
 30
0.0
  0
VERTEX
  5
1DDF
  8
L1
 10
-2.8372974623310361
 20
216.575720612466
 30
0.0
  0
VERTEX
  5
1DE0
  8
L1
 10
-2.8372258401345221
 20
216.56916541009389
 30
0.0
  0
VERTEX
  5
1DE1
  8
L1
 10
-2.8351030617388342
 20
216.53950108604391
 30
0.0
  0
VERTEX
  5
1DE2
  8
L1
 10
-2.8300693707736282
 20
216.5102629800945
 30
0.0
  0
VERTEX
  5
1DE3
  8
L1
 10
-2.82217252664526
 20
216.48166501890719
 30
0.0
  0
VERTEX
  5
1DE4
  8
L1
 10
-2.811460288758723
 20
216.45392112914439
 30
0.0
  0
VERTEX
  5
1DE5
  8
L1
 10
-2.7980821926880131
 20
216.42742476321581
 30
0.0
  0
VERTEX
  5
1DE6
  8
L1
 10
-2.7821924371145879
 20
216.40243867353871
 30
0.0
  0
VERTEX
  5
1DE7
  8
L1
 10
-2.7639168734411319
 20
216.3791407734077
 30
0.0
  0
VERTEX
  5
1DE8
  8
L1
 10
-2.7433813530709008
 20
216.35770897611741
 30
0.0
  0
VERTEX
  5
1DE9
  8
L1
 10
-2.723227230005306
 20
216.34028638203321
 30
0.0
  0
VERTEX
  5
1DEA
  8
L1
 10
-2.7016502487823
 20
216.3247490851646
 30
0.0
  0
VERTEX
  5
1DEB
  8
L1
 10
-2.6787822385595632
 20
216.31118339111401
 30
0.0
  0
VERTEX
  5
1DEC
  8
L1
 10
-2.6547550284940931
 20
216.29967560548411
 30
0.0
  0
VERTEX
  5
1DED
  8
L1
 10
-2.63327244692465
 20
216.29149324117239
 30
0.0
  0
VERTEX
  5
1DEE
  8
L1
 10
-2.6112588061666311
 20
216.28498816650119
 30
0.0
  0
VERTEX
  5
1DEF
  8
L1
 10
-2.5888122196740251
 20
216.28018530732089
 30
0.0
  0
VERTEX
  5
1DF0
  8
L1
 10
-2.566030800900136
 20
216.27710958948251
 30
0.0
  0
VERTEX
  5
1DF1
  8
L1
 10
-2.5446718809121762
 20
216.2758221312657
 30
0.0
  0
VERTEX
  5
1DF2
  8
L1
 10
-2.5233024938846138
 20
216.27605912636051
 30
0.0
  0
VERTEX
  5
1DF3
  8
L1
 10
-2.5020041850291932
 20
216.27781673545479
 30
0.0
  0
VERTEX
  5
1DF4
  8
L1
 10
-2.4808584995579959
 20
216.28109111923641
 30
0.0
  0
VERTEX
  5
1DF5
  8
L1
 10
-2.4574027313938691
 20
216.28656952916521
 30
0.0
  0
VERTEX
  5
1DF6
  8
L1
 10
-2.4344981150516669
 20
216.29389869077951
 30
0.0
  0
VERTEX
  5
1DF7
  8
L1
 10
-2.412254031368831
 20
216.30303867024821
 30
0.0
  0
VERTEX
  5
1DF8
  8
L1
 10
-2.3907798611828071
 20
216.3139495337405
 30
0.0
  0
VERTEX
  5
1DF9
  8
L1
 10
-2.3691776887857818
 20
216.32727006214901
 30
0.0
  0
VERTEX
  5
1DFA
  8
L1
 10
-2.3488260390193432
 20
216.34233012040431
 30
0.0
  0
VERTEX
  5
1DFB
  8
L1
 10
-2.3298280827328308
 20
216.35904102447401
 30
0.0
  0
VERTEX
  5
1DFC
  8
L1
 10
-2.312286990775021
 20
216.37731409032591
 30
0.0
  0
SEQEND
  5
1DFD
  8
L1
  0
LINE
  5
1742
  8
L1
 10
1.1228641553881851
 20
217.4945573851266
 30
0.0
 11
0.162702537668963
 21
217.4945573851266
 31
0.0
  0
ARC
  5
1743
  8
L1
 10
0.162702537668963
 20
214.1945573851267
 30
0.0
 40
3.2999999999999439
 50
90.0
 51
138.5901030192355
  0
LINE
  5
1744
  8
L1
 10
11.52848836081642
 20
216.5961971013941
 30
0.0
 11
10.821224439120609
 21
215.8889331796982
 31
0.0
  0
ARC
  5
1745
  8
L1
 10
3.6228641553881848
 20
223.79455738512669
 30
0.0
 40
8.8000000000000114
 50
270.0
 51
307.28547390059731
  0
LINE
  5
1746
  8
L1
 10
10.41627154181122
 20
215.8712525543682
 30
0.0
 11
9.3283602331632096
 21
216.7841185322084
 31
0.0
  0
POLYLINE
  5
1747
  8
L1
 66
     1
 10
0.0
 20
0.0
 30
0.0
  0
VERTEX
  5
1DFE
  8
L1
 10
10.41627154181122
 20
215.87125255436811
 30
0.0
  0
VERTEX
  5
1DFF
  8
L1
 10
10.49188640033111
 20
215.82491523509361
 30
0.0
  0
VERTEX
  5
1E00
  8
L1
 10
10.57774358001501
 20
215.80271054309961
 30
0.0
  0
VERTEX
  5
1E01
  8
L1
 10
10.666340680673271
 20
215.80657877605341
 30
0.0
  0
VERTEX
  5
1E02
  8
L1
 10
10.749935881444401
 20
215.8361819187561
 30
0.0
  0
VERTEX
  5
1E03
  8
L1
 10
10.821224439120501
 20
215.8889331796982
 30
0.0
  0
SEQEND
  5
1E04
  8
L1
  0
LINE
  5
1748
  8
L1
 10
3.383345840976915
 20
218.7740870451309
 30
0.0
 11
3.373237077921373
 21
218.7745693174528
 31
0.0
  0
POLYLINE
  5
1749
  8
L1
 66
     1
 10
0.0
 20
0.0
 30
0.0
  0
VERTEX
  5
1E05
  8
L1
 10
10.62438255155956
 20
218.46363437423321
 30
0.0
  0
VERTEX
  5
1E06
  8
L1
 10
10.6114368675515
 20
218.44523929240179
 30
0.0
  0
VERTEX
  5
1E07
  8
L1
 10
10.59988127251296
 20
218.42587976533139
 30
0.0
  0
VERTEX
  5
1E08
  8
L1
 10
10.58744576506313
 20
218.40034261066231
 30
0.0
  0
VERTEX
  5
1E09
  8
L1
 10
10.577501260065841
 20
218.3738034483996
 30
0.0
  0
VERTEX
  5
1E0A
  8
L1
 10
10.57010613603569
 20
218.3464440913512
 30
0.0
  0
VERTEX
  5
1E0B
  8
L1
 10
10.56531877148705
 20
218.3184463523246
 30
0.0
  0
VERTEX
  5
1E0C
  8
L1
 10
10.56317720226269
 20
218.28918347150579
 30
0.0
  0
VERTEX
  5
1E0D
  8
L1
 10
10.56389968839181
 20
218.25992035041889
 30
0.0
  0
VERTEX
  5
1E0E
  8
L1
 10
10.56747052578379
 20
218.23086684205489
 30
0.0
  0
VERTEX
  5
1E0F
  8
L1
 10
10.573874010348099
 20
218.2022327994047
 30
0.0
  0
VERTEX
  5
1E10
  8
L1
 10
10.58317791224129
 20
218.17401217972349
 30
0.0
  0
VERTEX
  5
1E11
  8
L1
 10
10.59519494399245
 20
218.14691405574209
 30
0.0
  0
VERTEX
  5
1E12
  8
L1
 10
10.609826532629929
 20
218.12113345998691
 30
0.0
  0
VERTEX
  5
1E13
  8
L1
 10
10.62697410518177
 20
218.0968654249844
 30
0.0
  0
VERTEX
  5
1E14
  8
L1
 10
10.63330300830631
 20
218.0890613073515
 30
0.0
  0
SEQEND
  5
1E15
  8
L1
  0
POLYLINE
  5
174A
  8
L1
 66
     1
 10
0.0
 20
0.0
 30
0.0
  0
VERTEX
  5
1E16
  8
L1
 10
11.52848836081642
 20
216.5961971013941
 30
0.0
  0
VERTEX
  5
1E17
  8
L1
 10
11.581239621758581
 20
216.66748565907019
 30
0.0
  0
VERTEX
  5
1E18
  8
L1
 10
11.610842764461211
 20
216.75108085984141
 30
0.0
  0
VERTEX
  5
1E19
  8
L1
 10
11.614710997414869
 20
216.83967796049961
 30
0.0
  0
VERTEX
  5
1E1A
  8
L1
 10
11.592506305421059
 20
216.9255351401836
 30
0.0
  0
VERTEX
  5
1E1B
  8
L1
 10
11.54616898614648
 20
217.0011499987034
 30
0.0
  0
SEQEND
  5
1E1C
  8
L1
  0
POLYLINE
  5
174B
  8
L1
 66
     1
 10
0.0
 20
0.0
 30
0.0
  0
VERTEX
  5
1E1D
  8
L1
 10
9.3283602331632096
 20
216.78411853220831
 30
0.0
  0
VERTEX
  5
1E1E
  8
L1
 10
9.2969664251899644
 20
216.8071631677015
 30
0.0
  0
VERTEX
  5
1E1F
  8
L1
 10
9.2627931216292723
 20
216.82597720190321
 30
0.0
  0
VERTEX
  5
1E20
  8
L1
 10
9.2413035855204821
 20
216.83504649822331
 30
0.0
  0
VERTEX
  5
1E21
  8
L1
 10
9.2192081145424822
 20
216.8424095801625
 30
0.0
  0
VERTEX
  5
1E22
  8
L1
 10
9.1966081731182499
 20
216.8480368127079
 30
0.0
  0
VERTEX
  5
1E23
  8
L1
 10
9.1736052256704284
 20
216.85189856084671
 30
0.0
  0
VERTEX
  5
1E24
  8
L1
 10
9.1518788015388832
 20
216.85388285630651
 30
0.0
  0
VERTEX
  5
1E25
  8
L1
 10
9.1300942861820982
 20
216.85428341604089
 30
0.0
  0
VERTEX
  5
1E26
  8
L1
 10
9.1083381830028998
 20
216.8531016929845
 30
0.0
  0
VERTEX
  5
1E27
  8
L1
 10
9.0866969954039973
 20
216.8503391400717
 30
0.0
  0
VERTEX
  5
1E28
  8
L1
 10
9.0634456357250315
 20
216.84555496838229
 30
0.0
  0
VERTEX
  5
1E29
  8
L1
 10
9.0406804925170832
 20
216.83895857161821
 30
0.0
  0
VERTEX
  5
1E2A
  8
L1
 10
9.0185073390044295
 20
216.83058512063749
 30
0.0
  0
VERTEX
  5
1E2B
  8
L1
 10
8.997031948410779
 20
216.8204697862985
 30
0.0
  0
VERTEX
  5
1E2C
  8
L1
 10
8.9747977317049958
 20
216.80766314898639
 30
0.0
  0
VERTEX
  5
1E2D
  8
L1
 10
8.9537871662814155
 20
216.79303898895509
 30
0.0
  0
SEQEND
  5
1E2E
  8
L1
  0
LINE
  5
174C
  8
L1
 10
10.63330300830631
 20
218.0890613073515
 30
0.0
 11
11.54616898614648
 21
217.00114999870351
 31
0.0
  0
ARC
  5
174D
  8
L1
 10
3.6228641553881848
 20
223.79455738512661
 30
0.0
 40
5.0261806033722758
 50
87.268584429572698
 51
182.73141557042729
  0
LINE
  5
174E
  8
L1
 10
10.841700928048731
 20
230.2445573851266
 30
0.0
 11
-0.2372974623310142
 21
230.2445573851266
 31
0.0
  0
LINE
  5
174F
  8
L1
 10
-1.3971239122857351
 20
223.5449303076598
 30
0.0
 11
-1.397606184607695
 21
223.5550390707154
 31
0.0
  0
POLYLINE
  5
1750
  8
L1
 66
     1
 10
0.0
 20
0.0
 30
0.0
  0
VERTEX
  5
1E2F
  8
L1
 10
-1.1751358446118161
 20
232.04427252916349
 30
0.0
  0
VERTEX
  5
1E30
  8
L1
 10
-1.340539802400087
 20
232.03823374902541
 30
0.0
  0
VERTEX
  5
1E31
  8
L1
 10
-1.5078553533872421
 20
232.0241650095187
 30
0.0
  0
VERTEX
  5
1E32
  8
L1
 10
-1.6762676488082771
 20
232.0018662757922
 30
0.0
  0
VERTEX
  5
1E33
  8
L1
 10
-1.8449618398984171
 20
231.97113751299571
 30
0.0
  0
VERTEX
  5
1E34
  8
L1
 10
-2.013135654121299
 20
231.93183926871239
 30
0.0
  0
VERTEX
  5
1E35
  8
L1
 10
-2.180034281092559
 20
231.8840607174358
 30
0.0
  0
VERTEX
  5
1E36
  8
L1
 10
-2.3449140652731439
 20
231.82794476468041
 30
0.0
  0
VERTEX
  5
1E37
  8
L1
 10
-2.50703135112468
 20
231.7636343159605
 30
0.0
  0
VERTEX
  5
1E38
  8
L1
 10
-2.6657262371421089
 20
231.69129391437269
 30
0.0
  0
VERTEX
  5
1E39
  8
L1
 10
-2.8204214744126261
 20
231.61128232987301
 30
0.0
  0
VERTEX
  5
1E3A
  8
L1
 10
-2.970497386284876
 20
231.5240338082651
 30
0.0
  0
VERTEX
  5
1E3B
  8
L1
 10
-3.1153342961079602
 20
231.4299825953529
 30
0.0
  0
VERTEX
  5
1E3C
  8
L1
 10
-3.2543435485005712
 20
231.32960821858509
 30
0.0
  0
VERTEX
  5
1E3D
  8
L1
 10
-3.3870686860208821
 20
231.2235831634998
 30
0.0
  0
VERTEX
  5
1E3E
  8
L1
 10
-3.5130883289269259
 20
231.11263111303509
 30
0.0
  0
VERTEX
  5
1E3F
  8
L1
 10
-3.6319810974760571
 20
230.9974757501291
 30
0.0
  0
VERTEX
  5
1E40
  8
L1
 10
-3.7444843361220701
 20
230.87764174918399
 30
0.0
  0
VERTEX
  5
1E41
  8
L1
 10
-3.8527521198371342
 20
230.75081723131649
 30
0.0
  0
VERTEX
  5
1E42
  8
L1
 10
-3.9560691696146359
 20
230.6174284103551
 30
0.0
  0
VERTEX
  5
1E43
  8
L1
 10
-4.053720206447962
 20
230.4779015001281
 30
0.0
  0
VERTEX
  5
1E44
  8
L1
 10
-4.1450411103929241
 20
230.33269668537409
 30
0.0
  0
VERTEX
  5
1E45
  8
L1
 10
-4.2295611409629714
 20
230.1824025557022
 30
0.0
  0
VERTEX
  5
1E46
  8
L1
 10
-4.3068550883369312
 20
230.0276379322458
 30
0.0
  0
VERTEX
  5
1E47
  8
L1
 10
-4.37649774269397
 20
229.86902163613891
 30
0.0
  0
VERTEX
  5
1E48
  8
L1
 10
-4.4381382490035426
 20
229.70712947299049
 30
0.0
  0
VERTEX
  5
1E49
  8
L1
 10
-4.4916201675642347
 20
229.54261692957019
 30
0.0
  0
VERTEX
  5
1E4A
  8
L1
 10
-4.536809911548346
 20
229.3762223487517
 30
0.0
  0
VERTEX
  5
1E4B
  8
L1
 10
-4.5735738941278319
 20
229.2086840734091
 30
0.0
  0
VERTEX
  5
1E4C
  8
L1
 10
-4.6017587030624441
 20
229.04126554975321
 30
0.0
  0
VERTEX
  5
1E4D
  8
L1
 10
-4.6216367766991757
 20
228.87424009822271
 30
0.0
  0
VERTEX
  5
1E4E
  8
L1
 10
-4.6334142939093113
 20
228.7084049622149
 30
0.0
  0
VERTEX
  5
1E4F
  8
L1
 10
-4.6372974335640151
 20
228.54455738512661
 30
0.0
  0
SEQEND
  5
1E50
  8
L1
  0
ARC
  5
1751
  8
L1
 10
-1.1751358446118161
 20
228.5425573851266
 30
0.0
 40
2.7019999999999542
 50
89.999999999998366
 51
180.0
  0
POLYLINE
  5
1752
  8
L1
 66
     1
 10
0.0
 20
0.0
 30
0.0
  0
VERTEX
  5
1E51
  8
L1
 10
-4.6372974335640151
 20
228.54455738512661
 30
0.0
  0
VERTEX
  5
1E52
  8
L1
 10
-4.6372974623309906
 20
228.5425573851266
 30
0.0
  0
SEQEND
  5
1E53
  8
L1
  0
POLYLINE
  5
1753
  8
L1
 66
     1
 10
0.0
 20
0.0
 30
0.0
  0
VERTEX
  5
1E54
  8
L1
 10
-1.1304064101927329
 20
232.04455738512661
 30
0.0
  0
VERTEX
  5
1E55
  8
L1
 10
-1.1527678501868761
 20
232.0444861704114
 30
0.0
  0
VERTEX
  5
1E56
  8
L1
 10
-1.1751358446118161
 20
232.04427252916349
 30
0.0
  0
SEQEND
  5
1E57
  8
L1
  0
ARC
  5
1754
  8
L1
 10
-0.2372974623310142
 20
227.6445573851266
 30
0.0
 40
2.6000000000000001
 50
90.0
 51
180.0
  0
LINE
  5
1755
  8
L1
 10
12.42286415538814
 20
227.74507139766331
 30
0.0
 11
12.42286415538814
 21
223.79455738512661
 31
0.0
  0
LINE
  5
1756
  8
L1
 10
9.9228641553881403
 20
227.2445573851266
 30
0.0
 11
9.9228641553881403
 21
226.29455738512661
 31
0.0
  0
LINE
  5
1757
  8
L1
 10
3.8724912328548831
 20
228.8145454528005
 30
0.0
 11
8.6428522230621052
 21
224.04418446259339
 31
0.0
  0
LINE
  5
1758
  8
L1
 10
9.9228641553881403
 20
226.29455738512661
 30
0.0
 11
9.9228641553881403
 21
223.79455738512669
 31
0.0
  0
LINE
  5
1759
  8
L1
 10
8.6428522230621052
 20
224.04418446259339
 30
0.0
 11
8.6433344953839537
 21
224.03407569953779
 31
0.0
  0
LINE
  5
175A
  8
L1
 10
3.8623824697993419
 20
228.81502772512241
 30
0.0
 11
3.8724912328548831
 21
228.8145454528005
 31
0.0
  0
POLYLINE
  5
175B
  8
L1
 66
     1
 10
0.0
 20
0.0
 30
0.0
  0
VERTEX
  5
1E58
  8
L1
 10
11.04010745018882
 20
229.7195469135705
 30
0.0
  0
VERTEX
  5
1E59
  8
L1
 10
11.059956137448291
 20
229.73874639401899
 30
0.0
  0
VERTEX
  5
1E5A
  8
L1
 10
11.07792063799962
 20
229.75964470090179
 30
0.0
  0
VERTEX
  5
1E5B
  8
L1
 10
11.093892552643799
 20
229.7821037995183
 30
0.0
  0
VERTEX
  5
1E5C
  8
L1
 10
11.107763482182969
 20
229.8059856551682
 30
0.0
  0
VERTEX
  5
1E5D
  8
L1
 10
11.11969839064221
 20
229.83182461286131
 30
0.0
  0
VERTEX
  5
1E5E
  8
L1
 10
11.1291131077001
 20
229.8586176896938
 30
0.0
  0
VERTEX
  5
1E5F
  8
L1
 10
11.13595253861984
 20
229.8861808357062
 30
0.0
  0
VERTEX
  5
1E60
  8
L1
 10
11.14016158866451
 20
229.914330000939
 30
0.0
  0
VERTEX
  5
1E61
  8
L1
 10
11.141688372597571
 20
229.9436950114096
 30
0.0
  0
VERTEX
  5
1E62
  8
L1
 10
11.14033971870759
 20
229.97299911753171
 30
0.0
  0
VERTEX
  5
1E63
  8
L1
 10
11.136135637332639
 20
230.0020314085719
 30
0.0
  0
VERTEX
  5
1E64
  8
L1
 10
11.129096138811001
 20
230.03058097379721
 30
0.0
  0
VERTEX
  5
1E65
  8
L1
 10
11.119183699955149
 20
230.0585761868559
 30
0.0
  0
VERTEX
  5
1E66
  8
L1
 10
11.10658536977297
 20
230.08539072542141
 30
0.0
  0
VERTEX
  5
1E67
  8
L1
 10
11.0914035836227
 20
230.11083183650879
 30
0.0
  0
VERTEX
  5
1E68
  8
L1
 10
11.07374077686284
 20
230.13470676713311
 30
0.0
  0
VERTEX
  5
1E69
  8
L1
 10
11.05431125896933
 20
230.1562093975657
 30
0.0
  0
VERTEX
  5
1E6A
  8
L1
 10
11.032948856536271
 20
230.1756942524535
 30
0.0
  0
VERTEX
  5
1E6B
  8
L1
 10
11.00980985589359
 20
230.19303203904011
 30
0.0
  0
VERTEX
  5
1E6C
  8
L1
 10
10.98505054337107
 20
230.20809346456949
 30
0.0
  0
VERTEX
  5
1E6D
  8
L1
 10
10.963574434928139
 20
230.21868729659411
 30
0.0
  0
VERTEX
  5
1E6E
  8
L1
 10
10.94135740333609
 20
230.22752182804331
 30
0.0
  0
VERTEX
  5
1E6F
  8
L1
 10
10.918507392790209
 20
230.23455907711411
 30
0.0
  0
VERTEX
  5
1E70
  8
L1
 10
10.89513234748545
 20
230.23976106200351
 30
0.0
  0
VERTEX
  5
1E71
  8
L1
 10
10.86851008978379
 20
230.24335716052261
 30
0.0
  0
VERTEX
  5
1E72
  8
L1
 10
10.841700928048731
 20
230.2445573851266
 30
0.0
  0
SEQEND
  5
1E73
  8
L1
  0
ARC
  5
175C
  8
L1
 10
13.2228641553882
 20
227.24455738512651
 30
0.0
 40
3.3000000000000149
 50
131.40989698076501
 51
180.0
  0
LINE
  5
1784
  8
L1
 10
262.64693772741128
 20
52.04648691487558
 30
0.0
 11
262.6469377274114
 21
232.0420581434515
 31
0.0
  0
LINE
  5
1785
  8
L1
 10
236.8469377274115
 20
53.998607620377989
 30
0.0
 11
236.8469377274113
 21
230.08993743794889
 31
0.0
  0
LINE
  5
1786
  8
L1
 10
237.44693772741141
 20
227.1879374379489
 30
0.0
 11
237.44693772741141
 21
53.39860762037808
 31
0.0
  0
LINE
  5
1787
  8
L1
 10
264.61626865485192
 20
54.144399073729872
 30
0.0
 11
264.61626865485192
 21
229.9441459845971
 31
0.0
  0
LINE
  5
1788
  8
L1
 10
263.44693772741141
 20
231.28398436687789
 30
0.0
 11
263.44693772741141
 21
52.804560691449133
 31
0.0
  0
LINE
  5
1789
  8
L2
 10
239.84693772741139
 20
70.230575613198255
 30
0.0
 11
239.84693772741139
 21
213.8579694451287
 31
0.0
  0
LINE
  5
178A
  8
L2
 10
237.34693772741139
 20
68.044399102496982
 30
0.0
 11
237.34693772741139
 21
216.04414595583
 31
0.0
  0
LINE
  5
178B
  8
L1
 10
237.4801220788907
 20
53.36542383464019
 30
0.0
 11
262.68677556078552
 21
52.044399102496989
 31
0.0
  0
LINE
  5
178C
  8
L2
 10
263.44693772741141
 20
69.104560691449123
 30
0.0
 11
240.33384925325751
 21
69.730746950710483
 31
0.0
  0
LINE
  5
178D
  8
L1
 10
236.8469377274113
 20
53.998607620378039
 30
0.0
 11
237.48012148186021
 21
53.365423865929309
 31
0.0
  0
LINE
  5
178E
  8
L2
 10
237.34693772741139
 20
68.044399102496982
 30
0.0
 11
236.84693772741139
 21
68.044399102496982
 31
0.0
  0
ARC
  5
178F
  8
L2
 10
240.34693772741139
 20
70.230575613198255
 30
0.0
 40
0.5
 50
180.0
 51
268.49999999999892
  0
LINE
  5
1790
  8
L1
 10
264.22843618768422
 20
53.682198337658178
 30
0.0
 11
263.45009384308918
 21
53.54495558207816
 31
0.0
  0
LINE
  5
1791
  8
L1
 10
263.44693772741141
 20
52.80456069144919
 30
0.0
 11
262.68677610969218
 21
52.044399073730013
 31
0.0
  0
ARC
  5
1792
  8
L1
 10
264.1469377274114
 20
54.144399073729872
 30
0.0
 40
0.4693309274404737
 50
280.00000000000182
 51
0.0
  0
LINE
  5
1793
  8
L6
 10
228.84688962742001
 20
142.04427252916349
 30
0.0
 11
272.61622055486049
 21
142.04427252916349
 31
0.0
  0
LINE
  5
1794
  8
L1
 10
237.4801220788907
 20
230.7231212236868
 30
0.0
 11
262.68677556078552
 21
232.04414595583
 31
0.0
  0
LINE
  5
1795
  8
L2
 10
263.44693772741141
 20
214.98398436687791
 30
0.0
 11
240.33384925325751
 21
214.3577981076165
 31
0.0
  0
LINE
  5
1796
  8
L2
 10
237.34693772741139
 20
216.04414595583
 30
0.0
 11
236.8469377274113
 21
216.04414595583
 31
0.0
  0
ARC
  5
1797
  8
L2
 10
240.34693772741139
 20
213.8579694451287
 30
0.0
 40
0.5
 50
91.500000000001094
 51
180.0
  0
POLYLINE
  5
1798
  8
L1
 66
     1
 10
0.0
 20
0.0
 30
0.0
  0
VERTEX
  5
1E74
  8
L1
 10
237.44705489918479
 20
227.21658503523861
 30
0.0
  0
VERTEX
  5
1E75
  8
L1
 10
237.44837457197039
 20
227.37656976470319
 30
0.0
  0
VERTEX
  5
1E76
  8
L1
 10
237.4497311271152
 20
227.53835084528259
 30
0.0
  0
VERTEX
  5
1E77
  8
L1
 10
237.45111900991509
 20
227.7012092232909
 30
0.0
  0
VERTEX
  5
1E78
  8
L1
 10
237.4525326656663
 20
227.86442584504161
 30
0.0
  0
VERTEX
  5
1E79
  8
L1
 10
237.4540314577275
 20
228.03462651598809
 30
0.0
  0
VERTEX
  5
1E7A
  8
L1
 10
237.45554465474871
 20
228.20367898946151
 30
0.0
  0
VERTEX
  5
1E7B
  8
L1
 10
237.4570645449748
 20
228.37082784281361
 30
0.0
  0
VERTEX
  5
1E7C
  8
L1
 10
237.45858341665041
 20
228.53531765339659
 30
0.0
  0
VERTEX
  5
1E7D
  8
L1
 10
237.4600939956201
 20
228.69647792419579
 30
0.0
  0
VERTEX
  5
1E7E
  8
L1
 10
237.4615887141176
 20
228.85371827235369
 30
0.0
  0
VERTEX
  5
1E7F
  8
L1
 10
237.46305941997019
 20
229.0064034464595
 30
0.0
  0
VERTEX
  5
1E80
  8
L1
 10
237.46449796100569
 20
229.1538981951019
 30
0.0
  0
VERTEX
  5
1E81
  8
L1
 10
237.46589620799699
 20
229.29559789411601
 30
0.0
  0
VERTEX
  5
1E82
  8
L1
 10
237.46724680832
 20
229.43102866165461
 30
0.0
  0
VERTEX
  5
1E83
  8
L1
 10
237.4685427747057
 20
229.5597513597825
 30
0.0
  0
VERTEX
  5
1E84
  8
L1
 10
237.46977711988549
 20
229.68132685056511
 30
0.0
  0
VERTEX
  5
1E85
  8
L1
 10
237.47096821918041
 20
229.79778296964699
 30
0.0
  0
VERTEX
  5
1E86
  8
L1
 10
237.4721216947413
 20
229.90987349525389
 30
0.0
  0
VERTEX
  5
1E87
  8
L1
 10
237.47322783413
 20
230.0168577288585
 30
0.0
  0
VERTEX
  5
1E88
  8
L1
 10
237.47427692490911
 20
230.11799497193351
 30
0.0
  0
VERTEX
  5
1E89
  8
L1
 10
237.47525960567469
 20
230.21259719267971
 30
0.0
  0
VERTEX
  5
1E8A
  8
L1
 10
237.47616847876279
 20
230.3001747616689
 30
0.0
  0
VERTEX
  5
1E8B
  8
L1
 10
237.47699677734531
 20
230.3802845839308
 30
0.0
  0
VERTEX
  5
1E8C
  8
L1
 10
237.477737734594
 20
230.45248356449531
 30
0.0
  0
VERTEX
  5
1E8D
  8
L1
 10
237.47838542253271
 20
230.5164060499751
 30
0.0
  0
VERTEX
  5
1E8E
  8
L1
 10
237.47893662194889
 20
230.5718858284329
 30
0.0
  0
VERTEX
  5
1E8F
  8
L1
 10
237.47938862916081
 20
230.61877896707259
 30
0.0
  0
VERTEX
  5
1E90
  8
L1
 10
237.47973874048611
 20
230.65694153309829
 30
0.0
  0
VERTEX
  5
1E91
  8
L1
 10
237.4799844687727
 20
230.6862099922096
 30
0.0
  0
VERTEX
  5
1E92
  8
L1
 10
237.48012859531551
 20
230.70685789235631
 30
0.0
  0
VERTEX
  5
1E93
  8
L1
 10
237.4801736290448
 20
230.7190925355213
 30
0.0
  0
VERTEX
  5
1E94
  8
L1
 10
237.48012207889059
 20
230.7231212236868
 30
0.0
  0
SEQEND
  5
1E95
  8
L1
  0
LINE
  5
1799
  8
L1
 10
236.8469377274113
 20
230.089937437949
 30
0.0
 11
237.48012148186021
 21
230.72312119239771
 31
0.0
  0
LINE
  5
179A
  8
L1
 10
264.22843618768422
 20
230.40634672066889
 30
0.0
 11
263.45009384308918
 21
230.54358947624891
 31
0.0
  0
LINE
  5
179B
  8
L1
 10
263.44693772741141
 20
231.28398436687789
 30
0.0
 11
262.68677610969218
 21
232.04414598459701
 31
0.0
  0
ARC
  5
179C
  8
L1
 10
264.1469377274114
 20
229.9441459845971
 30
0.0
 40
0.4693309274404737
 50
0.0
 51
79.999999999998195
  0
LINE
  5
179D
  8
L1
 10
496.38375218833829
 20
55.546544422993293
 30
0.0
 11
496.38375218833829
 21
228.54200063533381
 31
0.0
  0
LINE
  5
179E
  8
L1
 10
482.32779057061902
 20
214.04400063533379
 30
0.0
 11
482.32779057061902
 21
70.04454442299334
 31
0.0
  0
LINE
  5
179F
  8
L1
 10
334.34811380605748
 20
214.04400063533379
 30
0.0
 11
334.34811380605748
 21
70.04454442299334
 31
0.0
  0
LINE
  5
17A0
  8
L1
 10
320.29216073498623
 20
55.54654442299335
 30
0.0
 11
320.29216073498623
 21
228.54200063533381
 31
0.0
  0
LINE
  5
17A2
  8
L1
 10
498.33795218833819
 20
228.54200063533381
 30
0.0
 11
498.33795218833819
 21
55.54654442299335
 31
0.0
  0
LINE
  5
17A3
  8
L6
 10
408.33795218833831
 20
237.94864485055541
 30
0.0
 11
408.33795218833831
 21
35.874038774256
 31
0.0
  0
LINE
  5
17A4
  8
L1
 10
323.19416073498638
 20
52.044544422993283
 30
0.0
 11
494.87579057061919
 21
52.044829278956392
 31
0.0
  0
LINE
  5
17A5
  8
L1
 10
321.87141274731061
 20
53.997728175718862
 30
0.0
 11
494.80449162936588
 21
53.997728175718862
 31
0.0
  0
LINE
  5
17A6
  8
L1
 10
336.34811380605743
 20
68.044544422993283
 30
0.0
 11
480.32779057061907
 21
68.044544422993283
 31
0.0
  0
ARC
  5
17A7
  8
L1
 10
326.59811380605743
 20
60.29454442299329
 30
0.0
 40
5.0
 50
357.26858442957092
 51
92.731415570428993
  0
LINE
  5
17A8
  8
L1
 10
321.60379432554839
 20
60.532815123264697
 30
0.0
 11
326.35984310578601
 21
65.288863903502317
 31
0.0
  0
CIRCLE
  5
17A9
  8
L1
 10
326.59811380605743
 20
60.29454442299329
 30
0.0
 40
5.9982622421189946
  0
CIRCLE
  5
17AA
  8
L1
 10
326.59811380605743
 20
60.29454442299329
 30
0.0
 40
5.7982698575061704
  0
ARC
  5
17AB
  8
L1
 10
326.59811380605743
 20
60.29454442299329
 30
0.0
 40
5.0
 50
177.2685844295726
 51
272.73141557042891
  0
POLYLINE
  5
17AC
  8
L1
 66
     1
 10
0.0
 20
0.0
 30
0.0
  0
VERTEX
  5
1E96
  8
L1
 10
318.33795221710528
 20
55.544544422993269
 30
0.0
  0
VERTEX
  5
1E97
  8
L1
 10
318.34183535675987
 20
55.380696845904993
 30
0.0
  0
VERTEX
  5
1E98
  8
L1
 10
318.35361287397001
 20
55.214861709897079
 30
0.0
  0
VERTEX
  5
1E99
  8
L1
 10
318.3734909476068
 20
55.047836258366587
 30
0.0
  0
VERTEX
  5
1E9A
  8
L1
 10
318.40167575654152
 20
54.880417734710747
 30
0.0
  0
VERTEX
  5
1E9B
  8
L1
 10
318.43843973912101
 20
54.712879459368132
 30
0.0
  0
VERTEX
  5
1E9C
  8
L1
 10
318.48362948310512
 20
54.54648487854967
 30
0.0
  0
VERTEX
  5
1E9D
  8
L1
 10
318.53711140166581
 20
54.381972335129312
 30
0.0
  0
VERTEX
  5
1E9E
  8
L1
 10
318.59875190797533
 20
54.220080171981003
 30
0.0
  0
VERTEX
  5
1E9F
  8
L1
 10
318.66839456233231
 20
54.061463875874033
 30
0.0
  0
VERTEX
  5
1EA0
  8
L1
 10
318.74568850970621
 20
53.906699252417688
 30
0.0
  0
VERTEX
  5
1EA1
  8
L1
 10
318.83020854027637
 20
53.756405122745818
 30
0.0
  0
VERTEX
  5
1EA2
  8
L1
 10
318.92152944422139
 20
53.611200307991851
 30
0.0
  0
VERTEX
  5
1EA3
  8
L1
 10
319.0191804810546
 20
53.471673397764903
 30
0.0
  0
VERTEX
  5
1EA4
  8
L1
 10
319.12249753083211
 20
53.338284576803282
 30
0.0
  0
VERTEX
  5
1EA5
  8
L1
 10
319.23076531454723
 20
53.211460058935863
 30
0.0
  0
VERTEX
  5
1EA6
  8
L1
 10
319.34326855319341
 20
53.091626057990759
 30
0.0
  0
VERTEX
  5
1EA7
  8
L1
 10
319.46216132174249
 20
52.976470695084672
 30
0.0
  0
VERTEX
  5
1EA8
  8
L1
 10
319.5881809646483
 20
52.865518644620003
 30
0.0
  0
VERTEX
  5
1EA9
  8
L1
 10
319.72090610216861
 20
52.759493589534763
 30
0.0
  0
VERTEX
  5
1EAA
  8
L1
 10
319.85991535456122
 20
52.659119212766932
 30
0.0
  0
VERTEX
  5
1EAB
  8
L1
 10
320.00475226438431
 20
52.565067999854691
 30
0.0
  0
VERTEX
  5
1EAC
  8
L1
 10
320.15482817625667
 20
52.477819478246872
 30
0.0
  0
VERTEX
  5
1EAD
  8
L1
 10
320.30952341352707
 20
52.397807893747128
 30
0.0
  0
VERTEX
  5
1EAE
  8
L1
 10
320.46821829954479
 20
52.325467492159348
 30
0.0
  0
VERTEX
  5
1EAF
  8
L1
 10
320.6303355853961
 20
52.261157043439532
 30
0.0
  0
VERTEX
  5
1EB0
  8
L1
 10
320.79521536957691
 20
52.205041090684112
 30
0.0
  0
VERTEX
  5
1EB1
  8
L1
 10
320.96211399654788
 20
52.157262539407441
 30
0.0
  0
VERTEX
  5
1EB2
  8
L1
 10
321.13028781077088
 20
52.117964295124231
 30
0.0
  0
VERTEX
  5
1EB3
  8
L1
 10
321.29898200186091
 20
52.087235532327661
 30
0.0
  0
VERTEX
  5
1EB4
  8
L1
 10
321.467394297282
 20
52.064936798601302
 30
0.0
  0
VERTEX
  5
1EB5
  8
L1
 10
321.63470984826921
 20
52.050868059094448
 30
0.0
  0
VERTEX
  5
1EB6
  8
L1
 10
321.80011380605742
 20
52.044829278956392
 30
0.0
  0
SEQEND
  5
1EB7
  8
L1
  0
POLYLINE
  5
17AD
  8
L1
 66
     1
 10
0.0
 20
0.0
 30
0.0
  0
VERTEX
  5
1EB8
  8
L1
 10
320.29160363443577
 20
55.590845390178274
 30
0.0
  0
VERTEX
  5
1EB9
  8
L1
 10
320.2943937497862
 20
55.473117551208688
 30
0.0
  0
VERTEX
  5
1EBA
  8
L1
 10
320.29961088477899
 20
55.399656882404251
 30
0.0
  0
VERTEX
  5
1EBB
  8
L1
 10
320.308414795543
 20
55.325682049759472
 30
0.0
  0
VERTEX
  5
1EBC
  8
L1
 10
320.32077150569398
 20
55.252282858886481
 30
0.0
  0
VERTEX
  5
1EBD
  8
L1
 10
320.33692356568179
 20
55.1786758097114
 30
0.0
  0
VERTEX
  5
1EBE
  8
L1
 10
320.35693399457972
 20
55.104994778687349
 30
0.0
  0
VERTEX
  5
1EBF
  8
L1
 10
320.38061903174128
 20
55.032138646945469
 30
0.0
  0
VERTEX
  5
1EC0
  8
L1
 10
320.40769077948511
 20
54.961037611849569
 30
0.0
  0
VERTEX
  5
1EC1
  8
L1
 10
320.43828433520957
 20
54.89135852597073
 30
0.0
  0
VERTEX
  5
1EC2
  8
L1
 10
320.4725391362075
 20
54.82277060210189
 30
0.0
  0
VERTEX
  5
1EC3
  8
L1
 10
320.51000949840932
 20
54.756140533020982
 30
0.0
  0
VERTEX
  5
1EC4
  8
L1
 10
320.55015766149552
 20
54.692302941278108
 30
0.0
  0
VERTEX
  5
1EC5
  8
L1
 10
320.5931019912839
 20
54.630942715708912
 30
0.0
  0
VERTEX
  5
1EC6
  8
L1
 10
320.63897598750401
 20
54.571716496205227
 30
0.0
  0
VERTEX
  5
1EC7
  8
L1
 10
320.68707571535282
 20
54.515372636705663
 30
0.0
  0
VERTEX
  5
1EC8
  8
L1
 10
320.73620831470049
 20
54.463038534794237
 30
0.0
  0
VERTEX
  5
1EC9
  8
L1
 10
320.78838383041688
 20
54.412503161445159
 30
0.0
  0
VERTEX
  5
1ECA
  8
L1
 10
320.8444252206591
 20
54.363162383968891
 30
0.0
  0
VERTEX
  5
1ECB
  8
L1
 10
320.9034544926223
 20
54.316007926806762
 30
0.0
  0
VERTEX
  5
1ECC
  8
L1
 10
320.96473337380098
 20
54.271760300109371
 30
0.0
  0
VERTEX
  5
1ECD
  8
L1
 10
321.0286036173303
 20
54.230285555306637
 30
0.0
  0
VERTEX
  5
1ECE
  8
L1
 10
321.09537671978819
 20
54.191466171170113
 30
0.0
  0
VERTEX
  5
1ECF
  8
L1
 10
321.1642222895008
 20
54.155857814922761
 30
0.0
  0
VERTEX
  5
1ED0
  8
L1
 10
321.23427621940311
 20
54.123924023298393
 30
0.0
  0
VERTEX
  5
1ED1
  8
L1
 10
321.3058613404271
 20
54.095526858674418
 30
0.0
  0
VERTEX
  5
1ED2
  8
L1
 10
321.37930123136022
 20
54.070531984557839
 30
0.0
  0
VERTEX
  5
1ED3
  8
L1
 10
321.45366278793028
 20
54.049244287300667
 30
0.0
  0
VERTEX
  5
1ED4
  8
L1
 10
321.52796959019912
 20
54.031880544431679
 30
0.0
  0
VERTEX
  5
1ED5
  8
L1
 10
321.60251882401371
 20
54.018300908359151
 30
0.0
  0
VERTEX
  5
1ED6
  8
L1
 10
321.67763891728993
 20
54.008354586130842
 30
0.0
  0
VERTEX
  5
1ED7
  8
L1
 10
321.75229594363941
 20
54.00207704498257
 30
0.0
  0
VERTEX
  5
1ED8
  8
L1
 10
321.87141274731061
 20
53.997728175718883
 30
0.0
  0
SEQEND
  5
1ED9
  8
L1
  0
POLYLINE
  5
17AE
  8
L1
 66
     1
 10
0.0
 20
0.0
 30
0.0
  0
VERTEX
  5
1EDA
  8
L1
 10
318.33795218833831
 20
55.546544422993342
 30
0.0
  0
VERTEX
  5
1EDB
  8
L1
 10
318.33795221710528
 20
55.544544422993269
 30
0.0
  0
SEQEND
  5
1EDC
  8
L1
  0
POLYLINE
  5
17AF
  8
L1
 66
     1
 10
0.0
 20
0.0
 30
0.0
  0
VERTEX
  5
1EDD
  8
L1
 10
321.80011380605742
 20
52.044829278956392
 30
0.0
  0
VERTEX
  5
1EDE
  8
L1
 10
321.82248180048242
 20
52.044615637708588
 30
0.0
  0
VERTEX
  5
1EDF
  8
L1
 10
321.84484324047662
 20
52.044544422993269
 30
0.0
  0
SEQEND
  5
1EE0
  8
L1
  0
POLYLINE
  5
17B0
  8
L1
 66
     1
 10
0.0
 20
0.0
 30
0.0
  0
VERTEX
  5
1EE1
  8
L1
 10
323.19416073498633
 20
52.044544422993269
 30
0.0
  0
VERTEX
  5
1EE2
  8
L1
 10
323.16551313769679
 20
52.044544422993269
 30
0.0
  0
SEQEND
  5
1EE3
  8
L1
  0
LINE
  5
17B1
  8
L1
 10
321.84484324047662
 20
52.044544422993283
 30
0.0
 11
323.16551313769679
 21
52.044544422993283
 31
0.0
  0
LINE
  5
17B2
  8
L1
 10
331.59243328656652
 20
60.056273722721862
 30
0.0
 11
326.8363845063289
 21
55.300224942484249
 31
0.0
  0
ARC
  5
17B3
  8
L1
 10
336.34811380605743
 20
70.044544422993283
 30
0.0
 40
1.9999999999999989
 50
180.0
 51
270.0
  0
ARC
  5
17B4
  8
L1
 10
490.07779057061907
 20
60.29454442299329
 30
0.0
 40
5.0
 50
87.268584429571007
 51
182.73141557042891
  0
CIRCLE
  5
17B5
  8
L1
 10
490.07779057061907
 20
60.29454442299329
 30
0.0
 40
5.7982698575061704
  0
CIRCLE
  5
17B6
  8
L1
 10
490.07779057061907
 20
60.29454442299329
 30
0.0
 40
5.9982622421189946
  0
LINE
  5
17B7
  8
L1
 10
495.07211005112811
 20
60.532815123264697
 30
0.0
 11
490.31606127089049
 21
65.288863903502317
 31
0.0
  0
LINE
  5
17B8
  8
L1
 10
485.08347109011009
 20
60.056273722721862
 30
0.0
 11
489.8395198703476
 21
55.300224942484249
 31
0.0
  0
ARC
  5
17B9
  8
L1
 10
490.07779057061907
 20
60.29454442299329
 30
0.0
 40
5.0
 50
267.26858442957098
 51
2.7314155704273748
  0
POLYLINE
  5
17BA
  8
L1
 66
     1
 10
0.0
 20
0.0
 30
0.0
  0
VERTEX
  5
1EE4
  8
L1
 10
498.33795218833819
 20
55.546544422993342
 30
0.0
  0
VERTEX
  5
1EE5
  8
L1
 10
498.33795215957127
 20
55.544544422993269
 30
0.0
  0
SEQEND
  5
1EE6
  8
L1
  0
POLYLINE
  5
17BB
  8
L1
 66
     1
 10
0.0
 20
0.0
 30
0.0
  0
VERTEX
  5
1EE7
  8
L1
 10
496.38430074224078
 20
55.590845390178274
 30
0.0
  0
VERTEX
  5
1EE8
  8
L1
 10
496.3815106268903
 20
55.473117551208688
 30
0.0
  0
VERTEX
  5
1EE9
  8
L1
 10
496.37629349189751
 20
55.399656882404251
 30
0.0
  0
VERTEX
  5
1EEA
  8
L1
 10
496.36748958113361
 20
55.325682049759472
 30
0.0
  0
VERTEX
  5
1EEB
  8
L1
 10
496.35513287098252
 20
55.252282858886481
 30
0.0
  0
VERTEX
  5
1EEC
  8
L1
 10
496.33898081099471
 20
55.1786758097114
 30
0.0
  0
VERTEX
  5
1EED
  8
L1
 10
496.31897038209678
 20
55.104994778687349
 30
0.0
  0
VERTEX
  5
1EEE
  8
L1
 10
496.29528534493522
 20
55.032138646945469
 30
0.0
  0
VERTEX
  5
1EEF
  8
L1
 10
496.26821359719139
 20
54.961037611849569
 30
0.0
  0
VERTEX
  5
1EF0
  8
L1
 10
496.23762004146693
 20
54.89135852597073
 30
0.0
  0
VERTEX
  5
1EF1
  8
L1
 10
496.20336524046911
 20
54.82277060210189
 30
0.0
  0
VERTEX
  5
1EF2
  8
L1
 10
496.16589487826718
 20
54.756140533020982
 30
0.0
  0
VERTEX
  5
1EF3
  8
L1
 10
496.12574671518109
 20
54.692302941278108
 30
0.0
  0
VERTEX
  5
1EF4
  8
L1
 10
496.08280238539271
 20
54.630942715708912
 30
0.0
  0
VERTEX
  5
1EF5
  8
L1
 10
496.0369283891726
 20
54.571716496205227
 30
0.0
  0
VERTEX
  5
1EF6
  8
L1
 10
495.98882866132379
 20
54.515372636705663
 30
0.0
  0
VERTEX
  5
1EF7
  8
L1
 10
495.93969606197601
 20
54.463038534794237
 30
0.0
  0
VERTEX
  5
1EF8
  8
L1
 10
495.88752054625962
 20
54.412503161445159
 30
0.0
  0
VERTEX
  5
1EF9
  8
L1
 10
495.83147915601751
 20
54.363162383968891
 30
0.0
  0
VERTEX
  5
1EFA
  8
L1
 10
495.7724498840542
 20
54.316007926806762
 30
0.0
  0
VERTEX
  5
1EFB
  8
L1
 10
495.71117100287552
 20
54.271760300109371
 30
0.0
  0
VERTEX
  5
1EFC
  8
L1
 10
495.64730075934619
 20
54.230285555306637
 30
0.0
  0
VERTEX
  5
1EFD
  8
L1
 10
495.58052765688842
 20
54.191466171170113
 30
0.0
  0
VERTEX
  5
1EFE
  8
L1
 10
495.51168208717581
 20
54.155857814922761
 30
0.0
  0
VERTEX
  5
1EFF
  8
L1
 10
495.44162815727339
 20
54.123924023298393
 30
0.0
  0
VERTEX
  5
1F00
  8
L1
 10
495.3700430362494
 20
54.095526858674418
 30
0.0
  0
VERTEX
  5
1F01
  8
L1
 10
495.29660314531628
 20
54.070531984557839
 30
0.0
  0
VERTEX
  5
1F02
  8
L1
 10
495.22224158874627
 20
54.049244287300667
 30
0.0
  0
VERTEX
  5
1F03
  8
L1
 10
495.14793478647738
 20
54.031880544431679
 30
0.0
  0
VERTEX
  5
1F04
  8
L1
 10
495.07338555266278
 20
54.018300908359151
 30
0.0
  0
VERTEX
  5
1F05
  8
L1
 10
494.99826545938657
 20
54.008354586130842
 30
0.0
  0
VERTEX
  5
1F06
  8
L1
 10
494.92360843303709
 20
54.00207704498257
 30
0.0
  0
VERTEX
  5
1F07
  8
L1
 10
494.80449162936588
 20
53.997728175718883
 30
0.0
  0
SEQEND
  5
1F08
  8
L1
  0
POLYLINE
  5
17BC
  8
L1
 66
     1
 10
0.0
 20
0.0
 30
0.0
  0
VERTEX
  5
1F09
  8
L1
 10
498.33795215957127
 20
55.544544422993269
 30
0.0
  0
VERTEX
  5
1F0A
  8
L1
 10
498.33406901991663
 20
55.380696845904993
 30
0.0
  0
VERTEX
  5
1F0B
  8
L1
 10
498.32229150270649
 20
55.214861709897079
 30
0.0
  0
VERTEX
  5
1F0C
  8
L1
 10
498.30241342906982
 20
55.047836258366587
 30
0.0
  0
VERTEX
  5
1F0D
  8
L1
 10
498.27422862013498
 20
54.880417734710747
 30
0.0
  0
VERTEX
  5
1F0E
  8
L1
 10
498.23746463755549
 20
54.712879459368132
 30
0.0
  0
VERTEX
  5
1F0F
  8
L1
 10
498.19227489357149
 20
54.54648487854967
 30
0.0
  0
VERTEX
  5
1F10
  8
L1
 10
498.13879297501069
 20
54.381972335129312
 30
0.0
  0
VERTEX
  5
1F11
  8
L1
 10
498.07715246870117
 20
54.220080171981003
 30
0.0
  0
VERTEX
  5
1F12
  8
L1
 10
498.00750981434419
 20
54.061463875874033
 30
0.0
  0
VERTEX
  5
1F13
  8
L1
 10
497.93021586697029
 20
53.906699252417688
 30
0.0
  0
VERTEX
  5
1F14
  8
L1
 10
497.84569583640013
 20
53.756405122745818
 30
0.0
  0
VERTEX
  5
1F15
  8
L1
 10
497.75437493245511
 20
53.611200307991851
 30
0.0
  0
VERTEX
  5
1F16
  8
L1
 10
497.65672389562189
 20
53.471673397764903
 30
0.0
  0
VERTEX
  5
1F17
  8
L1
 10
497.55340684584439
 20
53.338284576803282
 30
0.0
  0
VERTEX
  5
1F18
  8
L1
 10
497.44513906212927
 20
53.211460058935863
 30
0.0
  0
VERTEX
  5
1F19
  8
L1
 10
497.3326358234832
 20
53.091626057990759
 30
0.0
  0
VERTEX
  5
1F1A
  8
L1
 10
497.21374305493401
 20
52.976470695084672
 30
0.0
  0
VERTEX
  5
1F1B
  8
L1
 10
497.0877234120282
 20
52.865518644620003
 30
0.0
  0
VERTEX
  5
1F1C
  8
L1
 10
496.95499827450789
 20
52.759493589534763
 30
0.0
  0
VERTEX
  5
1F1D
  8
L1
 10
496.81598902211528
 20
52.659119212766932
 30
0.0
  0
VERTEX
  5
1F1E
  8
L1
 10
496.67115211229219
 20
52.565067999854691
 30
0.0
  0
VERTEX
  5
1F1F
  8
L1
 10
496.52107620041988
 20
52.477819478246872
 30
0.0
  0
VERTEX
  5
1F20
  8
L1
 10
496.36638096314942
 20
52.397807893747128
 30
0.0
  0
VERTEX
  5
1F21
  8
L1
 10
496.20768607713171
 20
52.325467492159348
 30
0.0
  0
VERTEX
  5
1F22
  8
L1
 10
496.0455687912804
 20
52.261157043439532
 30
0.0
  0
VERTEX
  5
1F23
  8
L1
 10
495.8806890070997
 20
52.205041090684112
 30
0.0
  0
VERTEX
  5
1F24
  8
L1
 10
495.71379038012873
 20
52.157262539407441
 30
0.0
  0
VERTEX
  5
1F25
  8
L1
 10
495.54561656590562
 20
52.117964295124231
 30
0.0
  0
VERTEX
  5
1F26
  8
L1
 10
495.37692237481559
 20
52.087235532327661
 30
0.0
  0
VERTEX
  5
1F27
  8
L1
 10
495.2085100793945
 20
52.064936798601302
 30
0.0
  0
VERTEX
  5
1F28
  8
L1
 10
495.0411945284074
 20
52.050868059094448
 30
0.0
  0
VERTEX
  5
1F29
  8
L1
 10
494.87579057061919
 20
52.044829278956392
 30
0.0
  0
SEQEND
  5
1F2A
  8
L1
  0
ARC
  5
17BD
  8
L1
 10
480.32779057061907
 20
70.044544422993283
 30
0.0
 40
1.9999999999999989
 50
270.0
 51
0.0
  0
LINE
  5
17BE
  8
L6
 10
312.45999200871211
 20
142.04427252916349
 30
0.0
 11
511.16522890550289
 21
142.04427252916349
 31
0.0
  0
LINE
  5
17BF
  8
L1
 10
323.19416073498638
 20
232.04400063533379
 30
0.0
 11
494.83106113619999
 21
232.04400063533379
 31
0.0
  0
LINE
  5
17C0
  8
L1
 10
321.87141274731061
 20
230.09081688260821
 30
0.0
 11
494.80449162936588
 21
230.09081688260821
 31
0.0
  0
LINE
  5
17C1
  8
L1
 10
336.34811380605743
 20
216.04400063533379
 30
0.0
 11
480.32779057061907
 21
216.04400063533379
 31
0.0
  0
ARC
  5
17C2
  8
L1
 10
326.59811380605743
 20
223.79400063533379
 30
0.0
 40
5.0
 50
267.26858442957098
 51
2.731415570429002
  0
CIRCLE
  5
17C3
  8
L1
 10
326.59811380605743
 20
223.79400063533379
 30
0.0
 40
5.7982698575061704
  0
CIRCLE
  5
17C4
  8
L1
 10
326.59811380605743
 20
223.79400063533379
 30
0.0
 40
5.9982622421189946
  0
LINE
  5
17C5
  8
L1
 10
321.60379432554839
 20
223.55572993506229
 30
0.0
 11
326.35984310578601
 21
218.79968115482481
 31
0.0
  0
ARC
  5
17C6
  8
L1
 10
336.34811380605743
 20
214.04400063533379
 30
0.0
 40
1.9999999999999989
 50
90.0
 51
180.0
  0
ARC
  5
17C7
  8
L1
 10
326.59811380605743
 20
223.79400063533379
 30
0.0
 40
5.0
 50
87.268584429571007
 51
182.73141557042729
  0
POLYLINE
  5
17C8
  8
L1
 66
     1
 10
0.0
 20
0.0
 30
0.0
  0
VERTEX
  5
1F2B
  8
L1
 10
318.33795221710528
 20
228.54400063533379
 30
0.0
  0
VERTEX
  5
1F2C
  8
L1
 10
318.34183535675987
 20
228.70784821242211
 30
0.0
  0
VERTEX
  5
1F2D
  8
L1
 10
318.35361287397001
 20
228.87368334842989
 30
0.0
  0
VERTEX
  5
1F2E
  8
L1
 10
318.3734909476068
 20
229.0407087999605
 30
0.0
  0
VERTEX
  5
1F2F
  8
L1
 10
318.40167575654152
 20
229.20812732361631
 30
0.0
  0
VERTEX
  5
1F30
  8
L1
 10
318.43843973912101
 20
229.3756655989589
 30
0.0
  0
VERTEX
  5
1F31
  8
L1
 10
318.48362948310512
 20
229.54206017977739
 30
0.0
  0
VERTEX
  5
1F32
  8
L1
 10
318.53711140166581
 20
229.7065727231977
 30
0.0
  0
VERTEX
  5
1F33
  8
L1
 10
318.59875190797533
 20
229.868464886346
 30
0.0
  0
VERTEX
  5
1F34
  8
L1
 10
318.66839456233231
 20
230.027081182453
 30
0.0
  0
VERTEX
  5
1F35
  8
L1
 10
318.74568850970621
 20
230.1818458059094
 30
0.0
  0
VERTEX
  5
1F36
  8
L1
 10
318.83020854027637
 20
230.33213993558121
 30
0.0
  0
VERTEX
  5
1F37
  8
L1
 10
318.92152944422139
 20
230.47734475033519
 30
0.0
  0
VERTEX
  5
1F38
  8
L1
 10
319.0191804810546
 20
230.61687166056211
 30
0.0
  0
VERTEX
  5
1F39
  8
L1
 10
319.12249753083211
 20
230.75026048152381
 30
0.0
  0
VERTEX
  5
1F3A
  8
L1
 10
319.23076531454723
 20
230.8770849993912
 30
0.0
  0
VERTEX
  5
1F3B
  8
L1
 10
319.34326855319341
 20
230.99691900033631
 30
0.0
  0
VERTEX
  5
1F3C
  8
L1
 10
319.46216132174249
 20
231.11207436324241
 30
0.0
  0
VERTEX
  5
1F3D
  8
L1
 10
319.5881809646483
 20
231.223026413707
 30
0.0
  0
VERTEX
  5
1F3E
  8
L1
 10
319.72090610216861
 20
231.3290514687923
 30
0.0
  0
VERTEX
  5
1F3F
  8
L1
 10
319.85991535456122
 20
231.4294258455601
 30
0.0
  0
VERTEX
  5
1F40
  8
L1
 10
320.00475226438431
 20
231.52347705847231
 30
0.0
  0
VERTEX
  5
1F41
  8
L1
 10
320.15482817625667
 20
231.61072558008021
 30
0.0
  0
VERTEX
  5
1F42
  8
L1
 10
320.30952341352707
 20
231.6907371645799
 30
0.0
  0
VERTEX
  5
1F43
  8
L1
 10
320.46821829954479
 20
231.76307756616771
 30
0.0
  0
VERTEX
  5
1F44
  8
L1
 10
320.6303355853961
 20
231.8273880148875
 30
0.0
  0
VERTEX
  5
1F45
  8
L1
 10
320.79521536957691
 20
231.88350396764289
 30
0.0
  0
VERTEX
  5
1F46
  8
L1
 10
320.96211399654788
 20
231.9312825189196
 30
0.0
  0
VERTEX
  5
1F47
  8
L1
 10
321.13028781077088
 20
231.9705807632028
 30
0.0
  0
VERTEX
  5
1F48
  8
L1
 10
321.29898200186091
 20
232.0013095259994
 30
0.0
  0
VERTEX
  5
1F49
  8
L1
 10
321.467394297282
 20
232.02360825972571
 30
0.0
  0
VERTEX
  5
1F4A
  8
L1
 10
321.63470984826921
 20
232.03767699923259
 30
0.0
  0
VERTEX
  5
1F4B
  8
L1
 10
321.80011380605742
 20
232.0437157793707
 30
0.0
  0
SEQEND
  5
1F4C
  8
L1
  0
POLYLINE
  5
17C9
  8
L1
 66
     1
 10
0.0
 20
0.0
 30
0.0
  0
VERTEX
  5
1F4D
  8
L1
 10
320.29160363443577
 20
228.49769966814881
 30
0.0
  0
VERTEX
  5
1F4E
  8
L1
 10
320.2943937497862
 20
228.6154275071184
 30
0.0
  0
VERTEX
  5
1F4F
  8
L1
 10
320.29961088477899
 20
228.68888817592281
 30
0.0
  0
VERTEX
  5
1F50
  8
L1
 10
320.308414795543
 20
228.76286300856751
 30
0.0
  0
VERTEX
  5
1F51
  8
L1
 10
320.32077150569398
 20
228.83626219944051
 30
0.0
  0
VERTEX
  5
1F52
  8
L1
 10
320.33692356568179
 20
228.90986924861579
 30
0.0
  0
VERTEX
  5
1F53
  8
L1
 10
320.35693399457972
 20
228.9835502796397
 30
0.0
  0
VERTEX
  5
1F54
  8
L1
 10
320.38061903174128
 20
229.0564064113814
 30
0.0
  0
VERTEX
  5
1F55
  8
L1
 10
320.40769077948511
 20
229.12750744647749
 30
0.0
  0
VERTEX
  5
1F56
  8
L1
 10
320.4382843352098
 20
229.19718653235651
 30
0.0
  0
VERTEX
  5
1F57
  8
L1
 10
320.4725391362075
 20
229.26577445622519
 30
0.0
  0
VERTEX
  5
1F58
  8
L1
 10
320.51000949840932
 20
229.332404525306
 30
0.0
  0
VERTEX
  5
1F59
  8
L1
 10
320.55015766149552
 20
229.39624211704901
 30
0.0
  0
VERTEX
  5
1F5A
  8
L1
 10
320.5931019912839
 20
229.45760234261809
 30
0.0
  0
VERTEX
  5
1F5B
  8
L1
 10
320.6389759875039
 20
229.5168285621217
 30
0.0
  0
VERTEX
  5
1F5C
  8
L1
 10
320.68707571535288
 20
229.57317242162151
 30
0.0
  0
VERTEX
  5
1F5D
  8
L1
 10
320.73620831470032
 20
229.62550652353261
 30
0.0
  0
VERTEX
  5
1F5E
  8
L1
 10
320.7883838304171
 20
229.676041896882
 30
0.0
  0
VERTEX
  5
1F5F
  8
L1
 10
320.8444252206591
 20
229.7253826743582
 30
0.0
  0
VERTEX
  5
1F60
  8
L1
 10
320.90345449262207
 20
229.7725371315201
 30
0.0
  0
VERTEX
  5
1F61
  8
L1
 10
320.96473337380138
 20
229.81678475821801
 30
0.0
  0
VERTEX
  5
1F62
  8
L1
 10
321.0286036173303
 20
229.85825950302041
 30
0.0
  0
VERTEX
  5
1F63
  8
L1
 10
321.09537671978819
 20
229.89707888715699
 30
0.0
  0
VERTEX
  5
1F64
  8
L1
 10
321.16422228950029
 20
229.9326872434041
 30
0.0
  0
VERTEX
  5
1F65
  8
L1
 10
321.23427621940311
 20
229.96462103502861
 30
0.0
  0
VERTEX
  5
1F66
  8
L1
 10
321.30586134042761
 20
229.99301819965279
 30
0.0
  0
VERTEX
  5
1F67
  8
L1
 10
321.37930123136022
 20
230.0180130737692
 30
0.0
  0
VERTEX
  5
1F68
  8
L1
 10
321.45366278792989
 20
230.03930077102629
 30
0.0
  0
VERTEX
  5
1F69
  8
L1
 10
321.52796959019889
 20
230.0566645138953
 30
0.0
  0
VERTEX
  5
1F6A
  8
L1
 10
321.60251882401371
 20
230.07024414996789
 30
0.0
  0
VERTEX
  5
1F6B
  8
L1
 10
321.67763891728993
 20
230.08019047219619
 30
0.0
  0
VERTEX
  5
1F6C
  8
L1
 10
321.75229594363969
 20
230.0864680133445
 30
0.0
  0
VERTEX
  5
1F6D
  8
L1
 10
321.87141274731061
 20
230.09081688260821
 30
0.0
  0
SEQEND
  5
1F6E
  8
L1
  0
POLYLINE
  5
17CA
  8
L1
 66
     1
 10
0.0
 20
0.0
 30
0.0
  0
VERTEX
  5
1F6F
  8
L1
 10
318.33795218833831
 20
228.54200063533369
 30
0.0
  0
VERTEX
  5
1F70
  8
L1
 10
318.33795221710528
 20
228.54400063533379
 30
0.0
  0
SEQEND
  5
1F71
  8
L1
  0
POLYLINE
  5
17CB
  8
L1
 66
     1
 10
0.0
 20
0.0
 30
0.0
  0
VERTEX
  5
1F72
  8
L1
 10
321.80011380605742
 20
232.0437157793707
 30
0.0
  0
VERTEX
  5
1F73
  8
L1
 10
321.82248180048242
 20
232.0439294206185
 30
0.0
  0
VERTEX
  5
1F74
  8
L1
 10
321.84484324047662
 20
232.04400063533379
 30
0.0
  0
SEQEND
  5
1F75
  8
L1
  0
POLYLINE
  5
17CC
  8
L1
 66
     1
 10
0.0
 20
0.0
 30
0.0
  0
VERTEX
  5
1F76
  8
L1
 10
323.19416073498633
 20
232.04400063533379
 30
0.0
  0
VERTEX
  5
1F77
  8
L1
 10
323.16551313769679
 20
232.04400063533379
 30
0.0
  0
SEQEND
  5
1F78
  8
L1
  0
LINE
  5
17CD
  8
L1
 10
321.84484324047662
 20
232.04400063533379
 30
0.0
 11
323.16551313769679
 21
232.04400063533379
 31
0.0
  0
LINE
  5
17CE
  8
L1
 10
331.59243328656652
 20
224.0322713356052
 30
0.0
 11
326.8363845063289
 21
228.78832011584279
 31
0.0
  0
ARC
  5
17CF
  8
L1
 10
490.07779057061907
 20
223.79400063533379
 30
0.0
 40
5.0
 50
177.26858442957101
 51
272.73141557042891
  0
CIRCLE
  5
17D0
  8
L1
 10
490.07779057061907
 20
223.79400063533379
 30
0.0
 40
5.9982622421189946
  0
CIRCLE
  5
17D1
  8
L1
 10
490.07779057061907
 20
223.79400063533379
 30
0.0
 40
5.7982698575061704
  0
LINE
  5
17D2
  8
L1
 10
495.07211005112811
 20
223.55572993506229
 30
0.0
 11
490.31606127089049
 21
218.79968115482481
 31
0.0
  0
ARC
  5
17D3
  8
L1
 10
480.32779057061907
 20
214.04400063533379
 30
0.0
 40
1.9999999999999989
 50
0.0
 51
90.0
  0
LINE
  5
17D4
  8
L1
 10
485.08347109011009
 20
224.0322713356052
 30
0.0
 11
489.8395198703476
 21
228.78832011584279
 31
0.0
  0
ARC
  5
17D5
  8
L1
 10
490.07779057061907
 20
223.79400063533379
 30
0.0
 40
5.0
 50
357.26858442957263
 51
92.731415570428993
  0
LINE
  5
17D6
  8
L1
 10
494.83106113619999
 20
232.04400063533379
 30
0.0
 11
493.51039123897982
 21
232.04400063533379
 31
0.0
  0
POLYLINE
  5
17D7
  8
L1
 66
     1
 10
0.0
 20
0.0
 30
0.0
  0
VERTEX
  5
1F79
  8
L1
 10
493.48174364169029
 20
232.04400063533379
 30
0.0
  0
VERTEX
  5
1F7A
  8
L1
 10
493.51039123897982
 20
232.04400063533379
 30
0.0
  0
SEQEND
  5
1F7B
  8
L1
  0
POLYLINE
  5
17D8
  8
L1
 66
     1
 10
0.0
 20
0.0
 30
0.0
  0
VERTEX
  5
1F7C
  8
L1
 10
498.33795218833819
 20
228.54200063533369
 30
0.0
  0
VERTEX
  5
1F7D
  8
L1
 10
498.33795215957127
 20
228.54400063533379
 30
0.0
  0
SEQEND
  5
1F7E
  8
L1
  0
POLYLINE
  5
17D9
  8
L1
 66
     1
 10
0.0
 20
0.0
 30
0.0
  0
VERTEX
  5
1F7F
  8
L1
 10
494.87579057061919
 20
232.0437157793707
 30
0.0
  0
VERTEX
  5
1F80
  8
L1
 10
494.85342257619408
 20
232.0439294206185
 30
0.0
  0
VERTEX
  5
1F81
  8
L1
 10
494.83106113619999
 20
232.04400063533379
 30
0.0
  0
SEQEND
  5
1F82
  8
L1
  0
POLYLINE
  5
17DA
  8
L1
 66
     1
 10
0.0
 20
0.0
 30
0.0
  0
VERTEX
  5
1F83
  8
L1
 10
496.38430074224078
 20
228.49769966814881
 30
0.0
  0
VERTEX
  5
1F84
  8
L1
 10
496.3815106268903
 20
228.6154275071184
 30
0.0
  0
VERTEX
  5
1F85
  8
L1
 10
496.37629349189751
 20
228.68888817592281
 30
0.0
  0
VERTEX
  5
1F86
  8
L1
 10
496.36748958113361
 20
228.76286300856751
 30
0.0
  0
VERTEX
  5
1F87
  8
L1
 10
496.35513287098252
 20
228.83626219944051
 30
0.0
  0
VERTEX
  5
1F88
  8
L1
 10
496.33898081099471
 20
228.90986924861579
 30
0.0
  0
VERTEX
  5
1F89
  8
L1
 10
496.31897038209678
 20
228.9835502796397
 30
0.0
  0
VERTEX
  5
1F8A
  8
L1
 10
496.29528534493522
 20
229.0564064113814
 30
0.0
  0
VERTEX
  5
1F8B
  8
L1
 10
496.26821359719139
 20
229.12750744647749
 30
0.0
  0
VERTEX
  5
1F8C
  8
L1
 10
496.2376200414667
 20
229.19718653235651
 30
0.0
  0
VERTEX
  5
1F8D
  8
L1
 10
496.20336524046911
 20
229.26577445622519
 30
0.0
  0
VERTEX
  5
1F8E
  8
L1
 10
496.16589487826718
 20
229.332404525306
 30
0.0
  0
VERTEX
  5
1F8F
  8
L1
 10
496.12574671518109
 20
229.39624211704901
 30
0.0
  0
VERTEX
  5
1F90
  8
L1
 10
496.08280238539271
 20
229.45760234261809
 30
0.0
  0
VERTEX
  5
1F91
  8
L1
 10
496.03692838917272
 20
229.5168285621217
 30
0.0
  0
VERTEX
  5
1F92
  8
L1
 10
495.98882866132362
 20
229.57317242162151
 30
0.0
  0
VERTEX
  5
1F93
  8
L1
 10
495.93969606197618
 20
229.62550652353261
 30
0.0
  0
VERTEX
  5
1F94
  8
L1
 10
495.8875205462594
 20
229.676041896882
 30
0.0
  0
VERTEX
  5
1F95
  8
L1
 10
495.83147915601751
 20
229.7253826743582
 30
0.0
  0
VERTEX
  5
1F96
  8
L1
 10
495.77244988405442
 20
229.7725371315201
 30
0.0
  0
VERTEX
  5
1F97
  8
L1
 10
495.71117100287512
 20
229.81678475821801
 30
0.0
  0
VERTEX
  5
1F98
  8
L1
 10
495.64730075934619
 20
229.85825950302041
 30
0.0
  0
VERTEX
  5
1F99
  8
L1
 10
495.58052765688842
 20
229.89707888715699
 30
0.0
  0
VERTEX
  5
1F9A
  8
L1
 10
495.51168208717621
 20
229.9326872434041
 30
0.0
  0
VERTEX
  5
1F9B
  8
L1
 10
495.44162815727339
 20
229.96462103502861
 30
0.0
  0
VERTEX
  5
1F9C
  8
L1
 10
495.37004303624889
 20
229.99301819965279
 30
0.0
  0
VERTEX
  5
1F9D
  8
L1
 10
495.29660314531628
 20
230.0180130737692
 30
0.0
  0
VERTEX
  5
1F9E
  8
L1
 10
495.22224158874661
 20
230.03930077102629
 30
0.0
  0
VERTEX
  5
1F9F
  8
L1
 10
495.14793478647761
 20
230.0566645138953
 30
0.0
  0
VERTEX
  5
1FA0
  8
L1
 10
495.07338555266278
 20
230.07024414996789
 30
0.0
  0
VERTEX
  5
1FA1
  8
L1
 10
494.99826545938657
 20
230.08019047219619
 30
0.0
  0
VERTEX
  5
1FA2
  8
L1
 10
494.92360843303692
 20
230.0864680133445
 30
0.0
  0
VERTEX
  5
1FA3
  8
L1
 10
494.80449162936588
 20
230.09081688260821
 30
0.0
  0
SEQEND
  5
1FA4
  8
L1
  0
POLYLINE
  5
17DB
  8
L1
 66
     1
 10
0.0
 20
0.0
 30
0.0
  0
VERTEX
  5
1FA5
  8
L1
 10
498.33795215957127
 20
228.54400063533379
 30
0.0
  0
VERTEX
  5
1FA6
  8
L1
 10
498.33406901991663
 20
228.70784821242211
 30
0.0
  0
VERTEX
  5
1FA7
  8
L1
 10
498.32229150270649
 20
228.87368334842989
 30
0.0
  0
VERTEX
  5
1FA8
  8
L1
 10
498.30241342906982
 20
229.0407087999605
 30
0.0
  0
VERTEX
  5
1FA9
  8
L1
 10
498.27422862013498
 20
229.20812732361631
 30
0.0
  0
VERTEX
  5
1FAA
  8
L1
 10
498.23746463755549
 20
229.3756655989589
 30
0.0
  0
VERTEX
  5
1FAB
  8
L1
 10
498.19227489357149
 20
229.54206017977739
 30
0.0
  0
VERTEX
  5
1FAC
  8
L1
 10
498.13879297501069
 20
229.7065727231977
 30
0.0
  0
VERTEX
  5
1FAD
  8
L1
 10
498.07715246870117
 20
229.868464886346
 30
0.0
  0
VERTEX
  5
1FAE
  8
L1
 10
498.00750981434419
 20
230.027081182453
 30
0.0
  0
VERTEX
  5
1FAF
  8
L1
 10
497.93021586697029
 20
230.1818458059094
 30
0.0
  0
VERTEX
  5
1FB0
  8
L1
 10
497.84569583640013
 20
230.33213993558121
 30
0.0
  0
VERTEX
  5
1FB1
  8
L1
 10
497.75437493245511
 20
230.47734475033519
 30
0.0
  0
VERTEX
  5
1FB2
  8
L1
 10
497.65672389562189
 20
230.61687166056211
 30
0.0
  0
VERTEX
  5
1FB3
  8
L1
 10
497.55340684584439
 20
230.75026048152381
 30
0.0
  0
VERTEX
  5
1FB4
  8
L1
 10
497.44513906212927
 20
230.8770849993912
 30
0.0
  0
VERTEX
  5
1FB5
  8
L1
 10
497.3326358234832
 20
230.99691900033631
 30
0.0
  0
VERTEX
  5
1FB6
  8
L1
 10
497.21374305493401
 20
231.11207436324241
 30
0.0
  0
VERTEX
  5
1FB7
  8
L1
 10
497.0877234120282
 20
231.223026413707
 30
0.0
  0
VERTEX
  5
1FB8
  8
L1
 10
496.95499827450789
 20
231.3290514687923
 30
0.0
  0
VERTEX
  5
1FB9
  8
L1
 10
496.81598902211528
 20
231.4294258455601
 30
0.0
  0
VERTEX
  5
1FBA
  8
L1
 10
496.67115211229219
 20
231.52347705847231
 30
0.0
  0
VERTEX
  5
1FBB
  8
L1
 10
496.52107620041988
 20
231.61072558008021
 30
0.0
  0
VERTEX
  5
1FBC
  8
L1
 10
496.36638096314942
 20
231.6907371645799
 30
0.0
  0
VERTEX
  5
1FBD
  8
L1
 10
496.20768607713171
 20
231.76307756616771
 30
0.0
  0
VERTEX
  5
1FBE
  8
L1
 10
496.0455687912804
 20
231.8273880148875
 30
0.0
  0
VERTEX
  5
1FBF
  8
L1
 10
495.8806890070997
 20
231.88350396764289
 30
0.0
  0
VERTEX
  5
1FC0
  8
L1
 10
495.71379038012873
 20
231.9312825189196
 30
0.0
  0
VERTEX
  5
1FC1
  8
L1
 10
495.54561656590562
 20
231.9705807632028
 30
0.0
  0
VERTEX
  5
1FC2
  8
L1
 10
495.37692237481559
 20
232.0013095259994
 30
0.0
  0
VERTEX
  5
1FC3
  8
L1
 10
495.2085100793945
 20
232.02360825972571
 30
0.0
  0
VERTEX
  5
1FC4
  8
L1
 10
495.0411945284074
 20
232.03767699923259
 30
0.0
  0
VERTEX
  5
1FC5
  8
L1
 10
494.87579057061919
 20
232.0437157793707
 30
0.0
  0
SEQEND
  5
1FC6
  8
L1
  0
LINE
  5
1826
  8
L1
 10
85.362702537668994
 20
231.24455738512651
 30
0.0
 11
171.90054091994969
 21
231.24455738512651
 31
0.0
  0
LINE
  5
1827
  8
L1
 10
171.9005409199498
 20
232.04427252916349
 30
0.0
 11
85.362702537669023
 21
232.0444390287775
 31
0.0
  0
LINE
  5
1828
  8
L1
 10
157.50254091994981
 20
230.54455738512661
 30
0.0
 11
85.362702537669023
 21
230.54455738512661
 31
0.0
  0
LINE
  5
1829
  8
L1
 10
156.8030549324865
 20
229.2445573851266
 30
0.0
 11
85.362702537668994
 21
229.2445573851266
 31
0.0
  0
POLYLINE
  5
182C
  8
L1
 66
     1
 10
0.0
 20
0.0
 30
0.0
  0
VERTEX
  5
1FC7
  8
L1
 10
159.68529762514919
 20
229.7195469135705
 30
0.0
  0
VERTEX
  5
1FC8
  8
L1
 10
159.66544893788969
 20
229.73874639401899
 30
0.0
  0
VERTEX
  5
1FC9
  8
L1
 10
159.64748443733839
 20
229.75964470090179
 30
0.0
  0
VERTEX
  5
1FCA
  8
L1
 10
159.63151252269421
 20
229.7821037995183
 30
0.0
  0
VERTEX
  5
1FCB
  8
L1
 10
159.61764159315501
 20
229.8059856551682
 30
0.0
  0
VERTEX
  5
1FCC
  8
L1
 10
159.6057066846958
 20
229.83182461286131
 30
0.0
  0
VERTEX
  5
1FCD
  8
L1
 10
159.59629196763791
 20
229.8586176896938
 30
0.0
  0
VERTEX
  5
1FCE
  8
L1
 10
159.58945253671811
 20
229.8861808357062
 30
0.0
  0
VERTEX
  5
1FCF
  8
L1
 10
159.58524348667351
 20
229.914330000939
 30
0.0
  0
VERTEX
  5
1FD0
  8
L1
 10
159.58371670274039
 20
229.9436950114096
 30
0.0
  0
VERTEX
  5
1FD1
  8
L1
 10
159.58506535663039
 20
229.97299911753171
 30
0.0
  0
VERTEX
  5
1FD2
  8
L1
 10
159.58926943800529
 20
230.0020314085719
 30
0.0
  0
VERTEX
  5
1FD3
  8
L1
 10
159.59630893652701
 20
230.03058097379721
 30
0.0
  0
VERTEX
  5
1FD4
  8
L1
 10
159.6062213753828
 20
230.0585761868559
 30
0.0
  0
VERTEX
  5
1FD5
  8
L1
 10
159.61881970556499
 20
230.08539072542141
 30
0.0
  0
VERTEX
  5
1FD6
  8
L1
 10
159.63400149171531
 20
230.11083183650879
 30
0.0
  0
VERTEX
  5
1FD7
  8
L1
 10
159.65166429847511
 20
230.13470676713311
 30
0.0
  0
VERTEX
  5
1FD8
  8
L1
 10
159.6710938163686
 20
230.1562093975657
 30
0.0
  0
VERTEX
  5
1FD9
  8
L1
 10
159.69245621880171
 20
230.1756942524535
 30
0.0
  0
VERTEX
  5
1FDA
  8
L1
 10
159.7155952194444
 20
230.19303203904011
 30
0.0
  0
VERTEX
  5
1FDB
  8
L1
 10
159.74035453196689
 20
230.20809346456949
 30
0.0
  0
VERTEX
  5
1FDC
  8
L1
 10
159.76183064040981
 20
230.21868729659411
 30
0.0
  0
VERTEX
  5
1FDD
  8
L1
 10
159.78404767200189
 20
230.22752182804331
 30
0.0
  0
VERTEX
  5
1FDE
  8
L1
 10
159.8068976825478
 20
230.23455907711411
 30
0.0
  0
VERTEX
  5
1FDF
  8
L1
 10
159.8302727278525
 20
230.23976106200351
 30
0.0
  0
VERTEX
  5
1FE0
  8
L1
 10
159.85689498555419
 20
230.24335716052261
 30
0.0
  0
VERTEX
  5
1FE1
  8
L1
 10
159.88370414728919
 20
230.2445573851266
 30
0.0
  0
SEQEND
  5
1FE2
  8
L1
  0
POLYLINE
  5
182D
  8
L1
 66
     1
 10
0.0
 20
0.0
 30
0.0
  0
VERTEX
  5
1FE3
  8
L1
 10
171.9005409199498
 20
232.04427252916349
 30
0.0
  0
VERTEX
  5
1FE4
  8
L1
 10
172.06594487773799
 20
232.03823374902541
 30
0.0
  0
VERTEX
  5
1FE5
  8
L1
 10
172.2332604287252
 20
232.0241650095187
 30
0.0
  0
VERTEX
  5
1FE6
  8
L1
 10
172.40167272414629
 20
232.0018662757922
 30
0.0
  0
VERTEX
  5
1FE7
  8
L1
 10
172.57036691523641
 20
231.97113751299571
 30
0.0
  0
VERTEX
  5
1FE8
  8
L1
 10
172.73854072945929
 20
231.93183926871239
 30
0.0
  0
VERTEX
  5
1FE9
  8
L1
 10
172.90543935643049
 20
231.8840607174358
 30
0.0
  0
VERTEX
  5
1FEA
  8
L1
 10
173.0703191406111
 20
231.82794476468041
 30
0.0
  0
VERTEX
  5
1FEB
  8
L1
 10
173.2324364264627
 20
231.7636343159605
 30
0.0
  0
VERTEX
  5
1FEC
  8
L1
 10
173.3911313124801
 20
231.69129391437269
 30
0.0
  0
VERTEX
  5
1FED
  8
L1
 10
173.54582654975059
 20
231.61128232987301
 30
0.0
  0
VERTEX
  5
1FEE
  8
L1
 10
173.69590246162281
 20
231.5240338082651
 30
0.0
  0
VERTEX
  5
1FEF
  8
L1
 10
173.84073937144589
 20
231.4299825953529
 30
0.0
  0
VERTEX
  5
1FF0
  8
L1
 10
173.9797486238385
 20
231.32960821858509
 30
0.0
  0
VERTEX
  5
1FF1
  8
L1
 10
174.11247376135881
 20
231.2235831634998
 30
0.0
  0
VERTEX
  5
1FF2
  8
L1
 10
174.23849340426489
 20
231.11263111303509
 30
0.0
  0
VERTEX
  5
1FF3
  8
L1
 10
174.35738617281399
 20
230.9974757501291
 30
0.0
  0
VERTEX
  5
1FF4
  8
L1
 10
174.46988941146
 20
230.87764174918399
 30
0.0
  0
VERTEX
  5
1FF5
  8
L1
 10
174.57815719517509
 20
230.75081723131649
 30
0.0
  0
VERTEX
  5
1FF6
  8
L1
 10
174.6814742449526
 20
230.6174284103551
 30
0.0
  0
VERTEX
  5
1FF7
  8
L1
 10
174.77912528178589
 20
230.4779015001281
 30
0.0
  0
VERTEX
  5
1FF8
  8
L1
 10
174.87044618573091
 20
230.33269668537409
 30
0.0
  0
VERTEX
  5
1FF9
  8
L1
 10
174.9549662163009
 20
230.1824025557022
 30
0.0
  0
VERTEX
  5
1FFA
  8
L1
 10
175.03226016367489
 20
230.0276379322458
 30
0.0
  0
VERTEX
  5
1FFB
  8
L1
 10
175.1019028180319
 20
229.86902163613891
 30
0.0
  0
VERTEX
  5
1FFC
  8
L1
 10
175.1635433243415
 20
229.70712947299049
 30
0.0
  0
VERTEX
  5
1FFD
  8
L1
 10
175.2170252429022
 20
229.54261692957019
 30
0.0
  0
VERTEX
  5
1FFE
  8
L1
 10
175.26221498688631
 20
229.3762223487517
 30
0.0
  0
VERTEX
  5
1FFF
  8
L1
 10
175.29897896946579
 20
229.2086840734091
 30
0.0
  0
VERTEX
  5
2000
  8
L1
 10
175.3271637784004
 20
229.04126554975321
 30
0.0
  0
VERTEX
  5
2001
  8
L1
 10
175.34704185203719
 20
228.87424009822271
 30
0.0
  0
VERTEX
  5
2002
  8
L1
 10
175.3588193692473
 20
228.7084049622149
 30
0.0
  0
VERTEX
  5
2003
  8
L1
 10
175.362702508902
 20
228.54455738512661
 30
0.0
  0
SEQEND
  5
2004
  8
L1
  0
ARC
  5
182E
  8
L1
 10
157.50254091994981
 20
227.24455738512651
 30
0.0
 40
3.3000000000000149
 50
48.590103019234988
 51
90.0
  0
ARC
  5
182F
  8
L1
 10
167.1025409199498
 20
223.79455738512661
 30
0.0
 40
5.0261806033722758
 50
357.26858442957263
 51
92.731415570427302
  0
ARC
  5
1830
  8
L1
 10
171.9005409199498
 20
228.5425573851266
 30
0.0
 40
2.7019999999999542
 50
0.000000000000007
 51
90.000000000001606
  0
ARC
  5
1831
  8
L1
 10
170.962702537669
 20
227.6445573851266
 30
0.0
 40
2.6000000000000001
 50
0.000000000000007
 51
90.0
  0
ARC
  5
1832
  8
L1
 10
157.50254091994981
 20
227.24455738512651
 30
0.0
 40
3.3000000000000149
 50
0.000000000000007
 51
48.590103019234988
  0
LINE
  5
1833
  8
L1
 10
173.86270253766901
 20
214.1945573851267
 30
0.0
 11
173.86270253766889
 21
142.04427252916349
 31
0.0
  0
LINE
  5
1834
  8
L1
 10
175.36270253766901
 20
228.5425573851266
 30
0.0
 11
175.36270253766901
 21
142.04427252916349
 31
0.0
  0
LINE
  5
1835
  8
L1
 10
174.6025409199498
 20
142.04427252916349
 30
0.0
 11
174.6025409199498
 21
228.5425573851266
 31
0.0
  0
LINE
  5
1836
  8
L1
 10
172.56270253766891
 20
213.49507139766331
 30
0.0
 11
172.56270253766891
 21
142.04427252916361
 31
0.0
  0
ARC
  5
1837
  8
L1
 10
167.1025409199498
 20
223.79455738512661
 30
0.0
 40
6.3000000000000487
 50
180.0
 51
270.0
  0
LINE
  5
1838
  8
L1
 10
173.562702537669
 20
227.6445573851266
 30
0.0
 11
173.562702537669
 21
216.575720612466
 31
0.0
  0
ARC
  5
1839
  8
L1
 10
167.1025409199498
 20
223.79455738512661
 30
0.0
 40
5.0261806033722758
 50
177.2685844295726
 51
272.73141557042891
  0
ARC
  5
183A
  8
L1
 10
167.1025409199498
 20
223.79455738512669
 30
0.0
 40
8.8000000000000114
 50
180.0
 51
217.28547390059799
  0
ARC
  5
183B
  8
L1
 10
167.1025409199498
 20
223.79455738512669
 30
0.0
 40
8.8000000000000114
 50
232.7145260994026
 51
270.0
  0
POLYLINE
  5
183C
  8
L1
 66
     1
 10
0.0
 20
0.0
 30
0.0
  0
VERTEX
  5
2005
  8
L1
 10
171.06321655020551
 20
214.9945573851266
 30
0.0
  0
VERTEX
  5
2006
  8
L1
 10
171.24399750054391
 20
214.98362647872639
 30
0.0
  0
VERTEX
  5
2007
  8
L1
 10
171.42212957380539
 20
214.95099301788591
 30
0.0
  0
VERTEX
  5
2008
  8
L1
 10
171.59501746628109
 20
214.89713245736431
 30
0.0
  0
VERTEX
  5
2009
  8
L1
 10
171.7601422796032
 20
214.82282952115841
 30
0.0
  0
VERTEX
  5
200A
  8
L1
 10
171.9150982199549
 20
214.7291667694291
 30
0.0
  0
VERTEX
  5
200B
  8
L1
 10
172.05762764939709
 20
214.61750882609019
 30
0.0
  0
VERTEX
  5
200C
  8
L1
 10
172.18565397863259
 20
214.48948249685481
 30
0.0
  0
VERTEX
  5
200D
  8
L1
 10
172.2973119219713
 20
214.34695306741261
 30
0.0
  0
VERTEX
  5
200E
  8
L1
 10
172.3909746737007
 20
214.19199712706089
 30
0.0
  0
VERTEX
  5
200F
  8
L1
 10
172.46527760990659
 20
214.02687231373881
 30
0.0
  0
VERTEX
  5
2010
  8
L1
 10
172.51913817042819
 20
213.85398442126311
 30
0.0
  0
VERTEX
  5
2011
  8
L1
 10
172.55177163126871
 20
213.6758523480016
 30
0.0
  0
VERTEX
  5
2012
  8
L1
 10
172.562702537669
 20
213.49507139766331
 30
0.0
  0
SEQEND
  5
2013
  8
L1
  0
ARC
  5
183D
  8
L1
 10
170.562702537669
 20
214.1945573851267
 30
0.0
 40
3.2999999999999439
 50
41.409896980764408
 51
90.0
  0
POLYLINE
  5
183E
  8
L1
 66
     1
 10
0.0
 20
0.0
 30
0.0
  0
VERTEX
  5
2014
  8
L1
 10
173.562702537669
 20
216.575720612466
 30
0.0
  0
VERTEX
  5
2015
  8
L1
 10
173.56263091547251
 20
216.56916541009389
 30
0.0
  0
VERTEX
  5
2016
  8
L1
 10
173.56050813707679
 20
216.53950108604391
 30
0.0
  0
VERTEX
  5
2017
  8
L1
 10
173.55547444611159
 20
216.5102629800945
 30
0.0
  0
VERTEX
  5
2018
  8
L1
 10
173.54757760198319
 20
216.48166501890719
 30
0.0
  0
VERTEX
  5
2019
  8
L1
 10
173.53686536409671
 20
216.45392112914439
 30
0.0
  0
VERTEX
  5
201A
  8
L1
 10
173.523487268026
 20
216.42742476321581
 30
0.0
  0
VERTEX
  5
201B
  8
L1
 10
173.50759751245261
 20
216.40243867353871
 30
0.0
  0
VERTEX
  5
201C
  8
L1
 10
173.48932194877909
 20
216.3791407734077
 30
0.0
  0
VERTEX
  5
201D
  8
L1
 10
173.46878642840889
 20
216.35770897611741
 30
0.0
  0
VERTEX
  5
201E
  8
L1
 10
173.4486323053433
 20
216.34028638203321
 30
0.0
  0
VERTEX
  5
201F
  8
L1
 10
173.42705532412029
 20
216.3247490851646
 30
0.0
  0
VERTEX
  5
2020
  8
L1
 10
173.40418731389749
 20
216.31118339111401
 30
0.0
  0
VERTEX
  5
2021
  8
L1
 10
173.38016010383211
 20
216.29967560548411
 30
0.0
  0
VERTEX
  5
2022
  8
L1
 10
173.35867752226261
 20
216.29149324117239
 30
0.0
  0
VERTEX
  5
2023
  8
L1
 10
173.33666388150459
 20
216.28498816650119
 30
0.0
  0
VERTEX
  5
2024
  8
L1
 10
173.31421729501201
 20
216.28018530732089
 30
0.0
  0
VERTEX
  5
2025
  8
L1
 10
173.2914358762381
 20
216.27710958948251
 30
0.0
  0
VERTEX
  5
2026
  8
L1
 10
173.27007695625019
 20
216.2758221312657
 30
0.0
  0
VERTEX
  5
2027
  8
L1
 10
173.2487075692226
 20
216.27605912636051
 30
0.0
  0
VERTEX
  5
2028
  8
L1
 10
173.22740926036721
 20
216.27781673545479
 30
0.0
  0
VERTEX
  5
2029
  8
L1
 10
173.20626357489601
 20
216.28109111923641
 30
0.0
  0
VERTEX
  5
202A
  8
L1
 10
173.1828078067318
 20
216.28656952916521
 30
0.0
  0
VERTEX
  5
202B
  8
L1
 10
173.1599031903896
 20
216.29389869077951
 30
0.0
  0
VERTEX
  5
202C
  8
L1
 10
173.13765910670679
 20
216.30303867024821
 30
0.0
  0
VERTEX
  5
202D
  8
L1
 10
173.1161849365208
 20
216.3139495337405
 30
0.0
  0
VERTEX
  5
202E
  8
L1
 10
173.09458276412369
 20
216.32727006214901
 30
0.0
  0
VERTEX
  5
202F
  8
L1
 10
173.0742311143573
 20
216.34233012040431
 30
0.0
  0
VERTEX
  5
2030
  8
L1
 10
173.05523315807079
 20
216.35904102447401
 30
0.0
  0
VERTEX
  5
2031
  8
L1
 10
173.03769206611301
 20
216.37731409032591
 30
0.0
  0
SEQEND
  5
2032
  8
L1
  0
ARC
  5
183F
  8
L1
 10
170.562702537669
 20
214.1945573851267
 30
0.0
 40
3.2999999999999439
 50
0.000000000000007
 51
41.409896980764408
  0
LINE
  5
1840
  8
L1
 10
169.6025409199498
 20
217.4945573851266
 30
0.0
 11
170.562702537669
 21
217.4945573851266
 31
0.0
  0
LINE
  5
1841
  8
L1
 10
167.1025409199498
 20
214.99455738512671
 30
0.0
 11
171.06321655020551
 21
214.99455738512671
 31
0.0
  0
LINE
  5
1842
  8
L1
 10
167.1025409199498
 20
217.4945573851266
 30
0.0
 11
169.6025409199498
 21
217.4945573851266
 31
0.0
  0
LINE
  5
1843
  8
L1
 10
160.30913353352679
 20
215.8712525543682
 30
0.0
 11
161.39704484217481
 21
216.7841185322084
 31
0.0
  0
POLYLINE
  5
1844
  8
L1
 66
     1
 10
0.0
 20
0.0
 30
0.0
  0
VERTEX
  5
2033
  8
L1
 10
161.39704484217481
 20
216.78411853220831
 30
0.0
  0
VERTEX
  5
2034
  8
L1
 10
161.428438650148
 20
216.8071631677015
 30
0.0
  0
VERTEX
  5
2035
  8
L1
 10
161.46261195370869
 20
216.82597720190321
 30
0.0
  0
VERTEX
  5
2036
  8
L1
 10
161.4841014898175
 20
216.83504649822331
 30
0.0
  0
VERTEX
  5
2037
  8
L1
 10
161.50619696079551
 20
216.8424095801625
 30
0.0
  0
VERTEX
  5
2038
  8
L1
 10
161.52879690221971
 20
216.8480368127079
 30
0.0
  0
VERTEX
  5
2039
  8
L1
 10
161.5517998496675
 20
216.85189856084671
 30
0.0
  0
VERTEX
  5
203A
  8
L1
 10
161.5735262737991
 20
216.85388285630651
 30
0.0
  0
VERTEX
  5
203B
  8
L1
 10
161.59531078915589
 20
216.85428341604089
 30
0.0
  0
VERTEX
  5
203C
  8
L1
 10
161.61706689233509
 20
216.8531016929845
 30
0.0
  0
VERTEX
  5
203D
  8
L1
 10
161.63870807993399
 20
216.8503391400717
 30
0.0
  0
VERTEX
  5
203E
  8
L1
 10
161.6619594396129
 20
216.84555496838229
 30
0.0
  0
VERTEX
  5
203F
  8
L1
 10
161.68472458282091
 20
216.83895857161821
 30
0.0
  0
VERTEX
  5
2040
  8
L1
 10
161.7068977363335
 20
216.83058512063749
 30
0.0
  0
VERTEX
  5
2041
  8
L1
 10
161.72837312692721
 20
216.8204697862985
 30
0.0
  0
VERTEX
  5
2042
  8
L1
 10
161.75060734363299
 20
216.80766314898639
 30
0.0
  0
VERTEX
  5
2043
  8
L1
 10
161.7716179090566
 20
216.79303898895509
 30
0.0
  0
SEQEND
  5
2044
  8
L1
  0
POLYLINE
  5
1845
  8
L1
 66
     1
 10
0.0
 20
0.0
 30
0.0
  0
VERTEX
  5
2045
  8
L1
 10
159.19691671452151
 20
216.5961971013941
 30
0.0
  0
VERTEX
  5
2046
  8
L1
 10
159.1441654535794
 20
216.66748565907019
 30
0.0
  0
VERTEX
  5
2047
  8
L1
 10
159.11456231087681
 20
216.75108085984141
 30
0.0
  0
VERTEX
  5
2048
  8
L1
 10
159.11069407792311
 20
216.83967796049961
 30
0.0
  0
VERTEX
  5
2049
  8
L1
 10
159.13289876991689
 20
216.9255351401836
 30
0.0
  0
VERTEX
  5
204A
  8
L1
 10
159.17923608919151
 20
217.0011499987034
 30
0.0
  0
SEQEND
  5
204B
  8
L1
  0
POLYLINE
  5
1846
  8
L1
 66
     1
 10
0.0
 20
0.0
 30
0.0
  0
VERTEX
  5
204C
  8
L1
 10
160.1010225237784
 20
218.46363437423321
 30
0.0
  0
VERTEX
  5
204D
  8
L1
 10
160.11396820778651
 20
218.44523929240179
 30
0.0
  0
VERTEX
  5
204E
  8
L1
 10
160.125523802825
 20
218.42587976533139
 30
0.0
  0
VERTEX
  5
204F
  8
L1
 10
160.13795931027479
 20
218.40034261066231
 30
0.0
  0
VERTEX
  5
2050
  8
L1
 10
160.14790381527209
 20
218.3738034483996
 30
0.0
  0
VERTEX
  5
2051
  8
L1
 10
160.1552989393023
 20
218.3464440913512
 30
0.0
  0
VERTEX
  5
2052
  8
L1
 10
160.1600863038509
 20
218.3184463523246
 30
0.0
  0
VERTEX
  5
2053
  8
L1
 10
160.1622278730753
 20
218.28918347150579
 30
0.0
  0
VERTEX
  5
2054
  8
L1
 10
160.1615053869462
 20
218.25992035041889
 30
0.0
  0
VERTEX
  5
2055
  8
L1
 10
160.1579345495542
 20
218.23086684205489
 30
0.0
  0
VERTEX
  5
2056
  8
L1
 10
160.15153106498991
 20
218.2022327994047
 30
0.0
  0
VERTEX
  5
2057
  8
L1
 10
160.14222716309669
 20
218.17401217972349
 30
0.0
  0
VERTEX
  5
2058
  8
L1
 10
160.13021013134551
 20
218.14691405574209
 30
0.0
  0
VERTEX
  5
2059
  8
L1
 10
160.11557854270799
 20
218.12113345998691
 30
0.0
  0
VERTEX
  5
205A
  8
L1
 10
160.09843097015619
 20
218.0968654249844
 30
0.0
  0
VERTEX
  5
205B
  8
L1
 10
160.0921020670317
 20
218.0890613073515
 30
0.0
  0
SEQEND
  5
205C
  8
L1
  0
POLYLINE
  5
1847
  8
L1
 66
     1
 10
0.0
 20
0.0
 30
0.0
  0
VERTEX
  5
205D
  8
L1
 10
160.30913353352679
 20
215.87125255436811
 30
0.0
  0
VERTEX
  5
205E
  8
L1
 10
160.23351867500679
 20
215.82491523509361
 30
0.0
  0
VERTEX
  5
205F
  8
L1
 10
160.14766149532301
 20
215.80271054309961
 30
0.0
  0
VERTEX
  5
2060
  8
L1
 10
160.05906439466469
 20
215.80657877605341
 30
0.0
  0
VERTEX
  5
2061
  8
L1
 10
159.97546919389359
 20
215.8361819187561
 30
0.0
  0
VERTEX
  5
2062
  8
L1
 10
159.90418063621749
 20
215.8889331796982
 30
0.0
  0
SEQEND
  5
2063
  8
L1
  0
LINE
  5
1848
  8
L1
 10
159.19691671452151
 20
216.5961971013941
 30
0.0
 11
159.9041806362174
 21
215.8889331796982
 31
0.0
  0
LINE
  5
1849
  8
L1
 10
160.0921020670317
 20
218.0890613073515
 30
0.0
 11
159.17923608919151
 21
217.00114999870351
 31
0.0
  0
LINE
  5
184A
  8
L1
 10
166.8529138424831
 20
228.8145454528005
 30
0.0
 11
162.08255285227591
 21
224.04418446259339
 31
0.0
  0
LINE
  5
184B
  8
L1
 10
167.34205923436099
 20
218.7740870451309
 30
0.0
 11
167.35216799741659
 21
218.7745693174528
 31
0.0
  0
LINE
  5
184C
  8
L1
 10
172.1225289876237
 20
223.5449303076598
 30
0.0
 11
172.12301125994571
 21
223.5550390707154
 31
0.0
  0
LINE
  5
184D
  8
L1
 10
167.35216799741659
 20
218.7745693174528
 30
0.0
 11
172.1225289876237
 21
223.54493030765991
 31
0.0
  0
POLYLINE
  5
184E
  8
L1
 66
     1
 10
0.0
 20
0.0
 30
0.0
  0
VERTEX
  5
2064
  8
L1
 10
175.362702508902
 20
228.54455738512661
 30
0.0
  0
VERTEX
  5
2065
  8
L1
 10
175.36270253766901
 20
228.5425573851266
 30
0.0
  0
SEQEND
  5
2066
  8
L1
  0
LINE
  5
184F
  8
L1
 10
166.86302260553859
 20
228.81502772512241
 30
0.0
 11
166.8529138424831
 21
228.8145454528005
 31
0.0
  0
LINE
  5
1850
  8
L1
 10
158.30254091994979
 20
227.74507139766331
 30
0.0
 11
158.30254091994979
 21
223.79455738512661
 31
0.0
  0
LINE
  5
1851
  8
L1
 10
160.80254091994979
 20
226.29455738512661
 30
0.0
 11
160.80254091994979
 21
223.79455738512669
 31
0.0
  0
LINE
  5
1852
  8
L1
 10
162.08255285227591
 20
224.04418446259339
 30
0.0
 11
162.08207057995401
 21
224.03407569953779
 31
0.0
  0
POLYLINE
  5
1853
  8
L1
 66
     1
 10
0.0
 20
0.0
 30
0.0
  0
VERTEX
  5
2067
  8
L1
 10
156.8030549324865
 20
229.2445573851266
 30
0.0
  0
VERTEX
  5
2068
  8
L1
 10
156.98383588282479
 20
229.23362647872631
 30
0.0
  0
VERTEX
  5
2069
  8
L1
 10
157.16196795608619
 20
229.20099301788591
 30
0.0
  0
VERTEX
  5
206A
  8
L1
 10
157.33485584856189
 20
229.14713245736431
 30
0.0
  0
VERTEX
  5
206B
  8
L1
 10
157.49998066188411
 20
229.0728295211583
 30
0.0
  0
VERTEX
  5
206C
  8
L1
 10
157.65493660223581
 20
228.9791667694291
 30
0.0
  0
VERTEX
  5
206D
  8
L1
 10
157.797466031678
 20
228.86750882609019
 30
0.0
  0
VERTEX
  5
206E
  8
L1
 10
157.92549236091341
 20
228.73948249685481
 30
0.0
  0
VERTEX
  5
206F
  8
L1
 10
158.03715030425241
 20
228.59695306741261
 30
0.0
  0
VERTEX
  5
2070
  8
L1
 10
158.1308130559816
 20
228.44199712706089
 30
0.0
  0
VERTEX
  5
2071
  8
L1
 10
158.2051159921875
 20
228.27687231373869
 30
0.0
  0
VERTEX
  5
2072
  8
L1
 10
158.25897655270921
 20
228.10398442126299
 30
0.0
  0
VERTEX
  5
2073
  8
L1
 10
158.2916100135495
 20
227.9258523480016
 30
0.0
  0
VERTEX
  5
2074
  8
L1
 10
158.30254091994979
 20
227.74507139766331
 30
0.0
  0
SEQEND
  5
2075
  8
L1
  0
LINE
  5
1854
  8
L1
 10
160.80254091994979
 20
227.2445573851266
 30
0.0
 11
160.80254091994979
 21
226.29455738512661
 31
0.0
  0
LINE
  5
1855
  8
L1
 10
159.88370414728919
 20
230.2445573851266
 30
0.0
 11
170.962702537669
 21
230.2445573851266
 31
0.0
  0
POLYLINE
  5
1856
  8
L1
 66
     1
 10
0.0
 20
0.0
 30
0.0
  0
VERTEX
  5
2076
  8
L1
 10
171.85581148553069
 20
232.04455738512661
 30
0.0
  0
VERTEX
  5
2077
  8
L1
 10
171.87817292552481
 20
232.0444861704114
 30
0.0
  0
VERTEX
  5
2078
  8
L1
 10
171.9005409199498
 20
232.04427252916349
 30
0.0
  0
SEQEND
  5
2079
  8
L1
  0
ARC
  5
1857
  8
L1
 10
157.50254091994981
 20
56.843987673200502
 30
0.0
 40
3.3000000000000149
 50
311.40989698076498
 51
0.0
  0
ARC
  5
1858
  8
L1
 10
170.962702537669
 20
56.443987673200468
 30
0.0
 40
2.6000000000000001
 50
270.0
 51
0.0
  0
ARC
  5
1859
  8
L1
 10
171.9005409199498
 20
55.545987673200443
 30
0.0
 40
2.7019999999999542
 50
269.99999999999829
 51
0.0
  0
ARC
  5
185A
  8
L1
 10
167.1025409199498
 20
60.293987673200427
 30
0.0
 40
5.0261806033722758
 50
267.26858442957268
 51
2.7314155704273611
  0
ARC
  5
185B
  8
L1
 10
157.50254091994981
 20
56.843987673200502
 30
0.0
 40
3.3000000000000149
 50
270.0
 51
311.40989698076498
  0
POLYLINE
  5
185C
  8
L1
 66
     1
 10
0.0
 20
0.0
 30
0.0
  0
VERTEX
  5
207A
  8
L1
 10
171.9005409199498
 20
52.04427252916355
 30
0.0
  0
VERTEX
  5
207B
  8
L1
 10
172.06594487773799
 20
52.050311309301598
 30
0.0
  0
VERTEX
  5
207C
  8
L1
 10
172.2332604287252
 20
52.064380048808403
 30
0.0
  0
VERTEX
  5
207D
  8
L1
 10
172.40167272414629
 20
52.086678782534818
 30
0.0
  0
VERTEX
  5
207E
  8
L1
 10
172.57036691523641
 20
52.117407545331382
 30
0.0
  0
VERTEX
  5
207F
  8
L1
 10
172.73854072945929
 20
52.156705789614641
 30
0.0
  0
VERTEX
  5
2080
  8
L1
 10
172.90543935643049
 20
52.20448434089127
 30
0.0
  0
VERTEX
  5
2081
  8
L1
 10
173.0703191406111
 20
52.260600293646689
 30
0.0
  0
VERTEX
  5
2082
  8
L1
 10
173.2324364264627
 20
52.324910742366569
 30
0.0
  0
VERTEX
  5
2083
  8
L1
 10
173.3911313124801
 20
52.39725114395435
 30
0.0
  0
VERTEX
  5
2084
  8
L1
 10
173.54582654975059
 20
52.477262728454093
 30
0.0
  0
VERTEX
  5
2085
  8
L1
 10
173.69590246162281
 20
52.564511250061912
 30
0.0
  0
VERTEX
  5
2086
  8
L1
 10
173.84073937144589
 20
52.658562462974139
 30
0.0
  0
VERTEX
  5
2087
  8
L1
 10
173.9797486238385
 20
52.758936839741978
 30
0.0
  0
VERTEX
  5
2088
  8
L1
 10
174.11247376135881
 20
52.864961894827218
 30
0.0
  0
VERTEX
  5
2089
  8
L1
 10
174.23849340426489
 20
52.97591394529195
 30
0.0
  0
VERTEX
  5
208A
  8
L1
 10
174.35738617281399
 20
53.09106930819798
 30
0.0
  0
VERTEX
  5
208B
  8
L1
 10
174.46988941146
 20
53.210903309143077
 30
0.0
  0
VERTEX
  5
208C
  8
L1
 10
174.57815719517509
 20
53.337727827010553
 30
0.0
  0
VERTEX
  5
208D
  8
L1
 10
174.6814742449526
 20
53.471116647972003
 30
0.0
  0
VERTEX
  5
208E
  8
L1
 10
174.77912528178589
 20
53.610643558199001
 30
0.0
  0
VERTEX
  5
208F
  8
L1
 10
174.87044618573091
 20
53.755848372952919
 30
0.0
  0
VERTEX
  5
2090
  8
L1
 10
174.9549662163009
 20
53.906142502624903
 30
0.0
  0
VERTEX
  5
2091
  8
L1
 10
175.03226016367489
 20
54.060907126081247
 30
0.0
  0
VERTEX
  5
2092
  8
L1
 10
175.1019028180319
 20
54.219523422188161
 30
0.0
  0
VERTEX
  5
2093
  8
L1
 10
175.1635433243415
 20
54.381415585336519
 30
0.0
  0
VERTEX
  5
2094
  8
L1
 10
175.2170252429022
 20
54.545928128756827
 30
0.0
  0
VERTEX
  5
2095
  8
L1
 10
175.26221498688631
 20
54.712322709575353
 30
0.0
  0
VERTEX
  5
2096
  8
L1
 10
175.29897896946579
 20
54.879860984917968
 30
0.0
  0
VERTEX
  5
2097
  8
L1
 10
175.3271637784004
 20
55.047279508573858
 30
0.0
  0
VERTEX
  5
2098
  8
L1
 10
175.34704185203719
 20
55.2143049601043
 30
0.0
  0
VERTEX
  5
2099
  8
L1
 10
175.3588193692473
 20
55.3801400961122
 30
0.0
  0
VERTEX
  5
209A
  8
L1
 10
175.362702508902
 20
55.543987673200427
 30
0.0
  0
SEQEND
  5
209B
  8
L1
  0
POLYLINE
  5
185D
  8
L1
 66
     1
 10
0.0
 20
0.0
 30
0.0
  0
VERTEX
  5
209C
  8
L1
 10
159.68529762514919
 20
54.36899814475651
 30
0.0
  0
VERTEX
  5
209D
  8
L1
 10
159.66544893788969
 20
54.349798664308018
 30
0.0
  0
VERTEX
  5
209E
  8
L1
 10
159.64748443733839
 20
54.328900357425248
 30
0.0
  0
VERTEX
  5
209F
  8
L1
 10
159.63151252269421
 20
54.306441258808711
 30
0.0
  0
VERTEX
  5
20A0
  8
L1
 10
159.61764159315501
 20
54.282559403158821
 30
0.0
  0
VERTEX
  5
20A1
  8
L1
 10
159.6057066846958
 20
54.25672044546576
 30
0.0
  0
VERTEX
  5
20A2
  8
L1
 10
159.59629196763791
 20
54.229927368633298
 30
0.0
  0
VERTEX
  5
20A3
  8
L1
 10
159.58945253671811
 20
54.202364222620872
 30
0.0
  0
VERTEX
  5
20A4
  8
L1
 10
159.58524348667351
 20
54.174215057388039
 30
0.0
  0
VERTEX
  5
20A5
  8
L1
 10
159.58371670274039
 20
54.144850046917441
 30
0.0
  0
VERTEX
  5
20A6
  8
L1
 10
159.58506535663039
 20
54.115545940795407
 30
0.0
  0
VERTEX
  5
20A7
  8
L1
 10
159.58926943800529
 20
54.086513649755148
 30
0.0
  0
VERTEX
  5
20A8
  8
L1
 10
159.59630893652701
 20
54.057964084529829
 30
0.0
  0
VERTEX
  5
20A9
  8
L1
 10
159.6062213753828
 20
54.029968871471169
 30
0.0
  0
VERTEX
  5
20AA
  8
L1
 10
159.61881970556499
 20
54.003154332905638
 30
0.0
  0
VERTEX
  5
20AB
  8
L1
 10
159.63400149171531
 20
53.977713221818242
 30
0.0
  0
VERTEX
  5
20AC
  8
L1
 10
159.65166429847511
 20
53.953838291193961
 30
0.0
  0
VERTEX
  5
20AD
  8
L1
 10
159.6710938163686
 20
53.932335660761332
 30
0.0
  0
VERTEX
  5
20AE
  8
L1
 10
159.69245621880171
 20
53.912850805873511
 30
0.0
  0
VERTEX
  5
20AF
  8
L1
 10
159.7155952194444
 20
53.895513019286902
 30
0.0
  0
VERTEX
  5
20B0
  8
L1
 10
159.74035453196689
 20
53.880451593757577
 30
0.0
  0
VERTEX
  5
20B1
  8
L1
 10
159.76183064040981
 20
53.869857761732987
 30
0.0
  0
VERTEX
  5
20B2
  8
L1
 10
159.78404767200189
 20
53.861023230283763
 30
0.0
  0
VERTEX
  5
20B3
  8
L1
 10
159.8068976825478
 20
53.853985981212929
 30
0.0
  0
VERTEX
  5
20B4
  8
L1
 10
159.8302727278525
 20
53.848783996323498
 30
0.0
  0
VERTEX
  5
20B5
  8
L1
 10
159.85689498555419
 20
53.845187897804401
 30
0.0
  0
VERTEX
  5
20B6
  8
L1
 10
159.88370414728919
 20
53.843987673200438
 30
0.0
  0
SEQEND
  5
20B7
  8
L1
  0
LINE
  5
185F
  8
L1
 10
167.35216799741659
 20
65.313975740874298
 30
0.0
 11
172.1225289876237
 21
60.543614750667132
 31
0.0
  0
ARC
  5
1860
  8
L1
 10
170.562702537669
 20
69.893987673200385
 30
0.0
 40
3.2999999999999439
 50
270.0
 51
318.59010301923558
  0
POLYLINE
  5
1861
  8
L1
 66
     1
 10
0.0
 20
0.0
 30
0.0
  0
VERTEX
  5
20B8
  8
L1
 10
171.06321655020551
 20
69.093987673200445
 30
0.0
  0
VERTEX
  5
20B9
  8
L1
 10
171.24399750054391
 20
69.104918579600664
 30
0.0
  0
VERTEX
  5
20BA
  8
L1
 10
171.42212957380539
 20
69.137552040441108
 30
0.0
  0
VERTEX
  5
20BB
  8
L1
 10
171.59501746628109
 20
69.191412600962735
 30
0.0
  0
VERTEX
  5
20BC
  8
L1
 10
171.7601422796032
 20
69.265715537168717
 30
0.0
  0
VERTEX
  5
20BD
  8
L1
 10
171.9150982199549
 20
69.359378288897915
 30
0.0
  0
VERTEX
  5
20BE
  8
L1
 10
172.05762764939709
 20
69.471036232236884
 30
0.0
  0
VERTEX
  5
20BF
  8
L1
 10
172.18565397863259
 20
69.599062561472238
 30
0.0
  0
VERTEX
  5
20C0
  8
L1
 10
172.2973119219713
 20
69.741591990914443
 30
0.0
  0
VERTEX
  5
20C1
  8
L1
 10
172.3909746737007
 20
69.896547931266127
 30
0.0
  0
VERTEX
  5
20C2
  8
L1
 10
172.46527760990659
 20
70.061672744588293
 30
0.0
  0
VERTEX
  5
20C3
  8
L1
 10
172.51913817042819
 20
70.234560637063964
 30
0.0
  0
VERTEX
  5
20C4
  8
L1
 10
172.55177163126871
 20
70.412692710325473
 30
0.0
  0
VERTEX
  5
20C5
  8
L1
 10
172.562702537669
 20
70.593473660663733
 30
0.0
  0
SEQEND
  5
20C6
  8
L1
  0
LINE
  5
1862
  8
L1
 10
156.8030549324865
 20
54.843987673200438
 30
0.0
 11
85.362702537668994
 21
54.843987673200438
 31
0.0
  0
ARC
  5
1863
  8
L1
 10
167.1025409199498
 20
60.293987673200377
 30
0.0
 40
8.8000000000000114
 50
142.71452609940189
 51
180.0
  0
ARC
  5
1864
  8
L1
 10
167.1025409199498
 20
60.293987673200427
 30
0.0
 40
5.0261806033722758
 50
87.268584429571035
 51
182.73141557042729
  0
ARC
  5
1865
  8
L1
 10
167.1025409199498
 20
60.293987673200427
 30
0.0
 40
6.3000000000000487
 50
90.000000000000028
 51
180.0
  0
LINE
  5
1866
  8
L1
 10
160.30913353352679
 20
68.217292503958845
 30
0.0
 11
161.39704484217481
 21
67.304426526118675
 31
0.0
  0
LINE
  5
1867
  8
L1
 10
160.0921020670317
 20
65.999483750975514
 30
0.0
 11
159.17923608919151
 21
67.087395059623589
 31
0.0
  0
LINE
  5
1868
  8
L1
 10
159.19691671452151
 20
67.492347956932917
 30
0.0
 11
159.9041806362174
 21
68.199611878628843
 31
0.0
  0
POLYLINE
  5
1869
  8
L1
 66
     1
 10
0.0
 20
0.0
 30
0.0
  0
VERTEX
  5
20C7
  8
L1
 10
160.30913353352679
 20
68.217292503958902
 30
0.0
  0
VERTEX
  5
20C8
  8
L1
 10
160.23351867500679
 20
68.263629823233487
 30
0.0
  0
VERTEX
  5
20C9
  8
L1
 10
160.14766149532301
 20
68.285834515227407
 30
0.0
  0
VERTEX
  5
20CA
  8
L1
 10
160.05906439466469
 20
68.281966282273629
 30
0.0
  0
VERTEX
  5
20CB
  8
L1
 10
159.97546919389359
 20
68.252363139571003
 30
0.0
  0
VERTEX
  5
20CC
  8
L1
 10
159.90418063621749
 20
68.199611878628843
 30
0.0
  0
SEQEND
  5
20CD
  8
L1
  0
POLYLINE
  5
186A
  8
L1
 66
     1
 10
0.0
 20
0.0
 30
0.0
  0
VERTEX
  5
20CE
  8
L1
 10
160.1010225237784
 20
65.624910684093834
 30
0.0
  0
VERTEX
  5
20CF
  8
L1
 10
160.11396820778651
 20
65.64330576592522
 30
0.0
  0
VERTEX
  5
20D0
  8
L1
 10
160.125523802825
 20
65.662665292995655
 30
0.0
  0
VERTEX
  5
20D1
  8
L1
 10
160.13795931027479
 20
65.688202447664821
 30
0.0
  0
VERTEX
  5
20D2
  8
L1
 10
160.14790381527209
 20
65.714741609927444
 30
0.0
  0
VERTEX
  5
20D3
  8
L1
 10
160.1552989393023
 20
65.74210096697584
 30
0.0
  0
VERTEX
  5
20D4
  8
L1
 10
160.1600863038509
 20
65.770098706002486
 30
0.0
  0
VERTEX
  5
20D5
  8
L1
 10
160.1622278730753
 20
65.799361586821249
 30
0.0
  0
VERTEX
  5
20D6
  8
L1
 10
160.1615053869462
 20
65.828624707908133
 30
0.0
  0
VERTEX
  5
20D7
  8
L1
 10
160.1579345495542
 20
65.85767821627212
 30
0.0
  0
VERTEX
  5
20D8
  8
L1
 10
160.15153106498991
 20
65.886312258922317
 30
0.0
  0
VERTEX
  5
20D9
  8
L1
 10
160.14222716309669
 20
65.914532878603552
 30
0.0
  0
VERTEX
  5
20DA
  8
L1
 10
160.13021013134551
 20
65.941631002584984
 30
0.0
  0
VERTEX
  5
20DB
  8
L1
 10
160.11557854270799
 20
65.967411598340163
 30
0.0
  0
VERTEX
  5
20DC
  8
L1
 10
160.09843097015619
 20
65.991679633342642
 30
0.0
  0
VERTEX
  5
20DD
  8
L1
 10
160.0921020670317
 20
65.999483750975514
 30
0.0
  0
SEQEND
  5
20DE
  8
L1
  0
POLYLINE
  5
186B
  8
L1
 66
     1
 10
0.0
 20
0.0
 30
0.0
  0
VERTEX
  5
20DF
  8
L1
 10
159.19691671452151
 20
67.492347956932917
 30
0.0
  0
VERTEX
  5
20E0
  8
L1
 10
159.1441654535794
 20
67.421059399256819
 30
0.0
  0
VERTEX
  5
20E1
  8
L1
 10
159.11456231087681
 20
67.337464198485691
 30
0.0
  0
VERTEX
  5
20E2
  8
L1
 10
159.11069407792311
 20
67.248867097827429
 30
0.0
  0
VERTEX
  5
20E3
  8
L1
 10
159.13289876991689
 20
67.163009918143473
 30
0.0
  0
VERTEX
  5
20E4
  8
L1
 10
159.17923608919151
 20
67.087395059623645
 30
0.0
  0
SEQEND
  5
20E5
  8
L1
  0
ARC
  5
186C
  8
L1
 10
167.1025409199498
 20
60.293987673200377
 30
0.0
 40
8.8000000000000114
 50
90.000000000000028
 51
127.2854739005973
  0
POLYLINE
  5
186D
  8
L1
 66
     1
 10
0.0
 20
0.0
 30
0.0
  0
VERTEX
  5
20E6
  8
L1
 10
161.39704484217481
 20
67.304426526118732
 30
0.0
  0
VERTEX
  5
20E7
  8
L1
 10
161.428438650148
 20
67.281381890625539
 30
0.0
  0
VERTEX
  5
20E8
  8
L1
 10
161.46261195370869
 20
67.262567856423857
 30
0.0
  0
VERTEX
  5
20E9
  8
L1
 10
161.4841014898175
 20
67.253498560103708
 30
0.0
  0
VERTEX
  5
20EA
  8
L1
 10
161.50619696079551
 20
67.246135478164547
 30
0.0
  0
VERTEX
  5
20EB
  8
L1
 10
161.52879690221971
 20
67.240508245619125
 30
0.0
  0
VERTEX
  5
20EC
  8
L1
 10
161.5517998496675
 20
67.236646497480365
 30
0.0
  0
VERTEX
  5
20ED
  8
L1
 10
161.5735262737991
 20
67.234662202020544
 30
0.0
  0
VERTEX
  5
20EE
  8
L1
 10
161.59531078915589
 20
67.234261642286114
 30
0.0
  0
VERTEX
  5
20EF
  8
L1
 10
161.61706689233509
 20
67.235443365342576
 30
0.0
  0
VERTEX
  5
20F0
  8
L1
 10
161.63870807993399
 20
67.238205918255403
 30
0.0
  0
VERTEX
  5
20F1
  8
L1
 10
161.6619594396129
 20
67.242990089944783
 30
0.0
  0
VERTEX
  5
20F2
  8
L1
 10
161.68472458282091
 20
67.249586486708893
 30
0.0
  0
VERTEX
  5
20F3
  8
L1
 10
161.7068977363335
 20
67.25795993768952
 30
0.0
  0
VERTEX
  5
20F4
  8
L1
 10
161.72837312692721
 20
67.268075272028511
 30
0.0
  0
VERTEX
  5
20F5
  8
L1
 10
161.75060734363299
 20
67.280881909340678
 30
0.0
  0
VERTEX
  5
20F6
  8
L1
 10
161.7716179090566
 20
67.295506069371982
 30
0.0
  0
SEQEND
  5
20F7
  8
L1
  0
LINE
  5
186E
  8
L1
 10
167.1025409199498
 20
66.593987673200445
 30
0.0
 11
169.6025409199498
 21
66.593987673200445
 31
0.0
  0
LINE
  5
186F
  8
L1
 10
167.1025409199498
 20
69.093987673200374
 30
0.0
 11
171.06321655020551
 21
69.093987673200374
 31
0.0
  0
LINE
  5
1870
  8
L1
 10
169.6025409199498
 20
66.593987673200445
 30
0.0
 11
170.562702537669
 21
66.593987673200445
 31
0.0
  0
LINE
  5
1871
  8
L1
 10
158.30254091994979
 20
56.343473660663783
 30
0.0
 11
158.30254091994979
 21
60.293987673200427
 31
0.0
  0
POLYLINE
  5
1872
  8
L1
 66
     1
 10
0.0
 20
0.0
 30
0.0
  0
VERTEX
  5
20F8
  8
L1
 10
156.8030549324865
 20
54.843987673200438
 30
0.0
  0
VERTEX
  5
20F9
  8
L1
 10
156.98383588282479
 20
54.854918579600742
 30
0.0
  0
VERTEX
  5
20FA
  8
L1
 10
157.16196795608619
 20
54.887552040441157
 30
0.0
  0
VERTEX
  5
20FB
  8
L1
 10
157.33485584856189
 20
54.941412600962742
 30
0.0
  0
VERTEX
  5
20FC
  8
L1
 10
157.49998066188411
 20
55.01571553716871
 30
0.0
  0
VERTEX
  5
20FD
  8
L1
 10
157.65493660223581
 20
55.109378288897972
 30
0.0
  0
VERTEX
  5
20FE
  8
L1
 10
157.797466031678
 20
55.221036232236891
 30
0.0
  0
VERTEX
  5
20FF
  8
L1
 10
157.92549236091341
 20
55.34906256147223
 30
0.0
  0
VERTEX
  5
2100
  8
L1
 10
158.03715030425241
 20
55.491591990914522
 30
0.0
  0
VERTEX
  5
2101
  8
L1
 10
158.1308130559816
 20
55.646547931266127
 30
0.0
  0
VERTEX
  5
2102
  8
L1
 10
158.2051159921875
 20
55.811672744588343
 30
0.0
  0
VERTEX
  5
2103
  8
L1
 10
158.25897655270921
 20
55.984560637064021
 30
0.0
  0
VERTEX
  5
2104
  8
L1
 10
158.2916100135495
 20
56.162692710325473
 30
0.0
  0
VERTEX
  5
2105
  8
L1
 10
158.30254091994979
 20
56.343473660663783
 30
0.0
  0
SEQEND
  5
2106
  8
L1
  0
LINE
  5
1873
  8
L1
 10
160.80254091994979
 20
57.793987673200427
 30
0.0
 11
160.80254091994979
 21
60.293987673200377
 31
0.0
  0
LINE
  5
1874
  8
L1
 10
166.8529138424831
 20
55.273999605526562
 30
0.0
 11
162.08255285227591
 21
60.044360595733679
 31
0.0
  0
LINE
  5
1875
  8
L1
 10
162.08255285227591
 20
60.044360595733679
 30
0.0
 11
162.08207057995401
 21
60.054469358789277
 31
0.0
  0
LINE
  5
1876
  8
L1
 10
167.34205923436099
 20
65.314458013196202
 30
0.0
 11
167.35216799741659
 21
65.313975740874298
 31
0.0
  0
LINE
  5
1877
  8
L1
 10
160.80254091994979
 20
56.843987673200438
 30
0.0
 11
160.80254091994979
 21
57.793987673200427
 31
0.0
  0
LINE
  5
1878
  8
L1
 10
166.86302260553859
 20
55.273517333204659
 30
0.0
 11
166.8529138424831
 21
55.273999605526562
 31
0.0
  0
LINE
  5
1879
  8
L1
 10
172.56270253766891
 20
70.593473660663733
 30
0.0
 11
172.56270253766891
 21
142.04427252916341
 31
0.0
  0
LINE
  5
187A
  8
L1
 10
174.6025409199498
 20
142.04427252916349
 30
0.0
 11
174.6025409199498
 21
55.545987673200443
 31
0.0
  0
LINE
  5
187B
  8
L1
 10
175.36270253766901
 20
55.545987673200443
 30
0.0
 11
175.36270253766901
 21
142.04427252916349
 31
0.0
  0
LINE
  5
187C
  8
L1
 10
173.86270253766901
 20
69.893987673200385
 30
0.0
 11
173.86270253766889
 21
142.04427252916349
 31
0.0
  0
LINE
  5
187D
  8
L1
 10
173.562702537669
 20
56.443987673200468
 30
0.0
 11
173.562702537669
 21
67.512824445861085
 31
0.0
  0
ARC
  5
187E
  8
L1
 10
170.562702537669
 20
69.893987673200385
 30
0.0
 40
3.2999999999999439
 50
318.59010301923558
 51
0.0
  0
POLYLINE
  5
187F
  8
L1
 66
     1
 10
0.0
 20
0.0
 30
0.0
  0
VERTEX
  5
2107
  8
L1
 10
173.562702537669
 20
67.512824445861042
 30
0.0
  0
VERTEX
  5
2108
  8
L1
 10
173.56263091547251
 20
67.519379648233212
 30
0.0
  0
VERTEX
  5
2109
  8
L1
 10
173.56050813707679
 20
67.54904397228313
 30
0.0
  0
VERTEX
  5
210A
  8
L1
 10
173.55547444611159
 20
67.578282078232576
 30
0.0
  0
VERTEX
  5
210B
  8
L1
 10
173.54757760198319
 20
67.606880039419821
 30
0.0
  0
VERTEX
  5
210C
  8
L1
 10
173.53686536409671
 20
67.634623929182681
 30
0.0
  0
VERTEX
  5
210D
  8
L1
 10
173.523487268026
 20
67.661120295111289
 30
0.0
  0
VERTEX
  5
210E
  8
L1
 10
173.50759751245261
 20
67.686106384788332
 30
0.0
  0
VERTEX
  5
210F
  8
L1
 10
173.48932194877909
 20
67.709404284919344
 30
0.0
  0
VERTEX
  5
2110
  8
L1
 10
173.46878642840889
 20
67.730836082209635
 30
0.0
  0
VERTEX
  5
2111
  8
L1
 10
173.4486323053433
 20
67.748258676293844
 30
0.0
  0
VERTEX
  5
2112
  8
L1
 10
173.42705532412029
 20
67.763795973162473
 30
0.0
  0
VERTEX
  5
2113
  8
L1
 10
173.40418731389749
 20
67.777361667213086
 30
0.0
  0
VERTEX
  5
2114
  8
L1
 10
173.38016010383211
 20
67.78886945284296
 30
0.0
  0
VERTEX
  5
2115
  8
L1
 10
173.35867752226261
 20
67.797051817154625
 30
0.0
  0
VERTEX
  5
2116
  8
L1
 10
173.33666388150459
 20
67.803556891825906
 30
0.0
  0
VERTEX
  5
2117
  8
L1
 10
173.31421729501201
 20
67.808359751006151
 30
0.0
  0
VERTEX
  5
2118
  8
L1
 10
173.2914358762381
 20
67.811435468844536
 30
0.0
  0
VERTEX
  5
2119
  8
L1
 10
173.27007695625019
 20
67.812722927061373
 30
0.0
  0
VERTEX
  5
211A
  8
L1
 10
173.2487075692226
 20
67.812485931966535
 30
0.0
  0
VERTEX
  5
211B
  8
L1
 10
173.22740926036721
 20
67.810728322872251
 30
0.0
  0
VERTEX
  5
211C
  8
L1
 10
173.20626357489601
 20
67.807453939090692
 30
0.0
  0
VERTEX
  5
211D
  8
L1
 10
173.1828078067318
 20
67.801975529161837
 30
0.0
  0
VERTEX
  5
211E
  8
L1
 10
173.1599031903896
 20
67.794646367547557
 30
0.0
  0
VERTEX
  5
211F
  8
L1
 10
173.13765910670679
 20
67.785506388078829
 30
0.0
  0
VERTEX
  5
2120
  8
L1
 10
173.1161849365208
 20
67.774595524586573
 30
0.0
  0
VERTEX
  5
2121
  8
L1
 10
173.09458276412369
 20
67.761274996178031
 30
0.0
  0
VERTEX
  5
2122
  8
L1
 10
173.0742311143573
 20
67.746214937922787
 30
0.0
  0
VERTEX
  5
2123
  8
L1
 10
173.05523315807079
 20
67.729504033853061
 30
0.0
  0
VERTEX
  5
2124
  8
L1
 10
173.03769206611301
 20
67.711230968001132
 30
0.0
  0
SEQEND
  5
2125
  8
L1
  0
LINE
  5
1880
  8
L1
 10
172.1225289876237
 20
60.543614750667189
 30
0.0
 11
172.12301125994571
 21
60.533505987611647
 31
0.0
  0
POLYLINE
  5
1881
  8
L1
 66
     1
 10
0.0
 20
0.0
 30
0.0
  0
VERTEX
  5
2126
  8
L1
 10
175.362702508902
 20
55.543987673200427
 30
0.0
  0
VERTEX
  5
2127
  8
L1
 10
175.36270253766901
 20
55.545987673200443
 30
0.0
  0
SEQEND
  5
2128
  8
L1
  0
LINE
  5
1883
  8
L1
 10
171.9005409199498
 20
52.04427252916355
 30
0.0
 11
85.362702537669023
 21
52.044106029549567
 31
0.0
  0
LINE
  5
1884
  8
L1
 10
85.362702537668994
 20
52.843987673200473
 30
0.0
 11
171.90054091994969
 21
52.843987673200502
 31
0.0
  0
LINE
  5
1885
  8
L1
 10
157.50254091994981
 20
53.54398767320049
 30
0.0
 11
85.362702537669023
 21
53.54398767320049
 31
0.0
  0
LINE
  5
1886
  8
L1
 10
159.88370414728919
 20
53.843987673200438
 30
0.0
 11
170.962702537669
 21
53.843987673200438
 31
0.0
  0
POLYLINE
  5
1887
  8
L1
 66
     1
 10
0.0
 20
0.0
 30
0.0
  0
VERTEX
  5
2129
  8
L1
 10
171.85581148553069
 20
52.043987673200427
 30
0.0
  0
VERTEX
  5
212A
  8
L1
 10
171.87817292552481
 20
52.044058887915689
 30
0.0
  0
VERTEX
  5
212B
  8
L1
 10
171.9005409199498
 20
52.04427252916355
 30
0.0
  0
SEQEND
  5
212C
  8
L1
  0
LINE
  5
1888
  8
L1
 10
85.362702537669023
 20
52.843987673200473
 30
0.0
 11
-1.175135844611759
 21
52.843987673200502
 31
0.0
  0
LINE
  5
1889
  8
L1
 10
-1.1751358446118161
 20
52.04427252916355
 30
0.0
 11
85.362702537668994
 21
52.044106029549567
 31
0.0
  0
LINE
  5
188A
  8
L1
 10
13.2228641553882
 20
53.54398767320049
 30
0.0
 11
85.362702537668994
 21
53.54398767320049
 31
0.0
  0
LINE
  5
188B
  8
L1
 10
13.92235014285148
 20
54.843987673200438
 30
0.0
 11
85.362702537668994
 21
54.843987673200438
 31
0.0
  0
POLYLINE
  5
188E
  8
L1
 66
     1
 10
0.0
 20
0.0
 30
0.0
  0
VERTEX
  5
212D
  8
L1
 10
11.04010745018882
 20
54.36899814475651
 30
0.0
  0
VERTEX
  5
212E
  8
L1
 10
11.059956137448291
 20
54.349798664308018
 30
0.0
  0
VERTEX
  5
212F
  8
L1
 10
11.07792063799962
 20
54.328900357425248
 30
0.0
  0
VERTEX
  5
2130
  8
L1
 10
11.093892552643799
 20
54.306441258808711
 30
0.0
  0
VERTEX
  5
2131
  8
L1
 10
11.107763482182969
 20
54.282559403158821
 30
0.0
  0
VERTEX
  5
2132
  8
L1
 10
11.11969839064221
 20
54.25672044546576
 30
0.0
  0
VERTEX
  5
2133
  8
L1
 10
11.1291131077001
 20
54.229927368633298
 30
0.0
  0
VERTEX
  5
2134
  8
L1
 10
11.13595253861984
 20
54.202364222620872
 30
0.0
  0
VERTEX
  5
2135
  8
L1
 10
11.14016158866451
 20
54.174215057388039
 30
0.0
  0
VERTEX
  5
2136
  8
L1
 10
11.141688372597571
 20
54.144850046917441
 30
0.0
  0
VERTEX
  5
2137
  8
L1
 10
11.14033971870759
 20
54.115545940795407
 30
0.0
  0
VERTEX
  5
2138
  8
L1
 10
11.136135637332639
 20
54.086513649755148
 30
0.0
  0
VERTEX
  5
2139
  8
L1
 10
11.129096138811001
 20
54.057964084529829
 30
0.0
  0
VERTEX
  5
213A
  8
L1
 10
11.119183699955149
 20
54.029968871471169
 30
0.0
  0
VERTEX
  5
213B
  8
L1
 10
11.10658536977297
 20
54.003154332905638
 30
0.0
  0
VERTEX
  5
213C
  8
L1
 10
11.0914035836227
 20
53.977713221818242
 30
0.0
  0
VERTEX
  5
213D
  8
L1
 10
11.07374077686284
 20
53.953838291193961
 30
0.0
  0
VERTEX
  5
213E
  8
L1
 10
11.05431125896933
 20
53.932335660761332
 30
0.0
  0
VERTEX
  5
213F
  8
L1
 10
11.032948856536271
 20
53.912850805873511
 30
0.0
  0
VERTEX
  5
2140
  8
L1
 10
11.00980985589359
 20
53.895513019286902
 30
0.0
  0
VERTEX
  5
2141
  8
L1
 10
10.98505054337107
 20
53.880451593757577
 30
0.0
  0
VERTEX
  5
2142
  8
L1
 10
10.963574434928139
 20
53.869857761732987
 30
0.0
  0
VERTEX
  5
2143
  8
L1
 10
10.94135740333609
 20
53.861023230283763
 30
0.0
  0
VERTEX
  5
2144
  8
L1
 10
10.918507392790209
 20
53.853985981212929
 30
0.0
  0
VERTEX
  5
2145
  8
L1
 10
10.89513234748545
 20
53.848783996323498
 30
0.0
  0
VERTEX
  5
2146
  8
L1
 10
10.86851008978379
 20
53.845187897804401
 30
0.0
  0
VERTEX
  5
2147
  8
L1
 10
10.841700928048731
 20
53.843987673200438
 30
0.0
  0
SEQEND
  5
2148
  8
L1
  0
POLYLINE
  5
188F
  8
L1
 66
     1
 10
0.0
 20
0.0
 30
0.0
  0
VERTEX
  5
2149
  8
L1
 10
-1.1751358446118161
 20
52.04427252916355
 30
0.0
  0
VERTEX
  5
214A
  8
L1
 10
-1.340539802400087
 20
52.050311309301598
 30
0.0
  0
VERTEX
  5
214B
  8
L1
 10
-1.5078553533872421
 20
52.064380048808403
 30
0.0
  0
VERTEX
  5
214C
  8
L1
 10
-1.6762676488082771
 20
52.086678782534818
 30
0.0
  0
VERTEX
  5
214D
  8
L1
 10
-1.8449618398984171
 20
52.117407545331382
 30
0.0
  0
VERTEX
  5
214E
  8
L1
 10
-2.013135654121299
 20
52.156705789614641
 30
0.0
  0
VERTEX
  5
214F
  8
L1
 10
-2.180034281092559
 20
52.20448434089127
 30
0.0
  0
VERTEX
  5
2150
  8
L1
 10
-2.3449140652731439
 20
52.260600293646689
 30
0.0
  0
VERTEX
  5
2151
  8
L1
 10
-2.50703135112468
 20
52.324910742366569
 30
0.0
  0
VERTEX
  5
2152
  8
L1
 10
-2.6657262371421089
 20
52.39725114395435
 30
0.0
  0
VERTEX
  5
2153
  8
L1
 10
-2.8204214744126261
 20
52.477262728454093
 30
0.0
  0
VERTEX
  5
2154
  8
L1
 10
-2.970497386284876
 20
52.564511250061912
 30
0.0
  0
VERTEX
  5
2155
  8
L1
 10
-3.1153342961079602
 20
52.658562462974139
 30
0.0
  0
VERTEX
  5
2156
  8
L1
 10
-3.2543435485005712
 20
52.758936839741978
 30
0.0
  0
VERTEX
  5
2157
  8
L1
 10
-3.3870686860208821
 20
52.864961894827218
 30
0.0
  0
VERTEX
  5
2158
  8
L1
 10
-3.5130883289269259
 20
52.97591394529195
 30
0.0
  0
VERTEX
  5
2159
  8
L1
 10
-3.6319810974760571
 20
53.09106930819798
 30
0.0
  0
VERTEX
  5
215A
  8
L1
 10
-3.7444843361220701
 20
53.210903309143077
 30
0.0
  0
VERTEX
  5
215B
  8
L1
 10
-3.8527521198371342
 20
53.337727827010553
 30
0.0
  0
VERTEX
  5
215C
  8
L1
 10
-3.9560691696146359
 20
53.471116647972003
 30
0.0
  0
VERTEX
  5
215D
  8
L1
 10
-4.053720206447962
 20
53.610643558199001
 30
0.0
  0
VERTEX
  5
215E
  8
L1
 10
-4.1450411103929241
 20
53.755848372952919
 30
0.0
  0
VERTEX
  5
215F
  8
L1
 10
-4.2295611409629714
 20
53.906142502624903
 30
0.0
  0
VERTEX
  5
2160
  8
L1
 10
-4.3068550883369312
 20
54.060907126081247
 30
0.0
  0
VERTEX
  5
2161
  8
L1
 10
-4.37649774269397
 20
54.219523422188161
 30
0.0
  0
VERTEX
  5
2162
  8
L1
 10
-4.4381382490035426
 20
54.381415585336519
 30
0.0
  0
VERTEX
  5
2163
  8
L1
 10
-4.4916201675642347
 20
54.545928128756827
 30
0.0
  0
VERTEX
  5
2164
  8
L1
 10
-4.536809911548346
 20
54.712322709575353
 30
0.0
  0
VERTEX
  5
2165
  8
L1
 10
-4.5735738941278319
 20
54.879860984917968
 30
0.0
  0
VERTEX
  5
2166
  8
L1
 10
-4.6017587030624441
 20
55.047279508573858
 30
0.0
  0
VERTEX
  5
2167
  8
L1
 10
-4.6216367766991757
 20
55.2143049601043
 30
0.0
  0
VERTEX
  5
2168
  8
L1
 10
-4.6334142939093113
 20
55.3801400961122
 30
0.0
  0
VERTEX
  5
2169
  8
L1
 10
-4.6372974335640151
 20
55.543987673200427
 30
0.0
  0
SEQEND
  5
216A
  8
L1
  0
ARC
  5
1890
  8
L1
 10
13.2228641553882
 20
56.843987673200502
 30
0.0
 40
3.3000000000000149
 50
228.59010301923499
 51
270.0
  0
ARC
  5
1891
  8
L1
 10
3.6228641553881848
 20
60.293987673200427
 30
0.0
 40
5.0261806033722758
 50
177.2685844295726
 51
272.73141557042732
  0
ARC
  5
1892
  8
L1
 10
-1.1751358446118161
 20
55.545987673200443
 30
0.0
 40
2.7019999999999542
 50
180.0
 51
270.00000000000159
  0
ARC
  5
1893
  8
L1
 10
-0.2372974623310142
 20
56.443987673200468
 30
0.0
 40
2.6000000000000001
 50
180.0
 51
270.0
  0
ARC
  5
1894
  8
L1
 10
13.2228641553882
 20
56.843987673200502
 30
0.0
 40
3.3000000000000149
 50
180.0
 51
228.59010301923499
  0
LINE
  5
1895
  8
L1
 10
-3.137297462330991
 20
69.893987673200385
 30
0.0
 11
-3.1372974623309058
 21
142.04427252916349
 31
0.0
  0
LINE
  5
1896
  8
L1
 10
-4.6372974623309906
 20
55.545987673200443
 30
0.0
 11
-4.6372974623309906
 21
142.04427252916349
 31
0.0
  0
LINE
  5
1897
  8
L1
 10
-3.8771358446118138
 20
142.04427252916349
 30
0.0
 11
-3.8771358446118138
 21
55.545987673200443
 31
0.0
  0
LINE
  5
1898
  8
L1
 10
-1.8372974623309231
 20
70.593473660663733
 30
0.0
 11
-1.8372974623309231
 21
142.04427252916341
 31
0.0
  0
ARC
  5
1899
  8
L1
 10
3.6228641553881848
 20
60.293987673200427
 30
0.0
 40
6.3000000000000487
 50
0.0
 51
90.000000000000028
  0
LINE
  5
189A
  8
L1
 10
-2.8372974623310361
 20
56.443987673200468
 30
0.0
 11
-2.8372974623310361
 21
67.512824445861085
 31
0.0
  0
ARC
  5
189B
  8
L1
 10
3.6228641553881848
 20
60.293987673200427
 30
0.0
 40
5.0261806033722758
 50
357.26858442957263
 51
92.731415570428993
  0
ARC
  5
189C
  8
L1
 10
3.6228641553881848
 20
60.293987673200377
 30
0.0
 40
8.8000000000000114
 50
0.0
 51
37.285473900598049
  0
ARC
  5
189D
  8
L1
 10
3.6228641553881848
 20
60.293987673200377
 30
0.0
 40
8.8000000000000114
 50
52.71452609940264
 51
90.000000000000028
  0
POLYLINE
  5
189E
  8
L1
 66
     1
 10
0.0
 20
0.0
 30
0.0
  0
VERTEX
  5
216B
  8
L1
 10
-0.3378114748675784
 20
69.093987673200445
 30
0.0
  0
VERTEX
  5
216C
  8
L1
 10
-0.5185924252058954
 20
69.104918579600664
 30
0.0
  0
VERTEX
  5
216D
  8
L1
 10
-0.696724498467404
 20
69.137552040441108
 30
0.0
  0
VERTEX
  5
216E
  8
L1
 10
-0.8696123909431321
 20
69.191412600962735
 30
0.0
  0
VERTEX
  5
216F
  8
L1
 10
-1.0347372042652401
 20
69.265715537168717
 30
0.0
  0
VERTEX
  5
2170
  8
L1
 10
-1.1896931446169099
 20
69.359378288897915
 30
0.0
  0
VERTEX
  5
2171
  8
L1
 10
-1.33222257405913
 20
69.471036232236884
 30
0.0
  0
VERTEX
  5
2172
  8
L1
 10
-1.460248903294598
 20
69.599062561472238
 30
0.0
  0
VERTEX
  5
2173
  8
L1
 10
-1.571906846633339
 20
69.741591990914443
 30
0.0
  0
VERTEX
  5
2174
  8
L1
 10
-1.665569598362765
 20
69.896547931266127
 30
0.0
  0
VERTEX
  5
2175
  8
L1
 10
-1.739872534568633
 20
70.061672744588293
 30
0.0
  0
VERTEX
  5
2176
  8
L1
 10
-1.7937330950902031
 20
70.234560637063964
 30
0.0
  0
VERTEX
  5
2177
  8
L1
 10
-1.826366555930746
 20
70.412692710325473
 30
0.0
  0
VERTEX
  5
2178
  8
L1
 10
-1.8372974623310361
 20
70.593473660663733
 30
0.0
  0
SEQEND
  5
2179
  8
L1
  0
ARC
  5
189F
  8
L1
 10
0.162702537668963
 20
69.893987673200385
 30
0.0
 40
3.2999999999999439
 50
221.40989698076439
 51
270.0
  0
POLYLINE
  5
18A0
  8
L1
 66
     1
 10
0.0
 20
0.0
 30
0.0
  0
VERTEX
  5
217A
  8
L1
 10
-2.8372974623310361
 20
67.512824445861042
 30
0.0
  0
VERTEX
  5
217B
  8
L1
 10
-2.8372258401345221
 20
67.519379648233212
 30
0.0
  0
VERTEX
  5
217C
  8
L1
 10
-2.8351030617388342
 20
67.54904397228313
 30
0.0
  0
VERTEX
  5
217D
  8
L1
 10
-2.8300693707736282
 20
67.578282078232576
 30
0.0
  0
VERTEX
  5
217E
  8
L1
 10
-2.82217252664526
 20
67.606880039419821
 30
0.0
  0
VERTEX
  5
217F
  8
L1
 10
-2.811460288758723
 20
67.634623929182681
 30
0.0
  0
VERTEX
  5
2180
  8
L1
 10
-2.7980821926880131
 20
67.661120295111289
 30
0.0
  0
VERTEX
  5
2181
  8
L1
 10
-2.7821924371145879
 20
67.686106384788332
 30
0.0
  0
VERTEX
  5
2182
  8
L1
 10
-2.7639168734411319
 20
67.709404284919344
 30
0.0
  0
VERTEX
  5
2183
  8
L1
 10
-2.7433813530709008
 20
67.730836082209635
 30
0.0
  0
VERTEX
  5
2184
  8
L1
 10
-2.723227230005306
 20
67.748258676293844
 30
0.0
  0
VERTEX
  5
2185
  8
L1
 10
-2.7016502487823
 20
67.763795973162473
 30
0.0
  0
VERTEX
  5
2186
  8
L1
 10
-2.6787822385595632
 20
67.777361667213086
 30
0.0
  0
VERTEX
  5
2187
  8
L1
 10
-2.6547550284940931
 20
67.78886945284296
 30
0.0
  0
VERTEX
  5
2188
  8
L1
 10
-2.63327244692465
 20
67.797051817154625
 30
0.0
  0
VERTEX
  5
2189
  8
L1
 10
-2.6112588061666311
 20
67.803556891825906
 30
0.0
  0
VERTEX
  5
218A
  8
L1
 10
-2.5888122196740251
 20
67.808359751006151
 30
0.0
  0
VERTEX
  5
218B
  8
L1
 10
-2.566030800900136
 20
67.811435468844536
 30
0.0
  0
VERTEX
  5
218C
  8
L1
 10
-2.5446718809121762
 20
67.812722927061373
 30
0.0
  0
VERTEX
  5
218D
  8
L1
 10
-2.5233024938846138
 20
67.812485931966535
 30
0.0
  0
VERTEX
  5
218E
  8
L1
 10
-2.5020041850291932
 20
67.810728322872251
 30
0.0
  0
VERTEX
  5
218F
  8
L1
 10
-2.4808584995579959
 20
67.807453939090692
 30
0.0
  0
VERTEX
  5
2190
  8
L1
 10
-2.4574027313938691
 20
67.801975529161837
 30
0.0
  0
VERTEX
  5
2191
  8
L1
 10
-2.4344981150516669
 20
67.794646367547557
 30
0.0
  0
VERTEX
  5
2192
  8
L1
 10
-2.412254031368831
 20
67.785506388078829
 30
0.0
  0
VERTEX
  5
2193
  8
L1
 10
-2.3907798611828071
 20
67.774595524586573
 30
0.0
  0
VERTEX
  5
2194
  8
L1
 10
-2.3691776887857818
 20
67.761274996178031
 30
0.0
  0
VERTEX
  5
2195
  8
L1
 10
-2.3488260390193432
 20
67.746214937922787
 30
0.0
  0
VERTEX
  5
2196
  8
L1
 10
-2.3298280827328308
 20
67.729504033853061
 30
0.0
  0
VERTEX
  5
2197
  8
L1
 10
-2.312286990775021
 20
67.711230968001132
 30
0.0
  0
SEQEND
  5
2198
  8
L1
  0
ARC
  5
18A1
  8
L1
 10
0.162702537668963
 20
69.893987673200385
 30
0.0
 40
3.2999999999999439
 50
180.0
 51
221.40989698076439
  0
LINE
  5
18A2
  8
L1
 10
1.1228641553881851
 20
66.593987673200445
 30
0.0
 11
0.162702537668963
 21
66.593987673200445
 31
0.0
  0
LINE
  5
18A3
  8
L1
 10
3.6228641553881848
 20
69.093987673200374
 30
0.0
 11
-0.3378114748675784
 21
69.093987673200374
 31
0.0
  0
LINE
  5
18A4
  8
L1
 10
3.6228641553881848
 20
66.593987673200445
 30
0.0
 11
1.1228641553881851
 21
66.593987673200445
 31
0.0
  0
LINE
  5
18A5
  8
L1
 10
10.41627154181122
 20
68.217292503958845
 30
0.0
 11
9.3283602331632096
 21
67.304426526118675
 31
0.0
  0
POLYLINE
  5
18A6
  8
L1
 66
     1
 10
0.0
 20
0.0
 30
0.0
  0
VERTEX
  5
2199
  8
L1
 10
9.3283602331632096
 20
67.304426526118732
 30
0.0
  0
VERTEX
  5
219A
  8
L1
 10
9.2969664251899644
 20
67.281381890625539
 30
0.0
  0
VERTEX
  5
219B
  8
L1
 10
9.2627931216292723
 20
67.262567856423857
 30
0.0
  0
VERTEX
  5
219C
  8
L1
 10
9.2413035855204821
 20
67.253498560103708
 30
0.0
  0
VERTEX
  5
219D
  8
L1
 10
9.2192081145424822
 20
67.246135478164547
 30
0.0
  0
VERTEX
  5
219E
  8
L1
 10
9.1966081731182499
 20
67.240508245619125
 30
0.0
  0
VERTEX
  5
219F
  8
L1
 10
9.1736052256704284
 20
67.236646497480365
 30
0.0
  0
VERTEX
  5
21A0
  8
L1
 10
9.1518788015388832
 20
67.234662202020544
 30
0.0
  0
VERTEX
  5
21A1
  8
L1
 10
9.1300942861820982
 20
67.234261642286114
 30
0.0
  0
VERTEX
  5
21A2
  8
L1
 10
9.1083381830028998
 20
67.235443365342576
 30
0.0
  0
VERTEX
  5
21A3
  8
L1
 10
9.0866969954039973
 20
67.238205918255403
 30
0.0
  0
VERTEX
  5
21A4
  8
L1
 10
9.0634456357250315
 20
67.242990089944783
 30
0.0
  0
VERTEX
  5
21A5
  8
L1
 10
9.0406804925170832
 20
67.249586486708893
 30
0.0
  0
VERTEX
  5
21A6
  8
L1
 10
9.0185073390044295
 20
67.25795993768952
 30
0.0
  0
VERTEX
  5
21A7
  8
L1
 10
8.997031948410779
 20
67.268075272028511
 30
0.0
  0
VERTEX
  5
21A8
  8
L1
 10
8.9747977317049958
 20
67.280881909340678
 30
0.0
  0
VERTEX
  5
21A9
  8
L1
 10
8.9537871662814155
 20
67.295506069371982
 30
0.0
  0
SEQEND
  5
21AA
  8
L1
  0
POLYLINE
  5
18A7
  8
L1
 66
     1
 10
0.0
 20
0.0
 30
0.0
  0
VERTEX
  5
21AB
  8
L1
 10
11.52848836081642
 20
67.492347956932917
 30
0.0
  0
VERTEX
  5
21AC
  8
L1
 10
11.581239621758581
 20
67.421059399256819
 30
0.0
  0
VERTEX
  5
21AD
  8
L1
 10
11.610842764461211
 20
67.337464198485691
 30
0.0
  0
VERTEX
  5
21AE
  8
L1
 10
11.614710997414869
 20
67.248867097827429
 30
0.0
  0
VERTEX
  5
21AF
  8
L1
 10
11.592506305421059
 20
67.163009918143473
 30
0.0
  0
VERTEX
  5
21B0
  8
L1
 10
11.54616898614648
 20
67.087395059623645
 30
0.0
  0
SEQEND
  5
21B1
  8
L1
  0
POLYLINE
  5
18A8
  8
L1
 66
     1
 10
0.0
 20
0.0
 30
0.0
  0
VERTEX
  5
21B2
  8
L1
 10
10.62438255155956
 20
65.624910684093834
 30
0.0
  0
VERTEX
  5
21B3
  8
L1
 10
10.6114368675515
 20
65.64330576592522
 30
0.0
  0
VERTEX
  5
21B4
  8
L1
 10
10.59988127251296
 20
65.662665292995655
 30
0.0
  0
VERTEX
  5
21B5
  8
L1
 10
10.58744576506313
 20
65.688202447664821
 30
0.0
  0
VERTEX
  5
21B6
  8
L1
 10
10.577501260065841
 20
65.714741609927444
 30
0.0
  0
VERTEX
  5
21B7
  8
L1
 10
10.57010613603569
 20
65.74210096697584
 30
0.0
  0
VERTEX
  5
21B8
  8
L1
 10
10.56531877148705
 20
65.770098706002486
 30
0.0
  0
VERTEX
  5
21B9
  8
L1
 10
10.56317720226269
 20
65.799361586821249
 30
0.0
  0
VERTEX
  5
21BA
  8
L1
 10
10.56389968839181
 20
65.828624707908133
 30
0.0
  0
VERTEX
  5
21BB
  8
L1
 10
10.56747052578379
 20
65.85767821627212
 30
0.0
  0
VERTEX
  5
21BC
  8
L1
 10
10.573874010348099
 20
65.886312258922317
 30
0.0
  0
VERTEX
  5
21BD
  8
L1
 10
10.58317791224129
 20
65.914532878603552
 30
0.0
  0
VERTEX
  5
21BE
  8
L1
 10
10.59519494399245
 20
65.941631002584984
 30
0.0
  0
VERTEX
  5
21BF
  8
L1
 10
10.609826532629929
 20
65.967411598340163
 30
0.0
  0
VERTEX
  5
21C0
  8
L1
 10
10.62697410518177
 20
65.991679633342642
 30
0.0
  0
VERTEX
  5
21C1
  8
L1
 10
10.63330300830631
 20
65.999483750975514
 30
0.0
  0
SEQEND
  5
21C2
  8
L1
  0
POLYLINE
  5
18A9
  8
L1
 66
     1
 10
0.0
 20
0.0
 30
0.0
  0
VERTEX
  5
21C3
  8
L1
 10
10.41627154181122
 20
68.217292503958902
 30
0.0
  0
VERTEX
  5
21C4
  8
L1
 10
10.49188640033111
 20
68.263629823233487
 30
0.0
  0
VERTEX
  5
21C5
  8
L1
 10
10.57774358001501
 20
68.285834515227407
 30
0.0
  0
VERTEX
  5
21C6
  8
L1
 10
10.666340680673271
 20
68.281966282273629
 30
0.0
  0
VERTEX
  5
21C7
  8
L1
 10
10.749935881444401
 20
68.252363139571003
 30
0.0
  0
VERTEX
  5
21C8
  8
L1
 10
10.821224439120501
 20
68.199611878628843
 30
0.0
  0
SEQEND
  5
21C9
  8
L1
  0
LINE
  5
18AA
  8
L1
 10
11.52848836081642
 20
67.492347956932917
 30
0.0
 11
10.821224439120609
 21
68.199611878628843
 31
0.0
  0
LINE
  5
18AB
  8
L1
 10
10.63330300830631
 20
65.999483750975514
 30
0.0
 11
11.54616898614648
 21
67.087395059623589
 31
0.0
  0
LINE
  5
18AC
  8
L1
 10
3.8724912328548831
 20
55.273999605526562
 30
0.0
 11
8.6428522230621052
 21
60.044360595733679
 31
0.0
  0
LINE
  5
18AD
  8
L1
 10
3.383345840976915
 20
65.314458013196202
 30
0.0
 11
3.373237077921373
 21
65.313975740874298
 31
0.0
  0
LINE
  5
18AE
  8
L1
 10
-1.3971239122857351
 20
60.543614750667189
 30
0.0
 11
-1.397606184607695
 21
60.533505987611647
 31
0.0
  0
LINE
  5
18AF
  8
L1
 10
3.373237077921373
 20
65.313975740874298
 30
0.0
 11
-1.3971239122857351
 21
60.543614750667132
 31
0.0
  0
POLYLINE
  5
18B0
  8
L1
 66
     1
 10
0.0
 20
0.0
 30
0.0
  0
VERTEX
  5
21CA
  8
L1
 10
-4.6372974335640151
 20
55.543987673200427
 30
0.0
  0
VERTEX
  5
21CB
  8
L1
 10
-4.6372974623309906
 20
55.545987673200443
 30
0.0
  0
SEQEND
  5
21CC
  8
L1
  0
LINE
  5
18B1
  8
L1
 10
3.8623824697993419
 20
55.273517333204659
 30
0.0
 11
3.8724912328548831
 21
55.273999605526562
 31
0.0
  0
LINE
  5
18B2
  8
L1
 10
12.42286415538814
 20
56.343473660663783
 30
0.0
 11
12.42286415538814
 21
60.293987673200427
 31
0.0
  0
LINE
  5
18B3
  8
L1
 10
9.9228641553881403
 20
57.793987673200427
 30
0.0
 11
9.9228641553881403
 21
60.293987673200377
 31
0.0
  0
LINE
  5
18B4
  8
L1
 10
8.6428522230621052
 20
60.044360595733679
 30
0.0
 11
8.6433344953839537
 21
60.054469358789277
 31
0.0
  0
POLYLINE
  5
18B5
  8
L1
 66
     1
 10
0.0
 20
0.0
 30
0.0
  0
VERTEX
  5
21CD
  8
L1
 10
13.92235014285148
 20
54.843987673200438
 30
0.0
  0
VERTEX
  5
21CE
  8
L1
 10
13.741569192513159
 20
54.854918579600742
 30
0.0
  0
VERTEX
  5
21CF
  8
L1
 10
13.56343711925177
 20
54.887552040441157
 30
0.0
  0
VERTEX
  5
21D0
  8
L1
 10
13.39054922677604
 20
54.941412600962742
 30
0.0
  0
VERTEX
  5
21D1
  8
L1
 10
13.225424413453821
 20
55.01571553716871
 30
0.0
  0
VERTEX
  5
21D2
  8
L1
 10
13.070468473102149
 20
55.109378288897972
 30
0.0
  0
VERTEX
  5
21D3
  8
L1
 10
12.927939043659929
 20
55.221036232236891
 30
0.0
  0
VERTEX
  5
21D4
  8
L1
 10
12.79991271442457
 20
55.34906256147223
 30
0.0
  0
VERTEX
  5
21D5
  8
L1
 10
12.68825477108561
 20
55.491591990914522
 30
0.0
  0
VERTEX
  5
21D6
  8
L1
 10
12.59459201935641
 20
55.646547931266127
 30
0.0
  0
VERTEX
  5
21D7
  8
L1
 10
12.520289083150431
 20
55.811672744588343
 30
0.0
  0
VERTEX
  5
21D8
  8
L1
 10
12.466428522628741
 20
55.984560637064021
 30
0.0
  0
VERTEX
  5
21D9
  8
L1
 10
12.43379506178843
 20
56.162692710325473
 30
0.0
  0
VERTEX
  5
21DA
  8
L1
 10
12.42286415538814
 20
56.343473660663783
 30
0.0
  0
SEQEND
  5
21DB
  8
L1
  0
LINE
  5
18B6
  8
L1
 10
9.9228641553881403
 20
56.843987673200438
 30
0.0
 11
9.9228641553881403
 21
57.793987673200427
 31
0.0
  0
LINE
  5
18B7
  8
L1
 10
10.841700928048731
 20
53.843987673200438
 30
0.0
 11
-0.2372974623310142
 21
53.843987673200438
 31
0.0
  0
POLYLINE
  5
18B8
  8
L1
 66
     1
 10
0.0
 20
0.0
 30
0.0
  0
VERTEX
  5
21DC
  8
L1
 10
-1.1304064101927329
 20
52.043987673200427
 30
0.0
  0
VERTEX
  5
21DD
  8
L1
 10
-1.1527678501868761
 20
52.044058887915689
 30
0.0
  0
VERTEX
  5
21DE
  8
L1
 10
-1.1751358446118161
 20
52.04427252916355
 30
0.0
  0
SEQEND
  5
21DF
  8
L1
  0
LINE
  5
18B9
  8
L2
 10
576.82896664926511
 20
70.230575613198255
 30
0.0
 11
576.82896664926511
 21
213.8579694451287
 31
0.0
  0
LINE
  5
18BA
  8
L2
 10
579.328966649265
 20
68.044399102496982
 30
0.0
 11
579.328966649265
 21
216.04414595583
 31
0.0
  0
LINE
  5
18BB
  8
L1
 10
553.22896664926509
 20
231.28398436687789
 30
0.0
 11
553.22896664926509
 21
52.804560691449119
 31
0.0
  0
LINE
  5
18BC
  8
L1
 10
552.05963572182463
 20
54.144399073729858
 30
0.0
 11
552.05963572182463
 21
229.9441459845971
 31
0.0
  0
LINE
  5
18BD
  8
L1
 10
579.2289666492652
 20
227.1879374379489
 30
0.0
 11
579.2289666492652
 21
53.398607620378073
 31
0.0
  0
LINE
  5
18BE
  8
L1
 10
579.828966649265
 20
53.998607620377982
 30
0.0
 11
579.82896664926523
 21
230.08993743794889
 31
0.0
  0
LINE
  5
18BF
  8
L1
 10
554.02896664926516
 20
52.046486914875572
 30
0.0
 11
554.02896664926504
 21
232.0420581434515
 31
0.0
  0
LINE
  5
18C0
  8
L1
 10
579.19578229778585
 20
53.365423834640183
 30
0.0
 11
553.98912881589104
 21
52.044399102496982
 31
0.0
  0
LINE
  5
18C1
  8
L1
 10
553.22896664926509
 20
52.804560691449183
 30
0.0
 11
553.98912826698427
 21
52.044399073729998
 31
0.0
  0
LINE
  5
18C2
  8
L2
 10
553.22896664926509
 20
69.104560691449123
 30
0.0
 11
576.34205512341896
 21
69.730746950710511
 31
0.0
  0
LINE
  5
18C3
  8
L1
 10
579.82896664926523
 20
53.998607620378031
 30
0.0
 11
579.19578289481626
 21
53.365423865929301
 31
0.0
  0
LINE
  5
18C4
  8
L2
 10
579.328966649265
 20
68.044399102496982
 30
0.0
 11
579.828966649265
 21
68.044399102496982
 31
0.0
  0
ARC
  5
18C5
  8
L2
 10
576.32896664926511
 20
70.230575613198255
 30
0.0
 40
0.5
 50
271.50000000000102
 51
0.000000000000007
  0
LINE
  5
18C6
  8
L1
 10
552.44746818899227
 20
53.682198337658178
 30
0.0
 11
553.22581053358726
 21
53.544955582078153
 31
0.0
  0
ARC
  5
18C7
  8
L1
 10
552.52896664926516
 20
54.144399073729858
 30
0.0
 40
0.4693309274404737
 50
180.0
 51
259.99999999999812
  0
POLYLINE
  5
18C8
  8
L1
 66
     1
 10
0.0
 20
0.0
 30
0.0
  0
VERTEX
  5
21E0
  8
L1
 10
579.22884947749174
 20
227.21658503523861
 30
0.0
  0
VERTEX
  5
21E1
  8
L1
 10
579.22752980470614
 20
227.37656976470319
 30
0.0
  0
VERTEX
  5
21E2
  8
L1
 10
579.22617324956138
 20
227.53835084528259
 30
0.0
  0
VERTEX
  5
21E3
  8
L1
 10
579.22478536676135
 20
227.7012092232909
 30
0.0
  0
VERTEX
  5
21E4
  8
L1
 10
579.22337171101015
 20
227.86442584504161
 30
0.0
  0
VERTEX
  5
21E5
  8
L1
 10
579.22187291894909
 20
228.03462651598809
 30
0.0
  0
VERTEX
  5
21E6
  8
L1
 10
579.22035972192782
 20
228.20367898946151
 30
0.0
  0
VERTEX
  5
21E7
  8
L1
 10
579.21883983170164
 20
228.37082784281361
 30
0.0
  0
VERTEX
  5
21E8
  8
L1
 10
579.2173209600262
 20
228.53531765339659
 30
0.0
  0
VERTEX
  5
21E9
  8
L1
 10
579.21581038105649
 20
228.69647792419579
 30
0.0
  0
VERTEX
  5
21EA
  8
L1
 10
579.21431566255899
 20
228.85371827235369
 30
0.0
  0
VERTEX
  5
21EB
  8
L1
 10
579.21284495670625
 20
229.0064034464595
 30
0.0
  0
VERTEX
  5
21EC
  8
L1
 10
579.21140641567092
 20
229.1538981951019
 30
0.0
  0
VERTEX
  5
21ED
  8
L1
 10
579.21000816867945
 20
229.29559789411601
 30
0.0
  0
VERTEX
  5
21EE
  8
L1
 10
579.20865756835644
 20
229.43102866165461
 30
0.0
  0
VERTEX
  5
21EF
  8
L1
 10
579.20736160197089
 20
229.5597513597825
 30
0.0
  0
VERTEX
  5
21F0
  8
L1
 10
579.20612725679098
 20
229.68132685056511
 30
0.0
  0
VERTEX
  5
21F1
  8
L1
 10
579.20493615749615
 20
229.79778296964699
 30
0.0
  0
VERTEX
  5
21F2
  8
L1
 10
579.20378268193531
 20
229.90987349525389
 30
0.0
  0
VERTEX
  5
21F3
  8
L1
 10
579.20267654254656
 20
230.0168577288585
 30
0.0
  0
VERTEX
  5
21F4
  8
L1
 10
579.20162745176742
 20
230.11799497193351
 30
0.0
  0
VERTEX
  5
21F5
  8
L1
 10
579.20064477100186
 20
230.21259719267971
 30
0.0
  0
VERTEX
  5
21F6
  8
L1
 10
579.1997358979138
 20
230.3001747616689
 30
0.0
  0
VERTEX
  5
21F7
  8
L1
 10
579.19890759933128
 20
230.3802845839308
 30
0.0
  0
VERTEX
  5
21F8
  8
L1
 10
579.19816664208247
 20
230.45248356449531
 30
0.0
  0
VERTEX
  5
21F9
  8
L1
 10
579.1975189541439
 20
230.5164060499751
 30
0.0
  0
VERTEX
  5
21FA
  8
L1
 10
579.19696775472755
 20
230.5718858284329
 30
0.0
  0
VERTEX
  5
21FB
  8
L1
 10
579.19651574751583
 20
230.61877896707259
 30
0.0
  0
VERTEX
  5
21FC
  8
L1
 10
579.19616563619036
 20
230.65694153309829
 30
0.0
  0
VERTEX
  5
21FD
  8
L1
 10
579.19591990790377
 20
230.6862099922096
 30
0.0
  0
VERTEX
  5
21FE
  8
L1
 10
579.19577578136102
 20
230.70685789235631
 30
0.0
  0
VERTEX
  5
21FF
  8
L1
 10
579.19573074763173
 20
230.7190925355213
 30
0.0
  0
VERTEX
  5
2200
  8
L1
 10
579.19578229778597
 20
230.7231212236868
 30
0.0
  0
SEQEND
  5
2201
  8
L1
  0
LINE
  5
18C9
  8
L6
 10
587.82901474925654
 20
142.04427252916349
 30
0.0
 11
544.05968382181595
 21
142.04427252916349
 31
0.0
  0
LINE
  5
18CA
  8
L2
 10
553.22896664926509
 20
214.98398436687791
 30
0.0
 11
576.34205512341896
 21
214.3577981076165
 31
0.0
  0
ARC
  5
18CB
  8
L2
 10
576.32896664926511
 20
213.8579694451287
 30
0.0
 40
0.5
 50
0.000000000000007
 51
88.499999999998934
  0
LINE
  5
18CC
  8
L2
 10
579.328966649265
 20
216.04414595583
 30
0.0
 11
579.82896664926534
 21
216.04414595583
 31
0.0
  0
LINE
  5
18CD
  8
L1
 10
579.19578229778585
 20
230.7231212236868
 30
0.0
 11
553.98912881589104
 21
232.04414595583
 31
0.0
  0
LINE
  5
18CE
  8
L1
 10
579.82896664926523
 20
230.089937437949
 30
0.0
 11
579.19578289481626
 21
230.72312119239771
 31
0.0
  0
LINE
  5
18CF
  8
L1
 10
552.44746818899227
 20
230.40634672066889
 30
0.0
 11
553.22581053358726
 21
230.54358947624891
 31
0.0
  0
LINE
  5
18D0
  8
L1
 10
553.22896664926509
 20
231.28398436687789
 30
0.0
 11
553.98912826698427
 21
232.04414598459701
 31
0.0
  0
ARC
  5
18D1
  8
L1
 10
552.52896664926516
 20
229.9441459845971
 30
0.0
 40
0.4693309274404737
 50
100.00000000000171
 51
180.0
  0
LINE
  5
18D2
  8
L2
 10
336.52425527237301
 20
316.0499186192373
 30
0.0
 11
480.15164910430349
 21
316.0499186192373
 31
0.0
  0
LINE
  5
18D3
  8
L2
 10
334.33807876167168
 20
318.5499186192373
 30
0.0
 11
482.33782561500482
 21
318.5499186192373
 31
0.0
  0
LINE
  5
18D4
  8
L1
 10
497.57766402605267
 20
292.44991861923728
 30
0.0
 11
319.09824035062388
 21
292.44991861923739
 31
0.0
  0
LINE
  5
18D5
  8
L1
 10
320.43807873290461
 20
291.28058769179682
 30
0.0
 11
496.23782564377188
 21
291.28058769179671
 31
0.0
  0
LINE
  5
18D6
  8
L1
 10
493.48161709712372
 20
318.44991861923728
 30
0.0
 11
319.69228727955277
 21
318.44991861923739
 31
0.0
  0
LINE
  5
18D7
  8
L1
 10
320.29228727955268
 20
319.0499186192373
 30
0.0
 11
496.38361709712359
 21
319.0499186192373
 31
0.0
  0
LINE
  5
18D8
  8
L1
 10
318.34016657405027
 20
293.24991861923741
 30
0.0
 11
498.33573780262623
 21
293.24991861923729
 31
0.0
  0
LINE
  5
18D9
  8
L1
 10
319.65910349381488
 20
318.41673426775799
 30
0.0
 11
318.33807876167168
 21
293.21008078586323
 31
0.0
  0
LINE
  5
18DA
  8
L1
 10
319.09824035062388
 20
292.44991861923739
 30
0.0
 11
318.33807873290471
 21
293.21008023695651
 31
0.0
  0
LINE
  5
18DB
  8
L2
 10
335.39824035062378
 20
292.44991861923739
 30
0.0
 11
336.02442660988521
 21
315.56300709339132
 31
0.0
  0
LINE
  5
18DC
  8
L1
 10
320.29228727955268
 20
319.04991861923742
 30
0.0
 11
319.659103525104
 21
318.41673486478851
 31
0.0
  0
LINE
  5
18DD
  8
L2
 10
334.33807876167168
 20
318.5499186192373
 30
0.0
 11
334.33807876167168
 21
319.0499186192373
 31
0.0
  0
ARC
  5
18DE
  8
L2
 10
336.52425527237301
 20
315.5499186192373
 30
0.0
 40
0.5
 50
89.999999999999986
 51
178.49999999999889
  0
LINE
  5
18DF
  8
L1
 10
319.97587799683288
 20
291.66842015896458
 30
0.0
 11
319.83863524125292
 21
292.44676250355951
 31
0.0
  0
ARC
  5
18E0
  8
L1
 10
320.43807873290461
 20
291.74991861923729
 30
0.0
 40
0.4693309274404737
 50
190.00000000000171
 51
270.0
  0
POLYLINE
  5
18E1
  8
L1
 66
     1
 10
0.0
 20
0.0
 30
0.0
  0
VERTEX
  5
2202
  8
L1
 10
493.51026469441331
 20
318.44980144746381
 30
0.0
  0
VERTEX
  5
2203
  8
L1
 10
493.67024942387798
 20
318.44848177467821
 30
0.0
  0
VERTEX
  5
2204
  8
L1
 10
493.83203050445741
 20
318.44712521953352
 30
0.0
  0
VERTEX
  5
2205
  8
L1
 10
493.99488888246572
 20
318.4457373367336
 30
0.0
  0
VERTEX
  5
2206
  8
L1
 10
494.15810550421628
 20
318.44432368098239
 30
0.0
  0
VERTEX
  5
2207
  8
L1
 10
494.32830617516288
 20
318.44282488892122
 30
0.0
  0
VERTEX
  5
2208
  8
L1
 10
494.49735864863618
 20
318.4413116918999
 30
0.0
  0
VERTEX
  5
2209
  8
L1
 10
494.6645075019884
 20
318.43979180167378
 30
0.0
  0
VERTEX
  5
220A
  8
L1
 10
494.8289973125714
 20
318.43827292999828
 30
0.0
  0
VERTEX
  5
220B
  8
L1
 10
494.99015758337049
 20
318.43676235102862
 30
0.0
  0
VERTEX
  5
220C
  8
L1
 10
495.14739793152847
 20
318.43526763253112
 30
0.0
  0
VERTEX
  5
220D
  8
L1
 10
495.30008310563431
 20
318.4337969266785
 30
0.0
  0
VERTEX
  5
220E
  8
L1
 10
495.44757785427669
 20
318.432358385643
 30
0.0
  0
VERTEX
  5
220F
  8
L1
 10
495.5892775532908
 20
318.43096013865159
 30
0.0
  0
VERTEX
  5
2210
  8
L1
 10
495.72470832082939
 20
318.42960953832858
 30
0.0
  0
VERTEX
  5
2211
  8
L1
 10
495.85343101895728
 20
318.42831357194302
 30
0.0
  0
VERTEX
  5
2212
  8
L1
 10
495.9750065097399
 20
318.42707922676323
 30
0.0
  0
VERTEX
  5
2213
  8
L1
 10
496.09146262882177
 20
318.42588812746823
 30
0.0
  0
VERTEX
  5
2214
  8
L1
 10
496.20355315442868
 20
318.42473465190739
 30
0.0
  0
VERTEX
  5
2215
  8
L1
 10
496.31053738803331
 20
318.42362851251858
 30
0.0
  0
VERTEX
  5
2216
  8
L1
 10
496.41167463110833
 20
318.4225794217395
 30
0.0
  0
VERTEX
  5
2217
  8
L1
 10
496.50627685185441
 20
318.42159674097388
 30
0.0
  0
VERTEX
  5
2218
  8
L1
 10
496.59385442084363
 20
318.42068786788587
 30
0.0
  0
VERTEX
  5
2219
  8
L1
 10
496.67396424310567
 20
318.41985956930341
 30
0.0
  0
VERTEX
  5
221A
  8
L1
 10
496.74616322367001
 20
318.41911861205472
 30
0.0
  0
VERTEX
  5
221B
  8
L1
 10
496.81008570914992
 20
318.41847092411598
 30
0.0
  0
VERTEX
  5
221C
  8
L1
 10
496.86556548760768
 20
318.4179197246998
 30
0.0
  0
VERTEX
  5
221D
  8
L1
 10
496.91245862624731
 20
318.41746771748791
 30
0.0
  0
VERTEX
  5
221E
  8
L1
 10
496.95062119227299
 20
318.41711760616261
 30
0.0
  0
VERTEX
  5
221F
  8
L1
 10
496.97988965138438
 20
318.41687187787602
 30
0.0
  0
VERTEX
  5
2220
  8
L1
 10
497.00053755153112
 20
318.4167277513331
 30
0.0
  0
VERTEX
  5
2221
  8
L1
 10
497.01277219469603
 20
318.41668271760381
 30
0.0
  0
VERTEX
  5
2222
  8
L1
 10
497.01680088286167
 20
318.41673426775799
 30
0.0
  0
SEQEND
  5
2223
  8
L1
  0
LINE
  5
18E2
  8
L6
 10
408.33795218833831
 20
327.04996671922862
 30
0.0
 11
408.33795218833831
 21
283.2806357917882
 31
0.0
  0
LINE
  5
18E3
  8
L2
 10
481.27766402605272
 20
292.44991861923728
 30
0.0
 11
480.65147776679129
 21
315.56300709339121
 31
0.0
  0
ARC
  5
18E4
  8
L2
 10
480.15164910430349
 20
315.5499186192373
 30
0.0
 40
0.5
 50
1.5000000000010769
 51
89.999999999999986
  0
LINE
  5
18E5
  8
L2
 10
482.33782561500482
 20
318.5499186192373
 30
0.0
 11
482.33782561500482
 21
319.04991861923742
 31
0.0
  0
LINE
  5
18E6
  8
L1
 10
497.01680088286167
 20
318.41673426775799
 30
0.0
 11
498.33782561500482
 21
293.21008078586311
 31
0.0
  0
LINE
  5
18E7
  8
L1
 10
496.38361709712382
 20
319.0499186192373
 30
0.0
 11
497.01680085157261
 21
318.41673486478851
 31
0.0
  0
LINE
  5
18E8
  8
L1
 10
496.70002637984362
 20
291.66842015896452
 30
0.0
 11
496.8372691354237
 21
292.44676250355951
 31
0.0
  0
LINE
  5
18E9
  8
L1
 10
497.57766402605267
 20
292.44991861923728
 30
0.0
 11
498.33782564377179
 21
293.21008023695651
 31
0.0
  0
ARC
  5
18EA
  8
L1
 10
496.23782564377188
 20
291.74991861923729
 30
0.0
 40
0.4693309274404737
 50
270.0
 51
349.99999999999812
  0
LINE
  5
18EB
  8
L1
 10
497.01680088286167
 20
-34.328189209430938
 30
0.0
 11
498.33782561500482
 21
-9.1215357275361271
 31
0.0
  0
LINE
  5
18EC
  8
L6
 10
408.33795218833831
 20
-42.961421660901628
 30
0.0
 11
408.33795218833831
 21
0.8079092665387861
 31
0.0
  0
LINE
  5
18ED
  8
L1
 10
319.65910349381488
 20
-34.328189209431002
 30
0.0
 11
318.33807876167168
 21
-9.1215357275361821
 31
0.0
  0
LINE
  5
18EE
  8
L2
 10
336.52425527237301
 20
-31.961373560910321
 30
0.0
 11
480.15164910430349
 21
-31.961373560910321
 31
0.0
  0
LINE
  5
18EF
  8
L1
 10
497.57766402605267
 20
-8.3613735609102946
 30
0.0
 11
319.09824035062388
 21
-8.3613735609103514
 31
0.0
  0
LINE
  5
18F0
  8
L1
 10
320.43807873290461
 20
-7.1920426334697822
 30
0.0
 11
496.23782564377188
 21
-7.1920426334697254
 31
0.0
  0
LINE
  5
18F1
  8
L1
 10
318.34016657405027
 20
-9.1613735609104197
 30
0.0
 11
498.33573780262623
 21
-9.1613735609102491
 31
0.0
  0
LINE
  5
18F2
  8
L2
 10
335.39824035062378
 20
-8.3613735609103514
 30
0.0
 11
336.02442660988521
 21
-31.474462035064281
 31
0.0
  0
ARC
  5
18F3
  8
L1
 10
320.43807873290461
 20
-7.6613735609103051
 30
0.0
 40
0.4693309274404737
 50
90.000000000000028
 51
169.99999999999821
  0
LINE
  5
18F4
  8
L1
 10
319.97587799683288
 20
-7.579875100637536
 30
0.0
 11
319.83863524125292
 21
-8.3582174452325262
 31
0.0
  0
LINE
  5
18F5
  8
L1
 10
319.09824035062388
 20
-8.3613735609103514
 30
0.0
 11
318.33807873290471
 21
-9.1215351786295287
 31
0.0
  0
ARC
  5
18F6
  8
L2
 10
336.52425527237301
 20
-31.46137356091031
 30
0.0
 40
0.5
 50
181.50000000000099
 51
270.0
  0
LINE
  5
18F7
  8
L2
 10
481.27766402605272
 20
-8.3613735609102946
 30
0.0
 11
480.65147776679129
 21
-31.474462035064221
 31
0.0
  0
ARC
  5
18F8
  8
L1
 10
496.23782564377188
 20
-7.6613735609103051
 30
0.0
 40
0.4693309274404737
 50
10.00000000000183
 51
90.000000000000028
  0
LINE
  5
18F9
  8
L1
 10
496.70002637984362
 20
-7.57987510063748
 30
0.0
 11
496.8372691354237
 21
-8.3582174452324693
 31
0.0
  0
LINE
  5
18FA
  8
L1
 10
497.57766402605267
 20
-8.3613735609102946
 30
0.0
 11
498.33782564377179
 21
-9.1215351786294718
 31
0.0
  0
ARC
  5
18FB
  8
L2
 10
480.15164910430349
 20
-31.46137356091031
 30
0.0
 40
0.5
 50
270.0
 51
358.49999999999892
  0
LINE
  5
18FC
  8
L2
 10
334.33807876167168
 20
-34.461373560910317
 30
0.0
 11
482.33782561500482
 21
-34.461373560910317
 31
0.0
  0
LINE
  5
18FD
  8
L1
 10
493.48161709712372
 20
-34.361373560910287
 30
0.0
 11
319.69228727955277
 21
-34.361373560910351
 31
0.0
  0
LINE
  5
18FE
  8
L1
 10
320.29228727955268
 20
-34.96137356091026
 30
0.0
 11
496.38361709712359
 21
-34.96137356091031
 31
0.0
  0
LINE
  5
18FF
  8
L1
 10
320.29228727955268
 20
-34.961373560910367
 30
0.0
 11
319.659103525104
 21
-34.328189806461523
 31
0.0
  0
LINE
  5
1900
  8
L2
 10
334.33807876167168
 20
-34.461373560910317
 30
0.0
 11
334.33807876167168
 21
-34.96137356091031
 31
0.0
  0
LINE
  5
1901
  8
L1
 10
496.38361709712382
 20
-34.96137356091031
 30
0.0
 11
497.01680085157261
 21
-34.328189806461459
 31
0.0
  0
POLYLINE
  5
1902
  8
L1
 66
     1
 10
0.0
 20
0.0
 30
0.0
  0
VERTEX
  5
2224
  8
L1
 10
493.51026469441331
 20
-34.36125638913682
 30
0.0
  0
VERTEX
  5
2225
  8
L1
 10
493.67024942387798
 20
-34.359936716351221
 30
0.0
  0
VERTEX
  5
2226
  8
L1
 10
493.83203050445741
 20
-34.358580161206469
 30
0.0
  0
VERTEX
  5
2227
  8
L1
 10
493.99488888246572
 20
-34.357192278406551
 30
0.0
  0
VERTEX
  5
2228
  8
L1
 10
494.15810550421628
 20
-34.35577862265535
 30
0.0
  0
VERTEX
  5
2229
  8
L1
 10
494.32830617516288
 20
-34.35427983059418
 30
0.0
  0
VERTEX
  5
222A
  8
L1
 10
494.49735864863618
 20
-34.352766633572912
 30
0.0
  0
VERTEX
  5
222B
  8
L1
 10
494.6645075019884
 20
-34.351246743346849
 30
0.0
  0
VERTEX
  5
222C
  8
L1
 10
494.8289973125714
 20
-34.349727871671291
 30
0.0
  0
VERTEX
  5
222D
  8
L1
 10
494.99015758337049
 20
-34.34821729270157
 30
0.0
  0
VERTEX
  5
222E
  8
L1
 10
495.14739793152847
 20
-34.34672257420408
 30
0.0
  0
VERTEX
  5
222F
  8
L1
 10
495.30008310563431
 20
-34.345251868351447
 30
0.0
  0
VERTEX
  5
2230
  8
L1
 10
495.44757785427669
 20
-34.343813327316013
 30
0.0
  0
VERTEX
  5
2231
  8
L1
 10
495.5892775532908
 20
-34.342415080324649
 30
0.0
  0
VERTEX
  5
2232
  8
L1
 10
495.72470832082939
 20
-34.341064480001641
 30
0.0
  0
VERTEX
  5
2233
  8
L1
 10
495.85343101895728
 20
-34.339768513615979
 30
0.0
  0
VERTEX
  5
2234
  8
L1
 10
495.9750065097399
 20
-34.338534168436183
 30
0.0
  0
VERTEX
  5
2235
  8
L1
 10
496.09146262882177
 20
-34.337343069141241
 30
0.0
  0
VERTEX
  5
2236
  8
L1
 10
496.20355315442868
 20
-34.3361895935804
 30
0.0
  0
VERTEX
  5
2237
  8
L1
 10
496.31053738803331
 20
-34.335083454191647
 30
0.0
  0
VERTEX
  5
2238
  8
L1
 10
496.41167463110833
 20
-34.334034363412513
 30
0.0
  0
VERTEX
  5
2239
  8
L1
 10
496.50627685185441
 20
-34.333051682646953
 30
0.0
  0
VERTEX
  5
223A
  8
L1
 10
496.59385442084363
 20
-34.332142809558889
 30
0.0
  0
VERTEX
  5
223B
  8
L1
 10
496.67396424310567
 20
-34.331314510976362
 30
0.0
  0
VERTEX
  5
223C
  8
L1
 10
496.74616322367001
 20
-34.330573553727668
 30
0.0
  0
VERTEX
  5
223D
  8
L1
 10
496.81008570914992
 20
-34.329925865788987
 30
0.0
  0
VERTEX
  5
223E
  8
L1
 10
496.86556548760768
 20
-34.32937466637275
 30
0.0
  0
VERTEX
  5
223F
  8
L1
 10
496.91245862624731
 20
-34.328922659160916
 30
0.0
  0
VERTEX
  5
2240
  8
L1
 10
496.95062119227299
 20
-34.328572547835563
 30
0.0
  0
VERTEX
  5
2241
  8
L1
 10
496.97988965138438
 20
-34.32832681954897
 30
0.0
  0
VERTEX
  5
2242
  8
L1
 10
497.00053755153112
 20
-34.328182693006113
 30
0.0
  0
VERTEX
  5
2243
  8
L1
 10
497.01277219469603
 20
-34.32813765927682
 30
0.0
  0
VERTEX
  5
2244
  8
L1
 10
497.01680088286167
 20
-34.328189209431052
 30
0.0
  0
SEQEND
  5
2245
  8
L1
  0
LINE
  5
1903
  8
L2
 10
482.33782561500482
 20
-34.461373560910317
 30
0.0
 11
482.33782561500482
 21
-34.961373560910431
 31
0.0
  0
LINE
  5
1904
  8
L1
 10
318.33795218833831
 20
228.5425573851266
 30
0.0
 11
318.33795218833831
 21
55.54654442299335
 31
0.0
  0
ENDSEC
  0
EOF
