  0
SECTION
  2
HEADER
  9
$ACADVER
  1
AC1009
  9
$INSBASE
 10
0.0
 20
0.0
 30
0.0
  9
$EXTMIN
 10
-1.292196762265575
 20
-15.09004234094038
 30
0.0
  9
$EXTMAX
 10
592.71345074636474
 20
336.51074336032019
 30
0.0
  9
$LIMMIN
 10
0.0
 20
0.0
  9
$LIMMAX
 10
589.9662515354255
 20
340.64508335971749
  9
$ORTHOMODE
 70
     1
  9
$REGENMODE
 70
     1
  9
$FILLMODE
 70
     1
  9
$QTEXTMODE
 70
     0
  9
$MIRRTEXT
 70
     1
  9
$DRAGMODE
 70
     2
  9
$LTSCALE
 40
15.0
  9
$OSMODE
 70
     5
  9
$ATTMODE
 70
     1
  9
$TEXTSIZE
 40
2.5
  9
$TRACEWID
 40
1.0
  9
$TEXTSTYLE
  7
SIMPLEX
  9
$CLAYER
  8
L1
  9
$CELTYPE
  6
BYLAYER
  9
$CECOLOR
 62
   256
  9
$DIMSCALE
 40
1.0
  9
$DIMASZ
 40
3.5
  9
$DIMEXO
 40
0.1
  9
$DIMDLI
 40
0.38
  9
$DIMRND
 40
0.0
  9
$DIMDLE
 40
0.0
  9
$DIMEXE
 40
0.18
  9
$DIMTP
 40
0.0
  9
$DIMTM
 40
0.0
  9
$DIMTXT
 40
3.5
  9
$DIMCEN
 40
1.0
  9
$DIMTSZ
 40
0.0
  9
$DIMTOL
 70
     0
  9
$DIMLIM
 70
     0
  9
$DIMTIH
 70
     0
  9
$DIMTOH
 70
     0
  9
$DIMSE1
 70
     0
  9
$DIMSE2
 70
     0
  9
$DIMTAD
 70
     1
  9
$DIMZIN
 70
     8
  9
$DIMBLK
  1

  9
$DIMASO
 70
     1
  9
$DIMSHO
 70
     1
  9
$DIMPOST
  1

  9
$DIMAPOST
  1

  9
$DIMALT
 70
     0
  9
$DIMALTD
 70
     2
  9
$DIMALTF
 40
25.399999999999999
  9
$DIMLFAC
 40
1.0
  9
$DIMTOFL
 70
     1
  9
$DIMTVP
 40
0.0
  9
$DIMTIX
 70
     0
  9
$DIMSOXD
 70
     0
  9
$DIMSAH
 70
     0
  9
$DIMBLK1
  1

  9
$DIMBLK2
  1

  9
$DIMSTYLE
  2
FIBOX
  9
$DIMCLRD
 70
     1
  9
$DIMCLRE
 70
     1
  9
$DIMCLRT
 70
     3
  9
$DIMTFAC
 40
1.0
  9
$DIMGAP
 40
1.0
  9
$LUNITS
 70
     2
  9
$LUPREC
 70
     4
  9
$SKETCHINC
 40
1.0
  9
$FILLETRAD
 40
2.0
  9
$AUNITS
 70
     0
  9
$AUPREC
 70
     0
  9
$MENU
  1
.
  9
$ELEVATION
 40
0.0
  9
$PELEVATION
 40
0.0
  9
$THICKNESS
 40
0.0
  9
$LIMCHECK
 70
     0
  9
$BLIPMODE
 70
     0
  9
$CHAMFERA
 40
10.0
  9
$CHAMFERB
 40
10.0
  9
$SKPOLY
 70
     0
  9
$TDCREATE
 40
2450519.5748858559
  9
$TDUPDATE
 40
2452502.530050891
  9
$TDINDWG
 40
0.7034702315
  9
$TDUSRTIMER
 40
0.7034702315
  9
$USRTIMER
 70
     1
  9
$ANGBASE
 50
0.0
  9
$ANGDIR
 70
     0
  9
$PDMODE
 70
     0
  9
$PDSIZE
 40
0.0
  9
$PLINEWID
 40
0.0
  9
$COORDS
 70
     2
  9
$SPLFRAME
 70
     0
  9
$SPLINETYPE
 70
     6
  9
$SPLINESEGS
 70
     8
  9
$ATTDIA
 70
     0
  9
$ATTREQ
 70
     1
  9
$HANDLING
 70
 22529
  9
$HANDSEED
  5
704
  9
$SURFTAB1
 70
     6
  9
$SURFTAB2
 70
     6
  9
$SURFTYPE
 70
     6
  9
$SURFU
 70
     6
  9
$SURFV
 70
     6
  9
$UCSNAME
  2

  9
$UCSORG
 10
0.0
 20
0.0
 30
0.0
  9
$UCSXDIR
 10
1.0
 20
0.0
 30
0.0
  9
$UCSYDIR
 10
0.0
 20
1.0
 30
0.0
  9
$PUCSNAME
  2

  9
$PUCSORG
 10
0.0
 20
0.0
 30
0.0
  9
$PUCSXDIR
 10
1.0
 20
0.0
 30
0.0
  9
$PUCSYDIR
 10
0.0
 20
1.0
 30
0.0
  9
$USERI1
 70
     0
  9
$USERI2
 70
     0
  9
$USERI3
 70
     0
  9
$USERI4
 70
     0
  9
$USERI5
 70
     0
  9
$USERR1
 40
0.0
  9
$USERR2
 40
0.0
  9
$USERR3
 40
0.0
  9
$USERR4
 40
0.0
  9
$USERR5
 40
0.0
  9
$WORLDVIEW
 70
     1
  9
$SHADEDGE
 70
     3
  9
$SHADEDIF
 70
    70
  9
$TILEMODE
 70
     1
  9
$MAXACTVP
 70
    16
  9
$PLIMCHECK
 70
     0
  9
$PEXTMIN
 10
-774.10312634584443
 20
-14.62650078370908
 30
0.0
  9
$PEXTMAX
 10
65.896873654155556
 20
579.37349921629095
 30
0.0
  9
$PLIMMIN
 10
0.0
 20
0.0
  9
$PLIMMAX
 10
420.0
 20
297.0
  9
$UNITMODE
 70
     0
  9
$VISRETAIN
 70
     0
  9
$PLINEGEN
 70
     0
  9
$PSLTSCALE
 70
     1
  0
ENDSEC
  0
SECTION
  2
TABLES
  0
TABLE
  2
VPORT
 70
     2
  0
VPORT
  2
*ACTIVE
 70
     0
 10
0.0
 20
0.0
 11
1.0
 21
1.0
 12
642.20785247247522
 22
-106.5552979475848
 13
0.0
 23
0.0
 14
10.0
 24
10.0
 15
10.0
 25
10.0
 16
0.0
 26
0.0
 36
1.0
 17
-346.49722271428681
 27
267.26405037992549
 37
108.8680623120873
 40
392.61756532144977
 41
1.5205479452054791
 42
50.0
 43
0.0
 44
0.0
 50
0.0
 51
0.0
 71
     0
 72
   500
 73
     1
 74
     1
 75
     0
 76
     0
 77
     0
 78
     0
  0
ENDTAB
  0
TABLE
  2
LTYPE
 70
     3
  0
LTYPE
  2
CONTINUOUS
 70
     0
  3
Solid line
 72
    65
 73
     0
 40
0.0
  0
LTYPE
  2
HIDDEN
 70
     0
  3
__ __ __ __ __ __ __ __ __ __ __ __ __ __ __ __
 72
    65
 73
     2
 40
0.375
 49
0.25
 49
-0.125
  0
LTYPE
  2
CENTER
 70
     0
  3
____ _ ____ _ ____ _ ____ _ ____ _ ____ _ ____ 
 72
    65
 73
     4
 40
2.0
 49
1.25
 49
-0.25
 49
0.25
 49
-0.25
  0
ENDTAB
  0
TABLE
  2
LAYER
 70
     4
  0
LAYER
  2
0
 70
     0
 62
     7
  6
CONTINUOUS
  0
LAYER
  2
L2
 70
     0
 62
     1
  6
HIDDEN
  0
LAYER
  2
L1
 70
     0
 62
     7
  6
CONTINUOUS
  0
LAYER
  2
L6
 70
     0
 62
     1
  6
CENTER
  0
ENDTAB
  0
TABLE
  2
STYLE
 70
     2
  0
STYLE
  2
STANDARD
 70
     0
 40
0.0
 41
1.0
 50
0.0
 71
     0
 42
2.5
  3
ISOCP
  4

  0
STYLE
  2
SIMPLEX
 70
     0
 40
0.0
 41
0.8
 50
0.0
 71
     0
 42
2.5
  3
SIMPLEX.SHX
  4

  0
ENDTAB
  0
TABLE
  2
VIEW
 70
     0
  0
ENDTAB
  0
TABLE
  2
UCS
 70
     0
  0
ENDTAB
  0
TABLE
  2
APPID
 70
     1
  0
APPID
  2
ACAD
 70
     0
  0
ENDTAB
  0
TABLE
  2
DIMSTYLE
 70
     1
  0
DIMSTYLE
  2
FIBOX
 70
     0
  3

  4

  5

  6

  7

 40
1.0
 41
3.5
 42
0.1
 43
0.38
 44
0.18
 45
0.0
 46
0.0
 47
0.0
 48
0.0
140
3.5
141
1.0
142
0.0
143
25.399999999999999
144
1.0
145
0.0
146
1.0
147
1.0
 71
     0
 72
     0
 73
     0
 74
     0
 75
     0
 76
     0
 77
     1
 78
     8
170
     0
171
     2
172
     1
173
     0
174
     0
175
     0
176
     1
177
     1
178
     3
  0
ENDTAB
  0
ENDSEC
  0
SECTION
  2
BLOCKS
  0
BLOCK
  8
0
  2
$MODEL_SPACE
 70
     0
 10
0.0
 20
0.0
 30
0.0
  3
$MODEL_SPACE
  1

  0
ENDBLK
  5
6
  8
0
  0
BLOCK
 67
     1
  8
0
  2
$PAPER_SPACE
 70
     0
 10
0.0
 20
0.0
 30
0.0
  3
$PAPER_SPACE
  1

  0
ENDBLK
  5
9
 67
     1
  8
0
  0
ENDSEC
  0
SECTION
  2
ENTITIES
  0
LINE
  5
1F
  8
L6
 10
319.63244233432442
 20
164.00508715771539
 30
0.0
 11
513.32773857755433
 21
164.00508715771539
 31
0.0
  0
LINE
  5
27
  8
L1
 10
502.94598010290377
 20
75.530200383830902
 30
0.0
 11
330.88013568856479
 21
75.530200383830902
 31
0.0
  0
LINE
  5
28
  8
L1
 10
503.43015865500251
 20
73.992783026806251
 30
0.0
 11
330.39595713646622
 21
73.992783026806251
 31
0.0
  0
LINE
  5
29
  8
L1
 10
489.46305789573432
 20
89.459450591610846
 30
0.0
 11
344.36305789573441
 21
89.459450591610846
 31
0.0
  0
LINE
  5
2C
  8
L1
 10
489.46305789573432
 20
238.55072372382011
 30
0.0
 11
344.36305789573441
 21
238.55072372382011
 31
0.0
  0
LINE
  5
2D
  8
L1
 10
503.43015865500251
 20
254.01739128862471
 30
0.0
 11
330.39595713646622
 21
254.01739128862471
 31
0.0
  0
LINE
  5
2E
  8
L1
 10
502.94598010290377
 20
252.4799739316
 30
0.0
 11
330.88013568856479
 21
252.4799739316
 31
0.0
  0
LINE
  5
32
  8
L6
 10
94.200571476780567
 20
259.33322121372152
 30
0.0
 11
94.200571476780567
 21
68.95638810325363
 31
0.0
  0
LINE
  5
33
  8
L1
 10
4.1882673458714521
 20
250.52218791698371
 30
0.0
 11
4.1882673458714521
 21
77.487986398447276
 31
0.0
  0
LINE
  5
34
  8
L1
 10
6.9505714767805671
 20
236.6551899602228
 30
0.0
 11
6.9505714767805671
 21
91.354984355208103
 31
0.0
  0
LINE
  5
35
  8
L1
 10
5.7505714767806353
 20
236.15508715771551
 30
0.0
 11
5.7505714767806353
 21
91.855087157715559
 31
0.0
  0
LINE
  5
36
  8
L1
 10
4.9075473765557831
 20
77.448087157715463
 30
0.0
 11
4.9075473765557831
 21
250.56208715771541
 31
0.0
  0
LINE
  5
37
  8
L1
 10
328.4381711218499
 20
77.972164950545903
 30
0.0
 11
328.4381711218499
 21
250.03800936488511
 31
0.0
  0
LINE
  5
38
  8
L1
 10
326.9007537648252
 20
77.487986398447248
 30
0.0
 11
326.9007537648252
 21
250.52218791698371
 31
0.0
  0
LINE
  5
39
  8
L1
 10
342.36742132962979
 20
91.455087157715454
 30
0.0
 11
342.36742132962979
 21
236.55508715771549
 31
0.0
  0
LINE
  5
3A
  8
L1
 10
260.18351519724342
 20
76.055087157715491
 30
0.0
 11
260.18351519724348
 21
251.95508715771541
 31
0.0
  0
LINE
  5
3B
  8
L1
 10
249.11266504510411
 20
75.530200383830902
 30
0.0
 11
249.11266504510419
 21
252.47997393160011
 31
0.0
  0
LINE
  5
3F
  8
L2
 10
249.61266504510419
 20
89.459450591610803
 30
0.0
 11
249.61266504510419
 21
238.55072372382011
 31
0.0
  0
LINE
  5
41
  8
L1
 10
184.2128756076896
 20
250.52218791698371
 30
0.0
 11
184.2128756076896
 21
77.487986398447276
 31
0.0
  0
LINE
  5
42
  8
L1
 10
181.45057147678051
 20
236.6551899602228
 30
0.0
 11
181.45057147678051
 21
91.354984355208103
 31
0.0
  0
LINE
  5
43
  8
L1
 10
183.49359557700529
 20
77.448087157715463
 30
0.0
 11
183.49359557700529
 21
250.56208715771541
 31
0.0
  0
LINE
  5
44
  8
L1
 10
182.65057147678041
 20
236.15508715771551
 30
0.0
 11
182.65057147678041
 21
91.855087157715559
 31
0.0
  0
LINE
  5
45
  8
L6
 10
-1.292196762265575
 20
164.00508715771539
 30
0.0
 11
191.10225496452759
 21
164.00508715771539
 31
0.0
  0
LINE
  5
46
  8
L1
 10
7.6834707175123071
 20
73.992783026806251
 30
0.0
 11
180.7176722360486
 21
73.992783026806251
 31
0.0
  0
LINE
  5
47
  8
L1
 10
21.550468674273191
 20
76.755087157715366
 30
0.0
 11
166.85067427928789
 21
76.755087157715366
 31
0.0
  0
LINE
  5
48
  8
L1
 10
22.050571476780469
 20
75.55508715771532
 30
0.0
 11
166.35057147678049
 21
75.55508715771532
 31
0.0
  0
LINE
  5
49
  8
L1
 10
180.7575714767805
 20
74.712063057490695
 30
0.0
 11
7.6435714767805498
 21
74.712063057490695
 31
0.0
  0
ARC
  5
4A
  8
L1
 10
12.45057147678056
 20
82.255087157715366
 30
0.0
 40
6.3999999999999941
 50
0.0
 51
90.000000000001023
  0
ARC
  5
4B
  8
L1
 10
12.45057147678056
 20
82.255087157715366
 30
0.0
 40
4.9999999999999849
 50
357.2685844295716
 51
92.731415570427657
  0
ARC
  5
4C
  8
L1
 10
12.45057147678056
 20
82.255087157715479
 30
0.0
 40
8.8000000000000007
 50
0.0
 51
37.114862455073883
  0
LINE
  5
4D
  8
L1
 10
11.26737163055912
 20
88.142955123359457
 30
0.0
 11
6.4196794109120097
 21
83.295262903712342
 31
0.0
  0
LINE
  5
4E
  8
L1
 10
7.4562519962714191
 20
82.493357857986766
 30
0.0
 11
12.212300776509149
 21
87.2494066382244
 31
0.0
  0
LINE
  5
4F
  8
L1
 10
5.9075473765560096
 20
83.507394938068387
 30
0.0
 11
5.9075473765560096
 21
90.86513547937318
 31
0.0
  0
LINE
  5
50
  8
L1
 10
21.060619798438381
 20
75.712063057490809
 30
0.0
 11
13.702879257133359
 21
75.712063057490809
 31
0.0
  0
LINE
  5
51
  8
L1
 10
13.49074722277731
 20
76.224195091846795
 30
0.0
 11
18.338439442424651
 21
81.071887311493924
 31
0.0
  0
LINE
  5
52
  8
L1
 10
17.444890957289712
 20
82.016816457443952
 30
0.0
 11
12.688842177051979
 21
77.260767677206331
 31
0.0
  0
ARC
  5
53
  8
L1
 10
7.6435714767805498
 20
77.448087157715463
 30
0.0
 40
2.7360241002247649
 50
180.0
 51
270.0
  0
LINE
  5
54
  8
L1
 10
10.624414689949781
 20
77.600503246138373
 30
0.0
 11
9.1647850391536281
 21
76.140873595342214
 31
0.0
  0
ARC
  5
55
  8
L1
 10
7.7505714767805207
 20
77.55508715771532
 30
0.0
 40
2.0000000000000151
 50
135.0
 51
315.0
  0
POLYLINE
  5
56
  8
L1
 66
     1
 10
0.0
 20
0.0
 30
0.0
  0
VERTEX
  5
5A4
  8
L1
 10
7.6435714767805498
 20
73.992998719941284
 30
0.0
  0
VERTEX
  5
5A5
  8
L1
 10
6.9817838743351208
 20
74.063372767600981
 30
0.0
  0
VERTEX
  5
5A6
  8
L1
 10
6.3267990905395086
 20
74.265502155712966
 30
0.0
  0
VERTEX
  5
5A7
  8
L1
 10
5.7239522458845036
 20
74.591646407529311
 30
0.0
  0
VERTEX
  5
5A8
  8
L1
 10
5.2106423577069441
 20
75.015158038641857
 30
0.0
  0
VERTEX
  5
5A9
  8
L1
 10
4.7871307265945111
 20
75.528467926819417
 30
0.0
  0
VERTEX
  5
5AA
  8
L1
 10
4.4609864747781671
 20
76.131314771474422
 30
0.0
  0
VERTEX
  5
5AB
  8
L1
 10
4.2588570866661817
 20
76.786299555270134
 30
0.0
  0
VERTEX
  5
5AC
  8
L1
 10
4.188483039006484
 20
77.448087157715463
 30
0.0
  0
SEQEND
  5
5AD
  8
L1
  0
POLYLINE
  5
57
  8
L1
 66
     1
 10
0.0
 20
0.0
 30
0.0
  0
VERTEX
  5
5AE
  8
L1
 10
7.6834707175125336
 20
73.992783026806251
 30
0.0
  0
VERTEX
  5
5AF
  8
L1
 10
7.6635234447423377
 20
73.992836950526566
 30
0.0
  0
VERTEX
  5
5B0
  8
L1
 10
7.6435714767805498
 20
73.992998719941284
 30
0.0
  0
SEQEND
  5
5B1
  8
L1
  0
ARC
  5
58
  8
L1
 10
13.702879257133359
 20
76.012063057490764
 30
0.0
 40
0.3000000000000114
 50
134.9999999999923
 51
270.0
  0
ARC
  5
59
  8
L1
 10
12.45057147678056
 20
82.255087157715366
 30
0.0
 40
5.7825462644184809
 50
208.5985626837554
 51
241.4014373162444
  0
POLYLINE
  5
5A
  8
L1
 66
     1
 10
0.0
 20
0.0
 30
0.0
  0
VERTEX
  5
5B2
  8
L1
 10
4.188483039006484
 20
77.448087157715463
 30
0.0
  0
VERTEX
  5
5B3
  8
L1
 10
4.1883212695918806
 20
77.468039125677123
 30
0.0
  0
VERTEX
  5
5B4
  8
L1
 10
4.1882673458714521
 20
77.487986398447205
 30
0.0
  0
SEQEND
  5
5B5
  8
L1
  0
POLYLINE
  5
5B
  8
L1
 66
     1
 10
0.0
 20
0.0
 30
0.0
  0
VERTEX
  5
5B6
  8
L1
 10
7.2035062940410048
 20
79.836449099721875
 30
0.0
  0
VERTEX
  5
5B7
  8
L1
 10
7.2418367787969942
 20
79.747452206790172
 30
0.0
  0
VERTEX
  5
5B8
  8
L1
 10
7.271138087919268
 20
79.685576366639111
 30
0.0
  0
VERTEX
  5
5B9
  8
L1
 10
7.317115239249631
 20
79.593668938713449
 30
0.0
  0
VERTEX
  5
5BA
  8
L1
 10
7.3731558751522348
 20
79.487833642680584
 30
0.0
  0
VERTEX
  5
5BB
  8
L1
 10
7.3735248643700402
 20
79.487156704190397
 30
0.0
  0
SEQEND
  5
5BC
  8
L1
  0
ARC
  5
5C
  8
L1
 10
12.45057147678056
 20
82.255087157715366
 30
0.0
 40
4.9999999999999849
 50
177.2685844295726
 51
201.42182152179799
  0
ARC
  5
5D
  8
L1
 10
6.2075473765560778
 20
83.507394938068387
 30
0.0
 40
0.3000000000000145
 50
180.0
 51
315.0
  0
LINE
  5
5E
  8
L1
 10
6.3363579144074151
 20
78.969300720088427
 30
0.0
 11
7.7959875652035739
 21
80.428930370884473
 31
0.0
  0
POLYLINE
  5
5F
  8
L1
 66
     1
 10
0.0
 20
0.0
 30
0.0
  0
VERTEX
  5
5BD
  8
L1
 10
9.6826410232555986
 20
77.178040545304839
 30
0.0
  0
VERTEX
  5
5BE
  8
L1
 10
9.6833179617457859
 20
77.177671556087034
 30
0.0
  0
VERTEX
  5
5BF
  8
L1
 10
9.7891532577786506
 20
77.121630920184415
 30
0.0
  0
VERTEX
  5
5C0
  8
L1
 10
9.8810606857041972
 20
77.075653768854067
 30
0.0
  0
VERTEX
  5
5C1
  8
L1
 10
9.942936525855373
 20
77.046352459731793
 30
0.0
  0
VERTEX
  5
5C2
  8
L1
 10
10.03193341878722
 20
77.008021974975904
 30
0.0
  0
SEQEND
  5
5C3
  8
L1
  0
ARC
  5
60
  8
L1
 10
12.45057147678056
 20
82.255087157715366
 30
0.0
 40
4.9999999999999849
 50
248.5781784782024
 51
272.7314155704276
  0
ARC
  5
61
  8
L1
 10
22.050571476780469
 20
78.755087157715366
 30
0.0
 40
3.2000000000000282
 50
180.0
 51
251.97934069484239
  0
ARC
  5
62
  8
L1
 10
22.050571476780469
 20
78.755087157715366
 30
0.0
 40
3.2000000000000282
 50
251.97934069484239
 51
270.0
  0
POLYLINE
  5
63
  8
L1
 66
     1
 10
0.0
 20
0.0
 30
0.0
  0
VERTEX
  5
5C4
  8
L1
 10
21.550468674273191
 20
76.755087157715366
 30
0.0
  0
VERTEX
  5
5C5
  8
L1
 10
21.33839687054472
 20
76.842912551479685
 30
0.0
  0
VERTEX
  5
5C6
  8
L1
 10
21.250571476780522
 20
77.054984355208148
 30
0.0
  0
SEQEND
  5
5C7
  8
L1
  0
ARC
  5
64
  8
L1
 10
18.550571476780469
 20
80.859755277137992
 30
0.0
 40
0.2999999999999944
 50
0.0
 51
134.99999999999611
  0
LINE
  5
65
  8
L1
 10
18.850571476780541
 20
80.859755277137992
 30
0.0
 11
18.850571476780541
 21
82.255087157715366
 31
0.0
  0
LINE
  5
66
  8
L1
 10
18.850571476780541
 20
78.755087157715366
 30
0.0
 11
18.850571476780541
 21
80.859755277137992
 31
0.0
  0
LINE
  5
67
  8
L1
 10
21.250571476780522
 20
77.054984355208148
 30
0.0
 11
21.250571476780522
 21
82.255087157715579
 31
0.0
  0
ARC
  5
68
  8
L1
 10
12.45057147678056
 20
82.255087157715479
 30
0.0
 40
8.8000000000000007
 50
52.885137544926259
 51
90.0
  0
LINE
  5
69
  8
L1
 10
12.45057147678056
 20
91.055087157715434
 30
0.0
 11
7.2504686742733488
 21
91.055087157715434
 31
0.0
  0
ARC
  5
6A
  8
L1
 10
8.9505714767805671
 20
91.855087157715374
 30
0.0
 40
3.2000000000000282
 50
198.0206593051596
 51
270.0
  0
ARC
  5
6B
  8
L1
 10
8.9505714767805671
 20
91.855087157715374
 30
0.0
 40
3.2000000000000282
 50
180.0
 51
198.0206593051596
  0
POLYLINE
  5
6C
  8
L1
 66
     1
 10
0.0
 20
0.0
 30
0.0
  0
VERTEX
  5
5C8
  8
L1
 10
7.2504686742733488
 20
91.055087157715434
 30
0.0
  0
VERTEX
  5
5C9
  8
L1
 10
7.0383968705447719
 20
91.14291255147964
 30
0.0
  0
VERTEX
  5
5CA
  8
L1
 10
6.9505714767805671
 20
91.354984355208103
 30
0.0
  0
SEQEND
  5
5CB
  8
L1
  0
ARC
  5
6D
  8
L1
 10
11.05523959620319
 20
88.355087157715516
 30
0.0
 40
0.3000000000000001
 50
315.00000000000381
 51
90.0
  0
LINE
  5
6E
  8
L1
 10
11.05523959620319
 20
88.655087157715457
 30
0.0
 11
8.9505714767805671
 21
88.655087157715457
 31
0.0
  0
LINE
  5
6F
  8
L1
 10
12.45057147678056
 20
88.655087157715457
 30
0.0
 11
11.05523959620319
 21
88.655087157715457
 31
0.0
  0
POLYLINE
  5
70
  8
L1
 66
     1
 10
0.0
 20
0.0
 30
0.0
  0
VERTEX
  5
5CC
  8
L1
 10
19.4679328658803
 20
87.565137923458906
 30
0.0
  0
VERTEX
  5
5CD
  8
L1
 10
19.426665581128361
 20
87.639767935022064
 30
0.0
  0
VERTEX
  5
5CE
  8
L1
 10
19.40730751396671
 20
87.754857929956984
 30
0.0
  0
VERTEX
  5
5CF
  8
L1
 10
19.434389921927671
 20
87.870960844747856
 30
0.0
  0
VERTEX
  5
5D0
  8
L1
 10
19.477393208752279
 20
87.938999643622424
 30
0.0
  0
SEQEND
  5
5D1
  8
L1
  0
POLYLINE
  5
71
  8
L1
 66
     1
 10
0.0
 20
0.0
 30
0.0
  0
VERTEX
  5
5D2
  8
L1
 10
18.134483962687622
 20
89.281908889687188
 30
0.0
  0
VERTEX
  5
5D3
  8
L1
 10
18.061885952774379
 20
89.236865052334323
 30
0.0
  0
VERTEX
  5
5D4
  8
L1
 10
17.947833938522251
 20
89.211760552821715
 30
0.0
  0
VERTEX
  5
5D5
  8
L1
 10
17.832881941123269
 20
89.232091579469397
 30
0.0
  0
VERTEX
  5
5D6
  8
L1
 10
17.76062224252399
 20
89.272448546815085
 30
0.0
  0
SEQEND
  5
5D7
  8
L1
  0
LINE
  5
72
  8
L1
 10
19.477393208752279
 20
87.938999643622424
 30
0.0
 11
20.403876307538951
 21
89.043139205079214
 31
0.0
  0
POLYLINE
  5
73
  8
L1
 66
     1
 10
0.0
 20
0.0
 30
0.0
  0
VERTEX
  5
5D8
  8
L1
 10
20.386195682208889
 20
89.448092102388486
 30
0.0
  0
VERTEX
  5
5D9
  8
L1
 10
20.473776228446749
 20
89.249053526576503
 30
0.0
  0
VERTEX
  5
5DA
  8
L1
 10
20.403876307538951
 20
89.043139205079214
 30
0.0
  0
SEQEND
  5
5DB
  8
L1
  0
POLYLINE
  5
74
  8
L1
 66
     1
 10
0.0
 20
0.0
 30
0.0
  0
VERTEX
  5
5DC
  8
L1
 10
19.238623524144309
 20
90.208391988473863
 30
0.0
  0
VERTEX
  5
5DD
  8
L1
 10
19.444537845641602
 20
90.278291909381664
 30
0.0
  0
VERTEX
  5
5DE
  8
L1
 10
19.643576421453581
 20
90.190711363143805
 30
0.0
  0
SEQEND
  5
5DF
  8
L1
  0
LINE
  5
75
  8
L1
 10
20.386195682208889
 20
89.448092102388486
 30
0.0
 11
19.643576421453581
 21
90.190711363143805
 31
0.0
  0
LINE
  5
76
  8
L1
 10
19.23862352414443
 20
90.208391988473863
 30
0.0
 11
18.134483962687622
 21
89.281908889687188
 31
0.0
  0
LINE
  5
77
  8
L1
 10
180.94489095728969
 20
82.493357857986766
 30
0.0
 11
176.1888421770519
 21
87.2494066382244
 31
0.0
  0
LINE
  5
78
  8
L1
 10
177.13377132300201
 20
88.142955123359457
 30
0.0
 11
181.9814635426491
 21
83.295262903712342
 31
0.0
  0
ARC
  5
79
  8
L1
 10
175.95057147678051
 20
82.255087157715479
 30
0.0
 40
8.8000000000000007
 50
142.8851375449261
 51
180.0
  0
ARC
  5
7A
  8
L1
 10
175.95057147678051
 20
82.255087157715366
 30
0.0
 40
4.9999999999999849
 50
87.268584429572357
 51
182.7314155704282
  0
ARC
  5
7B
  8
L1
 10
175.95057147678051
 20
82.255087157715366
 30
0.0
 40
6.3999999999999941
 50
89.999999999998977
 51
180.0
  0
LINE
  5
7C
  8
L1
 10
182.4935955770051
 20
83.507394938068387
 30
0.0
 11
182.4935955770051
 21
90.86513547937318
 31
0.0
  0
LINE
  5
7D
  8
L1
 10
330.19441780222149
 20
82.482012280622882
 30
0.0
 11
334.93613277282702
 21
87.223727251228354
 31
0.0
  0
ARC
  5
7E
  8
L1
 10
335.16305789573431
 20
82.255087157715479
 30
0.0
 40
4.9738193966277091
 50
357.38503438687349
 51
92.614965613125165
  0
CIRCLE
  5
7F
  8
L1
 10
335.16305789573431
 20
82.255087157715479
 30
0.0
 40
5.7974047862592784
  0
CIRCLE
  5
80
  8
L1
 10
335.16305789573431
 20
82.255087157715479
 30
0.0
 40
6.097393363178492
  0
POLYLINE
  5
82
  8
L1
 66
     1
 10
0.0
 20
0.0
 30
0.0
  0
VERTEX
  5
5E0
  8
L1
 10
180.7575714767805
 20
73.992998719941284
 30
0.0
  0
VERTEX
  5
5E1
  8
L1
 10
181.41935907922601
 20
74.063372767600981
 30
0.0
  0
VERTEX
  5
5E2
  8
L1
 10
182.0743438630216
 20
74.265502155712966
 30
0.0
  0
VERTEX
  5
5E3
  8
L1
 10
182.6771907076766
 20
74.591646407529311
 30
0.0
  0
VERTEX
  5
5E4
  8
L1
 10
183.1905005958541
 20
75.015158038641857
 30
0.0
  0
VERTEX
  5
5E5
  8
L1
 10
183.61401222696659
 20
75.528467926819417
 30
0.0
  0
VERTEX
  5
5E6
  8
L1
 10
183.94015647878291
 20
76.131314771474422
 30
0.0
  0
VERTEX
  5
5E7
  8
L1
 10
184.14228586689489
 20
76.786299555270134
 30
0.0
  0
VERTEX
  5
5E8
  8
L1
 10
184.21265991455459
 20
77.448087157715463
 30
0.0
  0
SEQEND
  5
5E9
  8
L1
  0
ARC
  5
83
  8
L1
 10
180.65057147678061
 20
77.55508715771532
 30
0.0
 40
2.0000000000000151
 50
225.0
 51
45.0
  0
ARC
  5
84
  8
L1
 10
180.7575714767805
 20
77.448087157715463
 30
0.0
 40
2.7360241002247649
 50
270.0
 51
0.0
  0
LINE
  5
85
  8
L1
 10
182.06478503915369
 20
78.969300720088427
 30
0.0
 11
180.6051553883575
 21
80.428930370884473
 31
0.0
  0
LINE
  5
86
  8
L1
 10
177.77672826361129
 20
77.600503246138373
 30
0.0
 11
179.23635791440751
 21
76.140873595342214
 31
0.0
  0
ARC
  5
87
  8
L1
 10
166.3505714767806
 20
78.755087157715366
 30
0.0
 40
3.2000000000000282
 50
288.02065930515738
 51
0.0
  0
LINE
  5
88
  8
L1
 10
174.91039573078379
 20
76.224195091846795
 30
0.0
 11
170.06270351113639
 21
81.071887311493924
 31
0.0
  0
LINE
  5
89
  8
L1
 10
167.3405231551227
 20
75.712063057490809
 30
0.0
 11
174.69826369642769
 21
75.712063057490809
 31
0.0
  0
ARC
  5
8A
  8
L1
 10
166.3505714767806
 20
78.755087157715366
 30
0.0
 40
3.2000000000000282
 50
270.0
 51
288.02065930515738
  0
POLYLINE
  5
8B
  8
L1
 66
     1
 10
0.0
 20
0.0
 30
0.0
  0
VERTEX
  5
5EA
  8
L1
 10
180.7176722360486
 20
73.992783026806251
 30
0.0
  0
VERTEX
  5
5EB
  8
L1
 10
180.73761950881871
 20
73.992836950526566
 30
0.0
  0
VERTEX
  5
5EC
  8
L1
 10
180.7575714767805
 20
73.992998719941284
 30
0.0
  0
SEQEND
  5
5ED
  8
L1
  0
ARC
  5
8C
  8
L1
 10
174.69826369642769
 20
76.012063057490764
 30
0.0
 40
0.3000000000000114
 50
270.0
 51
45.000000000007681
  0
LINE
  5
8D
  8
L1
 10
170.95625199627139
 20
82.016816457443952
 30
0.0
 11
175.7123007765091
 21
77.260767677206331
 31
0.0
  0
POLYLINE
  5
8E
  8
L1
 66
     1
 10
0.0
 20
0.0
 30
0.0
  0
VERTEX
  5
5EE
  8
L1
 10
166.85067427928789
 20
76.755087157715366
 30
0.0
  0
VERTEX
  5
5EF
  8
L1
 10
167.06274608301641
 20
76.842912551479685
 30
0.0
  0
VERTEX
  5
5F0
  8
L1
 10
167.15057147678061
 20
77.054984355208148
 30
0.0
  0
SEQEND
  5
5F1
  8
L1
  0
LINE
  5
8F
  8
L1
 10
169.5505714767805
 20
80.859755277137992
 30
0.0
 11
169.5505714767805
 21
82.255087157715366
 31
0.0
  0
ARC
  5
90
  8
L1
 10
169.8505714767806
 20
80.859755277137992
 30
0.0
 40
0.2999999999999944
 50
45.000000000003851
 51
180.0
  0
LINE
  5
91
  8
L1
 10
167.15057147678061
 20
77.054984355208148
 30
0.0
 11
167.15057147678061
 21
82.255087157715579
 31
0.0
  0
LINE
  5
92
  8
L1
 10
169.5505714767805
 20
78.755087157715366
 30
0.0
 11
169.5505714767805
 21
80.859755277137992
 31
0.0
  0
ARC
  5
93
  8
L1
 10
175.95057147678051
 20
82.255087157715366
 30
0.0
 40
4.9999999999999849
 50
267.26858442957229
 51
291.42182152179748
  0
POLYLINE
  5
94
  8
L1
 66
     1
 10
0.0
 20
0.0
 30
0.0
  0
VERTEX
  5
5F2
  8
L1
 10
178.71850193030551
 20
77.178040545304839
 30
0.0
  0
VERTEX
  5
5F3
  8
L1
 10
178.71782499181529
 20
77.177671556087034
 30
0.0
  0
VERTEX
  5
5F4
  8
L1
 10
178.6119896957824
 20
77.121630920184415
 30
0.0
  0
VERTEX
  5
5F5
  8
L1
 10
178.52008226785691
 20
77.075653768854067
 30
0.0
  0
VERTEX
  5
5F6
  8
L1
 10
178.4582064277057
 20
77.046352459731793
 30
0.0
  0
VERTEX
  5
5F7
  8
L1
 10
178.36920953477389
 20
77.008021974975904
 30
0.0
  0
SEQEND
  5
5F8
  8
L1
  0
ARC
  5
95
  8
L1
 10
175.95057147678051
 20
82.255087157715366
 30
0.0
 40
4.9999999999999849
 50
338.57817847820172
 51
2.7314155704273482
  0
POLYLINE
  5
96
  8
L1
 66
     1
 10
0.0
 20
0.0
 30
0.0
  0
VERTEX
  5
5F9
  8
L1
 10
181.1976366595201
 20
79.836449099721875
 30
0.0
  0
VERTEX
  5
5FA
  8
L1
 10
181.15930617476411
 20
79.747452206790172
 30
0.0
  0
VERTEX
  5
5FB
  8
L1
 10
181.13000486564181
 20
79.685576366639111
 30
0.0
  0
VERTEX
  5
5FC
  8
L1
 10
181.0840277143115
 20
79.593668938713449
 30
0.0
  0
VERTEX
  5
5FD
  8
L1
 10
181.02798707840881
 20
79.487833642680584
 30
0.0
  0
VERTEX
  5
5FE
  8
L1
 10
181.02761808919109
 20
79.487156704190397
 30
0.0
  0
SEQEND
  5
5FF
  8
L1
  0
ARC
  5
97
  8
L1
 10
175.95057147678051
 20
82.255087157715366
 30
0.0
 40
5.7825462644184809
 50
298.59856268375552
 51
331.40143731624443
  0
POLYLINE
  5
98
  8
L1
 66
     1
 10
0.0
 20
0.0
 30
0.0
  0
VERTEX
  5
600
  8
L1
 10
184.21265991455459
 20
77.448087157715463
 30
0.0
  0
VERTEX
  5
601
  8
L1
 10
184.2128216839692
 20
77.468039125677123
 30
0.0
  0
VERTEX
  5
602
  8
L1
 10
184.2128756076896
 20
77.487986398447205
 30
0.0
  0
SEQEND
  5
603
  8
L1
  0
ARC
  5
99
  8
L1
 10
182.193595577005
 20
83.507394938068387
 30
0.0
 40
0.3000000000000145
 50
225.0
 51
0.0
  0
ARC
  5
9A
  8
L2
 10
259.81266504510421
 20
76.055087157715491
 30
0.0
 40
0.3708501521392529
 50
0.0
 51
80.000000000004164
  0
LINE
  5
9B
  8
L1
 10
250.22182931461441
 20
74.421036114320771
 30
0.0
 11
258.39338501441978
 21
73.992783026806251
 31
0.0
  0
ARC
  5
9D
  8
L1
 10
259.81266504510421
 20
76.055087157715491
 30
0.0
 40
0.3708501521392529
 50
279.99999999999579
 51
0.0
  0
LINE
  5
9E
  8
L1
 10
259.87706249821059
 20
75.689871052683031
 30
0.0
 11
259.11266504510422
 21
75.555087157715491
 31
0.0
  0
LINE
  5
9F
  8
L1
 10
259.11266504510422
 20
74.712063057490624
 30
0.0
 11
259.11266504510422
 21
75.55508715771532
 31
0.0
  0
LINE
  5
A0
  8
L1
 10
258.39338501441978
 20
73.992783026806251
 30
0.0
 11
259.11266504510422
 21
74.712063057490624
 31
0.0
  0
LINE
  5
AB
  8
L2
 10
259.11266504510422
 20
76.555087157715491
 30
0.0
 11
259.87706249821059
 21
76.42030326274795
 31
0.0
  0
ARC
  5
B1
  8
L1
 10
330.88013568856479
 20
77.972164950545846
 30
0.0
 40
2.4419645667148879
 50
180.0
 51
270.00000000000131
  0
POLYLINE
  5
B2
  8
L1
 66
     1
 10
0.0
 20
0.0
 30
0.0
  0
VERTEX
  5
604
  8
L1
 10
326.90096945796029
 20
77.448087157715463
 30
0.0
  0
VERTEX
  5
605
  8
L1
 10
326.9713435056201
 20
76.786299555270205
 30
0.0
  0
VERTEX
  5
606
  8
L1
 10
327.17347289373191
 20
76.131314771474536
 30
0.0
  0
VERTEX
  5
607
  8
L1
 10
327.49961714554831
 20
75.528467926819474
 30
0.0
  0
VERTEX
  5
608
  8
L1
 10
327.92312877666069
 20
75.015158038641857
 30
0.0
  0
VERTEX
  5
609
  8
L1
 10
328.43643866483831
 20
74.591646407529424
 30
0.0
  0
VERTEX
  5
60A
  8
L1
 10
329.03928550949342
 20
74.265502155713023
 30
0.0
  0
VERTEX
  5
60B
  8
L1
 10
329.69427029328909
 20
74.063372767601095
 30
0.0
  0
VERTEX
  5
60C
  8
L1
 10
330.35605789573441
 20
73.99299871994134
 30
0.0
  0
SEQEND
  5
60D
  8
L1
  0
POLYLINE
  5
B3
  8
L1
 66
     1
 10
0.0
 20
0.0
 30
0.0
  0
VERTEX
  5
60E
  8
L1
 10
329.93943959325799
 20
79.740387556218906
 30
0.0
  0
VERTEX
  5
60F
  8
L1
 10
329.95611051373947
 20
79.835871749636965
 30
0.0
  0
SEQEND
  5
610
  8
L1
  0
ARC
  5
B4
  8
L1
 10
335.16305789573431
 20
82.255087157715479
 30
0.0
 40
4.9738193966277091
 50
177.3850343868742
 51
201.61910855169899
  0
POLYLINE
  5
B5
  8
L1
 66
     1
 10
0.0
 20
0.0
 30
0.0
  0
VERTEX
  5
611
  8
L1
 10
329.95611051373942
 20
79.835871749637079
 30
0.0
  0
VERTEX
  5
612
  8
L1
 10
329.97204603490877
 20
79.853158740282709
 30
0.0
  0
VERTEX
  5
613
  8
L1
 10
330.01944566584098
 20
79.901758226312893
 30
0.0
  0
VERTEX
  5
614
  8
L1
 10
330.09269050786958
 20
79.975825668331865
 30
0.0
  0
VERTEX
  5
615
  8
L1
 10
330.1816796651832
 20
80.065111087550235
 30
0.0
  0
SEQEND
  5
616
  8
L1
  0
LINE
  5
B6
  8
L1
 10
330.1816796651832
 20
80.065111087550179
 30
0.0
 11
330.53912847945941
 21
80.422559901826332
 31
0.0
  0
LINE
  5
B7
  8
L1
 10
340.13169798924719
 20
82.028162034808076
 30
0.0
 11
335.38998301864171
 21
77.286447064202605
 31
0.0
  0
ARC
  5
B8
  8
L1
 10
335.16305789573431
 20
82.255087157715479
 30
0.0
 40
4.9738193966277091
 50
248.3808914483015
 51
272.61496561312578
  0
POLYLINE
  5
B9
  8
L1
 66
     1
 10
0.0
 20
0.0
 30
0.0
  0
VERTEX
  5
617
  8
L1
 10
332.74384248765602
 20
77.048139775720585
 30
0.0
  0
VERTEX
  5
618
  8
L1
 10
332.64835829423799
 20
77.031468855239154
 30
0.0
  0
SEQEND
  5
619
  8
L1
  0
LINE
  5
BA
  8
L1
 10
333.33053063984528
 20
77.631157741440404
 30
0.0
 11
332.97308182556918
 21
77.273708927164307
 31
0.0
  0
POLYLINE
  5
BB
  8
L1
 66
     1
 10
0.0
 20
0.0
 30
0.0
  0
VERTEX
  5
61A
  8
L1
 10
332.97308182556918
 20
77.273708927164307
 30
0.0
  0
VERTEX
  5
61B
  8
L1
 10
332.88379640635088
 20
77.184719769850631
 30
0.0
  0
VERTEX
  5
61C
  8
L1
 10
332.8097289643319
 20
77.11147492782203
 30
0.0
  0
VERTEX
  5
61D
  8
L1
 10
332.76112947830183
 20
77.064075296889939
 30
0.0
  0
VERTEX
  5
61E
  8
L1
 10
332.74384248765602
 20
77.048139775720585
 30
0.0
  0
SEQEND
  5
61F
  8
L1
  0
ARC
  5
BC
  8
L1
 10
179.45057147678051
 20
91.855087157715374
 30
0.0
 40
3.2000000000000282
 50
270.0
 51
341.9793406948404
  0
ARC
  5
BD
  8
L1
 10
175.95057147678051
 20
82.255087157715479
 30
0.0
 40
8.8000000000000007
 50
90.0
 51
127.11486245507371
  0
POLYLINE
  5
BE
  8
L1
 66
     1
 10
0.0
 20
0.0
 30
0.0
  0
VERTEX
  5
620
  8
L1
 10
168.01494727135221
 20
89.448092102388486
 30
0.0
  0
VERTEX
  5
621
  8
L1
 10
167.9273667251143
 20
89.249053526576503
 30
0.0
  0
VERTEX
  5
622
  8
L1
 10
167.9972666460221
 20
89.043139205079214
 30
0.0
  0
SEQEND
  5
623
  8
L1
  0
LINE
  5
BF
  8
L1
 10
168.92374974480879
 20
87.938999643622424
 30
0.0
 11
167.9972666460221
 21
89.043139205079214
 31
0.0
  0
POLYLINE
  5
C0
  8
L1
 66
     1
 10
0.0
 20
0.0
 30
0.0
  0
VERTEX
  5
624
  8
L1
 10
170.26665899087351
 20
89.281908889687188
 30
0.0
  0
VERTEX
  5
625
  8
L1
 10
170.33925700078669
 20
89.236865052334323
 30
0.0
  0
VERTEX
  5
626
  8
L1
 10
170.4533090150388
 20
89.211760552821715
 30
0.0
  0
VERTEX
  5
627
  8
L1
 10
170.5682610124378
 20
89.232091579469397
 30
0.0
  0
VERTEX
  5
628
  8
L1
 10
170.64052071103711
 20
89.272448546815085
 30
0.0
  0
SEQEND
  5
629
  8
L1
  0
POLYLINE
  5
C1
  8
L1
 66
     1
 10
0.0
 20
0.0
 30
0.0
  0
VERTEX
  5
62A
  8
L1
 10
168.93321008768081
 20
87.565137923458906
 30
0.0
  0
VERTEX
  5
62B
  8
L1
 10
168.97447737243269
 20
87.639767935022064
 30
0.0
  0
VERTEX
  5
62C
  8
L1
 10
168.99383543959439
 20
87.754857929956984
 30
0.0
  0
VERTEX
  5
62D
  8
L1
 10
168.9667530316334
 20
87.870960844747856
 30
0.0
  0
VERTEX
  5
62E
  8
L1
 10
168.92374974480879
 20
87.938999643622424
 30
0.0
  0
SEQEND
  5
62F
  8
L1
  0
POLYLINE
  5
C2
  8
L1
 66
     1
 10
0.0
 20
0.0
 30
0.0
  0
VERTEX
  5
630
  8
L1
 10
169.16251942941679
 20
90.208391988473863
 30
0.0
  0
VERTEX
  5
631
  8
L1
 10
168.9566051079195
 20
90.278291909381664
 30
0.0
  0
VERTEX
  5
632
  8
L1
 10
168.75756653210749
 20
90.190711363143805
 30
0.0
  0
SEQEND
  5
633
  8
L1
  0
LINE
  5
C3
  8
L1
 10
169.1625194294167
 20
90.208391988473863
 30
0.0
 11
170.26665899087351
 21
89.281908889687188
 31
0.0
  0
LINE
  5
C4
  8
L1
 10
168.01494727135221
 20
89.448092102388486
 30
0.0
 11
168.75756653210749
 21
90.190711363143805
 31
0.0
  0
LINE
  5
C5
  8
L1
 10
177.34590335735791
 20
88.655087157715457
 30
0.0
 11
179.45057147678051
 21
88.655087157715457
 31
0.0
  0
ARC
  5
C6
  8
L1
 10
177.34590335735791
 20
88.355087157715516
 30
0.0
 40
0.3000000000000001
 50
90.0
 51
224.99999999999611
  0
LINE
  5
C7
  8
L1
 10
175.95057147678051
 20
88.655087157715457
 30
0.0
 11
177.34590335735791
 21
88.655087157715457
 31
0.0
  0
LINE
  5
C8
  8
L1
 10
175.95057147678051
 20
91.055087157715434
 30
0.0
 11
181.1506742792877
 21
91.055087157715434
 31
0.0
  0
POLYLINE
  5
C9
  8
L1
 66
     1
 10
0.0
 20
0.0
 30
0.0
  0
VERTEX
  5
634
  8
L1
 10
181.1506742792877
 20
91.055087157715434
 30
0.0
  0
VERTEX
  5
635
  8
L1
 10
181.3627460830163
 20
91.14291255147964
 30
0.0
  0
VERTEX
  5
636
  8
L1
 10
181.45057147678051
 20
91.354984355208103
 30
0.0
  0
SEQEND
  5
637
  8
L1
  0
ARC
  5
CA
  8
L1
 10
179.45057147678051
 20
91.855087157715374
 30
0.0
 40
3.2000000000000282
 50
341.9793406948404
 51
0.0
  0
LINE
  5
CF
  8
L2
 10
249.61266504510419
 20
89.459450591610846
 30
0.0
 11
249.11266504510419
 21
89.455087157715468
 31
0.0
  0
LINE
  5
D4
  8
L6
 10
268.18351519724342
 20
164.00508715771539
 30
0.0
 11
241.11266504510411
 21
164.00508715771539
 31
0.0
  0
ARC
  5
D5
  8
L1
 10
344.36305789573441
 20
91.455087157715454
 30
0.0
 40
1.99563656610462
 50
180.0
 51
270.0
  0
LINE
  5
D6
  8
L1
 10
7.6834707175123071
 20
254.01739128862459
 30
0.0
 11
180.7176722360486
 21
254.01739128862459
 31
0.0
  0
LINE
  5
D7
  8
L1
 10
21.550468674273191
 20
251.25508715771551
 30
0.0
 11
166.85067427928789
 21
251.25508715771551
 31
0.0
  0
LINE
  5
D8
  8
L1
 10
180.7575714767805
 20
253.29811125794021
 30
0.0
 11
7.6435714767805498
 21
253.29811125794021
 31
0.0
  0
LINE
  5
D9
  8
L1
 10
22.050571476780469
 20
252.4550871577155
 30
0.0
 11
166.35057147678049
 21
252.4550871577155
 31
0.0
  0
LINE
  5
DA
  8
L1
 10
21.060619798438381
 20
252.29811125794009
 30
0.0
 11
13.702879257133359
 21
252.29811125794009
 31
0.0
  0
ARC
  5
DB
  8
L1
 10
12.45057147678056
 20
245.75508715771551
 30
0.0
 40
4.9999999999999849
 50
267.26858442957229
 51
2.7314155704282892
  0
ARC
  5
DC
  8
L1
 10
12.45057147678056
 20
245.75508715771551
 30
0.0
 40
6.3999999999999941
 50
269.99999999999892
 51
0.0
  0
ARC
  5
DD
  8
L1
 10
12.45057147678056
 20
245.75508715771539
 30
0.0
 40
8.8000000000000007
 50
270.0
 51
307.11486245507371
  0
LINE
  5
DE
  8
L1
 10
17.444890957289712
 20
245.99335785798689
 30
0.0
 11
12.688842177051979
 21
250.74940663822451
 31
0.0
  0
LINE
  5
DF
  8
L1
 10
13.49074722277731
 20
251.78597922358401
 30
0.0
 11
18.338439442424651
 21
246.93828700393689
 31
0.0
  0
LINE
  5
E0
  8
L1
 10
6.3363579144074151
 20
249.04087359534239
 30
0.0
 11
7.7959875652035739
 21
247.5812439445464
 31
0.0
  0
ARC
  5
E1
  8
L1
 10
8.9505714767805671
 20
236.15508715771551
 30
0.0
 40
3.2000000000000282
 50
90.0
 51
161.9793406948404
  0
LINE
  5
E2
  8
L1
 10
5.9075473765560096
 20
244.50277937736249
 30
0.0
 11
5.9075473765560096
 21
237.14503883605769
 31
0.0
  0
LINE
  5
E3
  8
L1
 10
12.45057147678056
 20
236.95508715771541
 30
0.0
 11
7.2504686742733488
 21
236.95508715771541
 31
0.0
  0
POLYLINE
  5
E4
  8
L1
 66
     1
 10
0.0
 20
0.0
 30
0.0
  0
VERTEX
  5
638
  8
L1
 10
7.2504686742733488
 20
236.95508715771541
 30
0.0
  0
VERTEX
  5
639
  8
L1
 10
7.0383968705447719
 20
236.86726176395121
 30
0.0
  0
VERTEX
  5
63A
  8
L1
 10
6.9505714767805671
 20
236.6551899602228
 30
0.0
  0
SEQEND
  5
63B
  8
L1
  0
ARC
  5
E5
  8
L1
 10
8.9505714767805671
 20
236.15508715771551
 30
0.0
 40
3.2000000000000282
 50
161.9793406948404
 51
180.0
  0
LINE
  5
E6
  8
L1
 10
7.4562519962714191
 20
245.51681645744409
 30
0.0
 11
12.212300776509149
 21
240.7607676772065
 31
0.0
  0
LINE
  5
E7
  8
L1
 10
11.26737163055912
 20
239.86721919207139
 30
0.0
 11
6.4196794109120097
 21
244.7149114117185
 31
0.0
  0
ARC
  5
E8
  8
L1
 10
6.2075473765560778
 20
244.50277937736249
 30
0.0
 40
0.3000000000000145
 50
45.0
 51
180.0
  0
ARC
  5
E9
  8
L1
 10
12.45057147678056
 20
245.75508715771551
 30
0.0
 40
4.9999999999999849
 50
158.57817847820181
 51
182.73141557042729
  0
LINE
  5
EA
  8
L1
 10
11.05523959620319
 20
239.35508715771539
 30
0.0
 11
8.9505714767805671
 21
239.35508715771539
 31
0.0
  0
ARC
  5
EB
  8
L1
 10
11.05523959620319
 20
239.65508715771529
 30
0.0
 40
0.3000000000000001
 50
270.0
 51
44.999999999996142
  0
LINE
  5
EC
  8
L1
 10
12.45057147678056
 20
239.35508715771539
 30
0.0
 11
11.05523959620319
 21
239.35508715771539
 31
0.0
  0
ARC
  5
ED
  8
L1
 10
7.7505714767805207
 20
250.4550871577155
 30
0.0
 40
2.0000000000000151
 50
45.0
 51
225.0
  0
ARC
  5
EE
  8
L1
 10
12.45057147678056
 20
245.75508715771551
 30
0.0
 40
5.7825462644184809
 50
118.5985626837555
 51
151.40143731624451
  0
POLYLINE
  5
EF
  8
L1
 66
     1
 10
0.0
 20
0.0
 30
0.0
  0
VERTEX
  5
63C
  8
L1
 10
7.6435714767805498
 20
254.01717559548959
 30
0.0
  0
VERTEX
  5
63D
  8
L1
 10
6.9817838743351208
 20
253.94680154782989
 30
0.0
  0
VERTEX
  5
63E
  8
L1
 10
6.3267990905395086
 20
253.74467215971791
 30
0.0
  0
VERTEX
  5
63F
  8
L1
 10
5.7239522458845036
 20
253.41852790790151
 30
0.0
  0
VERTEX
  5
640
  8
L1
 10
5.2106423577069441
 20
252.99501627678899
 30
0.0
  0
VERTEX
  5
641
  8
L1
 10
4.7871307265945111
 20
252.4817063886114
 30
0.0
  0
VERTEX
  5
642
  8
L1
 10
4.4609864747781671
 20
251.87885954395651
 30
0.0
  0
VERTEX
  5
643
  8
L1
 10
4.2588570866661817
 20
251.2238747601607
 30
0.0
  0
VERTEX
  5
644
  8
L1
 10
4.188483039006484
 20
250.56208715771541
 30
0.0
  0
SEQEND
  5
645
  8
L1
  0
POLYLINE
  5
F0
  8
L1
 66
     1
 10
0.0
 20
0.0
 30
0.0
  0
VERTEX
  5
646
  8
L1
 10
7.6834707175125336
 20
254.01739128862459
 30
0.0
  0
VERTEX
  5
647
  8
L1
 10
7.6635234447423377
 20
254.01733736490431
 30
0.0
  0
VERTEX
  5
648
  8
L1
 10
7.6435714767805498
 20
254.01717559548959
 30
0.0
  0
SEQEND
  5
649
  8
L1
  0
POLYLINE
  5
F1
  8
L1
 66
     1
 10
0.0
 20
0.0
 30
0.0
  0
VERTEX
  5
64A
  8
L1
 10
4.188483039006484
 20
250.56208715771541
 30
0.0
  0
VERTEX
  5
64B
  8
L1
 10
4.1883212695918806
 20
250.54213518975371
 30
0.0
  0
VERTEX
  5
64C
  8
L1
 10
4.1882673458714521
 20
250.52218791698371
 30
0.0
  0
SEQEND
  5
64D
  8
L1
  0
ARC
  5
F2
  8
L1
 10
7.6435714767805498
 20
250.56208715771541
 30
0.0
 40
2.7360241002247649
 50
90.0
 51
180.0
  0
POLYLINE
  5
F3
  8
L1
 66
     1
 10
0.0
 20
0.0
 30
0.0
  0
VERTEX
  5
64E
  8
L1
 10
7.2035062940410048
 20
248.173725215709
 30
0.0
  0
VERTEX
  5
64F
  8
L1
 10
7.2418367787969942
 20
248.2627221086407
 30
0.0
  0
VERTEX
  5
650
  8
L1
 10
7.271138087919268
 20
248.32459794879179
 30
0.0
  0
VERTEX
  5
651
  8
L1
 10
7.317115239249631
 20
248.4165053767174
 30
0.0
  0
VERTEX
  5
652
  8
L1
 10
7.3731558751522348
 20
248.52234067275029
 30
0.0
  0
VERTEX
  5
653
  8
L1
 10
7.3735248643700402
 20
248.5230176112405
 30
0.0
  0
SEQEND
  5
654
  8
L1
  0
ARC
  5
F4
  8
L1
 10
12.45057147678056
 20
245.75508715771551
 30
0.0
 40
4.9999999999999849
 50
87.268584429572357
 51
111.4218215217975
  0
LINE
  5
F5
  8
L1
 10
10.624414689949781
 20
250.4096710692925
 30
0.0
 11
9.1647850391536281
 21
251.8693007200886
 31
0.0
  0
POLYLINE
  5
F6
  8
L1
 66
     1
 10
0.0
 20
0.0
 30
0.0
  0
VERTEX
  5
655
  8
L1
 10
9.6826410232555986
 20
250.83213377012601
 30
0.0
  0
VERTEX
  5
656
  8
L1
 10
9.6833179617457859
 20
250.83250275934381
 30
0.0
  0
VERTEX
  5
657
  8
L1
 10
9.7891532577786506
 20
250.88854339524639
 30
0.0
  0
VERTEX
  5
658
  8
L1
 10
9.8810606857041972
 20
250.93452054657681
 30
0.0
  0
VERTEX
  5
659
  8
L1
 10
9.942936525855373
 20
250.963821855699
 30
0.0
  0
VERTEX
  5
65A
  8
L1
 10
10.03193341878722
 20
251.0021523404549
 30
0.0
  0
SEQEND
  5
65B
  8
L1
  0
ARC
  5
F7
  8
L1
 10
13.702879257133359
 20
251.99811125794011
 30
0.0
 40
0.3000000000000114
 50
90.0
 51
225.00000000000759
  0
LINE
  5
F8
  8
L1
 10
21.250571476780522
 20
250.9551899602227
 30
0.0
 11
21.250571476780522
 21
245.75508715771531
 31
0.0
  0
LINE
  5
F9
  8
L1
 10
18.850571476780541
 20
249.25508715771551
 30
0.0
 11
18.850571476780541
 21
247.15041903829291
 31
0.0
  0
POLYLINE
  5
FA
  8
L1
 66
     1
 10
0.0
 20
0.0
 30
0.0
  0
VERTEX
  5
65C
  8
L1
 10
20.386195682208889
 20
238.5620822130424
 30
0.0
  0
VERTEX
  5
65D
  8
L1
 10
20.473776228446749
 20
238.7611207888543
 30
0.0
  0
VERTEX
  5
65E
  8
L1
 10
20.403876307538951
 20
238.96703511035159
 30
0.0
  0
SEQEND
  5
65F
  8
L1
  0
POLYLINE
  5
FB
  8
L1
 66
     1
 10
0.0
 20
0.0
 30
0.0
  0
VERTEX
  5
660
  8
L1
 10
18.134483962687622
 20
238.7282654257437
 30
0.0
  0
VERTEX
  5
661
  8
L1
 10
18.061885952774379
 20
238.77330926309651
 30
0.0
  0
VERTEX
  5
662
  8
L1
 10
17.947833938522251
 20
238.7984137626091
 30
0.0
  0
VERTEX
  5
663
  8
L1
 10
17.832881941123269
 20
238.7780827359615
 30
0.0
  0
VERTEX
  5
664
  8
L1
 10
17.76062224252399
 20
238.7377257686158
 30
0.0
  0
SEQEND
  5
665
  8
L1
  0
POLYLINE
  5
FC
  8
L1
 66
     1
 10
0.0
 20
0.0
 30
0.0
  0
VERTEX
  5
666
  8
L1
 10
19.238623524144309
 20
237.80178232695701
 30
0.0
  0
VERTEX
  5
667
  8
L1
 10
19.444537845641602
 20
237.73188240604921
 30
0.0
  0
VERTEX
  5
668
  8
L1
 10
19.643576421453581
 20
237.81946295228701
 30
0.0
  0
SEQEND
  5
669
  8
L1
  0
LINE
  5
FD
  8
L1
 10
19.23862352414443
 20
237.80178232695701
 30
0.0
 11
18.134483962687622
 21
238.7282654257437
 31
0.0
  0
LINE
  5
FE
  8
L1
 10
20.386195682208889
 20
238.5620822130424
 30
0.0
 11
19.643576421453581
 21
237.81946295228701
 31
0.0
  0
LINE
  5
FF
  8
L1
 10
18.850571476780541
 20
247.15041903829291
 30
0.0
 11
18.850571476780541
 21
245.75508715771551
 31
0.0
  0
ARC
  5
100
  8
L1
 10
12.45057147678056
 20
245.75508715771539
 30
0.0
 40
8.8000000000000007
 50
322.88513754492612
 51
0.0
  0
LINE
  5
101
  8
L1
 10
19.477393208752279
 20
240.07117467180839
 30
0.0
 11
20.403876307538951
 21
238.96703511035159
 31
0.0
  0
POLYLINE
  5
102
  8
L1
 66
     1
 10
0.0
 20
0.0
 30
0.0
  0
VERTEX
  5
66A
  8
L1
 10
19.4679328658803
 20
240.44503639197191
 30
0.0
  0
VERTEX
  5
66B
  8
L1
 10
19.426665581128361
 20
240.37040638040881
 30
0.0
  0
VERTEX
  5
66C
  8
L1
 10
19.40730751396671
 20
240.25531638547389
 30
0.0
  0
VERTEX
  5
66D
  8
L1
 10
19.434389921927671
 20
240.13921347068299
 30
0.0
  0
VERTEX
  5
66E
  8
L1
 10
19.477393208752279
 20
240.07117467180839
 30
0.0
  0
SEQEND
  5
66F
  8
L1
  0
ARC
  5
103
  8
L1
 10
18.550571476780469
 20
247.15041903829291
 30
0.0
 40
0.2999999999999944
 50
225.00000000000381
 51
0.0
  0
ARC
  5
104
  8
L1
 10
22.050571476780469
 20
249.25508715771551
 30
0.0
 40
3.2000000000000282
 50
108.02065930515749
 51
180.0
  0
POLYLINE
  5
105
  8
L1
 66
     1
 10
0.0
 20
0.0
 30
0.0
  0
VERTEX
  5
670
  8
L1
 10
21.550468674273191
 20
251.25508715771551
 30
0.0
  0
VERTEX
  5
671
  8
L1
 10
21.33839687054472
 20
251.16726176395119
 30
0.0
  0
VERTEX
  5
672
  8
L1
 10
21.250571476780522
 20
250.9551899602227
 30
0.0
  0
SEQEND
  5
673
  8
L1
  0
ARC
  5
106
  8
L1
 10
22.050571476780469
 20
249.25508715771551
 30
0.0
 40
3.2000000000000282
 50
90.0
 51
108.02065930515749
  0
POLYLINE
  5
107
  8
L1
 66
     1
 10
0.0
 20
0.0
 30
0.0
  0
VERTEX
  5
674
  8
L1
 10
180.7575714767805
 20
254.01717559548959
 30
0.0
  0
VERTEX
  5
675
  8
L1
 10
181.41935907922601
 20
253.94680154782989
 30
0.0
  0
VERTEX
  5
676
  8
L1
 10
182.0743438630216
 20
253.74467215971791
 30
0.0
  0
VERTEX
  5
677
  8
L1
 10
182.6771907076766
 20
253.41852790790151
 30
0.0
  0
VERTEX
  5
678
  8
L1
 10
183.1905005958541
 20
252.99501627678899
 30
0.0
  0
VERTEX
  5
679
  8
L1
 10
183.61401222696659
 20
252.4817063886114
 30
0.0
  0
VERTEX
  5
67A
  8
L1
 10
183.94015647878291
 20
251.87885954395651
 30
0.0
  0
VERTEX
  5
67B
  8
L1
 10
184.14228586689489
 20
251.2238747601607
 30
0.0
  0
VERTEX
  5
67C
  8
L1
 10
184.21265991455459
 20
250.56208715771541
 30
0.0
  0
SEQEND
  5
67D
  8
L1
  0
ARC
  5
108
  8
L1
 10
179.45057147678051
 20
236.15508715771551
 30
0.0
 40
3.2000000000000282
 50
18.020659305159601
 51
90.0
  0
ARC
  5
109
  8
L1
 10
180.65057147678061
 20
250.4550871577155
 30
0.0
 40
2.0000000000000151
 50
315.0
 51
135.0
  0
LINE
  5
10A
  8
L1
 10
182.06478503915369
 20
249.04087359534239
 30
0.0
 11
180.6051553883575
 21
247.5812439445464
 31
0.0
  0
ARC
  5
10B
  8
L1
 10
180.7575714767805
 20
250.56208715771541
 30
0.0
 40
2.7360241002247649
 50
0.0
 51
90.0
  0
LINE
  5
10C
  8
L1
 10
177.13377132300201
 20
239.86721919207139
 30
0.0
 11
181.9814635426491
 21
244.7149114117185
 31
0.0
  0
LINE
  5
10D
  8
L1
 10
167.15057147678061
 20
250.9551899602227
 30
0.0
 11
167.15057147678061
 21
245.75508715771531
 31
0.0
  0
LINE
  5
10E
  8
L1
 10
170.95625199627139
 20
245.99335785798689
 30
0.0
 11
175.7123007765091
 21
250.74940663822451
 31
0.0
  0
LINE
  5
10F
  8
L1
 10
174.91039573078379
 20
251.78597922358401
 30
0.0
 11
170.06270351113639
 21
246.93828700393689
 31
0.0
  0
LINE
  5
110
  8
L1
 10
169.5505714767805
 20
249.25508715771551
 30
0.0
 11
169.5505714767805
 21
247.15041903829291
 31
0.0
  0
POLYLINE
  5
111
  8
L1
 66
     1
 10
0.0
 20
0.0
 30
0.0
  0
VERTEX
  5
67E
  8
L1
 10
168.01494727135221
 20
238.5620822130424
 30
0.0
  0
VERTEX
  5
67F
  8
L1
 10
167.9273667251143
 20
238.7611207888543
 30
0.0
  0
VERTEX
  5
680
  8
L1
 10
167.9972666460221
 20
238.96703511035159
 30
0.0
  0
SEQEND
  5
681
  8
L1
  0
ARC
  5
112
  8
L1
 10
175.95057147678051
 20
245.75508715771551
 30
0.0
 40
6.3999999999999941
 50
180.0
 51
270.00000000000102
  0
ARC
  5
113
  8
L1
 10
175.95057147678051
 20
245.75508715771539
 30
0.0
 40
8.8000000000000007
 50
232.88513754492621
 51
270.0
  0
LINE
  5
114
  8
L1
 10
169.1625194294167
 20
237.80178232695701
 30
0.0
 11
170.26665899087351
 21
238.7282654257437
 31
0.0
  0
POLYLINE
  5
115
  8
L1
 66
     1
 10
0.0
 20
0.0
 30
0.0
  0
VERTEX
  5
682
  8
L1
 10
169.16251942941679
 20
237.80178232695701
 30
0.0
  0
VERTEX
  5
683
  8
L1
 10
168.9566051079195
 20
237.73188240604921
 30
0.0
  0
VERTEX
  5
684
  8
L1
 10
168.75756653210749
 20
237.81946295228701
 30
0.0
  0
SEQEND
  5
685
  8
L1
  0
LINE
  5
116
  8
L1
 10
168.01494727135221
 20
238.5620822130424
 30
0.0
 11
168.75756653210749
 21
237.81946295228701
 31
0.0
  0
POLYLINE
  5
117
  8
L1
 66
     1
 10
0.0
 20
0.0
 30
0.0
  0
VERTEX
  5
686
  8
L1
 10
170.26665899087351
 20
238.7282654257437
 30
0.0
  0
VERTEX
  5
687
  8
L1
 10
170.33925700078669
 20
238.77330926309651
 30
0.0
  0
VERTEX
  5
688
  8
L1
 10
170.4533090150388
 20
238.7984137626091
 30
0.0
  0
VERTEX
  5
689
  8
L1
 10
170.5682610124378
 20
238.7780827359615
 30
0.0
  0
VERTEX
  5
68A
  8
L1
 10
170.64052071103711
 20
238.7377257686158
 30
0.0
  0
SEQEND
  5
68B
  8
L1
  0
POLYLINE
  5
118
  8
L1
 66
     1
 10
0.0
 20
0.0
 30
0.0
  0
VERTEX
  5
68C
  8
L1
 10
181.1506742792877
 20
236.95508715771541
 30
0.0
  0
VERTEX
  5
68D
  8
L1
 10
181.3627460830163
 20
236.86726176395121
 30
0.0
  0
VERTEX
  5
68E
  8
L1
 10
181.45057147678051
 20
236.6551899602228
 30
0.0
  0
SEQEND
  5
68F
  8
L1
  0
LINE
  5
119
  8
L1
 10
175.95057147678051
 20
236.95508715771541
 30
0.0
 11
181.1506742792877
 21
236.95508715771541
 31
0.0
  0
ARC
  5
11A
  8
L1
 10
175.95057147678051
 20
245.75508715771551
 30
0.0
 40
4.9999999999999849
 50
177.26858442957169
 51
272.7314155704276
  0
ARC
  5
11B
  8
L1
 10
175.95057147678051
 20
245.75508715771539
 30
0.0
 40
8.8000000000000007
 50
180.0
 51
217.11486245507379
  0
LINE
  5
11C
  8
L1
 10
168.92374974480879
 20
240.07117467180839
 30
0.0
 11
167.9972666460221
 21
238.96703511035159
 31
0.0
  0
POLYLINE
  5
11D
  8
L1
 66
     1
 10
0.0
 20
0.0
 30
0.0
  0
VERTEX
  5
690
  8
L1
 10
168.93321008768081
 20
240.44503639197191
 30
0.0
  0
VERTEX
  5
691
  8
L1
 10
168.97447737243269
 20
240.37040638040881
 30
0.0
  0
VERTEX
  5
692
  8
L1
 10
168.99383543959439
 20
240.25531638547389
 30
0.0
  0
VERTEX
  5
693
  8
L1
 10
168.9667530316334
 20
240.13921347068299
 30
0.0
  0
VERTEX
  5
694
  8
L1
 10
168.92374974480879
 20
240.07117467180839
 30
0.0
  0
SEQEND
  5
695
  8
L1
  0
LINE
  5
11E
  8
L1
 10
169.5505714767805
 20
247.15041903829291
 30
0.0
 11
169.5505714767805
 21
245.75508715771551
 31
0.0
  0
ARC
  5
11F
  8
L1
 10
169.8505714767806
 20
247.15041903829291
 30
0.0
 40
0.2999999999999944
 50
180.0
 51
314.99999999999608
  0
LINE
  5
120
  8
L1
 10
177.34590335735791
 20
239.35508715771539
 30
0.0
 11
179.45057147678051
 21
239.35508715771539
 31
0.0
  0
LINE
  5
121
  8
L1
 10
180.94489095728969
 20
245.51681645744409
 30
0.0
 11
176.1888421770519
 21
240.7607676772065
 31
0.0
  0
ARC
  5
122
  8
L1
 10
175.95057147678051
 20
245.75508715771551
 30
0.0
 40
4.9999999999999849
 50
357.26858442957263
 51
21.421821521798329
  0
ARC
  5
123
  8
L1
 10
177.34590335735791
 20
239.65508715771529
 30
0.0
 40
0.3000000000000001
 50
135.00000000000381
 51
270.0
  0
LINE
  5
124
  8
L1
 10
175.95057147678051
 20
239.35508715771539
 30
0.0
 11
177.34590335735791
 21
239.35508715771539
 31
0.0
  0
LINE
  5
125
  8
L1
 10
167.3405231551227
 20
252.29811125794009
 30
0.0
 11
174.69826369642769
 21
252.29811125794009
 31
0.0
  0
POLYLINE
  5
126
  8
L1
 66
     1
 10
0.0
 20
0.0
 30
0.0
  0
VERTEX
  5
696
  8
L1
 10
166.85067427928789
 20
251.25508715771551
 30
0.0
  0
VERTEX
  5
697
  8
L1
 10
167.06274608301641
 20
251.16726176395119
 30
0.0
  0
VERTEX
  5
698
  8
L1
 10
167.15057147678061
 20
250.9551899602227
 30
0.0
  0
SEQEND
  5
699
  8
L1
  0
ARC
  5
127
  8
L1
 10
166.3505714767806
 20
249.25508715771551
 30
0.0
 40
3.2000000000000282
 50
71.979340694842492
 51
90.0
  0
ARC
  5
128
  8
L1
 10
166.3505714767806
 20
249.25508715771551
 30
0.0
 40
3.2000000000000282
 50
0.0
 51
71.979340694842492
  0
POLYLINE
  5
129
  8
L1
 66
     1
 10
0.0
 20
0.0
 30
0.0
  0
VERTEX
  5
69A
  8
L1
 10
180.7176722360486
 20
254.01739128862459
 30
0.0
  0
VERTEX
  5
69B
  8
L1
 10
180.73761950881871
 20
254.01733736490431
 30
0.0
  0
VERTEX
  5
69C
  8
L1
 10
180.7575714767805
 20
254.01717559548959
 30
0.0
  0
SEQEND
  5
69D
  8
L1
  0
ARC
  5
12A
  8
L1
 10
175.95057147678051
 20
245.75508715771551
 30
0.0
 40
5.7825462644184809
 50
28.598562683755489
 51
61.401437316244497
  0
POLYLINE
  5
12B
  8
L1
 66
     1
 10
0.0
 20
0.0
 30
0.0
  0
VERTEX
  5
69E
  8
L1
 10
181.1976366595201
 20
248.173725215709
 30
0.0
  0
VERTEX
  5
69F
  8
L1
 10
181.15930617476411
 20
248.2627221086407
 30
0.0
  0
VERTEX
  5
6A0
  8
L1
 10
181.13000486564181
 20
248.32459794879179
 30
0.0
  0
VERTEX
  5
6A1
  8
L1
 10
181.0840277143115
 20
248.4165053767174
 30
0.0
  0
VERTEX
  5
6A2
  8
L1
 10
181.02798707840881
 20
248.52234067275029
 30
0.0
  0
VERTEX
  5
6A3
  8
L1
 10
181.02761808919109
 20
248.5230176112405
 30
0.0
  0
SEQEND
  5
6A4
  8
L1
  0
POLYLINE
  5
12C
  8
L1
 66
     1
 10
0.0
 20
0.0
 30
0.0
  0
VERTEX
  5
6A5
  8
L1
 10
178.71850193030551
 20
250.83213377012601
 30
0.0
  0
VERTEX
  5
6A6
  8
L1
 10
178.71782499181529
 20
250.83250275934381
 30
0.0
  0
VERTEX
  5
6A7
  8
L1
 10
178.6119896957824
 20
250.88854339524639
 30
0.0
  0
VERTEX
  5
6A8
  8
L1
 10
178.52008226785691
 20
250.93452054657681
 30
0.0
  0
VERTEX
  5
6A9
  8
L1
 10
178.4582064277057
 20
250.963821855699
 30
0.0
  0
VERTEX
  5
6AA
  8
L1
 10
178.36920953477389
 20
251.0021523404549
 30
0.0
  0
SEQEND
  5
6AB
  8
L1
  0
LINE
  5
12D
  8
L1
 10
177.77672826361129
 20
250.4096710692925
 30
0.0
 11
179.23635791440751
 21
251.8693007200886
 31
0.0
  0
ARC
  5
12E
  8
L1
 10
175.95057147678051
 20
245.75508715771551
 30
0.0
 40
4.9999999999999849
 50
68.578178478202432
 51
92.731415570427657
  0
ARC
  5
12F
  8
L1
 10
174.69826369642769
 20
251.99811125794011
 30
0.0
 40
0.3000000000000114
 50
314.99999999999233
 51
90.0
  0
LINE
  5
130
  8
L1
 10
182.4935955770051
 20
244.50277937736249
 30
0.0
 11
182.4935955770051
 21
237.14503883605769
 31
0.0
  0
ARC
  5
131
  8
L1
 10
179.45057147678051
 20
236.15508715771551
 30
0.0
 40
3.2000000000000282
 50
0.0
 51
18.020659305159601
  0
ARC
  5
132
  8
L1
 10
182.193595577005
 20
244.50277937736249
 30
0.0
 40
0.3000000000000145
 50
0.0
 51
135.0
  0
POLYLINE
  5
133
  8
L1
 66
     1
 10
0.0
 20
0.0
 30
0.0
  0
VERTEX
  5
6AC
  8
L1
 10
184.21265991455459
 20
250.56208715771541
 30
0.0
  0
VERTEX
  5
6AD
  8
L1
 10
184.2128216839692
 20
250.54213518975371
 30
0.0
  0
VERTEX
  5
6AE
  8
L1
 10
184.2128756076896
 20
250.52218791698371
 30
0.0
  0
SEQEND
  5
6AF
  8
L1
  0
LINE
  5
138
  8
L2
 10
249.61266504510419
 20
238.55072372382
 30
0.0
 11
249.11266504510419
 21
238.55508715771541
 31
0.0
  0
LINE
  5
141
  8
L1
 10
250.22182931461441
 20
253.5891382011101
 30
0.0
 11
258.39338501441978
 21
254.01739128862459
 31
0.0
  0
LINE
  5
149
  8
L1
 10
249.11266504510419
 20
252.4799739316
 30
0.0
 11
250.2218293146143
 21
253.5891382011101
 31
0.0
  0
LINE
  5
14A
  8
L1
 10
259.11266504510422
 20
253.29811125794021
 30
0.0
 11
259.11266504510422
 21
252.4550871577155
 31
0.0
  0
LINE
  5
14B
  8
L1
 10
259.87706249821059
 20
252.32030326274781
 30
0.0
 11
259.11266504510422
 21
252.45508715771541
 31
0.0
  0
ARC
  5
14C
  8
L1
 10
259.81266504510421
 20
251.95508715771541
 30
0.0
 40
0.3708501521392529
 50
0.0
 51
80.000000000004164
  0
ARC
  5
14D
  8
L2
 10
259.81266504510421
 20
251.95508715771541
 30
0.0
 40
0.3708501521392529
 50
279.99999999999579
 51
0.0
  0
LINE
  5
14E
  8
L2
 10
259.11266504510422
 20
251.45508715771541
 30
0.0
 11
259.87706249821059
 21
251.58987105268289
 31
0.0
  0
LINE
  5
14F
  8
L1
 10
258.39338501441978
 20
254.01739128862459
 30
0.0
 11
259.11266504510422
 21
253.29811125794021
 31
0.0
  0
LINE
  5
150
  8
L1
 10
330.1816796651832
 20
247.94506322788069
 30
0.0
 11
330.53912847945941
 21
247.5876144136046
 31
0.0
  0
CIRCLE
  5
151
  8
L1
 10
335.16305789573431
 20
245.75508715771539
 30
0.0
 40
6.097393363178492
  0
CIRCLE
  5
152
  8
L1
 10
335.16305789573431
 20
245.75508715771539
 30
0.0
 40
5.7974047862592784
  0
LINE
  5
153
  8
L1
 10
340.13169798924719
 20
245.9820122806228
 30
0.0
 11
335.38998301864171
 21
250.7237272512283
 31
0.0
  0
LINE
  5
154
  8
L1
 10
330.19441780222149
 20
245.52816203480799
 30
0.0
 11
334.93613277282702
 21
240.7864470642026
 31
0.0
  0
ARC
  5
155
  8
L1
 10
335.16305789573431
 20
245.75508715771539
 30
0.0
 40
4.9738193966277091
 50
158.38089144830079
 51
182.61496561312569
  0
ARC
  5
156
  8
L1
 10
344.36305789573441
 20
236.55508715771549
 30
0.0
 40
1.99563656610462
 50
90.0
 51
180.0
  0
ARC
  5
157
  8
L1
 10
335.16305789573431
 20
245.75508715771539
 30
0.0
 40
4.9738193966277091
 50
267.38503438687479
 51
2.6149656131264449
  0
ARC
  5
158
  8
L1
 10
330.88013568856479
 20
250.03800936488511
 30
0.0
 40
2.4419645667148879
 50
89.999999999998678
 51
180.0
  0
POLYLINE
  5
159
  8
L1
 66
     1
 10
0.0
 20
0.0
 30
0.0
  0
VERTEX
  5
6B0
  8
L1
 10
326.90096945796029
 20
250.56208715771541
 30
0.0
  0
VERTEX
  5
6B1
  8
L1
 10
326.9713435056201
 20
251.2238747601607
 30
0.0
  0
VERTEX
  5
6B2
  8
L1
 10
327.17347289373191
 20
251.87885954395639
 30
0.0
  0
VERTEX
  5
6B3
  8
L1
 10
327.49961714554831
 20
252.4817063886114
 30
0.0
  0
VERTEX
  5
6B4
  8
L1
 10
327.92312877666069
 20
252.9950162767891
 30
0.0
  0
VERTEX
  5
6B5
  8
L1
 10
328.43643866483831
 20
253.41852790790151
 30
0.0
  0
VERTEX
  5
6B6
  8
L1
 10
329.03928550949342
 20
253.74467215971791
 30
0.0
  0
VERTEX
  5
6B7
  8
L1
 10
329.69427029328909
 20
253.94680154782981
 30
0.0
  0
VERTEX
  5
6B8
  8
L1
 10
330.35605789573441
 20
254.01717559548959
 30
0.0
  0
SEQEND
  5
6B9
  8
L1
  0
POLYLINE
  5
15A
  8
L1
 66
     1
 10
0.0
 20
0.0
 30
0.0
  0
VERTEX
  5
6BA
  8
L1
 10
329.95611051373942
 20
248.17430256579379
 30
0.0
  0
VERTEX
  5
6BB
  8
L1
 10
329.97204603490877
 20
248.15701557514819
 30
0.0
  0
VERTEX
  5
6BC
  8
L1
 10
330.01944566584098
 20
248.10841608911801
 30
0.0
  0
VERTEX
  5
6BD
  8
L1
 10
330.09269050786958
 20
248.03434864709911
 30
0.0
  0
VERTEX
  5
6BE
  8
L1
 10
330.1816796651832
 20
247.94506322788069
 30
0.0
  0
SEQEND
  5
6BF
  8
L1
  0
POLYLINE
  5
15B
  8
L1
 66
     1
 10
0.0
 20
0.0
 30
0.0
  0
VERTEX
  5
6C0
  8
L1
 10
329.93943959325799
 20
248.269786759212
 30
0.0
  0
VERTEX
  5
6C1
  8
L1
 10
329.95611051373947
 20
248.17430256579399
 30
0.0
  0
SEQEND
  5
6C2
  8
L1
  0
POLYLINE
  5
15C
  8
L1
 66
     1
 10
0.0
 20
0.0
 30
0.0
  0
VERTEX
  5
6C3
  8
L1
 10
332.97308182556918
 20
250.73646538826659
 30
0.0
  0
VERTEX
  5
6C4
  8
L1
 10
332.88379640635088
 20
250.8254545455803
 30
0.0
  0
VERTEX
  5
6C5
  8
L1
 10
332.8097289643319
 20
250.8986993876089
 30
0.0
  0
VERTEX
  5
6C6
  8
L1
 10
332.76112947830183
 20
250.94609901854099
 30
0.0
  0
VERTEX
  5
6C7
  8
L1
 10
332.74384248765602
 20
250.96203453971029
 30
0.0
  0
SEQEND
  5
6C8
  8
L1
  0
LINE
  5
15D
  8
L1
 10
333.33053063984528
 20
250.3790165739905
 30
0.0
 11
332.97308182556918
 21
250.73646538826659
 31
0.0
  0
POLYLINE
  5
15E
  8
L1
 66
     1
 10
0.0
 20
0.0
 30
0.0
  0
VERTEX
  5
6C9
  8
L1
 10
332.74384248765602
 20
250.96203453971029
 30
0.0
  0
VERTEX
  5
6CA
  8
L1
 10
332.64835829423799
 20
250.9787054601918
 30
0.0
  0
SEQEND
  5
6CB
  8
L1
  0
ARC
  5
15F
  8
L1
 10
335.16305789573431
 20
245.75508715771539
 30
0.0
 40
4.9738193966277091
 50
87.385034386874196
 51
111.6191085516984
  0
LINE
  5
165
  8
L6
 10
416.91305789573443
 20
259.90346862399451
 30
0.0
 11
416.91305789573443
 21
69.817411929344743
 31
0.0
  0
LINE
  5
16B
  8
L1
 10
491.458694461839
 20
91.455087157715454
 30
0.0
 11
491.458694461839
 21
236.55508715771549
 31
0.0
  0
LINE
  5
16C
  8
L1
 10
506.9253620266436
 20
77.487986398447248
 30
0.0
 11
506.9253620266436
 21
250.52218791698371
 31
0.0
  0
LINE
  5
16D
  8
L1
 10
505.38794466961878
 20
77.972164950545903
 30
0.0
 11
505.38794466961878
 21
250.03800936488511
 31
0.0
  0
ARC
  5
16E
  8
L1
 10
498.66305789573448
 20
82.255087157715479
 30
0.0
 40
4.9738193966277091
 50
87.385034386874864
 51
182.6149656131264
  0
LINE
  5
16F
  8
L1
 10
503.6316979892473
 20
82.482012280622882
 30
0.0
 11
498.88998301864177
 21
87.223727251228354
 31
0.0
  0
CIRCLE
  5
170
  8
L1
 10
498.66305789573448
 20
82.255087157715479
 30
0.0
 40
6.097393363178492
  0
CIRCLE
  5
171
  8
L1
 10
498.66305789573448
 20
82.255087157715479
 30
0.0
 40
5.7974047862592784
  0
LINE
  5
179
  8
L1
 10
493.69441780222161
 20
82.028162034808076
 30
0.0
 11
498.43613277282708
 21
77.286447064202605
 31
0.0
  0
ARC
  5
17A
  8
L1
 10
502.94598010290389
 20
77.972164950545846
 30
0.0
 40
2.4419645667148879
 50
269.99999999999858
 51
0.0
  0
POLYLINE
  5
17B
  8
L1
 66
     1
 10
0.0
 20
0.0
 30
0.0
  0
VERTEX
  5
6CC
  8
L1
 10
506.92514633350851
 20
77.448087157715463
 30
0.0
  0
VERTEX
  5
6CD
  8
L1
 10
506.8547722858487
 20
76.786299555270205
 30
0.0
  0
VERTEX
  5
6CE
  8
L1
 10
506.65264289773683
 20
76.131314771474536
 30
0.0
  0
VERTEX
  5
6CF
  8
L1
 10
506.32649864592048
 20
75.528467926819474
 30
0.0
  0
VERTEX
  5
6D0
  8
L1
 10
505.9029870148081
 20
75.015158038641857
 30
0.0
  0
VERTEX
  5
6D1
  8
L1
 10
505.38967712663049
 20
74.591646407529424
 30
0.0
  0
VERTEX
  5
6D2
  8
L1
 10
504.78683028197543
 20
74.265502155713023
 30
0.0
  0
VERTEX
  5
6D3
  8
L1
 10
504.1318454981797
 20
74.063372767601095
 30
0.0
  0
VERTEX
  5
6D4
  8
L1
 10
503.47005789573439
 20
73.99299871994134
 30
0.0
  0
SEQEND
  5
6D5
  8
L1
  0
POLYLINE
  5
17C
  8
L1
 66
     1
 10
0.0
 20
0.0
 30
0.0
  0
VERTEX
  5
6D6
  8
L1
 10
500.85303396589961
 20
77.273708927164307
 30
0.0
  0
VERTEX
  5
6D7
  8
L1
 10
500.94231938511791
 20
77.184719769850631
 30
0.0
  0
VERTEX
  5
6D8
  8
L1
 10
501.0163868271369
 20
77.11147492782203
 30
0.0
  0
VERTEX
  5
6D9
  8
L1
 10
501.06498631316703
 20
77.064075296889939
 30
0.0
  0
VERTEX
  5
6DA
  8
L1
 10
501.08227330381283
 20
77.048139775720585
 30
0.0
  0
SEQEND
  5
6DB
  8
L1
  0
LINE
  5
17D
  8
L1
 10
500.49558515162352
 20
77.631157741440404
 30
0.0
 11
500.85303396589961
 21
77.273708927164307
 31
0.0
  0
POLYLINE
  5
17E
  8
L1
 66
     1
 10
0.0
 20
0.0
 30
0.0
  0
VERTEX
  5
6DC
  8
L1
 10
501.08227330381283
 20
77.048139775720585
 30
0.0
  0
VERTEX
  5
6DD
  8
L1
 10
501.17775749723091
 20
77.031468855239154
 30
0.0
  0
SEQEND
  5
6DE
  8
L1
  0
ARC
  5
17F
  8
L1
 10
498.66305789573448
 20
82.255087157715479
 30
0.0
 40
4.9738193966277091
 50
267.38503438687411
 51
291.61910855169839
  0
LINE
  5
180
  8
L1
 10
503.6444361262856
 20
80.065111087550179
 30
0.0
 11
503.28698731200939
 21
80.422559901826332
 31
0.0
  0
POLYLINE
  5
181
  8
L1
 66
     1
 10
0.0
 20
0.0
 30
0.0
  0
VERTEX
  5
6DF
  8
L1
 10
503.87000527772938
 20
79.835871749637079
 30
0.0
  0
VERTEX
  5
6E0
  8
L1
 10
503.85406975656002
 20
79.853158740282709
 30
0.0
  0
VERTEX
  5
6E1
  8
L1
 10
503.80667012562782
 20
79.901758226312893
 30
0.0
  0
VERTEX
  5
6E2
  8
L1
 10
503.73342528359922
 20
79.975825668331865
 30
0.0
  0
VERTEX
  5
6E3
  8
L1
 10
503.6444361262856
 20
80.065111087550235
 30
0.0
  0
SEQEND
  5
6E4
  8
L1
  0
ARC
  5
182
  8
L1
 10
498.66305789573448
 20
82.255087157715479
 30
0.0
 40
4.9738193966277091
 50
338.38089144830082
 51
2.614965613125809
  0
POLYLINE
  5
183
  8
L1
 66
     1
 10
0.0
 20
0.0
 30
0.0
  0
VERTEX
  5
6E5
  8
L1
 10
503.88667619821069
 20
79.740387556218906
 30
0.0
  0
VERTEX
  5
6E6
  8
L1
 10
503.87000527772932
 20
79.835871749636965
 30
0.0
  0
SEQEND
  5
6E7
  8
L1
  0
ARC
  5
189
  8
L1
 10
489.46305789573432
 20
91.455087157715454
 30
0.0
 40
1.99563656610462
 50
270.0
 51
0.0
  0
LINE
  5
18B
  8
L1
 10
493.69441780222161
 20
245.9820122806228
 30
0.0
 11
498.43613277282708
 21
250.7237272512283
 31
0.0
  0
CIRCLE
  5
18C
  8
L1
 10
498.66305789573448
 20
245.75508715771539
 30
0.0
 40
5.7974047862592784
  0
CIRCLE
  5
18D
  8
L1
 10
498.66305789573448
 20
245.75508715771539
 30
0.0
 40
6.097393363178492
  0
LINE
  5
18E
  8
L1
 10
503.6444361262856
 20
247.94506322788069
 30
0.0
 11
503.28698731200939
 21
247.5876144136046
 31
0.0
  0
ARC
  5
18F
  8
L1
 10
498.66305789573448
 20
245.75508715771539
 30
0.0
 40
4.9738193966277091
 50
177.38503438687351
 51
272.61496561312509
  0
ARC
  5
190
  8
L1
 10
489.46305789573432
 20
236.55508715771549
 30
0.0
 40
1.99563656610462
 50
0.0
 51
90.0
  0
LINE
  5
191
  8
L1
 10
503.6316979892473
 20
245.52816203480799
 30
0.0
 11
498.88998301864177
 21
240.7864470642026
 31
0.0
  0
ARC
  5
192
  8
L1
 10
498.66305789573448
 20
245.75508715771539
 30
0.0
 40
4.9738193966277091
 50
357.38503438687411
 51
21.619108551699309
  0
POLYLINE
  5
193
  8
L1
 66
     1
 10
0.0
 20
0.0
 30
0.0
  0
VERTEX
  5
6E8
  8
L1
 10
506.92514633350851
 20
250.56208715771541
 30
0.0
  0
VERTEX
  5
6E9
  8
L1
 10
506.8547722858487
 20
251.2238747601607
 30
0.0
  0
VERTEX
  5
6EA
  8
L1
 10
506.65264289773683
 20
251.87885954395639
 30
0.0
  0
VERTEX
  5
6EB
  8
L1
 10
506.32649864592048
 20
252.4817063886114
 30
0.0
  0
VERTEX
  5
6EC
  8
L1
 10
505.9029870148081
 20
252.9950162767891
 30
0.0
  0
VERTEX
  5
6ED
  8
L1
 10
505.38967712663049
 20
253.41852790790151
 30
0.0
  0
VERTEX
  5
6EE
  8
L1
 10
504.78683028197543
 20
253.74467215971791
 30
0.0
  0
VERTEX
  5
6EF
  8
L1
 10
504.1318454981797
 20
253.94680154782981
 30
0.0
  0
VERTEX
  5
6F0
  8
L1
 10
503.47005789573439
 20
254.01717559548959
 30
0.0
  0
SEQEND
  5
6F1
  8
L1
  0
ARC
  5
194
  8
L1
 10
502.94598010290389
 20
250.03800936488511
 30
0.0
 40
2.4419645667148879
 50
0.0
 51
90.000000000001336
  0
ARC
  5
195
  8
L1
 10
498.66305789573448
 20
245.75508715771539
 30
0.0
 40
4.9738193966277091
 50
68.38089144830154
 51
92.61496561312579
  0
LINE
  5
196
  8
L1
 10
500.49558515162352
 20
250.3790165739905
 30
0.0
 11
500.85303396589961
 21
250.73646538826659
 31
0.0
  0
POLYLINE
  5
197
  8
L1
 66
     1
 10
0.0
 20
0.0
 30
0.0
  0
VERTEX
  5
6F2
  8
L1
 10
500.85303396589961
 20
250.73646538826659
 30
0.0
  0
VERTEX
  5
6F3
  8
L1
 10
500.94231938511791
 20
250.8254545455803
 30
0.0
  0
VERTEX
  5
6F4
  8
L1
 10
501.0163868271369
 20
250.8986993876089
 30
0.0
  0
VERTEX
  5
6F5
  8
L1
 10
501.06498631316703
 20
250.94609901854099
 30
0.0
  0
VERTEX
  5
6F6
  8
L1
 10
501.08227330381283
 20
250.96203453971029
 30
0.0
  0
SEQEND
  5
6F7
  8
L1
  0
POLYLINE
  5
198
  8
L1
 66
     1
 10
0.0
 20
0.0
 30
0.0
  0
VERTEX
  5
6F8
  8
L1
 10
501.08227330381283
 20
250.96203453971029
 30
0.0
  0
VERTEX
  5
6F9
  8
L1
 10
501.17775749723091
 20
250.9787054601918
 30
0.0
  0
SEQEND
  5
6FA
  8
L1
  0
POLYLINE
  5
199
  8
L1
 66
     1
 10
0.0
 20
0.0
 30
0.0
  0
VERTEX
  5
6FB
  8
L1
 10
503.88667619821069
 20
248.269786759212
 30
0.0
  0
VERTEX
  5
6FC
  8
L1
 10
503.87000527772932
 20
248.17430256579399
 30
0.0
  0
SEQEND
  5
6FD
  8
L1
  0
POLYLINE
  5
19A
  8
L1
 66
     1
 10
0.0
 20
0.0
 30
0.0
  0
VERTEX
  5
6FE
  8
L1
 10
503.87000527772938
 20
248.17430256579379
 30
0.0
  0
VERTEX
  5
6FF
  8
L1
 10
503.85406975656002
 20
248.15701557514819
 30
0.0
  0
VERTEX
  5
700
  8
L1
 10
503.80667012562782
 20
248.10841608911801
 30
0.0
  0
VERTEX
  5
701
  8
L1
 10
503.73342528359922
 20
248.03434864709911
 30
0.0
  0
VERTEX
  5
702
  8
L1
 10
503.6444361262856
 20
247.94506322788069
 30
0.0
  0
SEQEND
  5
703
  8
L1
  0
LINE
  5
379
  8
L2
 10
252.11266504510419
 20
236.45858990819909
 30
0.0
 11
252.11266504510419
 21
91.551584407231545
 31
0.0
  0
LINE
  5
37A
  8
L2
 10
259.11266504510411
 20
91.055087157715334
 30
0.0
 11
252.4048119606118
 21
91.251687209738876
 31
0.0
  0
ARC
  5
37B
  8
L2
 10
252.41266504510409
 20
91.551584407231545
 30
0.0
 40
0.2999999999999998
 50
180.0
 51
268.50000000000011
  0
LINE
  5
37C
  8
L2
 10
259.11266504510411
 20
236.9550871577153
 30
0.0
 11
252.4048119606118
 21
236.75848710569181
 31
0.0
  0
ARC
  5
37D
  8
L2
 10
252.41266504510409
 20
236.45858990819909
 30
0.0
 40
0.3000000000000007
 50
91.500000000000384
 51
180.0
  0
LINE
  5
37E
  8
L1
 10
250.22182931461441
 20
74.4210361143206
 30
0.0
 11
249.11266504510411
 21
75.530200383830902
 31
0.0
  0
LINE
  5
37F
  8
L1
 10
258.39338501441972
 20
73.992783026806137
 30
0.0
 11
258.39338501441978
 21
254.01739128862471
 31
0.0
  0
LINE
  5
380
  8
L1
 10
259.11266504510411
 20
74.712063057490539
 30
0.0
 11
259.11266504510422
 21
253.29811125794029
 31
0.0
  0
LINE
  5
381
  8
L1
 10
250.22182931461421
 20
74.421036114320842
 30
0.0
 11
250.22182931461441
 21
253.5891382011101
 31
0.0
  0
LINE
  5
3B3
  8
L2
 10
581.71345074636463
 20
236.45858990819909
 30
0.0
 11
581.71345074636463
 21
91.551584407231545
 31
0.0
  0
LINE
  5
3B4
  8
L1
 10
583.60428647685455
 20
74.421036114320842
 30
0.0
 11
583.60428647685444
 21
253.5891382011101
 31
0.0
  0
LINE
  5
3B5
  8
L1
 10
574.71345074636474
 20
74.712063057490539
 30
0.0
 11
574.71345074636463
 21
253.29811125794029
 31
0.0
  0
LINE
  5
3B6
  8
L1
 10
575.43273077704896
 20
73.992783026806137
 30
0.0
 11
575.43273077704896
 21
254.01739128862471
 31
0.0
  0
LINE
  5
3B7
  8
L2
 10
584.21345074636463
 20
89.459450591610803
 30
0.0
 11
584.21345074636463
 21
238.55072372382011
 31
0.0
  0
LINE
  5
3B8
  8
L1
 10
584.71345074636474
 20
75.530200383830902
 30
0.0
 11
584.7134507463644
 21
252.47997393160011
 31
0.0
  0
LINE
  5
3B9
  8
L1
 10
573.64260059422543
 20
76.055087157715491
 30
0.0
 11
573.64260059422531
 21
251.95508715771541
 31
0.0
  0
LINE
  5
3BA
  8
L1
 10
583.60428647685444
 20
74.4210361143206
 30
0.0
 11
584.71345074636474
 21
75.530200383830902
 31
0.0
  0
LINE
  5
3BB
  8
L2
 10
584.21345074636463
 20
89.459450591610846
 30
0.0
 11
584.71345074636463
 21
89.455087157715468
 31
0.0
  0
ARC
  5
3BC
  8
L2
 10
574.0134507463647
 20
76.055087157715491
 30
0.0
 40
0.3708501521392529
 50
99.999999999995794
 51
180.0
  0
LINE
  5
3BD
  8
L1
 10
583.60428647685444
 20
74.421036114320771
 30
0.0
 11
575.43273077704896
 21
73.992783026806251
 31
0.0
  0
LINE
  5
3BE
  8
L1
 10
575.43273077704896
 20
73.992783026806251
 30
0.0
 11
574.71345074636463
 21
74.712063057490624
 31
0.0
  0
LINE
  5
3BF
  8
L1
 10
574.71345074636463
 20
74.712063057490624
 30
0.0
 11
574.71345074636463
 21
75.55508715771532
 31
0.0
  0
LINE
  5
3C0
  8
L1
 10
573.9490532932582
 20
75.689871052683031
 30
0.0
 11
574.71345074636463
 21
75.555087157715491
 31
0.0
  0
ARC
  5
3C1
  8
L1
 10
574.0134507463647
 20
76.055087157715491
 30
0.0
 40
0.3708501521392529
 50
180.0
 51
260.00000000000421
  0
LINE
  5
3C2
  8
L2
 10
574.71345074636463
 20
76.555087157715491
 30
0.0
 11
573.9490532932582
 21
76.42030326274795
 31
0.0
  0
LINE
  5
3C3
  8
L2
 10
574.71345074636474
 20
91.055087157715334
 30
0.0
 11
581.42130383085703
 21
91.251687209738876
 31
0.0
  0
ARC
  5
3C4
  8
L2
 10
581.41345074636467
 20
91.551584407231545
 30
0.0
 40
0.2999999999999998
 50
271.49999999999977
 51
0.000000000000007
  0
LINE
  5
3C5
  8
L6
 10
565.64260059422543
 20
164.00508715771539
 30
0.0
 11
592.71345074636474
 21
164.00508715771539
 31
0.0
  0
LINE
  5
3C6
  8
L1
 10
584.71345074636463
 20
252.4799739316
 30
0.0
 11
583.60428647685444
 21
253.5891382011101
 31
0.0
  0
LINE
  5
3C7
  8
L2
 10
584.21345074636463
 20
238.55072372382
 30
0.0
 11
584.71345074636463
 21
238.55508715771541
 31
0.0
  0
ARC
  5
3C8
  8
L2
 10
581.41345074636467
 20
236.45858990819909
 30
0.0
 40
0.3000000000000007
 50
0.000000000000007
 51
88.499999999999616
  0
LINE
  5
3C9
  8
L2
 10
574.71345074636474
 20
236.9550871577153
 30
0.0
 11
581.42130383085703
 21
236.75848710569181
 31
0.0
  0
LINE
  5
3CA
  8
L1
 10
583.60428647685444
 20
253.5891382011101
 30
0.0
 11
575.43273077704896
 21
254.01739128862459
 31
0.0
  0
LINE
  5
3CB
  8
L1
 10
575.43273077704896
 20
254.01739128862459
 30
0.0
 11
574.71345074636463
 21
253.29811125794021
 31
0.0
  0
LINE
  5
3CC
  8
L2
 10
574.71345074636463
 20
251.45508715771541
 30
0.0
 11
573.9490532932582
 21
251.58987105268289
 31
0.0
  0
ARC
  5
3CD
  8
L2
 10
574.0134507463647
 20
251.95508715771541
 30
0.0
 40
0.3708501521392529
 50
180.0
 51
260.00000000000421
  0
ARC
  5
3CE
  8
L1
 10
574.0134507463647
 20
251.95508715771541
 30
0.0
 40
0.3708501521392529
 50
99.999999999995794
 51
180.0
  0
LINE
  5
3CF
  8
L1
 10
573.9490532932582
 20
252.32030326274781
 30
0.0
 11
574.71345074636463
 21
252.45508715771541
 31
0.0
  0
LINE
  5
3D0
  8
L1
 10
574.71345074636463
 20
253.29811125794021
 30
0.0
 11
574.71345074636463
 21
252.4550871577155
 31
0.0
  0
LINE
  5
3D1
  8
L1
 10
328.96305789573432
 20
3.980807811198928
 30
0.0
 11
504.86305789573419
 21
3.9808078111990421
 31
0.0
  0
LINE
  5
3D2
  8
L1
 10
328.43817112184968
 20
-7.0900423409403848
 30
0.0
 11
505.38794466961878
 21
-7.0900423409401583
 31
0.0
  0
LINE
  5
3D3
  8
L2
 10
342.36742132962962
 20
-6.5900423409402711
 30
0.0
 11
491.458694461839
 21
-6.5900423409402711
 31
0.0
  0
LINE
  5
3D4
  8
L1
 10
326.90075376482491
 20
2.1906776283752829
 30
0.0
 11
506.92536202664348
 21
2.1906776283752829
 31
0.0
  0
LINE
  5
3D5
  8
L1
 10
327.6200337955093
 20
2.9099576590596139
 30
0.0
 11
506.20608199595921
 21
2.909957659059728
 31
0.0
  0
LINE
  5
3D6
  8
L1
 10
327.3290068523396
 20
-5.9808780714301966
 30
0.0
 11
506.49710893912891
 21
-5.9808780714300829
 31
0.0
  0
LINE
  5
3D7
  8
L2
 10
489.36656064621798
 20
-4.0900423409402711
 30
0.0
 11
344.45955514525031
 21
-4.0900423409402711
 31
0.0
  0
LINE
  5
3D8
  8
L6
 10
416.91305789573431
 20
11.980807811198931
 30
0.0
 11
416.91305789573431
 21
-15.09004234094038
 31
0.0
  0
LINE
  5
3D9
  8
L2
 10
329.46305789573432
 20
2.909957659059728
 30
0.0
 11
329.32827400076678
 21
3.6743551121661531
 31
0.0
  0
LINE
  5
3DA
  8
L1
 10
328.59784179070181
 20
3.6743551121661531
 30
0.0
 11
328.46305789573432
 21
2.909957659059728
 31
0.0
  0
ARC
  5
3DB
  8
L2
 10
328.96305789573421
 20
3.6099576590597162
 30
0.0
 40
0.3708501521392529
 50
9.99999999999579
 51
89.999999999999986
  0
ARC
  5
3DC
  8
L1
 10
328.96305789573421
 20
3.6099576590597162
 30
0.0
 40
0.3708501521392529
 50
89.999999999999986
 51
170.00000000000409
  0
LINE
  5
3DD
  8
L1
 10
327.3290068523396
 20
-5.9808780714300829
 30
0.0
 11
326.90075376482508
 21
2.1906776283752829
 31
0.0
  0
LINE
  5
3DE
  8
L1
 10
327.62003379550941
 20
2.909957659059728
 30
0.0
 11
328.4630578957341
 21
2.909957659059728
 31
0.0
  0
LINE
  5
3DF
  8
L1
 10
326.90075376482508
 20
2.1906776283752829
 30
0.0
 11
327.62003379550941
 21
2.909957659059728
 31
0.0
  0
LINE
  5
3E0
  8
L1
 10
327.32900685233938
 20
-5.9808780714300829
 30
0.0
 11
328.43817112184968
 21
-7.0900423409403848
 31
0.0
  0
LINE
  5
3E1
  8
L2
 10
342.36742132962962
 20
-6.5900423409402711
 30
0.0
 11
342.3630578957343
 21
-7.0900423409402711
 31
0.0
  0
LINE
  5
3E2
  8
L2
 10
343.9630578957341
 20
2.9099576590596139
 30
0.0
 11
344.15965794775769
 21
-3.79789542543267
 31
0.0
  0
ARC
  5
3E3
  8
L2
 10
344.45955514525031
 20
-3.7900423409402602
 30
0.0
 40
0.2999999999999998
 50
181.49999999999989
 51
270.0
  0
LINE
  5
3E4
  8
L1
 10
505.2282740007667
 20
3.6743551121661531
 30
0.0
 11
505.36305789573419
 21
2.909957659059728
 31
0.0
  0
LINE
  5
3E5
  8
L2
 10
504.36305789573419
 20
2.909957659059728
 30
0.0
 11
504.49784179070173
 21
3.6743551121661531
 31
0.0
  0
ARC
  5
3E6
  8
L1
 10
504.86305789573419
 20
3.6099576590596589
 30
0.0
 40
0.3708501521392529
 50
9.99999999999579
 51
89.999999999999986
  0
ARC
  5
3E7
  8
L2
 10
504.86305789573419
 20
3.6099576590596589
 30
0.0
 40
0.3708501521392529
 50
89.999999999999986
 51
170.00000000000409
  0
ARC
  5
3E8
  8
L2
 10
489.36656064621798
 20
-3.790042340940317
 30
0.0
 40
0.3000000000000007
 50
270.0
 51
358.49999999999949
  0
LINE
  5
3E9
  8
L2
 10
489.86305789573419
 20
2.9099576590596139
 30
0.0
 11
489.6664578437107
 21
-3.79789542543267
 31
0.0
  0
LINE
  5
3EA
  8
L2
 10
491.45869446183877
 20
-6.5900423409402711
 30
0.0
 11
491.46305789573421
 21
-7.0900423409402711
 31
0.0
  0
LINE
  5
3EB
  8
L1
 10
506.49710893912891
 20
-5.9808780714300829
 30
0.0
 11
506.92536202664348
 21
2.1906776283752829
 31
0.0
  0
LINE
  5
3EC
  8
L1
 10
506.20608199595898
 20
2.909957659059728
 30
0.0
 11
505.36305789573453
 21
2.909957659059728
 31
0.0
  0
LINE
  5
3ED
  8
L1
 10
506.92536202664348
 20
2.1906776283752829
 30
0.0
 11
506.20608199595898
 21
2.909957659059728
 31
0.0
  0
LINE
  5
3EE
  8
L1
 10
505.38794466961878
 20
-7.0900423409402711
 30
0.0
 11
506.49710893912891
 21
-5.9808780714300829
 31
0.0
  0
LINE
  5
3EF
  8
L2
 10
489.36656064621809
 20
325.51074336032008
 30
0.0
 11
344.45955514525042
 21
325.51074336032008
 31
0.0
  0
LINE
  5
3F0
  8
L1
 10
327.32900685233972
 20
327.40157909081
 30
0.0
 11
506.49710893912902
 21
327.40157909080989
 31
0.0
  0
LINE
  5
3F1
  8
L1
 10
327.62003379550941
 20
318.51074336032019
 30
0.0
 11
506.20608199595932
 21
318.51074336032008
 31
0.0
  0
LINE
  5
3F2
  8
L1
 10
326.90075376482503
 20
319.23002339100452
 30
0.0
 11
506.92536202664371
 21
319.23002339100452
 31
0.0
  0
LINE
  5
3F3
  8
L2
 10
342.36742132962962
 20
328.01074336032008
 30
0.0
 11
491.45869446183912
 21
328.01074336032008
 31
0.0
  0
LINE
  5
3F4
  8
L1
 10
328.43817112184979
 20
328.51074336032019
 30
0.0
 11
505.387944669619
 21
328.51074336032002
 31
0.0
  0
LINE
  5
3F5
  8
L1
 10
328.96305789573432
 20
317.43989320818088
 30
0.0
 11
504.8630578957343
 21
317.43989320818082
 31
0.0
  0
LINE
  5
3F6
  8
L1
 10
327.32900685233938
 20
327.40157909080989
 30
0.0
 11
328.43817112184979
 21
328.51074336032019
 31
0.0
  0
LINE
  5
3F7
  8
L2
 10
342.36742132962968
 20
328.01074336032008
 30
0.0
 11
342.3630578957343
 21
328.51074336032008
 31
0.0
  0
ARC
  5
3F8
  8
L2
 10
328.96305789573432
 20
317.81074336032009
 30
0.0
 40
0.3708501521392529
 50
270.0
 51
350.00000000000421
  0
LINE
  5
3F9
  8
L1
 10
327.3290068523396
 20
327.40157909080989
 30
0.0
 11
326.90075376482508
 21
319.23002339100452
 31
0.0
  0
LINE
  5
3FA
  8
L1
 10
326.90075376482508
 20
319.23002339100452
 30
0.0
 11
327.62003379550953
 21
318.51074336032008
 31
0.0
  0
LINE
  5
3FB
  8
L1
 10
327.62003379550953
 20
318.51074336032008
 30
0.0
 11
328.46305789573421
 21
318.51074336032008
 31
0.0
  0
LINE
  5
3FC
  8
L1
 10
328.59784179070192
 20
317.74634590721371
 30
0.0
 11
328.46305789573432
 21
318.51074336032008
 31
0.0
  0
ARC
  5
3FD
  8
L1
 10
328.96305789573432
 20
317.81074336032009
 30
0.0
 40
0.3708501521392529
 50
189.99999999999579
 51
270.0
  0
LINE
  5
3FE
  8
L2
 10
329.46305789573438
 20
318.51074336032008
 30
0.0
 11
329.32827400076678
 21
317.74634590721371
 31
0.0
  0
LINE
  5
3FF
  8
L2
 10
343.96305789573421
 20
318.51074336032019
 30
0.0
 11
344.15965794775769
 21
325.21859644481248
 31
0.0
  0
ARC
  5
400
  8
L2
 10
344.45955514525042
 20
325.21074336032012
 30
0.0
 40
0.2999999999999998
 50
89.999999999999986
 51
178.5
  0
LINE
  5
401
  8
L6
 10
416.91305789573443
 20
309.43989320818088
 30
0.0
 11
416.91305789573443
 21
336.51074336032019
 31
0.0
  0
LINE
  5
402
  8
L1
 10
505.387944669619
 20
328.51074336032008
 30
0.0
 11
506.49710893912902
 21
327.40157909080989
 31
0.0
  0
LINE
  5
403
  8
L2
 10
491.458694461839
 20
328.01074336032008
 30
0.0
 11
491.46305789573438
 21
328.51074336032008
 31
0.0
  0
ARC
  5
404
  8
L2
 10
489.36656064621809
 20
325.21074336032012
 30
0.0
 40
0.3000000000000007
 50
1.500000000000377
 51
89.999999999999986
  0
LINE
  5
405
  8
L2
 10
489.86305789573441
 20
318.51074336032019
 30
0.0
 11
489.66645784371082
 21
325.21859644481248
 31
0.0
  0
LINE
  5
406
  8
L1
 10
506.49710893912902
 20
327.40157909080989
 30
0.0
 11
506.92536202664371
 21
319.23002339100452
 31
0.0
  0
LINE
  5
407
  8
L1
 10
506.92536202664371
 20
319.23002339100452
 30
0.0
 11
506.20608199595921
 21
318.51074336032008
 31
0.0
  0
LINE
  5
408
  8
L2
 10
504.3630578957343
 20
318.51074336032008
 30
0.0
 11
504.49784179070178
 21
317.74634590721371
 31
0.0
  0
ARC
  5
409
  8
L2
 10
504.86305789573419
 20
317.81074336032009
 30
0.0
 40
0.3708501521392529
 50
189.99999999999579
 51
270.0
  0
ARC
  5
40A
  8
L1
 10
504.86305789573419
 20
317.81074336032009
 30
0.0
 40
0.3708501521392529
 50
270.0
 51
350.00000000000421
  0
LINE
  5
40B
  8
L1
 10
505.22827400076682
 20
317.74634590721371
 30
0.0
 11
505.3630578957343
 21
318.51074336032008
 31
0.0
  0
LINE
  5
40C
  8
L1
 10
506.20608199595921
 20
318.51074336032008
 30
0.0
 11
505.36305789573458
 21
318.51074336032008
 31
0.0
  0
ENDSEC
  0
EOF
