  0
SECTION
  2
HEADER
  9
$ACADVER
  1
AC1012
  9
$DWGCODEPAGE
  3
ansi_1252
  9
$INSBASE
 10
0.0
 20
0.0
 30
0.0
  9
$EXTMIN
 10
-78.10601048233809
 20
5.720168416393846
 30
-0.0000000000000018
  9
$EXTMAX
 10
417.0845265637403
 20
254.6827146004874
 30
0.0000000000000018
  9
$LIMMIN
 10
0.0
 20
0.0
  9
$LIMMAX
 10
420.0
 20
297.0
  9
$ORTHOMODE
 70
     1
  9
$REGENMODE
 70
     1
  9
$FILLMODE
 70
     1
  9
$QTEXTMODE
 70
     0
  9
$MIRRTEXT
 70
     1
  9
$DRAGMODE
 70
     2
  9
$LTSCALE
 40
10.0
  9
$OSMODE
 70
    39
  9
$ATTMODE
 70
     1
  9
$TEXTSIZE
 40
2.5
  9
$TRACEWID
 40
1.0
  9
$TEXTSTYLE
  7
SIMPLEX
  9
$CLAYER
  8
L1
  9
$CELTYPE
  6
BYLAYER
  9
$CECOLOR
 62
   256
  9
$CELTSCALE
 40
1.0
  9
$DELOBJ
 70
     1
  9
$DISPSILH
 70
     1
  9
$DIMSCALE
 40
1.0
  9
$DIMASZ
 40
3.5
  9
$DIMEXO
 40
0.1
  9
$DIMDLI
 40
0.38
  9
$DIMRND
 40
0.0
  9
$DIMDLE
 40
0.0
  9
$DIMEXE
 40
0.18
  9
$DIMTP
 40
0.0
  9
$DIMTM
 40
0.0
  9
$DIMTXT
 40
3.5
  9
$DIMCEN
 40
1.0
  9
$DIMTSZ
 40
0.0
  9
$DIMTOL
 70
     0
  9
$DIMLIM
 70
     0
  9
$DIMTIH
 70
     0
  9
$DIMTOH
 70
     0
  9
$DIMSE1
 70
     0
  9
$DIMSE2
 70
     0
  9
$DIMTAD
 70
     1
  9
$DIMZIN
 70
     8
  9
$DIMBLK
  1

  9
$DIMASO
 70
     1
  9
$DIMSHO
 70
     1
  9
$DIMPOST
  1

  9
$DIMAPOST
  1

  9
$DIMALT
 70
     0
  9
$DIMALTD
 70
     2
  9
$DIMALTF
 40
25.4
  9
$DIMLFAC
 40
1.0
  9
$DIMTOFL
 70
     1
  9
$DIMTVP
 40
0.0
  9
$DIMTIX
 70
     0
  9
$DIMSOXD
 70
     0
  9
$DIMSAH
 70
     0
  9
$DIMBLK1
  1

  9
$DIMBLK2
  1

  9
$DIMSTYLE
  2
FIBOX
  9
$DIMCLRD
 70
     1
  9
$DIMCLRE
 70
     1
  9
$DIMCLRT
 70
     3
  9
$DIMTFAC
 40
1.0
  9
$DIMGAP
 40
1.0
  9
$DIMJUST
 70
     0
  9
$DIMSD1
 70
     0
  9
$DIMSD2
 70
     0
  9
$DIMTOLJ
 70
     1
  9
$DIMTZIN
 70
     8
  9
$DIMALTZ
 70
     0
  9
$DIMALTTZ
 70
     0
  9
$DIMFIT
 70
     3
  9
$DIMUPT
 70
     0
  9
$DIMUNIT
 70
     2
  9
$DIMDEC
 70
     1
  9
$DIMTDEC
 70
     2
  9
$DIMALTU
 70
     2
  9
$DIMALTTD
 70
     2
  9
$DIMTXSTY
  7
SIMPLEX
  9
$DIMAUNIT
 70
     0
  9
$LUNITS
 70
     2
  9
$LUPREC
 70
     4
  9
$SKETCHINC
 40
1.0
  9
$FILLETRAD
 40
0.0
  9
$AUNITS
 70
     0
  9
$AUPREC
 70
     0
  9
$MENU
  1
C:\r13\win\SUPPORT\acad
  9
$ELEVATION
 40
0.0
  9
$PELEVATION
 40
0.0
  9
$THICKNESS
 40
0.0
  9
$LIMCHECK
 70
     0
  9
$BLIPMODE
 70
     0
  9
$CHAMFERA
 40
10.0
  9
$CHAMFERB
 40
10.0
  9
$CHAMFERC
 40
0.0
  9
$CHAMFERD
 40
0.0
  9
$SKPOLY
 70
     0
  9
$TDCREATE
 40
2450511.539299583
  9
$TDUPDATE
 40
2450780.391509838
  9
$TDINDWG
 40
0.8130780671
  9
$TDUSRTIMER
 40
0.8130780671
  9
$USRTIMER
 70
     1
  9
$ANGBASE
 50
0.0
  9
$ANGDIR
 70
     0
  9
$PDMODE
 70
     0
  9
$PDSIZE
 40
0.0
  9
$PLINEWID
 40
0.0
  9
$COORDS
 70
     1
  9
$SPLFRAME
 70
     0
  9
$SPLINETYPE
 70
     6
  9
$SPLINESEGS
 70
     8
  9
$ATTDIA
 70
     0
  9
$ATTREQ
 70
     1
  9
$HANDLING
 70
     1
  9
$HANDSEED
  5
D2F
  9
$SURFTAB1
 70
     6
  9
$SURFTAB2
 70
     6
  9
$SURFTYPE
 70
     6
  9
$SURFU
 70
     6
  9
$SURFV
 70
     6
  9
$UCSNAME
  2

  9
$UCSORG
 10
0.0
 20
0.0
 30
0.0
  9
$UCSXDIR
 10
1.0
 20
0.0
 30
0.0
  9
$UCSYDIR
 10
0.0
 20
1.0
 30
0.0
  9
$PUCSNAME
  2

  9
$PUCSORG
 10
0.0
 20
0.0
 30
0.0
  9
$PUCSXDIR
 10
1.0
 20
0.0
 30
0.0
  9
$PUCSYDIR
 10
0.0
 20
1.0
 30
0.0
  9
$USERI1
 70
     0
  9
$USERI2
 70
     0
  9
$USERI3
 70
     0
  9
$USERI4
 70
     0
  9
$USERI5
 70
     0
  9
$USERR1
 40
0.0
  9
$USERR2
 40
0.0
  9
$USERR3
 40
0.0
  9
$USERR4
 40
0.0
  9
$USERR5
 40
0.0
  9
$WORLDVIEW
 70
     1
  9
$SHADEDGE
 70
     3
  9
$SHADEDIF
 70
    70
  9
$TILEMODE
 70
     1
  9
$MAXACTVP
 70
    16
  9
$PINSBASE
 10
0.0
 20
0.0
 30
0.0
  9
$PLIMCHECK
 70
     0
  9
$PEXTMIN
 10
-597.0195435712695
 20
29.31547642056148
 30
0.0
  9
$PEXTMAX
 10
8.994979079494328
 20
478.9392154501453
 30
0.0
  9
$PLIMMIN
 10
0.0
 20
0.0
  9
$PLIMMAX
 10
420.0
 20
297.0
  9
$UNITMODE
 70
     0
  9
$VISRETAIN
 70
     0
  9
$PLINEGEN
 70
     0
  9
$PSLTSCALE
 70
     1
  9
$TREEDEPTH
 70
  3020
  9
$PICKSTYLE
 70
     1
  9
$CMLSTYLE
  2
STANDARD
  9
$CMLJUST
 70
     0
  9
$CMLSCALE
 40
1.0
  9
$SAVEIMAGES
 70
     1
  0
ENDSEC
  0
SECTION
  2
CLASSES
  0
CLASS
  1
ACMESCOPE
  2
AcMeScope
  3
ACME_MODULE_NAME
 90
    32768
280
     1
281
     0
  0
CLASS
  1
ACMECOMMANDHISTORY
  2
AcMeCommandHistory
  3
ACME_MODULE_NAME
 90
    32768
280
     1
281
     0
  0
CLASS
  1
AcRfInsAdjusterMgr
  2
AcRfInsAdjusterMgr
  3
ACME_MODULE_NAME
 90
    32768
280
     1
281
     0
  0
CLASS
  1
ACGREFMASTER
  2
AcGrefMaster
  3
"AcadRfServer"
 90
    32768
280
     1
281
     0
  0
CLASS
  1
AmiMaster
  2
AmiMaster
  3
"AmiServices"
 90
    32768
280
     1
281
     0
  0
CLASS
  1
ACASGREFMASTER
  2
AcAsGrefMaster
  3
"AutoSurfResolver"
 90
    32768
280
     1
281
     0
  0
CLASS
  1
ADAPPL
  2
AcAdAppl
  3
"DesignerServices"
 90
    32768
280
     1
281
     0
  0
CLASS
  1
DEPMGR
  2
AcAdDepMgr
  3
"DesignerServices"
 90
    32768
280
     1
281
     0
  0
CLASS
  1
PARAMMGR
  2
AcAdParamMgr
  3
"DesignerServices"
 90
    32768
280
     1
281
     0
  0
CLASS
  1
PARAMSCOPE
  2
AcAdParamScope
  3
"DesignerServices"
 90
    32768
280
     1
281
     0
  0
CLASS
  1
"IM_SYSVAR_MAN"
  2
AcImSysVarManager
  3
"ADAM"
 90
    32768
280
     1
281
     0
  0
CLASS
  1
SYSTEM_VAR_INT
  2
AcImIntSysVar
  3
"ADAM"
 90
    32768
280
     1
281
     0
  0
CLASS
  1
SYSTEM_VAR_REAL
  2
AcImRealSysVar
  3
"ADAM"
 90
    32768
280
     1
281
     0
  0
CLASS
  1
SYSTEM_VAR_STR
  2
AcImStrSysVar
  3
"ADAM"
 90
    32768
280
     1
281
     0
  0
CLASS
  1
NAMEDAPPL
  2
AcAdNamedAppl
  3
"DesignerServices"
 90
    32768
280
     1
281
     0
  0
CLASS
  1
ADPART
  2
AcAdPart
  3
"DesignerServices"
 90
    32768
280
     1
281
     1
  0
CLASS
  1
ADBASE
  2
AcAdBase
  3
"DesignerServices"
 90
    32768
280
     1
281
     0
  0
CLASS
  1
BODYID
  2
AcAdBodyId
  3
"DesignerServices"
 90
    32768
280
     1
281
     0
  0
CLASS
  1
WORKPLANEDISPLAYMGR
  2
AcAdDisplayMgr
  3
"DesignerServices"
 90
    32768
280
     1
281
     0
  0
CLASS
  1
ADHNTMPLT
  2
AdHoleNoteTemplateMgr
  3
"DesignerServices"
 90
    32768
280
     1
281
     0
  0
CLASS
  1
AM_HNTEMPLATE_MGR_NAME
  2
AdHoleNoteTemplateMgrName
  3
"DesignerServices"
 90
    32768
280
     1
281
     0
  0
CLASS
  1
AcAdGrefModule
  2
AcAdGrefModule
  3
AD_GREF_SERVICES_NSTR
 90
    32768
280
     1
281
     0
  0
CLASS
  1
AM_DRAWING_MGR
  2
AcDmDwgMgr
  3
"Designer_Drawing_Mgmt"
 90
    32768
280
     1
281
     0
  0
CLASS
  1
AM_DWG_DOCUMENT
  2
AcDmDwgDocument
  3
"Designer_Drawing_Mgmt"
 90
    32768
280
     1
281
     0
  0
CLASS
  1
AM_DWG_SHEET
  2
AcDmSheet
  3
"Designer_Drawing_Mgmt"
 90
    32768
280
     1
281
     0
  0
CLASS
  1
AM_VIEWDIMPARMAP
  2
AcDmViewDimParMap
  3
"Designer_Drawing_Mgmt"
 90
    32768
280
     1
281
     0
  0
CLASS
  1
AM_DWGMGR_NAME
  2
AcDmDwgMgrName
  3
"Designer_Drawing_Mgmt"
 90
    32768
280
     1
281
     0
  0
CLASS
  1
ACAMPROJECT
  2
AcAmProject
  3
"DesignerAssemblies"
 90
    32768
280
     1
281
     0
  0
CLASS
  1
ACAMGRCOMPDEF
  2
AcAmGrCompDef
  3
"DesignerAssemblies"
 90
    32768
280
     1
281
     0
  0
CLASS
  1
ACAMCOMPDEF
  2
AcAmCompDef
  3
"DesignerAssemblies"
 90
    32768
280
     1
281
     0
  0
CLASS
  1
ACAMCOMPDEFMGR
  2
AcAmCompDefMgr
  3
"DesignerAssemblies"
 90
    32768
280
     1
281
     0
  0
CLASS
  1
AMCONTEXTMGR
  2
AcAmContextMgr
  3
"DesignerAssemblies"
 90
    32768
280
     1
281
     0
  0
CLASS
  1
AcAmContextModeler
  2
AcAmContextModeler
  3
"DesignerAssemblies"
 90
    32768
280
     1
281
     0
  0
CLASS
  1
ACAMDRAWINGMAN
  2
AcAmDrawingMan
  3
"DesignerAssemblies"
 90
    32768
280
     1
281
     0
  0
CLASS
  1
ASSYSVARS
  2
AcAsSysVars
  3
"AutoSurf"
 90
    32768
280
     1
281
     0
  0
CLASS
  1
ASSTATICVARS
  2
AcAsStaticVars
  3
"AutoSurf"
 90
    32768
280
     1
281
     0
  0
CLASS
  1
ASAPP
  2
AcAsAppObject
  3
"AutoSurf"
 90
    32768
280
     1
281
     0
  0
CLASS
  1
AGDICTIONARY
  2
AgDictionary
  3
"AccelView"
 90
    32768
280
     1
281
     0
  0
CLASS
  1
ADDATUMPLANEABS
  2
AcAdDatumPlaneAbs
  3
"DesignerServices"
 90
    32768
280
     1
281
     0
  0
CLASS
  1
ADDATUMAXISABS
  2
AcAdDatumAxisAbs
  3
"DesignerServices"
 90
    32768
280
     1
281
     0
  0
CLASS
  1
ADDATUMORIENTEDPLANE
  2
AcAdDatumOrientedPlane
  3
"DesignerServices"
 90
    32768
280
     1
281
     0
  0
CLASS
  1
ACADPLLINEACAD
  2
AcAdVirtualLinePlineAcad
  3
"DesignerServices"
 90
    32768
280
     1
281
     0
  0
CLASS
  1
ACADREFLINEACAD
  2
AcAdVirtualReferenceLine
  3
"DesignerServices"
 90
    32768
280
     1
281
     0
  0
CLASS
  1
ACADCONSLINE
  2
AcAdConstrainedLine
  3
"DesignerServices"
 90
    32768
280
     1
281
     0
  0
CLASS
  1
ACADCONSGROUP
  2
AcAdConstraintGroup
  3
"DesignerServices"
 90
    32768
280
     1
281
     0
  0
CLASS
  1
ACADIMPPTACAD
  2
AcAdVirtualImplicitPoint
  3
"DesignerServices"
 90
    32768
280
     1
281
     0
  0
CLASS
  1
ACADCONSPOINT
  2
AcAdConstrainedPoint
  3
"DesignerServices"
 90
    32768
280
     1
281
     0
  0
CLASS
  1
ADPCURCNS
  2
AcAdPointCurveConstr
  3
"DesignerServices"
 90
    32768
280
     1
281
     0
  0
CLASS
  1
ADVERCNS
  2
AcAdVerticalConstr
  3
"DesignerServices"
 90
    32768
280
     1
281
     0
  0
CLASS
  1
ADHORCNS
  2
AcAdHorizontalConstr
  3
"DesignerServices"
 90
    32768
280
     1
281
     0
  0
CLASS
  1
ADCLPROF2D
  2
AcAdClosedProfile2d
  3
"DesignerServices"
 90
    32768
280
     1
281
     0
  0
CLASS
  1
ADCONSDISP
  2
AcAdConstraintDisplay
  3
"DesignerServices"
 90
    32768
280
     1
281
     1
  0
CLASS
  1
ADCONSTDSP
  2
AcAdConstraintDisplayTag
  3
"DesignerServices"
 90
    32768
280
     1
281
     1
  0
CLASS
  1
ADPARCNS
  2
AcAdParallelConstr
  3
"DesignerServices"
 90
    32768
280
     1
281
     0
  0
CLASS
  1
PARAM
  2
AcAdParam
  3
"DesignerServices"
 90
    32768
280
     1
281
     0
  0
CLASS
  1
ADVDISTCNS
  2
AcAdLinearDistanceConstr
  3
"DesignerServices"
 90
    32768
280
     1
281
     0
  0
CLASS
  1
ACMELINEARARROW
  2
AcImLinearArrowDisplay
  3
ACME_MODULE_NAME
 90
    32768
280
     1
281
     1
  0
CLASS
  1
ADEXTRUSIONBLIND
  2
AcAdExtrusionBlind
  3
"DesignerServices"
 90
    32768
280
     1
281
     0
  0
CLASS
  1
ACADCIRCLEACAD
  2
AcAdVirtualCircleAcad
  3
"DesignerServices"
 90
    32768
280
     1
281
     0
  0
CLASS
  1
ACADCONSCIRCLE
  2
AcAdConstrainedCircle
  3
"DesignerServices"
 90
    32768
280
     1
281
     0
  0
CLASS
  1
ADCTRPTCNS
  2
AcAdCenterPointConstr
  3
"DesignerServices"
 90
    32768
280
     1
281
     0
  0
CLASS
  1
ADDIACNS
  2
AcAdAcadDiameterConstr
  3
"DesignerServices"
 90
    32768
280
     1
281
     0
  0
CLASS
  1
HVREFID
  2
AcAdHVRefId
  3
"DesignerServices"
 90
    32768
280
     1
281
     0
  0
CLASS
  1
ACADLINEDEPID
  2
AcAdVirtualPointDepId
  3
"DesignerServices"
 90
    32768
280
     1
281
     0
  0
CLASS
  1
ADVDISTCNS
  2
AcAdVerticalDistanceConstr
  3
"DesignerServices"
 90
    32768
280
     1
281
     0
  0
CLASS
  1
ADHDISTCNS
  2
AcAdHorizontalDistanceConstr
  3
"DesignerServices"
 90
    32768
280
     1
281
     0
  0
CLASS
  1
ADFEATRECTARRAY
  2
AcAdRectangularFeatArray
  3
"DesignerServices"
 90
    32768
280
     1
281
     0
  0
CLASS
  1
ADPLANEID
  2
AcAdPlaneId
  3
"DesignerServices"
 90
    32768
280
     1
281
     0
  0
CLASS
  1
ADDATUMPLANEFACE
  2
AcAdDatumPlaneFace
  3
"DesignerServices"
 90
    32768
280
     1
281
     0
  0
CLASS
  1
ADSTRAIGHTID
  2
AcAdStraightId
  3
"DesignerServices"
 90
    32768
280
     1
281
     0
  0
CLASS
  1
ADDATUMAXISEDGE
  2
AcAdDatumAxisEdge
  3
"DesignerServices"
 90
    32768
280
     1
281
     0
  0
CLASS
  1
ACADPLARCACAD
  2
AcAdVirtualArcPlineAcad
  3
"DesignerServices"
 90
    32768
280
     1
281
     0
  0
CLASS
  1
ADCOLNCNS
  2
AcAdColinearConstr
  3
"DesignerServices"
 90
    32768
280
     1
281
     0
  0
CLASS
  1
ADTANCNS
  2
AcAdTangentConstr
  3
"DesignerServices"
 90
    32768
280
     1
281
     0
  0
CLASS
  1
ADEQRADCNS
  2
AcAdEqualRadiusConstr
  3
"DesignerServices"
 90
    32768
280
     1
281
     0
  0
CLASS
  1
STREFID
  2
AcAdStraightRefId
  3
"DesignerServices"
 90
    32768
280
     1
281
     0
  0
CLASS
  1
ACADLINEDEPID
  2
AcAdVirtualLineDepId
  3
"DesignerServices"
 90
    32768
280
     1
281
     0
  0
CLASS
  1
RAYREFID
  2
AcAdRayRefId
  3
"DesignerServices"
 90
    32768
280
     1
281
     0
  0
CLASS
  1
ADPDISTCNS
  2
AcAdParallelDistanceConstr
  3
"DesignerServices"
 90
    32768
280
     1
281
     0
  0
CLASS
  1
ADRADCNS
  2
AcAdAcadRadiusConstr
  3
"DesignerServices"
 90
    32768
280
     1
281
     0
  0
CLASS
  1
ADPERPCNS
  2
AcAdPerpendicularConstr
  3
"DesignerServices"
 90
    32768
280
     1
281
     0
  0
CLASS
  1
CIRREFID
  2
AcAdCircleRefId
  3
"DesignerServices"
 90
    32768
280
     1
281
     0
  0
CLASS
  1
ACADCIRCDEPID
  2
AcAdVirtualCircleDepId
  3
"DesignerServices"
 90
    32768
280
     1
281
     0
  0
CLASS
  1
ADPLANEID
  2
AcAdSurfGeomId
  3
"DesignerServices"
 90
    32768
280
     1
281
     0
  0
CLASS
  1
ADDATUMAXISCENTER
  2
AcAdDatumAxisCenter
  3
"DesignerServices"
 90
    32768
280
     1
281
     0
  0
CLASS
  1
ADDATUMPOINTAXISPLANE
  2
AcAdDatumPointAxisPlane
  3
"DesignerServices"
 90
    32768
280
     1
281
     0
  0
CLASS
  1
ADHOLEFEAT
  2
AcAdHoleFeat
  3
"DesignerServices"
 90
    32768
280
     1
281
     0
  0
CLASS
  1
ADCONCCNS
  2
AcAdConcentricConstr
  3
"DesignerServices"
 90
    32768
280
     1
281
     0
  0
CLASS
  1
ADEXTRUSIONTOPLANE
  2
AcAdExtrusionToPlane
  3
"DesignerServices"
 90
    32768
280
     1
281
     0
  0
CLASS
  1
ADBDISTCNS
  2
AcAdAcadAngleConstr
  3
"DesignerServices"
 90
    32768
280
     1
281
     0
  0
CLASS
  1
ADPATH2D
  2
AcAdPath2d
  3
"DesignerServices"
 90
    32768
280
     1
281
     0
  0
CLASS
  1
DATUMPLANEDISPLAY
  2
AcAdDatumPlaneDisplay
  3
"DesignerServices"
 90
    32768
280
     1
281
     1
  0
CLASS
  1
ADDATUMPLANEXSECT
  2
AcAdDatumPlaneXSect
  3
"DesignerServices"
 90
    32768
280
     1
281
     0
  0
CLASS
  1
DATUMPOINTDISPLAY
  2
AcAdDatumPointDisplay
  3
"DesignerServices"
 90
    32768
280
     1
281
     1
  0
CLASS
  1
ADDATUMPOINTPATHSTART
  2
AcAdDatumPointPathStart
  3
"DesignerServices"
 90
    32768
280
     1
281
     0
  0
CLASS
  1
ACADVIRTUALPOINTDATUMID
  2
AcAdVirtualPointDatumId
  3
"DesignerServices"
 90
    32768
280
     1
281
     0
  0
CLASS
  1
ADSWEEP
  2
AcAdSweep
  3
"DesignerServices"
 90
    32768
280
     1
281
     0
  0
CLASS
  1
ADEXTRUSIONTHRU
  2
AcAdExtrusionThru
  3
"DesignerServices"
 90
    32768
280
     1
281
     0
  0
CLASS
  1
EDGEID
  2
AcAdEdgeId
  3
"DesignerServices"
 90
    32768
280
     1
281
     0
  0
CLASS
  1
ADFILLET
  2
AcAdFillet
  3
"DesignerServices"
 90
    32768
280
     1
281
     0
  0
CLASS
  1
AM_VIEW_SELECT_FILTER
  2
AcDmActivePartViewEntFilter
  3
"Designer_Drawing_Mgmt"
 90
    32768
280
     1
281
     0
  0
CLASS
  1
AM_ABS_PLANE
  2
AcDmAbsPlnDef
  3
DM_MODULE_NAME
 90
    32768
280
     1
281
     0
  0
CLASS
  1
AM_ABS_AXIS
  2
AcDmAbsAxisDef
  3
DM_MODULE_NAME
 90
    32768
280
     1
281
     0
  0
CLASS
  1
AM_BASE_VIEW_ORIENT
  2
AcDmBaseViewOr
  3
"Designer_Drawing_Mgmt"
 90
    32768
280
     1
281
     0
  0
CLASS
  1
AM_DWG_VIEWPORT
  2
AcDmViewport
  3
"Designer_Drawing_Mgmt"
 90
    32768
280
     1
281
     0
  0
CLASS
  1
AM_VIEW_DISPLAY
  2
AcDmDwgViewDisplay
  3
"Designer_Drawing_Mgmt"
 90
    32768
280
     1
281
     0
  0
CLASS
  1
AM_BASE_VIEW
  2
AcDmBaseView
  3
"Designer_Drawing_Mgmt"
 90
    32768
280
     1
281
     0
  0
CLASS
  1
ACDMVWEDARC
  2
AcDmViewEdgeArc
  3
"Designer_Drawing_Mgmt"
 90
    32768
280
     1
281
     1
  0
CLASS
  1
ACDMVWEDLINE
  2
AcDmViewEdgeLine
  3
"Designer_Drawing_Mgmt"
 90
    32768
280
     1
281
     1
  0
CLASS
  1
ACDMVWEDSPLINE
  2
AcDmViewEdgeSpline
  3
"Designer_Drawing_Mgmt"
 90
    32768
280
     1
281
     1
  0
CLASS
  1
ACDMVWEDCIRC
  2
AcDmViewEdgeCircle
  3
"Designer_Drawing_Mgmt"
 90
    32768
280
     1
281
     1
  0
CLASS
  1
ACADSKETCHPOINTRES
  2
AcAdSketchPointRes
  3
"DesignerServices"
 90
    32768
280
     1
281
     0
  0
CLASS
  1
ACADSKETCHCIRCARCRES
  2
AcAdSketchCircArcRes
  3
"DesignerServices"
 90
    32768
280
     1
281
     0
  0
CLASS
  1
ACADSKETCHLINERES
  2
AcAdSketchLineRes
  3
"DesignerServices"
 90
    32768
280
     1
281
     0
  0
CLASS
  1
AM_VIEWDIMLINEAR
  2
AcDmViewDimLinear
  3
"Designer_Drawing_Mgmt"
 90
    32768
280
     1
281
     0
  0
CLASS
  1
AM_VIEWDIMDIAMETER
  2
AcDmViewDimDiameter
  3
"Designer_Drawing_Mgmt"
 90
    32768
280
     1
281
     0
  0
CLASS
  1
AM_VIEWDIMRADIUS
  2
AcDmViewDimRadius
  3
"Designer_Drawing_Mgmt"
 90
    32768
280
     1
281
     0
  0
CLASS
  1
AM_VIEWDIMPARALLEL
  2
AcDmViewDimParallel
  3
"Designer_Drawing_Mgmt"
 90
    32768
280
     1
281
     0
  0
CLASS
  1
AM_VIEWDIMANGULAR
  2
AcDmViewDimAngular
  3
"Designer_Drawing_Mgmt"
 90
    32768
280
     1
281
     0
  0
CLASS
  1
AM_ORTHO_VIEW_ORIENT
  2
AcDmOrthoViewOr
  3
"Designer_Drawing_Mgmt"
 90
    32768
280
     1
281
     0
  0
CLASS
  1
AM_ORTHO_VIEW
  2
AcDmOrthoView
  3
"Designer_Drawing_Mgmt"
 90
    32768
280
     1
281
     0
  0
CLASS
  1
AM_ISO_VIEW_ORIENT
  2
AcDmIsoViewOr
  3
"Designer_Drawing_Mgmt"
 90
    32768
280
     1
281
     0
  0
CLASS
  1
AM_ISO_VIEW
  2
AcDmIsoView
  3
"Designer_Drawing_Mgmt"
 90
    32768
280
     1
281
     0
  0
CLASS
  1
AcAdPartCircEdgRES
  2
AcAdPartCircEdgRes
  3
AD_GREF_SERVICES_NSTR
 90
    32768
280
     1
281
     0
  0
CLASS
  1
ACADPARTELLIPSEEDGERES
  2
AcAdPartEllipseEdgeRes
  3
AD_GREF_SERVICES_NSTR
 90
    32768
280
     1
281
     0
  0
CLASS
  1
ELLREFID
  2
AcAdEllipseRefId
  3
"DesignerServices"
 90
    32768
280
     1
281
     0
  0
CLASS
  1
ACADPARTLINEDGRES
  2
AcAdPartLinEdgRes
  3
AD_GREF_SERVICES_NSTR
 90
    32768
280
     1
281
     0
  0
CLASS
  1
CNRREFID
  2
AcAdCornerId
  3
"DesignerServices"
 90
    32768
280
     1
281
     0
  0
CLASS
  1
ACADPARTPOINTRES
  2
AcAdPartPointRes
  3
AD_GREF_SERVICES_NSTR
 90
    32768
280
     1
281
     0
  0
CLASS
  1
ACAMGRCOMPSET
  2
AcAmGrCompSet
  3
DesignerAssemblies
 90
    32768
280
     1
281
     0
  0
CLASS
  1
ACAMGRCOMPDEFSET
  2
AcAmGrCompDefSet
  3
DesignerAssemblies
 90
    32768
280
     1
281
     0
  0
CLASS
  1
ACDMVIEWGEOM
  2
AcDmViewGeometry
  3
AcMechDwgViewMgmt
 90
    32768
280
     1
281
     1
  0
CLASS
  1
ACADCIRCLEACAD
  2
AcAdVirtualVertex
  3
DesignerServices
 90
    32768
280
     1
281
     0
  0
CLASS
  1
ACADCIRCLEACAD
  2
AcAdVirtualContainer
  3
DesignerServices
 90
    32768
280
     1
281
     0
  0
CLASS
  1
ADPROJCNS
  2
AcAdProjectionConstr
  3
DesignerServices
 90
    32768
280
     1
281
     0
  0
CLASS
  1
AM_FULLPOINTSECTION
  2
AcDmFullPointSection
  3
AcMechDwgViewMgmt
 90
    32768
280
     1
281
     0
  0
CLASS
  1
AM_SECTIONSYMBOL
  2
AcDmSectionSymbol
  3
AcMechDwgViewMgmt
 90
    32768
280
     1
281
     0
  0
CLASS
  1
AM_VIEWLABEL
  2
AcDmViewLabel
  3
AcMechDwgViewMgmt
 90
    32768
280
     1
281
     0
  0
CLASS
  1
FACEID
  2
AcAdFaceId
  3
DesignerServices
 90
    32768
280
     1
281
     0
  0
CLASS
  1
ACADPARTCYLINDERFACERES
  2
AcAdPartCylinderFaceRes
  3
AD_GREF_SERVICES_NSTR
 90
    32768
280
     1
281
     0
  0
CLASS
  1
ACDMGREFEDIT
  2
AcDmViewEntityGeomrefEdit
  3
AcMechDwgViewMgmt
 90
    32768
280
     1
281
     0
  0
CLASS
  1
AcDmViewArcEdgeRes
  2
AcDmViewArcEdgeRes
  3
AD_GREF_SERVICES
 90
    32768
280
     1
281
     0
  0
CLASS
  1
ACDMVISEDIT
  2
AcDmViewEntityVisEdit
  3
AcMechDwgViewMgmt
 90
    32768
280
     1
281
     0
  0
CLASS
  1
ACADPARTPLANARFACERES
  2
AcAdPartPlanarFaceRes
  3
AD_GREF_SERVICES_NSTR
 90
    32768
280
     1
281
     0
  0
CLASS
  1
AcDmViewLinEdgeRes
  2
AcDmViewLinEdgeRes
  3
AD_GREF_SERVICES
 90
    32768
280
     1
281
     0
  0
CLASS
  1
ACRFATTGENMGR
  2
AcRfAttGeneralMgr
  3
"AcadRfServer"
 90
    32768
280
     1
281
     0
  0
CLASS
  1
LWPOLYLINE
  2
AcDbPolyline
  3
"AutoCAD"
 90
    32768
280
     0
281
     1
  0
CLASS
  1
DxfZombieEntity
  2
AcDbDxfZombieEntity
  3
AutoCAD
 90
        0
280
     1
281
     1
  0
CLASS
  1
DxfZombieObject
  2
AcDbDxfZombieObject
  3
AutoCAD
 90
        0
280
     1
281
     0
  0
ENDSEC
  0
SECTION
  2
TABLES
  0
TABLE
  2
VPORT
  5
12
100
AcDbSymbolTable
 70
     3
  0
VPORT
  5
D2E
100
AcDbSymbolTableRecord
100
AcDbViewportTableRecord
  2
*ACTIVE
 70
     0
 10
0.0
 20
0.0
 11
1.0
 21
1.0
 12
365.4872742751254
 22
-171.2995814350757
 13
0.0
 23
0.0
 14
10.0
 24
10.0
 15
10.0
 25
10.0
 16
0.0
 26
0.0
 36
1.0
 17
-188.7576787951535
 27
298.2999727433918
 37
29.13828775930998
 40
325.0000002438979
 41
1.672965116279069
 42
50.0
 43
0.0
 44
0.0
 50
0.0
 51
0.0
 71
     0
 72
   500
 73
     1
 74
     1
 75
     0
 76
     0
 77
     0
 78
     0
  0
ENDTAB
  0
TABLE
  2
LTYPE
  5
D
100
AcDbSymbolTable
 70
     3
  0
LTYPE
  5
E
100
AcDbSymbolTableRecord
100
AcDbLinetypeTableRecord
  2
BYBLOCK
 70
    64
  3

 72
    65
 73
     0
 40
0.0
  0
LTYPE
  5
F
100
AcDbSymbolTableRecord
100
AcDbLinetypeTableRecord
  2
BYLAYER
 70
    64
  3

 72
    65
 73
     0
 40
0.0
  0
LTYPE
  5
5
100
AcDbSymbolTableRecord
100
AcDbLinetypeTableRecord
  2
CONTINUOUS
 70
    64
  3
Solid line
 72
    65
 73
     0
 40
0.0
  0
LTYPE
  5
29
100
AcDbSymbolTableRecord
100
AcDbLinetypeTableRecord
  2
CENTER
 70
    64
  3
____ _ ____ _ ____ _ ____ _ ____ _ ____ _ ____ 
 72
    65
 73
     4
 40
2.0
 49
1.25
 74
     0
 49
-0.25
 74
     0
 49
0.25
 74
     0
 49
-0.25
 74
     0
  0
LTYPE
  5
22
100
AcDbSymbolTableRecord
100
AcDbLinetypeTableRecord
  2
DASHED
 70
    64
  3
__ __ __ __ __ __ __ __ __ __ __ __ __ __ __ __
 72
    65
 73
     2
 40
0.75
 49
0.5
 74
     0
 49
-0.25
 74
     0
  0
ENDTAB
  0
TABLE
  2
LAYER
  5
A
100
AcDbSymbolTable
 70
     4
  0
LAYER
  5
4
100
AcDbSymbolTableRecord
100
AcDbLayerTableRecord
  2
0
 70
    64
 62
     7
  6
CONTINUOUS
  0
LAYER
  5
1B
100
AcDbSymbolTableRecord
100
AcDbLayerTableRecord
  2
L1
 70
    64
 62
     7
  6
CONTINUOUS
  0
LAYER
  5
21
100
AcDbSymbolTableRecord
100
AcDbLayerTableRecord
  2
L2
 70
    64
 62
     1
  6
DASHED
  0
LAYER
  5
28
100
AcDbSymbolTableRecord
100
AcDbLayerTableRecord
  2
L6
 70
    64
 62
     1
  6
CENTER
  0
ENDTAB
  0
TABLE
  2
STYLE
  5
B
100
AcDbSymbolTable
 70
     2
  0
STYLE
  5
C
100
AcDbSymbolTableRecord
100
AcDbTextStyleTableRecord
  2
STANDARD
 70
    64
 40
0.0
 41
1.0
 50
0.0
 71
     0
 42
2.5
  3
ISOCP
  4

  0
STYLE
  5
1C
100
AcDbSymbolTableRecord
100
AcDbTextStyleTableRecord
  2
SIMPLEX
 70
    64
 40
0.0
 41
0.8
 50
0.0
 71
     0
 42
2.5
  3
SIMPLEX.SHX
  4

  0
ENDTAB
  0
TABLE
  2
VIEW
  5
10
100
AcDbSymbolTable
 70
     0
  0
ENDTAB
  0
TABLE
  2
UCS
  5
11
100
AcDbSymbolTable
 70
     0
  0
ENDTAB
  0
TABLE
  2
APPID
  5
14
100
AcDbSymbolTable
 70
     1
  0
APPID
  5
15
100
AcDbSymbolTableRecord
100
AcDbRegAppTableRecord
  2
ACAD
 70
    64
  0
ENDTAB
  0
TABLE
  2
DIMSTYLE
  5
16
100
AcDbSymbolTable
 70
     1
  0
DIMSTYLE
105
1E
100
AcDbSymbolTableRecord
100
AcDbDimStyleTableRecord
  2
FIBOX
 70
    64
  3

  4

  5

  6

  7

 40
1.0
 41
3.5
 42
0.1
 43
0.38
 44
0.18
 45
0.0
 46
0.0
 47
0.0
 48
0.0
140
3.5
141
1.0
142
0.0
143
25.4
144
1.0
145
0.0
146
1.0
147
1.0
 71
     0
 72
     0
 73
     0
 74
     0
 75
     0
 76
     0
 77
     1
 78
     8
170
     0
171
     2
172
     1
173
     0
174
     0
175
     0
176
     1
177
     1
178
     3
270
     2
271
     1
272
     2
273
     2
274
     2
340
1C
275
     0
280
     0
281
     0
282
     0
283
     1
284
     8
285
     0
286
     0
287
     3
288
     0
  0
ENDTAB
  0
TABLE
  2
BLOCK_RECORD
  5
1
100
AcDbSymbolTable
 70
     0
  0
BLOCK_RECORD
  5
2
100
AcDbSymbolTableRecord
100
AcDbBlockTableRecord
  2
*MODEL_SPACE
  0
BLOCK_RECORD
  5
7
100
AcDbSymbolTableRecord
100
AcDbBlockTableRecord
  2
*PAPER_SPACE
  0
ENDTAB
  0
ENDSEC
  0
SECTION
  2
BLOCKS
  0
BLOCK
  5
3
100
AcDbEntity
  8
0
100
AcDbBlockBegin
  2
*MODEL_SPACE
 70
    64
 10
0.0
 20
0.0
 30
0.0
  3
*MODEL_SPACE
  1

  0
ENDBLK
  5
6
100
AcDbEntity
  8
0
100
AcDbBlockEnd
  0
BLOCK
  5
8
100
AcDbEntity
 67
     1
  8
0
100
AcDbBlockBegin
  2
*PAPER_SPACE
 70
    64
 10
0.0
 20
0.0
 30
0.0
  3
*PAPER_SPACE
  1

  0
ENDBLK
  5
9
100
AcDbEntity
 67
     1
  8
0
100
AcDbBlockEnd
  0
ENDSEC
  0
SECTION
  2
ENTITIES
  0
LINE
  5
1F
100
AcDbEntity
  8
L1
100
AcDbLine
 10
158.6620195767319
 20
180.5605620398203
 30
0.0
 11
158.6620195767319
 21
79.84232097706078
 31
0.0
  0
LINE
  5
20
100
AcDbEntity
  8
L2
100
AcDbLine
 10
155.6620195767319
 20
177.9681772848346
 30
0.0
 11
155.662019576732
 21
81.73099490111175
 31
0.0
  0
LINE
  5
23
100
AcDbEntity
  8
L1
100
AcDbLine
 10
134.6620195767319
 20
194.6514415084419
 30
0.0
 11
134.6620195767319
 21
65.04773067750443
 31
0.0
  0
LINE
  5
24
100
AcDbEntity
  8
L1
100
AcDbLine
 10
135.2568287556666
 20
64.45292149856974
 30
0.0
 11
135.2568287556666
 21
195.2462506873766
 31
0.0
  0
LINE
  5
25
100
AcDbEntity
  8
L1
100
AcDbLine
 10
-75.6017865986114
 20
180.573816178599
 30
0.0
 11
-75.6017865986114
 21
79.8851593091785
 31
0.0
  0
LINE
  5
26
100
AcDbEntity
  8
L1
100
AcDbLine
 10
104.0879744599014
 20
79.88515930921988
 30
0.0
 11
104.0879744599014
 21
180.5738161785964
 31
0.0
  0
LINE
  5
27
100
AcDbEntity
  8
L6
100
AcDbLine
 10
14.24309393064504
 20
60.48207939862408
 30
0.0
 11
14.24309393064504
 21
200.6648123850244
 31
0.0
  0
LINE
  5
2A
100
AcDbEntity
  8
L1
100
AcDbLine
 10
-75.80171524828961
 20
191.7744301920976
 30
-0.0000000000000018
 11
-75.80171524828961
 21
68.68454529567737
 31
-0.0000000000000018
  0
LINE
  5
2B
100
AcDbEntity
  8
L1
100
AcDbLine
 10
104.2879031095798
 20
68.68454529567731
 30
0.0
 11
104.2879031095798
 21
191.7744301920976
 31
0.0
  0
LINE
  5
2C
100
AcDbEntity
  8
L6
100
AcDbLine
 10
-78.10601048233809
 20
130.2294877438874
 30
0.0
 11
107.2602481198567
 21
130.2294877438874
 31
0.0
  0
LINE
  5
2D
100
AcDbEntity
  8
L1
100
AcDbLine
 10
-61.10123450402579
 20
65.3846072146311
 30
0.0
 11
89.58742236535375
 21
65.3846072146311
 31
0.0
  0
LINE
  5
2E
100
AcDbEntity
  8
L1
100
AcDbLine
 10
-72.30184851756496
 20
65.18467856495277
 30
0.0
 11
100.7880363788553
 21
65.18467856495277
 31
0.0
  0
LINE
  5
2F
100
AcDbEntity
  8
L1
100
AcDbLine
 10
-63.16896701844427
 20
76.34493983299382
 30
0.0
 11
-62.53582780239162
 21
76.97807904904647
 31
0.0
  0
ARC
  5
30
100
AcDbEntity
  8
L1
100
AcDbCircle
 10
-67.97998085192523
 20
73.0064129613167
 30
0.0
 40
6.738911925464585
100
AcDbArc
 50
36.11182554311468
 51
53.88817445689193
  0
LINE
  5
31
100
AcDbEntity
  8
L6
 62
     1
100
AcDbLine
 10
-76.25563631806961
 20
73.47948774388715
 30
0.0
 11
-58.75817582064065
 21
73.47948774388715
 31
0.0
  0
ARC
  5
32
100
AcDbEntity
  8
L1
100
AcDbCircle
 10
-67.97998085192523
 20
73.0064129613167
 30
0.0
 40
6.799999999999897
100
AcDbArc
 50
0.0
 51
90.0
  0
LINE
  5
33
100
AcDbEntity
  8
L1
100
AcDbLine
 10
-71.78870771971651
 20
68.1002813072667
 30
0.0
 11
-61.18610108289487
 21
68.1002813072667
 31
0.0
  0
LINE
  5
34
100
AcDbEntity
  8
L1
100
AcDbLine
 10
-61.18610108289487
 20
66.09509087978523
 30
0.0
 11
-72.09140954887755
 21
66.09509087978523
 31
0.0
  0
ELLIPSE
  5
35
100
AcDbEntity
  8
L1
100
AcDbEllipse
 10
-63.26279744828775
 20
65.92309376752371
 30
0.0
 11
-1.69649782936798
 21
0.0
 31
0.0
210
0.0
220
0.0
230
-1.0
 40
0.0087265354983806
 41
-3.132866339598172
 42
-1.570796326794896
  0
ARC
  5
36
100
AcDbEntity
  8
L1
100
AcDbCircle
 10
-67.50690606935506
 20
73.47948774388737
 30
0.0
 40
5.099999999999999
100
AcDbArc
 50
308.3917785793127
 51
33.2750020019976
  0
ARC
  5
37
100
AcDbEntity
  8
L1
100
AcDbCircle
 10
-67.50690606935506
 20
73.47948774388737
 30
0.0
 40
5.099999999999999
100
AcDbArc
 50
56.72499799800414
 51
141.6082214206732
  0
ELLIPSE
  5
38
100
AcDbEntity
  8
L1
100
AcDbEllipse
 10
-75.06330004571885
 20
77.72359636495474
 30
0.0
 11
0.0
 21
1.69649782936798
 31
0.0
210
0.0
220
0.0
230
-1.0
 40
0.0087265354983806
 41
-1.570796326794896
 42
-0.0087263139916212
  0
LINE
  5
39
100
AcDbEntity
  8
L6
 62
     1
100
AcDbLine
 10
-67.50690606935496
 20
66.81072527431587
 30
0.0
 11
-67.50690606935496
 21
79.35523195605816
 31
0.0
  0
LINE
  5
3A
100
AcDbEntity
  8
L1
100
AcDbLine
 10
-72.88611250597558
 20
79.80029273034745
 30
0.0
 11
-72.88611250597558
 21
69.19768609352598
 31
0.0
  0
LINE
  5
3B
100
AcDbEntity
  8
L1
100
AcDbLine
 10
-74.89130293345727
 20
68.89498426436495
 30
0.0
 11
-74.89130293345727
 21
79.80029273034751
 31
0.0
  0
POLYLINE
  5
3C
100
AcDbEntity
  8
L1
100
AcDb2dPolyline
 66
     1
 10
0.0
 20
0.0
 30
0.0
  0
VERTEX
  5
45F
100
AcDbEntity
  8
L1
100
AcDbVertex
100
AcDb2dVertex
 10
-72.30690606935502
 20
65.1846821872773
 30
0.0
  0
VERTEX
  5
460
100
AcDbEntity
  8
L1
100
AcDbVertex
100
AcDb2dVertex
 10
-72.9785403431174
 20
65.25070693055766
 30
0.0
  0
VERTEX
  5
461
100
AcDbEntity
  8
L1
100
AcDbVertex
100
AcDb2dVertex
 10
-73.64354336840722
 20
65.45203366952506
 30
0.0
  0
VERTEX
  5
462
100
AcDbEntity
  8
L1
100
AcDbVertex
100
AcDb2dVertex
 10
-74.25566843016145
 20
65.78076191990596
 30
0.0
  0
VERTEX
  5
463
100
AcDbEntity
  8
L1
100
AcDbVertex
100
AcDb2dVertex
 10
-74.77666204489867
 20
66.20973176834389
 30
0.0
  0
VERTEX
  5
464
100
AcDbEntity
  8
L1
100
AcDbVertex
100
AcDb2dVertex
 10
-75.20563189333654
 20
66.73072538308105
 30
0.0
  0
VERTEX
  5
465
100
AcDbEntity
  8
L1
100
AcDbVertex
100
AcDb2dVertex
 10
-75.53436014371754
 20
67.34285044483539
 30
0.0
  0
VERTEX
  5
466
100
AcDbEntity
  8
L1
100
AcDbVertex
100
AcDb2dVertex
 10
-75.73568688268483
 20
68.00785347012521
 30
0.0
  0
VERTEX
  5
467
100
AcDbEntity
  8
L1
100
AcDbVertex
100
AcDb2dVertex
 10
-75.80171162596525
 20
68.67948774388747
 30
0.0
  0
SEQEND
  5
468
100
AcDbEntity
  8
L1
  0
POLYLINE
  5
3D
100
AcDbEntity
  8
L1
100
AcDb2dPolyline
 66
     1
 10
0.0
 20
0.0
 30
0.0
  0
VERTEX
  5
469
100
AcDbEntity
  8
L1
100
AcDbVertex
100
AcDb2dVertex
 10
-75.07810459424979
 20
68.70818260357248
 30
0.0
  0
VERTEX
  5
46A
100
AcDbEntity
  8
L1
100
AcDbVertex
100
AcDb2dVertex
 10
-75.064624750868
 20
68.4337363215268
 30
0.0
  0
VERTEX
  5
46B
100
AcDbEntity
  8
L1
100
AcDbVertex
100
AcDb2dVertex
 10
-75.02431054824774
 20
68.16193512451793
 30
0.0
  0
VERTEX
  5
46C
100
AcDbEntity
  8
L1
100
AcDbVertex
100
AcDb2dVertex
 10
-74.95755019658486
 20
67.89539635306204
 30
0.0
  0
VERTEX
  5
46D
100
AcDbEntity
  8
L1
100
AcDbVertex
100
AcDb2dVertex
 10
-74.86498657227298
 20
67.63668667255046
 30
0.0
  0
VERTEX
  5
46E
100
AcDbEntity
  8
L1
100
AcDbVertex
100
AcDb2dVertex
 10
-74.74751102725178
 20
67.38829735725341
 30
0.0
  0
VERTEX
  5
46F
100
AcDbEntity
  8
L1
100
AcDbVertex
100
AcDb2dVertex
 10
-74.60625480563317
 20
67.15262030031147
 30
0.0
  0
VERTEX
  5
470
100
AcDbEntity
  8
L1
100
AcDbVertex
100
AcDb2dVertex
 10
-74.4425781502564
 20
66.93192498072864
 30
0.0
  0
VERTEX
  5
471
100
AcDbEntity
  8
L1
100
AcDbVertex
100
AcDb2dVertex
 10
-74.25805720407606
 20
66.72833660916643
 30
0.0
  0
VERTEX
  5
472
100
AcDbEntity
  8
L1
100
AcDbVertex
100
AcDb2dVertex
 10
-74.05446883251386
 20
66.5438156629861
 30
0.0
  0
VERTEX
  5
473
100
AcDbEntity
  8
L1
100
AcDbVertex
100
AcDb2dVertex
 10
-73.83377351293109
 20
66.38013900760938
 30
0.0
  0
VERTEX
  5
474
100
AcDbEntity
  8
L1
100
AcDbVertex
100
AcDb2dVertex
 10
-73.59809645598909
 20
66.23888278599071
 30
0.0
  0
VERTEX
  5
475
100
AcDbEntity
  8
L1
100
AcDbVertex
100
AcDb2dVertex
 10
-73.34970714069209
 20
66.12140724096957
 30
0.0
  0
VERTEX
  5
476
100
AcDbEntity
  8
L1
100
AcDbVertex
100
AcDb2dVertex
 10
-73.09099746018046
 20
66.02884361665764
 30
0.0
  0
VERTEX
  5
477
100
AcDbEntity
  8
L1
100
AcDbVertex
100
AcDb2dVertex
 10
-72.82445868872457
 20
65.96208326499476
 30
0.0
  0
VERTEX
  5
478
100
AcDbEntity
  8
L1
100
AcDbVertex
100
AcDb2dVertex
 10
-72.55265749171576
 20
65.92176906237455
 30
0.0
  0
VERTEX
  5
479
100
AcDbEntity
  8
L1
100
AcDbVertex
100
AcDb2dVertex
 10
-72.27821120967007
 20
65.90828921899277
 30
0.0
  0
SEQEND
  5
47A
100
AcDbEntity
  8
L1
  0
POLYLINE
  5
3E
100
AcDbEntity
  8
L1
100
AcDb2dPolyline
 66
     1
 10
0.0
 20
0.0
 30
0.0
  0
VERTEX
  5
47B
100
AcDbEntity
  8
L1
100
AcDbVertex
100
AcDb2dVertex
 10
-72.09140954887755
 20
66.09509087978534
 30
0.0
  0
VERTEX
  5
47C
100
AcDbEntity
  8
L1
100
AcDbVertex
100
AcDb2dVertex
 10
-72.34975538266565
 20
66.1070364939693
 30
0.0
  0
VERTEX
  5
47D
100
AcDbEntity
  8
L1
100
AcDbVertex
100
AcDb2dVertex
 10
-72.60589569027581
 20
66.14276721511647
 30
0.0
  0
VERTEX
  5
47E
100
AcDbEntity
  8
L1
100
AcDbVertex
100
AcDb2dVertex
 10
-72.85764538464753
 20
66.20197823084805
 30
0.0
  0
VERTEX
  5
47F
100
AcDbEntity
  8
L1
100
AcDbVertex
100
AcDb2dVertex
 10
-73.10285683425468
 20
66.28416442260022
 30
0.0
  0
VERTEX
  5
480
100
AcDbEntity
  8
L1
100
AcDbVertex
100
AcDb2dVertex
 10
-73.3394381841656
 20
66.38862467469976
 30
0.0
  0
VERTEX
  5
481
100
AcDbEntity
  8
L1
100
AcDbVertex
100
AcDb2dVertex
 10
-73.56537120128257
 20
66.51446785545681
 30
0.0
  0
VERTEX
  5
482
100
AcDbEntity
  8
L1
100
AcDbVertex
100
AcDb2dVertex
 10
-73.77872849152641
 20
66.66062041924885
 30
0.0
  0
VERTEX
  5
483
100
AcDbEntity
  8
L1
100
AcDbVertex
100
AcDb2dVertex
 10
-73.97768994209036
 20
66.82583556474651
 30
0.0
  0
VERTEX
  5
484
100
AcDbEntity
  8
L1
100
AcDbVertex
100
AcDb2dVertex
 10
-74.16055824849604
 20
67.00870387115219
 30
0.0
  0
VERTEX
  5
485
100
AcDbEntity
  8
L1
100
AcDbVertex
100
AcDb2dVertex
 10
-74.3257733939937
 20
67.20766532171615
 30
0.0
  0
VERTEX
  5
486
100
AcDbEntity
  8
L1
100
AcDbVertex
100
AcDb2dVertex
 10
-74.47192595778574
 20
67.42102261195999
 30
0.0
  0
VERTEX
  5
487
100
AcDbEntity
  8
L1
100
AcDbVertex
100
AcDb2dVertex
 10
-74.59776913854273
 20
67.64695562907689
 30
0.0
  0
VERTEX
  5
488
100
AcDbEntity
  8
L1
100
AcDbVertex
100
AcDb2dVertex
 10
-74.70222939064228
 20
67.88353697898782
 30
0.0
  0
VERTEX
  5
489
100
AcDbEntity
  8
L1
100
AcDbVertex
100
AcDb2dVertex
 10
-74.78441558239445
 20
68.12874842859497
 30
0.0
  0
VERTEX
  5
48A
100
AcDbEntity
  8
L1
100
AcDbVertex
100
AcDb2dVertex
 10
-74.84362659812609
 20
68.38049812296674
 30
0.0
  0
VERTEX
  5
48B
100
AcDbEntity
  8
L1
100
AcDbVertex
100
AcDb2dVertex
 10
-74.87935731927326
 20
68.63663843057691
 30
0.0
  0
VERTEX
  5
48C
100
AcDbEntity
  8
L1
100
AcDbVertex
100
AcDb2dVertex
 10
-74.89130293345716
 20
68.89498426436495
 30
0.0
  0
SEQEND
  5
48D
100
AcDbEntity
  8
L1
  0
LINE
  5
3F
100
AcDbEntity
  8
L1
100
AcDbLine
 10
-72.27821120967007
 20
65.90828921899277
 30
0.0
 11
-63.26279744828775
 21
65.90828921899277
 31
0.0
  0
POLYLINE
  5
40
100
AcDbEntity
  8
L1
100
AcDb2dPolyline
 66
     1
 10
0.0
 20
0.0
 30
0.0
  0
VERTEX
  5
48E
100
AcDbEntity
  8
L1
100
AcDbVertex
100
AcDb2dVertex
 10
-72.36392115033845
 20
73.96557698180846
 30
0.0
  0
VERTEX
  5
48F
100
AcDbEntity
  8
L1
100
AcDbVertex
100
AcDb2dVertex
 10
-72.32927377984743
 20
73.97161872091601
 30
0.0
  0
VERTEX
  5
490
100
AcDbEntity
  8
L1
100
AcDbVertex
100
AcDb2dVertex
 10
-72.21612681841202
 20
74.02504858966506
 30
0.0
  0
VERTEX
  5
491
100
AcDbEntity
  8
L1
100
AcDbVertex
100
AcDb2dVertex
 10
-72.18228756559199
 20
74.05676356253877
 30
0.0
  0
VERTEX
  5
492
100
AcDbEntity
  8
L1
100
AcDbVertex
100
AcDb2dVertex
 10
-72.17689396683443
 20
74.0629963325377
 30
0.0
  0
SEQEND
  5
493
100
AcDbEntity
  8
L1
  0
POLYLINE
  5
41
100
AcDbEntity
  8
L1
100
AcDb2dPolyline
 66
     1
 10
0.0
 20
0.0
 30
0.0
  0
VERTEX
  5
494
100
AcDbEntity
  8
L1
100
AcDbVertex
100
AcDb2dVertex
 10
-72.17200962782033
 20
72.85813597200075
 30
0.0
  0
VERTEX
  5
495
100
AcDbEntity
  8
L1
100
AcDbVertex
100
AcDb2dVertex
 10
-72.20277586137263
 20
72.900185652787
 30
0.0
  0
VERTEX
  5
496
100
AcDbEntity
  8
L1
100
AcDbVertex
100
AcDb2dVertex
 10
-72.23685030519971
 20
72.93187088829637
 30
0.0
  0
VERTEX
  5
497
100
AcDbEntity
  8
L1
100
AcDbVertex
100
AcDb2dVertex
 10
-72.35081788912748
 20
72.98520044284401
 30
0.0
  0
VERTEX
  5
498
100
AcDbEntity
  8
L1
100
AcDbVertex
100
AcDb2dVertex
 10
-72.36335917492977
 20
72.98781561992996
 30
0.0
  0
SEQEND
  5
499
100
AcDbEntity
  8
L1
  0
ARC
  5
42
100
AcDbEntity
  8
L1
100
AcDbCircle
 10
-71.78870771971651
 20
69.19768609352598
 30
0.0
 40
1.097404786259289
100
AcDbArc
 50
180.0
 51
270.0
  0
ARC
  5
43
100
AcDbEntity
  8
L1
100
AcDbCircle
 10
-67.50690606935506
 20
73.47948774388737
 30
0.0
 40
4.70630101413334
100
AcDbArc
 50
195.0607978502589
 51
254.9392021498149
  0
LINE
  5
44
100
AcDbEntity
  8
L1
100
AcDbLine
 10
-72.8407099468642
 20
74.25765915132974
 30
0.0
 11
-72.8407099468642
 21
72.70131633644502
 31
0.0
  0
LINE
  5
45
100
AcDbEntity
  8
L1
100
AcDbLine
 10
-75.07810459424979
 20
77.72359636495474
 30
0.0
 11
-75.07810459424979
 21
68.70818260357248
 31
0.0
  0
POLYLINE
  5
46
100
AcDbEntity
  8
L1
100
AcDb2dPolyline
 66
     1
 10
0.0
 20
0.0
 30
0.0
  0
VERTEX
  5
49A
100
AcDbEntity
  8
L1
100
AcDbVertex
100
AcDb2dVertex
 10
-72.54072136994489
 20
73.00130491336426
 30
0.0
  0
VERTEX
  5
49B
100
AcDbEntity
  8
L1
100
AcDbVertex
100
AcDb2dVertex
 10
-72.75284671268775
 20
72.91344167918783
 30
0.0
  0
VERTEX
  5
49C
100
AcDbEntity
  8
L1
100
AcDbVertex
100
AcDb2dVertex
 10
-72.8407099468642
 20
72.70131633644502
 30
0.0
  0
SEQEND
  5
49D
100
AcDbEntity
  8
L1
  0
LINE
  5
47
100
AcDbEntity
  8
L1
100
AcDbLine
 10
-72.54072136994489
 20
73.00130491336426
 30
0.0
 11
-72.45230630277877
 21
73.00130491336426
 31
0.0
  0
LINE
  5
48
100
AcDbEntity
  8
L1
100
AcDbLine
 10
-72.54072136994489
 20
73.00130491336426
 30
0.0
 11
-72.53635793604928
 21
72.99694147946889
 31
0.0
  0
POLYLINE
  5
49
100
AcDbEntity
  8
L1
100
AcDb2dPolyline
 66
     1
 10
0.0
 20
0.0
 30
0.0
  0
VERTEX
  5
49E
100
AcDbEntity
  8
L1
100
AcDbVertex
100
AcDb2dVertex
 10
-72.36335917492977
 20
72.98781561992996
 30
0.0
  0
VERTEX
  5
49F
100
AcDbEntity
  8
L1
100
AcDbVertex
100
AcDb2dVertex
 10
-72.40732401782032
 20
72.99791342036098
 30
0.0
  0
VERTEX
  5
4A0
100
AcDbEntity
  8
L1
100
AcDbVertex
100
AcDb2dVertex
 10
-72.45230630277877
 20
73.00130491336432
 30
0.0
  0
SEQEND
  5
4A1
100
AcDbEntity
  8
L1
  0
LINE
  5
4A
100
AcDbEntity
  8
L1
100
AcDbLine
 10
-72.45596765855101
 20
72.99694147946889
 30
0.0
 11
-72.45230630277877
 21
73.00130491336426
 31
0.0
  0
LINE
  5
4B
100
AcDbEntity
  8
L1
100
AcDbLine
 10
-72.83634651296859
 20
72.69695290254964
 30
0.0
 11
-72.8407099468642
 21
72.70131633644502
 31
0.0
  0
POLYLINE
  5
4C
100
AcDbEntity
  8
L1
100
AcDb2dPolyline
 66
     1
 10
0.0
 20
0.0
 30
0.0
  0
VERTEX
  5
4A2
100
AcDbEntity
  8
L1
100
AcDbVertex
100
AcDb2dVertex
 10
-72.43234120560453
 20
73.95767057441054
 30
0.0
  0
VERTEX
  5
4A3
100
AcDbEntity
  8
L1
100
AcDbVertex
100
AcDb2dVertex
 10
-72.39790341902789
 20
73.9596537308596
 30
0.0
  0
VERTEX
  5
4A4
100
AcDbEntity
  8
L1
100
AcDbVertex
100
AcDb2dVertex
 10
-72.36392115033845
 20
73.96557698180851
 30
0.0
  0
SEQEND
  5
4A5
100
AcDbEntity
  8
L1
  0
LINE
  5
4D
100
AcDbEntity
  8
L1
100
AcDbLine
 10
-72.43234120560453
 20
73.95767057441048
 30
0.0
 11
-72.540721369945
 21
73.95767057441048
 31
0.0
  0
POLYLINE
  5
4E
100
AcDbEntity
  8
L1
100
AcDb2dPolyline
 66
     1
 10
0.0
 20
0.0
 30
0.0
  0
VERTEX
  5
4A6
100
AcDbEntity
  8
L1
100
AcDbVertex
100
AcDb2dVertex
 10
-72.8407099468643
 20
74.25765915132974
 30
0.0
  0
VERTEX
  5
4A7
100
AcDbEntity
  8
L1
100
AcDbVertex
100
AcDb2dVertex
 10
-72.75284671268787
 20
74.04553380858692
 30
0.0
  0
VERTEX
  5
4A8
100
AcDbEntity
  8
L1
100
AcDbVertex
100
AcDb2dVertex
 10
-72.540721369945
 20
73.95767057441048
 30
0.0
  0
SEQEND
  5
4A9
100
AcDbEntity
  8
L1
  0
CIRCLE
  5
4F
100
AcDbEntity
  8
L1
100
AcDbCircle
 10
-67.50690606935496
 20
73.47948774388732
 30
0.0
 40
2.271817169476896
  0
ARC
  5
50
100
AcDbEntity
  8
L1
100
AcDbCircle
 10
-67.50690606935506
 20
73.47948774388737
 30
0.0
 40
4.70630101413334
100
AcDbArc
 50
172.8778816874932
 51
187.5866542660259
  0
ARC
  5
51
100
AcDbEntity
  8
L1
100
AcDbCircle
 10
-67.50690606935506
 20
73.47948774388737
 30
0.0
 40
4.70630101413334
100
AcDbArc
 50
294.5139055063791
 51
155.4860944935755
  0
CIRCLE
  5
52
100
AcDbEntity
  8
L1
100
AcDbCircle
 10
-67.50690606935506
 20
73.47948774388737
 30
0.0
 40
3.9
  0
CIRCLE
  5
53
100
AcDbEntity
  8
L1
100
AcDbCircle
 10
-67.50690606935506
 20
73.47948774388737
 30
0.0
 40
3.360549721400785
  0
ARC
  5
54
100
AcDbEntity
  8
L1
100
AcDbCircle
 10
-67.50690606935506
 20
73.47948774388737
 30
0.0
 40
4.70630101413334
100
AcDbArc
 50
262.4133457339544
 51
277.1221183125192
  0
LINE
  5
55
100
AcDbEntity
  8
L1
100
AcDbLine
 10
-68.28507747679726
 20
68.14568386637512
 30
0.0
 11
-66.72873466191266
 21
68.14568386637512
 31
0.0
  0
POLYLINE
  5
56
100
AcDbEntity
  8
L1
100
AcDb2dPolyline
 66
     1
 10
0.0
 20
0.0
 30
0.0
  0
VERTEX
  5
4AA
100
AcDbEntity
  8
L1
100
AcDbVertex
100
AcDb2dVertex
 10
-71.89505388651548
 20
71.24341818687355
 30
0.0
  0
VERTEX
  5
4AB
100
AcDbEntity
  8
L1
100
AcDbVertex
100
AcDb2dVertex
 10
-71.93279144484586
 20
71.50190924768674
 30
0.0
  0
VERTEX
  5
4AC
100
AcDbEntity
  8
L1
100
AcDbVertex
100
AcDb2dVertex
 10
-71.97131644756507
 20
71.75606171080545
 30
0.0
  0
VERTEX
  5
4AD
100
AcDbEntity
  8
L1
100
AcDbVertex
100
AcDb2dVertex
 10
-72.01083097081379
 20
72.00718982813111
 30
0.0
  0
VERTEX
  5
4AE
100
AcDbEntity
  8
L1
100
AcDbVertex
100
AcDb2dVertex
 10
-72.05154867346846
 20
72.25658429859419
 30
0.0
  0
SEQEND
  5
4AF
100
AcDbEntity
  8
L1
  0
LINE
  5
57
100
AcDbEntity
  8
L1
100
AcDbLine
 10
-72.05154867346834
 20
72.25658429859397
 30
0.0
 11
-72.17200962782033
 21
72.85813597200075
 31
0.0
  0
LINE
  5
58
100
AcDbEntity
  8
L1
100
AcDbLine
 10
-68.21553127151287
 20
68.84416400991733
 30
0.0
 11
-68.72980951464263
 21
68.93484513977245
 31
0.0
  0
POLYLINE
  5
59
100
AcDbEntity
  8
L1
100
AcDb2dPolyline
 66
     1
 10
0.0
 20
0.0
 30
0.0
  0
VERTEX
  5
4B0
100
AcDbEntity
  8
L1
100
AcDbVertex
100
AcDb2dVertex
 10
-68.72980951464263
 20
68.9348451397725
 30
0.0
  0
VERTEX
  5
4B1
100
AcDbEntity
  8
L1
100
AcDbVertex
100
AcDb2dVertex
 10
-68.97920398510689
 20
68.97556284242745
 30
0.0
  0
VERTEX
  5
4B2
100
AcDbEntity
  8
L1
100
AcDbVertex
100
AcDb2dVertex
 10
-69.23033210243364
 20
69.01507736567623
 30
0.0
  0
VERTEX
  5
4B3
100
AcDbEntity
  8
L1
100
AcDbVertex
100
AcDb2dVertex
 10
-69.4844845655532
 20
69.0536023683955
 30
0.0
  0
VERTEX
  5
4B4
100
AcDbEntity
  8
L1
100
AcDbVertex
100
AcDb2dVertex
 10
-69.7429756263673
 20
69.09133992672611
 30
0.0
  0
SEQEND
  5
4B5
100
AcDbEntity
  8
L1
  0
POLYLINE
  5
5A
100
AcDbEntity
  8
L1
100
AcDb2dPolyline
 66
     1
 10
0.0
 20
0.0
 30
0.0
  0
VERTEX
  5
4B6
100
AcDbEntity
  8
L1
100
AcDbVertex
100
AcDb2dVertex
 10
-67.99857819331259
 20
68.62303463831267
 30
0.0
  0
VERTEX
  5
4B7
100
AcDbEntity
  8
L1
100
AcDbVertex
100
AcDb2dVertex
 10
-68.00119337039837
 20
68.63557592411445
 30
0.0
  0
VERTEX
  5
4B8
100
AcDbEntity
  8
L1
100
AcDbVertex
100
AcDb2dVertex
 10
-68.05452292494601
 20
68.74954350804199
 30
0.0
  0
VERTEX
  5
4B9
100
AcDbEntity
  8
L1
100
AcDbVertex
100
AcDb2dVertex
 10
-68.08620816045527
 20
68.78361795186913
 30
0.0
  0
VERTEX
  5
4BA
100
AcDbEntity
  8
L1
100
AcDbVertex
100
AcDb2dVertex
 10
-68.12825784124322
 20
68.81438418542228
 30
0.0
  0
SEQEND
  5
4BB
100
AcDbEntity
  8
L1
  0
POLYLINE
  5
5B
100
AcDbEntity
  8
L1
100
AcDb2dPolyline
 66
     1
 10
0.0
 20
0.0
 30
0.0
  0
VERTEX
  5
4BC
100
AcDbEntity
  8
L1
100
AcDbVertex
100
AcDb2dVertex
 10
-68.12825784124322
 20
68.81438418542228
 30
0.0
  0
VERTEX
  5
4BD
100
AcDbEntity
  8
L1
100
AcDbVertex
100
AcDb2dVertex
 10
-68.17074329037495
 20
68.8326473898112
 30
0.0
  0
VERTEX
  5
4BE
100
AcDbEntity
  8
L1
100
AcDbVertex
100
AcDb2dVertex
 10
-68.21553127151287
 20
68.84416400991733
 30
0.0
  0
SEQEND
  5
4BF
100
AcDbEntity
  8
L1
  0
LINE
  5
5C
100
AcDbEntity
  8
L1
100
AcDbLine
 10
-67.99857819331259
 20
68.62303463831267
 30
0.0
 11
-67.98508889987807
 21
68.44567244329437
 31
0.0
  0
POLYLINE
  5
5D
100
AcDbEntity
  8
L1
100
AcDb2dPolyline
 66
     1
 10
0.0
 20
0.0
 30
0.0
  0
VERTEX
  5
4C0
100
AcDbEntity
  8
L1
100
AcDbVertex
100
AcDb2dVertex
 10
-68.28507747679726
 20
68.14568386637517
 30
0.0
  0
VERTEX
  5
4C1
100
AcDbEntity
  8
L1
100
AcDbVertex
100
AcDb2dVertex
 10
-68.0729521340545
 20
68.23354710055162
 30
0.0
  0
VERTEX
  5
4C2
100
AcDbEntity
  8
L1
100
AcDbVertex
100
AcDb2dVertex
 10
-67.98508889987807
 20
68.44567244329437
 30
0.0
  0
SEQEND
  5
4C3
100
AcDbEntity
  8
L1
  0
ARC
  5
5E
100
AcDbEntity
  8
L1
100
AcDbCircle
 10
-67.50690606935506
 20
73.47948774388737
 30
0.0
 40
4.925022672948151
100
AcDbArc
 50
207.0020375494669
 51
242.9979624505536
  0
LINE
  5
5F
100
AcDbEntity
  8
L1
100
AcDbLine
 10
-65.55419553649278
 20
69.1974098825587
 30
0.0
 11
-66.82383115451409
 21
68.85721204402813
 31
0.0
  0
LINE
  5
60
100
AcDbEntity
  8
L1
100
AcDbLine
 10
-67.02872323883184
 20
68.44567244329437
 30
0.0
 11
-67.02872323883184
 21
68.55405260763735
 31
0.0
  0
POLYLINE
  5
61
100
AcDbEntity
  8
L1
100
AcDb2dPolyline
 66
     1
 10
0.0
 20
0.0
 30
0.0
  0
VERTEX
  5
4C4
100
AcDbEntity
  8
L1
100
AcDbVertex
100
AcDb2dVertex
 10
-66.82383115451409
 20
68.85721204402813
 30
0.0
  0
VERTEX
  5
4C5
100
AcDbEntity
  8
L1
100
AcDbVertex
100
AcDb2dVertex
 10
-66.87582841458357
 20
68.83797576790311
 30
0.0
  0
VERTEX
  5
4C6
100
AcDbEntity
  8
L1
100
AcDbVertex
100
AcDb2dVertex
 10
-66.92339748070367
 20
68.80949984640813
 30
0.0
  0
SEQEND
  5
4C7
100
AcDbEntity
  8
L1
  0
POLYLINE
  5
62
100
AcDbEntity
  8
L1
100
AcDb2dPolyline
 66
     1
 10
0.0
 20
0.0
 30
0.0
  0
VERTEX
  5
4C8
100
AcDbEntity
  8
L1
100
AcDbVertex
100
AcDb2dVertex
 10
-66.92339748070367
 20
68.80949984640813
 30
0.0
  0
VERTEX
  5
4C9
100
AcDbEntity
  8
L1
100
AcDbVertex
100
AcDb2dVertex
 10
-66.92963025070366
 20
68.80410624764983
 30
0.0
  0
VERTEX
  5
4CA
100
AcDbEntity
  8
L1
100
AcDbVertex
100
AcDb2dVertex
 10
-66.96134522357716
 20
68.77026699482979
 30
0.0
  0
VERTEX
  5
4CB
100
AcDbEntity
  8
L1
100
AcDbVertex
100
AcDb2dVertex
 10
-67.01477509232621
 20
68.6571200333945
 30
0.0
  0
VERTEX
  5
4CC
100
AcDbEntity
  8
L1
100
AcDbVertex
100
AcDb2dVertex
 10
-67.02081683143376
 20
68.62247266290393
 30
0.0
  0
SEQEND
  5
4CD
100
AcDbEntity
  8
L1
  0
POLYLINE
  5
63
100
AcDbEntity
  8
L1
100
AcDb2dPolyline
 66
     1
 10
0.0
 20
0.0
 30
0.0
  0
VERTEX
  5
4CE
100
AcDbEntity
  8
L1
100
AcDbVertex
100
AcDb2dVertex
 10
-67.02081683143376
 20
68.62247266290393
 30
0.0
  0
VERTEX
  5
4CF
100
AcDbEntity
  8
L1
100
AcDbVertex
100
AcDb2dVertex
 10
-67.02674008238273
 20
68.58849039421426
 30
0.0
  0
VERTEX
  5
4D0
100
AcDbEntity
  8
L1
100
AcDbVertex
100
AcDb2dVertex
 10
-67.02872323883195
 20
68.55405260763735
 30
0.0
  0
SEQEND
  5
4D1
100
AcDbEntity
  8
L1
  0
POLYLINE
  5
64
100
AcDbEntity
  8
L1
100
AcDb2dPolyline
 66
     1
 10
0.0
 20
0.0
 30
0.0
  0
VERTEX
  5
4D2
100
AcDbEntity
  8
L1
100
AcDbVertex
100
AcDb2dVertex
 10
-67.02872323883184
 20
68.44567244329437
 30
0.0
  0
VERTEX
  5
4D3
100
AcDbEntity
  8
L1
100
AcDbVertex
100
AcDb2dVertex
 10
-66.9408600046554
 20
68.23354710055162
 30
0.0
  0
VERTEX
  5
4D4
100
AcDbEntity
  8
L1
100
AcDbVertex
100
AcDb2dVertex
 10
-66.72873466191266
 20
68.14568386637517
 30
0.0
  0
SEQEND
  5
4D5
100
AcDbEntity
  8
L1
  0
POLYLINE
  5
65
100
AcDbEntity
  8
L1
100
AcDb2dPolyline
 66
     1
 10
0.0
 20
0.0
 30
0.0
  0
VERTEX
  5
4D6
100
AcDbEntity
  8
L1
100
AcDbVertex
100
AcDb2dVertex
 10
-64.33962593207263
 20
69.48219659462438
 30
0.0
  0
VERTEX
  5
4D7
100
AcDbEntity
  8
L1
100
AcDbVertex
100
AcDb2dVertex
 10
-64.65522378676292
 20
69.41124649057321
 30
0.0
  0
VERTEX
  5
4D8
100
AcDbEntity
  8
L1
100
AcDbVertex
100
AcDb2dVertex
 10
-64.96133400953102
 20
69.34048276605841
 30
0.0
  0
VERTEX
  5
4D9
100
AcDbEntity
  8
L1
100
AcDbVertex
100
AcDb2dVertex
 10
-65.26025930540106
 20
69.26938053623939
 30
0.0
  0
VERTEX
  5
4DA
100
AcDbEntity
  8
L1
100
AcDbVertex
100
AcDb2dVertex
 10
-65.55419553649233
 20
69.19740988255881
 30
0.0
  0
SEQEND
  5
4DB
100
AcDbEntity
  8
L1
  0
LINE
  5
66
100
AcDbEntity
  8
L1
100
AcDbLine
 10
-72.1291817692138
 20
74.16256265872829
 30
0.0
 11
-71.7889839306822
 21
75.43219827675319
 31
0.0
  0
POLYLINE
  5
67
100
AcDbEntity
  8
L1
100
AcDb2dPolyline
 66
     1
 10
0.0
 20
0.0
 30
0.0
  0
VERTEX
  5
4DC
100
AcDbEntity
  8
L1
100
AcDbVertex
100
AcDb2dVertex
 10
-72.17689396683443
 20
74.0629963325377
 30
0.0
  0
VERTEX
  5
4DD
100
AcDbEntity
  8
L1
100
AcDbVertex
100
AcDb2dVertex
 10
-72.14841804533898
 20
74.11056539865825
 30
0.0
  0
VERTEX
  5
4DE
100
AcDbEntity
  8
L1
100
AcDbVertex
100
AcDb2dVertex
 10
-72.1291817692138
 20
74.16256265872829
 30
0.0
  0
SEQEND
  5
4DF
100
AcDbEntity
  8
L1
  0
POLYLINE
  5
68
100
AcDbEntity
  8
L1
100
AcDb2dPolyline
 66
     1
 10
0.0
 20
0.0
 30
0.0
  0
VERTEX
  5
4E0
100
AcDbEntity
  8
L1
100
AcDbVertex
100
AcDb2dVertex
 10
-71.7889839306822
 20
75.43219827675284
 30
0.0
  0
VERTEX
  5
4E1
100
AcDbEntity
  8
L1
100
AcDbVertex
100
AcDb2dVertex
 10
-71.7170132770018
 20
75.72613450784388
 30
0.0
  0
VERTEX
  5
4E2
100
AcDbEntity
  8
L1
100
AcDbVertex
100
AcDb2dVertex
 10
-71.64591104718295
 20
76.02505980371347
 30
0.0
  0
VERTEX
  5
4E3
100
AcDbEntity
  8
L1
100
AcDbVertex
100
AcDb2dVertex
 10
-71.57514732266827
 20
76.33117002648106
 30
0.0
  0
VERTEX
  5
4E4
100
AcDbEntity
  8
L1
100
AcDbVertex
100
AcDb2dVertex
 10
-71.50419721861715
 20
76.64676788117083
 30
0.0
  0
SEQEND
  5
4E5
100
AcDbEntity
  8
L1
  0
ARC
  5
69
100
AcDbEntity
  8
L1
100
AcDbCircle
 10
-67.50690606935506
 20
73.47948774388737
 30
0.0
 40
5.099999999999999
100
AcDbArc
 50
33.27500200199673
 51
56.72499799800414
  0
LINE
  5
6A
100
AcDbEntity
  8
L1
100
AcDbLine
 10
-64.00831476419603
 20
78.45056601085071
 30
0.0
 11
-64.64145398024857
 21
77.81742679479816
 31
0.0
  0
LINE
  5
6B
100
AcDbEntity
  8
L1
100
AcDbLine
 10
-67.97998085192523
 20
79.80641296131676
 30
0.0
 11
-72.2800036980866
 21
79.80641296131676
 31
0.0
  0
LINE
  5
6C
100
AcDbEntity
  8
L1
100
AcDbLine
 10
-75.76342569090797
 20
79.72352021688204
 30
0.0
 11
-75.36082279315929
 21
79.72000675694596
 31
0.0
  0
POLYLINE
  5
6D
100
AcDbEntity
  8
L1
100
AcDb2dPolyline
 66
     1
 10
0.0
 20
0.0
 30
0.0
  0
VERTEX
  5
4E6
100
AcDbEntity
  8
L1
100
AcDbVertex
100
AcDb2dVertex
 10
-75.19490425673473
 20
79.88592529341071
 30
0.0
  0
VERTEX
  5
4E7
100
AcDbEntity
  8
L1
100
AcDbVertex
100
AcDb2dVertex
 10
-75.48547480124932
 20
79.88693694585231
 30
0.0
  0
VERTEX
  5
4E8
100
AcDbEntity
  8
L1
100
AcDbVertex
100
AcDb2dVertex
 10
-75.60178659861151
 20
79.88515930921983
 30
0.0
  0
SEQEND
  5
4E9
100
AcDbEntity
  8
L1
  0
LINE
  5
6E
100
AcDbEntity
  8
L1
100
AcDbLine
 10
-75.60178659861151
 20
79.88515930921988
 30
0.0
 11
-75.76342569090797
 21
79.72352021694184
 31
0.0
  0
ELLIPSE
  5
6F
100
AcDbEntity
  8
L1
100
AcDbEllipse
 10
-73.18610108289488
 20
79.80029273034745
 30
0.0
 11
-0.2121320343489897
 21
0.2121320343629324
 31
0.0
210
0.0
220
0.0
230
-1.0
 40
0.9999238504775656
 41
0.7854362395755265
 42
2.35615641394854
  0
ELLIPSE
  5
70
100
AcDbEntity
  8
L1
100
AcDbEllipse
 10
-74.59131435653808
 20
79.80029273034751
 30
0.0
 11
-0.2121320343557818
 21
-0.2121320343561951
 31
0.0
210
0.0
220
0.0
230
-1.0
 40
0.9999238504775703
 41
0.7854362396093614
 42
2.356156413982379
  0
ELLIPSE
  5
71
100
AcDbEntity
  8
L1
100
AcDbEllipse
 10
-75.36341781013743
 20
79.4200296018625
 30
0.0
 11
0.2121320343438322
 21
-0.2121320343680905
 31
0.0
210
0.0
220
0.0
230
-1.0
 40
0.9999238504775798
 41
-2.347505920200958
 42
-0.7854362396653705
  0
LINE
  5
72
100
AcDbEntity
  8
L1
100
AcDbLine
 10
-74.59131435653808
 20
80.1002813072667
 30
0.0
 11
-73.18610108289488
 21
80.1002813072667
 31
0.0
  0
POLYLINE
  5
73
100
AcDbEntity
  8
L1
100
AcDb2dPolyline
 66
     1
 10
0.0
 20
0.0
 30
0.0
  0
VERTEX
  5
4EA
100
AcDbEntity
  8
L1
100
AcDbVertex
100
AcDb2dVertex
 10
-75.10180563707933
 20
79.8703672125497
 30
0.0
  0
VERTEX
  5
4EB
100
AcDbEntity
  8
L1
100
AcDbVertex
100
AcDb2dVertex
 10
-75.19490425673473
 20
79.88592529341071
 30
0.0
  0
SEQEND
  5
4EC
100
AcDbEntity
  8
L1
  0
POLYLINE
  5
74
100
AcDbEntity
  8
L1
100
AcDb2dPolyline
 66
     1
 10
0.0
 20
0.0
 30
0.0
  0
VERTEX
  5
4ED
100
AcDbEntity
  8
L1
100
AcDbVertex
100
AcDb2dVertex
 10
-74.89743458750718
 20
79.5860242475544
 30
0.0
  0
VERTEX
  5
4EE
100
AcDbEntity
  8
L1
100
AcDbVertex
100
AcDb2dVertex
 10
-74.95382739620424
 20
79.76111085685539
 30
0.0
  0
VERTEX
  5
4EF
100
AcDbEntity
  8
L1
100
AcDbVertex
100
AcDb2dVertex
 10
-75.10180563707933
 20
79.8703672125497
 30
0.0
  0
SEQEND
  5
4F0
100
AcDbEntity
  8
L1
  0
POLYLINE
  5
75
100
AcDbEntity
  8
L1
100
AcDb2dPolyline
 66
     1
 10
0.0
 20
0.0
 30
0.0
  0
VERTEX
  5
4F1
100
AcDbEntity
  8
L1
100
AcDbVertex
100
AcDb2dVertex
 10
-72.2800036980866
 20
79.80641296131683
 30
0.0
  0
VERTEX
  5
4F2
100
AcDbEntity
  8
L1
100
AcDbVertex
100
AcDb2dVertex
 10
-72.70425438357233
 20
79.63068649296388
 30
0.0
  0
VERTEX
  5
4F3
100
AcDbEntity
  8
L1
100
AcDbVertex
100
AcDb2dVertex
 10
-72.87998085192521
 20
79.20643580747827
 30
0.0
  0
SEQEND
  5
4F4
100
AcDbEntity
  8
L1
  0
LINE
  5
76
100
AcDbEntity
  8
L1
100
AcDbLine
 10
-60.88611250597569
 20
67.80029273034751
 30
0.0
 11
-60.88611250597569
 21
66.39507945670448
 31
0.0
  0
POLYLINE
  5
77
100
AcDbEntity
  8
L1
100
AcDb2dPolyline
 66
     1
 10
0.0
 20
0.0
 30
0.0
  0
VERTEX
  5
4F5
100
AcDbEntity
  8
L1
100
AcDbVertex
100
AcDb2dVertex
 10
-61.10046851987249
 20
65.79148955650794
 30
0.0
  0
VERTEX
  5
4F6
100
AcDbEntity
  8
L1
100
AcDbVertex
100
AcDb2dVertex
 10
-61.11602660073344
 20
65.88458817616317
 30
0.0
  0
SEQEND
  5
4F7
100
AcDbEntity
  8
L1
  0
POLYLINE
  5
78
100
AcDbEntity
  8
L1
100
AcDb2dPolyline
 66
     1
 10
0.0
 20
0.0
 30
0.0
  0
VERTEX
  5
4F8
100
AcDbEntity
  8
L1
100
AcDbVertex
100
AcDb2dVertex
 10
-61.10123450406366
 20
65.38460721463104
 30
0.0
  0
VERTEX
  5
4F9
100
AcDbEntity
  8
L1
100
AcDbVertex
100
AcDb2dVertex
 10
-61.09945686743095
 20
65.50091901199329
 30
0.0
  0
VERTEX
  5
4FA
100
AcDbEntity
  8
L1
100
AcDbVertex
100
AcDb2dVertex
 10
-61.10046851987249
 20
65.79148955650794
 30
0.0
  0
SEQEND
  5
4FB
100
AcDbEntity
  8
L1
  0
ELLIPSE
  5
79
100
AcDbEntity
  8
L1
100
AcDbEllipse
 10
-61.5663642114398
 20
65.62297600310507
 30
0.0
 11
-0.2121320343557549
 21
0.2121320343561681
 31
0.0
210
0.0
220
0.0
230
-1.0
 40
0.9999238504775703
 41
0.7854362396074134
 42
2.347505920142613
  0
LINE
  5
7A
100
AcDbEntity
  8
L1
100
AcDbLine
 10
-61.26287359636046
 20
65.22296812233458
 30
0.0
 11
-61.26638705629659
 21
65.62557102008378
 31
0.0
  0
ELLIPSE
  5
7B
100
AcDbEntity
  8
L1
100
AcDbEllipse
 10
-61.18610108289487
 20
66.39507945670448
 30
0.0
 11
-0.2121320343489897
 21
-0.2121320343629324
 31
0.0
210
0.0
220
0.0
230
-1.0
 40
0.9999238504775656
 41
-2.35615641394854
 42
-0.7854362395755265
  0
LINE
  5
7C
100
AcDbEntity
  8
L1
100
AcDbLine
 10
-61.26287359636023
 20
65.22296812233458
 30
0.0
 11
-61.10123450406366
 21
65.38460721463104
 31
0.0
  0
POLYLINE
  5
7D
100
AcDbEntity
  8
L1
100
AcDb2dPolyline
 66
     1
 10
0.0
 20
0.0
 30
0.0
  0
VERTEX
  5
4FC
100
AcDbEntity
  8
L1
100
AcDbVertex
100
AcDb2dVertex
 10
-61.11602660073344
 20
65.88458817616317
 30
0.0
  0
VERTEX
  5
4FD
100
AcDbEntity
  8
L1
100
AcDbVertex
100
AcDb2dVertex
 10
-61.2252829564278
 20
66.03256641703826
 30
0.0
  0
VERTEX
  5
4FE
100
AcDbEntity
  8
L1
100
AcDbVertex
100
AcDb2dVertex
 10
-61.40036956572885
 20
66.08895922573532
 30
0.0
  0
SEQEND
  5
4FF
100
AcDbEntity
  8
L1
  0
POLYLINE
  5
7E
100
AcDbEntity
  8
L1
100
AcDb2dPolyline
 66
     1
 10
0.0
 20
0.0
 30
0.0
  0
VERTEX
  5
500
100
AcDbEntity
  8
L1
100
AcDbVertex
100
AcDb2dVertex
 10
-61.77995800576377
 20
68.10641296131672
 30
0.0
  0
VERTEX
  5
501
100
AcDbEntity
  8
L1
100
AcDbVertex
100
AcDb2dVertex
 10
-61.35570732027815
 20
68.2821394296696
 30
0.0
  0
VERTEX
  5
502
100
AcDbEntity
  8
L1
100
AcDbVertex
100
AcDb2dVertex
 10
-61.17998085192517
 20
68.70639011515516
 30
0.0
  0
SEQEND
  5
503
100
AcDbEntity
  8
L1
  0
ELLIPSE
  5
7F
100
AcDbEntity
  8
L1
100
AcDbEllipse
 10
-61.18610108289487
 20
67.80029273034751
 30
0.0
 11
-0.2121320343489897
 21
0.2121320343629324
 31
0.0
210
0.0
220
0.0
230
-1.0
 40
0.9999238504775656
 41
0.7854362395755265
 42
2.35615641394854
  0
LINE
  5
80
100
AcDbEntity
  8
L1
100
AcDbLine
 10
-61.17998085192528
 20
68.70639011515516
 30
0.0
 11
-61.17998085192528
 21
73.0064129613167
 31
0.0
  0
LINE
  5
81
100
AcDbEntity
  8
L1
100
AcDbLine
 10
92.49450262548611
 20
78.45056601085071
 30
0.0
 11
93.12764184153866
 21
77.81742679479816
 31
0.0
  0
ARC
  5
82
100
AcDbEntity
  8
L1
100
AcDbCircle
 10
95.99309393064515
 20
73.47948774388737
 30
0.0
 40
5.099999999999999
100
AcDbArc
 50
123.2750020019958
 51
146.7249979980032
  0
LINE
  5
83
100
AcDbEntity
  8
L6
 62
     1
100
AcDbLine
 10
89.53505809782479
 20
73.47948774388746
 30
0.0
 11
101.6113796206416
 21
73.47948774388746
 31
0.0
  0
ARC
  5
84
100
AcDbEntity
  8
L1
100
AcDbCircle
 10
96.46616871321533
 20
73.0064129613167
 30
0.0
 40
6.799999999999897
100
AcDbArc
 50
90.0
 51
180.0
  0
LINE
  5
85
100
AcDbEntity
  8
L1
100
AcDbLine
 10
100.7643990709601
 20
65.90828921899277
 30
0.0
 11
91.74898530957785
 21
65.90828921899277
 31
0.0
  0
POLYLINE
  5
86
100
AcDbEntity
  8
L1
100
AcDb2dPolyline
 66
     1
 10
0.0
 20
0.0
 30
0.0
  0
VERTEX
  5
504
100
AcDbEntity
  8
L1
100
AcDbVertex
100
AcDb2dVertex
 10
92.82581379336273
 20
69.48219659462438
 30
0.0
  0
VERTEX
  5
505
100
AcDbEntity
  8
L1
100
AcDbVertex
100
AcDb2dVertex
 10
93.14141164805301
 20
69.41124649057321
 30
0.0
  0
VERTEX
  5
506
100
AcDbEntity
  8
L1
100
AcDbVertex
100
AcDb2dVertex
 10
93.44752187082111
 20
69.34048276605841
 30
0.0
  0
VERTEX
  5
507
100
AcDbEntity
  8
L1
100
AcDbVertex
100
AcDb2dVertex
 10
93.74644716669115
 20
69.26938053623939
 30
0.0
  0
VERTEX
  5
508
100
AcDbEntity
  8
L1
100
AcDbVertex
100
AcDb2dVertex
 10
94.04038339778242
 20
69.19740988255881
 30
0.0
  0
SEQEND
  5
509
100
AcDbEntity
  8
L1
  0
LINE
  5
87
100
AcDbEntity
  8
L1
100
AcDbLine
 10
89.67228894418497
 20
66.09509087978523
 30
0.0
 11
100.5775974101676
 21
66.09509087978523
 31
0.0
  0
LINE
  5
88
100
AcDbEntity
  8
L1
100
AcDbLine
 10
100.2748955810065
 20
68.1002813072667
 30
0.0
 11
89.67228894418497
 21
68.1002813072667
 31
0.0
  0
CIRCLE
  5
89
100
AcDbEntity
  8
L1
100
AcDbCircle
 10
95.99309393064515
 20
73.47948774388737
 30
0.0
 40
3.360549721400785
  0
CIRCLE
  5
8A
100
AcDbEntity
  8
L1
100
AcDbCircle
 10
95.99309393064515
 20
73.47948774388737
 30
0.0
 40
3.9
  0
ARC
  5
8B
100
AcDbEntity
  8
L1
100
AcDbCircle
 10
95.99309393064515
 20
73.47948774388737
 30
0.0
 40
4.70630101413334
100
AcDbArc
 50
24.51390550642649
 51
245.4860944936208
  0
LINE
  5
8C
100
AcDbEntity
  8
L1
100
AcDbLine
 10
89.37230036726578
 20
67.80029273034751
 30
0.0
 11
89.37230036726578
 21
66.39507945670448
 31
0.0
  0
POLYLINE
  5
8D
100
AcDbEntity
  8
L1
100
AcDb2dPolyline
 66
     1
 10
0.0
 20
0.0
 30
0.0
  0
VERTEX
  5
50A
100
AcDbEntity
  8
L1
100
AcDbVertex
100
AcDb2dVertex
 10
89.58742236535375
 20
65.38460721463104
 30
0.0
  0
VERTEX
  5
50B
100
AcDbEntity
  8
L1
100
AcDbVertex
100
AcDb2dVertex
 10
89.58564472872103
 20
65.50091901199329
 30
0.0
  0
VERTEX
  5
50C
100
AcDbEntity
  8
L1
100
AcDbVertex
100
AcDb2dVertex
 10
89.58665638116258
 20
65.79148955650794
 30
0.0
  0
SEQEND
  5
50D
100
AcDbEntity
  8
L1
  0
POLYLINE
  5
8E
100
AcDbEntity
  8
L1
100
AcDb2dPolyline
 66
     1
 10
0.0
 20
0.0
 30
0.0
  0
VERTEX
  5
50E
100
AcDbEntity
  8
L1
100
AcDbVertex
100
AcDb2dVertex
 10
89.58665638116258
 20
65.79148955650794
 30
0.0
  0
VERTEX
  5
50F
100
AcDbEntity
  8
L1
100
AcDbVertex
100
AcDb2dVertex
 10
89.60221446202353
 20
65.88458817616317
 30
0.0
  0
SEQEND
  5
510
100
AcDbEntity
  8
L1
  0
POLYLINE
  5
8F
100
AcDbEntity
  8
L1
100
AcDb2dPolyline
 66
     1
 10
0.0
 20
0.0
 30
0.0
  0
VERTEX
  5
511
100
AcDbEntity
  8
L1
100
AcDbVertex
100
AcDb2dVertex
 10
89.60221446202353
 20
65.88458817616317
 30
0.0
  0
VERTEX
  5
512
100
AcDbEntity
  8
L1
100
AcDbVertex
100
AcDb2dVertex
 10
89.71147081771789
 20
66.03256641703826
 30
0.0
  0
VERTEX
  5
513
100
AcDbEntity
  8
L1
100
AcDbVertex
100
AcDb2dVertex
 10
89.88655742701894
 20
66.08895922573532
 30
0.0
  0
SEQEND
  5
514
100
AcDbEntity
  8
L1
  0
ELLIPSE
  5
90
100
AcDbEntity
  8
L1
100
AcDbEllipse
 10
89.67228894418497
 20
66.39507945670448
 30
0.0
 11
0.2121320343489897
 21
-0.2121320343629324
 31
0.0
210
0.0
220
0.0
230
1.0
 40
0.9999238504775656
 41
-2.35615641394854
 42
-0.7854362395755265
  0
ELLIPSE
  5
91
100
AcDbEntity
  8
L1
100
AcDbEllipse
 10
90.05255207272989
 20
65.62297600310507
 30
0.0
 11
0.2121320343557549
 21
0.2121320343561681
 31
0.0
210
0.0
220
0.0
230
1.0
 40
0.9999238504775703
 41
0.7854362396074134
 42
2.347505920142613
  0
LINE
  5
92
100
AcDbEntity
  8
L1
100
AcDbLine
 10
89.74906145765032
 20
65.22296812233458
 30
0.0
 11
89.58742236535375
 21
65.38460721463104
 31
0.0
  0
LINE
  5
93
100
AcDbEntity
  8
L1
100
AcDbLine
 10
89.74906145765055
 20
65.22296812233458
 30
0.0
 11
89.75257491758668
 21
65.62557102008378
 31
0.0
  0
ELLIPSE
  5
94
100
AcDbEntity
  8
L1
100
AcDbEllipse
 10
91.74898530957785
 20
65.92309376752371
 30
0.0
 11
1.69649782936798
 21
0.0
 31
0.0
210
0.0
220
0.0
230
1.0
 40
0.0087265354983806
 41
-3.132866339598172
 42
-1.570796326794896
  0
ARC
  5
95
100
AcDbEntity
  8
L1
100
AcDbCircle
 10
95.99309393064515
 20
73.47948774388737
 30
0.0
 40
5.099999999999999
100
AcDbArc
 50
146.7249979980023
 51
231.6082214206872
  0
ELLIPSE
  5
96
100
AcDbEntity
  8
L1
100
AcDbEllipse
 10
89.67228894418497
 20
67.80029273034751
 30
0.0
 11
0.2121320343489897
 21
0.2121320343629324
 31
0.0
210
0.0
220
0.0
230
1.0
 40
0.9999238504775656
 41
0.7854362395755265
 42
2.35615641394854
  0
POLYLINE
  5
97
100
AcDbEntity
  8
L1
100
AcDb2dPolyline
 66
     1
 10
0.0
 20
0.0
 30
0.0
  0
VERTEX
  5
515
100
AcDbEntity
  8
L1
100
AcDbVertex
100
AcDb2dVertex
 10
90.26614586705386
 20
68.10641296131672
 30
0.0
  0
VERTEX
  5
516
100
AcDbEntity
  8
L1
100
AcDbVertex
100
AcDb2dVertex
 10
89.84189518156824
 20
68.2821394296696
 30
0.0
  0
VERTEX
  5
517
100
AcDbEntity
  8
L1
100
AcDbVertex
100
AcDb2dVertex
 10
89.66616871321525
 20
68.70639011515516
 30
0.0
  0
SEQEND
  5
518
100
AcDbEntity
  8
L1
  0
LINE
  5
98
100
AcDbEntity
  8
L1
100
AcDbLine
 10
89.66616871321537
 20
68.70639011515516
 30
0.0
 11
89.66616871321537
 21
73.0064129613167
 31
0.0
  0
LINE
  5
99
100
AcDbEntity
  8
L1
100
AcDbLine
 10
91.65515487973436
 20
76.34493983299382
 30
0.0
 11
91.02201566368171
 21
76.97807904904647
 31
0.0
  0
ARC
  5
9A
100
AcDbEntity
  8
L1
100
AcDbCircle
 10
96.46616871321533
 20
73.0064129613167
 30
0.0
 40
6.738911925464585
100
AcDbArc
 50
126.111825543108
 51
143.8881744568853
  0
ARC
  5
9B
100
AcDbEntity
  8
L1
100
AcDbCircle
 10
95.99309393064515
 20
73.47948774388737
 30
0.0
 40
5.099999999999999
100
AcDbArc
 50
38.39177857932675
 51
123.2750020019958
  0
ELLIPSE
  5
9C
100
AcDbEntity
  8
L1
100
AcDbEllipse
 10
103.5494879070089
 20
77.72359636495474
 30
0.0
 11
0.0
 21
1.69649782936798
 31
0.0
210
0.0
220
0.0
230
1.0
 40
0.0087265354983806
 41
-1.570796326794896
 42
-0.0087263139916212
  0
LINE
  5
9D
100
AcDbEntity
  8
L6
 62
     1
100
AcDbLine
 10
95.99309393064505
 20
67.01641506980613
 30
0.0
 11
95.99309393064505
 21
79.09273659262303
 31
0.0
  0
LINE
  5
9E
100
AcDbEntity
  8
L1
100
AcDbLine
 10
103.3774907947473
 20
68.89498426436495
 30
0.0
 11
103.3774907947473
 21
79.80029273034751
 31
0.0
  0
LINE
  5
9F
100
AcDbEntity
  8
L1
100
AcDbLine
 10
101.3723003672656
 20
79.80029273034745
 30
0.0
 11
101.3723003672656
 21
69.19768609352598
 31
0.0
  0
POLYLINE
  5
A0
100
AcDbEntity
  8
L1
100
AcDb2dPolyline
 66
     1
 10
0.0
 20
0.0
 30
0.0
  0
VERTEX
  5
519
100
AcDbEntity
  8
L1
100
AcDbVertex
100
AcDb2dVertex
 10
100.5775974101676
 20
66.09509087978534
 30
0.0
  0
VERTEX
  5
51A
100
AcDbEntity
  8
L1
100
AcDbVertex
100
AcDb2dVertex
 10
100.8359432439557
 20
66.1070364939693
 30
0.0
  0
VERTEX
  5
51B
100
AcDbEntity
  8
L1
100
AcDbVertex
100
AcDb2dVertex
 10
101.0920835515659
 20
66.14276721511647
 30
0.0
  0
VERTEX
  5
51C
100
AcDbEntity
  8
L1
100
AcDbVertex
100
AcDb2dVertex
 10
101.3438332459376
 20
66.20197823084805
 30
0.0
  0
VERTEX
  5
51D
100
AcDbEntity
  8
L1
100
AcDbVertex
100
AcDb2dVertex
 10
101.5890446955447
 20
66.28416442260022
 30
0.0
  0
VERTEX
  5
51E
100
AcDbEntity
  8
L1
100
AcDbVertex
100
AcDb2dVertex
 10
101.8256260454556
 20
66.38862467469976
 30
0.0
  0
VERTEX
  5
51F
100
AcDbEntity
  8
L1
100
AcDbVertex
100
AcDb2dVertex
 10
102.0515590625726
 20
66.51446785545681
 30
0.0
  0
VERTEX
  5
520
100
AcDbEntity
  8
L1
100
AcDbVertex
100
AcDb2dVertex
 10
102.2649163528164
 20
66.66062041924885
 30
0.0
  0
VERTEX
  5
521
100
AcDbEntity
  8
L1
100
AcDbVertex
100
AcDb2dVertex
 10
102.4638778033804
 20
66.82583556474651
 30
0.0
  0
VERTEX
  5
522
100
AcDbEntity
  8
L1
100
AcDbVertex
100
AcDb2dVertex
 10
102.6467461097861
 20
67.00870387115219
 30
0.0
  0
VERTEX
  5
523
100
AcDbEntity
  8
L1
100
AcDbVertex
100
AcDb2dVertex
 10
102.8119612552838
 20
67.20766532171615
 30
0.0
  0
VERTEX
  5
524
100
AcDbEntity
  8
L1
100
AcDbVertex
100
AcDb2dVertex
 10
102.9581138190758
 20
67.42102261195999
 30
0.0
  0
VERTEX
  5
525
100
AcDbEntity
  8
L1
100
AcDbVertex
100
AcDb2dVertex
 10
103.0839569998328
 20
67.64695562907689
 30
0.0
  0
VERTEX
  5
526
100
AcDbEntity
  8
L1
100
AcDbVertex
100
AcDb2dVertex
 10
103.1884172519323
 20
67.88353697898782
 30
0.0
  0
VERTEX
  5
527
100
AcDbEntity
  8
L1
100
AcDbVertex
100
AcDb2dVertex
 10
103.2706034436845
 20
68.12874842859497
 30
0.0
  0
VERTEX
  5
528
100
AcDbEntity
  8
L1
100
AcDbVertex
100
AcDb2dVertex
 10
103.3298144594161
 20
68.38049812296674
 30
0.0
  0
VERTEX
  5
529
100
AcDbEntity
  8
L1
100
AcDbVertex
100
AcDb2dVertex
 10
103.3655451805633
 20
68.63663843057691
 30
0.0
  0
VERTEX
  5
52A
100
AcDbEntity
  8
L1
100
AcDbVertex
100
AcDb2dVertex
 10
103.3774907947472
 20
68.89498426436495
 30
0.0
  0
SEQEND
  5
52B
100
AcDbEntity
  8
L1
  0
POLYLINE
  5
A1
100
AcDbEntity
  8
L1
100
AcDb2dPolyline
 66
     1
 10
0.0
 20
0.0
 30
0.0
  0
VERTEX
  5
52C
100
AcDbEntity
  8
L1
100
AcDbVertex
100
AcDb2dVertex
 10
103.5642924555398
 20
68.70818260357248
 30
0.0
  0
VERTEX
  5
52D
100
AcDbEntity
  8
L1
100
AcDbVertex
100
AcDb2dVertex
 10
103.5508126121581
 20
68.4337363215268
 30
0.0
  0
VERTEX
  5
52E
100
AcDbEntity
  8
L1
100
AcDbVertex
100
AcDb2dVertex
 10
103.5104984095378
 20
68.16193512451793
 30
0.0
  0
VERTEX
  5
52F
100
AcDbEntity
  8
L1
100
AcDbVertex
100
AcDb2dVertex
 10
103.4437380578749
 20
67.89539635306204
 30
0.0
  0
VERTEX
  5
530
100
AcDbEntity
  8
L1
100
AcDbVertex
100
AcDb2dVertex
 10
103.351174433563
 20
67.63668667255046
 30
0.0
  0
VERTEX
  5
531
100
AcDbEntity
  8
L1
100
AcDbVertex
100
AcDb2dVertex
 10
103.2336988885418
 20
67.38829735725341
 30
0.0
  0
VERTEX
  5
532
100
AcDbEntity
  8
L1
100
AcDbVertex
100
AcDb2dVertex
 10
103.0924426669232
 20
67.15262030031147
 30
0.0
  0
VERTEX
  5
533
100
AcDbEntity
  8
L1
100
AcDbVertex
100
AcDb2dVertex
 10
102.9287660115464
 20
66.93192498072864
 30
0.0
  0
VERTEX
  5
534
100
AcDbEntity
  8
L1
100
AcDbVertex
100
AcDb2dVertex
 10
102.7442450653661
 20
66.72833660916643
 30
0.0
  0
VERTEX
  5
535
100
AcDbEntity
  8
L1
100
AcDbVertex
100
AcDb2dVertex
 10
102.5406566938039
 20
66.5438156629861
 30
0.0
  0
VERTEX
  5
536
100
AcDbEntity
  8
L1
100
AcDbVertex
100
AcDb2dVertex
 10
102.3199613742211
 20
66.38013900760938
 30
0.0
  0
VERTEX
  5
537
100
AcDbEntity
  8
L1
100
AcDbVertex
100
AcDb2dVertex
 10
102.0842843172791
 20
66.23888278599071
 30
0.0
  0
VERTEX
  5
538
100
AcDbEntity
  8
L1
100
AcDbVertex
100
AcDb2dVertex
 10
101.8358950019821
 20
66.12140724096957
 30
0.0
  0
VERTEX
  5
539
100
AcDbEntity
  8
L1
100
AcDbVertex
100
AcDb2dVertex
 10
101.5771853214705
 20
66.02884361665764
 30
0.0
  0
VERTEX
  5
53A
100
AcDbEntity
  8
L1
100
AcDbVertex
100
AcDb2dVertex
 10
101.3106465500146
 20
65.96208326499476
 30
0.0
  0
VERTEX
  5
53B
100
AcDbEntity
  8
L1
100
AcDbVertex
100
AcDb2dVertex
 10
101.0388453530058
 20
65.92176906237455
 30
0.0
  0
VERTEX
  5
53C
100
AcDbEntity
  8
L1
100
AcDbVertex
100
AcDb2dVertex
 10
100.7643990709601
 20
65.90828921899277
 30
0.0
  0
SEQEND
  5
53D
100
AcDbEntity
  8
L1
  0
POLYLINE
  5
A2
100
AcDbEntity
  8
L1
100
AcDb2dPolyline
 66
     1
 10
0.0
 20
0.0
 30
0.0
  0
VERTEX
  5
53E
100
AcDbEntity
  8
L1
100
AcDbVertex
100
AcDb2dVertex
 10
100.7930939306451
 20
65.1846821872773
 30
0.0
  0
VERTEX
  5
53F
100
AcDbEntity
  8
L1
100
AcDbVertex
100
AcDb2dVertex
 10
101.4647282044074
 20
65.25070693055766
 30
0.0
  0
VERTEX
  5
540
100
AcDbEntity
  8
L1
100
AcDbVertex
100
AcDb2dVertex
 10
102.1297312296973
 20
65.45203366952506
 30
0.0
  0
VERTEX
  5
541
100
AcDbEntity
  8
L1
100
AcDbVertex
100
AcDb2dVertex
 10
102.7418562914515
 20
65.78076191990596
 30
0.0
  0
VERTEX
  5
542
100
AcDbEntity
  8
L1
100
AcDbVertex
100
AcDb2dVertex
 10
103.2628499061887
 20
66.20973176834389
 30
0.0
  0
VERTEX
  5
543
100
AcDbEntity
  8
L1
100
AcDbVertex
100
AcDb2dVertex
 10
103.6918197546266
 20
66.73072538308105
 30
0.0
  0
VERTEX
  5
544
100
AcDbEntity
  8
L1
100
AcDbVertex
100
AcDb2dVertex
 10
104.0205480050076
 20
67.34285044483539
 30
0.0
  0
VERTEX
  5
545
100
AcDbEntity
  8
L1
100
AcDbVertex
100
AcDb2dVertex
 10
104.2218747439749
 20
68.00785347012521
 30
0.0
  0
VERTEX
  5
546
100
AcDbEntity
  8
L1
100
AcDbVertex
100
AcDb2dVertex
 10
104.2878994872553
 20
68.67948774388747
 30
0.0
  0
SEQEND
  5
547
100
AcDbEntity
  8
L1
  0
CIRCLE
  5
A3
100
AcDbEntity
  8
L1
100
AcDbCircle
 10
95.99309393064505
 20
73.47948774388732
 30
0.0
 40
2.271817169476896
  0
LINE
  5
A4
100
AcDbEntity
  8
L1
100
AcDbLine
 10
101.3268978081542
 20
74.25765915132974
 30
0.0
 11
101.3268978081542
 21
72.70131633644502
 31
0.0
  0
ARC
  5
A5
100
AcDbEntity
  8
L1
100
AcDbCircle
 10
95.99309393064515
 20
73.47948774388737
 30
0.0
 40
4.70630101413334
100
AcDbArc
 50
352.413345733974
 51
7.12211831250669
  0
POLYLINE
  5
A6
100
AcDbEntity
  8
L1
100
AcDb2dPolyline
 66
     1
 10
0.0
 20
0.0
 30
0.0
  0
VERTEX
  5
548
100
AcDbEntity
  8
L1
100
AcDbVertex
100
AcDb2dVertex
 10
97.21599737593273
 20
68.9348451397725
 30
0.0
  0
VERTEX
  5
549
100
AcDbEntity
  8
L1
100
AcDbVertex
100
AcDb2dVertex
 10
97.46539184639699
 20
68.97556284242745
 30
0.0
  0
VERTEX
  5
54A
100
AcDbEntity
  8
L1
100
AcDbVertex
100
AcDb2dVertex
 10
97.71651996372373
 20
69.01507736567623
 30
0.0
  0
VERTEX
  5
54B
100
AcDbEntity
  8
L1
100
AcDbVertex
100
AcDb2dVertex
 10
97.97067242684329
 20
69.0536023683955
 30
0.0
  0
VERTEX
  5
54C
100
AcDbEntity
  8
L1
100
AcDbVertex
100
AcDb2dVertex
 10
98.22916348765739
 20
69.09133992672611
 30
0.0
  0
SEQEND
  5
54D
100
AcDbEntity
  8
L1
  0
ARC
  5
A7
100
AcDbEntity
  8
L1
100
AcDbCircle
 10
95.99309393064515
 20
73.47948774388737
 30
0.0
 40
4.70630101413334
100
AcDbArc
 50
285.0607978501849
 51
344.939202149741
  0
POLYLINE
  5
A8
100
AcDbEntity
  8
L1
100
AcDb2dPolyline
 66
     1
 10
0.0
 20
0.0
 30
0.0
  0
VERTEX
  5
54E
100
AcDbEntity
  8
L1
100
AcDbVertex
100
AcDb2dVertex
 10
96.77126533808735
 20
68.14568386637517
 30
0.0
  0
VERTEX
  5
54F
100
AcDbEntity
  8
L1
100
AcDbVertex
100
AcDb2dVertex
 10
96.5591399953446
 20
68.23354710055162
 30
0.0
  0
VERTEX
  5
550
100
AcDbEntity
  8
L1
100
AcDbVertex
100
AcDb2dVertex
 10
96.47127676116816
 20
68.44567244329437
 30
0.0
  0
SEQEND
  5
551
100
AcDbEntity
  8
L1
  0
LINE
  5
A9
100
AcDbEntity
  8
L1
100
AcDbLine
 10
96.48476605460269
 20
68.62303463831267
 30
0.0
 11
96.47127676116816
 21
68.44567244329437
 31
0.0
  0
POLYLINE
  5
AA
100
AcDbEntity
  8
L1
100
AcDb2dPolyline
 66
     1
 10
0.0
 20
0.0
 30
0.0
  0
VERTEX
  5
552
100
AcDbEntity
  8
L1
100
AcDbVertex
100
AcDb2dVertex
 10
96.61444570253332
 20
68.81438418542228
 30
0.0
  0
VERTEX
  5
553
100
AcDbEntity
  8
L1
100
AcDbVertex
100
AcDb2dVertex
 10
96.65693115166504
 20
68.8326473898112
 30
0.0
  0
VERTEX
  5
554
100
AcDbEntity
  8
L1
100
AcDbVertex
100
AcDb2dVertex
 10
96.70171913280297
 20
68.84416400991733
 30
0.0
  0
SEQEND
  5
555
100
AcDbEntity
  8
L1
  0
POLYLINE
  5
AB
100
AcDbEntity
  8
L1
100
AcDb2dPolyline
 66
     1
 10
0.0
 20
0.0
 30
0.0
  0
VERTEX
  5
556
100
AcDbEntity
  8
L1
100
AcDbVertex
100
AcDb2dVertex
 10
96.48476605460269
 20
68.62303463831267
 30
0.0
  0
VERTEX
  5
557
100
AcDbEntity
  8
L1
100
AcDbVertex
100
AcDb2dVertex
 10
96.48738123168847
 20
68.63557592411445
 30
0.0
  0
VERTEX
  5
558
100
AcDbEntity
  8
L1
100
AcDbVertex
100
AcDb2dVertex
 10
96.5407107862361
 20
68.74954350804199
 30
0.0
  0
VERTEX
  5
559
100
AcDbEntity
  8
L1
100
AcDbVertex
100
AcDb2dVertex
 10
96.57239602174536
 20
68.78361795186913
 30
0.0
  0
VERTEX
  5
55A
100
AcDbEntity
  8
L1
100
AcDbVertex
100
AcDb2dVertex
 10
96.61444570253332
 20
68.81438418542228
 30
0.0
  0
SEQEND
  5
55B
100
AcDbEntity
  8
L1
  0
LINE
  5
AC
100
AcDbEntity
  8
L1
100
AcDbLine
 10
96.70171913280297
 20
68.84416400991733
 30
0.0
 11
97.21599737593273
 21
68.93484513977245
 31
0.0
  0
POLYLINE
  5
AD
100
AcDbEntity
  8
L1
100
AcDb2dPolyline
 66
     1
 10
0.0
 20
0.0
 30
0.0
  0
VERTEX
  5
55C
100
AcDbEntity
  8
L1
100
AcDbVertex
100
AcDb2dVertex
 10
95.51491110012193
 20
68.44567244329437
 30
0.0
  0
VERTEX
  5
55D
100
AcDbEntity
  8
L1
100
AcDbVertex
100
AcDb2dVertex
 10
95.4270478659455
 20
68.23354710055162
 30
0.0
  0
VERTEX
  5
55E
100
AcDbEntity
  8
L1
100
AcDbVertex
100
AcDb2dVertex
 10
95.21492252320275
 20
68.14568386637517
 30
0.0
  0
SEQEND
  5
55F
100
AcDbEntity
  8
L1
  0
LINE
  5
AE
100
AcDbEntity
  8
L1
100
AcDbLine
 10
96.77126533808735
 20
68.14568386637512
 30
0.0
 11
95.21492252320275
 21
68.14568386637512
 31
0.0
  0
POLYLINE
  5
AF
100
AcDbEntity
  8
L1
100
AcDb2dPolyline
 66
     1
 10
0.0
 20
0.0
 30
0.0
  0
VERTEX
  5
560
100
AcDbEntity
  8
L1
100
AcDbVertex
100
AcDb2dVertex
 10
95.50700469272385
 20
68.62247266290393
 30
0.0
  0
VERTEX
  5
561
100
AcDbEntity
  8
L1
100
AcDbVertex
100
AcDb2dVertex
 10
95.51292794367283
 20
68.58849039421426
 30
0.0
  0
VERTEX
  5
562
100
AcDbEntity
  8
L1
100
AcDbVertex
100
AcDb2dVertex
 10
95.51491110012205
 20
68.55405260763735
 30
0.0
  0
SEQEND
  5
563
100
AcDbEntity
  8
L1
  0
POLYLINE
  5
B0
100
AcDbEntity
  8
L1
100
AcDb2dPolyline
 66
     1
 10
0.0
 20
0.0
 30
0.0
  0
VERTEX
  5
564
100
AcDbEntity
  8
L1
100
AcDbVertex
100
AcDb2dVertex
 10
95.40958534199376
 20
68.80949984640813
 30
0.0
  0
VERTEX
  5
565
100
AcDbEntity
  8
L1
100
AcDbVertex
100
AcDb2dVertex
 10
95.41581811199376
 20
68.80410624764983
 30
0.0
  0
VERTEX
  5
566
100
AcDbEntity
  8
L1
100
AcDbVertex
100
AcDb2dVertex
 10
95.44753308486724
 20
68.77026699482979
 30
0.0
  0
VERTEX
  5
567
100
AcDbEntity
  8
L1
100
AcDbVertex
100
AcDb2dVertex
 10
95.5009629536163
 20
68.6571200333945
 30
0.0
  0
VERTEX
  5
568
100
AcDbEntity
  8
L1
100
AcDbVertex
100
AcDb2dVertex
 10
95.50700469272385
 20
68.62247266290393
 30
0.0
  0
SEQEND
  5
569
100
AcDbEntity
  8
L1
  0
POLYLINE
  5
B1
100
AcDbEntity
  8
L1
100
AcDb2dPolyline
 66
     1
 10
0.0
 20
0.0
 30
0.0
  0
VERTEX
  5
56A
100
AcDbEntity
  8
L1
100
AcDbVertex
100
AcDb2dVertex
 10
95.31001901580419
 20
68.85721204402813
 30
0.0
  0
VERTEX
  5
56B
100
AcDbEntity
  8
L1
100
AcDbVertex
100
AcDb2dVertex
 10
95.36201627587365
 20
68.83797576790311
 30
0.0
  0
VERTEX
  5
56C
100
AcDbEntity
  8
L1
100
AcDbVertex
100
AcDb2dVertex
 10
95.40958534199376
 20
68.80949984640813
 30
0.0
  0
SEQEND
  5
56D
100
AcDbEntity
  8
L1
  0
LINE
  5
B2
100
AcDbEntity
  8
L1
100
AcDbLine
 10
95.51491110012193
 20
68.44567244329437
 30
0.0
 11
95.51491110012193
 21
68.55405260763735
 31
0.0
  0
ARC
  5
B3
100
AcDbEntity
  8
L1
100
AcDbCircle
 10
95.99309393064515
 20
73.47948774388737
 30
0.0
 40
4.70630101413334
100
AcDbArc
 50
262.8778816874807
 51
277.5866542660455
  0
LINE
  5
B4
100
AcDbEntity
  8
L1
100
AcDbLine
 10
94.04038339778287
 20
69.1974098825587
 30
0.0
 11
95.31001901580419
 21
68.85721204402813
 31
0.0
  0
LINE
  5
B5
100
AcDbEntity
  8
L1
100
AcDbLine
 10
100.5377365347584
 20
72.25658429859397
 30
0.0
 11
100.6581974891104
 21
72.85813597200075
 31
0.0
  0
POLYLINE
  5
B6
100
AcDbEntity
  8
L1
100
AcDb2dPolyline
 66
     1
 10
0.0
 20
0.0
 30
0.0
  0
VERTEX
  5
56E
100
AcDbEntity
  8
L1
100
AcDbVertex
100
AcDb2dVertex
 10
100.3812417478055
 20
71.24341818687355
 30
0.0
  0
VERTEX
  5
56F
100
AcDbEntity
  8
L1
100
AcDbVertex
100
AcDb2dVertex
 10
100.4189793061359
 20
71.50190924768674
 30
0.0
  0
VERTEX
  5
570
100
AcDbEntity
  8
L1
100
AcDbVertex
100
AcDb2dVertex
 10
100.4575043088551
 20
71.75606171080545
 30
0.0
  0
VERTEX
  5
571
100
AcDbEntity
  8
L1
100
AcDbVertex
100
AcDb2dVertex
 10
100.4970188321038
 20
72.00718982813111
 30
0.0
  0
VERTEX
  5
572
100
AcDbEntity
  8
L1
100
AcDbVertex
100
AcDb2dVertex
 10
100.5377365347585
 20
72.25658429859419
 30
0.0
  0
SEQEND
  5
573
100
AcDbEntity
  8
L1
  0
LINE
  5
B7
100
AcDbEntity
  8
L1
100
AcDbLine
 10
101.3225343742586
 20
72.69695290254964
 30
0.0
 11
101.3268978081542
 21
72.70131633644502
 31
0.0
  0
LINE
  5
B8
100
AcDbEntity
  8
L1
100
AcDbLine
 10
100.942155519841
 20
72.99694147946889
 30
0.0
 11
100.9384941640688
 21
73.00130491336426
 31
0.0
  0
POLYLINE
  5
B9
100
AcDbEntity
  8
L1
100
AcDb2dPolyline
 66
     1
 10
0.0
 20
0.0
 30
0.0
  0
VERTEX
  5
574
100
AcDbEntity
  8
L1
100
AcDbVertex
100
AcDb2dVertex
 10
100.8495470362198
 20
72.98781561992996
 30
0.0
  0
VERTEX
  5
575
100
AcDbEntity
  8
L1
100
AcDbVertex
100
AcDb2dVertex
 10
100.8935118791103
 20
72.99791342036098
 30
0.0
  0
VERTEX
  5
576
100
AcDbEntity
  8
L1
100
AcDbVertex
100
AcDb2dVertex
 10
100.9384941640688
 20
73.00130491336432
 30
0.0
  0
SEQEND
  5
577
100
AcDbEntity
  8
L1
  0
POLYLINE
  5
BA
100
AcDbEntity
  8
L1
100
AcDb2dPolyline
 66
     1
 10
0.0
 20
0.0
 30
0.0
  0
VERTEX
  5
578
100
AcDbEntity
  8
L1
100
AcDbVertex
100
AcDb2dVertex
 10
100.6581974891104
 20
72.85813597200075
 30
0.0
  0
VERTEX
  5
579
100
AcDbEntity
  8
L1
100
AcDbVertex
100
AcDb2dVertex
 10
100.6889637226627
 20
72.900185652787
 30
0.0
  0
VERTEX
  5
57A
100
AcDbEntity
  8
L1
100
AcDbVertex
100
AcDb2dVertex
 10
100.7230381664897
 20
72.93187088829637
 30
0.0
  0
VERTEX
  5
57B
100
AcDbEntity
  8
L1
100
AcDbVertex
100
AcDb2dVertex
 10
100.8370057504175
 20
72.98520044284401
 30
0.0
  0
VERTEX
  5
57C
100
AcDbEntity
  8
L1
100
AcDbVertex
100
AcDb2dVertex
 10
100.8495470362198
 20
72.98781561992996
 30
0.0
  0
SEQEND
  5
57D
100
AcDbEntity
  8
L1
  0
LINE
  5
BB
100
AcDbEntity
  8
L1
100
AcDbLine
 10
101.0269092312349
 20
73.00130491336426
 30
0.0
 11
101.0225457973393
 21
72.99694147946889
 31
0.0
  0
LINE
  5
BC
100
AcDbEntity
  8
L1
100
AcDbLine
 10
101.0269092312349
 20
73.00130491336426
 30
0.0
 11
100.9384941640688
 21
73.00130491336426
 31
0.0
  0
POLYLINE
  5
BD
100
AcDbEntity
  8
L1
100
AcDb2dPolyline
 66
     1
 10
0.0
 20
0.0
 30
0.0
  0
VERTEX
  5
57E
100
AcDbEntity
  8
L1
100
AcDbVertex
100
AcDb2dVertex
 10
101.0269092312349
 20
73.00130491336426
 30
0.0
  0
VERTEX
  5
57F
100
AcDbEntity
  8
L1
100
AcDbVertex
100
AcDb2dVertex
 10
101.2390345739778
 20
72.91344167918783
 30
0.0
  0
VERTEX
  5
580
100
AcDbEntity
  8
L1
100
AcDbVertex
100
AcDb2dVertex
 10
101.3268978081542
 20
72.70131633644502
 30
0.0
  0
SEQEND
  5
581
100
AcDbEntity
  8
L1
  0
ARC
  5
BE
100
AcDbEntity
  8
L1
100
AcDbCircle
 10
100.2748955810065
 20
69.19768609352598
 30
0.0
 40
1.097404786259289
100
AcDbArc
 50
270.0
 51
0.0
  0
ARC
  5
BF
100
AcDbEntity
  8
L1
100
AcDbCircle
 10
95.99309393064515
 20
73.47948774388737
 30
0.0
 40
4.925022672948151
100
AcDbArc
 50
297.0020375494462
 51
332.997962450533
  0
POLYLINE
  5
C0
100
AcDbEntity
  8
L1
100
AcDb2dPolyline
 66
     1
 10
0.0
 20
0.0
 30
0.0
  0
VERTEX
  5
582
100
AcDbEntity
  8
L1
100
AcDbVertex
100
AcDb2dVertex
 10
100.2751717919722
 20
75.43219827675284
 30
0.0
  0
VERTEX
  5
583
100
AcDbEntity
  8
L1
100
AcDbVertex
100
AcDb2dVertex
 10
100.2032011382918
 20
75.72613450784388
 30
0.0
  0
VERTEX
  5
584
100
AcDbEntity
  8
L1
100
AcDbVertex
100
AcDb2dVertex
 10
100.132098908473
 20
76.02505980371347
 30
0.0
  0
VERTEX
  5
585
100
AcDbEntity
  8
L1
100
AcDbVertex
100
AcDb2dVertex
 10
100.0613351839583
 20
76.33117002648106
 30
0.0
  0
VERTEX
  5
586
100
AcDbEntity
  8
L1
100
AcDbVertex
100
AcDb2dVertex
 10
99.99038507990725
 20
76.64676788117083
 30
0.0
  0
SEQEND
  5
587
100
AcDbEntity
  8
L1
  0
POLYLINE
  5
C1
100
AcDbEntity
  8
L1
100
AcDb2dPolyline
 66
     1
 10
0.0
 20
0.0
 30
0.0
  0
VERTEX
  5
588
100
AcDbEntity
  8
L1
100
AcDbVertex
100
AcDb2dVertex
 10
100.6630818281245
 20
74.0629963325377
 30
0.0
  0
VERTEX
  5
589
100
AcDbEntity
  8
L1
100
AcDbVertex
100
AcDb2dVertex
 10
100.634605906629
 20
74.11056539865825
 30
0.0
  0
VERTEX
  5
58A
100
AcDbEntity
  8
L1
100
AcDbVertex
100
AcDb2dVertex
 10
100.6153696305039
 20
74.16256265872829
 30
0.0
  0
SEQEND
  5
58B
100
AcDbEntity
  8
L1
  0
LINE
  5
C2
100
AcDbEntity
  8
L1
100
AcDbLine
 10
100.6153696305039
 20
74.16256265872829
 30
0.0
 11
100.2751717919722
 21
75.43219827675319
 31
0.0
  0
POLYLINE
  5
C3
100
AcDbEntity
  8
L1
100
AcDb2dPolyline
 66
     1
 10
0.0
 20
0.0
 30
0.0
  0
VERTEX
  5
58C
100
AcDbEntity
  8
L1
100
AcDbVertex
100
AcDb2dVertex
 10
101.3268978081544
 20
74.25765915132974
 30
0.0
  0
VERTEX
  5
58D
100
AcDbEntity
  8
L1
100
AcDbVertex
100
AcDb2dVertex
 10
101.2390345739779
 20
74.04553380858692
 30
0.0
  0
VERTEX
  5
58E
100
AcDbEntity
  8
L1
100
AcDbVertex
100
AcDb2dVertex
 10
101.026909231235
 20
73.95767057441048
 30
0.0
  0
SEQEND
  5
58F
100
AcDbEntity
  8
L1
  0
LINE
  5
C4
100
AcDbEntity
  8
L1
100
AcDbLine
 10
100.9185290668946
 20
73.95767057441048
 30
0.0
 11
101.026909231235
 21
73.95767057441048
 31
0.0
  0
POLYLINE
  5
C5
100
AcDbEntity
  8
L1
100
AcDb2dPolyline
 66
     1
 10
0.0
 20
0.0
 30
0.0
  0
VERTEX
  5
590
100
AcDbEntity
  8
L1
100
AcDbVertex
100
AcDb2dVertex
 10
100.8501090116285
 20
73.96557698180846
 30
0.0
  0
VERTEX
  5
591
100
AcDbEntity
  8
L1
100
AcDbVertex
100
AcDb2dVertex
 10
100.8154616411375
 20
73.97161872091601
 30
0.0
  0
VERTEX
  5
592
100
AcDbEntity
  8
L1
100
AcDbVertex
100
AcDb2dVertex
 10
100.7023146797021
 20
74.02504858966506
 30
0.0
  0
VERTEX
  5
593
100
AcDbEntity
  8
L1
100
AcDbVertex
100
AcDb2dVertex
 10
100.668475426882
 20
74.05676356253877
 30
0.0
  0
VERTEX
  5
594
100
AcDbEntity
  8
L1
100
AcDbVertex
100
AcDb2dVertex
 10
100.6630818281245
 20
74.0629963325377
 30
0.0
  0
SEQEND
  5
595
100
AcDbEntity
  8
L1
  0
POLYLINE
  5
C6
100
AcDbEntity
  8
L1
100
AcDb2dPolyline
 66
     1
 10
0.0
 20
0.0
 30
0.0
  0
VERTEX
  5
596
100
AcDbEntity
  8
L1
100
AcDbVertex
100
AcDb2dVertex
 10
100.9185290668946
 20
73.95767057441054
 30
0.0
  0
VERTEX
  5
597
100
AcDbEntity
  8
L1
100
AcDbVertex
100
AcDb2dVertex
 10
100.8840912803179
 20
73.9596537308596
 30
0.0
  0
VERTEX
  5
598
100
AcDbEntity
  8
L1
100
AcDbVertex
100
AcDb2dVertex
 10
100.8501090116285
 20
73.96557698180851
 30
0.0
  0
SEQEND
  5
599
100
AcDbEntity
  8
L1
  0
LINE
  5
C7
100
AcDbEntity
  8
L1
100
AcDbLine
 10
103.5642924555398
 20
77.72359636495474
 30
0.0
 11
103.5642924555398
 21
68.70818260357248
 31
0.0
  0
LINE
  5
C8
100
AcDbEntity
  8
L1
100
AcDbLine
 10
103.0775022178281
 20
80.1002813072667
 30
0.0
 11
101.6722889441849
 21
80.1002813072667
 31
0.0
  0
LINE
  5
C9
100
AcDbEntity
  8
L1
100
AcDbLine
 10
96.46616871321533
 20
79.80641296131676
 30
0.0
 11
100.7661915593766
 21
79.80641296131676
 31
0.0
  0
POLYLINE
  5
CA
100
AcDbEntity
  8
L1
100
AcDb2dPolyline
 66
     1
 10
0.0
 20
0.0
 30
0.0
  0
VERTEX
  5
59A
100
AcDbEntity
  8
L1
100
AcDbVertex
100
AcDb2dVertex
 10
100.7661915593766
 20
79.80641296131683
 30
0.0
  0
VERTEX
  5
59B
100
AcDbEntity
  8
L1
100
AcDbVertex
100
AcDb2dVertex
 10
101.1904422448624
 20
79.63068649296388
 30
0.0
  0
VERTEX
  5
59C
100
AcDbEntity
  8
L1
100
AcDbVertex
100
AcDb2dVertex
 10
101.3661687132153
 20
79.20643580747827
 30
0.0
  0
SEQEND
  5
59D
100
AcDbEntity
  8
L1
  0
ELLIPSE
  5
CB
100
AcDbEntity
  8
L1
100
AcDbEllipse
 10
101.6722889441849
 20
79.80029273034745
 30
0.0
 11
0.2121320343489897
 21
0.2121320343629324
 31
0.0
210
0.0
220
0.0
230
1.0
 40
0.9999238504775656
 41
0.7854362395755265
 42
2.35615641394854
  0
POLYLINE
  5
CC
100
AcDbEntity
  8
L1
100
AcDb2dPolyline
 66
     1
 10
0.0
 20
0.0
 30
0.0
  0
VERTEX
  5
59E
100
AcDbEntity
  8
L1
100
AcDbVertex
100
AcDb2dVertex
 10
103.3836224487972
 20
79.5860242475544
 30
0.0
  0
VERTEX
  5
59F
100
AcDbEntity
  8
L1
100
AcDbVertex
100
AcDb2dVertex
 10
103.4400152574943
 20
79.76111085685539
 30
0.0
  0
VERTEX
  5
5A0
100
AcDbEntity
  8
L1
100
AcDbVertex
100
AcDb2dVertex
 10
103.5879934983694
 20
79.8703672125497
 30
0.0
  0
SEQEND
  5
5A1
100
AcDbEntity
  8
L1
  0
POLYLINE
  5
CD
100
AcDbEntity
  8
L1
100
AcDb2dPolyline
 66
     1
 10
0.0
 20
0.0
 30
0.0
  0
VERTEX
  5
5A2
100
AcDbEntity
  8
L1
100
AcDbVertex
100
AcDb2dVertex
 10
103.5879934983694
 20
79.8703672125497
 30
0.0
  0
VERTEX
  5
5A3
100
AcDbEntity
  8
L1
100
AcDbVertex
100
AcDb2dVertex
 10
103.6810921180248
 20
79.88592529341071
 30
0.0
  0
SEQEND
  5
5A4
100
AcDbEntity
  8
L1
  0
POLYLINE
  5
CE
100
AcDbEntity
  8
L1
100
AcDb2dPolyline
 66
     1
 10
0.0
 20
0.0
 30
0.0
  0
VERTEX
  5
5A5
100
AcDbEntity
  8
L1
100
AcDbVertex
100
AcDb2dVertex
 10
103.6810921180248
 20
79.88592529341071
 30
0.0
  0
VERTEX
  5
5A6
100
AcDbEntity
  8
L1
100
AcDbVertex
100
AcDb2dVertex
 10
103.9716626625394
 20
79.88693694585231
 30
0.0
  0
VERTEX
  5
5A7
100
AcDbEntity
  8
L1
100
AcDbVertex
100
AcDb2dVertex
 10
104.0879744599016
 20
79.88515930921983
 30
0.0
  0
SEQEND
  5
5A8
100
AcDbEntity
  8
L1
  0
LINE
  5
CF
100
AcDbEntity
  8
L1
100
AcDbLine
 10
104.249613552198
 20
79.72352021688204
 30
0.0
 11
103.8470106544493
 21
79.72000675694596
 31
0.0
  0
LINE
  5
D0
100
AcDbEntity
  8
L1
100
AcDbLine
 10
104.0879744599016
 20
79.88515930921988
 30
0.0
 11
104.249613552198
 21
79.72352021694184
 31
0.0
  0
ELLIPSE
  5
D1
100
AcDbEntity
  8
L1
100
AcDbEllipse
 10
103.8496056714275
 20
79.4200296018625
 30
0.0
 11
-0.2121320343438322
 21
-0.2121320343680905
 31
0.0
210
0.0
220
0.0
230
1.0
 40
0.9999238504775798
 41
-2.347505920200958
 42
-0.7854362396653705
  0
ELLIPSE
  5
D2
100
AcDbEntity
  8
L1
100
AcDbEllipse
 10
103.0775022178281
 20
79.80029273034751
 30
0.0
 11
0.2121320343557818
 21
-0.2121320343561951
 31
0.0
210
0.0
220
0.0
230
1.0
 40
0.9999238504775703
 41
0.7854362396093614
 42
2.356156413982379
  0
LINE
  5
F7
100
AcDbEntity
  8
L6
 62
     1
100
AcDbLine
 10
129.7114826656156
 20
129.8495860929731
 30
0.0
 11
160.1594922120911
 21
129.8495860929731
 31
0.0
  0
LINE
  5
F8
100
AcDbEntity
  8
L1
100
AcDbLine
 10
100.7880363788551
 20
195.2742969228222
 30
0.0
 11
-72.30184851756508
 21
195.2742969228222
 31
0.0
  0
LINE
  5
F9
100
AcDbEntity
  8
L1
100
AcDbLine
 10
89.58742236530758
 20
195.0743682731438
 30
0.0
 11
-61.10123450406388
 21
195.0743682731438
 31
0.0
  0
LINE
  5
FA
100
AcDbEntity
  8
L1
100
AcDbLine
 10
-71.78870771971651
 20
192.3586941805081
 30
0.0
 11
-61.18610108289487
 21
192.3586941805081
 31
0.0
  0
LINE
  5
FB
100
AcDbEntity
  8
L1
100
AcDbLine
 10
-61.18610108289487
 20
194.3638846079896
 30
0.0
 11
-72.09140954887755
 21
194.3638846079896
 31
0.0
  0
ELLIPSE
  5
FC
100
AcDbEntity
  8
L1
100
AcDbEllipse
 10
-63.26279744828775
 20
194.5358817202511
 30
0.0
 11
-1.69649782936798
 21
0.0
 31
0.0
210
0.0
220
0.0
230
1.0
 40
0.0087265354983806
 41
-3.132866339598172
 42
-1.570796326794896
  0
ARC
  5
FD
100
AcDbEntity
  8
L1
100
AcDbCircle
 10
-67.50690606935506
 20
186.9794877438874
 30
0.0
 40
5.099999999999999
100
AcDbArc
 50
326.7249979980023
 51
51.6082214206873
  0
LINE
  5
FE
100
AcDbEntity
  8
L1
100
AcDbLine
 10
-63.16896701844427
 20
184.114035654781
 30
0.0
 11
-62.53582780239162
 21
183.4808964387283
 31
0.0
  0
LINE
  5
FF
100
AcDbEntity
  8
L6
 62
     1
100
AcDbLine
 10
-76.25563631806961
 20
186.9794877438873
 30
0.0
 11
-58.75817582064065
 21
186.9794877438873
 31
0.0
  0
ARC
  5
100
100
AcDbEntity
  8
L1
100
AcDbCircle
 10
-67.97998085192523
 20
187.4525625264581
 30
0.0
 40
6.799999999999897
100
AcDbArc
 50
270.0
 51
0.0
  0
ARC
  5
101
100
AcDbEntity
  8
L1
100
AcDbCircle
 10
-67.97998085192523
 20
187.4525625264581
 30
0.0
 40
6.738911925464585
100
AcDbArc
 50
306.111825543108
 51
323.8881744568853
  0
POLYLINE
  5
102
100
AcDbEntity
  8
L1
100
AcDb2dPolyline
 66
     1
 10
0.0
 20
0.0
 30
0.0
  0
VERTEX
  5
602
100
AcDbEntity
  8
L1
100
AcDbVertex
100
AcDb2dVertex
 10
-72.30690606935502
 20
195.2742933004975
 30
0.0
  0
VERTEX
  5
603
100
AcDbEntity
  8
L1
100
AcDbVertex
100
AcDb2dVertex
 10
-72.9785403431174
 20
195.2082685572172
 30
0.0
  0
VERTEX
  5
604
100
AcDbEntity
  8
L1
100
AcDbVertex
100
AcDb2dVertex
 10
-73.64354336840722
 20
195.0069418182497
 30
0.0
  0
VERTEX
  5
605
100
AcDbEntity
  8
L1
100
AcDbVertex
100
AcDb2dVertex
 10
-74.25566843016145
 20
194.6782135678689
 30
0.0
  0
VERTEX
  5
606
100
AcDbEntity
  8
L1
100
AcDbVertex
100
AcDb2dVertex
 10
-74.77666204489867
 20
194.2492437194309
 30
0.0
  0
VERTEX
  5
607
100
AcDbEntity
  8
L1
100
AcDbVertex
100
AcDb2dVertex
 10
-75.20563189333654
 20
193.7282501046938
 30
0.0
  0
VERTEX
  5
608
100
AcDbEntity
  8
L1
100
AcDbVertex
100
AcDb2dVertex
 10
-75.53436014371754
 20
193.1161250429394
 30
0.0
  0
VERTEX
  5
609
100
AcDbEntity
  8
L1
100
AcDbVertex
100
AcDb2dVertex
 10
-75.73568688268483
 20
192.4511220176496
 30
0.0
  0
VERTEX
  5
60A
100
AcDbEntity
  8
L1
100
AcDbVertex
100
AcDb2dVertex
 10
-75.80171162596525
 20
191.7794877438874
 30
0.0
  0
SEQEND
  5
60B
100
AcDbEntity
  8
L1
  0
LINE
  5
103
100
AcDbEntity
  8
L6
 62
     1
100
AcDbLine
 10
-67.50690606935496
 20
176.840622052889
 30
0.0
 11
-67.50690606935496
 21
195.7744250019237
 31
0.0
  0
CIRCLE
  5
104
100
AcDbEntity
  8
L1
100
AcDbCircle
 10
-67.50690606935506
 20
186.9794877438874
 30
0.0
 40
3.9
  0
LINE
  5
105
100
AcDbEntity
  8
L1
100
AcDbLine
 10
-72.88611250597558
 20
180.6586827574274
 30
0.0
 11
-72.88611250597558
 21
191.2612893942488
 31
0.0
  0
ARC
  5
106
100
AcDbEntity
  8
L1
100
AcDbCircle
 10
-67.50690606935506
 20
186.9794877438874
 30
0.0
 40
5.099999999999999
100
AcDbArc
 50
218.3917785793267
 51
303.2750020019958
  0
ARC
  5
107
100
AcDbEntity
  8
L1
100
AcDbCircle
 10
-67.50690606935506
 20
186.9794877438874
 30
0.0
 40
5.099999999999999
100
AcDbArc
 50
303.2750020019958
 51
326.7249979980032
  0
LINE
  5
108
100
AcDbEntity
  8
L1
100
AcDbLine
 10
-75.07810459424979
 20
182.7353791228201
 30
0.0
 11
-75.07810459424979
 21
191.7507928842023
 31
0.0
  0
LINE
  5
109
100
AcDbEntity
  8
L1
100
AcDbLine
 10
-74.89130293345727
 20
191.5639912234099
 30
0.0
 11
-74.89130293345727
 21
180.6586827574273
 31
0.0
  0
ARC
  5
10A
100
AcDbEntity
  8
L1
100
AcDbCircle
 10
-67.50690606935506
 20
186.9794877438874
 30
0.0
 40
4.70630101413334
100
AcDbArc
 50
204.5139055064222
 51
65.48609449362088
  0
LINE
  5
10B
100
AcDbEntity
  8
L1
100
AcDbLine
 10
-67.97998085192523
 20
180.652562526458
 30
0.0
 11
-72.2800036980866
 21
180.652562526458
 31
0.0
  0
LINE
  5
10C
100
AcDbEntity
  8
L1
100
AcDbLine
 10
-75.76342569090797
 20
180.7354552708928
 30
0.0
 11
-75.36082279315929
 21
180.7389687308289
 31
0.0
  0
POLYLINE
  5
10D
100
AcDbEntity
  8
L1
100
AcDb2dPolyline
 66
     1
 10
0.0
 20
0.0
 30
0.0
  0
VERTEX
  5
60C
100
AcDbEntity
  8
L1
100
AcDbVertex
100
AcDb2dVertex
 10
-75.19490425673473
 20
180.5730501943641
 30
0.0
  0
VERTEX
  5
60D
100
AcDbEntity
  8
L1
100
AcDbVertex
100
AcDb2dVertex
 10
-75.48547480124932
 20
180.5720385419225
 30
0.0
  0
VERTEX
  5
60E
100
AcDbEntity
  8
L1
100
AcDbVertex
100
AcDb2dVertex
 10
-75.60178659861151
 20
180.573816178555
 30
0.0
  0
SEQEND
  5
60F
100
AcDbEntity
  8
L1
  0
LINE
  5
10E
100
AcDbEntity
  8
L1
100
AcDbLine
 10
-75.60178659861151
 20
180.5738161785549
 30
0.0
 11
-75.76342569090797
 21
180.735455270833
 31
0.0
  0
ELLIPSE
  5
10F
100
AcDbEntity
  8
L1
100
AcDbEllipse
 10
-73.18610108289488
 20
180.6586827574274
 30
0.0
 11
-0.2121320343489897
 21
-0.2121320343629324
 31
0.0
210
0.0
220
0.0
230
1.0
 40
0.9999238504775656
 41
0.7854362395755265
 42
2.35615641394854
  0
LINE
  5
110
100
AcDbEntity
  8
L1
100
AcDbLine
 10
-74.59131435653808
 20
180.3586941805081
 30
0.0
 11
-73.18610108289488
 21
180.3586941805081
 31
0.0
  0
ELLIPSE
  5
111
100
AcDbEntity
  8
L1
100
AcDbEllipse
 10
-74.59131435653808
 20
180.6586827574273
 30
0.0
 11
-0.2121320343557818
 21
0.2121320343561951
 31
0.0
210
0.0
220
0.0
230
1.0
 40
0.9999238504775703
 41
0.7854362396093614
 42
2.356156413982379
  0
ELLIPSE
  5
112
100
AcDbEntity
  8
L1
100
AcDbEllipse
 10
-75.36341781013743
 20
181.0389458859123
 30
0.0
 11
0.2121320343438322
 21
0.2121320343680905
 31
0.0
210
0.0
220
0.0
230
1.0
 40
0.9999238504775798
 41
-2.347505920200959
 42
-0.7854362396653705
  0
POLYLINE
  5
113
100
AcDbEntity
  8
L1
100
AcDb2dPolyline
 66
     1
 10
0.0
 20
0.0
 30
0.0
  0
VERTEX
  5
610
100
AcDbEntity
  8
L1
100
AcDbVertex
100
AcDb2dVertex
 10
-75.10180563707933
 20
180.5886082752251
 30
0.0
  0
VERTEX
  5
611
100
AcDbEntity
  8
L1
100
AcDbVertex
100
AcDb2dVertex
 10
-75.19490425673473
 20
180.5730501943641
 30
0.0
  0
SEQEND
  5
612
100
AcDbEntity
  8
L1
  0
POLYLINE
  5
114
100
AcDbEntity
  8
L1
100
AcDb2dPolyline
 66
     1
 10
0.0
 20
0.0
 30
0.0
  0
VERTEX
  5
613
100
AcDbEntity
  8
L1
100
AcDbVertex
100
AcDb2dVertex
 10
-74.89743458750718
 20
180.8729512402204
 30
0.0
  0
VERTEX
  5
614
100
AcDbEntity
  8
L1
100
AcDbVertex
100
AcDb2dVertex
 10
-74.95382739620424
 20
180.6978646309194
 30
0.0
  0
VERTEX
  5
615
100
AcDbEntity
  8
L1
100
AcDbVertex
100
AcDb2dVertex
 10
-75.10180563707933
 20
180.5886082752251
 30
0.0
  0
SEQEND
  5
616
100
AcDbEntity
  8
L1
  0
POLYLINE
  5
115
100
AcDbEntity
  8
L1
100
AcDb2dPolyline
 66
     1
 10
0.0
 20
0.0
 30
0.0
  0
VERTEX
  5
617
100
AcDbEntity
  8
L1
100
AcDbVertex
100
AcDb2dVertex
 10
-72.2800036980866
 20
180.652562526458
 30
0.0
  0
VERTEX
  5
618
100
AcDbEntity
  8
L1
100
AcDbVertex
100
AcDb2dVertex
 10
-72.70425438357233
 20
180.8282889948109
 30
0.0
  0
VERTEX
  5
619
100
AcDbEntity
  8
L1
100
AcDbVertex
100
AcDb2dVertex
 10
-72.87998085192521
 20
181.2525396802966
 30
0.0
  0
SEQEND
  5
61A
100
AcDbEntity
  8
L1
  0
ELLIPSE
  5
116
100
AcDbEntity
  8
L1
100
AcDbEllipse
 10
-75.06330004571885
 20
182.7353791228201
 30
0.0
 11
0.0
 21
-1.69649782936798
 31
0.0
210
0.0
220
0.0
230
1.0
 40
0.0087265354983806
 41
-1.570796326794896
 42
-0.0087263139916212
  0
LINE
  5
117
100
AcDbEntity
  8
L1
100
AcDbLine
 10
-64.00831476419603
 20
182.0084094769241
 30
0.0
 11
-64.64145398024857
 21
182.6415486929766
 31
0.0
  0
LINE
  5
118
100
AcDbEntity
  8
L1
100
AcDbLine
 10
-72.27821120967007
 20
194.5506862687821
 30
0.0
 11
-63.26279744828775
 21
194.5506862687821
 31
0.0
  0
POLYLINE
  5
119
100
AcDbEntity
  8
L1
100
AcDb2dPolyline
 66
     1
 10
0.0
 20
0.0
 30
0.0
  0
VERTEX
  5
61B
100
AcDbEntity
  8
L1
100
AcDbVertex
100
AcDb2dVertex
 10
-72.09140954887755
 20
194.3638846079895
 30
0.0
  0
VERTEX
  5
61C
100
AcDbEntity
  8
L1
100
AcDbVertex
100
AcDb2dVertex
 10
-72.34975538266565
 20
194.3519389938055
 30
0.0
  0
VERTEX
  5
61D
100
AcDbEntity
  8
L1
100
AcDbVertex
100
AcDb2dVertex
 10
-72.60589569027581
 20
194.3162082726584
 30
0.0
  0
VERTEX
  5
61E
100
AcDbEntity
  8
L1
100
AcDbVertex
100
AcDb2dVertex
 10
-72.85764538464753
 20
194.2569972569268
 30
0.0
  0
VERTEX
  5
61F
100
AcDbEntity
  8
L1
100
AcDbVertex
100
AcDb2dVertex
 10
-73.10285683425468
 20
194.1748110651746
 30
0.0
  0
VERTEX
  5
620
100
AcDbEntity
  8
L1
100
AcDbVertex
100
AcDb2dVertex
 10
-73.3394381841656
 20
194.0703508130751
 30
0.0
  0
VERTEX
  5
621
100
AcDbEntity
  8
L1
100
AcDbVertex
100
AcDb2dVertex
 10
-73.56537120128257
 20
193.944507632318
 30
0.0
  0
VERTEX
  5
622
100
AcDbEntity
  8
L1
100
AcDbVertex
100
AcDb2dVertex
 10
-73.77872849152641
 20
193.798355068526
 30
0.0
  0
VERTEX
  5
623
100
AcDbEntity
  8
L1
100
AcDbVertex
100
AcDb2dVertex
 10
-73.97768994209036
 20
193.6331399230283
 30
0.0
  0
VERTEX
  5
624
100
AcDbEntity
  8
L1
100
AcDbVertex
100
AcDb2dVertex
 10
-74.16055824849604
 20
193.4502716166226
 30
0.0
  0
VERTEX
  5
625
100
AcDbEntity
  8
L1
100
AcDbVertex
100
AcDb2dVertex
 10
-74.3257733939937
 20
193.2513101660587
 30
0.0
  0
VERTEX
  5
626
100
AcDbEntity
  8
L1
100
AcDbVertex
100
AcDb2dVertex
 10
-74.47192595778574
 20
193.0379528758148
 30
0.0
  0
VERTEX
  5
627
100
AcDbEntity
  8
L1
100
AcDbVertex
100
AcDb2dVertex
 10
-74.59776913854273
 20
192.8120198586979
 30
0.0
  0
VERTEX
  5
628
100
AcDbEntity
  8
L1
100
AcDbVertex
100
AcDb2dVertex
 10
-74.70222939064228
 20
192.575438508787
 30
0.0
  0
VERTEX
  5
629
100
AcDbEntity
  8
L1
100
AcDbVertex
100
AcDb2dVertex
 10
-74.78441558239445
 20
192.3302270591799
 30
0.0
  0
VERTEX
  5
62A
100
AcDbEntity
  8
L1
100
AcDbVertex
100
AcDb2dVertex
 10
-74.84362659812609
 20
192.0784773648081
 30
0.0
  0
VERTEX
  5
62B
100
AcDbEntity
  8
L1
100
AcDbVertex
100
AcDb2dVertex
 10
-74.87935731927326
 20
191.8223370571979
 30
0.0
  0
VERTEX
  5
62C
100
AcDbEntity
  8
L1
100
AcDbVertex
100
AcDb2dVertex
 10
-74.89130293345716
 20
191.5639912234099
 30
0.0
  0
SEQEND
  5
62D
100
AcDbEntity
  8
L1
  0
POLYLINE
  5
11A
100
AcDbEntity
  8
L1
100
AcDb2dPolyline
 66
     1
 10
0.0
 20
0.0
 30
0.0
  0
VERTEX
  5
62E
100
AcDbEntity
  8
L1
100
AcDbVertex
100
AcDb2dVertex
 10
-72.17200962782033
 20
187.6008395157741
 30
0.0
  0
VERTEX
  5
62F
100
AcDbEntity
  8
L1
100
AcDbVertex
100
AcDb2dVertex
 10
-72.20277586137263
 20
187.5587898349878
 30
0.0
  0
VERTEX
  5
630
100
AcDbEntity
  8
L1
100
AcDbVertex
100
AcDb2dVertex
 10
-72.23685030519971
 20
187.5271045994784
 30
0.0
  0
VERTEX
  5
631
100
AcDbEntity
  8
L1
100
AcDbVertex
100
AcDb2dVertex
 10
-72.35081788912748
 20
187.4737750449308
 30
0.0
  0
VERTEX
  5
632
100
AcDbEntity
  8
L1
100
AcDbVertex
100
AcDb2dVertex
 10
-72.36335917492977
 20
187.4711598678448
 30
0.0
  0
SEQEND
  5
633
100
AcDbEntity
  8
L1
  0
POLYLINE
  5
11B
100
AcDbEntity
  8
L1
100
AcDb2dPolyline
 66
     1
 10
0.0
 20
0.0
 30
0.0
  0
VERTEX
  5
634
100
AcDbEntity
  8
L1
100
AcDbVertex
100
AcDb2dVertex
 10
-72.36392115033845
 20
186.4933985059664
 30
0.0
  0
VERTEX
  5
635
100
AcDbEntity
  8
L1
100
AcDbVertex
100
AcDb2dVertex
 10
-72.32927377984743
 20
186.4873567668588
 30
0.0
  0
VERTEX
  5
636
100
AcDbEntity
  8
L1
100
AcDbVertex
100
AcDb2dVertex
 10
-72.21612681841202
 20
186.4339268981098
 30
0.0
  0
VERTEX
  5
637
100
AcDbEntity
  8
L1
100
AcDbVertex
100
AcDb2dVertex
 10
-72.18228756559199
 20
186.402211925236
 30
0.0
  0
VERTEX
  5
638
100
AcDbEntity
  8
L1
100
AcDbVertex
100
AcDb2dVertex
 10
-72.17689396683443
 20
186.3959791552371
 30
0.0
  0
SEQEND
  5
639
100
AcDbEntity
  8
L1
  0
ARC
  5
11C
100
AcDbEntity
  8
L1
100
AcDbCircle
 10
-71.78870771971651
 20
191.2612893942488
 30
0.0
 40
1.097404786259289
100
AcDbArc
 50
90.0
 51
180.0
  0
POLYLINE
  5
11D
100
AcDbEntity
  8
L1
100
AcDb2dPolyline
 66
     1
 10
0.0
 20
0.0
 30
0.0
  0
VERTEX
  5
63A
100
AcDbEntity
  8
L1
100
AcDbVertex
100
AcDb2dVertex
 10
-72.54072136994489
 20
187.4576705744106
 30
0.0
  0
VERTEX
  5
63B
100
AcDbEntity
  8
L1
100
AcDbVertex
100
AcDb2dVertex
 10
-72.75284671268775
 20
187.545533808587
 30
0.0
  0
VERTEX
  5
63C
100
AcDbEntity
  8
L1
100
AcDbVertex
100
AcDb2dVertex
 10
-72.8407099468642
 20
187.7576591513298
 30
0.0
  0
SEQEND
  5
63D
100
AcDbEntity
  8
L1
  0
LINE
  5
11E
100
AcDbEntity
  8
L1
100
AcDbLine
 10
-72.8407099468642
 20
186.2013163364451
 30
0.0
 11
-72.8407099468642
 21
187.7576591513298
 31
0.0
  0
POLYLINE
  5
11F
100
AcDbEntity
  8
L1
100
AcDb2dPolyline
 66
     1
 10
0.0
 20
0.0
 30
0.0
  0
VERTEX
  5
63E
100
AcDbEntity
  8
L1
100
AcDbVertex
100
AcDb2dVertex
 10
-72.43234120560453
 20
186.5013049133643
 30
0.0
  0
VERTEX
  5
63F
100
AcDbEntity
  8
L1
100
AcDbVertex
100
AcDb2dVertex
 10
-72.39790341902789
 20
186.4993217569152
 30
0.0
  0
VERTEX
  5
640
100
AcDbEntity
  8
L1
100
AcDbVertex
100
AcDb2dVertex
 10
-72.36392115033845
 20
186.4933985059663
 30
0.0
  0
SEQEND
  5
641
100
AcDbEntity
  8
L1
  0
LINE
  5
120
100
AcDbEntity
  8
L1
100
AcDbLine
 10
-72.43234120560453
 20
186.5013049133643
 30
0.0
 11
-72.540721369945
 21
186.5013049133643
 31
0.0
  0
POLYLINE
  5
121
100
AcDbEntity
  8
L1
100
AcDb2dPolyline
 66
     1
 10
0.0
 20
0.0
 30
0.0
  0
VERTEX
  5
642
100
AcDbEntity
  8
L1
100
AcDbVertex
100
AcDb2dVertex
 10
-72.8407099468643
 20
186.2013163364451
 30
0.0
  0
VERTEX
  5
643
100
AcDbEntity
  8
L1
100
AcDbVertex
100
AcDb2dVertex
 10
-72.75284671268787
 20
186.4134416791879
 30
0.0
  0
VERTEX
  5
644
100
AcDbEntity
  8
L1
100
AcDbVertex
100
AcDb2dVertex
 10
-72.540721369945
 20
186.5013049133643
 30
0.0
  0
SEQEND
  5
645
100
AcDbEntity
  8
L1
  0
LINE
  5
122
100
AcDbEntity
  8
L1
100
AcDbLine
 10
-72.54072136994489
 20
187.4576705744106
 30
0.0
 11
-72.45230630277877
 21
187.4576705744106
 31
0.0
  0
LINE
  5
123
100
AcDbEntity
  8
L1
100
AcDbLine
 10
-72.54072136994489
 20
187.4576705744106
 30
0.0
 11
-72.53635793604928
 21
187.4620340083059
 31
0.0
  0
POLYLINE
  5
124
100
AcDbEntity
  8
L1
100
AcDb2dPolyline
 66
     1
 10
0.0
 20
0.0
 30
0.0
  0
VERTEX
  5
646
100
AcDbEntity
  8
L1
100
AcDbVertex
100
AcDb2dVertex
 10
-72.36335917492977
 20
187.4711598678448
 30
0.0
  0
VERTEX
  5
647
100
AcDbEntity
  8
L1
100
AcDbVertex
100
AcDb2dVertex
 10
-72.40732401782032
 20
187.4610620674138
 30
0.0
  0
VERTEX
  5
648
100
AcDbEntity
  8
L1
100
AcDbVertex
100
AcDb2dVertex
 10
-72.45230630277877
 20
187.4576705744105
 30
0.0
  0
SEQEND
  5
649
100
AcDbEntity
  8
L1
  0
LINE
  5
125
100
AcDbEntity
  8
L1
100
AcDbLine
 10
-72.45596765855101
 20
187.4620340083059
 30
0.0
 11
-72.45230630277877
 21
187.4576705744106
 31
0.0
  0
LINE
  5
126
100
AcDbEntity
  8
L1
100
AcDbLine
 10
-72.83634651296859
 20
187.7620225852252
 30
0.0
 11
-72.8407099468642
 21
187.7576591513298
 31
0.0
  0
POLYLINE
  5
127
100
AcDbEntity
  8
L1
100
AcDb2dPolyline
 66
     1
 10
0.0
 20
0.0
 30
0.0
  0
VERTEX
  5
64A
100
AcDbEntity
  8
L1
100
AcDbVertex
100
AcDb2dVertex
 10
-75.07810459424979
 20
191.7507928842023
 30
0.0
  0
VERTEX
  5
64B
100
AcDbEntity
  8
L1
100
AcDbVertex
100
AcDb2dVertex
 10
-75.064624750868
 20
192.025239166248
 30
0.0
  0
VERTEX
  5
64C
100
AcDbEntity
  8
L1
100
AcDbVertex
100
AcDb2dVertex
 10
-75.02431054824774
 20
192.2970403632569
 30
0.0
  0
VERTEX
  5
64D
100
AcDbEntity
  8
L1
100
AcDbVertex
100
AcDb2dVertex
 10
-74.95755019658486
 20
192.5635791347128
 30
0.0
  0
VERTEX
  5
64E
100
AcDbEntity
  8
L1
100
AcDbVertex
100
AcDb2dVertex
 10
-74.86498657227298
 20
192.8222888152244
 30
0.0
  0
VERTEX
  5
64F
100
AcDbEntity
  8
L1
100
AcDbVertex
100
AcDb2dVertex
 10
-74.74751102725178
 20
193.0706781305214
 30
0.0
  0
VERTEX
  5
650
100
AcDbEntity
  8
L1
100
AcDbVertex
100
AcDb2dVertex
 10
-74.60625480563317
 20
193.3063551874633
 30
0.0
  0
VERTEX
  5
651
100
AcDbEntity
  8
L1
100
AcDbVertex
100
AcDb2dVertex
 10
-74.4425781502564
 20
193.5270505070462
 30
0.0
  0
VERTEX
  5
652
100
AcDbEntity
  8
L1
100
AcDbVertex
100
AcDb2dVertex
 10
-74.25805720407606
 20
193.7306388786084
 30
0.0
  0
VERTEX
  5
653
100
AcDbEntity
  8
L1
100
AcDbVertex
100
AcDb2dVertex
 10
-74.05446883251386
 20
193.9151598247887
 30
0.0
  0
VERTEX
  5
654
100
AcDbEntity
  8
L1
100
AcDbVertex
100
AcDb2dVertex
 10
-73.83377351293109
 20
194.0788364801654
 30
0.0
  0
VERTEX
  5
655
100
AcDbEntity
  8
L1
100
AcDbVertex
100
AcDb2dVertex
 10
-73.59809645598909
 20
194.2200927017841
 30
0.0
  0
VERTEX
  5
656
100
AcDbEntity
  8
L1
100
AcDbVertex
100
AcDb2dVertex
 10
-73.34970714069209
 20
194.3375682468053
 30
0.0
  0
VERTEX
  5
657
100
AcDbEntity
  8
L1
100
AcDbVertex
100
AcDb2dVertex
 10
-73.09099746018046
 20
194.4301318711172
 30
0.0
  0
VERTEX
  5
658
100
AcDbEntity
  8
L1
100
AcDbVertex
100
AcDb2dVertex
 10
-72.82445868872457
 20
194.4968922227801
 30
0.0
  0
VERTEX
  5
659
100
AcDbEntity
  8
L1
100
AcDbVertex
100
AcDb2dVertex
 10
-72.55265749171576
 20
194.5372064254003
 30
0.0
  0
VERTEX
  5
65A
100
AcDbEntity
  8
L1
100
AcDbVertex
100
AcDb2dVertex
 10
-72.27821120967007
 20
194.5506862687821
 30
0.0
  0
SEQEND
  5
65B
100
AcDbEntity
  8
L1
  0
CIRCLE
  5
128
100
AcDbEntity
  8
L1
100
AcDbCircle
 10
-67.50690606935496
 20
186.9794877438875
 30
0.0
 40
2.271817169476896
  0
CIRCLE
  5
129
100
AcDbEntity
  8
L1
100
AcDbCircle
 10
-67.50690606935506
 20
186.9794877438874
 30
0.0
 40
3.360549721400785
  0
POLYLINE
  5
12A
100
AcDbEntity
  8
L1
100
AcDb2dPolyline
 66
     1
 10
0.0
 20
0.0
 30
0.0
  0
VERTEX
  5
65C
100
AcDbEntity
  8
L1
100
AcDbVertex
100
AcDb2dVertex
 10
-71.89505388651548
 20
189.2155573009013
 30
0.0
  0
VERTEX
  5
65D
100
AcDbEntity
  8
L1
100
AcDbVertex
100
AcDb2dVertex
 10
-71.93279144484586
 20
188.9570662400881
 30
0.0
  0
VERTEX
  5
65E
100
AcDbEntity
  8
L1
100
AcDbVertex
100
AcDb2dVertex
 10
-71.97131644756507
 20
188.7029137769694
 30
0.0
  0
VERTEX
  5
65F
100
AcDbEntity
  8
L1
100
AcDbVertex
100
AcDb2dVertex
 10
-72.01083097081379
 20
188.4517856596437
 30
0.0
  0
VERTEX
  5
660
100
AcDbEntity
  8
L1
100
AcDbVertex
100
AcDb2dVertex
 10
-72.05154867346846
 20
188.2023911891806
 30
0.0
  0
SEQEND
  5
661
100
AcDbEntity
  8
L1
  0
ARC
  5
12B
100
AcDbEntity
  8
L1
100
AcDbCircle
 10
-67.50690606935506
 20
186.9794877438874
 30
0.0
 40
4.70630101413334
100
AcDbArc
 50
105.060797850185
 51
164.9392021497411
  0
ARC
  5
12C
100
AcDbEntity
  8
L1
100
AcDbCircle
 10
-67.50690606935506
 20
186.9794877438874
 30
0.0
 40
4.70630101413334
100
AcDbArc
 50
172.413345733974
 51
187.1221183125067
  0
LINE
  5
12D
100
AcDbEntity
  8
L1
100
AcDbLine
 10
-72.1291817692138
 20
186.2964128290465
 30
0.0
 11
-71.7889839306822
 21
185.0267772110216
 31
0.0
  0
POLYLINE
  5
12E
100
AcDbEntity
  8
L1
100
AcDb2dPolyline
 66
     1
 10
0.0
 20
0.0
 30
0.0
  0
VERTEX
  5
662
100
AcDbEntity
  8
L1
100
AcDbVertex
100
AcDb2dVertex
 10
-72.17689396683443
 20
186.3959791552371
 30
0.0
  0
VERTEX
  5
663
100
AcDbEntity
  8
L1
100
AcDbVertex
100
AcDb2dVertex
 10
-72.14841804533898
 20
186.3484100891166
 30
0.0
  0
VERTEX
  5
664
100
AcDbEntity
  8
L1
100
AcDbVertex
100
AcDb2dVertex
 10
-72.1291817692138
 20
186.2964128290465
 30
0.0
  0
SEQEND
  5
665
100
AcDbEntity
  8
L1
  0
POLYLINE
  5
12F
100
AcDbEntity
  8
L1
100
AcDb2dPolyline
 66
     1
 10
0.0
 20
0.0
 30
0.0
  0
VERTEX
  5
666
100
AcDbEntity
  8
L1
100
AcDbVertex
100
AcDb2dVertex
 10
-71.7889839306822
 20
185.026777211022
 30
0.0
  0
VERTEX
  5
667
100
AcDbEntity
  8
L1
100
AcDbVertex
100
AcDb2dVertex
 10
-71.7170132770018
 20
184.7328409799309
 30
0.0
  0
VERTEX
  5
668
100
AcDbEntity
  8
L1
100
AcDbVertex
100
AcDb2dVertex
 10
-71.64591104718295
 20
184.4339156840614
 30
0.0
  0
VERTEX
  5
669
100
AcDbEntity
  8
L1
100
AcDbVertex
100
AcDb2dVertex
 10
-71.57514732266827
 20
184.1278054612938
 30
0.0
  0
VERTEX
  5
66A
100
AcDbEntity
  8
L1
100
AcDbVertex
100
AcDb2dVertex
 10
-71.50419721861715
 20
183.812207606604
 30
0.0
  0
SEQEND
  5
66B
100
AcDbEntity
  8
L1
  0
LINE
  5
130
100
AcDbEntity
  8
L1
100
AcDbLine
 10
-72.05154867346834
 20
188.2023911891808
 30
0.0
 11
-72.17200962782033
 21
187.6008395157741
 31
0.0
  0
ARC
  5
131
100
AcDbEntity
  8
L1
100
AcDbCircle
 10
-67.50690606935506
 20
186.9794877438874
 30
0.0
 40
4.70630101413334
100
AcDbArc
 50
82.87788168748074
 51
97.58665426604556
  0
LINE
  5
132
100
AcDbEntity
  8
L1
100
AcDbLine
 10
-68.28507747679726
 20
192.3132916213997
 30
0.0
 11
-66.72873466191266
 21
192.3132916213997
 31
0.0
  0
LINE
  5
133
100
AcDbEntity
  8
L1
100
AcDbLine
 10
-68.21553127151287
 20
191.6148114778575
 30
0.0
 11
-68.72980951464263
 21
191.5241303480024
 31
0.0
  0
POLYLINE
  5
134
100
AcDbEntity
  8
L1
100
AcDb2dPolyline
 66
     1
 10
0.0
 20
0.0
 30
0.0
  0
VERTEX
  5
66C
100
AcDbEntity
  8
L1
100
AcDbVertex
100
AcDb2dVertex
 10
-67.99857819331259
 20
191.8359408494621
 30
0.0
  0
VERTEX
  5
66D
100
AcDbEntity
  8
L1
100
AcDbVertex
100
AcDb2dVertex
 10
-68.00119337039837
 20
191.8233995636604
 30
0.0
  0
VERTEX
  5
66E
100
AcDbEntity
  8
L1
100
AcDbVertex
100
AcDb2dVertex
 10
-68.05452292494601
 20
191.7094319797328
 30
0.0
  0
VERTEX
  5
66F
100
AcDbEntity
  8
L1
100
AcDbVertex
100
AcDb2dVertex
 10
-68.08620816045527
 20
191.6753575359057
 30
0.0
  0
VERTEX
  5
670
100
AcDbEntity
  8
L1
100
AcDbVertex
100
AcDb2dVertex
 10
-68.12825784124322
 20
191.6445913023525
 30
0.0
  0
SEQEND
  5
671
100
AcDbEntity
  8
L1
  0
POLYLINE
  5
135
100
AcDbEntity
  8
L1
100
AcDb2dPolyline
 66
     1
 10
0.0
 20
0.0
 30
0.0
  0
VERTEX
  5
672
100
AcDbEntity
  8
L1
100
AcDbVertex
100
AcDb2dVertex
 10
-68.12825784124322
 20
191.6445913023525
 30
0.0
  0
VERTEX
  5
673
100
AcDbEntity
  8
L1
100
AcDbVertex
100
AcDb2dVertex
 10
-68.17074329037495
 20
191.6263280979636
 30
0.0
  0
VERTEX
  5
674
100
AcDbEntity
  8
L1
100
AcDbVertex
100
AcDb2dVertex
 10
-68.21553127151287
 20
191.6148114778575
 30
0.0
  0
SEQEND
  5
675
100
AcDbEntity
  8
L1
  0
LINE
  5
136
100
AcDbEntity
  8
L1
100
AcDbLine
 10
-67.99857819331259
 20
191.8359408494621
 30
0.0
 11
-67.98508889987807
 21
192.0133030444804
 31
0.0
  0
POLYLINE
  5
137
100
AcDbEntity
  8
L1
100
AcDb2dPolyline
 66
     1
 10
0.0
 20
0.0
 30
0.0
  0
VERTEX
  5
676
100
AcDbEntity
  8
L1
100
AcDbVertex
100
AcDb2dVertex
 10
-68.28507747679726
 20
192.3132916213996
 30
0.0
  0
VERTEX
  5
677
100
AcDbEntity
  8
L1
100
AcDbVertex
100
AcDb2dVertex
 10
-68.0729521340545
 20
192.2254283872232
 30
0.0
  0
VERTEX
  5
678
100
AcDbEntity
  8
L1
100
AcDbVertex
100
AcDb2dVertex
 10
-67.98508889987807
 20
192.0133030444804
 30
0.0
  0
SEQEND
  5
679
100
AcDbEntity
  8
L1
  0
ARC
  5
138
100
AcDbEntity
  8
L1
100
AcDbCircle
 10
-67.50690606935506
 20
186.9794877438874
 30
0.0
 40
4.925022672948151
100
AcDbArc
 50
117.0020375494462
 51
152.997962450533
  0
POLYLINE
  5
139
100
AcDbEntity
  8
L1
100
AcDb2dPolyline
 66
     1
 10
0.0
 20
0.0
 30
0.0
  0
VERTEX
  5
67A
100
AcDbEntity
  8
L1
100
AcDbVertex
100
AcDb2dVertex
 10
-68.72980951464263
 20
191.5241303480023
 30
0.0
  0
VERTEX
  5
67B
100
AcDbEntity
  8
L1
100
AcDbVertex
100
AcDb2dVertex
 10
-68.97920398510689
 20
191.4834126453474
 30
0.0
  0
VERTEX
  5
67C
100
AcDbEntity
  8
L1
100
AcDbVertex
100
AcDb2dVertex
 10
-69.23033210243364
 20
191.4438981220986
 30
0.0
  0
VERTEX
  5
67D
100
AcDbEntity
  8
L1
100
AcDbVertex
100
AcDb2dVertex
 10
-69.4844845655532
 20
191.4053731193793
 30
0.0
  0
VERTEX
  5
67E
100
AcDbEntity
  8
L1
100
AcDbVertex
100
AcDb2dVertex
 10
-69.7429756263673
 20
191.3676355610487
 30
0.0
  0
SEQEND
  5
67F
100
AcDbEntity
  8
L1
  0
LINE
  5
13A
100
AcDbEntity
  8
L1
100
AcDbLine
 10
-67.02872323883184
 20
192.0133030444804
 30
0.0
 11
-67.02872323883184
 21
191.9049228801375
 31
0.0
  0
POLYLINE
  5
13B
100
AcDbEntity
  8
L1
100
AcDb2dPolyline
 66
     1
 10
0.0
 20
0.0
 30
0.0
  0
VERTEX
  5
680
100
AcDbEntity
  8
L1
100
AcDbVertex
100
AcDb2dVertex
 10
-66.82383115451409
 20
191.6017634437467
 30
0.0
  0
VERTEX
  5
681
100
AcDbEntity
  8
L1
100
AcDbVertex
100
AcDb2dVertex
 10
-66.87582841458357
 20
191.6209997198717
 30
0.0
  0
VERTEX
  5
682
100
AcDbEntity
  8
L1
100
AcDbVertex
100
AcDb2dVertex
 10
-66.92339748070367
 20
191.6494756413667
 30
0.0
  0
SEQEND
  5
683
100
AcDbEntity
  8
L1
  0
POLYLINE
  5
13C
100
AcDbEntity
  8
L1
100
AcDb2dPolyline
 66
     1
 10
0.0
 20
0.0
 30
0.0
  0
VERTEX
  5
684
100
AcDbEntity
  8
L1
100
AcDbVertex
100
AcDb2dVertex
 10
-66.92339748070367
 20
191.6494756413667
 30
0.0
  0
VERTEX
  5
685
100
AcDbEntity
  8
L1
100
AcDbVertex
100
AcDb2dVertex
 10
-66.92963025070366
 20
191.654869240125
 30
0.0
  0
VERTEX
  5
686
100
AcDbEntity
  8
L1
100
AcDbVertex
100
AcDb2dVertex
 10
-66.96134522357716
 20
191.688708492945
 30
0.0
  0
VERTEX
  5
687
100
AcDbEntity
  8
L1
100
AcDbVertex
100
AcDb2dVertex
 10
-67.01477509232621
 20
191.8018554543803
 30
0.0
  0
VERTEX
  5
688
100
AcDbEntity
  8
L1
100
AcDbVertex
100
AcDb2dVertex
 10
-67.02081683143376
 20
191.8365028248709
 30
0.0
  0
SEQEND
  5
689
100
AcDbEntity
  8
L1
  0
POLYLINE
  5
13D
100
AcDbEntity
  8
L1
100
AcDb2dPolyline
 66
     1
 10
0.0
 20
0.0
 30
0.0
  0
VERTEX
  5
68A
100
AcDbEntity
  8
L1
100
AcDbVertex
100
AcDb2dVertex
 10
-67.02081683143376
 20
191.8365028248709
 30
0.0
  0
VERTEX
  5
68B
100
AcDbEntity
  8
L1
100
AcDbVertex
100
AcDb2dVertex
 10
-67.02674008238273
 20
191.8704850935606
 30
0.0
  0
VERTEX
  5
68C
100
AcDbEntity
  8
L1
100
AcDbVertex
100
AcDb2dVertex
 10
-67.02872323883195
 20
191.9049228801375
 30
0.0
  0
SEQEND
  5
68D
100
AcDbEntity
  8
L1
  0
POLYLINE
  5
13E
100
AcDbEntity
  8
L1
100
AcDb2dPolyline
 66
     1
 10
0.0
 20
0.0
 30
0.0
  0
VERTEX
  5
68E
100
AcDbEntity
  8
L1
100
AcDbVertex
100
AcDb2dVertex
 10
-67.02872323883184
 20
192.0133030444804
 30
0.0
  0
VERTEX
  5
68F
100
AcDbEntity
  8
L1
100
AcDbVertex
100
AcDb2dVertex
 10
-66.9408600046554
 20
192.2254283872232
 30
0.0
  0
VERTEX
  5
690
100
AcDbEntity
  8
L1
100
AcDbVertex
100
AcDb2dVertex
 10
-66.72873466191266
 20
192.3132916213996
 30
0.0
  0
SEQEND
  5
691
100
AcDbEntity
  8
L1
  0
POLYLINE
  5
13F
100
AcDbEntity
  8
L1
100
AcDb2dPolyline
 66
     1
 10
0.0
 20
0.0
 30
0.0
  0
VERTEX
  5
692
100
AcDbEntity
  8
L1
100
AcDbVertex
100
AcDb2dVertex
 10
-64.33962593207263
 20
190.9767788931504
 30
0.0
  0
VERTEX
  5
693
100
AcDbEntity
  8
L1
100
AcDbVertex
100
AcDb2dVertex
 10
-64.65522378676292
 20
191.0477289972016
 30
0.0
  0
VERTEX
  5
694
100
AcDbEntity
  8
L1
100
AcDbVertex
100
AcDb2dVertex
 10
-64.96133400953102
 20
191.1184927217164
 30
0.0
  0
VERTEX
  5
695
100
AcDbEntity
  8
L1
100
AcDbVertex
100
AcDb2dVertex
 10
-65.26025930540106
 20
191.1895949515354
 30
0.0
  0
VERTEX
  5
696
100
AcDbEntity
  8
L1
100
AcDbVertex
100
AcDb2dVertex
 10
-65.55419553649233
 20
191.261565605216
 30
0.0
  0
SEQEND
  5
697
100
AcDbEntity
  8
L1
  0
LINE
  5
140
100
AcDbEntity
  8
L1
100
AcDbLine
 10
-65.55419553649278
 20
191.2615656052161
 30
0.0
 11
-66.82383115451409
 21
191.6017634437467
 31
0.0
  0
POLYLINE
  5
141
100
AcDbEntity
  8
L1
100
AcDb2dPolyline
 66
     1
 10
0.0
 20
0.0
 30
0.0
  0
VERTEX
  5
698
100
AcDbEntity
  8
L1
100
AcDbVertex
100
AcDb2dVertex
 10
-61.10123450406366
 20
195.0743682731438
 30
0.0
  0
VERTEX
  5
699
100
AcDbEntity
  8
L1
100
AcDbVertex
100
AcDb2dVertex
 10
-61.09945686743095
 20
194.9580564757815
 30
0.0
  0
VERTEX
  5
69A
100
AcDbEntity
  8
L1
100
AcDbVertex
100
AcDb2dVertex
 10
-61.10046851987249
 20
194.6674859312669
 30
0.0
  0
SEQEND
  5
69B
100
AcDbEntity
  8
L1
  0
LINE
  5
142
100
AcDbEntity
  8
L1
100
AcDbLine
 10
-61.26287359636046
 20
195.2360073654402
 30
0.0
 11
-61.26638705629659
 21
194.833404467691
 31
0.0
  0
LINE
  5
143
100
AcDbEntity
  8
L1
100
AcDbLine
 10
-61.17998085192528
 20
191.7525853726196
 30
0.0
 11
-61.17998085192528
 21
187.4525625264581
 31
0.0
  0
POLYLINE
  5
144
100
AcDbEntity
  8
L1
100
AcDb2dPolyline
 66
     1
 10
0.0
 20
0.0
 30
0.0
  0
VERTEX
  5
69C
100
AcDbEntity
  8
L1
100
AcDbVertex
100
AcDb2dVertex
 10
-61.10046851987249
 20
194.6674859312669
 30
0.0
  0
VERTEX
  5
69D
100
AcDbEntity
  8
L1
100
AcDbVertex
100
AcDb2dVertex
 10
-61.11602660073344
 20
194.5743873116116
 30
0.0
  0
SEQEND
  5
69E
100
AcDbEntity
  8
L1
  0
LINE
  5
145
100
AcDbEntity
  8
L1
100
AcDbLine
 10
-60.88611250597569
 20
192.6586827574273
 30
0.0
 11
-60.88611250597569
 21
194.0638960310703
 31
0.0
  0
POLYLINE
  5
146
100
AcDbEntity
  8
L1
100
AcDb2dPolyline
 66
     1
 10
0.0
 20
0.0
 30
0.0
  0
VERTEX
  5
69F
100
AcDbEntity
  8
L1
100
AcDbVertex
100
AcDb2dVertex
 10
-61.77995800576377
 20
192.3525625264581
 30
0.0
  0
VERTEX
  5
6A0
100
AcDbEntity
  8
L1
100
AcDbVertex
100
AcDb2dVertex
 10
-61.35570732027815
 20
192.1768360581052
 30
0.0
  0
VERTEX
  5
6A1
100
AcDbEntity
  8
L1
100
AcDbVertex
100
AcDb2dVertex
 10
-61.17998085192517
 20
191.7525853726196
 30
0.0
  0
SEQEND
  5
6A2
100
AcDbEntity
  8
L1
  0
ELLIPSE
  5
147
100
AcDbEntity
  8
L1
100
AcDbEllipse
 10
-61.5663642114398
 20
194.8359994846698
 30
0.0
 11
-0.2121320343557549
 21
-0.2121320343561681
 31
0.0
210
0.0
220
0.0
230
1.0
 40
0.9999238504775703
 41
0.7854362396074134
 42
2.347505920142613
  0
ELLIPSE
  5
148
100
AcDbEntity
  8
L1
100
AcDbEllipse
 10
-61.18610108289487
 20
192.6586827574273
 30
0.0
 11
-0.2121320343489897
 21
-0.2121320343629324
 31
0.0
210
0.0
220
0.0
230
1.0
 40
0.9999238504775656
 41
0.7854362395755265
 42
2.35615641394854
  0
ELLIPSE
  5
149
100
AcDbEntity
  8
L1
100
AcDbEllipse
 10
-61.18610108289487
 20
194.0638960310703
 30
0.0
 11
-0.2121320343489897
 21
0.2121320343629324
 31
0.0
210
0.0
220
0.0
230
1.0
 40
0.9999238504775656
 41
-2.35615641394854
 42
-0.7854362395755265
  0
POLYLINE
  5
14A
100
AcDbEntity
  8
L1
100
AcDb2dPolyline
 66
     1
 10
0.0
 20
0.0
 30
0.0
  0
VERTEX
  5
6A3
100
AcDbEntity
  8
L1
100
AcDbVertex
100
AcDb2dVertex
 10
-61.11602660073344
 20
194.5743873116116
 30
0.0
  0
VERTEX
  5
6A4
100
AcDbEntity
  8
L1
100
AcDbVertex
100
AcDb2dVertex
 10
-61.2252829564278
 20
194.4264090707365
 30
0.0
  0
VERTEX
  5
6A5
100
AcDbEntity
  8
L1
100
AcDbVertex
100
AcDb2dVertex
 10
-61.40036956572885
 20
194.3700162620395
 30
0.0
  0
SEQEND
  5
6A6
100
AcDbEntity
  8
L1
  0
LINE
  5
14B
100
AcDbEntity
  8
L1
100
AcDbLine
 10
-61.26287359636023
 20
195.2360073654402
 30
0.0
 11
-61.10123450406366
 21
195.0743682731438
 31
0.0
  0
LINE
  5
14C
100
AcDbEntity
  8
L1
100
AcDbLine
 10
100.7643990709601
 20
194.5506862687821
 30
0.0
 11
91.74898530957785
 21
194.5506862687821
 31
0.0
  0
LINE
  5
14D
100
AcDbEntity
  8
L1
100
AcDbLine
 10
89.67228894418497
 20
194.3638846079896
 30
0.0
 11
100.5775974101676
 21
194.3638846079896
 31
0.0
  0
LINE
  5
14E
100
AcDbEntity
  8
L1
100
AcDbLine
 10
100.2748955810065
 20
192.3586941805081
 30
0.0
 11
89.67228894418497
 21
192.3586941805081
 31
0.0
  0
CIRCLE
  5
14F
100
AcDbEntity
  8
L1
100
AcDbCircle
 10
95.99309393064515
 20
186.9794877438874
 30
0.0
 40
3.360549721400785
  0
CIRCLE
  5
150
100
AcDbEntity
  8
L1
100
AcDbCircle
 10
95.99309393064515
 20
186.9794877438874
 30
0.0
 40
3.9
  0
POLYLINE
  5
151
100
AcDbEntity
  8
L1
100
AcDb2dPolyline
 66
     1
 10
0.0
 20
0.0
 30
0.0
  0
VERTEX
  5
6A7
100
AcDbEntity
  8
L1
100
AcDbVertex
100
AcDb2dVertex
 10
92.82581379336273
 20
190.9767788931504
 30
0.0
  0
VERTEX
  5
6A8
100
AcDbEntity
  8
L1
100
AcDbVertex
100
AcDb2dVertex
 10
93.14141164805301
 20
191.0477289972016
 30
0.0
  0
VERTEX
  5
6A9
100
AcDbEntity
  8
L1
100
AcDbVertex
100
AcDb2dVertex
 10
93.44752187082111
 20
191.1184927217164
 30
0.0
  0
VERTEX
  5
6AA
100
AcDbEntity
  8
L1
100
AcDbVertex
100
AcDb2dVertex
 10
93.74644716669115
 20
191.1895949515354
 30
0.0
  0
VERTEX
  5
6AB
100
AcDbEntity
  8
L1
100
AcDbVertex
100
AcDb2dVertex
 10
94.04038339778242
 20
191.261565605216
 30
0.0
  0
SEQEND
  5
6AC
100
AcDbEntity
  8
L1
  0
LINE
  5
152
100
AcDbEntity
  8
L1
100
AcDbLine
 10
92.49450262548611
 20
182.0084094769241
 30
0.0
 11
93.12764184153866
 21
182.6415486929766
 31
0.0
  0
ARC
  5
153
100
AcDbEntity
  8
L1
100
AcDbCircle
 10
95.99309393064515
 20
186.9794877438874
 30
0.0
 40
5.099999999999999
100
AcDbArc
 50
213.2750020019967
 51
236.7249979980041
  0
LINE
  5
154
100
AcDbEntity
  8
L6
 62
     1
100
AcDbLine
 10
89.56942734570061
 20
186.9794877438874
 30
0.0
 11
102.4167605155893
 21
186.9794877438874
 31
0.0
  0
ARC
  5
155
100
AcDbEntity
  8
L1
100
AcDbCircle
 10
96.46616871321533
 20
187.4525625264581
 30
0.0
 40
6.799999999999897
100
AcDbArc
 50
180.0
 51
270.0
  0
ARC
  5
156
100
AcDbEntity
  8
L1
100
AcDbCircle
 10
95.99309393064515
 20
186.9794877438874
 30
0.0
 40
4.70630101413334
100
AcDbArc
 50
114.5139055063791
 51
335.4860944935755
  0
POLYLINE
  5
157
100
AcDbEntity
  8
L1
100
AcDb2dPolyline
 66
     1
 10
0.0
 20
0.0
 30
0.0
  0
VERTEX
  5
6AD
100
AcDbEntity
  8
L1
100
AcDbVertex
100
AcDb2dVertex
 10
89.58742236535375
 20
195.0743682731438
 30
0.0
  0
VERTEX
  5
6AE
100
AcDbEntity
  8
L1
100
AcDbVertex
100
AcDb2dVertex
 10
89.58564472872103
 20
194.9580564757815
 30
0.0
  0
VERTEX
  5
6AF
100
AcDbEntity
  8
L1
100
AcDbVertex
100
AcDb2dVertex
 10
89.58665638116258
 20
194.6674859312669
 30
0.0
  0
SEQEND
  5
6B0
100
AcDbEntity
  8
L1
  0
LINE
  5
158
100
AcDbEntity
  8
L1
100
AcDbLine
 10
89.74906145765055
 20
195.2360073654402
 30
0.0
 11
89.75257491758668
 21
194.833404467691
 31
0.0
  0
ARC
  5
159
100
AcDbEntity
  8
L1
100
AcDbCircle
 10
96.46616871321533
 20
187.4525625264581
 30
0.0
 40
6.738911925464585
100
AcDbArc
 50
216.1118255431146
 51
233.8881744568919
  0
ARC
  5
15A
100
AcDbEntity
  8
L1
100
AcDbCircle
 10
95.99309393064515
 20
186.9794877438874
 30
0.0
 40
5.099999999999999
100
AcDbArc
 50
128.3917785793126
 51
213.2750020019975
  0
LINE
  5
15B
100
AcDbEntity
  8
L1
100
AcDbLine
 10
89.66616871321537
 20
191.7525853726196
 30
0.0
 11
89.66616871321537
 21
187.4525625264581
 31
0.0
  0
LINE
  5
15C
100
AcDbEntity
  8
L1
100
AcDbLine
 10
91.65515487973436
 20
184.114035654781
 30
0.0
 11
91.02201566368171
 21
183.4808964387283
 31
0.0
  0
LINE
  5
15D
100
AcDbEntity
  8
L1
100
AcDbLine
 10
89.37230036726578
 20
192.6586827574273
 30
0.0
 11
89.37230036726578
 21
194.0638960310703
 31
0.0
  0
POLYLINE
  5
15E
100
AcDbEntity
  8
L1
100
AcDb2dPolyline
 66
     1
 10
0.0
 20
0.0
 30
0.0
  0
VERTEX
  5
6B1
100
AcDbEntity
  8
L1
100
AcDbVertex
100
AcDb2dVertex
 10
89.58665638116258
 20
194.6674859312669
 30
0.0
  0
VERTEX
  5
6B2
100
AcDbEntity
  8
L1
100
AcDbVertex
100
AcDb2dVertex
 10
89.60221446202353
 20
194.5743873116116
 30
0.0
  0
SEQEND
  5
6B3
100
AcDbEntity
  8
L1
  0
POLYLINE
  5
15F
100
AcDbEntity
  8
L1
100
AcDb2dPolyline
 66
     1
 10
0.0
 20
0.0
 30
0.0
  0
VERTEX
  5
6B4
100
AcDbEntity
  8
L1
100
AcDbVertex
100
AcDb2dVertex
 10
89.60221446202353
 20
194.5743873116116
 30
0.0
  0
VERTEX
  5
6B5
100
AcDbEntity
  8
L1
100
AcDbVertex
100
AcDb2dVertex
 10
89.71147081771789
 20
194.4264090707365
 30
0.0
  0
VERTEX
  5
6B6
100
AcDbEntity
  8
L1
100
AcDbVertex
100
AcDb2dVertex
 10
89.88655742701894
 20
194.3700162620395
 30
0.0
  0
SEQEND
  5
6B7
100
AcDbEntity
  8
L1
  0
ELLIPSE
  5
160
100
AcDbEntity
  8
L1
100
AcDbEllipse
 10
89.67228894418497
 20
194.0638960310703
 30
0.0
 11
0.2121320343489897
 21
0.2121320343629324
 31
0.0
210
0.0
220
0.0
230
-1.0
 40
0.9999238504775656
 41
-2.35615641394854
 42
-0.7854362395755265
  0
ELLIPSE
  5
161
100
AcDbEntity
  8
L1
100
AcDbEllipse
 10
90.05255207272989
 20
194.8359994846698
 30
0.0
 11
0.2121320343557549
 21
-0.2121320343561681
 31
0.0
210
0.0
220
0.0
230
-1.0
 40
0.9999238504775703
 41
0.7854362396074134
 42
2.347505920142613
  0
ELLIPSE
  5
162
100
AcDbEntity
  8
L1
100
AcDbEllipse
 10
89.67228894418497
 20
192.6586827574273
 30
0.0
 11
0.2121320343489897
 21
-0.2121320343629324
 31
0.0
210
0.0
220
0.0
230
-1.0
 40
0.9999238504775656
 41
0.7854362395755265
 42
2.35615641394854
  0
ELLIPSE
  5
163
100
AcDbEntity
  8
L1
100
AcDbEllipse
 10
91.74898530957785
 20
194.5358817202511
 30
0.0
 11
1.69649782936798
 21
0.0
 31
0.0
210
0.0
220
0.0
230
-1.0
 40
0.0087265354983806
 41
-3.132866339598172
 42
-1.570796326794896
  0
POLYLINE
  5
164
100
AcDbEntity
  8
L1
100
AcDb2dPolyline
 66
     1
 10
0.0
 20
0.0
 30
0.0
  0
VERTEX
  5
6B8
100
AcDbEntity
  8
L1
100
AcDbVertex
100
AcDb2dVertex
 10
90.26614586705386
 20
192.3525625264581
 30
0.0
  0
VERTEX
  5
6B9
100
AcDbEntity
  8
L1
100
AcDbVertex
100
AcDb2dVertex
 10
89.84189518156824
 20
192.1768360581052
 30
0.0
  0
VERTEX
  5
6BA
100
AcDbEntity
  8
L1
100
AcDbVertex
100
AcDb2dVertex
 10
89.66616871321525
 20
191.7525853726196
 30
0.0
  0
SEQEND
  5
6BB
100
AcDbEntity
  8
L1
  0
LINE
  5
165
100
AcDbEntity
  8
L1
100
AcDbLine
 10
89.74906145765032
 20
195.2360073654402
 30
0.0
 11
89.58742236535375
 21
195.0743682731438
 31
0.0
  0
POLYLINE
  5
166
100
AcDbEntity
  8
L1
100
AcDb2dPolyline
 66
     1
 10
0.0
 20
0.0
 30
0.0
  0
VERTEX
  5
6BC
100
AcDbEntity
  8
L1
100
AcDbVertex
100
AcDb2dVertex
 10
158.6532757695868
 20
194.6394396958215
 30
0.0
  0
VERTEX
  5
6BD
100
AcDbEntity
  8
L1
100
AcDbVertex
100
AcDb2dVertex
 10
158.4826408057002
 20
194.9300102403361
 30
0.0
  0
VERTEX
  5
6BE
100
AcDbEntity
  8
L1
100
AcDbVertex
100
AcDb2dVertex
 10
158.1663828444811
 20
195.0463220376983
 30
0.0
  0
SEQEND
  5
6BF
100
AcDbEntity
  8
L1
  0
LINE
  5
168
100
AcDbEntity
  8
L1
100
AcDbLine
 10
134.6620195767319
 20
194.6514415084419
 30
0.0
 11
135.256825133342
 21
195.246247065052
 31
0.0
  0
POLYLINE
  5
16A
100
AcDbEntity
  8
L1
100
AcDb2dPolyline
 66
     1
 10
0.0
 20
0.0
 30
0.0
  0
VERTEX
  5
6D3
100
AcDbEntity
  8
L1
100
AcDbVertex
100
AcDb2dVertex
 10
100.7930939306451
 20
195.2742933004975
 30
0.0
  0
VERTEX
  5
6D4
100
AcDbEntity
  8
L1
100
AcDbVertex
100
AcDb2dVertex
 10
101.4647282044074
 20
195.2082685572172
 30
0.0
  0
VERTEX
  5
6D5
100
AcDbEntity
  8
L1
100
AcDbVertex
100
AcDb2dVertex
 10
102.1297312296973
 20
195.0069418182497
 30
0.0
  0
VERTEX
  5
6D6
100
AcDbEntity
  8
L1
100
AcDbVertex
100
AcDb2dVertex
 10
102.7418562914515
 20
194.6782135678689
 30
0.0
  0
VERTEX
  5
6D7
100
AcDbEntity
  8
L1
100
AcDbVertex
100
AcDb2dVertex
 10
103.2628499061887
 20
194.2492437194309
 30
0.0
  0
VERTEX
  5
6D8
100
AcDbEntity
  8
L1
100
AcDbVertex
100
AcDb2dVertex
 10
103.6918197546266
 20
193.7282501046938
 30
0.0
  0
VERTEX
  5
6D9
100
AcDbEntity
  8
L1
100
AcDbVertex
100
AcDb2dVertex
 10
104.0205480050076
 20
193.1161250429394
 30
0.0
  0
VERTEX
  5
6DA
100
AcDbEntity
  8
L1
100
AcDbVertex
100
AcDb2dVertex
 10
104.2218747439749
 20
192.4511220176496
 30
0.0
  0
VERTEX
  5
6DB
100
AcDbEntity
  8
L1
100
AcDbVertex
100
AcDb2dVertex
 10
104.2878994872553
 20
191.7794877438874
 30
0.0
  0
SEQEND
  5
6DC
100
AcDbEntity
  8
L1
  0
LINE
  5
16B
100
AcDbEntity
  8
L1
100
AcDbLine
 10
101.3723003672656
 20
180.6586827574274
 30
0.0
 11
101.3723003672656
 21
191.2612893942488
 31
0.0
  0
ARC
  5
16C
100
AcDbEntity
  8
L1
100
AcDbCircle
 10
95.99309393064515
 20
186.9794877438874
 30
0.0
 40
5.099999999999999
100
AcDbArc
 50
236.7249979980041
 51
321.6082214206732
  0
LINE
  5
16D
100
AcDbEntity
  8
L6
 62
     1
100
AcDbLine
 10
95.99309393064505
 20
179.535128288631
 30
0.0
 11
95.99309393064505
 21
193.8789224467557
 31
0.0
  0
LINE
  5
16E
100
AcDbEntity
  8
L1
100
AcDbLine
 10
103.3774907947473
 20
191.5639912234099
 30
0.0
 11
103.3774907947473
 21
180.6586827574273
 31
0.0
  0
LINE
  5
16F
100
AcDbEntity
  8
L1
100
AcDbLine
 10
103.5642924555398
 20
182.7353791228201
 30
0.0
 11
103.5642924555398
 21
191.7507928842023
 31
0.0
  0
LINE
  5
170
100
AcDbEntity
  8
L1
100
AcDbLine
 10
103.0775022178281
 20
180.3586941805081
 30
0.0
 11
101.6722889441849
 21
180.3586941805081
 31
0.0
  0
LINE
  5
171
100
AcDbEntity
  8
L1
100
AcDbLine
 10
96.46616871321533
 20
180.652562526458
 30
0.0
 11
100.7661915593766
 21
180.652562526458
 31
0.0
  0
POLYLINE
  5
172
100
AcDbEntity
  8
L1
100
AcDb2dPolyline
 66
     1
 10
0.0
 20
0.0
 30
0.0
  0
VERTEX
  5
6DD
100
AcDbEntity
  8
L1
100
AcDbVertex
100
AcDb2dVertex
 10
100.7661915593766
 20
180.652562526458
 30
0.0
  0
VERTEX
  5
6DE
100
AcDbEntity
  8
L1
100
AcDbVertex
100
AcDb2dVertex
 10
101.1904422448624
 20
180.8282889948109
 30
0.0
  0
VERTEX
  5
6DF
100
AcDbEntity
  8
L1
100
AcDbVertex
100
AcDb2dVertex
 10
101.3661687132153
 20
181.2525396802966
 30
0.0
  0
SEQEND
  5
6E0
100
AcDbEntity
  8
L1
  0
ELLIPSE
  5
173
100
AcDbEntity
  8
L1
100
AcDbEllipse
 10
101.6722889441849
 20
180.6586827574274
 30
0.0
 11
0.2121320343489897
 21
-0.2121320343629324
 31
0.0
210
0.0
220
0.0
230
-1.0
 40
0.9999238504775656
 41
0.7854362395755265
 42
2.35615641394854
  0
POLYLINE
  5
174
100
AcDbEntity
  8
L1
100
AcDb2dPolyline
 66
     1
 10
0.0
 20
0.0
 30
0.0
  0
VERTEX
  5
6E1
100
AcDbEntity
  8
L1
100
AcDbVertex
100
AcDb2dVertex
 10
103.3836224487972
 20
180.8729512402204
 30
0.0
  0
VERTEX
  5
6E2
100
AcDbEntity
  8
L1
100
AcDbVertex
100
AcDb2dVertex
 10
103.4400152574943
 20
180.6978646309194
 30
0.0
  0
VERTEX
  5
6E3
100
AcDbEntity
  8
L1
100
AcDbVertex
100
AcDb2dVertex
 10
103.5879934983694
 20
180.5886082752251
 30
0.0
  0
SEQEND
  5
6E4
100
AcDbEntity
  8
L1
  0
POLYLINE
  5
175
100
AcDbEntity
  8
L1
100
AcDb2dPolyline
 66
     1
 10
0.0
 20
0.0
 30
0.0
  0
VERTEX
  5
6E5
100
AcDbEntity
  8
L1
100
AcDbVertex
100
AcDb2dVertex
 10
103.5879934983694
 20
180.5886082752251
 30
0.0
  0
VERTEX
  5
6E6
100
AcDbEntity
  8
L1
100
AcDbVertex
100
AcDb2dVertex
 10
103.6810921180248
 20
180.5730501943641
 30
0.0
  0
SEQEND
  5
6E7
100
AcDbEntity
  8
L1
  0
POLYLINE
  5
176
100
AcDbEntity
  8
L1
100
AcDb2dPolyline
 66
     1
 10
0.0
 20
0.0
 30
0.0
  0
VERTEX
  5
6E8
100
AcDbEntity
  8
L1
100
AcDbVertex
100
AcDb2dVertex
 10
103.6810921180248
 20
180.5730501943641
 30
0.0
  0
VERTEX
  5
6E9
100
AcDbEntity
  8
L1
100
AcDbVertex
100
AcDb2dVertex
 10
103.9716626625394
 20
180.5720385419225
 30
0.0
  0
VERTEX
  5
6EA
100
AcDbEntity
  8
L1
100
AcDbVertex
100
AcDb2dVertex
 10
104.0879744599016
 20
180.573816178555
 30
0.0
  0
SEQEND
  5
6EB
100
AcDbEntity
  8
L1
  0
LINE
  5
177
100
AcDbEntity
  8
L1
100
AcDbLine
 10
104.249613552198
 20
180.7354552708928
 30
0.0
 11
103.8470106544493
 21
180.7389687308289
 31
0.0
  0
LINE
  5
178
100
AcDbEntity
  8
L1
100
AcDbLine
 10
104.0879744599016
 20
180.5738161785549
 30
0.0
 11
104.249613552198
 21
180.735455270833
 31
0.0
  0
ELLIPSE
  5
179
100
AcDbEntity
  8
L1
100
AcDbEllipse
 10
103.8496056714275
 20
181.0389458859123
 30
0.0
 11
-0.2121320343438322
 21
0.2121320343680905
 31
0.0
210
0.0
220
0.0
230
-1.0
 40
0.9999238504775798
 41
-2.347505920200959
 42
-0.7854362396653705
  0
ELLIPSE
  5
17A
100
AcDbEntity
  8
L1
100
AcDbEllipse
 10
103.0775022178281
 20
180.6586827574273
 30
0.0
 11
0.2121320343557818
 21
0.2121320343561951
 31
0.0
210
0.0
220
0.0
230
-1.0
 40
0.9999238504775703
 41
0.7854362396093614
 42
2.356156413982379
  0
ELLIPSE
  5
17B
100
AcDbEntity
  8
L1
100
AcDbEllipse
 10
103.5494879070089
 20
182.7353791228201
 30
0.0
 11
0.0
 21
-1.69649782936798
 31
0.0
210
0.0
220
0.0
230
-1.0
 40
0.0087265354983806
 41
-1.570796326794896
 42
-0.0087263139916212
  0
POLYLINE
  5
17C
100
AcDbEntity
  8
L1
100
AcDb2dPolyline
 66
     1
 10
0.0
 20
0.0
 30
0.0
  0
VERTEX
  5
6EC
100
AcDbEntity
  8
L1
100
AcDbVertex
100
AcDb2dVertex
 10
100.5775974101676
 20
194.3638846079895
 30
0.0
  0
VERTEX
  5
6ED
100
AcDbEntity
  8
L1
100
AcDbVertex
100
AcDb2dVertex
 10
100.8359432439557
 20
194.3519389938055
 30
0.0
  0
VERTEX
  5
6EE
100
AcDbEntity
  8
L1
100
AcDbVertex
100
AcDb2dVertex
 10
101.0920835515659
 20
194.3162082726584
 30
0.0
  0
VERTEX
  5
6EF
100
AcDbEntity
  8
L1
100
AcDbVertex
100
AcDb2dVertex
 10
101.3438332459376
 20
194.2569972569268
 30
0.0
  0
VERTEX
  5
6F0
100
AcDbEntity
  8
L1
100
AcDbVertex
100
AcDb2dVertex
 10
101.5890446955447
 20
194.1748110651746
 30
0.0
  0
VERTEX
  5
6F1
100
AcDbEntity
  8
L1
100
AcDbVertex
100
AcDb2dVertex
 10
101.8256260454556
 20
194.0703508130751
 30
0.0
  0
VERTEX
  5
6F2
100
AcDbEntity
  8
L1
100
AcDbVertex
100
AcDb2dVertex
 10
102.0515590625726
 20
193.944507632318
 30
0.0
  0
VERTEX
  5
6F3
100
AcDbEntity
  8
L1
100
AcDbVertex
100
AcDb2dVertex
 10
102.2649163528164
 20
193.798355068526
 30
0.0
  0
VERTEX
  5
6F4
100
AcDbEntity
  8
L1
100
AcDbVertex
100
AcDb2dVertex
 10
102.4638778033804
 20
193.6331399230283
 30
0.0
  0
VERTEX
  5
6F5
100
AcDbEntity
  8
L1
100
AcDbVertex
100
AcDb2dVertex
 10
102.6467461097861
 20
193.4502716166226
 30
0.0
  0
VERTEX
  5
6F6
100
AcDbEntity
  8
L1
100
AcDbVertex
100
AcDb2dVertex
 10
102.8119612552838
 20
193.2513101660587
 30
0.0
  0
VERTEX
  5
6F7
100
AcDbEntity
  8
L1
100
AcDbVertex
100
AcDb2dVertex
 10
102.9581138190758
 20
193.0379528758148
 30
0.0
  0
VERTEX
  5
6F8
100
AcDbEntity
  8
L1
100
AcDbVertex
100
AcDb2dVertex
 10
103.0839569998328
 20
192.8120198586979
 30
0.0
  0
VERTEX
  5
6F9
100
AcDbEntity
  8
L1
100
AcDbVertex
100
AcDb2dVertex
 10
103.1884172519323
 20
192.575438508787
 30
0.0
  0
VERTEX
  5
6FA
100
AcDbEntity
  8
L1
100
AcDbVertex
100
AcDb2dVertex
 10
103.2706034436845
 20
192.3302270591799
 30
0.0
  0
VERTEX
  5
6FB
100
AcDbEntity
  8
L1
100
AcDbVertex
100
AcDb2dVertex
 10
103.3298144594161
 20
192.0784773648081
 30
0.0
  0
VERTEX
  5
6FC
100
AcDbEntity
  8
L1
100
AcDbVertex
100
AcDb2dVertex
 10
103.3655451805633
 20
191.8223370571979
 30
0.0
  0
VERTEX
  5
6FD
100
AcDbEntity
  8
L1
100
AcDbVertex
100
AcDb2dVertex
 10
103.3774907947472
 20
191.5639912234099
 30
0.0
  0
SEQEND
  5
6FE
100
AcDbEntity
  8
L1
  0
POLYLINE
  5
17D
100
AcDbEntity
  8
L1
100
AcDb2dPolyline
 66
     1
 10
0.0
 20
0.0
 30
0.0
  0
VERTEX
  5
6FF
100
AcDbEntity
  8
L1
100
AcDbVertex
100
AcDb2dVertex
 10
103.5642924555398
 20
191.7507928842023
 30
0.0
  0
VERTEX
  5
700
100
AcDbEntity
  8
L1
100
AcDbVertex
100
AcDb2dVertex
 10
103.5508126121581
 20
192.025239166248
 30
0.0
  0
VERTEX
  5
701
100
AcDbEntity
  8
L1
100
AcDbVertex
100
AcDb2dVertex
 10
103.5104984095378
 20
192.2970403632569
 30
0.0
  0
VERTEX
  5
702
100
AcDbEntity
  8
L1
100
AcDbVertex
100
AcDb2dVertex
 10
103.4437380578749
 20
192.5635791347128
 30
0.0
  0
VERTEX
  5
703
100
AcDbEntity
  8
L1
100
AcDbVertex
100
AcDb2dVertex
 10
103.351174433563
 20
192.8222888152244
 30
0.0
  0
VERTEX
  5
704
100
AcDbEntity
  8
L1
100
AcDbVertex
100
AcDb2dVertex
 10
103.2336988885418
 20
193.0706781305214
 30
0.0
  0
VERTEX
  5
705
100
AcDbEntity
  8
L1
100
AcDbVertex
100
AcDb2dVertex
 10
103.0924426669232
 20
193.3063551874633
 30
0.0
  0
VERTEX
  5
706
100
AcDbEntity
  8
L1
100
AcDbVertex
100
AcDb2dVertex
 10
102.9287660115464
 20
193.5270505070462
 30
0.0
  0
VERTEX
  5
707
100
AcDbEntity
  8
L1
100
AcDbVertex
100
AcDb2dVertex
 10
102.7442450653661
 20
193.7306388786084
 30
0.0
  0
VERTEX
  5
708
100
AcDbEntity
  8
L1
100
AcDbVertex
100
AcDb2dVertex
 10
102.5406566938039
 20
193.9151598247887
 30
0.0
  0
VERTEX
  5
709
100
AcDbEntity
  8
L1
100
AcDbVertex
100
AcDb2dVertex
 10
102.3199613742211
 20
194.0788364801654
 30
0.0
  0
VERTEX
  5
70A
100
AcDbEntity
  8
L1
100
AcDbVertex
100
AcDb2dVertex
 10
102.0842843172791
 20
194.2200927017841
 30
0.0
  0
VERTEX
  5
70B
100
AcDbEntity
  8
L1
100
AcDbVertex
100
AcDb2dVertex
 10
101.8358950019821
 20
194.3375682468053
 30
0.0
  0
VERTEX
  5
70C
100
AcDbEntity
  8
L1
100
AcDbVertex
100
AcDb2dVertex
 10
101.5771853214705
 20
194.4301318711172
 30
0.0
  0
VERTEX
  5
70D
100
AcDbEntity
  8
L1
100
AcDbVertex
100
AcDb2dVertex
 10
101.3106465500146
 20
194.4968922227801
 30
0.0
  0
VERTEX
  5
70E
100
AcDbEntity
  8
L1
100
AcDbVertex
100
AcDb2dVertex
 10
101.0388453530058
 20
194.5372064254003
 30
0.0
  0
VERTEX
  5
70F
100
AcDbEntity
  8
L1
100
AcDbVertex
100
AcDb2dVertex
 10
100.7643990709601
 20
194.5506862687821
 30
0.0
  0
SEQEND
  5
710
100
AcDbEntity
  8
L1
  0
POLYLINE
  5
17E
100
AcDbEntity
  8
L1
100
AcDb2dPolyline
 66
     1
 10
0.0
 20
0.0
 30
0.0
  0
VERTEX
  5
711
100
AcDbEntity
  8
L1
100
AcDbVertex
100
AcDb2dVertex
 10
100.3812417478055
 20
189.2155573009013
 30
0.0
  0
VERTEX
  5
712
100
AcDbEntity
  8
L1
100
AcDbVertex
100
AcDb2dVertex
 10
100.4189793061359
 20
188.9570662400881
 30
0.0
  0
VERTEX
  5
713
100
AcDbEntity
  8
L1
100
AcDbVertex
100
AcDb2dVertex
 10
100.4575043088551
 20
188.7029137769694
 30
0.0
  0
VERTEX
  5
714
100
AcDbEntity
  8
L1
100
AcDbVertex
100
AcDb2dVertex
 10
100.4970188321038
 20
188.4517856596437
 30
0.0
  0
VERTEX
  5
715
100
AcDbEntity
  8
L1
100
AcDbVertex
100
AcDb2dVertex
 10
100.5377365347585
 20
188.2023911891806
 30
0.0
  0
SEQEND
  5
716
100
AcDbEntity
  8
L1
  0
CIRCLE
  5
17F
100
AcDbEntity
  8
L1
100
AcDbCircle
 10
95.99309393064505
 20
186.9794877438875
 30
0.0
 40
2.271817169476896
  0
ARC
  5
180
100
AcDbEntity
  8
L1
100
AcDbCircle
 10
95.99309393064515
 20
186.9794877438874
 30
0.0
 40
4.70630101413334
100
AcDbArc
 50
15.0607978502589
 51
74.939202149815
  0
POLYLINE
  5
181
100
AcDbEntity
  8
L1
100
AcDb2dPolyline
 66
     1
 10
0.0
 20
0.0
 30
0.0
  0
VERTEX
  5
717
100
AcDbEntity
  8
L1
100
AcDbVertex
100
AcDb2dVertex
 10
100.2751717919722
 20
185.026777211022
 30
0.0
  0
VERTEX
  5
718
100
AcDbEntity
  8
L1
100
AcDbVertex
100
AcDb2dVertex
 10
100.2032011382918
 20
184.7328409799309
 30
0.0
  0
VERTEX
  5
719
100
AcDbEntity
  8
L1
100
AcDbVertex
100
AcDb2dVertex
 10
100.132098908473
 20
184.4339156840614
 30
0.0
  0
VERTEX
  5
71A
100
AcDbEntity
  8
L1
100
AcDbVertex
100
AcDb2dVertex
 10
100.0613351839583
 20
184.1278054612938
 30
0.0
  0
VERTEX
  5
71B
100
AcDbEntity
  8
L1
100
AcDbVertex
100
AcDb2dVertex
 10
99.99038507990725
 20
183.812207606604
 30
0.0
  0
SEQEND
  5
71C
100
AcDbEntity
  8
L1
  0
LINE
  5
182
100
AcDbEntity
  8
L1
100
AcDbLine
 10
100.5377365347584
 20
188.2023911891808
 30
0.0
 11
100.6581974891104
 21
187.6008395157741
 31
0.0
  0
POLYLINE
  5
183
100
AcDbEntity
  8
L1
100
AcDb2dPolyline
 66
     1
 10
0.0
 20
0.0
 30
0.0
  0
VERTEX
  5
71D
100
AcDbEntity
  8
L1
100
AcDbVertex
100
AcDb2dVertex
 10
100.6630818281245
 20
186.3959791552371
 30
0.0
  0
VERTEX
  5
71E
100
AcDbEntity
  8
L1
100
AcDbVertex
100
AcDb2dVertex
 10
100.634605906629
 20
186.3484100891166
 30
0.0
  0
VERTEX
  5
71F
100
AcDbEntity
  8
L1
100
AcDbVertex
100
AcDb2dVertex
 10
100.6153696305039
 20
186.2964128290465
 30
0.0
  0
SEQEND
  5
720
100
AcDbEntity
  8
L1
  0
LINE
  5
184
100
AcDbEntity
  8
L1
100
AcDbLine
 10
100.6153696305039
 20
186.2964128290465
 30
0.0
 11
100.2751717919722
 21
185.0267772110216
 31
0.0
  0
LINE
  5
185
100
AcDbEntity
  8
L1
100
AcDbLine
 10
101.3268978081542
 20
186.2013163364451
 30
0.0
 11
101.3268978081542
 21
187.7576591513298
 31
0.0
  0
LINE
  5
186
100
AcDbEntity
  8
L1
100
AcDbLine
 10
101.3225343742586
 20
187.7620225852252
 30
0.0
 11
101.3268978081542
 21
187.7576591513298
 31
0.0
  0
LINE
  5
187
100
AcDbEntity
  8
L1
100
AcDbLine
 10
100.942155519841
 20
187.4620340083059
 30
0.0
 11
100.9384941640688
 21
187.4576705744106
 31
0.0
  0
POLYLINE
  5
188
100
AcDbEntity
  8
L1
100
AcDb2dPolyline
 66
     1
 10
0.0
 20
0.0
 30
0.0
  0
VERTEX
  5
721
100
AcDbEntity
  8
L1
100
AcDbVertex
100
AcDb2dVertex
 10
100.8495470362198
 20
187.4711598678448
 30
0.0
  0
VERTEX
  5
722
100
AcDbEntity
  8
L1
100
AcDbVertex
100
AcDb2dVertex
 10
100.8935118791103
 20
187.4610620674138
 30
0.0
  0
VERTEX
  5
723
100
AcDbEntity
  8
L1
100
AcDbVertex
100
AcDb2dVertex
 10
100.9384941640688
 20
187.4576705744105
 30
0.0
  0
SEQEND
  5
724
100
AcDbEntity
  8
L1
  0
POLYLINE
  5
189
100
AcDbEntity
  8
L1
100
AcDb2dPolyline
 66
     1
 10
0.0
 20
0.0
 30
0.0
  0
VERTEX
  5
725
100
AcDbEntity
  8
L1
100
AcDbVertex
100
AcDb2dVertex
 10
100.6581974891104
 20
187.6008395157741
 30
0.0
  0
VERTEX
  5
726
100
AcDbEntity
  8
L1
100
AcDbVertex
100
AcDb2dVertex
 10
100.6889637226627
 20
187.5587898349878
 30
0.0
  0
VERTEX
  5
727
100
AcDbEntity
  8
L1
100
AcDbVertex
100
AcDb2dVertex
 10
100.7230381664897
 20
187.5271045994784
 30
0.0
  0
VERTEX
  5
728
100
AcDbEntity
  8
L1
100
AcDbVertex
100
AcDb2dVertex
 10
100.8370057504175
 20
187.4737750449308
 30
0.0
  0
VERTEX
  5
729
100
AcDbEntity
  8
L1
100
AcDbVertex
100
AcDb2dVertex
 10
100.8495470362198
 20
187.4711598678448
 30
0.0
  0
SEQEND
  5
72A
100
AcDbEntity
  8
L1
  0
LINE
  5
18A
100
AcDbEntity
  8
L1
100
AcDbLine
 10
101.0269092312349
 20
187.4576705744106
 30
0.0
 11
101.0225457973393
 21
187.4620340083059
 31
0.0
  0
LINE
  5
18B
100
AcDbEntity
  8
L1
100
AcDbLine
 10
101.0269092312349
 20
187.4576705744106
 30
0.0
 11
100.9384941640688
 21
187.4576705744106
 31
0.0
  0
POLYLINE
  5
18C
100
AcDbEntity
  8
L1
100
AcDb2dPolyline
 66
     1
 10
0.0
 20
0.0
 30
0.0
  0
VERTEX
  5
72B
100
AcDbEntity
  8
L1
100
AcDbVertex
100
AcDb2dVertex
 10
101.0269092312349
 20
187.4576705744106
 30
0.0
  0
VERTEX
  5
72C
100
AcDbEntity
  8
L1
100
AcDbVertex
100
AcDb2dVertex
 10
101.2390345739778
 20
187.545533808587
 30
0.0
  0
VERTEX
  5
72D
100
AcDbEntity
  8
L1
100
AcDbVertex
100
AcDb2dVertex
 10
101.3268978081542
 20
187.7576591513298
 30
0.0
  0
SEQEND
  5
72E
100
AcDbEntity
  8
L1
  0
POLYLINE
  5
18D
100
AcDbEntity
  8
L1
100
AcDb2dPolyline
 66
     1
 10
0.0
 20
0.0
 30
0.0
  0
VERTEX
  5
72F
100
AcDbEntity
  8
L1
100
AcDbVertex
100
AcDb2dVertex
 10
101.3268978081544
 20
186.2013163364451
 30
0.0
  0
VERTEX
  5
730
100
AcDbEntity
  8
L1
100
AcDbVertex
100
AcDb2dVertex
 10
101.2390345739779
 20
186.4134416791879
 30
0.0
  0
VERTEX
  5
731
100
AcDbEntity
  8
L1
100
AcDbVertex
100
AcDb2dVertex
 10
101.026909231235
 20
186.5013049133643
 30
0.0
  0
SEQEND
  5
732
100
AcDbEntity
  8
L1
  0
LINE
  5
18E
100
AcDbEntity
  8
L1
100
AcDbLine
 10
100.9185290668946
 20
186.5013049133643
 30
0.0
 11
101.026909231235
 21
186.5013049133643
 31
0.0
  0
POLYLINE
  5
18F
100
AcDbEntity
  8
L1
100
AcDb2dPolyline
 66
     1
 10
0.0
 20
0.0
 30
0.0
  0
VERTEX
  5
733
100
AcDbEntity
  8
L1
100
AcDbVertex
100
AcDb2dVertex
 10
100.8501090116285
 20
186.4933985059664
 30
0.0
  0
VERTEX
  5
734
100
AcDbEntity
  8
L1
100
AcDbVertex
100
AcDb2dVertex
 10
100.8154616411375
 20
186.4873567668588
 30
0.0
  0
VERTEX
  5
735
100
AcDbEntity
  8
L1
100
AcDbVertex
100
AcDb2dVertex
 10
100.7023146797021
 20
186.4339268981098
 30
0.0
  0
VERTEX
  5
736
100
AcDbEntity
  8
L1
100
AcDbVertex
100
AcDb2dVertex
 10
100.668475426882
 20
186.402211925236
 30
0.0
  0
VERTEX
  5
737
100
AcDbEntity
  8
L1
100
AcDbVertex
100
AcDb2dVertex
 10
100.6630818281245
 20
186.3959791552371
 30
0.0
  0
SEQEND
  5
738
100
AcDbEntity
  8
L1
  0
POLYLINE
  5
190
100
AcDbEntity
  8
L1
100
AcDb2dPolyline
 66
     1
 10
0.0
 20
0.0
 30
0.0
  0
VERTEX
  5
739
100
AcDbEntity
  8
L1
100
AcDbVertex
100
AcDb2dVertex
 10
100.9185290668946
 20
186.5013049133643
 30
0.0
  0
VERTEX
  5
73A
100
AcDbEntity
  8
L1
100
AcDbVertex
100
AcDb2dVertex
 10
100.8840912803179
 20
186.4993217569152
 30
0.0
  0
VERTEX
  5
73B
100
AcDbEntity
  8
L1
100
AcDbVertex
100
AcDb2dVertex
 10
100.8501090116285
 20
186.4933985059663
 30
0.0
  0
SEQEND
  5
73C
100
AcDbEntity
  8
L1
  0
ARC
  5
191
100
AcDbEntity
  8
L1
100
AcDbCircle
 10
95.99309393064515
 20
186.9794877438874
 30
0.0
 40
4.70630101413334
100
AcDbArc
 50
352.8778816874932
 51
7.586654266025957
  0
POLYLINE
  5
192
100
AcDbEntity
  8
L1
100
AcDb2dPolyline
 66
     1
 10
0.0
 20
0.0
 30
0.0
  0
VERTEX
  5
73D
100
AcDbEntity
  8
L1
100
AcDbVertex
100
AcDb2dVertex
 10
97.21599737593273
 20
191.5241303480023
 30
0.0
  0
VERTEX
  5
73E
100
AcDbEntity
  8
L1
100
AcDbVertex
100
AcDb2dVertex
 10
97.46539184639699
 20
191.4834126453474
 30
0.0
  0
VERTEX
  5
73F
100
AcDbEntity
  8
L1
100
AcDbVertex
100
AcDb2dVertex
 10
97.71651996372373
 20
191.4438981220986
 30
0.0
  0
VERTEX
  5
740
100
AcDbEntity
  8
L1
100
AcDbVertex
100
AcDb2dVertex
 10
97.97067242684329
 20
191.4053731193793
 30
0.0
  0
VERTEX
  5
741
100
AcDbEntity
  8
L1
100
AcDbVertex
100
AcDb2dVertex
 10
98.22916348765739
 20
191.3676355610487
 30
0.0
  0
SEQEND
  5
742
100
AcDbEntity
  8
L1
  0
POLYLINE
  5
193
100
AcDbEntity
  8
L1
100
AcDb2dPolyline
 66
     1
 10
0.0
 20
0.0
 30
0.0
  0
VERTEX
  5
743
100
AcDbEntity
  8
L1
100
AcDbVertex
100
AcDb2dVertex
 10
96.77126533808735
 20
192.3132916213996
 30
0.0
  0
VERTEX
  5
744
100
AcDbEntity
  8
L1
100
AcDbVertex
100
AcDb2dVertex
 10
96.5591399953446
 20
192.2254283872232
 30
0.0
  0
VERTEX
  5
745
100
AcDbEntity
  8
L1
100
AcDbVertex
100
AcDb2dVertex
 10
96.47127676116816
 20
192.0133030444804
 30
0.0
  0
SEQEND
  5
746
100
AcDbEntity
  8
L1
  0
LINE
  5
194
100
AcDbEntity
  8
L1
100
AcDbLine
 10
96.48476605460269
 20
191.8359408494621
 30
0.0
 11
96.47127676116816
 21
192.0133030444804
 31
0.0
  0
POLYLINE
  5
195
100
AcDbEntity
  8
L1
100
AcDb2dPolyline
 66
     1
 10
0.0
 20
0.0
 30
0.0
  0
VERTEX
  5
747
100
AcDbEntity
  8
L1
100
AcDbVertex
100
AcDb2dVertex
 10
96.61444570253332
 20
191.6445913023525
 30
0.0
  0
VERTEX
  5
748
100
AcDbEntity
  8
L1
100
AcDbVertex
100
AcDb2dVertex
 10
96.65693115166504
 20
191.6263280979636
 30
0.0
  0
VERTEX
  5
749
100
AcDbEntity
  8
L1
100
AcDbVertex
100
AcDb2dVertex
 10
96.70171913280297
 20
191.6148114778575
 30
0.0
  0
SEQEND
  5
74A
100
AcDbEntity
  8
L1
  0
POLYLINE
  5
196
100
AcDbEntity
  8
L1
100
AcDb2dPolyline
 66
     1
 10
0.0
 20
0.0
 30
0.0
  0
VERTEX
  5
74B
100
AcDbEntity
  8
L1
100
AcDbVertex
100
AcDb2dVertex
 10
96.48476605460269
 20
191.8359408494621
 30
0.0
  0
VERTEX
  5
74C
100
AcDbEntity
  8
L1
100
AcDbVertex
100
AcDb2dVertex
 10
96.48738123168847
 20
191.8233995636604
 30
0.0
  0
VERTEX
  5
74D
100
AcDbEntity
  8
L1
100
AcDbVertex
100
AcDb2dVertex
 10
96.5407107862361
 20
191.7094319797328
 30
0.0
  0
VERTEX
  5
74E
100
AcDbEntity
  8
L1
100
AcDbVertex
100
AcDb2dVertex
 10
96.57239602174536
 20
191.6753575359057
 30
0.0
  0
VERTEX
  5
74F
100
AcDbEntity
  8
L1
100
AcDbVertex
100
AcDb2dVertex
 10
96.61444570253332
 20
191.6445913023525
 30
0.0
  0
SEQEND
  5
750
100
AcDbEntity
  8
L1
  0
LINE
  5
197
100
AcDbEntity
  8
L1
100
AcDbLine
 10
96.70171913280297
 20
191.6148114778575
 30
0.0
 11
97.21599737593273
 21
191.5241303480024
 31
0.0
  0
POLYLINE
  5
198
100
AcDbEntity
  8
L1
100
AcDb2dPolyline
 66
     1
 10
0.0
 20
0.0
 30
0.0
  0
VERTEX
  5
751
100
AcDbEntity
  8
L1
100
AcDbVertex
100
AcDb2dVertex
 10
95.51491110012193
 20
192.0133030444804
 30
0.0
  0
VERTEX
  5
752
100
AcDbEntity
  8
L1
100
AcDbVertex
100
AcDb2dVertex
 10
95.4270478659455
 20
192.2254283872232
 30
0.0
  0
VERTEX
  5
753
100
AcDbEntity
  8
L1
100
AcDbVertex
100
AcDb2dVertex
 10
95.21492252320275
 20
192.3132916213996
 30
0.0
  0
SEQEND
  5
754
100
AcDbEntity
  8
L1
  0
LINE
  5
199
100
AcDbEntity
  8
L1
100
AcDbLine
 10
96.77126533808735
 20
192.3132916213997
 30
0.0
 11
95.21492252320275
 21
192.3132916213997
 31
0.0
  0
POLYLINE
  5
19A
100
AcDbEntity
  8
L1
100
AcDb2dPolyline
 66
     1
 10
0.0
 20
0.0
 30
0.0
  0
VERTEX
  5
755
100
AcDbEntity
  8
L1
100
AcDbVertex
100
AcDb2dVertex
 10
95.50700469272385
 20
191.8365028248709
 30
0.0
  0
VERTEX
  5
756
100
AcDbEntity
  8
L1
100
AcDbVertex
100
AcDb2dVertex
 10
95.51292794367283
 20
191.8704850935606
 30
0.0
  0
VERTEX
  5
757
100
AcDbEntity
  8
L1
100
AcDbVertex
100
AcDb2dVertex
 10
95.51491110012205
 20
191.9049228801375
 30
0.0
  0
SEQEND
  5
758
100
AcDbEntity
  8
L1
  0
POLYLINE
  5
19B
100
AcDbEntity
  8
L1
100
AcDb2dPolyline
 66
     1
 10
0.0
 20
0.0
 30
0.0
  0
VERTEX
  5
759
100
AcDbEntity
  8
L1
100
AcDbVertex
100
AcDb2dVertex
 10
95.40958534199376
 20
191.6494756413667
 30
0.0
  0
VERTEX
  5
75A
100
AcDbEntity
  8
L1
100
AcDbVertex
100
AcDb2dVertex
 10
95.41581811199376
 20
191.654869240125
 30
0.0
  0
VERTEX
  5
75B
100
AcDbEntity
  8
L1
100
AcDbVertex
100
AcDb2dVertex
 10
95.44753308486724
 20
191.688708492945
 30
0.0
  0
VERTEX
  5
75C
100
AcDbEntity
  8
L1
100
AcDbVertex
100
AcDb2dVertex
 10
95.5009629536163
 20
191.8018554543803
 30
0.0
  0
VERTEX
  5
75D
100
AcDbEntity
  8
L1
100
AcDbVertex
100
AcDb2dVertex
 10
95.50700469272385
 20
191.8365028248709
 30
0.0
  0
SEQEND
  5
75E
100
AcDbEntity
  8
L1
  0
POLYLINE
  5
19C
100
AcDbEntity
  8
L1
100
AcDb2dPolyline
 66
     1
 10
0.0
 20
0.0
 30
0.0
  0
VERTEX
  5
75F
100
AcDbEntity
  8
L1
100
AcDbVertex
100
AcDb2dVertex
 10
95.31001901580419
 20
191.6017634437467
 30
0.0
  0
VERTEX
  5
760
100
AcDbEntity
  8
L1
100
AcDbVertex
100
AcDb2dVertex
 10
95.36201627587365
 20
191.6209997198717
 30
0.0
  0
VERTEX
  5
761
100
AcDbEntity
  8
L1
100
AcDbVertex
100
AcDb2dVertex
 10
95.40958534199376
 20
191.6494756413667
 30
0.0
  0
SEQEND
  5
762
100
AcDbEntity
  8
L1
  0
LINE
  5
19D
100
AcDbEntity
  8
L1
100
AcDbLine
 10
95.51491110012193
 20
192.0133030444804
 30
0.0
 11
95.51491110012193
 21
191.9049228801375
 31
0.0
  0
ARC
  5
19E
100
AcDbEntity
  8
L1
100
AcDbCircle
 10
95.99309393064515
 20
186.9794877438874
 30
0.0
 40
4.70630101413334
100
AcDbArc
 50
82.41334573395445
 51
97.12211831251927
  0
LINE
  5
19F
100
AcDbEntity
  8
L1
100
AcDbLine
 10
94.04038339778287
 20
191.2615656052161
 30
0.0
 11
95.31001901580419
 21
191.6017634437467
 31
0.0
  0
ARC
  5
1A0
100
AcDbEntity
  8
L1
100
AcDbCircle
 10
100.2748955810065
 20
191.2612893942488
 30
0.0
 40
1.097404786259289
100
AcDbArc
 50
0.0
 51
90.0
  0
ARC
  5
1A1
100
AcDbEntity
  8
L1
100
AcDbCircle
 10
95.99309393064515
 20
186.9794877438874
 30
0.0
 40
4.925022672948151
100
AcDbArc
 50
27.00203754946696
 51
62.99796245055369
  0
LINE
  5
1A2
100
AcDbEntity
  8
L1
100
AcDbLine
 10
137.9592873852749
 20
194.5226400333366
 30
0.0
 11
159.3646375373814
 21
194.3358383725442
 31
0.0
  0
LINE
  5
1A3
100
AcDbEntity
  8
L1
100
AcDbLine
 10
139.644377450099
 20
180.7074090354474
 30
0.0
 11
158.166382844481
 21
180.5457699431508
 31
0.0
  0
LINE
  5
1A4
100
AcDbEntity
  8
L1
100
AcDbLine
 10
137.6619053459244
 20
195.2252619019467
 30
0.0
 11
137.6619053459244
 21
182.7073328873746
 31
0.0
  0
LINE
  5
1A5
100
AcDbEntity
  8
L1
100
AcDbLine
 10
134.662296988039
 20
181.8514439293737
 30
0.0
 11
134.6620195767319
 21
181.8514415084418
 31
0.0
  0
LINE
  5
1A6
100
AcDbEntity
  8
L1
100
AcDbLine
 10
134.6620195767319
 20
182.2064272661165
 30
0.0
 11
134.6628375255679
 21
182.206434404248
 31
0.0
  0
POLYLINE
  5
1A7
100
AcDbEntity
  8
L1
100
AcDb2dPolyline
 66
     1
 10
0.0
 20
0.0
 30
0.0
  0
VERTEX
  5
763
100
AcDbEntity
  8
L1
100
AcDbVertex
100
AcDb2dVertex
 10
134.6620195767319
 20
181.0025901916954
 30
0.0
  0
VERTEX
  5
764
100
AcDbEntity
  8
L1
100
AcDbVertex
100
AcDb2dVertex
 10
134.6622139456733
 20
181.0025939338378
 30
0.0
  0
SEQEND
  5
765
100
AcDbEntity
  8
L1
  0
POLYLINE
  5
1A8
100
AcDbEntity
  8
L1
100
AcDb2dPolyline
 66
     1
 10
0.0
 20
0.0
 30
0.0
  0
VERTEX
  5
766
100
AcDbEntity
  8
L1
100
AcDbVertex
100
AcDb2dVertex
 10
134.6626031752241
 20
181.002601427577
 30
0.0
  0
VERTEX
  5
767
100
AcDbEntity
  8
L1
100
AcDbVertex
100
AcDb2dVertex
 10
134.6620195767319
 20
181.0025901916955
 30
0.0
  0
SEQEND
  5
768
100
AcDbEntity
  8
L1
  0
POLYLINE
  5
1A9
100
AcDbEntity
  8
L1
100
AcDb2dPolyline
 66
     1
 10
0.0
 20
0.0
 30
0.0
  0
VERTEX
  5
769
100
AcDbEntity
  8
L1
100
AcDbVertex
100
AcDb2dVertex
 10
134.6620195767319
 20
180.3207434096609
 30
0.0
  0
VERTEX
  5
76A
100
AcDbEntity
  8
L1
100
AcDbVertex
100
AcDb2dVertex
 10
134.6644666529227
 20
180.3207714656913
 30
0.0
  0
SEQEND
  5
76B
100
AcDbEntity
  8
L1
  0
POLYLINE
  5
1AA
100
AcDbEntity
  8
L1
100
AcDb2dPolyline
 66
     1
 10
0.0
 20
0.0
 30
0.0
  0
VERTEX
  5
76C
100
AcDbEntity
  8
L1
100
AcDbVertex
100
AcDb2dVertex
 10
134.6620195767319
 20
181.8884005856864
 30
0.0
  0
VERTEX
  5
76D
100
AcDbEntity
  8
L1
100
AcDbVertex
100
AcDb2dVertex
 10
134.66645335228
 20
181.8530493992201
 30
0.0
  0
SEQEND
  5
76E
100
AcDbEntity
  8
L1
  0
POLYLINE
  5
1AB
100
AcDbEntity
  8
L1
100
AcDb2dPolyline
 66
     1
 10
0.0
 20
0.0
 30
0.0
  0
VERTEX
  5
76F
100
AcDbEntity
  8
L1
100
AcDbVertex
100
AcDb2dVertex
 10
134.6620290344544
 20
182.0885103543372
 30
0.0
  0
VERTEX
  5
770
100
AcDbEntity
  8
L1
100
AcDbVertex
100
AcDb2dVertex
 10
134.6620195767319
 20
182.0885103626272
 30
0.0
  0
SEQEND
  5
771
100
AcDbEntity
  8
L1
  0
LINE
  5
1AC
100
AcDbEntity
  8
L1
100
AcDbLine
 10
134.6620195767319
 20
178.7286526502678
 30
0.0
 11
134.6628375255679
 21
178.7286597883993
 31
0.0
  0
ARC
  5
1AD
100
AcDbEntity
  8
L1
100
AcDbCircle
 10
134.9620195767319
 20
178.4488348716203
 30
0.0
 40
0.3
100
AcDbArc
 50
180.0
 51
180.1376379803442
  0
ELLIPSE
  5
1AE
100
AcDbEntity
  8
L1
100
AcDbEllipse
 10
139.6618291920527
 20
182.7073328873746
 30
0.0
 11
0.0
 21
2.0
 31
0.0
210
0.0
220
0.0
230
-1.0
 40
0.9999619230641712
 41
-3.132866339596933
 42
-1.570796326794896
  0
POLYLINE
  5
1AF
100
AcDbEntity
  8
L1
100
AcDb2dPolyline
 66
     1
 10
0.0
 20
0.0
 30
0.0
  0
VERTEX
  5
772
100
AcDbEntity
  8
L1
100
AcDbVertex
100
AcDb2dVertex
 10
135.2568287556666
 20
191.746383956652
 30
0.0
  0
VERTEX
  5
773
100
AcDbEntity
  8
L1
100
AcDbVertex
100
AcDb2dVertex
 10
135.2568278500854
 20
191.7489127253736
 30
0.0
  0
VERTEX
  5
774
100
AcDbEntity
  8
L1
100
AcDbVertex
100
AcDb2dVertex
 10
135.256825133342
 20
191.7514415084419
 30
0.0
  0
SEQEND
  5
775
100
AcDbEntity
  8
L1
  0
LINE
  5
1B1
100
AcDbEntity
  8
L1
100
AcDbLine
 10
134.6620195767319
 20
191.8286526502679
 30
0.0
 11
134.6621351830406
 21
191.8286536591488
 31
0.0
  0
ARC
  5
1B2
100
AcDbEntity
  8
L1
100
AcDbCircle
 10
134.9620195767319
 20
191.3488348716203
 30
0.0
 40
0.3
100
AcDbArc
 50
180.0
 51
180.7471578646091
  0
ARC
  5
1B3
100
AcDbEntity
  8
L1
100
AcDbCircle
 10
137.9619053459243
 20
194.8226286102559
 30
0.0
 40
0.2999999999999936
100
AcDbArc
 50
180.0655753266724
 51
269.5000000000046
  0
LINE
  5
1B4
100
AcDbEntity
  8
L1
100
AcDbLine
 10
159.6620195767319
 20
191.5359449879644
 30
0.0
 11
159.6620195767319
 21
180.6306365219818
 31
0.0
  0
POLYLINE
  5
1B5
100
AcDbEntity
  8
L1
100
AcDb2dPolyline
 66
     1
 10
0.0
 20
0.0
 30
0.0
  0
VERTEX
  5
776
100
AcDbEntity
  8
L1
100
AcDbVertex
100
AcDb2dVertex
 10
158.6532757695868
 20
180.5450039589594
 30
0.0
  0
VERTEX
  5
777
100
AcDbEntity
  8
L1
100
AcDbVertex
100
AcDb2dVertex
 10
158.6620195767319
 20
180.5605620398203
 30
0.0
  0
SEQEND
  5
778
100
AcDbEntity
  8
L1
  0
POLYLINE
  5
1B6
100
AcDbEntity
  8
L1
100
AcDb2dPolyline
 66
     1
 10
0.0
 20
0.0
 30
0.0
  0
VERTEX
  5
779
100
AcDbEntity
  8
L1
100
AcDbVertex
100
AcDb2dVertex
 10
158.1663828444811
 20
180.5457699431508
 30
0.0
  0
VERTEX
  5
77A
100
AcDbEntity
  8
L1
100
AcDbVertex
100
AcDb2dVertex
 10
158.4826408057002
 20
180.5439923065181
 30
0.0
  0
VERTEX
  5
77B
100
AcDbEntity
  8
L1
100
AcDbVertex
100
AcDb2dVertex
 10
158.6532757695868
 20
180.5450039589594
 30
0.0
  0
SEQEND
  5
77C
100
AcDbEntity
  8
L1
  0
LINE
  5
1B7
100
AcDbEntity
  8
L1
100
AcDbLine
 10
159.3646375373814
 20
180.3306479450626
 30
0.0
 11
158.6621178007963
 21
180.324517148201
 31
0.0
  0
ARC
  5
1B8
100
AcDbEntity
  8
L1
100
AcDbCircle
 10
159.3620195767318
 20
180.6306365219818
 30
0.0
 40
0.299999999999996
100
AcDbArc
 50
270.4999999999987
 51
0.0
  0
POLYLINE
  5
1B9
100
AcDbEntity
  8
L1
100
AcDb2dPolyline
 66
     1
 10
0.0
 20
0.0
 30
0.0
  0
VERTEX
  5
77D
100
AcDbEntity
  8
L1
100
AcDbVertex
100
AcDb2dVertex
 10
159.6620195767319
 20
194.0358497956248
 30
0.0
  0
VERTEX
  5
77E
100
AcDbEntity
  8
L1
100
AcDbVertex
100
AcDb2dVertex
 10
159.6620195767319
 20
194.0288596998854
 30
0.0
  0
VERTEX
  5
77F
100
AcDbEntity
  8
L1
100
AcDbVertex
100
AcDb2dVertex
 10
159.6620195767319
 20
194.0079285003296
 30
0.0
  0
VERTEX
  5
780
100
AcDbEntity
  8
L1
100
AcDbVertex
100
AcDb2dVertex
 10
159.6620195767319
 20
193.9731732413713
 30
0.0
  0
VERTEX
  5
781
100
AcDbEntity
  8
L1
100
AcDbVertex
100
AcDb2dVertex
 10
159.6620195767319
 20
193.9247882696803
 30
0.0
  0
VERTEX
  5
782
100
AcDbEntity
  8
L1
100
AcDbVertex
100
AcDb2dVertex
 10
159.6620195767319
 20
193.8630441474218
 30
0.0
  0
VERTEX
  5
783
100
AcDbEntity
  8
L1
100
AcDbVertex
100
AcDb2dVertex
 10
159.6620195767319
 20
193.7882861393091
 30
0.0
  0
VERTEX
  5
784
100
AcDbEntity
  8
L1
100
AcDbVertex
100
AcDb2dVertex
 10
159.6620195767319
 20
193.7009322819315
 30
0.0
  0
VERTEX
  5
785
100
AcDbEntity
  8
L1
100
AcDbVertex
100
AcDb2dVertex
 10
159.6620195767319
 20
193.6014710461498
 30
0.0
  0
VERTEX
  5
786
100
AcDbEntity
  8
L1
100
AcDbVertex
100
AcDb2dVertex
 10
159.6620195767319
 20
193.4904586056341
 30
0.0
  0
VERTEX
  5
787
100
AcDbEntity
  8
L1
100
AcDbVertex
100
AcDb2dVertex
 10
159.6620195767319
 20
193.3685157268166
 30
0.0
  0
VERTEX
  5
788
100
AcDbEntity
  8
L1
100
AcDbVertex
100
AcDb2dVertex
 10
159.6620195767319
 20
193.2363242976503
 30
0.0
  0
VERTEX
  5
789
100
AcDbEntity
  8
L1
100
AcDbVertex
100
AcDb2dVertex
 10
159.6620195767319
 20
193.0946235145845
 30
0.0
  0
VERTEX
  5
78A
100
AcDbEntity
  8
L1
100
AcDbVertex
100
AcDb2dVertex
 10
159.6620195767319
 20
192.9442057490788
 30
0.0
  0
VERTEX
  5
78B
100
AcDbEntity
  8
L1
100
AcDbVertex
100
AcDb2dVertex
 10
159.6620195767319
 20
192.7859121167703
 30
0.0
  0
VERTEX
  5
78C
100
AcDbEntity
  8
L1
100
AcDbVertex
100
AcDb2dVertex
 10
159.6620195767319
 20
192.6206277740697
 30
0.0
  0
VERTEX
  5
78D
100
AcDbEntity
  8
L1
100
AcDbVertex
100
AcDb2dVertex
 10
159.6620195767319
 20
192.4492769684868
 30
0.0
  0
VERTEX
  5
78E
100
AcDbEntity
  8
L1
100
AcDbVertex
100
AcDb2dVertex
 10
159.6620195767319
 20
192.2728178703649
 30
0.0
  0
VERTEX
  5
78F
100
AcDbEntity
  8
L1
100
AcDbVertex
100
AcDb2dVertex
 10
159.6620195767319
 20
192.0922372149226
 30
0.0
  0
VERTEX
  5
790
100
AcDbEntity
  8
L1
100
AcDbVertex
100
AcDb2dVertex
 10
159.6620195767319
 20
191.9085447845652
 30
0.0
  0
VERTEX
  5
791
100
AcDbEntity
  8
L1
100
AcDbVertex
100
AcDb2dVertex
 10
159.6620195767319
 20
191.7227677623191
 30
0.0
  0
VERTEX
  5
792
100
AcDbEntity
  8
L1
100
AcDbVertex
100
AcDb2dVertex
 10
159.6620195767319
 20
191.5359449879644
 30
0.0
  0
SEQEND
  5
793
100
AcDbEntity
  8
L1
  0
POLYLINE
  5
1BA
100
AcDbEntity
  8
L1
100
AcDb2dPolyline
 66
     1
 10
0.0
 20
0.0
 30
0.0
  0
VERTEX
  5
794
100
AcDbEntity
  8
L1
100
AcDbVertex
100
AcDb2dVertex
 10
158.6620195767319
 20
194.342205496798
 30
0.0
  0
VERTEX
  5
795
100
AcDbEntity
  8
L1
100
AcDbVertex
100
AcDb2dVertex
 10
158.6620195767319
 20
194.4018791899711
 30
0.0
  0
VERTEX
  5
796
100
AcDbEntity
  8
L1
100
AcDbVertex
100
AcDb2dVertex
 10
158.6620195767319
 20
194.5463410761661
 30
0.0
  0
SEQEND
  5
797
100
AcDbEntity
  8
L1
  0
POLYLINE
  5
1BB
100
AcDbEntity
  8
L1
100
AcDb2dPolyline
 66
     1
 10
0.0
 20
0.0
 30
0.0
  0
VERTEX
  5
798
100
AcDbEntity
  8
L1
100
AcDbVertex
100
AcDb2dVertex
 10
158.6620195767319
 20
194.5463410761662
 30
0.0
  0
VERTEX
  5
799
100
AcDbEntity
  8
L1
100
AcDbVertex
100
AcDb2dVertex
 10
158.6532757695868
 20
194.6394396958215
 30
0.0
  0
SEQEND
  5
79A
100
AcDbEntity
  8
L1
  0
ARC
  5
1BC
100
AcDbEntity
  8
L1
100
AcDbCircle
 10
159.3620195767318
 20
194.035849795625
 30
0.0
 40
0.2999999999999962
100
AcDbArc
 50
0.0
 51
89.49999999999789
  0
LINE
  5
1BD
100
AcDbEntity
  8
L1
100
AcDbLine
 10
158.1663828444811
 20
195.0463220376983
 30
0.0
 11
135.2568287556666
 21
195.2462506873765
 31
0.0
  0
POLYLINE
  5
1BF
100
AcDbEntity
  8
L1
100
AcDb2dPolyline
 66
     1
 10
0.0
 20
0.0
 30
0.0
  0
VERTEX
  5
79B
100
AcDbEntity
  8
L1
100
AcDbVertex
100
AcDb2dVertex
 10
135.256825133342
 20
195.246247065052
 30
0.0
  0
VERTEX
  5
79C
100
AcDbEntity
  8
L1
100
AcDbVertex
100
AcDb2dVertex
 10
135.2568278500854
 20
195.2462497817955
 30
0.0
  0
VERTEX
  5
79D
100
AcDbEntity
  8
L1
100
AcDbVertex
100
AcDb2dVertex
 10
135.2568287556666
 20
195.2462506873766
 30
0.0
  0
SEQEND
  5
79E
100
AcDbEntity
  8
L1
  0
LINE
  5
1C1
100
AcDbEntity
  8
L1
100
AcDbLine
 10
184.1253147565371
 20
83.05144150844057
 30
0.0
 11
184.1253147565371
 21
177.3514415084406
 31
0.0
  0
LINE
  5
1C2
100
AcDbEntity
  8
L1
100
AcDbLine
 10
189.1591948152143
 20
83.03468288588499
 30
0.0
 11
189.1591948152142
 21
177.3682001309961
 31
0.0
  0
LINE
  5
1C3
100
AcDbEntity
  8
L1
100
AcDbLine
 10
186.770793472852
 20
177.3514415084406
 30
0.0
 11
186.770793472852
 21
83.05144150844057
 31
0.0
  0
LINE
  5
1C4
100
AcDbEntity
  8
L1
100
AcDbLine
 10
362.6706944728188
 20
177.3514415084406
 30
0.0
 11
362.6706944728188
 21
83.05144150844062
 31
0.0
  0
LINE
  5
1C5
100
AcDbEntity
  8
L1
100
AcDbLine
 10
357.6368144141416
 20
177.3682001309962
 30
0.0
 11
357.6368144141416
 21
83.03468288588504
 31
0.0
  0
LINE
  5
1C6
100
AcDbEntity
  8
L1
100
AcDbLine
 10
360.0252157565039
 20
83.05144150844062
 30
0.0
 11
360.0252157565039
 21
177.3514415084406
 31
0.0
  0
LINE
  5
1C9
100
AcDbEntity
  8
L1
100
AcDbLine
 10
183.9480046146779
 20
191.7514415084406
 30
0.0
 11
183.9480046146779
 21
68.65144150844059
 31
0.0
  0
LINE
  5
1CA
100
AcDbEntity
  8
L1
100
AcDbLine
 10
362.8480046146779
 20
68.65144150844063
 30
0.0
 11
362.8480046146779
 21
191.7514415084406
 31
0.0
  0
LINE
  5
1CB
100
AcDbEntity
  8
L1
100
AcDbLine
 10
363.4428137936126
 20
191.7463839566508
 30
0.0
 11
363.4428137936126
 21
68.65649906023048
 31
0.0
  0
LINE
  5
1CC
100
AcDbEntity
  8
L1
100
AcDbLine
 10
183.3531954357432
 20
68.65649906023048
 30
0.0000000000000018
 11
183.3531954357432
 21
191.7463839566507
 31
0.0000000000000018
  0
LINE
  5
1CF
100
AcDbEntity
  8
L6
100
AcDbLine
 10
273.3980046146779
 20
57.7957355442183
 30
0.0
 11
273.3980046146779
 21
200.8366947992559
 31
0.0
  0
LINE
  5
1D0
100
AcDbEntity
  8
L6
100
AcDbLine
 10
180.4471832600908
 20
130.2014415084406
 30
0.0
 11
370.4650316246338
 21
130.2014415084406
 31
0.0
  0
LINE
  5
1D1
100
AcDbEntity
  8
L6
 62
     1
100
AcDbLine
 10
328.3980046146779
 20
85.2014415084406
 30
0.0
 11
318.3980046146779
 21
85.2014415084406
 31
0.0
  0
CIRCLE
  5
1D2
100
AcDbEntity
  8
L1
100
AcDbCircle
 10
323.3980046146779
 20
85.2014415084406
 30
0.0
 40
4.091897474510698
  0
LINE
  5
1D3
100
AcDbEntity
  8
L1
100
AcDbLine
 10
345.5480046146779
 20
65.92875165029983
 30
0.0
 11
201.2480046146779
 21
65.9287516502998
 31
0.0
  0
LINE
  5
1D4
100
AcDbEntity
  8
L1
100
AcDbLine
 10
359.942947062888
 20
65.15663232950593
 30
0.0
 11
186.8530621664678
 21
65.1566323295059
 31
0.0
  0
LINE
  5
1D5
100
AcDbEntity
  8
L1
100
AcDbLine
 10
186.8480046146779
 20
65.75144150844062
 30
0.0
 11
359.9480046146779
 21
65.75144150844065
 31
0.0
  0
LINE
  5
1D6
100
AcDbEntity
  8
L1
100
AcDbLine
 10
345.5647632372334
 20
70.96263170897699
 30
0.0
 11
201.2312459921224
 21
70.96263170897694
 31
0.0
  0
LINE
  5
1D7
100
AcDbEntity
  8
L1
100
AcDbLine
 10
201.2480046146779
 20
68.5742303666147
 30
0.0
 11
345.5480046146779
 21
68.57423036661472
 31
0.0
  0
ARC
  5
201
100
AcDbEntity
  8
L1
100
AcDbCircle
 10
191.6480046146779
 20
73.45144150844058
 30
0.0
 40
8.222788858174052
100
AcDbArc
 50
359.9999999999996
 51
90.0
  0
ARC
  5
202
100
AcDbEntity
  8
L1
100
AcDbCircle
 10
191.6480046146779
 20
73.45144150844061
 30
0.0
 40
5.073819396627722
100
AcDbArc
 50
353.0
 51
96.99999999999997
  0
ARC
  5
203
100
AcDbEntity
  8
L1
100
AcDbCircle
 10
191.6480046146779
 20
73.45144150844061
 30
0.0
 40
5.099999999999999
100
AcDbArc
 50
353.0000000000001
 51
96.99999999999981
  0
ARC
  5
204
100
AcDbEntity
  8
L1
100
AcDbCircle
 10
191.6480046146779
 20
73.45144150844058
 30
0.0
 40
5.577310141859186
100
AcDbArc
 50
359.9999999999997
 51
90.0
  0
POLYLINE
  5
205
100
AcDbEntity
  8
L1
100
AcDb2dPolyline
 66
     1
 10
0.0
 20
0.0
 30
0.0
  0
VERTEX
  5
7F7
100
AcDbEntity
  8
L1
100
AcDbVertex
100
AcDb2dVertex
 10
198.8043971397904
 20
78.59653524797048
 30
0.0
  0
VERTEX
  5
7F8
100
AcDbEntity
  8
L1
100
AcDbVertex
100
AcDb2dVertex
 10
198.782048423084
 20
78.63280170902385
 30
0.0
  0
VERTEX
  5
7F9
100
AcDbEntity
  8
L1
100
AcDbVertex
100
AcDb2dVertex
 10
198.7606472708961
 20
78.68539966256611
 30
0.0
  0
VERTEX
  5
7FA
100
AcDbEntity
  8
L1
100
AcDbVertex
100
AcDb2dVertex
 10
198.7495409855676
 20
78.74108809142359
 30
0.0
  0
VERTEX
  5
7FB
100
AcDbEntity
  8
L1
100
AcDbVertex
100
AcDb2dVertex
 10
198.7492983568352
 20
78.79974458096393
 30
0.0
  0
VERTEX
  5
7FC
100
AcDbEntity
  8
L1
100
AcDbVertex
100
AcDb2dVertex
 10
198.7604745559846
 20
78.85732700822723
 30
0.0
  0
VERTEX
  5
7FD
100
AcDbEntity
  8
L1
100
AcDbVertex
100
AcDb2dVertex
 10
198.7829238857358
 20
78.91216542470465
 30
0.0
  0
VERTEX
  5
7FE
100
AcDbEntity
  8
L1
100
AcDbVertex
100
AcDb2dVertex
 10
198.8157140062891
 20
78.96152165646438
 30
0.0
  0
VERTEX
  5
7FF
100
AcDbEntity
  8
L1
100
AcDbVertex
100
AcDb2dVertex
 10
198.8181647181484
 20
78.96448057473364
 30
0.0
  0
SEQEND
  5
800
100
AcDbEntity
  8
L1
  0
POLYLINE
  5
206
100
AcDbEntity
  8
L1
100
AcDb2dPolyline
 66
     1
 10
0.0
 20
0.0
 30
0.0
  0
VERTEX
  5
801
100
AcDbEntity
  8
L1
100
AcDbVertex
100
AcDb2dVertex
 10
199.031823127124
 20
78.95572278579308
 30
0.0
  0
VERTEX
  5
802
100
AcDbEntity
  8
L1
100
AcDbVertex
100
AcDb2dVertex
 10
199.0283057038337
 20
78.95145150061509
 30
0.0
  0
VERTEX
  5
803
100
AcDbEntity
  8
L1
100
AcDbVertex
100
AcDb2dVertex
 10
198.995798520504
 20
78.90191916956467
 30
0.0
  0
VERTEX
  5
804
100
AcDbEntity
  8
L1
100
AcDbVertex
100
AcDb2dVertex
 10
198.9736595894199
 20
78.84696435726343
 30
0.0
  0
VERTEX
  5
805
100
AcDbEntity
  8
L1
100
AcDbVertex
100
AcDb2dVertex
 10
198.9628074530358
 20
78.78935095966506
 30
0.0
  0
VERTEX
  5
806
100
AcDbEntity
  8
L1
100
AcDbVertex
100
AcDb2dVertex
 10
198.9633679935927
 20
78.73072709347969
 30
0.0
  0
VERTEX
  5
807
100
AcDbEntity
  8
L1
100
AcDbVertex
100
AcDb2dVertex
 10
198.9747353925494
 20
78.67522332456752
 30
0.0
  0
VERTEX
  5
808
100
AcDbEntity
  8
L1
100
AcDbVertex
100
AcDb2dVertex
 10
198.9963354987306
 20
78.62284656529007
 30
0.0
  0
VERTEX
  5
809
100
AcDbEntity
  8
L1
100
AcDbVertex
100
AcDb2dVertex
 10
199.015593263736
 20
78.59125411294186
 30
0.0
  0
SEQEND
  5
80A
100
AcDbEntity
  8
L1
  0
ARC
  5
207
100
AcDbEntity
  8
L1
100
AcDbCircle
 10
191.648004614678
 20
73.45144150844061
 30
0.0
 40
8.813962988465215
100
AcDbArc
 50
35.71427464727591
 51
54.28572535272409
  0
ARC
  5
208
100
AcDbEntity
  8
L1
100
AcDbCircle
 10
188.1480046146779
 20
83.05144150844057
 30
0.0
 40
4.022689858140807
100
AcDbArc
 50
180.0
 51
270.0
  0
ARC
  5
209
100
AcDbEntity
  8
L1
100
AcDbCircle
 10
188.1480046146779
 20
83.05144150844057
 30
0.0
 40
4.854985757674669
100
AcDbArc
 50
228.767492325363
 51
276.9999999999999
  0
ARC
  5
20A
100
AcDbEntity
  8
L1
100
AcDbCircle
 10
188.1480046146779
 20
83.05144150844057
 30
0.0
 40
4.881166361046946
100
AcDbArc
 50
229.4420036038593
 51
276.9999999999999
  0
LINE
  5
20B
100
AcDbEntity
  8
L1
100
AcDbLine
 10
184.9741852180502
 20
79.34298421708536
 30
0.0
 11
184.9741852180502
 21
68.65144150844059
 31
0.0
  0
LINE
  5
20C
100
AcDbEntity
  8
L1
100
AcDbLine
 10
184.9480046146779
 20
68.65144150844059
 30
0.0
 11
184.9480046146779
 21
79.40029282518711
 31
0.0
  0
LINE
  5
20D
100
AcDbEntity
  8
L1
100
AcDbLine
 10
188.7396785412071
 20
78.23264407838715
 30
0.0
 11
191.0264709633117
 21
78.51342688181137
 31
0.0
  0
LINE
  5
20E
100
AcDbEntity
  8
L1
100
AcDbLine
 10
191.0296615762546
 20
78.48744142468658
 30
0.0
 11
188.74286915415
 21
78.20665862126239
 31
0.0
  0
LINE
  5
20F
100
AcDbEntity
  8
L1
100
AcDbLine
 10
186.8480046146779
 20
66.77762211181288
 30
0.0
 11
197.5395473233226
 21
66.77762211181288
 31
0.0
  0
LINE
  5
210
100
AcDbEntity
  8
L1
100
AcDbLine
 10
197.5968559314244
 20
66.75144150844056
 30
0.0
 11
186.8480046146779
 21
66.75144150844056
 31
0.0
  0
CIRCLE
  5
211
100
AcDbEntity
  8
L1
100
AcDbCircle
 10
191.6480046146779
 20
73.45144150844061
 30
0.0
 40
4.0
  0
CIRCLE
  5
212
100
AcDbEntity
  8
L1
100
AcDbCircle
 10
191.6480046146779
 20
73.45144150844072
 30
0.0
 40
2.25
  0
LINE
  5
213
100
AcDbEntity
  8
L6
 62
     1
100
AcDbLine
 10
186.3003200398523
 20
73.45144150844072
 30
0.0
 11
196.3003200398522
 21
73.45144150844072
 31
0.0
  0
ARC
  5
214
100
AcDbEntity
  8
L1
100
AcDbCircle
 10
186.8480046146779
 20
68.65144150844059
 30
0.0
 40
2.899999999999996
100
AcDbArc
 50
180.0
 51
270.0000000000005
  0
POLYLINE
  5
215
100
AcDbEntity
  8
L1
100
AcDb2dPolyline
 66
     1
 10
0.0
 20
0.0
 30
0.0
  0
VERTEX
  5
80B
100
AcDbEntity
  8
L1
100
AcDbVertex
100
AcDb2dVertex
 10
186.8480046146779
 20
65.15663595183042
 30
0.0
  0
VERTEX
  5
80C
100
AcDbEntity
  8
L1
100
AcDbVertex
100
AcDb2dVertex
 10
186.1763703409155
 20
65.22266069511085
 30
0.0
  0
VERTEX
  5
80D
100
AcDbEntity
  8
L1
100
AcDbVertex
100
AcDb2dVertex
 10
185.8399593056536
 20
65.30650835710375
 30
0.0
  0
VERTEX
  5
80E
100
AcDbEntity
  8
L1
100
AcDbVertex
100
AcDb2dVertex
 10
185.5113673156257
 20
65.42398743407821
 30
0.0
  0
VERTEX
  5
80F
100
AcDbEntity
  8
L1
100
AcDbVertex
100
AcDb2dVertex
 10
185.196157563094
 20
65.57370902931825
 30
0.0
  0
VERTEX
  5
810
100
AcDbEntity
  8
L1
100
AcDbVertex
100
AcDb2dVertex
 10
184.8992422538714
 20
65.75271568445919
 30
0.0
  0
VERTEX
  5
811
100
AcDbEntity
  8
L1
100
AcDbVertex
100
AcDb2dVertex
 10
184.3782486391343
 20
66.18168553289698
 30
0.0
  0
VERTEX
  5
812
100
AcDbEntity
  8
L1
100
AcDbVertex
100
AcDb2dVertex
 10
183.9492787906965
 20
66.70267914763417
 30
0.0
  0
VERTEX
  5
813
100
AcDbEntity
  8
L1
100
AcDbVertex
100
AcDb2dVertex
 10
183.7702721355556
 20
66.99959445685681
 30
0.0
  0
VERTEX
  5
814
100
AcDbEntity
  8
L1
100
AcDbVertex
100
AcDb2dVertex
 10
183.6205505403155
 20
67.31480420938845
 30
0.0
  0
VERTEX
  5
815
100
AcDbEntity
  8
L1
100
AcDbVertex
100
AcDb2dVertex
 10
183.503071463341
 20
67.64339619941637
 30
0.0
  0
VERTEX
  5
816
100
AcDbEntity
  8
L1
100
AcDbVertex
100
AcDb2dVertex
 10
183.4192238013481
 20
67.9798072346783
 30
0.0
  0
VERTEX
  5
817
100
AcDbEntity
  8
L1
100
AcDbVertex
100
AcDb2dVertex
 10
183.3531990580677
 20
68.65144150844063
 30
0.0
  0
SEQEND
  5
818
100
AcDbEntity
  8
L1
  0
ARC
  5
216
100
AcDbEntity
  8
L1
100
AcDbCircle
 10
186.8480046146779
 20
68.65144150844059
 30
0.0
 40
1.873819396627723
100
AcDbArc
 50
180.0
 51
270.0000000000008
  0
ARC
  5
217
100
AcDbEntity
  8
L1
100
AcDbCircle
 10
186.8480046146779
 20
68.65144150844059
 30
0.0
 40
1.9
100
AcDbArc
 50
180.0
 51
270.0
  0
POLYLINE
  5
218
100
AcDbEntity
  8
L1
100
AcDb2dPolyline
 66
     1
 10
0.0
 20
0.0
 30
0.0
  0
VERTEX
  5
819
100
AcDbEntity
  8
L1
100
AcDbVertex
100
AcDb2dVertex
 10
186.8530621664678
 20
65.15663232950586
 30
0.0
  0
VERTEX
  5
81A
100
AcDbEntity
  8
L1
100
AcDbVertex
100
AcDb2dVertex
 10
186.8505333977462
 20
65.15663323508713
 30
0.0
  0
VERTEX
  5
81B
100
AcDbEntity
  8
L1
100
AcDbVertex
100
AcDb2dVertex
 10
186.8480046146779
 20
65.15663595183042
 30
0.0
  0
SEQEND
  5
81C
100
AcDbEntity
  8
L1
  0
POLYLINE
  5
219
100
AcDbEntity
  8
L1
100
AcDb2dPolyline
 66
     1
 10
0.0
 20
0.0
 30
0.0
  0
VERTEX
  5
81D
100
AcDbEntity
  8
L1
100
AcDbVertex
100
AcDb2dVertex
 10
183.3531990580677
 20
68.65144150844063
 30
0.0
  0
VERTEX
  5
81E
100
AcDbEntity
  8
L1
100
AcDbVertex
100
AcDb2dVertex
 10
183.3531963413245
 20
68.65397029150893
 30
0.0
  0
VERTEX
  5
81F
100
AcDbEntity
  8
L1
100
AcDbVertex
100
AcDb2dVertex
 10
183.3531954357432
 20
68.65649906023048
 30
0.0
  0
SEQEND
  5
820
100
AcDbEntity
  8
L1
  0
ARC
  5
21A
100
AcDbEntity
  8
L1
100
AcDbCircle
 10
201.2480046146779
 20
69.95144150844061
 30
0.0
 40
4.022689858140779
100
AcDbArc
 50
180.0
 51
270.0
  0
ARC
  5
21B
100
AcDbEntity
  8
L1
100
AcDbCircle
 10
201.2480046146779
 20
69.95144150844061
 30
0.0
 40
4.881166361047003
100
AcDbArc
 50
172.9999999999992
 51
220.5579963961396
  0
ARC
  5
21C
100
AcDbEntity
  8
L1
100
AcDbCircle
 10
201.2480046146779
 20
69.95144150844061
 30
0.0
 40
4.854985757674727
100
AcDbArc
 50
173.0000000000001
 51
221.2325076746374
  0
POLYLINE
  5
21D
100
AcDbEntity
  8
L1
100
AcDb2dPolyline
 66
     1
 10
0.0
 20
0.0
 30
0.0
  0
VERTEX
  5
821
100
AcDbEntity
  8
L1
100
AcDbVertex
100
AcDb2dVertex
 10
197.5968559314243
 20
66.75144150844056
 30
0.0
  0
VERTEX
  5
822
100
AcDbEntity
  8
L1
100
AcDbVertex
100
AcDb2dVertex
 10
197.5395473233226
 20
66.77762211181288
 30
0.0
  0
SEQEND
  5
823
100
AcDbEntity
  8
L1
  0
ARC
  5
21E
100
AcDbEntity
  8
L1
100
AcDbCircle
 10
191.648004614678
 20
73.45144150844061
 30
0.0
 40
8.983264223605935
100
AcDbArc
 50
0.0
 51
34.90058363323901
  0
ARC
  5
21F
100
AcDbEntity
  8
L1
100
AcDbCircle
 10
201.2480046146779
 20
69.95144150844061
 30
0.0
 40
1.377211141825912
100
AcDbArc
 50
180.0
 51
270.0000000000012
  0
LINE
  5
220
100
AcDbEntity
  8
L1
100
AcDbLine
 10
197.2253147565371
 20
69.95144150844061
 30
0.0
 11
197.2253147565371
 21
73.45144150844055
 31
0.0
  0
LINE
  5
221
100
AcDbEntity
  8
L1
100
AcDbLine
 10
199.870793472852
 20
73.45144150844053
 30
0.0
 11
199.870793472852
 21
69.95144150844061
 31
0.0
  0
LINE
  5
222
100
AcDbEntity
  8
L6
 62
     1
100
AcDbLine
 10
191.6480046146779
 20
68.09958609297331
 30
0.0
 11
191.6480046146779
 21
78.09958609297331
 31
0.0
  0
LINE
  5
223
100
AcDbEntity
  8
L1
100
AcDbLine
 10
196.7099899880487
 20
72.82990785707437
 30
0.0
 11
196.4292071846244
 21
70.54311543496976
 31
0.0
  0
LINE
  5
224
100
AcDbEntity
  8
L1
100
AcDbLine
 10
196.4032217274997
 20
70.54630604791268
 30
0.0
 11
196.6840045309239
 21
72.83309847001729
 31
0.0
  0
LINE
  5
225
100
AcDbEntity
  8
L1
100
AcDbLine
 10
200.6312688382839
 20
70.36265455513845
 30
0.0
 11
200.6312688382839
 21
73.45144150844061
 31
0.0
  0
POLYLINE
  5
226
100
AcDbEntity
  8
L1
100
AcDb2dPolyline
 66
     1
 10
0.0
 20
0.0
 30
0.0
  0
VERTEX
  5
824
100
AcDbEntity
  8
L1
100
AcDbVertex
100
AcDb2dVertex
 10
200.6312688382839
 20
70.36265455513845
 30
0.0
  0
VERTEX
  5
825
100
AcDbEntity
  8
L1
100
AcDbVertex
100
AcDb2dVertex
 10
200.7116490415703
 20
70.66264666605184
 30
0.0
  0
VERTEX
  5
826
100
AcDbEntity
  8
L1
100
AcDbVertex
100
AcDb2dVertex
 10
200.931253881209
 20
70.88225150569053
 30
0.0
  0
VERTEX
  5
827
100
AcDbEntity
  8
L1
100
AcDbVertex
100
AcDb2dVertex
 10
201.2312459921224
 20
70.96263170897697
 30
0.0
  0
SEQEND
  5
828
100
AcDbEntity
  8
L1
  0
LINE
  5
227
100
AcDbEntity
  8
L1
100
AcDbLine
 10
191.6480046146779
 20
79.02875165029974
 30
0.0
 11
188.1480046146779
 21
79.02875165029974
 31
0.0
  0
LINE
  5
228
100
AcDbEntity
  8
L1
100
AcDbLine
 10
191.648004614678
 20
82.4347057320465
 30
0.0
 11
188.5592176613759
 21
82.4347057320465
 31
0.0
  0
LINE
  5
229
100
AcDbEntity
  8
L1
100
AcDbLine
 10
188.1480046146779
 20
81.67423036661466
 30
0.0
 11
191.6480046146779
 21
81.67423036661466
 31
0.0
  0
POLYLINE
  5
22A
100
AcDbEntity
  8
L1
100
AcDb2dPolyline
 66
     1
 10
0.0
 20
0.0
 30
0.0
  0
VERTEX
  5
829
100
AcDbEntity
  8
L1
100
AcDbVertex
100
AcDb2dVertex
 10
184.9741852180502
 20
79.34298421708539
 30
0.0
  0
VERTEX
  5
82A
100
AcDbEntity
  8
L1
100
AcDbVertex
100
AcDb2dVertex
 10
184.9480046146779
 20
79.40029282518711
 30
0.0
  0
SEQEND
  5
82B
100
AcDbEntity
  8
L1
  0
POLYLINE
  5
22B
100
AcDbEntity
  8
L1
100
AcDb2dPolyline
 66
     1
 10
0.0
 20
0.0
 30
0.0
  0
VERTEX
  5
82C
100
AcDbEntity
  8
L1
100
AcDbVertex
100
AcDb2dVertex
 10
189.1591948152143
 20
83.03468288588499
 30
0.0
  0
VERTEX
  5
82D
100
AcDbEntity
  8
L1
100
AcDbVertex
100
AcDb2dVertex
 10
189.0788146119279
 20
82.73469077497157
 30
0.0
  0
VERTEX
  5
82E
100
AcDbEntity
  8
L1
100
AcDbVertex
100
AcDb2dVertex
 10
188.8592097722892
 20
82.51508593533287
 30
0.0
  0
VERTEX
  5
82F
100
AcDbEntity
  8
L1
100
AcDbVertex
100
AcDb2dVertex
 10
188.5592176613758
 20
82.4347057320465
 30
0.0
  0
SEQEND
  5
830
100
AcDbEntity
  8
L1
  0
ARC
  5
22C
100
AcDbEntity
  8
L1
100
AcDbCircle
 10
188.1480046146779
 20
83.05144150844057
 30
0.0
 40
1.377211141825941
100
AcDbArc
 50
180.0
 51
270.0000000000012
  0
POLYLINE
  5
22D
100
AcDbEntity
  8
L1
100
AcDb2dPolyline
 66
     1
 10
0.0
 20
0.0
 30
0.0
  0
VERTEX
  5
831
100
AcDbEntity
  8
L1
100
AcDbVertex
100
AcDb2dVertex
 10
200.1047082618609
 20
80.66036134562239
 30
0.0
  0
VERTEX
  5
832
100
AcDbEntity
  8
L1
100
AcDbVertex
100
AcDb2dVertex
 10
200.1922888080988
 20
80.46132276981039
 30
0.0
  0
VERTEX
  5
833
100
AcDbEntity
  8
L1
100
AcDbVertex
100
AcDb2dVertex
 10
200.1223888871911
 20
80.2554084483131
 30
0.0
  0
SEQEND
  5
834
100
AcDbEntity
  8
L1
  0
ARC
  5
22E
100
AcDbEntity
  8
L1
100
AcDbCircle
 10
191.648004614678
 20
73.45144150844061
 30
0.0
 40
8.983264223605935
100
AcDbArc
 50
55.09941636676098
 51
90.0
  0
POLYLINE
  5
22F
100
AcDbEntity
  8
L1
100
AcDb2dPolyline
 66
     1
 10
0.0
 20
0.0
 30
0.0
  0
VERTEX
  5
835
100
AcDbEntity
  8
L1
100
AcDbVertex
100
AcDb2dVertex
 10
198.4519715545504
 20
81.92582578095363
 30
0.0
  0
VERTEX
  5
836
100
AcDbEntity
  8
L1
100
AcDbVertex
100
AcDb2dVertex
 10
198.6578858760477
 20
81.99572570186143
 30
0.0
  0
VERTEX
  5
837
100
AcDbEntity
  8
L1
100
AcDbVertex
100
AcDb2dVertex
 10
198.8569244518598
 20
81.90814515562356
 30
0.0
  0
SEQEND
  5
838
100
AcDbEntity
  8
L1
  0
LINE
  5
230
100
AcDbEntity
  8
L1
100
AcDbLine
 10
199.8929771184654
 20
80.24539211417618
 30
0.0
 11
198.8181647181484
 21
78.96448057473361
 31
0.0
  0
LINE
  5
231
100
AcDbEntity
  8
L1
100
AcDbLine
 10
198.8469081177228
 20
81.67873338689791
 30
0.0
 11
199.8752964931352
 21
80.65034501148549
 31
0.0
  0
LINE
  5
232
100
AcDbEntity
  8
L1
100
AcDbLine
 10
200.122388887191
 20
80.25540844831311
 30
0.0
 11
199.031823127124
 21
78.95572278579308
 31
0.0
  0
LINE
  5
233
100
AcDbEntity
  8
L1
100
AcDbLine
 10
198.8569244518597
 20
81.9081451556236
 30
0.0
 11
200.1047082618609
 21
80.66036134562239
 31
0.0
  0
POLYLINE
  5
234
100
AcDbEntity
  8
L1
100
AcDb2dPolyline
 66
     1
 10
0.0
 20
0.0
 30
0.0
  0
VERTEX
  5
839
100
AcDbEntity
  8
L1
100
AcDbVertex
100
AcDb2dVertex
 10
198.4419552204135
 20
81.69641401222795
 30
0.0
  0
VERTEX
  5
83A
100
AcDbEntity
  8
L1
100
AcDbVertex
100
AcDb2dVertex
 10
198.6478695419108
 20
81.76631393313575
 30
0.0
  0
VERTEX
  5
83B
100
AcDbEntity
  8
L1
100
AcDbVertex
100
AcDb2dVertex
 10
198.8469081177228
 20
81.67873338689791
 30
0.0
  0
SEQEND
  5
83C
100
AcDbEntity
  8
L1
  0
LINE
  5
235
100
AcDbEntity
  8
L1
100
AcDbLine
 10
197.161043680971
 20
80.621601611911
 30
0.0
 11
198.4419552204135
 21
81.69641401222795
 31
0.0
  0
POLYLINE
  5
236
100
AcDbEntity
  8
L1
100
AcDb2dPolyline
 66
     1
 10
0.0
 20
0.0
 30
0.0
  0
VERTEX
  5
83D
100
AcDbEntity
  8
L1
100
AcDbVertex
100
AcDb2dVertex
 10
197.161043680971
 20
80.621601611911
 30
0.0
  0
VERTEX
  5
83E
100
AcDbEntity
  8
L1
100
AcDbVertex
100
AcDb2dVertex
 10
197.0984367521506
 20
80.58115529024769
 30
0.0
  0
VERTEX
  5
83F
100
AcDbEntity
  8
L1
100
AcDbVertex
100
AcDb2dVertex
 10
197.0091176374374
 20
80.55421843596901
 30
0.0
  0
VERTEX
  5
840
100
AcDbEntity
  8
L1
100
AcDbVertex
100
AcDb2dVertex
 10
196.9221891786912
 20
80.55496867978849
 30
0.0
  0
VERTEX
  5
841
100
AcDbEntity
  8
L1
100
AcDbVertex
100
AcDb2dVertex
 10
196.8326189636828
 20
80.58381133094494
 30
0.0
  0
VERTEX
  5
842
100
AcDbEntity
  8
L1
100
AcDbVertex
100
AcDb2dVertex
 10
196.7930983542078
 20
80.60783403355305
 30
0.0
  0
SEQEND
  5
843
100
AcDbEntity
  8
L1
  0
LINE
  5
237
100
AcDbEntity
  8
L1
100
AcDbLine
 10
197.1522858920304
 20
80.83526002088669
 30
0.0
 11
198.4519715545504
 21
81.92582578095363
 31
0.0
  0
POLYLINE
  5
238
100
AcDbEntity
  8
L1
100
AcDb2dPolyline
 66
     1
 10
0.0
 20
0.0
 30
0.0
  0
VERTEX
  5
844
100
AcDbEntity
  8
L1
100
AcDbVertex
100
AcDb2dVertex
 10
196.7878172191792
 20
80.81903015749862
 30
0.0
  0
VERTEX
  5
845
100
AcDbEntity
  8
L1
100
AcDbVertex
100
AcDb2dVertex
 10
196.8309953241296
 20
80.79397265519551
 30
0.0
  0
VERTEX
  5
846
100
AcDbEntity
  8
L1
100
AcDbVertex
100
AcDb2dVertex
 10
196.9187090119954
 20
80.76785568090532
 30
0.0
  0
VERTEX
  5
847
100
AcDbEntity
  8
L1
100
AcDbVertex
100
AcDb2dVertex
 10
197.0035039569871
 20
80.76832659389495
 30
0.0
  0
VERTEX
  5
848
100
AcDbEntity
  8
L1
100
AcDbVertex
100
AcDb2dVertex
 10
197.091423660569
 20
80.79566137732717
 30
0.0
  0
VERTEX
  5
849
100
AcDbEntity
  8
L1
100
AcDbVertex
100
AcDb2dVertex
 10
197.1522858920304
 20
80.83526002088669
 30
0.0
  0
SEQEND
  5
84A
100
AcDbEntity
  8
L1
  0
POLYLINE
  5
239
100
AcDbEntity
  8
L1
100
AcDb2dPolyline
 66
     1
 10
0.0
 20
0.0
 30
0.0
  0
VERTEX
  5
84B
100
AcDbEntity
  8
L1
100
AcDbVertex
100
AcDb2dVertex
 10
199.8752964931352
 20
80.65034501148549
 30
0.0
  0
VERTEX
  5
84C
100
AcDbEntity
  8
L1
100
AcDbVertex
100
AcDb2dVertex
 10
199.9628770393731
 20
80.45130643567347
 30
0.0
  0
VERTEX
  5
84D
100
AcDbEntity
  8
L1
100
AcDbVertex
100
AcDb2dVertex
 10
199.8929771184654
 20
80.24539211417618
 30
0.0
  0
SEQEND
  5
84E
100
AcDbEntity
  8
L1
  0
LINE
  5
23A
100
AcDbEntity
  8
L6
 62
     1
100
AcDbLine
 10
218.3980046146779
 20
85.2014415084406
 30
0.0
 11
228.3980046146779
 21
85.2014415084406
 31
0.0
  0
CIRCLE
  5
23B
100
AcDbEntity
  8
L1
100
AcDbCircle
 10
223.3980046146779
 20
85.2014415084406
 30
0.0
 40
4.091897474510698
  0
CIRCLE
  5
23C
100
AcDbEntity
  8
L1
100
AcDbCircle
 10
223.3980046146779
 20
85.2014415084406
 30
0.0
 40
1.6
  0
CIRCLE
  5
23D
100
AcDbEntity
  8
L1
100
AcDbCircle
 10
223.3980046146779
 20
85.2014415084406
 30
0.0
 40
1.25
  0
LINE
  5
23E
100
AcDbEntity
  8
L6
 62
     1
100
AcDbLine
 10
223.3980046146779
 20
80.20144150844055
 30
0.0
 11
223.3980046146779
 21
90.20144150844055
 31
0.0
  0
LINE
  5
23F
100
AcDbEntity
  8
L6
 62
     1
100
AcDbLine
 10
203.3980046146779
 20
123.977222925043
 30
0.0
 11
203.3980046146779
 21
136.425660091838
 31
0.0
  0
CIRCLE
  5
240
100
AcDbEntity
  8
L1
100
AcDbCircle
 10
203.3980046146779
 20
130.2014415084405
 30
0.0
 40
4.091897474510698
  0
CIRCLE
  5
241
100
AcDbEntity
  8
L1
100
AcDbCircle
 10
203.3980046146779
 20
130.2014415084405
 30
0.0
 40
1.6
  0
CIRCLE
  5
242
100
AcDbEntity
  8
L1
100
AcDbCircle
 10
203.3980046146779
 20
130.2014415084405
 30
0.0
 40
1.25
  0
LINE
  5
243
100
AcDbEntity
  8
L6
 62
     1
100
AcDbLine
 10
266.9157735354414
 20
85.2014415084406
 30
0.0
 11
280.4116797892617
 21
85.2014415084406
 31
0.0
  0
CIRCLE
  5
244
100
AcDbEntity
  8
L1
100
AcDbCircle
 10
273.3980046146779
 20
85.2014415084406
 30
0.0
 40
1.6
  0
CIRCLE
  5
245
100
AcDbEntity
  8
L1
100
AcDbCircle
 10
273.3980046146779
 20
85.2014415084406
 30
0.0
 40
1.25
  0
CIRCLE
  5
246
100
AcDbEntity
  8
L1
100
AcDbCircle
 10
273.3980046146779
 20
85.2014415084406
 30
0.0
 40
4.091897474510698
  0
CIRCLE
  5
247
100
AcDbEntity
  8
L1
100
AcDbCircle
 10
323.3980046146779
 20
85.20144150844059
 30
0.0
 40
1.6
  0
CIRCLE
  5
248
100
AcDbEntity
  8
L1
100
AcDbCircle
 10
323.3980046146779
 20
85.20144150844059
 30
0.0
 40
1.25
  0
LINE
  5
249
100
AcDbEntity
  8
L6
 62
     1
100
AcDbLine
 10
323.3980046146779
 20
80.20144150844055
 30
0.0
 11
323.3980046146779
 21
90.20144150844055
 31
0.0
  0
CIRCLE
  5
24A
100
AcDbEntity
  8
L1
100
AcDbCircle
 10
273.3980046146779
 20
130.2014415084405
 30
0.0
 40
1.0
  0
ARC
  5
273
100
AcDbEntity
  8
L1
100
AcDbCircle
 10
355.1480046146779
 20
73.45144150844061
 30
0.0
 40
5.073819396627722
100
AcDbArc
 50
83.00000000000036
 51
187.0000000000005
  0
ARC
  5
274
100
AcDbEntity
  8
L1
100
AcDbCircle
 10
355.1480046146779
 20
73.45144150844061
 30
0.0
 40
5.100000000000015
100
AcDbArc
 50
82.99999999999959
 51
186.9999999999997
  0
ARC
  5
275
100
AcDbEntity
  8
L1
100
AcDbCircle
 10
355.1480046146779
 20
73.45144150844061
 30
0.0
 40
5.577310141859271
100
AcDbArc
 50
90.0
 51
180.0
  0
ARC
  5
276
100
AcDbEntity
  8
L1
100
AcDbCircle
 10
355.1480046146779
 20
73.45144150844061
 30
0.0
 40
8.208825869708926
100
AcDbArc
 50
126.3397989149932
 51
143.6602010850059
  0
POLYLINE
  5
277
100
AcDbEntity
  8
L1
100
AcDb2dPolyline
 66
     1
 10
0.0
 20
0.0
 30
0.0
  0
VERTEX
  5
8AB
100
AcDbEntity
  8
L1
100
AcDbVertex
100
AcDb2dVertex
 10
347.7804159656199
 20
78.5912541129419
 30
0.0
  0
VERTEX
  5
8AC
100
AcDbEntity
  8
L1
100
AcDbVertex
100
AcDb2dVertex
 10
347.789595336273
 20
78.60522626547754
 30
0.0
  0
VERTEX
  5
8AD
100
AcDbEntity
  8
L1
100
AcDbVertex
100
AcDb2dVertex
 10
347.8156161861891
 20
78.65848934302772
 30
0.0
  0
VERTEX
  5
8AE
100
AcDbEntity
  8
L1
100
AcDbVertex
100
AcDb2dVertex
 10
347.8306557679627
 20
78.71582908700077
 30
0.0
  0
VERTEX
  5
8AF
100
AcDbEntity
  8
L1
100
AcDbVertex
100
AcDb2dVertex
 10
347.8341770494017
 20
78.77367227221509
 30
0.0
  0
VERTEX
  5
8B0
100
AcDbEntity
  8
L1
100
AcDbVertex
100
AcDb2dVertex
 10
347.8265110260458
 20
78.83111324611099
 30
0.0
  0
VERTEX
  5
8B1
100
AcDbEntity
  8
L1
100
AcDbVertex
100
AcDb2dVertex
 10
347.8086842663648
 20
78.88434875293734
 30
0.0
  0
VERTEX
  5
8B2
100
AcDbEntity
  8
L1
100
AcDbVertex
100
AcDb2dVertex
 10
347.7812508731136
 20
78.93333063686231
 30
0.0
  0
VERTEX
  5
8B3
100
AcDbEntity
  8
L1
100
AcDbVertex
100
AcDb2dVertex
 10
347.7641861022318
 20
78.95572278579312
 30
0.0
  0
SEQEND
  5
8B4
100
AcDbEntity
  8
L1
  0
POLYLINE
  5
278
100
AcDbEntity
  8
L1
100
AcDb2dPolyline
 66
     1
 10
0.0
 20
0.0
 30
0.0
  0
VERTEX
  5
8B5
100
AcDbEntity
  8
L1
100
AcDbVertex
100
AcDb2dVertex
 10
347.9778445112075
 20
78.96448057473367
 30
0.0
  0
VERTEX
  5
8B6
100
AcDbEntity
  8
L1
100
AcDbVertex
100
AcDb2dVertex
 10
347.99604515536
 20
78.94043134418978
 30
0.0
  0
VERTEX
  5
8B7
100
AcDbEntity
  8
L1
100
AcDbVertex
100
AcDb2dVertex
 10
348.0232171555529
 20
78.89111208752598
 30
0.0
  0
VERTEX
  5
8B8
100
AcDbEntity
  8
L1
100
AcDbVertex
100
AcDb2dVertex
 10
348.0406941342377
 20
78.83758397968515
 30
0.0
  0
VERTEX
  5
8B9
100
AcDbEntity
  8
L1
100
AcDbVertex
100
AcDb2dVertex
 10
348.046137560322
 20
78.80528825748905
 30
0.0
  0
SEQEND
  5
8BA
100
AcDbEntity
  8
L1
  0
ARC
  5
279
100
AcDbEntity
  8
L1
100
AcDbCircle
 10
358.648004614678
 20
83.05144150844062
 30
0.0
 40
4.022689858140751
100
AcDbArc
 50
270.0
 51
0.0
  0
ARC
  5
27A
100
AcDbEntity
  8
L1
100
AcDbCircle
 10
358.648004614678
 20
83.05144150844062
 30
0.0
 40
4.881166361046971
100
AcDbArc
 50
262.9999999999999
 51
310.557996396139
  0
ARC
  5
27B
100
AcDbEntity
  8
L1
100
AcDbCircle
 10
358.648004614678
 20
83.05144150844062
 30
0.0
 40
4.854985757674694
100
AcDbArc
 50
262.9999999999999
 51
311.2325076746345
  0
LINE
  5
27C
100
AcDbEntity
  8
L1
100
AcDbLine
 10
361.8218240113057
 20
68.65144150844063
 30
0.0
 11
361.8218240113057
 21
79.3429842170853
 31
0.0
  0
LINE
  5
27D
100
AcDbEntity
  8
L1
100
AcDbLine
 10
361.8480046146779
 20
79.40029282518697
 30
0.0
 11
361.8480046146779
 21
68.65144150844063
 31
0.0
  0
ARC
  5
27E
100
AcDbEntity
  8
L1
100
AcDbCircle
 10
355.1480046146779
 20
73.45144150844061
 30
0.0
 40
8.983264223605935
100
AcDbArc
 50
145.0994163667608
 51
180.0
  0
POLYLINE
  5
27F
100
AcDbEntity
  8
L1
100
AcDb2dPolyline
 66
     1
 10
0.0
 20
0.0
 30
0.0
  0
VERTEX
  5
8BB
100
AcDbEntity
  8
L1
100
AcDbVertex
100
AcDb2dVertex
 10
345.5647632372334
 20
70.96263170897699
 30
0.0
  0
VERTEX
  5
8BC
100
AcDbEntity
  8
L1
100
AcDbVertex
100
AcDb2dVertex
 10
345.8647553481468
 20
70.88225150569062
 30
0.0
  0
VERTEX
  5
8BD
100
AcDbEntity
  8
L1
100
AcDbVertex
100
AcDb2dVertex
 10
346.0843601877856
 20
70.66264666605192
 30
0.0
  0
VERTEX
  5
8BE
100
AcDbEntity
  8
L1
100
AcDbVertex
100
AcDb2dVertex
 10
346.1647403910719
 20
70.3626545551385
 30
0.0
  0
SEQEND
  5
8BF
100
AcDbEntity
  8
L1
  0
ARC
  5
280
100
AcDbEntity
  8
L1
100
AcDbCircle
 10
345.5480046146779
 20
69.95144150844064
 30
0.0
 40
4.022689858140779
100
AcDbArc
 50
270.0
 51
0.0
  0
ARC
  5
281
100
AcDbEntity
  8
L1
100
AcDbCircle
 10
345.5480046146779
 20
69.95144150844064
 30
0.0
 40
1.377211141825912
100
AcDbArc
 50
270.0
 51
0.0
  0
ARC
  5
282
100
AcDbEntity
  8
L1
100
AcDbCircle
 10
359.9480046146779
 20
68.65144150844063
 30
0.0
 40
1.873819396627723
100
AcDbArc
 50
270.0
 51
0.0
  0
ARC
  5
283
100
AcDbEntity
  8
L1
100
AcDbCircle
 10
359.9480046146779
 20
68.65144150844063
 30
0.0
 40
1.9
100
AcDbArc
 50
270.0
 51
0.0
  0
ARC
  5
284
100
AcDbEntity
  8
L1
100
AcDbCircle
 10
359.9480046146779
 20
68.65144150844063
 30
0.0
 40
2.899999999999996
100
AcDbArc
 50
270.0
 51
0.0
  0
POLYLINE
  5
285
100
AcDbEntity
  8
L1
100
AcDb2dPolyline
 66
     1
 10
0.0
 20
0.0
 30
0.0
  0
VERTEX
  5
8C0
100
AcDbEntity
  8
L1
100
AcDbVertex
100
AcDb2dVertex
 10
363.442810171288
 20
68.65144150844063
 30
0.0
  0
VERTEX
  5
8C1
100
AcDbEntity
  8
L1
100
AcDbVertex
100
AcDb2dVertex
 10
363.3767854280077
 20
67.97980723467827
 30
0.0
  0
VERTEX
  5
8C2
100
AcDbEntity
  8
L1
100
AcDbVertex
100
AcDb2dVertex
 10
363.2929377660148
 20
67.64339619941637
 30
0.0
  0
VERTEX
  5
8C3
100
AcDbEntity
  8
L1
100
AcDbVertex
100
AcDb2dVertex
 10
363.1754586890403
 20
67.31480420938843
 30
0.0
  0
VERTEX
  5
8C4
100
AcDbEntity
  8
L1
100
AcDbVertex
100
AcDb2dVertex
 10
363.0257370938003
 20
66.99959445685681
 30
0.0
  0
VERTEX
  5
8C5
100
AcDbEntity
  8
L1
100
AcDbVertex
100
AcDb2dVertex
 10
362.8467304386593
 20
66.70267914763414
 30
0.0
  0
VERTEX
  5
8C6
100
AcDbEntity
  8
L1
100
AcDbVertex
100
AcDb2dVertex
 10
362.4177605902215
 20
66.181685532897
 30
0.0
  0
VERTEX
  5
8C7
100
AcDbEntity
  8
L1
100
AcDbVertex
100
AcDb2dVertex
 10
361.8967669754844
 20
65.75271568445924
 30
0.0
  0
VERTEX
  5
8C8
100
AcDbEntity
  8
L1
100
AcDbVertex
100
AcDb2dVertex
 10
361.5998516662617
 20
65.57370902931831
 30
0.0
  0
VERTEX
  5
8C9
100
AcDbEntity
  8
L1
100
AcDbVertex
100
AcDb2dVertex
 10
361.28464191373
 20
65.42398743407824
 30
0.0
  0
VERTEX
  5
8CA
100
AcDbEntity
  8
L1
100
AcDbVertex
100
AcDb2dVertex
 10
360.9560499237021
 20
65.30650835710378
 30
0.0
  0
VERTEX
  5
8CB
100
AcDbEntity
  8
L1
100
AcDbVertex
100
AcDb2dVertex
 10
360.6196388884402
 20
65.22266069511085
 30
0.0
  0
VERTEX
  5
8CC
100
AcDbEntity
  8
L1
100
AcDbVertex
100
AcDb2dVertex
 10
359.9480046146779
 20
65.15663595183042
 30
0.0
  0
SEQEND
  5
8CD
100
AcDbEntity
  8
L1
  0
ARC
  5
286
100
AcDbEntity
  8
L1
100
AcDbCircle
 10
345.5480046146779
 20
69.95144150844064
 30
0.0
 40
4.854985757674691
100
AcDbArc
 50
318.767492325364
 51
6.999999999999952
  0
ARC
  5
287
100
AcDbEntity
  8
L1
100
AcDbCircle
 10
345.5480046146779
 20
69.95144150844064
 30
0.0
 40
4.881166361046968
100
AcDbArc
 50
319.4420036038597
 51
6.999999999999768
  0
LINE
  5
288
100
AcDbEntity
  8
L1
100
AcDbLine
 10
349.2564619060332
 20
66.77762211181288
 30
0.0
 11
359.9480046146779
 21
66.77762211181288
 31
0.0
  0
LINE
  5
289
100
AcDbEntity
  8
L1
100
AcDbLine
 10
359.9480046146779
 20
66.75144150844062
 30
0.0
 11
349.1991532979314
 21
66.75144150844062
 31
0.0
  0
POLYLINE
  5
28A
100
AcDbEntity
  8
L1
100
AcDb2dPolyline
 66
     1
 10
0.0
 20
0.0
 30
0.0
  0
VERTEX
  5
8CE
100
AcDbEntity
  8
L1
100
AcDbVertex
100
AcDb2dVertex
 10
349.2564619060332
 20
66.77762211181288
 30
0.0
  0
VERTEX
  5
8CF
100
AcDbEntity
  8
L1
100
AcDbVertex
100
AcDb2dVertex
 10
349.1991532979314
 20
66.75144150844062
 30
0.0
  0
SEQEND
  5
8D0
100
AcDbEntity
  8
L1
  0
POLYLINE
  5
28B
100
AcDbEntity
  8
L1
100
AcDb2dPolyline
 66
     1
 10
0.0
 20
0.0
 30
0.0
  0
VERTEX
  5
8D1
100
AcDbEntity
  8
L1
100
AcDbVertex
100
AcDb2dVertex
 10
359.9480046146779
 20
65.15663595183045
 30
0.0
  0
VERTEX
  5
8D2
100
AcDbEntity
  8
L1
100
AcDbVertex
100
AcDb2dVertex
 10
359.9454758316096
 20
65.15663323508715
 30
0.0
  0
VERTEX
  5
8D3
100
AcDbEntity
  8
L1
100
AcDbVertex
100
AcDb2dVertex
 10
359.942947062888
 20
65.1566323295059
 30
0.0
  0
SEQEND
  5
8D4
100
AcDbEntity
  8
L1
  0
LINE
  5
28C
100
AcDbEntity
  8
L1
100
AcDbLine
 10
355.7695382660442
 20
78.51342688181137
 30
0.0
 11
358.0563306881488
 21
78.23264407838715
 31
0.0
  0
LINE
  5
28D
100
AcDbEntity
  8
L1
100
AcDbLine
 10
358.0531400752059
 20
78.20665862126237
 30
0.0
 11
355.7663476531012
 21
78.48744142468655
 31
0.0
  0
CIRCLE
  5
28E
100
AcDbEntity
  8
L1
100
AcDbCircle
 10
355.1480046146779
 20
73.45144150844078
 30
0.0
 40
2.25
  0
LINE
  5
28F
100
AcDbEntity
  8
L6
 62
     1
100
AcDbLine
 10
349.8003200398522
 20
73.45144150844078
 30
0.0
 11
359.8003200398522
 21
73.45144150844078
 31
0.0
  0
CIRCLE
  5
290
100
AcDbEntity
  8
L1
100
AcDbCircle
 10
355.1480046146779
 20
73.45144150844061
 30
0.0
 40
4.0
  0
LINE
  5
291
100
AcDbEntity
  8
L1
100
AcDbLine
 10
346.164740391072
 20
73.45144150844061
 30
0.0
 11
346.164740391072
 21
70.3626545551385
 31
0.0
  0
LINE
  5
292
100
AcDbEntity
  8
L1
100
AcDbLine
 10
349.5706944728186
 20
73.45144150844061
 30
0.0
 11
349.5706944728186
 21
69.95144150844064
 31
0.0
  0
LINE
  5
293
100
AcDbEntity
  8
L1
100
AcDbLine
 10
346.9252157565037
 20
69.95144150844064
 30
0.0
 11
346.9252157565037
 21
73.45144150844061
 31
0.0
  0
LINE
  5
294
100
AcDbEntity
  8
L6
 62
     1
100
AcDbLine
 10
355.1480046146779
 20
68.09958609297336
 30
0.0
 11
355.1480046146779
 21
78.09958609297336
 31
0.0
  0
LINE
  5
295
100
AcDbEntity
  8
L1
100
AcDbLine
 10
350.3668020447314
 20
70.54311543496979
 30
0.0
 11
350.0860192413072
 21
72.82990785707437
 31
0.0
  0
LINE
  5
296
100
AcDbEntity
  8
L1
100
AcDbLine
 10
350.112004698432
 20
72.83309847001729
 30
0.0
 11
350.3927875018562
 21
70.5463060479127
 31
0.0
  0
ARC
  5
297
100
AcDbEntity
  8
L1
100
AcDbCircle
 10
355.1480046146779
 20
73.45144150844061
 30
0.0
 40
8.222788858174137
100
AcDbArc
 50
143.7438067526883
 51
180.0
  0
LINE
  5
298
100
AcDbEntity
  8
L1
100
AcDbLine
 10
348.1031697169779
 20
78.74825610083317
 30
0.0
 11
348.5356569560335
 21
78.31576886177754
 31
0.0
  0
LINE
  5
299
100
AcDbEntity
  8
L1
100
AcDbLine
 10
348.5173065158969
 20
78.31437265425529
 30
0.0
 11
348.3171967389561
 21
78.51448243119614
 31
0.0
  0
POLYLINE
  5
29A
100
AcDbEntity
  8
L1
100
AcDb2dPolyline
 66
     1
 10
0.0
 20
0.0
 30
0.0
  0
VERTEX
  5
8D5
100
AcDbEntity
  8
L1
100
AcDbVertex
100
AcDb2dVertex
 10
348.5356569560335
 20
78.31576886177754
 30
0.0
  0
VERTEX
  5
8D6
100
AcDbEntity
  8
L1
100
AcDbVertex
100
AcDb2dVertex
 10
348.5173065158968
 20
78.31437265425532
 30
0.0
  0
SEQEND
  5
8D7
100
AcDbEntity
  8
L1
  0
ARC
  5
29B
100
AcDbEntity
  8
L1
100
AcDbCircle
 10
355.1480046146779
 20
73.45144150844061
 30
0.0
 40
8.813962988465215
100
AcDbArc
 50
143.0615165490799
 51
144.2857253527239
  0
POLYLINE
  5
29C
100
AcDbEntity
  8
L1
100
AcDb2dPolyline
 66
     1
 10
0.0
 20
0.0
 30
0.0
  0
VERTEX
  5
8D8
100
AcDbEntity
  8
L1
100
AcDbVertex
100
AcDb2dVertex
 10
348.046137560322
 20
78.80528825748905
 30
0.0
  0
VERTEX
  5
8D9
100
AcDbEntity
  8
L1
100
AcDbVertex
100
AcDb2dVertex
 10
348.0439111902646
 20
78.72211640196372
 30
0.0
  0
VERTEX
  5
8DA
100
AcDbEntity
  8
L1
100
AcDbVertex
100
AcDb2dVertex
 10
348.0283925973141
 20
78.66490130983618
 30
0.0
  0
VERTEX
  5
8DB
100
AcDbEntity
  8
L1
100
AcDbVertex
100
AcDb2dVertex
 10
348.001926058986
 20
78.61185490834859
 30
0.0
  0
VERTEX
  5
8DC
100
AcDbEntity
  8
L1
100
AcDbVertex
100
AcDb2dVertex
 10
347.9916120895655
 20
78.5965352479705
 30
0.0
  0
SEQEND
  5
8DD
100
AcDbEntity
  8
L1
  0
POLYLINE
  5
29D
100
AcDbEntity
  8
L1
100
AcDb2dPolyline
 66
     1
 10
0.0
 20
0.0
 30
0.0
  0
VERTEX
  5
8DE
100
AcDbEntity
  8
L1
100
AcDbVertex
100
AcDb2dVertex
 10
348.3171967389561
 20
78.51448243119617
 30
0.0
  0
VERTEX
  5
8DF
100
AcDbEntity
  8
L1
100
AcDbVertex
100
AcDb2dVertex
 10
348.2752948465428
 20
78.55646019472323
 30
0.0
  0
VERTEX
  5
8E0
100
AcDbEntity
  8
L1
100
AcDbVertex
100
AcDb2dVertex
 10
348.2349569596401
 20
78.59700621026664
 30
0.0
  0
VERTEX
  5
8E1
100
AcDbEntity
  8
L1
100
AcDbVertex
100
AcDb2dVertex
 10
348.1981914194458
 20
78.63411864790032
 30
0.0
  0
VERTEX
  5
8E2
100
AcDbEntity
  8
L1
100
AcDbVertex
100
AcDb2dVertex
 10
348.1657432363232
 20
78.66702577881333
 30
0.0
  0
VERTEX
  5
8E3
100
AcDbEntity
  8
L1
100
AcDbVertex
100
AcDb2dVertex
 10
348.1396515376091
 20
78.69368057498445
 30
0.0
  0
VERTEX
  5
8E4
100
AcDbEntity
  8
L1
100
AcDbVertex
100
AcDb2dVertex
 10
348.1199798920314
 20
78.71399030067974
 30
0.0
  0
VERTEX
  5
8E5
100
AcDbEntity
  8
L1
100
AcDbVertex
100
AcDb2dVertex
 10
348.1085934774051
 20
78.72605205550371
 30
0.0
  0
VERTEX
  5
8E6
100
AcDbEntity
  8
L1
100
AcDbVertex
100
AcDb2dVertex
 10
348.1043953984835
 20
78.73095395813823
 30
0.0
  0
SEQEND
  5
8E7
100
AcDbEntity
  8
L1
  0
POLYLINE
  5
29E
100
AcDbEntity
  8
L1
100
AcDb2dPolyline
 66
     1
 10
0.0
 20
0.0
 30
0.0
  0
VERTEX
  5
8E8
100
AcDbEntity
  8
L1
100
AcDbVertex
100
AcDb2dVertex
 10
348.1043953984835
 20
78.7309539581382
 30
0.0
  0
VERTEX
  5
8E9
100
AcDbEntity
  8
L1
100
AcDbVertex
100
AcDb2dVertex
 10
348.1031697169779
 20
78.74825610083312
 30
0.0
  0
SEQEND
  5
8EA
100
AcDbEntity
  8
L1
  0
POLYLINE
  5
29F
100
AcDbEntity
  8
L1
100
AcDb2dPolyline
 66
     1
 10
0.0
 20
0.0
 30
0.0
  0
VERTEX
  5
8EB
100
AcDbEntity
  8
L1
100
AcDbVertex
100
AcDb2dVertex
 10
363.4428137936126
 20
68.65649906023048
 30
0.0
  0
VERTEX
  5
8EC
100
AcDbEntity
  8
L1
100
AcDbVertex
100
AcDb2dVertex
 10
363.4428128880315
 20
68.65397029150893
 30
0.0
  0
VERTEX
  5
8ED
100
AcDbEntity
  8
L1
100
AcDbVertex
100
AcDb2dVertex
 10
363.442810171288
 20
68.65144150844063
 30
0.0
  0
SEQEND
  5
8EE
100
AcDbEntity
  8
L1
  0
LINE
  5
2A0
100
AcDbEntity
  8
L1
100
AcDbLine
 10
355.448004614678
 20
88.48979058877274
 30
0.0
 11
355.448004614678
 21
98.48979058877274
 31
0.0
  0
LINE
  5
2A1
100
AcDbEntity
  8
L1
100
AcDbLine
 10
354.8480046146779
 20
98.48979058877274
 30
0.0
 11
354.8480046146779
 21
88.48979058877274
 31
0.0
  0
LINE
  5
2A2
100
AcDbEntity
  8
L1
100
AcDbLine
 10
355.1480046146779
 20
85.45144150844061
 30
0.0
 11
356.0480046146779
 21
88.48979058877274
 31
0.0
  0
LINE
  5
2A3
100
AcDbEntity
  8
L1
100
AcDbLine
 10
356.048004614678
 20
88.48979058877274
 30
0.0
 11
355.448004614678
 21
88.48979058877274
 31
0.0
  0
LINE
  5
2A4
100
AcDbEntity
  8
L1
100
AcDbLine
 10
358.648004614678
 20
79.02875165029982
 30
0.0
 11
355.1480046146779
 21
79.02875165029982
 31
0.0
  0
LINE
  5
2A5
100
AcDbEntity
  8
L1
100
AcDbLine
 10
358.2367915679801
 20
82.43470573204655
 30
0.0
 11
355.1480046146779
 21
82.43470573204655
 31
0.0
  0
LINE
  5
2A6
100
AcDbEntity
  8
L1
100
AcDbLine
 10
355.1480046146779
 20
81.67423036661478
 30
0.0
 11
358.648004614678
 21
81.67423036661478
 31
0.0
  0
ARC
  5
2A7
100
AcDbEntity
  8
L1
100
AcDbCircle
 10
355.1480046146779
 20
73.45144150844061
 30
0.0
 40
8.222788858174137
100
AcDbArc
 50
90.0
 51
126.2561932473098
  0
ARC
  5
2A8
100
AcDbEntity
  8
L1
100
AcDbCircle
 10
355.1480046146779
 20
73.45144150844061
 30
0.0
 40
8.983264223605935
100
AcDbArc
 50
90.0
 51
124.9005836332388
  0
POLYLINE
  5
2A9
100
AcDbEntity
  8
L1
100
AcDb2dPolyline
 66
     1
 10
0.0
 20
0.0
 30
0.0
  0
VERTEX
  5
8EF
100
AcDbEntity
  8
L1
100
AcDbVertex
100
AcDb2dVertex
 10
346.6736203421649
 20
80.25540844831311
 30
0.0
  0
VERTEX
  5
8F0
100
AcDbEntity
  8
L1
100
AcDbVertex
100
AcDb2dVertex
 10
346.6037204212571
 20
80.46132276981039
 30
0.0
  0
VERTEX
  5
8F1
100
AcDbEntity
  8
L1
100
AcDbVertex
100
AcDb2dVertex
 10
346.691300967495
 20
80.66036134562242
 30
0.0
  0
SEQEND
  5
8F2
100
AcDbEntity
  8
L1
  0
POLYLINE
  5
2AA
100
AcDbEntity
  8
L1
100
AcDb2dPolyline
 66
     1
 10
0.0
 20
0.0
 30
0.0
  0
VERTEX
  5
8F3
100
AcDbEntity
  8
L1
100
AcDbVertex
100
AcDb2dVertex
 10
347.9390847774962
 20
81.90814515562363
 30
0.0
  0
VERTEX
  5
8F4
100
AcDbEntity
  8
L1
100
AcDbVertex
100
AcDb2dVertex
 10
348.1381233533082
 20
81.99572570186148
 30
0.0
  0
VERTEX
  5
8F5
100
AcDbEntity
  8
L1
100
AcDbVertex
100
AcDb2dVertex
 10
348.3440376748055
 20
81.92582578095366
 30
0.0
  0
SEQEND
  5
8F6
100
AcDbEntity
  8
L1
  0
POLYLINE
  5
2AB
100
AcDbEntity
  8
L1
100
AcDb2dPolyline
 66
     1
 10
0.0
 20
0.0
 30
0.0
  0
VERTEX
  5
8F7
100
AcDbEntity
  8
L1
100
AcDbVertex
100
AcDb2dVertex
 10
349.6437233373255
 20
80.83526002088669
 30
0.0
  0
VERTEX
  5
8F8
100
AcDbEntity
  8
L1
100
AcDbVertex
100
AcDb2dVertex
 10
349.6911510713982
 20
80.80266843798751
 30
0.0
  0
VERTEX
  5
8F9
100
AcDbEntity
  8
L1
100
AcDbVertex
100
AcDb2dVertex
 10
349.7798816741228
 20
80.77047674746859
 30
0.0
  0
VERTEX
  5
8FA
100
AcDbEntity
  8
L1
100
AcDbVertex
100
AcDb2dVertex
 10
349.8628246998721
 20
80.76622797596929
 30
0.0
  0
VERTEX
  5
8FB
100
AcDbEntity
  8
L1
100
AcDbVertex
100
AcDb2dVertex
 10
349.949679690737
 20
80.78722386202384
 30
0.0
  0
VERTEX
  5
8FC
100
AcDbEntity
  8
L1
100
AcDbVertex
100
AcDb2dVertex
 10
350.0081920101767
 20
80.81903015749862
 30
0.0
  0
SEQEND
  5
8FD
100
AcDbEntity
  8
L1
  0
POLYLINE
  5
2AC
100
AcDbEntity
  8
L1
100
AcDb2dPolyline
 66
     1
 10
0.0
 20
0.0
 30
0.0
  0
VERTEX
  5
8FE
100
AcDbEntity
  8
L1
100
AcDbVertex
100
AcDb2dVertex
 10
350.0029108751481
 20
80.60783403355305
 30
0.0
  0
VERTEX
  5
8FF
100
AcDbEntity
  8
L1
100
AcDbVertex
100
AcDb2dVertex
 10
349.9417812859609
 20
80.57391688596135
 30
0.0
  0
VERTEX
  5
900
100
AcDbEntity
  8
L1
100
AcDbVertex
100
AcDb2dVertex
 10
349.8531865305226
 20
80.55249342513087
 30
0.0
  0
VERTEX
  5
901
100
AcDbEntity
  8
L1
100
AcDbVertex
100
AcDb2dVertex
 10
349.7941578656298
 20
80.55330856279642
 30
0.0
  0
SEQEND
  5
902
100
AcDbEntity
  8
L1
  0
LINE
  5
2AD
100
AcDbEntity
  8
L1
100
AcDbLine
 10
348.3440376748055
 20
81.92582578095366
 30
0.0
 11
349.6437233373256
 21
80.83526002088669
 31
0.0
  0
LINE
  5
2AE
100
AcDbEntity
  8
L1
100
AcDbLine
 10
346.691300967495
 20
80.66036134562239
 30
0.0
 11
347.9390847774962
 21
81.90814515562363
 31
0.0
  0
LINE
  5
2AF
100
AcDbEntity
  8
L1
100
AcDbLine
 10
347.7641861022319
 20
78.95572278579312
 30
0.0
 11
346.6736203421649
 21
80.25540844831311
 31
0.0
  0
LINE
  5
2B0
100
AcDbEntity
  8
L1
100
AcDbLine
 10
348.3540540089424
 20
81.69641401222795
 30
0.0
 11
349.6349655483849
 21
80.62160161191101
 31
0.0
  0
POLYLINE
  5
2B1
100
AcDbEntity
  8
L1
100
AcDb2dPolyline
 66
     1
 10
0.0
 20
0.0
 30
0.0
  0
VERTEX
  5
903
100
AcDbEntity
  8
L1
100
AcDbVertex
100
AcDb2dVertex
 10
349.7941578656298
 20
80.55330856279642
 30
0.0
  0
VERTEX
  5
904
100
AcDbEntity
  8
L1
100
AcDbVertex
100
AcDb2dVertex
 10
349.768307893549
 20
80.55737402026025
 30
0.0
  0
VERTEX
  5
905
100
AcDbEntity
  8
L1
100
AcDbVertex
100
AcDb2dVertex
 10
349.678079364536
 20
80.59144729894384
 30
0.0
  0
VERTEX
  5
906
100
AcDbEntity
  8
L1
100
AcDbVertex
100
AcDb2dVertex
 10
349.6349655483849
 20
80.62160161191101
 30
0.0
  0
SEQEND
  5
907
100
AcDbEntity
  8
L1
  0
LINE
  5
2B2
100
AcDbEntity
  8
L1
100
AcDbLine
 10
347.9778445112075
 20
78.96448057473367
 30
0.0
 11
346.9030321108906
 21
80.24539211417618
 31
0.0
  0
POLYLINE
  5
2B3
100
AcDbEntity
  8
L1
100
AcDb2dPolyline
 66
     1
 10
0.0
 20
0.0
 30
0.0
  0
VERTEX
  5
908
100
AcDbEntity
  8
L1
100
AcDbVertex
100
AcDb2dVertex
 10
346.9030321108906
 20
80.24539211417618
 30
0.0
  0
VERTEX
  5
909
100
AcDbEntity
  8
L1
100
AcDbVertex
100
AcDb2dVertex
 10
346.8331321899828
 20
80.45130643567345
 30
0.0
  0
VERTEX
  5
90A
100
AcDbEntity
  8
L1
100
AcDbVertex
100
AcDb2dVertex
 10
346.9207127362206
 20
80.65034501148549
 30
0.0
  0
SEQEND
  5
90B
100
AcDbEntity
  8
L1
  0
LINE
  5
2B4
100
AcDbEntity
  8
L1
100
AcDbLine
 10
346.9207127362206
 20
80.65034501148545
 30
0.0
 11
347.9491011116331
 21
81.67873338689796
 31
0.0
  0
POLYLINE
  5
2B5
100
AcDbEntity
  8
L1
100
AcDb2dPolyline
 66
     1
 10
0.0
 20
0.0
 30
0.0
  0
VERTEX
  5
90C
100
AcDbEntity
  8
L1
100
AcDbVertex
100
AcDb2dVertex
 10
347.9491011116331
 20
81.67873338689796
 30
0.0
  0
VERTEX
  5
90D
100
AcDbEntity
  8
L1
100
AcDbVertex
100
AcDb2dVertex
 10
348.1481396874451
 20
81.76631393313583
 30
0.0
  0
VERTEX
  5
90E
100
AcDbEntity
  8
L1
100
AcDbVertex
100
AcDb2dVertex
 10
348.3540540089425
 20
81.69641401222799
 30
0.0
  0
SEQEND
  5
90F
100
AcDbEntity
  8
L1
  0
ARC
  5
2B6
100
AcDbEntity
  8
L1
100
AcDbCircle
 10
355.1480046146779
 20
73.45144150844061
 30
0.0
 40
8.813962988465215
100
AcDbArc
 50
125.7142746472756
 51
126.9384834509198
  0
POLYLINE
  5
2B7
100
AcDbEntity
  8
L1
100
AcDb2dPolyline
 66
     1
 10
0.0
 20
0.0
 30
0.0
  0
VERTEX
  5
910
100
AcDbEntity
  8
L1
100
AcDbVertex
100
AcDb2dVertex
 10
349.8684921649804
 20
80.49505072463512
 30
0.0
  0
VERTEX
  5
911
100
AcDbEntity
  8
L1
100
AcDbVertex
100
AcDb2dVertex
 10
349.8733940676148
 20
80.49085264571345
 30
0.0
  0
VERTEX
  5
912
100
AcDbEntity
  8
L1
100
AcDbVertex
100
AcDb2dVertex
 10
349.8854558224388
 20
80.47946623108726
 30
0.0
  0
VERTEX
  5
913
100
AcDbEntity
  8
L1
100
AcDbVertex
100
AcDb2dVertex
 10
349.9057655481341
 20
80.45979458550949
 30
0.0
  0
VERTEX
  5
914
100
AcDbEntity
  8
L1
100
AcDbVertex
100
AcDb2dVertex
 10
349.9324203443052
 20
80.43370288679538
 30
0.0
  0
VERTEX
  5
915
100
AcDbEntity
  8
L1
100
AcDbVertex
100
AcDb2dVertex
 10
349.9653274752183
 20
80.4012547036728
 30
0.0
  0
VERTEX
  5
916
100
AcDbEntity
  8
L1
100
AcDbVertex
100
AcDb2dVertex
 10
350.0024399128519
 20
80.36448916347854
 30
0.0
  0
VERTEX
  5
917
100
AcDbEntity
  8
L1
100
AcDbVertex
100
AcDb2dVertex
 10
350.0429859283954
 20
80.3241512765758
 30
0.0
  0
VERTEX
  5
918
100
AcDbEntity
  8
L1
100
AcDbVertex
100
AcDb2dVertex
 10
350.0849636919225
 20
80.28224938416252
 30
0.0
  0
SEQEND
  5
919
100
AcDbEntity
  8
L1
  0
LINE
  5
2B8
100
AcDbEntity
  8
L1
100
AcDbLine
 10
350.0849636919225
 20
80.28224938416252
 30
0.0
 11
350.2850734688633
 21
80.08213960722168
 31
0.0
  0
POLYLINE
  5
2B9
100
AcDbEntity
  8
L1
100
AcDb2dPolyline
 66
     1
 10
0.0
 20
0.0
 30
0.0
  0
VERTEX
  5
91A
100
AcDbEntity
  8
L1
100
AcDbVertex
100
AcDb2dVertex
 10
350.2850734688633
 20
80.08213960722168
 30
0.0
  0
VERTEX
  5
91B
100
AcDbEntity
  8
L1
100
AcDbVertex
100
AcDb2dVertex
 10
350.283677261341
 20
80.06378916708511
 30
0.0
  0
SEQEND
  5
91C
100
AcDbEntity
  8
L1
  0
LINE
  5
2BA
100
AcDbEntity
  8
L1
100
AcDbLine
 10
350.283677261341
 20
80.06378916708513
 30
0.0
 11
349.8511900222855
 21
80.49627640614071
 31
0.0
  0
POLYLINE
  5
2BB
100
AcDbEntity
  8
L1
100
AcDb2dPolyline
 66
     1
 10
0.0
 20
0.0
 30
0.0
  0
VERTEX
  5
91D
100
AcDbEntity
  8
L1
100
AcDbVertex
100
AcDb2dVertex
 10
349.8511900222855
 20
80.49627640614071
 30
0.0
  0
VERTEX
  5
91E
100
AcDbEntity
  8
L1
100
AcDbVertex
100
AcDb2dVertex
 10
349.8684921649804
 20
80.49505072463512
 30
0.0
  0
SEQEND
  5
91F
100
AcDbEntity
  8
L1
  0
LINE
  5
2BC
100
AcDbEntity
  8
L1
100
AcDbLine
 10
354.2480046146779
 20
88.48979058877274
 30
0.0
 11
355.1480046146779
 21
85.45144150844061
 31
0.0
  0
LINE
  5
2BD
100
AcDbEntity
  8
L1
100
AcDbLine
 10
354.8480046146779
 20
88.48979058877274
 30
0.0
 11
354.2480046146779
 21
88.48979058877274
 31
0.0
  0
POLYLINE
  5
2BE
100
AcDbEntity
  8
L1
100
AcDb2dPolyline
 66
     1
 10
0.0
 20
0.0
 30
0.0
  0
VERTEX
  5
920
100
AcDbEntity
  8
L1
100
AcDbVertex
100
AcDb2dVertex
 10
358.2367915679801
 20
82.43470573204655
 30
0.0
  0
VERTEX
  5
921
100
AcDbEntity
  8
L1
100
AcDbVertex
100
AcDb2dVertex
 10
357.9367994570667
 20
82.51508593533293
 30
0.0
  0
VERTEX
  5
922
100
AcDbEntity
  8
L1
100
AcDbVertex
100
AcDb2dVertex
 10
357.717194617428
 20
82.73469077497162
 30
0.0
  0
VERTEX
  5
923
100
AcDbEntity
  8
L1
100
AcDbVertex
100
AcDb2dVertex
 10
357.6368144141416
 20
83.03468288588504
 30
0.0
  0
SEQEND
  5
924
100
AcDbEntity
  8
L1
  0
ARC
  5
2BF
100
AcDbEntity
  8
L1
100
AcDbCircle
 10
358.648004614678
 20
83.05144150844062
 30
0.0
 40
1.377211141825884
100
AcDbArc
 50
270.0
 51
0.0
  0
POLYLINE
  5
2C0
100
AcDbEntity
  8
L1
100
AcDb2dPolyline
 66
     1
 10
0.0
 20
0.0
 30
0.0
  0
VERTEX
  5
925
100
AcDbEntity
  8
L1
100
AcDbVertex
100
AcDb2dVertex
 10
361.8480046146779
 20
79.40029282518702
 30
0.0
  0
VERTEX
  5
926
100
AcDbEntity
  8
L1
100
AcDbVertex
100
AcDb2dVertex
 10
361.8218240113057
 20
79.34298421708527
 30
0.0
  0
SEQEND
  5
927
100
AcDbEntity
  8
L1
  0
LINE
  5
2C1
100
AcDbEntity
  8
L1
100
AcDbLine
 10
355.448004614678
 20
98.48979058877269
 30
0.0
 11
354.8480046146779
 21
98.48979058877269
 31
0.0
  0
LINE
  5
2CD
100
AcDbEntity
  8
L6
 62
     1
100
AcDbLine
 10
343.3980046146781
 20
123.7245079572706
 30
0.0
 11
343.3980046146781
 21
136.4322872768446
 31
0.0
  0
CIRCLE
  5
2CE
100
AcDbEntity
  8
L1
100
AcDbCircle
 10
343.3980046146779
 20
130.2014415084405
 30
0.0
 40
4.091897474510698
  0
CIRCLE
  5
2CF
100
AcDbEntity
  8
L1
100
AcDbCircle
 10
343.3980046146779
 20
130.2014415084405
 30
0.0
 40
1.6
  0
CIRCLE
  5
2D0
100
AcDbEntity
  8
L1
100
AcDbCircle
 10
343.3980046146779
 20
130.2014415084405
 30
0.0
 40
1.25
  0
LINE
  5
2E7
100
AcDbEntity
  8
L1
100
AcDbLine
 10
340.1096555343458
 20
187.2514415084406
 30
0.0
 11
320.1096555343458
 21
187.2514415084406
 31
0.0
  0
LINE
  5
2E8
100
AcDbEntity
  8
L1
100
AcDbLine
 10
320.1096555343458
 20
186.6514415084405
 30
0.0
 11
340.1096555343458
 21
186.6514415084405
 31
0.0
  0
LINE
  5
2E9
100
AcDbEntity
  8
L1
100
AcDbLine
 10
201.2480046146779
 20
194.4741313665814
 30
0.0
 11
345.548004614678
 21
194.4741313665814
 31
0.0
  0
LINE
  5
2EA
100
AcDbEntity
  8
L1
100
AcDbLine
 10
359.9480046146779
 20
194.6514415084406
 30
0.0
 11
186.8480046146779
 21
194.6514415084406
 31
0.0
  0
LINE
  5
2EB
100
AcDbEntity
  8
L1
100
AcDbLine
 10
186.8530621664679
 20
195.2462506873753
 30
0.0
 11
359.9429470628881
 21
195.2462506873753
 31
0.0
  0
LINE
  5
2EC
100
AcDbEntity
  8
L1
100
AcDbLine
 10
345.548004614678
 20
191.8286526502665
 30
0.0
 11
201.2480046146779
 21
191.8286526502665
 31
0.0
  0
LINE
  5
2ED
100
AcDbEntity
  8
L1
100
AcDbLine
 10
363.4428137936128
 20
246.5143232630801
 30
0.0
 11
183.3531954357433
 21
246.5143232630801
 31
0.0
  0
LINE
  5
2EE
100
AcDbEntity
  8
L1
100
AcDbLine
 10
183.9480046146779
 20
247.1091324420148
 30
0.0
 11
362.848004614678
 21
247.1091324420148
 31
0.0
  0
LINE
  5
2EF
100
AcDbEntity
  8
L1
100
AcDbLine
 10
198.0388840832994
 20
223.1091324420148
 30
0.0
 11
348.7571251460106
 21
223.1091324420148
 31
0.0
  0
LINE
  5
2F0
100
AcDbEntity
  8
L1
100
AcDbLine
 10
248.0388840832927
 20
223.1091324420148
 30
0.0
 11
348.7571251460106
 21
223.1091324420148
 31
0.0
  0
LINE
  5
2F1
100
AcDbEntity
  8
L2
100
AcDbLine
 10
200.6312688382838
 20
226.1091324420148
 30
0.0
 11
346.1647403910721
 21
226.1091324420148
 31
0.0
  0
CIRCLE
  5
2F2
100
AcDbEntity
  8
L1
100
AcDbCircle
 10
323.3980046146779
 20
175.2014415084406
 30
0.0
 40
4.091897474510698
  0
LINE
  5
2F3
100
AcDbEntity
  8
L6
 62
     1
100
AcDbLine
 10
328.3980046146779
 20
175.2014415084405
 30
0.0
 11
318.3980046146779
 21
175.2014415084405
 31
0.0
  0
LINE
  5
2F4
100
AcDbEntity
  8
L1
100
AcDbLine
 10
201.2312459921224
 20
189.4402513079043
 30
0.0
 11
345.5647632372335
 21
189.4402513079043
 31
0.0
  0
LINE
  5
2F5
100
AcDbEntity
  8
L6
100
AcDbLine
 10
273.398004614678
 20
218.2767125735379
 30
0.0
 11
273.398004614678
 21
254.6827146004874
 31
0.0
  0
LINE
  5
2F6
100
AcDbEntity
  8
L2
100
AcDbLine
 10
200.4505998284187
 20
246.8117504026642
 30
0.0
 11
200.6312688382838
 21
226.1091324420148
 31
0.0
1001
ACAD
1000
ASC_BOUNDS
1002
{
1070
    19
1002
}
  0
LINE
  5
2FB
100
AcDbEntity
  8
L1
100
AcDbLine
 10
197.8920370876725
 20
242.1267745686477
 30
0.0
 11
198.0536761799689
 21
223.6047691742656
 31
0.0
  0
LINE
  5
2FC
100
AcDbEntity
  8
L1
100
AcDbLine
 10
184.0742108760427
 20
244.1092466728223
 30
0.0
 11
184.2636077505759
 21
222.4065144813653
 31
0.0
  0
LINE
  5
2FD
100
AcDbEntity
  8
L1
100
AcDbLine
 10
183.5531240854215
 20
223.6047691742656
 30
0.0
 11
183.3531954357432
 21
246.51432326308
 31
0.0
  0
ARC
  5
2FE
100
AcDbEntity
  8
L1
100
AcDbCircle
 10
186.8480046146779
 20
191.7514415084406
 30
0.0
 40
2.900000000000025
100
AcDbArc
 50
90.0
 51
180.0
  0
POLYLINE
  5
2FF
100
AcDbEntity
  8
L1
100
AcDb2dPolyline
 66
     1
 10
0.0
 20
0.0
 30
0.0
  0
VERTEX
  5
981
100
AcDbEntity
  8
L1
100
AcDbVertex
100
AcDb2dVertex
 10
183.3531990580678
 20
191.7514415084406
 30
0.0
  0
VERTEX
  5
982
100
AcDbEntity
  8
L1
100
AcDbVertex
100
AcDb2dVertex
 10
183.4192238013482
 20
192.4230757822031
 30
0.0
  0
VERTEX
  5
983
100
AcDbEntity
  8
L1
100
AcDbVertex
100
AcDb2dVertex
 10
183.5030714633411
 20
192.7594868174649
 30
0.0
  0
VERTEX
  5
984
100
AcDbEntity
  8
L1
100
AcDbVertex
100
AcDb2dVertex
 10
183.6205505403156
 20
193.0880788074928
 30
0.0
  0
VERTEX
  5
985
100
AcDbEntity
  8
L1
100
AcDbVertex
100
AcDb2dVertex
 10
183.7702721355557
 20
193.4032885600245
 30
0.0
  0
VERTEX
  5
986
100
AcDbEntity
  8
L1
100
AcDbVertex
100
AcDb2dVertex
 10
183.9492787906966
 20
193.7002038692471
 30
0.0
  0
VERTEX
  5
987
100
AcDbEntity
  8
L1
100
AcDbVertex
100
AcDb2dVertex
 10
184.3782486391344
 20
194.2211974839843
 30
0.0
  0
VERTEX
  5
988
100
AcDbEntity
  8
L1
100
AcDbVertex
100
AcDb2dVertex
 10
184.8992422538716
 20
194.650167332422
 30
0.0
  0
VERTEX
  5
989
100
AcDbEntity
  8
L1
100
AcDbVertex
100
AcDb2dVertex
 10
185.1961575630942
 20
194.829173987563
 30
0.0
  0
VERTEX
  5
98A
100
AcDbEntity
  8
L1
100
AcDbVertex
100
AcDb2dVertex
 10
185.5113673156258
 20
194.978895582803
 30
0.0
  0
VERTEX
  5
98B
100
AcDbEntity
  8
L1
100
AcDbVertex
100
AcDb2dVertex
 10
185.8399593056537
 20
195.0963746597775
 30
0.0
  0
VERTEX
  5
98C
100
AcDbEntity
  8
L1
100
AcDbVertex
100
AcDb2dVertex
 10
186.1763703409156
 20
195.1802223217704
 30
0.0
  0
VERTEX
  5
98D
100
AcDbEntity
  8
L1
100
AcDbVertex
100
AcDb2dVertex
 10
186.8480046146779
 20
195.2462470650507
 30
0.0
  0
SEQEND
  5
98E
100
AcDbEntity
  8
L1
  0
ARC
  5
300
100
AcDbEntity
  8
L1
100
AcDbCircle
 10
201.2480046146779
 20
190.4514415084406
 30
0.0
 40
4.022689858140807
100
AcDbArc
 50
89.9999999999992
 51
180.0
  0
LINE
  5
301
100
AcDbEntity
  8
L1
100
AcDbLine
 10
226.6863536950101
 20
186.6514415084405
 30
0.0
 11
206.68635369501
 21
186.6514415084405
 31
0.0
  0
LINE
  5
302
100
AcDbEntity
  8
L1
100
AcDbLine
 10
206.68635369501
 20
187.2514415084406
 30
0.0
 11
226.6863536950101
 21
187.2514415084406
 31
0.0
  0
LINE
  5
303
100
AcDbEntity
  8
L1
100
AcDbLine
 10
197.5395473233226
 20
193.6252609050683
 30
0.0
 11
186.8480046146779
 21
193.6252609050683
 31
0.0
  0
LINE
  5
304
100
AcDbEntity
  8
L1
100
AcDbLine
 10
186.8480046146779
 20
193.6514415084405
 30
0.0
 11
197.5968559314243
 21
193.6514415084405
 31
0.0
  0
CIRCLE
  5
305
100
AcDbEntity
  8
L1
100
AcDbCircle
 10
191.6480046146779
 20
186.9514415084406
 30
0.0
 40
4.0
  0
LINE
  5
306
100
AcDbEntity
  8
L1
100
AcDbLine
 10
188.5592176613757
 20
177.9681772848346
 30
0.0
 11
191.6480046146779
 21
177.9681772848346
 31
0.0
  0
LINE
  5
307
100
AcDbEntity
  8
L1
100
AcDbLine
 10
191.6480046146779
 20
178.7286526502665
 30
0.0
 11
188.1480046146779
 21
178.7286526502665
 31
0.0
  0
CIRCLE
  5
308
100
AcDbEntity
  8
L1
100
AcDbCircle
 10
191.6480046146779
 20
186.9514415084407
 30
0.0
 40
2.25
  0
LINE
  5
309
100
AcDbEntity
  8
L1
100
AcDbLine
 10
188.1480046146779
 20
181.3741313665815
 30
0.0
 11
191.6480046146779
 21
181.3741313665815
 31
0.0
  0
LINE
  5
30A
100
AcDbEntity
  8
L1
100
AcDbLine
 10
191.0264709633117
 20
181.8894561350698
 30
0.0
 11
188.7396785412071
 21
182.170238938494
 31
0.0
  0
LINE
  5
30B
100
AcDbEntity
  8
L1
100
AcDbLine
 10
188.74286915415
 20
182.1962243956189
 30
0.0
 11
191.0296615762546
 21
181.9154415921947
 31
0.0
  0
LINE
  5
30C
100
AcDbEntity
  8
L6
 62
     1
100
AcDbLine
 10
186.6480046146778
 20
186.9514415084407
 30
0.0
 11
196.6480046146778
 21
186.9514415084407
 31
0.0
  0
LINE
  5
30D
100
AcDbEntity
  8
L1
100
AcDbLine
 10
184.9741852180502
 20
191.7514415084406
 30
0.0
 11
184.9741852180502
 21
181.0598987997959
 31
0.0
  0
LINE
  5
30E
100
AcDbEntity
  8
L1
100
AcDbLine
 10
184.9480046146779
 20
181.002590191694
 30
0.0
 11
184.9480046146779
 21
191.7514415084406
 31
0.0
  0
ARC
  5
30F
100
AcDbEntity
  8
L1
100
AcDbCircle
 10
188.1480046146779
 20
177.3514415084406
 30
0.0
 40
4.022689858140807
100
AcDbArc
 50
89.9999999999992
 51
180.0
  0
POLYLINE
  5
310
100
AcDbEntity
  8
L1
100
AcDb2dPolyline
 66
     1
 10
0.0
 20
0.0
 30
0.0
  0
VERTEX
  5
98F
100
AcDbEntity
  8
L1
100
AcDbVertex
100
AcDb2dVertex
 10
188.5592176613757
 20
177.9681772848346
 30
0.0
  0
VERTEX
  5
990
100
AcDbEntity
  8
L1
100
AcDbVertex
100
AcDb2dVertex
 10
188.8592097722892
 20
177.8877970815482
 30
0.0
  0
VERTEX
  5
991
100
AcDbEntity
  8
L1
100
AcDbVertex
100
AcDb2dVertex
 10
189.0788146119279
 20
177.6681922419094
 30
0.0
  0
VERTEX
  5
992
100
AcDbEntity
  8
L1
100
AcDbVertex
100
AcDb2dVertex
 10
189.1591948152142
 20
177.3682001309961
 30
0.0
  0
SEQEND
  5
993
100
AcDbEntity
  8
L1
  0
ARC
  5
311
100
AcDbEntity
  8
L1
100
AcDbCircle
 10
188.1480046146779
 20
177.3514415084406
 30
0.0
 40
1.377211141825941
100
AcDbArc
 50
90.0
 51
180.0
  0
ARC
  5
312
100
AcDbEntity
  8
L1
100
AcDbCircle
 10
188.1480046146779
 20
177.3514415084406
 30
0.0
 40
4.881166361046988
100
AcDbArc
 50
83.00000000000057
 51
130.5579963961402
  0
ARC
  5
313
100
AcDbEntity
  8
L1
100
AcDbCircle
 10
188.1480046146779
 20
177.3514415084406
 30
0.0
 40
4.85498575767471
100
AcDbArc
 50
83.00000000000038
 51
131.2325076746371
  0
POLYLINE
  5
314
100
AcDbEntity
  8
L1
100
AcDb2dPolyline
 66
     1
 10
0.0
 20
0.0
 30
0.0
  0
VERTEX
  5
994
100
AcDbEntity
  8
L1
100
AcDbVertex
100
AcDb2dVertex
 10
184.9480046146779
 20
181.0025901916942
 30
0.0
  0
VERTEX
  5
995
100
AcDbEntity
  8
L1
100
AcDbVertex
100
AcDb2dVertex
 10
184.9741852180502
 20
181.0598987997959
 30
0.0
  0
SEQEND
  5
996
100
AcDbEntity
  8
L1
  0
ARC
  5
315
100
AcDbEntity
  8
L1
100
AcDbCircle
 10
186.8480046146779
 20
191.7514415084406
 30
0.0
 40
1.873819396627723
100
AcDbArc
 50
90.0
 51
180.0
  0
ARC
  5
316
100
AcDbEntity
  8
L1
100
AcDbCircle
 10
186.8480046146779
 20
191.7514415084406
 30
0.0
 40
1.9
100
AcDbArc
 50
89.99999999999912
 51
180.0
  0
POLYLINE
  5
317
100
AcDbEntity
  8
L1
100
AcDb2dPolyline
 66
     1
 10
0.0
 20
0.0
 30
0.0
  0
VERTEX
  5
997
100
AcDbEntity
  8
L1
100
AcDbVertex
100
AcDb2dVertex
 10
183.3531954357432
 20
191.7463839566507
 30
0.0
  0
VERTEX
  5
998
100
AcDbEntity
  8
L1
100
AcDbVertex
100
AcDb2dVertex
 10
183.3531963413245
 20
191.7489127253723
 30
0.0
  0
VERTEX
  5
999
100
AcDbEntity
  8
L1
100
AcDbVertex
100
AcDb2dVertex
 10
183.3531990580678
 20
191.7514415084406
 30
0.0
  0
SEQEND
  5
99A
100
AcDbEntity
  8
L1
  0
ARC
  5
318
100
AcDbEntity
  8
L1
100
AcDbCircle
 10
191.6480046146779
 20
186.9514415084406
 30
0.0
 40
8.983264223605935
100
AcDbArc
 50
325.0994163667606
 51
0.0
  0
ARC
  5
319
100
AcDbEntity
  8
L1
100
AcDbCircle
 10
191.6480046146779
 20
186.9514415084406
 30
0.0
 40
8.222788858174023
100
AcDbArc
 50
323.7438067526894
 51
0.0
  0
ARC
  5
31A
100
AcDbEntity
  8
L1
100
AcDbCircle
 10
191.6480046146779
 20
186.9514415084406
 30
0.0
 40
5.073819396627722
100
AcDbArc
 50
262.9999999999999
 51
6.999999999999645
  0
ARC
  5
31B
100
AcDbEntity
  8
L1
100
AcDbCircle
 10
191.6480046146779
 20
186.9514415084406
 30
0.0
 40
5.09999999999999
100
AcDbArc
 50
263.0000000000002
 51
6.999999999999818
  0
ARC
  5
31C
100
AcDbEntity
  8
L1
100
AcDbCircle
 10
191.6480046146779
 20
186.9514415084406
 30
0.0
 40
5.577310141859157
100
AcDbArc
 50
270.0
 51
0.0
  0
LINE
  5
31D
100
AcDbEntity
  8
L6
 62
     1
100
AcDbLine
 10
191.6480046146779
 20
181.1569631082819
 30
0.0
 11
191.6480046146779
 21
191.9778493459258
 31
0.0
  0
POLYLINE
  5
31E
100
AcDbEntity
  8
L1
100
AcDb2dPolyline
 66
     1
 10
0.0
 20
0.0
 30
0.0
  0
VERTEX
  5
99B
100
AcDbEntity
  8
L1
100
AcDbVertex
100
AcDb2dVertex
 10
200.1223888871909
 20
180.1474745685681
 30
0.0
  0
VERTEX
  5
99C
100
AcDbEntity
  8
L1
100
AcDbVertex
100
AcDb2dVertex
 10
200.1922888080987
 20
179.9415602470708
 30
0.0
  0
VERTEX
  5
99D
100
AcDbEntity
  8
L1
100
AcDbVertex
100
AcDb2dVertex
 10
200.1047082618609
 20
179.7425216712588
 30
0.0
  0
SEQEND
  5
99E
100
AcDbEntity
  8
L1
  0
ARC
  5
31F
100
AcDbEntity
  8
L1
100
AcDbCircle
 10
191.6480046146779
 20
186.9514415084406
 30
0.0
 40
8.983264223605935
100
AcDbArc
 50
270.0
 51
304.9005836332388
  0
ARC
  5
320
100
AcDbEntity
  8
L1
100
AcDbCircle
 10
191.6480046146779
 20
186.9514415084406
 30
0.0
 40
8.222788858174023
100
AcDbArc
 50
270.0
 51
306.25619324731
  0
POLYLINE
  5
321
100
AcDbEntity
  8
L1
100
AcDb2dPolyline
 66
     1
 10
0.0
 20
0.0
 30
0.0
  0
VERTEX
  5
99F
100
AcDbEntity
  8
L1
100
AcDbVertex
100
AcDb2dVertex
 10
198.8569244518596
 20
178.4947378612576
 30
0.0
  0
VERTEX
  5
9A0
100
AcDbEntity
  8
L1
100
AcDbVertex
100
AcDb2dVertex
 10
198.6578858760476
 20
178.4071573150197
 30
0.0
  0
VERTEX
  5
9A1
100
AcDbEntity
  8
L1
100
AcDbVertex
100
AcDb2dVertex
 10
198.4519715545503
 20
178.4770572359275
 30
0.0
  0
SEQEND
  5
9A2
100
AcDbEntity
  8
L1
  0
LINE
  5
322
100
AcDbEntity
  8
L1
100
AcDbLine
 10
198.8181647181483
 20
181.4384024421475
 30
0.0
 11
199.8929771184652
 21
180.157490902705
 31
0.0
  0
LINE
  5
323
100
AcDbEntity
  8
L1
100
AcDbLine
 10
199.8752964931352
 20
179.7525380053957
 30
0.0
 11
198.8469081177228
 21
178.7241496299832
 31
0.0
  0
LINE
  5
324
100
AcDbEntity
  8
L1
100
AcDbLine
 10
200.1047082618608
 20
179.7425216712588
 30
0.0
 11
198.8569244518596
 21
178.4947378612576
 31
0.0
  0
LINE
  5
325
100
AcDbEntity
  8
L1
100
AcDbLine
 10
199.031823127124
 20
181.4471602310881
 30
0.0
 11
200.1223888871909
 21
180.1474745685681
 31
0.0
  0
ARC
  5
326
100
AcDbEntity
  8
L1
100
AcDbCircle
 10
191.6480046146779
 20
186.9514415084406
 30
0.0
 40
8.208825869708812
100
AcDbArc
 50
306.3397989149929
 51
323.6602010850057
  0
LINE
  5
327
100
AcDbEntity
  8
L1
100
AcDbLine
 10
198.4419552204135
 20
178.7064690046532
 30
0.0
 11
197.161043680971
 21
179.7812814049701
 31
0.0
  0
POLYLINE
  5
328
100
AcDbEntity
  8
L1
100
AcDb2dPolyline
 66
     1
 10
0.0
 20
0.0
 30
0.0
  0
VERTEX
  5
9A3
100
AcDbEntity
  8
L1
100
AcDbVertex
100
AcDb2dVertex
 10
198.8469081177228
 20
178.7241496299832
 30
0.0
  0
VERTEX
  5
9A4
100
AcDbEntity
  8
L1
100
AcDbVertex
100
AcDb2dVertex
 10
198.6478695419108
 20
178.6365690837454
 30
0.0
  0
VERTEX
  5
9A5
100
AcDbEntity
  8
L1
100
AcDbVertex
100
AcDb2dVertex
 10
198.4419552204135
 20
178.7064690046532
 30
0.0
  0
SEQEND
  5
9A6
100
AcDbEntity
  8
L1
  0
LINE
  5
329
100
AcDbEntity
  8
L1
100
AcDbLine
 10
198.4519715545503
 20
178.4770572359275
 30
0.0
 11
197.1522858920303
 21
179.5676229959944
 31
0.0
  0
POLYLINE
  5
32A
100
AcDbEntity
  8
L1
100
AcDb2dPolyline
 66
     1
 10
0.0
 20
0.0
 30
0.0
  0
VERTEX
  5
9A7
100
AcDbEntity
  8
L1
100
AcDbVertex
100
AcDb2dVertex
 10
196.7930983542078
 20
179.7950489833281
 30
0.0
  0
VERTEX
  5
9A8
100
AcDbEntity
  8
L1
100
AcDbVertex
100
AcDb2dVertex
 10
196.8542279433951
 20
179.8289661309199
 30
0.0
  0
VERTEX
  5
9A9
100
AcDbEntity
  8
L1
100
AcDbVertex
100
AcDb2dVertex
 10
196.9428226988333
 20
179.8503895917503
 30
0.0
  0
VERTEX
  5
9AA
100
AcDbEntity
  8
L1
100
AcDbVertex
100
AcDb2dVertex
 10
197.0018513637261
 20
179.8495744540848
 30
0.0
  0
SEQEND
  5
9AB
100
AcDbEntity
  8
L1
  0
POLYLINE
  5
32B
100
AcDbEntity
  8
L1
100
AcDb2dPolyline
 66
     1
 10
0.0
 20
0.0
 30
0.0
  0
VERTEX
  5
9AC
100
AcDbEntity
  8
L1
100
AcDbVertex
100
AcDb2dVertex
 10
197.0018513637261
 20
179.8495744540848
 30
0.0
  0
VERTEX
  5
9AD
100
AcDbEntity
  8
L1
100
AcDbVertex
100
AcDb2dVertex
 10
197.0277013358071
 20
179.8455089966209
 30
0.0
  0
VERTEX
  5
9AE
100
AcDbEntity
  8
L1
100
AcDbVertex
100
AcDb2dVertex
 10
197.11792986482
 20
179.8114357179373
 30
0.0
  0
VERTEX
  5
9AF
100
AcDbEntity
  8
L1
100
AcDbVertex
100
AcDb2dVertex
 10
197.1610436809709
 20
179.7812814049701
 30
0.0
  0
SEQEND
  5
9B0
100
AcDbEntity
  8
L1
  0
POLYLINE
  5
32C
100
AcDbEntity
  8
L1
100
AcDb2dPolyline
 66
     1
 10
0.0
 20
0.0
 30
0.0
  0
VERTEX
  5
9B1
100
AcDbEntity
  8
L1
100
AcDbVertex
100
AcDb2dVertex
 10
197.1522858920304
 20
179.5676229959944
 30
0.0
  0
VERTEX
  5
9B2
100
AcDbEntity
  8
L1
100
AcDbVertex
100
AcDb2dVertex
 10
197.1040594505828
 20
179.6006555849797
 30
0.0
  0
VERTEX
  5
9B3
100
AcDbEntity
  8
L1
100
AcDbVertex
100
AcDb2dVertex
 10
197.0155548560675
 20
179.6325158659378
 30
0.0
  0
VERTEX
  5
9B4
100
AcDbEntity
  8
L1
100
AcDbVertex
100
AcDb2dVertex
 10
196.9328573321106
 20
179.6366260935683
 30
0.0
  0
VERTEX
  5
9B5
100
AcDbEntity
  8
L1
100
AcDbVertex
100
AcDb2dVertex
 10
196.8462294240451
 20
179.6156183698613
 30
0.0
  0
VERTEX
  5
9B6
100
AcDbEntity
  8
L1
100
AcDbVertex
100
AcDb2dVertex
 10
196.7878172191792
 20
179.5838528593826
 30
0.0
  0
SEQEND
  5
9B7
100
AcDbEntity
  8
L1
  0
ARC
  5
32D
100
AcDbEntity
  8
L1
100
AcDbCircle
 10
191.6480046146779
 20
186.9514415084406
 30
0.0
 40
8.813962988465215
100
AcDbArc
 50
305.7142746472753
 51
306.9384834509193
  0
LINE
  5
32E
100
AcDbEntity
  8
L1
100
AcDbLine
 10
196.5123319680147
 20
180.3390938497962
 30
0.0
 11
196.9448192070705
 21
179.9066066107405
 31
0.0
  0
POLYLINE
  5
32F
100
AcDbEntity
  8
L1
100
AcDb2dPolyline
 66
     1
 10
0.0
 20
0.0
 30
0.0
  0
VERTEX
  5
9B8
100
AcDbEntity
  8
L1
100
AcDbVertex
100
AcDb2dVertex
 10
196.9448192070704
 20
179.9066066107404
 30
0.0
  0
VERTEX
  5
9B9
100
AcDbEntity
  8
L1
100
AcDbVertex
100
AcDb2dVertex
 10
196.9275170643755
 20
179.907832292246
 30
0.0
  0
SEQEND
  5
9BA
100
AcDbEntity
  8
L1
  0
POLYLINE
  5
330
100
AcDbEntity
  8
L1
100
AcDb2dPolyline
 66
     1
 10
0.0
 20
0.0
 30
0.0
  0
VERTEX
  5
9BB
100
AcDbEntity
  8
L1
100
AcDbVertex
100
AcDb2dVertex
 10
196.9275170643754
 20
179.907832292246
 30
0.0
  0
VERTEX
  5
9BC
100
AcDbEntity
  8
L1
100
AcDbVertex
100
AcDb2dVertex
 10
196.922615161741
 20
179.9120303711676
 30
0.0
  0
VERTEX
  5
9BD
100
AcDbEntity
  8
L1
100
AcDbVertex
100
AcDb2dVertex
 10
196.910553406917
 20
179.9234167857939
 30
0.0
  0
VERTEX
  5
9BE
100
AcDbEntity
  8
L1
100
AcDbVertex
100
AcDb2dVertex
 10
196.8902436812216
 20
179.9430884313716
 30
0.0
  0
VERTEX
  5
9BF
100
AcDbEntity
  8
L1
100
AcDbVertex
100
AcDb2dVertex
 10
196.8635888850505
 20
179.9691801300858
 30
0.0
  0
VERTEX
  5
9C0
100
AcDbEntity
  8
L1
100
AcDbVertex
100
AcDb2dVertex
 10
196.8306817541375
 20
180.0016283132084
 30
0.0
  0
VERTEX
  5
9C1
100
AcDbEntity
  8
L1
100
AcDbVertex
100
AcDb2dVertex
 10
196.7935693165039
 20
180.0383938534026
 30
0.0
  0
VERTEX
  5
9C2
100
AcDbEntity
  8
L1
100
AcDbVertex
100
AcDb2dVertex
 10
196.7530233009605
 20
180.0787317403054
 30
0.0
  0
VERTEX
  5
9C3
100
AcDbEntity
  8
L1
100
AcDbVertex
100
AcDb2dVertex
 10
196.7110455374334
 20
180.1206336327187
 30
0.0
  0
SEQEND
  5
9C4
100
AcDbEntity
  8
L1
  0
POLYLINE
  5
331
100
AcDbEntity
  8
L1
100
AcDb2dPolyline
 66
     1
 10
0.0
 20
0.0
 30
0.0
  0
VERTEX
  5
9C5
100
AcDbEntity
  8
L1
100
AcDbVertex
100
AcDb2dVertex
 10
196.5109357604925
 20
180.3207434096595
 30
0.0
  0
VERTEX
  5
9C6
100
AcDbEntity
  8
L1
100
AcDbVertex
100
AcDb2dVertex
 10
196.5123319680147
 20
180.3390938497962
 30
0.0
  0
SEQEND
  5
9C7
100
AcDbEntity
  8
L1
  0
LINE
  5
332
100
AcDbEntity
  8
L1
100
AcDbLine
 10
196.7110455374334
 20
180.1206336327187
 30
0.0
 11
196.5109357604925
 21
180.3207434096596
 31
0.0
  0
POLYLINE
  5
333
100
AcDbEntity
  8
L1
100
AcDb2dPolyline
 66
     1
 10
0.0
 20
0.0
 30
0.0
  0
VERTEX
  5
9C8
100
AcDbEntity
  8
L1
100
AcDbVertex
100
AcDb2dVertex
 10
198.8181647181483
 20
181.4384024421475
 30
0.0
  0
VERTEX
  5
9C9
100
AcDbEntity
  8
L1
100
AcDbVertex
100
AcDb2dVertex
 10
198.7973761682317
 20
181.466318448148
 30
0.0
  0
VERTEX
  5
9CA
100
AcDbEntity
  8
L1
100
AcDbVertex
100
AcDb2dVertex
 10
198.7709493847575
 20
181.5161084497184
 30
0.0
  0
VERTEX
  5
9CB
100
AcDbEntity
  8
L1
100
AcDbVertex
100
AcDb2dVertex
 10
198.7543032232768
 20
181.56996307807
 30
0.0
  0
VERTEX
  5
9CC
100
AcDbEntity
  8
L1
100
AcDbVertex
100
AcDb2dVertex
 10
198.7498716690337
 20
181.5975947593923
 30
0.0
  0
SEQEND
  5
9CD
100
AcDbEntity
  8
L1
  0
POLYLINE
  5
334
100
AcDbEntity
  8
L1
100
AcDb2dPolyline
 66
     1
 10
0.0
 20
0.0
 30
0.0
  0
VERTEX
  5
9CE
100
AcDbEntity
  8
L1
100
AcDbVertex
100
AcDb2dVertex
 10
198.7498716690337
 20
181.5975947593923
 30
0.0
  0
VERTEX
  5
9CF
100
AcDbEntity
  8
L1
100
AcDbVertex
100
AcDb2dVertex
 10
198.7529534258732
 20
181.6856295626353
 30
0.0
  0
VERTEX
  5
9D0
100
AcDbEntity
  8
L1
100
AcDbVertex
100
AcDb2dVertex
 10
198.7694104921244
 20
181.7425786879072
 30
0.0
  0
VERTEX
  5
9D1
100
AcDbEntity
  8
L1
100
AcDbVertex
100
AcDb2dVertex
 10
198.7967443301006
 20
181.7951800587897
 30
0.0
  0
VERTEX
  5
9D2
100
AcDbEntity
  8
L1
100
AcDbVertex
100
AcDb2dVertex
 10
198.8043971397903
 20
181.8063477689107
 30
0.0
  0
SEQEND
  5
9D3
100
AcDbEntity
  8
L1
  0
POLYLINE
  5
335
100
AcDbEntity
  8
L1
100
AcDb2dPolyline
 66
     1
 10
0.0
 20
0.0
 30
0.0
  0
VERTEX
  5
9D4
100
AcDbEntity
  8
L1
100
AcDbVertex
100
AcDb2dVertex
 10
199.0155932637359
 20
181.8116289039393
 30
0.0
  0
VERTEX
  5
9D5
100
AcDbEntity
  8
L1
100
AcDbVertex
100
AcDb2dVertex
 10
199.0036784589204
 20
181.7931405670239
 30
0.0
  0
VERTEX
  5
9D6
100
AcDbEntity
  8
L1
100
AcDbVertex
100
AcDb2dVertex
 10
198.978598061706
 20
181.7394249555622
 30
0.0
  0
VERTEX
  5
9D7
100
AcDbEntity
  8
L1
100
AcDbVertex
100
AcDb2dVertex
 10
198.9645701544836
 20
181.6818262887156
 30
0.0
  0
VERTEX
  5
9D8
100
AcDbEntity
  8
L1
100
AcDbVertex
100
AcDb2dVertex
 10
198.9620634120432
 20
181.6240277664134
 30
0.0
  0
VERTEX
  5
9D9
100
AcDbEntity
  8
L1
100
AcDbVertex
100
AcDb2dVertex
 10
198.970697797448
 20
181.5668228677564
 30
0.0
  0
VERTEX
  5
9DA
100
AcDbEntity
  8
L1
100
AcDbVertex
100
AcDb2dVertex
 10
198.9893891526579
 20
181.5139755138244
 30
0.0
  0
VERTEX
  5
9DB
100
AcDbEntity
  8
L1
100
AcDbVertex
100
AcDb2dVertex
 10
199.0175857828681
 20
181.4655279835566
 30
0.0
  0
VERTEX
  5
9DC
100
AcDbEntity
  8
L1
100
AcDbVertex
100
AcDb2dVertex
 10
199.031823127124
 20
181.4471602310881
 30
0.0
  0
SEQEND
  5
9DD
100
AcDbEntity
  8
L1
  0
ARC
  5
336
100
AcDbEntity
  8
L1
100
AcDbCircle
 10
191.6480046146779
 20
186.9514415084406
 30
0.0
 40
8.813962988465215
100
AcDbArc
 50
323.0615165490796
 51
324.2857253527238
  0
POLYLINE
  5
337
100
AcDbEntity
  8
L1
100
AcDb2dPolyline
 66
     1
 10
0.0
 20
0.0
 30
0.0
  0
VERTEX
  5
9DE
100
AcDbEntity
  8
L1
100
AcDbVertex
100
AcDb2dVertex
 10
198.4788124903998
 20
181.888400585685
 30
0.0
  0
VERTEX
  5
9DF
100
AcDbEntity
  8
L1
100
AcDbVertex
100
AcDb2dVertex
 10
198.5207143828131
 20
181.8464228221579
 30
0.0
  0
VERTEX
  5
9E0
100
AcDbEntity
  8
L1
100
AcDbVertex
100
AcDb2dVertex
 10
198.5610522697158
 20
181.8058768066145
 30
0.0
  0
VERTEX
  5
9E1
100
AcDbEntity
  8
L1
100
AcDbVertex
100
AcDb2dVertex
 10
198.5978178099101
 20
181.7687643689808
 30
0.0
  0
VERTEX
  5
9E2
100
AcDbEntity
  8
L1
100
AcDbVertex
100
AcDb2dVertex
 10
198.6302659930327
 20
181.7358572380678
 30
0.0
  0
VERTEX
  5
9E3
100
AcDbEntity
  8
L1
100
AcDbVertex
100
AcDb2dVertex
 10
198.6563576917468
 20
181.7092024418967
 30
0.0
  0
VERTEX
  5
9E4
100
AcDbEntity
  8
L1
100
AcDbVertex
100
AcDb2dVertex
 10
198.6760293373245
 20
181.6888927162014
 30
0.0
  0
VERTEX
  5
9E5
100
AcDbEntity
  8
L1
100
AcDbVertex
100
AcDb2dVertex
 10
198.6874157519507
 20
181.6768309613775
 30
0.0
  0
VERTEX
  5
9E6
100
AcDbEntity
  8
L1
100
AcDbVertex
100
AcDb2dVertex
 10
198.6916138308724
 20
181.6719290587429
 30
0.0
  0
SEQEND
  5
9E7
100
AcDbEntity
  8
L1
  0
POLYLINE
  5
338
100
AcDbEntity
  8
L1
100
AcDb2dPolyline
 66
     1
 10
0.0
 20
0.0
 30
0.0
  0
VERTEX
  5
9E8
100
AcDbEntity
  8
L1
100
AcDbVertex
100
AcDb2dVertex
 10
198.6916138308724
 20
181.6719290587429
 30
0.0
  0
VERTEX
  5
9E9
100
AcDbEntity
  8
L1
100
AcDbVertex
100
AcDb2dVertex
 10
198.6928395123779
 20
181.654626916048
 30
0.0
  0
SEQEND
  5
9EA
100
AcDbEntity
  8
L1
  0
LINE
  5
339
100
AcDbEntity
  8
L1
100
AcDbLine
 10
198.6928395123779
 20
181.654626916048
 30
0.0
 11
198.2603522733223
 21
182.0871141551037
 31
0.0
  0
POLYLINE
  5
33A
100
AcDbEntity
  8
L1
100
AcDb2dPolyline
 66
     1
 10
0.0
 20
0.0
 30
0.0
  0
VERTEX
  5
9EB
100
AcDbEntity
  8
L1
100
AcDbVertex
100
AcDb2dVertex
 10
198.2603522733223
 20
182.0871141551036
 30
0.0
  0
VERTEX
  5
9EC
100
AcDbEntity
  8
L1
100
AcDbVertex
100
AcDb2dVertex
 10
198.2787027134588
 20
182.0885103626259
 30
0.0
  0
SEQEND
  5
9ED
100
AcDbEntity
  8
L1
  0
LINE
  5
33B
100
AcDbEntity
  8
L1
100
AcDbLine
 10
198.2787027134588
 20
182.0885103626259
 30
0.0
 11
198.4788124903997
 21
181.888400585685
 31
0.0
  0
POLYLINE
  5
33C
100
AcDbEntity
  8
L1
100
AcDb2dPolyline
 66
     1
 10
0.0
 20
0.0
 30
0.0
  0
VERTEX
  5
9EE
100
AcDbEntity
  8
L1
100
AcDbVertex
100
AcDb2dVertex
 10
199.8929771184652
 20
180.157490902705
 30
0.0
  0
VERTEX
  5
9EF
100
AcDbEntity
  8
L1
100
AcDbVertex
100
AcDb2dVertex
 10
199.962877039373
 20
179.9515765812077
 30
0.0
  0
VERTEX
  5
9F0
100
AcDbEntity
  8
L1
100
AcDbVertex
100
AcDb2dVertex
 10
199.8752964931352
 20
179.7525380053957
 30
0.0
  0
SEQEND
  5
9F1
100
AcDbEntity
  8
L1
  0
ARC
  5
33D
100
AcDbEntity
  8
L1
100
AcDbCircle
 10
201.2480046146779
 20
190.4514415084406
 30
0.0
 40
1.377211141825998
100
AcDbArc
 50
90.0
 51
180.0
  0
LINE
  5
33E
100
AcDbEntity
  8
L1
100
AcDbLine
 10
197.2253147565371
 20
186.9514415084406
 30
0.0
 11
197.2253147565371
 21
190.4514415084406
 31
0.0
  0
LINE
  5
33F
100
AcDbEntity
  8
L1
100
AcDbLine
 10
196.4292071846244
 20
189.8597675819115
 30
0.0
 11
196.7099899880486
 21
187.5729751598068
 31
0.0
  0
LINE
  5
340
100
AcDbEntity
  8
L1
100
AcDbLine
 10
196.6840045309238
 20
187.5697845468639
 30
0.0
 11
196.4032217274996
 21
189.8565769689685
 31
0.0
  0
LINE
  5
341
100
AcDbEntity
  8
L1
100
AcDbLine
 10
199.8707934728519
 20
190.4514415084406
 30
0.0
 11
199.8707934728519
 21
186.9514415084406
 31
0.0
  0
POLYLINE
  5
342
100
AcDbEntity
  8
L1
100
AcDb2dPolyline
 66
     1
 10
0.0
 20
0.0
 30
0.0
  0
VERTEX
  5
9F2
100
AcDbEntity
  8
L1
100
AcDbVertex
100
AcDb2dVertex
 10
197.5395473233226
 20
193.6252609050683
 30
0.0
  0
VERTEX
  5
9F3
100
AcDbEntity
  8
L1
100
AcDbVertex
100
AcDb2dVertex
 10
197.5968559314243
 20
193.6514415084405
 30
0.0
  0
SEQEND
  5
9F4
100
AcDbEntity
  8
L1
  0
ARC
  5
343
100
AcDbEntity
  8
L1
100
AcDbCircle
 10
201.2480046146779
 20
190.4514415084406
 30
0.0
 40
4.854985757674699
100
AcDbArc
 50
138.7674923253662
 51
187.0000000000006
  0
ARC
  5
344
100
AcDbEntity
  8
L1
100
AcDbCircle
 10
201.2480046146779
 20
190.4514415084406
 30
0.0
 40
4.881166361046975
100
AcDbArc
 50
139.4420036038602
 51
187.0000000000001
  0
LINE
  5
345
100
AcDbEntity
  8
L1
100
AcDbLine
 10
200.6312688382839
 20
186.9514415084406
 30
0.0
 11
200.6312688382839
 21
190.0402284617427
 31
0.0
  0
LINE
  5
346
100
AcDbEntity
  8
L1
100
AcDbLine
 10
203.6480046146779
 20
186.9514415084406
 30
0.0
 11
206.68635369501
 21
187.8514415084406
 31
0.0
  0
LINE
  5
347
100
AcDbEntity
  8
L1
100
AcDbLine
 10
206.68635369501
 20
186.0514415084406
 30
0.0
 11
203.6480046146779
 21
186.9514415084406
 31
0.0
  0
LINE
  5
348
100
AcDbEntity
  8
L1
100
AcDbLine
 10
206.68635369501
 20
187.8514415084406
 30
0.0
 11
206.68635369501
 21
187.2514415084406
 31
0.0
  0
LINE
  5
349
100
AcDbEntity
  8
L1
100
AcDbLine
 10
206.68635369501
 20
186.6514415084406
 30
0.0
 11
206.68635369501
 21
186.0514415084406
 31
0.0
  0
POLYLINE
  5
34A
100
AcDbEntity
  8
L1
100
AcDb2dPolyline
 66
     1
 10
0.0
 20
0.0
 30
0.0
  0
VERTEX
  5
9F5
100
AcDbEntity
  8
L1
100
AcDbVertex
100
AcDb2dVertex
 10
201.2312459921224
 20
189.4402513079043
 30
0.0
  0
VERTEX
  5
9F6
100
AcDbEntity
  8
L1
100
AcDbVertex
100
AcDb2dVertex
 10
200.931253881209
 20
189.5206315111907
 30
0.0
  0
VERTEX
  5
9F7
100
AcDbEntity
  8
L1
100
AcDbVertex
100
AcDb2dVertex
 10
200.7116490415703
 20
189.7402363508293
 30
0.0
  0
VERTEX
  5
9F8
100
AcDbEntity
  8
L1
100
AcDbVertex
100
AcDb2dVertex
 10
200.6312688382839
 20
190.0402284617427
 30
0.0
  0
SEQEND
  5
9F9
100
AcDbEntity
  8
L1
  0
CIRCLE
  5
34B
100
AcDbEntity
  8
L1
100
AcDbCircle
 10
223.3980046146779
 20
175.2014415084406
 30
0.0
 40
4.091897474510698
  0
LINE
  5
34C
100
AcDbEntity
  8
L6
 62
     1
100
AcDbLine
 10
223.3980046146779
 20
170.2014415084405
 30
0.0
 11
223.3980046146779
 21
180.2014415084405
 31
0.0
  0
LINE
  5
34D
100
AcDbEntity
  8
L6
 62
     1
100
AcDbLine
 10
218.3980046146779
 20
175.2014415084405
 30
0.0
 11
228.3980046146779
 21
175.2014415084405
 31
0.0
  0
CIRCLE
  5
34E
100
AcDbEntity
  8
L1
100
AcDbCircle
 10
223.3980046146779
 20
175.2014415084406
 30
0.0
 40
1.6
  0
CIRCLE
  5
34F
100
AcDbEntity
  8
L1
100
AcDbCircle
 10
223.3980046146779
 20
175.2014415084406
 30
0.0
 40
1.25
  0
LINE
  5
350
100
AcDbEntity
  8
L1
100
AcDbLine
 10
226.6863536950101
 20
187.2514415084406
 30
0.0
 11
226.6863536950101
 21
186.6514415084406
 31
0.0
  0
POLYLINE
  5
351
100
AcDbEntity
  8
L1
100
AcDb2dPolyline
 66
     1
 10
0.0
 20
0.0
 30
0.0
  0
VERTEX
  5
9FA
100
AcDbEntity
  8
L1
100
AcDbVertex
100
AcDb2dVertex
 10
186.8480046146779
 20
195.2462470650507
 30
0.0
  0
VERTEX
  5
9FB
100
AcDbEntity
  8
L1
100
AcDbVertex
100
AcDb2dVertex
 10
186.8505333977462
 20
195.2462497817941
 30
0.0
  0
VERTEX
  5
9FC
100
AcDbEntity
  8
L1
100
AcDbVertex
100
AcDb2dVertex
 10
186.8530621664679
 20
195.2462506873753
 30
0.0
  0
SEQEND
  5
9FD
100
AcDbEntity
  8
L1
  0
LINE
  5
354
100
AcDbEntity
  8
L1
100
AcDbLine
 10
184.5635963274952
 20
222.1091324420148
 30
0.0
 11
197.9688096011382
 21
222.1091324420148
 31
0.0
  0
POLYLINE
  5
35A
100
AcDbEntity
  8
L1
100
AcDb2dPolyline
 66
     1
 10
0.0
 20
0.0
 30
0.0
  0
VERTEX
  5
A16
100
AcDbEntity
  8
L1
100
AcDbVertex
100
AcDb2dVertex
 10
183.9600064272985
 20
223.1178762491598
 30
0.0
  0
VERTEX
  5
A17
100
AcDbEntity
  8
L1
100
AcDbVertex
100
AcDb2dVertex
 10
183.6694358827837
 20
223.2885112130464
 30
0.0
  0
VERTEX
  5
A18
100
AcDbEntity
  8
L1
100
AcDbVertex
100
AcDb2dVertex
 10
183.5531240854215
 20
223.6047691742656
 30
0.0
  0
SEQEND
  5
A19
100
AcDbEntity
  8
L1
  0
ARC
  5
35B
100
AcDbEntity
  8
L1
100
AcDbCircle
 10
184.5635963274952
 20
222.4091324420148
 30
0.0
 40
0.299999999999996
100
AcDbArc
 50
180.4999999999994
 51
270.0
  0
POLYLINE
  5
35C
100
AcDbEntity
  8
L1
100
AcDb2dPolyline
 66
     1
 10
0.0
 20
0.0
 30
0.0
  0
VERTEX
  5
A1A
100
AcDbEntity
  8
L1
100
AcDbVertex
100
AcDb2dVertex
 10
184.0531050469536
 20
223.1091324420148
 30
0.0
  0
VERTEX
  5
A1B
100
AcDbEntity
  8
L1
100
AcDbVertex
100
AcDb2dVertex
 10
183.9600064272985
 20
223.1178762491598
 30
0.0
  0
SEQEND
  5
A1C
100
AcDbEntity
  8
L1
  0
POLYLINE
  5
35D
100
AcDbEntity
  8
L1
100
AcDb2dPolyline
 66
     1
 10
0.0
 20
0.0
 30
0.0
  0
VERTEX
  5
A1D
100
AcDbEntity
  8
L1
100
AcDbVertex
100
AcDb2dVertex
 10
184.2572709022318
 20
223.1091324420148
 30
0.0
  0
VERTEX
  5
A1E
100
AcDbEntity
  8
L1
100
AcDbVertex
100
AcDb2dVertex
 10
184.1978037364278
 20
223.1091324420148
 30
0.0
  0
VERTEX
  5
A1F
100
AcDbEntity
  8
L1
100
AcDbVertex
100
AcDb2dVertex
 10
184.0531050469536
 20
223.1091324420148
 30
0.0
  0
SEQEND
  5
A20
100
AcDbEntity
  8
L1
  0
LINE
  5
36A
100
AcDbEntity
  8
L1
100
AcDbLine
 10
198.2687981780575
 20
222.4065144813653
 30
0.0
 11
198.2749289751442
 21
223.1090342437521
 31
0.0
  0
ARC
  5
36B
100
AcDbEntity
  8
L1
100
AcDbCircle
 10
197.9688096011382
 20
222.4091324420148
 30
0.0
 40
0.3000000000000007
100
AcDbArc
 50
270.0
 51
359.5000000000012
  0
POLYLINE
  5
36C
100
AcDbEntity
  8
L1
100
AcDb2dPolyline
 66
     1
 10
0.0
 20
0.0
 30
0.0
  0
VERTEX
  5
A24
100
AcDbEntity
  8
L1
100
AcDbVertex
100
AcDb2dVertex
 10
198.0544421641603
 20
223.1178762491599
 30
0.0
  0
VERTEX
  5
A25
100
AcDbEntity
  8
L1
100
AcDbVertex
100
AcDb2dVertex
 10
198.0388840832994
 20
223.1091324420148
 30
0.0
  0
SEQEND
  5
A26
100
AcDbEntity
  8
L1
  0
POLYLINE
  5
36D
100
AcDbEntity
  8
L1
100
AcDb2dPolyline
 66
     1
 10
0.0
 20
0.0
 30
0.0
  0
VERTEX
  5
A27
100
AcDbEntity
  8
L1
100
AcDbVertex
100
AcDb2dVertex
 10
198.053676179969
 20
223.6047691742656
 30
0.0
  0
VERTEX
  5
A28
100
AcDbEntity
  8
L1
100
AcDbVertex
100
AcDb2dVertex
 10
198.0554538166018
 20
223.2885112130464
 30
0.0
  0
VERTEX
  5
A29
100
AcDbEntity
  8
L1
100
AcDbVertex
100
AcDb2dVertex
 10
198.0544421641603
 20
223.1178762491599
 30
0.0
  0
SEQEND
  5
A2A
100
AcDbEntity
  8
L1
  0
CIRCLE
  5
383
100
AcDbEntity
  8
L1
100
AcDbCircle
 10
273.3980046146779
 20
175.2014415084406
 30
0.0
 40
4.091897474510698
  0
LINE
  5
384
100
AcDbEntity
  8
L6
 62
     1
100
AcDbLine
 10
267.1753102255039
 20
175.2014415084404
 30
0.0
 11
280.1521430991991
 21
175.2014415084404
 31
0.0
  0
CIRCLE
  5
385
100
AcDbEntity
  8
L1
100
AcDbCircle
 10
273.3980046146779
 20
175.2014415084406
 30
0.0
 40
1.6
  0
CIRCLE
  5
386
100
AcDbEntity
  8
L1
100
AcDbCircle
 10
273.3980046146779
 20
175.2014415084406
 30
0.0
 40
1.25
  0
LINE
  5
387
100
AcDbEntity
  8
L6
 62
     1
100
AcDbLine
 10
323.3980046146779
 20
170.2014415084405
 30
0.0
 11
323.3980046146779
 21
180.2014415084405
 31
0.0
  0
CIRCLE
  5
388
100
AcDbEntity
  8
L1
100
AcDbCircle
 10
323.3980046146779
 20
175.2014415084406
 30
0.0
 40
1.6
  0
CIRCLE
  5
389
100
AcDbEntity
  8
L1
100
AcDbCircle
 10
323.3980046146779
 20
175.2014415084406
 30
0.0
 40
1.25
  0
LINE
  5
38A
100
AcDbEntity
  8
L1
100
AcDbLine
 10
320.1096555343458
 20
187.2514415084406
 30
0.0
 11
320.1096555343458
 21
186.6514415084406
 31
0.0
  0
LINE
  5
38B
100
AcDbEntity
  8
L2
100
AcDbLine
 10
276.3484706747275
 20
230.2196032213379
 30
0.0
 11
276.4561071401673
 21
226.1091324420148
 31
0.0
  0
LINE
  5
38C
100
AcDbEntity
  8
L2
100
AcDbLine
 10
270.3399020891886
 20
226.1091324420148
 30
0.0
 11
270.4475385546284
 21
230.2196032213379
 31
0.0
  0
LINE
  5
38D
100
AcDbEntity
  8
L2
100
AcDbLine
 10
274.998004614678
 20
230.6091324420148
 30
0.0
 11
271.798004614678
 21
230.6091324420148
 31
0.0
  0
ARC
  5
38E
100
AcDbEntity
  8
L2
100
AcDbCircle
 10
270.8474014846187
 20
230.2091324420148
 30
0.0
 40
0.4
100
AcDbArc
 50
90.0
 51
178.4999999999999
  0
LINE
  5
38F
100
AcDbEntity
  8
L2
100
AcDbLine
 10
270.8474014846187
 20
230.6091324420148
 30
0.0
 11
271.798004614678
 21
230.6091324420148
 31
0.0
  0
ARC
  5
390
100
AcDbEntity
  8
L2
100
AcDbCircle
 10
275.9486077447373
 20
230.2091324420148
 30
0.0
 40
0.4
100
AcDbArc
 50
1.499999999999016
 51
90.0
  0
LINE
  5
391
100
AcDbEntity
  8
L2
100
AcDbLine
 10
274.998004614678
 20
230.6091324420148
 30
0.0
 11
275.9486077447373
 21
230.6091324420148
 31
0.0
  0
POLYLINE
  5
39B
100
AcDbEntity
  8
L1
100
AcDb2dPolyline
 66
     1
 10
0.0
 20
0.0
 30
0.0
  0
VERTEX
  5
A3C
100
AcDbEntity
  8
L1
100
AcDbVertex
100
AcDb2dVertex
 10
183.374184221173
 20
244.1092466728222
 30
0.0
  0
VERTEX
  5
A3D
100
AcDbEntity
  8
L1
100
AcDbVertex
100
AcDb2dVertex
 10
183.4619313971281
 20
244.1092466728222
 30
0.0
  0
VERTEX
  5
A3E
100
AcDbEntity
  8
L1
100
AcDbVertex
100
AcDb2dVertex
 10
183.720773340015
 20
244.1092466728222
 30
0.0
  0
VERTEX
  5
A3F
100
AcDbEntity
  8
L1
100
AcDbVertex
100
AcDb2dVertex
 10
184.1377318871601
 20
244.1092466728222
 30
0.0
  0
VERTEX
  5
A40
100
AcDbEntity
  8
L1
100
AcDbVertex
100
AcDb2dVertex
 10
184.6919010146297
 20
244.1092466728222
 30
0.0
  0
VERTEX
  5
A41
100
AcDbEntity
  8
L1
100
AcDbVertex
100
AcDb2dVertex
 10
185.3554950513503
 20
244.1092466728223
 30
0.0
  0
VERTEX
  5
A42
100
AcDbEntity
  8
L1
100
AcDbVertex
100
AcDb2dVertex
 10
186.0952418341563
 20
244.1092466728223
 30
0.0
  0
VERTEX
  5
A43
100
AcDbEntity
  8
L1
100
AcDbVertex
100
AcDb2dVertex
 10
195.8921132357452
 20
244.1092466728223
 30
0.0
  0
SEQEND
  5
A44
100
AcDbEntity
  8
L1
  0
LINE
  5
39D
100
AcDbEntity
  8
L1
100
AcDbLine
 10
183.9480046146779
 20
247.1091324420148
 30
0.0
 11
183.3531990580678
 21
246.5143268854045
 31
0.0
  0
POLYLINE
  5
39E
100
AcDbEntity
  8
L1
100
AcDb2dPolyline
 66
     1
 10
0.0
 20
0.0
 30
0.0
  0
VERTEX
  5
A45
100
AcDbEntity
  8
L1
100
AcDbVertex
100
AcDb2dVertex
 10
183.3531990580677
 20
246.5143268854045
 30
0.0
  0
VERTEX
  5
A46
100
AcDbEntity
  8
L1
100
AcDbVertex
100
AcDb2dVertex
 10
183.3531963413245
 20
246.5143241686613
 30
0.0
  0
VERTEX
  5
A47
100
AcDbEntity
  8
L1
100
AcDbVertex
100
AcDb2dVertex
 10
183.3531954357432
 20
246.51432326308
 30
0.0
  0
SEQEND
  5
A48
100
AcDbEntity
  8
L1
  0
ELLIPSE
  5
3B2
100
AcDbEntity
  8
L1
100
AcDbEllipse
 10
195.8921132357452
 20
242.1093228266939
 30
0.0
 11
-1.999999999999999
 21
0.0
 31
0.0
210
0.0
220
0.0
230
1.0
 40
0.9999619230641712
 41
-3.132866339596905
 42
-1.570796326794896
  0
ARC
  5
3C5
100
AcDbEntity
  8
L1
100
AcDbCircle
 10
359.9480046146779
 20
191.7514415084406
 30
0.0
 40
2.900000000000025
100
AcDbArc
 50
0.0
 51
90.0
  0
POLYLINE
  5
3C6
100
AcDbEntity
  8
L1
100
AcDb2dPolyline
 66
     1
 10
0.0
 20
0.0
 30
0.0
  0
VERTEX
  5
A51
100
AcDbEntity
  8
L1
100
AcDbVertex
100
AcDb2dVertex
 10
359.9480046146779
 20
195.2462470650507
 30
0.0
  0
VERTEX
  5
A52
100
AcDbEntity
  8
L1
100
AcDbVertex
100
AcDb2dVertex
 10
360.6196388884403
 20
195.1802223217704
 30
0.0
  0
VERTEX
  5
A53
100
AcDbEntity
  8
L1
100
AcDbVertex
100
AcDb2dVertex
 10
360.9560499237022
 20
195.0963746597775
 30
0.0
  0
VERTEX
  5
A54
100
AcDbEntity
  8
L1
100
AcDbVertex
100
AcDb2dVertex
 10
361.2846419137301
 20
194.978895582803
 30
0.0
  0
VERTEX
  5
A55
100
AcDbEntity
  8
L1
100
AcDbVertex
100
AcDb2dVertex
 10
361.5998516662617
 20
194.829173987563
 30
0.0
  0
VERTEX
  5
A56
100
AcDbEntity
  8
L1
100
AcDbVertex
100
AcDb2dVertex
 10
361.8967669754844
 20
194.6501673324221
 30
0.0
  0
VERTEX
  5
A57
100
AcDbEntity
  8
L1
100
AcDbVertex
100
AcDb2dVertex
 10
362.4177605902216
 20
194.2211974839842
 30
0.0
  0
VERTEX
  5
A58
100
AcDbEntity
  8
L1
100
AcDbVertex
100
AcDb2dVertex
 10
362.8467304386595
 20
193.700203869247
 30
0.0
  0
VERTEX
  5
A59
100
AcDbEntity
  8
L1
100
AcDbVertex
100
AcDb2dVertex
 10
363.0257370938004
 20
193.4032885600243
 30
0.0
  0
VERTEX
  5
A5A
100
AcDbEntity
  8
L1
100
AcDbVertex
100
AcDb2dVertex
 10
363.1754586890404
 20
193.0880788074927
 30
0.0
  0
VERTEX
  5
A5B
100
AcDbEntity
  8
L1
100
AcDbVertex
100
AcDb2dVertex
 10
363.2929377660149
 20
192.7594868174647
 30
0.0
  0
VERTEX
  5
A5C
100
AcDbEntity
  8
L1
100
AcDbVertex
100
AcDb2dVertex
 10
363.3767854280077
 20
192.4230757822028
 30
0.0
  0
VERTEX
  5
A5D
100
AcDbEntity
  8
L1
100
AcDbVertex
100
AcDb2dVertex
 10
363.4428101712881
 20
191.7514415084406
 30
0.0
  0
SEQEND
  5
A5E
100
AcDbEntity
  8
L1
  0
ARC
  5
3C7
100
AcDbEntity
  8
L1
100
AcDbCircle
 10
345.548004614678
 20
190.4514415084406
 30
0.0
 40
4.022689858140807
100
AcDbArc
 50
0.0
 51
90.0
  0
LINE
  5
3C8
100
AcDbEntity
  8
L1
100
AcDbLine
 10
354.8480046146779
 20
161.9130924281085
 30
0.0
 11
354.8480046146779
 21
171.9130924281085
 31
0.0
  0
LINE
  5
3C9
100
AcDbEntity
  8
L1
100
AcDbLine
 10
355.448004614678
 20
171.9130924281085
 30
0.0
 11
355.448004614678
 21
161.9130924281085
 31
0.0
  0
LINE
  5
3CA
100
AcDbEntity
  8
L1
100
AcDbLine
 10
355.448004614678
 20
161.9130924281086
 30
0.0
 11
354.8480046146779
 21
161.9130924281086
 31
0.0
  0
POLYLINE
  5
3CB
100
AcDbEntity
  8
L1
100
AcDb2dPolyline
 66
     1
 10
0.0
 20
0.0
 30
0.0
  0
VERTEX
  5
A5F
100
AcDbEntity
  8
L1
100
AcDbVertex
100
AcDb2dVertex
 10
346.1647403910721
 20
190.0402284617427
 30
0.0
  0
VERTEX
  5
A60
100
AcDbEntity
  8
L1
100
AcDbVertex
100
AcDb2dVertex
 10
346.0843601877856
 20
189.7402363508294
 30
0.0
  0
VERTEX
  5
A61
100
AcDbEntity
  8
L1
100
AcDbVertex
100
AcDb2dVertex
 10
345.8647553481469
 20
189.5206315111907
 30
0.0
  0
VERTEX
  5
A62
100
AcDbEntity
  8
L1
100
AcDbVertex
100
AcDb2dVertex
 10
345.5647632372335
 20
189.4402513079043
 30
0.0
  0
SEQEND
  5
A63
100
AcDbEntity
  8
L1
  0
ARC
  5
3CC
100
AcDbEntity
  8
L1
100
AcDbCircle
 10
355.148004614678
 20
186.9514415084406
 30
0.0
 40
8.22278885817408
100
AcDbArc
 50
180.0
 51
270.0
  0
ARC
  5
3CD
100
AcDbEntity
  8
L1
100
AcDbCircle
 10
355.1480046146779
 20
186.9514415084406
 30
0.0
 40
8.983264223605935
100
AcDbArc
 50
180.0
 51
214.9005836332401
  0
ARC
  5
3CE
100
AcDbEntity
  8
L1
100
AcDbCircle
 10
345.548004614678
 20
190.4514415084406
 30
0.0
 40
1.377211141825941
100
AcDbArc
 50
0.0
 51
90.0
  0
LINE
  5
3CF
100
AcDbEntity
  8
L1
100
AcDbLine
 10
340.1096555343458
 20
186.0514415084406
 30
0.0
 11
343.1480046146779
 21
186.9514415084406
 31
0.0
  0
LINE
  5
3D0
100
AcDbEntity
  8
L1
100
AcDbLine
 10
343.148004614678
 20
186.9514415084406
 30
0.0
 11
340.1096555343459
 21
187.8514415084406
 31
0.0
  0
LINE
  5
3D1
100
AcDbEntity
  8
L1
100
AcDbLine
 10
340.1096555343458
 20
186.6514415084406
 30
0.0
 11
340.1096555343458
 21
186.0514415084406
 31
0.0
  0
LINE
  5
3D2
100
AcDbEntity
  8
L1
100
AcDbLine
 10
340.1096555343458
 20
187.8514415084406
 30
0.0
 11
340.1096555343458
 21
187.2514415084406
 31
0.0
  0
ARC
  5
3D3
100
AcDbEntity
  8
L1
100
AcDbCircle
 10
355.1480046146779
 20
186.9514415084406
 30
0.0
 40
5.073819396627722
100
AcDbArc
 50
173.0000000000003
 51
277.0000000000002
  0
ARC
  5
3D4
100
AcDbEntity
  8
L1
100
AcDbCircle
 10
355.1480046146779
 20
186.9514415084406
 30
0.0
 40
5.099999999999999
100
AcDbArc
 50
172.9999999999995
 51
276.9999999999997
  0
ARC
  5
3D5
100
AcDbEntity
  8
L1
100
AcDbCircle
 10
355.148004614678
 20
186.9514415084406
 30
0.0
 40
5.577310141859214
100
AcDbArc
 50
180.0
 51
270.0000000000006
  0
CIRCLE
  5
3D6
100
AcDbEntity
  8
L1
100
AcDbCircle
 10
355.1480046146779
 20
186.9514415084406
 30
0.0
 40
4.0
  0
LINE
  5
3D7
100
AcDbEntity
  8
L1
100
AcDbLine
 10
361.8218240113057
 20
181.0598987997959
 30
0.0
 11
361.8218240113057
 21
191.7514415084406
 31
0.0
  0
LINE
  5
3D8
100
AcDbEntity
  8
L1
100
AcDbLine
 10
361.8480046146779
 20
191.7514415084406
 30
0.0
 11
361.8480046146779
 21
181.0025901916942
 31
0.0
  0
LINE
  5
3D9
100
AcDbEntity
  8
L6
 62
     1
100
AcDbLine
 10
355.1480046146779
 20
181.156963108282
 30
0.0
 11
355.1480046146779
 21
191.9778493459259
 31
0.0
  0
LINE
  5
3DA
100
AcDbEntity
  8
L1
100
AcDbLine
 10
355.148004614678
 20
181.3741313665814
 30
0.0
 11
358.648004614678
 21
181.3741313665814
 31
0.0
  0
LINE
  5
3DB
100
AcDbEntity
  8
L1
100
AcDbLine
 10
355.1480046146779
 20
177.9681772848346
 30
0.0
 11
358.2367915679801
 21
177.9681772848346
 31
0.0
  0
LINE
  5
3DC
100
AcDbEntity
  8
L1
100
AcDbLine
 10
358.0563306881488
 20
182.170238938494
 30
0.0
 11
355.7695382660442
 21
181.8894561350698
 31
0.0
  0
LINE
  5
3DD
100
AcDbEntity
  8
L1
100
AcDbLine
 10
355.7663476531012
 20
181.9154415921947
 30
0.0
 11
358.0531400752059
 21
182.1962243956189
 31
0.0
  0
LINE
  5
3DE
100
AcDbEntity
  8
L1
100
AcDbLine
 10
358.648004614678
 20
178.7286526502664
 30
0.0
 11
355.148004614678
 21
178.7286526502664
 31
0.0
  0
LINE
  5
3DF
100
AcDbEntity
  8
L1
100
AcDbLine
 10
356.048004614678
 20
171.9130924281085
 30
0.0
 11
355.448004614678
 21
171.9130924281085
 31
0.0
  0
LINE
  5
3E0
100
AcDbEntity
  8
L1
100
AcDbLine
 10
355.1480046146779
 20
174.9514415084406
 30
0.0
 11
356.0480046146779
 21
171.9130924281085
 31
0.0
  0
LINE
  5
3E1
100
AcDbEntity
  8
L1
100
AcDbLine
 10
354.8480046146779
 20
171.9130924281085
 30
0.0
 11
354.2480046146779
 21
171.9130924281085
 31
0.0
  0
LINE
  5
3E2
100
AcDbEntity
  8
L1
100
AcDbLine
 10
354.2480046146779
 20
171.9130924281085
 30
0.0
 11
355.1480046146779
 21
174.9514415084406
 31
0.0
  0
ARC
  5
3E3
100
AcDbEntity
  8
L1
100
AcDbCircle
 10
355.1480046146779
 20
186.9514415084406
 30
0.0
 40
8.983264223605935
100
AcDbArc
 50
235.0994163667607
 51
270.0
  0
POLYLINE
  5
3E4
100
AcDbEntity
  8
L1
100
AcDb2dPolyline
 66
     1
 10
0.0
 20
0.0
 30
0.0
  0
VERTEX
  5
A64
100
AcDbEntity
  8
L1
100
AcDbVertex
100
AcDb2dVertex
 10
346.691300967495
 20
179.7425216712589
 30
0.0
  0
VERTEX
  5
A65
100
AcDbEntity
  8
L1
100
AcDbVertex
100
AcDb2dVertex
 10
346.6037204212571
 20
179.9415602470709
 30
0.0
  0
VERTEX
  5
A66
100
AcDbEntity
  8
L1
100
AcDbVertex
100
AcDb2dVertex
 10
346.6736203421649
 20
180.1474745685682
 30
0.0
  0
SEQEND
  5
A67
100
AcDbEntity
  8
L1
  0
POLYLINE
  5
3E5
100
AcDbEntity
  8
L1
100
AcDb2dPolyline
 66
     1
 10
0.0
 20
0.0
 30
0.0
  0
VERTEX
  5
A68
100
AcDbEntity
  8
L1
100
AcDbVertex
100
AcDb2dVertex
 10
348.3440376748055
 20
178.4770572359275
 30
0.0
  0
VERTEX
  5
A69
100
AcDbEntity
  8
L1
100
AcDbVertex
100
AcDb2dVertex
 10
348.1381233533082
 20
178.4071573150197
 30
0.0
  0
VERTEX
  5
A6A
100
AcDbEntity
  8
L1
100
AcDbVertex
100
AcDb2dVertex
 10
347.9390847774962
 20
178.4947378612576
 30
0.0
  0
SEQEND
  5
A6B
100
AcDbEntity
  8
L1
  0
LINE
  5
3E6
100
AcDbEntity
  8
L1
100
AcDbLine
 10
346.9030321108905
 20
180.1574909027051
 30
0.0
 11
347.9778445112076
 21
181.4384024421477
 31
0.0
  0
ARC
  5
3E7
100
AcDbEntity
  8
L1
100
AcDbCircle
 10
355.1480046146779
 20
186.9514415084406
 30
0.0
 40
8.813962988465215
100
AcDbArc
 50
215.7142746472752
 51
234.2857253527242
  0
LINE
  5
3E8
100
AcDbEntity
  8
L1
100
AcDbLine
 10
346.673620342165
 20
180.1474745685681
 30
0.0
 11
347.7641861022319
 21
181.4471602310881
 31
0.0
  0
POLYLINE
  5
3E9
100
AcDbEntity
  8
L1
100
AcDb2dPolyline
 66
     1
 10
0.0
 20
0.0
 30
0.0
  0
VERTEX
  5
A6C
100
AcDbEntity
  8
L1
100
AcDbVertex
100
AcDb2dVertex
 10
349.6349655483849
 20
179.7812814049702
 30
0.0
  0
VERTEX
  5
A6D
100
AcDbEntity
  8
L1
100
AcDbVertex
100
AcDb2dVertex
 10
349.6975724772055
 20
179.8217277266336
 30
0.0
  0
VERTEX
  5
A6E
100
AcDbEntity
  8
L1
100
AcDbVertex
100
AcDb2dVertex
 10
349.7868915919186
 20
179.8486645809123
 30
0.0
  0
VERTEX
  5
A6F
100
AcDbEntity
  8
L1
100
AcDbVertex
100
AcDb2dVertex
 10
349.873820050665
 20
179.8479143370927
 30
0.0
  0
VERTEX
  5
A70
100
AcDbEntity
  8
L1
100
AcDbVertex
100
AcDb2dVertex
 10
349.9633902656737
 20
179.8190716859361
 30
0.0
  0
VERTEX
  5
A71
100
AcDbEntity
  8
L1
100
AcDbVertex
100
AcDb2dVertex
 10
350.0029108751481
 20
179.7950489833282
 30
0.0
  0
SEQEND
  5
A72
100
AcDbEntity
  8
L1
  0
POLYLINE
  5
3EA
100
AcDbEntity
  8
L1
100
AcDb2dPolyline
 66
     1
 10
0.0
 20
0.0
 30
0.0
  0
VERTEX
  5
A73
100
AcDbEntity
  8
L1
100
AcDbVertex
100
AcDb2dVertex
 10
350.0081920101766
 20
179.5838528593826
 30
0.0
  0
VERTEX
  5
A74
100
AcDbEntity
  8
L1
100
AcDbVertex
100
AcDb2dVertex
 10
349.9642348934137
 20
179.6092781460587
 30
0.0
  0
VERTEX
  5
A75
100
AcDbEntity
  8
L1
100
AcDbVertex
100
AcDb2dVertex
 10
349.876775598422
 20
179.6350987928738
 30
0.0
  0
VERTEX
  5
A76
100
AcDbEntity
  8
L1
100
AcDbVertex
100
AcDb2dVertex
 10
349.7922738434969
 20
179.6345219774591
 30
0.0
  0
VERTEX
  5
A77
100
AcDbEntity
  8
L1
100
AcDbVertex
100
AcDb2dVertex
 10
349.7045534515366
 20
179.6072059043639
 30
0.0
  0
VERTEX
  5
A78
100
AcDbEntity
  8
L1
100
AcDbVertex
100
AcDb2dVertex
 10
349.6437233373254
 20
179.5676229959945
 30
0.0
  0
SEQEND
  5
A79
100
AcDbEntity
  8
L1
  0
LINE
  5
3EB
100
AcDbEntity
  8
L1
100
AcDbLine
 10
349.6349655483849
 20
179.7812814049702
 30
0.0
 11
348.3540540089423
 21
178.7064690046532
 31
0.0
  0
POLYLINE
  5
3EC
100
AcDbEntity
  8
L1
100
AcDb2dPolyline
 66
     1
 10
0.0
 20
0.0
 30
0.0
  0
VERTEX
  5
A7A
100
AcDbEntity
  8
L1
100
AcDbVertex
100
AcDb2dVertex
 10
348.3540540089423
 20
178.7064690046532
 30
0.0
  0
VERTEX
  5
A7B
100
AcDbEntity
  8
L1
100
AcDbVertex
100
AcDb2dVertex
 10
348.148139687445
 20
178.6365690837454
 30
0.0
  0
VERTEX
  5
A7C
100
AcDbEntity
  8
L1
100
AcDbVertex
100
AcDb2dVertex
 10
347.949101111633
 20
178.7241496299832
 30
0.0
  0
SEQEND
  5
A7D
100
AcDbEntity
  8
L1
  0
LINE
  5
3ED
100
AcDbEntity
  8
L1
100
AcDbLine
 10
347.949101111633
 20
178.7241496299832
 30
0.0
 11
346.9207127362205
 21
179.7525380053958
 31
0.0
  0
POLYLINE
  5
3EE
100
AcDbEntity
  8
L1
100
AcDb2dPolyline
 66
     1
 10
0.0
 20
0.0
 30
0.0
  0
VERTEX
  5
A7E
100
AcDbEntity
  8
L1
100
AcDbVertex
100
AcDb2dVertex
 10
346.9207127362205
 20
179.7525380053958
 30
0.0
  0
VERTEX
  5
A7F
100
AcDbEntity
  8
L1
100
AcDbVertex
100
AcDb2dVertex
 10
346.8331321899826
 20
179.9515765812078
 30
0.0
  0
VERTEX
  5
A80
100
AcDbEntity
  8
L1
100
AcDbVertex
100
AcDb2dVertex
 10
346.9030321108904
 20
180.1574909027051
 30
0.0
  0
SEQEND
  5
A81
100
AcDbEntity
  8
L1
  0
LINE
  5
3EF
100
AcDbEntity
  8
L1
100
AcDbLine
 10
347.9390847774961
 20
178.4947378612576
 30
0.0
 11
346.6913009674949
 21
179.7425216712588
 31
0.0
  0
LINE
  5
3F0
100
AcDbEntity
  8
L1
100
AcDbLine
 10
349.6437233373254
 20
179.5676229959945
 30
0.0
 11
348.3440376748054
 21
178.4770572359275
 31
0.0
  0
POLYLINE
  5
3F1
100
AcDbEntity
  8
L1
100
AcDb2dPolyline
 66
     1
 10
0.0
 20
0.0
 30
0.0
  0
VERTEX
  5
A82
100
AcDbEntity
  8
L1
100
AcDbVertex
100
AcDb2dVertex
 10
347.9916120895655
 20
181.8063477689108
 30
0.0
  0
VERTEX
  5
A83
100
AcDbEntity
  8
L1
100
AcDbVertex
100
AcDb2dVertex
 10
348.0139608062719
 20
181.7700813078574
 30
0.0
  0
VERTEX
  5
A84
100
AcDbEntity
  8
L1
100
AcDbVertex
100
AcDb2dVertex
 10
348.0353619584598
 20
181.7174833543152
 30
0.0
  0
VERTEX
  5
A85
100
AcDbEntity
  8
L1
100
AcDbVertex
100
AcDb2dVertex
 10
348.0464682437883
 20
181.6617949254576
 30
0.0
  0
VERTEX
  5
A86
100
AcDbEntity
  8
L1
100
AcDbVertex
100
AcDb2dVertex
 10
348.0467108725206
 20
181.6031384359173
 30
0.0
  0
VERTEX
  5
A87
100
AcDbEntity
  8
L1
100
AcDbVertex
100
AcDb2dVertex
 10
348.0355346733712
 20
181.545556008654
 30
0.0
  0
VERTEX
  5
A88
100
AcDbEntity
  8
L1
100
AcDbVertex
100
AcDb2dVertex
 10
348.0130853436199
 20
181.4907175921765
 30
0.0
  0
VERTEX
  5
A89
100
AcDbEntity
  8
L1
100
AcDbVertex
100
AcDb2dVertex
 10
347.9802952230667
 20
181.4413613604168
 30
0.0
  0
VERTEX
  5
A8A
100
AcDbEntity
  8
L1
100
AcDbVertex
100
AcDb2dVertex
 10
347.9778445112075
 20
181.4384024421477
 30
0.0
  0
SEQEND
  5
A8B
100
AcDbEntity
  8
L1
  0
POLYLINE
  5
3F2
100
AcDbEntity
  8
L1
100
AcDb2dPolyline
 66
     1
 10
0.0
 20
0.0
 30
0.0
  0
VERTEX
  5
A8C
100
AcDbEntity
  8
L1
100
AcDbVertex
100
AcDb2dVertex
 10
347.7641861022318
 20
181.4471602310881
 30
0.0
  0
VERTEX
  5
A8D
100
AcDbEntity
  8
L1
100
AcDbVertex
100
AcDb2dVertex
 10
347.7728647266302
 20
181.4580031431195
 30
0.0
  0
VERTEX
  5
A8E
100
AcDbEntity
  8
L1
100
AcDbVertex
100
AcDb2dVertex
 10
347.803982652475
 20
181.5084275622835
 30
0.0
  0
VERTEX
  5
A8F
100
AcDbEntity
  8
L1
100
AcDbVertex
100
AcDb2dVertex
 10
347.8245828389244
 20
181.5639845132096
 30
0.0
  0
VERTEX
  5
A90
100
AcDbEntity
  8
L1
100
AcDbVertex
100
AcDb2dVertex
 10
347.8338142415631
 20
181.6217251458231
 30
0.0
  0
VERTEX
  5
A91
100
AcDbEntity
  8
L1
100
AcDbVertex
100
AcDb2dVertex
 10
347.8316690373135
 20
181.6801597018882
 30
0.0
  0
VERTEX
  5
A92
100
AcDbEntity
  8
L1
100
AcDbVertex
100
AcDb2dVertex
 10
347.8188569487045
 20
181.7352100954639
 30
0.0
  0
VERTEX
  5
A93
100
AcDbEntity
  8
L1
100
AcDbVertex
100
AcDb2dVertex
 10
347.7959464025007
 20
181.7868802596803
 30
0.0
  0
VERTEX
  5
A94
100
AcDbEntity
  8
L1
100
AcDbVertex
100
AcDb2dVertex
 10
347.7804159656199
 20
181.8116289039393
 30
0.0
  0
SEQEND
  5
A95
100
AcDbEntity
  8
L1
  0
POLYLINE
  5
3F3
100
AcDbEntity
  8
L1
100
AcDb2dPolyline
 66
     1
 10
0.0
 20
0.0
 30
0.0
  0
VERTEX
  5
A96
100
AcDbEntity
  8
L1
100
AcDbVertex
100
AcDb2dVertex
 10
357.6368144141416
 20
177.3682001309962
 30
0.0
  0
VERTEX
  5
A97
100
AcDbEntity
  8
L1
100
AcDbVertex
100
AcDb2dVertex
 10
357.717194617428
 20
177.6681922419095
 30
0.0
  0
VERTEX
  5
A98
100
AcDbEntity
  8
L1
100
AcDbVertex
100
AcDb2dVertex
 10
357.9367994570667
 20
177.8877970815482
 30
0.0
  0
VERTEX
  5
A99
100
AcDbEntity
  8
L1
100
AcDbVertex
100
AcDb2dVertex
 10
358.2367915679801
 20
177.9681772848346
 30
0.0
  0
SEQEND
  5
A9A
100
AcDbEntity
  8
L1
  0
ARC
  5
3F4
100
AcDbEntity
  8
L1
100
AcDbCircle
 10
358.648004614678
 20
177.3514415084406
 30
0.0
 40
4.022689858140751
100
AcDbArc
 50
0.0
 51
90.0
  0
ARC
  5
3F5
100
AcDbEntity
  8
L1
100
AcDbCircle
 10
358.648004614678
 20
177.3514415084406
 30
0.0
 40
1.377211141825884
100
AcDbArc
 50
0.0
 51
90.0
  0
ARC
  5
3F6
100
AcDbEntity
  8
L1
100
AcDbCircle
 10
358.648004614678
 20
177.3514415084406
 30
0.0
 40
4.854985757674705
100
AcDbArc
 50
48.76749232536524
 51
96.99999999999995
  0
ARC
  5
3F7
100
AcDbEntity
  8
L1
100
AcDbCircle
 10
358.648004614678
 20
177.3514415084406
 30
0.0
 40
4.881166361046982
100
AcDbArc
 50
49.44200360386094
 51
97.00000000000009
  0
POLYLINE
  5
3F8
100
AcDbEntity
  8
L1
100
AcDb2dPolyline
 66
     1
 10
0.0
 20
0.0
 30
0.0
  0
VERTEX
  5
A9B
100
AcDbEntity
  8
L1
100
AcDbVertex
100
AcDb2dVertex
 10
361.8218240113057
 20
181.059898799796
 30
0.0
  0
VERTEX
  5
A9C
100
AcDbEntity
  8
L1
100
AcDbVertex
100
AcDb2dVertex
 10
361.8480046146779
 20
181.0025901916942
 30
0.0
  0
SEQEND
  5
A9D
100
AcDbEntity
  8
L1
  0
LINE
  5
3F9
100
AcDbEntity
  8
L1
100
AcDbLine
 10
359.9480046146779
 20
193.6252609050683
 30
0.0
 11
349.2564619060333
 21
193.6252609050683
 31
0.0
  0
LINE
  5
3FA
100
AcDbEntity
  8
L1
100
AcDbLine
 10
349.1991532979316
 20
193.6514415084405
 30
0.0
 11
359.9480046146779
 21
193.6514415084405
 31
0.0
  0
CIRCLE
  5
3FB
100
AcDbEntity
  8
L1
100
AcDbCircle
 10
355.1480046146779
 20
186.9514415084407
 30
0.0
 40
2.25
  0
LINE
  5
3FC
100
AcDbEntity
  8
L6
 62
     1
100
AcDbLine
 10
350.1480046146779
 20
186.9514415084407
 30
0.0
 11
360.1480046146779
 21
186.9514415084407
 31
0.0
  0
LINE
  5
3FD
100
AcDbEntity
  8
L1
100
AcDbLine
 10
349.5706944728188
 20
190.4514415084406
 30
0.0
 11
349.5706944728188
 21
186.9514415084406
 31
0.0
  0
LINE
  5
3FE
100
AcDbEntity
  8
L1
100
AcDbLine
 10
346.1647403910721
 20
190.0402284617427
 30
0.0
 11
346.1647403910721
 21
186.9514415084406
 31
0.0
  0
LINE
  5
3FF
100
AcDbEntity
  8
L1
100
AcDbLine
 10
346.9252157565038
 20
186.9514415084406
 30
0.0
 11
346.9252157565038
 21
190.4514415084406
 31
0.0
  0
LINE
  5
400
100
AcDbEntity
  8
L1
100
AcDbLine
 10
350.0860192413072
 20
187.5729751598068
 30
0.0
 11
350.3668020447314
 21
189.8597675819115
 31
0.0
  0
LINE
  5
401
100
AcDbEntity
  8
L1
100
AcDbLine
 10
350.3927875018562
 20
189.8565769689685
 30
0.0
 11
350.112004698432
 21
187.5697845468639
 31
0.0
  0
POLYLINE
  5
402
100
AcDbEntity
  8
L1
100
AcDb2dPolyline
 66
     1
 10
0.0
 20
0.0
 30
0.0
  0
VERTEX
  5
A9E
100
AcDbEntity
  8
L1
100
AcDbVertex
100
AcDb2dVertex
 10
349.1991532979316
 20
193.6514415084405
 30
0.0
  0
VERTEX
  5
A9F
100
AcDbEntity
  8
L1
100
AcDbVertex
100
AcDb2dVertex
 10
349.2564619060333
 20
193.6252609050683
 30
0.0
  0
SEQEND
  5
AA0
100
AcDbEntity
  8
L1
  0
ARC
  5
403
100
AcDbEntity
  8
L1
100
AcDbCircle
 10
345.548004614678
 20
190.4514415084406
 30
0.0
 40
4.881166361047013
100
AcDbArc
 50
352.9999999999999
 51
40.55799639613863
  0
ARC
  5
404
100
AcDbEntity
  8
L1
100
AcDbCircle
 10
345.548004614678
 20
190.4514415084406
 30
0.0
 40
4.854985757674737
100
AcDbArc
 50
353.0000000000001
 51
41.23250767463432
  0
ARC
  5
405
100
AcDbEntity
  8
L1
100
AcDbCircle
 10
359.9480046146779
 20
191.7514415084406
 30
0.0
 40
1.873819396627723
100
AcDbArc
 50
0.0
 51
90.0
  0
ARC
  5
406
100
AcDbEntity
  8
L1
100
AcDbCircle
 10
359.9480046146779
 20
191.7514415084406
 30
0.0
 40
1.9
100
AcDbArc
 50
0.0
 51
90.0
  0
POLYLINE
  5
407
100
AcDbEntity
  8
L1
100
AcDb2dPolyline
 66
     1
 10
0.0
 20
0.0
 30
0.0
  0
VERTEX
  5
AA1
100
AcDbEntity
  8
L1
100
AcDbVertex
100
AcDb2dVertex
 10
363.4428101712881
 20
191.7514415084406
 30
0.0
  0
VERTEX
  5
AA2
100
AcDbEntity
  8
L1
100
AcDbVertex
100
AcDb2dVertex
 10
363.4428128880315
 20
191.7489127253723
 30
0.0
  0
VERTEX
  5
AA3
100
AcDbEntity
  8
L1
100
AcDbVertex
100
AcDb2dVertex
 10
363.4428137936127
 20
191.7463839566508
 30
0.0
  0
SEQEND
  5
AA4
100
AcDbEntity
  8
L1
  0
POLYLINE
  5
411
100
AcDbEntity
  8
L1
100
AcDb2dPolyline
 66
     1
 10
0.0
 20
0.0
 30
0.0
  0
VERTEX
  5
ACA
100
AcDbEntity
  8
L1
100
AcDbVertex
100
AcDb2dVertex
 10
359.9429470628881
 20
195.2462506873753
 30
0.0
  0
VERTEX
  5
ACB
100
AcDbEntity
  8
L1
100
AcDbVertex
100
AcDb2dVertex
 10
359.9454758316097
 20
195.2462497817941
 30
0.0
  0
VERTEX
  5
ACC
100
AcDbEntity
  8
L1
100
AcDbVertex
100
AcDb2dVertex
 10
359.9480046146779
 20
195.2462470650507
 30
0.0
  0
SEQEND
  5
ACD
100
AcDbEntity
  8
L1
  0
LINE
  5
B65
100
AcDbEntity
  8
L1
100
AcDbLine
 10
363.2428851439344
 20
223.6047691742656
 30
0.0
 11
363.4428137936128
 21
246.51432326308
 31
0.0
  0
LINE
  5
B66
100
AcDbEntity
  8
L1
100
AcDbLine
 10
362.7217983533133
 20
244.1092466728223
 30
0.0
 11
362.5324014787801
 21
222.4065144813653
 31
0.0
  0
LINE
  5
B67
100
AcDbEntity
  8
L1
100
AcDbLine
 10
348.9039721416835
 20
242.1267745686477
 30
0.0
 11
348.742333049387
 21
223.6047691742656
 31
0.0
  0
LINE
  5
B68
100
AcDbEntity
  8
L2
100
AcDbLine
 10
346.3454094009373
 20
246.8117504026642
 30
0.0
 11
346.1647403910721
 21
226.1091324420148
 31
0.0
1001
ACAD
1000
ASC_BOUNDS
1002
{
1070
    19
1002
}
  0
LINE
  5
B69
100
AcDbEntity
  8
L1
100
AcDbLine
 10
362.2324129018608
 20
222.1091324420148
 30
0.0
 11
348.8271996282178
 21
222.1091324420148
 31
0.0
  0
ARC
  5
B6A
100
AcDbEntity
  8
L1
100
AcDbCircle
 10
362.2324129018608
 20
222.4091324420148
 30
0.0
 40
0.299999999999996
100
AcDbArc
 50
270.0
 51
359.5000000000005
  0
POLYLINE
  5
B6B
100
AcDbEntity
  8
L1
100
AcDb2dPolyline
 66
     1
 10
0.0
 20
0.0
 30
0.0
  0
VERTEX
  5
B6C
100
AcDbEntity
  8
L1
100
AcDbVertex
100
AcDb2dVertex
 10
362.5387383271241
 20
223.1091324420148
 30
0.0
  0
VERTEX
  5
B6D
100
AcDbEntity
  8
L1
100
AcDbVertex
100
AcDb2dVertex
 10
362.5982054929282
 20
223.1091324420148
 30
0.0
  0
VERTEX
  5
B6E
100
AcDbEntity
  8
L1
100
AcDbVertex
100
AcDb2dVertex
 10
362.7429041824024
 20
223.1091324420148
 30
0.0
  0
SEQEND
  5
B6F
100
AcDbEntity
  8
L1
  0
POLYLINE
  5
B70
100
AcDbEntity
  8
L1
100
AcDb2dPolyline
 66
     1
 10
0.0
 20
0.0
 30
0.0
  0
VERTEX
  5
B71
100
AcDbEntity
  8
L1
100
AcDbVertex
100
AcDb2dVertex
 10
362.7429041824024
 20
223.1091324420148
 30
0.0
  0
VERTEX
  5
B72
100
AcDbEntity
  8
L1
100
AcDbVertex
100
AcDb2dVertex
 10
362.8360028020575
 20
223.1178762491598
 30
0.0
  0
SEQEND
  5
B73
100
AcDbEntity
  8
L1
  0
POLYLINE
  5
B74
100
AcDbEntity
  8
L1
100
AcDb2dPolyline
 66
     1
 10
0.0
 20
0.0
 30
0.0
  0
VERTEX
  5
B75
100
AcDbEntity
  8
L1
100
AcDbVertex
100
AcDb2dVertex
 10
362.8360028020575
 20
223.1178762491598
 30
0.0
  0
VERTEX
  5
B76
100
AcDbEntity
  8
L1
100
AcDbVertex
100
AcDb2dVertex
 10
363.1265733465722
 20
223.2885112130464
 30
0.0
  0
VERTEX
  5
B77
100
AcDbEntity
  8
L1
100
AcDbVertex
100
AcDb2dVertex
 10
363.2428851439344
 20
223.6047691742656
 30
0.0
  0
SEQEND
  5
B78
100
AcDbEntity
  8
L1
  0
POLYLINE
  5
B79
100
AcDbEntity
  8
L1
100
AcDb2dPolyline
 66
     1
 10
0.0
 20
0.0
 30
0.0
  0
VERTEX
  5
B7A
100
AcDbEntity
  8
L1
100
AcDbVertex
100
AcDb2dVertex
 10
348.7423330493869
 20
223.6047691742656
 30
0.0
  0
VERTEX
  5
B7B
100
AcDbEntity
  8
L1
100
AcDbVertex
100
AcDb2dVertex
 10
348.7405554127542
 20
223.2885112130464
 30
0.0
  0
VERTEX
  5
B7C
100
AcDbEntity
  8
L1
100
AcDbVertex
100
AcDb2dVertex
 10
348.7415670651957
 20
223.1178762491599
 30
0.0
  0
SEQEND
  5
B7D
100
AcDbEntity
  8
L1
  0
POLYLINE
  5
B7E
100
AcDbEntity
  8
L1
100
AcDb2dPolyline
 66
     1
 10
0.0
 20
0.0
 30
0.0
  0
VERTEX
  5
B7F
100
AcDbEntity
  8
L1
100
AcDbVertex
100
AcDb2dVertex
 10
348.7415670651957
 20
223.1178762491599
 30
0.0
  0
VERTEX
  5
B80
100
AcDbEntity
  8
L1
100
AcDbVertex
100
AcDb2dVertex
 10
348.7571251460566
 20
223.1091324420148
 30
0.0
  0
SEQEND
  5
B81
100
AcDbEntity
  8
L1
  0
ARC
  5
B82
100
AcDbEntity
  8
L1
100
AcDbCircle
 10
348.8271996282178
 20
222.4091324420148
 30
0.0
 40
0.3000000000000007
100
AcDbArc
 50
180.4999999999987
 51
270.0
  0
LINE
  5
B83
100
AcDbEntity
  8
L1
100
AcDbLine
 10
348.5272110512985
 20
222.4065144813653
 30
0.0
 11
348.5210802542118
 21
223.1090342437521
 31
0.0
  0
POLYLINE
  5
B84
100
AcDbEntity
  8
L1
100
AcDb2dPolyline
 66
     1
 10
0.0
 20
0.0
 30
0.0
  0
VERTEX
  5
B85
100
AcDbEntity
  8
L1
100
AcDbVertex
100
AcDb2dVertex
 10
363.421825008183
 20
244.1092466728222
 30
0.0
  0
VERTEX
  5
B86
100
AcDbEntity
  8
L1
100
AcDbVertex
100
AcDb2dVertex
 10
363.3340778322278
 20
244.1092466728222
 30
0.0
  0
VERTEX
  5
B87
100
AcDbEntity
  8
L1
100
AcDbVertex
100
AcDb2dVertex
 10
363.0752358893409
 20
244.1092466728222
 30
0.0
  0
VERTEX
  5
B88
100
AcDbEntity
  8
L1
100
AcDbVertex
100
AcDb2dVertex
 10
362.6582773421958
 20
244.1092466728222
 30
0.0
  0
VERTEX
  5
B89
100
AcDbEntity
  8
L1
100
AcDbVertex
100
AcDb2dVertex
 10
362.1041082147263
 20
244.1092466728222
 30
0.0
  0
VERTEX
  5
B8A
100
AcDbEntity
  8
L1
100
AcDbVertex
100
AcDb2dVertex
 10
361.4405141780057
 20
244.1092466728223
 30
0.0
  0
VERTEX
  5
B8B
100
AcDbEntity
  8
L1
100
AcDbVertex
100
AcDb2dVertex
 10
360.7007673951997
 20
244.1092466728223
 30
0.0
  0
VERTEX
  5
B8C
100
AcDbEntity
  8
L1
100
AcDbVertex
100
AcDb2dVertex
 10
350.9038959936108
 20
244.1092466728223
 30
0.0
  0
SEQEND
  5
B8D
100
AcDbEntity
  8
L1
  0
POLYLINE
  5
B8E
100
AcDbEntity
  8
L1
100
AcDb2dPolyline
 66
     1
 10
0.0
 20
0.0
 30
0.0
  0
VERTEX
  5
B8F
100
AcDbEntity
  8
L1
100
AcDbVertex
100
AcDb2dVertex
 10
363.4428101712882
 20
246.5143268854045
 30
0.0
  0
VERTEX
  5
B90
100
AcDbEntity
  8
L1
100
AcDbVertex
100
AcDb2dVertex
 10
363.4428128880315
 20
246.5143241686613
 30
0.0
  0
VERTEX
  5
B91
100
AcDbEntity
  8
L1
100
AcDbVertex
100
AcDb2dVertex
 10
363.4428137936128
 20
246.51432326308
 30
0.0
  0
SEQEND
  5
B92
100
AcDbEntity
  8
L1
  0
LINE
  5
B93
100
AcDbEntity
  8
L1
100
AcDbLine
 10
362.848004614678
 20
247.1091324420148
 30
0.0
 11
363.4428101712882
 21
246.5143268854045
 31
0.0
  0
ELLIPSE
  5
B94
100
AcDbEntity
  8
L1
100
AcDbEllipse
 10
350.9038959936108
 20
242.1093228266939
 30
0.0
 11
1.999999999999999
 21
0.0
 31
0.0
210
0.0
220
0.0
230
-1.0
 40
0.9999619230641712
 41
-3.132866339596905
 42
-1.570796326794896
  0
LINE
  5
B95
100
AcDbEntity
  8
L1
100
AcDbLine
 10
363.4428137936128
 20
13.88855975380119
 30
0.0
 11
183.3531954357433
 21
13.88855975380116
 31
0.0
  0
LINE
  5
B96
100
AcDbEntity
  8
L1
100
AcDbLine
 10
183.9480046146779
 20
13.29375057486649
 30
0.0
 11
362.848004614678
 21
13.29375057486646
 31
0.0
  0
LINE
  5
B97
100
AcDbEntity
  8
L2
100
AcDbLine
 10
200.6312688382838
 20
34.29375057486641
 30
0.0
 11
346.1647403910721
 21
34.29375057486645
 31
0.0
  0
LINE
  5
B98
100
AcDbEntity
  8
L1
100
AcDbLine
 10
248.0388840832927
 20
37.29375057486646
 30
0.0
 11
348.7571251460106
 21
37.29375057486646
 31
0.0
  0
LINE
  5
B99
100
AcDbEntity
  8
L1
100
AcDbLine
 10
198.0388840832994
 20
37.29375057486646
 30
0.0
 11
348.7571251460106
 21
37.29375057486646
 31
0.0
  0
LINE
  5
B9A
100
AcDbEntity
  8
L1
100
AcDbLine
 10
183.5531240854215
 20
36.79811384261566
 30
0.0
 11
183.3531954357432
 21
13.88855975380119
 31
0.0
  0
LINE
  5
B9B
100
AcDbEntity
  8
L1
100
AcDbLine
 10
184.0742108760427
 20
16.29363634405893
 30
0.0
 11
184.2636077505759
 21
37.99636853551595
 31
0.0
  0
LINE
  5
B9C
100
AcDbEntity
  8
L1
100
AcDbLine
 10
197.8920370876725
 20
18.27610844823357
 30
0.0
 11
198.0536761799689
 21
36.79811384261563
 31
0.0
  0
LINE
  5
B9D
100
AcDbEntity
  8
L2
100
AcDbLine
 10
200.4505998284187
 20
13.59113261421708
 30
0.0
 11
200.6312688382838
 21
34.29375057486641
 31
0.0
1001
ACAD
1000
ASC_BOUNDS
1002
{
1070
    19
1002
}
  0
LINE
  5
B9E
100
AcDbEntity
  8
L6
100
AcDbLine
 10
273.398004614678
 20
42.12617044334334
 30
0.0
 11
273.398004614678
 21
5.720168416393846
 31
0.0
  0
LINE
  5
B9F
100
AcDbEntity
  8
L1
100
AcDbLine
 10
184.5635963274952
 20
38.29375057486649
 30
0.0
 11
197.9688096011382
 21
38.29375057486646
 31
0.0
  0
ARC
  5
BA0
100
AcDbEntity
  8
L1
100
AcDbCircle
 10
184.5635963274952
 20
37.99375057486645
 30
0.0
 40
0.299999999999996
100
AcDbArc
 50
90.0
 51
179.5000000000005
  0
POLYLINE
  5
BA1
100
AcDbEntity
  8
L1
100
AcDb2dPolyline
 66
     1
 10
0.0
 20
0.0
 30
0.0
  0
VERTEX
  5
BA2
100
AcDbEntity
  8
L1
100
AcDbVertex
100
AcDb2dVertex
 10
184.2572709022318
 20
37.29375057486646
 30
0.0
  0
VERTEX
  5
BA3
100
AcDbEntity
  8
L1
100
AcDbVertex
100
AcDb2dVertex
 10
184.1978037364278
 20
37.29375057486646
 30
0.0
  0
VERTEX
  5
BA4
100
AcDbEntity
  8
L1
100
AcDbVertex
100
AcDb2dVertex
 10
184.0531050469536
 20
37.29375057486646
 30
0.0
  0
SEQEND
  5
BA5
100
AcDbEntity
  8
L1
  0
POLYLINE
  5
BA6
100
AcDbEntity
  8
L1
100
AcDb2dPolyline
 66
     1
 10
0.0
 20
0.0
 30
0.0
  0
VERTEX
  5
BA7
100
AcDbEntity
  8
L1
100
AcDbVertex
100
AcDb2dVertex
 10
184.0531050469536
 20
37.29375057486646
 30
0.0
  0
VERTEX
  5
BA8
100
AcDbEntity
  8
L1
100
AcDbVertex
100
AcDb2dVertex
 10
183.9600064272985
 20
37.2850067677214
 30
0.0
  0
SEQEND
  5
BA9
100
AcDbEntity
  8
L1
  0
POLYLINE
  5
BAA
100
AcDbEntity
  8
L1
100
AcDb2dPolyline
 66
     1
 10
0.0
 20
0.0
 30
0.0
  0
VERTEX
  5
BAB
100
AcDbEntity
  8
L1
100
AcDbVertex
100
AcDb2dVertex
 10
183.9600064272985
 20
37.2850067677214
 30
0.0
  0
VERTEX
  5
BAC
100
AcDbEntity
  8
L1
100
AcDbVertex
100
AcDb2dVertex
 10
183.6694358827837
 20
37.11437180383487
 30
0.0
  0
VERTEX
  5
BAD
100
AcDbEntity
  8
L1
100
AcDbVertex
100
AcDb2dVertex
 10
183.5531240854215
 20
36.79811384261566
 30
0.0
  0
SEQEND
  5
BAE
100
AcDbEntity
  8
L1
  0
POLYLINE
  5
BAF
100
AcDbEntity
  8
L1
100
AcDb2dPolyline
 66
     1
 10
0.0
 20
0.0
 30
0.0
  0
VERTEX
  5
BB0
100
AcDbEntity
  8
L1
100
AcDbVertex
100
AcDb2dVertex
 10
198.053676179969
 20
36.79811384261566
 30
0.0
  0
VERTEX
  5
BB1
100
AcDbEntity
  8
L1
100
AcDbVertex
100
AcDb2dVertex
 10
198.0554538166018
 20
37.11437180383478
 30
0.0
  0
VERTEX
  5
BB2
100
AcDbEntity
  8
L1
100
AcDbVertex
100
AcDb2dVertex
 10
198.0544421641603
 20
37.28500676772137
 30
0.0
  0
SEQEND
  5
BB3
100
AcDbEntity
  8
L1
  0
POLYLINE
  5
BB4
100
AcDbEntity
  8
L1
100
AcDb2dPolyline
 66
     1
 10
0.0
 20
0.0
 30
0.0
  0
VERTEX
  5
BB5
100
AcDbEntity
  8
L1
100
AcDbVertex
100
AcDb2dVertex
 10
198.0544421641603
 20
37.28500676772137
 30
0.0
  0
VERTEX
  5
BB6
100
AcDbEntity
  8
L1
100
AcDbVertex
100
AcDb2dVertex
 10
198.0388840832994
 20
37.29375057486646
 30
0.0
  0
SEQEND
  5
BB7
100
AcDbEntity
  8
L1
  0
ARC
  5
BB8
100
AcDbEntity
  8
L1
100
AcDbCircle
 10
197.9688096011382
 20
37.99375057486645
 30
0.0
 40
0.3000000000000007
100
AcDbArc
 50
0.4999999999987475
 51
90.0
  0
LINE
  5
BB9
100
AcDbEntity
  8
L1
100
AcDbLine
 10
198.2687981780575
 20
37.99636853551595
 30
0.0
 11
198.2749289751442
 21
37.29384877312918
 31
0.0
  0
LINE
  5
BBA
100
AcDbEntity
  8
L2
100
AcDbLine
 10
270.3399020891886
 20
34.29375057486641
 30
0.0
 11
270.4475385546284
 21
30.18327979554328
 31
0.0
  0
LINE
  5
BBB
100
AcDbEntity
  8
L2
100
AcDbLine
 10
276.3484706747275
 20
30.18327979554328
 30
0.0
 11
276.4561071401673
 21
34.29375057486641
 31
0.0
  0
LINE
  5
BBC
100
AcDbEntity
  8
L2
100
AcDbLine
 10
274.998004614678
 20
29.7937505748664
 30
0.0
 11
271.798004614678
 21
29.7937505748664
 31
0.0
  0
LINE
  5
BBD
100
AcDbEntity
  8
L2
100
AcDbLine
 10
270.8474014846187
 20
29.7937505748664
 30
0.0
 11
271.798004614678
 21
29.7937505748664
 31
0.0
  0
ARC
  5
BBE
100
AcDbEntity
  8
L2
100
AcDbCircle
 10
270.8474014846187
 20
30.19375057486638
 30
0.0
 40
0.4
100
AcDbArc
 50
181.5
 51
270.0
  0
LINE
  5
BBF
100
AcDbEntity
  8
L2
100
AcDbLine
 10
274.998004614678
 20
29.7937505748664
 30
0.0
 11
275.9486077447373
 21
29.7937505748664
 31
0.0
  0
ARC
  5
BC0
100
AcDbEntity
  8
L2
100
AcDbCircle
 10
275.9486077447373
 20
30.19375057486638
 30
0.0
 40
0.4
100
AcDbArc
 50
270.0
 51
358.500000000001
  0
POLYLINE
  5
BC1
100
AcDbEntity
  8
L1
100
AcDb2dPolyline
 66
     1
 10
0.0
 20
0.0
 30
0.0
  0
VERTEX
  5
BC2
100
AcDbEntity
  8
L1
100
AcDbVertex
100
AcDb2dVertex
 10
183.374184221173
 20
16.29363634405899
 30
0.0
  0
VERTEX
  5
BC3
100
AcDbEntity
  8
L1
100
AcDbVertex
100
AcDb2dVertex
 10
183.4619313971281
 20
16.29363634405899
 30
0.0
  0
VERTEX
  5
BC4
100
AcDbEntity
  8
L1
100
AcDbVertex
100
AcDb2dVertex
 10
183.720773340015
 20
16.29363634405899
 30
0.0
  0
VERTEX
  5
BC5
100
AcDbEntity
  8
L1
100
AcDbVertex
100
AcDb2dVertex
 10
184.1377318871601
 20
16.29363634405899
 30
0.0
  0
VERTEX
  5
BC6
100
AcDbEntity
  8
L1
100
AcDbVertex
100
AcDb2dVertex
 10
184.6919010146297
 20
16.29363634405899
 30
0.0
  0
VERTEX
  5
BC7
100
AcDbEntity
  8
L1
100
AcDbVertex
100
AcDb2dVertex
 10
185.3554950513503
 20
16.29363634405893
 30
0.0
  0
VERTEX
  5
BC8
100
AcDbEntity
  8
L1
100
AcDbVertex
100
AcDb2dVertex
 10
186.0952418341563
 20
16.29363634405893
 30
0.0
  0
VERTEX
  5
BC9
100
AcDbEntity
  8
L1
100
AcDbVertex
100
AcDb2dVertex
 10
195.8921132357452
 20
16.29363634405893
 30
0.0
  0
SEQEND
  5
BCA
100
AcDbEntity
  8
L1
  0
POLYLINE
  5
BCB
100
AcDbEntity
  8
L1
100
AcDb2dPolyline
 66
     1
 10
0.0
 20
0.0
 30
0.0
  0
VERTEX
  5
BCC
100
AcDbEntity
  8
L1
100
AcDbVertex
100
AcDb2dVertex
 10
183.3531990580677
 20
13.88855613147666
 30
0.0
  0
VERTEX
  5
BCD
100
AcDbEntity
  8
L1
100
AcDbVertex
100
AcDb2dVertex
 10
183.3531963413245
 20
13.88855884821992
 30
0.0
  0
VERTEX
  5
BCE
100
AcDbEntity
  8
L1
100
AcDbVertex
100
AcDb2dVertex
 10
183.3531954357432
 20
13.88855975380119
 30
0.0
  0
SEQEND
  5
BCF
100
AcDbEntity
  8
L1
  0
LINE
  5
BD0
100
AcDbEntity
  8
L1
100
AcDbLine
 10
183.9480046146779
 20
13.29375057486646
 30
0.0
 11
183.3531990580678
 21
13.88855613147666
 31
0.0
  0
ELLIPSE
  5
BD1
100
AcDbEntity
  8
L1
100
AcDbEllipse
 10
195.8921132357452
 20
18.29356019018729
 30
0.0
 11
-1.999999999999999
 21
0.0
 31
0.0
210
0.0
220
0.0
230
-1.0
 40
0.9999619230641712
 41
-3.132866339596905
 42
-1.570796326794896
  0
LINE
  5
BD2
100
AcDbEntity
  8
L2
100
AcDbLine
 10
346.3454094009373
 20
13.59113261421708
 30
0.0
 11
346.1647403910721
 21
34.29375057486645
 31
0.0
1001
ACAD
1000
ASC_BOUNDS
1002
{
1070
    19
1002
}
  0
LINE
  5
BD3
100
AcDbEntity
  8
L1
100
AcDbLine
 10
348.9039721416835
 20
18.27610844823357
 30
0.0
 11
348.742333049387
 21
36.79811384261563
 31
0.0
  0
LINE
  5
BD4
100
AcDbEntity
  8
L1
100
AcDbLine
 10
362.7217983533133
 20
16.29363634405893
 30
0.0
 11
362.5324014787801
 21
37.99636853551595
 31
0.0
  0
LINE
  5
BD5
100
AcDbEntity
  8
L1
100
AcDbLine
 10
363.2428851439344
 20
36.79811384261566
 30
0.0
 11
363.4428137936128
 21
13.88855975380119
 31
0.0
  0
LINE
  5
BD6
100
AcDbEntity
  8
L1
100
AcDbLine
 10
362.2324129018608
 20
38.29375057486649
 30
0.0
 11
348.8271996282178
 21
38.29375057486646
 31
0.0
  0
LINE
  5
BD7
100
AcDbEntity
  8
L1
100
AcDbLine
 10
348.5272110512985
 20
37.99636853551595
 30
0.0
 11
348.5210802542118
 21
37.29384877312918
 31
0.0
  0
ARC
  5
BD8
100
AcDbEntity
  8
L1
100
AcDbCircle
 10
348.8271996282178
 20
37.99375057486645
 30
0.0
 40
0.3000000000000007
100
AcDbArc
 50
90.0
 51
179.5000000000012
  0
POLYLINE
  5
BD9
100
AcDbEntity
  8
L1
100
AcDb2dPolyline
 66
     1
 10
0.0
 20
0.0
 30
0.0
  0
VERTEX
  5
BDA
100
AcDbEntity
  8
L1
100
AcDbVertex
100
AcDb2dVertex
 10
348.7415670651957
 20
37.28500676772137
 30
0.0
  0
VERTEX
  5
BDB
100
AcDbEntity
  8
L1
100
AcDbVertex
100
AcDb2dVertex
 10
348.7571251460566
 20
37.29375057486646
 30
0.0
  0
SEQEND
  5
BDC
100
AcDbEntity
  8
L1
  0
POLYLINE
  5
BDD
100
AcDbEntity
  8
L1
100
AcDb2dPolyline
 66
     1
 10
0.0
 20
0.0
 30
0.0
  0
VERTEX
  5
BDE
100
AcDbEntity
  8
L1
100
AcDbVertex
100
AcDb2dVertex
 10
348.7423330493869
 20
36.79811384261566
 30
0.0
  0
VERTEX
  5
BDF
100
AcDbEntity
  8
L1
100
AcDbVertex
100
AcDb2dVertex
 10
348.7405554127542
 20
37.11437180383478
 30
0.0
  0
VERTEX
  5
BE0
100
AcDbEntity
  8
L1
100
AcDbVertex
100
AcDb2dVertex
 10
348.7415670651957
 20
37.28500676772137
 30
0.0
  0
SEQEND
  5
BE1
100
AcDbEntity
  8
L1
  0
POLYLINE
  5
BE2
100
AcDbEntity
  8
L1
100
AcDb2dPolyline
 66
     1
 10
0.0
 20
0.0
 30
0.0
  0
VERTEX
  5
BE3
100
AcDbEntity
  8
L1
100
AcDbVertex
100
AcDb2dVertex
 10
362.8360028020575
 20
37.2850067677214
 30
0.0
  0
VERTEX
  5
BE4
100
AcDbEntity
  8
L1
100
AcDbVertex
100
AcDb2dVertex
 10
363.1265733465722
 20
37.11437180383487
 30
0.0
  0
VERTEX
  5
BE5
100
AcDbEntity
  8
L1
100
AcDbVertex
100
AcDb2dVertex
 10
363.2428851439344
 20
36.79811384261566
 30
0.0
  0
SEQEND
  5
BE6
100
AcDbEntity
  8
L1
  0
POLYLINE
  5
BE7
100
AcDbEntity
  8
L1
100
AcDb2dPolyline
 66
     1
 10
0.0
 20
0.0
 30
0.0
  0
VERTEX
  5
BE8
100
AcDbEntity
  8
L1
100
AcDbVertex
100
AcDb2dVertex
 10
362.7429041824024
 20
37.29375057486646
 30
0.0
  0
VERTEX
  5
BE9
100
AcDbEntity
  8
L1
100
AcDbVertex
100
AcDb2dVertex
 10
362.8360028020575
 20
37.2850067677214
 30
0.0
  0
SEQEND
  5
BEA
100
AcDbEntity
  8
L1
  0
POLYLINE
  5
BEB
100
AcDbEntity
  8
L1
100
AcDb2dPolyline
 66
     1
 10
0.0
 20
0.0
 30
0.0
  0
VERTEX
  5
BEC
100
AcDbEntity
  8
L1
100
AcDbVertex
100
AcDb2dVertex
 10
362.5387383271241
 20
37.29375057486646
 30
0.0
  0
VERTEX
  5
BED
100
AcDbEntity
  8
L1
100
AcDbVertex
100
AcDb2dVertex
 10
362.5982054929282
 20
37.29375057486646
 30
0.0
  0
VERTEX
  5
BEE
100
AcDbEntity
  8
L1
100
AcDbVertex
100
AcDb2dVertex
 10
362.7429041824024
 20
37.29375057486646
 30
0.0
  0
SEQEND
  5
BEF
100
AcDbEntity
  8
L1
  0
ARC
  5
BF0
100
AcDbEntity
  8
L1
100
AcDbCircle
 10
362.2324129018608
 20
37.99375057486645
 30
0.0
 40
0.299999999999996
100
AcDbArc
 50
0.4999999999994092
 51
90.0
  0
POLYLINE
  5
BF1
100
AcDbEntity
  8
L1
100
AcDb2dPolyline
 66
     1
 10
0.0
 20
0.0
 30
0.0
  0
VERTEX
  5
BF2
100
AcDbEntity
  8
L1
100
AcDbVertex
100
AcDb2dVertex
 10
363.421825008183
 20
16.29363634405899
 30
0.0
  0
VERTEX
  5
BF3
100
AcDbEntity
  8
L1
100
AcDbVertex
100
AcDb2dVertex
 10
363.3340778322278
 20
16.29363634405899
 30
0.0
  0
VERTEX
  5
BF4
100
AcDbEntity
  8
L1
100
AcDbVertex
100
AcDb2dVertex
 10
363.0752358893409
 20
16.29363634405899
 30
0.0
  0
VERTEX
  5
BF5
100
AcDbEntity
  8
L1
100
AcDbVertex
100
AcDb2dVertex
 10
362.6582773421958
 20
16.29363634405899
 30
0.0
  0
VERTEX
  5
BF6
100
AcDbEntity
  8
L1
100
AcDbVertex
100
AcDb2dVertex
 10
362.1041082147263
 20
16.29363634405899
 30
0.0
  0
VERTEX
  5
BF7
100
AcDbEntity
  8
L1
100
AcDbVertex
100
AcDb2dVertex
 10
361.4405141780057
 20
16.29363634405893
 30
0.0
  0
VERTEX
  5
BF8
100
AcDbEntity
  8
L1
100
AcDbVertex
100
AcDb2dVertex
 10
360.7007673951997
 20
16.29363634405893
 30
0.0
  0
VERTEX
  5
BF9
100
AcDbEntity
  8
L1
100
AcDbVertex
100
AcDb2dVertex
 10
350.9038959936108
 20
16.29363634405893
 30
0.0
  0
SEQEND
  5
BFA
100
AcDbEntity
  8
L1
  0
ELLIPSE
  5
BFB
100
AcDbEntity
  8
L1
100
AcDbEllipse
 10
350.9038959936108
 20
18.29356019018729
 30
0.0
 11
1.999999999999999
 21
0.0
 31
0.0
210
0.0
220
0.0
230
1.0
 40
0.9999619230641712
 41
-3.132866339596905
 42
-1.570796326794896
  0
LINE
  5
BFC
100
AcDbEntity
  8
L1
100
AcDbLine
 10
362.848004614678
 20
13.29375057486646
 30
0.0
 11
363.4428101712882
 21
13.88855613147666
 31
0.0
  0
POLYLINE
  5
BFD
100
AcDbEntity
  8
L1
100
AcDb2dPolyline
 66
     1
 10
0.0
 20
0.0
 30
0.0
  0
VERTEX
  5
BFE
100
AcDbEntity
  8
L1
100
AcDbVertex
100
AcDb2dVertex
 10
363.4428101712882
 20
13.88855613147666
 30
0.0
  0
VERTEX
  5
BFF
100
AcDbEntity
  8
L1
100
AcDbVertex
100
AcDb2dVertex
 10
363.4428128880315
 20
13.88855884821992
 30
0.0
  0
VERTEX
  5
C00
100
AcDbEntity
  8
L1
100
AcDbVertex
100
AcDb2dVertex
 10
363.4428137936128
 20
13.88855975380119
 30
0.0
  0
SEQEND
  5
C01
100
AcDbEntity
  8
L1
  0
LINE
  5
C02
100
AcDbEntity
  8
L2
100
AcDbLine
 10
155.6620195767319
 20
177.9681772848346
 30
0.0
 11
134.6620195767319
 21
177.9681772848346
 31
0.0
  0
LINE
  5
C04
100
AcDbEntity
  8
L1
100
AcDbLine
 10
137.6619053459244
 20
64.47391028399962
 30
0.0
 11
137.6619053459244
 21
76.9918392985717
 31
0.0
  0
LINE
  5
C05
100
AcDbEntity
  8
L1
100
AcDbLine
 10
134.6620195767319
 20
65.04773067750446
 30
0.0
 11
135.256825133342
 21
64.45292512089432
 31
0.0
  0
POLYLINE
  5
C06
100
AcDbEntity
  8
L1
100
AcDb2dPolyline
 66
     1
 10
0.0
 20
0.0
 30
0.0
  0
VERTEX
  5
C07
100
AcDbEntity
  8
L1
100
AcDbVertex
100
AcDb2dVertex
 10
158.6532757695868
 20
65.05973249012484
 30
0.0
  0
VERTEX
  5
C08
100
AcDbEntity
  8
L1
100
AcDbVertex
100
AcDb2dVertex
 10
158.4826408057002
 20
64.76916194561025
 30
0.0
  0
VERTEX
  5
C09
100
AcDbEntity
  8
L1
100
AcDbVertex
100
AcDb2dVertex
 10
158.1663828444811
 20
64.65285014824806
 30
0.0
  0
SEQEND
  5
C0A
100
AcDbEntity
  8
L1
  0
LINE
  5
C0B
100
AcDbEntity
  8
L2
100
AcDbLine
 10
155.662019576732
 20
81.73099490111175
 30
0.0
 11
134.6620195767319
 21
81.73099490111175
 31
0.0
  0
LINE
  5
C0C
100
AcDbEntity
  8
L1
100
AcDbLine
 10
139.644377450099
 20
78.99176315049899
 30
0.0
 11
158.166382844481
 21
79.15340224279558
 31
0.0
  0
LINE
  5
C0D
100
AcDbEntity
  8
L1
100
AcDbLine
 10
137.9592873852749
 20
65.17653215260978
 30
0.0
 11
159.3646375373814
 21
65.36333381340219
 31
0.0
  0
ARC
  5
C0E
100
AcDbEntity
  8
L1
100
AcDbCircle
 10
134.9620195767319
 20
81.25033731432599
 30
0.0
 40
0.3
100
AcDbArc
 50
179.8623620196557
 51
180.0
  0
LINE
  5
C0F
100
AcDbEntity
  8
L1
100
AcDbLine
 10
134.6620195767319
 20
80.9705195356785
 30
0.0
 11
134.6628375255679
 21
80.97051239754708
 31
0.0
  0
POLYLINE
  5
C10
100
AcDbEntity
  8
L1
100
AcDb2dPolyline
 66
     1
 10
0.0
 20
0.0
 30
0.0
  0
VERTEX
  5
C11
100
AcDbEntity
  8
L1
100
AcDbVertex
100
AcDb2dVertex
 10
134.6620290344544
 20
77.61066183160918
 30
0.0
  0
VERTEX
  5
C12
100
AcDbEntity
  8
L1
100
AcDbVertex
100
AcDb2dVertex
 10
134.6620195767319
 20
77.61066182331913
 30
0.0
  0
SEQEND
  5
C13
100
AcDbEntity
  8
L1
  0
POLYLINE
  5
C14
100
AcDbEntity
  8
L1
100
AcDb2dPolyline
 66
     1
 10
0.0
 20
0.0
 30
0.0
  0
VERTEX
  5
C15
100
AcDbEntity
  8
L1
100
AcDbVertex
100
AcDb2dVertex
 10
134.6620195767319
 20
77.81077160025998
 30
0.0
  0
VERTEX
  5
C16
100
AcDbEntity
  8
L1
100
AcDbVertex
100
AcDb2dVertex
 10
134.66645335228
 20
77.84612278672629
 30
0.0
  0
SEQEND
  5
C17
100
AcDbEntity
  8
L1
  0
POLYLINE
  5
C18
100
AcDbEntity
  8
L1
100
AcDb2dPolyline
 66
     1
 10
0.0
 20
0.0
 30
0.0
  0
VERTEX
  5
C19
100
AcDbEntity
  8
L1
100
AcDbVertex
100
AcDb2dVertex
 10
134.6620195767319
 20
79.37842877628546
 30
0.0
  0
VERTEX
  5
C1A
100
AcDbEntity
  8
L1
100
AcDbVertex
100
AcDb2dVertex
 10
134.6644666529227
 20
79.37840072025508
 30
0.0
  0
SEQEND
  5
C1B
100
AcDbEntity
  8
L1
  0
POLYLINE
  5
C1C
100
AcDbEntity
  8
L1
100
AcDb2dPolyline
 66
     1
 10
0.0
 20
0.0
 30
0.0
  0
VERTEX
  5
C1D
100
AcDbEntity
  8
L1
100
AcDbVertex
100
AcDb2dVertex
 10
134.6626031752241
 20
78.6965707583694
 30
0.0
  0
VERTEX
  5
C1E
100
AcDbEntity
  8
L1
100
AcDbVertex
100
AcDb2dVertex
 10
134.6620195767319
 20
78.69658199425081
 30
0.0
  0
SEQEND
  5
C1F
100
AcDbEntity
  8
L1
  0
POLYLINE
  5
C20
100
AcDbEntity
  8
L1
100
AcDb2dPolyline
 66
     1
 10
0.0
 20
0.0
 30
0.0
  0
VERTEX
  5
C21
100
AcDbEntity
  8
L1
100
AcDbVertex
100
AcDb2dVertex
 10
134.6620195767319
 20
78.69658199425092
 30
0.0
  0
VERTEX
  5
C22
100
AcDbEntity
  8
L1
100
AcDbVertex
100
AcDb2dVertex
 10
134.6622139456733
 20
78.69657825210859
 30
0.0
  0
SEQEND
  5
C23
100
AcDbEntity
  8
L1
  0
LINE
  5
C24
100
AcDbEntity
  8
L1
100
AcDbLine
 10
134.6620195767319
 20
77.49274491982979
 30
0.0
 11
134.6628375255679
 21
77.49273778169836
 31
0.0
  0
LINE
  5
C25
100
AcDbEntity
  8
L1
100
AcDbLine
 10
134.662296988039
 20
77.84772825657265
 30
0.0
 11
134.6620195767319
 21
77.84773067750453
 31
0.0
  0
ELLIPSE
  5
C26
100
AcDbEntity
  8
L1
100
AcDbEllipse
 10
139.6618291920527
 20
76.9918392985717
 30
0.0
 11
0.0
 21
-2.0
 31
0.0
210
0.0
220
0.0
230
1.0
 40
0.9999619230641712
 41
-3.132866339596933
 42
-1.570796326794896
  0
ARC
  5
C27
100
AcDbEntity
  8
L1
100
AcDbCircle
 10
134.9620195767319
 20
68.35033731432602
 30
0.0
 40
0.3
100
AcDbArc
 50
179.2528421353908
 51
180.0
  0
LINE
  5
C28
100
AcDbEntity
  8
L1
100
AcDbLine
 10
134.6620195767319
 20
67.87051953567848
 30
0.0
 11
134.6621351830406
 21
67.87051852679749
 31
0.0
  0
POLYLINE
  5
C29
100
AcDbEntity
  8
L1
100
AcDb2dPolyline
 66
     1
 10
0.0
 20
0.0
 30
0.0
  0
VERTEX
  5
C2A
100
AcDbEntity
  8
L1
100
AcDbVertex
100
AcDb2dVertex
 10
135.2568287556666
 20
67.95278822929438
 30
0.0
  0
VERTEX
  5
C2B
100
AcDbEntity
  8
L1
100
AcDbVertex
100
AcDb2dVertex
 10
135.2568278500854
 20
67.95025946057276
 30
0.0
  0
VERTEX
  5
C2C
100
AcDbEntity
  8
L1
100
AcDbVertex
100
AcDb2dVertex
 10
135.256825133342
 20
67.94773067750444
 30
0.0
  0
SEQEND
  5
C2D
100
AcDbEntity
  8
L1
  0
ARC
  5
C2E
100
AcDbEntity
  8
L1
100
AcDbCircle
 10
137.9619053459243
 20
64.87654357569048
 30
0.0
 40
0.2999999999999936
100
AcDbArc
 50
90.49999999999533
 51
179.9344246733275
  0
LINE
  5
C2F
100
AcDbEntity
  8
L1
100
AcDbLine
 10
159.6620195767319
 20
68.16322719798191
 30
0.0
 11
159.6620195767319
 21
79.06853566396458
 31
0.0
  0
ARC
  5
C30
100
AcDbEntity
  8
L1
100
AcDbCircle
 10
159.3620195767318
 20
79.06853566396458
 30
0.0
 40
0.299999999999996
100
AcDbArc
 50
0.0
 51
89.50000000000125
  0
LINE
  5
C31
100
AcDbEntity
  8
L1
100
AcDbLine
 10
159.3646375373814
 20
79.36852424088377
 30
0.0
 11
158.6621178007963
 21
79.37465503774538
 31
0.0
  0
POLYLINE
  5
C32
100
AcDbEntity
  8
L1
100
AcDb2dPolyline
 66
     1
 10
0.0
 20
0.0
 30
0.0
  0
VERTEX
  5
C33
100
AcDbEntity
  8
L1
100
AcDbVertex
100
AcDb2dVertex
 10
158.1663828444811
 20
79.15340224279558
 30
0.0
  0
VERTEX
  5
C34
100
AcDbEntity
  8
L1
100
AcDbVertex
100
AcDb2dVertex
 10
158.4826408057002
 20
79.15517987942829
 30
0.0
  0
VERTEX
  5
C35
100
AcDbEntity
  8
L1
100
AcDbVertex
100
AcDb2dVertex
 10
158.6532757695868
 20
79.15416822698697
 30
0.0
  0
SEQEND
  5
C36
100
AcDbEntity
  8
L1
  0
POLYLINE
  5
C37
100
AcDbEntity
  8
L1
100
AcDb2dPolyline
 66
     1
 10
0.0
 20
0.0
 30
0.0
  0
VERTEX
  5
C38
100
AcDbEntity
  8
L1
100
AcDbVertex
100
AcDb2dVertex
 10
158.6532757695868
 20
79.15416822698697
 30
0.0
  0
VERTEX
  5
C39
100
AcDbEntity
  8
L1
100
AcDbVertex
100
AcDb2dVertex
 10
158.6620195767319
 20
79.13861014612601
 30
0.0
  0
SEQEND
  5
C3A
100
AcDbEntity
  8
L1
  0
ARC
  5
C3B
100
AcDbEntity
  8
L1
100
AcDbCircle
 10
159.3620195767318
 20
65.66332239032139
 30
0.0
 40
0.2999999999999962
100
AcDbArc
 50
270.500000000002
 51
0.0
  0
POLYLINE
  5
C3C
100
AcDbEntity
  8
L1
100
AcDb2dPolyline
 66
     1
 10
0.0
 20
0.0
 30
0.0
  0
VERTEX
  5
C3D
100
AcDbEntity
  8
L1
100
AcDbVertex
100
AcDb2dVertex
 10
158.6620195767319
 20
65.15283110978012
 30
0.0
  0
VERTEX
  5
C3E
100
AcDbEntity
  8
L1
100
AcDbVertex
100
AcDb2dVertex
 10
158.6532757695868
 20
65.05973249012484
 30
0.0
  0
SEQEND
  5
C3F
100
AcDbEntity
  8
L1
  0
POLYLINE
  5
C40
100
AcDbEntity
  8
L1
100
AcDb2dPolyline
 66
     1
 10
0.0
 20
0.0
 30
0.0
  0
VERTEX
  5
C41
100
AcDbEntity
  8
L1
100
AcDbVertex
100
AcDb2dVertex
 10
158.6620195767319
 20
65.35696668914832
 30
0.0
  0
VERTEX
  5
C42
100
AcDbEntity
  8
L1
100
AcDbVertex
100
AcDb2dVertex
 10
158.6620195767319
 20
65.29729299597526
 30
0.0
  0
VERTEX
  5
C43
100
AcDbEntity
  8
L1
100
AcDbVertex
100
AcDb2dVertex
 10
158.6620195767319
 20
65.15283110978024
 30
0.0
  0
SEQEND
  5
C44
100
AcDbEntity
  8
L1
  0
POLYLINE
  5
C45
100
AcDbEntity
  8
L1
100
AcDb2dPolyline
 66
     1
 10
0.0
 20
0.0
 30
0.0
  0
VERTEX
  5
C46
100
AcDbEntity
  8
L1
100
AcDbVertex
100
AcDb2dVertex
 10
159.6620195767319
 20
65.66332239032149
 30
0.0
  0
VERTEX
  5
C47
100
AcDbEntity
  8
L1
100
AcDbVertex
100
AcDb2dVertex
 10
159.6620195767319
 20
65.67031248606091
 30
0.0
  0
VERTEX
  5
C48
100
AcDbEntity
  8
L1
100
AcDbVertex
100
AcDb2dVertex
 10
159.6620195767319
 20
65.6912436856168
 30
0.0
  0
VERTEX
  5
C49
100
AcDbEntity
  8
L1
100
AcDbVertex
100
AcDb2dVertex
 10
159.6620195767319
 20
65.72599894457508
 30
0.0
  0
VERTEX
  5
C4A
100
AcDbEntity
  8
L1
100
AcDbVertex
100
AcDb2dVertex
 10
159.6620195767319
 20
65.77438391626609
 30
0.0
  0
VERTEX
  5
C4B
100
AcDbEntity
  8
L1
100
AcDbVertex
100
AcDb2dVertex
 10
159.6620195767319
 20
65.83612803852455
 30
0.0
  0
VERTEX
  5
C4C
100
AcDbEntity
  8
L1
100
AcDbVertex
100
AcDb2dVertex
 10
159.6620195767319
 20
65.91088604663721
 30
0.0
  0
VERTEX
  5
C4D
100
AcDbEntity
  8
L1
100
AcDbVertex
100
AcDb2dVertex
 10
159.6620195767319
 20
65.99823990401481
 30
0.0
  0
VERTEX
  5
C4E
100
AcDbEntity
  8
L1
100
AcDbVertex
100
AcDb2dVertex
 10
159.6620195767319
 20
66.09770113979656
 30
0.0
  0
VERTEX
  5
C4F
100
AcDbEntity
  8
L1
100
AcDbVertex
100
AcDb2dVertex
 10
159.6620195767319
 20
66.2087135803122
 30
0.0
  0
VERTEX
  5
C50
100
AcDbEntity
  8
L1
100
AcDbVertex
100
AcDb2dVertex
 10
159.6620195767319
 20
66.33065645912975
 30
0.0
  0
VERTEX
  5
C51
100
AcDbEntity
  8
L1
100
AcDbVertex
100
AcDb2dVertex
 10
159.6620195767319
 20
66.46284788829601
 30
0.0
  0
VERTEX
  5
C52
100
AcDbEntity
  8
L1
100
AcDbVertex
100
AcDb2dVertex
 10
159.6620195767319
 20
66.60454867136187
 30
0.0
  0
VERTEX
  5
C53
100
AcDbEntity
  8
L1
100
AcDbVertex
100
AcDb2dVertex
 10
159.6620195767319
 20
66.75496643686759
 30
0.0
  0
VERTEX
  5
C54
100
AcDbEntity
  8
L1
100
AcDbVertex
100
AcDb2dVertex
 10
159.6620195767319
 20
66.913260069176
 30
0.0
  0
VERTEX
  5
C55
100
AcDbEntity
  8
L1
100
AcDbVertex
100
AcDb2dVertex
 10
159.6620195767319
 20
67.0785444118766
 30
0.0
  0
VERTEX
  5
C56
100
AcDbEntity
  8
L1
100
AcDbVertex
100
AcDb2dVertex
 10
159.6620195767319
 20
67.24989521745957
 30
0.0
  0
VERTEX
  5
C57
100
AcDbEntity
  8
L1
100
AcDbVertex
100
AcDb2dVertex
 10
159.6620195767319
 20
67.42635431558145
 30
0.0
  0
VERTEX
  5
C58
100
AcDbEntity
  8
L1
100
AcDbVertex
100
AcDb2dVertex
 10
159.6620195767319
 20
67.60693497102377
 30
0.0
  0
VERTEX
  5
C59
100
AcDbEntity
  8
L1
100
AcDbVertex
100
AcDb2dVertex
 10
159.6620195767319
 20
67.79062740138115
 30
0.0
  0
VERTEX
  5
C5A
100
AcDbEntity
  8
L1
100
AcDbVertex
100
AcDb2dVertex
 10
159.6620195767319
 20
67.9764044236272
 30
0.0
  0
VERTEX
  5
C5B
100
AcDbEntity
  8
L1
100
AcDbVertex
100
AcDb2dVertex
 10
159.6620195767319
 20
68.16322719798191
 30
0.0
  0
SEQEND
  5
C5C
100
AcDbEntity
  8
L1
  0
LINE
  5
C5D
100
AcDbEntity
  8
L1
100
AcDbLine
 10
158.1663828444811
 20
64.65285014824806
 30
0.0
 11
135.2568287556666
 21
64.45292149856982
 31
0.0
  0
POLYLINE
  5
C5E
100
AcDbEntity
  8
L1
100
AcDb2dPolyline
 66
     1
 10
0.0
 20
0.0
 30
0.0
  0
VERTEX
  5
C5F
100
AcDbEntity
  8
L1
100
AcDbVertex
100
AcDb2dVertex
 10
135.256825133342
 20
64.45292512089432
 30
0.0
  0
VERTEX
  5
C60
100
AcDbEntity
  8
L1
100
AcDbVertex
100
AcDb2dVertex
 10
135.2568278500854
 20
64.45292240415088
 30
0.0
  0
VERTEX
  5
C61
100
AcDbEntity
  8
L1
100
AcDbVertex
100
AcDb2dVertex
 10
135.2568287556666
 20
64.45292149856974
 30
0.0
  0
SEQEND
  5
C62
100
AcDbEntity
  8
L1
  0
LINE
  5
C64
100
AcDbEntity
  8
L2
100
AcDbLine
 10
391.133989652624
 20
177.9681772848346
 30
0.0
 11
391.1339896526239
 21
81.73099490111175
 31
0.0
  0
LINE
  5
C65
100
AcDbEntity
  8
L1
100
AcDbLine
 10
412.1339896526239
 20
194.6514415084419
 30
0.0
 11
412.1339896526239
 21
65.04773067750443
 31
0.0
  0
LINE
  5
C66
100
AcDbEntity
  8
L1
100
AcDbLine
 10
411.5391804736892
 20
64.45292149856974
 30
0.0
 11
411.5391804736892
 21
195.2462506873766
 31
0.0
  0
LINE
  5
C67
100
AcDbEntity
  8
L1
100
AcDbLine
 10
388.133989652624
 20
180.5605620398203
 30
0.0
 11
388.133989652624
 21
79.84232097706078
 31
0.0
  0
LINE
  5
C68
100
AcDbEntity
  8
L1
100
AcDbLine
 10
387.133989652624
 20
68.16322719798191
 30
0.0
 11
387.133989652624
 21
79.06853566396458
 31
0.0
  0
ELLIPSE
  5
C69
100
AcDbEntity
  8
L1
100
AcDbEllipse
 10
407.1341800373032
 20
76.9918392985717
 30
0.0
 11
0.0
 21
-2.0
 31
0.0
210
0.0
220
0.0
230
-1.0
 40
0.9999619230641712
 41
-3.132866339596933
 42
-1.570796326794896
  0
LINE
  5
C6A
100
AcDbEntity
  8
L1
100
AcDbLine
 10
388.6296263848747
 20
64.65285014824806
 30
0.0
 11
411.5391804736893
 21
64.45292149856982
 31
0.0
  0
LINE
  5
C6B
100
AcDbEntity
  8
L1
100
AcDbLine
 10
408.836721844081
 20
65.17653215260978
 30
0.0
 11
387.4313716919745
 21
65.36333381340219
 31
0.0
  0
LINE
  5
C6C
100
AcDbEntity
  8
L1
100
AcDbLine
 10
409.1341038834315
 20
64.47391028399962
 30
0.0
 11
409.1341038834315
 21
76.9918392985717
 31
0.0
  0
POLYLINE
  5
C6D
100
AcDbEntity
  8
L1
100
AcDb2dPolyline
 66
     1
 10
0.0
 20
0.0
 30
0.0
  0
VERTEX
  5
C6E
100
AcDbEntity
  8
L1
100
AcDbVertex
100
AcDb2dVertex
 10
411.5391840960138
 20
64.45292512089432
 30
0.0
  0
VERTEX
  5
C6F
100
AcDbEntity
  8
L1
100
AcDbVertex
100
AcDb2dVertex
 10
411.5391813792705
 20
64.45292240415088
 30
0.0
  0
VERTEX
  5
C70
100
AcDbEntity
  8
L1
100
AcDbVertex
100
AcDb2dVertex
 10
411.5391804736892
 20
64.45292149856974
 30
0.0
  0
SEQEND
  5
C71
100
AcDbEntity
  8
L1
  0
LINE
  5
C72
100
AcDbEntity
  8
L1
100
AcDbLine
 10
412.1339896526239
 20
65.04773067750446
 30
0.0
 11
411.5391840960138
 21
64.45292512089432
 31
0.0
  0
ARC
  5
C73
100
AcDbEntity
  8
L1
100
AcDbCircle
 10
408.8341038834315
 20
64.87654357569048
 30
0.0
 40
0.2999999999999936
100
AcDbArc
 50
0.06557532667241
 51
89.50000000000466
  0
POLYLINE
  5
C74
100
AcDbEntity
  8
L1
100
AcDb2dPolyline
 66
     1
 10
0.0
 20
0.0
 30
0.0
  0
VERTEX
  5
C75
100
AcDbEntity
  8
L1
100
AcDbVertex
100
AcDb2dVertex
 10
411.5391804736892
 20
67.95278822929438
 30
0.0
  0
VERTEX
  5
C76
100
AcDbEntity
  8
L1
100
AcDbVertex
100
AcDb2dVertex
 10
411.5391813792705
 20
67.95025946057276
 30
0.0
  0
VERTEX
  5
C77
100
AcDbEntity
  8
L1
100
AcDbVertex
100
AcDb2dVertex
 10
411.5391840960138
 20
67.94773067750444
 30
0.0
  0
SEQEND
  5
C78
100
AcDbEntity
  8
L1
  0
LINE
  5
C79
100
AcDbEntity
  8
L1
100
AcDbLine
 10
412.1339896526239
 20
67.87051953567848
 30
0.0
 11
412.1338740463153
 21
67.87051852679749
 31
0.0
  0
ARC
  5
C7A
100
AcDbEntity
  8
L1
100
AcDbCircle
 10
411.833989652624
 20
68.35033731432602
 30
0.0
 40
0.3
100
AcDbArc
 50
0.0
 51
0.7471578646091696
  0
LINE
  5
C7B
100
AcDbEntity
  8
L1
100
AcDbLine
 10
412.1337122413168
 20
77.84772825657265
 30
0.0
 11
412.1339896526239
 21
77.84773067750453
 31
0.0
  0
LINE
  5
C7C
100
AcDbEntity
  8
L1
100
AcDbLine
 10
412.1339896526239
 20
77.49274491982979
 30
0.0
 11
412.133171703788
 21
77.49273778169836
 31
0.0
  0
POLYLINE
  5
C7D
100
AcDbEntity
  8
L1
100
AcDb2dPolyline
 66
     1
 10
0.0
 20
0.0
 30
0.0
  0
VERTEX
  5
C7E
100
AcDbEntity
  8
L1
100
AcDbVertex
100
AcDb2dVertex
 10
412.1339896526239
 20
78.69658199425092
 30
0.0
  0
VERTEX
  5
C7F
100
AcDbEntity
  8
L1
100
AcDbVertex
100
AcDb2dVertex
 10
412.1337952836825
 20
78.69657825210859
 30
0.0
  0
SEQEND
  5
C80
100
AcDbEntity
  8
L1
  0
POLYLINE
  5
C81
100
AcDbEntity
  8
L1
100
AcDb2dPolyline
 66
     1
 10
0.0
 20
0.0
 30
0.0
  0
VERTEX
  5
C82
100
AcDbEntity
  8
L1
100
AcDbVertex
100
AcDb2dVertex
 10
412.1334060541317
 20
78.6965707583694
 30
0.0
  0
VERTEX
  5
C83
100
AcDbEntity
  8
L1
100
AcDbVertex
100
AcDb2dVertex
 10
412.1339896526239
 20
78.69658199425081
 30
0.0
  0
SEQEND
  5
C84
100
AcDbEntity
  8
L1
  0
POLYLINE
  5
C85
100
AcDbEntity
  8
L1
100
AcDb2dPolyline
 66
     1
 10
0.0
 20
0.0
 30
0.0
  0
VERTEX
  5
C86
100
AcDbEntity
  8
L1
100
AcDbVertex
100
AcDb2dVertex
 10
412.1339896526239
 20
77.81077160025998
 30
0.0
  0
VERTEX
  5
C87
100
AcDbEntity
  8
L1
100
AcDbVertex
100
AcDb2dVertex
 10
412.1295558770758
 20
77.84612278672629
 30
0.0
  0
SEQEND
  5
C88
100
AcDbEntity
  8
L1
  0
POLYLINE
  5
C89
100
AcDbEntity
  8
L1
100
AcDb2dPolyline
 66
     1
 10
0.0
 20
0.0
 30
0.0
  0
VERTEX
  5
C8A
100
AcDbEntity
  8
L1
100
AcDbVertex
100
AcDb2dVertex
 10
412.1339801949014
 20
77.61066183160918
 30
0.0
  0
VERTEX
  5
C8B
100
AcDbEntity
  8
L1
100
AcDbVertex
100
AcDb2dVertex
 10
412.1339896526239
 20
77.61066182331913
 30
0.0
  0
SEQEND
  5
C8C
100
AcDbEntity
  8
L1
  0
POLYLINE
  5
C8D
100
AcDbEntity
  8
L1
100
AcDb2dPolyline
 66
     1
 10
0.0
 20
0.0
 30
0.0
  0
VERTEX
  5
C8E
100
AcDbEntity
  8
L1
100
AcDbVertex
100
AcDb2dVertex
 10
387.133989652624
 20
65.66332239032149
 30
0.0
  0
VERTEX
  5
C8F
100
AcDbEntity
  8
L1
100
AcDbVertex
100
AcDb2dVertex
 10
387.133989652624
 20
65.67031248606091
 30
0.0
  0
VERTEX
  5
C90
100
AcDbEntity
  8
L1
100
AcDbVertex
100
AcDb2dVertex
 10
387.133989652624
 20
65.6912436856168
 30
0.0
  0
VERTEX
  5
C91
100
AcDbEntity
  8
L1
100
AcDbVertex
100
AcDb2dVertex
 10
387.133989652624
 20
65.72599894457508
 30
0.0
  0
VERTEX
  5
C92
100
AcDbEntity
  8
L1
100
AcDbVertex
100
AcDb2dVertex
 10
387.133989652624
 20
65.77438391626609
 30
0.0
  0
VERTEX
  5
C93
100
AcDbEntity
  8
L1
100
AcDbVertex
100
AcDb2dVertex
 10
387.133989652624
 20
65.83612803852455
 30
0.0
  0
VERTEX
  5
C94
100
AcDbEntity
  8
L1
100
AcDbVertex
100
AcDb2dVertex
 10
387.133989652624
 20
65.91088604663721
 30
0.0
  0
VERTEX
  5
C95
100
AcDbEntity
  8
L1
100
AcDbVertex
100
AcDb2dVertex
 10
387.133989652624
 20
65.99823990401481
 30
0.0
  0
VERTEX
  5
C96
100
AcDbEntity
  8
L1
100
AcDbVertex
100
AcDb2dVertex
 10
387.133989652624
 20
66.09770113979656
 30
0.0
  0
VERTEX
  5
C97
100
AcDbEntity
  8
L1
100
AcDbVertex
100
AcDb2dVertex
 10
387.133989652624
 20
66.2087135803122
 30
0.0
  0
VERTEX
  5
C98
100
AcDbEntity
  8
L1
100
AcDbVertex
100
AcDb2dVertex
 10
387.133989652624
 20
66.33065645912975
 30
0.0
  0
VERTEX
  5
C99
100
AcDbEntity
  8
L1
100
AcDbVertex
100
AcDb2dVertex
 10
387.133989652624
 20
66.46284788829601
 30
0.0
  0
VERTEX
  5
C9A
100
AcDbEntity
  8
L1
100
AcDbVertex
100
AcDb2dVertex
 10
387.133989652624
 20
66.60454867136187
 30
0.0
  0
VERTEX
  5
C9B
100
AcDbEntity
  8
L1
100
AcDbVertex
100
AcDb2dVertex
 10
387.133989652624
 20
66.75496643686759
 30
0.0
  0
VERTEX
  5
C9C
100
AcDbEntity
  8
L1
100
AcDbVertex
100
AcDb2dVertex
 10
387.133989652624
 20
66.913260069176
 30
0.0
  0
VERTEX
  5
C9D
100
AcDbEntity
  8
L1
100
AcDbVertex
100
AcDb2dVertex
 10
387.133989652624
 20
67.0785444118766
 30
0.0
  0
VERTEX
  5
C9E
100
AcDbEntity
  8
L1
100
AcDbVertex
100
AcDb2dVertex
 10
387.133989652624
 20
67.24989521745957
 30
0.0
  0
VERTEX
  5
C9F
100
AcDbEntity
  8
L1
100
AcDbVertex
100
AcDb2dVertex
 10
387.133989652624
 20
67.42635431558145
 30
0.0
  0
VERTEX
  5
CA0
100
AcDbEntity
  8
L1
100
AcDbVertex
100
AcDb2dVertex
 10
387.133989652624
 20
67.60693497102377
 30
0.0
  0
VERTEX
  5
CA1
100
AcDbEntity
  8
L1
100
AcDbVertex
100
AcDb2dVertex
 10
387.133989652624
 20
67.79062740138115
 30
0.0
  0
VERTEX
  5
CA2
100
AcDbEntity
  8
L1
100
AcDbVertex
100
AcDb2dVertex
 10
387.133989652624
 20
67.9764044236272
 30
0.0
  0
VERTEX
  5
CA3
100
AcDbEntity
  8
L1
100
AcDbVertex
100
AcDb2dVertex
 10
387.133989652624
 20
68.16322719798191
 30
0.0
  0
SEQEND
  5
CA4
100
AcDbEntity
  8
L1
  0
POLYLINE
  5
CA5
100
AcDbEntity
  8
L1
100
AcDb2dPolyline
 66
     1
 10
0.0
 20
0.0
 30
0.0
  0
VERTEX
  5
CA6
100
AcDbEntity
  8
L1
100
AcDbVertex
100
AcDb2dVertex
 10
388.133989652624
 20
65.35696668914832
 30
0.0
  0
VERTEX
  5
CA7
100
AcDbEntity
  8
L1
100
AcDbVertex
100
AcDb2dVertex
 10
388.133989652624
 20
65.29729299597526
 30
0.0
  0
VERTEX
  5
CA8
100
AcDbEntity
  8
L1
100
AcDbVertex
100
AcDb2dVertex
 10
388.133989652624
 20
65.15283110978024
 30
0.0
  0
SEQEND
  5
CA9
100
AcDbEntity
  8
L1
  0
POLYLINE
  5
CAA
100
AcDbEntity
  8
L1
100
AcDb2dPolyline
 66
     1
 10
0.0
 20
0.0
 30
0.0
  0
VERTEX
  5
CAB
100
AcDbEntity
  8
L1
100
AcDbVertex
100
AcDb2dVertex
 10
388.133989652624
 20
65.15283110978012
 30
0.0
  0
VERTEX
  5
CAC
100
AcDbEntity
  8
L1
100
AcDbVertex
100
AcDb2dVertex
 10
388.1427334597691
 20
65.05973249012484
 30
0.0
  0
SEQEND
  5
CAD
100
AcDbEntity
  8
L1
  0
ARC
  5
CAE
100
AcDbEntity
  8
L1
100
AcDbCircle
 10
387.433989652624
 20
65.66332239032139
 30
0.0
 40
0.2999999999999962
100
AcDbArc
 50
180.0
 51
269.4999999999978
  0
POLYLINE
  5
CAF
100
AcDbEntity
  8
L1
100
AcDb2dPolyline
 66
     1
 10
0.0
 20
0.0
 30
0.0
  0
VERTEX
  5
CB0
100
AcDbEntity
  8
L1
100
AcDbVertex
100
AcDb2dVertex
 10
388.1427334597691
 20
65.05973249012484
 30
0.0
  0
VERTEX
  5
CB1
100
AcDbEntity
  8
L1
100
AcDbVertex
100
AcDb2dVertex
 10
388.3133684236556
 20
64.76916194561025
 30
0.0
  0
VERTEX
  5
CB2
100
AcDbEntity
  8
L1
100
AcDbVertex
100
AcDb2dVertex
 10
388.6296263848747
 20
64.65285014824806
 30
0.0
  0
SEQEND
  5
CB3
100
AcDbEntity
  8
L1
  0
LINE
  5
CB4
100
AcDbEntity
  8
L1
100
AcDbLine
 10
407.1516317792569
 20
78.99176315049899
 30
0.0
 11
388.6296263848748
 21
79.15340224279558
 31
0.0
  0
LINE
  5
CB5
100
AcDbEntity
  8
L2
100
AcDbLine
 10
391.1339896526239
 20
81.73099490111175
 30
0.0
 11
412.1339896526239
 21
81.73099490111175
 31
0.0
  0
POLYLINE
  5
CB6
100
AcDbEntity
  8
L1
100
AcDb2dPolyline
 66
     1
 10
0.0
 20
0.0
 30
0.0
  0
VERTEX
  5
CB7
100
AcDbEntity
  8
L1
100
AcDbVertex
100
AcDb2dVertex
 10
412.1339896526239
 20
79.37842877628546
 30
0.0
  0
VERTEX
  5
CB8
100
AcDbEntity
  8
L1
100
AcDbVertex
100
AcDb2dVertex
 10
412.1315425764331
 20
79.37840072025508
 30
0.0
  0
SEQEND
  5
CB9
100
AcDbEntity
  8
L1
  0
LINE
  5
CBA
100
AcDbEntity
  8
L1
100
AcDbLine
 10
412.1339896526239
 20
80.9705195356785
 30
0.0
 11
412.133171703788
 21
80.97051239754708
 31
0.0
  0
ARC
  5
CBB
100
AcDbEntity
  8
L1
100
AcDbCircle
 10
411.833989652624
 20
81.25033731432599
 30
0.0
 40
0.3
100
AcDbArc
 50
0.0
 51
0.1376379803442639
  0
POLYLINE
  5
CBC
100
AcDbEntity
  8
L1
100
AcDb2dPolyline
 66
     1
 10
0.0
 20
0.0
 30
0.0
  0
VERTEX
  5
CBD
100
AcDbEntity
  8
L1
100
AcDbVertex
100
AcDb2dVertex
 10
388.1427334597691
 20
79.15416822698697
 30
0.0
  0
VERTEX
  5
CBE
100
AcDbEntity
  8
L1
100
AcDbVertex
100
AcDb2dVertex
 10
388.133989652624
 20
79.13861014612601
 30
0.0
  0
SEQEND
  5
CBF
100
AcDbEntity
  8
L1
  0
POLYLINE
  5
CC0
100
AcDbEntity
  8
L1
100
AcDb2dPolyline
 66
     1
 10
0.0
 20
0.0
 30
0.0
  0
VERTEX
  5
CC1
100
AcDbEntity
  8
L1
100
AcDbVertex
100
AcDb2dVertex
 10
388.6296263848747
 20
79.15340224279558
 30
0.0
  0
VERTEX
  5
CC2
100
AcDbEntity
  8
L1
100
AcDbVertex
100
AcDb2dVertex
 10
388.3133684236556
 20
79.15517987942829
 30
0.0
  0
VERTEX
  5
CC3
100
AcDbEntity
  8
L1
100
AcDbVertex
100
AcDb2dVertex
 10
388.1427334597691
 20
79.15416822698697
 30
0.0
  0
SEQEND
  5
CC4
100
AcDbEntity
  8
L1
  0
LINE
  5
CC5
100
AcDbEntity
  8
L1
100
AcDbLine
 10
387.4313716919745
 20
79.36852424088377
 30
0.0
 11
388.1338914285596
 21
79.37465503774538
 31
0.0
  0
ARC
  5
CC6
100
AcDbEntity
  8
L1
100
AcDbCircle
 10
387.433989652624
 20
79.06853566396458
 30
0.0
 40
0.299999999999996
100
AcDbArc
 50
90.49999999999874
 51
180.0
  0
LINE
  5
CC7
100
AcDbEntity
  8
L6
 62
     1
100
AcDbLine
 10
417.0845265637403
 20
129.8495860929731
 30
0.0
 11
386.6365170172647
 21
129.8495860929731
 31
0.0
  0
LINE
  5
CC8
100
AcDbEntity
  8
L1
100
AcDbLine
 10
409.1341038834315
 20
195.2252619019467
 30
0.0
 11
409.1341038834315
 21
182.7073328873746
 31
0.0
  0
LINE
  5
CC9
100
AcDbEntity
  8
L1
100
AcDbLine
 10
412.1339896526239
 20
194.6514415084419
 30
0.0
 11
411.5391840960138
 21
195.246247065052
 31
0.0
  0
POLYLINE
  5
CCA
100
AcDbEntity
  8
L1
100
AcDb2dPolyline
 66
     1
 10
0.0
 20
0.0
 30
0.0
  0
VERTEX
  5
CCB
100
AcDbEntity
  8
L1
100
AcDbVertex
100
AcDb2dVertex
 10
388.1427334597691
 20
194.6394396958215
 30
0.0
  0
VERTEX
  5
CCC
100
AcDbEntity
  8
L1
100
AcDbVertex
100
AcDb2dVertex
 10
388.3133684236556
 20
194.9300102403361
 30
0.0
  0
VERTEX
  5
CCD
100
AcDbEntity
  8
L1
100
AcDbVertex
100
AcDb2dVertex
 10
388.6296263848747
 20
195.0463220376983
 30
0.0
  0
SEQEND
  5
CCE
100
AcDbEntity
  8
L1
  0
LINE
  5
CCF
100
AcDbEntity
  8
L2
100
AcDbLine
 10
391.133989652624
 20
177.9681772848346
 30
0.0
 11
412.1339896526239
 21
177.9681772848346
 31
0.0
  0
LINE
  5
CD0
100
AcDbEntity
  8
L1
100
AcDbLine
 10
407.1516317792569
 20
180.7074090354474
 30
0.0
 11
388.6296263848748
 21
180.5457699431508
 31
0.0
  0
LINE
  5
CD1
100
AcDbEntity
  8
L1
100
AcDbLine
 10
408.836721844081
 20
194.5226400333366
 30
0.0
 11
387.4313716919745
 21
194.3358383725442
 31
0.0
  0
ARC
  5
CD2
100
AcDbEntity
  8
L1
100
AcDbCircle
 10
411.833989652624
 20
178.4488348716203
 30
0.0
 40
0.3
100
AcDbArc
 50
359.8623620196557
 51
0.0
  0
LINE
  5
CD3
100
AcDbEntity
  8
L1
100
AcDbLine
 10
412.1339896526239
 20
178.7286526502678
 30
0.0
 11
412.133171703788
 21
178.7286597883993
 31
0.0
  0
POLYLINE
  5
CD4
100
AcDbEntity
  8
L1
100
AcDb2dPolyline
 66
     1
 10
0.0
 20
0.0
 30
0.0
  0
VERTEX
  5
CD5
100
AcDbEntity
  8
L1
100
AcDbVertex
100
AcDb2dVertex
 10
412.1339801949014
 20
182.0885103543372
 30
0.0
  0
VERTEX
  5
CD6
100
AcDbEntity
  8
L1
100
AcDbVertex
100
AcDb2dVertex
 10
412.1339896526239
 20
182.0885103626272
 30
0.0
  0
SEQEND
  5
CD7
100
AcDbEntity
  8
L1
  0
POLYLINE
  5
CD8
100
AcDbEntity
  8
L1
100
AcDb2dPolyline
 66
     1
 10
0.0
 20
0.0
 30
0.0
  0
VERTEX
  5
CD9
100
AcDbEntity
  8
L1
100
AcDbVertex
100
AcDb2dVertex
 10
412.1339896526239
 20
181.8884005856864
 30
0.0
  0
VERTEX
  5
CDA
100
AcDbEntity
  8
L1
100
AcDbVertex
100
AcDb2dVertex
 10
412.1295558770758
 20
181.8530493992201
 30
0.0
  0
SEQEND
  5
CDB
100
AcDbEntity
  8
L1
  0
POLYLINE
  5
CDC
100
AcDbEntity
  8
L1
100
AcDb2dPolyline
 66
     1
 10
0.0
 20
0.0
 30
0.0
  0
VERTEX
  5
CDD
100
AcDbEntity
  8
L1
100
AcDbVertex
100
AcDb2dVertex
 10
412.1339896526239
 20
180.3207434096609
 30
0.0
  0
VERTEX
  5
CDE
100
AcDbEntity
  8
L1
100
AcDbVertex
100
AcDb2dVertex
 10
412.1315425764331
 20
180.3207714656913
 30
0.0
  0
SEQEND
  5
CDF
100
AcDbEntity
  8
L1
  0
POLYLINE
  5
CE0
100
AcDbEntity
  8
L1
100
AcDb2dPolyline
 66
     1
 10
0.0
 20
0.0
 30
0.0
  0
VERTEX
  5
CE1
100
AcDbEntity
  8
L1
100
AcDbVertex
100
AcDb2dVertex
 10
412.1334060541317
 20
181.002601427577
 30
0.0
  0
VERTEX
  5
CE2
100
AcDbEntity
  8
L1
100
AcDbVertex
100
AcDb2dVertex
 10
412.1339896526239
 20
181.0025901916955
 30
0.0
  0
SEQEND
  5
CE3
100
AcDbEntity
  8
L1
  0
POLYLINE
  5
CE4
100
AcDbEntity
  8
L1
100
AcDb2dPolyline
 66
     1
 10
0.0
 20
0.0
 30
0.0
  0
VERTEX
  5
CE5
100
AcDbEntity
  8
L1
100
AcDbVertex
100
AcDb2dVertex
 10
412.1339896526239
 20
181.0025901916954
 30
0.0
  0
VERTEX
  5
CE6
100
AcDbEntity
  8
L1
100
AcDbVertex
100
AcDb2dVertex
 10
412.1337952836825
 20
181.0025939338378
 30
0.0
  0
SEQEND
  5
CE7
100
AcDbEntity
  8
L1
  0
LINE
  5
CE8
100
AcDbEntity
  8
L1
100
AcDbLine
 10
412.1339896526239
 20
182.2064272661165
 30
0.0
 11
412.133171703788
 21
182.206434404248
 31
0.0
  0
LINE
  5
CE9
100
AcDbEntity
  8
L1
100
AcDbLine
 10
412.1337122413168
 20
181.8514439293737
 30
0.0
 11
412.1339896526239
 21
181.8514415084418
 31
0.0
  0
ELLIPSE
  5
CEA
100
AcDbEntity
  8
L1
100
AcDbEllipse
 10
407.1341800373032
 20
182.7073328873746
 30
0.0
 11
0.0
 21
2.0
 31
0.0
210
0.0
220
0.0
230
1.0
 40
0.9999619230641712
 41
-3.132866339596933
 42
-1.570796326794896
  0
ARC
  5
CEB
100
AcDbEntity
  8
L1
100
AcDbCircle
 10
411.833989652624
 20
191.3488348716203
 30
0.0
 40
0.3
100
AcDbArc
 50
359.2528421353907
 51
0.0
  0
LINE
  5
CEC
100
AcDbEntity
  8
L1
100
AcDbLine
 10
412.1339896526239
 20
191.8286526502679
 30
0.0
 11
412.1338740463153
 21
191.8286536591488
 31
0.0
  0
POLYLINE
  5
CED
100
AcDbEntity
  8
L1
100
AcDb2dPolyline
 66
     1
 10
0.0
 20
0.0
 30
0.0
  0
VERTEX
  5
CEE
100
AcDbEntity
  8
L1
100
AcDbVertex
100
AcDb2dVertex
 10
411.5391804736892
 20
191.746383956652
 30
0.0
  0
VERTEX
  5
CEF
100
AcDbEntity
  8
L1
100
AcDbVertex
100
AcDb2dVertex
 10
411.5391813792705
 20
191.7489127253736
 30
0.0
  0
VERTEX
  5
CF0
100
AcDbEntity
  8
L1
100
AcDbVertex
100
AcDb2dVertex
 10
411.5391840960138
 20
191.7514415084419
 30
0.0
  0
SEQEND
  5
CF1
100
AcDbEntity
  8
L1
  0
ARC
  5
CF2
100
AcDbEntity
  8
L1
100
AcDbCircle
 10
408.8341038834315
 20
194.8226286102559
 30
0.0
 40
0.2999999999999936
100
AcDbArc
 50
270.4999999999953
 51
359.9344246733276
  0
LINE
  5
CF3
100
AcDbEntity
  8
L1
100
AcDbLine
 10
387.133989652624
 20
191.5359449879644
 30
0.0
 11
387.133989652624
 21
180.6306365219818
 31
0.0
  0
ARC
  5
CF4
100
AcDbEntity
  8
L1
100
AcDbCircle
 10
387.433989652624
 20
180.6306365219818
 30
0.0
 40
0.299999999999996
100
AcDbArc
 50
180.0
 51
269.5000000000012
  0
LINE
  5
CF5
100
AcDbEntity
  8
L1
100
AcDbLine
 10
387.4313716919745
 20
180.3306479450626
 30
0.0
 11
388.1338914285596
 21
180.324517148201
 31
0.0
  0
POLYLINE
  5
CF6
100
AcDbEntity
  8
L1
100
AcDb2dPolyline
 66
     1
 10
0.0
 20
0.0
 30
0.0
  0
VERTEX
  5
CF7
100
AcDbEntity
  8
L1
100
AcDbVertex
100
AcDb2dVertex
 10
388.6296263848747
 20
180.5457699431508
 30
0.0
  0
VERTEX
  5
CF8
100
AcDbEntity
  8
L1
100
AcDbVertex
100
AcDb2dVertex
 10
388.3133684236556
 20
180.5439923065181
 30
0.0
  0
VERTEX
  5
CF9
100
AcDbEntity
  8
L1
100
AcDbVertex
100
AcDb2dVertex
 10
388.1427334597691
 20
180.5450039589594
 30
0.0
  0
SEQEND
  5
CFA
100
AcDbEntity
  8
L1
  0
POLYLINE
  5
CFB
100
AcDbEntity
  8
L1
100
AcDb2dPolyline
 66
     1
 10
0.0
 20
0.0
 30
0.0
  0
VERTEX
  5
CFC
100
AcDbEntity
  8
L1
100
AcDbVertex
100
AcDb2dVertex
 10
388.1427334597691
 20
180.5450039589594
 30
0.0
  0
VERTEX
  5
CFD
100
AcDbEntity
  8
L1
100
AcDbVertex
100
AcDb2dVertex
 10
388.133989652624
 20
180.5605620398203
 30
0.0
  0
SEQEND
  5
CFE
100
AcDbEntity
  8
L1
  0
ARC
  5
CFF
100
AcDbEntity
  8
L1
100
AcDbCircle
 10
387.433989652624
 20
194.035849795625
 30
0.0
 40
0.2999999999999962
100
AcDbArc
 50
90.50000000000208
 51
180.0
  0
POLYLINE
  5
D00
100
AcDbEntity
  8
L1
100
AcDb2dPolyline
 66
     1
 10
0.0
 20
0.0
 30
0.0
  0
VERTEX
  5
D01
100
AcDbEntity
  8
L1
100
AcDbVertex
100
AcDb2dVertex
 10
388.133989652624
 20
194.5463410761662
 30
0.0
  0
VERTEX
  5
D02
100
AcDbEntity
  8
L1
100
AcDbVertex
100
AcDb2dVertex
 10
388.1427334597691
 20
194.6394396958215
 30
0.0
  0
SEQEND
  5
D03
100
AcDbEntity
  8
L1
  0
POLYLINE
  5
D04
100
AcDbEntity
  8
L1
100
AcDb2dPolyline
 66
     1
 10
0.0
 20
0.0
 30
0.0
  0
VERTEX
  5
D05
100
AcDbEntity
  8
L1
100
AcDbVertex
100
AcDb2dVertex
 10
388.133989652624
 20
194.342205496798
 30
0.0
  0
VERTEX
  5
D06
100
AcDbEntity
  8
L1
100
AcDbVertex
100
AcDb2dVertex
 10
388.133989652624
 20
194.4018791899711
 30
0.0
  0
VERTEX
  5
D07
100
AcDbEntity
  8
L1
100
AcDbVertex
100
AcDb2dVertex
 10
388.133989652624
 20
194.5463410761661
 30
0.0
  0
SEQEND
  5
D08
100
AcDbEntity
  8
L1
  0
POLYLINE
  5
D09
100
AcDbEntity
  8
L1
100
AcDb2dPolyline
 66
     1
 10
0.0
 20
0.0
 30
0.0
  0
VERTEX
  5
D0A
100
AcDbEntity
  8
L1
100
AcDbVertex
100
AcDb2dVertex
 10
387.133989652624
 20
194.0358497956248
 30
0.0
  0
VERTEX
  5
D0B
100
AcDbEntity
  8
L1
100
AcDbVertex
100
AcDb2dVertex
 10
387.133989652624
 20
194.0288596998854
 30
0.0
  0
VERTEX
  5
D0C
100
AcDbEntity
  8
L1
100
AcDbVertex
100
AcDb2dVertex
 10
387.133989652624
 20
194.0079285003296
 30
0.0
  0
VERTEX
  5
D0D
100
AcDbEntity
  8
L1
100
AcDbVertex
100
AcDb2dVertex
 10
387.133989652624
 20
193.9731732413713
 30
0.0
  0
VERTEX
  5
D0E
100
AcDbEntity
  8
L1
100
AcDbVertex
100
AcDb2dVertex
 10
387.133989652624
 20
193.9247882696803
 30
0.0
  0
VERTEX
  5
D0F
100
AcDbEntity
  8
L1
100
AcDbVertex
100
AcDb2dVertex
 10
387.133989652624
 20
193.8630441474218
 30
0.0
  0
VERTEX
  5
D10
100
AcDbEntity
  8
L1
100
AcDbVertex
100
AcDb2dVertex
 10
387.133989652624
 20
193.7882861393091
 30
0.0
  0
VERTEX
  5
D11
100
AcDbEntity
  8
L1
100
AcDbVertex
100
AcDb2dVertex
 10
387.133989652624
 20
193.7009322819315
 30
0.0
  0
VERTEX
  5
D12
100
AcDbEntity
  8
L1
100
AcDbVertex
100
AcDb2dVertex
 10
387.133989652624
 20
193.6014710461498
 30
0.0
  0
VERTEX
  5
D13
100
AcDbEntity
  8
L1
100
AcDbVertex
100
AcDb2dVertex
 10
387.133989652624
 20
193.4904586056341
 30
0.0
  0
VERTEX
  5
D14
100
AcDbEntity
  8
L1
100
AcDbVertex
100
AcDb2dVertex
 10
387.133989652624
 20
193.3685157268166
 30
0.0
  0
VERTEX
  5
D15
100
AcDbEntity
  8
L1
100
AcDbVertex
100
AcDb2dVertex
 10
387.133989652624
 20
193.2363242976503
 30
0.0
  0
VERTEX
  5
D16
100
AcDbEntity
  8
L1
100
AcDbVertex
100
AcDb2dVertex
 10
387.133989652624
 20
193.0946235145845
 30
0.0
  0
VERTEX
  5
D17
100
AcDbEntity
  8
L1
100
AcDbVertex
100
AcDb2dVertex
 10
387.133989652624
 20
192.9442057490788
 30
0.0
  0
VERTEX
  5
D18
100
AcDbEntity
  8
L1
100
AcDbVertex
100
AcDb2dVertex
 10
387.133989652624
 20
192.7859121167703
 30
0.0
  0
VERTEX
  5
D19
100
AcDbEntity
  8
L1
100
AcDbVertex
100
AcDb2dVertex
 10
387.133989652624
 20
192.6206277740697
 30
0.0
  0
VERTEX
  5
D1A
100
AcDbEntity
  8
L1
100
AcDbVertex
100
AcDb2dVertex
 10
387.133989652624
 20
192.4492769684868
 30
0.0
  0
VERTEX
  5
D1B
100
AcDbEntity
  8
L1
100
AcDbVertex
100
AcDb2dVertex
 10
387.133989652624
 20
192.2728178703649
 30
0.0
  0
VERTEX
  5
D1C
100
AcDbEntity
  8
L1
100
AcDbVertex
100
AcDb2dVertex
 10
387.133989652624
 20
192.0922372149226
 30
0.0
  0
VERTEX
  5
D1D
100
AcDbEntity
  8
L1
100
AcDbVertex
100
AcDb2dVertex
 10
387.133989652624
 20
191.9085447845652
 30
0.0
  0
VERTEX
  5
D1E
100
AcDbEntity
  8
L1
100
AcDbVertex
100
AcDb2dVertex
 10
387.133989652624
 20
191.7227677623191
 30
0.0
  0
VERTEX
  5
D1F
100
AcDbEntity
  8
L1
100
AcDbVertex
100
AcDb2dVertex
 10
387.133989652624
 20
191.5359449879644
 30
0.0
  0
SEQEND
  5
D20
100
AcDbEntity
  8
L1
  0
LINE
  5
D21
100
AcDbEntity
  8
L1
100
AcDbLine
 10
388.6296263848747
 20
195.0463220376983
 30
0.0
 11
411.5391804736893
 21
195.2462506873765
 31
0.0
  0
POLYLINE
  5
D22
100
AcDbEntity
  8
L1
100
AcDb2dPolyline
 66
     1
 10
0.0
 20
0.0
 30
0.0
  0
VERTEX
  5
D23
100
AcDbEntity
  8
L1
100
AcDbVertex
100
AcDb2dVertex
 10
411.5391840960138
 20
195.246247065052
 30
0.0
  0
VERTEX
  5
D24
100
AcDbEntity
  8
L1
100
AcDbVertex
100
AcDb2dVertex
 10
411.5391813792705
 20
195.2462497817955
 30
0.0
  0
VERTEX
  5
D25
100
AcDbEntity
  8
L1
100
AcDbVertex
100
AcDb2dVertex
 10
411.5391804736892
 20
195.2462506873766
 30
0.0
  0
SEQEND
  5
D26
100
AcDbEntity
  8
L1
  0
ENDSEC
  0
SECTION
  2
OBJECTS
  0
DICTIONARY
  5
1A
100
AcDbDictionary
  3
ACAD_GROUP
350
18
  3
ACAD_MLINESTYLE
350
19
  0
DICTIONARY
  5
18
102
{ACAD_REACTORS
330
1A
102
}
100
AcDbDictionary
  0
DICTIONARY
  5
19
102
{ACAD_REACTORS
330
1A
102
}
100
AcDbDictionary
  3
STANDARD
350
1D
  0
MLINESTYLE
  5
1D
102
{ACAD_REACTORS
330
19
102
}
100
AcDbMlineStyle
  2
STANDARD
 70
     0
  3

 62
     0
 51
90.0
 52
90.0
 71
     2
 49
0.5
 62
   256
  6
BYLAYER
 49
-0.5
 62
   256
  6
BYLAYER
  0
ENDSEC
  0
EOF
