  0
SECTION
  2
HEADER
  9
$ACADVER
  1
AC1012
  9
$DWGCODEPAGE
  3
ansi_1252
  9
$INSBASE
 10
0.0
 20
0.0
 30
0.0
  9
$EXTMIN
 10
-414.8472077744528
 20
-162.9443719359641
 30
0.0
  9
$EXTMAX
 10
190.8467023940268
 20
162.9443719359641
 30
0.0
  9
$LIMMIN
 10
0.0
 20
0.0
  9
$LIMMAX
 10
420.0
 20
297.0
  9
$ORTHOMODE
 70
     1
  9
$REGENMODE
 70
     1
  9
$FILLMODE
 70
     1
  9
$QTEXTMODE
 70
     0
  9
$MIRRTEXT
 70
     1
  9
$DRAGMODE
 70
     2
  9
$LTSCALE
 40
15.0
  9
$OSMODE
 70
    39
  9
$ATTMODE
 70
     1
  9
$TEXTSIZE
 40
3.0
  9
$TRACEWID
 40
1.0
  9
$TEXTSTYLE
  7
SIMPLEX
  9
$CLAYER
  8
L1
  9
$CELTYPE
  6
BYLAYER
  9
$CECOLOR
 62
   256
  9
$CELTSCALE
 40
1.0
  9
$DELOBJ
 70
     1
  9
$DISPSILH
 70
     1
  9
$DIMSCALE
 40
1.0
  9
$DIMASZ
 40
3.5
  9
$DIMEXO
 40
0.1
  9
$DIMDLI
 40
0.38
  9
$DIMRND
 40
0.0
  9
$DIMDLE
 40
0.0
  9
$DIMEXE
 40
0.18
  9
$DIMTP
 40
0.0
  9
$DIMTM
 40
0.0
  9
$DIMTXT
 40
3.5
  9
$DIMCEN
 40
1.0
  9
$DIMTSZ
 40
0.0
  9
$DIMTOL
 70
     0
  9
$DIMLIM
 70
     0
  9
$DIMTIH
 70
     0
  9
$DIMTOH
 70
     0
  9
$DIMSE1
 70
     0
  9
$DIMSE2
 70
     0
  9
$DIMTAD
 70
     1
  9
$DIMZIN
 70
     8
  9
$DIMBLK
  1

  9
$DIMASO
 70
     1
  9
$DIMSHO
 70
     1
  9
$DIMPOST
  1

  9
$DIMAPOST
  1

  9
$DIMALT
 70
     0
  9
$DIMALTD
 70
     2
  9
$DIMALTF
 40
25.4
  9
$DIMLFAC
 40
1.0
  9
$DIMTOFL
 70
     1
  9
$DIMTVP
 40
0.0
  9
$DIMTIX
 70
     0
  9
$DIMSOXD
 70
     0
  9
$DIMSAH
 70
     0
  9
$DIMBLK1
  1

  9
$DIMBLK2
  1

  9
$DIMSTYLE
  2
FIBOX
  9
$DIMCLRD
 70
     1
  9
$DIMCLRE
 70
     1
  9
$DIMCLRT
 70
     3
  9
$DIMTFAC
 40
1.0
  9
$DIMGAP
 40
1.0
  9
$DIMJUST
 70
     0
  9
$DIMSD1
 70
     0
  9
$DIMSD2
 70
     0
  9
$DIMTOLJ
 70
     1
  9
$DIMTZIN
 70
     8
  9
$DIMALTZ
 70
     0
  9
$DIMALTTZ
 70
     0
  9
$DIMFIT
 70
     3
  9
$DIMUPT
 70
     0
  9
$DIMUNIT
 70
     2
  9
$DIMDEC
 70
     2
  9
$DIMTDEC
 70
     2
  9
$DIMALTU
 70
     2
  9
$DIMALTTD
 70
     2
  9
$DIMTXSTY
  7
SIMPLEX
  9
$DIMAUNIT
 70
     0
  9
$LUNITS
 70
     2
  9
$LUPREC
 70
     4
  9
$SKETCHINC
 40
1.0
  9
$FILLETRAD
 40
0.0
  9
$AUNITS
 70
     0
  9
$AUPREC
 70
     0
  9
$MENU
  1
.
  9
$ELEVATION
 40
-38.0
  9
$PELEVATION
 40
0.0
  9
$THICKNESS
 40
0.0
  9
$LIMCHECK
 70
     0
  9
$BLIPMODE
 70
     0
  9
$CHAMFERA
 40
10.0
  9
$CHAMFERB
 40
10.0
  9
$CHAMFERC
 40
0.0
  9
$CHAMFERD
 40
0.0
  9
$SKPOLY
 70
     0
  9
$TDCREATE
 40
2450511.539299583
  9
$TDUPDATE
 40
2450780.389978588
  9
$TDINDWG
 40
0.8248950347
  9
$TDUSRTIMER
 40
0.8248950347
  9
$USRTIMER
 70
     1
  9
$ANGBASE
 50
0.0
  9
$ANGDIR
 70
     0
  9
$PDMODE
 70
     0
  9
$PDSIZE
 40
0.0
  9
$PLINEWID
 40
0.0
  9
$COORDS
 70
     2
  9
$SPLFRAME
 70
     0
  9
$SPLINETYPE
 70
     6
  9
$SPLINESEGS
 70
     8
  9
$ATTDIA
 70
     0
  9
$ATTREQ
 70
     1
  9
$HANDLING
 70
     1
  9
$HANDSEED
  5
BB4
  9
$SURFTAB1
 70
     6
  9
$SURFTAB2
 70
     6
  9
$SURFTYPE
 70
     6
  9
$SURFU
 70
     6
  9
$SURFV
 70
     6
  9
$UCSNAME
  2

  9
$UCSORG
 10
0.0
 20
0.0
 30
0.0
  9
$UCSXDIR
 10
1.0
 20
0.0
 30
0.0
  9
$UCSYDIR
 10
0.0
 20
1.0
 30
0.0
  9
$PUCSNAME
  2

  9
$PUCSORG
 10
0.0
 20
0.0
 30
0.0
  9
$PUCSXDIR
 10
1.0
 20
0.0
 30
0.0
  9
$PUCSYDIR
 10
0.0
 20
1.0
 30
0.0
  9
$USERI1
 70
     0
  9
$USERI2
 70
     0
  9
$USERI3
 70
     0
  9
$USERI4
 70
     0
  9
$USERI5
 70
     0
  9
$USERR1
 40
0.0
  9
$USERR2
 40
0.0
  9
$USERR3
 40
0.0
  9
$USERR4
 40
0.0
  9
$USERR5
 40
0.0
  9
$WORLDVIEW
 70
     1
  9
$SHADEDGE
 70
     3
  9
$SHADEDIF
 70
    70
  9
$TILEMODE
 70
     1
  9
$MAXACTVP
 70
    16
  9
$PINSBASE
 10
0.0
 20
0.0
 30
0.0
  9
$PLIMCHECK
 70
     0
  9
$PEXTMIN
 10
1.000000000000000E+20
 20
1.000000000000000E+20
 30
1.000000000000000E+20
  9
$PEXTMAX
 10
-1.000000000000000E+20
 20
-1.000000000000000E+20
 30
-1.000000000000000E+20
  9
$PLIMMIN
 10
0.0
 20
0.0
  9
$PLIMMAX
 10
420.0
 20
297.0
  9
$UNITMODE
 70
     0
  9
$VISRETAIN
 70
     0
  9
$PLINEGEN
 70
     0
  9
$PSLTSCALE
 70
     1
  9
$TREEDEPTH
 70
  3020
  9
$PICKSTYLE
 70
     1
  9
$CMLSTYLE
  2
STANDARD
  9
$CMLJUST
 70
     0
  9
$CMLSCALE
 40
1.0
  9
$SAVEIMAGES
 70
     1
  0
ENDSEC
  0
SECTION
  2
CLASSES
  0
CLASS
  1
ACMESCOPE
  2
AcMeScope
  3
ACME_MODULE_NAME
 90
    32768
280
     1
281
     0
  0
CLASS
  1
ACMECOMMANDHISTORY
  2
AcMeCommandHistory
  3
ACME_MODULE_NAME
 90
    32768
280
     1
281
     0
  0
CLASS
  1
AcRfInsAdjusterMgr
  2
AcRfInsAdjusterMgr
  3
ACME_MODULE_NAME
 90
    32768
280
     1
281
     0
  0
CLASS
  1
ACGREFMASTER
  2
AcGrefMaster
  3
"AcadRfServer"
 90
    32768
280
     1
281
     0
  0
CLASS
  1
AmiMaster
  2
AmiMaster
  3
"AmiServices"
 90
    32768
280
     1
281
     0
  0
CLASS
  1
ACASGREFMASTER
  2
AcAsGrefMaster
  3
"AutoSurfResolver"
 90
    32768
280
     1
281
     0
  0
CLASS
  1
ADAPPL
  2
AcAdAppl
  3
"DesignerServices"
 90
    32768
280
     1
281
     0
  0
CLASS
  1
DEPMGR
  2
AcAdDepMgr
  3
"DesignerServices"
 90
    32768
280
     1
281
     0
  0
CLASS
  1
PARAMMGR
  2
AcAdParamMgr
  3
"DesignerServices"
 90
    32768
280
     1
281
     0
  0
CLASS
  1
PARAMSCOPE
  2
AcAdParamScope
  3
"DesignerServices"
 90
    32768
280
     1
281
     0
  0
CLASS
  1
"IM_SYSVAR_MAN"
  2
AcImSysVarManager
  3
"ADAM"
 90
    32768
280
     1
281
     0
  0
CLASS
  1
SYSTEM_VAR_INT
  2
AcImIntSysVar
  3
"ADAM"
 90
    32768
280
     1
281
     0
  0
CLASS
  1
SYSTEM_VAR_REAL
  2
AcImRealSysVar
  3
"ADAM"
 90
    32768
280
     1
281
     0
  0
CLASS
  1
SYSTEM_VAR_STR
  2
AcImStrSysVar
  3
"ADAM"
 90
    32768
280
     1
281
     0
  0
CLASS
  1
NAMEDAPPL
  2
AcAdNamedAppl
  3
"DesignerServices"
 90
    32768
280
     1
281
     0
  0
CLASS
  1
ADPART
  2
AcAdPart
  3
"DesignerServices"
 90
    32768
280
     1
281
     1
  0
CLASS
  1
ADBASE
  2
AcAdBase
  3
"DesignerServices"
 90
    32768
280
     1
281
     0
  0
CLASS
  1
BODYID
  2
AcAdBodyId
  3
"DesignerServices"
 90
    32768
280
     1
281
     0
  0
CLASS
  1
WORKPLANEDISPLAYMGR
  2
AcAdDisplayMgr
  3
"DesignerServices"
 90
    32768
280
     1
281
     0
  0
CLASS
  1
ADHNTMPLT
  2
AdHoleNoteTemplateMgr
  3
"DesignerServices"
 90
    32768
280
     1
281
     0
  0
CLASS
  1
AM_HNTEMPLATE_MGR_NAME
  2
AdHoleNoteTemplateMgrName
  3
"DesignerServices"
 90
    32768
280
     1
281
     0
  0
CLASS
  1
AcAdGrefModule
  2
AcAdGrefModule
  3
AD_GREF_SERVICES_NSTR
 90
    32768
280
     1
281
     0
  0
CLASS
  1
AM_DRAWING_MGR
  2
AcDmDwgMgr
  3
"Designer_Drawing_Mgmt"
 90
    32768
280
     1
281
     0
  0
CLASS
  1
AM_DWG_DOCUMENT
  2
AcDmDwgDocument
  3
"Designer_Drawing_Mgmt"
 90
    32768
280
     1
281
     0
  0
CLASS
  1
AM_DWG_SHEET
  2
AcDmSheet
  3
"Designer_Drawing_Mgmt"
 90
    32768
280
     1
281
     0
  0
CLASS
  1
AM_VIEWDIMPARMAP
  2
AcDmViewDimParMap
  3
"Designer_Drawing_Mgmt"
 90
    32768
280
     1
281
     0
  0
CLASS
  1
AM_DWGMGR_NAME
  2
AcDmDwgMgrName
  3
"Designer_Drawing_Mgmt"
 90
    32768
280
     1
281
     0
  0
CLASS
  1
ACAMPROJECT
  2
AcAmProject
  3
"DesignerAssemblies"
 90
    32768
280
     1
281
     0
  0
CLASS
  1
ACAMGRCOMPDEF
  2
AcAmGrCompDef
  3
"DesignerAssemblies"
 90
    32768
280
     1
281
     0
  0
CLASS
  1
ACAMCOMPDEF
  2
AcAmCompDef
  3
"DesignerAssemblies"
 90
    32768
280
     1
281
     0
  0
CLASS
  1
ACAMCOMPDEFMGR
  2
AcAmCompDefMgr
  3
"DesignerAssemblies"
 90
    32768
280
     1
281
     0
  0
CLASS
  1
AMCONTEXTMGR
  2
AcAmContextMgr
  3
"DesignerAssemblies"
 90
    32768
280
     1
281
     0
  0
CLASS
  1
AcAmContextModeler
  2
AcAmContextModeler
  3
"DesignerAssemblies"
 90
    32768
280
     1
281
     0
  0
CLASS
  1
ACAMDRAWINGMAN
  2
AcAmDrawingMan
  3
"DesignerAssemblies"
 90
    32768
280
     1
281
     0
  0
CLASS
  1
ASSYSVARS
  2
AcAsSysVars
  3
"AutoSurf"
 90
    32768
280
     1
281
     0
  0
CLASS
  1
ASSTATICVARS
  2
AcAsStaticVars
  3
"AutoSurf"
 90
    32768
280
     1
281
     0
  0
CLASS
  1
ASAPP
  2
AcAsAppObject
  3
"AutoSurf"
 90
    32768
280
     1
281
     0
  0
CLASS
  1
AGDICTIONARY
  2
AgDictionary
  3
"AccelView"
 90
    32768
280
     1
281
     0
  0
CLASS
  1
ADDATUMPLANEABS
  2
AcAdDatumPlaneAbs
  3
"DesignerServices"
 90
    32768
280
     1
281
     0
  0
CLASS
  1
ADDATUMAXISABS
  2
AcAdDatumAxisAbs
  3
"DesignerServices"
 90
    32768
280
     1
281
     0
  0
CLASS
  1
ADDATUMORIENTEDPLANE
  2
AcAdDatumOrientedPlane
  3
"DesignerServices"
 90
    32768
280
     1
281
     0
  0
CLASS
  1
ACADPLLINEACAD
  2
AcAdVirtualLinePlineAcad
  3
"DesignerServices"
 90
    32768
280
     1
281
     0
  0
CLASS
  1
ACADREFLINEACAD
  2
AcAdVirtualReferenceLine
  3
"DesignerServices"
 90
    32768
280
     1
281
     0
  0
CLASS
  1
ACADCONSLINE
  2
AcAdConstrainedLine
  3
"DesignerServices"
 90
    32768
280
     1
281
     0
  0
CLASS
  1
ACADCONSGROUP
  2
AcAdConstraintGroup
  3
"DesignerServices"
 90
    32768
280
     1
281
     0
  0
CLASS
  1
ACADIMPPTACAD
  2
AcAdVirtualImplicitPoint
  3
"DesignerServices"
 90
    32768
280
     1
281
     0
  0
CLASS
  1
ACADCONSPOINT
  2
AcAdConstrainedPoint
  3
"DesignerServices"
 90
    32768
280
     1
281
     0
  0
CLASS
  1
ADPCURCNS
  2
AcAdPointCurveConstr
  3
"DesignerServices"
 90
    32768
280
     1
281
     0
  0
CLASS
  1
ADVERCNS
  2
AcAdVerticalConstr
  3
"DesignerServices"
 90
    32768
280
     1
281
     0
  0
CLASS
  1
ADHORCNS
  2
AcAdHorizontalConstr
  3
"DesignerServices"
 90
    32768
280
     1
281
     0
  0
CLASS
  1
ADCLPROF2D
  2
AcAdClosedProfile2d
  3
"DesignerServices"
 90
    32768
280
     1
281
     0
  0
CLASS
  1
ADCONSDISP
  2
AcAdConstraintDisplay
  3
"DesignerServices"
 90
    32768
280
     1
281
     1
  0
CLASS
  1
ADCONSTDSP
  2
AcAdConstraintDisplayTag
  3
"DesignerServices"
 90
    32768
280
     1
281
     1
  0
CLASS
  1
ADPARCNS
  2
AcAdParallelConstr
  3
"DesignerServices"
 90
    32768
280
     1
281
     0
  0
CLASS
  1
PARAM
  2
AcAdParam
  3
"DesignerServices"
 90
    32768
280
     1
281
     0
  0
CLASS
  1
ADVDISTCNS
  2
AcAdLinearDistanceConstr
  3
"DesignerServices"
 90
    32768
280
     1
281
     0
  0
CLASS
  1
ACMELINEARARROW
  2
AcImLinearArrowDisplay
  3
ACME_MODULE_NAME
 90
    32768
280
     1
281
     1
  0
CLASS
  1
ADEXTRUSIONBLIND
  2
AcAdExtrusionBlind
  3
"DesignerServices"
 90
    32768
280
     1
281
     0
  0
CLASS
  1
ACADCIRCLEACAD
  2
AcAdVirtualCircleAcad
  3
"DesignerServices"
 90
    32768
280
     1
281
     0
  0
CLASS
  1
ACADCONSCIRCLE
  2
AcAdConstrainedCircle
  3
"DesignerServices"
 90
    32768
280
     1
281
     0
  0
CLASS
  1
ADCTRPTCNS
  2
AcAdCenterPointConstr
  3
"DesignerServices"
 90
    32768
280
     1
281
     0
  0
CLASS
  1
ADDIACNS
  2
AcAdAcadDiameterConstr
  3
"DesignerServices"
 90
    32768
280
     1
281
     0
  0
CLASS
  1
HVREFID
  2
AcAdHVRefId
  3
"DesignerServices"
 90
    32768
280
     1
281
     0
  0
CLASS
  1
ACADLINEDEPID
  2
AcAdVirtualPointDepId
  3
"DesignerServices"
 90
    32768
280
     1
281
     0
  0
CLASS
  1
ADVDISTCNS
  2
AcAdVerticalDistanceConstr
  3
"DesignerServices"
 90
    32768
280
     1
281
     0
  0
CLASS
  1
ADHDISTCNS
  2
AcAdHorizontalDistanceConstr
  3
"DesignerServices"
 90
    32768
280
     1
281
     0
  0
CLASS
  1
ADFEATRECTARRAY
  2
AcAdRectangularFeatArray
  3
"DesignerServices"
 90
    32768
280
     1
281
     0
  0
CLASS
  1
ADPLANEID
  2
AcAdPlaneId
  3
"DesignerServices"
 90
    32768
280
     1
281
     0
  0
CLASS
  1
ADDATUMPLANEFACE
  2
AcAdDatumPlaneFace
  3
"DesignerServices"
 90
    32768
280
     1
281
     0
  0
CLASS
  1
ADSTRAIGHTID
  2
AcAdStraightId
  3
"DesignerServices"
 90
    32768
280
     1
281
     0
  0
CLASS
  1
ADDATUMAXISEDGE
  2
AcAdDatumAxisEdge
  3
"DesignerServices"
 90
    32768
280
     1
281
     0
  0
CLASS
  1
ACADPLARCACAD
  2
AcAdVirtualArcPlineAcad
  3
"DesignerServices"
 90
    32768
280
     1
281
     0
  0
CLASS
  1
ADCOLNCNS
  2
AcAdColinearConstr
  3
"DesignerServices"
 90
    32768
280
     1
281
     0
  0
CLASS
  1
ADTANCNS
  2
AcAdTangentConstr
  3
"DesignerServices"
 90
    32768
280
     1
281
     0
  0
CLASS
  1
ADEQRADCNS
  2
AcAdEqualRadiusConstr
  3
"DesignerServices"
 90
    32768
280
     1
281
     0
  0
CLASS
  1
STREFID
  2
AcAdStraightRefId
  3
"DesignerServices"
 90
    32768
280
     1
281
     0
  0
CLASS
  1
ACADLINEDEPID
  2
AcAdVirtualLineDepId
  3
"DesignerServices"
 90
    32768
280
     1
281
     0
  0
CLASS
  1
RAYREFID
  2
AcAdRayRefId
  3
"DesignerServices"
 90
    32768
280
     1
281
     0
  0
CLASS
  1
ADPDISTCNS
  2
AcAdParallelDistanceConstr
  3
"DesignerServices"
 90
    32768
280
     1
281
     0
  0
CLASS
  1
ADRADCNS
  2
AcAdAcadRadiusConstr
  3
"DesignerServices"
 90
    32768
280
     1
281
     0
  0
CLASS
  1
ADPERPCNS
  2
AcAdPerpendicularConstr
  3
"DesignerServices"
 90
    32768
280
     1
281
     0
  0
CLASS
  1
CIRREFID
  2
AcAdCircleRefId
  3
"DesignerServices"
 90
    32768
280
     1
281
     0
  0
CLASS
  1
ACADCIRCDEPID
  2
AcAdVirtualCircleDepId
  3
"DesignerServices"
 90
    32768
280
     1
281
     0
  0
CLASS
  1
ADPLANEID
  2
AcAdSurfGeomId
  3
"DesignerServices"
 90
    32768
280
     1
281
     0
  0
CLASS
  1
ADDATUMAXISCENTER
  2
AcAdDatumAxisCenter
  3
"DesignerServices"
 90
    32768
280
     1
281
     0
  0
CLASS
  1
ADDATUMPOINTAXISPLANE
  2
AcAdDatumPointAxisPlane
  3
"DesignerServices"
 90
    32768
280
     1
281
     0
  0
CLASS
  1
ADHOLEFEAT
  2
AcAdHoleFeat
  3
"DesignerServices"
 90
    32768
280
     1
281
     0
  0
CLASS
  1
ADCONCCNS
  2
AcAdConcentricConstr
  3
"DesignerServices"
 90
    32768
280
     1
281
     0
  0
CLASS
  1
ADEXTRUSIONTOPLANE
  2
AcAdExtrusionToPlane
  3
"DesignerServices"
 90
    32768
280
     1
281
     0
  0
CLASS
  1
ADBDISTCNS
  2
AcAdAcadAngleConstr
  3
"DesignerServices"
 90
    32768
280
     1
281
     0
  0
CLASS
  1
ADPATH2D
  2
AcAdPath2d
  3
"DesignerServices"
 90
    32768
280
     1
281
     0
  0
CLASS
  1
DATUMPLANEDISPLAY
  2
AcAdDatumPlaneDisplay
  3
"DesignerServices"
 90
    32768
280
     1
281
     1
  0
CLASS
  1
ADDATUMPLANEXSECT
  2
AcAdDatumPlaneXSect
  3
"DesignerServices"
 90
    32768
280
     1
281
     0
  0
CLASS
  1
DATUMPOINTDISPLAY
  2
AcAdDatumPointDisplay
  3
"DesignerServices"
 90
    32768
280
     1
281
     1
  0
CLASS
  1
ADDATUMPOINTPATHSTART
  2
AcAdDatumPointPathStart
  3
"DesignerServices"
 90
    32768
280
     1
281
     0
  0
CLASS
  1
ACADVIRTUALPOINTDATUMID
  2
AcAdVirtualPointDatumId
  3
"DesignerServices"
 90
    32768
280
     1
281
     0
  0
CLASS
  1
ADSWEEP
  2
AcAdSweep
  3
"DesignerServices"
 90
    32768
280
     1
281
     0
  0
CLASS
  1
ADEXTRUSIONTHRU
  2
AcAdExtrusionThru
  3
"DesignerServices"
 90
    32768
280
     1
281
     0
  0
CLASS
  1
EDGEID
  2
AcAdEdgeId
  3
"DesignerServices"
 90
    32768
280
     1
281
     0
  0
CLASS
  1
ADFILLET
  2
AcAdFillet
  3
"DesignerServices"
 90
    32768
280
     1
281
     0
  0
CLASS
  1
AM_VIEW_SELECT_FILTER
  2
AcDmActivePartViewEntFilter
  3
"Designer_Drawing_Mgmt"
 90
    32768
280
     1
281
     0
  0
CLASS
  1
AM_ABS_PLANE
  2
AcDmAbsPlnDef
  3
DM_MODULE_NAME
 90
    32768
280
     1
281
     0
  0
CLASS
  1
AM_ABS_AXIS
  2
AcDmAbsAxisDef
  3
DM_MODULE_NAME
 90
    32768
280
     1
281
     0
  0
CLASS
  1
AM_BASE_VIEW_ORIENT
  2
AcDmBaseViewOr
  3
"Designer_Drawing_Mgmt"
 90
    32768
280
     1
281
     0
  0
CLASS
  1
AM_DWG_VIEWPORT
  2
AcDmViewport
  3
"Designer_Drawing_Mgmt"
 90
    32768
280
     1
281
     0
  0
CLASS
  1
AM_VIEW_DISPLAY
  2
AcDmDwgViewDisplay
  3
"Designer_Drawing_Mgmt"
 90
    32768
280
     1
281
     0
  0
CLASS
  1
AM_BASE_VIEW
  2
AcDmBaseView
  3
"Designer_Drawing_Mgmt"
 90
    32768
280
     1
281
     0
  0
CLASS
  1
ACDMVWEDSPLINE
  2
AcDmViewEdgeSpline
  3
"Designer_Drawing_Mgmt"
 90
    32768
280
     1
281
     1
  0
CLASS
  1
ACDMVWEDARC
  2
AcDmViewEdgeArc
  3
"Designer_Drawing_Mgmt"
 90
    32768
280
     1
281
     1
  0
CLASS
  1
ACDMVWEDLINE
  2
AcDmViewEdgeLine
  3
"Designer_Drawing_Mgmt"
 90
    32768
280
     1
281
     1
  0
CLASS
  1
ACDMVWEDCIRC
  2
AcDmViewEdgeCircle
  3
"Designer_Drawing_Mgmt"
 90
    32768
280
     1
281
     1
  0
CLASS
  1
ACADSKETCHPOINTRES
  2
AcAdSketchPointRes
  3
"DesignerServices"
 90
    32768
280
     1
281
     0
  0
CLASS
  1
ACADSKETCHCIRCARCRES
  2
AcAdSketchCircArcRes
  3
"DesignerServices"
 90
    32768
280
     1
281
     0
  0
CLASS
  1
ACADSKETCHLINERES
  2
AcAdSketchLineRes
  3
"DesignerServices"
 90
    32768
280
     1
281
     0
  0
CLASS
  1
AM_VIEWDIMLINEAR
  2
AcDmViewDimLinear
  3
"Designer_Drawing_Mgmt"
 90
    32768
280
     1
281
     0
  0
CLASS
  1
AM_VIEWDIMDIAMETER
  2
AcDmViewDimDiameter
  3
"Designer_Drawing_Mgmt"
 90
    32768
280
     1
281
     0
  0
CLASS
  1
AM_VIEWDIMRADIUS
  2
AcDmViewDimRadius
  3
"Designer_Drawing_Mgmt"
 90
    32768
280
     1
281
     0
  0
CLASS
  1
AM_VIEWDIMPARALLEL
  2
AcDmViewDimParallel
  3
"Designer_Drawing_Mgmt"
 90
    32768
280
     1
281
     0
  0
CLASS
  1
AM_VIEWDIMANGULAR
  2
AcDmViewDimAngular
  3
"Designer_Drawing_Mgmt"
 90
    32768
280
     1
281
     0
  0
CLASS
  1
AcAdPartCircEdgRES
  2
AcAdPartCircEdgRes
  3
AD_GREF_SERVICES_NSTR
 90
    32768
280
     1
281
     0
  0
CLASS
  1
AM_DETAIL_VIEW
  2
AcDmDetailView
  3
"Designer_Drawing_Mgmt"
 90
    32768
280
     1
281
     0
  0
CLASS
  1
AM_DETAILSYMBOL
  2
AcDmDetailSymbol
  3
"Designer_Drawing_Mgmt"
 90
    32768
280
     1
281
     0
  0
CLASS
  1
AM_DETAILVWLBL
  2
AcDmDetailViewLabel
  3
"Designer_Drawing_Mgmt"
 90
    32768
280
     1
281
     0
  0
CLASS
  1
ACADPARTLINEDGRES
  2
AcAdPartLinEdgRes
  3
AD_GREF_SERVICES_NSTR
 90
    32768
280
     1
281
     0
  0
CLASS
  1
CNRREFID
  2
AcAdCornerId
  3
"DesignerServices"
 90
    32768
280
     1
281
     0
  0
CLASS
  1
ACADPARTPOINTRES
  2
AcAdPartPointRes
  3
AD_GREF_SERVICES_NSTR
 90
    32768
280
     1
281
     0
  0
CLASS
  1
ACDMVISEDIT
  2
AcDmViewEntityVisEdit
  3
"Designer_Drawing_Mgmt"
 90
    32768
280
     1
281
     0
  0
CLASS
  1
ACAMGRCOMPSET
  2
AcAmGrCompSet
  3
DesignerAssemblies
 90
    32768
280
     1
281
     0
  0
CLASS
  1
ACAMGRCOMPDEFSET
  2
AcAmGrCompDefSet
  3
DesignerAssemblies
 90
    32768
280
     1
281
     0
  0
CLASS
  1
ACDMVIEWGEOM
  2
AcDmViewGeometry
  3
AcMechDwgViewMgmt
 90
    32768
280
     1
281
     1
  0
CLASS
  1
ACADCIRCLEACAD
  2
AcAdVirtualVertex
  3
DesignerServices
 90
    32768
280
     1
281
     0
  0
CLASS
  1
ACADCIRCLEACAD
  2
AcAdVirtualContainer
  3
DesignerServices
 90
    32768
280
     1
281
     0
  0
CLASS
  1
AM_ORTHO_VIEW_ORIENT
  2
AcDmOrthoViewOr
  3
AcMechDwgViewMgmt
 90
    32768
280
     1
281
     0
  0
CLASS
  1
AM_ORTHO_VIEW
  2
AcDmOrthoView
  3
AcMechDwgViewMgmt
 90
    32768
280
     1
281
     0
  0
CLASS
  1
ACADPartSketchPlaneAxisRes
  2
AcAdPartSketchPlaneAxisRes
  3
DesignerServices
 90
    32768
280
     1
281
     0
  0
CLASS
  1
AM_FULLPOINTSECTION
  2
AcDmFullPointSection
  3
AcMechDwgViewMgmt
 90
    32768
280
     1
281
     0
  0
CLASS
  1
AM_SECTIONSYMBOL
  2
AcDmSectionSymbol
  3
AcMechDwgViewMgmt
 90
    32768
280
     1
281
     0
  0
CLASS
  1
AM_VIEWLABEL
  2
AcDmViewLabel
  3
AcMechDwgViewMgmt
 90
    32768
280
     1
281
     0
  0
CLASS
  1
ACRFATTGENMGR
  2
AcRfAttGeneralMgr
  3
"AcadRfServer"
 90
    32768
280
     1
281
     0
  0
CLASS
  1
AM_ISO_VIEW_ORIENT
  2
AcDmIsoViewOr
  3
AcMechDwgViewMgmt
 90
    32768
280
     1
281
     0
  0
CLASS
  1
AM_ISO_VIEW
  2
AcDmIsoView
  3
AcMechDwgViewMgmt
 90
    32768
280
     1
281
     0
  0
CLASS
  1
FACEID
  2
AcAdFaceId
  3
DesignerServices
 90
    32768
280
     1
281
     0
  0
CLASS
  1
ACADPARTPLANARFACERES
  2
AcAdPartPlanarFaceRes
  3
AD_GREF_SERVICES_NSTR
 90
    32768
280
     1
281
     0
  0
CLASS
  1
ACDMGREFEDIT
  2
AcDmViewEntityGeomrefEdit
  3
AcMechDwgViewMgmt
 90
    32768
280
     1
281
     0
  0
CLASS
  1
AcDmViewLinEdgeRes
  2
AcDmViewLinEdgeRes
  3
AD_GREF_SERVICES
 90
    32768
280
     1
281
     0
  0
CLASS
  1
LWPOLYLINE
  2
AcDbPolyline
  3
"AutoCAD"
 90
    32768
280
     0
281
     1
  0
CLASS
  1
DxfZombieEntity
  2
AcDbDxfZombieEntity
  3
AutoCAD
 90
        0
280
     1
281
     1
  0
CLASS
  1
DxfZombieObject
  2
AcDbDxfZombieObject
  3
AutoCAD
 90
        0
280
     1
281
     0
  0
ENDSEC
  0
SECTION
  2
TABLES
  0
TABLE
  2
VPORT
  5
12
100
AcDbSymbolTable
 70
     3
  0
VPORT
  5
BB3
100
AcDbSymbolTableRecord
100
AcDbViewportTableRecord
  2
*ACTIVE
 70
     0
 10
0.0
 20
0.0
 11
1.0
 21
1.0
 12
350.7468826391051
 22
-324.3275487181371
 13
0.0
 23
0.0
 14
10.0
 24
10.0
 15
10.0
 25
10.0
 16
0.0
 26
0.0
 36
1.0
 17
-464.0498466737855
 27
318.6705818256664
 37
39.31761164460409
 40
375.0000006093445
 41
1.672965116279069
 42
50.0
 43
0.0
 44
0.0
 50
0.0
 51
0.0
 71
     0
 72
   500
 73
     1
 74
     1
 75
     0
 76
     0
 77
     0
 78
     0
  0
ENDTAB
  0
TABLE
  2
LTYPE
  5
D
100
AcDbSymbolTable
 70
     3
  0
LTYPE
  5
E
100
AcDbSymbolTableRecord
100
AcDbLinetypeTableRecord
  2
BYBLOCK
 70
    64
  3

 72
    65
 73
     0
 40
0.0
  0
LTYPE
  5
F
100
AcDbSymbolTableRecord
100
AcDbLinetypeTableRecord
  2
BYLAYER
 70
    64
  3

 72
    65
 73
     0
 40
0.0
  0
LTYPE
  5
5
100
AcDbSymbolTableRecord
100
AcDbLinetypeTableRecord
  2
CONTINUOUS
 70
    64
  3
Solid line
 72
    65
 73
     0
 40
0.0
  0
LTYPE
  5
21
100
AcDbSymbolTableRecord
100
AcDbLinetypeTableRecord
  2
HIDDEN
 70
    64
  3
__ __ __ __ __ __ __ __ __ __ __ __ __ __ __ __
 72
    65
 73
     2
 40
0.375
 49
0.25
 74
     0
 49
-0.125
 74
     0
  0
LTYPE
  5
2C
100
AcDbSymbolTableRecord
100
AcDbLinetypeTableRecord
  2
CENTER
 70
    64
  3
____ _ ____ _ ____ _ ____ _ ____ _ ____ _ ____ 
 72
    65
 73
     4
 40
2.0
 49
1.25
 74
     0
 49
-0.25
 74
     0
 49
0.25
 74
     0
 49
-0.25
 74
     0
  0
ENDTAB
  0
TABLE
  2
LAYER
  5
A
100
AcDbSymbolTable
 70
     4
  0
LAYER
  5
4
100
AcDbSymbolTableRecord
100
AcDbLayerTableRecord
  2
0
 70
    64
 62
     7
  6
CONTINUOUS
  0
LAYER
  5
1B
100
AcDbSymbolTableRecord
100
AcDbLayerTableRecord
  2
L1
 70
    64
 62
     7
  6
CONTINUOUS
  0
LAYER
  5
20
100
AcDbSymbolTableRecord
100
AcDbLayerTableRecord
  2
L2
 70
    64
 62
     1
  6
HIDDEN
  0
LAYER
  5
2B
100
AcDbSymbolTableRecord
100
AcDbLayerTableRecord
  2
L6
 70
    64
 62
     1
  6
CENTER
  0
ENDTAB
  0
TABLE
  2
STYLE
  5
B
100
AcDbSymbolTable
 70
     2
  0
STYLE
  5
C
100
AcDbSymbolTableRecord
100
AcDbTextStyleTableRecord
  2
STANDARD
 70
    64
 40
0.0
 41
1.0
 50
0.0
 71
     0
 42
2.5
  3
ISOCP
  4

  0
STYLE
  5
1C
100
AcDbSymbolTableRecord
100
AcDbTextStyleTableRecord
  2
SIMPLEX
 70
    64
 40
0.0
 41
0.8
 50
0.0
 71
     0
 42
3.0
  3
SIMPLEX.SHX
  4

  0
ENDTAB
  0
TABLE
  2
VIEW
  5
10
100
AcDbSymbolTable
 70
     0
  0
ENDTAB
  0
TABLE
  2
UCS
  5
11
100
AcDbSymbolTable
 70
     0
  0
ENDTAB
  0
TABLE
  2
APPID
  5
14
100
AcDbSymbolTable
 70
     1
  0
APPID
  5
15
100
AcDbSymbolTableRecord
100
AcDbRegAppTableRecord
  2
ACAD
 70
    64
  0
ENDTAB
  0
TABLE
  2
DIMSTYLE
  5
16
100
AcDbSymbolTable
 70
     1
  0
DIMSTYLE
105
1E
100
AcDbSymbolTableRecord
100
AcDbDimStyleTableRecord
  2
FIBOX
 70
    64
  3

  4

  5

  6

  7

 40
1.0
 41
3.5
 42
0.1
 43
0.38
 44
0.18
 45
0.0
 46
0.0
 47
0.0
 48
0.0
140
3.5
141
1.0
142
0.0
143
25.4
144
1.0
145
0.0
146
1.0
147
1.0
 71
     0
 72
     0
 73
     0
 74
     0
 75
     0
 76
     0
 77
     1
 78
     8
170
     0
171
     2
172
     1
173
     0
174
     0
175
     0
176
     1
177
     1
178
     3
270
     2
271
     2
272
     2
273
     2
274
     2
340
1C
275
     0
280
     0
281
     0
282
     0
283
     1
284
     8
285
     0
286
     0
287
     3
288
     0
  0
ENDTAB
  0
TABLE
  2
BLOCK_RECORD
  5
1
100
AcDbSymbolTable
 70
     0
  0
BLOCK_RECORD
  5
2
100
AcDbSymbolTableRecord
100
AcDbBlockTableRecord
  2
*MODEL_SPACE
  0
BLOCK_RECORD
  5
7
100
AcDbSymbolTableRecord
100
AcDbBlockTableRecord
  2
*PAPER_SPACE
  0
ENDTAB
  0
ENDSEC
  0
SECTION
  2
BLOCKS
  0
BLOCK
  5
3
100
AcDbEntity
  8
0
100
AcDbBlockBegin
  2
*MODEL_SPACE
 70
    64
 10
0.0
 20
0.0
 30
0.0
  3
*MODEL_SPACE
  1

  0
ENDBLK
  5
6
100
AcDbEntity
  8
0
100
AcDbBlockEnd
  0
BLOCK
  5
8
100
AcDbEntity
 67
     1
  8
0
100
AcDbBlockBegin
  2
*PAPER_SPACE
 70
    64
 10
0.0
 20
0.0
 30
0.0
  3
*PAPER_SPACE
  1

  0
ENDBLK
  5
9
100
AcDbEntity
 67
     1
  8
0
100
AcDbBlockEnd
  0
ENDSEC
  0
SECTION
  2
ENTITIES
  0
LINE
  5
22
100
AcDbEntity
  8
L2
100
AcDbLine
 10
2.829873882832814
 20
116.444371935964
 30
0.0
 11
-3.11421684787065
 21
116.444371935964
 31
0.0
  0
LINE
  5
23
100
AcDbEntity
  8
L2
100
AcDbLine
 10
-72.54856408162492
 20
108.9443719359641
 30
0.0
 11
72.54856408162502
 21
108.9443719359641
 31
0.0
  0
POLYLINE
  5
27
100
AcDbEntity
  8
L1
100
AcDb2dPolyline
 66
     1
 10
0.0
 20
0.0
 30
0.0
  0
VERTEX
  5
3F4
100
AcDbEntity
  8
L1
100
AcDbVertex
100
AcDb2dVertex
 10
2.185636459890133
 20
-42.9860370115347
 30
0.0
  0
VERTEX
  5
3F5
100
AcDbEntity
  8
L1
100
AcDbVertex
100
AcDb2dVertex
 10
2.299553275056894
 20
-42.98595766314386
 30
0.0
  0
VERTEX
  5
3F6
100
AcDbEntity
  8
L1
100
AcDbVertex
100
AcDb2dVertex
 10
2.410131526208147
 20
-42.98571019259301
 30
0.0
  0
VERTEX
  5
3F7
100
AcDbEntity
  8
L1
100
AcDbVertex
100
AcDb2dVertex
 10
2.496513979689893
 20
-42.98536492213341
 30
0.0
  0
VERTEX
  5
3F8
100
AcDbEntity
  8
L1
100
AcDbVertex
100
AcDb2dVertex
 10
2.573897349308197
 20
-42.98488604447314
 30
0.0
  0
VERTEX
  5
3F9
100
AcDbEntity
  8
L1
100
AcDbVertex
100
AcDb2dVertex
 10
2.629295732131311
 20
-42.98437165134131
 30
0.0
  0
VERTEX
  5
3FA
100
AcDbEntity
  8
L1
100
AcDbVertex
100
AcDb2dVertex
 10
2.671185009004034
 20
-42.98376902709825
 30
0.0
  0
VERTEX
  5
3FB
100
AcDbEntity
  8
L1
100
AcDbVertex
100
AcDb2dVertex
 10
2.694327222759
 20
-42.98317231306484
 30
0.0
  0
VERTEX
  5
3FC
100
AcDbEntity
  8
L1
100
AcDbVertex
100
AcDb2dVertex
 10
2.701853931434072
 20
-42.98263764152525
 30
0.0
  0
SEQEND
  5
3FD
100
AcDbEntity
  8
L1
  0
ARC
  5
28
100
AcDbEntity
  8
L1
100
AcDbCircle
 10
0.0000000000000568
 20
-44.99999999999997
 30
0.0
 40
3.403605588231097
100
AcDbArc
 50
36.5708941476372
 51
143.4291058523614
  0
CIRCLE
  5
29
100
AcDbEntity
  8
L1
100
AcDbCircle
 10
0.0000000000000568
 20
-44.99999999999997
 30
0.0
 40
4.591897474510698
  0
LINE
  5
2A
100
AcDbEntity
  8
L6
100
AcDbLine
 10
-99.99857870842312
 20
0.0
 30
0.0
 11
99.99857870842312
 21
0.0
 31
0.0
  0
LINE
  5
2D
100
AcDbEntity
  8
L1
100
AcDbLine
 10
90.04480917893463
 20
154.3495627570294
 30
0.0
 11
-90.04480917893465
 21
154.3495627570295
 31
0.0
  0
LINE
  5
2E
100
AcDbEntity
  8
L1
100
AcDbLine
 10
-89.44999999999993
 20
154.9443719359641
 30
0.0
 11
89.44999999999991
 21
154.9443719359641
 31
0.0
  0
LINE
  5
2F
100
AcDbEntity
  8
L1
100
AcDbLine
 10
-75.42529180160494
 20
105.9443719359641
 30
0.0
 11
75.1409488365671
 21
105.9443719359641
 31
0.0
  0
LINE
  5
30
100
AcDbEntity
  8
L1
100
AcDbLine
 10
72.15000000000003
 20
-64.27268985814084
 30
0.0
 11
-72.14999999999998
 21
-64.27268985814087
 31
0.0
  0
LINE
  5
31
100
AcDbEntity
  8
L1
100
AcDbLine
 10
-72.14999999999998
 20
64.27268985814098
 30
0.0
 11
72.15000000000006
 21
64.27268985814098
 31
0.0
  0
LINE
  5
32
100
AcDbEntity
  8
L1
100
AcDbLine
 10
86.55000000000006
 20
64.44999999999996
 30
0.0
 11
-86.54999999999995
 21
64.44999999999996
 31
0.0
  0
LINE
  5
33
100
AcDbEntity
  8
L1
100
AcDbLine
 10
-86.54494244821
 20
65.04480917893468
 30
0.0
 11
86.54494244821027
 21
65.04480917893468
 31
0.0
  0
LINE
  5
34
100
AcDbEntity
  8
L1
100
AcDbLine
 10
86.54494244821012
 20
-65.04480917893471
 30
0.0
 11
-86.54494244821007
 21
-65.04480917893474
 31
0.0
  0
LINE
  5
35
100
AcDbEntity
  8
L1
100
AcDbLine
 10
-86.54999999999995
 20
-64.45000000000002
 30
0.0
 11
86.55000000000006
 21
-64.44999999999999
 31
0.0
  0
LINE
  5
36
100
AcDbEntity
  8
L1
100
AcDbLine
 10
-71.94858692778655
 20
59.02063810469465
 30
0.0
 11
71.94858692778663
 21
59.02063810469465
 31
0.0
  0
CIRCLE
  5
37
100
AcDbEntity
  8
L1
100
AcDbCircle
 10
0.0000000000000568
 20
44.99999999999997
 30
0.0
 40
4.591897474510698
  0
ARC
  5
38
100
AcDbEntity
  8
L1
100
AcDbCircle
 10
0.0000000000000568
 20
44.99999999999997
 30
0.0
 40
3.403605588231097
100
AcDbArc
 50
216.5708941476386
 51
323.4291058523627
  0
POLYLINE
  5
39
100
AcDbEntity
  8
L1
100
AcDb2dPolyline
 66
     1
 10
0.0
 20
0.0
 30
0.0
  0
VERTEX
  5
3FE
100
AcDbEntity
  8
L1
100
AcDbVertex
100
AcDb2dVertex
 10
2.185636459890133
 20
42.9860370115347
 30
0.0
  0
VERTEX
  5
3FF
100
AcDbEntity
  8
L1
100
AcDbVertex
100
AcDb2dVertex
 10
2.299553275056894
 20
42.98595766314386
 30
0.0
  0
VERTEX
  5
400
100
AcDbEntity
  8
L1
100
AcDbVertex
100
AcDb2dVertex
 10
2.410131526208147
 20
42.98571019259301
 30
0.0
  0
VERTEX
  5
401
100
AcDbEntity
  8
L1
100
AcDbVertex
100
AcDb2dVertex
 10
2.496513979689893
 20
42.98536492213341
 30
0.0
  0
VERTEX
  5
402
100
AcDbEntity
  8
L1
100
AcDbVertex
100
AcDb2dVertex
 10
2.573897349308197
 20
42.98488604447314
 30
0.0
  0
VERTEX
  5
403
100
AcDbEntity
  8
L1
100
AcDbVertex
100
AcDb2dVertex
 10
2.629295732131311
 20
42.98437165134131
 30
0.0
  0
VERTEX
  5
404
100
AcDbEntity
  8
L1
100
AcDbVertex
100
AcDb2dVertex
 10
2.671185009004034
 20
42.98376902709825
 30
0.0
  0
VERTEX
  5
405
100
AcDbEntity
  8
L1
100
AcDbVertex
100
AcDb2dVertex
 10
2.694327222759
 20
42.98317231306484
 30
0.0
  0
VERTEX
  5
406
100
AcDbEntity
  8
L1
100
AcDbVertex
100
AcDb2dVertex
 10
2.701853931434072
 20
42.98263764152525
 30
0.0
  0
SEQEND
  5
407
100
AcDbEntity
  8
L1
  0
LINE
  5
3A
100
AcDbEntity
  8
L1
100
AcDbLine
 10
71.94858692778666
 20
-59.02063810469463
 30
0.0
 11
-71.94858692778649
 21
-59.02063810469468
 31
0.0
  0
LINE
  5
3B
100
AcDbEntity
  8
L1
100
AcDbLine
 10
-72.14999999999998
 20
-61.62721114182597
 30
0.0
 11
72.15
 21
-61.62721114182594
 31
0.0
  0
LINE
  5
3C
100
AcDbEntity
  8
L1
100
AcDbLine
 10
72.15000000000009
 20
61.62721114182599
 30
0.0
 11
-72.14999999999998
 21
61.62721114182599
 31
0.0
  0
LINE
  5
3D
100
AcDbEntity
  8
L6
100
AcDbLine
 10
-314.8486290660297
 20
72.31152118816407
 30
0.0
 11
-314.8486290660297
 21
-72.311521188123
 31
0.0
  0
LINE
  5
3E
100
AcDbEntity
  8
L6
100
AcDbLine
 10
0.0
 20
72.31152118814353
 30
0.0
 11
0.0
 21
-72.31152118814353
 31
0.0
  0
LINE
  5
3F
100
AcDbEntity
  8
L6
100
AcDbLine
 10
-414.8472077744528
 20
0.0000000000205347
 30
0.0
 11
-214.8500503576066
 21
0.0000000000205347
 31
0.0
  0
LINE
  5
40
100
AcDbEntity
  8
L1
100
AcDbLine
 10
-401.3935715142398
 20
-65.04480917891413
 30
0.0
 11
-228.3036866178196
 21
-65.04480917891413
 31
0.0
  0
LINE
  5
41
100
AcDbEntity
  8
L1
100
AcDbLine
 10
-228.3036866178196
 20
65.04480917895529
 30
0.0
 11
-401.3935715142398
 21
65.04480917895529
 31
0.0
  0
LINE
  5
42
100
AcDbEntity
  8
L1
100
AcDbLine
 10
-389.9747858059335
 20
-64.6267088344668
 30
0.0
 11
-239.7224723260898
 21
-64.6267088344668
 31
0.0
  0
LINE
  5
43
100
AcDbEntity
  8
L1
100
AcDbLine
 10
-239.7076802294201
 20
-64.12672787293473
 30
0.0
 11
-389.9895779026034
 21
-64.12672787293473
 31
0.0
  0
LINE
  5
44
100
AcDbEntity
  8
L1
100
AcDbLine
 10
-239.7224723261327
 20
64.62670883450795
 30
0.0
 11
-389.9747858059696
 21
64.62670883450795
 31
0.0
  0
ARC
  5
45
100
AcDbEntity
  8
L1
100
AcDbCircle
 10
-396.6535321538311
 20
-56.80490308774023
 30
0.0
 40
6.799999999999999
100
AcDbArc
 50
0.0
 51
90.00000000000072
  0
ARC
  5
46
100
AcDbEntity
  8
L1
100
AcDbCircle
 10
-396.6535321538311
 20
56.80490308782231
 30
0.0
 40
6.799999999999999
100
AcDbArc
 50
269.9999999999992
 51
0.0
  0
LINE
  5
47
100
AcDbEntity
  8
L1
100
AcDbLine
 10
-404.8934382449643
 20
61.54494244823069
 30
0.0
 11
-404.8934382449643
 21
-61.54494244818955
 31
0.0
  0
LINE
  5
48
100
AcDbEntity
  8
L1
100
AcDbLine
 10
-404.4753379005173
 20
50.12615673993735
 30
0.0
 11
-404.4753379005173
 21
-50.12615673991939
 31
0.0
  0
LINE
  5
49
100
AcDbEntity
  8
L1
100
AcDbLine
 10
-389.8535321538312
 20
-61.3049259339017
 30
0.0
 11
-389.8535321538312
 21
-56.80490308774023
 31
0.0
  0
LINE
  5
4A
100
AcDbEntity
  8
L1
100
AcDbLine
 10
-400.7497044536838
 20
-58.96762087863812
 30
0.0
 11
-401.0157811052305
 21
-57.45862520209636
 31
0.0
  0
LINE
  5
4B
100
AcDbEntity
  8
L1
100
AcDbLine
 10
-401.7098978148775
 20
-57.53253484127623
 30
0.0
 11
-401.7098978148775
 21
-60.81362995553099
 31
0.0
  0
CIRCLE
  5
4C
100
AcDbEntity
  8
L1
100
AcDbCircle
 10
-396.5986290660297
 20
-56.7499999999385
 30
0.0
 40
2.25
  0
CIRCLE
  5
4D
100
AcDbEntity
  8
L1
100
AcDbCircle
 10
-396.5986290660297
 20
-56.7499999999385
 30
0.0
 40
3.457965408492953
  0
CIRCLE
  5
4E
100
AcDbEntity
  8
L1
100
AcDbCircle
 10
-396.5986290660297
 20
-56.7499999999385
 30
0.0
 40
3.9
  0
ARC
  5
4F
100
AcDbEntity
  8
L1
100
AcDbCircle
 10
-396.5986290660297
 20
-56.7499999999385
 30
0.0
 40
5.099999999999999
100
AcDbArc
 50
313.7781314990951
 51
136.2218685009001
  0
LINE
  5
50
100
AcDbEntity
  8
L1
100
AcDbLine
 10
-404.161101055426
 20
-52.4971648433729
 30
0.0
 11
-404.161101055426
 21
-61.51257860475528
 31
0.0
  0
LINE
  5
51
100
AcDbEntity
  8
L1
100
AcDbLine
 10
-403.7709858894128
 20
-50.42529180152087
 30
0.0
 11
-403.7709858894128
 21
-61.50528453822812
 31
0.0
  0
LINE
  5
52
100
AcDbEntity
  8
L6
100
AcDbLine
 10
-396.5986290660294
 20
-63.03088265808231
 30
0.0
 11
-396.5986290660294
 21
-50.45130511100023
 31
0.0
  0
LINE
  5
53
100
AcDbEntity
  8
L1
100
AcDbLine
 10
-397.3768004734721
 20
-61.8656321826818
 30
0.0
 11
-395.8204576585873
 21
-61.8656321826818
 31
0.0
  0
LINE
  5
54
100
AcDbEntity
  8
L1
100
AcDbLine
 10
-401.3612076708462
 20
-64.31247198933494
 30
0.0
 11
-392.345793909464
 21
-64.31247198933494
 31
0.0
  0
LINE
  5
55
100
AcDbEntity
  8
L1
100
AcDbLine
 10
-390.2739208676347
 20
-63.9223568233217
 30
0.0
 11
-401.3539136043224
 21
-63.9223568233217
 31
0.0
  0
POLYLINE
  5
56
100
AcDbEntity
  8
L1
100
AcDb2dPolyline
 66
     1
 10
0.0
 20
0.0
 30
0.0
  0
VERTEX
  5
408
100
AcDbEntity
  8
L1
100
AcDbVertex
100
AcDb2dVertex
 10
-404.161101055426
 20
-61.51257860475522
 30
0.0
  0
VERTEX
  5
409
100
AcDbEntity
  8
L1
100
AcDbVertex
100
AcDb2dVertex
 10
-404.1532737914359
 20
-61.72182175527064
 30
0.0
  0
VERTEX
  5
40A
100
AcDbEntity
  8
L1
100
AcDbVertex
100
AcDb2dVertex
 10
-404.1298323542276
 20
-61.9298935264805
 30
0.0
  0
VERTEX
  5
40B
100
AcDbEntity
  8
L1
100
AcDbVertex
100
AcDb2dVertex
 10
-404.0909078251218
 20
-62.1356304094083
 30
0.0
  0
VERTEX
  5
40C
100
AcDbEntity
  8
L1
100
AcDbVertex
100
AcDb2dVertex
 10
-404.0367178647785
 20
-62.33788195145422
 30
0.0
  0
VERTEX
  5
40D
100
AcDbEntity
  8
L1
100
AcDbVertex
100
AcDb2dVertex
 10
-403.967565496068
 20
-62.53551718956981
 30
0.0
  0
VERTEX
  5
40E
100
AcDbEntity
  8
L1
100
AcDbVertex
100
AcDb2dVertex
 10
-403.8838374096077
 20
-62.72743097444851
 30
0.0
  0
VERTEX
  5
40F
100
AcDbEntity
  8
L1
100
AcDbVertex
100
AcDb2dVertex
 10
-403.786001801442
 20
-62.91255015037041
 30
0.0
  0
VERTEX
  5
410
100
AcDbEntity
  8
L1
100
AcDbVertex
100
AcDb2dVertex
 10
-403.6746057549532
 20
-63.08983955614241
 30
0.0
  0
VERTEX
  5
411
100
AcDbEntity
  8
L1
100
AcDbVertex
100
AcDb2dVertex
 10
-403.5502721816454
 20
-63.25830781357871
 30
0.0
  0
VERTEX
  5
412
100
AcDbEntity
  8
L1
100
AcDbVertex
100
AcDb2dVertex
 10
-403.4136963379095
 20
-63.41701287115222
 30
0.0
  0
VERTEX
  5
413
100
AcDbEntity
  8
L1
100
AcDbVertex
100
AcDb2dVertex
 10
-403.2656419372432
 20
-63.56506727181846
 30
0.0
  0
VERTEX
  5
414
100
AcDbEntity
  8
L1
100
AcDbVertex
100
AcDb2dVertex
 10
-403.1069368796698
 20
-63.70164311555431
 30
0.0
  0
VERTEX
  5
415
100
AcDbEntity
  8
L1
100
AcDbVertex
100
AcDb2dVertex
 10
-402.9384686222334
 20
-63.825976688862
 30
0.0
  0
VERTEX
  5
416
100
AcDbEntity
  8
L1
100
AcDbVertex
100
AcDb2dVertex
 10
-402.7611792164615
 20
-63.93737273535094
 30
0.0
  0
VERTEX
  5
417
100
AcDbEntity
  8
L1
100
AcDbVertex
100
AcDb2dVertex
 10
-402.5760600405395
 20
-64.03520834351667
 30
0.0
  0
VERTEX
  5
418
100
AcDbEntity
  8
L1
100
AcDbVertex
100
AcDb2dVertex
 10
-402.3841462556609
 20
-64.11893642997694
 30
0.0
  0
VERTEX
  5
419
100
AcDbEntity
  8
L1
100
AcDbVertex
100
AcDb2dVertex
 10
-402.1865110175452
 20
-64.1880887986876
 30
0.0
  0
VERTEX
  5
41A
100
AcDbEntity
  8
L1
100
AcDbVertex
100
AcDb2dVertex
 10
-401.9842594754992
 20
-64.24227875903085
 30
0.0
  0
VERTEX
  5
41B
100
AcDbEntity
  8
L1
100
AcDbVertex
100
AcDb2dVertex
 10
-401.7785225925717
 20
-64.28120328813657
 30
0.0
  0
VERTEX
  5
41C
100
AcDbEntity
  8
L1
100
AcDbVertex
100
AcDb2dVertex
 10
-401.5704508213617
 20
-64.30464472534493
 30
0.0
  0
VERTEX
  5
41D
100
AcDbEntity
  8
L1
100
AcDbVertex
100
AcDb2dVertex
 10
-401.3612076708462
 20
-64.31247198933494
 30
0.0
  0
SEQEND
  5
41E
100
AcDbEntity
  8
L1
  0
POLYLINE
  5
57
100
AcDbEntity
  8
L1
100
AcDb2dPolyline
 66
     1
 10
0.0
 20
0.0
 30
0.0
  0
VERTEX
  5
41F
100
AcDbEntity
  8
L1
100
AcDbVertex
100
AcDb2dVertex
 10
-401.3986290660296
 20
-65.04480555654868
 30
0.0
  0
VERTEX
  5
420
100
AcDbEntity
  8
L1
100
AcDbVertex
100
AcDb2dVertex
 10
-402.0702633397921
 20
-64.97878081326826
 30
0.0
  0
VERTEX
  5
421
100
AcDbEntity
  8
L1
100
AcDbVertex
100
AcDb2dVertex
 10
-402.4066743750539
 20
-64.89493315127538
 30
0.0
  0
VERTEX
  5
422
100
AcDbEntity
  8
L1
100
AcDbVertex
100
AcDb2dVertex
 10
-402.7352663650819
 20
-64.77745407430091
 30
0.0
  0
VERTEX
  5
423
100
AcDbEntity
  8
L1
100
AcDbVertex
100
AcDb2dVertex
 10
-403.0504761176135
 20
-64.62773247906085
 30
0.0
  0
VERTEX
  5
424
100
AcDbEntity
  8
L1
100
AcDbVertex
100
AcDb2dVertex
 10
-403.3473914268362
 20
-64.44872582391991
 30
0.0
  0
VERTEX
  5
425
100
AcDbEntity
  8
L1
100
AcDbVertex
100
AcDb2dVertex
 10
-403.8683850415733
 20
-64.01975597548215
 30
0.0
  0
VERTEX
  5
426
100
AcDbEntity
  8
L1
100
AcDbVertex
100
AcDb2dVertex
 10
-404.2973548900111
 20
-63.49876236074493
 30
0.0
  0
VERTEX
  5
427
100
AcDbEntity
  8
L1
100
AcDbVertex
100
AcDb2dVertex
 10
-404.4763615451521
 20
-63.20184705152223
 30
0.0
  0
VERTEX
  5
428
100
AcDbEntity
  8
L1
100
AcDbVertex
100
AcDb2dVertex
 10
-404.6260831403923
 20
-62.88663729899059
 30
0.0
  0
VERTEX
  5
429
100
AcDbEntity
  8
L1
100
AcDbVertex
100
AcDb2dVertex
 10
-404.7435622173667
 20
-62.55804530896262
 30
0.0
  0
VERTEX
  5
42A
100
AcDbEntity
  8
L1
100
AcDbVertex
100
AcDb2dVertex
 10
-404.8274098793596
 20
-62.22163427370077
 30
0.0
  0
VERTEX
  5
42B
100
AcDbEntity
  8
L1
100
AcDbVertex
100
AcDb2dVertex
 10
-404.89343462264
 20
-61.54999999993851
 30
0.0
  0
SEQEND
  5
42C
100
AcDbEntity
  8
L1
  0
ARC
  5
58
100
AcDbEntity
  8
L1
100
AcDbCircle
 10
-396.5986290660297
 20
-56.7499999999385
 30
0.0
 40
4.925022672948151
100
AcDbArc
 50
214.1232037095432
 51
235.8767962904616
  0
LINE
  5
59
100
AcDbEntity
  8
L1
100
AcDbLine
 10
-397.3768004734721
 20
-61.8656321826818
 30
0.0
 11
-397.3811639073675
 21
-61.86126874878642
 31
0.0
  0
POLYLINE
  5
5A
100
AcDbEntity
  8
L1
100
AcDb2dPolyline
 66
     1
 10
0.0
 20
0.0
 30
0.0
  0
VERTEX
  5
42D
100
AcDbEntity
  8
L1
100
AcDbVertex
100
AcDb2dVertex
 10
-398.8162499447288
 20
-60.90107538759292
 30
0.0
  0
VERTEX
  5
42E
100
AcDbEntity
  8
L1
100
AcDbVertex
100
AcDb2dVertex
 10
-398.9501417652967
 20
-60.88235614660965
 30
0.0
  0
VERTEX
  5
42F
100
AcDbEntity
  8
L1
100
AcDbVertex
100
AcDb2dVertex
 10
-399.0855064110549
 20
-60.86380514302658
 30
0.0
  0
VERTEX
  5
430
100
AcDbEntity
  8
L1
100
AcDbVertex
100
AcDb2dVertex
 10
-399.2225392809335
 20
-60.84539463683217
 30
0.0
  0
VERTEX
  5
431
100
AcDbEntity
  8
L1
100
AcDbVertex
100
AcDb2dVertex
 10
-399.361440199612
 20
-60.8270973705205
 30
0.0
  0
SEQEND
  5
432
100
AcDbEntity
  8
L1
  0
LINE
  5
5B
100
AcDbEntity
  8
L1
100
AcDbLine
 10
-397.3072542681876
 20
-61.16715203913952
 30
0.0
 11
-398.8162499447288
 21
-60.90107538759292
 31
0.0
  0
POLYLINE
  5
5C
100
AcDbEntity
  8
L1
100
AcDb2dPolyline
 66
     1
 10
0.0
 20
0.0
 30
0.0
  0
VERTEX
  5
433
100
AcDbEntity
  8
L1
100
AcDbVertex
100
AcDb2dVertex
 10
-400.6757264366116
 20
-59.51281113352121
 30
0.0
  0
VERTEX
  5
434
100
AcDbEntity
  8
L1
100
AcDbVertex
100
AcDb2dVertex
 10
-400.6940237029231
 20
-59.37391021484296
 30
0.0
  0
VERTEX
  5
435
100
AcDbEntity
  8
L1
100
AcDbVertex
100
AcDb2dVertex
 10
-400.7124342091175
 20
-59.23687734496439
 30
0.0
  0
VERTEX
  5
436
100
AcDbEntity
  8
L1
100
AcDbVertex
100
AcDb2dVertex
 10
-400.7309852127006
 20
-59.10151269920612
 30
0.0
  0
VERTEX
  5
437
100
AcDbEntity
  8
L1
100
AcDbVertex
100
AcDb2dVertex
 10
-400.7497044536838
 20
-58.96762087863812
 30
0.0
  0
SEQEND
  5
438
100
AcDbEntity
  8
L1
  0
ARC
  5
5D
100
AcDbEntity
  8
L1
100
AcDbCircle
 10
-396.5986290660297
 20
-56.7499999999385
 30
0.0
 40
4.70630101413334
100
AcDbArc
 50
208.112382794947
 51
241.88761720506
  0
LINE
  5
5E
100
AcDbEntity
  8
L1
100
AcDbLine
 10
-400.6622590216219
 20
-61.86126874878642
 30
0.0
 11
-397.3811639073675
 21
-61.86126874878642
 31
0.0
  0
ARC
  5
5F
100
AcDbEntity
  8
L1
100
AcDbCircle
 10
-400.6622590216221
 20
-60.81362995553099
 30
0.0
 40
1.047638793255447
100
AcDbArc
 50
180.0000000000015
 51
270.0000000000015
  0
ARC
  5
60
100
AcDbEntity
  8
L1
100
AcDbCircle
 10
-397.4294500584306
 20
-61.5076876169503
 30
0.0
 40
0.361795924428356
100
AcDbArc
 50
278.3675591871948
 51
70.26028071360002
  0
POLYLINE
  5
61
100
AcDbEntity
  8
L1
100
AcDb2dPolyline
 66
     1
 10
0.0
 20
0.0
 30
0.0
  0
VERTEX
  5
439
100
AcDbEntity
  8
L1
100
AcDbVertex
100
AcDb2dVertex
 10
-403.771258551531
 20
-61.49799556973104
 30
0.0
  0
VERTEX
  5
43A
100
AcDbEntity
  8
L1
100
AcDbVertex
100
AcDb2dVertex
 10
-403.7639769272559
 20
-61.69265234968799
 30
0.0
  0
VERTEX
  5
43B
100
AcDbEntity
  8
L1
100
AcDbVertex
100
AcDb2dVertex
 10
-403.743803746413
 20
-61.87171430018324
 30
0.0
  0
VERTEX
  5
43C
100
AcDbEntity
  8
L1
100
AcDbVertex
100
AcDb2dVertex
 10
-403.7103062674588
 20
-62.04876633046828
 30
0.0
  0
VERTEX
  5
43D
100
AcDbEntity
  8
L1
100
AcDbVertex
100
AcDb2dVertex
 10
-403.6636718799593
 20
-62.2228184376153
 30
0.0
  0
VERTEX
  5
43E
100
AcDbEntity
  8
L1
100
AcDbVertex
100
AcDb2dVertex
 10
-403.6041614207148
 20
-62.39289740963818
 30
0.0
  0
VERTEX
  5
43F
100
AcDbEntity
  8
L1
100
AcDbVertex
100
AcDb2dVertex
 10
-403.5321077120072
 20
-62.55805226432642
 30
0.0
  0
VERTEX
  5
440
100
AcDbEntity
  8
L1
100
AcDbVertex
100
AcDb2dVertex
 10
-403.4479136980897
 20
-62.71735956323638
 30
0.0
  0
VERTEX
  5
441
100
AcDbEntity
  8
L1
100
AcDbVertex
100
AcDb2dVertex
 10
-403.3520501904925
 20
-62.86992857113751
 30
0.0
  0
VERTEX
  5
442
100
AcDbEntity
  8
L1
100
AcDbVertex
100
AcDb2dVertex
 10
-403.2450532348056
 20
-63.01490623241008
 30
0.0
  0
VERTEX
  5
443
100
AcDbEntity
  8
L1
100
AcDbVertex
100
AcDb2dVertex
 10
-403.1275211136803
 20
-63.15148193671908
 30
0.0
  0
VERTEX
  5
444
100
AcDbEntity
  8
L1
100
AcDbVertex
100
AcDb2dVertex
 10
-403.0001110028117
 20
-63.27889204758827
 30
0.0
  0
VERTEX
  5
445
100
AcDbEntity
  8
L1
100
AcDbVertex
100
AcDb2dVertex
 10
-402.8635352984994
 20
-63.39642416871456
 30
0.0
  0
VERTEX
  5
446
100
AcDbEntity
  8
L1
100
AcDbVertex
100
AcDb2dVertex
 10
-402.7185576372277
 20
-63.50342112440259
 30
0.0
  0
VERTEX
  5
447
100
AcDbEntity
  8
L1
100
AcDbVertex
100
AcDb2dVertex
 10
-402.5659886293276
 20
-63.59928463199782
 30
0.0
  0
VERTEX
  5
448
100
AcDbEntity
  8
L1
100
AcDbVertex
100
AcDb2dVertex
 10
-402.4066813304178
 20
-63.68347864591635
 30
0.0
  0
VERTEX
  5
449
100
AcDbEntity
  8
L1
100
AcDbVertex
100
AcDb2dVertex
 10
-402.2415264757289
 20
-63.75553235462419
 30
0.0
  0
VERTEX
  5
44A
100
AcDbEntity
  8
L1
100
AcDbVertex
100
AcDb2dVertex
 10
-402.0714475037086
 20
-63.81504281386838
 30
0.0
  0
VERTEX
  5
44B
100
AcDbEntity
  8
L1
100
AcDbVertex
100
AcDb2dVertex
 10
-401.8973953965603
 20
-63.86167720136757
 30
0.0
  0
VERTEX
  5
44C
100
AcDbEntity
  8
L1
100
AcDbVertex
100
AcDb2dVertex
 10
-401.7203433662761
 20
-63.89517468032201
 30
0.0
  0
VERTEX
  5
44D
100
AcDbEntity
  8
L1
100
AcDbVertex
100
AcDb2dVertex
 10
-401.5412814157797
 20
-63.91534786116491
 30
0.0
  0
VERTEX
  5
44E
100
AcDbEntity
  8
L1
100
AcDbVertex
100
AcDb2dVertex
 10
-401.3466246358222
 20
-63.92262948544007
 30
0.0
  0
SEQEND
  5
44F
100
AcDbEntity
  8
L1
  0
ELLIPSE
  5
62
100
AcDbEntity
  8
L1
100
AcDbEllipse
 10
-390.6493606726161
 20
-64.59778520522269
 30
0.0
 11
-0.2121320343562721
 21
0.212132034355611
 31
0.0
210
0.0
220
0.0
230
-1.0
 40
0.9999238504775695
 41
0.7854362396099459
 42
2.347505920145145
  0
ELLIPSE
  5
63
100
AcDbEntity
  8
L1
100
AcDbEllipse
 10
-392.345793909464
 20
-64.29766744080405
 30
0.0
 11
-1.696497829367981
 21
0.0
 31
0.0
210
0.0
220
0.0
230
-1.0
 40
0.0087265354983806
 41
-3.132866339598172
 42
-1.570796326794896
  0
POLYLINE
  5
64
100
AcDbEntity
  8
L1
100
AcDb2dPolyline
 66
     1
 10
0.0
 20
0.0
 30
0.0
  0
VERTEX
  5
450
100
AcDbEntity
  8
L1
100
AcDbVertex
100
AcDb2dVertex
 10
-389.9747858059696
 20
-64.62670883442592
 30
0.0
  0
VERTEX
  5
451
100
AcDbEntity
  8
L1
100
AcDbVertex
100
AcDb2dVertex
 10
-389.973008169337
 20
-64.5103970370638
 30
0.0
  0
VERTEX
  5
452
100
AcDbEntity
  8
L1
100
AcDbVertex
100
AcDb2dVertex
 10
-389.9740198217783
 20
-64.2198264925492
 30
0.0
  0
SEQEND
  5
453
100
AcDbEntity
  8
L1
  0
POLYLINE
  5
65
100
AcDbEntity
  8
L1
100
AcDb2dPolyline
 66
     1
 10
0.0
 20
0.0
 30
0.0
  0
VERTEX
  5
454
100
AcDbEntity
  8
L1
100
AcDbVertex
100
AcDb2dVertex
 10
-389.9740198217783
 20
-64.2198264925492
 30
0.0
  0
VERTEX
  5
455
100
AcDbEntity
  8
L1
100
AcDbVertex
100
AcDb2dVertex
 10
-389.9895779026393
 20
-64.1267278728938
 30
0.0
  0
SEQEND
  5
456
100
AcDbEntity
  8
L1
  0
LINE
  5
66
100
AcDbEntity
  8
L1
100
AcDbLine
 10
-390.3458700575368
 20
-64.997793085993
 30
0.0
 11
-390.3493835174728
 21
-64.59519018824398
 31
0.0
  0
LINE
  5
67
100
AcDbEntity
  8
L1
100
AcDbLine
 10
-390.3458700575368
 20
-64.997793085993
 30
0.0
 11
-389.9747858059699
 21
-64.62670883442592
 31
0.0
  0
LINE
  5
68
100
AcDbEntity
  8
L1
100
AcDbLine
 10
-390.4535093076698
 20
-61.9049030877402
 30
0.0
 11
-390.6891347380202
 21
-61.66927765738979
 31
0.0
  0
LINE
  5
69
100
AcDbEntity
  8
L1
100
AcDbLine
 10
-390.0535207307506
 20
-61.9049030877402
 30
0.0
 11
-390.4535093076698
 21
-61.9049030877402
 31
0.0
  0
LINE
  5
6A
100
AcDbEntity
  8
L1
100
AcDbLine
 10
-389.7535321538313
 20
-63.62236824640246
 30
0.0
 11
-389.7535321538313
 21
-62.20489166465944
 31
0.0
  0
POLYLINE
  5
6B
100
AcDbEntity
  8
L1
100
AcDb2dPolyline
 66
     1
 10
0.0
 20
0.0
 30
0.0
  0
VERTEX
  5
457
100
AcDbEntity
  8
L1
100
AcDbVertex
100
AcDb2dVertex
 10
-389.9895779026393
 20
-64.1267278728938
 30
0.0
  0
VERTEX
  5
458
100
AcDbEntity
  8
L1
100
AcDbVertex
100
AcDb2dVertex
 10
-390.0988342583335
 20
-63.97874963201871
 30
0.0
  0
VERTEX
  5
459
100
AcDbEntity
  8
L1
100
AcDbVertex
100
AcDb2dVertex
 10
-390.2739208676347
 20
-63.9223568233217
 30
0.0
  0
SEQEND
  5
45A
100
AcDbEntity
  8
L1
  0
LINE
  5
6C
100
AcDbEntity
  8
L1
100
AcDbLine
 10
-390.0535207307506
 20
-63.9223568233217
 30
0.0
 11
-390.2739208676347
 21
-63.9223568233217
 31
0.0
  0
ARC
  5
6D
100
AcDbEntity
  8
L1
100
AcDbCircle
 10
-390.053515999868
 20
-63.62237297728708
 30
0.0
 40
0.2999838460719821
100
AcDbArc
 50
269.9990964193334
 51
0.0009035810627947
  0
ARC
  5
6E
100
AcDbEntity
  8
L1
100
AcDbCircle
 10
-390.0535159998657
 20
-62.20488693375514
 30
0.0
 40
0.2999838460717834
100
AcDbArc
 50
359.9990964151807
 51
90.00090358105746
  0
ARC
  5
6F
100
AcDbEntity
  8
L1
100
AcDbCircle
 10
-390.5084003893008
 20
-61.25003485226645
 30
0.0
 40
0.6571646952439818
100
AcDbArc
 50
274.7913344867948
 51
355.208665512807
  0
LINE
  5
70
100
AcDbEntity
  8
L1
100
AcDbLine
 10
-395.6241031332952
 20
-61.66927765738979
 30
0.0
 11
-395.8204576585873
 21
-61.8656321826818
 31
0.0
  0
LINE
  5
71
100
AcDbEntity
  8
L1
100
AcDbLine
 10
-393.9193961172678
 20
-60.61923507187481
 30
0.0
 11
-395.9155541511887
 21
-61.15410400502878
 31
0.0
  0
ARC
  5
72
100
AcDbEntity
  8
L1
100
AcDbCircle
 10
-395.7552436807474
 20
-61.49479730348869
 30
0.0
 40
0.3765253916163163
100
AcDbArc
 50
115.1989499052919
 51
260.0261077679672
  0
LINE
  5
73
100
AcDbEntity
  8
L1
100
AcDbLine
 10
-390.6891347380202
 20
-61.66927765738972
 30
0.0
 11
-395.6241031332952
 21
-61.66927765738972
 31
0.0
  0
POLYLINE
  5
74
100
AcDbEntity
  8
L1
100
AcDb2dPolyline
 66
     1
 10
0.0
 20
0.0
 30
0.0
  0
VERTEX
  5
45B
100
AcDbEntity
  8
L1
100
AcDbVertex
100
AcDb2dVertex
 10
-393.0701040819566
 20
-60.43232418946502
 30
0.0
  0
VERTEX
  5
45C
100
AcDbEntity
  8
L1
100
AcDbVertex
100
AcDb2dVertex
 10
-393.2901105934476
 20
-60.47944937514711
 30
0.0
  0
VERTEX
  5
45D
100
AcDbEntity
  8
L1
100
AcDbVertex
100
AcDb2dVertex
 10
-393.5044877333046
 20
-60.52619901367132
 30
0.0
  0
VERTEX
  5
45E
100
AcDbEntity
  8
L1
100
AcDbVertex
100
AcDb2dVertex
 10
-393.7140046776754
 20
-60.57273933200185
 30
0.0
  0
VERTEX
  5
45F
100
AcDbEntity
  8
L1
100
AcDbVertex
100
AcDb2dVertex
 10
-393.9193961172678
 20
-60.61923507187469
 30
0.0
  0
SEQEND
  5
460
100
AcDbEntity
  8
L1
  0
LINE
  5
75
100
AcDbEntity
  8
L6
100
AcDbLine
 10
-389.5696987383126
 20
-56.7499999999385
 30
0.0
 11
-403.5710601828115
 21
-56.7499999999385
 31
0.0
  0
LINE
  5
76
100
AcDbEntity
  8
L1
100
AcDbLine
 10
-396.6535321538311
 20
-50.00490308774022
 30
0.0
 11
-401.1535549999926
 21
-50.00490308774022
 31
0.0
  0
LINE
  5
77
100
AcDbEntity
  8
L1
100
AcDbLine
 10
-401.7098978148775
 20
-57.53253484127623
 30
0.0
 11
-401.7142612487729
 21
-57.52817140738085
 31
0.0
  0
ARC
  5
78
100
AcDbEntity
  8
L1
100
AcDbCircle
 10
-401.3560657107424
 20
-57.55919516887772
 30
0.0
 40
0.3548350757278544
100
AcDbArc
 50
16.46486690746074
 51
175.6910542063882
  0
LINE
  5
79
100
AcDbEntity
  8
L1
100
AcDbLine
 10
-401.0027330711197
 20
-56.06692508509758
 30
0.0
 11
-400.4678641379656
 21
-54.07076705117623
 31
0.0
  0
LINE
  5
7A
100
AcDbEntity
  8
L1
100
AcDbLine
 10
-401.5179067234806
 20
-55.77547406720407
 30
0.0
 11
-401.5179067234806
 21
-50.84050567192924
 31
0.0
  0
LINE
  5
7B
100
AcDbEntity
  8
L1
100
AcDbLine
 10
-402.0535207307504
 20
-49.90490308774025
 30
0.0
 11
-403.4709973124935
 21
-49.90490308774025
 31
0.0
  0
LINE
  5
7C
100
AcDbEntity
  8
L1
100
AcDbLine
 10
-403.7709858894128
 20
-50.42529180152087
 30
0.0
 11
-403.7709858894128
 21
-50.20489166465944
 31
0.0
  0
POLYLINE
  5
7D
100
AcDbEntity
  8
L1
100
AcDb2dPolyline
 66
     1
 10
0.0
 20
0.0
 30
0.0
  0
VERTEX
  5
461
100
AcDbEntity
  8
L1
100
AcDbVertex
100
AcDb2dVertex
 10
-403.7709858894128
 20
-50.42529180152087
 30
0.0
  0
VERTEX
  5
462
100
AcDbEntity
  8
L1
100
AcDbVertex
100
AcDb2dVertex
 10
-403.82737869811
 20
-50.25020519221977
 30
0.0
  0
VERTEX
  5
463
100
AcDbEntity
  8
L1
100
AcDbVertex
100
AcDb2dVertex
 10
-403.975356938985
 20
-50.14094883652552
 30
0.0
  0
SEQEND
  5
464
100
AcDbEntity
  8
L1
  0
POLYLINE
  5
7E
100
AcDbEntity
  8
L1
100
AcDb2dPolyline
 66
     1
 10
0.0
 20
0.0
 30
0.0
  0
VERTEX
  5
465
100
AcDbEntity
  8
L1
100
AcDbVertex
100
AcDb2dVertex
 10
-403.975356938985
 20
-50.14094883652546
 30
0.0
  0
VERTEX
  5
466
100
AcDbEntity
  8
L1
100
AcDbVertex
100
AcDb2dVertex
 10
-404.0684555586402
 20
-50.12539075566445
 30
0.0
  0
SEQEND
  5
467
100
AcDbEntity
  8
L1
  0
POLYLINE
  5
7F
100
AcDbEntity
  8
L1
100
AcDb2dPolyline
 66
     1
 10
0.0
 20
0.0
 30
0.0
  0
VERTEX
  5
468
100
AcDbEntity
  8
L1
100
AcDbVertex
100
AcDb2dVertex
 10
-404.0684555586402
 20
-50.12539075566451
 30
0.0
  0
VERTEX
  5
469
100
AcDbEntity
  8
L1
100
AcDbVertex
100
AcDb2dVertex
 10
-404.3590261031548
 20
-50.1243791032229
 30
0.0
  0
VERTEX
  5
46A
100
AcDbEntity
  8
L1
100
AcDbVertex
100
AcDb2dVertex
 10
-404.4753379005173
 20
-50.12615673985528
 30
0.0
  0
SEQEND
  5
46B
100
AcDbEntity
  8
L1
  0
LINE
  5
80
100
AcDbEntity
  8
L1
100
AcDbLine
 10
-404.4753379005173
 20
-50.12615673985528
 30
0.0
 11
-404.8464221520843
 21
-50.49724099137648
 31
0.0
  0
POLYLINE
  5
81
100
AcDbEntity
  8
L1
100
AcDb2dPolyline
 66
     1
 10
0.0
 20
0.0
 30
0.0
  0
VERTEX
  5
46C
100
AcDbEntity
  8
L1
100
AcDbVertex
100
AcDb2dVertex
 10
-400.4678641379656
 20
-54.07076705117623
 30
0.0
  0
VERTEX
  5
46D
100
AcDbEntity
  8
L1
100
AcDbVertex
100
AcDb2dVertex
 10
-400.4213683980927
 20
-53.86537561158383
 30
0.0
  0
VERTEX
  5
46E
100
AcDbEntity
  8
L1
100
AcDbVertex
100
AcDb2dVertex
 10
-400.3748280797623
 20
-53.65585866721318
 30
0.0
  0
VERTEX
  5
46F
100
AcDbEntity
  8
L1
100
AcDbVertex
100
AcDb2dVertex
 10
-400.328078441238
 20
-53.44148152735619
 30
0.0
  0
VERTEX
  5
470
100
AcDbEntity
  8
L1
100
AcDbVertex
100
AcDb2dVertex
 10
-400.280953255556
 20
-53.22147501586517
 30
0.0
  0
SEQEND
  5
471
100
AcDbEntity
  8
L1
  0
LINE
  5
82
100
AcDbEntity
  8
L1
100
AcDbLine
 10
-401.7535321538312
 20
-50.20489166465944
 30
0.0
 11
-401.7535321538312
 21
-50.60488024157866
 31
0.0
  0
LINE
  5
83
100
AcDbEntity
  8
L1
100
AcDbLine
 10
-401.5179067234809
 20
-50.84050567192924
 30
0.0
 11
-401.7535321538312
 21
-50.60488024157871
 31
0.0
  0
LINE
  5
84
100
AcDbEntity
  8
L1
100
AcDbLine
 10
-401.7142612487729
 20
-55.97182859249613
 30
0.0
 11
-401.5179067234809
 21
-55.77547406720407
 31
0.0
  0
LINE
  5
85
100
AcDbEntity
  8
L1
100
AcDbLine
 10
-404.8464221520843
 20
-50.49724099144555
 30
0.0
 11
-404.4438192543351
 21
-50.50075445138162
 31
0.0
  0
ELLIPSE
  5
86
100
AcDbEntity
  8
L1
100
AcDbEllipse
 10
-404.4464142713137
 20
-50.80073160652489
 30
0.0
 11
0.2121320343557347
 21
-0.212132034356148
 31
0.0
210
0.0
220
0.0
230
-1.0
 40
0.9999238504775703
 41
-2.347505920144371
 42
-0.7854362396093614
  0
ARC
  5
87
100
AcDbEntity
  8
L1
100
AcDbCircle
 10
-403.4710020436456
 20
-50.20488693359201
 30
0.0
 40
0.2999838458045083
100
AcDbArc
 50
89.99909636784961
 51
180.0009036159793
  0
ARC
  5
88
100
AcDbEntity
  8
L1
100
AcDbCircle
 10
-402.0535159996716
 20
-50.20488693359675
 30
0.0
 40
0.2999838458776089
100
AcDbArc
 50
359.9990963849274
 51
90.000903618145
  0
ARC
  5
89
100
AcDbEntity
  8
L1
100
AcDbCircle
 10
-401.0986639184308
 20
-50.65977132313438
 30
0.0
 40
0.6571646951645881
100
AcDbArc
 50
94.79133448135918
 51
175.208665519217
  0
LINE
  5
8A
100
AcDbEntity
  8
L1
100
AcDbLine
 10
-404.161101055426
 20
-52.4971648433729
 30
0.0
 11
-404.1464256943945
 21
-50.80073160652489
 31
0.0
  0
LINE
  5
8B
100
AcDbEntity
  8
L1
100
AcDbLine
 10
-401.7142612487729
 20
-55.97182859249613
 30
0.0
 11
-401.7142612487729
 21
-57.52817140738085
 31
0.0
  0
ARC
  5
8C
100
AcDbEntity
  8
L1
100
AcDbCircle
 10
-401.3455525074658
 20
-55.92252274114116
 30
0.0
 40
0.3719908639927393
100
AcDbArc
 50
187.6167330747747
 51
337.1582092499818
  0
LINE
  5
8D
100
AcDbEntity
  8
L1
100
AcDbLine
 10
-403.7709858894128
 20
50.42529180160295
 30
0.0
 11
-403.7709858894128
 21
61.50528453831021
 31
0.0
  0
LINE
  5
8E
100
AcDbEntity
  8
L6
100
AcDbLine
 10
-396.5986290660294
 20
63.03088265816438
 30
0.0
 11
-396.5986290660294
 21
50.45130511108232
 31
0.0
  0
ARC
  5
8F
100
AcDbEntity
  8
L1
100
AcDbCircle
 10
-396.5986290660297
 20
56.75000000002057
 30
0.0
 40
5.099999999999999
100
AcDbArc
 50
223.7781314990998
 51
46.22186850090487
  0
CIRCLE
  5
90
100
AcDbEntity
  8
L1
100
AcDbCircle
 10
-396.5986290660297
 20
56.75000000002057
 30
0.0
 40
3.9
  0
CIRCLE
  5
91
100
AcDbEntity
  8
L1
100
AcDbCircle
 10
-396.5986290660297
 20
56.75000000002057
 30
0.0
 40
3.457965408492953
  0
LINE
  5
92
100
AcDbEntity
  8
L1
100
AcDbLine
 10
-389.8535321538312
 20
61.30492593398378
 30
0.0
 11
-389.8535321538312
 21
56.80490308782231
 31
0.0
  0
LINE
  5
93
100
AcDbEntity
  8
L1
100
AcDbLine
 10
-404.161101055426
 20
52.49716484345498
 30
0.0
 11
-404.161101055426
 21
61.51257860483736
 31
0.0
  0
CIRCLE
  5
94
100
AcDbEntity
  8
L1
100
AcDbCircle
 10
-396.5986290660297
 20
56.75000000002057
 30
0.0
 40
2.25
  0
LINE
  5
95
100
AcDbEntity
  8
L1
100
AcDbLine
 10
-400.7497044536838
 20
58.96762087872019
 30
0.0
 11
-401.0157811052305
 21
57.45862520217844
 31
0.0
  0
LINE
  5
96
100
AcDbEntity
  8
L1
100
AcDbLine
 10
-401.7098978148775
 20
57.53253484135831
 30
0.0
 11
-401.7098978148775
 21
60.81362995561306
 31
0.0
  0
LINE
  5
97
100
AcDbEntity
  8
L6
100
AcDbLine
 10
-389.5696987383126
 20
56.75000000002057
 30
0.0
 11
-403.5710601828115
 21
56.75000000002057
 31
0.0
  0
LINE
  5
98
100
AcDbEntity
  8
L1
100
AcDbLine
 10
-396.6535321538311
 20
50.0049030878223
 30
0.0
 11
-401.1535549999926
 21
50.0049030878223
 31
0.0
  0
LINE
  5
99
100
AcDbEntity
  8
L1
100
AcDbLine
 10
-404.161101055426
 20
52.49716484345498
 30
0.0
 11
-404.1464256943945
 21
50.80073160660697
 31
0.0
  0
ARC
  5
9A
100
AcDbEntity
  8
L1
100
AcDbCircle
 10
-401.0986639184308
 20
50.65977132321646
 30
0.0
 40
0.6571646951645881
100
AcDbArc
 50
184.7913344807829
 51
265.2086655186408
  0
ARC
  5
9B
100
AcDbEntity
  8
L1
100
AcDbCircle
 10
-401.3560657107424
 20
57.5591951689598
 30
0.0
 40
0.3548350757278544
100
AcDbArc
 50
184.3089457936117
 51
343.5351330925392
  0
ARC
  5
9C
100
AcDbEntity
  8
L1
100
AcDbCircle
 10
-401.3455525074658
 20
55.92252274122325
 30
0.0
 40
0.3719908639927393
100
AcDbArc
 50
22.84179075001858
 51
172.3832669252252
  0
ARC
  5
9D
100
AcDbEntity
  8
L1
100
AcDbCircle
 10
-402.0535159996716
 20
50.20488693367884
 30
0.0
 40
0.2999838458776089
100
AcDbArc
 50
269.9990963818549
 51
0.0009036150725272
  0
ARC
  5
9E
100
AcDbEntity
  8
L1
100
AcDbCircle
 10
-403.4710020436456
 20
50.20488693367409
 30
0.0
 40
0.2999838458045083
100
AcDbArc
 50
179.9990963840206
 51
270.0009036321503
  0
ELLIPSE
  5
9F
100
AcDbEntity
  8
L1
100
AcDbEllipse
 10
-404.4464142713137
 20
50.80073160660697
 30
0.0
 11
0.2121320343557347
 21
0.212132034356148
 31
0.0
210
0.0
220
0.0
230
1.0
 40
0.9999238504775703
 41
-2.347505920144182
 42
-0.7854362396093614
  0
LINE
  5
A0
100
AcDbEntity
  8
L1
100
AcDbLine
 10
-404.4753379005173
 20
50.12615673993735
 30
0.0
 11
-404.8464221520843
 21
50.49724099145857
 31
0.0
  0
LINE
  5
A1
100
AcDbEntity
  8
L1
100
AcDbLine
 10
-404.8464221520843
 20
50.49724099152763
 30
0.0
 11
-404.4438192543351
 21
50.5007544514637
 31
0.0
  0
POLYLINE
  5
A2
100
AcDbEntity
  8
L1
100
AcDb2dPolyline
 66
     1
 10
0.0
 20
0.0
 30
0.0
  0
VERTEX
  5
472
100
AcDbEntity
  8
L1
100
AcDbVertex
100
AcDb2dVertex
 10
-404.0684555586402
 20
50.12539075574659
 30
0.0
  0
VERTEX
  5
473
100
AcDbEntity
  8
L1
100
AcDbVertex
100
AcDb2dVertex
 10
-404.3590261031548
 20
50.12437910330499
 30
0.0
  0
VERTEX
  5
474
100
AcDbEntity
  8
L1
100
AcDbVertex
100
AcDb2dVertex
 10
-404.4753379005173
 20
50.12615673993735
 30
0.0
  0
SEQEND
  5
475
100
AcDbEntity
  8
L1
  0
POLYLINE
  5
A3
100
AcDbEntity
  8
L1
100
AcDb2dPolyline
 66
     1
 10
0.0
 20
0.0
 30
0.0
  0
VERTEX
  5
476
100
AcDbEntity
  8
L1
100
AcDbVertex
100
AcDb2dVertex
 10
-403.975356938985
 20
50.14094883660755
 30
0.0
  0
VERTEX
  5
477
100
AcDbEntity
  8
L1
100
AcDbVertex
100
AcDb2dVertex
 10
-404.0684555586402
 20
50.12539075574654
 30
0.0
  0
SEQEND
  5
478
100
AcDbEntity
  8
L1
  0
POLYLINE
  5
A4
100
AcDbEntity
  8
L1
100
AcDb2dPolyline
 66
     1
 10
0.0
 20
0.0
 30
0.0
  0
VERTEX
  5
479
100
AcDbEntity
  8
L1
100
AcDbVertex
100
AcDb2dVertex
 10
-403.7709858894128
 20
50.42529180160295
 30
0.0
  0
VERTEX
  5
47A
100
AcDbEntity
  8
L1
100
AcDbVertex
100
AcDb2dVertex
 10
-403.82737869811
 20
50.25020519230185
 30
0.0
  0
VERTEX
  5
47B
100
AcDbEntity
  8
L1
100
AcDbVertex
100
AcDb2dVertex
 10
-403.975356938985
 20
50.1409488366076
 30
0.0
  0
SEQEND
  5
47C
100
AcDbEntity
  8
L1
  0
LINE
  5
A5
100
AcDbEntity
  8
L1
100
AcDbLine
 10
-403.7709858894128
 20
50.42529180160295
 30
0.0
 11
-403.7709858894128
 21
50.20489166474153
 31
0.0
  0
LINE
  5
A6
100
AcDbEntity
  8
L1
100
AcDbLine
 10
-402.0535207307504
 20
49.90490308782233
 30
0.0
 11
-403.4709973124935
 21
49.90490308782233
 31
0.0
  0
LINE
  5
A7
100
AcDbEntity
  8
L1
100
AcDbLine
 10
-401.7098978148775
 20
57.53253484135831
 30
0.0
 11
-401.7142612487729
 21
57.52817140746294
 31
0.0
  0
LINE
  5
A8
100
AcDbEntity
  8
L1
100
AcDbLine
 10
-401.7142612487729
 20
55.97182859257822
 30
0.0
 11
-401.7142612487729
 21
57.52817140746294
 31
0.0
  0
LINE
  5
A9
100
AcDbEntity
  8
L1
100
AcDbLine
 10
-401.5179067234809
 20
50.84050567201131
 30
0.0
 11
-401.7535321538312
 21
50.6048802416608
 31
0.0
  0
LINE
  5
AA
100
AcDbEntity
  8
L1
100
AcDbLine
 10
-401.7535321538312
 20
50.20489166474153
 30
0.0
 11
-401.7535321538312
 21
50.60488024166073
 31
0.0
  0
LINE
  5
AB
100
AcDbEntity
  8
L1
100
AcDbLine
 10
-401.5179067234806
 20
55.77547406728616
 30
0.0
 11
-401.5179067234806
 21
50.84050567201131
 31
0.0
  0
LINE
  5
AC
100
AcDbEntity
  8
L1
100
AcDbLine
 10
-401.0027330711197
 20
56.06692508517966
 30
0.0
 11
-400.4678641379656
 21
54.07076705125831
 31
0.0
  0
POLYLINE
  5
AD
100
AcDbEntity
  8
L1
100
AcDb2dPolyline
 66
     1
 10
0.0
 20
0.0
 30
0.0
  0
VERTEX
  5
47D
100
AcDbEntity
  8
L1
100
AcDbVertex
100
AcDb2dVertex
 10
-400.4678641379656
 20
54.07076705125831
 30
0.0
  0
VERTEX
  5
47E
100
AcDbEntity
  8
L1
100
AcDbVertex
100
AcDb2dVertex
 10
-400.4213683980927
 20
53.86537561166591
 30
0.0
  0
VERTEX
  5
47F
100
AcDbEntity
  8
L1
100
AcDbVertex
100
AcDb2dVertex
 10
-400.3748280797623
 20
53.65585866729526
 30
0.0
  0
VERTEX
  5
480
100
AcDbEntity
  8
L1
100
AcDbVertex
100
AcDb2dVertex
 10
-400.328078441238
 20
53.44148152743827
 30
0.0
  0
VERTEX
  5
481
100
AcDbEntity
  8
L1
100
AcDbVertex
100
AcDb2dVertex
 10
-400.280953255556
 20
53.22147501594725
 30
0.0
  0
SEQEND
  5
482
100
AcDbEntity
  8
L1
  0
LINE
  5
AE
100
AcDbEntity
  8
L1
100
AcDbLine
 10
-401.7142612487729
 20
55.97182859257822
 30
0.0
 11
-401.5179067234809
 21
55.77547406728616
 31
0.0
  0
LINE
  5
AF
100
AcDbEntity
  8
L1
100
AcDbLine
 10
-390.2739208676347
 20
63.92235682340379
 30
0.0
 11
-401.3539136043224
 21
63.92235682340379
 31
0.0
  0
LINE
  5
B0
100
AcDbEntity
  8
L1
100
AcDbLine
 10
-401.3612076708462
 20
64.31247198941702
 30
0.0
 11
-392.345793909464
 21
64.31247198941702
 31
0.0
  0
LINE
  5
B1
100
AcDbEntity
  8
L1
100
AcDbLine
 10
-397.3768004734721
 20
61.86563218276387
 30
0.0
 11
-395.8204576585873
 21
61.86563218276387
 31
0.0
  0
POLYLINE
  5
B2
100
AcDbEntity
  8
L1
100
AcDb2dPolyline
 66
     1
 10
0.0
 20
0.0
 30
0.0
  0
VERTEX
  5
483
100
AcDbEntity
  8
L1
100
AcDbVertex
100
AcDb2dVertex
 10
-403.771258551531
 20
61.49799556981313
 30
0.0
  0
VERTEX
  5
484
100
AcDbEntity
  8
L1
100
AcDbVertex
100
AcDb2dVertex
 10
-403.7639769272559
 20
61.69265234977007
 30
0.0
  0
VERTEX
  5
485
100
AcDbEntity
  8
L1
100
AcDbVertex
100
AcDb2dVertex
 10
-403.743803746413
 20
61.87171430026532
 30
0.0
  0
VERTEX
  5
486
100
AcDbEntity
  8
L1
100
AcDbVertex
100
AcDb2dVertex
 10
-403.7103062674588
 20
62.04876633055036
 30
0.0
  0
VERTEX
  5
487
100
AcDbEntity
  8
L1
100
AcDbVertex
100
AcDb2dVertex
 10
-403.6636718799593
 20
62.22281843769739
 30
0.0
  0
VERTEX
  5
488
100
AcDbEntity
  8
L1
100
AcDbVertex
100
AcDb2dVertex
 10
-403.6041614207148
 20
62.39289740972026
 30
0.0
  0
VERTEX
  5
489
100
AcDbEntity
  8
L1
100
AcDbVertex
100
AcDb2dVertex
 10
-403.5321077120072
 20
62.5580522644085
 30
0.0
  0
VERTEX
  5
48A
100
AcDbEntity
  8
L1
100
AcDbVertex
100
AcDb2dVertex
 10
-403.4479136980897
 20
62.71735956331847
 30
0.0
  0
VERTEX
  5
48B
100
AcDbEntity
  8
L1
100
AcDbVertex
100
AcDb2dVertex
 10
-403.3520501904925
 20
62.86992857121958
 30
0.0
  0
VERTEX
  5
48C
100
AcDbEntity
  8
L1
100
AcDbVertex
100
AcDb2dVertex
 10
-403.2450532348056
 20
63.01490623249216
 30
0.0
  0
VERTEX
  5
48D
100
AcDbEntity
  8
L1
100
AcDbVertex
100
AcDb2dVertex
 10
-403.1275211136803
 20
63.15148193680116
 30
0.0
  0
VERTEX
  5
48E
100
AcDbEntity
  8
L1
100
AcDbVertex
100
AcDb2dVertex
 10
-403.0001110028117
 20
63.27889204767036
 30
0.0
  0
VERTEX
  5
48F
100
AcDbEntity
  8
L1
100
AcDbVertex
100
AcDb2dVertex
 10
-402.8635352984994
 20
63.39642416879664
 30
0.0
  0
VERTEX
  5
490
100
AcDbEntity
  8
L1
100
AcDbVertex
100
AcDb2dVertex
 10
-402.7185576372277
 20
63.50342112448467
 30
0.0
  0
VERTEX
  5
491
100
AcDbEntity
  8
L1
100
AcDbVertex
100
AcDb2dVertex
 10
-402.5659886293276
 20
63.5992846320799
 30
0.0
  0
VERTEX
  5
492
100
AcDbEntity
  8
L1
100
AcDbVertex
100
AcDb2dVertex
 10
-402.4066813304178
 20
63.68347864599844
 30
0.0
  0
VERTEX
  5
493
100
AcDbEntity
  8
L1
100
AcDbVertex
100
AcDb2dVertex
 10
-402.2415264757289
 20
63.75553235470627
 30
0.0
  0
VERTEX
  5
494
100
AcDbEntity
  8
L1
100
AcDbVertex
100
AcDb2dVertex
 10
-402.0714475037086
 20
63.81504281395047
 30
0.0
  0
VERTEX
  5
495
100
AcDbEntity
  8
L1
100
AcDbVertex
100
AcDb2dVertex
 10
-401.8973953965603
 20
63.86167720144965
 30
0.0
  0
VERTEX
  5
496
100
AcDbEntity
  8
L1
100
AcDbVertex
100
AcDb2dVertex
 10
-401.7203433662761
 20
63.89517468040409
 30
0.0
  0
VERTEX
  5
497
100
AcDbEntity
  8
L1
100
AcDbVertex
100
AcDb2dVertex
 10
-401.5412814157797
 20
63.915347861247
 30
0.0
  0
VERTEX
  5
498
100
AcDbEntity
  8
L1
100
AcDbVertex
100
AcDb2dVertex
 10
-401.3466246358222
 20
63.92262948552215
 30
0.0
  0
SEQEND
  5
499
100
AcDbEntity
  8
L1
  0
ARC
  5
B3
100
AcDbEntity
  8
L1
100
AcDbCircle
 10
-397.4294500584306
 20
61.50768761703239
 30
0.0
 40
0.361795924428356
100
AcDbArc
 50
289.7397192863999
 51
81.63244081280508
  0
POLYLINE
  5
B4
100
AcDbEntity
  8
L1
100
AcDb2dPolyline
 66
     1
 10
0.0
 20
0.0
 30
0.0
  0
VERTEX
  5
49A
100
AcDbEntity
  8
L1
100
AcDbVertex
100
AcDb2dVertex
 10
-401.3986290660296
 20
65.04480555663076
 30
0.0
  0
VERTEX
  5
49B
100
AcDbEntity
  8
L1
100
AcDbVertex
100
AcDb2dVertex
 10
-402.0702633397921
 20
64.97878081335034
 30
0.0
  0
VERTEX
  5
49C
100
AcDbEntity
  8
L1
100
AcDbVertex
100
AcDb2dVertex
 10
-402.4066743750539
 20
64.89493315135746
 30
0.0
  0
VERTEX
  5
49D
100
AcDbEntity
  8
L1
100
AcDbVertex
100
AcDb2dVertex
 10
-402.7352663650819
 20
64.777454074383
 30
0.0
  0
VERTEX
  5
49E
100
AcDbEntity
  8
L1
100
AcDbVertex
100
AcDb2dVertex
 10
-403.0504761176135
 20
64.62773247914293
 30
0.0
  0
VERTEX
  5
49F
100
AcDbEntity
  8
L1
100
AcDbVertex
100
AcDb2dVertex
 10
-403.3473914268362
 20
64.448725824002
 30
0.0
  0
VERTEX
  5
4A0
100
AcDbEntity
  8
L1
100
AcDbVertex
100
AcDb2dVertex
 10
-403.8683850415733
 20
64.01975597556424
 30
0.0
  0
VERTEX
  5
4A1
100
AcDbEntity
  8
L1
100
AcDbVertex
100
AcDb2dVertex
 10
-404.2973548900111
 20
63.49876236082701
 30
0.0
  0
VERTEX
  5
4A2
100
AcDbEntity
  8
L1
100
AcDbVertex
100
AcDb2dVertex
 10
-404.4763615451521
 20
63.20184705160432
 30
0.0
  0
VERTEX
  5
4A3
100
AcDbEntity
  8
L1
100
AcDbVertex
100
AcDb2dVertex
 10
-404.6260831403923
 20
62.88663729907267
 30
0.0
  0
VERTEX
  5
4A4
100
AcDbEntity
  8
L1
100
AcDbVertex
100
AcDb2dVertex
 10
-404.7435622173667
 20
62.5580453090447
 30
0.0
  0
VERTEX
  5
4A5
100
AcDbEntity
  8
L1
100
AcDbVertex
100
AcDb2dVertex
 10
-404.8274098793596
 20
62.22163427378285
 30
0.0
  0
VERTEX
  5
4A6
100
AcDbEntity
  8
L1
100
AcDbVertex
100
AcDb2dVertex
 10
-404.89343462264
 20
61.55000000002059
 30
0.0
  0
SEQEND
  5
4A7
100
AcDbEntity
  8
L1
  0
POLYLINE
  5
B5
100
AcDbEntity
  8
L1
100
AcDb2dPolyline
 66
     1
 10
0.0
 20
0.0
 30
0.0
  0
VERTEX
  5
4A8
100
AcDbEntity
  8
L1
100
AcDbVertex
100
AcDb2dVertex
 10
-404.161101055426
 20
61.5125786048373
 30
0.0
  0
VERTEX
  5
4A9
100
AcDbEntity
  8
L1
100
AcDbVertex
100
AcDb2dVertex
 10
-404.1532737914359
 20
61.72182175535272
 30
0.0
  0
VERTEX
  5
4AA
100
AcDbEntity
  8
L1
100
AcDbVertex
100
AcDb2dVertex
 10
-404.1298323542276
 20
61.92989352656258
 30
0.0
  0
VERTEX
  5
4AB
100
AcDbEntity
  8
L1
100
AcDbVertex
100
AcDb2dVertex
 10
-404.0909078251218
 20
62.13563040949037
 30
0.0
  0
VERTEX
  5
4AC
100
AcDbEntity
  8
L1
100
AcDbVertex
100
AcDb2dVertex
 10
-404.0367178647785
 20
62.3378819515363
 30
0.0
  0
VERTEX
  5
4AD
100
AcDbEntity
  8
L1
100
AcDbVertex
100
AcDb2dVertex
 10
-403.967565496068
 20
62.5355171896519
 30
0.0
  0
VERTEX
  5
4AE
100
AcDbEntity
  8
L1
100
AcDbVertex
100
AcDb2dVertex
 10
-403.8838374096077
 20
62.72743097453059
 30
0.0
  0
VERTEX
  5
4AF
100
AcDbEntity
  8
L1
100
AcDbVertex
100
AcDb2dVertex
 10
-403.786001801442
 20
62.91255015045249
 30
0.0
  0
VERTEX
  5
4B0
100
AcDbEntity
  8
L1
100
AcDbVertex
100
AcDb2dVertex
 10
-403.6746057549532
 20
63.08983955622449
 30
0.0
  0
VERTEX
  5
4B1
100
AcDbEntity
  8
L1
100
AcDbVertex
100
AcDb2dVertex
 10
-403.5502721816454
 20
63.25830781366079
 30
0.0
  0
VERTEX
  5
4B2
100
AcDbEntity
  8
L1
100
AcDbVertex
100
AcDb2dVertex
 10
-403.4136963379095
 20
63.41701287123431
 30
0.0
  0
VERTEX
  5
4B3
100
AcDbEntity
  8
L1
100
AcDbVertex
100
AcDb2dVertex
 10
-403.2656419372432
 20
63.56506727190055
 30
0.0
  0
VERTEX
  5
4B4
100
AcDbEntity
  8
L1
100
AcDbVertex
100
AcDb2dVertex
 10
-403.1069368796698
 20
63.70164311563638
 30
0.0
  0
VERTEX
  5
4B5
100
AcDbEntity
  8
L1
100
AcDbVertex
100
AcDb2dVertex
 10
-402.9384686222334
 20
63.82597668894408
 30
0.0
  0
VERTEX
  5
4B6
100
AcDbEntity
  8
L1
100
AcDbVertex
100
AcDb2dVertex
 10
-402.7611792164615
 20
63.93737273543303
 30
0.0
  0
VERTEX
  5
4B7
100
AcDbEntity
  8
L1
100
AcDbVertex
100
AcDb2dVertex
 10
-402.5760600405395
 20
64.03520834359875
 30
0.0
  0
VERTEX
  5
4B8
100
AcDbEntity
  8
L1
100
AcDbVertex
100
AcDb2dVertex
 10
-402.3841462556609
 20
64.11893643005902
 30
0.0
  0
VERTEX
  5
4B9
100
AcDbEntity
  8
L1
100
AcDbVertex
100
AcDb2dVertex
 10
-402.1865110175452
 20
64.18808879876968
 30
0.0
  0
VERTEX
  5
4BA
100
AcDbEntity
  8
L1
100
AcDbVertex
100
AcDb2dVertex
 10
-401.9842594754992
 20
64.24227875911293
 30
0.0
  0
VERTEX
  5
4BB
100
AcDbEntity
  8
L1
100
AcDbVertex
100
AcDb2dVertex
 10
-401.7785225925717
 20
64.28120328821865
 30
0.0
  0
VERTEX
  5
4BC
100
AcDbEntity
  8
L1
100
AcDbVertex
100
AcDb2dVertex
 10
-401.5704508213617
 20
64.30464472542701
 30
0.0
  0
VERTEX
  5
4BD
100
AcDbEntity
  8
L1
100
AcDbVertex
100
AcDb2dVertex
 10
-401.3612076708462
 20
64.31247198941702
 30
0.0
  0
SEQEND
  5
4BE
100
AcDbEntity
  8
L1
  0
ARC
  5
B6
100
AcDbEntity
  8
L1
100
AcDbCircle
 10
-396.5986290660297
 20
56.75000000002057
 30
0.0
 40
4.70630101413334
100
AcDbArc
 50
118.1123827949399
 51
151.887617205053
  0
POLYLINE
  5
B7
100
AcDbEntity
  8
L1
100
AcDb2dPolyline
 66
     1
 10
0.0
 20
0.0
 30
0.0
  0
VERTEX
  5
4BF
100
AcDbEntity
  8
L1
100
AcDbVertex
100
AcDb2dVertex
 10
-400.6757264366116
 20
59.51281113360329
 30
0.0
  0
VERTEX
  5
4C0
100
AcDbEntity
  8
L1
100
AcDbVertex
100
AcDb2dVertex
 10
-400.6940237029231
 20
59.37391021492505
 30
0.0
  0
VERTEX
  5
4C1
100
AcDbEntity
  8
L1
100
AcDbVertex
100
AcDb2dVertex
 10
-400.7124342091175
 20
59.23687734504648
 30
0.0
  0
VERTEX
  5
4C2
100
AcDbEntity
  8
L1
100
AcDbVertex
100
AcDb2dVertex
 10
-400.7309852127006
 20
59.10151269928821
 30
0.0
  0
VERTEX
  5
4C3
100
AcDbEntity
  8
L1
100
AcDbVertex
100
AcDb2dVertex
 10
-400.7497044536838
 20
58.96762087872019
 30
0.0
  0
SEQEND
  5
4C4
100
AcDbEntity
  8
L1
  0
LINE
  5
B8
100
AcDbEntity
  8
L1
100
AcDbLine
 10
-397.3072542681876
 20
61.16715203922161
 30
0.0
 11
-398.8162499447288
 21
60.90107538767501
 31
0.0
  0
POLYLINE
  5
B9
100
AcDbEntity
  8
L1
100
AcDb2dPolyline
 66
     1
 10
0.0
 20
0.0
 30
0.0
  0
VERTEX
  5
4C5
100
AcDbEntity
  8
L1
100
AcDbVertex
100
AcDb2dVertex
 10
-398.8162499447288
 20
60.90107538767501
 30
0.0
  0
VERTEX
  5
4C6
100
AcDbEntity
  8
L1
100
AcDbVertex
100
AcDb2dVertex
 10
-398.9501417652967
 20
60.88235614669173
 30
0.0
  0
VERTEX
  5
4C7
100
AcDbEntity
  8
L1
100
AcDbVertex
100
AcDb2dVertex
 10
-399.0855064110549
 20
60.86380514310866
 30
0.0
  0
VERTEX
  5
4C8
100
AcDbEntity
  8
L1
100
AcDbVertex
100
AcDb2dVertex
 10
-399.2225392809335
 20
60.84539463691425
 30
0.0
  0
VERTEX
  5
4C9
100
AcDbEntity
  8
L1
100
AcDbVertex
100
AcDb2dVertex
 10
-399.361440199612
 20
60.82709737060259
 30
0.0
  0
SEQEND
  5
4CA
100
AcDbEntity
  8
L1
  0
LINE
  5
BA
100
AcDbEntity
  8
L1
100
AcDbLine
 10
-397.3768004734721
 20
61.86563218276387
 30
0.0
 11
-397.3811639073675
 21
61.86126874886849
 31
0.0
  0
ARC
  5
BB
100
AcDbEntity
  8
L1
100
AcDbCircle
 10
-400.6622590216221
 20
60.81362995561306
 30
0.0
 40
1.047638793255447
100
AcDbArc
 50
89.99999999999849
 51
179.9999999999984
  0
LINE
  5
BC
100
AcDbEntity
  8
L1
100
AcDbLine
 10
-400.6622590216219
 20
61.86126874886849
 30
0.0
 11
-397.3811639073675
 21
61.86126874886849
 31
0.0
  0
ARC
  5
BD
100
AcDbEntity
  8
L1
100
AcDbCircle
 10
-396.5986290660297
 20
56.75000000002057
 30
0.0
 40
4.925022672948151
100
AcDbArc
 50
124.1232037095383
 51
145.8767962904567
  0
ARC
  5
BE
100
AcDbEntity
  8
L1
100
AcDbCircle
 10
-390.5084003893008
 20
61.25003485234853
 30
0.0
 40
0.6571646952439818
100
AcDbArc
 50
4.791334487192875
 51
85.20866551320512
  0
ARC
  5
BF
100
AcDbEntity
  8
L1
100
AcDbCircle
 10
-395.7552436807474
 20
61.49479730357078
 30
0.0
 40
0.3765253916163163
100
AcDbArc
 50
99.97389223203276
 51
244.801050094708
  0
ARC
  5
C0
100
AcDbEntity
  8
L1
100
AcDbCircle
 10
-390.0535159998657
 20
62.20488693383723
 30
0.0
 40
0.2999838460717834
100
AcDbArc
 50
269.9990964189425
 51
0.0009035848192873
  0
ARC
  5
C1
100
AcDbEntity
  8
L1
100
AcDbCircle
 10
-390.053515999868
 20
63.62237297736917
 30
0.0
 40
0.2999838460719821
100
AcDbArc
 50
359.9990964189371
 51
90.00090358066652
  0
POLYLINE
  5
C2
100
AcDbEntity
  8
L1
100
AcDb2dPolyline
 66
     1
 10
0.0
 20
0.0
 30
0.0
  0
VERTEX
  5
4CB
100
AcDbEntity
  8
L1
100
AcDbVertex
100
AcDb2dVertex
 10
-393.0701040819566
 20
60.4323241895471
 30
0.0
  0
VERTEX
  5
4CC
100
AcDbEntity
  8
L1
100
AcDbVertex
100
AcDb2dVertex
 10
-393.2901105934476
 20
60.47944937522919
 30
0.0
  0
VERTEX
  5
4CD
100
AcDbEntity
  8
L1
100
AcDbVertex
100
AcDb2dVertex
 10
-393.5044877333046
 20
60.5261990137534
 30
0.0
  0
VERTEX
  5
4CE
100
AcDbEntity
  8
L1
100
AcDbVertex
100
AcDb2dVertex
 10
-393.7140046776754
 20
60.57273933208392
 30
0.0
  0
VERTEX
  5
4CF
100
AcDbEntity
  8
L1
100
AcDbVertex
100
AcDb2dVertex
 10
-393.9193961172678
 20
60.61923507195678
 30
0.0
  0
SEQEND
  5
4D0
100
AcDbEntity
  8
L1
  0
LINE
  5
C3
100
AcDbEntity
  8
L1
100
AcDbLine
 10
-393.9193961172678
 20
60.6192350719569
 30
0.0
 11
-395.9155541511887
 21
61.15410400511087
 31
0.0
  0
LINE
  5
C4
100
AcDbEntity
  8
L1
100
AcDbLine
 10
-390.3458700575368
 20
64.99779308607509
 30
0.0
 11
-389.9747858059699
 21
64.62670883450801
 31
0.0
  0
LINE
  5
C5
100
AcDbEntity
  8
L1
100
AcDbLine
 10
-390.3458700575368
 20
64.99779308607509
 30
0.0
 11
-390.3493835174728
 21
64.59519018832605
 31
0.0
  0
ELLIPSE
  5
C6
100
AcDbEntity
  8
L1
100
AcDbEllipse
 10
-390.6493606726161
 20
64.59778520530477
 30
0.0
 11
-0.2121320343562721
 21
-0.212132034355611
 31
0.0
210
0.0
220
0.0
230
1.0
 40
0.9999238504775695
 41
0.7854362396099459
 42
2.347505920145145
  0
ELLIPSE
  5
C7
100
AcDbEntity
  8
L1
100
AcDbEllipse
 10
-392.345793909464
 20
64.29766744088613
 30
0.0
 11
-1.696497829367981
 21
0.0
 31
0.0
210
0.0
220
0.0
230
1.0
 40
0.0087265354983806
 41
-3.132866339598172
 42
-1.570796326794896
  0
LINE
  5
C8
100
AcDbEntity
  8
L1
100
AcDbLine
 10
-390.0535207307506
 20
63.92235682340379
 30
0.0
 11
-390.2739208676347
 21
63.92235682340379
 31
0.0
  0
POLYLINE
  5
C9
100
AcDbEntity
  8
L1
100
AcDb2dPolyline
 66
     1
 10
0.0
 20
0.0
 30
0.0
  0
VERTEX
  5
4D1
100
AcDbEntity
  8
L1
100
AcDbVertex
100
AcDb2dVertex
 10
-389.9895779026393
 20
64.12672787297589
 30
0.0
  0
VERTEX
  5
4D2
100
AcDbEntity
  8
L1
100
AcDbVertex
100
AcDb2dVertex
 10
-390.0988342583335
 20
63.9787496321008
 30
0.0
  0
VERTEX
  5
4D3
100
AcDbEntity
  8
L1
100
AcDbVertex
100
AcDb2dVertex
 10
-390.2739208676347
 20
63.92235682340379
 30
0.0
  0
SEQEND
  5
4D4
100
AcDbEntity
  8
L1
  0
POLYLINE
  5
CA
100
AcDbEntity
  8
L1
100
AcDb2dPolyline
 66
     1
 10
0.0
 20
0.0
 30
0.0
  0
VERTEX
  5
4D5
100
AcDbEntity
  8
L1
100
AcDbVertex
100
AcDb2dVertex
 10
-389.9740198217783
 20
64.21982649263128
 30
0.0
  0
VERTEX
  5
4D6
100
AcDbEntity
  8
L1
100
AcDbVertex
100
AcDb2dVertex
 10
-389.9895779026393
 20
64.12672787297589
 30
0.0
  0
SEQEND
  5
4D7
100
AcDbEntity
  8
L1
  0
POLYLINE
  5
CB
100
AcDbEntity
  8
L1
100
AcDb2dPolyline
 66
     1
 10
0.0
 20
0.0
 30
0.0
  0
VERTEX
  5
4D8
100
AcDbEntity
  8
L1
100
AcDbVertex
100
AcDb2dVertex
 10
-389.9747858059696
 20
64.62670883450801
 30
0.0
  0
VERTEX
  5
4D9
100
AcDbEntity
  8
L1
100
AcDbVertex
100
AcDb2dVertex
 10
-389.973008169337
 20
64.51039703714588
 30
0.0
  0
VERTEX
  5
4DA
100
AcDbEntity
  8
L1
100
AcDbVertex
100
AcDb2dVertex
 10
-389.9740198217783
 20
64.21982649263128
 30
0.0
  0
SEQEND
  5
4DB
100
AcDbEntity
  8
L1
  0
LINE
  5
CC
100
AcDbEntity
  8
L1
100
AcDbLine
 10
-389.7535321538313
 20
63.62236824648454
 30
0.0
 11
-389.7535321538313
 21
62.20489166474152
 31
0.0
  0
LINE
  5
CD
100
AcDbEntity
  8
L1
100
AcDbLine
 10
-390.0535207307506
 20
61.90490308782227
 30
0.0
 11
-390.4535093076698
 21
61.90490308782227
 31
0.0
  0
LINE
  5
CE
100
AcDbEntity
  8
L1
100
AcDbLine
 10
-390.4535093076698
 20
61.90490308782227
 30
0.0
 11
-390.6891347380202
 21
61.66927765747186
 31
0.0
  0
LINE
  5
CF
100
AcDbEntity
  8
L1
100
AcDbLine
 10
-390.6891347380202
 20
61.66927765747181
 30
0.0
 11
-395.6241031332952
 21
61.66927765747181
 31
0.0
  0
LINE
  5
D0
100
AcDbEntity
  8
L1
100
AcDbLine
 10
-395.6241031332952
 20
61.66927765747186
 30
0.0
 11
-395.8204576585873
 21
61.86563218276387
 31
0.0
  0
LINE
  5
E7
100
AcDbEntity
  8
L6
100
AcDbLine
 10
-124.8467023940267
 20
0.0
 30
0.0
 11
-190.8467023940268
 21
0.0
 31
0.0
  0
LINE
  5
E8
100
AcDbEntity
  8
L2
100
AcDbLine
 10
-136.8467023940268
 20
-47.54856408162507
 30
0.0
 11
-136.8467023940268
 21
47.54856408162508
 31
0.0
  0
LINE
  5
E9
100
AcDbEntity
  8
L1
100
AcDbLine
 10
-133.8467023940268
 20
-50.14094883658913
 30
0.0
 11
-133.8467023940268
 21
50.14094883658913
 31
0.0
  0
LINE
  5
EA
100
AcDbEntity
  8
L1
100
AcDbLine
 10
-182.8467023940268
 20
-64.4499999999795
 30
0.0
 11
-182.8467023940268
 21
64.4500000000205
 31
0.0
  0
LINE
  5
EB
100
AcDbEntity
  8
L1
100
AcDbLine
 10
-182.251893215092
 20
65.04480917895517
 30
0.0
 11
-182.251893215092
 21
-65.04480917891425
 31
0.0
  0
LINE
  5
EC
100
AcDbEntity
  8
L1
100
AcDbLine
 10
-224.803819887095
 20
-61.5449424481896
 30
0.0
 11
-224.803819887095
 21
61.54494244823069
 31
0.0
  0
LINE
  5
ED
100
AcDbEntity
  8
L1
100
AcDbLine
 10
-225.2219202315424
 20
-50.12615673987801
 30
0.0
 11
-225.2219202315424
 21
50.12615673996055
 31
0.0
  0
POLYLINE
  5
EE
100
AcDbEntity
  8
L1
100
AcDb2dPolyline
 66
     1
 10
0.0
 20
0.0
 30
0.0
  0
VERTEX
  5
505
100
AcDbEntity
  8
L1
100
AcDbVertex
100
AcDb2dVertex
 10
-228.2986290660727
 20
-65.04480555654868
 30
0.0
  0
VERTEX
  5
506
100
AcDbEntity
  8
L1
100
AcDbVertex
100
AcDb2dVertex
 10
-227.6269947923102
 20
-64.97878081326826
 30
0.0
  0
VERTEX
  5
507
100
AcDbEntity
  8
L1
100
AcDbVertex
100
AcDb2dVertex
 10
-227.2905837570484
 20
-64.89493315127538
 30
0.0
  0
VERTEX
  5
508
100
AcDbEntity
  8
L1
100
AcDbVertex
100
AcDb2dVertex
 10
-226.9619917670205
 20
-64.77745407430091
 30
0.0
  0
VERTEX
  5
509
100
AcDbEntity
  8
L1
100
AcDbVertex
100
AcDb2dVertex
 10
-226.6467820144888
 20
-64.62773247906085
 30
0.0
  0
VERTEX
  5
50A
100
AcDbEntity
  8
L1
100
AcDbVertex
100
AcDb2dVertex
 10
-226.3498667052662
 20
-64.44872582391991
 30
0.0
  0
VERTEX
  5
50B
100
AcDbEntity
  8
L1
100
AcDbVertex
100
AcDb2dVertex
 10
-225.8288730905291
 20
-64.01975597548215
 30
0.0
  0
VERTEX
  5
50C
100
AcDbEntity
  8
L1
100
AcDbVertex
100
AcDb2dVertex
 10
-225.3999032420912
 20
-63.49876236074493
 30
0.0
  0
VERTEX
  5
50D
100
AcDbEntity
  8
L1
100
AcDbVertex
100
AcDb2dVertex
 10
-225.2208965869503
 20
-63.20184705152223
 30
0.0
  0
VERTEX
  5
50E
100
AcDbEntity
  8
L1
100
AcDbVertex
100
AcDb2dVertex
 10
-225.0711749917101
 20
-62.88663729899059
 30
0.0
  0
VERTEX
  5
50F
100
AcDbEntity
  8
L1
100
AcDbVertex
100
AcDb2dVertex
 10
-224.9536959147357
 20
-62.55804530896262
 30
0.0
  0
VERTEX
  5
510
100
AcDbEntity
  8
L1
100
AcDbVertex
100
AcDb2dVertex
 10
-224.8698482527428
 20
-62.22163427370077
 30
0.0
  0
VERTEX
  5
511
100
AcDbEntity
  8
L1
100
AcDbVertex
100
AcDb2dVertex
 10
-224.8038235094623
 20
-61.54999999993851
 30
0.0
  0
SEQEND
  5
512
100
AcDbEntity
  8
L1
  0
POLYLINE
  5
EF
100
AcDbEntity
  8
L1
100
AcDb2dPolyline
 66
     1
 10
0.0
 20
0.0
 30
0.0
  0
VERTEX
  5
513
100
AcDbEntity
  8
L1
100
AcDbVertex
100
AcDb2dVertex
 10
-225.5361570766764
 20
-61.51257860475522
 30
0.0
  0
VERTEX
  5
514
100
AcDbEntity
  8
L1
100
AcDbVertex
100
AcDb2dVertex
 10
-225.5439843406664
 20
-61.72182175527064
 30
0.0
  0
VERTEX
  5
515
100
AcDbEntity
  8
L1
100
AcDbVertex
100
AcDb2dVertex
 10
-225.5674257778747
 20
-61.9298935264805
 30
0.0
  0
VERTEX
  5
516
100
AcDbEntity
  8
L1
100
AcDbVertex
100
AcDb2dVertex
 10
-225.6063503069805
 20
-62.1356304094083
 30
0.0
  0
VERTEX
  5
517
100
AcDbEntity
  8
L1
100
AcDbVertex
100
AcDb2dVertex
 10
-225.6605402673238
 20
-62.33788195145422
 30
0.0
  0
VERTEX
  5
518
100
AcDbEntity
  8
L1
100
AcDbVertex
100
AcDb2dVertex
 10
-225.7296926360344
 20
-62.53551718956981
 30
0.0
  0
VERTEX
  5
519
100
AcDbEntity
  8
L1
100
AcDbVertex
100
AcDb2dVertex
 10
-225.8134207224947
 20
-62.72743097444851
 30
0.0
  0
VERTEX
  5
51A
100
AcDbEntity
  8
L1
100
AcDbVertex
100
AcDb2dVertex
 10
-225.9112563306604
 20
-62.91255015037041
 30
0.0
  0
VERTEX
  5
51B
100
AcDbEntity
  8
L1
100
AcDbVertex
100
AcDb2dVertex
 10
-226.0226523771492
 20
-63.08983955614241
 30
0.0
  0
VERTEX
  5
51C
100
AcDbEntity
  8
L1
100
AcDbVertex
100
AcDb2dVertex
 10
-226.1469859504569
 20
-63.25830781357871
 30
0.0
  0
VERTEX
  5
51D
100
AcDbEntity
  8
L1
100
AcDbVertex
100
AcDb2dVertex
 10
-226.2835617941929
 20
-63.41701287115222
 30
0.0
  0
VERTEX
  5
51E
100
AcDbEntity
  8
L1
100
AcDbVertex
100
AcDb2dVertex
 10
-226.4316161948591
 20
-63.56506727181846
 30
0.0
  0
VERTEX
  5
51F
100
AcDbEntity
  8
L1
100
AcDbVertex
100
AcDb2dVertex
 10
-226.5903212524325
 20
-63.70164311555431
 30
0.0
  0
VERTEX
  5
520
100
AcDbEntity
  8
L1
100
AcDbVertex
100
AcDb2dVertex
 10
-226.7587895098689
 20
-63.825976688862
 30
0.0
  0
VERTEX
  5
521
100
AcDbEntity
  8
L1
100
AcDbVertex
100
AcDb2dVertex
 10
-226.9360789156408
 20
-63.93737273535094
 30
0.0
  0
VERTEX
  5
522
100
AcDbEntity
  8
L1
100
AcDbVertex
100
AcDb2dVertex
 10
-227.1211980915628
 20
-64.03520834351667
 30
0.0
  0
VERTEX
  5
523
100
AcDbEntity
  8
L1
100
AcDbVertex
100
AcDb2dVertex
 10
-227.3131118764414
 20
-64.11893642997694
 30
0.0
  0
VERTEX
  5
524
100
AcDbEntity
  8
L1
100
AcDbVertex
100
AcDb2dVertex
 10
-227.5107471145571
 20
-64.1880887986876
 30
0.0
  0
VERTEX
  5
525
100
AcDbEntity
  8
L1
100
AcDbVertex
100
AcDb2dVertex
 10
-227.7129986566031
 20
-64.24227875903085
 30
0.0
  0
VERTEX
  5
526
100
AcDbEntity
  8
L1
100
AcDbVertex
100
AcDb2dVertex
 10
-227.9187355395307
 20
-64.28120328813657
 30
0.0
  0
VERTEX
  5
527
100
AcDbEntity
  8
L1
100
AcDbVertex
100
AcDb2dVertex
 10
-228.1268073107406
 20
-64.30464472534493
 30
0.0
  0
VERTEX
  5
528
100
AcDbEntity
  8
L1
100
AcDbVertex
100
AcDb2dVertex
 10
-228.3360504612561
 20
-64.31247198933494
 30
0.0
  0
SEQEND
  5
529
100
AcDbEntity
  8
L1
  0
POLYLINE
  5
F0
100
AcDbEntity
  8
L1
100
AcDb2dPolyline
 66
     1
 10
0.0
 20
0.0
 30
0.0
  0
VERTEX
  5
52A
100
AcDbEntity
  8
L1
100
AcDbVertex
100
AcDb2dVertex
 10
-225.7219011931173
 20
-50.14094883652546
 30
0.0
  0
VERTEX
  5
52B
100
AcDbEntity
  8
L1
100
AcDbVertex
100
AcDb2dVertex
 10
-225.6288025734621
 20
-50.12539075566445
 30
0.0
  0
SEQEND
  5
52C
100
AcDbEntity
  8
L1
  0
LINE
  5
F1
100
AcDbEntity
  8
L1
100
AcDbLine
 10
-227.9873603172248
 20
-57.53253484127623
 30
0.0
 11
-227.9873603172248
 21
-60.81362995553099
 31
0.0
  0
LINE
  5
F2
100
AcDbEntity
  8
L1
100
AcDbLine
 10
-239.8437259782712
 20
-61.3049259339017
 30
0.0
 11
-239.8437259782712
 21
-56.80490308774023
 31
0.0
  0
LINE
  5
F3
100
AcDbEntity
  8
L1
100
AcDbLine
 10
-228.9475536784185
 20
-58.96762087863812
 30
0.0
 11
-228.6814770268719
 21
-57.45862520209636
 31
0.0
  0
LINE
  5
F4
100
AcDbEntity
  8
L6
100
AcDbLine
 10
-233.0986290660729
 20
-63.03088265808231
 30
0.0
 11
-233.0986290660729
 21
-50.45130511100023
 31
0.0
  0
LINE
  5
F5
100
AcDbEntity
  8
L1
100
AcDbLine
 10
-225.9262722426896
 20
-50.42529180152087
 30
0.0
 11
-225.9262722426896
 21
-61.50528453822812
 31
0.0
  0
ARC
  5
F6
100
AcDbEntity
  8
L1
100
AcDbCircle
 10
-233.0986290660727
 20
-56.7499999999385
 30
0.0
 40
5.099999999999999
100
AcDbArc
 50
43.77813149909985
 51
226.2218685009048
  0
CIRCLE
  5
F7
100
AcDbEntity
  8
L1
100
AcDbCircle
 10
-233.0986290660727
 20
-56.7499999999385
 30
0.0
 40
3.9
  0
CIRCLE
  5
F8
100
AcDbEntity
  8
L1
100
AcDbCircle
 10
-233.0986290660727
 20
-56.7499999999385
 30
0.0
 40
3.457965408492953
  0
CIRCLE
  5
F9
100
AcDbEntity
  8
L1
100
AcDbCircle
 10
-233.0986290660727
 20
-56.7499999999385
 30
0.0
 40
2.25
  0
ARC
  5
FA
100
AcDbEntity
  8
L1
100
AcDbCircle
 10
-233.942014451355
 20
-61.49479730348869
 30
0.0
 40
0.3765253916163163
100
AcDbArc
 50
279.9738922320327
 51
64.80105009470803
  0
LINE
  5
FB
100
AcDbEntity
  8
L1
100
AcDbLine
 10
-235.7778620148345
 20
-60.61923507187481
 30
0.0
 11
-233.7817039809136
 21
-61.15410400502878
 31
0.0
  0
LINE
  5
FC
100
AcDbEntity
  8
L1
100
AcDbLine
 10
-232.3204576586302
 20
-61.8656321826818
 30
0.0
 11
-233.8768004735151
 21
-61.8656321826818
 31
0.0
  0
LINE
  5
FD
100
AcDbEntity
  8
L1
100
AcDbLine
 10
-239.4233372644677
 20
-63.9223568233217
 30
0.0
 11
-228.34334452778
 21
-63.9223568233217
 31
0.0
  0
LINE
  5
FE
100
AcDbEntity
  8
L1
100
AcDbLine
 10
-228.3360504612561
 20
-64.31247198933494
 30
0.0
 11
-237.3514642226383
 21
-64.31247198933494
 31
0.0
  0
POLYLINE
  5
FF
100
AcDbEntity
  8
L1
100
AcDb2dPolyline
 66
     1
 10
0.0
 20
0.0
 30
0.0
  0
VERTEX
  5
52D
100
AcDbEntity
  8
L1
100
AcDbVertex
100
AcDb2dVertex
 10
-236.6271540501458
 20
-60.43232418946502
 30
0.0
  0
VERTEX
  5
52E
100
AcDbEntity
  8
L1
100
AcDbVertex
100
AcDb2dVertex
 10
-236.4071475386548
 20
-60.47944937514711
 30
0.0
  0
VERTEX
  5
52F
100
AcDbEntity
  8
L1
100
AcDbVertex
100
AcDb2dVertex
 10
-236.1927703987977
 20
-60.52619901367132
 30
0.0
  0
VERTEX
  5
530
100
AcDbEntity
  8
L1
100
AcDbVertex
100
AcDb2dVertex
 10
-235.9832534544269
 20
-60.57273933200185
 30
0.0
  0
VERTEX
  5
531
100
AcDbEntity
  8
L1
100
AcDbVertex
100
AcDb2dVertex
 10
-235.7778620148345
 20
-60.61923507187469
 30
0.0
  0
SEQEND
  5
532
100
AcDbEntity
  8
L1
  0
LINE
  5
100
100
AcDbEntity
  8
L1
100
AcDbLine
 10
-239.0081233940822
 20
-61.66927765738972
 30
0.0
 11
-234.0731549988071
 21
-61.66927765738972
 31
0.0
  0
LINE
  5
101
100
AcDbEntity
  8
L1
100
AcDbLine
 10
-234.0731549988071
 20
-61.66927765738979
 30
0.0
 11
-233.8768004735151
 21
-61.8656321826818
 31
0.0
  0
ARC
  5
102
100
AcDbEntity
  8
L1
100
AcDbCircle
 10
-239.1888577428015
 20
-61.25003485226645
 30
0.0
 40
0.6571646952439818
100
AcDbArc
 50
184.7913344871928
 51
265.2086655132051
  0
ARC
  5
103
100
AcDbEntity
  8
L1
100
AcDbCircle
 10
-239.6437421322366
 20
-62.20488693375514
 30
0.0
 40
0.2999838460717834
100
AcDbArc
 50
89.99909641894253
 51
180.0009035848192
  0
ARC
  5
104
100
AcDbEntity
  8
L1
100
AcDbCircle
 10
-239.6437421322343
 20
-63.62237297728708
 30
0.0
 40
0.2999838460719821
100
AcDbArc
 50
179.9990964189372
 51
270.0009035806665
  0
LINE
  5
105
100
AcDbEntity
  8
L1
100
AcDbLine
 10
-239.6437374013518
 20
-63.9223568233217
 30
0.0
 11
-239.4233372644677
 21
-63.9223568233217
 31
0.0
  0
POLYLINE
  5
106
100
AcDbEntity
  8
L1
100
AcDb2dPolyline
 66
     1
 10
0.0
 20
0.0
 30
0.0
  0
VERTEX
  5
533
100
AcDbEntity
  8
L1
100
AcDbVertex
100
AcDb2dVertex
 10
-239.707680229463
 20
-64.1267278728938
 30
0.0
  0
VERTEX
  5
534
100
AcDbEntity
  8
L1
100
AcDbVertex
100
AcDb2dVertex
 10
-239.5984238737688
 20
-63.97874963201871
 30
0.0
  0
VERTEX
  5
535
100
AcDbEntity
  8
L1
100
AcDbVertex
100
AcDb2dVertex
 10
-239.4233372644677
 20
-63.9223568233217
 30
0.0
  0
SEQEND
  5
536
100
AcDbEntity
  8
L1
  0
LINE
  5
107
100
AcDbEntity
  8
L1
100
AcDbLine
 10
-239.9437259782711
 20
-63.62236824640246
 30
0.0
 11
-239.9437259782711
 21
-62.20489166465944
 31
0.0
  0
LINE
  5
108
100
AcDbEntity
  8
L1
100
AcDbLine
 10
-239.6437374013518
 20
-61.9049030877402
 30
0.0
 11
-239.2437488244326
 21
-61.9049030877402
 31
0.0
  0
LINE
  5
109
100
AcDbEntity
  8
L1
100
AcDbLine
 10
-239.2437488244326
 20
-61.9049030877402
 30
0.0
 11
-239.0081233940822
 21
-61.66927765738979
 31
0.0
  0
LINE
  5
10A
100
AcDbEntity
  8
L1
100
AcDbLine
 10
-239.3513880745655
 20
-64.997793085993
 30
0.0
 11
-239.7224723261325
 21
-64.62670883442592
 31
0.0
  0
LINE
  5
10B
100
AcDbEntity
  8
L1
100
AcDbLine
 10
-239.3513880745655
 20
-64.997793085993
 30
0.0
 11
-239.3478746146296
 21
-64.59519018824398
 31
0.0
  0
POLYLINE
  5
10C
100
AcDbEntity
  8
L1
100
AcDb2dPolyline
 66
     1
 10
0.0
 20
0.0
 30
0.0
  0
VERTEX
  5
537
100
AcDbEntity
  8
L1
100
AcDbVertex
100
AcDb2dVertex
 10
-239.723238310324
 20
-64.2198264925492
 30
0.0
  0
VERTEX
  5
538
100
AcDbEntity
  8
L1
100
AcDbVertex
100
AcDb2dVertex
 10
-239.707680229463
 20
-64.1267278728938
 30
0.0
  0
SEQEND
  5
539
100
AcDbEntity
  8
L1
  0
POLYLINE
  5
10D
100
AcDbEntity
  8
L1
100
AcDb2dPolyline
 66
     1
 10
0.0
 20
0.0
 30
0.0
  0
VERTEX
  5
53A
100
AcDbEntity
  8
L1
100
AcDbVertex
100
AcDb2dVertex
 10
-239.7224723261327
 20
-64.62670883442592
 30
0.0
  0
VERTEX
  5
53B
100
AcDbEntity
  8
L1
100
AcDbVertex
100
AcDb2dVertex
 10
-239.7242499627653
 20
-64.5103970370638
 30
0.0
  0
VERTEX
  5
53C
100
AcDbEntity
  8
L1
100
AcDbVertex
100
AcDb2dVertex
 10
-239.723238310324
 20
-64.2198264925492
 30
0.0
  0
SEQEND
  5
53D
100
AcDbEntity
  8
L1
  0
ELLIPSE
  5
10E
100
AcDbEntity
  8
L1
100
AcDbEllipse
 10
-237.3514642226383
 20
-64.29766744080405
 30
0.0
 11
1.696497829367981
 21
0.0
 31
0.0
210
0.0
220
0.0
230
1.0
 40
0.0087265354983806
 41
-3.132866339598172
 42
-1.570796326794896
  0
ELLIPSE
  5
10F
100
AcDbEntity
  8
L1
100
AcDbEllipse
 10
-239.0478974594862
 20
-64.59778520522269
 30
0.0
 11
0.2121320343562721
 21
0.212132034355611
 31
0.0
210
0.0
220
0.0
230
1.0
 40
0.9999238504775695
 41
0.7854362396099459
 42
2.347505920145144
  0
POLYLINE
  5
110
100
AcDbEntity
  8
L1
100
AcDb2dPolyline
 66
     1
 10
0.0
 20
0.0
 30
0.0
  0
VERTEX
  5
53E
100
AcDbEntity
  8
L1
100
AcDbVertex
100
AcDb2dVertex
 10
-225.9259995805713
 20
-61.49799556973104
 30
0.0
  0
VERTEX
  5
53F
100
AcDbEntity
  8
L1
100
AcDbVertex
100
AcDb2dVertex
 10
-225.9332812048465
 20
-61.69265234968799
 30
0.0
  0
VERTEX
  5
540
100
AcDbEntity
  8
L1
100
AcDbVertex
100
AcDb2dVertex
 10
-225.9534543856893
 20
-61.87171430018324
 30
0.0
  0
VERTEX
  5
541
100
AcDbEntity
  8
L1
100
AcDbVertex
100
AcDb2dVertex
 10
-225.9869518646436
 20
-62.04876633046828
 30
0.0
  0
VERTEX
  5
542
100
AcDbEntity
  8
L1
100
AcDbVertex
100
AcDb2dVertex
 10
-226.0335862521431
 20
-62.2228184376153
 30
0.0
  0
VERTEX
  5
543
100
AcDbEntity
  8
L1
100
AcDbVertex
100
AcDb2dVertex
 10
-226.0930967113876
 20
-62.39289740963818
 30
0.0
  0
VERTEX
  5
544
100
AcDbEntity
  8
L1
100
AcDbVertex
100
AcDb2dVertex
 10
-226.1651504200951
 20
-62.55805226432642
 30
0.0
  0
VERTEX
  5
545
100
AcDbEntity
  8
L1
100
AcDbVertex
100
AcDb2dVertex
 10
-226.2493444340126
 20
-62.71735956323638
 30
0.0
  0
VERTEX
  5
546
100
AcDbEntity
  8
L1
100
AcDbVertex
100
AcDb2dVertex
 10
-226.3452079416098
 20
-62.86992857113751
 30
0.0
  0
VERTEX
  5
547
100
AcDbEntity
  8
L1
100
AcDbVertex
100
AcDb2dVertex
 10
-226.4522048972968
 20
-63.01490623241008
 30
0.0
  0
VERTEX
  5
548
100
AcDbEntity
  8
L1
100
AcDbVertex
100
AcDb2dVertex
 10
-226.569737018422
 20
-63.15148193671908
 30
0.0
  0
VERTEX
  5
549
100
AcDbEntity
  8
L1
100
AcDbVertex
100
AcDb2dVertex
 10
-226.6971471292906
 20
-63.27889204758827
 30
0.0
  0
VERTEX
  5
54A
100
AcDbEntity
  8
L1
100
AcDbVertex
100
AcDb2dVertex
 10
-226.833722833603
 20
-63.39642416871456
 30
0.0
  0
VERTEX
  5
54B
100
AcDbEntity
  8
L1
100
AcDbVertex
100
AcDb2dVertex
 10
-226.9787004948747
 20
-63.50342112440259
 30
0.0
  0
VERTEX
  5
54C
100
AcDbEntity
  8
L1
100
AcDbVertex
100
AcDb2dVertex
 10
-227.1312695027747
 20
-63.59928463199782
 30
0.0
  0
VERTEX
  5
54D
100
AcDbEntity
  8
L1
100
AcDbVertex
100
AcDb2dVertex
 10
-227.2905768016846
 20
-63.68347864591635
 30
0.0
  0
VERTEX
  5
54E
100
AcDbEntity
  8
L1
100
AcDbVertex
100
AcDb2dVertex
 10
-227.4557316563734
 20
-63.75553235462419
 30
0.0
  0
VERTEX
  5
54F
100
AcDbEntity
  8
L1
100
AcDbVertex
100
AcDb2dVertex
 10
-227.6258106283938
 20
-63.81504281386838
 30
0.0
  0
VERTEX
  5
550
100
AcDbEntity
  8
L1
100
AcDbVertex
100
AcDb2dVertex
 10
-227.7998627355421
 20
-63.86167720136757
 30
0.0
  0
VERTEX
  5
551
100
AcDbEntity
  8
L1
100
AcDbVertex
100
AcDb2dVertex
 10
-227.9769147658263
 20
-63.89517468032201
 30
0.0
  0
VERTEX
  5
552
100
AcDbEntity
  8
L1
100
AcDbVertex
100
AcDb2dVertex
 10
-228.1559767163226
 20
-63.91534786116491
 30
0.0
  0
VERTEX
  5
553
100
AcDbEntity
  8
L1
100
AcDbVertex
100
AcDb2dVertex
 10
-228.3506334962802
 20
-63.92262948544007
 30
0.0
  0
SEQEND
  5
554
100
AcDbEntity
  8
L1
  0
ARC
  5
111
100
AcDbEntity
  8
L1
100
AcDbCircle
 10
-232.2678080736717
 20
-61.5076876169503
 30
0.0
 40
0.361795924428356
100
AcDbArc
 50
109.7397192863999
 51
261.6324408128051
  0
LINE
  5
112
100
AcDbEntity
  8
L1
100
AcDbLine
 10
-229.0349991104804
 20
-61.86126874878642
 30
0.0
 11
-232.3160942247349
 21
-61.86126874878642
 31
0.0
  0
ARC
  5
113
100
AcDbEntity
  8
L1
100
AcDbCircle
 10
-233.0986290660727
 20
-56.7499999999385
 30
0.0
 40
4.70630101413334
100
AcDbArc
 50
298.1123827949399
 51
331.887617205053
  0
POLYLINE
  5
114
100
AcDbEntity
  8
L1
100
AcDb2dPolyline
 66
     1
 10
0.0
 20
0.0
 30
0.0
  0
VERTEX
  5
555
100
AcDbEntity
  8
L1
100
AcDbVertex
100
AcDb2dVertex
 10
-229.0215316954907
 20
-59.51281113352121
 30
0.0
  0
VERTEX
  5
556
100
AcDbEntity
  8
L1
100
AcDbVertex
100
AcDb2dVertex
 10
-229.0032344291793
 20
-59.37391021484296
 30
0.0
  0
VERTEX
  5
557
100
AcDbEntity
  8
L1
100
AcDbVertex
100
AcDb2dVertex
 10
-228.9848239229848
 20
-59.23687734496439
 30
0.0
  0
VERTEX
  5
558
100
AcDbEntity
  8
L1
100
AcDbVertex
100
AcDb2dVertex
 10
-228.9662729194018
 20
-59.10151269920612
 30
0.0
  0
VERTEX
  5
559
100
AcDbEntity
  8
L1
100
AcDbVertex
100
AcDb2dVertex
 10
-228.9475536784185
 20
-58.96762087863812
 30
0.0
  0
SEQEND
  5
55A
100
AcDbEntity
  8
L1
  0
LINE
  5
115
100
AcDbEntity
  8
L1
100
AcDbLine
 10
-232.3900038639147
 20
-61.16715203913952
 30
0.0
 11
-230.8810081873736
 21
-60.90107538759292
 31
0.0
  0
POLYLINE
  5
116
100
AcDbEntity
  8
L1
100
AcDb2dPolyline
 66
     1
 10
0.0
 20
0.0
 30
0.0
  0
VERTEX
  5
55B
100
AcDbEntity
  8
L1
100
AcDbVertex
100
AcDb2dVertex
 10
-230.8810081873736
 20
-60.90107538759292
 30
0.0
  0
VERTEX
  5
55C
100
AcDbEntity
  8
L1
100
AcDbVertex
100
AcDb2dVertex
 10
-230.7471163668056
 20
-60.88235614660965
 30
0.0
  0
VERTEX
  5
55D
100
AcDbEntity
  8
L1
100
AcDbVertex
100
AcDb2dVertex
 10
-230.6117517210474
 20
-60.86380514302658
 30
0.0
  0
VERTEX
  5
55E
100
AcDbEntity
  8
L1
100
AcDbVertex
100
AcDb2dVertex
 10
-230.4747188511688
 20
-60.84539463683217
 30
0.0
  0
VERTEX
  5
55F
100
AcDbEntity
  8
L1
100
AcDbVertex
100
AcDb2dVertex
 10
-230.3358179324904
 20
-60.8270973705205
 30
0.0
  0
SEQEND
  5
560
100
AcDbEntity
  8
L1
  0
LINE
  5
117
100
AcDbEntity
  8
L1
100
AcDbLine
 10
-232.3204576586302
 20
-61.8656321826818
 30
0.0
 11
-232.3160942247349
 21
-61.86126874878642
 31
0.0
  0
ARC
  5
118
100
AcDbEntity
  8
L1
100
AcDbCircle
 10
-233.0986290660727
 20
-56.7499999999385
 30
0.0
 40
4.925022672948151
100
AcDbArc
 50
304.1232037095383
 51
325.8767962904567
  0
ARC
  5
119
100
AcDbEntity
  8
L1
100
AcDbCircle
 10
-229.0349991104802
 20
-60.81362995553099
 30
0.0
 40
1.047638793255447
100
AcDbArc
 50
269.9999999999984
 51
359.9999999999984
  0
ARC
  5
11A
100
AcDbEntity
  8
L1
100
AcDbCircle
 10
-233.0437259782712
 20
-56.80490308774023
 30
0.0
 40
6.799999999999999
100
AcDbArc
 50
89.99999999999928
 51
180.0
  0
LINE
  5
11B
100
AcDbEntity
  8
L6
100
AcDbLine
 10
-240.1275593937897
 20
-56.7499999999385
 30
0.0
 11
-226.1261979492909
 21
-56.7499999999385
 31
0.0
  0
ARC
  5
11C
100
AcDbEntity
  8
L1
100
AcDbCircle
 10
-228.3411924213599
 20
-57.55919516887772
 30
0.0
 40
0.3548350757278544
100
AcDbArc
 50
4.308945793611711
 51
163.5351330925392
  0
LINE
  5
11D
100
AcDbEntity
  8
L1
100
AcDbLine
 10
-227.9873603172248
 20
-57.53253484127623
 30
0.0
 11
-227.9829968833295
 21
-57.52817140738085
 31
0.0
  0
ARC
  5
11E
100
AcDbEntity
  8
L1
100
AcDbCircle
 10
-228.5985942136715
 20
-50.65977132313438
 30
0.0
 40
0.6571646951645881
100
AcDbArc
 50
4.791334480782913
 51
85.20866551864081
  0
ARC
  5
11F
100
AcDbEntity
  8
L1
100
AcDbCircle
 10
-227.6437421324308
 20
-50.20488693359675
 30
0.0
 40
0.2999838458776089
100
AcDbArc
 50
89.99909638185499
 51
180.0009036150725
  0
ARC
  5
120
100
AcDbEntity
  8
L1
100
AcDbCircle
 10
-226.2262560884568
 20
-50.20488693359201
 30
0.0
 40
0.2999838458045083
100
AcDbArc
 50
359.9990963840206
 51
90.0009036321504
  0
LINE
  5
121
100
AcDbEntity
  8
L1
100
AcDbLine
 10
-227.9829968833295
 20
-55.97182859249613
 30
0.0
 11
-228.1793514086215
 21
-55.77547406720407
 31
0.0
  0
LINE
  5
122
100
AcDbEntity
  8
L1
100
AcDbLine
 10
-228.1793514086215
 20
-50.84050567192924
 30
0.0
 11
-227.9437259782711
 21
-50.60488024157871
 31
0.0
  0
LINE
  5
123
100
AcDbEntity
  8
L1
100
AcDbLine
 10
-227.9437259782711
 20
-50.20489166465944
 30
0.0
 11
-227.9437259782711
 21
-50.60488024157866
 31
0.0
  0
POLYLINE
  5
124
100
AcDbEntity
  8
L1
100
AcDb2dPolyline
 66
     1
 10
0.0
 20
0.0
 30
0.0
  0
VERTEX
  5
561
100
AcDbEntity
  8
L1
100
AcDbVertex
100
AcDb2dVertex
 10
-225.9262722426896
 20
-50.42529180152087
 30
0.0
  0
VERTEX
  5
562
100
AcDbEntity
  8
L1
100
AcDbVertex
100
AcDb2dVertex
 10
-225.8698794339924
 20
-50.25020519221977
 30
0.0
  0
VERTEX
  5
563
100
AcDbEntity
  8
L1
100
AcDbVertex
100
AcDb2dVertex
 10
-225.7219011931173
 20
-50.14094883652552
 30
0.0
  0
SEQEND
  5
564
100
AcDbEntity
  8
L1
  0
LINE
  5
125
100
AcDbEntity
  8
L1
100
AcDbLine
 10
-225.9262722426896
 20
-50.42529180152087
 30
0.0
 11
-225.9262722426896
 21
-50.20489166465944
 31
0.0
  0
LINE
  5
126
100
AcDbEntity
  8
L1
100
AcDbLine
 10
-227.643737401352
 20
-49.90490308774025
 30
0.0
 11
-226.2262608196089
 21
-49.90490308774025
 31
0.0
  0
LINE
  5
127
100
AcDbEntity
  8
L1
100
AcDbLine
 10
-228.1793514086217
 20
-55.77547406720407
 30
0.0
 11
-228.1793514086217
 21
-50.84050567192924
 31
0.0
  0
POLYLINE
  5
128
100
AcDbEntity
  8
L1
100
AcDb2dPolyline
 66
     1
 10
0.0
 20
0.0
 30
0.0
  0
VERTEX
  5
565
100
AcDbEntity
  8
L1
100
AcDbVertex
100
AcDb2dVertex
 10
-229.2293939941367
 20
-54.07076705117623
 30
0.0
  0
VERTEX
  5
566
100
AcDbEntity
  8
L1
100
AcDbVertex
100
AcDb2dVertex
 10
-229.2758897340096
 20
-53.86537561158383
 30
0.0
  0
VERTEX
  5
567
100
AcDbEntity
  8
L1
100
AcDbVertex
100
AcDb2dVertex
 10
-229.3224300523401
 20
-53.65585866721318
 30
0.0
  0
VERTEX
  5
568
100
AcDbEntity
  8
L1
100
AcDbVertex
100
AcDb2dVertex
 10
-229.3691796908643
 20
-53.44148152735619
 30
0.0
  0
VERTEX
  5
569
100
AcDbEntity
  8
L1
100
AcDbVertex
100
AcDb2dVertex
 10
-229.4163048765464
 20
-53.22147501586517
 30
0.0
  0
SEQEND
  5
56A
100
AcDbEntity
  8
L1
  0
LINE
  5
129
100
AcDbEntity
  8
L1
100
AcDbLine
 10
-233.0437259782712
 20
-50.00490308774022
 30
0.0
 11
-228.5437031321097
 21
-50.00490308774022
 31
0.0
  0
LINE
  5
12A
100
AcDbEntity
  8
L1
100
AcDbLine
 10
-228.6945250609827
 20
-56.06692508509758
 30
0.0
 11
-229.2293939941367
 21
-54.07076705117623
 31
0.0
  0
ARC
  5
12B
100
AcDbEntity
  8
L1
100
AcDbCircle
 10
-228.3517056246365
 20
-55.92252274114116
 30
0.0
 40
0.3719908639927393
100
AcDbArc
 50
202.8417907500176
 51
352.3832669252253
  0
LINE
  5
12C
100
AcDbEntity
  8
L1
100
AcDbLine
 10
-227.9829968833295
 20
-55.97182859249613
 30
0.0
 11
-227.9829968833295
 21
-57.52817140738085
 31
0.0
  0
LINE
  5
12D
100
AcDbEntity
  8
L1
100
AcDbLine
 10
-225.5361570766764
 20
-52.4971648433729
 30
0.0
 11
-225.5361570766764
 21
-61.51257860475528
 31
0.0
  0
LINE
  5
12E
100
AcDbEntity
  8
L1
100
AcDbLine
 10
-225.5361570766764
 20
-52.4971648433729
 30
0.0
 11
-225.5508324377078
 21
-50.80073160652489
 31
0.0
  0
ELLIPSE
  5
12F
100
AcDbEntity
  8
L1
100
AcDbEllipse
 10
-225.2508438607886
 20
-50.80073160652489
 30
0.0
 11
-0.2121320343557347
 21
-0.212132034356148
 31
0.0
210
0.0
220
0.0
230
1.0
 40
0.9999238504775703
 41
-2.347505920144371
 42
-0.7854362396093615
  0
LINE
  5
130
100
AcDbEntity
  8
L1
100
AcDbLine
 10
-224.8508359800181
 20
-50.49724099144555
 30
0.0
 11
-225.2534388777672
 21
-50.50075445138162
 31
0.0
  0
LINE
  5
131
100
AcDbEntity
  8
L1
100
AcDbLine
 10
-225.2219202315851
 20
-50.12615673985528
 30
0.0
 11
-224.8508359800181
 21
-50.49724099137648
 31
0.0
  0
POLYLINE
  5
132
100
AcDbEntity
  8
L1
100
AcDb2dPolyline
 66
     1
 10
0.0
 20
0.0
 30
0.0
  0
VERTEX
  5
56B
100
AcDbEntity
  8
L1
100
AcDbVertex
100
AcDb2dVertex
 10
-225.6288025734621
 20
-50.12539075566451
 30
0.0
  0
VERTEX
  5
56C
100
AcDbEntity
  8
L1
100
AcDbVertex
100
AcDb2dVertex
 10
-225.3382320289475
 20
-50.1243791032229
 30
0.0
  0
VERTEX
  5
56D
100
AcDbEntity
  8
L1
100
AcDbVertex
100
AcDb2dVertex
 10
-225.2219202315851
 20
-50.12615673985528
 30
0.0
  0
SEQEND
  5
56E
100
AcDbEntity
  8
L1
  0
LINE
  5
133
100
AcDbEntity
  8
L1
100
AcDbLine
 10
-176.8643825975955
 20
-50.49724099148654
 30
0.0
 11
-134.3423391262777
 21
-50.12615673991948
 31
0.0
  0
LINE
  5
134
100
AcDbEntity
  8
L1
100
AcDbLine
 10
-178.5494726624197
 20
-64.31247198937601
 30
0.0
 11
-133.1440844333772
 21
-63.91622516931275
 31
0.0
  0
LINE
  5
135
100
AcDbEntity
  8
L1
100
AcDbLine
 10
-134.3423391262775
 20
-64.62670883446697
 30
0.0
 11
-176.8643825975962
 21
-64.99779308603405
 31
0.0
  0
LINE
  5
136
100
AcDbEntity
  8
L1
100
AcDbLine
 10
-178.8468547017701
 20
-61.51522712726145
 30
0.0
 11
-178.8468547017701
 21
-52.49716484341388
 31
0.0
  0
LINE
  5
137
100
AcDbEntity
  8
L1
100
AcDbLine
 10
-182.251893215092
 20
-65.04480917891425
 30
0.0
 11
-178.8468547017701
 21
-65.01509385798605
 31
0.0
  0
LINE
  5
138
100
AcDbEntity
  8
L1
100
AcDbLine
 10
-182.8467023940268
 20
-61.62721114180556
 30
0.0
 11
-182.846622520153
 21
-61.62721183885429
 31
0.0
  0
POLYLINE
  5
139
100
AcDbEntity
  8
L1
100
AcDb2dPolyline
 66
     1
 10
0.0
 20
0.0
 30
0.0
  0
VERTEX
  5
56F
100
AcDbEntity
  8
L1
100
AcDbVertex
100
AcDb2dVertex
 10
-182.251893215092
 20
-61.54494244818966
 30
0.0
  0
VERTEX
  5
570
100
AcDbEntity
  8
L1
100
AcDbVertex
100
AcDb2dVertex
 10
-182.2518941206734
 20
-61.54747121691122
 30
0.0
  0
VERTEX
  5
571
100
AcDbEntity
  8
L1
100
AcDbVertex
100
AcDb2dVertex
 10
-182.2518968374166
 20
-61.54999999997952
 30
0.0
  0
SEQEND
  5
572
100
AcDbEntity
  8
L1
  0
ARC
  5
13A
100
AcDbEntity
  8
L1
100
AcDbCircle
 10
-182.5467023940269
 20
-61.14739336315796
 30
0.0
 40
0.3
100
AcDbArc
 50
179.2953474171221
 51
180.0
  0
POLYLINE
  5
13B
100
AcDbEntity
  8
L1
100
AcDb2dPolyline
 66
     1
 10
0.0
 20
0.0
 30
0.0
  0
VERTEX
  5
573
100
AcDbEntity
  8
L1
100
AcDbVertex
100
AcDb2dVertex
 10
-182.2518968374166
 20
-65.04480555658969
 30
0.0
  0
VERTEX
  5
574
100
AcDbEntity
  8
L1
100
AcDbVertex
100
AcDb2dVertex
 10
-182.2518941206734
 20
-65.04480827333299
 30
0.0
  0
VERTEX
  5
575
100
AcDbEntity
  8
L1
100
AcDbVertex
100
AcDb2dVertex
 10
-182.251893215092
 20
-65.04480917891425
 30
0.0
  0
SEQEND
  5
576
100
AcDbEntity
  8
L1
  0
LINE
  5
13C
100
AcDbEntity
  8
L1
100
AcDbLine
 10
-182.8467023940268
 20
-64.4499999999795
 30
0.0
 11
-182.2518968374166
 21
-65.04480555658972
 31
0.0
  0
LINE
  5
13F
100
AcDbEntity
  8
L1
100
AcDbLine
 10
-178.8468547017701
 20
-65.01509385798598
 30
0.0
 11
-176.8643825975955
 21
-64.99779308603399
 31
0.0
  0
ARC
  5
140
100
AcDbEntity
  8
L1
100
AcDbCircle
 10
-178.5468547017702
 20
-64.61246056629519
 30
0.0
 40
0.2999999999999994
100
AcDbArc
 50
90.50000000000194
 51
180.0000000000054
  0
POLYLINE
  5
141
100
AcDbEntity
  8
L1
100
AcDb2dPolyline
 66
     1
 10
0.0
 20
0.0
 30
0.0
  0
VERTEX
  5
581
100
AcDbEntity
  8
L1
100
AcDbVertex
100
AcDb2dVertex
 10
-178.8468547017701
 20
-65.01509385798607
 30
0.0
  0
VERTEX
  5
582
100
AcDbEntity
  8
L1
100
AcDbVertex
100
AcDb2dVertex
 10
-178.8468547017701
 20
-64.7486875767411
 30
0.0
  0
VERTEX
  5
583
100
AcDbEntity
  8
L1
100
AcDbVertex
100
AcDb2dVertex
 10
-178.8468547017701
 20
-63.99002279259409
 30
0.0
  0
VERTEX
  5
584
100
AcDbEntity
  8
L1
100
AcDbVertex
100
AcDb2dVertex
 10
-178.8468547017701
 20
-62.85458828726501
 30
0.0
  0
VERTEX
  5
585
100
AcDbEntity
  8
L1
100
AcDbVertex
100
AcDb2dVertex
 10
-178.8468547017701
 20
-61.51522712726145
 30
0.0
  0
SEQEND
  5
586
100
AcDbEntity
  8
L1
  0
POLYLINE
  5
142
100
AcDbEntity
  8
L1
100
AcDb2dPolyline
 66
     1
 10
0.0
 20
0.0
 30
0.0
  0
VERTEX
  5
587
100
AcDbEntity
  8
L1
100
AcDbVertex
100
AcDb2dVertex
 10
-182.8467023940268
 20
-50.31385840389077
 30
0.0
  0
VERTEX
  5
588
100
AcDbEntity
  8
L1
100
AcDbVertex
100
AcDb2dVertex
 10
-182.8461292125585
 20
-50.31387057761299
 30
0.0
  0
SEQEND
  5
589
100
AcDbEntity
  8
L1
  0
LINE
  5
143
100
AcDbEntity
  8
L1
100
AcDbLine
 10
-182.8467023940268
 20
-51.64999999997951
 30
0.0
 11
-182.845884652603
 21
-51.65000713630082
 31
0.0
  0
POLYLINE
  5
144
100
AcDbEntity
  8
L1
100
AcDb2dPolyline
 66
     1
 10
0.0
 20
0.0
 30
0.0
  0
VERTEX
  5
58A
100
AcDbEntity
  8
L1
100
AcDbVertex
100
AcDb2dVertex
 10
-182.8467023940268
 20
-50.31385840389077
 30
0.0
  0
VERTEX
  5
58B
100
AcDbEntity
  8
L1
100
AcDbVertex
100
AcDb2dVertex
 10
-182.8465083357783
 20
-50.31386252547244
 30
0.0
  0
SEQEND
  5
58C
100
AcDbEntity
  8
L1
  0
ELLIPSE
  5
145
100
AcDbEntity
  8
L1
100
AcDbEllipse
 10
-176.8469308556417
 20
-52.49716484341388
 30
0.0
 11
0.0
 21
-2.0
 31
0.0
210
0.0
220
0.0
230
1.0
 40
0.9999619230641712
 41
-3.132866339596876
 42
-1.570796326794896
  0
LINE
  5
146
100
AcDbEntity
  8
L1
100
AcDbLine
 10
-182.8467023940268
 20
-48.52721114180553
 30
0.0
 11
-182.845884652603
 21
-48.52721827812684
 31
0.0
  0
ARC
  5
147
100
AcDbEntity
  8
L1
100
AcDbCircle
 10
-182.5467023940269
 20
-48.24739336315804
 30
0.0
 40
0.3
100
AcDbArc
 50
179.905767591816
 51
180.0
  0
LINE
  5
148
100
AcDbEntity
  8
L1
100
AcDbLine
 10
-132.8467023940268
 20
-61.11633178473306
 30
0.0
 11
-132.8467023940268
 21
-50.21102331875048
 31
0.0
  0
ARC
  5
149
100
AcDbEntity
  8
L1
100
AcDbCircle
 10
-133.1467023940268
 20
-63.6162365923935
 30
0.0
 40
0.3000000000000043
100
AcDbArc
 50
270.5000000000021
 51
0.0
  0
POLYLINE
  5
14A
100
AcDbEntity
  8
L1
100
AcDb2dPolyline
 66
     1
 10
0.0
 20
0.0
 30
0.0
  0
VERTEX
  5
58D
100
AcDbEntity
  8
L1
100
AcDbVertex
100
AcDb2dVertex
 10
-133.8467023940268
 20
-63.92214521945826
 30
0.0
  0
VERTEX
  5
58E
100
AcDbEntity
  8
L1
100
AcDbVertex
100
AcDb2dVertex
 10
-133.8467023940268
 20
-63.9223017601486
 30
0.0
  0
VERTEX
  5
58F
100
AcDbEntity
  8
L1
100
AcDbVertex
100
AcDb2dVertex
 10
-133.8467023940268
 20
-63.92235673711557
 30
0.0
  0
SEQEND
  5
590
100
AcDbEntity
  8
L1
  0
POLYLINE
  5
14B
100
AcDbEntity
  8
L1
100
AcDb2dPolyline
 66
     1
 10
0.0
 20
0.0
 30
0.0
  0
VERTEX
  5
591
100
AcDbEntity
  8
L1
100
AcDbVertex
100
AcDb2dVertex
 10
-133.8467023940268
 20
-63.92235682336274
 30
0.0
  0
VERTEX
  5
592
100
AcDbEntity
  8
L1
100
AcDbVertex
100
AcDb2dVertex
 10
-133.8467023940268
 20
-63.97874963205982
 30
0.0
  0
VERTEX
  5
593
100
AcDbEntity
  8
L1
100
AcDbVertex
100
AcDb2dVertex
 10
-133.8467023940268
 20
-64.12672787293485
 30
0.0
  0
SEQEND
  5
594
100
AcDbEntity
  8
L1
  0
POLYLINE
  5
14C
100
AcDbEntity
  8
L1
100
AcDb2dPolyline
 66
     1
 10
0.0
 20
0.0
 30
0.0
  0
VERTEX
  5
595
100
AcDbEntity
  8
L1
100
AcDbVertex
100
AcDb2dVertex
 10
-133.8554462011719
 20
-64.21982649259021
 30
0.0
  0
VERTEX
  5
596
100
AcDbEntity
  8
L1
100
AcDbVertex
100
AcDb2dVertex
 10
-134.0260811650585
 20
-64.51039703710478
 30
0.0
  0
VERTEX
  5
597
100
AcDbEntity
  8
L1
100
AcDbVertex
100
AcDb2dVertex
 10
-134.3423391262775
 20
-64.62670883446694
 30
0.0
  0
SEQEND
  5
598
100
AcDbEntity
  8
L1
  0
POLYLINE
  5
14D
100
AcDbEntity
  8
L1
100
AcDb2dPolyline
 66
     1
 10
0.0
 20
0.0
 30
0.0
  0
VERTEX
  5
599
100
AcDbEntity
  8
L1
100
AcDbVertex
100
AcDb2dVertex
 10
-133.8467023940268
 20
-64.12672787293485
 30
0.0
  0
VERTEX
  5
59A
100
AcDbEntity
  8
L1
100
AcDbVertex
100
AcDb2dVertex
 10
-133.8554462011719
 20
-64.21982649259021
 30
0.0
  0
SEQEND
  5
59B
100
AcDbEntity
  8
L1
  0
POLYLINE
  5
14E
100
AcDbEntity
  8
L1
100
AcDb2dPolyline
 66
     1
 10
0.0
 20
0.0
 30
0.0
  0
VERTEX
  5
59C
100
AcDbEntity
  8
L1
100
AcDbVertex
100
AcDb2dVertex
 10
-132.8467023940268
 20
-63.61623659239348
 30
0.0
  0
VERTEX
  5
59D
100
AcDbEntity
  8
L1
100
AcDbVertex
100
AcDb2dVertex
 10
-132.8467023940268
 20
-63.59800984880056
 30
0.0
  0
VERTEX
  5
59E
100
AcDbEntity
  8
L1
100
AcDbVertex
100
AcDb2dVertex
 10
-132.8467023940268
 20
-63.54359537924773
 30
0.0
  0
VERTEX
  5
59F
100
AcDbEntity
  8
L1
100
AcDbVertex
100
AcDb2dVertex
 10
-132.8467023940268
 20
-63.45378659239068
 30
0.0
  0
VERTEX
  5
5A0
100
AcDbEntity
  8
L1
100
AcDbVertex
100
AcDb2dVertex
 10
-132.8467023940268
 20
-63.32989297575057
 30
0.0
  0
VERTEX
  5
5A1
100
AcDbEntity
  8
L1
100
AcDbVertex
100
AcDb2dVertex
 10
-132.8467023940268
 20
-63.17372100228644
 30
0.0
  0
VERTEX
  5
5A2
100
AcDbEntity
  8
L1
100
AcDbVertex
100
AcDb2dVertex
 10
-132.8467023940268
 20
-62.98754779050273
 30
0.0
  0
VERTEX
  5
5A3
100
AcDbEntity
  8
L1
100
AcDbVertex
100
AcDb2dVertex
 10
-132.8467023940268
 20
-62.77408790214929
 30
0.0
  0
VERTEX
  5
5A4
100
AcDbEntity
  8
L1
100
AcDbVertex
100
AcDb2dVertex
 10
-132.8467023940268
 20
-62.53645376163198
 30
0.0
  0
VERTEX
  5
5A5
100
AcDbEntity
  8
L1
100
AcDbVertex
100
AcDb2dVertex
 10
-132.8467023940268
 20
-62.27811027425125
 30
0.0
  0
VERTEX
  5
5A6
100
AcDbEntity
  8
L1
100
AcDbVertex
100
AcDb2dVertex
 10
-132.8467023940268
 20
-62.0028243049737
 30
0.0
  0
VERTEX
  5
5A7
100
AcDbEntity
  8
L1
100
AcDbVertex
100
AcDb2dVertex
 10
-132.8467023940268
 20
-61.71460975437788
 30
0.0
  0
VERTEX
  5
5A8
100
AcDbEntity
  8
L1
100
AcDbVertex
100
AcDb2dVertex
 10
-132.8467023940268
 20
-61.4176690326135
 30
0.0
  0
VERTEX
  5
5A9
100
AcDbEntity
  8
L1
100
AcDbVertex
100
AcDb2dVertex
 10
-132.8467023940268
 20
-61.11633178473306
 30
0.0
  0
SEQEND
  5
5AA
100
AcDbEntity
  8
L1
  0
LINE
  5
14F
100
AcDbEntity
  8
L1
100
AcDbLine
 10
-133.1440844333772
 20
-49.91103474183123
 30
0.0
 11
-133.8466041948698
 21
-49.90490394475227
 31
0.0
  0
ARC
  5
150
100
AcDbEntity
  8
L1
100
AcDbCircle
 10
-133.1467023940268
 20
-50.21102331875048
 30
0.0
 40
0.2999999999999971
100
AcDbArc
 50
0.0
 51
89.50000000000192
  0
POLYLINE
  5
151
100
AcDbEntity
  8
L1
100
AcDb2dPolyline
 66
     1
 10
0.0
 20
0.0
 30
0.0
  0
VERTEX
  5
5AB
100
AcDbEntity
  8
L1
100
AcDbVertex
100
AcDb2dVertex
 10
-133.8554462011719
 20
-50.12539075572814
 30
0.0
  0
VERTEX
  5
5AC
100
AcDbEntity
  8
L1
100
AcDbVertex
100
AcDb2dVertex
 10
-133.8467023940268
 20
-50.14094883658913
 30
0.0
  0
SEQEND
  5
5AD
100
AcDbEntity
  8
L1
  0
POLYLINE
  5
152
100
AcDbEntity
  8
L1
100
AcDb2dPolyline
 66
     1
 10
0.0
 20
0.0
 30
0.0
  0
VERTEX
  5
5AE
100
AcDbEntity
  8
L1
100
AcDbVertex
100
AcDb2dVertex
 10
-134.3423391262775
 20
-50.12615673991948
 30
0.0
  0
VERTEX
  5
5AF
100
AcDbEntity
  8
L1
100
AcDbVertex
100
AcDb2dVertex
 10
-134.0260811650585
 20
-50.12437910328668
 30
0.0
  0
VERTEX
  5
5B0
100
AcDbEntity
  8
L1
100
AcDbVertex
100
AcDb2dVertex
 10
-133.8554462011719
 20
-50.12539075572814
 30
0.0
  0
SEQEND
  5
5B1
100
AcDbEntity
  8
L1
  0
POLYLINE
  5
153
100
AcDbEntity
  8
L1
100
AcDb2dPolyline
 66
     1
 10
0.0
 20
0.0
 30
0.0
  0
VERTEX
  5
5B2
100
AcDbEntity
  8
L1
100
AcDbVertex
100
AcDb2dVertex
 10
-133.8467023940268
 20
-50.14094883658916
 30
0.0
  0
VERTEX
  5
5B3
100
AcDbEntity
  8
L1
100
AcDbVertex
100
AcDb2dVertex
 10
-133.8467023940268
 20
-50.25020519228346
 30
0.0
  0
VERTEX
  5
5B4
100
AcDbEntity
  8
L1
100
AcDbVertex
100
AcDb2dVertex
 10
-133.8467023940268
 20
-50.4252918015845
 30
0.0
  0
SEQEND
  5
5B5
100
AcDbEntity
  8
L1
  0
POLYLINE
  5
154
100
AcDbEntity
  8
L1
100
AcDb2dPolyline
 66
     1
 10
0.0
 20
0.0
 30
0.0
  0
VERTEX
  5
5B6
100
AcDbEntity
  8
L1
100
AcDbVertex
100
AcDb2dVertex
 10
-225.5361570766764
 20
61.5125786048373
 30
0.0
  0
VERTEX
  5
5B7
100
AcDbEntity
  8
L1
100
AcDbVertex
100
AcDb2dVertex
 10
-225.5439843406664
 20
61.72182175535272
 30
0.0
  0
VERTEX
  5
5B8
100
AcDbEntity
  8
L1
100
AcDbVertex
100
AcDb2dVertex
 10
-225.5674257778747
 20
61.92989352656258
 30
0.0
  0
VERTEX
  5
5B9
100
AcDbEntity
  8
L1
100
AcDbVertex
100
AcDb2dVertex
 10
-225.6063503069805
 20
62.13563040949037
 30
0.0
  0
VERTEX
  5
5BA
100
AcDbEntity
  8
L1
100
AcDbVertex
100
AcDb2dVertex
 10
-225.6605402673238
 20
62.3378819515363
 30
0.0
  0
VERTEX
  5
5BB
100
AcDbEntity
  8
L1
100
AcDbVertex
100
AcDb2dVertex
 10
-225.7296926360344
 20
62.5355171896519
 30
0.0
  0
VERTEX
  5
5BC
100
AcDbEntity
  8
L1
100
AcDbVertex
100
AcDb2dVertex
 10
-225.8134207224947
 20
62.72743097453059
 30
0.0
  0
VERTEX
  5
5BD
100
AcDbEntity
  8
L1
100
AcDbVertex
100
AcDb2dVertex
 10
-225.9112563306604
 20
62.91255015045249
 30
0.0
  0
VERTEX
  5
5BE
100
AcDbEntity
  8
L1
100
AcDbVertex
100
AcDb2dVertex
 10
-226.0226523771492
 20
63.08983955622449
 30
0.0
  0
VERTEX
  5
5BF
100
AcDbEntity
  8
L1
100
AcDbVertex
100
AcDb2dVertex
 10
-226.1469859504569
 20
63.25830781366079
 30
0.0
  0
VERTEX
  5
5C0
100
AcDbEntity
  8
L1
100
AcDbVertex
100
AcDb2dVertex
 10
-226.2835617941929
 20
63.41701287123431
 30
0.0
  0
VERTEX
  5
5C1
100
AcDbEntity
  8
L1
100
AcDbVertex
100
AcDb2dVertex
 10
-226.4316161948591
 20
63.56506727190055
 30
0.0
  0
VERTEX
  5
5C2
100
AcDbEntity
  8
L1
100
AcDbVertex
100
AcDb2dVertex
 10
-226.5903212524325
 20
63.70164311563638
 30
0.0
  0
VERTEX
  5
5C3
100
AcDbEntity
  8
L1
100
AcDbVertex
100
AcDb2dVertex
 10
-226.7587895098689
 20
63.82597668894408
 30
0.0
  0
VERTEX
  5
5C4
100
AcDbEntity
  8
L1
100
AcDbVertex
100
AcDb2dVertex
 10
-226.9360789156408
 20
63.93737273543303
 30
0.0
  0
VERTEX
  5
5C5
100
AcDbEntity
  8
L1
100
AcDbVertex
100
AcDb2dVertex
 10
-227.1211980915628
 20
64.03520834359875
 30
0.0
  0
VERTEX
  5
5C6
100
AcDbEntity
  8
L1
100
AcDbVertex
100
AcDb2dVertex
 10
-227.3131118764414
 20
64.11893643005902
 30
0.0
  0
VERTEX
  5
5C7
100
AcDbEntity
  8
L1
100
AcDbVertex
100
AcDb2dVertex
 10
-227.5107471145571
 20
64.18808879876968
 30
0.0
  0
VERTEX
  5
5C8
100
AcDbEntity
  8
L1
100
AcDbVertex
100
AcDb2dVertex
 10
-227.7129986566031
 20
64.24227875911293
 30
0.0
  0
VERTEX
  5
5C9
100
AcDbEntity
  8
L1
100
AcDbVertex
100
AcDb2dVertex
 10
-227.9187355395307
 20
64.28120328821865
 30
0.0
  0
VERTEX
  5
5CA
100
AcDbEntity
  8
L1
100
AcDbVertex
100
AcDb2dVertex
 10
-228.1268073107406
 20
64.30464472542701
 30
0.0
  0
VERTEX
  5
5CB
100
AcDbEntity
  8
L1
100
AcDbVertex
100
AcDb2dVertex
 10
-228.3360504612561
 20
64.31247198941702
 30
0.0
  0
SEQEND
  5
5CC
100
AcDbEntity
  8
L1
  0
POLYLINE
  5
155
100
AcDbEntity
  8
L1
100
AcDb2dPolyline
 66
     1
 10
0.0
 20
0.0
 30
0.0
  0
VERTEX
  5
5CD
100
AcDbEntity
  8
L1
100
AcDbVertex
100
AcDb2dVertex
 10
-228.2986290660727
 20
65.04480555663076
 30
0.0
  0
VERTEX
  5
5CE
100
AcDbEntity
  8
L1
100
AcDbVertex
100
AcDb2dVertex
 10
-227.6269947923102
 20
64.97878081335034
 30
0.0
  0
VERTEX
  5
5CF
100
AcDbEntity
  8
L1
100
AcDbVertex
100
AcDb2dVertex
 10
-227.2905837570484
 20
64.89493315135746
 30
0.0
  0
VERTEX
  5
5D0
100
AcDbEntity
  8
L1
100
AcDbVertex
100
AcDb2dVertex
 10
-226.9619917670205
 20
64.777454074383
 30
0.0
  0
VERTEX
  5
5D1
100
AcDbEntity
  8
L1
100
AcDbVertex
100
AcDb2dVertex
 10
-226.6467820144888
 20
64.62773247914293
 30
0.0
  0
VERTEX
  5
5D2
100
AcDbEntity
  8
L1
100
AcDbVertex
100
AcDb2dVertex
 10
-226.3498667052662
 20
64.448725824002
 30
0.0
  0
VERTEX
  5
5D3
100
AcDbEntity
  8
L1
100
AcDbVertex
100
AcDb2dVertex
 10
-225.8288730905291
 20
64.01975597556424
 30
0.0
  0
VERTEX
  5
5D4
100
AcDbEntity
  8
L1
100
AcDbVertex
100
AcDb2dVertex
 10
-225.3999032420912
 20
63.49876236082701
 30
0.0
  0
VERTEX
  5
5D5
100
AcDbEntity
  8
L1
100
AcDbVertex
100
AcDb2dVertex
 10
-225.2208965869503
 20
63.20184705160432
 30
0.0
  0
VERTEX
  5
5D6
100
AcDbEntity
  8
L1
100
AcDbVertex
100
AcDb2dVertex
 10
-225.0711749917101
 20
62.88663729907267
 30
0.0
  0
VERTEX
  5
5D7
100
AcDbEntity
  8
L1
100
AcDbVertex
100
AcDb2dVertex
 10
-224.9536959147357
 20
62.5580453090447
 30
0.0
  0
VERTEX
  5
5D8
100
AcDbEntity
  8
L1
100
AcDbVertex
100
AcDb2dVertex
 10
-224.8698482527428
 20
62.22163427378285
 30
0.0
  0
VERTEX
  5
5D9
100
AcDbEntity
  8
L1
100
AcDbVertex
100
AcDb2dVertex
 10
-224.8038235094623
 20
61.55000000002059
 30
0.0
  0
SEQEND
  5
5DA
100
AcDbEntity
  8
L1
  0
POLYLINE
  5
156
100
AcDbEntity
  8
L1
100
AcDb2dPolyline
 66
     1
 10
0.0
 20
0.0
 30
0.0
  0
VERTEX
  5
5DB
100
AcDbEntity
  8
L1
100
AcDbVertex
100
AcDb2dVertex
 10
-225.7219011931173
 20
50.14094883660755
 30
0.0
  0
VERTEX
  5
5DC
100
AcDbEntity
  8
L1
100
AcDbVertex
100
AcDb2dVertex
 10
-225.6288025734621
 20
50.12539075574654
 30
0.0
  0
SEQEND
  5
5DD
100
AcDbEntity
  8
L1
  0
ARC
  5
157
100
AcDbEntity
  8
L1
100
AcDbCircle
 10
-233.0437259782712
 20
56.80490308782231
 30
0.0
 40
6.799999999999999
100
AcDbArc
 50
180.0
 51
270.0000000000007
  0
LINE
  5
158
100
AcDbEntity
  8
L1
100
AcDbLine
 10
-239.8437259782712
 20
61.30492593398378
 30
0.0
 11
-239.8437259782712
 21
56.80490308782231
 31
0.0
  0
LINE
  5
159
100
AcDbEntity
  8
L1
100
AcDbLine
 10
-228.9475536784185
 20
58.96762087872019
 30
0.0
 11
-228.6814770268719
 21
57.45862520217844
 31
0.0
  0
LINE
  5
15A
100
AcDbEntity
  8
L1
100
AcDbLine
 10
-227.9873603172248
 20
57.53253484135831
 30
0.0
 11
-227.9873603172248
 21
60.81362995561306
 31
0.0
  0
CIRCLE
  5
15B
100
AcDbEntity
  8
L1
100
AcDbCircle
 10
-233.0986290660727
 20
56.75000000002057
 30
0.0
 40
2.25
  0
CIRCLE
  5
15C
100
AcDbEntity
  8
L1
100
AcDbCircle
 10
-233.0986290660727
 20
56.75000000002057
 30
0.0
 40
3.457965408492953
  0
CIRCLE
  5
15D
100
AcDbEntity
  8
L1
100
AcDbCircle
 10
-233.0986290660727
 20
56.75000000002057
 30
0.0
 40
3.9
  0
ARC
  5
15E
100
AcDbEntity
  8
L1
100
AcDbCircle
 10
-233.0986290660727
 20
56.75000000002057
 30
0.0
 40
5.099999999999999
100
AcDbArc
 50
133.7781314990951
 51
316.2218685009001
  0
LINE
  5
15F
100
AcDbEntity
  8
L1
100
AcDbLine
 10
-225.9262722426896
 20
50.42529180160295
 30
0.0
 11
-225.9262722426896
 21
61.50528453831021
 31
0.0
  0
LINE
  5
160
100
AcDbEntity
  8
L6
100
AcDbLine
 10
-233.0986290660729
 20
63.03088265816438
 30
0.0
 11
-233.0986290660729
 21
50.45130511108232
 31
0.0
  0
LINE
  5
161
100
AcDbEntity
  8
L6
100
AcDbLine
 10
-240.1275593937897
 20
56.75000000002057
 30
0.0
 11
-226.1261979492909
 21
56.75000000002057
 31
0.0
  0
LINE
  5
162
100
AcDbEntity
  8
L1
100
AcDbLine
 10
-227.9873603172248
 20
57.53253484135831
 30
0.0
 11
-227.9829968833295
 21
57.52817140746294
 31
0.0
  0
ARC
  5
163
100
AcDbEntity
  8
L1
100
AcDbCircle
 10
-228.3411924213599
 20
57.5591951689598
 30
0.0
 40
0.3548350757278544
100
AcDbArc
 50
196.4648669074607
 51
355.6910542063882
  0
LINE
  5
164
100
AcDbEntity
  8
L1
100
AcDbLine
 10
-228.6945250609827
 20
56.06692508517966
 30
0.0
 11
-229.2293939941367
 21
54.07076705125831
 31
0.0
  0
LINE
  5
165
100
AcDbEntity
  8
L1
100
AcDbLine
 10
-228.1793514086217
 20
55.77547406728616
 30
0.0
 11
-228.1793514086217
 21
50.84050567201131
 31
0.0
  0
LINE
  5
166
100
AcDbEntity
  8
L1
100
AcDbLine
 10
-227.643737401352
 20
49.90490308782233
 30
0.0
 11
-226.2262608196089
 21
49.90490308782233
 31
0.0
  0
LINE
  5
167
100
AcDbEntity
  8
L1
100
AcDbLine
 10
-225.9262722426896
 20
50.42529180160295
 30
0.0
 11
-225.9262722426896
 21
50.20489166474153
 31
0.0
  0
POLYLINE
  5
168
100
AcDbEntity
  8
L1
100
AcDb2dPolyline
 66
     1
 10
0.0
 20
0.0
 30
0.0
  0
VERTEX
  5
5DE
100
AcDbEntity
  8
L1
100
AcDbVertex
100
AcDb2dVertex
 10
-225.9262722426896
 20
50.42529180160295
 30
0.0
  0
VERTEX
  5
5DF
100
AcDbEntity
  8
L1
100
AcDbVertex
100
AcDb2dVertex
 10
-225.8698794339924
 20
50.25020519230185
 30
0.0
  0
VERTEX
  5
5E0
100
AcDbEntity
  8
L1
100
AcDbVertex
100
AcDb2dVertex
 10
-225.7219011931173
 20
50.1409488366076
 30
0.0
  0
SEQEND
  5
5E1
100
AcDbEntity
  8
L1
  0
POLYLINE
  5
169
100
AcDbEntity
  8
L1
100
AcDb2dPolyline
 66
     1
 10
0.0
 20
0.0
 30
0.0
  0
VERTEX
  5
5E2
100
AcDbEntity
  8
L1
100
AcDbVertex
100
AcDb2dVertex
 10
-229.2293939941367
 20
54.07076705125831
 30
0.0
  0
VERTEX
  5
5E3
100
AcDbEntity
  8
L1
100
AcDbVertex
100
AcDb2dVertex
 10
-229.2758897340096
 20
53.86537561166591
 30
0.0
  0
VERTEX
  5
5E4
100
AcDbEntity
  8
L1
100
AcDbVertex
100
AcDb2dVertex
 10
-229.3224300523401
 20
53.65585866729526
 30
0.0
  0
VERTEX
  5
5E5
100
AcDbEntity
  8
L1
100
AcDbVertex
100
AcDb2dVertex
 10
-229.3691796908643
 20
53.44148152743827
 30
0.0
  0
VERTEX
  5
5E6
100
AcDbEntity
  8
L1
100
AcDbVertex
100
AcDb2dVertex
 10
-229.4163048765464
 20
53.22147501594725
 30
0.0
  0
SEQEND
  5
5E7
100
AcDbEntity
  8
L1
  0
LINE
  5
16A
100
AcDbEntity
  8
L1
100
AcDbLine
 10
-227.9437259782711
 20
50.20489166474153
 30
0.0
 11
-227.9437259782711
 21
50.60488024166073
 31
0.0
  0
LINE
  5
16B
100
AcDbEntity
  8
L1
100
AcDbLine
 10
-228.1793514086215
 20
50.84050567201131
 30
0.0
 11
-227.9437259782711
 21
50.6048802416608
 31
0.0
  0
LINE
  5
16C
100
AcDbEntity
  8
L1
100
AcDbLine
 10
-233.0437259782712
 20
50.0049030878223
 30
0.0
 11
-228.5437031321097
 21
50.0049030878223
 31
0.0
  0
LINE
  5
16D
100
AcDbEntity
  8
L1
100
AcDbLine
 10
-227.9829968833295
 20
55.97182859257822
 30
0.0
 11
-228.1793514086215
 21
55.77547406728616
 31
0.0
  0
ARC
  5
16E
100
AcDbEntity
  8
L1
100
AcDbCircle
 10
-226.2262560884568
 20
50.20488693367409
 30
0.0
 40
0.2999838458045083
100
AcDbArc
 50
269.9990963678496
 51
0.0009036159793311
  0
ARC
  5
16F
100
AcDbEntity
  8
L1
100
AcDbCircle
 10
-227.6437421324308
 20
50.20488693367884
 30
0.0
 40
0.2999838458776089
100
AcDbArc
 50
179.9990963849274
 51
270.0009036181449
  0
ARC
  5
170
100
AcDbEntity
  8
L1
100
AcDbCircle
 10
-228.5985942136715
 20
50.65977132321646
 30
0.0
 40
0.6571646951645881
100
AcDbArc
 50
274.7913344813591
 51
355.2086655192171
  0
LINE
  5
171
100
AcDbEntity
  8
L1
100
AcDbLine
 10
-227.9829968833295
 20
55.97182859257822
 30
0.0
 11
-227.9829968833295
 21
57.52817140746294
 31
0.0
  0
ARC
  5
172
100
AcDbEntity
  8
L1
100
AcDbCircle
 10
-228.3517056246365
 20
55.92252274122325
 30
0.0
 40
0.3719908639927393
100
AcDbArc
 50
7.616733074774731
 51
157.1582092499818
  0
LINE
  5
173
100
AcDbEntity
  8
L1
100
AcDbLine
 10
-232.3204576586302
 20
61.86563218276387
 30
0.0
 11
-233.8768004735151
 21
61.86563218276387
 31
0.0
  0
LINE
  5
174
100
AcDbEntity
  8
L1
100
AcDbLine
 10
-235.7778620148345
 20
60.6192350719569
 30
0.0
 11
-233.7817039809136
 21
61.15410400511087
 31
0.0
  0
ARC
  5
175
100
AcDbEntity
  8
L1
100
AcDbCircle
 10
-233.942014451355
 20
61.49479730357078
 30
0.0
 40
0.3765253916163163
100
AcDbArc
 50
295.1989499052919
 51
80.02610776796723
  0
LINE
  5
176
100
AcDbEntity
  8
L1
100
AcDbLine
 10
-228.3360504612561
 20
64.31247198941702
 30
0.0
 11
-237.3514642226383
 21
64.31247198941702
 31
0.0
  0
LINE
  5
177
100
AcDbEntity
  8
L1
100
AcDbLine
 10
-239.4233372644677
 20
63.92235682340379
 30
0.0
 11
-228.34334452778
 21
63.92235682340379
 31
0.0
  0
ELLIPSE
  5
178
100
AcDbEntity
  8
L1
100
AcDbEllipse
 10
-239.0478974594862
 20
64.59778520530477
 30
0.0
 11
0.2121320343562721
 21
-0.212132034355611
 31
0.0
210
0.0
220
0.0
230
-1.0
 40
0.9999238504775695
 41
0.7854362396099459
 42
2.347505920145144
  0
ELLIPSE
  5
179
100
AcDbEntity
  8
L1
100
AcDbEllipse
 10
-237.3514642226383
 20
64.29766744088613
 30
0.0
 11
1.696497829367981
 21
0.0
 31
0.0
210
0.0
220
0.0
230
-1.0
 40
0.0087265354983806
 41
-3.132866339598172
 42
-1.570796326794896
  0
POLYLINE
  5
17A
100
AcDbEntity
  8
L1
100
AcDb2dPolyline
 66
     1
 10
0.0
 20
0.0
 30
0.0
  0
VERTEX
  5
5E8
100
AcDbEntity
  8
L1
100
AcDbVertex
100
AcDb2dVertex
 10
-239.7224723261327
 20
64.62670883450801
 30
0.0
  0
VERTEX
  5
5E9
100
AcDbEntity
  8
L1
100
AcDbVertex
100
AcDb2dVertex
 10
-239.7242499627653
 20
64.51039703714588
 30
0.0
  0
VERTEX
  5
5EA
100
AcDbEntity
  8
L1
100
AcDbVertex
100
AcDb2dVertex
 10
-239.723238310324
 20
64.21982649263128
 30
0.0
  0
SEQEND
  5
5EB
100
AcDbEntity
  8
L1
  0
POLYLINE
  5
17B
100
AcDbEntity
  8
L1
100
AcDb2dPolyline
 66
     1
 10
0.0
 20
0.0
 30
0.0
  0
VERTEX
  5
5EC
100
AcDbEntity
  8
L1
100
AcDbVertex
100
AcDb2dVertex
 10
-239.723238310324
 20
64.21982649263128
 30
0.0
  0
VERTEX
  5
5ED
100
AcDbEntity
  8
L1
100
AcDbVertex
100
AcDb2dVertex
 10
-239.707680229463
 20
64.12672787297589
 30
0.0
  0
SEQEND
  5
5EE
100
AcDbEntity
  8
L1
  0
LINE
  5
17C
100
AcDbEntity
  8
L1
100
AcDbLine
 10
-239.3513880745655
 20
64.99779308607509
 30
0.0
 11
-239.3478746146296
 21
64.59519018832605
 31
0.0
  0
LINE
  5
17D
100
AcDbEntity
  8
L1
100
AcDbLine
 10
-239.3513880745655
 20
64.99779308607509
 30
0.0
 11
-239.7224723261325
 21
64.62670883450801
 31
0.0
  0
LINE
  5
17E
100
AcDbEntity
  8
L1
100
AcDbLine
 10
-239.2437488244326
 20
61.90490308782227
 30
0.0
 11
-239.0081233940822
 21
61.66927765747186
 31
0.0
  0
LINE
  5
17F
100
AcDbEntity
  8
L1
100
AcDbLine
 10
-239.6437374013518
 20
61.90490308782227
 30
0.0
 11
-239.2437488244326
 21
61.90490308782227
 31
0.0
  0
LINE
  5
180
100
AcDbEntity
  8
L1
100
AcDbLine
 10
-239.9437259782711
 20
63.62236824648454
 30
0.0
 11
-239.9437259782711
 21
62.20489166474152
 31
0.0
  0
POLYLINE
  5
181
100
AcDbEntity
  8
L1
100
AcDb2dPolyline
 66
     1
 10
0.0
 20
0.0
 30
0.0
  0
VERTEX
  5
5EF
100
AcDbEntity
  8
L1
100
AcDbVertex
100
AcDb2dVertex
 10
-239.707680229463
 20
64.12672787297589
 30
0.0
  0
VERTEX
  5
5F0
100
AcDbEntity
  8
L1
100
AcDbVertex
100
AcDb2dVertex
 10
-239.5984238737688
 20
63.9787496321008
 30
0.0
  0
VERTEX
  5
5F1
100
AcDbEntity
  8
L1
100
AcDbVertex
100
AcDb2dVertex
 10
-239.4233372644677
 20
63.92235682340379
 30
0.0
  0
SEQEND
  5
5F2
100
AcDbEntity
  8
L1
  0
LINE
  5
182
100
AcDbEntity
  8
L1
100
AcDbLine
 10
-239.6437374013518
 20
63.92235682340379
 30
0.0
 11
-239.4233372644677
 21
63.92235682340379
 31
0.0
  0
ARC
  5
183
100
AcDbEntity
  8
L1
100
AcDbCircle
 10
-239.6437421322343
 20
63.62237297736917
 30
0.0
 40
0.2999838460719821
100
AcDbArc
 50
89.99909641933347
 51
180.0009035810628
  0
ARC
  5
184
100
AcDbEntity
  8
L1
100
AcDbCircle
 10
-239.6437421322366
 20
62.20488693383723
 30
0.0
 40
0.2999838460717834
100
AcDbArc
 50
179.9990964151807
 51
270.0009035810574
  0
ARC
  5
185
100
AcDbEntity
  8
L1
100
AcDbCircle
 10
-239.1888577428015
 20
61.25003485234853
 30
0.0
 40
0.6571646952439818
100
AcDbArc
 50
94.79133448679489
 51
175.2086655128071
  0
LINE
  5
186
100
AcDbEntity
  8
L1
100
AcDbLine
 10
-234.0731549988071
 20
61.66927765747186
 30
0.0
 11
-233.8768004735151
 21
61.86563218276387
 31
0.0
  0
LINE
  5
187
100
AcDbEntity
  8
L1
100
AcDbLine
 10
-239.0081233940822
 20
61.66927765747181
 30
0.0
 11
-234.0731549988071
 21
61.66927765747181
 31
0.0
  0
POLYLINE
  5
188
100
AcDbEntity
  8
L1
100
AcDb2dPolyline
 66
     1
 10
0.0
 20
0.0
 30
0.0
  0
VERTEX
  5
5F3
100
AcDbEntity
  8
L1
100
AcDbVertex
100
AcDb2dVertex
 10
-236.6271540501458
 20
60.4323241895471
 30
0.0
  0
VERTEX
  5
5F4
100
AcDbEntity
  8
L1
100
AcDbVertex
100
AcDb2dVertex
 10
-236.4071475386548
 20
60.47944937522919
 30
0.0
  0
VERTEX
  5
5F5
100
AcDbEntity
  8
L1
100
AcDbVertex
100
AcDb2dVertex
 10
-236.1927703987977
 20
60.5261990137534
 30
0.0
  0
VERTEX
  5
5F6
100
AcDbEntity
  8
L1
100
AcDbVertex
100
AcDb2dVertex
 10
-235.9832534544269
 20
60.57273933208392
 30
0.0
  0
VERTEX
  5
5F7
100
AcDbEntity
  8
L1
100
AcDbVertex
100
AcDb2dVertex
 10
-235.7778620148345
 20
60.61923507195678
 30
0.0
  0
SEQEND
  5
5F8
100
AcDbEntity
  8
L1
  0
ARC
  5
189
100
AcDbEntity
  8
L1
100
AcDbCircle
 10
-233.0986290660727
 20
56.75000000002057
 30
0.0
 40
4.925022672948151
100
AcDbArc
 50
34.12320370954327
 51
55.8767962904616
  0
LINE
  5
18A
100
AcDbEntity
  8
L1
100
AcDbLine
 10
-232.3204576586302
 20
61.86563218276387
 30
0.0
 11
-232.3160942247349
 21
61.86126874886849
 31
0.0
  0
POLYLINE
  5
18B
100
AcDbEntity
  8
L1
100
AcDb2dPolyline
 66
     1
 10
0.0
 20
0.0
 30
0.0
  0
VERTEX
  5
5F9
100
AcDbEntity
  8
L1
100
AcDbVertex
100
AcDb2dVertex
 10
-230.8810081873736
 20
60.90107538767501
 30
0.0
  0
VERTEX
  5
5FA
100
AcDbEntity
  8
L1
100
AcDbVertex
100
AcDb2dVertex
 10
-230.7471163668056
 20
60.88235614669173
 30
0.0
  0
VERTEX
  5
5FB
100
AcDbEntity
  8
L1
100
AcDbVertex
100
AcDb2dVertex
 10
-230.6117517210474
 20
60.86380514310866
 30
0.0
  0
VERTEX
  5
5FC
100
AcDbEntity
  8
L1
100
AcDbVertex
100
AcDb2dVertex
 10
-230.4747188511688
 20
60.84539463691425
 30
0.0
  0
VERTEX
  5
5FD
100
AcDbEntity
  8
L1
100
AcDbVertex
100
AcDb2dVertex
 10
-230.3358179324904
 20
60.82709737060259
 30
0.0
  0
SEQEND
  5
5FE
100
AcDbEntity
  8
L1
  0
LINE
  5
18C
100
AcDbEntity
  8
L1
100
AcDbLine
 10
-232.3900038639147
 20
61.16715203922161
 30
0.0
 11
-230.8810081873736
 21
60.90107538767501
 31
0.0
  0
POLYLINE
  5
18D
100
AcDbEntity
  8
L1
100
AcDb2dPolyline
 66
     1
 10
0.0
 20
0.0
 30
0.0
  0
VERTEX
  5
5FF
100
AcDbEntity
  8
L1
100
AcDbVertex
100
AcDb2dVertex
 10
-229.0215316954907
 20
59.51281113360329
 30
0.0
  0
VERTEX
  5
600
100
AcDbEntity
  8
L1
100
AcDbVertex
100
AcDb2dVertex
 10
-229.0032344291793
 20
59.37391021492505
 30
0.0
  0
VERTEX
  5
601
100
AcDbEntity
  8
L1
100
AcDbVertex
100
AcDb2dVertex
 10
-228.9848239229848
 20
59.23687734504648
 30
0.0
  0
VERTEX
  5
602
100
AcDbEntity
  8
L1
100
AcDbVertex
100
AcDb2dVertex
 10
-228.9662729194018
 20
59.10151269928821
 30
0.0
  0
VERTEX
  5
603
100
AcDbEntity
  8
L1
100
AcDbVertex
100
AcDb2dVertex
 10
-228.9475536784185
 20
58.96762087872019
 30
0.0
  0
SEQEND
  5
604
100
AcDbEntity
  8
L1
  0
ARC
  5
18E
100
AcDbEntity
  8
L1
100
AcDbCircle
 10
-233.0986290660727
 20
56.75000000002057
 30
0.0
 40
4.70630101413334
100
AcDbArc
 50
28.112382794947
 51
61.88761720506007
  0
LINE
  5
18F
100
AcDbEntity
  8
L1
100
AcDbLine
 10
-229.0349991104804
 20
61.86126874886849
 30
0.0
 11
-232.3160942247349
 21
61.86126874886849
 31
0.0
  0
ARC
  5
190
100
AcDbEntity
  8
L1
100
AcDbCircle
 10
-229.0349991104802
 20
60.81362995561306
 30
0.0
 40
1.047638793255447
100
AcDbArc
 50
0.0000000000015521
 51
90.00000000000152
  0
ARC
  5
191
100
AcDbEntity
  8
L1
100
AcDbCircle
 10
-232.2678080736717
 20
61.50768761703239
 30
0.0
 40
0.361795924428356
100
AcDbArc
 50
98.36755918719491
 51
250.2602807136
  0
POLYLINE
  5
192
100
AcDbEntity
  8
L1
100
AcDb2dPolyline
 66
     1
 10
0.0
 20
0.0
 30
0.0
  0
VERTEX
  5
605
100
AcDbEntity
  8
L1
100
AcDbVertex
100
AcDb2dVertex
 10
-225.9259995805713
 20
61.49799556981313
 30
0.0
  0
VERTEX
  5
606
100
AcDbEntity
  8
L1
100
AcDbVertex
100
AcDb2dVertex
 10
-225.9332812048465
 20
61.69265234977007
 30
0.0
  0
VERTEX
  5
607
100
AcDbEntity
  8
L1
100
AcDbVertex
100
AcDb2dVertex
 10
-225.9534543856893
 20
61.87171430026532
 30
0.0
  0
VERTEX
  5
608
100
AcDbEntity
  8
L1
100
AcDbVertex
100
AcDb2dVertex
 10
-225.9869518646436
 20
62.04876633055036
 30
0.0
  0
VERTEX
  5
609
100
AcDbEntity
  8
L1
100
AcDbVertex
100
AcDb2dVertex
 10
-226.0335862521431
 20
62.22281843769739
 30
0.0
  0
VERTEX
  5
60A
100
AcDbEntity
  8
L1
100
AcDbVertex
100
AcDb2dVertex
 10
-226.0930967113876
 20
62.39289740972026
 30
0.0
  0
VERTEX
  5
60B
100
AcDbEntity
  8
L1
100
AcDbVertex
100
AcDb2dVertex
 10
-226.1651504200951
 20
62.5580522644085
 30
0.0
  0
VERTEX
  5
60C
100
AcDbEntity
  8
L1
100
AcDbVertex
100
AcDb2dVertex
 10
-226.2493444340126
 20
62.71735956331847
 30
0.0
  0
VERTEX
  5
60D
100
AcDbEntity
  8
L1
100
AcDbVertex
100
AcDb2dVertex
 10
-226.3452079416098
 20
62.86992857121958
 30
0.0
  0
VERTEX
  5
60E
100
AcDbEntity
  8
L1
100
AcDbVertex
100
AcDb2dVertex
 10
-226.4522048972968
 20
63.01490623249216
 30
0.0
  0
VERTEX
  5
60F
100
AcDbEntity
  8
L1
100
AcDbVertex
100
AcDb2dVertex
 10
-226.569737018422
 20
63.15148193680116
 30
0.0
  0
VERTEX
  5
610
100
AcDbEntity
  8
L1
100
AcDbVertex
100
AcDb2dVertex
 10
-226.6971471292906
 20
63.27889204767036
 30
0.0
  0
VERTEX
  5
611
100
AcDbEntity
  8
L1
100
AcDbVertex
100
AcDb2dVertex
 10
-226.833722833603
 20
63.39642416879664
 30
0.0
  0
VERTEX
  5
612
100
AcDbEntity
  8
L1
100
AcDbVertex
100
AcDb2dVertex
 10
-226.9787004948747
 20
63.50342112448467
 30
0.0
  0
VERTEX
  5
613
100
AcDbEntity
  8
L1
100
AcDbVertex
100
AcDb2dVertex
 10
-227.1312695027747
 20
63.5992846320799
 30
0.0
  0
VERTEX
  5
614
100
AcDbEntity
  8
L1
100
AcDbVertex
100
AcDb2dVertex
 10
-227.2905768016846
 20
63.68347864599844
 30
0.0
  0
VERTEX
  5
615
100
AcDbEntity
  8
L1
100
AcDbVertex
100
AcDb2dVertex
 10
-227.4557316563734
 20
63.75553235470627
 30
0.0
  0
VERTEX
  5
616
100
AcDbEntity
  8
L1
100
AcDbVertex
100
AcDb2dVertex
 10
-227.6258106283938
 20
63.81504281395047
 30
0.0
  0
VERTEX
  5
617
100
AcDbEntity
  8
L1
100
AcDbVertex
100
AcDb2dVertex
 10
-227.7998627355421
 20
63.86167720144965
 30
0.0
  0
VERTEX
  5
618
100
AcDbEntity
  8
L1
100
AcDbVertex
100
AcDb2dVertex
 10
-227.9769147658263
 20
63.89517468040409
 30
0.0
  0
VERTEX
  5
619
100
AcDbEntity
  8
L1
100
AcDbVertex
100
AcDb2dVertex
 10
-228.1559767163226
 20
63.915347861247
 30
0.0
  0
VERTEX
  5
61A
100
AcDbEntity
  8
L1
100
AcDbVertex
100
AcDb2dVertex
 10
-228.3506334962802
 20
63.92262948552215
 30
0.0
  0
SEQEND
  5
61B
100
AcDbEntity
  8
L1
  0
LINE
  5
193
100
AcDbEntity
  8
L1
100
AcDbLine
 10
-225.5361570766764
 20
52.49716484345498
 30
0.0
 11
-225.5361570766764
 21
61.51257860483736
 31
0.0
  0
POLYLINE
  5
194
100
AcDbEntity
  8
L1
100
AcDb2dPolyline
 66
     1
 10
0.0
 20
0.0
 30
0.0
  0
VERTEX
  5
61C
100
AcDbEntity
  8
L1
100
AcDbVertex
100
AcDb2dVertex
 10
-225.6288025734621
 20
50.12539075574659
 30
0.0
  0
VERTEX
  5
61D
100
AcDbEntity
  8
L1
100
AcDbVertex
100
AcDb2dVertex
 10
-225.3382320289475
 20
50.12437910330499
 30
0.0
  0
VERTEX
  5
61E
100
AcDbEntity
  8
L1
100
AcDbVertex
100
AcDb2dVertex
 10
-225.2219202315851
 20
50.12615673993735
 30
0.0
  0
SEQEND
  5
61F
100
AcDbEntity
  8
L1
  0
LINE
  5
195
100
AcDbEntity
  8
L1
100
AcDbLine
 10
-225.2219202315851
 20
50.12615673993735
 30
0.0
 11
-224.8508359800181
 21
50.49724099145857
 31
0.0
  0
LINE
  5
196
100
AcDbEntity
  8
L1
100
AcDbLine
 10
-224.8508359800181
 20
50.49724099152763
 30
0.0
 11
-225.2534388777672
 21
50.5007544514637
 31
0.0
  0
ELLIPSE
  5
197
100
AcDbEntity
  8
L1
100
AcDbEllipse
 10
-225.2508438607886
 20
50.80073160660697
 30
0.0
 11
-0.2121320343557347
 21
0.212132034356148
 31
0.0
210
0.0
220
0.0
230
-1.0
 40
0.9999238504775703
 41
-2.347505920144371
 42
-0.7854362396093615
  0
LINE
  5
198
100
AcDbEntity
  8
L1
100
AcDbLine
 10
-225.5361570766764
 20
52.49716484345498
 30
0.0
 11
-225.5508324377078
 21
50.80073160660697
 31
0.0
  0
LINE
  5
199
100
AcDbEntity
  8
L1
100
AcDbLine
 10
-176.8643825975955
 20
64.99779308607497
 30
0.0
 11
-134.3423391262775
 21
64.62670883450783
 31
0.0
  0
LINE
  5
19A
100
AcDbEntity
  8
L1
100
AcDbLine
 10
-133.1440844333772
 20
63.9162251693536
 30
0.0
 11
-178.5494726624197
 21
64.31247198941685
 31
0.0
  0
LINE
  5
19B
100
AcDbEntity
  8
L1
100
AcDbLine
 10
-134.3423391262775
 20
50.12615673991906
 30
0.0
 11
-176.8643825975962
 21
50.49724099144373
 31
0.0
  0
LINE
  5
19C
100
AcDbEntity
  8
L1
100
AcDbLine
 10
-182.8467023940268
 20
48.52721114184652
 30
0.0
 11
-182.845884652603
 21
48.52721827816782
 31
0.0
  0
ARC
  5
19D
100
AcDbEntity
  8
L1
100
AcDbCircle
 10
-182.5467023940269
 20
48.24739336319891
 30
0.0
 40
0.3
100
AcDbArc
 50
180.0
 51
180.1373905988718
  0
LINE
  5
19E
100
AcDbEntity
  8
L1
100
AcDbLine
 10
-178.8468547017701
 20
52.49716484345487
 30
0.0
 11
-178.8468547017701
 21
61.5152271273024
 31
0.0
  0
POLYLINE
  5
19F
100
AcDbEntity
  8
L1
100
AcDb2dPolyline
 66
     1
 10
0.0
 20
0.0
 30
0.0
  0
VERTEX
  5
620
100
AcDbEntity
  8
L1
100
AcDbVertex
100
AcDb2dVertex
 10
-182.8467023940268
 20
50.3138584039317
 30
0.0
  0
VERTEX
  5
621
100
AcDbEntity
  8
L1
100
AcDbVertex
100
AcDb2dVertex
 10
-182.8461335487171
 20
50.31387048555905
 30
0.0
  0
SEQEND
  5
622
100
AcDbEntity
  8
L1
  0
POLYLINE
  5
1A0
100
AcDbEntity
  8
L1
100
AcDb2dPolyline
 66
     1
 10
0.0
 20
0.0
 30
0.0
  0
VERTEX
  5
623
100
AcDbEntity
  8
L1
100
AcDbVertex
100
AcDb2dVertex
 10
-182.8467023940268
 20
50.3138584039317
 30
0.0
  0
VERTEX
  5
624
100
AcDbEntity
  8
L1
100
AcDbVertex
100
AcDb2dVertex
 10
-182.8465083357783
 20
50.31386252551328
 30
0.0
  0
SEQEND
  5
625
100
AcDbEntity
  8
L1
  0
LINE
  5
1A1
100
AcDbEntity
  8
L1
100
AcDbLine
 10
-182.8467023940268
 20
51.65000000002044
 30
0.0
 11
-182.845884652603
 21
51.65000713634174
 31
0.0
  0
ELLIPSE
  5
1A2
100
AcDbEntity
  8
L1
100
AcDbEllipse
 10
-176.8469308556417
 20
52.49716484345487
 30
0.0
 11
0.0
 21
-2.0
 31
0.0
210
0.0
220
0.0
230
1.0
 40
0.9999619230641712
 41
-1.570796326794896
 42
-0.0087263139929164
  0
LINE
  5
1A3
100
AcDbEntity
  8
L1
100
AcDbLine
 10
-178.8468547017701
 20
65.01509385802695
 30
0.0
 11
-182.251893215092
 21
65.04480917895517
 31
0.0
  0
LINE
  5
1AA
100
AcDbEntity
  8
L1
100
AcDbLine
 10
-182.8467023940268
 20
64.45000000002045
 30
0.0
 11
-182.2518968374166
 21
65.04480555663064
 31
0.0
  0
LINE
  5
1AB
100
AcDbEntity
  8
L1
100
AcDbLine
 10
-176.8643825975955
 20
64.99779308607497
 30
0.0
 11
-178.8468083339203
 21
65.01509345338087
 31
0.0
  0
ARC
  5
1AC
100
AcDbEntity
  8
L1
100
AcDbCircle
 10
-178.5468547017702
 20
64.61246056633609
 30
0.0
 40
0.2999999999999993
100
AcDbArc
 50
180.0651465716582
 51
269.4999999999954
  0
POLYLINE
  5
1AD
100
AcDbEntity
  8
L1
100
AcDb2dPolyline
 66
     1
 10
0.0
 20
0.0
 30
0.0
  0
VERTEX
  5
638
100
AcDbEntity
  8
L1
100
AcDbVertex
100
AcDb2dVertex
 10
-178.8468547017701
 20
61.5152271273024
 30
0.0
  0
VERTEX
  5
639
100
AcDbEntity
  8
L1
100
AcDbVertex
100
AcDb2dVertex
 10
-178.8468547017701
 20
62.854588287306
 30
0.0
  0
VERTEX
  5
63A
100
AcDbEntity
  8
L1
100
AcDbVertex
100
AcDb2dVertex
 10
-178.8468547017701
 20
63.9900227926351
 30
0.0
  0
VERTEX
  5
63B
100
AcDbEntity
  8
L1
100
AcDbVertex
100
AcDb2dVertex
 10
-178.8468547017701
 20
64.74868757678212
 30
0.0
  0
VERTEX
  5
63C
100
AcDbEntity
  8
L1
100
AcDbVertex
100
AcDb2dVertex
 10
-178.8468547017701
 20
65.01509385802705
 30
0.0
  0
SEQEND
  5
63D
100
AcDbEntity
  8
L1
  0
LINE
  5
1AE
100
AcDbEntity
  8
L1
100
AcDbLine
 10
-132.8467023940268
 20
50.21102331879138
 30
0.0
 11
-132.8467023940268
 21
61.11633178477394
 31
0.0
  0
LINE
  5
1AF
100
AcDbEntity
  8
L1
100
AcDbLine
 10
-133.8466041948696
 20
49.90490394479315
 30
0.0
 11
-133.1440844333772
 21
49.91103474187207
 31
0.0
  0
ARC
  5
1B0
100
AcDbEntity
  8
L1
100
AcDbCircle
 10
-133.1467023940268
 20
50.21102331879138
 30
0.0
 40
0.2999999999999971
100
AcDbArc
 50
270.499999999998
 51
0.0
  0
POLYLINE
  5
1B1
100
AcDbEntity
  8
L1
100
AcDb2dPolyline
 66
     1
 10
0.0
 20
0.0
 30
0.0
  0
VERTEX
  5
63E
100
AcDbEntity
  8
L1
100
AcDbVertex
100
AcDb2dVertex
 10
-133.8554462011719
 20
50.12539075572817
 30
0.0
  0
VERTEX
  5
63F
100
AcDbEntity
  8
L1
100
AcDbVertex
100
AcDb2dVertex
 10
-134.0260811650585
 20
50.12437910328657
 30
0.0
  0
VERTEX
  5
640
100
AcDbEntity
  8
L1
100
AcDbVertex
100
AcDb2dVertex
 10
-134.3423391262775
 20
50.12615673991906
 30
0.0
  0
SEQEND
  5
641
100
AcDbEntity
  8
L1
  0
POLYLINE
  5
1B2
100
AcDbEntity
  8
L1
100
AcDb2dPolyline
 66
     1
 10
0.0
 20
0.0
 30
0.0
  0
VERTEX
  5
642
100
AcDbEntity
  8
L1
100
AcDbVertex
100
AcDb2dVertex
 10
-133.8467023940268
 20
50.14094883658913
 30
0.0
  0
VERTEX
  5
643
100
AcDbEntity
  8
L1
100
AcDbVertex
100
AcDb2dVertex
 10
-133.8554462011719
 20
50.12539075572817
 30
0.0
  0
SEQEND
  5
644
100
AcDbEntity
  8
L1
  0
POLYLINE
  5
1B3
100
AcDbEntity
  8
L1
100
AcDb2dPolyline
 66
     1
 10
0.0
 20
0.0
 30
0.0
  0
VERTEX
  5
645
100
AcDbEntity
  8
L1
100
AcDbVertex
100
AcDb2dVertex
 10
-133.8467023940268
 20
50.42529180158453
 30
0.0
  0
VERTEX
  5
646
100
AcDbEntity
  8
L1
100
AcDbVertex
100
AcDb2dVertex
 10
-133.8467023940268
 20
50.25020519228343
 30
0.0
  0
VERTEX
  5
647
100
AcDbEntity
  8
L1
100
AcDbVertex
100
AcDb2dVertex
 10
-133.8467023940268
 20
50.14094883658913
 30
0.0
  0
SEQEND
  5
648
100
AcDbEntity
  8
L1
  0
POLYLINE
  5
1B4
100
AcDbEntity
  8
L1
100
AcDb2dPolyline
 66
     1
 10
0.0
 20
0.0
 30
0.0
  0
VERTEX
  5
649
100
AcDbEntity
  8
L1
100
AcDbVertex
100
AcDb2dVertex
 10
-132.8467023940268
 20
61.11633178477394
 30
0.0
  0
VERTEX
  5
64A
100
AcDbEntity
  8
L1
100
AcDbVertex
100
AcDb2dVertex
 10
-132.8467023940268
 20
61.41766903265438
 30
0.0
  0
VERTEX
  5
64B
100
AcDbEntity
  8
L1
100
AcDbVertex
100
AcDb2dVertex
 10
-132.8467023940268
 20
61.71460975441874
 30
0.0
  0
VERTEX
  5
64C
100
AcDbEntity
  8
L1
100
AcDbVertex
100
AcDb2dVertex
 10
-132.8467023940268
 20
62.00282430501454
 30
0.0
  0
VERTEX
  5
64D
100
AcDbEntity
  8
L1
100
AcDbVertex
100
AcDb2dVertex
 10
-132.8467023940268
 20
62.27811027429215
 30
0.0
  0
VERTEX
  5
64E
100
AcDbEntity
  8
L1
100
AcDbVertex
100
AcDb2dVertex
 10
-132.8467023940268
 20
62.53645376167281
 30
0.0
  0
VERTEX
  5
64F
100
AcDbEntity
  8
L1
100
AcDbVertex
100
AcDb2dVertex
 10
-132.8467023940268
 20
62.77408790219016
 30
0.0
  0
VERTEX
  5
650
100
AcDbEntity
  8
L1
100
AcDbVertex
100
AcDb2dVertex
 10
-132.8467023940268
 20
62.9875477905436
 30
0.0
  0
VERTEX
  5
651
100
AcDbEntity
  8
L1
100
AcDbVertex
100
AcDb2dVertex
 10
-132.8467023940268
 20
63.17372100232734
 30
0.0
  0
VERTEX
  5
652
100
AcDbEntity
  8
L1
100
AcDbVertex
100
AcDb2dVertex
 10
-132.8467023940268
 20
63.32989297579143
 30
0.0
  0
VERTEX
  5
653
100
AcDbEntity
  8
L1
100
AcDbVertex
100
AcDb2dVertex
 10
-132.8467023940268
 20
63.45378659243158
 30
0.0
  0
VERTEX
  5
654
100
AcDbEntity
  8
L1
100
AcDbVertex
100
AcDb2dVertex
 10
-132.8467023940268
 20
63.54359537928866
 30
0.0
  0
VERTEX
  5
655
100
AcDbEntity
  8
L1
100
AcDbVertex
100
AcDb2dVertex
 10
-132.8467023940268
 20
63.59800984884151
 30
0.0
  0
VERTEX
  5
656
100
AcDbEntity
  8
L1
100
AcDbVertex
100
AcDb2dVertex
 10
-132.8467023940268
 20
63.61623659243434
 30
0.0
  0
SEQEND
  5
657
100
AcDbEntity
  8
L1
  0
ARC
  5
1B5
100
AcDbEntity
  8
L1
100
AcDbCircle
 10
-133.1467023940268
 20
63.6162365924344
 30
0.0
 40
0.299999999999996
100
AcDbArc
 50
359.999999999989
 51
89.49999999999922
  0
POLYLINE
  5
1B6
100
AcDbEntity
  8
L1
100
AcDb2dPolyline
 66
     1
 10
0.0
 20
0.0
 30
0.0
  0
VERTEX
  5
658
100
AcDbEntity
  8
L1
100
AcDbVertex
100
AcDb2dVertex
 10
-133.8554462011719
 20
64.21982649263117
 30
0.0
  0
VERTEX
  5
659
100
AcDbEntity
  8
L1
100
AcDbVertex
100
AcDb2dVertex
 10
-133.8467023940268
 20
64.12672787297577
 30
0.0
  0
SEQEND
  5
65A
100
AcDbEntity
  8
L1
  0
POLYLINE
  5
1B7
100
AcDbEntity
  8
L1
100
AcDb2dPolyline
 66
     1
 10
0.0
 20
0.0
 30
0.0
  0
VERTEX
  5
65B
100
AcDbEntity
  8
L1
100
AcDbVertex
100
AcDb2dVertex
 10
-134.3423391262775
 20
64.62670883450783
 30
0.0
  0
VERTEX
  5
65C
100
AcDbEntity
  8
L1
100
AcDbVertex
100
AcDb2dVertex
 10
-134.0260811650585
 20
64.5103970371457
 30
0.0
  0
VERTEX
  5
65D
100
AcDbEntity
  8
L1
100
AcDbVertex
100
AcDb2dVertex
 10
-133.8554462011719
 20
64.21982649263117
 30
0.0
  0
SEQEND
  5
65E
100
AcDbEntity
  8
L1
  0
POLYLINE
  5
1B8
100
AcDbEntity
  8
L1
100
AcDb2dPolyline
 66
     1
 10
0.0
 20
0.0
 30
0.0
  0
VERTEX
  5
65F
100
AcDbEntity
  8
L1
100
AcDbVertex
100
AcDb2dVertex
 10
-133.8467023940268
 20
64.12672787297577
 30
0.0
  0
VERTEX
  5
660
100
AcDbEntity
  8
L1
100
AcDbVertex
100
AcDb2dVertex
 10
-133.8467023940268
 20
63.98226508210149
 30
0.0
  0
VERTEX
  5
661
100
AcDbEntity
  8
L1
100
AcDbVertex
100
AcDb2dVertex
 10
-133.8467023940268
 20
63.92259217408554
 30
0.0
  0
SEQEND
  5
662
100
AcDbEntity
  8
L1
  0
LINE
  5
1B9
100
AcDbEntity
  8
L1
100
AcDbLine
 10
-89.27268985814084
 20
-47.15000000000006
 30
0.0
 11
-89.27268985814084
 21
47.14999999999995
 31
0.0
  0
LINE
  5
1BA
100
AcDbEntity
  8
L1
100
AcDbLine
 10
-90.04480917893465
 20
-61.54494244821015
 30
0.0
 11
-90.04480917893465
 21
61.54494244821009
 31
0.0
  0
LINE
  5
1BB
100
AcDbEntity
  8
L1
100
AcDbLine
 10
-89.44999999999993
 20
61.54999999999998
 30
0.0
 11
-89.44999999999993
 21
-61.55000000000004
 31
0.0
  0
LINE
  5
1BC
100
AcDbEntity
  8
L1
100
AcDbLine
 10
-84.02063810469462
 20
-46.94858692778669
 30
0.0
 11
-84.02063810469474
 21
46.94858692778658
 31
0.0
  0
LINE
  5
1BD
100
AcDbEntity
  8
L1
100
AcDbLine
 10
-86.62721114182591
 20
47.14999999999995
 30
0.0
 11
-86.62721114182591
 21
-47.15000000000006
 31
0.0
  0
LINE
  5
1BE
100
AcDbEntity
  8
L6
100
AcDbLine
 10
-81.75000000000023
 20
-50.46911734185616
 30
0.0
 11
-81.75000000000023
 21
-63.04869488893823
 31
0.0
  0
LINE
  5
1BF
100
AcDbEntity
  8
L1
100
AcDbLine
 10
-72.54856408162504
 20
-56.74999999999997
 30
0.0
 11
-72.54856408162504
 21
-59.62061525853314
 31
0.0
  0
LINE
  5
1C0
100
AcDbEntity
  8
L1
100
AcDbLine
 10
-73.52721114182594
 20
-60.24999999999997
 30
0.0
 11
-73.52721114182594
 21
-56.74999999999997
 31
0.0
  0
LINE
  5
1C1
100
AcDbEntity
  8
L1
100
AcDbLine
 10
-76.64999999999992
 20
-60.24999999999997
 30
0.0
 11
-76.64999999999992
 21
-56.74999999999997
 31
0.0
  0
LINE
  5
1C2
100
AcDbEntity
  8
L1
100
AcDbLine
 10
-76.17268985814075
 20
-56.74999999999997
 30
0.0
 11
-76.17268985814075
 21
-60.24999999999997
 31
0.0
  0
CIRCLE
  5
1C3
100
AcDbEntity
  8
L1
100
AcDbCircle
 10
-81.74999999999995
 20
-56.74999999999997
 30
0.0
 40
4.0
  0
CIRCLE
  5
1C4
100
AcDbEntity
  8
L1
100
AcDbCircle
 10
-81.75
 20
-56.74999999999997
 30
0.0
 40
2.25
  0
LINE
  5
1C5
100
AcDbEntity
  8
L1
100
AcDbLine
 10
-88.44999999999998
 20
-50.31385840391121
 30
0.0
 11
-88.44999999999998
 21
-61.54999999999998
 31
0.0
  0
LINE
  5
1C6
100
AcDbEntity
  8
L1
100
AcDbLine
 10
-86.54999999999995
 20
-63.4499999999999
 30
0.0
 11
-75.31385840391124
 21
-63.4499999999999
 31
0.0
  0
ARC
  5
1C7
100
AcDbEntity
  8
L1
100
AcDbCircle
 10
-86.54999999999995
 20
-61.54999999999998
 30
0.0
 40
1.9
100
AcDbArc
 50
180.0
 51
270.0000000000008
  0
ARC
  5
1C8
100
AcDbEntity
  8
L1
100
AcDbCircle
 10
-86.54999999999995
 20
-61.54999999999998
 30
0.0
 40
2.900000000000025
100
AcDbArc
 50
180.0
 51
270.0
  0
POLYLINE
  5
1C9
100
AcDbEntity
  8
L1
100
AcDb2dPolyline
 66
     1
 10
0.0
 20
0.0
 30
0.0
  0
VERTEX
  5
663
100
AcDbEntity
  8
L1
100
AcDbVertex
100
AcDb2dVertex
 10
-90.04480555661007
 20
-61.54999999999998
 30
0.0
  0
VERTEX
  5
664
100
AcDbEntity
  8
L1
100
AcDbVertex
100
AcDb2dVertex
 10
-89.9787808133297
 20
-62.22163427376248
 30
0.0
  0
VERTEX
  5
665
100
AcDbEntity
  8
L1
100
AcDbVertex
100
AcDb2dVertex
 10
-89.89493315133676
 20
-62.55804530902427
 30
0.0
  0
VERTEX
  5
666
100
AcDbEntity
  8
L1
100
AcDbVertex
100
AcDb2dVertex
 10
-89.77745407436231
 20
-62.88663729905218
 30
0.0
  0
VERTEX
  5
667
100
AcDbEntity
  8
L1
100
AcDbVertex
100
AcDb2dVertex
 10
-89.62773247912229
 20
-63.20184705158377
 30
0.0
  0
VERTEX
  5
668
100
AcDbEntity
  8
L1
100
AcDbVertex
100
AcDb2dVertex
 10
-89.44872582398136
 20
-63.49876236080641
 30
0.0
  0
VERTEX
  5
669
100
AcDbEntity
  8
L1
100
AcDbVertex
100
AcDb2dVertex
 10
-89.01975597554354
 20
-64.01975597554363
 30
0.0
  0
VERTEX
  5
66A
100
AcDbEntity
  8
L1
100
AcDbVertex
100
AcDb2dVertex
 10
-88.49876236080632
 20
-64.44872582398144
 30
0.0
  0
VERTEX
  5
66B
100
AcDbEntity
  8
L1
100
AcDbVertex
100
AcDb2dVertex
 10
-88.20184705158368
 20
-64.62773247912238
 30
0.0
  0
VERTEX
  5
66C
100
AcDbEntity
  8
L1
100
AcDbVertex
100
AcDb2dVertex
 10
-87.88663729905204
 20
-64.77745407436239
 30
0.0
  0
VERTEX
  5
66D
100
AcDbEntity
  8
L1
100
AcDbVertex
100
AcDb2dVertex
 10
-87.55804530902413
 20
-64.89493315133685
 30
0.0
  0
VERTEX
  5
66E
100
AcDbEntity
  8
L1
100
AcDbVertex
100
AcDb2dVertex
 10
-87.22163427376228
 20
-64.97878081332974
 30
0.0
  0
VERTEX
  5
66F
100
AcDbEntity
  8
L1
100
AcDbVertex
100
AcDb2dVertex
 10
-86.54999999999995
 20
-65.04480555661015
 30
0.0
  0
SEQEND
  5
670
100
AcDbEntity
  8
L1
  0
POLYLINE
  5
1CA
100
AcDbEntity
  8
L1
100
AcDb2dPolyline
 66
     1
 10
0.0
 20
0.0
 30
0.0
  0
VERTEX
  5
671
100
AcDbEntity
  8
L1
100
AcDbVertex
100
AcDb2dVertex
 10
-71.94858692778655
 20
-59.02063810469465
 30
0.0
  0
VERTEX
  5
672
100
AcDbEntity
  8
L1
100
AcDbVertex
100
AcDb2dVertex
 10
-72.24857903869997
 20
-59.10101830798104
 30
0.0
  0
VERTEX
  5
673
100
AcDbEntity
  8
L1
100
AcDbVertex
100
AcDb2dVertex
 10
-72.46818387833866
 20
-59.32062314761973
 30
0.0
  0
VERTEX
  5
674
100
AcDbEntity
  8
L1
100
AcDbVertex
100
AcDb2dVertex
 10
-72.54856408162504
 20
-59.62061525853314
 30
0.0
  0
SEQEND
  5
675
100
AcDbEntity
  8
L1
  0
ARC
  5
1CB
100
AcDbEntity
  8
L1
100
AcDbCircle
 10
-72.14999999999998
 20
-60.24999999999997
 30
0.0
 40
1.377211141825941
100
AcDbArc
 50
180.0
 51
270.0
  0
ARC
  5
1CC
100
AcDbEntity
  8
L1
100
AcDbCircle
 10
-72.14999999999998
 20
-60.24999999999997
 30
0.0
 40
4.499999999999992
100
AcDbArc
 50
180.0
 51
225.3253904356164
  0
ARC
  5
1CD
100
AcDbEntity
  8
L1
100
AcDbCircle
 10
-72.14999999999998
 20
-60.24999999999997
 30
0.0
 40
4.022689858140864
100
AcDbArc
 50
180.0
 51
270.0000000000008
  0
LINE
  5
1CE
100
AcDbEntity
  8
L6
100
AcDbLine
 10
-88.77893032771703
 20
-56.74999999999997
 30
0.0
 11
-74.77756888321824
 21
-56.74999999999997
 31
0.0
  0
ARC
  5
1CF
100
AcDbEntity
  8
L1
100
AcDbCircle
 10
-81.74999999999995
 20
-56.74999999999997
 30
0.0
 40
9.201435918374905
100
AcDbArc
 50
54.7447416333014
 51
90.0
  0
ARC
  5
1D0
100
AcDbEntity
  8
L1
100
AcDbCircle
 10
-81.74999999999995
 20
-56.74999999999997
 30
0.0
 40
5.099999999999999
100
AcDbArc
 50
0.0
 51
90.0
  0
ARC
  5
1D1
100
AcDbEntity
  8
L1
100
AcDbCircle
 10
-81.74999999999995
 20
-56.74999999999997
 30
0.0
 40
5.577310141859157
100
AcDbArc
 50
0.0
 51
90.0
  0
ARC
  5
1D2
100
AcDbEntity
  8
L1
100
AcDbCircle
 10
-81.74999999999995
 20
-56.74999999999997
 30
0.0
 40
8.222788858174023
100
AcDbArc
 50
0.0
 51
90.0
  0
ARC
  5
1D3
100
AcDbEntity
  8
L1
100
AcDbCircle
 10
-85.24999999999995
 20
-47.14999999999995
 30
0.0
 40
4.022689858140864
100
AcDbArc
 50
180.0
 51
270.0000000000008
  0
ARC
  5
1D4
100
AcDbEntity
  8
L1
100
AcDbCircle
 10
-85.24999999999995
 20
-47.14999999999995
 30
0.0
 40
4.499999999999964
100
AcDbArc
 50
224.6746095643834
 51
270.0
  0
LINE
  5
1D5
100
AcDbEntity
  8
L1
100
AcDbLine
 10
-81.74999999999995
 20
-51.64999999999995
 30
0.0
 11
-85.24999999999995
 21
-51.64999999999995
 31
0.0
  0
LINE
  5
1D6
100
AcDbEntity
  8
L1
100
AcDbLine
 10
-85.24999999999995
 20
-51.1726898581409
 30
0.0
 11
-81.74999999999995
 21
-51.1726898581409
 31
0.0
  0
POLYLINE
  5
1D7
100
AcDbEntity
  8
L1
100
AcDb2dPolyline
 66
     1
 10
0.0
 20
0.0
 30
0.0
  0
VERTEX
  5
676
100
AcDbEntity
  8
L1
100
AcDbVertex
100
AcDb2dVertex
 10
-84.62061525853318
 20
-47.54856408162507
 30
0.0
  0
VERTEX
  5
677
100
AcDbEntity
  8
L1
100
AcDbVertex
100
AcDb2dVertex
 10
-84.32062314761976
 20
-47.46818387833869
 30
0.0
  0
VERTEX
  5
678
100
AcDbEntity
  8
L1
100
AcDbVertex
100
AcDb2dVertex
 10
-84.10101830798106
 20
-47.2485790387
 30
0.0
  0
VERTEX
  5
679
100
AcDbEntity
  8
L1
100
AcDbVertex
100
AcDb2dVertex
 10
-84.02063810469469
 20
-46.94858692778658
 30
0.0
  0
SEQEND
  5
67A
100
AcDbEntity
  8
L1
  0
LINE
  5
1D8
100
AcDbEntity
  8
L1
100
AcDbLine
 10
-84.62061525853318
 20
-47.54856408162507
 30
0.0
 11
-81.74999999999995
 21
-47.54856408162507
 31
0.0
  0
ARC
  5
1D9
100
AcDbEntity
  8
L1
100
AcDbCircle
 10
-85.24999999999995
 20
-47.14999999999995
 30
0.0
 40
1.377211141825998
100
AcDbArc
 50
180.0
 51
270.0
  0
LINE
  5
1DA
100
AcDbEntity
  8
L1
100
AcDbLine
 10
-81.74999999999995
 20
-48.52721114182592
 30
0.0
 11
-85.24999999999995
 21
-48.52721114182592
 31
0.0
  0
POLYLINE
  5
1DB
100
AcDbEntity
  8
L1
100
AcDb2dPolyline
 66
     1
 10
0.0
 20
0.0
 30
0.0
  0
VERTEX
  5
67B
100
AcDbEntity
  8
L1
100
AcDbVertex
100
AcDb2dVertex
 10
-73.80066121879725
 20
-49.96895704134797
 30
0.0
  0
VERTEX
  5
67C
100
AcDbEntity
  8
L1
100
AcDbVertex
100
AcDb2dVertex
 10
-73.73076129788945
 20
-49.76304271985068
 30
0.0
  0
VERTEX
  5
67D
100
AcDbEntity
  8
L1
100
AcDbVertex
100
AcDb2dVertex
 10
-73.8183418441273
 20
-49.5640041440387
 30
0.0
  0
SEQEND
  5
67E
100
AcDbEntity
  8
L1
  0
ARC
  5
1DC
100
AcDbEntity
  8
L1
100
AcDbCircle
 10
-73.50543578868962
 20
-49.75320479565778
 30
0.0
 40
0.3
100
AcDbArc
 50
320.0000000000005
 51
44.99999999999872
  0
POLYLINE
  5
1DD
100
AcDbEntity
  8
L1
100
AcDb2dPolyline
 66
     1
 10
0.0
 20
0.0
 30
0.0
  0
VERTEX
  5
67F
100
AcDbEntity
  8
L1
100
AcDbVertex
100
AcDb2dVertex
 10
-76.4302413315595
 20
-49.72247474059409
 30
0.0
  0
VERTEX
  5
680
100
AcDbEntity
  8
L1
100
AcDbVertex
100
AcDb2dVertex
 10
-76.36590252976588
 20
-49.75963845571246
 30
0.0
  0
VERTEX
  5
681
100
AcDbEntity
  8
L1
100
AcDbVertex
100
AcDb2dVertex
 10
-76.27719061129505
 20
-49.78196750942576
 30
0.0
  0
VERTEX
  5
682
100
AcDbEntity
  8
L1
100
AcDbVertex
100
AcDb2dVertex
 10
-76.19017500655854
 20
-49.77741788846291
 30
0.0
  0
VERTEX
  5
683
100
AcDbEntity
  8
L1
100
AcDbVertex
100
AcDb2dVertex
 10
-76.09996964648968
 20
-49.74353755286879
 30
0.0
  0
VERTEX
  5
684
100
AcDbEntity
  8
L1
100
AcDbVertex
100
AcDb2dVertex
 10
-76.05635117798801
 20
-49.71309323779618
 30
0.0
  0
SEQEND
  5
685
100
AcDbEntity
  8
L1
  0
ARC
  5
1DE
100
AcDbEntity
  8
L1
100
AcDbCircle
 10
-81.74999999999995
 20
-56.74999999999997
 30
0.0
 40
8.813962988465215
100
AcDbArc
 50
37.12531743510299
 51
52.87468256489766
  0
POLYLINE
  5
1DF
100
AcDbEntity
  8
L1
100
AcDb2dPolyline
 66
     1
 10
0.0
 20
0.0
 30
0.0
  0
VERTEX
  5
686
100
AcDbEntity
  8
L1
100
AcDbVertex
100
AcDb2dVertex
 10
-74.71309323779621
 20
-51.05635117798797
 30
0.0
  0
VERTEX
  5
687
100
AcDbEntity
  8
L1
100
AcDbVertex
100
AcDb2dVertex
 10
-74.73370708624668
 20
-51.0840020168608
 30
0.0
  0
VERTEX
  5
688
100
AcDbEntity
  8
L1
100
AcDbVertex
100
AcDb2dVertex
 10
-74.76018502948091
 20
-51.13376029463021
 30
0.0
  0
VERTEX
  5
689
100
AcDbEntity
  8
L1
100
AcDbVertex
100
AcDb2dVertex
 10
-74.77688811258179
 20
-51.18759310127368
 30
0.0
  0
VERTEX
  5
68A
100
AcDbEntity
  8
L1
100
AcDbVertex
100
AcDb2dVertex
 10
-74.78325351918215
 20
-51.24534812187633
 30
0.0
  0
VERTEX
  5
68B
100
AcDbEntity
  8
L1
100
AcDbVertex
100
AcDb2dVertex
 10
-74.77836553316592
 20
-51.30324690038387
 30
0.0
  0
VERTEX
  5
68C
100
AcDbEntity
  8
L1
100
AcDbVertex
100
AcDb2dVertex
 10
-74.76197240079364
 20
-51.36021454399505
 30
0.0
  0
VERTEX
  5
68D
100
AcDbEntity
  8
L1
100
AcDbVertex
100
AcDb2dVertex
 10
-74.73469756843844
 20
-51.41284662278749
 30
0.0
  0
VERTEX
  5
68E
100
AcDbEntity
  8
L1
100
AcDbVertex
100
AcDb2dVertex
 10
-74.72247474059412
 20
-51.43024133155947
 30
0.0
  0
SEQEND
  5
68F
100
AcDbEntity
  8
L1
  0
LINE
  5
1E0
100
AcDbEntity
  8
L1
100
AcDbLine
 10
-74.71309323779621
 20
-51.05635117798797
 30
0.0
 11
-73.80066121879725
 21
-49.96895704134797
 31
0.0
  0
ARC
  5
1E1
100
AcDbEntity
  8
L1
100
AcDbCircle
 10
-73.99124842347845
 20
-51.26558633256545
 30
0.0
 40
0.2999860437228714
100
AcDbArc
 50
139.9996270275257
 51
215.2556313269384
  0
LINE
  5
1E2
100
AcDbEntity
  8
L1
100
AcDbLine
 10
-74.22104981009034
 20
-51.0727575246311
 30
0.0
 11
-73.27562245575393
 21
-49.94604107856375
 31
0.0
  0
ARC
  5
1E3
100
AcDbEntity
  8
L1
100
AcDbCircle
 10
-81.74999999999995
 20
-56.74999999999997
 30
0.0
 40
9.201435918374905
100
AcDbArc
 50
0.0
 51
35.25525836669873
  0
LINE
  5
1E4
100
AcDbEntity
  8
L1
100
AcDbLine
 10
-73.8183418441273
 20
-49.56400414403865
 30
0.0
 11
-74.56400414403868
 21
-48.81834184412728
 31
0.0
  0
POLYLINE
  5
1E5
100
AcDbEntity
  8
L1
100
AcDb2dPolyline
 66
     1
 10
0.0
 20
0.0
 30
0.0
  0
VERTEX
  5
690
100
AcDbEntity
  8
L1
100
AcDbVertex
100
AcDb2dVertex
 10
-74.56400414403868
 20
-48.81834184412728
 30
0.0
  0
VERTEX
  5
691
100
AcDbEntity
  8
L1
100
AcDbVertex
100
AcDb2dVertex
 10
-74.76304271985066
 20
-48.73076129788941
 30
0.0
  0
VERTEX
  5
692
100
AcDbEntity
  8
L1
100
AcDbVertex
100
AcDb2dVertex
 10
-74.96895704134795
 20
-48.80066121879721
 30
0.0
  0
SEQEND
  5
693
100
AcDbEntity
  8
L1
  0
ARC
  5
1E6
100
AcDbEntity
  8
L1
100
AcDbCircle
 10
-74.75320479565772
 20
-48.50543578868945
 30
0.0
 40
0.3
100
AcDbArc
 50
45.0
 51
129.9999999999994
  0
LINE
  5
1E7
100
AcDbEntity
  8
L1
100
AcDbLine
 10
-73.29330375433364
 20
-49.54107276130182
 30
0.0
 11
-74.54107276130173
 21
-48.29330375433349
 31
0.0
  0
ARC
  5
1E8
100
AcDbEntity
  8
L1
100
AcDbCircle
 10
-76.26621018056773
 20
-48.97619030898394
 30
0.0
 40
0.3120578558194801
100
AcDbArc
 50
236.4340394639516
 51
308.3107021662548
  0
LINE
  5
1E9
100
AcDbEntity
  8
L1
100
AcDbLine
 10
-74.968957041348
 20
-48.80066121879716
 30
0.0
 11
-76.05635117798806
 21
-49.71309323779618
 31
0.0
  0
LINE
  5
1EA
100
AcDbEntity
  8
L1
100
AcDbLine
 10
-74.94604107856367
 20
-48.27562245575376
 30
0.0
 11
-76.07275752463113
 21
-49.22104981009031
 31
0.0
  0
CIRCLE
  5
1EB
100
AcDbEntity
  8
L1
100
AcDbCircle
 10
-70.0
 20
-10.00000000000005
 30
0.0
 40
1.2581025254893
  0
CIRCLE
  5
1EC
100
AcDbEntity
  8
L1
100
AcDbCircle
 10
-49.99999999999994
 20
-44.99999999999992
 30
0.0
 40
4.591897474510698
  0
ARC
  5
1ED
100
AcDbEntity
  8
L1
100
AcDbCircle
 10
-49.99999999999994
 20
-44.99999999999992
 30
0.0
 40
3.361708113720398
100
AcDbArc
 50
306.8046934460398
 51
36.80469344603952
  0
LINE
  5
1EE
100
AcDbEntity
  8
L1
100
AcDbLine
 10
-49.99999999999994
 20
-46.99999999999991
 30
0.0
 11
-47.99999999999994
 21
-46.99999999999991
 31
0.0
  0
POLYLINE
  5
1EF
100
AcDbEntity
  8
L1
100
AcDb2dPolyline
 66
     1
 10
0.0
 20
0.0
 30
0.0
  0
VERTEX
  5
694
100
AcDbEntity
  8
L1
100
AcDbVertex
100
AcDb2dVertex
 10
-49.76408266529569
 20
-46.9860370115347
 30
0.0
  0
VERTEX
  5
695
100
AcDbEntity
  8
L1
100
AcDbVertex
100
AcDb2dVertex
 10
-49.82288141872681
 20
-46.99214181427115
 30
0.0
  0
VERTEX
  5
696
100
AcDbEntity
  8
L1
100
AcDbVertex
100
AcDb2dVertex
 10
-49.88183491012478
 20
-46.99650620122613
 30
0.0
  0
VERTEX
  5
697
100
AcDbEntity
  8
L1
100
AcDbVertex
100
AcDb2dVertex
 10
-49.94089163533158
 20
-46.99912635949451
 30
0.0
  0
VERTEX
  5
698
100
AcDbEntity
  8
L1
100
AcDbVertex
100
AcDb2dVertex
 10
-49.99999999999994
 20
-46.99999999999991
 30
0.0
  0
SEQEND
  5
699
100
AcDbEntity
  8
L1
  0
POLYLINE
  5
1F0
100
AcDbEntity
  8
L1
100
AcDb2dPolyline
 66
     1
 10
0.0
 20
0.0
 30
0.0
  0
VERTEX
  5
69A
100
AcDbEntity
  8
L1
100
AcDbVertex
100
AcDb2dVertex
 10
-47.99660062999044
 20
-47.65995545660039
 30
0.0
  0
VERTEX
  5
69B
100
AcDbEntity
  8
L1
100
AcDbVertex
100
AcDb2dVertex
 10
-47.98603701153473
 20
-47.69166017969306
 30
0.0
  0
SEQEND
  5
69C
100
AcDbEntity
  8
L1
  0
LINE
  5
1F1
100
AcDbEntity
  8
L1
100
AcDbLine
 10
-47.99999999999989
 20
-46.99999999999991
 30
0.0
 11
-47.99999999999989
 21
-47.141440324221
 31
0.0
  0
POLYLINE
  5
1F2
100
AcDbEntity
  8
L1
100
AcDb2dPolyline
 66
     1
 10
0.0
 20
0.0
 30
0.0
  0
VERTEX
  5
69D
100
AcDbEntity
  8
L1
100
AcDbVertex
100
AcDb2dVertex
 10
-47.99999999999994
 20
-47.141440324221
 30
0.0
  0
VERTEX
  5
69E
100
AcDbEntity
  8
L1
100
AcDbVertex
100
AcDb2dVertex
 10
-47.99992044563327
 20
-47.25615963202606
 30
0.0
  0
VERTEX
  5
69F
100
AcDbEntity
  8
L1
100
AcDbVertex
100
AcDb2dVertex
 10
-47.99967195326781
 20
-47.36753175819202
 30
0.0
  0
VERTEX
  5
6A0
100
AcDbEntity
  8
L1
100
AcDbVertex
100
AcDb2dVertex
 10
-47.99932637051461
 20
-47.45420257652361
 30
0.0
  0
VERTEX
  5
6A1
100
AcDbEntity
  8
L1
100
AcDbVertex
100
AcDb2dVertex
 10
-47.99884680160608
 20
-47.53186610719516
 30
0.0
  0
VERTEX
  5
6A2
100
AcDbEntity
  8
L1
100
AcDbVertex
100
AcDb2dVertex
 10
-47.99833272719825
 20
-47.58733525937228
 30
0.0
  0
VERTEX
  5
6A3
100
AcDbEntity
  8
L1
100
AcDbVertex
100
AcDb2dVertex
 10
-47.99773023522647
 20
-47.62928792396891
 30
0.0
  0
VERTEX
  5
6A4
100
AcDbEntity
  8
L1
100
AcDbVertex
100
AcDb2dVertex
 10
-47.99713442957954
 20
-47.65242946816406
 30
0.0
  0
VERTEX
  5
6A5
100
AcDbEntity
  8
L1
100
AcDbVertex
100
AcDb2dVertex
 10
-47.99660062999044
 20
-47.65995545660039
 30
0.0
  0
SEQEND
  5
6A6
100
AcDbEntity
  8
L1
  0
LINE
  5
1F3
100
AcDbEntity
  8
L1
100
AcDbLine
 10
-51.99999999999994
 20
-42.99999999999991
 30
0.0
 11
-51.99999999999994
 21
-44.99999999999992
 31
0.0
  0
POLYLINE
  5
1F4
100
AcDbEntity
  8
L1
100
AcDb2dPolyline
 66
     1
 10
0.0
 20
0.0
 30
0.0
  0
VERTEX
  5
6A7
100
AcDbEntity
  8
L1
100
AcDbVertex
100
AcDb2dVertex
 10
-51.99999999999994
 20
-44.99999999999992
 30
0.0
  0
VERTEX
  5
6A8
100
AcDbEntity
  8
L1
100
AcDbVertex
100
AcDb2dVertex
 10
-51.99922251681312
 20
-44.94423864898479
 30
0.0
  0
VERTEX
  5
6A9
100
AcDbEntity
  8
L1
100
AcDbVertex
100
AcDb2dVertex
 10
-51.9968906717329
 20
-44.88852065148248
 30
0.0
  0
VERTEX
  5
6AA
100
AcDbEntity
  8
L1
100
AcDbVertex
100
AcDb2dVertex
 10
-51.99300627772953
 20
-44.8328893272994
 30
0.0
  0
VERTEX
  5
6AB
100
AcDbEntity
  8
L1
100
AcDbVertex
100
AcDb2dVertex
 10
-51.98757235485408
 20
-44.77738792885467
 30
0.0
  0
VERTEX
  5
6AC
100
AcDbEntity
  8
L1
100
AcDbVertex
100
AcDb2dVertex
 10
-51.98059312789019
 20
-44.72205960755238
 30
0.0
  0
VERTEX
  5
6AD
100
AcDbEntity
  8
L1
100
AcDbVertex
100
AcDb2dVertex
 10
-51.97207402306952
 20
-44.66694738023218
 30
0.0
  0
SEQEND
  5
6AE
100
AcDbEntity
  8
L1
  0
LINE
  5
1F5
100
AcDbEntity
  8
L1
100
AcDbLine
 10
-52.14144032422104
 20
-42.99999999999991
 30
0.0
 11
-51.99999999999994
 21
-42.99999999999991
 31
0.0
  0
ARC
  5
1F6
100
AcDbEntity
  8
L1
100
AcDbCircle
 10
-49.99999999999994
 20
-44.99999999999992
 30
0.0
 40
2.0
100
AcDbArc
 50
9.585912399160205
 51
170.4140876008398
  0
POLYLINE
  5
1F7
100
AcDbEntity
  8
L1
100
AcDb2dPolyline
 66
     1
 10
0.0
 20
0.0
 30
0.0
  0
VERTEX
  5
6AF
100
AcDbEntity
  8
L1
100
AcDbVertex
100
AcDb2dVertex
 10
-48.02792597693036
 20
-44.66694738023218
 30
0.0
  0
VERTEX
  5
6B0
100
AcDbEntity
  8
L1
100
AcDbVertex
100
AcDb2dVertex
 10
-48.02034862754431
 20
-44.71542936986625
 30
0.0
  0
VERTEX
  5
6B1
100
AcDbEntity
  8
L1
100
AcDbVertex
100
AcDb2dVertex
 10
-48.01396298846515
 20
-44.76408266529566
 30
0.0
  0
SEQEND
  5
6B2
100
AcDbEntity
  8
L1
  0
POLYLINE
  5
1F8
100
AcDbEntity
  8
L1
100
AcDb2dPolyline
 66
     1
 10
0.0
 20
0.0
 30
0.0
  0
VERTEX
  5
6B3
100
AcDbEntity
  8
L1
100
AcDbVertex
100
AcDb2dVertex
 10
-47.3083398203068
 20
-42.98603701153476
 30
0.0
  0
VERTEX
  5
6B4
100
AcDbEntity
  8
L1
100
AcDbVertex
100
AcDb2dVertex
 10
-47.26649543034421
 20
-42.97207402306949
 30
0.0
  0
SEQEND
  5
6B5
100
AcDbEntity
  8
L1
  0
LINE
  5
1F9
100
AcDbEntity
  8
L1
100
AcDbLine
 10
-47.3083398203068
 20
-42.9860370115347
 30
0.0
 11
-48.01396298846515
 21
-42.9860370115347
 31
0.0
  0
LINE
  5
1FA
100
AcDbEntity
  8
L1
100
AcDbLine
 10
-48.01396298846515
 20
-42.9860370115347
 30
0.0
 11
-48.01396298846515
 21
-44.76408266529566
 31
0.0
  0
CIRCLE
  5
1FB
100
AcDbEntity
  8
L1
100
AcDbCircle
 10
-49.99999999999994
 20
-44.99999999999992
 30
0.0
 40
1.6
  0
CIRCLE
  5
1FC
100
AcDbEntity
  8
L1
100
AcDbCircle
 10
-49.99999999999994
 20
-44.99999999999992
 30
0.0
 40
1.2
  0
ARC
  5
1FD
100
AcDbEntity
  8
L1
100
AcDbCircle
 10
-49.99999999999994
 20
-44.99999999999992
 30
0.0
 40
2.0
100
AcDbArc
 50
276.7743060722614
 51
6.774306072261452
  0
POLYLINE
  5
1FE
100
AcDbEntity
  8
L1
100
AcDb2dPolyline
 66
     1
 10
0.0
 20
0.0
 30
0.0
  0
VERTEX
  5
6B6
100
AcDbEntity
  8
L1
100
AcDbVertex
100
AcDb2dVertex
 10
-52.69166017969315
 20
-42.9860370115347
 30
0.0
  0
VERTEX
  5
6B7
100
AcDbEntity
  8
L1
100
AcDbVertex
100
AcDb2dVertex
 10
-52.65995545660053
 20
-42.99660062999047
 30
0.0
  0
SEQEND
  5
6B8
100
AcDbEntity
  8
L1
  0
POLYLINE
  5
1FF
100
AcDbEntity
  8
L1
100
AcDb2dPolyline
 66
     1
 10
0.0
 20
0.0
 30
0.0
  0
VERTEX
  5
6B9
100
AcDbEntity
  8
L1
100
AcDbVertex
100
AcDb2dVertex
 10
-52.73350456965568
 20
-42.97207402306949
 30
0.0
  0
VERTEX
  5
6BA
100
AcDbEntity
  8
L1
100
AcDbVertex
100
AcDb2dVertex
 10
-52.69166017969315
 20
-42.9860370115347
 30
0.0
  0
SEQEND
  5
6BB
100
AcDbEntity
  8
L1
  0
ARC
  5
200
100
AcDbEntity
  8
L1
100
AcDbCircle
 10
-49.99999999999994
 20
-44.99999999999992
 30
0.0
 40
3.403605588231097
100
AcDbArc
 50
36.5708941476372
 51
143.4291058523627
  0
POLYLINE
  5
201
100
AcDbEntity
  8
L1
100
AcDb2dPolyline
 66
     1
 10
0.0
 20
0.0
 30
0.0
  0
VERTEX
  5
6BC
100
AcDbEntity
  8
L1
100
AcDbVertex
100
AcDb2dVertex
 10
-52.65995545660041
 20
-42.9966006299904
 30
0.0
  0
VERTEX
  5
6BD
100
AcDbEntity
  8
L1
100
AcDbVertex
100
AcDb2dVertex
 10
-52.65242946816409
 20
-42.99713442957957
 30
0.0
  0
VERTEX
  5
6BE
100
AcDbEntity
  8
L1
100
AcDbVertex
100
AcDb2dVertex
 10
-52.62928792396895
 20
-42.99773023522644
 30
0.0
  0
VERTEX
  5
6BF
100
AcDbEntity
  8
L1
100
AcDbVertex
100
AcDb2dVertex
 10
-52.58733525937237
 20
-42.99833272719817
 30
0.0
  0
VERTEX
  5
6C0
100
AcDbEntity
  8
L1
100
AcDbVertex
100
AcDb2dVertex
 10
-52.53186610719518
 20
-42.99884680160604
 30
0.0
  0
VERTEX
  5
6C1
100
AcDbEntity
  8
L1
100
AcDbVertex
100
AcDb2dVertex
 10
-52.45420257652369
 20
-42.99932637051464
 30
0.0
  0
VERTEX
  5
6C2
100
AcDbEntity
  8
L1
100
AcDbVertex
100
AcDb2dVertex
 10
-52.36753175819206
 20
-42.99967195326778
 30
0.0
  0
VERTEX
  5
6C3
100
AcDbEntity
  8
L1
100
AcDbVertex
100
AcDb2dVertex
 10
-52.2561596320262
 20
-42.99992044563319
 30
0.0
  0
VERTEX
  5
6C4
100
AcDbEntity
  8
L1
100
AcDbVertex
100
AcDb2dVertex
 10
-52.14144032422104
 20
-42.99999999999991
 30
0.0
  0
SEQEND
  5
6C5
100
AcDbEntity
  8
L1
  0
ARC
  5
202
100
AcDbEntity
  8
L1
100
AcDbCircle
 10
-49.99999999999994
 20
-44.99999999999992
 30
0.0
 40
2.0
100
AcDbArc
 50
180.0
 51
270.0000000000008
  0
CIRCLE
  5
203
100
AcDbEntity
  8
L1
100
AcDbCircle
 10
-9.999999999999943
 20
-44.99999999999997
 30
0.0
 40
1.2581025254893
  0
POLYLINE
  5
204
100
AcDbEntity
  8
L1
100
AcDb2dPolyline
 66
     1
 10
0.0
 20
0.0
 30
0.0
  0
VERTEX
  5
6C6
100
AcDbEntity
  8
L1
100
AcDbVertex
100
AcDb2dVertex
 10
-2.733504569655622
 20
-42.97207402306949
 30
0.0
  0
VERTEX
  5
6C7
100
AcDbEntity
  8
L1
100
AcDbVertex
100
AcDb2dVertex
 10
-2.701853931433845
 20
-42.9826376415252
 30
0.0
  0
SEQEND
  5
6C8
100
AcDbEntity
  8
L1
  0
POLYLINE
  5
205
100
AcDbEntity
  8
L1
100
AcDb2dPolyline
 66
     1
 10
0.0
 20
0.0
 30
0.0
  0
VERTEX
  5
6C9
100
AcDbEntity
  8
L1
100
AcDbVertex
100
AcDb2dVertex
 10
-2.701853931433902
 20
-42.9826376415252
 30
0.0
  0
VERTEX
  5
6CA
100
AcDbEntity
  8
L1
100
AcDbVertex
100
AcDb2dVertex
 10
-2.694327222758829
 20
-42.98317231306478
 30
0.0
  0
VERTEX
  5
6CB
100
AcDbEntity
  8
L1
100
AcDbVertex
100
AcDb2dVertex
 10
-2.671185009003977
 20
-42.98376902709825
 30
0.0
  0
VERTEX
  5
6CC
100
AcDbEntity
  8
L1
100
AcDbVertex
100
AcDb2dVertex
 10
-2.629295732131197
 20
-42.98437165134131
 30
0.0
  0
VERTEX
  5
6CD
100
AcDbEntity
  8
L1
100
AcDbVertex
100
AcDb2dVertex
 10
-2.573897349308083
 20
-42.98488604447314
 30
0.0
  0
VERTEX
  5
6CE
100
AcDbEntity
  8
L1
100
AcDbVertex
100
AcDb2dVertex
 10
-2.49651397968978
 20
-42.98536492213341
 30
0.0
  0
VERTEX
  5
6CF
100
AcDbEntity
  8
L1
100
AcDbVertex
100
AcDb2dVertex
 10
-2.410131526208033
 20
-42.98571019259301
 30
0.0
  0
VERTEX
  5
6D0
100
AcDbEntity
  8
L1
100
AcDbVertex
100
AcDb2dVertex
 10
-2.29955327505678
 20
-42.98595766314386
 30
0.0
  0
VERTEX
  5
6D1
100
AcDbEntity
  8
L1
100
AcDbVertex
100
AcDb2dVertex
 10
-2.185636459890019
 20
-42.9860370115347
 30
0.0
  0
SEQEND
  5
6D2
100
AcDbEntity
  8
L1
  0
LINE
  5
206
100
AcDbEntity
  8
L1
100
AcDbLine
 10
-2.185636459890019
 20
-42.9860370115347
 30
0.0
 11
-1.986037011534733
 21
-42.9860370115347
 31
0.0
  0
LINE
  5
207
100
AcDbEntity
  8
L1
100
AcDbLine
 10
-1.986037011534733
 20
-42.9860370115347
 30
0.0
 11
-1.986037011534733
 21
-44.76408266529571
 31
0.0
  0
LINE
  5
208
100
AcDbEntity
  8
L1
100
AcDbLine
 10
1.986037011534847
 20
-42.98603701153476
 30
0.0
 11
2.185636459890133
 21
-42.98603701153476
 31
0.0
  0
LINE
  5
209
100
AcDbEntity
  8
L1
100
AcDbLine
 10
1.986037011534847
 20
-44.76408266529571
 30
0.0
 11
1.986037011534847
 21
-42.98603701153476
 31
0.0
  0
CIRCLE
  5
20A
100
AcDbEntity
  8
L1
100
AcDbCircle
 10
0.0000000000000568
 20
-44.99999999999997
 30
0.0
 40
1.6
  0
CIRCLE
  5
20B
100
AcDbEntity
  8
L1
100
AcDbCircle
 10
0.0000000000000568
 20
-44.99999999999997
 30
0.0
 40
1.2
  0
ARC
  5
20C
100
AcDbEntity
  8
L1
100
AcDbCircle
 10
0.0000000000000568
 20
-44.99999999999997
 30
0.0
 40
2.0
100
AcDbArc
 50
173.2256939277385
 51
6.774306072261452
  0
LINE
  5
20D
100
AcDbEntity
  8
L1
100
AcDbLine
 10
-46.71165091966781
 20
56.45000000000002
 30
0.0
 11
-66.71165091966781
 21
56.45000000000002
 31
0.0
  0
LINE
  5
20E
100
AcDbEntity
  8
L1
100
AcDbLine
 10
-66.71165091966781
 20
57.04999999999998
 30
0.0
 11
-46.71165091966781
 21
57.04999999999998
 31
0.0
  0
CIRCLE
  5
20F
100
AcDbEntity
  8
L1
100
AcDbCircle
 10
-70.0
 20
-0.0000000000000568
 30
0.0
 40
4.591897474510698
  0
CIRCLE
  5
210
100
AcDbEntity
  8
L1
100
AcDbCircle
 10
-70.0
 20
-0.0000000000000568
 30
0.0
 40
1.6
  0
CIRCLE
  5
211
100
AcDbEntity
  8
L1
100
AcDbCircle
 10
-70.0
 20
-0.0000000000000568
 30
0.0
 40
1.2
  0
ARC
  5
212
100
AcDbEntity
  8
L1
100
AcDbCircle
 10
-70.0
 20
-0.0000000000000568
 30
0.0
 40
2.0
100
AcDbArc
 50
83.22569392773853
 51
276.7743060722614
  0
POLYLINE
  5
213
100
AcDbEntity
  8
L1
100
AcDb2dPolyline
 66
     1
 10
0.0
 20
0.0
 30
0.0
  0
VERTEX
  5
6D3
100
AcDbEntity
  8
L1
100
AcDbVertex
100
AcDb2dVertex
 10
-67.97207402306952
 20
-2.733504569655735
 30
0.0
  0
VERTEX
  5
6D4
100
AcDbEntity
  8
L1
100
AcDbVertex
100
AcDb2dVertex
 10
-67.98263764152522
 20
-2.701853931433959
 30
0.0
  0
SEQEND
  5
6D5
100
AcDbEntity
  8
L1
  0
POLYLINE
  5
214
100
AcDbEntity
  8
L1
100
AcDb2dPolyline
 66
     1
 10
0.0
 20
0.0
 30
0.0
  0
VERTEX
  5
6D6
100
AcDbEntity
  8
L1
100
AcDbVertex
100
AcDb2dVertex
 10
-67.98263764152522
 20
-2.701853931434015
 30
0.0
  0
VERTEX
  5
6D7
100
AcDbEntity
  8
L1
100
AcDbVertex
100
AcDb2dVertex
 10
-67.98317231306481
 20
-2.694327222758943
 30
0.0
  0
VERTEX
  5
6D8
100
AcDbEntity
  8
L1
100
AcDbVertex
100
AcDb2dVertex
 10
-67.98376902709827
 20
-2.671185009004091
 30
0.0
  0
VERTEX
  5
6D9
100
AcDbEntity
  8
L1
100
AcDbVertex
100
AcDb2dVertex
 10
-67.98437165134135
 20
-2.629295732131311
 30
0.0
  0
VERTEX
  5
6DA
100
AcDbEntity
  8
L1
100
AcDbVertex
100
AcDb2dVertex
 10
-67.98488604447317
 20
-2.573897349308197
 30
0.0
  0
VERTEX
  5
6DB
100
AcDbEntity
  8
L1
100
AcDbVertex
100
AcDb2dVertex
 10
-67.98536492213344
 20
-2.496513979689893
 30
0.0
  0
VERTEX
  5
6DC
100
AcDbEntity
  8
L1
100
AcDbVertex
100
AcDb2dVertex
 10
-67.98571019259305
 20
-2.410131526208147
 30
0.0
  0
VERTEX
  5
6DD
100
AcDbEntity
  8
L1
100
AcDbVertex
100
AcDb2dVertex
 10
-67.98595766314389
 20
-2.299553275056894
 30
0.0
  0
VERTEX
  5
6DE
100
AcDbEntity
  8
L1
100
AcDbVertex
100
AcDb2dVertex
 10
-67.98603701153473
 20
-2.185636459890133
 30
0.0
  0
SEQEND
  5
6DF
100
AcDbEntity
  8
L1
  0
LINE
  5
215
100
AcDbEntity
  8
L1
100
AcDbLine
 10
-67.98603701153473
 20
-2.185636459890133
 30
0.0
 11
-67.98603701153473
 21
-1.986037011534847
 31
0.0
  0
LINE
  5
216
100
AcDbEntity
  8
L1
100
AcDbLine
 10
-67.98603701153473
 20
-1.986037011534847
 30
0.0
 11
-69.76408266529574
 21
-1.986037011534847
 31
0.0
  0
POLYLINE
  5
217
100
AcDbEntity
  8
L1
100
AcDb2dPolyline
 66
     1
 10
0.0
 20
0.0
 30
0.0
  0
VERTEX
  5
6E0
100
AcDbEntity
  8
L1
100
AcDbVertex
100
AcDb2dVertex
 10
-67.98603701153473
 20
2.185636459890019
 30
0.0
  0
VERTEX
  5
6E1
100
AcDbEntity
  8
L1
100
AcDbVertex
100
AcDb2dVertex
 10
-67.98595766314389
 20
2.29955327505678
 30
0.0
  0
VERTEX
  5
6E2
100
AcDbEntity
  8
L1
100
AcDbVertex
100
AcDb2dVertex
 10
-67.98571019259305
 20
2.410131526208033
 30
0.0
  0
VERTEX
  5
6E3
100
AcDbEntity
  8
L1
100
AcDbVertex
100
AcDb2dVertex
 10
-67.98536492213344
 20
2.49651397968978
 30
0.0
  0
VERTEX
  5
6E4
100
AcDbEntity
  8
L1
100
AcDbVertex
100
AcDb2dVertex
 10
-67.98488604447317
 20
2.573897349308083
 30
0.0
  0
VERTEX
  5
6E5
100
AcDbEntity
  8
L1
100
AcDbVertex
100
AcDb2dVertex
 10
-67.98437165134135
 20
2.629295732131197
 30
0.0
  0
VERTEX
  5
6E6
100
AcDbEntity
  8
L1
100
AcDbVertex
100
AcDb2dVertex
 10
-67.98376902709827
 20
2.67118500900392
 30
0.0
  0
VERTEX
  5
6E7
100
AcDbEntity
  8
L1
100
AcDbVertex
100
AcDb2dVertex
 10
-67.98317231306487
 20
2.694327222758886
 30
0.0
  0
VERTEX
  5
6E8
100
AcDbEntity
  8
L1
100
AcDbVertex
100
AcDb2dVertex
 10
-67.98263764152529
 20
2.701853931433959
 30
0.0
  0
SEQEND
  5
6E9
100
AcDbEntity
  8
L1
  0
LINE
  5
218
100
AcDbEntity
  8
L1
100
AcDbLine
 10
-67.98603701153479
 20
1.986037011534733
 30
0.0
 11
-67.98603701153479
 21
2.185636459890019
 31
0.0
  0
LINE
  5
219
100
AcDbEntity
  8
L1
100
AcDbLine
 10
-69.76408266529574
 20
1.986037011534733
 30
0.0
 11
-67.98603701153479
 21
1.986037011534733
 31
0.0
  0
ARC
  5
21A
100
AcDbEntity
  8
L1
100
AcDbCircle
 10
-70.0
 20
-0.0000000000000568
 30
0.0
 40
3.403605588231097
100
AcDbArc
 50
306.5708941476385
 51
53.42910585236278
  0
POLYLINE
  5
21B
100
AcDbEntity
  8
L1
100
AcDb2dPolyline
 66
     1
 10
0.0
 20
0.0
 30
0.0
  0
VERTEX
  5
6EA
100
AcDbEntity
  8
L1
100
AcDbVertex
100
AcDb2dVertex
 10
-67.98263764152529
 20
2.701853931433902
 30
0.0
  0
VERTEX
  5
6EB
100
AcDbEntity
  8
L1
100
AcDbVertex
100
AcDb2dVertex
 10
-67.97207402306958
 20
2.733504569655679
 30
0.0
  0
SEQEND
  5
6EC
100
AcDbEntity
  8
L1
  0
CIRCLE
  5
21C
100
AcDbEntity
  8
L1
100
AcDbCircle
 10
-70.0
 20
9.999999999999943
 30
0.0
 40
1.2581025254893
  0
LINE
  5
21D
100
AcDbEntity
  8
L1
100
AcDbLine
 10
-74.968957041348
 20
48.80066121879716
 30
0.0
 11
-76.05635117798806
 21
49.71309323779618
 31
0.0
  0
ARC
  5
21E
100
AcDbEntity
  8
L1
100
AcDbCircle
 10
-85.24999999999995
 20
47.14999999999995
 30
0.0
 40
4.022689858140864
100
AcDbArc
 50
89.9999999999992
 51
180.0
  0
LINE
  5
21F
100
AcDbEntity
  8
L1
100
AcDbLine
 10
-73.8183418441273
 20
49.56400414403865
 30
0.0
 11
-74.56400414403868
 21
48.81834184412728
 31
0.0
  0
LINE
  5
220
100
AcDbEntity
  8
L1
100
AcDbLine
 10
-74.94604107856367
 20
48.27562245575376
 30
0.0
 11
-76.07275752463113
 21
49.22104981009031
 31
0.0
  0
LINE
  5
221
100
AcDbEntity
  8
L1
100
AcDbLine
 10
-73.29330375433364
 20
49.54107276130182
 30
0.0
 11
-74.54107276130173
 21
48.29330375433349
 31
0.0
  0
ARC
  5
222
100
AcDbEntity
  8
L1
100
AcDbCircle
 10
-81.74999999999995
 20
56.74999999999997
 30
0.0
 40
9.201435918374905
100
AcDbArc
 50
270.0
 51
305.2552583666985
  0
ARC
  5
223
100
AcDbEntity
  8
L1
100
AcDbCircle
 10
-81.74999999999995
 20
56.74999999999997
 30
0.0
 40
8.222788858174023
100
AcDbArc
 50
270.0
 51
0.0
  0
POLYLINE
  5
224
100
AcDbEntity
  8
L1
100
AcDb2dPolyline
 66
     1
 10
0.0
 20
0.0
 30
0.0
  0
VERTEX
  5
6ED
100
AcDbEntity
  8
L1
100
AcDbVertex
100
AcDb2dVertex
 10
-84.62061525853318
 20
47.54856408162507
 30
0.0
  0
VERTEX
  5
6EE
100
AcDbEntity
  8
L1
100
AcDbVertex
100
AcDb2dVertex
 10
-84.32062314761976
 20
47.46818387833869
 30
0.0
  0
VERTEX
  5
6EF
100
AcDbEntity
  8
L1
100
AcDbVertex
100
AcDb2dVertex
 10
-84.10101830798106
 20
47.2485790387
 30
0.0
  0
VERTEX
  5
6F0
100
AcDbEntity
  8
L1
100
AcDbVertex
100
AcDb2dVertex
 10
-84.02063810469469
 20
46.94858692778658
 30
0.0
  0
SEQEND
  5
6F1
100
AcDbEntity
  8
L1
  0
LINE
  5
225
100
AcDbEntity
  8
L1
100
AcDbLine
 10
-84.62061525853318
 20
47.54856408162507
 30
0.0
 11
-81.74999999999995
 21
47.54856408162507
 31
0.0
  0
ARC
  5
226
100
AcDbEntity
  8
L1
100
AcDbCircle
 10
-85.24999999999995
 20
47.14999999999995
 30
0.0
 40
1.377211141825998
100
AcDbArc
 50
90.0
 51
180.0
  0
LINE
  5
227
100
AcDbEntity
  8
L1
100
AcDbLine
 10
-81.74999999999995
 20
48.52721114182592
 30
0.0
 11
-85.24999999999995
 21
48.52721114182592
 31
0.0
  0
ARC
  5
228
100
AcDbEntity
  8
L1
100
AcDbCircle
 10
-74.75320479565772
 20
48.50543578868945
 30
0.0
 40
0.3
100
AcDbArc
 50
230.0000000000005
 51
314.9999999999999
  0
POLYLINE
  5
229
100
AcDbEntity
  8
L1
100
AcDb2dPolyline
 66
     1
 10
0.0
 20
0.0
 30
0.0
  0
VERTEX
  5
6F2
100
AcDbEntity
  8
L1
100
AcDbVertex
100
AcDb2dVertex
 10
-74.56400414403868
 20
48.81834184412728
 30
0.0
  0
VERTEX
  5
6F3
100
AcDbEntity
  8
L1
100
AcDbVertex
100
AcDb2dVertex
 10
-74.76304271985066
 20
48.73076129788941
 30
0.0
  0
VERTEX
  5
6F4
100
AcDbEntity
  8
L1
100
AcDbVertex
100
AcDb2dVertex
 10
-74.96895704134795
 20
48.80066121879721
 30
0.0
  0
SEQEND
  5
6F5
100
AcDbEntity
  8
L1
  0
LINE
  5
22A
100
AcDbEntity
  8
L6
100
AcDbLine
 10
-88.77893032771703
 20
56.74999999999997
 30
0.0
 11
-74.77756888321824
 21
56.74999999999997
 31
0.0
  0
CIRCLE
  5
22B
100
AcDbEntity
  8
L1
100
AcDbCircle
 10
-81.74999999999995
 20
56.74999999999997
 30
0.0
 40
4.0
  0
LINE
  5
22C
100
AcDbEntity
  8
L1
100
AcDbLine
 10
-86.54999999999995
 20
63.4499999999999
 30
0.0
 11
-75.31385840391124
 21
63.4499999999999
 31
0.0
  0
ARC
  5
22D
100
AcDbEntity
  8
L1
100
AcDbCircle
 10
-81.74999999999995
 20
56.74999999999997
 30
0.0
 40
5.099999999999999
100
AcDbArc
 50
270.0
 51
0.0
  0
ARC
  5
22E
100
AcDbEntity
  8
L1
100
AcDbCircle
 10
-81.74999999999995
 20
56.74999999999997
 30
0.0
 40
5.577310141859157
100
AcDbArc
 50
270.0
 51
0.0
  0
LINE
  5
22F
100
AcDbEntity
  8
L6
100
AcDbLine
 10
-81.75000000000023
 20
63.03088265814378
 30
0.0
 11
-81.75000000000023
 21
50.45130511106171
 31
0.0
  0
CIRCLE
  5
230
100
AcDbEntity
  8
L1
100
AcDbCircle
 10
-81.75
 20
56.74999999999997
 30
0.0
 40
2.25
  0
LINE
  5
231
100
AcDbEntity
  8
L1
100
AcDbLine
 10
-88.44999999999998
 20
50.31385840391121
 30
0.0
 11
-88.44999999999998
 21
61.54999999999998
 31
0.0
  0
ARC
  5
232
100
AcDbEntity
  8
L1
100
AcDbCircle
 10
-85.24999999999995
 20
47.14999999999995
 30
0.0
 40
4.499999999999964
100
AcDbArc
 50
90.0
 51
135.3253904356164
  0
LINE
  5
233
100
AcDbEntity
  8
L1
100
AcDbLine
 10
-81.74999999999995
 20
51.64999999999995
 30
0.0
 11
-85.24999999999995
 21
51.64999999999995
 31
0.0
  0
LINE
  5
234
100
AcDbEntity
  8
L1
100
AcDbLine
 10
-85.24999999999995
 20
51.1726898581409
 30
0.0
 11
-81.74999999999995
 21
51.1726898581409
 31
0.0
  0
ARC
  5
235
100
AcDbEntity
  8
L1
100
AcDbCircle
 10
-86.54999999999995
 20
61.54999999999998
 30
0.0
 40
1.9
100
AcDbArc
 50
89.99999999999912
 51
180.0
  0
ARC
  5
236
100
AcDbEntity
  8
L1
100
AcDbCircle
 10
-86.54999999999995
 20
61.54999999999998
 30
0.0
 40
2.900000000000025
100
AcDbArc
 50
90.0
 51
180.0
  0
POLYLINE
  5
237
100
AcDbEntity
  8
L1
100
AcDb2dPolyline
 66
     1
 10
0.0
 20
0.0
 30
0.0
  0
VERTEX
  5
6F6
100
AcDbEntity
  8
L1
100
AcDbVertex
100
AcDb2dVertex
 10
-90.04480555661007
 20
61.54999999999998
 30
0.0
  0
VERTEX
  5
6F7
100
AcDbEntity
  8
L1
100
AcDbVertex
100
AcDb2dVertex
 10
-89.9787808133297
 20
62.22163427376248
 30
0.0
  0
VERTEX
  5
6F8
100
AcDbEntity
  8
L1
100
AcDbVertex
100
AcDb2dVertex
 10
-89.89493315133676
 20
62.55804530902427
 30
0.0
  0
VERTEX
  5
6F9
100
AcDbEntity
  8
L1
100
AcDbVertex
100
AcDb2dVertex
 10
-89.77745407436231
 20
62.88663729905218
 30
0.0
  0
VERTEX
  5
6FA
100
AcDbEntity
  8
L1
100
AcDbVertex
100
AcDb2dVertex
 10
-89.62773247912229
 20
63.20184705158377
 30
0.0
  0
VERTEX
  5
6FB
100
AcDbEntity
  8
L1
100
AcDbVertex
100
AcDb2dVertex
 10
-89.44872582398136
 20
63.49876236080641
 30
0.0
  0
VERTEX
  5
6FC
100
AcDbEntity
  8
L1
100
AcDbVertex
100
AcDb2dVertex
 10
-89.01975597554354
 20
64.01975597554363
 30
0.0
  0
VERTEX
  5
6FD
100
AcDbEntity
  8
L1
100
AcDbVertex
100
AcDb2dVertex
 10
-88.49876236080632
 20
64.44872582398144
 30
0.0
  0
VERTEX
  5
6FE
100
AcDbEntity
  8
L1
100
AcDbVertex
100
AcDb2dVertex
 10
-88.20184705158368
 20
64.62773247912238
 30
0.0
  0
VERTEX
  5
6FF
100
AcDbEntity
  8
L1
100
AcDbVertex
100
AcDb2dVertex
 10
-87.88663729905204
 20
64.77745407436239
 30
0.0
  0
VERTEX
  5
700
100
AcDbEntity
  8
L1
100
AcDbVertex
100
AcDb2dVertex
 10
-87.55804530902413
 20
64.89493315133685
 30
0.0
  0
VERTEX
  5
701
100
AcDbEntity
  8
L1
100
AcDbVertex
100
AcDb2dVertex
 10
-87.22163427376228
 20
64.97878081332974
 30
0.0
  0
VERTEX
  5
702
100
AcDbEntity
  8
L1
100
AcDbVertex
100
AcDb2dVertex
 10
-86.54999999999995
 20
65.04480555661015
 30
0.0
  0
SEQEND
  5
703
100
AcDbEntity
  8
L1
  0
LINE
  5
238
100
AcDbEntity
  8
L1
100
AcDbLine
 10
-76.64999999999992
 20
60.24999999999997
 30
0.0
 11
-76.64999999999992
 21
56.74999999999997
 31
0.0
  0
LINE
  5
239
100
AcDbEntity
  8
L1
100
AcDbLine
 10
-76.17268985814075
 20
56.74999999999997
 30
0.0
 11
-76.17268985814075
 21
60.24999999999997
 31
0.0
  0
LINE
  5
23A
100
AcDbEntity
  8
L1
100
AcDbLine
 10
-72.54856408162504
 20
56.74999999999997
 30
0.0
 11
-72.54856408162504
 21
59.62061525853314
 31
0.0
  0
LINE
  5
23B
100
AcDbEntity
  8
L1
100
AcDbLine
 10
-73.52721114182594
 20
60.24999999999997
 30
0.0
 11
-73.52721114182594
 21
56.74999999999997
 31
0.0
  0
ARC
  5
23C
100
AcDbEntity
  8
L1
100
AcDbCircle
 10
-73.50543578868962
 20
49.75320479565778
 30
0.0
 40
0.3
100
AcDbArc
 50
315.0000000000012
 51
39.99999999999947
  0
ARC
  5
23D
100
AcDbEntity
  8
L1
100
AcDbCircle
 10
-73.99124842347845
 20
51.26558633256545
 30
0.0
 40
0.2999860437228714
100
AcDbArc
 50
144.7443686730615
 51
220.0003729724743
  0
ARC
  5
23E
100
AcDbEntity
  8
L1
100
AcDbCircle
 10
-76.26621018056773
 20
48.97619030898394
 30
0.0
 40
0.3120578558194801
100
AcDbArc
 50
51.6892978337452
 51
123.5659605360483
  0
POLYLINE
  5
23F
100
AcDbEntity
  8
L1
100
AcDb2dPolyline
 66
     1
 10
0.0
 20
0.0
 30
0.0
  0
VERTEX
  5
704
100
AcDbEntity
  8
L1
100
AcDbVertex
100
AcDb2dVertex
 10
-74.71309323779621
 20
51.05635117798797
 30
0.0
  0
VERTEX
  5
705
100
AcDbEntity
  8
L1
100
AcDbVertex
100
AcDb2dVertex
 10
-74.73370708624668
 20
51.0840020168608
 30
0.0
  0
VERTEX
  5
706
100
AcDbEntity
  8
L1
100
AcDbVertex
100
AcDb2dVertex
 10
-74.76018502948091
 20
51.13376029463021
 30
0.0
  0
VERTEX
  5
707
100
AcDbEntity
  8
L1
100
AcDbVertex
100
AcDb2dVertex
 10
-74.77688811258179
 20
51.18759310127368
 30
0.0
  0
VERTEX
  5
708
100
AcDbEntity
  8
L1
100
AcDbVertex
100
AcDb2dVertex
 10
-74.78325351918215
 20
51.24534812187633
 30
0.0
  0
VERTEX
  5
709
100
AcDbEntity
  8
L1
100
AcDbVertex
100
AcDb2dVertex
 10
-74.77836553316592
 20
51.30324690038387
 30
0.0
  0
VERTEX
  5
70A
100
AcDbEntity
  8
L1
100
AcDbVertex
100
AcDb2dVertex
 10
-74.76197240079364
 20
51.36021454399505
 30
0.0
  0
VERTEX
  5
70B
100
AcDbEntity
  8
L1
100
AcDbVertex
100
AcDb2dVertex
 10
-74.73469756843844
 20
51.41284662278749
 30
0.0
  0
VERTEX
  5
70C
100
AcDbEntity
  8
L1
100
AcDbVertex
100
AcDb2dVertex
 10
-74.72247474059412
 20
51.43024133155947
 30
0.0
  0
SEQEND
  5
70D
100
AcDbEntity
  8
L1
  0
LINE
  5
240
100
AcDbEntity
  8
L1
100
AcDbLine
 10
-74.71309323779621
 20
51.05635117798797
 30
0.0
 11
-73.80066121879725
 21
49.96895704134797
 31
0.0
  0
POLYLINE
  5
241
100
AcDbEntity
  8
L1
100
AcDb2dPolyline
 66
     1
 10
0.0
 20
0.0
 30
0.0
  0
VERTEX
  5
70E
100
AcDbEntity
  8
L1
100
AcDbVertex
100
AcDb2dVertex
 10
-73.80066121879725
 20
49.96895704134797
 30
0.0
  0
VERTEX
  5
70F
100
AcDbEntity
  8
L1
100
AcDbVertex
100
AcDb2dVertex
 10
-73.73076129788945
 20
49.76304271985068
 30
0.0
  0
VERTEX
  5
710
100
AcDbEntity
  8
L1
100
AcDbVertex
100
AcDb2dVertex
 10
-73.8183418441273
 20
49.5640041440387
 30
0.0
  0
SEQEND
  5
711
100
AcDbEntity
  8
L1
  0
ARC
  5
242
100
AcDbEntity
  8
L1
100
AcDbCircle
 10
-81.74999999999995
 20
56.74999999999997
 30
0.0
 40
8.813962988465215
100
AcDbArc
 50
307.1253174351023
 51
322.874682564897
  0
LINE
  5
243
100
AcDbEntity
  8
L1
100
AcDbLine
 10
-74.22104981009034
 20
51.0727575246311
 30
0.0
 11
-73.27562245575393
 21
49.94604107856375
 31
0.0
  0
ARC
  5
244
100
AcDbEntity
  8
L1
100
AcDbCircle
 10
-81.74999999999995
 20
56.74999999999997
 30
0.0
 40
9.201435918374905
100
AcDbArc
 50
324.7447416333012
 51
0.0
  0
POLYLINE
  5
245
100
AcDbEntity
  8
L1
100
AcDb2dPolyline
 66
     1
 10
0.0
 20
0.0
 30
0.0
  0
VERTEX
  5
712
100
AcDbEntity
  8
L1
100
AcDbVertex
100
AcDb2dVertex
 10
-76.4302413315595
 20
49.72247474059409
 30
0.0
  0
VERTEX
  5
713
100
AcDbEntity
  8
L1
100
AcDbVertex
100
AcDb2dVertex
 10
-76.36590252976588
 20
49.75963845571246
 30
0.0
  0
VERTEX
  5
714
100
AcDbEntity
  8
L1
100
AcDbVertex
100
AcDb2dVertex
 10
-76.27719061129505
 20
49.78196750942576
 30
0.0
  0
VERTEX
  5
715
100
AcDbEntity
  8
L1
100
AcDbVertex
100
AcDb2dVertex
 10
-76.19017500655854
 20
49.77741788846291
 30
0.0
  0
VERTEX
  5
716
100
AcDbEntity
  8
L1
100
AcDbVertex
100
AcDb2dVertex
 10
-76.09996964648968
 20
49.74353755286879
 30
0.0
  0
VERTEX
  5
717
100
AcDbEntity
  8
L1
100
AcDbVertex
100
AcDb2dVertex
 10
-76.05635117798801
 20
49.71309323779618
 30
0.0
  0
SEQEND
  5
718
100
AcDbEntity
  8
L1
  0
LINE
  5
246
100
AcDbEntity
  8
L1
100
AcDbLine
 10
-66.71165091966781
 20
57.65
 30
0.0
 11
-66.71165091966781
 21
57.04999999999998
 31
0.0
  0
LINE
  5
247
100
AcDbEntity
  8
L1
100
AcDbLine
 10
-69.75
 20
56.75000000000003
 30
0.0
 11
-66.71165091966781
 21
57.65000000000006
 31
0.0
  0
LINE
  5
248
100
AcDbEntity
  8
L1
100
AcDbLine
 10
-66.71165091966781
 20
55.84999999999993
 30
0.0
 11
-69.74999999999994
 21
56.74999999999997
 31
0.0
  0
LINE
  5
249
100
AcDbEntity
  8
L1
100
AcDbLine
 10
-66.71165091966781
 20
56.44999999999996
 30
0.0
 11
-66.71165091966781
 21
55.84999999999999
 31
0.0
  0
ARC
  5
24A
100
AcDbEntity
  8
L1
100
AcDbCircle
 10
-72.14999999999998
 20
60.24999999999997
 30
0.0
 40
4.499999999999992
100
AcDbArc
 50
134.6746095643835
 51
180.0
  0
ARC
  5
24B
100
AcDbEntity
  8
L1
100
AcDbCircle
 10
-72.14999999999998
 20
60.24999999999997
 30
0.0
 40
4.022689858140864
100
AcDbArc
 50
89.9999999999992
 51
180.0
  0
POLYLINE
  5
24C
100
AcDbEntity
  8
L1
100
AcDb2dPolyline
 66
     1
 10
0.0
 20
0.0
 30
0.0
  0
VERTEX
  5
719
100
AcDbEntity
  8
L1
100
AcDbVertex
100
AcDb2dVertex
 10
-71.94858692778655
 20
59.02063810469465
 30
0.0
  0
VERTEX
  5
71A
100
AcDbEntity
  8
L1
100
AcDbVertex
100
AcDb2dVertex
 10
-72.24857903869997
 20
59.10101830798104
 30
0.0
  0
VERTEX
  5
71B
100
AcDbEntity
  8
L1
100
AcDbVertex
100
AcDb2dVertex
 10
-72.46818387833866
 20
59.32062314761973
 30
0.0
  0
VERTEX
  5
71C
100
AcDbEntity
  8
L1
100
AcDbVertex
100
AcDb2dVertex
 10
-72.54856408162504
 20
59.62061525853314
 30
0.0
  0
SEQEND
  5
71D
100
AcDbEntity
  8
L1
  0
ARC
  5
24D
100
AcDbEntity
  8
L1
100
AcDbCircle
 10
-72.14999999999998
 20
60.24999999999997
 30
0.0
 40
1.377211141825941
100
AcDbArc
 50
90.0
 51
180.0
  0
CIRCLE
  5
24E
100
AcDbEntity
  8
L1
100
AcDbCircle
 10
0.0000000000000568
 20
-0.0000000000000568
 30
0.0
 40
1.0
  0
CIRCLE
  5
24F
100
AcDbEntity
  8
L1
100
AcDbCircle
 10
-49.99999999999994
 20
44.99999999999992
 30
0.0
 40
4.591897474510698
  0
ARC
  5
250
100
AcDbEntity
  8
L1
100
AcDbCircle
 10
-49.99999999999994
 20
44.99999999999992
 30
0.0
 40
3.361708113720398
100
AcDbArc
 50
323.1953065539604
 51
53.19530655396017
  0
CIRCLE
  5
251
100
AcDbEntity
  8
L1
100
AcDbCircle
 10
-49.99999999999994
 20
44.99999999999992
 30
0.0
 40
1.6
  0
CIRCLE
  5
252
100
AcDbEntity
  8
L1
100
AcDbCircle
 10
-49.99999999999994
 20
44.99999999999992
 30
0.0
 40
1.2
  0
ARC
  5
253
100
AcDbEntity
  8
L1
100
AcDbCircle
 10
-49.99999999999994
 20
44.99999999999992
 30
0.0
 40
2.0
100
AcDbArc
 50
89.9999999999992
 51
180.0
  0
LINE
  5
254
100
AcDbEntity
  8
L1
100
AcDbLine
 10
-51.99999999999994
 20
42.99999999999991
 30
0.0
 11
-51.99999999999994
 21
44.99999999999992
 31
0.0
  0
POLYLINE
  5
255
100
AcDbEntity
  8
L1
100
AcDb2dPolyline
 66
     1
 10
0.0
 20
0.0
 30
0.0
  0
VERTEX
  5
71E
100
AcDbEntity
  8
L1
100
AcDbVertex
100
AcDb2dVertex
 10
-51.99999999999994
 20
44.99999999999992
 30
0.0
  0
VERTEX
  5
71F
100
AcDbEntity
  8
L1
100
AcDbVertex
100
AcDb2dVertex
 10
-51.99922251681312
 20
44.94423864898479
 30
0.0
  0
VERTEX
  5
720
100
AcDbEntity
  8
L1
100
AcDbVertex
100
AcDb2dVertex
 10
-51.9968906717329
 20
44.88852065148248
 30
0.0
  0
VERTEX
  5
721
100
AcDbEntity
  8
L1
100
AcDbVertex
100
AcDb2dVertex
 10
-51.99300627772953
 20
44.8328893272994
 30
0.0
  0
VERTEX
  5
722
100
AcDbEntity
  8
L1
100
AcDbVertex
100
AcDb2dVertex
 10
-51.98757235485408
 20
44.77738792885467
 30
0.0
  0
VERTEX
  5
723
100
AcDbEntity
  8
L1
100
AcDbVertex
100
AcDb2dVertex
 10
-51.98059312789019
 20
44.72205960755238
 30
0.0
  0
VERTEX
  5
724
100
AcDbEntity
  8
L1
100
AcDbVertex
100
AcDb2dVertex
 10
-51.97207402306952
 20
44.66694738023218
 30
0.0
  0
SEQEND
  5
725
100
AcDbEntity
  8
L1
  0
LINE
  5
256
100
AcDbEntity
  8
L1
100
AcDbLine
 10
-52.14144032422104
 20
42.99999999999991
 30
0.0
 11
-51.99999999999994
 21
42.99999999999991
 31
0.0
  0
ARC
  5
257
100
AcDbEntity
  8
L1
100
AcDbCircle
 10
-49.99999999999994
 20
44.99999999999992
 30
0.0
 40
2.0
100
AcDbArc
 50
189.5859123991601
 51
350.4140876008398
  0
POLYLINE
  5
258
100
AcDbEntity
  8
L1
100
AcDb2dPolyline
 66
     1
 10
0.0
 20
0.0
 30
0.0
  0
VERTEX
  5
726
100
AcDbEntity
  8
L1
100
AcDbVertex
100
AcDb2dVertex
 10
-48.02792597693036
 20
44.66694738023218
 30
0.0
  0
VERTEX
  5
727
100
AcDbEntity
  8
L1
100
AcDbVertex
100
AcDb2dVertex
 10
-48.02034862754431
 20
44.71542936986625
 30
0.0
  0
VERTEX
  5
728
100
AcDbEntity
  8
L1
100
AcDbVertex
100
AcDb2dVertex
 10
-48.01396298846515
 20
44.76408266529566
 30
0.0
  0
SEQEND
  5
729
100
AcDbEntity
  8
L1
  0
POLYLINE
  5
259
100
AcDbEntity
  8
L1
100
AcDb2dPolyline
 66
     1
 10
0.0
 20
0.0
 30
0.0
  0
VERTEX
  5
72A
100
AcDbEntity
  8
L1
100
AcDbVertex
100
AcDb2dVertex
 10
-52.69166017969315
 20
42.9860370115347
 30
0.0
  0
VERTEX
  5
72B
100
AcDbEntity
  8
L1
100
AcDbVertex
100
AcDb2dVertex
 10
-52.65995545660053
 20
42.99660062999047
 30
0.0
  0
SEQEND
  5
72C
100
AcDbEntity
  8
L1
  0
POLYLINE
  5
25A
100
AcDbEntity
  8
L1
100
AcDb2dPolyline
 66
     1
 10
0.0
 20
0.0
 30
0.0
  0
VERTEX
  5
72D
100
AcDbEntity
  8
L1
100
AcDbVertex
100
AcDb2dVertex
 10
-52.73350456965568
 20
42.97207402306949
 30
0.0
  0
VERTEX
  5
72E
100
AcDbEntity
  8
L1
100
AcDbVertex
100
AcDb2dVertex
 10
-52.69166017969315
 20
42.9860370115347
 30
0.0
  0
SEQEND
  5
72F
100
AcDbEntity
  8
L1
  0
ARC
  5
25B
100
AcDbEntity
  8
L1
100
AcDbCircle
 10
-49.99999999999994
 20
44.99999999999992
 30
0.0
 40
3.403605588231097
100
AcDbArc
 50
216.5708941476372
 51
323.4291058523627
  0
POLYLINE
  5
25C
100
AcDbEntity
  8
L1
100
AcDb2dPolyline
 66
     1
 10
0.0
 20
0.0
 30
0.0
  0
VERTEX
  5
730
100
AcDbEntity
  8
L1
100
AcDbVertex
100
AcDb2dVertex
 10
-47.3083398203068
 20
42.98603701153476
 30
0.0
  0
VERTEX
  5
731
100
AcDbEntity
  8
L1
100
AcDbVertex
100
AcDb2dVertex
 10
-47.26649543034421
 20
42.97207402306949
 30
0.0
  0
SEQEND
  5
732
100
AcDbEntity
  8
L1
  0
POLYLINE
  5
25D
100
AcDbEntity
  8
L1
100
AcDb2dPolyline
 66
     1
 10
0.0
 20
0.0
 30
0.0
  0
VERTEX
  5
733
100
AcDbEntity
  8
L1
100
AcDbVertex
100
AcDb2dVertex
 10
-52.65995545660041
 20
42.9966006299904
 30
0.0
  0
VERTEX
  5
734
100
AcDbEntity
  8
L1
100
AcDbVertex
100
AcDb2dVertex
 10
-52.65242946816409
 20
42.99713442957957
 30
0.0
  0
VERTEX
  5
735
100
AcDbEntity
  8
L1
100
AcDbVertex
100
AcDb2dVertex
 10
-52.62928792396895
 20
42.99773023522644
 30
0.0
  0
VERTEX
  5
736
100
AcDbEntity
  8
L1
100
AcDbVertex
100
AcDb2dVertex
 10
-52.58733525937237
 20
42.99833272719817
 30
0.0
  0
VERTEX
  5
737
100
AcDbEntity
  8
L1
100
AcDbVertex
100
AcDb2dVertex
 10
-52.53186610719518
 20
42.99884680160604
 30
0.0
  0
VERTEX
  5
738
100
AcDbEntity
  8
L1
100
AcDbVertex
100
AcDb2dVertex
 10
-52.45420257652369
 20
42.99932637051464
 30
0.0
  0
VERTEX
  5
739
100
AcDbEntity
  8
L1
100
AcDbVertex
100
AcDb2dVertex
 10
-52.36753175819206
 20
42.99967195326778
 30
0.0
  0
VERTEX
  5
73A
100
AcDbEntity
  8
L1
100
AcDbVertex
100
AcDb2dVertex
 10
-52.2561596320262
 20
42.99992044563319
 30
0.0
  0
VERTEX
  5
73B
100
AcDbEntity
  8
L1
100
AcDbVertex
100
AcDb2dVertex
 10
-52.14144032422104
 20
42.99999999999991
 30
0.0
  0
SEQEND
  5
73C
100
AcDbEntity
  8
L1
  0
LINE
  5
25E
100
AcDbEntity
  8
L1
100
AcDbLine
 10
-49.99999999999994
 20
46.99999999999991
 30
0.0
 11
-47.99999999999994
 21
46.99999999999991
 31
0.0
  0
POLYLINE
  5
25F
100
AcDbEntity
  8
L1
100
AcDb2dPolyline
 66
     1
 10
0.0
 20
0.0
 30
0.0
  0
VERTEX
  5
73D
100
AcDbEntity
  8
L1
100
AcDbVertex
100
AcDb2dVertex
 10
-49.76408266529569
 20
46.9860370115347
 30
0.0
  0
VERTEX
  5
73E
100
AcDbEntity
  8
L1
100
AcDbVertex
100
AcDb2dVertex
 10
-49.82288141872681
 20
46.99214181427115
 30
0.0
  0
VERTEX
  5
73F
100
AcDbEntity
  8
L1
100
AcDbVertex
100
AcDb2dVertex
 10
-49.88183491012478
 20
46.99650620122613
 30
0.0
  0
VERTEX
  5
740
100
AcDbEntity
  8
L1
100
AcDbVertex
100
AcDb2dVertex
 10
-49.94089163533158
 20
46.99912635949451
 30
0.0
  0
VERTEX
  5
741
100
AcDbEntity
  8
L1
100
AcDbVertex
100
AcDb2dVertex
 10
-49.99999999999994
 20
46.99999999999991
 30
0.0
  0
SEQEND
  5
742
100
AcDbEntity
  8
L1
  0
LINE
  5
260
100
AcDbEntity
  8
L1
100
AcDbLine
 10
-47.3083398203068
 20
42.9860370115347
 30
0.0
 11
-48.01396298846515
 21
42.9860370115347
 31
0.0
  0
LINE
  5
261
100
AcDbEntity
  8
L1
100
AcDbLine
 10
-48.01396298846515
 20
42.9860370115347
 30
0.0
 11
-48.01396298846515
 21
44.76408266529566
 31
0.0
  0
ARC
  5
262
100
AcDbEntity
  8
L1
100
AcDbCircle
 10
-49.99999999999994
 20
44.99999999999992
 30
0.0
 40
2.0
100
AcDbArc
 50
353.2256939277385
 51
83.22569392773855
  0
POLYLINE
  5
263
100
AcDbEntity
  8
L1
100
AcDb2dPolyline
 66
     1
 10
0.0
 20
0.0
 30
0.0
  0
VERTEX
  5
743
100
AcDbEntity
  8
L1
100
AcDbVertex
100
AcDb2dVertex
 10
-47.99660062999044
 20
47.65995545660039
 30
0.0
  0
VERTEX
  5
744
100
AcDbEntity
  8
L1
100
AcDbVertex
100
AcDb2dVertex
 10
-47.98603701153473
 20
47.69166017969306
 30
0.0
  0
SEQEND
  5
745
100
AcDbEntity
  8
L1
  0
LINE
  5
264
100
AcDbEntity
  8
L1
100
AcDbLine
 10
-47.99999999999989
 20
46.99999999999991
 30
0.0
 11
-47.99999999999989
 21
47.141440324221
 31
0.0
  0
POLYLINE
  5
265
100
AcDbEntity
  8
L1
100
AcDb2dPolyline
 66
     1
 10
0.0
 20
0.0
 30
0.0
  0
VERTEX
  5
746
100
AcDbEntity
  8
L1
100
AcDbVertex
100
AcDb2dVertex
 10
-47.99999999999994
 20
47.141440324221
 30
0.0
  0
VERTEX
  5
747
100
AcDbEntity
  8
L1
100
AcDbVertex
100
AcDb2dVertex
 10
-47.99992044563327
 20
47.25615963202606
 30
0.0
  0
VERTEX
  5
748
100
AcDbEntity
  8
L1
100
AcDbVertex
100
AcDb2dVertex
 10
-47.99967195326781
 20
47.36753175819202
 30
0.0
  0
VERTEX
  5
749
100
AcDbEntity
  8
L1
100
AcDbVertex
100
AcDb2dVertex
 10
-47.99932637051461
 20
47.45420257652361
 30
0.0
  0
VERTEX
  5
74A
100
AcDbEntity
  8
L1
100
AcDbVertex
100
AcDb2dVertex
 10
-47.99884680160608
 20
47.53186610719516
 30
0.0
  0
VERTEX
  5
74B
100
AcDbEntity
  8
L1
100
AcDbVertex
100
AcDb2dVertex
 10
-47.99833272719825
 20
47.58733525937228
 30
0.0
  0
VERTEX
  5
74C
100
AcDbEntity
  8
L1
100
AcDbVertex
100
AcDb2dVertex
 10
-47.99773023522647
 20
47.62928792396891
 30
0.0
  0
VERTEX
  5
74D
100
AcDbEntity
  8
L1
100
AcDbVertex
100
AcDb2dVertex
 10
-47.99713442957954
 20
47.65242946816406
 30
0.0
  0
VERTEX
  5
74E
100
AcDbEntity
  8
L1
100
AcDbVertex
100
AcDb2dVertex
 10
-47.99660062999044
 20
47.65995545660039
 30
0.0
  0
SEQEND
  5
74F
100
AcDbEntity
  8
L1
  0
LINE
  5
266
100
AcDbEntity
  8
L1
100
AcDbLine
 10
-46.71165091966781
 20
57.04999999999998
 30
0.0
 11
-46.71165091966781
 21
56.44999999999996
 31
0.0
  0
CIRCLE
  5
267
100
AcDbEntity
  8
L1
100
AcDbCircle
 10
-9.999999999999943
 20
44.99999999999997
 30
0.0
 40
1.2581025254893
  0
CIRCLE
  5
268
100
AcDbEntity
  8
L1
100
AcDbCircle
 10
0.0000000000000568
 20
44.99999999999997
 30
0.0
 40
1.6
  0
CIRCLE
  5
269
100
AcDbEntity
  8
L1
100
AcDbCircle
 10
0.0000000000000568
 20
44.99999999999997
 30
0.0
 40
1.2
  0
ARC
  5
26A
100
AcDbEntity
  8
L1
100
AcDbCircle
 10
0.0000000000000568
 20
44.99999999999997
 30
0.0
 40
2.0
100
AcDbArc
 50
353.2256939277385
 51
186.7743060722614
  0
POLYLINE
  5
26B
100
AcDbEntity
  8
L1
100
AcDb2dPolyline
 66
     1
 10
0.0
 20
0.0
 30
0.0
  0
VERTEX
  5
750
100
AcDbEntity
  8
L1
100
AcDbVertex
100
AcDb2dVertex
 10
-2.733504569655622
 20
42.97207402306949
 30
0.0
  0
VERTEX
  5
751
100
AcDbEntity
  8
L1
100
AcDbVertex
100
AcDb2dVertex
 10
-2.701853931433845
 20
42.9826376415252
 30
0.0
  0
SEQEND
  5
752
100
AcDbEntity
  8
L1
  0
POLYLINE
  5
26C
100
AcDbEntity
  8
L1
100
AcDb2dPolyline
 66
     1
 10
0.0
 20
0.0
 30
0.0
  0
VERTEX
  5
753
100
AcDbEntity
  8
L1
100
AcDbVertex
100
AcDb2dVertex
 10
-2.701853931433902
 20
42.9826376415252
 30
0.0
  0
VERTEX
  5
754
100
AcDbEntity
  8
L1
100
AcDbVertex
100
AcDb2dVertex
 10
-2.694327222758829
 20
42.98317231306478
 30
0.0
  0
VERTEX
  5
755
100
AcDbEntity
  8
L1
100
AcDbVertex
100
AcDb2dVertex
 10
-2.671185009003977
 20
42.98376902709825
 30
0.0
  0
VERTEX
  5
756
100
AcDbEntity
  8
L1
100
AcDbVertex
100
AcDb2dVertex
 10
-2.629295732131197
 20
42.98437165134131
 30
0.0
  0
VERTEX
  5
757
100
AcDbEntity
  8
L1
100
AcDbVertex
100
AcDb2dVertex
 10
-2.573897349308083
 20
42.98488604447314
 30
0.0
  0
VERTEX
  5
758
100
AcDbEntity
  8
L1
100
AcDbVertex
100
AcDb2dVertex
 10
-2.49651397968978
 20
42.98536492213341
 30
0.0
  0
VERTEX
  5
759
100
AcDbEntity
  8
L1
100
AcDbVertex
100
AcDb2dVertex
 10
-2.410131526208033
 20
42.98571019259301
 30
0.0
  0
VERTEX
  5
75A
100
AcDbEntity
  8
L1
100
AcDbVertex
100
AcDb2dVertex
 10
-2.29955327505678
 20
42.98595766314386
 30
0.0
  0
VERTEX
  5
75B
100
AcDbEntity
  8
L1
100
AcDbVertex
100
AcDb2dVertex
 10
-2.185636459890019
 20
42.9860370115347
 30
0.0
  0
SEQEND
  5
75C
100
AcDbEntity
  8
L1
  0
LINE
  5
26D
100
AcDbEntity
  8
L1
100
AcDbLine
 10
-2.185636459890019
 20
42.9860370115347
 30
0.0
 11
-1.986037011534733
 21
42.9860370115347
 31
0.0
  0
LINE
  5
26E
100
AcDbEntity
  8
L1
100
AcDbLine
 10
-1.986037011534733
 20
42.9860370115347
 30
0.0
 11
-1.986037011534733
 21
44.76408266529571
 31
0.0
  0
LINE
  5
26F
100
AcDbEntity
  8
L1
100
AcDbLine
 10
1.986037011534847
 20
42.98603701153476
 30
0.0
 11
2.185636459890133
 21
42.98603701153476
 31
0.0
  0
LINE
  5
270
100
AcDbEntity
  8
L1
100
AcDbLine
 10
1.986037011534847
 20
44.76408266529571
 30
0.0
 11
1.986037011534847
 21
42.98603701153476
 31
0.0
  0
LINE
  5
271
100
AcDbEntity
  8
L2
100
AcDbLine
 10
-72.95
 20
154.9443719359642
 30
0.0
 11
-72.54856408162492
 21
108.9443719359641
 31
0.0
  0
LINE
  5
275
100
AcDbEntity
  8
L1
100
AcDbLine
 10
-90.04480921012913
 20
154.3495663315667
 30
0.0
 11
-89.62670883448737
 21
106.4400086682149
 31
0.0
  0
LINE
  5
276
100
AcDbEntity
  8
L1
100
AcDbLine
 10
-75.49724099150961
 20
148.9620521395328
 30
0.0
 11
-75.42529180160489
 21
105.9443719359641
 31
0.0
  0
LINE
  5
277
100
AcDbEntity
  8
L6
100
AcDbLine
 10
0.0000000000000568
 20
162.9443719359641
 30
0.0
 11
0.0
 21
96.94437193596417
 31
0.0
  0
LINE
  5
278
100
AcDbEntity
  8
L1
100
AcDbLine
 10
-89.31506720313819
 20
150.9445242437074
 30
0.0
 11
-88.91622516933308
 21
105.2417539753146
 31
0.0
  0
POLYLINE
  5
27C
100
AcDbEntity
  8
L1
100
AcDb2dPolyline
 66
     1
 10
0.0
 20
0.0
 30
0.0
  0
VERTEX
  5
75D
100
AcDbEntity
  8
L1
100
AcDbVertex
100
AcDb2dVertex
 10
-88.61623659241377
 20
104.9443719359641
 30
0.0
  0
VERTEX
  5
75E
100
AcDbEntity
  8
L1
100
AcDbVertex
100
AcDb2dVertex
 10
-88.6098672537463
 20
104.9443719359641
 30
0.0
  0
VERTEX
  5
75F
100
AcDbEntity
  8
L1
100
AcDbVertex
100
AcDb2dVertex
 10
-88.59079169128824
 20
104.9443719359641
 30
0.0
  0
VERTEX
  5
760
100
AcDbEntity
  8
L1
100
AcDbVertex
100
AcDb2dVertex
 10
-88.55910710031265
 20
104.9443719359641
 30
0.0
  0
VERTEX
  5
761
100
AcDbEntity
  8
L1
100
AcDbVertex
100
AcDb2dVertex
 10
-88.51497492258431
 20
104.9443719359641
 30
0.0
  0
VERTEX
  5
762
100
AcDbEntity
  8
L1
100
AcDbVertex
100
AcDb2dVertex
 10
-88.45862002376975
 20
104.9443719359641
 30
0.0
  0
VERTEX
  5
763
100
AcDbEntity
  8
L1
100
AcDbVertex
100
AcDb2dVertex
 10
-88.39032954768379
 20
104.9443719359641
 30
0.0
  0
VERTEX
  5
764
100
AcDbEntity
  8
L1
100
AcDbVertex
100
AcDb2dVertex
 10
-88.31045145321263
 20
104.9443719359641
 30
0.0
  0
VERTEX
  5
765
100
AcDbEntity
  8
L1
100
AcDbVertex
100
AcDb2dVertex
 10
-88.21939274136708
 20
104.9443719359641
 30
0.0
  0
VERTEX
  5
766
100
AcDbEntity
  8
L1
100
AcDbVertex
100
AcDb2dVertex
 10
-88.11761738149938
 20
104.9443719359641
 30
0.0
  0
VERTEX
  5
767
100
AcDbEntity
  8
L1
100
AcDbVertex
100
AcDb2dVertex
 10
-88.00564394725103
 20
104.9443719359641
 30
0.0
  0
VERTEX
  5
768
100
AcDbEntity
  8
L1
100
AcDbVertex
100
AcDb2dVertex
 10
-87.88404297427661
 20
104.9443719359641
 30
0.0
  0
VERTEX
  5
769
100
AcDbEntity
  8
L1
100
AcDbVertex
100
AcDb2dVertex
 10
-87.75343405320644
 20
104.9443719359641
 30
0.0
  0
VERTEX
  5
76A
100
AcDbEntity
  8
L1
100
AcDbVertex
100
AcDb2dVertex
 10
-87.6144826726607
 20
104.9443719359641
 30
0.0
  0
VERTEX
  5
76B
100
AcDbEntity
  8
L1
100
AcDbVertex
100
AcDb2dVertex
 10
-87.46789682840097
 20
104.9443719359641
 30
0.0
  0
VERTEX
  5
76C
100
AcDbEntity
  8
L1
100
AcDbVertex
100
AcDb2dVertex
 10
-87.31442341589547
 20
104.9443719359641
 30
0.0
  0
VERTEX
  5
76D
100
AcDbEntity
  8
L1
100
AcDbVertex
100
AcDb2dVertex
 10
-87.15484442467971
 20
104.9443719359641
 30
0.0
  0
VERTEX
  5
76E
100
AcDbEntity
  8
L1
100
AcDbVertex
100
AcDb2dVertex
 10
-86.9899729539037
 20
104.9443719359641
 30
0.0
  0
VERTEX
  5
76F
100
AcDbEntity
  8
L1
100
AcDbVertex
100
AcDb2dVertex
 10
-86.82064906936631
 20
104.9443719359641
 30
0.0
  0
VERTEX
  5
770
100
AcDbEntity
  8
L1
100
AcDbVertex
100
AcDb2dVertex
 10
-86.64773552314732
 20
104.9443719359641
 30
0.0
  0
VERTEX
  5
771
100
AcDbEntity
  8
L1
100
AcDbVertex
100
AcDb2dVertex
 10
-86.47211335764689
 20
104.9443719359641
 30
0.0
  0
VERTEX
  5
772
100
AcDbEntity
  8
L1
100
AcDbVertex
100
AcDb2dVertex
 10
-86.29467741643054
 20
104.9443719359641
 30
0.0
  0
VERTEX
  5
773
100
AcDbEntity
  8
L1
100
AcDbVertex
100
AcDb2dVertex
 10
-75.21102331877068
 20
104.9443719359641
 30
0.0
  0
SEQEND
  5
774
100
AcDbEntity
  8
L1
  0
POLYLINE
  5
280
100
AcDbEntity
  8
L1
100
AcDb2dPolyline
 66
     1
 10
0.0
 20
0.0
 30
0.0
  0
VERTEX
  5
775
100
AcDbEntity
  8
L1
100
AcDbVertex
100
AcDb2dVertex
 10
-89.21982649261043
 20
105.9531157431092
 30
0.0
  0
VERTEX
  5
776
100
AcDbEntity
  8
L1
100
AcDbVertex
100
AcDb2dVertex
 10
-89.51039703712513
 20
106.1237507069958
 30
0.0
  0
VERTEX
  5
777
100
AcDbEntity
  8
L1
100
AcDbVertex
100
AcDb2dVertex
 10
-89.62670883448737
 20
106.4400086682149
 30
0.0
  0
SEQEND
  5
778
100
AcDbEntity
  8
L1
  0
POLYLINE
  5
281
100
AcDbEntity
  8
L1
100
AcDb2dPolyline
 66
     1
 10
0.0
 20
0.0
 30
0.0
  0
VERTEX
  5
779
100
AcDbEntity
  8
L1
100
AcDbVertex
100
AcDb2dVertex
 10
-89.12672787295525
 20
105.9443719359641
 30
0.0
  0
VERTEX
  5
77A
100
AcDbEntity
  8
L1
100
AcDbVertex
100
AcDb2dVertex
 10
-89.21982649261043
 20
105.9531157431092
 30
0.0
  0
SEQEND
  5
77B
100
AcDbEntity
  8
L1
  0
POLYLINE
  5
282
100
AcDbEntity
  8
L1
100
AcDb2dPolyline
 66
     1
 10
0.0
 20
0.0
 30
0.0
  0
VERTEX
  5
77C
100
AcDbEntity
  8
L1
100
AcDbVertex
100
AcDb2dVertex
 10
-88.92235682338309
 20
105.9443719359641
 30
0.0
  0
VERTEX
  5
77D
100
AcDbEntity
  8
L1
100
AcDbVertex
100
AcDb2dVertex
 10
-88.98202918348108
 20
105.9443719359641
 30
0.0
  0
VERTEX
  5
77E
100
AcDbEntity
  8
L1
100
AcDbVertex
100
AcDb2dVertex
 10
-89.12672787295525
 20
105.9443719359641
 30
0.0
  0
SEQEND
  5
77F
100
AcDbEntity
  8
L1
  0
ARC
  5
283
100
AcDbEntity
  8
L1
100
AcDbCircle
 10
-88.61623659241377
 20
105.2443719359641
 30
0.0
 40
0.2999999999999959
100
AcDbArc
 50
180.4999999999981
 51
270.0
  0
ELLIPSE
  5
291
100
AcDbEntity
  8
L1
100
AcDbEllipse
 10
-75.21102331877074
 20
105.2443719359641
 30
0.0
 11
-0.2999885769192454
 21
0.0026179606495198
 31
0.0
210
0.0
220
0.0
230
1.0
 40
0.0087262032439414
 41
2.831697374782119
 42
3.141592653596597
  0
LINE
  5
292
100
AcDbEntity
  8
L1
100
AcDbLine
 10
-74.91103474185149
 20
105.2417539753146
 30
0.0
 11
-74.90490394476478
 21
105.9442737377014
 31
0.0
  0
ARC
  5
293
100
AcDbEntity
  8
L1
100
AcDbCircle
 10
-75.21102331877068
 20
105.2443719359641
 30
0.0
 40
0.2999999999999959
100
AcDbArc
 50
270.0
 51
359.5000000000005
  0
LINE
  5
2A1
100
AcDbEntity
  8
L2
100
AcDbLine
 10
-11.21407977786084
 20
116.0548427152871
 30
0.0
 11
-11.40027400800825
 21
108.944371935964
 31
0.0
  0
LINE
  5
2A2
100
AcDbEntity
  8
L2
100
AcDbLine
 10
-3.514079777860914
 20
116.0548427152871
 30
0.0
 11
-3.700333914299974
 21
108.9420842069808
 31
0.0
  0
LINE
  5
2A3
100
AcDbEntity
  8
L2
100
AcDbLine
 10
-8.884068957029583
 20
108.944371935964
 30
0.0
 11
-9.07026318717699
 21
116.0548427152871
 31
0.0
  0
ARC
  5
2A4
100
AcDbEntity
  8
L2
100
AcDbCircle
 10
-10.81421684787058
 20
116.044371935964
 30
0.0
 40
0.4
100
AcDbArc
 50
90.0
 51
178.500000000002
  0
ARC
  5
2A5
100
AcDbEntity
  8
L2
100
AcDbCircle
 10
-9.470126117167254
 20
116.044371935964
 30
0.0
 40
0.4
100
AcDbArc
 50
1.500000000000033
 51
90.0
  0
LINE
  5
2A6
100
AcDbEntity
  8
L2
100
AcDbLine
 10
-9.470126117167254
 20
116.444371935964
 30
0.0
 11
-10.81421684787058
 21
116.444371935964
 31
0.0
  0
ARC
  5
2A7
100
AcDbEntity
  8
L2
100
AcDbCircle
 10
-3.11421684787065
 20
116.044371935964
 30
0.0
 40
0.4
100
AcDbArc
 50
90.0
 51
178.500000000002
  0
LINE
  5
2A9
100
AcDbEntity
  8
L1
100
AcDbLine
 10
-90.01509385800636
 20
150.9445242437074
 30
0.0
 11
-77.49716484343429
 21
150.9445242437075
 31
0.0
  0
LINE
  5
2AB
100
AcDbEntity
  8
L1
100
AcDbLine
 10
-89.44999999999993
 20
154.9443719359641
 30
0.0
 11
-90.04480555661007
 21
154.3495663793539
 31
0.0
  0
LINE
  5
2AC
100
AcDbEntity
  8
L1
100
AcDbLine
 10
-81.74999999999995
 20
154.9418797985578
 30
0.0
 11
-81.74999999999995
 21
154.9443719359641
 31
0.0
  0
ARC
  5
2B4
100
AcDbEntity
  8
L1
100
AcDbCircle
 10
-77.49712723701242
 20
148.9445615151855
 30
0.0
 40
1.999962728875574
100
AcDbArc
 50
0.5010852035428659
 51
90.00107736470528
  0
LINE
  5
2CF
100
AcDbEntity
  8
L1
100
AcDbLine
 10
89.27268985814095
 20
47.15
 30
0.0
 11
89.27268985814095
 21
-47.15000000000003
 31
0.0
  0
LINE
  5
2D0
100
AcDbEntity
  8
L1
100
AcDbLine
 10
89.45000000000005
 20
-61.55000000000001
 30
0.0
 11
89.45000000000005
 21
61.54999999999998
 31
0.0
  0
LINE
  5
2D1
100
AcDbEntity
  8
L1
100
AcDbLine
 10
90.04480917893477
 20
61.54494244821015
 30
0.0
 11
90.04480917893477
 21
-61.54494244821015
 31
0.0
  0
LINE
  5
2D2
100
AcDbEntity
  8
L1
100
AcDbLine
 10
84.0206381046948
 20
46.94858692778658
 30
0.0
 11
84.0206381046948
 21
-46.94858692778661
 31
0.0
  0
LINE
  5
2D3
100
AcDbEntity
  8
L1
100
AcDbLine
 10
86.62721114182607
 20
-47.15000000000003
 30
0.0
 11
86.62721114182607
 21
47.15
 31
0.0
  0
CIRCLE
  5
2D4
100
AcDbEntity
  8
L1
100
AcDbCircle
 10
49.99999999999994
 20
-44.99999999999992
 30
0.0
 40
4.591897474510698
  0
CIRCLE
  5
2D5
100
AcDbEntity
  8
L1
100
AcDbCircle
 10
10.00000000000005
 20
-44.99999999999997
 30
0.0
 40
1.2581025254893
  0
POLYLINE
  5
2D6
100
AcDbEntity
  8
L1
100
AcDb2dPolyline
 66
     1
 10
0.0
 20
0.0
 30
0.0
  0
VERTEX
  5
7B5
100
AcDbEntity
  8
L1
100
AcDbVertex
100
AcDb2dVertex
 10
2.701853931434015
 20
-42.98263764152525
 30
0.0
  0
VERTEX
  5
7B6
100
AcDbEntity
  8
L1
100
AcDbVertex
100
AcDb2dVertex
 10
2.733504569655792
 20
-42.97207402306955
 30
0.0
  0
SEQEND
  5
7B7
100
AcDbEntity
  8
L1
  0
ARC
  5
2D7
100
AcDbEntity
  8
L1
100
AcDbCircle
 10
49.99999999999994
 20
-44.99999999999992
 30
0.0
 40
2.0
100
AcDbArc
 50
269.9999999999992
 51
0.0
  0
ARC
  5
2D8
100
AcDbEntity
  8
L1
100
AcDbCircle
 10
49.99999999999994
 20
-44.99999999999992
 30
0.0
 40
3.403605588231097
100
AcDbArc
 50
36.57089414763726
 51
143.4291058523627
  0
CIRCLE
  5
2D9
100
AcDbEntity
  8
L1
100
AcDbCircle
 10
49.99999999999994
 20
-44.99999999999992
 30
0.0
 40
1.6
  0
ARC
  5
2DA
100
AcDbEntity
  8
L1
100
AcDbCircle
 10
49.99999999999994
 20
-44.99999999999992
 30
0.0
 40
2.0
100
AcDbArc
 50
9.585912399160205
 51
170.4140876008398
  0
ARC
  5
2DB
100
AcDbEntity
  8
L1
100
AcDbCircle
 10
49.99999999999994
 20
-44.99999999999992
 30
0.0
 40
3.361708113720398
100
AcDbArc
 50
143.1953065539604
 51
233.1953065539601
  0
ARC
  5
2DC
100
AcDbEntity
  8
L1
100
AcDbCircle
 10
49.99999999999994
 20
-44.99999999999992
 30
0.0
 40
2.0
100
AcDbArc
 50
173.2256939277385
 51
263.2256939277385
  0
CIRCLE
  5
2DD
100
AcDbEntity
  8
L1
100
AcDbCircle
 10
49.99999999999994
 20
-44.99999999999992
 30
0.0
 40
1.2
  0
LINE
  5
2DE
100
AcDbEntity
  8
L1
100
AcDbLine
 10
48.01396298846515
 20
-42.9860370115347
 30
0.0
 11
48.01396298846515
 21
-44.76408266529566
 31
0.0
  0
LINE
  5
2DF
100
AcDbEntity
  8
L1
100
AcDbLine
 10
47.3083398203068
 20
-42.9860370115347
 30
0.0
 11
48.01396298846515
 21
-42.9860370115347
 31
0.0
  0
POLYLINE
  5
2E0
100
AcDbEntity
  8
L1
100
AcDb2dPolyline
 66
     1
 10
0.0
 20
0.0
 30
0.0
  0
VERTEX
  5
7B8
100
AcDbEntity
  8
L1
100
AcDbVertex
100
AcDb2dVertex
 10
47.3083398203068
 20
-42.98603701153476
 30
0.0
  0
VERTEX
  5
7B9
100
AcDbEntity
  8
L1
100
AcDbVertex
100
AcDb2dVertex
 10
47.26649543034421
 20
-42.97207402306949
 30
0.0
  0
SEQEND
  5
7BA
100
AcDbEntity
  8
L1
  0
POLYLINE
  5
2E1
100
AcDbEntity
  8
L1
100
AcDb2dPolyline
 66
     1
 10
0.0
 20
0.0
 30
0.0
  0
VERTEX
  5
7BB
100
AcDbEntity
  8
L1
100
AcDbVertex
100
AcDb2dVertex
 10
48.02792597693036
 20
-44.66694738023218
 30
0.0
  0
VERTEX
  5
7BC
100
AcDbEntity
  8
L1
100
AcDbVertex
100
AcDb2dVertex
 10
48.02034862754431
 20
-44.71542936986625
 30
0.0
  0
VERTEX
  5
7BD
100
AcDbEntity
  8
L1
100
AcDbVertex
100
AcDb2dVertex
 10
48.01396298846515
 20
-44.76408266529566
 30
0.0
  0
SEQEND
  5
7BE
100
AcDbEntity
  8
L1
  0
POLYLINE
  5
2E2
100
AcDbEntity
  8
L1
100
AcDb2dPolyline
 66
     1
 10
0.0
 20
0.0
 30
0.0
  0
VERTEX
  5
7BF
100
AcDbEntity
  8
L1
100
AcDbVertex
100
AcDb2dVertex
 10
47.99999999999994
 20
-47.141440324221
 30
0.0
  0
VERTEX
  5
7C0
100
AcDbEntity
  8
L1
100
AcDbVertex
100
AcDb2dVertex
 10
47.99992044563327
 20
-47.25615963202606
 30
0.0
  0
VERTEX
  5
7C1
100
AcDbEntity
  8
L1
100
AcDbVertex
100
AcDb2dVertex
 10
47.99967195326781
 20
-47.36753175819202
 30
0.0
  0
VERTEX
  5
7C2
100
AcDbEntity
  8
L1
100
AcDbVertex
100
AcDb2dVertex
 10
47.99932637051461
 20
-47.45420257652361
 30
0.0
  0
VERTEX
  5
7C3
100
AcDbEntity
  8
L1
100
AcDbVertex
100
AcDb2dVertex
 10
47.99884680160608
 20
-47.53186610719516
 30
0.0
  0
VERTEX
  5
7C4
100
AcDbEntity
  8
L1
100
AcDbVertex
100
AcDb2dVertex
 10
47.99833272719825
 20
-47.58733525937228
 30
0.0
  0
VERTEX
  5
7C5
100
AcDbEntity
  8
L1
100
AcDbVertex
100
AcDb2dVertex
 10
47.99773023522647
 20
-47.62928792396891
 30
0.0
  0
VERTEX
  5
7C6
100
AcDbEntity
  8
L1
100
AcDbVertex
100
AcDb2dVertex
 10
47.99713442957954
 20
-47.65242946816406
 30
0.0
  0
VERTEX
  5
7C7
100
AcDbEntity
  8
L1
100
AcDbVertex
100
AcDb2dVertex
 10
47.99660062999044
 20
-47.65995545660039
 30
0.0
  0
SEQEND
  5
7C8
100
AcDbEntity
  8
L1
  0
LINE
  5
2E3
100
AcDbEntity
  8
L1
100
AcDbLine
 10
47.99999999999989
 20
-46.99999999999991
 30
0.0
 11
47.99999999999989
 21
-47.141440324221
 31
0.0
  0
POLYLINE
  5
2E4
100
AcDbEntity
  8
L1
100
AcDb2dPolyline
 66
     1
 10
0.0
 20
0.0
 30
0.0
  0
VERTEX
  5
7C9
100
AcDbEntity
  8
L1
100
AcDbVertex
100
AcDb2dVertex
 10
47.99660062999044
 20
-47.65995545660039
 30
0.0
  0
VERTEX
  5
7CA
100
AcDbEntity
  8
L1
100
AcDbVertex
100
AcDb2dVertex
 10
47.98603701153473
 20
-47.69166017969306
 30
0.0
  0
SEQEND
  5
7CB
100
AcDbEntity
  8
L1
  0
POLYLINE
  5
2E5
100
AcDbEntity
  8
L1
100
AcDb2dPolyline
 66
     1
 10
0.0
 20
0.0
 30
0.0
  0
VERTEX
  5
7CC
100
AcDbEntity
  8
L1
100
AcDbVertex
100
AcDb2dVertex
 10
49.76408266529569
 20
-46.9860370115347
 30
0.0
  0
VERTEX
  5
7CD
100
AcDbEntity
  8
L1
100
AcDbVertex
100
AcDb2dVertex
 10
49.82288141872681
 20
-46.99214181427115
 30
0.0
  0
VERTEX
  5
7CE
100
AcDbEntity
  8
L1
100
AcDbVertex
100
AcDb2dVertex
 10
49.88183491012478
 20
-46.99650620122613
 30
0.0
  0
VERTEX
  5
7CF
100
AcDbEntity
  8
L1
100
AcDbVertex
100
AcDb2dVertex
 10
49.94089163533158
 20
-46.99912635949451
 30
0.0
  0
VERTEX
  5
7D0
100
AcDbEntity
  8
L1
100
AcDbVertex
100
AcDb2dVertex
 10
49.99999999999994
 20
-46.99999999999991
 30
0.0
  0
SEQEND
  5
7D1
100
AcDbEntity
  8
L1
  0
LINE
  5
2E6
100
AcDbEntity
  8
L1
100
AcDbLine
 10
49.99999999999994
 20
-46.99999999999991
 30
0.0
 11
47.99999999999994
 21
-46.99999999999991
 31
0.0
  0
POLYLINE
  5
2E7
100
AcDbEntity
  8
L1
100
AcDb2dPolyline
 66
     1
 10
0.0
 20
0.0
 30
0.0
  0
VERTEX
  5
7D2
100
AcDbEntity
  8
L1
100
AcDbVertex
100
AcDb2dVertex
 10
52.65995545660041
 20
-42.9966006299904
 30
0.0
  0
VERTEX
  5
7D3
100
AcDbEntity
  8
L1
100
AcDbVertex
100
AcDb2dVertex
 10
52.65242946816409
 20
-42.99713442957957
 30
0.0
  0
VERTEX
  5
7D4
100
AcDbEntity
  8
L1
100
AcDbVertex
100
AcDb2dVertex
 10
52.62928792396895
 20
-42.99773023522644
 30
0.0
  0
VERTEX
  5
7D5
100
AcDbEntity
  8
L1
100
AcDbVertex
100
AcDb2dVertex
 10
52.58733525937237
 20
-42.99833272719817
 30
0.0
  0
VERTEX
  5
7D6
100
AcDbEntity
  8
L1
100
AcDbVertex
100
AcDb2dVertex
 10
52.53186610719518
 20
-42.99884680160604
 30
0.0
  0
VERTEX
  5
7D7
100
AcDbEntity
  8
L1
100
AcDbVertex
100
AcDb2dVertex
 10
52.45420257652369
 20
-42.99932637051464
 30
0.0
  0
VERTEX
  5
7D8
100
AcDbEntity
  8
L1
100
AcDbVertex
100
AcDb2dVertex
 10
52.36753175819206
 20
-42.99967195326778
 30
0.0
  0
VERTEX
  5
7D9
100
AcDbEntity
  8
L1
100
AcDbVertex
100
AcDb2dVertex
 10
52.2561596320262
 20
-42.99992044563319
 30
0.0
  0
VERTEX
  5
7DA
100
AcDbEntity
  8
L1
100
AcDbVertex
100
AcDb2dVertex
 10
52.14144032422104
 20
-42.99999999999991
 30
0.0
  0
SEQEND
  5
7DB
100
AcDbEntity
  8
L1
  0
POLYLINE
  5
2E8
100
AcDbEntity
  8
L1
100
AcDb2dPolyline
 66
     1
 10
0.0
 20
0.0
 30
0.0
  0
VERTEX
  5
7DC
100
AcDbEntity
  8
L1
100
AcDbVertex
100
AcDb2dVertex
 10
52.73350456965568
 20
-42.97207402306949
 30
0.0
  0
VERTEX
  5
7DD
100
AcDbEntity
  8
L1
100
AcDbVertex
100
AcDb2dVertex
 10
52.69166017969315
 20
-42.9860370115347
 30
0.0
  0
SEQEND
  5
7DE
100
AcDbEntity
  8
L1
  0
POLYLINE
  5
2E9
100
AcDbEntity
  8
L1
100
AcDb2dPolyline
 66
     1
 10
0.0
 20
0.0
 30
0.0
  0
VERTEX
  5
7DF
100
AcDbEntity
  8
L1
100
AcDbVertex
100
AcDb2dVertex
 10
52.69166017969315
 20
-42.9860370115347
 30
0.0
  0
VERTEX
  5
7E0
100
AcDbEntity
  8
L1
100
AcDbVertex
100
AcDb2dVertex
 10
52.65995545660053
 20
-42.99660062999047
 30
0.0
  0
SEQEND
  5
7E1
100
AcDbEntity
  8
L1
  0
LINE
  5
2EA
100
AcDbEntity
  8
L1
100
AcDbLine
 10
52.14144032422104
 20
-42.99999999999991
 30
0.0
 11
51.99999999999994
 21
-42.99999999999991
 31
0.0
  0
POLYLINE
  5
2EB
100
AcDbEntity
  8
L1
100
AcDb2dPolyline
 66
     1
 10
0.0
 20
0.0
 30
0.0
  0
VERTEX
  5
7E2
100
AcDbEntity
  8
L1
100
AcDbVertex
100
AcDb2dVertex
 10
51.99999999999994
 20
-44.99999999999992
 30
0.0
  0
VERTEX
  5
7E3
100
AcDbEntity
  8
L1
100
AcDbVertex
100
AcDb2dVertex
 10
51.99922251681312
 20
-44.94423864898479
 30
0.0
  0
VERTEX
  5
7E4
100
AcDbEntity
  8
L1
100
AcDbVertex
100
AcDb2dVertex
 10
51.9968906717329
 20
-44.88852065148248
 30
0.0
  0
VERTEX
  5
7E5
100
AcDbEntity
  8
L1
100
AcDbVertex
100
AcDb2dVertex
 10
51.99300627772953
 20
-44.8328893272994
 30
0.0
  0
VERTEX
  5
7E6
100
AcDbEntity
  8
L1
100
AcDbVertex
100
AcDb2dVertex
 10
51.98757235485408
 20
-44.77738792885467
 30
0.0
  0
VERTEX
  5
7E7
100
AcDbEntity
  8
L1
100
AcDbVertex
100
AcDb2dVertex
 10
51.98059312789019
 20
-44.72205960755238
 30
0.0
  0
VERTEX
  5
7E8
100
AcDbEntity
  8
L1
100
AcDbVertex
100
AcDb2dVertex
 10
51.97207402306952
 20
-44.66694738023218
 30
0.0
  0
SEQEND
  5
7E9
100
AcDbEntity
  8
L1
  0
LINE
  5
2EC
100
AcDbEntity
  8
L1
100
AcDbLine
 10
51.99999999999994
 20
-42.99999999999991
 30
0.0
 11
51.99999999999994
 21
-44.99999999999992
 31
0.0
  0
LINE
  5
2ED
100
AcDbEntity
  8
L6
100
AcDbLine
 10
81.74999999999977
 20
-50.46911734185616
 30
0.0
 11
81.74999999999977
 21
-63.04869488893823
 31
0.0
  0
LINE
  5
2EE
100
AcDbEntity
  8
L1
100
AcDbLine
 10
73.52721114182594
 20
-60.24999999999997
 30
0.0
 11
73.52721114182594
 21
-56.74999999999997
 31
0.0
  0
LINE
  5
2EF
100
AcDbEntity
  8
L1
100
AcDbLine
 10
72.54856408162504
 20
-56.74999999999997
 30
0.0
 11
72.54856408162504
 21
-59.62061525853314
 31
0.0
  0
LINE
  5
2F0
100
AcDbEntity
  8
L1
100
AcDbLine
 10
88.44999999999998
 20
-50.31385840391121
 30
0.0
 11
88.44999999999998
 21
-61.54999999999998
 31
0.0
  0
CIRCLE
  5
2F1
100
AcDbEntity
  8
L1
100
AcDbCircle
 10
81.75
 20
-56.74999999999997
 30
0.0
 40
2.25
  0
CIRCLE
  5
2F2
100
AcDbEntity
  8
L1
100
AcDbCircle
 10
81.74999999999995
 20
-56.74999999999997
 30
0.0
 40
4.0
  0
LINE
  5
2F3
100
AcDbEntity
  8
L1
100
AcDbLine
 10
76.17268985814075
 20
-56.74999999999997
 30
0.0
 11
76.17268985814075
 21
-60.24999999999997
 31
0.0
  0
LINE
  5
2F4
100
AcDbEntity
  8
L1
100
AcDbLine
 10
76.64999999999992
 20
-60.24999999999997
 30
0.0
 11
76.64999999999992
 21
-56.74999999999997
 31
0.0
  0
LINE
  5
2F5
100
AcDbEntity
  8
L1
100
AcDbLine
 10
86.54999999999995
 20
-63.4499999999999
 30
0.0
 11
75.31385840391124
 21
-63.4499999999999
 31
0.0
  0
ARC
  5
2F6
100
AcDbEntity
  8
L1
100
AcDbCircle
 10
72.14999999999998
 20
-60.24999999999997
 30
0.0
 40
4.022689858140864
100
AcDbArc
 50
269.9999999999992
 51
0.0
  0
ARC
  5
2F7
100
AcDbEntity
  8
L1
100
AcDbCircle
 10
72.14999999999998
 20
-60.24999999999997
 30
0.0
 40
4.499999999999992
100
AcDbArc
 50
314.6746095643835
 51
0.0
  0
ARC
  5
2F8
100
AcDbEntity
  8
L1
100
AcDbCircle
 10
72.14999999999998
 20
-60.24999999999997
 30
0.0
 40
1.377211141825941
100
AcDbArc
 50
270.0
 51
0.0
  0
POLYLINE
  5
2F9
100
AcDbEntity
  8
L1
100
AcDb2dPolyline
 66
     1
 10
0.0
 20
0.0
 30
0.0
  0
VERTEX
  5
7EA
100
AcDbEntity
  8
L1
100
AcDbVertex
100
AcDb2dVertex
 10
71.94858692778655
 20
-59.02063810469465
 30
0.0
  0
VERTEX
  5
7EB
100
AcDbEntity
  8
L1
100
AcDbVertex
100
AcDb2dVertex
 10
72.24857903869997
 20
-59.10101830798104
 30
0.0
  0
VERTEX
  5
7EC
100
AcDbEntity
  8
L1
100
AcDbVertex
100
AcDb2dVertex
 10
72.46818387833866
 20
-59.32062314761973
 30
0.0
  0
VERTEX
  5
7ED
100
AcDbEntity
  8
L1
100
AcDbVertex
100
AcDb2dVertex
 10
72.54856408162504
 20
-59.62061525853314
 30
0.0
  0
SEQEND
  5
7EE
100
AcDbEntity
  8
L1
  0
POLYLINE
  5
2FA
100
AcDbEntity
  8
L1
100
AcDb2dPolyline
 66
     1
 10
0.0
 20
0.0
 30
0.0
  0
VERTEX
  5
7EF
100
AcDbEntity
  8
L1
100
AcDbVertex
100
AcDb2dVertex
 10
90.04480555661007
 20
-61.54999999999998
 30
0.0
  0
VERTEX
  5
7F0
100
AcDbEntity
  8
L1
100
AcDbVertex
100
AcDb2dVertex
 10
89.9787808133297
 20
-62.22163427376248
 30
0.0
  0
VERTEX
  5
7F1
100
AcDbEntity
  8
L1
100
AcDbVertex
100
AcDb2dVertex
 10
89.89493315133676
 20
-62.55804530902427
 30
0.0
  0
VERTEX
  5
7F2
100
AcDbEntity
  8
L1
100
AcDbVertex
100
AcDb2dVertex
 10
89.77745407436231
 20
-62.88663729905218
 30
0.0
  0
VERTEX
  5
7F3
100
AcDbEntity
  8
L1
100
AcDbVertex
100
AcDb2dVertex
 10
89.62773247912229
 20
-63.20184705158377
 30
0.0
  0
VERTEX
  5
7F4
100
AcDbEntity
  8
L1
100
AcDbVertex
100
AcDb2dVertex
 10
89.44872582398136
 20
-63.49876236080641
 30
0.0
  0
VERTEX
  5
7F5
100
AcDbEntity
  8
L1
100
AcDbVertex
100
AcDb2dVertex
 10
89.01975597554354
 20
-64.01975597554363
 30
0.0
  0
VERTEX
  5
7F6
100
AcDbEntity
  8
L1
100
AcDbVertex
100
AcDb2dVertex
 10
88.49876236080632
 20
-64.44872582398144
 30
0.0
  0
VERTEX
  5
7F7
100
AcDbEntity
  8
L1
100
AcDbVertex
100
AcDb2dVertex
 10
88.20184705158368
 20
-64.62773247912238
 30
0.0
  0
VERTEX
  5
7F8
100
AcDbEntity
  8
L1
100
AcDbVertex
100
AcDb2dVertex
 10
87.88663729905204
 20
-64.77745407436239
 30
0.0
  0
VERTEX
  5
7F9
100
AcDbEntity
  8
L1
100
AcDbVertex
100
AcDb2dVertex
 10
87.55804530902413
 20
-64.89493315133685
 30
0.0
  0
VERTEX
  5
7FA
100
AcDbEntity
  8
L1
100
AcDbVertex
100
AcDb2dVertex
 10
87.22163427376228
 20
-64.97878081332974
 30
0.0
  0
VERTEX
  5
7FB
100
AcDbEntity
  8
L1
100
AcDbVertex
100
AcDb2dVertex
 10
86.54999999999995
 20
-65.04480555661015
 30
0.0
  0
SEQEND
  5
7FC
100
AcDbEntity
  8
L1
  0
ARC
  5
2FB
100
AcDbEntity
  8
L1
100
AcDbCircle
 10
86.54999999999995
 20
-61.54999999999998
 30
0.0
 40
2.900000000000025
100
AcDbArc
 50
270.0
 51
0.0
  0
ARC
  5
2FC
100
AcDbEntity
  8
L1
100
AcDbCircle
 10
86.54999999999995
 20
-61.54999999999998
 30
0.0
 40
1.9
100
AcDbArc
 50
269.9999999999991
 51
0.0
  0
LINE
  5
2FD
100
AcDbEntity
  8
L6
100
AcDbLine
 10
74.72106967228296
 20
-56.74999999999997
 30
0.0
 11
88.72243111678177
 21
-56.74999999999997
 31
0.0
  0
LINE
  5
2FE
100
AcDbEntity
  8
L1
100
AcDbLine
 10
81.74999999999995
 20
-48.52721114182592
 30
0.0
 11
85.24999999999995
 21
-48.52721114182592
 31
0.0
  0
LINE
  5
2FF
100
AcDbEntity
  8
L1
100
AcDbLine
 10
84.62061525853318
 20
-47.54856408162507
 30
0.0
 11
81.74999999999995
 21
-47.54856408162507
 31
0.0
  0
POLYLINE
  5
300
100
AcDbEntity
  8
L1
100
AcDb2dPolyline
 66
     1
 10
0.0
 20
0.0
 30
0.0
  0
VERTEX
  5
7FD
100
AcDbEntity
  8
L1
100
AcDbVertex
100
AcDb2dVertex
 10
84.62061525853318
 20
-47.54856408162507
 30
0.0
  0
VERTEX
  5
7FE
100
AcDbEntity
  8
L1
100
AcDbVertex
100
AcDb2dVertex
 10
84.32062314761976
 20
-47.46818387833869
 30
0.0
  0
VERTEX
  5
7FF
100
AcDbEntity
  8
L1
100
AcDbVertex
100
AcDb2dVertex
 10
84.10101830798106
 20
-47.2485790387
 30
0.0
  0
VERTEX
  5
800
100
AcDbEntity
  8
L1
100
AcDbVertex
100
AcDb2dVertex
 10
84.02063810469469
 20
-46.94858692778658
 30
0.0
  0
SEQEND
  5
801
100
AcDbEntity
  8
L1
  0
LINE
  5
301
100
AcDbEntity
  8
L1
100
AcDbLine
 10
85.24999999999995
 20
-51.1726898581409
 30
0.0
 11
81.74999999999995
 21
-51.1726898581409
 31
0.0
  0
LINE
  5
302
100
AcDbEntity
  8
L1
100
AcDbLine
 10
81.74999999999995
 20
-51.64999999999995
 30
0.0
 11
85.24999999999995
 21
-51.64999999999995
 31
0.0
  0
ARC
  5
303
100
AcDbEntity
  8
L1
100
AcDbCircle
 10
73.50543578868962
 20
-49.75320479565778
 30
0.0
 40
0.3
100
AcDbArc
 50
135.0000000000012
 51
219.9999999999994
  0
POLYLINE
  5
304
100
AcDbEntity
  8
L1
100
AcDb2dPolyline
 66
     1
 10
0.0
 20
0.0
 30
0.0
  0
VERTEX
  5
802
100
AcDbEntity
  8
L1
100
AcDbVertex
100
AcDb2dVertex
 10
73.80066121879725
 20
-49.96895704134797
 30
0.0
  0
VERTEX
  5
803
100
AcDbEntity
  8
L1
100
AcDbVertex
100
AcDb2dVertex
 10
73.73076129788945
 20
-49.76304271985068
 30
0.0
  0
VERTEX
  5
804
100
AcDbEntity
  8
L1
100
AcDbVertex
100
AcDb2dVertex
 10
73.8183418441273
 20
-49.5640041440387
 30
0.0
  0
SEQEND
  5
805
100
AcDbEntity
  8
L1
  0
POLYLINE
  5
305
100
AcDbEntity
  8
L1
100
AcDb2dPolyline
 66
     1
 10
0.0
 20
0.0
 30
0.0
  0
VERTEX
  5
806
100
AcDbEntity
  8
L1
100
AcDbVertex
100
AcDb2dVertex
 10
76.4302413315595
 20
-49.72247474059409
 30
0.0
  0
VERTEX
  5
807
100
AcDbEntity
  8
L1
100
AcDbVertex
100
AcDb2dVertex
 10
76.36590252976588
 20
-49.75963845571246
 30
0.0
  0
VERTEX
  5
808
100
AcDbEntity
  8
L1
100
AcDbVertex
100
AcDb2dVertex
 10
76.27719061129505
 20
-49.78196750942576
 30
0.0
  0
VERTEX
  5
809
100
AcDbEntity
  8
L1
100
AcDbVertex
100
AcDb2dVertex
 10
76.19017500655854
 20
-49.77741788846291
 30
0.0
  0
VERTEX
  5
80A
100
AcDbEntity
  8
L1
100
AcDbVertex
100
AcDb2dVertex
 10
76.09996964648968
 20
-49.74353755286879
 30
0.0
  0
VERTEX
  5
80B
100
AcDbEntity
  8
L1
100
AcDbVertex
100
AcDb2dVertex
 10
76.05635117798801
 20
-49.71309323779618
 30
0.0
  0
SEQEND
  5
80C
100
AcDbEntity
  8
L1
  0
ARC
  5
306
100
AcDbEntity
  8
L1
100
AcDbCircle
 10
81.74999999999995
 20
-56.74999999999997
 30
0.0
 40
8.222788858174023
100
AcDbArc
 50
90.0
 51
180.0
  0
ARC
  5
307
100
AcDbEntity
  8
L1
100
AcDbCircle
 10
81.74999999999995
 20
-56.74999999999997
 30
0.0
 40
8.813962988465215
100
AcDbArc
 50
127.1253174351023
 51
142.8746825648969
  0
ARC
  5
308
100
AcDbEntity
  8
L1
100
AcDbCircle
 10
81.74999999999995
 20
-56.74999999999997
 30
0.0
 40
5.577310141859157
100
AcDbArc
 50
90.0
 51
180.0
  0
ARC
  5
309
100
AcDbEntity
  8
L1
100
AcDbCircle
 10
81.74999999999995
 20
-56.74999999999997
 30
0.0
 40
5.099999999999999
100
AcDbArc
 50
90.0
 51
180.0
  0
ARC
  5
30A
100
AcDbEntity
  8
L1
100
AcDbCircle
 10
81.74999999999995
 20
-56.74999999999997
 30
0.0
 40
9.201435918374905
100
AcDbArc
 50
144.7447416333012
 51
180.0
  0
LINE
  5
30B
100
AcDbEntity
  8
L1
100
AcDbLine
 10
74.22104981009034
 20
-51.0727575246311
 30
0.0
 11
73.27562245575393
 21
-49.94604107856375
 31
0.0
  0
ARC
  5
30C
100
AcDbEntity
  8
L1
100
AcDbCircle
 10
73.99124842347845
 20
-51.26558633256545
 30
0.0
 40
0.2999860437228714
100
AcDbArc
 50
324.7443686730615
 51
40.00037297247428
  0
LINE
  5
30D
100
AcDbEntity
  8
L1
100
AcDbLine
 10
74.71309323779621
 20
-51.05635117798797
 30
0.0
 11
73.80066121879725
 21
-49.96895704134797
 31
0.0
  0
POLYLINE
  5
30E
100
AcDbEntity
  8
L1
100
AcDb2dPolyline
 66
     1
 10
0.0
 20
0.0
 30
0.0
  0
VERTEX
  5
80D
100
AcDbEntity
  8
L1
100
AcDbVertex
100
AcDb2dVertex
 10
74.71309323779621
 20
-51.05635117798797
 30
0.0
  0
VERTEX
  5
80E
100
AcDbEntity
  8
L1
100
AcDbVertex
100
AcDb2dVertex
 10
74.73370708624668
 20
-51.0840020168608
 30
0.0
  0
VERTEX
  5
80F
100
AcDbEntity
  8
L1
100
AcDbVertex
100
AcDb2dVertex
 10
74.76018502948091
 20
-51.13376029463021
 30
0.0
  0
VERTEX
  5
810
100
AcDbEntity
  8
L1
100
AcDbVertex
100
AcDb2dVertex
 10
74.77688811258179
 20
-51.18759310127368
 30
0.0
  0
VERTEX
  5
811
100
AcDbEntity
  8
L1
100
AcDbVertex
100
AcDb2dVertex
 10
74.78325351918215
 20
-51.24534812187633
 30
0.0
  0
VERTEX
  5
812
100
AcDbEntity
  8
L1
100
AcDbVertex
100
AcDb2dVertex
 10
74.77836553316592
 20
-51.30324690038387
 30
0.0
  0
VERTEX
  5
813
100
AcDbEntity
  8
L1
100
AcDbVertex
100
AcDb2dVertex
 10
74.76197240079364
 20
-51.36021454399505
 30
0.0
  0
VERTEX
  5
814
100
AcDbEntity
  8
L1
100
AcDbVertex
100
AcDb2dVertex
 10
74.73469756843844
 20
-51.41284662278749
 30
0.0
  0
VERTEX
  5
815
100
AcDbEntity
  8
L1
100
AcDbVertex
100
AcDb2dVertex
 10
74.72247474059412
 20
-51.43024133155947
 30
0.0
  0
SEQEND
  5
816
100
AcDbEntity
  8
L1
  0
LINE
  5
30F
100
AcDbEntity
  8
L1
100
AcDbLine
 10
74.94604107856367
 20
-48.27562245575376
 30
0.0
 11
76.07275752463113
 21
-49.22104981009031
 31
0.0
  0
LINE
  5
310
100
AcDbEntity
  8
L1
100
AcDbLine
 10
74.968957041348
 20
-48.80066121879716
 30
0.0
 11
76.05635117798806
 21
-49.71309323779618
 31
0.0
  0
LINE
  5
311
100
AcDbEntity
  8
L1
100
AcDbLine
 10
73.29330375433364
 20
-49.54107276130182
 30
0.0
 11
74.54107276130173
 21
-48.29330375433349
 31
0.0
  0
ARC
  5
312
100
AcDbEntity
  8
L1
100
AcDbCircle
 10
74.75320479565772
 20
-48.50543578868945
 30
0.0
 40
0.3
100
AcDbArc
 50
50.00000000000055
 51
135.0
  0
POLYLINE
  5
313
100
AcDbEntity
  8
L1
100
AcDb2dPolyline
 66
     1
 10
0.0
 20
0.0
 30
0.0
  0
VERTEX
  5
817
100
AcDbEntity
  8
L1
100
AcDbVertex
100
AcDb2dVertex
 10
74.56400414403868
 20
-48.81834184412728
 30
0.0
  0
VERTEX
  5
818
100
AcDbEntity
  8
L1
100
AcDbVertex
100
AcDb2dVertex
 10
74.76304271985066
 20
-48.73076129788941
 30
0.0
  0
VERTEX
  5
819
100
AcDbEntity
  8
L1
100
AcDbVertex
100
AcDb2dVertex
 10
74.96895704134795
 20
-48.80066121879721
 30
0.0
  0
SEQEND
  5
81A
100
AcDbEntity
  8
L1
  0
LINE
  5
314
100
AcDbEntity
  8
L1
100
AcDbLine
 10
73.8183418441273
 20
-49.56400414403865
 30
0.0
 11
74.56400414403868
 21
-48.81834184412728
 31
0.0
  0
ARC
  5
315
100
AcDbEntity
  8
L1
100
AcDbCircle
 10
76.26621018056773
 20
-48.97619030898394
 30
0.0
 40
0.3120578558194801
100
AcDbArc
 50
231.6892978337452
 51
303.5659605360483
  0
ARC
  5
316
100
AcDbEntity
  8
L1
100
AcDbCircle
 10
81.74999999999995
 20
-56.74999999999997
 30
0.0
 40
9.201435918374905
100
AcDbArc
 50
90.0
 51
125.2552583666985
  0
ARC
  5
317
100
AcDbEntity
  8
L1
100
AcDbCircle
 10
85.24999999999995
 20
-47.14999999999995
 30
0.0
 40
4.022689858140864
100
AcDbArc
 50
269.9999999999992
 51
0.0
  0
ARC
  5
318
100
AcDbEntity
  8
L1
100
AcDbCircle
 10
85.24999999999995
 20
-47.14999999999995
 30
0.0
 40
4.499999999999964
100
AcDbArc
 50
270.0
 51
315.3253904356164
  0
ARC
  5
319
100
AcDbEntity
  8
L1
100
AcDbCircle
 10
85.24999999999995
 20
-47.14999999999995
 30
0.0
 40
1.377211141825998
100
AcDbArc
 50
270.0
 51
0.0
  0
CIRCLE
  5
31C
100
AcDbEntity
  8
L1
100
AcDbCircle
 10
70.0
 20
-10.00000000000005
 30
0.0
 40
1.2581025254893
  0
ARC
  5
31D
100
AcDbEntity
  8
L1
100
AcDbCircle
 10
70.0
 20
-0.0000000000000568
 30
0.0
 40
3.403605588231097
100
AcDbArc
 50
126.5708941476372
 51
233.4291058523614
  0
CIRCLE
  5
31E
100
AcDbEntity
  8
L1
100
AcDbCircle
 10
70.0
 20
-0.0000000000000568
 30
0.0
 40
4.591897474510698
  0
LINE
  5
31F
100
AcDbEntity
  8
L1
100
AcDbLine
 10
69.75
 20
56.75000000000003
 30
0.0
 11
66.71165091966781
 21
57.65000000000006
 31
0.0
  0
LINE
  5
320
100
AcDbEntity
  8
L1
100
AcDbLine
 10
66.71165091966781
 20
55.84999999999993
 30
0.0
 11
69.74999999999994
 21
56.74999999999997
 31
0.0
  0
CIRCLE
  5
321
100
AcDbEntity
  8
L1
100
AcDbCircle
 10
10.00000000000005
 20
44.99999999999997
 30
0.0
 40
1.2581025254893
  0
POLYLINE
  5
322
100
AcDbEntity
  8
L1
100
AcDb2dPolyline
 66
     1
 10
0.0
 20
0.0
 30
0.0
  0
VERTEX
  5
82A
100
AcDbEntity
  8
L1
100
AcDbVertex
100
AcDb2dVertex
 10
2.701853931434015
 20
42.98263764152525
 30
0.0
  0
VERTEX
  5
82B
100
AcDbEntity
  8
L1
100
AcDbVertex
100
AcDb2dVertex
 10
2.733504569655792
 20
42.97207402306955
 30
0.0
  0
SEQEND
  5
82C
100
AcDbEntity
  8
L1
  0
CIRCLE
  5
323
100
AcDbEntity
  8
L1
100
AcDbCircle
 10
49.99999999999994
 20
44.99999999999992
 30
0.0
 40
4.591897474510698
  0
ARC
  5
324
100
AcDbEntity
  8
L1
100
AcDbCircle
 10
49.99999999999994
 20
44.99999999999992
 30
0.0
 40
2.0
100
AcDbArc
 50
189.5859123991601
 51
350.4140876008398
  0
CIRCLE
  5
325
100
AcDbEntity
  8
L1
100
AcDbCircle
 10
49.99999999999994
 20
44.99999999999992
 30
0.0
 40
1.6
  0
ARC
  5
326
100
AcDbEntity
  8
L1
100
AcDbCircle
 10
49.99999999999994
 20
44.99999999999992
 30
0.0
 40
3.403605588231097
100
AcDbArc
 50
216.5708941476371
 51
323.4291058523627
  0
ARC
  5
327
100
AcDbEntity
  8
L1
100
AcDbCircle
 10
49.99999999999994
 20
44.99999999999992
 30
0.0
 40
2.0
100
AcDbArc
 50
0.0
 51
90.00000000000081
  0
LINE
  5
328
100
AcDbEntity
  8
L1
100
AcDbLine
 10
49.99999999999994
 20
46.99999999999991
 30
0.0
 11
47.99999999999994
 21
46.99999999999991
 31
0.0
  0
POLYLINE
  5
329
100
AcDbEntity
  8
L1
100
AcDb2dPolyline
 66
     1
 10
0.0
 20
0.0
 30
0.0
  0
VERTEX
  5
82D
100
AcDbEntity
  8
L1
100
AcDbVertex
100
AcDb2dVertex
 10
49.76408266529569
 20
46.9860370115347
 30
0.0
  0
VERTEX
  5
82E
100
AcDbEntity
  8
L1
100
AcDbVertex
100
AcDb2dVertex
 10
49.82288141872681
 20
46.99214181427115
 30
0.0
  0
VERTEX
  5
82F
100
AcDbEntity
  8
L1
100
AcDbVertex
100
AcDb2dVertex
 10
49.88183491012478
 20
46.99650620122613
 30
0.0
  0
VERTEX
  5
830
100
AcDbEntity
  8
L1
100
AcDbVertex
100
AcDb2dVertex
 10
49.94089163533158
 20
46.99912635949451
 30
0.0
  0
VERTEX
  5
831
100
AcDbEntity
  8
L1
100
AcDbVertex
100
AcDb2dVertex
 10
49.99999999999994
 20
46.99999999999991
 30
0.0
  0
SEQEND
  5
832
100
AcDbEntity
  8
L1
  0
POLYLINE
  5
32A
100
AcDbEntity
  8
L1
100
AcDb2dPolyline
 66
     1
 10
0.0
 20
0.0
 30
0.0
  0
VERTEX
  5
833
100
AcDbEntity
  8
L1
100
AcDbVertex
100
AcDb2dVertex
 10
47.99660062999044
 20
47.65995545660039
 30
0.0
  0
VERTEX
  5
834
100
AcDbEntity
  8
L1
100
AcDbVertex
100
AcDb2dVertex
 10
47.98603701153473
 20
47.69166017969306
 30
0.0
  0
SEQEND
  5
835
100
AcDbEntity
  8
L1
  0
LINE
  5
32B
100
AcDbEntity
  8
L1
100
AcDbLine
 10
47.99999999999989
 20
46.99999999999991
 30
0.0
 11
47.99999999999989
 21
47.141440324221
 31
0.0
  0
POLYLINE
  5
32C
100
AcDbEntity
  8
L1
100
AcDb2dPolyline
 66
     1
 10
0.0
 20
0.0
 30
0.0
  0
VERTEX
  5
836
100
AcDbEntity
  8
L1
100
AcDbVertex
100
AcDb2dVertex
 10
47.99999999999994
 20
47.141440324221
 30
0.0
  0
VERTEX
  5
837
100
AcDbEntity
  8
L1
100
AcDbVertex
100
AcDb2dVertex
 10
47.99992044563327
 20
47.25615963202606
 30
0.0
  0
VERTEX
  5
838
100
AcDbEntity
  8
L1
100
AcDbVertex
100
AcDb2dVertex
 10
47.99967195326781
 20
47.36753175819202
 30
0.0
  0
VERTEX
  5
839
100
AcDbEntity
  8
L1
100
AcDbVertex
100
AcDb2dVertex
 10
47.99932637051461
 20
47.45420257652361
 30
0.0
  0
VERTEX
  5
83A
100
AcDbEntity
  8
L1
100
AcDbVertex
100
AcDb2dVertex
 10
47.99884680160608
 20
47.53186610719516
 30
0.0
  0
VERTEX
  5
83B
100
AcDbEntity
  8
L1
100
AcDbVertex
100
AcDb2dVertex
 10
47.99833272719825
 20
47.58733525937228
 30
0.0
  0
VERTEX
  5
83C
100
AcDbEntity
  8
L1
100
AcDbVertex
100
AcDb2dVertex
 10
47.99773023522647
 20
47.62928792396891
 30
0.0
  0
VERTEX
  5
83D
100
AcDbEntity
  8
L1
100
AcDbVertex
100
AcDb2dVertex
 10
47.99713442957954
 20
47.65242946816406
 30
0.0
  0
VERTEX
  5
83E
100
AcDbEntity
  8
L1
100
AcDbVertex
100
AcDb2dVertex
 10
47.99660062999044
 20
47.65995545660039
 30
0.0
  0
SEQEND
  5
83F
100
AcDbEntity
  8
L1
  0
POLYLINE
  5
32D
100
AcDbEntity
  8
L1
100
AcDb2dPolyline
 66
     1
 10
0.0
 20
0.0
 30
0.0
  0
VERTEX
  5
840
100
AcDbEntity
  8
L1
100
AcDbVertex
100
AcDb2dVertex
 10
48.02792597693036
 20
44.66694738023218
 30
0.0
  0
VERTEX
  5
841
100
AcDbEntity
  8
L1
100
AcDbVertex
100
AcDb2dVertex
 10
48.02034862754431
 20
44.71542936986625
 30
0.0
  0
VERTEX
  5
842
100
AcDbEntity
  8
L1
100
AcDbVertex
100
AcDb2dVertex
 10
48.01396298846515
 20
44.76408266529566
 30
0.0
  0
SEQEND
  5
843
100
AcDbEntity
  8
L1
  0
POLYLINE
  5
32E
100
AcDbEntity
  8
L1
100
AcDb2dPolyline
 66
     1
 10
0.0
 20
0.0
 30
0.0
  0
VERTEX
  5
844
100
AcDbEntity
  8
L1
100
AcDbVertex
100
AcDb2dVertex
 10
47.3083398203068
 20
42.98603701153476
 30
0.0
  0
VERTEX
  5
845
100
AcDbEntity
  8
L1
100
AcDbVertex
100
AcDb2dVertex
 10
47.26649543034421
 20
42.97207402306949
 30
0.0
  0
SEQEND
  5
846
100
AcDbEntity
  8
L1
  0
LINE
  5
32F
100
AcDbEntity
  8
L1
100
AcDbLine
 10
47.3083398203068
 20
42.9860370115347
 30
0.0
 11
48.01396298846515
 21
42.9860370115347
 31
0.0
  0
LINE
  5
330
100
AcDbEntity
  8
L1
100
AcDbLine
 10
48.01396298846515
 20
42.9860370115347
 30
0.0
 11
48.01396298846515
 21
44.76408266529566
 31
0.0
  0
CIRCLE
  5
331
100
AcDbEntity
  8
L1
100
AcDbCircle
 10
49.99999999999994
 20
44.99999999999992
 30
0.0
 40
1.2
  0
ARC
  5
332
100
AcDbEntity
  8
L1
100
AcDbCircle
 10
49.99999999999994
 20
44.99999999999992
 30
0.0
 40
2.0
100
AcDbArc
 50
96.77430607226146
 51
186.7743060722614
  0
ARC
  5
333
100
AcDbEntity
  8
L1
100
AcDbCircle
 10
49.99999999999994
 20
44.99999999999992
 30
0.0
 40
3.361708113720398
100
AcDbArc
 50
126.8046934460398
 51
216.8046934460395
  0
LINE
  5
334
100
AcDbEntity
  8
L1
100
AcDbLine
 10
51.99999999999994
 20
42.99999999999991
 30
0.0
 11
51.99999999999994
 21
44.99999999999992
 31
0.0
  0
POLYLINE
  5
335
100
AcDbEntity
  8
L1
100
AcDb2dPolyline
 66
     1
 10
0.0
 20
0.0
 30
0.0
  0
VERTEX
  5
847
100
AcDbEntity
  8
L1
100
AcDbVertex
100
AcDb2dVertex
 10
51.99999999999994
 20
44.99999999999992
 30
0.0
  0
VERTEX
  5
848
100
AcDbEntity
  8
L1
100
AcDbVertex
100
AcDb2dVertex
 10
51.99922251681312
 20
44.94423864898479
 30
0.0
  0
VERTEX
  5
849
100
AcDbEntity
  8
L1
100
AcDbVertex
100
AcDb2dVertex
 10
51.9968906717329
 20
44.88852065148248
 30
0.0
  0
VERTEX
  5
84A
100
AcDbEntity
  8
L1
100
AcDbVertex
100
AcDb2dVertex
 10
51.99300627772953
 20
44.8328893272994
 30
0.0
  0
VERTEX
  5
84B
100
AcDbEntity
  8
L1
100
AcDbVertex
100
AcDb2dVertex
 10
51.98757235485408
 20
44.77738792885467
 30
0.0
  0
VERTEX
  5
84C
100
AcDbEntity
  8
L1
100
AcDbVertex
100
AcDb2dVertex
 10
51.98059312789019
 20
44.72205960755238
 30
0.0
  0
VERTEX
  5
84D
100
AcDbEntity
  8
L1
100
AcDbVertex
100
AcDb2dVertex
 10
51.97207402306952
 20
44.66694738023218
 30
0.0
  0
SEQEND
  5
84E
100
AcDbEntity
  8
L1
  0
LINE
  5
336
100
AcDbEntity
  8
L1
100
AcDbLine
 10
52.14144032422104
 20
42.99999999999991
 30
0.0
 11
51.99999999999994
 21
42.99999999999991
 31
0.0
  0
POLYLINE
  5
337
100
AcDbEntity
  8
L1
100
AcDb2dPolyline
 66
     1
 10
0.0
 20
0.0
 30
0.0
  0
VERTEX
  5
84F
100
AcDbEntity
  8
L1
100
AcDbVertex
100
AcDb2dVertex
 10
52.69166017969315
 20
42.9860370115347
 30
0.0
  0
VERTEX
  5
850
100
AcDbEntity
  8
L1
100
AcDbVertex
100
AcDb2dVertex
 10
52.65995545660053
 20
42.99660062999047
 30
0.0
  0
SEQEND
  5
851
100
AcDbEntity
  8
L1
  0
POLYLINE
  5
338
100
AcDbEntity
  8
L1
100
AcDb2dPolyline
 66
     1
 10
0.0
 20
0.0
 30
0.0
  0
VERTEX
  5
852
100
AcDbEntity
  8
L1
100
AcDbVertex
100
AcDb2dVertex
 10
52.73350456965568
 20
42.97207402306949
 30
0.0
  0
VERTEX
  5
853
100
AcDbEntity
  8
L1
100
AcDbVertex
100
AcDb2dVertex
 10
52.69166017969315
 20
42.9860370115347
 30
0.0
  0
SEQEND
  5
854
100
AcDbEntity
  8
L1
  0
POLYLINE
  5
339
100
AcDbEntity
  8
L1
100
AcDb2dPolyline
 66
     1
 10
0.0
 20
0.0
 30
0.0
  0
VERTEX
  5
855
100
AcDbEntity
  8
L1
100
AcDbVertex
100
AcDb2dVertex
 10
52.65995545660041
 20
42.9966006299904
 30
0.0
  0
VERTEX
  5
856
100
AcDbEntity
  8
L1
100
AcDbVertex
100
AcDb2dVertex
 10
52.65242946816409
 20
42.99713442957957
 30
0.0
  0
VERTEX
  5
857
100
AcDbEntity
  8
L1
100
AcDbVertex
100
AcDb2dVertex
 10
52.62928792396895
 20
42.99773023522644
 30
0.0
  0
VERTEX
  5
858
100
AcDbEntity
  8
L1
100
AcDbVertex
100
AcDb2dVertex
 10
52.58733525937237
 20
42.99833272719817
 30
0.0
  0
VERTEX
  5
859
100
AcDbEntity
  8
L1
100
AcDbVertex
100
AcDb2dVertex
 10
52.53186610719518
 20
42.99884680160604
 30
0.0
  0
VERTEX
  5
85A
100
AcDbEntity
  8
L1
100
AcDbVertex
100
AcDb2dVertex
 10
52.45420257652369
 20
42.99932637051464
 30
0.0
  0
VERTEX
  5
85B
100
AcDbEntity
  8
L1
100
AcDbVertex
100
AcDb2dVertex
 10
52.36753175819206
 20
42.99967195326778
 30
0.0
  0
VERTEX
  5
85C
100
AcDbEntity
  8
L1
100
AcDbVertex
100
AcDb2dVertex
 10
52.2561596320262
 20
42.99992044563319
 30
0.0
  0
VERTEX
  5
85D
100
AcDbEntity
  8
L1
100
AcDbVertex
100
AcDb2dVertex
 10
52.14144032422104
 20
42.99999999999991
 30
0.0
  0
SEQEND
  5
85E
100
AcDbEntity
  8
L1
  0
LINE
  5
33A
100
AcDbEntity
  8
L1
100
AcDbLine
 10
46.71165091966781
 20
56.45000000000002
 30
0.0
 11
66.71165091966781
 21
56.45000000000002
 31
0.0
  0
LINE
  5
33B
100
AcDbEntity
  8
L1
100
AcDbLine
 10
66.71165091966781
 20
57.04999999999998
 30
0.0
 11
46.71165091966781
 21
57.04999999999998
 31
0.0
  0
LINE
  5
33C
100
AcDbEntity
  8
L1
100
AcDbLine
 10
46.71165091966781
 20
57.04999999999998
 30
0.0
 11
46.71165091966781
 21
56.44999999999996
 31
0.0
  0
LINE
  5
33D
100
AcDbEntity
  8
L1
100
AcDbLine
 10
66.71165091966781
 20
57.65
 30
0.0
 11
66.71165091966781
 21
57.04999999999998
 31
0.0
  0
LINE
  5
33E
100
AcDbEntity
  8
L1
100
AcDbLine
 10
66.71165091966781
 20
56.44999999999996
 30
0.0
 11
66.71165091966781
 21
55.84999999999999
 31
0.0
  0
POLYLINE
  5
33F
100
AcDbEntity
  8
L1
100
AcDb2dPolyline
 66
     1
 10
0.0
 20
0.0
 30
0.0
  0
VERTEX
  5
85F
100
AcDbEntity
  8
L1
100
AcDbVertex
100
AcDb2dVertex
 10
67.97207402306952
 20
-2.733504569655735
 30
0.0
  0
VERTEX
  5
860
100
AcDbEntity
  8
L1
100
AcDbVertex
100
AcDb2dVertex
 10
67.98263764152522
 20
-2.701853931433959
 30
0.0
  0
SEQEND
  5
861
100
AcDbEntity
  8
L1
  0
POLYLINE
  5
340
100
AcDbEntity
  8
L1
100
AcDb2dPolyline
 66
     1
 10
0.0
 20
0.0
 30
0.0
  0
VERTEX
  5
862
100
AcDbEntity
  8
L1
100
AcDbVertex
100
AcDb2dVertex
 10
67.98263764152522
 20
-2.701853931434015
 30
0.0
  0
VERTEX
  5
863
100
AcDbEntity
  8
L1
100
AcDbVertex
100
AcDb2dVertex
 10
67.98317231306481
 20
-2.694327222758943
 30
0.0
  0
VERTEX
  5
864
100
AcDbEntity
  8
L1
100
AcDbVertex
100
AcDb2dVertex
 10
67.98376902709827
 20
-2.671185009004091
 30
0.0
  0
VERTEX
  5
865
100
AcDbEntity
  8
L1
100
AcDbVertex
100
AcDb2dVertex
 10
67.98437165134135
 20
-2.629295732131311
 30
0.0
  0
VERTEX
  5
866
100
AcDbEntity
  8
L1
100
AcDbVertex
100
AcDb2dVertex
 10
67.98488604447317
 20
-2.573897349308197
 30
0.0
  0
VERTEX
  5
867
100
AcDbEntity
  8
L1
100
AcDbVertex
100
AcDb2dVertex
 10
67.98536492213344
 20
-2.496513979689893
 30
0.0
  0
VERTEX
  5
868
100
AcDbEntity
  8
L1
100
AcDbVertex
100
AcDb2dVertex
 10
67.98571019259305
 20
-2.410131526208147
 30
0.0
  0
VERTEX
  5
869
100
AcDbEntity
  8
L1
100
AcDbVertex
100
AcDb2dVertex
 10
67.98595766314389
 20
-2.299553275056894
 30
0.0
  0
VERTEX
  5
86A
100
AcDbEntity
  8
L1
100
AcDbVertex
100
AcDb2dVertex
 10
67.98603701153473
 20
-2.185636459890133
 30
0.0
  0
SEQEND
  5
86B
100
AcDbEntity
  8
L1
  0
LINE
  5
341
100
AcDbEntity
  8
L1
100
AcDbLine
 10
67.98603701153473
 20
-2.185636459890133
 30
0.0
 11
67.98603701153473
 21
-1.986037011534847
 31
0.0
  0
LINE
  5
342
100
AcDbEntity
  8
L1
100
AcDbLine
 10
67.98603701153473
 20
-1.986037011534847
 30
0.0
 11
69.76408266529574
 21
-1.986037011534847
 31
0.0
  0
POLYLINE
  5
343
100
AcDbEntity
  8
L1
100
AcDb2dPolyline
 66
     1
 10
0.0
 20
0.0
 30
0.0
  0
VERTEX
  5
86C
100
AcDbEntity
  8
L1
100
AcDbVertex
100
AcDb2dVertex
 10
67.98603701153473
 20
2.185636459890019
 30
0.0
  0
VERTEX
  5
86D
100
AcDbEntity
  8
L1
100
AcDbVertex
100
AcDb2dVertex
 10
67.98595766314389
 20
2.29955327505678
 30
0.0
  0
VERTEX
  5
86E
100
AcDbEntity
  8
L1
100
AcDbVertex
100
AcDb2dVertex
 10
67.98571019259305
 20
2.410131526208033
 30
0.0
  0
VERTEX
  5
86F
100
AcDbEntity
  8
L1
100
AcDbVertex
100
AcDb2dVertex
 10
67.98536492213344
 20
2.49651397968978
 30
0.0
  0
VERTEX
  5
870
100
AcDbEntity
  8
L1
100
AcDbVertex
100
AcDb2dVertex
 10
67.98488604447317
 20
2.573897349308083
 30
0.0
  0
VERTEX
  5
871
100
AcDbEntity
  8
L1
100
AcDbVertex
100
AcDb2dVertex
 10
67.98437165134135
 20
2.629295732131197
 30
0.0
  0
VERTEX
  5
872
100
AcDbEntity
  8
L1
100
AcDbVertex
100
AcDb2dVertex
 10
67.98376902709827
 20
2.67118500900392
 30
0.0
  0
VERTEX
  5
873
100
AcDbEntity
  8
L1
100
AcDbVertex
100
AcDb2dVertex
 10
67.98317231306487
 20
2.694327222758886
 30
0.0
  0
VERTEX
  5
874
100
AcDbEntity
  8
L1
100
AcDbVertex
100
AcDb2dVertex
 10
67.98263764152529
 20
2.701853931433959
 30
0.0
  0
SEQEND
  5
875
100
AcDbEntity
  8
L1
  0
LINE
  5
344
100
AcDbEntity
  8
L1
100
AcDbLine
 10
67.98603701153479
 20
1.986037011534733
 30
0.0
 11
67.98603701153479
 21
2.185636459890019
 31
0.0
  0
LINE
  5
345
100
AcDbEntity
  8
L1
100
AcDbLine
 10
69.76408266529574
 20
1.986037011534733
 30
0.0
 11
67.98603701153479
 21
1.986037011534733
 31
0.0
  0
POLYLINE
  5
346
100
AcDbEntity
  8
L1
100
AcDb2dPolyline
 66
     1
 10
0.0
 20
0.0
 30
0.0
  0
VERTEX
  5
876
100
AcDbEntity
  8
L1
100
AcDbVertex
100
AcDb2dVertex
 10
67.98263764152529
 20
2.701853931433902
 30
0.0
  0
VERTEX
  5
877
100
AcDbEntity
  8
L1
100
AcDbVertex
100
AcDb2dVertex
 10
67.97207402306958
 20
2.733504569655679
 30
0.0
  0
SEQEND
  5
878
100
AcDbEntity
  8
L1
  0
CIRCLE
  5
347
100
AcDbEntity
  8
L1
100
AcDbCircle
 10
70.0
 20
-0.0000000000000568
 30
0.0
 40
1.6
  0
CIRCLE
  5
348
100
AcDbEntity
  8
L1
100
AcDbCircle
 10
70.0
 20
-0.0000000000000568
 30
0.0
 40
1.2
  0
ARC
  5
349
100
AcDbEntity
  8
L1
100
AcDbCircle
 10
70.0
 20
-0.0000000000000568
 30
0.0
 40
2.0
100
AcDbArc
 50
263.2256939277385
 51
96.77430607226146
  0
CIRCLE
  5
34A
100
AcDbEntity
  8
L1
100
AcDbCircle
 10
70.0
 20
9.999999999999943
 30
0.0
 40
1.2581025254893
  0
LINE
  5
34B
100
AcDbEntity
  8
L1
100
AcDbLine
 10
73.8183418441273
 20
49.56400414403865
 30
0.0
 11
74.56400414403868
 21
48.81834184412728
 31
0.0
  0
LINE
  5
34C
100
AcDbEntity
  8
L1
100
AcDbLine
 10
73.29330375433364
 20
49.54107276130182
 30
0.0
 11
74.54107276130173
 21
48.29330375433349
 31
0.0
  0
ARC
  5
34D
100
AcDbEntity
  8
L1
100
AcDbCircle
 10
81.74999999999995
 20
56.74999999999997
 30
0.0
 40
9.201435918374905
100
AcDbArc
 50
234.7447416333014
 51
270.0
  0
ARC
  5
34E
100
AcDbEntity
  8
L1
100
AcDbCircle
 10
85.24999999999995
 20
47.14999999999995
 30
0.0
 40
4.022689858140864
100
AcDbArc
 50
0.0
 51
90.00000000000081
  0
LINE
  5
34F
100
AcDbEntity
  8
L1
100
AcDbLine
 10
74.968957041348
 20
48.80066121879716
 30
0.0
 11
76.05635117798806
 21
49.71309323779618
 31
0.0
  0
ARC
  5
350
100
AcDbEntity
  8
L1
100
AcDbCircle
 10
81.74999999999995
 20
56.74999999999997
 30
0.0
 40
8.222788858174023
100
AcDbArc
 50
180.0
 51
270.0
  0
LINE
  5
351
100
AcDbEntity
  8
L1
100
AcDbLine
 10
74.94604107856367
 20
48.27562245575376
 30
0.0
 11
76.07275752463113
 21
49.22104981009031
 31
0.0
  0
POLYLINE
  5
352
100
AcDbEntity
  8
L1
100
AcDb2dPolyline
 66
     1
 10
0.0
 20
0.0
 30
0.0
  0
VERTEX
  5
879
100
AcDbEntity
  8
L1
100
AcDbVertex
100
AcDb2dVertex
 10
84.62061525853318
 20
47.54856408162507
 30
0.0
  0
VERTEX
  5
87A
100
AcDbEntity
  8
L1
100
AcDbVertex
100
AcDb2dVertex
 10
84.32062314761976
 20
47.46818387833869
 30
0.0
  0
VERTEX
  5
87B
100
AcDbEntity
  8
L1
100
AcDbVertex
100
AcDb2dVertex
 10
84.10101830798106
 20
47.2485790387
 30
0.0
  0
VERTEX
  5
87C
100
AcDbEntity
  8
L1
100
AcDbVertex
100
AcDb2dVertex
 10
84.02063810469469
 20
46.94858692778658
 30
0.0
  0
SEQEND
  5
87D
100
AcDbEntity
  8
L1
  0
LINE
  5
353
100
AcDbEntity
  8
L1
100
AcDbLine
 10
84.62061525853318
 20
47.54856408162507
 30
0.0
 11
81.74999999999995
 21
47.54856408162507
 31
0.0
  0
LINE
  5
354
100
AcDbEntity
  8
L1
100
AcDbLine
 10
81.74999999999995
 20
48.52721114182592
 30
0.0
 11
85.24999999999995
 21
48.52721114182592
 31
0.0
  0
LINE
  5
355
100
AcDbEntity
  8
L1
100
AcDbLine
 10
81.4500000000001
 20
31.71165091966779
 30
0.0
 11
81.4500000000001
 21
41.71165091966779
 31
0.0
  0
LINE
  5
356
100
AcDbEntity
  8
L1
100
AcDbLine
 10
82.05000000000007
 20
41.71165091966779
 30
0.0
 11
82.05000000000007
 21
31.71165091966779
 31
0.0
  0
LINE
  5
357
100
AcDbEntity
  8
L1
100
AcDbLine
 10
82.05000000000007
 20
31.71165091966784
 30
0.0
 11
81.4500000000001
 21
31.71165091966784
 31
0.0
  0
POLYLINE
  5
358
100
AcDbEntity
  8
L1
100
AcDb2dPolyline
 66
     1
 10
0.0
 20
0.0
 30
0.0
  0
VERTEX
  5
87E
100
AcDbEntity
  8
L1
100
AcDbVertex
100
AcDb2dVertex
 10
74.56400414403868
 20
48.81834184412728
 30
0.0
  0
VERTEX
  5
87F
100
AcDbEntity
  8
L1
100
AcDbVertex
100
AcDb2dVertex
 10
74.76304271985066
 20
48.73076129788941
 30
0.0
  0
VERTEX
  5
880
100
AcDbEntity
  8
L1
100
AcDbVertex
100
AcDb2dVertex
 10
74.96895704134795
 20
48.80066121879721
 30
0.0
  0
SEQEND
  5
881
100
AcDbEntity
  8
L1
  0
ARC
  5
359
100
AcDbEntity
  8
L1
100
AcDbCircle
 10
74.75320479565772
 20
48.50543578868945
 30
0.0
 40
0.3
100
AcDbArc
 50
225.0
 51
309.9999999999994
  0
LINE
  5
35A
100
AcDbEntity
  8
L1
100
AcDbLine
 10
82.65000000000009
 20
41.71165091966779
 30
0.0
 11
82.05000000000007
 21
41.71165091966779
 31
0.0
  0
LINE
  5
35B
100
AcDbEntity
  8
L1
100
AcDbLine
 10
81.75000000000011
 20
44.74999999999996
 30
0.0
 11
82.65000000000014
 21
41.71165091966779
 31
0.0
  0
LINE
  5
35C
100
AcDbEntity
  8
L1
100
AcDbLine
 10
80.85000000000007
 20
41.71165091966779
 30
0.0
 11
81.75000000000006
 21
44.74999999999996
 31
0.0
  0
LINE
  5
35D
100
AcDbEntity
  8
L1
100
AcDbLine
 10
81.45000000000004
 20
41.71165091966779
 30
0.0
 11
80.85000000000007
 21
41.71165091966779
 31
0.0
  0
ARC
  5
35E
100
AcDbEntity
  8
L1
100
AcDbCircle
 10
85.24999999999995
 20
47.14999999999995
 30
0.0
 40
1.377211141825998
100
AcDbArc
 50
0.0
 51
90.0
  0
LINE
  5
35F
100
AcDbEntity
  8
L6
100
AcDbLine
 10
74.72106967228296
 20
56.74999999999997
 30
0.0
 11
88.72243111678177
 21
56.74999999999997
 31
0.0
  0
LINE
  5
360
100
AcDbEntity
  8
L1
100
AcDbLine
 10
81.74999999999995
 20
51.64999999999995
 30
0.0
 11
85.24999999999995
 21
51.64999999999995
 31
0.0
  0
LINE
  5
361
100
AcDbEntity
  8
L1
100
AcDbLine
 10
85.24999999999995
 20
51.1726898581409
 30
0.0
 11
81.74999999999995
 21
51.1726898581409
 31
0.0
  0
CIRCLE
  5
362
100
AcDbEntity
  8
L1
100
AcDbCircle
 10
81.74999999999995
 20
56.74999999999997
 30
0.0
 40
4.0
  0
LINE
  5
363
100
AcDbEntity
  8
L1
100
AcDbLine
 10
86.54999999999995
 20
63.4499999999999
 30
0.0
 11
75.31385840391124
 21
63.4499999999999
 31
0.0
  0
LINE
  5
364
100
AcDbEntity
  8
L6
100
AcDbLine
 10
81.74999999999977
 20
63.03088265814378
 30
0.0
 11
81.74999999999977
 21
50.45130511106171
 31
0.0
  0
LINE
  5
365
100
AcDbEntity
  8
L1
100
AcDbLine
 10
72.54856408162504
 20
56.74999999999997
 30
0.0
 11
72.54856408162504
 21
59.62061525853314
 31
0.0
  0
LINE
  5
366
100
AcDbEntity
  8
L1
100
AcDbLine
 10
73.52721114182594
 20
60.24999999999997
 30
0.0
 11
73.52721114182594
 21
56.74999999999997
 31
0.0
  0
LINE
  5
367
100
AcDbEntity
  8
L1
100
AcDbLine
 10
76.64999999999992
 20
60.24999999999997
 30
0.0
 11
76.64999999999992
 21
56.74999999999997
 31
0.0
  0
LINE
  5
368
100
AcDbEntity
  8
L1
100
AcDbLine
 10
76.17268985814075
 20
56.74999999999997
 30
0.0
 11
76.17268985814075
 21
60.24999999999997
 31
0.0
  0
CIRCLE
  5
369
100
AcDbEntity
  8
L1
100
AcDbCircle
 10
81.75
 20
56.74999999999997
 30
0.0
 40
2.25
  0
ARC
  5
36A
100
AcDbEntity
  8
L1
100
AcDbCircle
 10
81.74999999999995
 20
56.74999999999997
 30
0.0
 40
8.813962988465215
100
AcDbArc
 50
217.125317435103
 51
232.8746825648976
  0
ARC
  5
36B
100
AcDbEntity
  8
L1
100
AcDbCircle
 10
81.74999999999995
 20
56.74999999999997
 30
0.0
 40
5.099999999999999
100
AcDbArc
 50
180.0
 51
270.0
  0
ARC
  5
36C
100
AcDbEntity
  8
L1
100
AcDbCircle
 10
81.74999999999995
 20
56.74999999999997
 30
0.0
 40
5.577310141859157
100
AcDbArc
 50
180.0
 51
270.0
  0
POLYLINE
  5
36D
100
AcDbEntity
  8
L1
100
AcDb2dPolyline
 66
     1
 10
0.0
 20
0.0
 30
0.0
  0
VERTEX
  5
882
100
AcDbEntity
  8
L1
100
AcDbVertex
100
AcDb2dVertex
 10
74.71309323779621
 20
51.05635117798797
 30
0.0
  0
VERTEX
  5
883
100
AcDbEntity
  8
L1
100
AcDbVertex
100
AcDb2dVertex
 10
74.73370708624668
 20
51.0840020168608
 30
0.0
  0
VERTEX
  5
884
100
AcDbEntity
  8
L1
100
AcDbVertex
100
AcDb2dVertex
 10
74.76018502948091
 20
51.13376029463021
 30
0.0
  0
VERTEX
  5
885
100
AcDbEntity
  8
L1
100
AcDbVertex
100
AcDb2dVertex
 10
74.77688811258179
 20
51.18759310127368
 30
0.0
  0
VERTEX
  5
886
100
AcDbEntity
  8
L1
100
AcDbVertex
100
AcDb2dVertex
 10
74.78325351918215
 20
51.24534812187633
 30
0.0
  0
VERTEX
  5
887
100
AcDbEntity
  8
L1
100
AcDbVertex
100
AcDb2dVertex
 10
74.77836553316592
 20
51.30324690038387
 30
0.0
  0
VERTEX
  5
888
100
AcDbEntity
  8
L1
100
AcDbVertex
100
AcDb2dVertex
 10
74.76197240079364
 20
51.36021454399505
 30
0.0
  0
VERTEX
  5
889
100
AcDbEntity
  8
L1
100
AcDbVertex
100
AcDb2dVertex
 10
74.73469756843844
 20
51.41284662278749
 30
0.0
  0
VERTEX
  5
88A
100
AcDbEntity
  8
L1
100
AcDbVertex
100
AcDb2dVertex
 10
74.72247474059412
 20
51.43024133155947
 30
0.0
  0
SEQEND
  5
88B
100
AcDbEntity
  8
L1
  0
LINE
  5
36E
100
AcDbEntity
  8
L1
100
AcDbLine
 10
74.71309323779621
 20
51.05635117798797
 30
0.0
 11
73.80066121879725
 21
49.96895704134797
 31
0.0
  0
POLYLINE
  5
36F
100
AcDbEntity
  8
L1
100
AcDb2dPolyline
 66
     1
 10
0.0
 20
0.0
 30
0.0
  0
VERTEX
  5
88C
100
AcDbEntity
  8
L1
100
AcDbVertex
100
AcDb2dVertex
 10
73.80066121879725
 20
49.96895704134797
 30
0.0
  0
VERTEX
  5
88D
100
AcDbEntity
  8
L1
100
AcDbVertex
100
AcDb2dVertex
 10
73.73076129788945
 20
49.76304271985068
 30
0.0
  0
VERTEX
  5
88E
100
AcDbEntity
  8
L1
100
AcDbVertex
100
AcDb2dVertex
 10
73.8183418441273
 20
49.5640041440387
 30
0.0
  0
SEQEND
  5
88F
100
AcDbEntity
  8
L1
  0
ARC
  5
370
100
AcDbEntity
  8
L1
100
AcDbCircle
 10
73.99124842347845
 20
51.26558633256545
 30
0.0
 40
0.2999860437228714
100
AcDbArc
 50
319.9996270275257
 51
35.25563132693847
  0
LINE
  5
371
100
AcDbEntity
  8
L1
100
AcDbLine
 10
74.22104981009034
 20
51.0727575246311
 30
0.0
 11
73.27562245575393
 21
49.94604107856375
 31
0.0
  0
ARC
  5
372
100
AcDbEntity
  8
L1
100
AcDbCircle
 10
73.50543578868962
 20
49.75320479565778
 30
0.0
 40
0.3
100
AcDbArc
 50
140.0000000000005
 51
224.9999999999987
  0
ARC
  5
373
100
AcDbEntity
  8
L1
100
AcDbCircle
 10
81.74999999999995
 20
56.74999999999997
 30
0.0
 40
9.201435918374905
100
AcDbArc
 50
180.0
 51
215.2552583666987
  0
POLYLINE
  5
374
100
AcDbEntity
  8
L1
100
AcDb2dPolyline
 66
     1
 10
0.0
 20
0.0
 30
0.0
  0
VERTEX
  5
890
100
AcDbEntity
  8
L1
100
AcDbVertex
100
AcDb2dVertex
 10
76.4302413315595
 20
49.72247474059409
 30
0.0
  0
VERTEX
  5
891
100
AcDbEntity
  8
L1
100
AcDbVertex
100
AcDb2dVertex
 10
76.36590252976588
 20
49.75963845571246
 30
0.0
  0
VERTEX
  5
892
100
AcDbEntity
  8
L1
100
AcDbVertex
100
AcDb2dVertex
 10
76.27719061129505
 20
49.78196750942576
 30
0.0
  0
VERTEX
  5
893
100
AcDbEntity
  8
L1
100
AcDbVertex
100
AcDb2dVertex
 10
76.19017500655854
 20
49.77741788846291
 30
0.0
  0
VERTEX
  5
894
100
AcDbEntity
  8
L1
100
AcDbVertex
100
AcDb2dVertex
 10
76.09996964648968
 20
49.74353755286879
 30
0.0
  0
VERTEX
  5
895
100
AcDbEntity
  8
L1
100
AcDbVertex
100
AcDb2dVertex
 10
76.05635117798801
 20
49.71309323779618
 30
0.0
  0
SEQEND
  5
896
100
AcDbEntity
  8
L1
  0
ARC
  5
375
100
AcDbEntity
  8
L1
100
AcDbCircle
 10
76.26621018056773
 20
48.97619030898394
 30
0.0
 40
0.3120578558194801
100
AcDbArc
 50
56.43403946395163
 51
128.3107021662547
  0
ARC
  5
376
100
AcDbEntity
  8
L1
100
AcDbCircle
 10
72.14999999999998
 20
60.24999999999997
 30
0.0
 40
4.499999999999992
100
AcDbArc
 50
0.0
 51
45.32539043561644
  0
ARC
  5
377
100
AcDbEntity
  8
L1
100
AcDbCircle
 10
72.14999999999998
 20
60.24999999999997
 30
0.0
 40
4.022689858140864
100
AcDbArc
 50
0.0
 51
90.00000000000081
  0
POLYLINE
  5
378
100
AcDbEntity
  8
L1
100
AcDb2dPolyline
 66
     1
 10
0.0
 20
0.0
 30
0.0
  0
VERTEX
  5
897
100
AcDbEntity
  8
L1
100
AcDbVertex
100
AcDb2dVertex
 10
71.94858692778655
 20
59.02063810469465
 30
0.0
  0
VERTEX
  5
898
100
AcDbEntity
  8
L1
100
AcDbVertex
100
AcDb2dVertex
 10
72.24857903869997
 20
59.10101830798104
 30
0.0
  0
VERTEX
  5
899
100
AcDbEntity
  8
L1
100
AcDbVertex
100
AcDb2dVertex
 10
72.46818387833866
 20
59.32062314761973
 30
0.0
  0
VERTEX
  5
89A
100
AcDbEntity
  8
L1
100
AcDbVertex
100
AcDb2dVertex
 10
72.54856408162504
 20
59.62061525853314
 30
0.0
  0
SEQEND
  5
89B
100
AcDbEntity
  8
L1
  0
ARC
  5
379
100
AcDbEntity
  8
L1
100
AcDbCircle
 10
72.14999999999998
 20
60.24999999999997
 30
0.0
 40
1.377211141825941
100
AcDbArc
 50
0.0
 51
90.0
  0
LINE
  5
37A
100
AcDbEntity
  8
L1
100
AcDbLine
 10
88.44999999999998
 20
50.31385840391121
 30
0.0
 11
88.44999999999998
 21
61.54999999999998
 31
0.0
  0
ARC
  5
37B
100
AcDbEntity
  8
L1
100
AcDbCircle
 10
85.24999999999995
 20
47.14999999999995
 30
0.0
 40
4.499999999999964
100
AcDbArc
 50
44.67460956438354
 51
90.0
  0
ARC
  5
37C
100
AcDbEntity
  8
L1
100
AcDbCircle
 10
86.54999999999995
 20
61.54999999999998
 30
0.0
 40
1.9
100
AcDbArc
 50
0.0
 51
90.00000000000087
  0
ARC
  5
37D
100
AcDbEntity
  8
L1
100
AcDbCircle
 10
86.54999999999995
 20
61.54999999999998
 30
0.0
 40
2.900000000000025
100
AcDbArc
 50
0.0
 51
90.0
  0
POLYLINE
  5
37E
100
AcDbEntity
  8
L1
100
AcDb2dPolyline
 66
     1
 10
0.0
 20
0.0
 30
0.0
  0
VERTEX
  5
89C
100
AcDbEntity
  8
L1
100
AcDbVertex
100
AcDb2dVertex
 10
90.04480555661007
 20
61.54999999999998
 30
0.0
  0
VERTEX
  5
89D
100
AcDbEntity
  8
L1
100
AcDbVertex
100
AcDb2dVertex
 10
89.9787808133297
 20
62.22163427376248
 30
0.0
  0
VERTEX
  5
89E
100
AcDbEntity
  8
L1
100
AcDbVertex
100
AcDb2dVertex
 10
89.89493315133676
 20
62.55804530902427
 30
0.0
  0
VERTEX
  5
89F
100
AcDbEntity
  8
L1
100
AcDbVertex
100
AcDb2dVertex
 10
89.77745407436231
 20
62.88663729905218
 30
0.0
  0
VERTEX
  5
8A0
100
AcDbEntity
  8
L1
100
AcDbVertex
100
AcDb2dVertex
 10
89.62773247912229
 20
63.20184705158377
 30
0.0
  0
VERTEX
  5
8A1
100
AcDbEntity
  8
L1
100
AcDbVertex
100
AcDb2dVertex
 10
89.44872582398136
 20
63.49876236080641
 30
0.0
  0
VERTEX
  5
8A2
100
AcDbEntity
  8
L1
100
AcDbVertex
100
AcDb2dVertex
 10
89.01975597554354
 20
64.01975597554363
 30
0.0
  0
VERTEX
  5
8A3
100
AcDbEntity
  8
L1
100
AcDbVertex
100
AcDb2dVertex
 10
88.49876236080632
 20
64.44872582398144
 30
0.0
  0
VERTEX
  5
8A4
100
AcDbEntity
  8
L1
100
AcDbVertex
100
AcDb2dVertex
 10
88.20184705158368
 20
64.62773247912238
 30
0.0
  0
VERTEX
  5
8A5
100
AcDbEntity
  8
L1
100
AcDbVertex
100
AcDb2dVertex
 10
87.88663729905204
 20
64.77745407436239
 30
0.0
  0
VERTEX
  5
8A6
100
AcDbEntity
  8
L1
100
AcDbVertex
100
AcDb2dVertex
 10
87.55804530902413
 20
64.89493315133685
 30
0.0
  0
VERTEX
  5
8A7
100
AcDbEntity
  8
L1
100
AcDbVertex
100
AcDb2dVertex
 10
87.22163427376228
 20
64.97878081332974
 30
0.0
  0
VERTEX
  5
8A8
100
AcDbEntity
  8
L1
100
AcDbVertex
100
AcDb2dVertex
 10
86.54999999999995
 20
65.04480555661015
 30
0.0
  0
SEQEND
  5
8A9
100
AcDbEntity
  8
L1
  0
LINE
  5
3C5
100
AcDbEntity
  8
L2
100
AcDbLine
 10
8.59972599199186
 20
108.9443719359641
 30
0.0
 11
8.785920222139154
 21
116.0548427152872
 31
0.0
1001
ACAD
1000
ASC_BOUNDS
1002
{
1070
    19
1002
}
  0
LINE
  5
3C6
100
AcDbEntity
  8
L2
100
AcDbLine
 10
10.92973681282323
 20
116.0548427152872
 30
0.0
 11
11.11593104297053
 21
108.9443719359641
 31
0.0
1001
ACAD
1000
ASC_BOUNDS
1002
{
1070
    19
1002
}
  0
LINE
  5
3C7
100
AcDbEntity
  8
L2
100
AcDbLine
 10
3.229736812822963
 20
116.0548427152872
 30
0.0
 11
3.41593104297037
 21
108.9443719359641
 31
0.0
1001
ACAD
1000
ASC_BOUNDS
1002
{
1070
    19
1002
}
  0
ARC
  5
3C8
100
AcDbEntity
  8
L2
100
AcDbCircle
 10
10.52987388283286
 20
116.0443719359641
 30
0.0
 40
0.4
100
AcDbArc
 50
1.499999999999117
 51
90.0
1001
ACAD
1000
ASC_BOUNDS
1002
{
1070
    19
1002
}
  0
ARC
  5
3C9
100
AcDbEntity
  8
L2
100
AcDbCircle
 10
9.185783152129303
 20
116.0443719359641
 30
0.0
 40
0.4
100
AcDbArc
 50
90.0
 51
178.4999999999998
1001
ACAD
1000
ASC_BOUNDS
1002
{
1070
    19
1002
}
  0
LINE
  5
3CA
100
AcDbEntity
  8
L2
100
AcDbLine
 10
9.185783152129303
 20
116.4443719359641
 30
0.0
 11
10.52987388283286
 21
116.4443719359641
 31
0.0
1001
ACAD
1000
ASC_BOUNDS
1002
{
1070
    19
1002
}
  0
ARC
  5
3CB
100
AcDbEntity
  8
L2
100
AcDbCircle
 10
2.829873882832814
 20
116.0443719359641
 30
0.0
 40
0.4
100
AcDbArc
 50
1.499999999999016
 51
90.0
1001
ACAD
1000
ASC_BOUNDS
1002
{
1070
    19
1002
}
  0
LINE
  5
96C
100
AcDbEntity
  8
L2
100
AcDbLine
 10
72.95000000000012
 20
154.9443719359642
 30
0.0
 11
72.54856408162502
 21
108.9443719359641
 31
0.0
  0
LINE
  5
96D
100
AcDbEntity
  8
L1
100
AcDbLine
 10
89.31506720313832
 20
150.9445242437074
 30
0.0
 11
88.91622516933319
 21
105.2417539753146
 31
0.0
  0
LINE
  5
96E
100
AcDbEntity
  8
L1
100
AcDbLine
 10
75.49724099150973
 20
148.9620521395328
 30
0.0
 11
75.42529180160499
 21
105.9443719359641
 31
0.0
  0
LINE
  5
96F
100
AcDbEntity
  8
L1
100
AcDbLine
 10
90.04480921012925
 20
154.3495663315667
 30
0.0
 11
89.62670883448749
 21
106.4400086682149
 31
0.0
  0
POLYLINE
  5
970
100
AcDbEntity
  8
L1
100
AcDb2dPolyline
 66
     1
 10
0.0
 20
0.0
 30
0.0
  0
VERTEX
  5
971
100
AcDbEntity
  8
L1
100
AcDbVertex
100
AcDb2dVertex
 10
88.61623659241388
 20
104.9443719359641
 30
0.0
  0
VERTEX
  5
972
100
AcDbEntity
  8
L1
100
AcDbVertex
100
AcDb2dVertex
 10
88.60986725374642
 20
104.9443719359641
 30
0.0
  0
VERTEX
  5
973
100
AcDbEntity
  8
L1
100
AcDbVertex
100
AcDb2dVertex
 10
88.59079169128836
 20
104.9443719359641
 30
0.0
  0
VERTEX
  5
974
100
AcDbEntity
  8
L1
100
AcDbVertex
100
AcDb2dVertex
 10
88.55910710031276
 20
104.9443719359641
 30
0.0
  0
VERTEX
  5
975
100
AcDbEntity
  8
L1
100
AcDbVertex
100
AcDb2dVertex
 10
88.51497492258443
 20
104.9443719359641
 30
0.0
  0
VERTEX
  5
976
100
AcDbEntity
  8
L1
100
AcDbVertex
100
AcDb2dVertex
 10
88.45862002376987
 20
104.9443719359641
 30
0.0
  0
VERTEX
  5
977
100
AcDbEntity
  8
L1
100
AcDbVertex
100
AcDb2dVertex
 10
88.3903295476839
 20
104.9443719359641
 30
0.0
  0
VERTEX
  5
978
100
AcDbEntity
  8
L1
100
AcDbVertex
100
AcDb2dVertex
 10
88.31045145321274
 20
104.9443719359641
 30
0.0
  0
VERTEX
  5
979
100
AcDbEntity
  8
L1
100
AcDbVertex
100
AcDb2dVertex
 10
88.21939274136719
 20
104.9443719359641
 30
0.0
  0
VERTEX
  5
97A
100
AcDbEntity
  8
L1
100
AcDbVertex
100
AcDb2dVertex
 10
88.11761738149948
 20
104.9443719359641
 30
0.0
  0
VERTEX
  5
97B
100
AcDbEntity
  8
L1
100
AcDbVertex
100
AcDb2dVertex
 10
88.00564394725114
 20
104.9443719359641
 30
0.0
  0
VERTEX
  5
97C
100
AcDbEntity
  8
L1
100
AcDbVertex
100
AcDb2dVertex
 10
87.88404297427673
 20
104.9443719359641
 30
0.0
  0
VERTEX
  5
97D
100
AcDbEntity
  8
L1
100
AcDbVertex
100
AcDb2dVertex
 10
87.75343405320654
 20
104.9443719359641
 30
0.0
  0
VERTEX
  5
97E
100
AcDbEntity
  8
L1
100
AcDbVertex
100
AcDb2dVertex
 10
87.6144826726608
 20
104.9443719359641
 30
0.0
  0
VERTEX
  5
97F
100
AcDbEntity
  8
L1
100
AcDbVertex
100
AcDb2dVertex
 10
87.46789682840107
 20
104.9443719359641
 30
0.0
  0
VERTEX
  5
980
100
AcDbEntity
  8
L1
100
AcDbVertex
100
AcDb2dVertex
 10
87.31442341589559
 20
104.9443719359641
 30
0.0
  0
VERTEX
  5
981
100
AcDbEntity
  8
L1
100
AcDbVertex
100
AcDb2dVertex
 10
87.15484442467982
 20
104.9443719359641
 30
0.0
  0
VERTEX
  5
982
100
AcDbEntity
  8
L1
100
AcDbVertex
100
AcDb2dVertex
 10
86.98997295390382
 20
104.9443719359641
 30
0.0
  0
VERTEX
  5
983
100
AcDbEntity
  8
L1
100
AcDbVertex
100
AcDb2dVertex
 10
86.82064906936643
 20
104.9443719359641
 30
0.0
  0
VERTEX
  5
984
100
AcDbEntity
  8
L1
100
AcDbVertex
100
AcDb2dVertex
 10
86.64773552314745
 20
104.9443719359641
 30
0.0
  0
VERTEX
  5
985
100
AcDbEntity
  8
L1
100
AcDbVertex
100
AcDb2dVertex
 10
86.472113357647
 20
104.9443719359641
 30
0.0
  0
VERTEX
  5
986
100
AcDbEntity
  8
L1
100
AcDbVertex
100
AcDb2dVertex
 10
86.29467741643066
 20
104.9443719359641
 30
0.0
  0
VERTEX
  5
987
100
AcDbEntity
  8
L1
100
AcDbVertex
100
AcDb2dVertex
 10
75.2110233187708
 20
104.9443719359641
 30
0.0
  0
SEQEND
  5
988
100
AcDbEntity
  8
L1
  0
ARC
  5
989
100
AcDbEntity
  8
L1
100
AcDbCircle
 10
88.61623659241388
 20
105.2443719359641
 30
0.0
 40
0.2999999999999959
100
AcDbArc
 50
270.0
 51
359.5000000000019
  0
POLYLINE
  5
98A
100
AcDbEntity
  8
L1
100
AcDb2dPolyline
 66
     1
 10
0.0
 20
0.0
 30
0.0
  0
VERTEX
  5
98B
100
AcDbEntity
  8
L1
100
AcDbVertex
100
AcDb2dVertex
 10
88.92235682338322
 20
105.9443719359641
 30
0.0
  0
VERTEX
  5
98C
100
AcDbEntity
  8
L1
100
AcDbVertex
100
AcDb2dVertex
 10
88.98202918348118
 20
105.9443719359641
 30
0.0
  0
VERTEX
  5
98D
100
AcDbEntity
  8
L1
100
AcDbVertex
100
AcDb2dVertex
 10
89.12672787295537
 20
105.9443719359641
 30
0.0
  0
SEQEND
  5
98E
100
AcDbEntity
  8
L1
  0
POLYLINE
  5
98F
100
AcDbEntity
  8
L1
100
AcDb2dPolyline
 66
     1
 10
0.0
 20
0.0
 30
0.0
  0
VERTEX
  5
990
100
AcDbEntity
  8
L1
100
AcDbVertex
100
AcDb2dVertex
 10
89.12672787295537
 20
105.9443719359641
 30
0.0
  0
VERTEX
  5
991
100
AcDbEntity
  8
L1
100
AcDbVertex
100
AcDb2dVertex
 10
89.21982649261053
 20
105.9531157431092
 30
0.0
  0
SEQEND
  5
992
100
AcDbEntity
  8
L1
  0
POLYLINE
  5
993
100
AcDbEntity
  8
L1
100
AcDb2dPolyline
 66
     1
 10
0.0
 20
0.0
 30
0.0
  0
VERTEX
  5
994
100
AcDbEntity
  8
L1
100
AcDbVertex
100
AcDb2dVertex
 10
89.21982649261053
 20
105.9531157431092
 30
0.0
  0
VERTEX
  5
995
100
AcDbEntity
  8
L1
100
AcDbVertex
100
AcDb2dVertex
 10
89.51039703712524
 20
106.1237507069958
 30
0.0
  0
VERTEX
  5
996
100
AcDbEntity
  8
L1
100
AcDbVertex
100
AcDb2dVertex
 10
89.62670883448749
 20
106.4400086682149
 30
0.0
  0
SEQEND
  5
997
100
AcDbEntity
  8
L1
  0
ARC
  5
998
100
AcDbEntity
  8
L1
100
AcDbCircle
 10
75.2110233187708
 20
105.2443719359641
 30
0.0
 40
0.2999999999999959
100
AcDbArc
 50
180.4999999999994
 51
270.0
  0
LINE
  5
999
100
AcDbEntity
  8
L1
100
AcDbLine
 10
74.91103474185161
 20
105.2417539753146
 30
0.0
 11
74.9049039447649
 21
105.9442737377014
 31
0.0
  0
ELLIPSE
  5
99A
100
AcDbEntity
  8
L1
100
AcDbEllipse
 10
75.21102331877085
 20
105.2443719359641
 30
0.0
 11
0.2999885769192454
 21
0.0026179606495198
 31
0.0
210
0.0
220
0.0
230
-1.0
 40
0.0087262032439414
 41
2.831697374782119
 42
3.141592653596597
  0
LINE
  5
99B
100
AcDbEntity
  8
L1
100
AcDbLine
 10
90.01509385800648
 20
150.9445242437074
 30
0.0
 11
77.49716484343441
 21
150.9445242437075
 31
0.0
  0
LINE
  5
99C
100
AcDbEntity
  8
L1
100
AcDbLine
 10
89.45000000000005
 20
154.9443719359641
 30
0.0
 11
90.04480555661018
 21
154.3495663793539
 31
0.0
  0
LINE
  5
99D
100
AcDbEntity
  8
L1
100
AcDbLine
 10
81.75000000000006
 20
154.9418797985578
 30
0.0
 11
81.75000000000006
 21
154.9443719359641
 31
0.0
  0
ARC
  5
99E
100
AcDbEntity
  8
L1
100
AcDbCircle
 10
77.49712723701254
 20
148.9445615151855
 30
0.0
 40
1.999962728875574
100
AcDbArc
 50
89.99892263529472
 51
179.4989147964571
  0
LINE
  5
99F
100
AcDbEntity
  8
L1
100
AcDbLine
 10
-75.42529180160494
 20
-105.9443719359641
 30
0.0
 11
75.1409488365671
 21
-105.9443719359641
 31
0.0
  0
LINE
  5
9A0
100
AcDbEntity
  8
L1
100
AcDbLine
 10
-89.44999999999993
 20
-154.9443719359641
 30
0.0
 11
89.44999999999991
 21
-154.9443719359641
 31
0.0
  0
LINE
  5
9A1
100
AcDbEntity
  8
L1
100
AcDbLine
 10
90.04480917893463
 20
-154.3495627570294
 30
0.0
 11
-90.04480917893465
 21
-154.3495627570295
 31
0.0
  0
LINE
  5
9A2
100
AcDbEntity
  8
L2
100
AcDbLine
 10
-72.54856408162492
 20
-108.9443719359641
 30
0.0
 11
72.54856408162503
 21
-108.9443719359641
 31
0.0
  0
LINE
  5
9A3
100
AcDbEntity
  8
L2
100
AcDbLine
 10
2.829873882832814
 20
-116.444371935964
 30
0.0
 11
-3.11421684787065
 21
-116.444371935964
 31
0.0
  0
LINE
  5
9A4
100
AcDbEntity
  8
L2
100
AcDbLine
 10
-72.95
 20
-154.9443719359642
 30
0.0
 11
-72.54856408162492
 21
-108.9443719359641
 31
0.0
  0
LINE
  5
9A5
100
AcDbEntity
  8
L1
100
AcDbLine
 10
-89.31506720313819
 20
-150.9445242437074
 30
0.0
 11
-88.91622516933308
 21
-105.2417539753146
 31
0.0
  0
LINE
  5
9A6
100
AcDbEntity
  8
L6
100
AcDbLine
 10
0.0000000000000568
 20
-162.9443719359641
 30
0.0
 11
0.0
 21
-96.94437193596417
 31
0.0
  0
LINE
  5
9A7
100
AcDbEntity
  8
L1
100
AcDbLine
 10
-75.49724099150961
 20
-148.9620521395328
 30
0.0
 11
-75.42529180160489
 21
-105.9443719359641
 31
0.0
  0
LINE
  5
9A8
100
AcDbEntity
  8
L1
100
AcDbLine
 10
-90.04480921012913
 20
-154.3495663315667
 30
0.0
 11
-89.62670883448737
 21
-106.4400086682149
 31
0.0
  0
POLYLINE
  5
9A9
100
AcDbEntity
  8
L1
100
AcDb2dPolyline
 66
     1
 10
0.0
 20
0.0
 30
0.0
  0
VERTEX
  5
9AA
100
AcDbEntity
  8
L1
100
AcDbVertex
100
AcDb2dVertex
 10
-88.61623659241377
 20
-104.9443719359641
 30
0.0
  0
VERTEX
  5
9AB
100
AcDbEntity
  8
L1
100
AcDbVertex
100
AcDb2dVertex
 10
-88.6098672537463
 20
-104.9443719359641
 30
0.0
  0
VERTEX
  5
9AC
100
AcDbEntity
  8
L1
100
AcDbVertex
100
AcDb2dVertex
 10
-88.59079169128824
 20
-104.9443719359641
 30
0.0
  0
VERTEX
  5
9AD
100
AcDbEntity
  8
L1
100
AcDbVertex
100
AcDb2dVertex
 10
-88.55910710031265
 20
-104.9443719359641
 30
0.0
  0
VERTEX
  5
9AE
100
AcDbEntity
  8
L1
100
AcDbVertex
100
AcDb2dVertex
 10
-88.51497492258431
 20
-104.9443719359641
 30
0.0
  0
VERTEX
  5
9AF
100
AcDbEntity
  8
L1
100
AcDbVertex
100
AcDb2dVertex
 10
-88.45862002376975
 20
-104.9443719359641
 30
0.0
  0
VERTEX
  5
9B0
100
AcDbEntity
  8
L1
100
AcDbVertex
100
AcDb2dVertex
 10
-88.39032954768379
 20
-104.9443719359641
 30
0.0
  0
VERTEX
  5
9B1
100
AcDbEntity
  8
L1
100
AcDbVertex
100
AcDb2dVertex
 10
-88.31045145321263
 20
-104.9443719359641
 30
0.0
  0
VERTEX
  5
9B2
100
AcDbEntity
  8
L1
100
AcDbVertex
100
AcDb2dVertex
 10
-88.21939274136708
 20
-104.9443719359641
 30
0.0
  0
VERTEX
  5
9B3
100
AcDbEntity
  8
L1
100
AcDbVertex
100
AcDb2dVertex
 10
-88.11761738149938
 20
-104.9443719359641
 30
0.0
  0
VERTEX
  5
9B4
100
AcDbEntity
  8
L1
100
AcDbVertex
100
AcDb2dVertex
 10
-88.00564394725103
 20
-104.9443719359641
 30
0.0
  0
VERTEX
  5
9B5
100
AcDbEntity
  8
L1
100
AcDbVertex
100
AcDb2dVertex
 10
-87.88404297427661
 20
-104.9443719359641
 30
0.0
  0
VERTEX
  5
9B6
100
AcDbEntity
  8
L1
100
AcDbVertex
100
AcDb2dVertex
 10
-87.75343405320644
 20
-104.9443719359641
 30
0.0
  0
VERTEX
  5
9B7
100
AcDbEntity
  8
L1
100
AcDbVertex
100
AcDb2dVertex
 10
-87.6144826726607
 20
-104.9443719359641
 30
0.0
  0
VERTEX
  5
9B8
100
AcDbEntity
  8
L1
100
AcDbVertex
100
AcDb2dVertex
 10
-87.46789682840097
 20
-104.9443719359641
 30
0.0
  0
VERTEX
  5
9B9
100
AcDbEntity
  8
L1
100
AcDbVertex
100
AcDb2dVertex
 10
-87.31442341589547
 20
-104.9443719359641
 30
0.0
  0
VERTEX
  5
9BA
100
AcDbEntity
  8
L1
100
AcDbVertex
100
AcDb2dVertex
 10
-87.15484442467971
 20
-104.9443719359641
 30
0.0
  0
VERTEX
  5
9BB
100
AcDbEntity
  8
L1
100
AcDbVertex
100
AcDb2dVertex
 10
-86.9899729539037
 20
-104.9443719359641
 30
0.0
  0
VERTEX
  5
9BC
100
AcDbEntity
  8
L1
100
AcDbVertex
100
AcDb2dVertex
 10
-86.82064906936631
 20
-104.9443719359641
 30
0.0
  0
VERTEX
  5
9BD
100
AcDbEntity
  8
L1
100
AcDbVertex
100
AcDb2dVertex
 10
-86.64773552314732
 20
-104.9443719359641
 30
0.0
  0
VERTEX
  5
9BE
100
AcDbEntity
  8
L1
100
AcDbVertex
100
AcDb2dVertex
 10
-86.47211335764689
 20
-104.9443719359641
 30
0.0
  0
VERTEX
  5
9BF
100
AcDbEntity
  8
L1
100
AcDbVertex
100
AcDb2dVertex
 10
-86.29467741643054
 20
-104.9443719359641
 30
0.0
  0
VERTEX
  5
9C0
100
AcDbEntity
  8
L1
100
AcDbVertex
100
AcDb2dVertex
 10
-75.21102331877068
 20
-104.9443719359641
 30
0.0
  0
SEQEND
  5
9C1
100
AcDbEntity
  8
L1
  0
ARC
  5
9C2
100
AcDbEntity
  8
L1
100
AcDbCircle
 10
-88.61623659241377
 20
-105.2443719359641
 30
0.0
 40
0.2999999999999959
100
AcDbArc
 50
90.0
 51
179.5000000000019
  0
POLYLINE
  5
9C3
100
AcDbEntity
  8
L1
100
AcDb2dPolyline
 66
     1
 10
0.0
 20
0.0
 30
0.0
  0
VERTEX
  5
9C4
100
AcDbEntity
  8
L1
100
AcDbVertex
100
AcDb2dVertex
 10
-88.92235682338309
 20
-105.9443719359641
 30
0.0
  0
VERTEX
  5
9C5
100
AcDbEntity
  8
L1
100
AcDbVertex
100
AcDb2dVertex
 10
-88.98202918348108
 20
-105.9443719359641
 30
0.0
  0
VERTEX
  5
9C6
100
AcDbEntity
  8
L1
100
AcDbVertex
100
AcDb2dVertex
 10
-89.12672787295525
 20
-105.9443719359641
 30
0.0
  0
SEQEND
  5
9C7
100
AcDbEntity
  8
L1
  0
POLYLINE
  5
9C8
100
AcDbEntity
  8
L1
100
AcDb2dPolyline
 66
     1
 10
0.0
 20
0.0
 30
0.0
  0
VERTEX
  5
9C9
100
AcDbEntity
  8
L1
100
AcDbVertex
100
AcDb2dVertex
 10
-89.12672787295525
 20
-105.9443719359641
 30
0.0
  0
VERTEX
  5
9CA
100
AcDbEntity
  8
L1
100
AcDbVertex
100
AcDb2dVertex
 10
-89.21982649261043
 20
-105.9531157431092
 30
0.0
  0
SEQEND
  5
9CB
100
AcDbEntity
  8
L1
  0
POLYLINE
  5
9CC
100
AcDbEntity
  8
L1
100
AcDb2dPolyline
 66
     1
 10
0.0
 20
0.0
 30
0.0
  0
VERTEX
  5
9CD
100
AcDbEntity
  8
L1
100
AcDbVertex
100
AcDb2dVertex
 10
-89.21982649261043
 20
-105.9531157431092
 30
0.0
  0
VERTEX
  5
9CE
100
AcDbEntity
  8
L1
100
AcDbVertex
100
AcDb2dVertex
 10
-89.51039703712513
 20
-106.1237507069958
 30
0.0
  0
VERTEX
  5
9CF
100
AcDbEntity
  8
L1
100
AcDbVertex
100
AcDb2dVertex
 10
-89.62670883448737
 20
-106.4400086682149
 30
0.0
  0
SEQEND
  5
9D0
100
AcDbEntity
  8
L1
  0
ARC
  5
9D1
100
AcDbEntity
  8
L1
100
AcDbCircle
 10
-75.21102331877068
 20
-105.2443719359641
 30
0.0
 40
0.2999999999999959
100
AcDbArc
 50
0.4999999999994092
 51
90.0
  0
LINE
  5
9D2
100
AcDbEntity
  8
L1
100
AcDbLine
 10
-74.91103474185149
 20
-105.2417539753146
 30
0.0
 11
-74.90490394476478
 21
-105.9442737377014
 31
0.0
  0
ELLIPSE
  5
9D3
100
AcDbEntity
  8
L1
100
AcDbEllipse
 10
-75.21102331877074
 20
-105.2443719359641
 30
0.0
 11
-0.2999885769192454
 21
-0.0026179606495198
 31
0.0
210
0.0
220
0.0
230
-1.0
 40
0.0087262032439414
 41
2.831697374782119
 42
3.141592653596597
  0
LINE
  5
9D4
100
AcDbEntity
  8
L2
100
AcDbLine
 10
-8.884068957029583
 20
-108.944371935964
 30
0.0
 11
-9.07026318717699
 21
-116.0548427152871
 31
0.0
  0
LINE
  5
9D5
100
AcDbEntity
  8
L2
100
AcDbLine
 10
-3.514079777860914
 20
-116.0548427152871
 30
0.0
 11
-3.700333914299974
 21
-108.9420842069808
 31
0.0
  0
LINE
  5
9D6
100
AcDbEntity
  8
L2
100
AcDbLine
 10
-11.21407977786084
 20
-116.0548427152871
 30
0.0
 11
-11.40027400800825
 21
-108.944371935964
 31
0.0
  0
LINE
  5
9D7
100
AcDbEntity
  8
L2
100
AcDbLine
 10
-9.470126117167254
 20
-116.444371935964
 30
0.0
 11
-10.81421684787058
 21
-116.444371935964
 31
0.0
  0
ARC
  5
9D8
100
AcDbEntity
  8
L2
100
AcDbCircle
 10
-9.470126117167254
 20
-116.044371935964
 30
0.0
 40
0.4
100
AcDbArc
 50
270.0
 51
358.4999999999999
  0
ARC
  5
9D9
100
AcDbEntity
  8
L2
100
AcDbCircle
 10
-10.81421684787058
 20
-116.044371935964
 30
0.0
 40
0.4
100
AcDbArc
 50
181.4999999999979
 51
270.0
  0
ARC
  5
9DA
100
AcDbEntity
  8
L2
100
AcDbCircle
 10
-3.11421684787065
 20
-116.044371935964
 30
0.0
 40
0.4
100
AcDbArc
 50
181.4999999999979
 51
270.0
  0
LINE
  5
9DB
100
AcDbEntity
  8
L1
100
AcDbLine
 10
-90.01509385800636
 20
-150.9445242437074
 30
0.0
 11
-77.49716484343429
 21
-150.9445242437075
 31
0.0
  0
LINE
  5
9DC
100
AcDbEntity
  8
L1
100
AcDbLine
 10
-89.44999999999993
 20
-154.9443719359641
 30
0.0
 11
-90.04480555661007
 21
-154.3495663793539
 31
0.0
  0
LINE
  5
9DD
100
AcDbEntity
  8
L1
100
AcDbLine
 10
-81.74999999999995
 20
-154.9418797985578
 30
0.0
 11
-81.74999999999995
 21
-154.9443719359641
 31
0.0
  0
ARC
  5
9DE
100
AcDbEntity
  8
L1
100
AcDbCircle
 10
-77.49712723701242
 20
-148.9445615151855
 30
0.0
 40
1.999962728875574
100
AcDbArc
 50
269.9989226352947
 51
359.498914796457
  0
LINE
  5
9DF
100
AcDbEntity
  8
L1
100
AcDbLine
 10
90.04480921012925
 20
-154.3495663315667
 30
0.0
 11
89.62670883448749
 21
-106.4400086682149
 31
0.0
  0
LINE
  5
9E0
100
AcDbEntity
  8
L1
100
AcDbLine
 10
75.49724099150973
 20
-148.9620521395328
 30
0.0
 11
75.42529180160499
 21
-105.9443719359641
 31
0.0
  0
LINE
  5
9E1
100
AcDbEntity
  8
L1
100
AcDbLine
 10
89.31506720313832
 20
-150.9445242437074
 30
0.0
 11
88.91622516933319
 21
-105.2417539753146
 31
0.0
  0
LINE
  5
9E2
100
AcDbEntity
  8
L2
100
AcDbLine
 10
72.95000000000012
 20
-154.9443719359642
 30
0.0
 11
72.54856408162503
 21
-108.9443719359641
 31
0.0
  0
LINE
  5
9E3
100
AcDbEntity
  8
L2
100
AcDbLine
 10
3.229736812822963
 20
-116.0548427152872
 30
0.0
 11
3.41593104297037
 21
-108.9443719359641
 31
0.0
1001
ACAD
1000
ASC_BOUNDS
1002
{
1070
    19
1002
}
  0
LINE
  5
9E4
100
AcDbEntity
  8
L2
100
AcDbLine
 10
10.92973681282323
 20
-116.0548427152872
 30
0.0
 11
11.11593104297053
 21
-108.9443719359641
 31
0.0
1001
ACAD
1000
ASC_BOUNDS
1002
{
1070
    19
1002
}
  0
LINE
  5
9E5
100
AcDbEntity
  8
L2
100
AcDbLine
 10
8.59972599199186
 20
-108.9443719359641
 30
0.0
 11
8.785920222139154
 21
-116.0548427152872
 31
0.0
1001
ACAD
1000
ASC_BOUNDS
1002
{
1070
    19
1002
}
  0
ARC
  5
9E6
100
AcDbEntity
  8
L2
100
AcDbCircle
 10
10.52987388283286
 20
-116.0443719359641
 30
0.0
 40
0.4
100
AcDbArc
 50
270.0
 51
358.5000000000009
1001
ACAD
1000
ASC_BOUNDS
1002
{
1070
    19
1002
}
  0
ARC
  5
9E7
100
AcDbEntity
  8
L2
100
AcDbCircle
 10
2.829873882832814
 20
-116.0443719359641
 30
0.0
 40
0.4
100
AcDbArc
 50
270.0
 51
358.500000000001
1001
ACAD
1000
ASC_BOUNDS
1002
{
1070
    19
1002
}
  0
LINE
  5
9E8
100
AcDbEntity
  8
L2
100
AcDbLine
 10
9.185783152129303
 20
-116.4443719359641
 30
0.0
 11
10.52987388283286
 21
-116.4443719359641
 31
0.0
1001
ACAD
1000
ASC_BOUNDS
1002
{
1070
    19
1002
}
  0
ARC
  5
9E9
100
AcDbEntity
  8
L2
100
AcDbCircle
 10
9.185783152129303
 20
-116.0443719359641
 30
0.0
 40
0.4
100
AcDbArc
 50
181.5000000000001
 51
270.0
1001
ACAD
1000
ASC_BOUNDS
1002
{
1070
    19
1002
}
  0
POLYLINE
  5
9EA
100
AcDbEntity
  8
L1
100
AcDb2dPolyline
 66
     1
 10
0.0
 20
0.0
 30
0.0
  0
VERTEX
  5
9EB
100
AcDbEntity
  8
L1
100
AcDbVertex
100
AcDb2dVertex
 10
88.61623659241388
 20
-104.9443719359641
 30
0.0
  0
VERTEX
  5
9EC
100
AcDbEntity
  8
L1
100
AcDbVertex
100
AcDb2dVertex
 10
88.60986725374642
 20
-104.9443719359641
 30
0.0
  0
VERTEX
  5
9ED
100
AcDbEntity
  8
L1
100
AcDbVertex
100
AcDb2dVertex
 10
88.59079169128836
 20
-104.9443719359641
 30
0.0
  0
VERTEX
  5
9EE
100
AcDbEntity
  8
L1
100
AcDbVertex
100
AcDb2dVertex
 10
88.55910710031276
 20
-104.9443719359641
 30
0.0
  0
VERTEX
  5
9EF
100
AcDbEntity
  8
L1
100
AcDbVertex
100
AcDb2dVertex
 10
88.51497492258443
 20
-104.9443719359641
 30
0.0
  0
VERTEX
  5
9F0
100
AcDbEntity
  8
L1
100
AcDbVertex
100
AcDb2dVertex
 10
88.45862002376987
 20
-104.9443719359641
 30
0.0
  0
VERTEX
  5
9F1
100
AcDbEntity
  8
L1
100
AcDbVertex
100
AcDb2dVertex
 10
88.3903295476839
 20
-104.9443719359641
 30
0.0
  0
VERTEX
  5
9F2
100
AcDbEntity
  8
L1
100
AcDbVertex
100
AcDb2dVertex
 10
88.31045145321274
 20
-104.9443719359641
 30
0.0
  0
VERTEX
  5
9F3
100
AcDbEntity
  8
L1
100
AcDbVertex
100
AcDb2dVertex
 10
88.21939274136719
 20
-104.9443719359641
 30
0.0
  0
VERTEX
  5
9F4
100
AcDbEntity
  8
L1
100
AcDbVertex
100
AcDb2dVertex
 10
88.11761738149948
 20
-104.9443719359641
 30
0.0
  0
VERTEX
  5
9F5
100
AcDbEntity
  8
L1
100
AcDbVertex
100
AcDb2dVertex
 10
88.00564394725114
 20
-104.9443719359641
 30
0.0
  0
VERTEX
  5
9F6
100
AcDbEntity
  8
L1
100
AcDbVertex
100
AcDb2dVertex
 10
87.88404297427673
 20
-104.9443719359641
 30
0.0
  0
VERTEX
  5
9F7
100
AcDbEntity
  8
L1
100
AcDbVertex
100
AcDb2dVertex
 10
87.75343405320654
 20
-104.9443719359641
 30
0.0
  0
VERTEX
  5
9F8
100
AcDbEntity
  8
L1
100
AcDbVertex
100
AcDb2dVertex
 10
87.6144826726608
 20
-104.9443719359641
 30
0.0
  0
VERTEX
  5
9F9
100
AcDbEntity
  8
L1
100
AcDbVertex
100
AcDb2dVertex
 10
87.46789682840107
 20
-104.9443719359641
 30
0.0
  0
VERTEX
  5
9FA
100
AcDbEntity
  8
L1
100
AcDbVertex
100
AcDb2dVertex
 10
87.31442341589559
 20
-104.9443719359641
 30
0.0
  0
VERTEX
  5
9FB
100
AcDbEntity
  8
L1
100
AcDbVertex
100
AcDb2dVertex
 10
87.15484442467982
 20
-104.9443719359641
 30
0.0
  0
VERTEX
  5
9FC
100
AcDbEntity
  8
L1
100
AcDbVertex
100
AcDb2dVertex
 10
86.98997295390382
 20
-104.9443719359641
 30
0.0
  0
VERTEX
  5
9FD
100
AcDbEntity
  8
L1
100
AcDbVertex
100
AcDb2dVertex
 10
86.82064906936643
 20
-104.9443719359641
 30
0.0
  0
VERTEX
  5
9FE
100
AcDbEntity
  8
L1
100
AcDbVertex
100
AcDb2dVertex
 10
86.64773552314745
 20
-104.9443719359641
 30
0.0
  0
VERTEX
  5
9FF
100
AcDbEntity
  8
L1
100
AcDbVertex
100
AcDb2dVertex
 10
86.472113357647
 20
-104.9443719359641
 30
0.0
  0
VERTEX
  5
A00
100
AcDbEntity
  8
L1
100
AcDbVertex
100
AcDb2dVertex
 10
86.29467741643066
 20
-104.9443719359641
 30
0.0
  0
VERTEX
  5
A01
100
AcDbEntity
  8
L1
100
AcDbVertex
100
AcDb2dVertex
 10
75.2110233187708
 20
-104.9443719359641
 30
0.0
  0
SEQEND
  5
A02
100
AcDbEntity
  8
L1
  0
ELLIPSE
  5
A03
100
AcDbEntity
  8
L1
100
AcDbEllipse
 10
75.21102331877085
 20
-105.2443719359641
 30
0.0
 11
0.2999885769192454
 21
-0.0026179606495198
 31
0.0
210
0.0
220
0.0
230
1.0
 40
0.0087262032439414
 41
2.831697374782119
 42
3.141592653596597
  0
LINE
  5
A04
100
AcDbEntity
  8
L1
100
AcDbLine
 10
74.91103474185161
 20
-105.2417539753146
 30
0.0
 11
74.9049039447649
 21
-105.9442737377014
 31
0.0
  0
ARC
  5
A05
100
AcDbEntity
  8
L1
100
AcDbCircle
 10
75.2110233187708
 20
-105.2443719359641
 30
0.0
 40
0.2999999999999959
100
AcDbArc
 50
90.0
 51
179.5000000000005
  0
POLYLINE
  5
A06
100
AcDbEntity
  8
L1
100
AcDb2dPolyline
 66
     1
 10
0.0
 20
0.0
 30
0.0
  0
VERTEX
  5
A07
100
AcDbEntity
  8
L1
100
AcDbVertex
100
AcDb2dVertex
 10
89.21982649261053
 20
-105.9531157431092
 30
0.0
  0
VERTEX
  5
A08
100
AcDbEntity
  8
L1
100
AcDbVertex
100
AcDb2dVertex
 10
89.51039703712524
 20
-106.1237507069958
 30
0.0
  0
VERTEX
  5
A09
100
AcDbEntity
  8
L1
100
AcDbVertex
100
AcDb2dVertex
 10
89.62670883448749
 20
-106.4400086682149
 30
0.0
  0
SEQEND
  5
A0A
100
AcDbEntity
  8
L1
  0
POLYLINE
  5
A0B
100
AcDbEntity
  8
L1
100
AcDb2dPolyline
 66
     1
 10
0.0
 20
0.0
 30
0.0
  0
VERTEX
  5
A0C
100
AcDbEntity
  8
L1
100
AcDbVertex
100
AcDb2dVertex
 10
89.12672787295537
 20
-105.9443719359641
 30
0.0
  0
VERTEX
  5
A0D
100
AcDbEntity
  8
L1
100
AcDbVertex
100
AcDb2dVertex
 10
89.21982649261053
 20
-105.9531157431092
 30
0.0
  0
SEQEND
  5
A0E
100
AcDbEntity
  8
L1
  0
POLYLINE
  5
A0F
100
AcDbEntity
  8
L1
100
AcDb2dPolyline
 66
     1
 10
0.0
 20
0.0
 30
0.0
  0
VERTEX
  5
A10
100
AcDbEntity
  8
L1
100
AcDbVertex
100
AcDb2dVertex
 10
88.92235682338322
 20
-105.9443719359641
 30
0.0
  0
VERTEX
  5
A11
100
AcDbEntity
  8
L1
100
AcDbVertex
100
AcDb2dVertex
 10
88.98202918348118
 20
-105.9443719359641
 30
0.0
  0
VERTEX
  5
A12
100
AcDbEntity
  8
L1
100
AcDbVertex
100
AcDb2dVertex
 10
89.12672787295537
 20
-105.9443719359641
 30
0.0
  0
SEQEND
  5
A13
100
AcDbEntity
  8
L1
  0
ARC
  5
A14
100
AcDbEntity
  8
L1
100
AcDbCircle
 10
88.61623659241388
 20
-105.2443719359641
 30
0.0
 40
0.2999999999999959
100
AcDbArc
 50
0.4999999999980861
 51
90.0
  0
LINE
  5
A15
100
AcDbEntity
  8
L1
100
AcDbLine
 10
90.01509385800648
 20
-150.9445242437074
 30
0.0
 11
77.49716484343441
 21
-150.9445242437075
 31
0.0
  0
ARC
  5
A16
100
AcDbEntity
  8
L1
100
AcDbCircle
 10
77.49712723701254
 20
-148.9445615151855
 30
0.0
 40
1.999962728875574
100
AcDbArc
 50
180.5010852035428
 51
270.0010773647052
  0
LINE
  5
A17
100
AcDbEntity
  8
L1
100
AcDbLine
 10
81.75000000000006
 20
-154.9418797985578
 30
0.0
 11
81.75000000000006
 21
-154.9443719359641
 31
0.0
  0
LINE
  5
A18
100
AcDbEntity
  8
L1
100
AcDbLine
 10
89.45000000000005
 20
-154.9443719359641
 30
0.0
 11
90.04480555661018
 21
-154.3495663793539
 31
0.0
  0
LINE
  5
A1B
100
AcDbEntity
  8
L2
100
AcDbLine
 10
-136.8467023940268
 20
47.54856408162508
 30
0.0
 11
-182.8467023940268
 21
47.54856408162507
 31
0.0
  0
LINE
  5
A1D
100
AcDbEntity
  8
L2
100
AcDbLine
 10
-144.3467023940267
 20
-2.829873882832799
 30
0.0
 11
-144.3467023940267
 21
3.114216847870665
 31
0.0
  0
LINE
  5
A21
100
AcDbEntity
  8
L2
100
AcDbLine
 10
-143.9571731733498
 20
11.21407977786086
 30
0.0
 11
-136.8467023940267
 21
11.40027400800826
 31
0.0
  0
LINE
  5
A22
100
AcDbEntity
  8
L2
100
AcDbLine
 10
-143.9571731733498
 20
3.514079777860928
 30
0.0
 11
-136.8444146650435
 21
3.700333914299989
 31
0.0
  0
LINE
  5
A23
100
AcDbEntity
  8
L2
100
AcDbLine
 10
-136.8467023940267
 20
8.884068957029597
 30
0.0
 11
-143.9571731733498
 21
9.070263187177005
 31
0.0
  0
ARC
  5
A24
100
AcDbEntity
  8
L2
100
AcDbCircle
 10
-143.9467023940267
 20
10.81421684787059
 30
0.0
 40
0.4
100
AcDbArc
 50
91.49999999999796
 51
180.0
  0
ARC
  5
A25
100
AcDbEntity
  8
L2
100
AcDbCircle
 10
-143.9467023940267
 20
9.470126117167268
 30
0.0
 40
0.4
100
AcDbArc
 50
180.0
 51
268.5
  0
LINE
  5
A26
100
AcDbEntity
  8
L2
100
AcDbLine
 10
-144.3467023940267
 20
9.470126117167268
 30
0.0
 11
-144.3467023940267
 21
10.81421684787059
 31
0.0
  0
ARC
  5
A27
100
AcDbEntity
  8
L2
100
AcDbCircle
 10
-143.9467023940267
 20
3.114216847870665
 30
0.0
 40
0.4
100
AcDbArc
 50
91.49999999999796
 51
180.0
  0
LINE
  5
A28
100
AcDbEntity
  8
L2
100
AcDbLine
 10
-136.8467023940268
 20
-8.599725991991846
 30
0.0
 11
-143.9571731733499
 21
-8.785920222139139
 31
0.0
1001
ACAD
1000
ASC_BOUNDS
1002
{
1070
    19
1002
}
  0
LINE
  5
A29
100
AcDbEntity
  8
L2
100
AcDbLine
 10
-143.9571731733499
 20
-10.92973681282322
 30
0.0
 11
-136.8467023940268
 21
-11.11593104297051
 31
0.0
1001
ACAD
1000
ASC_BOUNDS
1002
{
1070
    19
1002
}
  0
LINE
  5
A2A
100
AcDbEntity
  8
L2
100
AcDbLine
 10
-143.9571731733499
 20
-3.229736812822949
 30
0.0
 11
-136.8467023940268
 21
-3.415931042970356
 31
0.0
1001
ACAD
1000
ASC_BOUNDS
1002
{
1070
    19
1002
}
  0
ARC
  5
A2B
100
AcDbEntity
  8
L2
100
AcDbCircle
 10
-143.9467023940268
 20
-10.52987388283284
 30
0.0
 40
0.4
100
AcDbArc
 50
180.0
 51
268.5000000000008
1001
ACAD
1000
ASC_BOUNDS
1002
{
1070
    19
1002
}
  0
ARC
  5
A2C
100
AcDbEntity
  8
L2
100
AcDbCircle
 10
-143.9467023940268
 20
-9.185783152129289
 30
0.0
 40
0.4
100
AcDbArc
 50
91.50000000000014
 51
180.0
1001
ACAD
1000
ASC_BOUNDS
1002
{
1070
    19
1002
}
  0
LINE
  5
A2D
100
AcDbEntity
  8
L2
100
AcDbLine
 10
-144.3467023940268
 20
-9.185783152129289
 30
0.0
 11
-144.3467023940268
 21
-10.52987388283284
 31
0.0
1001
ACAD
1000
ASC_BOUNDS
1002
{
1070
    19
1002
}
  0
ARC
  5
A2E
100
AcDbEntity
  8
L2
100
AcDbCircle
 10
-143.9467023940268
 20
-2.829873882832799
 30
0.0
 40
0.4
100
AcDbArc
 50
180.0
 51
268.500000000001
1001
ACAD
1000
ASC_BOUNDS
1002
{
1070
    19
1002
}
  0
LINE
  5
AF0
100
AcDbEntity
  8
L2
100
AcDbLine
 10
-136.8467023940268
 20
-47.54856408162507
 30
0.0
 11
-182.8467023940268
 21
-47.54856408162507
 31
0.0
  0
LINE
  5
AF1
100
AcDbEntity
  8
L6
100
AcDbLine
 10
124.8467023940267
 20
0.0
 30
0.0
 11
190.8467023940268
 21
0.0
 31
0.0
  0
LINE
  5
AF2
100
AcDbEntity
  8
L1
100
AcDbLine
 10
133.8467023940268
 20
-50.14094883658913
 30
0.0
 11
133.8467023940268
 21
50.14094883658913
 31
0.0
  0
LINE
  5
AF3
100
AcDbEntity
  8
L1
100
AcDbLine
 10
182.251893215092
 20
65.04480917895517
 30
0.0
 11
182.251893215092
 21
-65.04480917891425
 31
0.0
  0
LINE
  5
AF4
100
AcDbEntity
  8
L1
100
AcDbLine
 10
182.8467023940268
 20
-64.4499999999795
 30
0.0
 11
182.8467023940268
 21
64.4500000000205
 31
0.0
  0
LINE
  5
AF5
100
AcDbEntity
  8
L2
100
AcDbLine
 10
136.8467023940268
 20
-47.54856408162507
 30
0.0
 11
136.8467023940268
 21
47.54856408162508
 31
0.0
  0
LINE
  5
AF6
100
AcDbEntity
  8
L2
100
AcDbLine
 10
136.8467023940268
 20
-47.54856408162507
 30
0.0
 11
182.8467023940268
 21
-47.54856408162507
 31
0.0
  0
LINE
  5
AF7
100
AcDbEntity
  8
L1
100
AcDbLine
 10
176.8643825975955
 20
-50.49724099148654
 30
0.0
 11
134.3423391262777
 21
-50.12615673991948
 31
0.0
  0
LINE
  5
AF8
100
AcDbEntity
  8
L1
100
AcDbLine
 10
134.3423391262775
 20
-64.62670883446697
 30
0.0
 11
176.8643825975962
 21
-64.99779308603405
 31
0.0
  0
LINE
  5
AF9
100
AcDbEntity
  8
L1
100
AcDbLine
 10
178.5494726624197
 20
-64.31247198937601
 30
0.0
 11
133.1440844333772
 21
-63.91622516931275
 31
0.0
  0
LINE
  5
AFA
100
AcDbEntity
  8
L1
100
AcDbLine
 10
178.8468547017701
 20
-61.51522712726145
 30
0.0
 11
178.8468547017701
 21
-52.49716484341388
 31
0.0
  0
ARC
  5
AFB
100
AcDbEntity
  8
L1
100
AcDbCircle
 10
182.5467023940269
 20
-61.14739336315796
 30
0.0
 40
0.3
100
AcDbArc
 50
0.0
 51
0.7046525828779214
  0
POLYLINE
  5
AFC
100
AcDbEntity
  8
L1
100
AcDb2dPolyline
 66
     1
 10
0.0
 20
0.0
 30
0.0
  0
VERTEX
  5
AFD
100
AcDbEntity
  8
L1
100
AcDbVertex
100
AcDb2dVertex
 10
178.8468547017701
 20
-65.01509385798607
 30
0.0
  0
VERTEX
  5
AFE
100
AcDbEntity
  8
L1
100
AcDbVertex
100
AcDb2dVertex
 10
178.8468547017701
 20
-64.7486875767411
 30
0.0
  0
VERTEX
  5
AFF
100
AcDbEntity
  8
L1
100
AcDbVertex
100
AcDb2dVertex
 10
178.8468547017701
 20
-63.99002279259409
 30
0.0
  0
VERTEX
  5
B00
100
AcDbEntity
  8
L1
100
AcDbVertex
100
AcDb2dVertex
 10
178.8468547017701
 20
-62.85458828726501
 30
0.0
  0
VERTEX
  5
B01
100
AcDbEntity
  8
L1
100
AcDbVertex
100
AcDb2dVertex
 10
178.8468547017701
 20
-61.51522712726145
 30
0.0
  0
SEQEND
  5
B02
100
AcDbEntity
  8
L1
  0
ARC
  5
B03
100
AcDbEntity
  8
L1
100
AcDbCircle
 10
178.5468547017702
 20
-64.61246056629519
 30
0.0
 40
0.2999999999999994
100
AcDbArc
 50
359.9999999999945
 51
89.49999999999805
  0
LINE
  5
B04
100
AcDbEntity
  8
L1
100
AcDbLine
 10
178.8468547017701
 20
-65.01509385798598
 30
0.0
 11
176.8643825975955
 21
-64.99779308603399
 31
0.0
  0
LINE
  5
B05
100
AcDbEntity
  8
L1
100
AcDbLine
 10
182.8467023940268
 20
-64.4499999999795
 30
0.0
 11
182.2518968374166
 21
-65.04480555658972
 31
0.0
  0
POLYLINE
  5
B06
100
AcDbEntity
  8
L1
100
AcDb2dPolyline
 66
     1
 10
0.0
 20
0.0
 30
0.0
  0
VERTEX
  5
B07
100
AcDbEntity
  8
L1
100
AcDbVertex
100
AcDb2dVertex
 10
182.2518968374166
 20
-65.04480555658969
 30
0.0
  0
VERTEX
  5
B08
100
AcDbEntity
  8
L1
100
AcDbVertex
100
AcDb2dVertex
 10
182.2518941206734
 20
-65.04480827333299
 30
0.0
  0
VERTEX
  5
B09
100
AcDbEntity
  8
L1
100
AcDbVertex
100
AcDb2dVertex
 10
182.251893215092
 20
-65.04480917891425
 30
0.0
  0
SEQEND
  5
B0A
100
AcDbEntity
  8
L1
  0
POLYLINE
  5
B0B
100
AcDbEntity
  8
L1
100
AcDb2dPolyline
 66
     1
 10
0.0
 20
0.0
 30
0.0
  0
VERTEX
  5
B0C
100
AcDbEntity
  8
L1
100
AcDbVertex
100
AcDb2dVertex
 10
182.251893215092
 20
-61.54494244818966
 30
0.0
  0
VERTEX
  5
B0D
100
AcDbEntity
  8
L1
100
AcDbVertex
100
AcDb2dVertex
 10
182.2518941206734
 20
-61.54747121691122
 30
0.0
  0
VERTEX
  5
B0E
100
AcDbEntity
  8
L1
100
AcDbVertex
100
AcDb2dVertex
 10
182.2518968374166
 20
-61.54999999997952
 30
0.0
  0
SEQEND
  5
B0F
100
AcDbEntity
  8
L1
  0
LINE
  5
B10
100
AcDbEntity
  8
L1
100
AcDbLine
 10
182.8467023940268
 20
-61.62721114180556
 30
0.0
 11
182.846622520153
 21
-61.62721183885429
 31
0.0
  0
LINE
  5
B11
100
AcDbEntity
  8
L1
100
AcDbLine
 10
182.251893215092
 20
-65.04480917891425
 30
0.0
 11
178.8468547017701
 21
-65.01509385798605
 31
0.0
  0
POLYLINE
  5
B12
100
AcDbEntity
  8
L1
100
AcDb2dPolyline
 66
     1
 10
0.0
 20
0.0
 30
0.0
  0
VERTEX
  5
B13
100
AcDbEntity
  8
L1
100
AcDbVertex
100
AcDb2dVertex
 10
182.8467023940268
 20
-50.31385840389077
 30
0.0
  0
VERTEX
  5
B14
100
AcDbEntity
  8
L1
100
AcDbVertex
100
AcDb2dVertex
 10
182.8465083357783
 20
-50.31386252547244
 30
0.0
  0
SEQEND
  5
B15
100
AcDbEntity
  8
L1
  0
LINE
  5
B16
100
AcDbEntity
  8
L1
100
AcDbLine
 10
182.8467023940268
 20
-51.64999999997951
 30
0.0
 11
182.845884652603
 21
-51.65000713630082
 31
0.0
  0
POLYLINE
  5
B17
100
AcDbEntity
  8
L1
100
AcDb2dPolyline
 66
     1
 10
0.0
 20
0.0
 30
0.0
  0
VERTEX
  5
B18
100
AcDbEntity
  8
L1
100
AcDbVertex
100
AcDb2dVertex
 10
182.8467023940268
 20
-50.31385840389077
 30
0.0
  0
VERTEX
  5
B19
100
AcDbEntity
  8
L1
100
AcDbVertex
100
AcDb2dVertex
 10
182.8461292125585
 20
-50.31387057761299
 30
0.0
  0
SEQEND
  5
B1A
100
AcDbEntity
  8
L1
  0
ELLIPSE
  5
B1B
100
AcDbEntity
  8
L1
100
AcDbEllipse
 10
176.8469308556417
 20
-52.49716484341388
 30
0.0
 11
0.0
 21
-2.0
 31
0.0
210
0.0
220
0.0
230
-1.0
 40
0.9999619230641712
 41
-3.132866339596876
 42
-1.570796326794896
  0
ARC
  5
B1C
100
AcDbEntity
  8
L1
100
AcDbCircle
 10
182.5467023940269
 20
-48.24739336315804
 30
0.0
 40
0.3
100
AcDbArc
 50
0.0
 51
0.0942324081839256
  0
LINE
  5
B1D
100
AcDbEntity
  8
L1
100
AcDbLine
 10
182.8467023940268
 20
-48.52721114180553
 30
0.0
 11
182.845884652603
 21
-48.52721827812684
 31
0.0
  0
LINE
  5
B1E
100
AcDbEntity
  8
L1
100
AcDbLine
 10
132.8467023940268
 20
-61.11633178473306
 30
0.0
 11
132.8467023940268
 21
-50.21102331875048
 31
0.0
  0
POLYLINE
  5
B1F
100
AcDbEntity
  8
L1
100
AcDb2dPolyline
 66
     1
 10
0.0
 20
0.0
 30
0.0
  0
VERTEX
  5
B20
100
AcDbEntity
  8
L1
100
AcDbVertex
100
AcDb2dVertex
 10
133.8467023940268
 20
-64.12672787293485
 30
0.0
  0
VERTEX
  5
B21
100
AcDbEntity
  8
L1
100
AcDbVertex
100
AcDb2dVertex
 10
133.8554462011719
 20
-64.21982649259021
 30
0.0
  0
SEQEND
  5
B22
100
AcDbEntity
  8
L1
  0
POLYLINE
  5
B23
100
AcDbEntity
  8
L1
100
AcDb2dPolyline
 66
     1
 10
0.0
 20
0.0
 30
0.0
  0
VERTEX
  5
B24
100
AcDbEntity
  8
L1
100
AcDbVertex
100
AcDb2dVertex
 10
133.8554462011719
 20
-64.21982649259021
 30
0.0
  0
VERTEX
  5
B25
100
AcDbEntity
  8
L1
100
AcDbVertex
100
AcDb2dVertex
 10
134.0260811650585
 20
-64.51039703710478
 30
0.0
  0
VERTEX
  5
B26
100
AcDbEntity
  8
L1
100
AcDbVertex
100
AcDb2dVertex
 10
134.3423391262775
 20
-64.62670883446694
 30
0.0
  0
SEQEND
  5
B27
100
AcDbEntity
  8
L1
  0
POLYLINE
  5
B28
100
AcDbEntity
  8
L1
100
AcDb2dPolyline
 66
     1
 10
0.0
 20
0.0
 30
0.0
  0
VERTEX
  5
B29
100
AcDbEntity
  8
L1
100
AcDbVertex
100
AcDb2dVertex
 10
133.8467023940268
 20
-63.92235682336274
 30
0.0
  0
VERTEX
  5
B2A
100
AcDbEntity
  8
L1
100
AcDbVertex
100
AcDb2dVertex
 10
133.8467023940268
 20
-63.97874963205982
 30
0.0
  0
VERTEX
  5
B2B
100
AcDbEntity
  8
L1
100
AcDbVertex
100
AcDb2dVertex
 10
133.8467023940268
 20
-64.12672787293485
 30
0.0
  0
SEQEND
  5
B2C
100
AcDbEntity
  8
L1
  0
POLYLINE
  5
B2D
100
AcDbEntity
  8
L1
100
AcDb2dPolyline
 66
     1
 10
0.0
 20
0.0
 30
0.0
  0
VERTEX
  5
B2E
100
AcDbEntity
  8
L1
100
AcDbVertex
100
AcDb2dVertex
 10
133.8467023940268
 20
-63.92214521945826
 30
0.0
  0
VERTEX
  5
B2F
100
AcDbEntity
  8
L1
100
AcDbVertex
100
AcDb2dVertex
 10
133.8467023940268
 20
-63.9223017601486
 30
0.0
  0
VERTEX
  5
B30
100
AcDbEntity
  8
L1
100
AcDbVertex
100
AcDb2dVertex
 10
133.8467023940268
 20
-63.92235673711557
 30
0.0
  0
SEQEND
  5
B31
100
AcDbEntity
  8
L1
  0
ARC
  5
B32
100
AcDbEntity
  8
L1
100
AcDbCircle
 10
133.1467023940268
 20
-63.6162365923935
 30
0.0
 40
0.3000000000000043
100
AcDbArc
 50
180.0
 51
269.4999999999978
  0
POLYLINE
  5
B33
100
AcDbEntity
  8
L1
100
AcDb2dPolyline
 66
     1
 10
0.0
 20
0.0
 30
0.0
  0
VERTEX
  5
B34
100
AcDbEntity
  8
L1
100
AcDbVertex
100
AcDb2dVertex
 10
132.8467023940268
 20
-63.61623659239348
 30
0.0
  0
VERTEX
  5
B35
100
AcDbEntity
  8
L1
100
AcDbVertex
100
AcDb2dVertex
 10
132.8467023940268
 20
-63.59800984880056
 30
0.0
  0
VERTEX
  5
B36
100
AcDbEntity
  8
L1
100
AcDbVertex
100
AcDb2dVertex
 10
132.8467023940268
 20
-63.54359537924773
 30
0.0
  0
VERTEX
  5
B37
100
AcDbEntity
  8
L1
100
AcDbVertex
100
AcDb2dVertex
 10
132.8467023940268
 20
-63.45378659239068
 30
0.0
  0
VERTEX
  5
B38
100
AcDbEntity
  8
L1
100
AcDbVertex
100
AcDb2dVertex
 10
132.8467023940268
 20
-63.32989297575057
 30
0.0
  0
VERTEX
  5
B39
100
AcDbEntity
  8
L1
100
AcDbVertex
100
AcDb2dVertex
 10
132.8467023940268
 20
-63.17372100228644
 30
0.0
  0
VERTEX
  5
B3A
100
AcDbEntity
  8
L1
100
AcDbVertex
100
AcDb2dVertex
 10
132.8467023940268
 20
-62.98754779050273
 30
0.0
  0
VERTEX
  5
B3B
100
AcDbEntity
  8
L1
100
AcDbVertex
100
AcDb2dVertex
 10
132.8467023940268
 20
-62.77408790214929
 30
0.0
  0
VERTEX
  5
B3C
100
AcDbEntity
  8
L1
100
AcDbVertex
100
AcDb2dVertex
 10
132.8467023940268
 20
-62.53645376163198
 30
0.0
  0
VERTEX
  5
B3D
100
AcDbEntity
  8
L1
100
AcDbVertex
100
AcDb2dVertex
 10
132.8467023940268
 20
-62.27811027425125
 30
0.0
  0
VERTEX
  5
B3E
100
AcDbEntity
  8
L1
100
AcDbVertex
100
AcDb2dVertex
 10
132.8467023940268
 20
-62.0028243049737
 30
0.0
  0
VERTEX
  5
B3F
100
AcDbEntity
  8
L1
100
AcDbVertex
100
AcDb2dVertex
 10
132.8467023940268
 20
-61.71460975437788
 30
0.0
  0
VERTEX
  5
B40
100
AcDbEntity
  8
L1
100
AcDbVertex
100
AcDb2dVertex
 10
132.8467023940268
 20
-61.4176690326135
 30
0.0
  0
VERTEX
  5
B41
100
AcDbEntity
  8
L1
100
AcDbVertex
100
AcDb2dVertex
 10
132.8467023940268
 20
-61.11633178473306
 30
0.0
  0
SEQEND
  5
B42
100
AcDbEntity
  8
L1
  0
POLYLINE
  5
B43
100
AcDbEntity
  8
L1
100
AcDb2dPolyline
 66
     1
 10
0.0
 20
0.0
 30
0.0
  0
VERTEX
  5
B44
100
AcDbEntity
  8
L1
100
AcDbVertex
100
AcDb2dVertex
 10
133.8467023940268
 20
-50.14094883658916
 30
0.0
  0
VERTEX
  5
B45
100
AcDbEntity
  8
L1
100
AcDbVertex
100
AcDb2dVertex
 10
133.8467023940268
 20
-50.25020519228346
 30
0.0
  0
VERTEX
  5
B46
100
AcDbEntity
  8
L1
100
AcDbVertex
100
AcDb2dVertex
 10
133.8467023940268
 20
-50.4252918015845
 30
0.0
  0
SEQEND
  5
B47
100
AcDbEntity
  8
L1
  0
POLYLINE
  5
B48
100
AcDbEntity
  8
L1
100
AcDb2dPolyline
 66
     1
 10
0.0
 20
0.0
 30
0.0
  0
VERTEX
  5
B49
100
AcDbEntity
  8
L1
100
AcDbVertex
100
AcDb2dVertex
 10
134.3423391262775
 20
-50.12615673991948
 30
0.0
  0
VERTEX
  5
B4A
100
AcDbEntity
  8
L1
100
AcDbVertex
100
AcDb2dVertex
 10
134.0260811650585
 20
-50.12437910328668
 30
0.0
  0
VERTEX
  5
B4B
100
AcDbEntity
  8
L1
100
AcDbVertex
100
AcDb2dVertex
 10
133.8554462011719
 20
-50.12539075572814
 30
0.0
  0
SEQEND
  5
B4C
100
AcDbEntity
  8
L1
  0
POLYLINE
  5
B4D
100
AcDbEntity
  8
L1
100
AcDb2dPolyline
 66
     1
 10
0.0
 20
0.0
 30
0.0
  0
VERTEX
  5
B4E
100
AcDbEntity
  8
L1
100
AcDbVertex
100
AcDb2dVertex
 10
133.8554462011719
 20
-50.12539075572814
 30
0.0
  0
VERTEX
  5
B4F
100
AcDbEntity
  8
L1
100
AcDbVertex
100
AcDb2dVertex
 10
133.8467023940268
 20
-50.14094883658913
 30
0.0
  0
SEQEND
  5
B50
100
AcDbEntity
  8
L1
  0
ARC
  5
B51
100
AcDbEntity
  8
L1
100
AcDbCircle
 10
133.1467023940268
 20
-50.21102331875048
 30
0.0
 40
0.2999999999999971
100
AcDbArc
 50
90.49999999999805
 51
180.0
  0
LINE
  5
B52
100
AcDbEntity
  8
L1
100
AcDbLine
 10
133.1440844333772
 20
-49.91103474183123
 30
0.0
 11
133.8466041948698
 21
-49.90490394475227
 31
0.0
  0
ARC
  5
B53
100
AcDbEntity
  8
L2
100
AcDbCircle
 10
143.9467023940268
 20
-9.185783152129289
 30
0.0
 40
0.4
100
AcDbArc
 50
0.0
 51
88.49999999999985
1001
ACAD
1000
ASC_BOUNDS
1002
{
1070
    19
1002
}
  0
ARC
  5
B54
100
AcDbEntity
  8
L2
100
AcDbCircle
 10
143.9467023940268
 20
-10.52987388283284
 30
0.0
 40
0.4
100
AcDbArc
 50
271.499999999999
 51
0.0
1001
ACAD
1000
ASC_BOUNDS
1002
{
1070
    19
1002
}
  0
LINE
  5
B55
100
AcDbEntity
  8
L2
100
AcDbLine
 10
144.3467023940268
 20
-9.185783152129289
 30
0.0
 11
144.3467023940268
 21
-10.52987388283284
 31
0.0
1001
ACAD
1000
ASC_BOUNDS
1002
{
1070
    19
1002
}
  0
LINE
  5
B56
100
AcDbEntity
  8
L2
100
AcDbLine
 10
143.9571731733499
 20
-10.92973681282322
 30
0.0
 11
136.8467023940268
 21
-11.11593104297051
 31
0.0
1001
ACAD
1000
ASC_BOUNDS
1002
{
1070
    19
1002
}
  0
LINE
  5
B57
100
AcDbEntity
  8
L2
100
AcDbLine
 10
136.8467023940268
 20
-8.599725991991846
 30
0.0
 11
143.9571731733499
 21
-8.785920222139139
 31
0.0
1001
ACAD
1000
ASC_BOUNDS
1002
{
1070
    19
1002
}
  0
ARC
  5
B58
100
AcDbEntity
  8
L2
100
AcDbCircle
 10
143.9467023940267
 20
9.470126117167268
 30
0.0
 40
0.4
100
AcDbArc
 50
271.4999999999999
 51
0.0
  0
ARC
  5
B59
100
AcDbEntity
  8
L2
100
AcDbCircle
 10
143.9467023940267
 20
3.114216847870665
 30
0.0
 40
0.4
100
AcDbArc
 50
0.0
 51
88.50000000000203
  0
ARC
  5
B5A
100
AcDbEntity
  8
L2
100
AcDbCircle
 10
143.9467023940268
 20
-2.829873882832799
 30
0.0
 40
0.4
100
AcDbArc
 50
271.4999999999989
 51
0.0
1001
ACAD
1000
ASC_BOUNDS
1002
{
1070
    19
1002
}
  0
ARC
  5
B5B
100
AcDbEntity
  8
L2
100
AcDbCircle
 10
143.9467023940267
 20
10.81421684787059
 30
0.0
 40
0.4
100
AcDbArc
 50
0.0
 51
88.50000000000203
  0
LINE
  5
B5C
100
AcDbEntity
  8
L2
100
AcDbLine
 10
144.3467023940267
 20
-2.829873882832799
 30
0.0
 11
144.3467023940267
 21
3.114216847870665
 31
0.0
  0
LINE
  5
B5D
100
AcDbEntity
  8
L2
100
AcDbLine
 10
144.3467023940267
 20
9.470126117167268
 30
0.0
 11
144.3467023940267
 21
10.81421684787059
 31
0.0
  0
LINE
  5
B5E
100
AcDbEntity
  8
L2
100
AcDbLine
 10
143.9571731733498
 20
3.514079777860928
 30
0.0
 11
136.8444146650435
 21
3.700333914299989
 31
0.0
  0
LINE
  5
B5F
100
AcDbEntity
  8
L2
100
AcDbLine
 10
143.9571731733499
 20
-3.229736812822949
 30
0.0
 11
136.8467023940268
 21
-3.415931042970356
 31
0.0
1001
ACAD
1000
ASC_BOUNDS
1002
{
1070
    19
1002
}
  0
LINE
  5
B60
100
AcDbEntity
  8
L2
100
AcDbLine
 10
136.8467023940267
 20
8.884068957029597
 30
0.0
 11
143.9571731733498
 21
9.070263187177005
 31
0.0
  0
LINE
  5
B61
100
AcDbEntity
  8
L2
100
AcDbLine
 10
143.9571731733498
 20
11.21407977786086
 30
0.0
 11
136.8467023940267
 21
11.40027400800826
 31
0.0
  0
LINE
  5
B62
100
AcDbEntity
  8
L2
100
AcDbLine
 10
136.8467023940268
 20
47.54856408162508
 30
0.0
 11
182.8467023940268
 21
47.54856408162507
 31
0.0
  0
LINE
  5
B63
100
AcDbEntity
  8
L1
100
AcDbLine
 10
133.1440844333772
 20
63.9162251693536
 30
0.0
 11
178.5494726624197
 21
64.31247198941685
 31
0.0
  0
LINE
  5
B64
100
AcDbEntity
  8
L1
100
AcDbLine
 10
176.8643825975955
 20
64.99779308607497
 30
0.0
 11
134.3423391262775
 21
64.62670883450783
 31
0.0
  0
LINE
  5
B65
100
AcDbEntity
  8
L1
100
AcDbLine
 10
134.3423391262775
 20
50.12615673991906
 30
0.0
 11
176.8643825975962
 21
50.49724099144373
 31
0.0
  0
ARC
  5
B66
100
AcDbEntity
  8
L1
100
AcDbCircle
 10
182.5467023940269
 20
48.24739336319891
 30
0.0
 40
0.3
100
AcDbArc
 50
359.8626094011281
 51
0.0
  0
LINE
  5
B67
100
AcDbEntity
  8
L1
100
AcDbLine
 10
182.8467023940268
 20
48.52721114184652
 30
0.0
 11
182.845884652603
 21
48.52721827816782
 31
0.0
  0
LINE
  5
B68
100
AcDbEntity
  8
L1
100
AcDbLine
 10
178.8468547017701
 20
52.49716484345487
 30
0.0
 11
178.8468547017701
 21
61.5152271273024
 31
0.0
  0
ELLIPSE
  5
B69
100
AcDbEntity
  8
L1
100
AcDbEllipse
 10
176.8469308556417
 20
52.49716484345487
 30
0.0
 11
0.0
 21
-2.0
 31
0.0
210
0.0
220
0.0
230
-1.0
 40
0.9999619230641712
 41
-1.570796326794896
 42
-0.0087263139929164
  0
LINE
  5
B6A
100
AcDbEntity
  8
L1
100
AcDbLine
 10
182.8467023940268
 20
51.65000000002044
 30
0.0
 11
182.845884652603
 21
51.65000713634174
 31
0.0
  0
POLYLINE
  5
B6B
100
AcDbEntity
  8
L1
100
AcDb2dPolyline
 66
     1
 10
0.0
 20
0.0
 30
0.0
  0
VERTEX
  5
B6C
100
AcDbEntity
  8
L1
100
AcDbVertex
100
AcDb2dVertex
 10
182.8467023940268
 20
50.3138584039317
 30
0.0
  0
VERTEX
  5
B6D
100
AcDbEntity
  8
L1
100
AcDbVertex
100
AcDb2dVertex
 10
182.8465083357783
 20
50.31386252551328
 30
0.0
  0
SEQEND
  5
B6E
100
AcDbEntity
  8
L1
  0
POLYLINE
  5
B6F
100
AcDbEntity
  8
L1
100
AcDb2dPolyline
 66
     1
 10
0.0
 20
0.0
 30
0.0
  0
VERTEX
  5
B70
100
AcDbEntity
  8
L1
100
AcDbVertex
100
AcDb2dVertex
 10
182.8467023940268
 20
50.3138584039317
 30
0.0
  0
VERTEX
  5
B71
100
AcDbEntity
  8
L1
100
AcDbVertex
100
AcDb2dVertex
 10
182.8461335487171
 20
50.31387048555905
 30
0.0
  0
SEQEND
  5
B72
100
AcDbEntity
  8
L1
  0
ARC
  5
B73
100
AcDbEntity
  8
L1
100
AcDbCircle
 10
178.5468547017702
 20
64.61246056633609
 30
0.0
 40
0.2999999999999993
100
AcDbArc
 50
270.5000000000044
 51
359.9348534283417
  0
LINE
  5
B74
100
AcDbEntity
  8
L1
100
AcDbLine
 10
176.8643825975955
 20
64.99779308607497
 30
0.0
 11
178.8468083339203
 21
65.01509345338087
 31
0.0
  0
LINE
  5
B75
100
AcDbEntity
  8
L1
100
AcDbLine
 10
182.8467023940268
 20
64.45000000002045
 30
0.0
 11
182.2518968374166
 21
65.04480555663064
 31
0.0
  0
LINE
  5
B76
100
AcDbEntity
  8
L1
100
AcDbLine
 10
178.8468547017701
 20
65.01509385802695
 30
0.0
 11
182.251893215092
 21
65.04480917895517
 31
0.0
  0
POLYLINE
  5
B77
100
AcDbEntity
  8
L1
100
AcDb2dPolyline
 66
     1
 10
0.0
 20
0.0
 30
0.0
  0
VERTEX
  5
B78
100
AcDbEntity
  8
L1
100
AcDbVertex
100
AcDb2dVertex
 10
178.8468547017701
 20
61.5152271273024
 30
0.0
  0
VERTEX
  5
B79
100
AcDbEntity
  8
L1
100
AcDbVertex
100
AcDb2dVertex
 10
178.8468547017701
 20
62.854588287306
 30
0.0
  0
VERTEX
  5
B7A
100
AcDbEntity
  8
L1
100
AcDbVertex
100
AcDb2dVertex
 10
178.8468547017701
 20
63.9900227926351
 30
0.0
  0
VERTEX
  5
B7B
100
AcDbEntity
  8
L1
100
AcDbVertex
100
AcDb2dVertex
 10
178.8468547017701
 20
64.74868757678212
 30
0.0
  0
VERTEX
  5
B7C
100
AcDbEntity
  8
L1
100
AcDbVertex
100
AcDb2dVertex
 10
178.8468547017701
 20
65.01509385802705
 30
0.0
  0
SEQEND
  5
B7D
100
AcDbEntity
  8
L1
  0
LINE
  5
B7E
100
AcDbEntity
  8
L1
100
AcDbLine
 10
132.8467023940268
 20
50.21102331879138
 30
0.0
 11
132.8467023940268
 21
61.11633178477394
 31
0.0
  0
POLYLINE
  5
B7F
100
AcDbEntity
  8
L1
100
AcDb2dPolyline
 66
     1
 10
0.0
 20
0.0
 30
0.0
  0
VERTEX
  5
B80
100
AcDbEntity
  8
L1
100
AcDbVertex
100
AcDb2dVertex
 10
133.8467023940268
 20
50.42529180158453
 30
0.0
  0
VERTEX
  5
B81
100
AcDbEntity
  8
L1
100
AcDbVertex
100
AcDb2dVertex
 10
133.8467023940268
 20
50.25020519228343
 30
0.0
  0
VERTEX
  5
B82
100
AcDbEntity
  8
L1
100
AcDbVertex
100
AcDb2dVertex
 10
133.8467023940268
 20
50.14094883658913
 30
0.0
  0
SEQEND
  5
B83
100
AcDbEntity
  8
L1
  0
POLYLINE
  5
B84
100
AcDbEntity
  8
L1
100
AcDb2dPolyline
 66
     1
 10
0.0
 20
0.0
 30
0.0
  0
VERTEX
  5
B85
100
AcDbEntity
  8
L1
100
AcDbVertex
100
AcDb2dVertex
 10
133.8467023940268
 20
50.14094883658913
 30
0.0
  0
VERTEX
  5
B86
100
AcDbEntity
  8
L1
100
AcDbVertex
100
AcDb2dVertex
 10
133.8554462011719
 20
50.12539075572817
 30
0.0
  0
SEQEND
  5
B87
100
AcDbEntity
  8
L1
  0
POLYLINE
  5
B88
100
AcDbEntity
  8
L1
100
AcDb2dPolyline
 66
     1
 10
0.0
 20
0.0
 30
0.0
  0
VERTEX
  5
B89
100
AcDbEntity
  8
L1
100
AcDbVertex
100
AcDb2dVertex
 10
133.8554462011719
 20
50.12539075572817
 30
0.0
  0
VERTEX
  5
B8A
100
AcDbEntity
  8
L1
100
AcDbVertex
100
AcDb2dVertex
 10
134.0260811650585
 20
50.12437910328657
 30
0.0
  0
VERTEX
  5
B8B
100
AcDbEntity
  8
L1
100
AcDbVertex
100
AcDb2dVertex
 10
134.3423391262775
 20
50.12615673991906
 30
0.0
  0
SEQEND
  5
B8C
100
AcDbEntity
  8
L1
  0
ARC
  5
B8D
100
AcDbEntity
  8
L1
100
AcDbCircle
 10
133.1467023940268
 20
50.21102331879138
 30
0.0
 40
0.2999999999999971
100
AcDbArc
 50
180.0
 51
269.5000000000019
  0
LINE
  5
B8E
100
AcDbEntity
  8
L1
100
AcDbLine
 10
133.8466041948696
 20
49.90490394479315
 30
0.0
 11
133.1440844333772
 21
49.91103474187207
 31
0.0
  0
POLYLINE
  5
B8F
100
AcDbEntity
  8
L1
100
AcDb2dPolyline
 66
     1
 10
0.0
 20
0.0
 30
0.0
  0
VERTEX
  5
B90
100
AcDbEntity
  8
L1
100
AcDbVertex
100
AcDb2dVertex
 10
133.8467023940268
 20
64.12672787297577
 30
0.0
  0
VERTEX
  5
B91
100
AcDbEntity
  8
L1
100
AcDbVertex
100
AcDb2dVertex
 10
133.8467023940268
 20
63.98226508210149
 30
0.0
  0
VERTEX
  5
B92
100
AcDbEntity
  8
L1
100
AcDbVertex
100
AcDb2dVertex
 10
133.8467023940268
 20
63.92259217408554
 30
0.0
  0
SEQEND
  5
B93
100
AcDbEntity
  8
L1
  0
POLYLINE
  5
B94
100
AcDbEntity
  8
L1
100
AcDb2dPolyline
 66
     1
 10
0.0
 20
0.0
 30
0.0
  0
VERTEX
  5
B95
100
AcDbEntity
  8
L1
100
AcDbVertex
100
AcDb2dVertex
 10
134.3423391262775
 20
64.62670883450783
 30
0.0
  0
VERTEX
  5
B96
100
AcDbEntity
  8
L1
100
AcDbVertex
100
AcDb2dVertex
 10
134.0260811650585
 20
64.5103970371457
 30
0.0
  0
VERTEX
  5
B97
100
AcDbEntity
  8
L1
100
AcDbVertex
100
AcDb2dVertex
 10
133.8554462011719
 20
64.21982649263117
 30
0.0
  0
SEQEND
  5
B98
100
AcDbEntity
  8
L1
  0
POLYLINE
  5
B99
100
AcDbEntity
  8
L1
100
AcDb2dPolyline
 66
     1
 10
0.0
 20
0.0
 30
0.0
  0
VERTEX
  5
B9A
100
AcDbEntity
  8
L1
100
AcDbVertex
100
AcDb2dVertex
 10
133.8554462011719
 20
64.21982649263117
 30
0.0
  0
VERTEX
  5
B9B
100
AcDbEntity
  8
L1
100
AcDbVertex
100
AcDb2dVertex
 10
133.8467023940268
 20
64.12672787297577
 30
0.0
  0
SEQEND
  5
B9C
100
AcDbEntity
  8
L1
  0
ARC
  5
B9D
100
AcDbEntity
  8
L1
100
AcDbCircle
 10
133.1467023940268
 20
63.6162365924344
 30
0.0
 40
0.299999999999996
100
AcDbArc
 50
90.50000000000078
 51
180.0000000000108
  0
POLYLINE
  5
B9E
100
AcDbEntity
  8
L1
100
AcDb2dPolyline
 66
     1
 10
0.0
 20
0.0
 30
0.0
  0
VERTEX
  5
B9F
100
AcDbEntity
  8
L1
100
AcDbVertex
100
AcDb2dVertex
 10
132.8467023940268
 20
61.11633178477394
 30
0.0
  0
VERTEX
  5
BA0
100
AcDbEntity
  8
L1
100
AcDbVertex
100
AcDb2dVertex
 10
132.8467023940268
 20
61.41766903265438
 30
0.0
  0
VERTEX
  5
BA1
100
AcDbEntity
  8
L1
100
AcDbVertex
100
AcDb2dVertex
 10
132.8467023940268
 20
61.71460975441874
 30
0.0
  0
VERTEX
  5
BA2
100
AcDbEntity
  8
L1
100
AcDbVertex
100
AcDb2dVertex
 10
132.8467023940268
 20
62.00282430501454
 30
0.0
  0
VERTEX
  5
BA3
100
AcDbEntity
  8
L1
100
AcDbVertex
100
AcDb2dVertex
 10
132.8467023940268
 20
62.27811027429215
 30
0.0
  0
VERTEX
  5
BA4
100
AcDbEntity
  8
L1
100
AcDbVertex
100
AcDb2dVertex
 10
132.8467023940268
 20
62.53645376167281
 30
0.0
  0
VERTEX
  5
BA5
100
AcDbEntity
  8
L1
100
AcDbVertex
100
AcDb2dVertex
 10
132.8467023940268
 20
62.77408790219016
 30
0.0
  0
VERTEX
  5
BA6
100
AcDbEntity
  8
L1
100
AcDbVertex
100
AcDb2dVertex
 10
132.8467023940268
 20
62.9875477905436
 30
0.0
  0
VERTEX
  5
BA7
100
AcDbEntity
  8
L1
100
AcDbVertex
100
AcDb2dVertex
 10
132.8467023940268
 20
63.17372100232734
 30
0.0
  0
VERTEX
  5
BA8
100
AcDbEntity
  8
L1
100
AcDbVertex
100
AcDb2dVertex
 10
132.8467023940268
 20
63.32989297579143
 30
0.0
  0
VERTEX
  5
BA9
100
AcDbEntity
  8
L1
100
AcDbVertex
100
AcDb2dVertex
 10
132.8467023940268
 20
63.45378659243158
 30
0.0
  0
VERTEX
  5
BAA
100
AcDbEntity
  8
L1
100
AcDbVertex
100
AcDb2dVertex
 10
132.8467023940268
 20
63.54359537928866
 30
0.0
  0
VERTEX
  5
BAB
100
AcDbEntity
  8
L1
100
AcDbVertex
100
AcDb2dVertex
 10
132.8467023940268
 20
63.59800984884151
 30
0.0
  0
VERTEX
  5
BAC
100
AcDbEntity
  8
L1
100
AcDbVertex
100
AcDb2dVertex
 10
132.8467023940268
 20
63.61623659243434
 30
0.0
  0
SEQEND
  5
BAD
100
AcDbEntity
  8
L1
  0
ENDSEC
  0
SECTION
  2
OBJECTS
  0
DICTIONARY
  5
1A
100
AcDbDictionary
  3
ACAD_GROUP
350
18
  3
ACAD_MLINESTYLE
350
19
  0
DICTIONARY
  5
18
102
{ACAD_REACTORS
330
1A
102
}
100
AcDbDictionary
  0
DICTIONARY
  5
19
102
{ACAD_REACTORS
330
1A
102
}
100
AcDbDictionary
  3
STANDARD
350
1D
  0
MLINESTYLE
  5
1D
102
{ACAD_REACTORS
330
19
102
}
100
AcDbMlineStyle
  2
STANDARD
 70
     0
  3

 62
     0
 51
90.0
 52
90.0
 71
     2
 49
0.5
 62
   256
  6
BYLAYER
 49
-0.5
 62
   256
  6
BYLAYER
  0
ENDSEC
  0
EOF
