  0
SECTION
  2
HEADER
  9
$ACADVER
  1
AC1009
  9
$INSBASE
 10
0.0
 20
0.0
 30
0.0
  9
$EXTMIN
 10
-1.319026652432512
 20
-10.032986569641469
 30
0.0
  9
$EXTMAX
 10
656.43517751023558
 20
390.60789945233768
 30
0.0
  9
$LIMMIN
 10
0.0
 20
0.0
  9
$LIMMAX
 10
657.43951684768581
 20
384.2962048123012
  9
$ORTHOMODE
 70
     1
  9
$REGENMODE
 70
     1
  9
$FILLMODE
 70
     1
  9
$QTEXTMODE
 70
     0
  9
$MIRRTEXT
 70
     1
  9
$DRAGMODE
 70
     2
  9
$LTSCALE
 40
15.0
  9
$OSMODE
 70
     5
  9
$ATTMODE
 70
     1
  9
$TEXTSIZE
 40
2.5
  9
$TRACEWID
 40
1.0
  9
$TEXTSTYLE
  7
SIMPLEX
  9
$CLAYER
  8
L2
  9
$CELTYPE
  6
BYLAYER
  9
$CECOLOR
 62
   256
  9
$DIMSCALE
 40
1.0
  9
$DIMASZ
 40
3.5
  9
$DIMEXO
 40
0.1
  9
$DIMDLI
 40
0.38
  9
$DIMRND
 40
0.0
  9
$DIMDLE
 40
0.0
  9
$DIMEXE
 40
0.18
  9
$DIMTP
 40
0.0
  9
$DIMTM
 40
0.0
  9
$DIMTXT
 40
3.5
  9
$DIMCEN
 40
1.0
  9
$DIMTSZ
 40
0.0
  9
$DIMTOL
 70
     0
  9
$DIMLIM
 70
     0
  9
$DIMTIH
 70
     0
  9
$DIMTOH
 70
     0
  9
$DIMSE1
 70
     0
  9
$DIMSE2
 70
     0
  9
$DIMTAD
 70
     1
  9
$DIMZIN
 70
     8
  9
$DIMBLK
  1

  9
$DIMASO
 70
     1
  9
$DIMSHO
 70
     1
  9
$DIMPOST
  1

  9
$DIMAPOST
  1

  9
$DIMALT
 70
     0
  9
$DIMALTD
 70
     2
  9
$DIMALTF
 40
25.399999999999999
  9
$DIMLFAC
 40
1.0
  9
$DIMTOFL
 70
     1
  9
$DIMTVP
 40
0.0
  9
$DIMTIX
 70
     0
  9
$DIMSOXD
 70
     0
  9
$DIMSAH
 70
     0
  9
$DIMBLK1
  1

  9
$DIMBLK2
  1

  9
$DIMSTYLE
  2
FIBOX
  9
$DIMCLRD
 70
     1
  9
$DIMCLRE
 70
     1
  9
$DIMCLRT
 70
     3
  9
$DIMTFAC
 40
1.0
  9
$DIMGAP
 40
1.0
  9
$LUNITS
 70
     2
  9
$LUPREC
 70
     4
  9
$SKETCHINC
 40
1.0
  9
$FILLETRAD
 40
0.0
  9
$AUNITS
 70
     0
  9
$AUPREC
 70
     0
  9
$MENU
  1
.
  9
$ELEVATION
 40
0.0
  9
$PELEVATION
 40
0.0
  9
$THICKNESS
 40
0.0
  9
$LIMCHECK
 70
     0
  9
$BLIPMODE
 70
     0
  9
$CHAMFERA
 40
10.0
  9
$CHAMFERB
 40
10.0
  9
$SKPOLY
 70
     0
  9
$TDCREATE
 40
2450519.5748858559
  9
$TDUPDATE
 40
2452502.5298801609
  9
$TDINDWG
 40
0.5718777546
  9
$TDUSRTIMER
 40
0.5718777546
  9
$USRTIMER
 70
     1
  9
$ANGBASE
 50
0.0
  9
$ANGDIR
 70
     0
  9
$PDMODE
 70
     0
  9
$PDSIZE
 40
0.0
  9
$PLINEWID
 40
0.0
  9
$COORDS
 70
     2
  9
$SPLFRAME
 70
     0
  9
$SPLINETYPE
 70
     6
  9
$SPLINESEGS
 70
     8
  9
$ATTDIA
 70
     0
  9
$ATTREQ
 70
     1
  9
$HANDLING
 70
 22529
  9
$HANDSEED
  5
1C57
  9
$SURFTAB1
 70
     6
  9
$SURFTAB2
 70
     6
  9
$SURFTYPE
 70
     6
  9
$SURFU
 70
     6
  9
$SURFV
 70
     6
  9
$UCSNAME
  2

  9
$UCSORG
 10
0.0
 20
0.0
 30
0.0
  9
$UCSXDIR
 10
1.0
 20
0.0
 30
0.0
  9
$UCSYDIR
 10
0.0
 20
1.0
 30
0.0
  9
$PUCSNAME
  2

  9
$PUCSORG
 10
0.0
 20
0.0
 30
0.0
  9
$PUCSXDIR
 10
1.0
 20
0.0
 30
0.0
  9
$PUCSYDIR
 10
0.0
 20
1.0
 30
0.0
  9
$USERI1
 70
     0
  9
$USERI2
 70
     0
  9
$USERI3
 70
     0
  9
$USERI4
 70
     0
  9
$USERI5
 70
     0
  9
$USERR1
 40
0.0
  9
$USERR2
 40
0.0
  9
$USERR3
 40
0.0
  9
$USERR4
 40
0.0
  9
$USERR5
 40
0.0
  9
$WORLDVIEW
 70
     1
  9
$SHADEDGE
 70
     3
  9
$SHADEDIF
 70
    70
  9
$TILEMODE
 70
     1
  9
$MAXACTVP
 70
    16
  9
$PLIMCHECK
 70
     0
  9
$PEXTMIN
 10
-638.68910708808346
 20
51.186559005740087
 30
0.0
  9
$PEXTMAX
 10
201.3108929119164
 20
645.18655900574004
 30
0.0
  9
$PLIMMIN
 10
0.0
 20
0.0
  9
$PLIMMAX
 10
420.0
 20
297.0
  9
$UNITMODE
 70
     0
  9
$VISRETAIN
 70
     0
  9
$PLINEGEN
 70
     0
  9
$PSLTSCALE
 70
     1
  0
ENDSEC
  0
SECTION
  2
TABLES
  0
TABLE
  2
VPORT
 70
     2
  0
VPORT
  2
*ACTIVE
 70
     0
 10
0.0
 20
0.0
 11
1.0
 21
1.0
 12
618.62232206156079
 22
-115.39308962211619
 13
0.0
 23
0.0
 14
10.0
 24
10.0
 15
10.0
 25
10.0
 16
0.0
 26
0.0
 36
1.0
 17
-291.07476067215242
 27
305.67535172191339
 37
115.40421985312589
 40
434.73944433751529
 41
1.5205479452054791
 42
50.0
 43
0.0
 44
0.0
 50
0.0
 51
0.0
 71
     0
 72
   500
 73
     1
 74
     0
 75
     0
 76
     0
 77
     0
 78
     0
  0
ENDTAB
  0
TABLE
  2
LTYPE
 70
     3
  0
LTYPE
  2
CONTINUOUS
 70
     0
  3
Solid line
 72
    65
 73
     0
 40
0.0
  0
LTYPE
  2
HIDDEN
 70
     0
  3
__ __ __ __ __ __ __ __ __ __ __ __ __ __ __ __
 72
    65
 73
     2
 40
0.375
 49
0.25
 49
-0.125
  0
LTYPE
  2
CENTER
 70
     0
  3
____ _ ____ _ ____ _ ____ _ ____ _ ____ _ ____ 
 72
    65
 73
     4
 40
2.0
 49
1.25
 49
-0.25
 49
0.25
 49
-0.25
  0
ENDTAB
  0
TABLE
  2
LAYER
 70
     4
  0
LAYER
  2
0
 70
     0
 62
     7
  6
CONTINUOUS
  0
LAYER
  2
L2
 70
     0
 62
     1
  6
HIDDEN
  0
LAYER
  2
L1
 70
     0
 62
     7
  6
CONTINUOUS
  0
LAYER
  2
L6
 70
     0
 62
     1
  6
CENTER
  0
ENDTAB
  0
TABLE
  2
STYLE
 70
     2
  0
STYLE
  2
STANDARD
 70
     0
 40
0.0
 41
1.0
 50
0.0
 71
     0
 42
2.5
  3
ISOCP
  4

  0
STYLE
  2
SIMPLEX
 70
     0
 40
0.0
 41
0.8
 50
0.0
 71
     0
 42
2.5
  3
SIMPLEX.SHX
  4

  0
ENDTAB
  0
TABLE
  2
VIEW
 70
     0
  0
ENDTAB
  0
TABLE
  2
UCS
 70
     0
  0
ENDTAB
  0
TABLE
  2
APPID
 70
     1
  0
APPID
  2
ACAD
 70
     0
  0
ENDTAB
  0
TABLE
  2
DIMSTYLE
 70
     1
  0
DIMSTYLE
  2
FIBOX
 70
     0
  3

  4

  5

  6

  7

 40
1.0
 41
3.5
 42
0.1
 43
0.38
 44
0.18
 45
0.0
 46
0.0
 47
0.0
 48
0.0
140
3.5
141
1.0
142
0.0
143
25.399999999999999
144
1.0
145
0.0
146
1.0
147
1.0
 71
     0
 72
     0
 73
     0
 74
     0
 75
     0
 76
     0
 77
     1
 78
     8
170
     0
171
     2
172
     1
173
     0
174
     0
175
     0
176
     1
177
     1
178
     3
  0
ENDTAB
  0
ENDSEC
  0
SECTION
  2
BLOCKS
  0
BLOCK
  8
0
  2
$MODEL_SPACE
 70
     0
 10
0.0
 20
0.0
 30
0.0
  3
$MODEL_SPACE
  1

  0
ENDBLK
  5
6
  8
0
  0
BLOCK
 67
     1
  8
0
  2
$PAPER_SPACE
 70
     0
 10
0.0
 20
0.0
 30
0.0
  3
$PAPER_SPACE
  1

  0
ENDBLK
  5
9
 67
     1
  8
0
  0
ENDSEC
  0
SECTION
  2
ENTITIES
  0
LINE
  5
1F
  8
L6
 10
340.1226317750793
 20
190.2874564413481
 30
0.0
 11
526.98672556189513
 21
190.2874564413481
 31
0.0
  0
LINE
  5
28
  8
L1
 10
349.11995994973688
 20
126.8212962836199
 30
0.0
 11
519.46132533581294
 21
126.8212962836199
 31
0.0
  0
LINE
  5
29
  8
L1
 10
506.23345057965793
 20
127.041710456934
 30
0.0
 11
362.34783470589201
 21
127.041710456934
 31
0.0
  0
LINE
  5
2A
  8
L1
 10
366.27833851186568
 20
145.27515231043881
 30
0.0
 11
502.30294677368403
 21
145.27515231043881
 31
0.0
  0
LINE
  5
2B
  8
L1
 10
366.21549031118661
 20
131.86379233442909
 30
0.0
 11
502.36583395636802
 21
131.86379233442909
 31
0.0
  0
LINE
  5
2C
  8
L1
 10
520.80774340204312
 20
125.2751523104388
 30
0.0
 11
347.77354188350671
 21
125.2751523104388
 31
0.0
  0
LINE
  5
2D
  8
L1
 10
503.72828931947902
 20
129.7465976240639
 30
0.0
 11
364.85299596607092
 21
129.7465976240639
 31
0.0
  0
LINE
  5
32
  8
L1
 10
520.80774340204312
 20
255.29976057225721
 30
0.0
 11
347.77354188350671
 21
255.29976057225721
 31
0.0
  0
LINE
  5
33
  8
L1
 10
503.72828931947902
 20
250.82831525863219
 30
0.0
 11
364.85299596607092
 21
250.82831525863219
 31
0.0
  0
LINE
  5
34
  8
L1
 10
366.21549031118661
 20
248.71112054826699
 30
0.0
 11
502.36583395636802
 21
248.71112054826699
 31
0.0
  0
LINE
  5
35
  8
L1
 10
366.27833851186568
 20
235.29976057225721
 30
0.0
 11
502.30294677368403
 21
235.29976057225721
 31
0.0
  0
LINE
  5
36
  8
L1
 10
506.23345057965793
 20
253.533202425762
 30
0.0
 11
362.34783470589201
 21
253.533202425762
 31
0.0
  0
LINE
  5
37
  8
L1
 10
349.11995994973688
 20
253.75361659907611
 30
0.0
 11
519.46132533581294
 21
253.75361659907611
 31
0.0
  0
LINE
  5
3A
  8
L6
 10
93.778072319987984
 20
260.36018723035812
 30
0.0
 11
93.778072319987984
 21
122.1985004965602
 31
0.0
  0
LINE
  5
3C
  8
L1
 10
294.04481207705982
 20
125.9944323411239
 30
0.0
 11
294.04481207705931
 21
254.5804805415728
 31
0.0
  0
POLYLINE
  5
40
  8
L1
 66
     1
 10
0.0
 20
0.0
 30
0.0
  0
VERTEX
  5
168F
  8
L1
 10
352.760991172248
 20
239.42724935469101
 30
0.0
  0
VERTEX
  5
1690
  8
L1
 10
353.13562811920349
 20
239.4367271029908
 30
0.0
  0
VERTEX
  5
1691
  8
L1
 10
353.50925480861451
 20
239.46513610340159
 30
0.0
  0
VERTEX
  5
1692
  8
L1
 10
353.88091548731592
 20
239.51240368447679
 30
0.0
  0
VERTEX
  5
1693
  8
L1
 10
354.24965943128251
 20
239.57840893370789
 30
0.0
  0
VERTEX
  5
1694
  8
L1
 10
354.61454337762211
 20
239.66298300682431
 30
0.0
  0
VERTEX
  5
1695
  8
L1
 10
354.97463393748302
 20
239.765909559704
 30
0.0
  0
VERTEX
  5
1696
  8
L1
 10
355.32900998370241
 20
239.88692530179111
 30
0.0
  0
VERTEX
  5
1697
  8
L1
 10
355.6767650070895
 20
240.02572066960491
 30
0.0
  0
VERTEX
  5
1698
  8
L1
 10
356.017009435315
 20
240.1819406186157
 30
0.0
  0
VERTEX
  5
1699
  8
L1
 10
356.34887290847598
 20
240.3551855314652
 30
0.0
  0
VERTEX
  5
169A
  8
L1
 10
356.67150650551309
 20
240.5450122402037
 30
0.0
  0
VERTEX
  5
169B
  8
L1
 10
356.984084915788
 20
240.75093515993359
 30
0.0
  0
VERTEX
  5
169C
  8
L1
 10
357.28580855026303
 20
240.97242753095631
 30
0.0
  0
VERTEX
  5
169D
  8
L1
 10
357.57590558688469
 20
241.20892276624619
 30
0.0
  0
VERTEX
  5
169E
  8
L1
 10
357.85363394493749
 20
241.45981590080419
 30
0.0
  0
VERTEX
  5
169F
  8
L1
 10
358.11828318331862
 20
241.7244651391853
 30
0.0
  0
VERTEX
  5
16A0
  8
L1
 10
358.36917631787668
 20
242.00219349723821
 30
0.0
  0
VERTEX
  5
16A1
  8
L1
 10
358.60567155316659
 20
242.29229053385981
 30
0.0
  0
VERTEX
  5
16A2
  8
L1
 10
358.82716392418922
 20
242.59401416833481
 30
0.0
  0
VERTEX
  5
16A3
  8
L1
 10
359.03308684391908
 20
242.9065925786098
 30
0.0
  0
VERTEX
  5
16A4
  8
L1
 10
359.2229135526577
 20
243.22922617564689
 30
0.0
  0
VERTEX
  5
16A5
  8
L1
 10
359.3961584655072
 20
243.56108964880781
 30
0.0
  0
VERTEX
  5
16A6
  8
L1
 10
359.55237841451799
 20
243.9013340770334
 30
0.0
  0
VERTEX
  5
16A7
  8
L1
 10
359.6911737823317
 20
244.24908910042049
 30
0.0
  0
VERTEX
  5
16A8
  8
L1
 10
359.8121895244189
 20
244.60346514663979
 30
0.0
  0
VERTEX
  5
16A9
  8
L1
 10
359.91511607729859
 20
244.9635557065007
 30
0.0
  0
VERTEX
  5
16AA
  8
L1
 10
359.99969015041489
 20
245.32843965284039
 30
0.0
  0
VERTEX
  5
16AB
  8
L1
 10
360.06569539964607
 20
245.69718359680701
 30
0.0
  0
VERTEX
  5
16AC
  8
L1
 10
360.11296298072131
 20
246.0688442755083
 30
0.0
  0
VERTEX
  5
16AD
  8
L1
 10
360.14137198113212
 20
246.44247096491941
 30
0.0
  0
VERTEX
  5
16AE
  8
L1
 10
360.1508497294318
 20
246.8171079118749
 30
0.0
  0
SEQEND
  5
16AF
  8
L1
  0
POLYLINE
  5
41
  8
L1
 66
     1
 10
0.0
 20
0.0
 30
0.0
  0
VERTEX
  5
16B0
  8
L1
 10
364.83660168504639
 20
247.38774683614611
 30
0.0
  0
VERTEX
  5
16B1
  8
L1
 10
364.83674623397241
 20
245.41817716663081
 30
0.0
  0
VERTEX
  5
16B2
  8
L1
 10
364.8368240186241
 20
244.48789712511291
 30
0.0
  0
VERTEX
  5
16B3
  8
L1
 10
364.83689924745971
 20
243.63746295022179
 30
0.0
  0
VERTEX
  5
16B4
  8
L1
 10
364.83696724852251
 20
242.89950664530841
 30
0.0
  0
VERTEX
  5
16B5
  8
L1
 10
364.837023349856
 20
242.30666021372289
 30
0.0
  0
VERTEX
  5
16B6
  8
L1
 10
364.83706287950389
 20
241.89155565881549
 30
0.0
  0
VERTEX
  5
16B7
  8
L1
 10
364.83708116550957
 20
241.6868249839369
 30
0.0
  0
VERTEX
  5
16B8
  8
L1
 10
364.8305482960169
 20
239.15235017657761
 30
0.0
  0
VERTEX
  5
16B9
  8
L1
 10
364.82254471590829
 20
238.52918954637909
 30
0.0
  0
VERTEX
  5
16BA
  8
L1
 10
364.81489243024311
 20
238.07596077094161
 30
0.0
  0
VERTEX
  5
16BB
  8
L1
 10
364.81146696855978
 20
237.7289119858012
 30
0.0
  0
VERTEX
  5
16BC
  8
L1
 10
364.8105624898684
 20
237.47382881630691
 30
0.0
  0
VERTEX
  5
16BD
  8
L1
 10
364.80548922422241
 20
237.08036786614659
 30
0.0
  0
VERTEX
  5
16BE
  8
L1
 10
364.7610234072099
 20
236.54422536786251
 30
0.0
  0
VERTEX
  5
16BF
  8
L1
 10
364.64895380485962
 20
236.11337605519859
 30
0.0
  0
VERTEX
  5
16C0
  8
L1
 10
364.47206477537821
 20
235.763107866647
 30
0.0
  0
VERTEX
  5
16C1
  8
L1
 10
364.24536816660378
 20
235.4661247415481
 30
0.0
  0
VERTEX
  5
16C2
  8
L1
 10
363.9122132556455
 20
235.17261217722671
 30
0.0
  0
VERTEX
  5
16C3
  8
L1
 10
363.6185377445467
 20
234.999637615327
 30
0.0
  0
VERTEX
  5
16C4
  8
L1
 10
362.9146798637675
 20
234.8068535696242
 30
0.0
  0
VERTEX
  5
16C5
  8
L1
 10
362.32593275761269
 20
234.77357171257259
 30
0.0
  0
VERTEX
  5
16C6
  8
L1
 10
361.96386502407353
 20
234.77127056459469
 30
0.0
  0
VERTEX
  5
16C7
  8
L1
 10
361.48668778982898
 20
234.7672416462438
 30
0.0
  0
VERTEX
  5
16C8
  8
L1
 10
360.96624200802461
 20
234.75785926872919
 30
0.0
  0
VERTEX
  5
16C9
  8
L1
 10
360.64027170961867
 20
234.75256651691029
 30
0.0
  0
VERTEX
  5
16CA
  8
L1
 10
360.22324858676348
 20
234.74790253004971
 30
0.0
  0
VERTEX
  5
16CB
  8
L1
 10
359.33507634285229
 20
234.74277145204101
 30
0.0
  0
VERTEX
  5
16CC
  8
L1
 10
358.75938553313671
 20
234.74149271690871
 30
0.0
  0
VERTEX
  5
16CD
  8
L1
 10
358.01681166370491
 20
234.74085475076549
 30
0.0
  0
VERTEX
  5
16CE
  8
L1
 10
357.0479947836493
 20
234.7406947284174
 30
0.0
  0
VERTEX
  5
16CF
  8
L1
 10
356.46019522997909
 20
234.74074306329319
 30
0.0
  0
VERTEX
  5
16D0
  8
L1
 10
355.79357494206261
 20
234.74084982467011
 30
0.0
  0
VERTEX
  5
16D1
  8
L1
 10
355.04071392603669
 20
234.74099465939861
 30
0.0
  0
VERTEX
  5
16D2
  8
L1
 10
354.19419218803762
 20
234.7411572143296
 30
0.0
  0
VERTEX
  5
16D3
  8
L1
 10
353.24658973420219
 20
234.7413171363138
 30
0.0
  0
VERTEX
  5
16D4
  8
L1
 10
352.19048657066679
 20
234.741454072202
 30
0.0
  0
SEQEND
  5
16D5
  8
L1
  0
POLYLINE
  5
42
  8
L1
 66
     1
 10
0.0
 20
0.0
 30
0.0
  0
VERTEX
  5
16D6
  8
L1
 10
355.28057285042019
 20
236.70794176956781
 30
0.0
  0
VERTEX
  5
16D7
  8
L1
 10
355.32071104147758
 20
236.70804862536579
 30
0.0
  0
VERTEX
  5
16D8
  8
L1
 10
355.5117113096378
 20
236.711573778863
 30
0.0
  0
VERTEX
  5
16D9
  8
L1
 10
355.94513797724392
 20
236.73807290534441
 30
0.0
  0
VERTEX
  5
16DA
  8
L1
 10
356.4053902290018
 20
236.79419245190061
 30
0.0
  0
VERTEX
  5
16DB
  8
L1
 10
356.99906741139938
 20
236.9095978404923
 30
0.0
  0
VERTEX
  5
16DC
  8
L1
 10
357.92981251500271
 20
237.19298270799081
 30
0.0
  0
VERTEX
  5
16DD
  8
L1
 10
358.81713306775572
 20
237.59303181779291
 30
0.0
  0
VERTEX
  5
16DE
  8
L1
 10
359.9360186626634
 20
238.31818066128429
 30
0.0
  0
VERTEX
  5
16DF
  8
L1
 10
360.93394372524477
 20
239.25182003980541
 30
0.0
  0
VERTEX
  5
16E0
  8
L1
 10
361.72897220250331
 20
240.31565490933011
 30
0.0
  0
VERTEX
  5
16E1
  8
L1
 10
362.2702414355918
 20
241.36169805498901
 30
0.0
  0
VERTEX
  5
16E2
  8
L1
 10
362.64370887027201
 20
242.47806519611939
 30
0.0
  0
VERTEX
  5
16E3
  8
L1
 10
362.78916218758928
 20
243.20832247169989
 30
0.0
  0
VERTEX
  5
16E4
  8
L1
 10
362.85266050112921
 20
243.79152079764739
 30
0.0
  0
VERTEX
  5
16E5
  8
L1
 10
362.86818549871919
 20
244.12679866321159
 30
0.0
  0
VERTEX
  5
16E6
  8
L1
 10
362.87017794986781
 20
244.29628242291579
 30
0.0
  0
VERTEX
  5
16E7
  8
L1
 10
362.8701780431465
 20
244.2975055051111
 30
0.0
  0
SEQEND
  5
16E8
  8
L1
  0
LINE
  5
43
  8
L1
 10
345.8244824850467
 20
250.4581391343861
 30
0.0
 11
345.8244824850467
 21
130.1167737483099
 31
0.0
  0
LINE
  5
44
  8
L1
 10
344.27833851186568
 20
128.77035568207981
 30
0.0
 11
344.27833851186568
 21
251.80455720061619
 31
0.0
  0
LINE
  5
45
  8
L1
 10
4.4850482197633141
 20
128.730456441348
 30
0.0
 11
4.4850482197633141
 21
251.844456441348
 31
0.0
  0
LINE
  5
46
  8
L1
 10
3.7657681890789831
 20
251.8045572006163
 30
0.0
 11
3.7657681890789831
 21
128.7703556820799
 31
0.0
  0
POLYLINE
  5
47
  8
L1
 66
     1
 10
0.0
 20
0.0
 30
0.0
  0
VERTEX
  5
16E9
  8
L1
 10
19.607833781149392
 20
241.0258449928964
 30
0.0
  0
VERTEX
  5
16EA
  8
L1
 10
19.59660039263127
 20
241.04008490406821
 30
0.0
  0
VERTEX
  5
16EB
  8
L1
 10
19.566181942671559
 20
241.09097202237831
 30
0.0
  0
VERTEX
  5
16EC
  8
L1
 10
19.54636028493627
 20
241.1468455145241
 30
0.0
  0
VERTEX
  5
16ED
  8
L1
 10
19.537952234485541
 20
241.20463299642319
 30
0.0
  0
VERTEX
  5
16EE
  8
L1
 10
19.540898645801398
 20
241.2629542986671
 30
0.0
  0
VERTEX
  5
16EF
  8
L1
 10
19.554456873495429
 20
241.3178082147594
 30
0.0
  0
VERTEX
  5
16F0
  8
L1
 10
19.578063048432391
 20
241.3691454764963
 30
0.0
  0
VERTEX
  5
16F1
  8
L1
 10
19.59703599733194
 20
241.3979253577179
 30
0.0
  0
SEQEND
  5
16F2
  8
L1
  0
ARC
  5
48
  8
L1
 10
16.067008806276188
 20
242.99851995505989
 30
0.0
 40
5.3999999999999986
 50
270.0
 51
0.0
  0
LINE
  5
49
  8
L1
 10
5.5280723199880981
 20
250.9374564413481
 30
0.0
 11
5.5280723199880981
 21
239.66454833779829
 31
0.0
  0
ARC
  5
4A
  8
L1
 10
12.028072319987981
 20
247.03745644134821
 30
0.0
 40
6.3999999999999941
 50
269.99999999999892
 51
0.0
  0
LINE
  5
4B
  8
L1
 10
6.1588702558797763
 20
243.87645370154769
 30
0.0
 11
8.8857435590611544
 21
241.1495803983664
 31
0.0
  0
ARC
  5
4C
  8
L1
 10
12.028072319988089
 20
247.0374564413481
 30
0.0
 40
4.881314598045666
 50
267.80434810777592
 51
2.1956518922220689
  0
ARC
  5
4D
  8
L1
 10
12.028072319987981
 20
247.0374564413479
 30
0.0
 40
9.4389364862881635
 50
323.31070994755771
 51
0.0
  0
ARC
  5
4E
  8
L1
 10
12.028072319987981
 20
247.03745644134821
 30
0.0
 40
7.3999999999999604
 50
270.0
 51
0.0
  0
ARC
  5
4F
  8
L1
 10
175.5280723199883
 20
247.03745644134821
 30
0.0
 40
7.3999999999999604
 50
180.0
 51
270.0
  0
ARC
  5
50
  8
L1
 10
175.5280723199883
 20
247.0374564413479
 30
0.0
 40
9.4389364862881635
 50
180.0
 51
216.6892900524422
  0
POLYLINE
  5
51
  8
L1
 66
     1
 10
0.0
 20
0.0
 30
0.0
  0
VERTEX
  5
16F3
  8
L1
 10
167.94831085882689
 20
241.0258449928964
 30
0.0
  0
VERTEX
  5
16F4
  8
L1
 10
167.95954424734501
 20
241.04008490406821
 30
0.0
  0
VERTEX
  5
16F5
  8
L1
 10
167.98996269730469
 20
241.09097202237831
 30
0.0
  0
VERTEX
  5
16F6
  8
L1
 10
168.00978435504001
 20
241.1468455145241
 30
0.0
  0
VERTEX
  5
16F7
  8
L1
 10
168.01819240549071
 20
241.20463299642319
 30
0.0
  0
VERTEX
  5
16F8
  8
L1
 10
168.0152459941749
 20
241.2629542986671
 30
0.0
  0
VERTEX
  5
16F9
  8
L1
 10
168.00168776648081
 20
241.3178082147594
 30
0.0
  0
VERTEX
  5
16FA
  8
L1
 10
167.97808159154391
 20
241.3691454764963
 30
0.0
  0
VERTEX
  5
16FB
  8
L1
 10
167.9591086426442
 20
241.3979253577179
 30
0.0
  0
SEQEND
  5
16FC
  8
L1
  0
ARC
  5
52
  8
L1
 10
171.48913583370009
 20
242.99851995505989
 30
0.0
 40
5.3999999999999986
 50
180.0
 51
270.0
  0
LINE
  5
53
  8
L1
 10
183.7903764508973
 20
251.8045572006163
 30
0.0
 11
183.7903764508973
 21
128.7703556820799
 31
0.0
  0
LINE
  5
54
  8
L1
 10
183.07109642021291
 20
128.730456441348
 30
0.0
 11
183.07109642021291
 21
251.844456441348
 31
0.0
  0
ARC
  5
55
  8
L1
 10
175.52807231998821
 20
247.0374564413481
 30
0.0
 40
4.881314598045666
 50
177.80434810777791
 51
272.19565189222402
  0
LINE
  5
56
  8
L1
 10
181.39727438409639
 20
243.87645370154769
 30
0.0
 11
178.6704010809151
 21
241.1495803983664
 31
0.0
  0
ARC
  5
57
  8
L1
 10
175.5280723199883
 20
247.03745644134821
 30
0.0
 40
6.3999999999999941
 50
180.0
 51
270.00000000000102
  0
LINE
  5
58
  8
L1
 10
182.0280723199881
 20
250.9374564413481
 30
0.0
 11
182.0280723199881
 21
239.66454833779829
 31
0.0
  0
LINE
  5
59
  8
L6
 10
-1.319026652432512
 20
190.2874564413481
 30
0.0
 11
189.15755542373259
 21
190.2874564413481
 31
0.0
  0
LINE
  5
5A
  8
L1
 10
21.628072319988231
 20
126.837456441348
 30
0.0
 11
165.92807231998819
 21
126.837456441348
 31
0.0
  0
LINE
  5
5B
  8
L1
 10
180.3350723199882
 20
125.9944323411234
 30
0.0
 11
7.2210723199881954
 21
125.9944323411234
 31
0.0
  0
LINE
  5
5C
  8
L1
 10
7.2609715607200647
 20
125.275152310439
 30
0.0
 11
180.29517307925639
 21
125.275152310439
 31
0.0
  0
LINE
  5
5D
  8
L1
 10
164.5896498462366
 20
128.6763929276363
 30
0.0
 11
22.966494793739741
 21
128.6763929276363
 31
0.0
  0
LINE
  5
5E
  8
L1
 10
165.92807231998819
 20
127.837456441348
 30
0.0
 11
21.628072319988231
 21
127.837456441348
 31
0.0
  0
ARC
  5
5F
  8
L1
 10
21.628072319988
 20
130.03745644134801
 30
0.0
 40
3.200000000000057
 50
180.0
 51
230.48205331592339
  0
LINE
  5
60
  8
L1
 10
19.40098042353787
 20
127.0374564413482
 30
0.0
 11
8.1280723199880072
 21
127.0374564413482
 31
0.0
  0
ARC
  5
61
  8
L1
 10
21.628072319988
 20
130.03745644134801
 30
0.0
 40
2.200000000000033
 50
180.0
 51
270.0
  0
ARC
  5
62
  8
L1
 10
19.021550495375259
 20
141.54947972414669
 30
0.0
 40
0.3
 50
45.000000000001577
 51
130.00000000000199
  0
ARC
  5
63
  8
L1
 10
16.067008806276188
 20
137.57639292763631
 30
0.0
 40
5.3999999999999986
 50
0.0
 51
90.0
  0
ARC
  5
64
  8
L1
 10
12.028072319987981
 20
133.53745644134801
 30
0.0
 40
7.3999999999999604
 50
0.0
 51
90.0
  0
ARC
  5
65
  8
L1
 10
12.028072319987981
 20
133.53745644134801
 30
0.0
 40
6.3999999999999941
 50
0.0
 51
90.000000000001023
  0
ARC
  5
66
  8
L1
 10
19.021550495375259
 20
239.0254331585495
 30
0.0
 40
0.3
 50
229.99999999999801
 51
314.99999999999841
  0
LINE
  5
67
  8
L1
 10
5.3280723199878253
 20
237.4374564413481
 30
0.0
 11
5.3280723199878253
 21
143.13745644134809
 31
0.0
  0
LINE
  5
68
  8
L1
 10
7.167008806276101
 20
144.47587891509971
 30
0.0
 11
7.167008806276101
 21
236.0990339675966
 31
0.0
  0
LINE
  5
69
  8
L1
 10
6.3280723199879381
 20
143.13745644134809
 30
0.0
 11
6.3280723199879381
 21
237.4374564413481
 31
0.0
  0
POLYLINE
  5
6A
  8
L1
 66
     1
 10
0.0
 20
0.0
 30
0.0
  0
VERTEX
  5
16FD
  8
L1
 10
7.2210723199880809
 20
125.275368003574
 30
0.0
  0
VERTEX
  5
16FE
  8
L1
 10
6.8924417513557614
 20
125.29444236896209
 30
0.0
  0
VERTEX
  5
16FF
  8
L1
 10
6.5592847175426519
 20
125.3457420512338
 30
0.0
  0
VERTEX
  5
1700
  8
L1
 10
6.2279203768140974
 20
125.4304319810053
 30
0.0
  0
VERTEX
  5
1701
  8
L1
 10
5.904299933746926
 20
125.5478714393457
 30
0.0
  0
VERTEX
  5
1702
  8
L1
 10
5.593875617104743
 20
125.69669994234761
 30
0.0
  0
VERTEX
  5
1703
  8
L1
 10
5.3014530890919209
 20
125.874015691162
 30
0.0
  0
VERTEX
  5
1704
  8
L1
 10
5.0316733017437514
 20
126.07605582576799
 30
0.0
  0
VERTEX
  5
1705
  8
L1
 10
4.7881432009144751
 20
126.2975273222746
 30
0.0
  0
VERTEX
  5
1706
  8
L1
 10
4.5666717044078382
 20
126.54105742310389
 30
0.0
  0
VERTEX
  5
1707
  8
L1
 10
4.364631569802043
 20
126.81083721045199
 30
0.0
  0
VERTEX
  5
1708
  8
L1
 10
4.1873158209876351
 20
127.1032597384648
 30
0.0
  0
VERTEX
  5
1709
  8
L1
 10
4.0384873179856982
 20
127.4136840551072
 30
0.0
  0
VERTEX
  5
170A
  8
L1
 10
3.9210478596451699
 20
127.7373044981742
 30
0.0
  0
VERTEX
  5
170B
  8
L1
 10
3.8363579298737132
 20
128.06866883890291
 30
0.0
  0
VERTEX
  5
170C
  8
L1
 10
3.78505824760208
 20
128.4018258727159
 30
0.0
  0
VERTEX
  5
170D
  8
L1
 10
3.765983882214015
 20
128.7304564413482
 30
0.0
  0
SEQEND
  5
170E
  8
L1
  0
ARC
  5
6B
  8
L1
 10
7.2210723199880809
 20
128.7304564413482
 30
0.0
 40
2.7360241002247609
 50
180.0
 51
270.0
  0
ARC
  5
6C
  8
L1
 10
12.028072319988089
 20
133.5374564413481
 30
0.0
 40
4.881314598045666
 50
357.80434810777791
 51
92.195651892224134
  0
LINE
  5
6D
  8
L1
 10
11.841059511690499
 20
138.4151873087317
 30
0.0
 11
7.1503414526044358
 21
133.72446924964561
 31
0.0
  0
LINE
  5
6E
  8
L1
 10
5.5280723199880981
 20
129.63745644134809
 30
0.0
 11
5.5280723199880981
 21
140.9103645448979
 31
0.0
  0
ARC
  5
6F
  8
L1
 10
12.028072319988089
 20
133.5374564413481
 30
0.0
 40
4.881314598045666
 50
247.66928672886399
 51
272.19565189222271
  0
LINE
  5
70
  8
L1
 10
10.173406775464681
 20
129.02221027717809
 30
0.0
 11
8.1886529396350056
 21
127.0374564413482
 31
0.0
  0
ARC
  5
71
  8
L1
 10
12.028072319988089
 20
133.5374564413481
 30
0.0
 40
5.7825462644184809
 50
206.0136049375553
 51
243.9863950624225
  0
LINE
  5
72
  8
L1
 10
5.5280723199880981
 20
129.69803706099489
 30
0.0
 11
7.5128261558180043
 21
131.68279089682491
 31
0.0
  0
ARC
  5
73
  8
L1
 10
8.1280723199880072
 20
129.63745644134809
 30
0.0
 40
2.6000000000000001
 50
180.0
 51
270.0
  0
ARC
  5
74
  8
L1
 10
12.028072319988089
 20
133.5374564413481
 30
0.0
 40
4.881314598045666
 50
177.8043481077772
 51
202.3307132711364
  0
POLYLINE
  5
75
  8
L1
 66
     1
 10
0.0
 20
0.0
 30
0.0
  0
VERTEX
  5
170F
  8
L1
 10
15.792534824428509
 20
127.0374564413482
 30
0.0
  0
VERTEX
  5
1710
  8
L1
 10
15.234511723253769
 20
127.2066952249526
 30
0.0
  0
VERTEX
  5
1711
  8
L1
 10
15.124018254716979
 20
127.3413183893351
 30
0.0
  0
VERTEX
  5
1712
  8
L1
 10
15.106955983156411
 20
127.514642022654
 30
0.0
  0
VERTEX
  5
1713
  8
L1
 10
15.18907505978887
 20
127.6682543772398
 30
0.0
  0
SEQEND
  5
1714
  8
L1
  0
LINE
  5
76
  8
L1
 10
18.428072319987962
 20
130.03745644134801
 30
0.0
 11
18.428072319987962
 21
131.33745644134791
 31
0.0
  0
LINE
  5
77
  8
L1
 10
12.215085128285461
 20
128.65972557396461
 30
0.0
 11
16.905803187371639
 21
133.3504436330507
 31
0.0
  0
LINE
  5
78
  8
L1
 10
18.428072319987962
 20
131.33745644134791
 30
0.0
 11
18.428072319987962
 21
133.53745644134801
 31
0.0
  0
POLYLINE
  5
79
  8
L1
 66
     1
 10
0.0
 20
0.0
 30
0.0
  0
VERTEX
  5
1715
  8
L1
 10
17.91594836296991
 20
130.3951276804209
 30
0.0
  0
VERTEX
  5
1716
  8
L1
 10
18.069553625939129
 20
130.47723107653769
 30
0.0
  0
VERTEX
  5
1717
  8
L1
 10
18.242882626351548
 20
130.46015419480551
 30
0.0
  0
VERTEX
  5
1718
  8
L1
 10
18.377514790218179
 20
130.34965280160179
 30
0.0
  0
VERTEX
  5
1719
  8
L1
 10
18.428072319987962
 20
130.18297141343629
 30
0.0
  0
SEQEND
  5
171A
  8
L1
  0
LINE
  5
7A
  8
L1
 10
17.91594836296991
 20
130.3951276804209
 30
0.0
 11
15.18907505978876
 21
127.6682543772398
 31
0.0
  0
LINE
  5
7B
  8
L1
 10
8.5280723199880981
 20
140.93745644134799
 30
0.0
 11
12.028072319987981
 21
140.93745644134799
 31
0.0
  0
LINE
  5
7C
  8
L1
 10
8.6664947937395596
 20
142.9763929276364
 30
0.0
 11
12.028072319987871
 21
142.9763929276364
 31
0.0
  0
LINE
  5
7D
  8
L1
 10
12.028072319987981
 20
139.93745644134799
 30
0.0
 11
9.8280723199879372
 21
139.93745644134799
 31
0.0
  0
LINE
  5
7E
  8
L1
 10
9.8280723199879372
 20
139.93745644134799
 30
0.0
 11
8.5280723199880981
 21
139.93745644134799
 31
0.0
  0
ARC
  5
7F
  8
L1
 10
8.5280723199880981
 20
143.13745644134809
 30
0.0
 40
2.2000000000001192
 50
180.0
 51
270.0
  0
ARC
  5
80
  8
L1
 10
8.5280723199880981
 20
143.13745644134809
 30
0.0
 40
3.200000000000141
 50
219.5179466840784
 51
270.0
  0
POLYLINE
  5
81
  8
L1
 66
     1
 10
0.0
 20
0.0
 30
0.0
  0
VERTEX
  5
171B
  8
L1
 10
8.6649546896870202
 20
142.97639450891529
 30
0.0
  0
VERTEX
  5
171C
  8
L1
 10
8.2776877367430757
 20
143.0280894504105
 30
0.0
  0
VERTEX
  5
171D
  8
L1
 10
7.9167906350527906
 20
143.17807211284489
 30
0.0
  0
VERTEX
  5
171E
  8
L1
 10
7.6067727159712026
 20
143.4161568373315
 30
0.0
  0
VERTEX
  5
171F
  8
L1
 10
7.3686879914847054
 20
143.726174756413
 30
0.0
  0
VERTEX
  5
1720
  8
L1
 10
7.2187053290502368
 20
144.08707185810329
 30
0.0
  0
VERTEX
  5
1721
  8
L1
 10
7.1670103875550799
 20
144.4743388110472
 30
0.0
  0
SEQEND
  5
1722
  8
L1
  0
ARC
  5
82
  8
L1
 10
8.5280723199880981
 20
143.13745644134809
 30
0.0
 40
3.200000000000141
 50
180.0
 51
219.5179466840784
  0
POLYLINE
  5
83
  8
L1
 66
     1
 10
0.0
 20
0.0
 30
0.0
  0
VERTEX
  5
1723
  8
L1
 10
5.5280723199880981
 20
140.91036454489799
 30
0.0
  0
VERTEX
  5
1724
  8
L1
 10
5.528299518234177
 20
140.9220383147989
 30
0.0
  0
VERTEX
  5
1725
  8
L1
 10
5.5364823240049068
 20
140.9809014107808
 30
0.0
  0
VERTEX
  5
1726
  8
L1
 10
5.5561074520031184
 20
141.036996567454
 30
0.0
  0
VERTEX
  5
1727
  8
L1
 10
5.5862790050788931
 20
141.0879496177761
 30
0.0
  0
VERTEX
  5
1728
  8
L1
 10
5.6258715699123618
 20
141.1319832394355
 30
0.0
  0
VERTEX
  5
1729
  8
L1
 10
5.6676754987448126
 20
141.16388332515379
 30
0.0
  0
VERTEX
  5
172A
  8
L1
 10
5.7144075939820018
 20
141.1879934193982
 30
0.0
  0
VERTEX
  5
172B
  8
L1
 10
5.7578796990267733
 20
141.20203026995779
 30
0.0
  0
VERTEX
  5
172C
  8
L1
 10
5.8029791027695969
 20
141.20930372438411
 30
0.0
  0
VERTEX
  5
172D
  8
L1
 10
5.8878220275061599
 20
141.20434031669811
 30
0.0
  0
VERTEX
  5
172E
  8
L1
 10
5.9343297403401598
 20
141.1909004385418
 30
0.0
  0
VERTEX
  5
172F
  8
L1
 10
5.9780706748250054
 20
141.17015600241459
 30
0.0
  0
VERTEX
  5
1730
  8
L1
 10
6.0218965960545461
 20
141.13932820755721
 30
0.0
  0
VERTEX
  5
1731
  8
L1
 10
6.059511335773947
 20
141.1012328123681
 30
0.0
  0
SEQEND
  5
1732
  8
L1
  0
POLYLINE
  5
84
  8
L1
 66
     1
 10
0.0
 20
0.0
 30
0.0
  0
VERTEX
  5
1733
  8
L1
 10
8.6735872920765473
 20
139.93745644134799
 30
0.0
  0
VERTEX
  5
1734
  8
L1
 10
8.8402686802419908
 20
139.88689891157821
 30
0.0
  0
VERTEX
  5
1735
  8
L1
 10
8.9507700734457671
 20
139.7522667477115
 30
0.0
  0
VERTEX
  5
1736
  8
L1
 10
8.9678469551777766
 20
139.57893774729911
 30
0.0
  0
VERTEX
  5
1737
  8
L1
 10
8.8857435590611544
 20
139.4253324843298
 30
0.0
  0
SEQEND
  5
1738
  8
L1
  0
POLYLINE
  5
85
  8
L1
 66
     1
 10
0.0
 20
0.0
 30
0.0
  0
VERTEX
  5
1739
  8
L1
 10
6.1588702558797763
 20
136.69845918114859
 30
0.0
  0
VERTEX
  5
173A
  8
L1
 10
6.0052579012941001
 20
136.61634010451621
 30
0.0
  0
VERTEX
  5
173B
  8
L1
 10
5.8319342679752131
 20
136.63340237607679
 30
0.0
  0
VERTEX
  5
173C
  8
L1
 10
5.697311103592539
 20
136.74389584461341
 30
0.0
  0
VERTEX
  5
173D
  8
L1
 10
5.5280723199880981
 20
137.3019189457888
 30
0.0
  0
SEQEND
  5
173E
  8
L1
  0
LINE
  5
86
  8
L1
 10
6.1588702558797763
 20
136.69845918114859
 30
0.0
 11
8.8857435590611544
 21
139.4253324843298
 31
0.0
  0
LINE
  5
87
  8
L1
 10
18.039683768439819
 20
141.11721790250951
 30
0.0
 11
18.828714212469261
 21
141.77929305708241
 31
0.0
  0
ARC
  5
88
  8
L1
 10
12.028072319987981
 20
133.5374564413483
 30
0.0
 40
9.4389364862881635
 50
53.310709947555161
 51
90.000000000000725
  0
POLYLINE
  5
89
  8
L1
 66
     1
 10
0.0
 20
0.0
 30
0.0
  0
VERTEX
  5
173F
  8
L1
 10
17.66760340361833
 20
141.10642011869211
 30
0.0
  0
VERTEX
  5
1740
  8
L1
 10
17.712881234636651
 20
141.078560394687
 30
0.0
  0
VERTEX
  5
1741
  8
L1
 10
17.756076581736181
 20
141.0610535787516
 30
0.0
  0
VERTEX
  5
1742
  8
L1
 10
17.801462799275271
 20
141.05045060641629
 30
0.0
  0
VERTEX
  5
1743
  8
L1
 10
17.887091953534249
 20
141.04972312826609
 30
0.0
  0
VERTEX
  5
1744
  8
L1
 10
17.932273974024891
 20
141.05943900377719
 30
0.0
  0
VERTEX
  5
1745
  8
L1
 10
17.97542827639046
 20
141.07597776401869
 30
0.0
  0
VERTEX
  5
1746
  8
L1
 10
18.039683768439819
 20
141.11721790250951
 30
0.0
  0
SEQEND
  5
1747
  8
L1
  0
LINE
  5
8A
  8
L1
 10
16.067008806276188
 20
142.9763929276364
 30
0.0
 11
12.028072319987871
 21
142.9763929276364
 31
0.0
  0
LINE
  5
8B
  8
L1
 10
12.028072319987981
 20
240.63745644134829
 30
0.0
 11
9.8280723199879372
 21
240.63745644134829
 31
0.0
  0
LINE
  5
8C
  8
L1
 10
8.6664947937395596
 20
237.5985199550598
 30
0.0
 11
12.028072319987871
 21
237.5985199550598
 31
0.0
  0
LINE
  5
8D
  8
L1
 10
8.5280723199880981
 20
239.63745644134821
 30
0.0
 11
12.028072319987981
 21
239.63745644134821
 31
0.0
  0
POLYLINE
  5
8E
  8
L1
 66
     1
 10
0.0
 20
0.0
 30
0.0
  0
VERTEX
  5
1748
  8
L1
 10
8.6735872920765473
 20
240.63745644134829
 30
0.0
  0
VERTEX
  5
1749
  8
L1
 10
8.8402686802419908
 20
240.68801397111801
 30
0.0
  0
VERTEX
  5
174A
  8
L1
 10
8.9507700734457671
 20
240.82264613498481
 30
0.0
  0
VERTEX
  5
174B
  8
L1
 10
8.9678469551777766
 20
240.99597513539709
 30
0.0
  0
VERTEX
  5
174C
  8
L1
 10
8.8857435590611544
 20
241.1495803983664
 30
0.0
  0
SEQEND
  5
174D
  8
L1
  0
POLYLINE
  5
8F
  8
L1
 66
     1
 10
0.0
 20
0.0
 30
0.0
  0
VERTEX
  5
174E
  8
L1
 10
5.5280723199880981
 20
239.66454833779821
 30
0.0
  0
VERTEX
  5
174F
  8
L1
 10
5.528299518234177
 20
239.65287456789741
 30
0.0
  0
VERTEX
  5
1750
  8
L1
 10
5.5364823240049068
 20
239.59401147191551
 30
0.0
  0
VERTEX
  5
1751
  8
L1
 10
5.5561074520031184
 20
239.5379163152422
 30
0.0
  0
VERTEX
  5
1752
  8
L1
 10
5.5862790050788931
 20
239.48696326492021
 30
0.0
  0
VERTEX
  5
1753
  8
L1
 10
5.6258715699123618
 20
239.4429296432607
 30
0.0
  0
VERTEX
  5
1754
  8
L1
 10
5.6676754987448126
 20
239.41102955754241
 30
0.0
  0
VERTEX
  5
1755
  8
L1
 10
5.7144075939820018
 20
239.386919463298
 30
0.0
  0
VERTEX
  5
1756
  8
L1
 10
5.7578796990267733
 20
239.37288261273841
 30
0.0
  0
VERTEX
  5
1757
  8
L1
 10
5.8029791027695969
 20
239.36560915831211
 30
0.0
  0
VERTEX
  5
1758
  8
L1
 10
5.8878220275061599
 20
239.37057256599809
 30
0.0
  0
VERTEX
  5
1759
  8
L1
 10
5.9343297403401598
 20
239.38401244415451
 30
0.0
  0
VERTEX
  5
175A
  8
L1
 10
5.9780706748250054
 20
239.40475688028161
 30
0.0
  0
VERTEX
  5
175B
  8
L1
 10
6.0218965960545461
 20
239.43558467513901
 30
0.0
  0
VERTEX
  5
175C
  8
L1
 10
6.059511335773947
 20
239.4736800703281
 30
0.0
  0
SEQEND
  5
175D
  8
L1
  0
ARC
  5
90
  8
L1
 10
8.5280723199880981
 20
237.4374564413481
 30
0.0
 40
3.200000000000141
 50
140.48205331592149
 51
180.0
  0
POLYLINE
  5
91
  8
L1
 66
     1
 10
0.0
 20
0.0
 30
0.0
  0
VERTEX
  5
175E
  8
L1
 10
8.6649546896870202
 20
237.59851837378091
 30
0.0
  0
VERTEX
  5
175F
  8
L1
 10
8.2776877367430757
 20
237.54682343228569
 30
0.0
  0
VERTEX
  5
1760
  8
L1
 10
7.9167906350527906
 20
237.39684076985131
 30
0.0
  0
VERTEX
  5
1761
  8
L1
 10
7.6067727159712026
 20
237.1587560453647
 30
0.0
  0
VERTEX
  5
1762
  8
L1
 10
7.3686879914847054
 20
236.84873812628319
 30
0.0
  0
VERTEX
  5
1763
  8
L1
 10
7.2187053290502368
 20
236.487841024593
 30
0.0
  0
VERTEX
  5
1764
  8
L1
 10
7.1670103875550799
 20
236.10057407164899
 30
0.0
  0
SEQEND
  5
1765
  8
L1
  0
ARC
  5
92
  8
L1
 10
8.5280723199880981
 20
237.4374564413481
 30
0.0
 40
3.200000000000141
 50
90.0
 51
140.48205331592149
  0
ARC
  5
93
  8
L1
 10
8.5280723199880981
 20
237.4374564413481
 30
0.0
 40
2.2000000000001192
 50
90.0
 51
180.0
  0
LINE
  5
94
  8
L1
 10
9.8280723199879372
 20
240.63745644134829
 30
0.0
 11
8.5280723199880981
 21
240.63745644134829
 31
0.0
  0
LINE
  5
95
  8
L1
 10
16.067008806276188
 20
237.5985199550598
 30
0.0
 11
12.028072319987871
 21
237.5985199550598
 31
0.0
  0
POLYLINE
  5
96
  8
L1
 66
     1
 10
0.0
 20
0.0
 30
0.0
  0
VERTEX
  5
1766
  8
L1
 10
17.66760340361833
 20
239.46849276400411
 30
0.0
  0
VERTEX
  5
1767
  8
L1
 10
17.712881234636651
 20
239.49635248800931
 30
0.0
  0
VERTEX
  5
1768
  8
L1
 10
17.756076581736181
 20
239.5138593039446
 30
0.0
  0
VERTEX
  5
1769
  8
L1
 10
17.801462799275271
 20
239.52446227627991
 30
0.0
  0
VERTEX
  5
176A
  8
L1
 10
17.887091953534249
 20
239.5251897544301
 30
0.0
  0
VERTEX
  5
176B
  8
L1
 10
17.932273974024891
 20
239.51547387891901
 30
0.0
  0
VERTEX
  5
176C
  8
L1
 10
17.97542827639046
 20
239.49893511867751
 30
0.0
  0
VERTEX
  5
176D
  8
L1
 10
18.039683768439819
 20
239.45769498018669
 30
0.0
  0
SEQEND
  5
176E
  8
L1
  0
ARC
  5
97
  8
L1
 10
12.028072319987981
 20
247.0374564413479
 30
0.0
 40
9.4389364862881635
 50
269.9999999999992
 51
306.68929005244479
  0
LINE
  5
98
  8
L1
 10
18.039683768439819
 20
239.45769498018669
 30
0.0
 11
18.828714212469261
 21
238.79561982561381
 31
0.0
  0
ARC
  5
99
  8
L1
 10
12.028072319987981
 20
133.5374564413483
 30
0.0
 40
9.4389364862881635
 50
0.0
 51
36.689290052442303
  0
LINE
  5
9A
  8
L1
 10
21.467008806276048
 20
133.5374564413483
 30
0.0
 11
21.467008806276048
 21
137.57639292763631
 31
0.0
  0
POLYLINE
  5
9B
  8
L1
 66
     1
 10
0.0
 20
0.0
 30
0.0
  0
VERTEX
  5
176F
  8
L1
 10
21.467008806276279
 20
130.17587891509979
 30
0.0
  0
VERTEX
  5
1770
  8
L1
 10
21.46700920159611
 20
130.17510866531211
 30
0.0
  0
VERTEX
  5
1771
  8
L1
 10
21.467010387555138
 20
130.17433881104711
 30
0.0
  0
SEQEND
  5
1772
  8
L1
  0
LINE
  5
9C
  8
L1
 10
21.467008806276279
 20
133.5374564413483
 30
0.0
 11
21.467008806276279
 21
130.1758789150997
 31
0.0
  0
POLYLINE
  5
9D
  8
L1
 66
     1
 10
0.0
 20
0.0
 30
0.0
  0
VERTEX
  5
1773
  8
L1
 10
22.964954689686859
 20
128.67639450891519
 30
0.0
  0
VERTEX
  5
1774
  8
L1
 10
22.577687736742909
 20
128.72808945041041
 30
0.0
  0
VERTEX
  5
1775
  8
L1
 10
22.216790635052629
 20
128.87807211284479
 30
0.0
  0
VERTEX
  5
1776
  8
L1
 10
21.906772715971272
 20
129.11615683733149
 30
0.0
  0
VERTEX
  5
1777
  8
L1
 10
21.66868799148466
 20
129.42617475641299
 30
0.0
  0
VERTEX
  5
1778
  8
L1
 10
21.518705329050189
 20
129.78707185810319
 30
0.0
  0
VERTEX
  5
1779
  8
L1
 10
21.467010387555138
 20
130.17433881104711
 30
0.0
  0
SEQEND
  5
177A
  8
L1
  0
LINE
  5
9E
  8
L1
 10
19.428072319987962
 20
133.53745644134801
 30
0.0
 11
19.428072319987962
 21
130.03745644134801
 31
0.0
  0
POLYLINE
  5
9F
  8
L1
 66
     1
 10
0.0
 20
0.0
 30
0.0
  0
VERTEX
  5
177B
  8
L1
 10
19.591848691008011
 20
127.568895457134
 30
0.0
  0
VERTEX
  5
177C
  8
L1
 10
19.594004361708521
 20
127.5671003263095
 30
0.0
  0
VERTEX
  5
177D
  8
L1
 10
19.635764092642201
 20
127.52418760859609
 30
0.0
  0
VERTEX
  5
177E
  8
L1
 10
19.66817167578477
 20
127.4738376276912
 30
0.0
  0
VERTEX
  5
177F
  8
L1
 10
19.68909897784448
 20
127.4209966132938
 30
0.0
  0
VERTEX
  5
1780
  8
L1
 10
19.6996864047656
 20
127.365157350383
 30
0.0
  0
VERTEX
  5
1781
  8
L1
 10
19.699363824567911
 20
127.3064439206851
 30
0.0
  0
VERTEX
  5
1782
  8
L1
 10
19.6876117106629
 20
127.24891784361419
 30
0.0
  0
VERTEX
  5
1783
  8
L1
 10
19.664622957923989
 20
127.194309790299
 30
0.0
  0
VERTEX
  5
1784
  8
L1
 10
19.631349689760722
 20
127.14528522538831
 30
0.0
  0
VERTEX
  5
1785
  8
L1
 10
19.59046368665798
 20
127.1048699231153
 30
0.0
  0
VERTEX
  5
1786
  8
L1
 10
19.542618770410218
 20
127.0729962765752
 30
0.0
  0
VERTEX
  5
1787
  8
L1
 10
19.498932113942431
 20
127.05389716150739
 30
0.0
  0
VERTEX
  5
1788
  8
L1
 10
19.452771317645951
 20
127.041960486966
 30
0.0
  0
VERTEX
  5
1789
  8
L1
 10
19.40098042353787
 20
127.0374564413482
 30
0.0
  0
SEQEND
  5
178A
  8
L1
  0
ARC
  5
A0
  8
L1
 10
21.628072319988
 20
130.03745644134801
 30
0.0
 40
3.200000000000057
 50
230.48205331592339
 51
270.0
  0
LINE
  5
A1
  8
L1
 10
19.23368252973119
 20
141.7616117585026
 30
0.0
 11
20.252227637142418
 21
140.7430666510914
 31
0.0
  0
ARC
  5
A2
  8
L1
 10
20.04009560278649
 20
140.53093461673549
 30
0.0
 40
0.3
 50
319.99999999999841
 51
45.0
  0
LINE
  5
A3
  8
L1
 10
20.269908935722182
 20
140.33809833382949
 30
0.0
 11
19.607833781149392
 21
139.54906788979989
 31
0.0
  0
POLYLINE
  5
A4
  8
L1
 66
     1
 10
0.0
 20
0.0
 30
0.0
  0
VERTEX
  5
178B
  8
L1
 10
19.607833781149392
 20
139.5490678897998
 30
0.0
  0
VERTEX
  5
178C
  8
L1
 10
19.59660039263127
 20
139.5348279786281
 30
0.0
  0
VERTEX
  5
178D
  8
L1
 10
19.566181942671559
 20
139.48394086031789
 30
0.0
  0
VERTEX
  5
178E
  8
L1
 10
19.54636028493627
 20
139.42806736817209
 30
0.0
  0
VERTEX
  5
178F
  8
L1
 10
19.537952234485541
 20
139.37027988627301
 30
0.0
  0
VERTEX
  5
1790
  8
L1
 10
19.540898645801398
 20
139.31195858402899
 30
0.0
  0
VERTEX
  5
1791
  8
L1
 10
19.554456873495429
 20
139.2571046679368
 30
0.0
  0
VERTEX
  5
1792
  8
L1
 10
19.578063048432391
 20
139.2057674061999
 30
0.0
  0
VERTEX
  5
1793
  8
L1
 10
19.59703599733194
 20
139.1769875249783
 30
0.0
  0
SEQEND
  5
1794
  8
L1
  0
LINE
  5
A5
  8
L1
 10
20.269908935722182
 20
240.2368145488667
 30
0.0
 11
19.607833781149392
 21
241.02584499289631
 31
0.0
  0
ARC
  5
A6
  8
L1
 10
20.04009560278649
 20
240.0439782659607
 30
0.0
 40
0.3
 50
315.0
 51
40.000000000001577
  0
LINE
  5
A7
  8
L1
 10
19.23368252973119
 20
238.8133011241936
 30
0.0
 11
20.252227637142418
 21
239.8318462316048
 31
0.0
  0
LINE
  5
BD
  8
L2
 10
294.04481207705931
 20
142.33745644134811
 30
0.0
 11
269.64481207705933
 21
142.97639292763631
 31
0.0
  0
LINE
  5
C0
  8
L1
 10
293.3255320463748
 20
125.275152310439
 30
0.0
 11
267.63434488581072
 21
126.6215703766691
 31
0.0
  0
LINE
  5
C1
  8
L6
 10
300.71368431309833
 20
190.2874564413481
 30
0.0
 11
212.14610777531419
 21
190.2874564413481
 31
0.0
  0
LINE
  5
C2
  8
L2
 10
294.04481207705931
 20
238.23745644134809
 30
0.0
 11
269.64481207705933
 21
237.59851995505991
 31
0.0
  0
LINE
  5
C5
  8
L2
 10
220.34481207705929
 20
233.55468414083541
 30
0.0
 11
220.34481207705929
 21
147.02022874186051
 31
0.0
  0
LINE
  5
C6
  8
L1
 10
217.44481207705931
 20
145.83350043553571
 30
0.0
 11
217.44481207705931
 21
234.74147099219439
 31
0.0
  0
LINE
  5
C7
  8
L1
 10
181.22807231998831
 20
143.13745644134809
 30
0.0
 11
181.22807231998831
 21
237.4374564413481
 31
0.0
  0
LINE
  5
C8
  8
L1
 10
180.3891358337001
 20
144.47587891509971
 30
0.0
 11
180.3891358337001
 21
236.0990339675966
 31
0.0
  0
LINE
  5
C9
  8
L1
 10
182.2280723199884
 20
237.4374564413481
 30
0.0
 11
182.2280723199884
 21
143.13745644134809
 31
0.0
  0
LINE
  5
CA
  8
L1
 10
267.25527926830779
 20
141.34738943495611
 30
0.0
 11
219.17553314394951
 21
143.86714215782609
 31
0.0
  0
LINE
  5
CB
  8
L2
 10
221.7663081426949
 20
145.52228443972879
 30
0.0
 11
269.64481207705933
 21
142.97639292763631
 31
0.0
  0
ARC
  5
CC
  8
L1
 10
180.3350723199882
 20
128.7304564413482
 30
0.0
 40
2.7360241002247609
 50
270.0
 51
0.0
  0
POLYLINE
  5
CD
  8
L1
 66
     1
 10
0.0
 20
0.0
 30
0.0
  0
VERTEX
  5
1795
  8
L1
 10
180.3350723199882
 20
125.275368003574
 30
0.0
  0
VERTEX
  5
1796
  8
L1
 10
180.66370288862049
 20
125.29444236896209
 30
0.0
  0
VERTEX
  5
1797
  8
L1
 10
180.99685992243349
 20
125.3457420512338
 30
0.0
  0
VERTEX
  5
1798
  8
L1
 10
181.32822426316221
 20
125.4304319810053
 30
0.0
  0
VERTEX
  5
1799
  8
L1
 10
181.6518447062293
 20
125.5478714393457
 30
0.0
  0
VERTEX
  5
179A
  8
L1
 10
181.96226902287151
 20
125.69669994234761
 30
0.0
  0
VERTEX
  5
179B
  8
L1
 10
182.25469155088419
 20
125.874015691162
 30
0.0
  0
VERTEX
  5
179C
  8
L1
 10
182.5244713382325
 20
126.07605582576799
 30
0.0
  0
VERTEX
  5
179D
  8
L1
 10
182.76800143906181
 20
126.2975273222746
 30
0.0
  0
VERTEX
  5
179E
  8
L1
 10
182.98947293556839
 20
126.54105742310389
 30
0.0
  0
VERTEX
  5
179F
  8
L1
 10
183.19151307017421
 20
126.81083721045199
 30
0.0
  0
VERTEX
  5
17A0
  8
L1
 10
183.36882881898859
 20
127.1032597384648
 30
0.0
  0
VERTEX
  5
17A1
  8
L1
 10
183.5176573219905
 20
127.4136840551072
 30
0.0
  0
VERTEX
  5
17A2
  8
L1
 10
183.63509678033111
 20
127.7373044981742
 30
0.0
  0
VERTEX
  5
17A3
  8
L1
 10
183.71978671010251
 20
128.06866883890291
 30
0.0
  0
VERTEX
  5
17A4
  8
L1
 10
183.7710863923742
 20
128.4018258727159
 30
0.0
  0
VERTEX
  5
17A5
  8
L1
 10
183.79016075776221
 20
128.7304564413482
 30
0.0
  0
SEQEND
  5
17A6
  8
L1
  0
LINE
  5
CE
  8
L1
 10
169.64019627700631
 20
130.3951276804209
 30
0.0
 11
172.36706958018749
 21
127.6682543772398
 31
0.0
  0
LINE
  5
CF
  8
L1
 10
168.15516421643841
 20
127.0374564413482
 30
0.0
 11
179.42807231998819
 21
127.0374564413482
 31
0.0
  0
ARC
  5
D0
  8
L1
 10
175.5280723199883
 20
133.5374564413483
 30
0.0
 40
9.4389364862881635
 50
89.999999999999275
 51
126.6892900524448
  0
ARC
  5
D1
  8
L1
 10
171.48913583370009
 20
137.57639292763631
 30
0.0
 40
5.3999999999999986
 50
90.0
 51
180.0
  0
ARC
  5
D2
  8
L1
 10
175.5280723199883
 20
133.53745644134801
 30
0.0
 40
6.3999999999999941
 50
89.999999999998977
 51
180.0
  0
ARC
  5
D3
  8
L1
 10
175.52807231998821
 20
133.5374564413481
 30
0.0
 40
4.881314598045666
 50
87.804348107775894
 51
182.195651892222
  0
ARC
  5
D4
  8
L1
 10
175.5280723199883
 20
133.53745644134801
 30
0.0
 40
7.3999999999999604
 50
90.0
 51
180.0
  0
LINE
  5
D5
  8
L1
 10
166.08913583370011
 20
133.5374564413483
 30
0.0
 11
166.08913583370011
 21
137.57639292763631
 31
0.0
  0
ARC
  5
D6
  8
L1
 10
175.5280723199883
 20
133.5374564413483
 30
0.0
 40
9.4389364862881635
 50
143.3107099475576
 51
180.0
  0
POLYLINE
  5
D7
  8
L1
 66
     1
 10
0.0
 20
0.0
 30
0.0
  0
VERTEX
  5
17A7
  8
L1
 10
169.64019627700631
 20
130.3951276804209
 30
0.0
  0
VERTEX
  5
17A8
  8
L1
 10
169.48659101403709
 20
130.47723107653769
 30
0.0
  0
VERTEX
  5
17A9
  8
L1
 10
169.31326201362469
 20
130.46015419480551
 30
0.0
  0
VERTEX
  5
17AA
  8
L1
 10
169.1786298497581
 20
130.34965280160179
 30
0.0
  0
VERTEX
  5
17AB
  8
L1
 10
169.12807231998821
 20
130.18297141343629
 30
0.0
  0
SEQEND
  5
17AC
  8
L1
  0
LINE
  5
D8
  8
L1
 10
169.12807231998829
 20
131.33745644134791
 30
0.0
 11
169.12807231998829
 21
133.53745644134801
 31
0.0
  0
LINE
  5
D9
  8
L1
 10
169.12807231998829
 20
130.03745644134801
 30
0.0
 11
169.12807231998829
 21
131.33745644134791
 31
0.0
  0
POLYLINE
  5
DA
  8
L1
 66
     1
 10
0.0
 20
0.0
 30
0.0
  0
VERTEX
  5
17AD
  8
L1
 10
167.9642959489681
 20
127.568895457134
 30
0.0
  0
VERTEX
  5
17AE
  8
L1
 10
167.9621402782677
 20
127.5671003263095
 30
0.0
  0
VERTEX
  5
17AF
  8
L1
 10
167.9203805473341
 20
127.52418760859609
 30
0.0
  0
VERTEX
  5
17B0
  8
L1
 10
167.8879729641915
 20
127.4738376276912
 30
0.0
  0
VERTEX
  5
17B1
  8
L1
 10
167.8670456621318
 20
127.4209966132938
 30
0.0
  0
VERTEX
  5
17B2
  8
L1
 10
167.85645823521071
 20
127.365157350383
 30
0.0
  0
VERTEX
  5
17B3
  8
L1
 10
167.8567808154084
 20
127.3064439206851
 30
0.0
  0
VERTEX
  5
17B4
  8
L1
 10
167.8685329293134
 20
127.24891784361419
 30
0.0
  0
VERTEX
  5
17B5
  8
L1
 10
167.89152168205231
 20
127.194309790299
 30
0.0
  0
VERTEX
  5
17B6
  8
L1
 10
167.9247949502155
 20
127.14528522538831
 30
0.0
  0
VERTEX
  5
17B7
  8
L1
 10
167.9656809533183
 20
127.1048699231153
 30
0.0
  0
VERTEX
  5
17B8
  8
L1
 10
168.013525869566
 20
127.0729962765752
 30
0.0
  0
VERTEX
  5
17B9
  8
L1
 10
168.05721252603379
 20
127.05389716150739
 30
0.0
  0
VERTEX
  5
17BA
  8
L1
 10
168.1033733223303
 20
127.041960486966
 30
0.0
  0
VERTEX
  5
17BB
  8
L1
 10
168.15516421643841
 20
127.0374564413482
 30
0.0
  0
SEQEND
  5
17BC
  8
L1
  0
ARC
  5
DB
  8
L1
 10
165.92807231998819
 20
130.03745644134801
 30
0.0
 40
3.200000000000057
 50
270.0
 51
309.51794668407649
  0
POLYLINE
  5
DC
  8
L1
 66
     1
 10
0.0
 20
0.0
 30
0.0
  0
VERTEX
  5
17BD
  8
L1
 10
164.59118995028939
 20
128.67639450891519
 30
0.0
  0
VERTEX
  5
17BE
  8
L1
 10
164.97845690323339
 20
128.72808945041041
 30
0.0
  0
VERTEX
  5
17BF
  8
L1
 10
165.33935400492351
 20
128.87807211284479
 30
0.0
  0
VERTEX
  5
17C0
  8
L1
 10
165.64937192400501
 20
129.11615683733149
 30
0.0
  0
VERTEX
  5
17C1
  8
L1
 10
165.88745664849159
 20
129.42617475641299
 30
0.0
  0
VERTEX
  5
17C2
  8
L1
 10
166.037439310926
 20
129.78707185810319
 30
0.0
  0
VERTEX
  5
17C3
  8
L1
 10
166.0891342524211
 20
130.17433881104711
 30
0.0
  0
SEQEND
  5
17C4
  8
L1
  0
LINE
  5
DD
  8
L1
 10
166.0891358337
 20
133.5374564413483
 30
0.0
 11
166.0891358337
 21
130.1758789150997
 31
0.0
  0
POLYLINE
  5
DE
  8
L1
 66
     1
 10
0.0
 20
0.0
 30
0.0
  0
VERTEX
  5
17C5
  8
L1
 10
166.08913583369991
 20
130.17587891509979
 30
0.0
  0
VERTEX
  5
17C6
  8
L1
 10
166.08913543838011
 20
130.17510866531211
 30
0.0
  0
VERTEX
  5
17C7
  8
L1
 10
166.0891342524211
 20
130.17433881104711
 30
0.0
  0
SEQEND
  5
17C8
  8
L1
  0
LINE
  5
DF
  8
L1
 10
168.12807231998829
 20
133.53745644134801
 30
0.0
 11
168.12807231998829
 21
130.03745644134801
 31
0.0
  0
ARC
  5
E0
  8
L1
 10
165.92807231998819
 20
130.03745644134801
 30
0.0
 40
3.200000000000057
 50
309.51794668407649
 51
0.0
  0
ARC
  5
E1
  8
L1
 10
165.92807231998819
 20
130.03745644134801
 30
0.0
 40
2.200000000000033
 50
270.0
 51
0.0
  0
POLYLINE
  5
E2
  8
L1
 66
     1
 10
0.0
 20
0.0
 30
0.0
  0
VERTEX
  5
17C9
  8
L1
 10
169.8885412363579
 20
141.10642011869211
 30
0.0
  0
VERTEX
  5
17CA
  8
L1
 10
169.8432634053396
 20
141.078560394687
 30
0.0
  0
VERTEX
  5
17CB
  8
L1
 10
169.8000680582401
 20
141.0610535787516
 30
0.0
  0
VERTEX
  5
17CC
  8
L1
 10
169.75468184070101
 20
141.05045060641629
 30
0.0
  0
VERTEX
  5
17CD
  8
L1
 10
169.669052686442
 20
141.04972312826609
 30
0.0
  0
VERTEX
  5
17CE
  8
L1
 10
169.62387066595139
 20
141.05943900377719
 30
0.0
  0
VERTEX
  5
17CF
  8
L1
 10
169.58071636358579
 20
141.07597776401869
 30
0.0
  0
VERTEX
  5
17D0
  8
L1
 10
169.5164608715364
 20
141.11721790250951
 30
0.0
  0
SEQEND
  5
17D1
  8
L1
  0
LINE
  5
E3
  8
L1
 10
169.5164608715364
 20
141.11721790250951
 30
0.0
 11
168.72743042750699
 21
141.77929305708241
 31
0.0
  0
POLYLINE
  5
E4
  8
L1
 66
     1
 10
0.0
 20
0.0
 30
0.0
  0
VERTEX
  5
17D2
  8
L1
 10
167.94831085882689
 20
139.5490678897998
 30
0.0
  0
VERTEX
  5
17D3
  8
L1
 10
167.95954424734501
 20
139.5348279786281
 30
0.0
  0
VERTEX
  5
17D4
  8
L1
 10
167.98996269730469
 20
139.48394086031789
 30
0.0
  0
VERTEX
  5
17D5
  8
L1
 10
168.00978435504001
 20
139.42806736817209
 30
0.0
  0
VERTEX
  5
17D6
  8
L1
 10
168.01819240549071
 20
139.37027988627301
 30
0.0
  0
VERTEX
  5
17D7
  8
L1
 10
168.0152459941749
 20
139.31195858402899
 30
0.0
  0
VERTEX
  5
17D8
  8
L1
 10
168.00168776648081
 20
139.2571046679368
 30
0.0
  0
VERTEX
  5
17D9
  8
L1
 10
167.97808159154391
 20
139.2057674061999
 30
0.0
  0
VERTEX
  5
17DA
  8
L1
 10
167.9591086426442
 20
139.1769875249783
 30
0.0
  0
SEQEND
  5
17DB
  8
L1
  0
LINE
  5
E5
  8
L1
 10
167.2862357042541
 20
140.33809833382949
 30
0.0
 11
167.94831085882689
 21
139.54906788979989
 31
0.0
  0
ARC
  5
E6
  8
L1
 10
167.51604903718979
 20
140.53093461673549
 30
0.0
 40
0.3
 50
135.0
 51
220.00000000000159
  0
LINE
  5
E7
  8
L1
 10
168.32246211024511
 20
141.7616117585026
 30
0.0
 11
167.3039170028338
 21
140.7430666510914
 31
0.0
  0
ARC
  5
E8
  8
L1
 10
168.53459414460099
 20
141.54947972414669
 30
0.0
 40
0.3
 50
49.99999999999801
 51
134.99999999999841
  0
LINE
  5
E9
  8
L1
 10
182.0280723199881
 20
129.63745644134809
 30
0.0
 11
182.0280723199881
 21
140.9103645448979
 31
0.0
  0
LINE
  5
EA
  8
L1
 10
175.71508512828561
 20
138.4151873087317
 30
0.0
 11
180.4058031873717
 21
133.72446924964561
 31
0.0
  0
ARC
  5
EB
  8
L1
 10
175.52807231998821
 20
133.5374564413481
 30
0.0
 40
5.7825462644184809
 50
296.01360493757738
 51
333.986395062437
  0
LINE
  5
EC
  8
L1
 10
177.38273786451151
 20
129.02221027717809
 30
0.0
 11
179.3674917003413
 21
127.0374564413482
 31
0.0
  0
LINE
  5
ED
  8
L1
 10
175.34105951169079
 20
128.65972557396461
 30
0.0
 11
170.65034145260461
 21
133.3504436330507
 31
0.0
  0
ARC
  5
EE
  8
L1
 10
175.52807231998821
 20
133.5374564413481
 30
0.0
 40
4.881314598045666
 50
267.80434810777717
 51
292.33071327113589
  0
POLYLINE
  5
EF
  8
L1
 66
     1
 10
0.0
 20
0.0
 30
0.0
  0
VERTEX
  5
17DC
  8
L1
 10
171.76360981554771
 20
127.0374564413482
 30
0.0
  0
VERTEX
  5
17DD
  8
L1
 10
172.32163291672251
 20
127.2066952249526
 30
0.0
  0
VERTEX
  5
17DE
  8
L1
 10
172.43212638525921
 20
127.3413183893351
 30
0.0
  0
VERTEX
  5
17DF
  8
L1
 10
172.4491886568199
 20
127.514642022654
 30
0.0
  0
VERTEX
  5
17E0
  8
L1
 10
172.3670695801874
 20
127.6682543772398
 30
0.0
  0
SEQEND
  5
17E1
  8
L1
  0
ARC
  5
F0
  8
L1
 10
175.52807231998821
 20
133.5374564413481
 30
0.0
 40
4.881314598045666
 50
337.6692867288632
 51
2.1956518922227302
  0
ARC
  5
F1
  8
L1
 10
179.42807231998819
 20
129.63745644134809
 30
0.0
 40
2.6000000000000001
 50
270.0
 51
0.0
  0
LINE
  5
F2
  8
L1
 10
182.0280723199881
 20
129.69803706099489
 30
0.0
 11
180.04331848415819
 21
131.68279089682491
 31
0.0
  0
POLYLINE
  5
F3
  8
L1
 66
     1
 10
0.0
 20
0.0
 30
0.0
  0
VERTEX
  5
17E2
  8
L1
 10
178.89118995028929
 20
142.97639450891529
 30
0.0
  0
VERTEX
  5
17E3
  8
L1
 10
179.27845690323321
 20
143.0280894504105
 30
0.0
  0
VERTEX
  5
17E4
  8
L1
 10
179.6393540049234
 20
143.17807211284489
 30
0.0
  0
VERTEX
  5
17E5
  8
L1
 10
179.94937192400499
 20
143.4161568373315
 30
0.0
  0
VERTEX
  5
17E6
  8
L1
 10
180.1874566484916
 20
143.726174756413
 30
0.0
  0
VERTEX
  5
17E7
  8
L1
 10
180.33743931092599
 20
144.08707185810329
 30
0.0
  0
VERTEX
  5
17E8
  8
L1
 10
180.38913425242109
 20
144.4743388110472
 30
0.0
  0
SEQEND
  5
17E9
  8
L1
  0
LINE
  5
F4
  8
L1
 10
177.72807231998831
 20
139.93745644134799
 30
0.0
 11
179.02807231998821
 21
139.93745644134799
 31
0.0
  0
LINE
  5
F5
  8
L1
 10
179.02807231998821
 20
140.93745644134799
 30
0.0
 11
175.5280723199883
 21
140.93745644134799
 31
0.0
  0
LINE
  5
F6
  8
L1
 10
181.39727438409639
 20
136.69845918114859
 30
0.0
 11
178.6704010809151
 21
139.4253324843298
 31
0.0
  0
POLYLINE
  5
F7
  8
L1
 66
     1
 10
0.0
 20
0.0
 30
0.0
  0
VERTEX
  5
17EA
  8
L1
 10
178.88255734789971
 20
139.93745644134799
 30
0.0
  0
VERTEX
  5
17EB
  8
L1
 10
178.71587595973421
 20
139.88689891157821
 30
0.0
  0
VERTEX
  5
17EC
  8
L1
 10
178.6053745665304
 20
139.7522667477115
 30
0.0
  0
VERTEX
  5
17ED
  8
L1
 10
178.58829768479839
 20
139.57893774729911
 30
0.0
  0
VERTEX
  5
17EE
  8
L1
 10
178.6704010809151
 20
139.4253324843298
 30
0.0
  0
SEQEND
  5
17EF
  8
L1
  0
LINE
  5
F8
  8
L1
 10
175.5280723199883
 20
139.93745644134799
 30
0.0
 11
177.72807231998831
 21
139.93745644134799
 31
0.0
  0
LINE
  5
F9
  8
L1
 10
171.48913583370009
 20
142.9763929276364
 30
0.0
 11
175.52807231998841
 21
142.9763929276364
 31
0.0
  0
LINE
  5
FA
  8
L1
 10
178.88964984623669
 20
142.9763929276364
 30
0.0
 11
175.52807231998841
 21
142.9763929276364
 31
0.0
  0
POLYLINE
  5
FB
  8
L1
 66
     1
 10
0.0
 20
0.0
 30
0.0
  0
VERTEX
  5
17F0
  8
L1
 10
182.0280723199881
 20
140.91036454489799
 30
0.0
  0
VERTEX
  5
17F1
  8
L1
 10
182.0278451217421
 20
140.9220383147989
 30
0.0
  0
VERTEX
  5
17F2
  8
L1
 10
182.01966231597129
 20
140.9809014107808
 30
0.0
  0
VERTEX
  5
17F3
  8
L1
 10
182.00003718797319
 20
141.036996567454
 30
0.0
  0
VERTEX
  5
17F4
  8
L1
 10
181.9698656348973
 20
141.0879496177761
 30
0.0
  0
VERTEX
  5
17F5
  8
L1
 10
181.93027307006389
 20
141.1319832394355
 30
0.0
  0
VERTEX
  5
17F6
  8
L1
 10
181.88846914123141
 20
141.16388332515379
 30
0.0
  0
VERTEX
  5
17F7
  8
L1
 10
181.84173704599419
 20
141.1879934193982
 30
0.0
  0
VERTEX
  5
17F8
  8
L1
 10
181.79826494094939
 20
141.20203026995779
 30
0.0
  0
VERTEX
  5
17F9
  8
L1
 10
181.7531655372066
 20
141.20930372438411
 30
0.0
  0
VERTEX
  5
17FA
  8
L1
 10
181.66832261247009
 20
141.20434031669811
 30
0.0
  0
VERTEX
  5
17FB
  8
L1
 10
181.62181489963609
 20
141.1909004385418
 30
0.0
  0
VERTEX
  5
17FC
  8
L1
 10
181.57807396515119
 20
141.17015600241459
 30
0.0
  0
VERTEX
  5
17FD
  8
L1
 10
181.53424804392171
 20
141.13932820755721
 30
0.0
  0
VERTEX
  5
17FE
  8
L1
 10
181.49663330420231
 20
141.1012328123681
 30
0.0
  0
SEQEND
  5
17FF
  8
L1
  0
ARC
  5
FC
  8
L1
 10
179.02807231998821
 20
143.13745644134809
 30
0.0
 40
3.200000000000141
 50
320.48205331592152
 51
0.0
  0
ARC
  5
FD
  8
L1
 10
179.02807231998821
 20
143.13745644134809
 30
0.0
 40
3.200000000000141
 50
270.0
 51
320.48205331592152
  0
ARC
  5
FE
  8
L1
 10
179.02807231998821
 20
143.13745644134809
 30
0.0
 40
2.2000000000001192
 50
270.0
 51
0.0
  0
POLYLINE
  5
FF
  8
L1
 66
     1
 10
0.0
 20
0.0
 30
0.0
  0
VERTEX
  5
1800
  8
L1
 10
181.39727438409639
 20
136.69845918114859
 30
0.0
  0
VERTEX
  5
1801
  8
L1
 10
181.55088673868221
 20
136.61634010451621
 30
0.0
  0
VERTEX
  5
1802
  8
L1
 10
181.72421037200101
 20
136.63340237607679
 30
0.0
  0
VERTEX
  5
1803
  8
L1
 10
181.85883353638371
 20
136.74389584461341
 30
0.0
  0
VERTEX
  5
1804
  8
L1
 10
182.0280723199881
 20
137.3019189457888
 30
0.0
  0
SEQEND
  5
1805
  8
L1
  0
ARC
  5
101
  8
L2
 10
221.84481207705929
 20
147.02022874186071
 30
0.0
 40
1.5
 50
180.0
 51
266.99999999999977
  0
ARC
  5
109
  8
L1
 10
267.64481207705933
 20
126.82129628362
 30
0.0
 40
0.2
 50
180.0
 51
267.00000000000028
  0
ARC
  5
10C
  8
L1
 10
267.24481207705929
 20
141.14766352800521
 30
0.0
 40
0.2
 50
0.0
 51
87.000000000000341
  0
POLYLINE
  5
10D
  8
L1
 66
     1
 10
0.0
 20
0.0
 30
0.0
  0
VERTEX
  5
1806
  8
L1
 10
267.44481207705928
 20
141.17582564417091
 30
0.0
  0
VERTEX
  5
1807
  8
L1
 10
267.44481207705928
 20
141.15471534339881
 30
0.0
  0
VERTEX
  5
1808
  8
L1
 10
267.44481207705928
 20
141.1476635280051
 30
0.0
  0
SEQEND
  5
1809
  8
L1
  0
LINE
  5
11D
  8
L2
 10
221.7663081426949
 20
235.05262844296729
 30
0.0
 11
269.64481207705933
 21
237.59851995505991
 31
0.0
  0
LINE
  5
11E
  8
L1
 10
267.25527926830779
 20
239.2275234477402
 30
0.0
 11
219.45395483803199
 21
236.7223621875612
 31
0.0
  0
ARC
  5
11F
  8
L1
 10
175.5280723199883
 20
247.0374564413479
 30
0.0
 40
9.4389364862881635
 50
233.3107099475551
 51
270.00000000000068
  0
ARC
  5
120
  8
L1
 10
168.53459414460099
 20
239.0254331585495
 30
0.0
 40
0.3
 50
225.00000000000151
 51
310.00000000000199
  0
ARC
  5
121
  8
L1
 10
167.51604903718979
 20
240.0439782659607
 30
0.0
 40
0.3
 50
139.99999999999841
 51
225.0
  0
LINE
  5
122
  8
L1
 10
167.2862357042541
 20
240.2368145488667
 30
0.0
 11
167.94831085882689
 21
241.02584499289631
 31
0.0
  0
POLYLINE
  5
123
  8
L1
 66
     1
 10
0.0
 20
0.0
 30
0.0
  0
VERTEX
  5
180A
  8
L1
 10
169.8885412363579
 20
239.46849276400411
 30
0.0
  0
VERTEX
  5
180B
  8
L1
 10
169.8432634053396
 20
239.49635248800931
 30
0.0
  0
VERTEX
  5
180C
  8
L1
 10
169.8000680582401
 20
239.5138593039446
 30
0.0
  0
VERTEX
  5
180D
  8
L1
 10
169.75468184070101
 20
239.52446227627991
 30
0.0
  0
VERTEX
  5
180E
  8
L1
 10
169.669052686442
 20
239.5251897544301
 30
0.0
  0
VERTEX
  5
180F
  8
L1
 10
169.62387066595139
 20
239.51547387891901
 30
0.0
  0
VERTEX
  5
1810
  8
L1
 10
169.58071636358579
 20
239.49893511867751
 30
0.0
  0
VERTEX
  5
1811
  8
L1
 10
169.5164608715364
 20
239.45769498018669
 30
0.0
  0
SEQEND
  5
1812
  8
L1
  0
LINE
  5
124
  8
L1
 10
169.5164608715364
 20
239.45769498018669
 30
0.0
 11
168.72743042750699
 21
238.79561982561381
 31
0.0
  0
LINE
  5
125
  8
L1
 10
168.32246211024511
 20
238.8133011241936
 30
0.0
 11
167.3039170028338
 21
239.8318462316048
 31
0.0
  0
LINE
  5
126
  8
L1
 10
179.02807231998821
 20
239.63745644134821
 30
0.0
 11
175.5280723199883
 21
239.63745644134821
 31
0.0
  0
POLYLINE
  5
127
  8
L1
 66
     1
 10
0.0
 20
0.0
 30
0.0
  0
VERTEX
  5
1813
  8
L1
 10
178.89118995028929
 20
237.59851837378091
 30
0.0
  0
VERTEX
  5
1814
  8
L1
 10
179.27845690323321
 20
237.54682343228569
 30
0.0
  0
VERTEX
  5
1815
  8
L1
 10
179.6393540049234
 20
237.39684076985131
 30
0.0
  0
VERTEX
  5
1816
  8
L1
 10
179.94937192400499
 20
237.1587560453647
 30
0.0
  0
VERTEX
  5
1817
  8
L1
 10
180.1874566484916
 20
236.84873812628319
 30
0.0
  0
VERTEX
  5
1818
  8
L1
 10
180.33743931092599
 20
236.487841024593
 30
0.0
  0
VERTEX
  5
1819
  8
L1
 10
180.38913425242109
 20
236.10057407164899
 30
0.0
  0
SEQEND
  5
181A
  8
L1
  0
LINE
  5
128
  8
L1
 10
177.72807231998831
 20
240.63745644134829
 30
0.0
 11
179.02807231998821
 21
240.63745644134829
 31
0.0
  0
LINE
  5
129
  8
L1
 10
171.48913583370009
 20
237.5985199550598
 30
0.0
 11
175.52807231998841
 21
237.5985199550598
 31
0.0
  0
LINE
  5
12A
  8
L1
 10
178.88964984623669
 20
237.5985199550598
 30
0.0
 11
175.52807231998841
 21
237.5985199550598
 31
0.0
  0
LINE
  5
12B
  8
L1
 10
175.5280723199883
 20
240.63745644134829
 30
0.0
 11
177.72807231998831
 21
240.63745644134829
 31
0.0
  0
POLYLINE
  5
12C
  8
L1
 66
     1
 10
0.0
 20
0.0
 30
0.0
  0
VERTEX
  5
181B
  8
L1
 10
178.88255734789971
 20
240.63745644134829
 30
0.0
  0
VERTEX
  5
181C
  8
L1
 10
178.71587595973421
 20
240.68801397111801
 30
0.0
  0
VERTEX
  5
181D
  8
L1
 10
178.6053745665304
 20
240.82264613498481
 30
0.0
  0
VERTEX
  5
181E
  8
L1
 10
178.58829768479839
 20
240.99597513539709
 30
0.0
  0
VERTEX
  5
181F
  8
L1
 10
178.6704010809151
 20
241.1495803983664
 30
0.0
  0
SEQEND
  5
1820
  8
L1
  0
ARC
  5
12D
  8
L1
 10
179.02807231998821
 20
237.4374564413481
 30
0.0
 40
2.2000000000001192
 50
0.0
 51
90.0
  0
ARC
  5
12E
  8
L1
 10
179.02807231998821
 20
237.4374564413481
 30
0.0
 40
3.200000000000141
 50
39.517946684078488
 51
90.0
  0
ARC
  5
12F
  8
L1
 10
179.02807231998821
 20
237.4374564413481
 30
0.0
 40
3.200000000000141
 50
0.0
 51
39.517946684078488
  0
POLYLINE
  5
130
  8
L1
 66
     1
 10
0.0
 20
0.0
 30
0.0
  0
VERTEX
  5
1821
  8
L1
 10
182.0280723199881
 20
239.66454833779821
 30
0.0
  0
VERTEX
  5
1822
  8
L1
 10
182.0278451217421
 20
239.65287456789741
 30
0.0
  0
VERTEX
  5
1823
  8
L1
 10
182.01966231597129
 20
239.59401147191551
 30
0.0
  0
VERTEX
  5
1824
  8
L1
 10
182.00003718797319
 20
239.5379163152422
 30
0.0
  0
VERTEX
  5
1825
  8
L1
 10
181.9698656348973
 20
239.48696326492021
 30
0.0
  0
VERTEX
  5
1826
  8
L1
 10
181.93027307006389
 20
239.4429296432607
 30
0.0
  0
VERTEX
  5
1827
  8
L1
 10
181.88846914123141
 20
239.41102955754241
 30
0.0
  0
VERTEX
  5
1828
  8
L1
 10
181.84173704599419
 20
239.386919463298
 30
0.0
  0
VERTEX
  5
1829
  8
L1
 10
181.79826494094939
 20
239.37288261273841
 30
0.0
  0
VERTEX
  5
182A
  8
L1
 10
181.7531655372066
 20
239.36560915831211
 30
0.0
  0
VERTEX
  5
182B
  8
L1
 10
181.66832261247009
 20
239.37057256599809
 30
0.0
  0
VERTEX
  5
182C
  8
L1
 10
181.62181489963609
 20
239.38401244415451
 30
0.0
  0
VERTEX
  5
182D
  8
L1
 10
181.57807396515119
 20
239.40475688028161
 30
0.0
  0
VERTEX
  5
182E
  8
L1
 10
181.53424804392171
 20
239.43558467513901
 30
0.0
  0
VERTEX
  5
182F
  8
L1
 10
181.49663330420231
 20
239.4736800703281
 30
0.0
  0
SEQEND
  5
1830
  8
L1
  0
ARC
  5
131
  8
L2
 10
221.84481207705929
 20
233.55468414083549
 30
0.0
 40
1.5
 50
93.000000000000156
 51
180.0
  0
POLYLINE
  5
133
  8
L1
 66
     1
 10
0.0
 20
0.0
 30
0.0
  0
VERTEX
  5
1831
  8
L1
 10
267.44481207705928
 20
239.39908723852531
 30
0.0
  0
VERTEX
  5
1832
  8
L1
 10
267.44481207705928
 20
239.42019753929739
 30
0.0
  0
VERTEX
  5
1833
  8
L1
 10
267.44481207705928
 20
239.4272493546911
 30
0.0
  0
SEQEND
  5
1834
  8
L1
  0
ARC
  5
134
  8
L1
 10
267.24481207705929
 20
239.42724935469101
 30
0.0
 40
0.2
 50
272.9999999999996
 51
0.0
  0
LINE
  5
135
  8
L1
 10
346.04489665836081
 20
143.34464850446511
 30
0.0
 11
346.04489665836081
 21
237.230264378231
 31
0.0
  0
LINE
  5
136
  8
L1
 10
364.27833851186568
 20
233.29976057225721
 30
0.0
 11
364.27833851186568
 21
147.27515231043881
 31
0.0
  0
LINE
  5
137
  8
L1
 10
350.86697853585582
 20
233.3626087731013
 30
0.0
 11
350.86697853585582
 21
147.21226512776721
 31
0.0
  0
LINE
  5
138
  8
L1
 10
348.74978382549062
 20
145.84980976464399
 30
0.0
 11
348.74978382549062
 21
234.72510311805189
 31
0.0
  0
LINE
  5
139
  8
L1
 10
295.11566222919851
 20
253.2374564413482
 30
0.0
 11
295.11566222919851
 21
127.33745644134819
 31
0.0
  0
LINE
  5
13B
  8
L1
 10
357.39259399685511
 20
133.3616890841075
 30
0.0
 11
352.71641000001512
 21
128.68550508726759
 31
0.0
  0
CIRCLE
  5
13C
  8
L1
 10
352.5406426427748
 20
133.53745644134801
 30
0.0
 40
6.097393363178492
  0
CIRCLE
  5
13D
  8
L1
 10
352.5406426427748
 20
133.53745644134801
 30
0.0
 40
5.7974047862592784
  0
POLYLINE
  5
13E
  8
L1
 66
     1
 10
0.0
 20
0.0
 30
0.0
  0
VERTEX
  5
1835
  8
L1
 10
352.760991172248
 20
141.1476635280051
 30
0.0
  0
VERTEX
  5
1836
  8
L1
 10
353.13562811920349
 20
141.13818577970531
 30
0.0
  0
VERTEX
  5
1837
  8
L1
 10
353.50925480861451
 20
141.10977677929449
 30
0.0
  0
VERTEX
  5
1838
  8
L1
 10
353.88091548731592
 20
141.06250919821929
 30
0.0
  0
VERTEX
  5
1839
  8
L1
 10
354.24965943128251
 20
140.99650394898811
 30
0.0
  0
VERTEX
  5
183A
  8
L1
 10
354.61454337762211
 20
140.91192987587169
 30
0.0
  0
VERTEX
  5
183B
  8
L1
 10
354.97463393748302
 20
140.80900332299211
 30
0.0
  0
VERTEX
  5
183C
  8
L1
 10
355.32900998370241
 20
140.68798758090489
 30
0.0
  0
VERTEX
  5
183D
  8
L1
 10
355.6767650070895
 20
140.5491922130912
 30
0.0
  0
VERTEX
  5
183E
  8
L1
 10
356.017009435315
 20
140.3929722640803
 30
0.0
  0
VERTEX
  5
183F
  8
L1
 10
356.34887290847598
 20
140.2197273512308
 30
0.0
  0
VERTEX
  5
1840
  8
L1
 10
356.67150650551309
 20
140.02990064249229
 30
0.0
  0
VERTEX
  5
1841
  8
L1
 10
356.984084915788
 20
139.82397772276241
 30
0.0
  0
VERTEX
  5
1842
  8
L1
 10
357.28580855026303
 20
139.60248535173969
 30
0.0
  0
VERTEX
  5
1843
  8
L1
 10
357.57590558688469
 20
139.36599011644989
 30
0.0
  0
VERTEX
  5
1844
  8
L1
 10
357.85363394493749
 20
139.11509698189181
 30
0.0
  0
VERTEX
  5
1845
  8
L1
 10
358.11828318331862
 20
138.8504477435107
 30
0.0
  0
VERTEX
  5
1846
  8
L1
 10
358.36917631787668
 20
138.57271938545779
 30
0.0
  0
VERTEX
  5
1847
  8
L1
 10
358.60567155316659
 20
138.28262234883621
 30
0.0
  0
VERTEX
  5
1848
  8
L1
 10
358.82716392418922
 20
137.98089871436119
 30
0.0
  0
VERTEX
  5
1849
  8
L1
 10
359.03308684391908
 20
137.66832030408631
 30
0.0
  0
VERTEX
  5
184A
  8
L1
 10
359.2229135526577
 20
137.34568670704911
 30
0.0
  0
VERTEX
  5
184B
  8
L1
 10
359.3961584655072
 20
137.01382323388819
 30
0.0
  0
VERTEX
  5
184C
  8
L1
 10
359.55237841451799
 20
136.6735788056626
 30
0.0
  0
VERTEX
  5
184D
  8
L1
 10
359.6911737823317
 20
136.32582378227559
 30
0.0
  0
VERTEX
  5
184E
  8
L1
 10
359.8121895244189
 20
135.97144773605621
 30
0.0
  0
VERTEX
  5
184F
  8
L1
 10
359.91511607729859
 20
135.6113571761953
 30
0.0
  0
VERTEX
  5
1850
  8
L1
 10
359.99969015041489
 20
135.2464732298557
 30
0.0
  0
VERTEX
  5
1851
  8
L1
 10
360.06569539964607
 20
134.8777292858891
 30
0.0
  0
VERTEX
  5
1852
  8
L1
 10
360.11296298072131
 20
134.5060686071877
 30
0.0
  0
VERTEX
  5
1853
  8
L1
 10
360.14137198113212
 20
134.13244191777659
 30
0.0
  0
VERTEX
  5
1854
  8
L1
 10
360.1508497294318
 20
133.75780497082121
 30
0.0
  0
SEQEND
  5
1855
  8
L1
  0
ARC
  5
13F
  8
L1
 10
352.5406426427748
 20
133.53745644134801
 30
0.0
 40
4.8551339946733894
 50
357.9253036357814
 51
92.0746963642178
  0
POLYLINE
  5
140
  8
L1
 66
     1
 10
0.0
 20
0.0
 30
0.0
  0
VERTEX
  5
1856
  8
L1
 10
355.28057285042019
 20
143.86697111312819
 30
0.0
  0
VERTEX
  5
1857
  8
L1
 10
355.32071104147758
 20
143.86686425733029
 30
0.0
  0
VERTEX
  5
1858
  8
L1
 10
355.5117113096378
 20
143.863339103833
 30
0.0
  0
VERTEX
  5
1859
  8
L1
 10
355.94513797724392
 20
143.83683997735159
 30
0.0
  0
VERTEX
  5
185A
  8
L1
 10
356.4053902290018
 20
143.7807204307955
 30
0.0
  0
VERTEX
  5
185B
  8
L1
 10
356.99906741139938
 20
143.6653150422037
 30
0.0
  0
VERTEX
  5
185C
  8
L1
 10
357.92981251500271
 20
143.38193017470519
 30
0.0
  0
VERTEX
  5
185D
  8
L1
 10
358.81713306775572
 20
142.98188106490321
 30
0.0
  0
VERTEX
  5
185E
  8
L1
 10
359.9360186626634
 20
142.25673222141171
 30
0.0
  0
VERTEX
  5
185F
  8
L1
 10
360.93394372524477
 20
141.32309284289059
 30
0.0
  0
VERTEX
  5
1860
  8
L1
 10
361.72897220250331
 20
140.25925797336589
 30
0.0
  0
VERTEX
  5
1861
  8
L1
 10
362.2702414355918
 20
139.21321482770699
 30
0.0
  0
VERTEX
  5
1862
  8
L1
 10
362.64370887027201
 20
138.09684768657661
 30
0.0
  0
VERTEX
  5
1863
  8
L1
 10
362.78916218758928
 20
137.3665904109962
 30
0.0
  0
VERTEX
  5
1864
  8
L1
 10
362.85266050112921
 20
136.7833920850486
 30
0.0
  0
VERTEX
  5
1865
  8
L1
 10
362.86818549871919
 20
136.44811421948449
 30
0.0
  0
VERTEX
  5
1866
  8
L1
 10
362.87017794986781
 20
136.2786304597802
 30
0.0
  0
VERTEX
  5
1867
  8
L1
 10
362.8701780431465
 20
136.27740737758489
 30
0.0
  0
SEQEND
  5
1868
  8
L1
  0
POLYLINE
  5
141
  8
L1
 66
     1
 10
0.0
 20
0.0
 30
0.0
  0
VERTEX
  5
1869
  8
L1
 10
364.83660168504639
 20
133.18716604654989
 30
0.0
  0
VERTEX
  5
186A
  8
L1
 10
364.83674623397241
 20
135.1567357160653
 30
0.0
  0
VERTEX
  5
186B
  8
L1
 10
364.8368240186241
 20
136.08701575758309
 30
0.0
  0
VERTEX
  5
186C
  8
L1
 10
364.83689924745971
 20
136.93744993247421
 30
0.0
  0
VERTEX
  5
186D
  8
L1
 10
364.83696724852251
 20
137.67540623738759
 30
0.0
  0
VERTEX
  5
186E
  8
L1
 10
364.837023349856
 20
138.26825266897319
 30
0.0
  0
VERTEX
  5
186F
  8
L1
 10
364.83706287950389
 20
138.68335722388051
 30
0.0
  0
VERTEX
  5
1870
  8
L1
 10
364.83708116550957
 20
138.88808789875921
 30
0.0
  0
VERTEX
  5
1871
  8
L1
 10
364.8305482960169
 20
141.4225627061185
 30
0.0
  0
VERTEX
  5
1872
  8
L1
 10
364.82254471590829
 20
142.045723336317
 30
0.0
  0
VERTEX
  5
1873
  8
L1
 10
364.81489243024311
 20
142.49895211175451
 30
0.0
  0
VERTEX
  5
1874
  8
L1
 10
364.81146696855978
 20
142.84600089689491
 30
0.0
  0
VERTEX
  5
1875
  8
L1
 10
364.8105624898684
 20
143.10108406638909
 30
0.0
  0
VERTEX
  5
1876
  8
L1
 10
364.80548922422241
 20
143.49454501654949
 30
0.0
  0
VERTEX
  5
1877
  8
L1
 10
364.7610234072099
 20
144.03068751483349
 30
0.0
  0
VERTEX
  5
1878
  8
L1
 10
364.64895380485962
 20
144.46153682749741
 30
0.0
  0
VERTEX
  5
1879
  8
L1
 10
364.47206477537821
 20
144.81180501604911
 30
0.0
  0
VERTEX
  5
187A
  8
L1
 10
364.24536816660378
 20
145.10878814114801
 30
0.0
  0
VERTEX
  5
187B
  8
L1
 10
363.9122132556455
 20
145.4023007054694
 30
0.0
  0
VERTEX
  5
187C
  8
L1
 10
363.6185377445467
 20
145.57527526736911
 30
0.0
  0
VERTEX
  5
187D
  8
L1
 10
362.9146798637675
 20
145.7680593130718
 30
0.0
  0
VERTEX
  5
187E
  8
L1
 10
362.32593275761269
 20
145.80134117012349
 30
0.0
  0
VERTEX
  5
187F
  8
L1
 10
361.96386502407353
 20
145.8036423181014
 30
0.0
  0
VERTEX
  5
1880
  8
L1
 10
361.48668778982898
 20
145.80767123645231
 30
0.0
  0
VERTEX
  5
1881
  8
L1
 10
360.96624200802461
 20
145.81705361396689
 30
0.0
  0
VERTEX
  5
1882
  8
L1
 10
360.64027170961867
 20
145.82234636578571
 30
0.0
  0
VERTEX
  5
1883
  8
L1
 10
360.22324858676348
 20
145.8270103526464
 30
0.0
  0
VERTEX
  5
1884
  8
L1
 10
359.33507634285229
 20
145.83214143065501
 30
0.0
  0
VERTEX
  5
1885
  8
L1
 10
358.75938553313671
 20
145.83342016578729
 30
0.0
  0
VERTEX
  5
1886
  8
L1
 10
358.01681166370491
 20
145.83405813193059
 30
0.0
  0
VERTEX
  5
1887
  8
L1
 10
357.0479947836493
 20
145.83421815427869
 30
0.0
  0
VERTEX
  5
1888
  8
L1
 10
356.46019522997909
 20
145.8341698194028
 30
0.0
  0
VERTEX
  5
1889
  8
L1
 10
355.79357494206261
 20
145.83406305802589
 30
0.0
  0
VERTEX
  5
188A
  8
L1
 10
355.04071392603669
 20
145.83391822329739
 30
0.0
  0
VERTEX
  5
188B
  8
L1
 10
354.19419218803762
 20
145.83375566836639
 30
0.0
  0
VERTEX
  5
188C
  8
L1
 10
353.24658973420219
 20
145.8335957463822
 30
0.0
  0
VERTEX
  5
188D
  8
L1
 10
352.19048657066679
 20
145.83345881049411
 30
0.0
  0
SEQEND
  5
188E
  8
L1
  0
LINE
  5
142
  8
L1
 10
294.04481207705931
 20
125.9944323411234
 30
0.0
 11
293.3255320463748
 21
125.275152310439
 31
0.0
  0
POLYLINE
  5
143
  8
L1
 66
     1
 10
0.0
 20
0.0
 30
0.0
  0
VERTEX
  5
188F
  8
L1
 10
344.27855420500077
 20
128.730456441348
 30
0.0
  0
VERTEX
  5
1890
  8
L1
 10
344.34892825266058
 20
128.06866883890271
 30
0.0
  0
VERTEX
  5
1891
  8
L1
 10
344.5510576407724
 20
127.413684055107
 30
0.0
  0
VERTEX
  5
1892
  8
L1
 10
344.8772018925888
 20
126.81083721045199
 30
0.0
  0
VERTEX
  5
1893
  8
L1
 10
345.30071352370118
 20
126.29752732227441
 30
0.0
  0
VERTEX
  5
1894
  8
L1
 10
345.81402341187879
 20
125.8740156911619
 30
0.0
  0
VERTEX
  5
1895
  8
L1
 10
346.41687025653391
 20
125.5478714393456
 30
0.0
  0
VERTEX
  5
1896
  8
L1
 10
347.07185504032958
 20
125.3457420512337
 30
0.0
  0
VERTEX
  5
1897
  8
L1
 10
347.7336426427749
 20
125.2753680035739
 30
0.0
  0
SEQEND
  5
1898
  8
L1
  0
POLYLINE
  5
149
  8
L1
 66
     1
 10
0.0
 20
0.0
 30
0.0
  0
VERTEX
  5
1899
  8
L1
 10
348.906948316078
 20
145.09915208517191
 30
0.0
  0
VERTEX
  5
189A
  8
L1
 10
348.97296018596739
 20
144.9631799679137
 30
0.0
  0
VERTEX
  5
189B
  8
L1
 10
349.39538604655559
 20
144.41466891076379
 30
0.0
  0
VERTEX
  5
189C
  8
L1
 10
349.68073979569988
 20
144.19285414667459
 30
0.0
  0
VERTEX
  5
189D
  8
L1
 10
350.000725796045
 20
144.0237224153154
 30
0.0
  0
VERTEX
  5
189E
  8
L1
 10
350.40017439787681
 20
143.90194735866621
 30
0.0
  0
SEQEND
  5
189F
  8
L1
  0
LINE
  5
14A
  8
L1
 10
347.6886912886946
 20
133.71322379858839
 30
0.0
 11
352.36487528553442
 21
138.38940779542821
 31
0.0
  0
POLYLINE
  5
14B
  8
L1
 66
     1
 10
0.0
 20
0.0
 30
0.0
  0
VERTEX
  5
18A0
  8
L1
 10
347.40754300102259
 20
131.02424226841291
 30
0.0
  0
VERTEX
  5
18A1
  8
L1
 10
347.4234359807669
 20
131.0414904911903
 30
0.0
  0
VERTEX
  5
18A2
  8
L1
 10
347.47061446376023
 20
131.0898690361762
 30
0.0
  0
VERTEX
  5
18A3
  8
L1
 10
347.54330050715589
 20
131.16337539422241
 30
0.0
  0
VERTEX
  5
18A4
  8
L1
 10
347.63134045308328
 20
131.25170990694309
 30
0.0
  0
SEQEND
  5
18A5
  8
L1
  0
POLYLINE
  5
14C
  8
L1
 66
     1
 10
0.0
 20
0.0
 30
0.0
  0
VERTEX
  5
18A6
  8
L1
 10
349.11995994973688
 20
126.8212962836199
 30
0.0
  0
VERTEX
  5
18A7
  8
L1
 10
348.84758071740112
 20
126.832543619422
 30
0.0
  0
VERTEX
  5
18A8
  8
L1
 10
348.57711724594498
 20
126.86620906367951
 30
0.0
  0
VERTEX
  5
18A9
  8
L1
 10
348.31041064114999
 20
126.92206344812909
 30
0.0
  0
VERTEX
  5
18AA
  8
L1
 10
348.04927643495961
 20
126.9997265593928
 30
0.0
  0
VERTEX
  5
18AB
  8
L1
 10
347.79549222674501
 20
127.0986697271759
 30
0.0
  0
VERTEX
  5
18AC
  8
L1
 10
347.55078558278512
 20
127.218219423045
 30
0.0
  0
VERTEX
  5
18AD
  8
L1
 10
347.31682227633382
 20
127.35756184528751
 30
0.0
  0
VERTEX
  5
18AE
  8
L1
 10
347.09519494832659
 20
127.5157484586436
 30
0.0
  0
VERTEX
  5
18AF
  8
L1
 10
346.88741226591418
 20
127.69170245119921
 30
0.0
  0
VERTEX
  5
18B0
  8
L1
 10
346.6948886526261
 20
127.88422606448729
 30
0.0
  0
VERTEX
  5
18B1
  8
L1
 10
346.5189346600705
 20
128.09200874689969
 30
0.0
  0
VERTEX
  5
18B2
  8
L1
 10
346.36074804671432
 20
128.31363607490701
 30
0.0
  0
VERTEX
  5
18B3
  8
L1
 10
346.22140562447191
 20
128.5475993813582
 30
0.0
  0
VERTEX
  5
18B4
  8
L1
 10
346.10185592860279
 20
128.79230602531811
 30
0.0
  0
VERTEX
  5
18B5
  8
L1
 10
346.0029127608197
 20
129.04609023353271
 30
0.0
  0
VERTEX
  5
18B6
  8
L1
 10
345.92524964955601
 20
129.30722443972309
 30
0.0
  0
VERTEX
  5
18B7
  8
L1
 10
345.86939526510639
 20
129.5739310445181
 30
0.0
  0
VERTEX
  5
18B8
  8
L1
 10
345.83572982084883
 20
129.84439451597419
 30
0.0
  0
VERTEX
  5
18B9
  8
L1
 10
345.82448248504681
 20
130.11677374831001
 30
0.0
  0
SEQEND
  5
18BA
  8
L1
  0
POLYLINE
  5
14D
  8
L1
 66
     1
 10
0.0
 20
0.0
 30
0.0
  0
VERTEX
  5
18BB
  8
L1
 10
347.38911346348698
 20
130.91074967905291
 30
0.0
  0
VERTEX
  5
18BC
  8
L1
 10
347.40754300102259
 20
131.02424226841291
 30
0.0
  0
SEQEND
  5
18BD
  8
L1
  0
LINE
  5
14E
  8
L1
 10
350.6798187015192
 20
129.05307684480599
 30
0.0
 11
350.25489610836991
 21
128.6281542516567
 31
0.0
  0
POLYLINE
  5
14F
  8
L1
 66
     1
 10
0.0
 20
0.0
 30
0.0
  0
VERTEX
  5
18BE
  8
L1
 10
350.25489610836991
 20
128.62815425165661
 30
0.0
  0
VERTEX
  5
18BF
  8
L1
 10
350.16656159564911
 20
128.54011430572919
 30
0.0
  0
VERTEX
  5
18C0
  8
L1
 10
350.09305523760293
 20
128.46742826233341
 30
0.0
  0
VERTEX
  5
18C1
  8
L1
 10
350.04467669261697
 20
128.42024977934011
 30
0.0
  0
VERTEX
  5
18C2
  8
L1
 10
350.02742846983972
 20
128.4043567995958
 30
0.0
  0
SEQEND
  5
18C3
  8
L1
  0
POLYLINE
  5
150
  8
L1
 66
     1
 10
0.0
 20
0.0
 30
0.0
  0
VERTEX
  5
18C4
  8
L1
 10
350.02742846983961
 20
128.4043567995958
 30
0.0
  0
VERTEX
  5
18C5
  8
L1
 10
349.91393588047958
 20
128.38592726206031
 30
0.0
  0
SEQEND
  5
18C6
  8
L1
  0
ARC
  5
151
  8
L1
 10
352.5406426427748
 20
133.53745644134801
 30
0.0
 40
4.8551339946733894
 50
177.9253036357828
 51
202.5363399469382
  0
LINE
  5
152
  8
L1
 10
347.63134045308328
 20
131.25170990694309
 30
0.0
 11
348.05626304623257
 21
131.67663250009241
 31
0.0
  0
ARC
  5
153
  8
L1
 10
352.5406426427748
 20
133.53745644134801
 30
0.0
 40
4.8551339946733894
 50
247.46366005306101
 51
272.07469636421507
  0
POLYLINE
  5
154
  8
L1
 66
     1
 10
0.0
 20
0.0
 30
0.0
  0
VERTEX
  5
18C7
  8
L1
 10
346.04489665836081
 20
143.34464850446511
 30
0.0
  0
VERTEX
  5
18C8
  8
L1
 10
346.21201468767282
 20
142.5034443868137
 30
0.0
  0
VERTEX
  5
18C9
  8
L1
 10
346.68801408399901
 20
141.79078095364329
 30
0.0
  0
VERTEX
  5
18CA
  8
L1
 10
347.40067751716941
 20
141.3147815573171
 30
0.0
  0
VERTEX
  5
18CB
  8
L1
 10
348.2418816348208
 20
141.1476635280051
 30
0.0
  0
SEQEND
  5
18CC
  8
L1
  0
POLYLINE
  5
155
  8
L1
 66
     1
 10
0.0
 20
0.0
 30
0.0
  0
VERTEX
  5
18CD
  8
L1
 10
350.40017439787681
 20
143.90194735866621
 30
0.0
  0
VERTEX
  5
18CE
  8
L1
 10
350.48450691083792
 20
143.8874812840686
 30
0.0
  0
VERTEX
  5
18CF
  8
L1
 10
350.59958076426619
 20
143.87404751022771
 30
0.0
  0
VERTEX
  5
18D0
  8
L1
 10
350.69641345106692
 20
143.86824720380559
 30
0.0
  0
VERTEX
  5
18D1
  8
L1
 10
350.73970143004379
 20
143.8672568194726
 30
0.0
  0
VERTEX
  5
18D2
  8
L1
 10
350.76162264371771
 20
143.86713044385289
 30
0.0
  0
SEQEND
  5
18D3
  8
L1
  0
LINE
  5
156
  8
L1
 10
348.2418816348208
 20
141.1476635280051
 30
0.0
 11
352.760991172248
 21
141.1476635280051
 31
0.0
  0
POLYLINE
  5
157
  8
L1
 66
     1
 10
0.0
 20
0.0
 30
0.0
  0
VERTEX
  5
18D4
  8
L1
 10
350.76162264371771
 20
143.86713044385289
 30
0.0
  0
VERTEX
  5
18D5
  8
L1
 10
351.87799824862009
 20
143.86712119414199
 30
0.0
  0
VERTEX
  5
18D6
  8
L1
 10
352.4926682654384
 20
143.8671397118548
 30
0.0
  0
VERTEX
  5
18D7
  8
L1
 10
352.94821161476062
 20
143.86716870385669
 30
0.0
  0
VERTEX
  5
18D8
  8
L1
 10
353.64713641339358
 20
143.86721047990039
 30
0.0
  0
VERTEX
  5
18D9
  8
L1
 10
354.23799519223212
 20
143.8671722598425
 30
0.0
  0
VERTEX
  5
18DA
  8
L1
 10
354.65296099299428
 20
143.86708129309781
 30
0.0
  0
VERTEX
  5
18DB
  8
L1
 10
355.28057285042019
 20
143.86697111312819
 30
0.0
  0
SEQEND
  5
18DC
  8
L1
  0
POLYLINE
  5
158
  8
L1
 66
     1
 10
0.0
 20
0.0
 30
0.0
  0
VERTEX
  5
18DD
  8
L1
 10
348.906948316078
 20
145.09915208517191
 30
0.0
  0
VERTEX
  5
18DE
  8
L1
 10
348.78944819057671
 20
145.46516604277269
 30
0.0
  0
VERTEX
  5
18DF
  8
L1
 10
348.74978382549062
 20
145.84980976464411
 30
0.0
  0
SEQEND
  5
18E0
  8
L1
  0
POLYLINE
  5
159
  8
L1
 66
     1
 10
0.0
 20
0.0
 30
0.0
  0
VERTEX
  5
18E1
  8
L1
 10
352.19048657066679
 20
145.83345881049411
 30
0.0
  0
VERTEX
  5
18E2
  8
L1
 10
351.9119657545167
 20
145.85490120614989
 30
0.0
  0
VERTEX
  5
18E3
  8
L1
 10
351.51885637732551
 20
145.97950397746911
 30
0.0
  0
VERTEX
  5
18E4
  8
L1
 10
351.1873969673191
 20
146.2349519177626
 30
0.0
  0
VERTEX
  5
18E5
  8
L1
 10
350.95707988490972
 20
146.6359860747821
 30
0.0
  0
VERTEX
  5
18E6
  8
L1
 10
350.86697853585582
 20
147.2123041095947
 30
0.0
  0
SEQEND
  5
18E7
  8
L1
  0
POLYLINE
  5
15A
  8
L1
 66
     1
 10
0.0
 20
0.0
 30
0.0
  0
VERTEX
  5
18E8
  8
L1
 10
362.8701780431465
 20
136.27740737758489
 30
0.0
  0
VERTEX
  5
18E9
  8
L1
 10
362.87029153721232
 20
135.63296939801
 30
0.0
  0
VERTEX
  5
18EA
  8
L1
 10
362.87037983655728
 20
135.22236957228861
 30
0.0
  0
VERTEX
  5
18EB
  8
L1
 10
362.87042135872258
 20
134.89067058504671
 30
0.0
  0
VERTEX
  5
18EC
  8
L1
 10
362.8704086977441
 20
134.3160214861351
 30
0.0
  0
VERTEX
  5
18ED
  8
L1
 10
362.87034280673441
 20
133.6131148215419
 30
0.0
  0
VERTEX
  5
18EE
  8
L1
 10
362.87031779136151
 20
133.1210938771984
 30
0.0
  0
VERTEX
  5
18EF
  8
L1
 10
362.87031293815261
 20
132.4860433115345
 30
0.0
  0
VERTEX
  5
18F0
  8
L1
 10
362.87032762304261
 20
131.75844742005381
 30
0.0
  0
SEQEND
  5
18F1
  8
L1
  0
POLYLINE
  5
15B
  8
L1
 66
     1
 10
0.0
 20
0.0
 30
0.0
  0
VERTEX
  5
18F2
  8
L1
 10
364.85299596607081
 20
129.7465976240639
 30
0.0
  0
VERTEX
  5
18F3
  8
L1
 10
364.46826816374119
 20
129.78627959502791
 30
0.0
  0
VERTEX
  5
18F4
  8
L1
 10
364.10218156110182
 20
129.90383121249559
 30
0.0
  0
SEQEND
  5
18F5
  8
L1
  0
POLYLINE
  5
15C
  8
L1
 66
     1
 10
0.0
 20
0.0
 30
0.0
  0
VERTEX
  5
18F6
  8
L1
 10
362.9051298352444
 20
131.3970740116458
 30
0.0
  0
VERTEX
  5
18F7
  8
L1
 10
362.93176663395019
 20
131.27940165035301
 30
0.0
  0
VERTEX
  5
18F8
  8
L1
 10
363.21973952165212
 20
130.6417369434391
 30
0.0
  0
VERTEX
  5
18F9
  8
L1
 10
363.70221600496461
 20
130.13696002945451
 30
0.0
  0
VERTEX
  5
18FA
  8
L1
 10
364.10218156110182
 20
129.90383121249559
 30
0.0
  0
SEQEND
  5
18FB
  8
L1
  0
POLYLINE
  5
15D
  8
L1
 66
     1
 10
0.0
 20
0.0
 30
0.0
  0
VERTEX
  5
18FC
  8
L1
 10
362.87032762304261
 20
131.75844742005381
 30
0.0
  0
VERTEX
  5
18FD
  8
L1
 10
362.87038487258559
 20
131.74370970806891
 30
0.0
  0
VERTEX
  5
18FE
  8
L1
 10
362.87108943239451
 20
131.70459006207329
 30
0.0
  0
VERTEX
  5
18FF
  8
L1
 10
362.87483527443089
 20
131.62755826088119
 30
0.0
  0
VERTEX
  5
1900
  8
L1
 10
362.89351491197942
 20
131.4628192377229
 30
0.0
  0
VERTEX
  5
1901
  8
L1
 10
362.9051298352444
 20
131.3970740116458
 30
0.0
  0
SEQEND
  5
1902
  8
L1
  0
LINE
  5
15E
  8
L1
 10
360.1508497294318
 20
133.75780497082121
 30
0.0
 11
360.1508497294318
 21
129.2386954333941
 31
0.0
  0
POLYLINE
  5
15F
  8
L1
 66
     1
 10
0.0
 20
0.0
 30
0.0
  0
VERTEX
  5
1903
  8
L1
 10
360.1508497294318
 20
129.2386954333941
 30
0.0
  0
VERTEX
  5
1904
  8
L1
 10
360.31796775874381
 20
128.39749131574271
 30
0.0
  0
VERTEX
  5
1905
  8
L1
 10
360.79396715507011
 20
127.68482788257231
 30
0.0
  0
VERTEX
  5
1906
  8
L1
 10
361.5066305882404
 20
127.20882848624601
 30
0.0
  0
VERTEX
  5
1907
  8
L1
 10
362.34783470589178
 20
127.041710456934
 30
0.0
  0
SEQEND
  5
1908
  8
L1
  0
POLYLINE
  5
160
  8
L1
 66
     1
 10
0.0
 20
0.0
 30
0.0
  0
VERTEX
  5
1909
  8
L1
 10
366.2154513291818
 20
131.86379233442901
 30
0.0
  0
VERTEX
  5
190A
  8
L1
 10
365.84798616043111
 20
131.89768049660199
 30
0.0
  0
VERTEX
  5
190B
  8
L1
 10
365.44146163639732
 20
132.04172316573451
 30
0.0
  0
VERTEX
  5
190C
  8
L1
 10
365.10638346291609
 20
132.32246790398199
 30
0.0
  0
VERTEX
  5
190D
  8
L1
 10
364.89860653607451
 20
132.72879038355339
 30
0.0
  0
VERTEX
  5
190E
  8
L1
 10
364.83660168504639
 20
133.18716604654989
 30
0.0
  0
SEQEND
  5
190F
  8
L1
  0
ARC
  5
161
  8
L1
 10
366.27833851186568
 20
147.27515231043881
 30
0.0
 40
2.0
 50
180.0
 51
270.0
  0
POLYLINE
  5
166
  8
L1
 66
     1
 10
0.0
 20
0.0
 30
0.0
  0
VERTEX
  5
1910
  8
L1
 10
346.04489665836081
 20
237.230264378231
 30
0.0
  0
VERTEX
  5
1911
  8
L1
 10
346.21201468767282
 20
238.07146849588241
 30
0.0
  0
VERTEX
  5
1912
  8
L1
 10
346.68801408399901
 20
238.78413192905279
 30
0.0
  0
VERTEX
  5
1913
  8
L1
 10
347.40067751716941
 20
239.26013132537901
 30
0.0
  0
VERTEX
  5
1914
  8
L1
 10
348.2418816348208
 20
239.42724935469101
 30
0.0
  0
SEQEND
  5
1915
  8
L1
  0
POLYLINE
  5
167
  8
L1
 66
     1
 10
0.0
 20
0.0
 30
0.0
  0
VERTEX
  5
1916
  8
L1
 10
348.906948316078
 20
235.47576079752409
 30
0.0
  0
VERTEX
  5
1917
  8
L1
 10
348.78944819057671
 20
235.1097468399233
 30
0.0
  0
VERTEX
  5
1918
  8
L1
 10
348.74978382549062
 20
234.72510311805189
 30
0.0
  0
SEQEND
  5
1919
  8
L1
  0
POLYLINE
  5
168
  8
L1
 66
     1
 10
0.0
 20
0.0
 30
0.0
  0
VERTEX
  5
191A
  8
L1
 10
352.19048657066679
 20
234.741454072202
 30
0.0
  0
VERTEX
  5
191B
  8
L1
 10
351.9119657545167
 20
234.72001167654619
 30
0.0
  0
VERTEX
  5
191C
  8
L1
 10
351.51885637732551
 20
234.59540890522689
 30
0.0
  0
VERTEX
  5
191D
  8
L1
 10
351.1873969673191
 20
234.33996096493351
 30
0.0
  0
VERTEX
  5
191E
  8
L1
 10
350.95707988490972
 20
233.93892680791399
 30
0.0
  0
VERTEX
  5
191F
  8
L1
 10
350.86697853585582
 20
233.3626087731013
 30
0.0
  0
SEQEND
  5
1920
  8
L1
  0
POLYLINE
  5
169
  8
L1
 66
     1
 10
0.0
 20
0.0
 30
0.0
  0
VERTEX
  5
1921
  8
L1
 10
350.40017439787681
 20
236.67296552402991
 30
0.0
  0
VERTEX
  5
1922
  8
L1
 10
350.48450691083792
 20
236.68743159862751
 30
0.0
  0
VERTEX
  5
1923
  8
L1
 10
350.59958076426619
 20
236.7008653724684
 30
0.0
  0
VERTEX
  5
1924
  8
L1
 10
350.69641345106692
 20
236.70666567889049
 30
0.0
  0
VERTEX
  5
1925
  8
L1
 10
350.73970143004379
 20
236.70765606322351
 30
0.0
  0
VERTEX
  5
1926
  8
L1
 10
350.76162264371771
 20
236.7077824388432
 30
0.0
  0
SEQEND
  5
1927
  8
L1
  0
POLYLINE
  5
16A
  8
L1
 66
     1
 10
0.0
 20
0.0
 30
0.0
  0
VERTEX
  5
1928
  8
L1
 10
350.76162264371771
 20
236.7077824388432
 30
0.0
  0
VERTEX
  5
1929
  8
L1
 10
351.87799824862009
 20
236.70779168855401
 30
0.0
  0
VERTEX
  5
192A
  8
L1
 10
352.4926682654384
 20
236.70777317084119
 30
0.0
  0
VERTEX
  5
192B
  8
L1
 10
352.94821161476062
 20
236.70774417883931
 30
0.0
  0
VERTEX
  5
192C
  8
L1
 10
353.64713641339358
 20
236.7077024027956
 30
0.0
  0
VERTEX
  5
192D
  8
L1
 10
354.23799519223212
 20
236.70774062285361
 30
0.0
  0
VERTEX
  5
192E
  8
L1
 10
354.65296099299428
 20
236.7078315895983
 30
0.0
  0
VERTEX
  5
192F
  8
L1
 10
355.28057285042019
 20
236.70794176956781
 30
0.0
  0
SEQEND
  5
1930
  8
L1
  0
LINE
  5
16B
  8
L1
 10
348.2418816348208
 20
239.42724935469101
 30
0.0
 11
352.760991172248
 21
239.42724935469101
 31
0.0
  0
POLYLINE
  5
16C
  8
L1
 66
     1
 10
0.0
 20
0.0
 30
0.0
  0
VERTEX
  5
1931
  8
L1
 10
348.906948316078
 20
235.47576079752409
 30
0.0
  0
VERTEX
  5
1932
  8
L1
 10
348.97296018596739
 20
235.61173291478241
 30
0.0
  0
VERTEX
  5
1933
  8
L1
 10
349.39538604655559
 20
236.16024397193229
 30
0.0
  0
VERTEX
  5
1934
  8
L1
 10
349.68073979569988
 20
236.38205873602149
 30
0.0
  0
VERTEX
  5
1935
  8
L1
 10
350.000725796045
 20
236.55119046738059
 30
0.0
  0
VERTEX
  5
1936
  8
L1
 10
350.40017439787681
 20
236.67296552402991
 30
0.0
  0
SEQEND
  5
1937
  8
L1
  0
ARC
  5
16D
  8
L1
 10
366.27833851186568
 20
233.29976057225721
 30
0.0
 40
2.0
 50
90.0
 51
180.0
  0
LINE
  5
16E
  8
L1
 10
165.92807231998819
 20
252.73745644134829
 30
0.0
 11
21.628072319988231
 21
252.73745644134829
 31
0.0
  0
LINE
  5
16F
  8
L1
 10
164.5896498462366
 20
251.8985199550599
 30
0.0
 11
22.966494793739741
 21
251.8985199550599
 31
0.0
  0
LINE
  5
170
  8
L1
 10
7.2609715607200647
 20
255.29976057225721
 30
0.0
 11
180.29517307925639
 21
255.29976057225721
 31
0.0
  0
LINE
  5
171
  8
L1
 10
180.3350723199882
 20
254.5804805415728
 30
0.0
 11
7.2210723199881954
 21
254.5804805415728
 31
0.0
  0
LINE
  5
172
  8
L1
 10
21.628072319988231
 20
253.73745644134829
 30
0.0
 11
165.92807231998819
 21
253.73745644134829
 31
0.0
  0
ARC
  5
173
  8
L1
 10
21.628072319988
 20
250.53745644134821
 30
0.0
 40
3.200000000000057
 50
129.51794668407649
 51
180.0
  0
ARC
  5
174
  8
L1
 10
21.628072319988
 20
250.53745644134821
 30
0.0
 40
2.200000000000033
 50
90.0
 51
180.0
  0
LINE
  5
175
  8
L1
 10
19.40098042353787
 20
253.53745644134801
 30
0.0
 11
8.1280723199880072
 21
253.53745644134801
 31
0.0
  0
ARC
  5
176
  8
L1
 10
8.1280723199880072
 20
250.9374564413481
 30
0.0
 40
2.6000000000000001
 50
90.0
 51
180.0
  0
LINE
  5
177
  8
L1
 10
17.91594836296991
 20
250.1797852022753
 30
0.0
 11
15.18907505978876
 21
252.90665850545639
 31
0.0
  0
LINE
  5
178
  8
L1
 10
12.215085128285461
 20
251.9151873087317
 30
0.0
 11
16.905803187371639
 21
247.22446924964549
 31
0.0
  0
ARC
  5
179
  8
L1
 10
12.028072319988089
 20
247.0374564413481
 30
0.0
 40
5.7825462644184809
 50
116.0136049375774
 51
153.986395062437
  0
LINE
  5
17A
  8
L1
 10
11.841059511690499
 20
242.15972557396461
 30
0.0
 11
7.1503414526044358
 21
246.85044363305059
 31
0.0
  0
ARC
  5
17B
  8
L1
 10
12.028072319988089
 20
247.0374564413481
 30
0.0
 40
4.881314598045666
 50
157.6692867288632
 51
182.19565189222271
  0
LINE
  5
17C
  8
L1
 10
5.5280723199880981
 20
250.8768758217013
 30
0.0
 11
7.5128261558180043
 21
248.89212198587131
 31
0.0
  0
POLYLINE
  5
17D
  8
L1
 66
     1
 10
0.0
 20
0.0
 30
0.0
  0
VERTEX
  5
1938
  8
L1
 10
6.1588702558797763
 20
243.87645370154769
 30
0.0
  0
VERTEX
  5
1939
  8
L1
 10
6.0052579012941001
 20
243.95857277818001
 30
0.0
  0
VERTEX
  5
193A
  8
L1
 10
5.8319342679752131
 20
243.94151050661949
 30
0.0
  0
VERTEX
  5
193B
  8
L1
 10
5.697311103592539
 20
243.83101703808279
 30
0.0
  0
VERTEX
  5
193C
  8
L1
 10
5.5280723199880981
 20
243.27299393690751
 30
0.0
  0
SEQEND
  5
193D
  8
L1
  0
POLYLINE
  5
17E
  8
L1
 66
     1
 10
0.0
 20
0.0
 30
0.0
  0
VERTEX
  5
193E
  8
L1
 10
17.91594836296991
 20
250.1797852022753
 30
0.0
  0
VERTEX
  5
193F
  8
L1
 10
18.069553625939129
 20
250.09768180615859
 30
0.0
  0
VERTEX
  5
1940
  8
L1
 10
18.242882626351548
 20
250.11475868789071
 30
0.0
  0
VERTEX
  5
1941
  8
L1
 10
18.377514790218179
 20
250.2252600810944
 30
0.0
  0
VERTEX
  5
1942
  8
L1
 10
18.428072319987962
 20
250.3919414692599
 30
0.0
  0
SEQEND
  5
1943
  8
L1
  0
LINE
  5
17F
  8
L1
 10
18.428072319987962
 20
249.23745644134829
 30
0.0
 11
18.428072319987962
 21
247.03745644134821
 31
0.0
  0
LINE
  5
180
  8
L1
 10
18.428072319987962
 20
250.53745644134821
 30
0.0
 11
18.428072319987962
 21
249.23745644134829
 31
0.0
  0
ARC
  5
181
  8
L1
 10
12.028072319988089
 20
247.0374564413481
 30
0.0
 40
4.881314598045666
 50
87.804348107777244
 51
112.33071327113591
  0
ARC
  5
182
  8
L1
 10
7.2210723199880809
 20
251.844456441348
 30
0.0
 40
2.7360241002247609
 50
90.0
 51
180.0
  0
POLYLINE
  5
183
  8
L1
 66
     1
 10
0.0
 20
0.0
 30
0.0
  0
VERTEX
  5
1944
  8
L1
 10
7.2210723199880809
 20
255.29954487912221
 30
0.0
  0
VERTEX
  5
1945
  8
L1
 10
6.8924417513557614
 20
255.28047051373409
 30
0.0
  0
VERTEX
  5
1946
  8
L1
 10
6.5592847175426519
 20
255.2291708314624
 30
0.0
  0
VERTEX
  5
1947
  8
L1
 10
6.2279203768140974
 20
255.14448090169091
 30
0.0
  0
VERTEX
  5
1948
  8
L1
 10
5.904299933746926
 20
255.0270414433505
 30
0.0
  0
VERTEX
  5
1949
  8
L1
 10
5.593875617104743
 20
254.87821294034859
 30
0.0
  0
VERTEX
  5
194A
  8
L1
 10
5.3014530890919209
 20
254.70089719153421
 30
0.0
  0
VERTEX
  5
194B
  8
L1
 10
5.0316733017437514
 20
254.49885705692819
 30
0.0
  0
VERTEX
  5
194C
  8
L1
 10
4.7881432009144751
 20
254.27738556042161
 30
0.0
  0
VERTEX
  5
194D
  8
L1
 10
4.5666717044078382
 20
254.03385545959239
 30
0.0
  0
VERTEX
  5
194E
  8
L1
 10
4.364631569802043
 20
253.76407567224419
 30
0.0
  0
VERTEX
  5
194F
  8
L1
 10
4.1873158209876351
 20
253.47165314423151
 30
0.0
  0
VERTEX
  5
1950
  8
L1
 10
4.0384873179856982
 20
253.1612288275891
 30
0.0
  0
VERTEX
  5
1951
  8
L1
 10
3.9210478596451699
 20
252.83760838452201
 30
0.0
  0
VERTEX
  5
1952
  8
L1
 10
3.8363579298737132
 20
252.50624404379329
 30
0.0
  0
VERTEX
  5
1953
  8
L1
 10
3.78505824760208
 20
252.17308700998041
 30
0.0
  0
VERTEX
  5
1954
  8
L1
 10
3.765983882214015
 20
251.844456441348
 30
0.0
  0
SEQEND
  5
1955
  8
L1
  0
LINE
  5
184
  8
L1
 10
10.173406775464681
 20
251.55270260551811
 30
0.0
 11
8.1886529396350056
 21
253.53745644134801
 31
0.0
  0
POLYLINE
  5
185
  8
L1
 66
     1
 10
0.0
 20
0.0
 30
0.0
  0
VERTEX
  5
1956
  8
L1
 10
15.792534824428509
 20
253.53745644134801
 30
0.0
  0
VERTEX
  5
1957
  8
L1
 10
15.234511723253769
 20
253.36821765774371
 30
0.0
  0
VERTEX
  5
1958
  8
L1
 10
15.124018254716979
 20
253.2335944933611
 30
0.0
  0
VERTEX
  5
1959
  8
L1
 10
15.106955983156411
 20
253.06027086004221
 30
0.0
  0
VERTEX
  5
195A
  8
L1
 10
15.18907505978887
 20
252.90665850545639
 30
0.0
  0
SEQEND
  5
195B
  8
L1
  0
POLYLINE
  5
186
  8
L1
 66
     1
 10
0.0
 20
0.0
 30
0.0
  0
VERTEX
  5
195C
  8
L1
 10
22.964954689686859
 20
251.898518373781
 30
0.0
  0
VERTEX
  5
195D
  8
L1
 10
22.577687736742909
 20
251.8468234322859
 30
0.0
  0
VERTEX
  5
195E
  8
L1
 10
22.216790635052629
 20
251.69684076985141
 30
0.0
  0
VERTEX
  5
195F
  8
L1
 10
21.906772715971272
 20
251.45875604536471
 30
0.0
  0
VERTEX
  5
1960
  8
L1
 10
21.66868799148466
 20
251.14873812628321
 30
0.0
  0
VERTEX
  5
1961
  8
L1
 10
21.518705329050189
 20
250.78784102459301
 30
0.0
  0
VERTEX
  5
1962
  8
L1
 10
21.467010387555138
 20
250.40057407164909
 30
0.0
  0
SEQEND
  5
1963
  8
L1
  0
LINE
  5
187
  8
L1
 10
21.467008806276279
 20
247.0374564413479
 30
0.0
 11
21.467008806276279
 21
250.39903396759649
 31
0.0
  0
POLYLINE
  5
188
  8
L1
 66
     1
 10
0.0
 20
0.0
 30
0.0
  0
VERTEX
  5
1964
  8
L1
 10
21.467008806276279
 20
250.39903396759641
 30
0.0
  0
VERTEX
  5
1965
  8
L1
 10
21.46700920159611
 20
250.39980421738409
 30
0.0
  0
VERTEX
  5
1966
  8
L1
 10
21.467010387555138
 20
250.40057407164909
 30
0.0
  0
SEQEND
  5
1967
  8
L1
  0
LINE
  5
189
  8
L1
 10
19.428072319987962
 20
247.03745644134821
 30
0.0
 11
19.428072319987962
 21
250.53745644134821
 31
0.0
  0
LINE
  5
18A
  8
L1
 10
21.467008806276048
 20
247.0374564413479
 30
0.0
 11
21.467008806276048
 21
242.99851995505989
 31
0.0
  0
POLYLINE
  5
18B
  8
L1
 66
     1
 10
0.0
 20
0.0
 30
0.0
  0
VERTEX
  5
1968
  8
L1
 10
19.591848691008011
 20
253.00601742556231
 30
0.0
  0
VERTEX
  5
1969
  8
L1
 10
19.594004361708521
 20
253.00781255638671
 30
0.0
  0
VERTEX
  5
196A
  8
L1
 10
19.635764092642201
 20
253.0507252741001
 30
0.0
  0
VERTEX
  5
196B
  8
L1
 10
19.66817167578477
 20
253.10107525500499
 30
0.0
  0
VERTEX
  5
196C
  8
L1
 10
19.68909897784448
 20
253.1539162694024
 30
0.0
  0
VERTEX
  5
196D
  8
L1
 10
19.6996864047656
 20
253.20975553231321
 30
0.0
  0
VERTEX
  5
196E
  8
L1
 10
19.699363824567911
 20
253.26846896201121
 30
0.0
  0
VERTEX
  5
196F
  8
L1
 10
19.6876117106629
 20
253.32599503908199
 30
0.0
  0
VERTEX
  5
1970
  8
L1
 10
19.664622957923989
 20
253.38060309239719
 30
0.0
  0
VERTEX
  5
1971
  8
L1
 10
19.631349689760722
 20
253.42962765730789
 30
0.0
  0
VERTEX
  5
1972
  8
L1
 10
19.59046368665798
 20
253.47004295958089
 30
0.0
  0
VERTEX
  5
1973
  8
L1
 10
19.542618770410218
 20
253.50191660612111
 30
0.0
  0
VERTEX
  5
1974
  8
L1
 10
19.498932113942431
 20
253.52101572118889
 30
0.0
  0
VERTEX
  5
1975
  8
L1
 10
19.452771317645951
 20
253.53295239573021
 30
0.0
  0
VERTEX
  5
1976
  8
L1
 10
19.40098042353787
 20
253.53745644134801
 30
0.0
  0
SEQEND
  5
1977
  8
L1
  0
ARC
  5
18C
  8
L1
 10
21.628072319988
 20
250.53745644134821
 30
0.0
 40
3.200000000000057
 50
90.0
 51
129.51794668407649
  0
LINE
  5
18E
  8
L1
 10
293.3255320463748
 20
255.29976057225721
 30
0.0
 11
267.63434488581072
 21
253.9533425060271
 31
0.0
  0
LINE
  5
18F
  8
L1
 10
168.15516421643841
 20
253.53745644134801
 30
0.0
 11
179.42807231998819
 21
253.53745644134801
 31
0.0
  0
LINE
  5
190
  8
L1
 10
169.64019627700631
 20
250.1797852022753
 30
0.0
 11
172.36706958018749
 21
252.90665850545639
 31
0.0
  0
ARC
  5
191
  8
L1
 10
165.92807231998819
 20
250.53745644134821
 30
0.0
 40
2.200000000000033
 50
0.0
 51
90.0
  0
POLYLINE
  5
192
  8
L1
 66
     1
 10
0.0
 20
0.0
 30
0.0
  0
VERTEX
  5
1978
  8
L1
 10
164.59118995028939
 20
251.898518373781
 30
0.0
  0
VERTEX
  5
1979
  8
L1
 10
164.97845690323339
 20
251.8468234322859
 30
0.0
  0
VERTEX
  5
197A
  8
L1
 10
165.33935400492351
 20
251.69684076985141
 30
0.0
  0
VERTEX
  5
197B
  8
L1
 10
165.64937192400501
 20
251.45875604536471
 30
0.0
  0
VERTEX
  5
197C
  8
L1
 10
165.88745664849159
 20
251.14873812628321
 30
0.0
  0
VERTEX
  5
197D
  8
L1
 10
166.037439310926
 20
250.78784102459301
 30
0.0
  0
VERTEX
  5
197E
  8
L1
 10
166.0891342524211
 20
250.40057407164909
 30
0.0
  0
SEQEND
  5
197F
  8
L1
  0
ARC
  5
193
  8
L1
 10
165.92807231998819
 20
250.53745644134821
 30
0.0
 40
3.200000000000057
 50
0.0
 51
50.482053315923501
  0
LINE
  5
194
  8
L1
 10
168.12807231998829
 20
247.03745644134821
 30
0.0
 11
168.12807231998829
 21
250.53745644134821
 31
0.0
  0
POLYLINE
  5
195
  8
L1
 66
     1
 10
0.0
 20
0.0
 30
0.0
  0
VERTEX
  5
1980
  8
L1
 10
166.08913583369991
 20
250.39903396759641
 30
0.0
  0
VERTEX
  5
1981
  8
L1
 10
166.08913543838011
 20
250.39980421738409
 30
0.0
  0
VERTEX
  5
1982
  8
L1
 10
166.0891342524211
 20
250.40057407164909
 30
0.0
  0
SEQEND
  5
1983
  8
L1
  0
LINE
  5
196
  8
L1
 10
166.0891358337
 20
247.0374564413479
 30
0.0
 11
166.0891358337
 21
250.39903396759649
 31
0.0
  0
LINE
  5
197
  8
L1
 10
166.08913583370011
 20
247.0374564413479
 30
0.0
 11
166.08913583370011
 21
242.99851995505989
 31
0.0
  0
LINE
  5
198
  8
L1
 10
169.12807231998829
 20
250.53745644134821
 30
0.0
 11
169.12807231998829
 21
249.23745644134829
 31
0.0
  0
LINE
  5
199
  8
L1
 10
169.12807231998829
 20
249.23745644134829
 30
0.0
 11
169.12807231998829
 21
247.03745644134821
 31
0.0
  0
POLYLINE
  5
19A
  8
L1
 66
     1
 10
0.0
 20
0.0
 30
0.0
  0
VERTEX
  5
1984
  8
L1
 10
169.64019627700631
 20
250.1797852022753
 30
0.0
  0
VERTEX
  5
1985
  8
L1
 10
169.48659101403709
 20
250.09768180615859
 30
0.0
  0
VERTEX
  5
1986
  8
L1
 10
169.31326201362469
 20
250.11475868789071
 30
0.0
  0
VERTEX
  5
1987
  8
L1
 10
169.1786298497581
 20
250.2252600810944
 30
0.0
  0
VERTEX
  5
1988
  8
L1
 10
169.12807231998821
 20
250.3919414692599
 30
0.0
  0
SEQEND
  5
1989
  8
L1
  0
ARC
  5
19B
  8
L1
 10
165.92807231998819
 20
250.53745644134821
 30
0.0
 40
3.200000000000057
 50
50.482053315923501
 51
90.0
  0
POLYLINE
  5
19C
  8
L1
 66
     1
 10
0.0
 20
0.0
 30
0.0
  0
VERTEX
  5
198A
  8
L1
 10
167.9642959489681
 20
253.00601742556231
 30
0.0
  0
VERTEX
  5
198B
  8
L1
 10
167.9621402782677
 20
253.00781255638671
 30
0.0
  0
VERTEX
  5
198C
  8
L1
 10
167.9203805473341
 20
253.0507252741001
 30
0.0
  0
VERTEX
  5
198D
  8
L1
 10
167.8879729641915
 20
253.10107525500499
 30
0.0
  0
VERTEX
  5
198E
  8
L1
 10
167.8670456621318
 20
253.1539162694024
 30
0.0
  0
VERTEX
  5
198F
  8
L1
 10
167.85645823521071
 20
253.20975553231321
 30
0.0
  0
VERTEX
  5
1990
  8
L1
 10
167.8567808154084
 20
253.26846896201121
 30
0.0
  0
VERTEX
  5
1991
  8
L1
 10
167.8685329293134
 20
253.32599503908199
 30
0.0
  0
VERTEX
  5
1992
  8
L1
 10
167.89152168205231
 20
253.38060309239719
 30
0.0
  0
VERTEX
  5
1993
  8
L1
 10
167.9247949502155
 20
253.42962765730789
 30
0.0
  0
VERTEX
  5
1994
  8
L1
 10
167.9656809533183
 20
253.47004295958089
 30
0.0
  0
VERTEX
  5
1995
  8
L1
 10
168.013525869566
 20
253.50191660612111
 30
0.0
  0
VERTEX
  5
1996
  8
L1
 10
168.05721252603379
 20
253.52101572118889
 30
0.0
  0
VERTEX
  5
1997
  8
L1
 10
168.1033733223303
 20
253.53295239573021
 30
0.0
  0
VERTEX
  5
1998
  8
L1
 10
168.15516421643841
 20
253.53745644134801
 30
0.0
  0
SEQEND
  5
1999
  8
L1
  0
ARC
  5
19D
  8
L1
 10
179.42807231998819
 20
250.9374564413481
 30
0.0
 40
2.6000000000000001
 50
0.0
 51
90.0
  0
ARC
  5
19E
  8
L1
 10
175.52807231998821
 20
247.0374564413481
 30
0.0
 40
5.7825462644184809
 50
26.013604937570602
 51
63.986395062422609
  0
LINE
  5
19F
  8
L1
 10
175.34105951169079
 20
251.9151873087317
 30
0.0
 11
170.65034145260461
 21
247.22446924964549
 31
0.0
  0
LINE
  5
1A0
  8
L1
 10
175.71508512828561
 20
242.15972557396461
 30
0.0
 11
180.4058031873717
 21
246.85044363305059
 31
0.0
  0
ARC
  5
1A1
  8
L1
 10
175.52807231998821
 20
247.0374564413481
 30
0.0
 40
4.881314598045666
 50
357.80434810777717
 51
22.330713271137029
  0
LINE
  5
1A2
  8
L1
 10
182.0280723199881
 20
250.8768758217013
 30
0.0
 11
180.04331848415819
 21
248.89212198587131
 31
0.0
  0
POLYLINE
  5
1A3
  8
L1
 66
     1
 10
0.0
 20
0.0
 30
0.0
  0
VERTEX
  5
199A
  8
L1
 10
181.39727438409639
 20
243.87645370154769
 30
0.0
  0
VERTEX
  5
199B
  8
L1
 10
181.55088673868221
 20
243.95857277818001
 30
0.0
  0
VERTEX
  5
199C
  8
L1
 10
181.72421037200101
 20
243.94151050661949
 30
0.0
  0
VERTEX
  5
199D
  8
L1
 10
181.85883353638371
 20
243.83101703808279
 30
0.0
  0
VERTEX
  5
199E
  8
L1
 10
182.0280723199881
 20
243.27299393690751
 30
0.0
  0
SEQEND
  5
199F
  8
L1
  0
LINE
  5
1A4
  8
L1
 10
177.38273786451151
 20
251.55270260551811
 30
0.0
 11
179.3674917003413
 21
253.53745644134801
 31
0.0
  0
ARC
  5
1A5
  8
L1
 10
175.52807231998821
 20
247.0374564413481
 30
0.0
 40
4.881314598045666
 50
67.669286728864066
 51
92.195651892222756
  0
POLYLINE
  5
1A6
  8
L1
 66
     1
 10
0.0
 20
0.0
 30
0.0
  0
VERTEX
  5
19A0
  8
L1
 10
171.76360981554771
 20
253.53745644134801
 30
0.0
  0
VERTEX
  5
19A1
  8
L1
 10
172.32163291672251
 20
253.36821765774371
 30
0.0
  0
VERTEX
  5
19A2
  8
L1
 10
172.43212638525921
 20
253.2335944933611
 30
0.0
  0
VERTEX
  5
19A3
  8
L1
 10
172.4491886568199
 20
253.06027086004221
 30
0.0
  0
VERTEX
  5
19A4
  8
L1
 10
172.3670695801874
 20
252.90665850545639
 30
0.0
  0
SEQEND
  5
19A5
  8
L1
  0
POLYLINE
  5
1A7
  8
L1
 66
     1
 10
0.0
 20
0.0
 30
0.0
  0
VERTEX
  5
19A6
  8
L1
 10
180.3350723199882
 20
255.29954487912221
 30
0.0
  0
VERTEX
  5
19A7
  8
L1
 10
180.66370288862049
 20
255.28047051373409
 30
0.0
  0
VERTEX
  5
19A8
  8
L1
 10
180.99685992243349
 20
255.2291708314624
 30
0.0
  0
VERTEX
  5
19A9
  8
L1
 10
181.32822426316221
 20
255.14448090169091
 30
0.0
  0
VERTEX
  5
19AA
  8
L1
 10
181.6518447062293
 20
255.0270414433505
 30
0.0
  0
VERTEX
  5
19AB
  8
L1
 10
181.96226902287151
 20
254.87821294034859
 30
0.0
  0
VERTEX
  5
19AC
  8
L1
 10
182.25469155088419
 20
254.70089719153421
 30
0.0
  0
VERTEX
  5
19AD
  8
L1
 10
182.5244713382325
 20
254.49885705692819
 30
0.0
  0
VERTEX
  5
19AE
  8
L1
 10
182.76800143906181
 20
254.27738556042161
 30
0.0
  0
VERTEX
  5
19AF
  8
L1
 10
182.98947293556839
 20
254.03385545959239
 30
0.0
  0
VERTEX
  5
19B0
  8
L1
 10
183.19151307017421
 20
253.76407567224419
 30
0.0
  0
VERTEX
  5
19B1
  8
L1
 10
183.36882881898859
 20
253.47165314423151
 30
0.0
  0
VERTEX
  5
19B2
  8
L1
 10
183.5176573219905
 20
253.1612288275891
 30
0.0
  0
VERTEX
  5
19B3
  8
L1
 10
183.63509678033111
 20
252.83760838452201
 30
0.0
  0
VERTEX
  5
19B4
  8
L1
 10
183.71978671010251
 20
252.50624404379329
 30
0.0
  0
VERTEX
  5
19B5
  8
L1
 10
183.7710863923742
 20
252.17308700998041
 30
0.0
  0
VERTEX
  5
19B6
  8
L1
 10
183.79016075776221
 20
251.844456441348
 30
0.0
  0
SEQEND
  5
19B7
  8
L1
  0
ARC
  5
1A8
  8
L1
 10
180.3350723199882
 20
251.844456441348
 30
0.0
 40
2.7360241002247609
 50
0.0
 51
90.0
  0
ARC
  5
1B2
  8
L1
 10
267.64481207705933
 20
253.7536165990762
 30
0.0
 40
0.2
 50
92.999999999999659
 51
180.0
  0
LINE
  5
1C1
  8
L1
 10
357.39259399685511
 20
247.2132237985885
 30
0.0
 11
352.71641000001512
 21
251.8894077954285
 31
0.0
  0
ARC
  5
1C2
  8
L1
 10
352.5406426427748
 20
247.03745644134801
 30
0.0
 40
4.8551339946733894
 50
267.9253036357822
 51
2.074696364218489
  0
CIRCLE
  5
1C3
  8
L1
 10
352.5406426427748
 20
247.03745644134801
 30
0.0
 40
5.7974047862592784
  0
CIRCLE
  5
1C4
  8
L1
 10
352.5406426427748
 20
247.03745644134801
 30
0.0
 40
6.097393363178492
  0
LINE
  5
1C5
  8
L1
 10
294.04481207705931
 20
254.5804805415728
 30
0.0
 11
293.3255320463748
 21
255.29976057225721
 31
0.0
  0
POLYLINE
  5
1C6
  8
L1
 66
     1
 10
0.0
 20
0.0
 30
0.0
  0
VERTEX
  5
19B8
  8
L1
 10
347.40754300102259
 20
249.55067061428309
 30
0.0
  0
VERTEX
  5
19B9
  8
L1
 10
347.4234359807669
 20
249.53342239150581
 30
0.0
  0
VERTEX
  5
19BA
  8
L1
 10
347.47061446376023
 20
249.48504384651989
 30
0.0
  0
VERTEX
  5
19BB
  8
L1
 10
347.54330050715589
 20
249.41153748847361
 30
0.0
  0
VERTEX
  5
19BC
  8
L1
 10
347.63134045308328
 20
249.32320297575299
 30
0.0
  0
SEQEND
  5
19BD
  8
L1
  0
POLYLINE
  5
1C7
  8
L1
 66
     1
 10
0.0
 20
0.0
 30
0.0
  0
VERTEX
  5
19BE
  8
L1
 10
347.38911346348698
 20
249.66416320364311
 30
0.0
  0
VERTEX
  5
19BF
  8
L1
 10
347.40754300102259
 20
249.55067061428321
 30
0.0
  0
SEQEND
  5
19C0
  8
L1
  0
LINE
  5
1C8
  8
L1
 10
347.63134045308328
 20
249.32320297575299
 30
0.0
 11
348.05626304623257
 21
248.89828038260359
 31
0.0
  0
ARC
  5
1C9
  8
L1
 10
352.5406426427748
 20
247.03745644134801
 30
0.0
 40
4.8551339946733894
 50
157.4636600530614
 51
182.07469636421709
  0
LINE
  5
1CA
  8
L1
 10
347.6886912886946
 20
246.86168908410761
 30
0.0
 11
352.36487528553442
 21
242.18550508726781
 31
0.0
  0
POLYLINE
  5
1CB
  8
L1
 66
     1
 10
0.0
 20
0.0
 30
0.0
  0
VERTEX
  5
19C1
  8
L1
 10
349.11995994973688
 20
253.75361659907611
 30
0.0
  0
VERTEX
  5
19C2
  8
L1
 10
348.84758071740112
 20
253.7423692632741
 30
0.0
  0
VERTEX
  5
19C3
  8
L1
 10
348.57711724594498
 20
253.70870381901659
 30
0.0
  0
VERTEX
  5
19C4
  8
L1
 10
348.31041064114999
 20
253.65284943456689
 30
0.0
  0
VERTEX
  5
19C5
  8
L1
 10
348.04927643495961
 20
253.5751863233032
 30
0.0
  0
VERTEX
  5
19C6
  8
L1
 10
347.79549222674501
 20
253.47624315552011
 30
0.0
  0
VERTEX
  5
19C7
  8
L1
 10
347.55078558278512
 20
253.35669345965101
 30
0.0
  0
VERTEX
  5
19C8
  8
L1
 10
347.31682227633382
 20
253.2173510374086
 30
0.0
  0
VERTEX
  5
19C9
  8
L1
 10
347.09519494832659
 20
253.05916442405251
 30
0.0
  0
VERTEX
  5
19CA
  8
L1
 10
346.88741226591418
 20
252.88321043149691
 30
0.0
  0
VERTEX
  5
19CB
  8
L1
 10
346.6948886526261
 20
252.69068681820869
 30
0.0
  0
VERTEX
  5
19CC
  8
L1
 10
346.5189346600705
 20
252.48290413579639
 30
0.0
  0
VERTEX
  5
19CD
  8
L1
 10
346.36074804671432
 20
252.2612768077891
 30
0.0
  0
VERTEX
  5
19CE
  8
L1
 10
346.22140562447191
 20
252.02731350133789
 30
0.0
  0
VERTEX
  5
19CF
  8
L1
 10
346.10185592860279
 20
251.78260685737791
 30
0.0
  0
VERTEX
  5
19D0
  8
L1
 10
346.0029127608197
 20
251.52882264916329
 30
0.0
  0
VERTEX
  5
19D1
  8
L1
 10
345.92524964955601
 20
251.267688442973
 30
0.0
  0
VERTEX
  5
19D2
  8
L1
 10
345.86939526510639
 20
251.00098183817789
 30
0.0
  0
VERTEX
  5
19D3
  8
L1
 10
345.83572982084883
 20
250.73051836672181
 30
0.0
  0
VERTEX
  5
19D4
  8
L1
 10
345.82448248504681
 20
250.4581391343861
 30
0.0
  0
SEQEND
  5
19D5
  8
L1
  0
POLYLINE
  5
1CC
  8
L1
 66
     1
 10
0.0
 20
0.0
 30
0.0
  0
VERTEX
  5
19D6
  8
L1
 10
344.27855420500077
 20
251.844456441348
 30
0.0
  0
VERTEX
  5
19D7
  8
L1
 10
344.34892825266058
 20
252.50624404379329
 30
0.0
  0
VERTEX
  5
19D8
  8
L1
 10
344.5510576407724
 20
253.16122882758901
 30
0.0
  0
VERTEX
  5
19D9
  8
L1
 10
344.8772018925888
 20
253.76407567224399
 30
0.0
  0
VERTEX
  5
19DA
  8
L1
 10
345.30071352370118
 20
254.27738556042161
 30
0.0
  0
VERTEX
  5
19DB
  8
L1
 10
345.81402341187879
 20
254.7008971915341
 30
0.0
  0
VERTEX
  5
19DC
  8
L1
 10
346.41687025653391
 20
255.0270414433505
 30
0.0
  0
VERTEX
  5
19DD
  8
L1
 10
347.07185504032958
 20
255.2291708314624
 30
0.0
  0
VERTEX
  5
19DE
  8
L1
 10
347.7336426427749
 20
255.2995448791221
 30
0.0
  0
SEQEND
  5
19DF
  8
L1
  0
POLYLINE
  5
1CD
  8
L1
 66
     1
 10
0.0
 20
0.0
 30
0.0
  0
VERTEX
  5
19E0
  8
L1
 10
350.02742846983961
 20
252.17055608310019
 30
0.0
  0
VERTEX
  5
19E1
  8
L1
 10
349.91393588047958
 20
252.1889856206358
 30
0.0
  0
SEQEND
  5
19E2
  8
L1
  0
POLYLINE
  5
1CE
  8
L1
 66
     1
 10
0.0
 20
0.0
 30
0.0
  0
VERTEX
  5
19E3
  8
L1
 10
350.25489610836991
 20
251.9467586310395
 30
0.0
  0
VERTEX
  5
19E4
  8
L1
 10
350.16656159564911
 20
252.03479857696689
 30
0.0
  0
VERTEX
  5
19E5
  8
L1
 10
350.09305523760293
 20
252.1074846203627
 30
0.0
  0
VERTEX
  5
19E6
  8
L1
 10
350.04467669261697
 20
252.15466310335589
 30
0.0
  0
VERTEX
  5
19E7
  8
L1
 10
350.02742846983972
 20
252.17055608310019
 30
0.0
  0
SEQEND
  5
19E8
  8
L1
  0
LINE
  5
1CF
  8
L1
 10
350.6798187015192
 20
251.52183603789001
 30
0.0
 11
350.25489610836991
 21
251.94675863103939
 31
0.0
  0
ARC
  5
1D0
  8
L1
 10
352.5406426427748
 20
247.03745644134801
 30
0.0
 40
4.8551339946733894
 50
87.925303635784914
 51
112.5363399469389
  0
LINE
  5
1D4
  8
L1
 10
360.1508497294318
 20
246.8171079118749
 30
0.0
 11
360.1508497294318
 21
251.3362174493019
 31
0.0
  0
POLYLINE
  5
1D5
  8
L1
 66
     1
 10
0.0
 20
0.0
 30
0.0
  0
VERTEX
  5
19E9
  8
L1
 10
362.9051298352444
 20
249.1778388710502
 30
0.0
  0
VERTEX
  5
19EA
  8
L1
 10
362.93176663395019
 20
249.2955112323431
 30
0.0
  0
VERTEX
  5
19EB
  8
L1
 10
363.21973952165212
 20
249.9331759392569
 30
0.0
  0
VERTEX
  5
19EC
  8
L1
 10
363.70221600496461
 20
250.4379528532416
 30
0.0
  0
VERTEX
  5
19ED
  8
L1
 10
364.10218156110182
 20
250.67108167020049
 30
0.0
  0
SEQEND
  5
19EE
  8
L1
  0
POLYLINE
  5
1D6
  8
L1
 66
     1
 10
0.0
 20
0.0
 30
0.0
  0
VERTEX
  5
19EF
  8
L1
 10
362.87032762304261
 20
248.8164654626423
 30
0.0
  0
VERTEX
  5
19F0
  8
L1
 10
362.87038487258559
 20
248.83120317462721
 30
0.0
  0
VERTEX
  5
19F1
  8
L1
 10
362.87108943239451
 20
248.87032282062279
 30
0.0
  0
VERTEX
  5
19F2
  8
L1
 10
362.87483527443089
 20
248.94735462181481
 30
0.0
  0
VERTEX
  5
19F3
  8
L1
 10
362.89351491197942
 20
249.1120936449731
 30
0.0
  0
VERTEX
  5
19F4
  8
L1
 10
362.9051298352444
 20
249.1778388710502
 30
0.0
  0
SEQEND
  5
19F5
  8
L1
  0
POLYLINE
  5
1D7
  8
L1
 66
     1
 10
0.0
 20
0.0
 30
0.0
  0
VERTEX
  5
19F6
  8
L1
 10
362.8701780431465
 20
244.2975055051111
 30
0.0
  0
VERTEX
  5
19F7
  8
L1
 10
362.87029153721232
 20
244.94194348468599
 30
0.0
  0
VERTEX
  5
19F8
  8
L1
 10
362.87037983655728
 20
245.3525433104075
 30
0.0
  0
VERTEX
  5
19F9
  8
L1
 10
362.87042135872258
 20
245.6842422976494
 30
0.0
  0
VERTEX
  5
19FA
  8
L1
 10
362.8704086977441
 20
246.25889139656101
 30
0.0
  0
VERTEX
  5
19FB
  8
L1
 10
362.87034280673441
 20
246.96179806115421
 30
0.0
  0
VERTEX
  5
19FC
  8
L1
 10
362.87031779136151
 20
247.45381900549759
 30
0.0
  0
VERTEX
  5
19FD
  8
L1
 10
362.87031293815261
 20
248.0888695711615
 30
0.0
  0
VERTEX
  5
19FE
  8
L1
 10
362.87032762304261
 20
248.8164654626423
 30
0.0
  0
SEQEND
  5
19FF
  8
L1
  0
POLYLINE
  5
1D8
  8
L1
 66
     1
 10
0.0
 20
0.0
 30
0.0
  0
VERTEX
  5
1A00
  8
L1
 10
366.2154513291818
 20
248.71112054826699
 30
0.0
  0
VERTEX
  5
1A01
  8
L1
 10
365.84798616043111
 20
248.67723238609409
 30
0.0
  0
VERTEX
  5
1A02
  8
L1
 10
365.44146163639732
 20
248.53318971696149
 30
0.0
  0
VERTEX
  5
1A03
  8
L1
 10
365.10638346291609
 20
248.2524449787141
 30
0.0
  0
VERTEX
  5
1A04
  8
L1
 10
364.89860653607451
 20
247.84612249914261
 30
0.0
  0
VERTEX
  5
1A05
  8
L1
 10
364.83660168504639
 20
247.38774683614611
 30
0.0
  0
SEQEND
  5
1A06
  8
L1
  0
POLYLINE
  5
1D9
  8
L1
 66
     1
 10
0.0
 20
0.0
 30
0.0
  0
VERTEX
  5
1A07
  8
L1
 10
364.85299596607081
 20
250.82831525863219
 30
0.0
  0
VERTEX
  5
1A08
  8
L1
 10
364.46826816374119
 20
250.7886332876682
 30
0.0
  0
VERTEX
  5
1A09
  8
L1
 10
364.10218156110182
 20
250.67108167020049
 30
0.0
  0
SEQEND
  5
1A0A
  8
L1
  0
POLYLINE
  5
1DA
  8
L1
 66
     1
 10
0.0
 20
0.0
 30
0.0
  0
VERTEX
  5
1A0B
  8
L1
 10
360.1508497294318
 20
251.3362174493019
 30
0.0
  0
VERTEX
  5
1A0C
  8
L1
 10
360.31796775874381
 20
252.1774215669534
 30
0.0
  0
VERTEX
  5
1A0D
  8
L1
 10
360.79396715507011
 20
252.8900850001238
 30
0.0
  0
VERTEX
  5
1A0E
  8
L1
 10
361.5066305882404
 20
253.36608439644999
 30
0.0
  0
VERTEX
  5
1A0F
  8
L1
 10
362.34783470589178
 20
253.533202425762
 30
0.0
  0
SEQEND
  5
1A10
  8
L1
  0
LINE
  5
1EC
  8
L6
 10
434.29064264277503
 20
259.95395198963951
 30
0.0
 11
434.29064264277503
 21
121.7922664433724
 31
0.0
  0
LINE
  5
1F0
  8
L1
 10
524.3029467736842
 20
128.77035568207981
 30
0.0
 11
524.3029467736842
 21
251.80455720061619
 31
0.0
  0
POLYLINE
  5
1F1
  8
L1
 66
     1
 10
0.0
 20
0.0
 30
0.0
  0
VERTEX
  5
1A11
  8
L1
 10
513.30071243512953
 20
236.70794176956781
 30
0.0
  0
VERTEX
  5
1A12
  8
L1
 10
513.26057424407225
 20
236.70804862536579
 30
0.0
  0
VERTEX
  5
1A13
  8
L1
 10
513.06957397591191
 20
236.711573778863
 30
0.0
  0
VERTEX
  5
1A14
  8
L1
 10
512.63614730830591
 20
236.73807290534441
 30
0.0
  0
VERTEX
  5
1A15
  8
L1
 10
512.17589505654803
 20
236.79419245190061
 30
0.0
  0
VERTEX
  5
1A16
  8
L1
 10
511.58221787415039
 20
236.9095978404923
 30
0.0
  0
VERTEX
  5
1A17
  8
L1
 10
510.65147277054712
 20
237.19298270799081
 30
0.0
  0
VERTEX
  5
1A18
  8
L1
 10
509.76415221779422
 20
237.59303181779291
 30
0.0
  0
VERTEX
  5
1A19
  8
L1
 10
508.64526662288642
 20
238.31818066128429
 30
0.0
  0
VERTEX
  5
1A1A
  8
L1
 10
507.64734156030499
 20
239.25182003980541
 30
0.0
  0
VERTEX
  5
1A1B
  8
L1
 10
506.85231308304651
 20
240.31565490933011
 30
0.0
  0
VERTEX
  5
1A1C
  8
L1
 10
506.31104384995803
 20
241.36169805498901
 30
0.0
  0
VERTEX
  5
1A1D
  8
L1
 10
505.93757641527782
 20
242.47806519611939
 30
0.0
  0
VERTEX
  5
1A1E
  8
L1
 10
505.79212309796043
 20
243.20832247169989
 30
0.0
  0
VERTEX
  5
1A1F
  8
L1
 10
505.7286247844205
 20
243.79152079764739
 30
0.0
  0
VERTEX
  5
1A20
  8
L1
 10
505.71309978683058
 20
244.12679866321159
 30
0.0
  0
VERTEX
  5
1A21
  8
L1
 10
505.71110733568202
 20
244.29628242291579
 30
0.0
  0
VERTEX
  5
1A22
  8
L1
 10
505.71110724240327
 20
244.2975055051111
 30
0.0
  0
SEQEND
  5
1A23
  8
L1
  0
POLYLINE
  5
1F2
  8
L1
 66
     1
 10
0.0
 20
0.0
 30
0.0
  0
VERTEX
  5
1A24
  8
L1
 10
503.74468360050338
 20
247.38774683614611
 30
0.0
  0
VERTEX
  5
1A25
  8
L1
 10
503.74453905157748
 20
245.41817716663081
 30
0.0
  0
VERTEX
  5
1A26
  8
L1
 10
503.74446126692578
 20
244.48789712511291
 30
0.0
  0
VERTEX
  5
1A27
  8
L1
 10
503.74438603809023
 20
243.63746295022179
 30
0.0
  0
VERTEX
  5
1A28
  8
L1
 10
503.74431803702731
 20
242.89950664530841
 30
0.0
  0
VERTEX
  5
1A29
  8
L1
 10
503.74426193569383
 20
242.30666021372289
 30
0.0
  0
VERTEX
  5
1A2A
  8
L1
 10
503.74422240604599
 20
241.89155565881549
 30
0.0
  0
VERTEX
  5
1A2B
  8
L1
 10
503.74420412004019
 20
241.6868249839369
 30
0.0
  0
VERTEX
  5
1A2C
  8
L1
 10
503.75073698953292
 20
239.15235017657761
 30
0.0
  0
VERTEX
  5
1A2D
  8
L1
 10
503.75874056964147
 20
238.52918954637909
 30
0.0
  0
VERTEX
  5
1A2E
  8
L1
 10
503.76639285530672
 20
238.07596077094161
 30
0.0
  0
VERTEX
  5
1A2F
  8
L1
 10
503.76981831698998
 20
237.7289119858012
 30
0.0
  0
VERTEX
  5
1A30
  8
L1
 10
503.77072279568142
 20
237.47382881630691
 30
0.0
  0
VERTEX
  5
1A31
  8
L1
 10
503.77579606132753
 20
237.08036786614659
 30
0.0
  0
VERTEX
  5
1A32
  8
L1
 10
503.82026187833992
 20
236.54422536786251
 30
0.0
  0
VERTEX
  5
1A33
  8
L1
 10
503.9323314806901
 20
236.11337605519859
 30
0.0
  0
VERTEX
  5
1A34
  8
L1
 10
504.10922051017161
 20
235.763107866647
 30
0.0
  0
VERTEX
  5
1A35
  8
L1
 10
504.3359171189461
 20
235.4661247415481
 30
0.0
  0
VERTEX
  5
1A36
  8
L1
 10
504.66907202990433
 20
235.17261217722671
 30
0.0
  0
VERTEX
  5
1A37
  8
L1
 10
504.96274754100318
 20
234.999637615327
 30
0.0
  0
VERTEX
  5
1A38
  8
L1
 10
505.66660542178232
 20
234.8068535696242
 30
0.0
  0
VERTEX
  5
1A39
  8
L1
 10
506.25535252793708
 20
234.77357171257259
 30
0.0
  0
VERTEX
  5
1A3A
  8
L1
 10
506.6174202614763
 20
234.77127056459469
 30
0.0
  0
VERTEX
  5
1A3B
  8
L1
 10
507.09459749572079
 20
234.7672416462438
 30
0.0
  0
VERTEX
  5
1A3C
  8
L1
 10
507.61504327752527
 20
234.75785926872919
 30
0.0
  0
VERTEX
  5
1A3D
  8
L1
 10
507.94101357593109
 20
234.75256651691029
 30
0.0
  0
VERTEX
  5
1A3E
  8
L1
 10
508.35803669878618
 20
234.74790253004971
 30
0.0
  0
VERTEX
  5
1A3F
  8
L1
 10
509.24620894269748
 20
234.74277145204101
 30
0.0
  0
VERTEX
  5
1A40
  8
L1
 10
509.821899752413
 20
234.74149271690871
 30
0.0
  0
VERTEX
  5
1A41
  8
L1
 10
510.56447362184491
 20
234.74085475076549
 30
0.0
  0
VERTEX
  5
1A42
  8
L1
 10
511.53329050190052
 20
234.7406947284174
 30
0.0
  0
VERTEX
  5
1A43
  8
L1
 10
512.12109005557068
 20
234.74074306329319
 30
0.0
  0
VERTEX
  5
1A44
  8
L1
 10
512.78771034348722
 20
234.74084982467011
 30
0.0
  0
VERTEX
  5
1A45
  8
L1
 10
513.54057135951325
 20
234.74099465939861
 30
0.0
  0
VERTEX
  5
1A46
  8
L1
 10
514.38709309751221
 20
234.7411572143296
 30
0.0
  0
VERTEX
  5
1A47
  8
L1
 10
515.33469555134764
 20
234.7413171363138
 30
0.0
  0
VERTEX
  5
1A48
  8
L1
 10
516.39079871488298
 20
234.741454072202
 30
0.0
  0
SEQEND
  5
1A49
  8
L1
  0
POLYLINE
  5
1F3
  8
L1
 66
     1
 10
0.0
 20
0.0
 30
0.0
  0
VERTEX
  5
1A4A
  8
L1
 10
515.82029411330166
 20
239.42724935469101
 30
0.0
  0
VERTEX
  5
1A4B
  8
L1
 10
515.44565716634634
 20
239.4367271029908
 30
0.0
  0
VERTEX
  5
1A4C
  8
L1
 10
515.07203047693531
 20
239.46513610340159
 30
0.0
  0
VERTEX
  5
1A4D
  8
L1
 10
514.70036979823396
 20
239.51240368447679
 30
0.0
  0
VERTEX
  5
1A4E
  8
L1
 10
514.33162585426726
 20
239.57840893370789
 30
0.0
  0
VERTEX
  5
1A4F
  8
L1
 10
513.96674190792771
 20
239.66298300682431
 30
0.0
  0
VERTEX
  5
1A50
  8
L1
 10
513.60665134806686
 20
239.765909559704
 30
0.0
  0
VERTEX
  5
1A51
  8
L1
 10
513.25227530184736
 20
239.88692530179111
 30
0.0
  0
VERTEX
  5
1A52
  8
L1
 10
512.90452027846027
 20
240.02572066960491
 30
0.0
  0
VERTEX
  5
1A53
  8
L1
 10
512.56427585023482
 20
240.1819406186157
 30
0.0
  0
VERTEX
  5
1A54
  8
L1
 10
512.23241237707384
 20
240.3551855314652
 30
0.0
  0
VERTEX
  5
1A55
  8
L1
 10
511.90977878003667
 20
240.5450122402037
 30
0.0
  0
VERTEX
  5
1A56
  8
L1
 10
511.59720036976182
 20
240.75093515993359
 30
0.0
  0
VERTEX
  5
1A57
  8
L1
 10
511.29547673528668
 20
240.97242753095631
 30
0.0
  0
VERTEX
  5
1A58
  8
L1
 10
511.00537969866519
 20
241.20892276624619
 30
0.0
  0
VERTEX
  5
1A59
  8
L1
 10
510.72765134061228
 20
241.45981590080419
 30
0.0
  0
VERTEX
  5
1A5A
  8
L1
 10
510.4630021022312
 20
241.7244651391853
 30
0.0
  0
VERTEX
  5
1A5B
  8
L1
 10
510.21210896767309
 20
242.00219349723821
 30
0.0
  0
VERTEX
  5
1A5C
  8
L1
 10
509.97561373238329
 20
242.29229053385981
 30
0.0
  0
VERTEX
  5
1A5D
  8
L1
 10
509.7541213613606
 20
242.59401416833481
 30
0.0
  0
VERTEX
  5
1A5E
  8
L1
 10
509.54819844163069
 20
242.9065925786098
 30
0.0
  0
VERTEX
  5
1A5F
  8
L1
 10
509.35837173289218
 20
243.22922617564689
 30
0.0
  0
VERTEX
  5
1A60
  8
L1
 10
509.18512682004268
 20
243.56108964880781
 30
0.0
  0
VERTEX
  5
1A61
  8
L1
 10
509.02890687103178
 20
243.9013340770334
 30
0.0
  0
VERTEX
  5
1A62
  8
L1
 10
508.89011150321812
 20
244.24908910042049
 30
0.0
  0
VERTEX
  5
1A63
  8
L1
 10
508.76909576113093
 20
244.60346514663979
 30
0.0
  0
VERTEX
  5
1A64
  8
L1
 10
508.66616920825129
 20
244.9635557065007
 30
0.0
  0
VERTEX
  5
1A65
  8
L1
 10
508.58159513513488
 20
245.32843965284039
 30
0.0
  0
VERTEX
  5
1A66
  8
L1
 10
508.51558988590369
 20
245.69718359680701
 30
0.0
  0
VERTEX
  5
1A67
  8
L1
 10
508.46832230482852
 20
246.0688442755083
 30
0.0
  0
VERTEX
  5
1A68
  8
L1
 10
508.4399133044177
 20
246.44247096491941
 30
0.0
  0
VERTEX
  5
1A69
  8
L1
 10
508.43043555611791
 20
246.8171079118749
 30
0.0
  0
SEQEND
  5
1A6A
  8
L1
  0
LINE
  5
1F4
  8
L1
 10
522.75680280050301
 20
250.4581391343861
 30
0.0
 11
522.75680280050301
 21
130.1167737483099
 31
0.0
  0
LINE
  5
20B
  8
L1
 10
519.83150146005914
 20
145.84980976464399
 30
0.0
 11
519.83150146005914
 21
234.72510311805189
 31
0.0
  0
LINE
  5
20C
  8
L1
 10
517.71430674969395
 20
233.3626087731013
 30
0.0
 11
517.71430674969395
 21
147.21226512776721
 31
0.0
  0
LINE
  5
20D
  8
L1
 10
504.30294677368408
 20
233.29976057225721
 30
0.0
 11
504.30294677368408
 21
147.27515231043881
 31
0.0
  0
LINE
  5
20E
  8
L1
 10
522.53638862718913
 20
143.34464850446511
 30
0.0
 11
522.53638862718913
 21
237.230264378231
 31
0.0
  0
POLYLINE
  5
20F
  8
L1
 66
     1
 10
0.0
 20
0.0
 30
0.0
  0
VERTEX
  5
1A6B
  8
L1
 10
524.30273108054905
 20
128.730456441348
 30
0.0
  0
VERTEX
  5
1A6C
  8
L1
 10
524.23235703288924
 20
128.06866883890271
 30
0.0
  0
VERTEX
  5
1A6D
  8
L1
 10
524.03022764477726
 20
127.413684055107
 30
0.0
  0
VERTEX
  5
1A6E
  8
L1
 10
523.70408339296102
 20
126.81083721045199
 30
0.0
  0
VERTEX
  5
1A6F
  8
L1
 10
523.28057176184871
 20
126.29752732227441
 30
0.0
  0
VERTEX
  5
1A70
  8
L1
 10
522.76726187367103
 20
125.8740156911619
 30
0.0
  0
VERTEX
  5
1A71
  8
L1
 10
522.16441502901603
 20
125.5478714393456
 30
0.0
  0
VERTEX
  5
1A72
  8
L1
 10
521.5094302452203
 20
125.3457420512337
 30
0.0
  0
VERTEX
  5
1A73
  8
L1
 10
520.84764264277487
 20
125.2753680035739
 30
0.0
  0
SEQEND
  5
1A74
  8
L1
  0
POLYLINE
  5
210
  8
L1
 66
     1
 10
0.0
 20
0.0
 30
0.0
  0
VERTEX
  5
1A75
  8
L1
 10
503.74468360050338
 20
133.18716604654989
 30
0.0
  0
VERTEX
  5
1A76
  8
L1
 10
503.74453905157748
 20
135.1567357160653
 30
0.0
  0
VERTEX
  5
1A77
  8
L1
 10
503.74446126692578
 20
136.08701575758309
 30
0.0
  0
VERTEX
  5
1A78
  8
L1
 10
503.74438603809023
 20
136.93744993247421
 30
0.0
  0
VERTEX
  5
1A79
  8
L1
 10
503.74431803702731
 20
137.67540623738759
 30
0.0
  0
VERTEX
  5
1A7A
  8
L1
 10
503.74426193569383
 20
138.26825266897319
 30
0.0
  0
VERTEX
  5
1A7B
  8
L1
 10
503.74422240604599
 20
138.68335722388051
 30
0.0
  0
VERTEX
  5
1A7C
  8
L1
 10
503.74420412004019
 20
138.88808789875921
 30
0.0
  0
VERTEX
  5
1A7D
  8
L1
 10
503.75073698953292
 20
141.4225627061185
 30
0.0
  0
VERTEX
  5
1A7E
  8
L1
 10
503.75874056964147
 20
142.045723336317
 30
0.0
  0
VERTEX
  5
1A7F
  8
L1
 10
503.76639285530672
 20
142.49895211175451
 30
0.0
  0
VERTEX
  5
1A80
  8
L1
 10
503.76981831698998
 20
142.84600089689491
 30
0.0
  0
VERTEX
  5
1A81
  8
L1
 10
503.77072279568142
 20
143.10108406638909
 30
0.0
  0
VERTEX
  5
1A82
  8
L1
 10
503.77579606132753
 20
143.49454501654949
 30
0.0
  0
VERTEX
  5
1A83
  8
L1
 10
503.82026187833992
 20
144.03068751483349
 30
0.0
  0
VERTEX
  5
1A84
  8
L1
 10
503.9323314806901
 20
144.46153682749741
 30
0.0
  0
VERTEX
  5
1A85
  8
L1
 10
504.10922051017161
 20
144.81180501604911
 30
0.0
  0
VERTEX
  5
1A86
  8
L1
 10
504.3359171189461
 20
145.10878814114801
 30
0.0
  0
VERTEX
  5
1A87
  8
L1
 10
504.66907202990433
 20
145.4023007054694
 30
0.0
  0
VERTEX
  5
1A88
  8
L1
 10
504.96274754100318
 20
145.57527526736911
 30
0.0
  0
VERTEX
  5
1A89
  8
L1
 10
505.66660542178232
 20
145.7680593130718
 30
0.0
  0
VERTEX
  5
1A8A
  8
L1
 10
506.25535252793708
 20
145.80134117012349
 30
0.0
  0
VERTEX
  5
1A8B
  8
L1
 10
506.6174202614763
 20
145.8036423181014
 30
0.0
  0
VERTEX
  5
1A8C
  8
L1
 10
507.09459749572079
 20
145.80767123645231
 30
0.0
  0
VERTEX
  5
1A8D
  8
L1
 10
507.61504327752527
 20
145.81705361396689
 30
0.0
  0
VERTEX
  5
1A8E
  8
L1
 10
507.94101357593109
 20
145.82234636578571
 30
0.0
  0
VERTEX
  5
1A8F
  8
L1
 10
508.35803669878618
 20
145.8270103526464
 30
0.0
  0
VERTEX
  5
1A90
  8
L1
 10
509.24620894269748
 20
145.83214143065501
 30
0.0
  0
VERTEX
  5
1A91
  8
L1
 10
509.821899752413
 20
145.83342016578729
 30
0.0
  0
VERTEX
  5
1A92
  8
L1
 10
510.56447362184491
 20
145.83405813193059
 30
0.0
  0
VERTEX
  5
1A93
  8
L1
 10
511.53329050190052
 20
145.83421815427869
 30
0.0
  0
VERTEX
  5
1A94
  8
L1
 10
512.12109005557068
 20
145.8341698194028
 30
0.0
  0
VERTEX
  5
1A95
  8
L1
 10
512.78771034348722
 20
145.83406305802589
 30
0.0
  0
VERTEX
  5
1A96
  8
L1
 10
513.54057135951325
 20
145.83391822329739
 30
0.0
  0
VERTEX
  5
1A97
  8
L1
 10
514.38709309751221
 20
145.83375566836639
 30
0.0
  0
VERTEX
  5
1A98
  8
L1
 10
515.33469555134764
 20
145.8335957463822
 30
0.0
  0
VERTEX
  5
1A99
  8
L1
 10
516.39079871488298
 20
145.83345881049411
 30
0.0
  0
SEQEND
  5
1A9A
  8
L1
  0
POLYLINE
  5
211
  8
L1
 66
     1
 10
0.0
 20
0.0
 30
0.0
  0
VERTEX
  5
1A9B
  8
L1
 10
519.67433696947182
 20
145.09915208517191
 30
0.0
  0
VERTEX
  5
1A9C
  8
L1
 10
519.60832509958254
 20
144.9631799679137
 30
0.0
  0
VERTEX
  5
1A9D
  8
L1
 10
519.18589923899435
 20
144.41466891076379
 30
0.0
  0
VERTEX
  5
1A9E
  8
L1
 10
518.90054548984995
 20
144.19285414667459
 30
0.0
  0
VERTEX
  5
1A9F
  8
L1
 10
518.58055948950482
 20
144.0237224153154
 30
0.0
  0
VERTEX
  5
1AA0
  8
L1
 10
518.18111088767284
 20
143.90194735866621
 30
0.0
  0
SEQEND
  5
1AA1
  8
L1
  0
POLYLINE
  5
212
  8
L1
 66
     1
 10
0.0
 20
0.0
 30
0.0
  0
VERTEX
  5
1AA2
  8
L1
 10
513.30071243512953
 20
143.86697111312819
 30
0.0
  0
VERTEX
  5
1AA3
  8
L1
 10
513.26057424407225
 20
143.86686425733029
 30
0.0
  0
VERTEX
  5
1AA4
  8
L1
 10
513.06957397591191
 20
143.863339103833
 30
0.0
  0
VERTEX
  5
1AA5
  8
L1
 10
512.63614730830591
 20
143.83683997735159
 30
0.0
  0
VERTEX
  5
1AA6
  8
L1
 10
512.17589505654803
 20
143.7807204307955
 30
0.0
  0
VERTEX
  5
1AA7
  8
L1
 10
511.58221787415039
 20
143.6653150422037
 30
0.0
  0
VERTEX
  5
1AA8
  8
L1
 10
510.65147277054712
 20
143.38193017470519
 30
0.0
  0
VERTEX
  5
1AA9
  8
L1
 10
509.76415221779422
 20
142.98188106490321
 30
0.0
  0
VERTEX
  5
1AAA
  8
L1
 10
508.64526662288642
 20
142.25673222141171
 30
0.0
  0
VERTEX
  5
1AAB
  8
L1
 10
507.64734156030499
 20
141.32309284289059
 30
0.0
  0
VERTEX
  5
1AAC
  8
L1
 10
506.85231308304651
 20
140.25925797336589
 30
0.0
  0
VERTEX
  5
1AAD
  8
L1
 10
506.31104384995803
 20
139.21321482770699
 30
0.0
  0
VERTEX
  5
1AAE
  8
L1
 10
505.93757641527782
 20
138.09684768657661
 30
0.0
  0
VERTEX
  5
1AAF
  8
L1
 10
505.79212309796043
 20
137.3665904109962
 30
0.0
  0
VERTEX
  5
1AB0
  8
L1
 10
505.7286247844205
 20
136.7833920850486
 30
0.0
  0
VERTEX
  5
1AB1
  8
L1
 10
505.71309978683058
 20
136.44811421948449
 30
0.0
  0
VERTEX
  5
1AB2
  8
L1
 10
505.71110733568202
 20
136.2786304597802
 30
0.0
  0
VERTEX
  5
1AB3
  8
L1
 10
505.71110724240327
 20
136.27740737758489
 30
0.0
  0
SEQEND
  5
1AB4
  8
L1
  0
POLYLINE
  5
213
  8
L1
 66
     1
 10
0.0
 20
0.0
 30
0.0
  0
VERTEX
  5
1AB5
  8
L1
 10
508.43043555611803
 20
129.2386954333941
 30
0.0
  0
VERTEX
  5
1AB6
  8
L1
 10
508.26331752680602
 20
128.39749131574271
 30
0.0
  0
VERTEX
  5
1AB7
  8
L1
 10
507.78731813047978
 20
127.68482788257231
 30
0.0
  0
VERTEX
  5
1AB8
  8
L1
 10
507.07465469730943
 20
127.20882848624601
 30
0.0
  0
VERTEX
  5
1AB9
  8
L1
 10
506.23345057965793
 20
127.041710456934
 30
0.0
  0
SEQEND
  5
1ABA
  8
L1
  0
POLYLINE
  5
214
  8
L1
 66
     1
 10
0.0
 20
0.0
 30
0.0
  0
VERTEX
  5
1ABB
  8
L1
 10
505.71110724240327
 20
136.27740737758489
 30
0.0
  0
VERTEX
  5
1ABC
  8
L1
 10
505.7109937483375
 20
135.63296939801
 30
0.0
  0
VERTEX
  5
1ABD
  8
L1
 10
505.71090544899249
 20
135.22236957228861
 30
0.0
  0
VERTEX
  5
1ABE
  8
L1
 10
505.71086392682707
 20
134.89067058504671
 30
0.0
  0
VERTEX
  5
1ABF
  8
L1
 10
505.71087658780579
 20
134.3160214861351
 30
0.0
  0
VERTEX
  5
1AC0
  8
L1
 10
505.71094247881541
 20
133.6131148215419
 30
0.0
  0
VERTEX
  5
1AC1
  8
L1
 10
505.71096749418831
 20
133.1210938771984
 30
0.0
  0
VERTEX
  5
1AC2
  8
L1
 10
505.71097234739722
 20
132.4860433115345
 30
0.0
  0
VERTEX
  5
1AC3
  8
L1
 10
505.71095766250721
 20
131.75844742005381
 30
0.0
  0
SEQEND
  5
1AC4
  8
L1
  0
POLYLINE
  5
215
  8
L1
 66
     1
 10
0.0
 20
0.0
 30
0.0
  0
VERTEX
  5
1AC5
  8
L1
 10
502.36583395636802
 20
131.86379233442901
 30
0.0
  0
VERTEX
  5
1AC6
  8
L1
 10
502.73329912511872
 20
131.89768049660199
 30
0.0
  0
VERTEX
  5
1AC7
  8
L1
 10
503.1398236491525
 20
132.04172316573451
 30
0.0
  0
VERTEX
  5
1AC8
  8
L1
 10
503.47490182263363
 20
132.32246790398199
 30
0.0
  0
VERTEX
  5
1AC9
  8
L1
 10
503.68267874947531
 20
132.72879038355339
 30
0.0
  0
VERTEX
  5
1ACA
  8
L1
 10
503.74468360050338
 20
133.18716604654989
 30
0.0
  0
SEQEND
  5
1ACB
  8
L1
  0
POLYLINE
  5
216
  8
L1
 66
     1
 10
0.0
 20
0.0
 30
0.0
  0
VERTEX
  5
1ACC
  8
L1
 10
505.71095766250721
 20
131.75844742005381
 30
0.0
  0
VERTEX
  5
1ACD
  8
L1
 10
505.71090041296418
 20
131.74370970806891
 30
0.0
  0
VERTEX
  5
1ACE
  8
L1
 10
505.71019585315531
 20
131.70459006207329
 30
0.0
  0
VERTEX
  5
1ACF
  8
L1
 10
505.70645001111899
 20
131.62755826088119
 30
0.0
  0
VERTEX
  5
1AD0
  8
L1
 10
505.6877703735704
 20
131.4628192377229
 30
0.0
  0
VERTEX
  5
1AD1
  8
L1
 10
505.67615545030532
 20
131.3970740116458
 30
0.0
  0
SEQEND
  5
1AD2
  8
L1
  0
POLYLINE
  5
217
  8
L1
 66
     1
 10
0.0
 20
0.0
 30
0.0
  0
VERTEX
  5
1AD3
  8
L1
 10
505.67615545030532
 20
131.3970740116458
 30
0.0
  0
VERTEX
  5
1AD4
  8
L1
 10
505.64951865159969
 20
131.27940165035301
 30
0.0
  0
VERTEX
  5
1AD5
  8
L1
 10
505.36154576389771
 20
130.6417369434391
 30
0.0
  0
VERTEX
  5
1AD6
  8
L1
 10
504.87906928058521
 20
130.13696002945451
 30
0.0
  0
VERTEX
  5
1AD7
  8
L1
 10
504.47910372444801
 20
129.90383121249559
 30
0.0
  0
SEQEND
  5
1AD8
  8
L1
  0
POLYLINE
  5
218
  8
L1
 66
     1
 10
0.0
 20
0.0
 30
0.0
  0
VERTEX
  5
1AD9
  8
L1
 10
503.72828931947902
 20
129.7465976240639
 30
0.0
  0
VERTEX
  5
1ADA
  8
L1
 10
504.11301712180858
 20
129.78627959502791
 30
0.0
  0
VERTEX
  5
1ADB
  8
L1
 10
504.47910372444801
 20
129.90383121249559
 30
0.0
  0
SEQEND
  5
1ADC
  8
L1
  0
ARC
  5
219
  8
L1
 10
516.04064264277497
 20
133.53745644134801
 30
0.0
 40
4.8551339946733894
 50
87.925303635782214
 51
182.0746963642184
  0
POLYLINE
  5
21A
  8
L1
 66
     1
 10
0.0
 20
0.0
 30
0.0
  0
VERTEX
  5
1ADD
  8
L1
 10
515.82029411330166
 20
141.1476635280051
 30
0.0
  0
VERTEX
  5
1ADE
  8
L1
 10
515.44565716634634
 20
141.13818577970531
 30
0.0
  0
VERTEX
  5
1ADF
  8
L1
 10
515.07203047693531
 20
141.10977677929449
 30
0.0
  0
VERTEX
  5
1AE0
  8
L1
 10
514.70036979823396
 20
141.06250919821929
 30
0.0
  0
VERTEX
  5
1AE1
  8
L1
 10
514.33162585426726
 20
140.99650394898811
 30
0.0
  0
VERTEX
  5
1AE2
  8
L1
 10
513.96674190792771
 20
140.91192987587169
 30
0.0
  0
VERTEX
  5
1AE3
  8
L1
 10
513.60665134806686
 20
140.80900332299211
 30
0.0
  0
VERTEX
  5
1AE4
  8
L1
 10
513.25227530184736
 20
140.68798758090489
 30
0.0
  0
VERTEX
  5
1AE5
  8
L1
 10
512.90452027846027
 20
140.5491922130912
 30
0.0
  0
VERTEX
  5
1AE6
  8
L1
 10
512.56427585023482
 20
140.3929722640803
 30
0.0
  0
VERTEX
  5
1AE7
  8
L1
 10
512.23241237707384
 20
140.2197273512308
 30
0.0
  0
VERTEX
  5
1AE8
  8
L1
 10
511.90977878003667
 20
140.02990064249229
 30
0.0
  0
VERTEX
  5
1AE9
  8
L1
 10
511.59720036976182
 20
139.82397772276241
 30
0.0
  0
VERTEX
  5
1AEA
  8
L1
 10
511.29547673528668
 20
139.60248535173969
 30
0.0
  0
VERTEX
  5
1AEB
  8
L1
 10
511.00537969866519
 20
139.36599011644989
 30
0.0
  0
VERTEX
  5
1AEC
  8
L1
 10
510.72765134061228
 20
139.11509698189181
 30
0.0
  0
VERTEX
  5
1AED
  8
L1
 10
510.4630021022312
 20
138.8504477435107
 30
0.0
  0
VERTEX
  5
1AEE
  8
L1
 10
510.21210896767309
 20
138.57271938545779
 30
0.0
  0
VERTEX
  5
1AEF
  8
L1
 10
509.97561373238329
 20
138.28262234883621
 30
0.0
  0
VERTEX
  5
1AF0
  8
L1
 10
509.7541213613606
 20
137.98089871436119
 30
0.0
  0
VERTEX
  5
1AF1
  8
L1
 10
509.54819844163069
 20
137.66832030408631
 30
0.0
  0
VERTEX
  5
1AF2
  8
L1
 10
509.35837173289218
 20
137.34568670704911
 30
0.0
  0
VERTEX
  5
1AF3
  8
L1
 10
509.18512682004268
 20
137.01382323388819
 30
0.0
  0
VERTEX
  5
1AF4
  8
L1
 10
509.02890687103178
 20
136.6735788056626
 30
0.0
  0
VERTEX
  5
1AF5
  8
L1
 10
508.89011150321812
 20
136.32582378227559
 30
0.0
  0
VERTEX
  5
1AF6
  8
L1
 10
508.76909576113093
 20
135.97144773605621
 30
0.0
  0
VERTEX
  5
1AF7
  8
L1
 10
508.66616920825129
 20
135.6113571761953
 30
0.0
  0
VERTEX
  5
1AF8
  8
L1
 10
508.58159513513488
 20
135.2464732298557
 30
0.0
  0
VERTEX
  5
1AF9
  8
L1
 10
508.51558988590369
 20
134.8777292858891
 30
0.0
  0
VERTEX
  5
1AFA
  8
L1
 10
508.46832230482852
 20
134.5060686071877
 30
0.0
  0
VERTEX
  5
1AFB
  8
L1
 10
508.4399133044177
 20
134.13244191777659
 30
0.0
  0
VERTEX
  5
1AFC
  8
L1
 10
508.43043555611791
 20
133.75780497082121
 30
0.0
  0
SEQEND
  5
1AFD
  8
L1
  0
LINE
  5
21B
  8
L1
 10
520.89259399685523
 20
133.71322379858839
 30
0.0
 11
516.21641000001534
 21
138.38940779542821
 31
0.0
  0
CIRCLE
  5
21C
  8
L1
 10
516.04064264277497
 20
133.53745644134801
 30
0.0
 40
5.7974047862592784
  0
CIRCLE
  5
21D
  8
L1
 10
516.04064264277497
 20
133.53745644134801
 30
0.0
 40
6.097393363178492
  0
LINE
  5
21E
  8
L1
 10
511.18869128869471
 20
133.3616890841075
 30
0.0
 11
515.86487528553471
 21
128.68550508726759
 31
0.0
  0
LINE
  5
21F
  8
L1
 10
508.43043555611791
 20
133.75780497082121
 30
0.0
 11
508.43043555611791
 21
129.2386954333941
 31
0.0
  0
POLYLINE
  5
220
  8
L1
 66
     1
 10
0.0
 20
0.0
 30
0.0
  0
VERTEX
  5
1AFE
  8
L1
 10
521.19217182206285
 20
130.91074967905291
 30
0.0
  0
VERTEX
  5
1AFF
  8
L1
 10
521.17374228452707
 20
131.02424226841291
 30
0.0
  0
SEQEND
  5
1B00
  8
L1
  0
LINE
  5
221
  8
L1
 10
520.9499448324666
 20
131.25170990694309
 30
0.0
 11
520.52502223931708
 21
131.67663250009241
 31
0.0
  0
POLYLINE
  5
222
  8
L1
 66
     1
 10
0.0
 20
0.0
 30
0.0
  0
VERTEX
  5
1B01
  8
L1
 10
521.17374228452707
 20
131.02424226841291
 30
0.0
  0
VERTEX
  5
1B02
  8
L1
 10
521.15784930478299
 20
131.0414904911903
 30
0.0
  0
VERTEX
  5
1B03
  8
L1
 10
521.11067082178965
 20
131.0898690361762
 30
0.0
  0
VERTEX
  5
1B04
  8
L1
 10
521.03798477839393
 20
131.16337539422241
 30
0.0
  0
VERTEX
  5
1B05
  8
L1
 10
520.94994483246637
 20
131.25170990694309
 30
0.0
  0
SEQEND
  5
1B06
  8
L1
  0
ARC
  5
223
  8
L1
 10
516.04064264277497
 20
133.53745644134801
 30
0.0
 40
4.8551339946733894
 50
337.4636600530614
 51
2.0746963642171399
  0
POLYLINE
  5
224
  8
L1
 66
     1
 10
0.0
 20
0.0
 30
0.0
  0
VERTEX
  5
1B07
  8
L1
 10
518.55385681571022
 20
128.4043567995958
 30
0.0
  0
VERTEX
  5
1B08
  8
L1
 10
518.66734940507013
 20
128.38592726206031
 30
0.0
  0
SEQEND
  5
1B09
  8
L1
  0
POLYLINE
  5
225
  8
L1
 66
     1
 10
0.0
 20
0.0
 30
0.0
  0
VERTEX
  5
1B0A
  8
L1
 10
518.32638917717986
 20
128.62815425165661
 30
0.0
  0
VERTEX
  5
1B0B
  8
L1
 10
518.41472368990071
 20
128.54011430572919
 30
0.0
  0
VERTEX
  5
1B0C
  8
L1
 10
518.48823004794679
 20
128.46742826233341
 30
0.0
  0
VERTEX
  5
1B0D
  8
L1
 10
518.53660859293291
 20
128.42024977934011
 30
0.0
  0
VERTEX
  5
1B0E
  8
L1
 10
518.55385681571011
 20
128.4043567995958
 30
0.0
  0
SEQEND
  5
1B0F
  8
L1
  0
LINE
  5
226
  8
L1
 10
517.90146658403057
 20
129.05307684480599
 30
0.0
 11
518.32638917717986
 21
128.6281542516567
 31
0.0
  0
ARC
  5
227
  8
L1
 10
516.04064264277497
 20
133.53745644134801
 30
0.0
 40
4.8551339946733894
 50
267.92530363578481
 51
292.53633994693888
  0
POLYLINE
  5
228
  8
L1
 66
     1
 10
0.0
 20
0.0
 30
0.0
  0
VERTEX
  5
1B10
  8
L1
 10
519.46132533581294
 20
126.8212962836199
 30
0.0
  0
VERTEX
  5
1B11
  8
L1
 10
519.73370456814882
 20
126.832543619422
 30
0.0
  0
VERTEX
  5
1B12
  8
L1
 10
520.00416803960468
 20
126.86620906367951
 30
0.0
  0
VERTEX
  5
1B13
  8
L1
 10
520.2708746443999
 20
126.92206344812909
 30
0.0
  0
VERTEX
  5
1B14
  8
L1
 10
520.53200885059016
 20
126.9997265593928
 30
0.0
  0
VERTEX
  5
1B15
  8
L1
 10
520.78579305880476
 20
127.0986697271759
 30
0.0
  0
VERTEX
  5
1B16
  8
L1
 10
521.03049970276459
 20
127.218219423045
 30
0.0
  0
VERTEX
  5
1B17
  8
L1
 10
521.26446300921589
 20
127.35756184528751
 30
0.0
  0
VERTEX
  5
1B18
  8
L1
 10
521.48609033722323
 20
127.5157484586436
 30
0.0
  0
VERTEX
  5
1B19
  8
L1
 10
521.6938730196357
 20
127.69170245119921
 30
0.0
  0
VERTEX
  5
1B1A
  8
L1
 10
521.88639663292383
 20
127.88422606448729
 30
0.0
  0
VERTEX
  5
1B1B
  8
L1
 10
522.06235062547944
 20
128.09200874689969
 30
0.0
  0
VERTEX
  5
1B1C
  8
L1
 10
522.2205372388355
 20
128.31363607490701
 30
0.0
  0
VERTEX
  5
1B1D
  8
L1
 10
522.35987966107791
 20
128.5475993813582
 30
0.0
  0
VERTEX
  5
1B1E
  8
L1
 10
522.47942935694709
 20
128.79230602531811
 30
0.0
  0
VERTEX
  5
1B1F
  8
L1
 10
522.57837252473018
 20
129.04609023353271
 30
0.0
  0
VERTEX
  5
1B20
  8
L1
 10
522.65603563599382
 20
129.30722443972309
 30
0.0
  0
VERTEX
  5
1B21
  8
L1
 10
522.71189002044343
 20
129.5739310445181
 30
0.0
  0
VERTEX
  5
1B22
  8
L1
 10
522.74555546470106
 20
129.84439451597419
 30
0.0
  0
VERTEX
  5
1B23
  8
L1
 10
522.75680280050301
 20
130.11677374831001
 30
0.0
  0
SEQEND
  5
1B24
  8
L1
  0
POLYLINE
  5
229
  8
L1
 66
     1
 10
0.0
 20
0.0
 30
0.0
  0
VERTEX
  5
1B25
  8
L1
 10
517.81966264183211
 20
143.86713044385289
 30
0.0
  0
VERTEX
  5
1B26
  8
L1
 10
516.70328703692974
 20
143.86712119414199
 30
0.0
  0
VERTEX
  5
1B27
  8
L1
 10
516.08861702011143
 20
143.8671397118548
 30
0.0
  0
VERTEX
  5
1B28
  8
L1
 10
515.63307367078914
 20
143.86716870385669
 30
0.0
  0
VERTEX
  5
1B29
  8
L1
 10
514.93414887215624
 20
143.86721047990039
 30
0.0
  0
VERTEX
  5
1B2A
  8
L1
 10
514.34329009331759
 20
143.8671722598425
 30
0.0
  0
VERTEX
  5
1B2B
  8
L1
 10
513.92832429255554
 20
143.86708129309781
 30
0.0
  0
VERTEX
  5
1B2C
  8
L1
 10
513.30071243512953
 20
143.86697111312819
 30
0.0
  0
SEQEND
  5
1B2D
  8
L1
  0
POLYLINE
  5
22A
  8
L1
 66
     1
 10
0.0
 20
0.0
 30
0.0
  0
VERTEX
  5
1B2E
  8
L1
 10
522.53638862718913
 20
143.34464850446511
 30
0.0
  0
VERTEX
  5
1B2F
  8
L1
 10
522.36927059787695
 20
142.5034443868137
 30
0.0
  0
VERTEX
  5
1B30
  8
L1
 10
521.89327120155065
 20
141.79078095364329
 30
0.0
  0
VERTEX
  5
1B31
  8
L1
 10
521.18060776838036
 20
141.3147815573171
 30
0.0
  0
VERTEX
  5
1B32
  8
L1
 10
520.33940365072897
 20
141.1476635280051
 30
0.0
  0
SEQEND
  5
1B33
  8
L1
  0
POLYLINE
  5
22B
  8
L1
 66
     1
 10
0.0
 20
0.0
 30
0.0
  0
VERTEX
  5
1B34
  8
L1
 10
518.18111088767284
 20
143.90194735866621
 30
0.0
  0
VERTEX
  5
1B35
  8
L1
 10
518.0967783747119
 20
143.8874812840686
 30
0.0
  0
VERTEX
  5
1B36
  8
L1
 10
517.98170452128363
 20
143.87404751022771
 30
0.0
  0
VERTEX
  5
1B37
  8
L1
 10
517.88487183448296
 20
143.86824720380559
 30
0.0
  0
VERTEX
  5
1B38
  8
L1
 10
517.84158385550609
 20
143.8672568194726
 30
0.0
  0
VERTEX
  5
1B39
  8
L1
 10
517.81966264183211
 20
143.86713044385289
 30
0.0
  0
SEQEND
  5
1B3A
  8
L1
  0
LINE
  5
22C
  8
L1
 10
520.33940365072897
 20
141.1476635280051
 30
0.0
 11
515.82029411330166
 21
141.1476635280051
 31
0.0
  0
ARC
  5
22D
  8
L1
 10
502.30294677368403
 20
147.27515231043881
 30
0.0
 40
2.0
 50
270.0
 51
0.0
  0
POLYLINE
  5
22E
  8
L1
 66
     1
 10
0.0
 20
0.0
 30
0.0
  0
VERTEX
  5
1B3B
  8
L1
 10
519.67433696947182
 20
145.09915208517191
 30
0.0
  0
VERTEX
  5
1B3C
  8
L1
 10
519.79183709497295
 20
145.46516604277269
 30
0.0
  0
VERTEX
  5
1B3D
  8
L1
 10
519.83150146005914
 20
145.84980976464411
 30
0.0
  0
SEQEND
  5
1B3E
  8
L1
  0
POLYLINE
  5
22F
  8
L1
 66
     1
 10
0.0
 20
0.0
 30
0.0
  0
VERTEX
  5
1B3F
  8
L1
 10
516.39079871488298
 20
145.83345881049411
 30
0.0
  0
VERTEX
  5
1B40
  8
L1
 10
516.66931953103301
 20
145.85490120614989
 30
0.0
  0
VERTEX
  5
1B41
  8
L1
 10
517.06242890822432
 20
145.97950397746911
 30
0.0
  0
VERTEX
  5
1B42
  8
L1
 10
517.39388831823078
 20
146.2349519177626
 30
0.0
  0
VERTEX
  5
1B43
  8
L1
 10
517.62420540064011
 20
146.6359860747821
 30
0.0
  0
VERTEX
  5
1B44
  8
L1
 10
517.71430674969395
 20
147.2123041095947
 30
0.0
  0
SEQEND
  5
1B45
  8
L1
  0
ARC
  5
230
  8
L1
 10
502.30294677368403
 20
233.29976057225721
 30
0.0
 40
2.0
 50
0.0
 51
90.0
  0
POLYLINE
  5
231
  8
L1
 66
     1
 10
0.0
 20
0.0
 30
0.0
  0
VERTEX
  5
1B46
  8
L1
 10
517.81966264183211
 20
236.7077824388432
 30
0.0
  0
VERTEX
  5
1B47
  8
L1
 10
516.70328703692974
 20
236.70779168855401
 30
0.0
  0
VERTEX
  5
1B48
  8
L1
 10
516.08861702011143
 20
236.70777317084119
 30
0.0
  0
VERTEX
  5
1B49
  8
L1
 10
515.63307367078914
 20
236.70774417883931
 30
0.0
  0
VERTEX
  5
1B4A
  8
L1
 10
514.93414887215624
 20
236.7077024027956
 30
0.0
  0
VERTEX
  5
1B4B
  8
L1
 10
514.34329009331759
 20
236.70774062285361
 30
0.0
  0
VERTEX
  5
1B4C
  8
L1
 10
513.92832429255554
 20
236.7078315895983
 30
0.0
  0
VERTEX
  5
1B4D
  8
L1
 10
513.30071243512953
 20
236.70794176956781
 30
0.0
  0
SEQEND
  5
1B4E
  8
L1
  0
POLYLINE
  5
232
  8
L1
 66
     1
 10
0.0
 20
0.0
 30
0.0
  0
VERTEX
  5
1B4F
  8
L1
 10
518.18111088767284
 20
236.67296552402991
 30
0.0
  0
VERTEX
  5
1B50
  8
L1
 10
518.0967783747119
 20
236.68743159862751
 30
0.0
  0
VERTEX
  5
1B51
  8
L1
 10
517.98170452128363
 20
236.7008653724684
 30
0.0
  0
VERTEX
  5
1B52
  8
L1
 10
517.88487183448296
 20
236.70666567889049
 30
0.0
  0
VERTEX
  5
1B53
  8
L1
 10
517.84158385550609
 20
236.70765606322351
 30
0.0
  0
VERTEX
  5
1B54
  8
L1
 10
517.81966264183211
 20
236.7077824388432
 30
0.0
  0
SEQEND
  5
1B55
  8
L1
  0
POLYLINE
  5
233
  8
L1
 66
     1
 10
0.0
 20
0.0
 30
0.0
  0
VERTEX
  5
1B56
  8
L1
 10
519.67433696947182
 20
235.47576079752409
 30
0.0
  0
VERTEX
  5
1B57
  8
L1
 10
519.79183709497295
 20
235.1097468399233
 30
0.0
  0
VERTEX
  5
1B58
  8
L1
 10
519.83150146005914
 20
234.72510311805189
 30
0.0
  0
SEQEND
  5
1B59
  8
L1
  0
POLYLINE
  5
234
  8
L1
 66
     1
 10
0.0
 20
0.0
 30
0.0
  0
VERTEX
  5
1B5A
  8
L1
 10
519.67433696947182
 20
235.47576079752409
 30
0.0
  0
VERTEX
  5
1B5B
  8
L1
 10
519.60832509958254
 20
235.61173291478241
 30
0.0
  0
VERTEX
  5
1B5C
  8
L1
 10
519.18589923899435
 20
236.16024397193229
 30
0.0
  0
VERTEX
  5
1B5D
  8
L1
 10
518.90054548984995
 20
236.38205873602149
 30
0.0
  0
VERTEX
  5
1B5E
  8
L1
 10
518.58055948950482
 20
236.55119046738059
 30
0.0
  0
VERTEX
  5
1B5F
  8
L1
 10
518.18111088767284
 20
236.67296552402991
 30
0.0
  0
SEQEND
  5
1B60
  8
L1
  0
POLYLINE
  5
235
  8
L1
 66
     1
 10
0.0
 20
0.0
 30
0.0
  0
VERTEX
  5
1B61
  8
L1
 10
516.39079871488298
 20
234.741454072202
 30
0.0
  0
VERTEX
  5
1B62
  8
L1
 10
516.66931953103301
 20
234.72001167654619
 30
0.0
  0
VERTEX
  5
1B63
  8
L1
 10
517.06242890822432
 20
234.59540890522689
 30
0.0
  0
VERTEX
  5
1B64
  8
L1
 10
517.39388831823078
 20
234.33996096493351
 30
0.0
  0
VERTEX
  5
1B65
  8
L1
 10
517.62420540064011
 20
233.93892680791399
 30
0.0
  0
VERTEX
  5
1B66
  8
L1
 10
517.71430674969395
 20
233.3626087731013
 30
0.0
  0
SEQEND
  5
1B67
  8
L1
  0
POLYLINE
  5
236
  8
L1
 66
     1
 10
0.0
 20
0.0
 30
0.0
  0
VERTEX
  5
1B68
  8
L1
 10
522.53638862718913
 20
237.230264378231
 30
0.0
  0
VERTEX
  5
1B69
  8
L1
 10
522.36927059787695
 20
238.07146849588241
 30
0.0
  0
VERTEX
  5
1B6A
  8
L1
 10
521.89327120155065
 20
238.78413192905279
 30
0.0
  0
VERTEX
  5
1B6B
  8
L1
 10
521.18060776838036
 20
239.26013132537901
 30
0.0
  0
VERTEX
  5
1B6C
  8
L1
 10
520.33940365072897
 20
239.42724935469101
 30
0.0
  0
SEQEND
  5
1B6D
  8
L1
  0
LINE
  5
237
  8
L1
 10
520.33940365072897
 20
239.42724935469101
 30
0.0
 11
515.82029411330166
 21
239.42724935469101
 31
0.0
  0
POLYLINE
  5
24D
  8
L1
 66
     1
 10
0.0
 20
0.0
 30
0.0
  0
VERTEX
  5
1B6E
  8
L1
 10
524.30273108054905
 20
251.844456441348
 30
0.0
  0
VERTEX
  5
1B6F
  8
L1
 10
524.23235703288924
 20
252.50624404379329
 30
0.0
  0
VERTEX
  5
1B70
  8
L1
 10
524.03022764477726
 20
253.16122882758901
 30
0.0
  0
VERTEX
  5
1B71
  8
L1
 10
523.70408339296102
 20
253.76407567224399
 30
0.0
  0
VERTEX
  5
1B72
  8
L1
 10
523.28057176184871
 20
254.27738556042161
 30
0.0
  0
VERTEX
  5
1B73
  8
L1
 10
522.76726187367103
 20
254.7008971915341
 30
0.0
  0
VERTEX
  5
1B74
  8
L1
 10
522.16441502901603
 20
255.0270414433505
 30
0.0
  0
VERTEX
  5
1B75
  8
L1
 10
521.5094302452203
 20
255.2291708314624
 30
0.0
  0
VERTEX
  5
1B76
  8
L1
 10
520.84764264277487
 20
255.2995448791221
 30
0.0
  0
SEQEND
  5
1B77
  8
L1
  0
POLYLINE
  5
24E
  8
L1
 66
     1
 10
0.0
 20
0.0
 30
0.0
  0
VERTEX
  5
1B78
  8
L1
 10
508.43043555611803
 20
251.3362174493019
 30
0.0
  0
VERTEX
  5
1B79
  8
L1
 10
508.26331752680602
 20
252.1774215669534
 30
0.0
  0
VERTEX
  5
1B7A
  8
L1
 10
507.78731813047978
 20
252.8900850001238
 30
0.0
  0
VERTEX
  5
1B7B
  8
L1
 10
507.07465469730943
 20
253.36608439644999
 30
0.0
  0
VERTEX
  5
1B7C
  8
L1
 10
506.23345057965793
 20
253.533202425762
 30
0.0
  0
SEQEND
  5
1B7D
  8
L1
  0
POLYLINE
  5
24F
  8
L1
 66
     1
 10
0.0
 20
0.0
 30
0.0
  0
VERTEX
  5
1B7E
  8
L1
 10
505.67615545030532
 20
249.1778388710502
 30
0.0
  0
VERTEX
  5
1B7F
  8
L1
 10
505.64951865159969
 20
249.2955112323431
 30
0.0
  0
VERTEX
  5
1B80
  8
L1
 10
505.36154576389771
 20
249.9331759392569
 30
0.0
  0
VERTEX
  5
1B81
  8
L1
 10
504.87906928058521
 20
250.4379528532416
 30
0.0
  0
VERTEX
  5
1B82
  8
L1
 10
504.47910372444801
 20
250.67108167020049
 30
0.0
  0
SEQEND
  5
1B83
  8
L1
  0
POLYLINE
  5
250
  8
L1
 66
     1
 10
0.0
 20
0.0
 30
0.0
  0
VERTEX
  5
1B84
  8
L1
 10
505.71110724240327
 20
244.2975055051111
 30
0.0
  0
VERTEX
  5
1B85
  8
L1
 10
505.7109937483375
 20
244.94194348468599
 30
0.0
  0
VERTEX
  5
1B86
  8
L1
 10
505.71090544899249
 20
245.3525433104075
 30
0.0
  0
VERTEX
  5
1B87
  8
L1
 10
505.71086392682707
 20
245.6842422976494
 30
0.0
  0
VERTEX
  5
1B88
  8
L1
 10
505.71087658780579
 20
246.25889139656101
 30
0.0
  0
VERTEX
  5
1B89
  8
L1
 10
505.71094247881541
 20
246.96179806115421
 30
0.0
  0
VERTEX
  5
1B8A
  8
L1
 10
505.71096749418831
 20
247.45381900549759
 30
0.0
  0
VERTEX
  5
1B8B
  8
L1
 10
505.71097234739722
 20
248.0888695711615
 30
0.0
  0
VERTEX
  5
1B8C
  8
L1
 10
505.71095766250721
 20
248.8164654626423
 30
0.0
  0
SEQEND
  5
1B8D
  8
L1
  0
POLYLINE
  5
251
  8
L1
 66
     1
 10
0.0
 20
0.0
 30
0.0
  0
VERTEX
  5
1B8E
  8
L1
 10
505.71095766250721
 20
248.8164654626423
 30
0.0
  0
VERTEX
  5
1B8F
  8
L1
 10
505.71090041296418
 20
248.83120317462721
 30
0.0
  0
VERTEX
  5
1B90
  8
L1
 10
505.71019585315531
 20
248.87032282062279
 30
0.0
  0
VERTEX
  5
1B91
  8
L1
 10
505.70645001111899
 20
248.94735462181481
 30
0.0
  0
VERTEX
  5
1B92
  8
L1
 10
505.6877703735704
 20
249.1120936449731
 30
0.0
  0
VERTEX
  5
1B93
  8
L1
 10
505.67615545030532
 20
249.1778388710502
 30
0.0
  0
SEQEND
  5
1B94
  8
L1
  0
POLYLINE
  5
252
  8
L1
 66
     1
 10
0.0
 20
0.0
 30
0.0
  0
VERTEX
  5
1B95
  8
L1
 10
502.36583395636802
 20
248.71112054826699
 30
0.0
  0
VERTEX
  5
1B96
  8
L1
 10
502.73329912511872
 20
248.67723238609409
 30
0.0
  0
VERTEX
  5
1B97
  8
L1
 10
503.1398236491525
 20
248.53318971696149
 30
0.0
  0
VERTEX
  5
1B98
  8
L1
 10
503.47490182263363
 20
248.2524449787141
 30
0.0
  0
VERTEX
  5
1B99
  8
L1
 10
503.68267874947531
 20
247.84612249914261
 30
0.0
  0
VERTEX
  5
1B9A
  8
L1
 10
503.74468360050338
 20
247.38774683614611
 30
0.0
  0
SEQEND
  5
1B9B
  8
L1
  0
POLYLINE
  5
253
  8
L1
 66
     1
 10
0.0
 20
0.0
 30
0.0
  0
VERTEX
  5
1B9C
  8
L1
 10
503.72828931947902
 20
250.82831525863219
 30
0.0
  0
VERTEX
  5
1B9D
  8
L1
 10
504.11301712180858
 20
250.7886332876682
 30
0.0
  0
VERTEX
  5
1B9E
  8
L1
 10
504.47910372444801
 20
250.67108167020049
 30
0.0
  0
SEQEND
  5
1B9F
  8
L1
  0
LINE
  5
254
  8
L1
 10
508.43043555611791
 20
246.8171079118749
 30
0.0
 11
508.43043555611791
 21
251.3362174493019
 31
0.0
  0
CIRCLE
  5
255
  8
L1
 10
516.04064264277497
 20
247.03745644134801
 30
0.0
 40
6.097393363178492
  0
CIRCLE
  5
256
  8
L1
 10
516.04064264277497
 20
247.03745644134801
 30
0.0
 40
5.7974047862592784
  0
LINE
  5
257
  8
L1
 10
511.18869128869471
 20
247.2132237985885
 30
0.0
 11
515.86487528553471
 21
251.8894077954285
 31
0.0
  0
ARC
  5
258
  8
L1
 10
516.04064264277497
 20
247.03745644134801
 30
0.0
 40
4.8551339946733894
 50
177.92530363578149
 51
272.0746963642178
  0
LINE
  5
259
  8
L1
 10
520.89259399685523
 20
246.86168908410761
 30
0.0
 11
516.21641000001534
 21
242.18550508726781
 31
0.0
  0
ARC
  5
25A
  8
L1
 10
516.04064264277497
 20
247.03745644134801
 30
0.0
 40
4.8551339946733894
 50
357.92530363578283
 51
22.536339946938931
  0
POLYLINE
  5
25B
  8
L1
 66
     1
 10
0.0
 20
0.0
 30
0.0
  0
VERTEX
  5
1BA0
  8
L1
 10
521.17374228452707
 20
249.55067061428309
 30
0.0
  0
VERTEX
  5
1BA1
  8
L1
 10
521.15784930478299
 20
249.53342239150581
 30
0.0
  0
VERTEX
  5
1BA2
  8
L1
 10
521.11067082178965
 20
249.48504384651989
 30
0.0
  0
VERTEX
  5
1BA3
  8
L1
 10
521.03798477839393
 20
249.41153748847361
 30
0.0
  0
VERTEX
  5
1BA4
  8
L1
 10
520.94994483246637
 20
249.32320297575299
 30
0.0
  0
SEQEND
  5
1BA5
  8
L1
  0
LINE
  5
25C
  8
L1
 10
520.9499448324666
 20
249.32320297575299
 30
0.0
 11
520.52502223931708
 21
248.89828038260359
 31
0.0
  0
POLYLINE
  5
25D
  8
L1
 66
     1
 10
0.0
 20
0.0
 30
0.0
  0
VERTEX
  5
1BA6
  8
L1
 10
521.19217182206285
 20
249.66416320364311
 30
0.0
  0
VERTEX
  5
1BA7
  8
L1
 10
521.17374228452707
 20
249.55067061428321
 30
0.0
  0
SEQEND
  5
1BA8
  8
L1
  0
POLYLINE
  5
25E
  8
L1
 66
     1
 10
0.0
 20
0.0
 30
0.0
  0
VERTEX
  5
1BA9
  8
L1
 10
519.46132533581294
 20
253.75361659907611
 30
0.0
  0
VERTEX
  5
1BAA
  8
L1
 10
519.73370456814882
 20
253.7423692632741
 30
0.0
  0
VERTEX
  5
1BAB
  8
L1
 10
520.00416803960468
 20
253.70870381901659
 30
0.0
  0
VERTEX
  5
1BAC
  8
L1
 10
520.2708746443999
 20
253.65284943456689
 30
0.0
  0
VERTEX
  5
1BAD
  8
L1
 10
520.53200885059016
 20
253.5751863233032
 30
0.0
  0
VERTEX
  5
1BAE
  8
L1
 10
520.78579305880476
 20
253.47624315552011
 30
0.0
  0
VERTEX
  5
1BAF
  8
L1
 10
521.03049970276459
 20
253.35669345965101
 30
0.0
  0
VERTEX
  5
1BB0
  8
L1
 10
521.26446300921589
 20
253.2173510374086
 30
0.0
  0
VERTEX
  5
1BB1
  8
L1
 10
521.48609033722323
 20
253.05916442405251
 30
0.0
  0
VERTEX
  5
1BB2
  8
L1
 10
521.6938730196357
 20
252.88321043149691
 30
0.0
  0
VERTEX
  5
1BB3
  8
L1
 10
521.88639663292383
 20
252.69068681820869
 30
0.0
  0
VERTEX
  5
1BB4
  8
L1
 10
522.06235062547944
 20
252.48290413579639
 30
0.0
  0
VERTEX
  5
1BB5
  8
L1
 10
522.2205372388355
 20
252.2612768077891
 30
0.0
  0
VERTEX
  5
1BB6
  8
L1
 10
522.35987966107791
 20
252.02731350133789
 30
0.0
  0
VERTEX
  5
1BB7
  8
L1
 10
522.47942935694709
 20
251.78260685737791
 30
0.0
  0
VERTEX
  5
1BB8
  8
L1
 10
522.57837252473018
 20
251.52882264916329
 30
0.0
  0
VERTEX
  5
1BB9
  8
L1
 10
522.65603563599382
 20
251.267688442973
 30
0.0
  0
VERTEX
  5
1BBA
  8
L1
 10
522.71189002044343
 20
251.00098183817789
 30
0.0
  0
VERTEX
  5
1BBB
  8
L1
 10
522.74555546470106
 20
250.73051836672181
 30
0.0
  0
VERTEX
  5
1BBC
  8
L1
 10
522.75680280050301
 20
250.4581391343861
 30
0.0
  0
SEQEND
  5
1BBD
  8
L1
  0
ARC
  5
25F
  8
L1
 10
516.04064264277497
 20
247.03745644134801
 30
0.0
 40
4.8551339946733894
 50
67.463660053061034
 51
92.0746963642151
  0
LINE
  5
260
  8
L1
 10
517.90146658403057
 20
251.52183603789001
 30
0.0
 11
518.32638917717986
 21
251.94675863103939
 31
0.0
  0
POLYLINE
  5
261
  8
L1
 66
     1
 10
0.0
 20
0.0
 30
0.0
  0
VERTEX
  5
1BBE
  8
L1
 10
518.32638917717986
 20
251.9467586310395
 30
0.0
  0
VERTEX
  5
1BBF
  8
L1
 10
518.41472368990071
 20
252.03479857696689
 30
0.0
  0
VERTEX
  5
1BC0
  8
L1
 10
518.48823004794679
 20
252.1074846203627
 30
0.0
  0
VERTEX
  5
1BC1
  8
L1
 10
518.53660859293291
 20
252.15466310335589
 30
0.0
  0
VERTEX
  5
1BC2
  8
L1
 10
518.55385681571011
 20
252.17055608310019
 30
0.0
  0
SEQEND
  5
1BC3
  8
L1
  0
POLYLINE
  5
262
  8
L1
 66
     1
 10
0.0
 20
0.0
 30
0.0
  0
VERTEX
  5
1BC4
  8
L1
 10
518.55385681571022
 20
252.17055608310019
 30
0.0
  0
VERTEX
  5
1BC5
  8
L1
 10
518.66734940507013
 20
252.1889856206358
 30
0.0
  0
SEQEND
  5
1BC6
  8
L1
  0
LINE
  5
BCC
  8
L1
 10
217.44481207705931
 20
235.29976057225741
 30
0.0
 11
217.44524130789941
 21
235.29973807722229
 31
0.0
  0
POLYLINE
  5
C0B
  8
L1
 66
     1
 10
0.0
 20
0.0
 30
0.0
  0
VERTEX
  5
1BC7
  8
L1
 10
217.44481207703899
 20
248.7111205482457
 30
0.0
  0
VERTEX
  5
1BC8
  8
L1
 10
219.45395483803199
 20
250.82831525863239
 30
0.0
  0
SEQEND
  5
1BC9
  8
L1
  0
POLYLINE
  5
C0F
  8
L1
 66
     1
 10
0.0
 20
0.0
 30
0.0
  0
VERTEX
  5
1BCA
  8
L1
 10
217.44481207705931
 20
248.71112054826719
 30
0.0
  0
VERTEX
  5
1BCB
  8
L1
 10
217.44481207705931
 20
248.67723238609429
 30
0.0
  0
VERTEX
  5
1BCC
  8
L1
 10
217.44481207705931
 20
248.53318971696169
 30
0.0
  0
VERTEX
  5
1BCD
  8
L1
 10
217.44481207705931
 20
248.25244497871421
 30
0.0
  0
VERTEX
  5
1BCE
  8
L1
 10
217.44481207705931
 20
247.84612249914269
 30
0.0
  0
VERTEX
  5
1BCF
  8
L1
 10
217.44481207705931
 20
234.7410694785834
 30
0.0
  0
SEQEND
  5
1BD0
  8
L1
  0
LINE
  5
C2B
  8
L1
 10
267.2552792683079
 20
253.3334765188113
 30
0.0
 11
219.45395483803199
 21
250.82831525863239
 31
0.0
  0
ARC
  5
C2C
  8
L1
 10
267.64481207705933
 20
253.75361659907631
 30
0.0
 40
0.1999999999999879
 50
92.999999999999659
 51
180.0
  0
ARC
  5
C2D
  8
L1
 10
267.24481207705929
 20
253.5332024257622
 30
0.0
 40
0.1999999999999993
 50
273.00000000000068
 51
0.0
  0
ARC
  5
C2E
  8
L1
 10
267.74481207705929
 20
253.1348498045266
 30
0.0
 40
0.3
 50
180.0
 51
183.29204385369499
  0
LINE
  5
C2F
  8
L1
 10
267.44547328449181
 20
251.78325749305051
 30
0.0
 11
267.44688387478999
 21
251.7833314189555
 31
0.0
  0
LINE
  5
C30
  8
L1
 10
293.32553204637492
 20
255.29976057225741
 30
0.0
 11
267.63434488581072
 21
253.95334250602721
 31
0.0
  0
LINE
  5
C31
  8
L1
 10
294.80920953016579
 20
253.6026725463806
 30
0.0
 11
294.04800211009609
 21
253.73689395245441
 31
0.0
  0
ARC
  5
C33
  8
L1
 10
294.74481207705929
 20
253.2374564413482
 30
0.0
 40
0.3708501521392529
 50
0.000000000008713
 51
80.000000000005627
  0
ARC
  5
C35
  8
L1
 10
294.74481207705929
 20
127.33745644134819
 30
0.0
 40
0.3708501521392529
 50
279.99999999999432
 51
0.0
  0
LINE
  5
C36
  8
L1
 10
267.63434488581072
 20
126.6215703766691
 30
0.0
 11
293.32553204637492
 21
125.275152310439
 31
0.0
  0
LINE
  5
C37
  8
L1
 10
219.45395483803199
 20
129.7465976240639
 30
0.0
 11
267.2552792683079
 21
127.241436363885
 31
0.0
  0
LINE
  5
CF9
  8
L1
 10
294.04481207705931
 20
128.7304564413482
 30
0.0
 11
294.04481207705931
 21
125.9944323411234
 31
0.0
  0
LINE
  5
D05
  8
L1
 10
294.80920953016579
 20
126.97224033631571
 30
0.0
 11
294.04800129090108
 21
126.8380187857958
 31
0.0
  0
POLYLINE
  5
D06
  8
L1
 66
     1
 10
0.0
 20
0.0
 30
0.0
  0
VERTEX
  5
1BD1
  8
L1
 10
293.3255320463748
 20
125.275152310439
 30
0.0
  0
VERTEX
  5
1BD2
  8
L1
 10
293.32558597009518
 20
125.2752062341593
 30
0.0
  0
VERTEX
  5
1BD3
  8
L1
 10
293.32574773950989
 20
125.2753680035741
 30
0.0
  0
SEQEND
  5
1BD4
  8
L1
  0
LINE
  5
D0B
  8
L1
 10
293.32574773950978
 20
125.275368003574
 30
0.0
 11
294.04481207705931
 21
125.9944323411235
 31
0.0
  0
LINE
  5
D23
  8
L1
 10
293.32553204637537
 20
125.275152310439
 30
0.0
 11
293.3255320463748
 21
255.29976057225721
 31
0.0
  0
LINE
  5
FD2
  8
L1
 10
267.44481207705911
 20
126.8212962836199
 30
0.0
 11
267.44481207705911
 21
253.7536165990762
 31
0.0
  0
LINE
  5
FE2
  8
L1
 10
219.45395483803199
 20
250.82831525863239
 30
0.0
 11
219.45395483803199
 21
190.2874564413481
 31
0.0
  0
POLYLINE
  5
FE3
  8
L1
 66
     1
 10
0.0
 20
0.0
 30
0.0
  0
VERTEX
  5
1BD5
  8
L1
 10
217.44481207703899
 20
234.6051674771746
 30
0.0
  0
VERTEX
  5
1BD6
  8
L1
 10
219.45395483803199
 20
236.7223621875612
 30
0.0
  0
SEQEND
  5
1BD7
  8
L1
  0
LINE
  5
FE4
  8
L1
 10
219.45395483803199
 20
129.7465976240639
 30
0.0
 11
219.45395483803199
 21
190.2874564413481
 31
0.0
  0
POLYLINE
  5
FE5
  8
L1
 66
     1
 10
0.0
 20
0.0
 30
0.0
  0
VERTEX
  5
1BD8
  8
L1
 10
217.44481207703899
 20
145.96974540552159
 30
0.0
  0
VERTEX
  5
1BD9
  8
L1
 10
219.45395483803199
 20
143.85255069513499
 30
0.0
  0
SEQEND
  5
1BDA
  8
L1
  0
POLYLINE
  5
FE6
  8
L1
 66
     1
 10
0.0
 20
0.0
 30
0.0
  0
VERTEX
  5
1BDB
  8
L1
 10
217.44481207705931
 20
131.86379233442901
 30
0.0
  0
VERTEX
  5
1BDC
  8
L1
 10
217.44481207705931
 20
131.89768049660199
 30
0.0
  0
VERTEX
  5
1BDD
  8
L1
 10
217.44481207705931
 20
132.04172316573451
 30
0.0
  0
VERTEX
  5
1BDE
  8
L1
 10
217.44481207705931
 20
132.32246790398199
 30
0.0
  0
VERTEX
  5
1BDF
  8
L1
 10
217.44481207705931
 20
132.72879038355339
 30
0.0
  0
VERTEX
  5
1BE0
  8
L1
 10
217.44481207705931
 20
145.83384340411291
 30
0.0
  0
SEQEND
  5
1BE1
  8
L1
  0
LINE
  5
FE7
  8
L1
 10
217.44481207705931
 20
145.27515231043881
 30
0.0
 11
217.44524130789941
 21
145.27517480547399
 31
0.0
  0
POLYLINE
  5
FE8
  8
L1
 66
     1
 10
0.0
 20
0.0
 30
0.0
  0
VERTEX
  5
1BE2
  8
L1
 10
217.44481207703899
 20
131.86379233445049
 30
0.0
  0
VERTEX
  5
1BE3
  8
L1
 10
219.45395483803199
 20
129.7465976240639
 30
0.0
  0
SEQEND
  5
1BE4
  8
L1
  0
LINE
  5
FE9
  8
L2
 10
217.94481207705931
 20
235.29976057225721
 30
0.0
 11
217.94481207705931
 21
145.27515231043901
 31
0.0
  0
LINE
  5
FEA
  8
L2
 10
217.94481207705931
 20
235.29976057225721
 30
0.0
 11
217.44481207705931
 21
235.29976057225721
 31
0.0
  0
LINE
  5
FEB
  8
L2
 10
217.94481207705931
 20
145.27515231043901
 30
0.0
 11
217.44481207705931
 21
145.27515231043901
 31
0.0
  0
LINE
  5
FEC
  8
L1
 10
217.44481207705931
 20
145.27515231043881
 30
0.0
 11
217.44524130789941
 21
145.27517480547399
 31
0.0
  0
LINE
  5
FED
  8
L2
 10
504.30294677368403
 20
384.80919515059259
 30
0.0
 11
364.27833851186568
 21
384.80919515059259
 31
0.0
  0
LINE
  5
FEE
  8
L1
 10
519.83150146005914
 20
383.30005238961991
 30
0.0
 11
434.29064264277508
 21
383.30005238961991
 31
0.0
  0
LINE
  5
FEF
  8
L2
 10
502.55787034226211
 20
382.40919515059261
 30
0.0
 11
366.02341494328732
 21
382.40919515059272
 31
0.0
  0
LINE
  5
FF0
  8
L1
 10
345.82448248504659
 20
335.30919515059281
 30
0.0
 11
522.7568028005029
 21
335.30919515059281
 31
0.0
  0
LINE
  5
FF1
  8
L1
 10
344.27833851186568
 20
309.4284751812765
 30
0.0
 11
524.30294677368408
 21
309.42847518127712
 31
0.0
  0
LINE
  5
FF2
  8
L1
 10
522.2406426427749
 20
307.63834499845331
 30
0.0
 11
346.34064264277492
 21
307.63834499845331
 31
0.0
  0
LINE
  5
FF3
  8
L1
 10
364.8366866369625
 20
385.3091951505927
 30
0.0
 11
503.74465719362109
 21
385.3091951505927
 31
0.0
  0
LINE
  5
FF4
  8
L1
 10
344.99761854255058
 20
308.70919515059211
 30
0.0
 11
523.58366674299953
 21
308.70919515059262
 31
0.0
  0
LINE
  5
FF5
  8
L2
 10
364.52547064115561
 20
380.98769908495711
 30
0.0
 11
361.9795791290631
 21
333.1091951505926
 31
0.0
  0
LINE
  5
FF6
  8
L1
 10
348.74978382549062
 20
383.30005238961991
 30
0.0
 11
346.24462256531177
 21
335.49872795934402
 31
0.0
  0
LINE
  5
FF7
  8
L1
 10
360.35057563638281
 20
335.49872795934408
 30
0.0
 11
362.87032835925282
 21
383.57847408370242
 31
0.0
  0
LINE
  5
FF8
  8
L6
 10
434.29064264277508
 20
302.0403229145536
 30
0.0
 11
434.29064264277508
 21
390.60789945233768
 31
0.0
  0
POLYLINE
  5
FF9
  8
L1
 66
     1
 10
0.0
 20
0.0
 30
0.0
  0
VERTEX
  5
1BE5
  8
L1
 10
350.86697853587719
 20
385.30919515061288
 30
0.0
  0
VERTEX
  5
1BE6
  8
L1
 10
348.74978382549062
 20
383.30005238961991
 30
0.0
  0
SEQEND
  5
1BE7
  8
L1
  0
LINE
  5
FFA
  8
L1
 10
348.74978382549062
 20
383.30005238961991
 30
0.0
 11
434.29064264277508
 21
383.30005238961991
 31
0.0
  0
ARC
  5
FFB
  8
L2
 10
366.02341494328738
 20
380.90919515059278
 30
0.0
 40
1.5
 50
89.999999999999986
 51
176.9999999999998
  0
POLYLINE
  5
FFC
  8
L1
 66
     1
 10
0.0
 20
0.0
 30
0.0
  0
VERTEX
  5
1BE8
  8
L1
 10
350.86697853585571
 20
385.30919515059259
 30
0.0
  0
VERTEX
  5
1BE9
  8
L1
 10
350.90086669802872
 20
385.3091951505927
 30
0.0
  0
VERTEX
  5
1BEA
  8
L1
 10
351.04490936716121
 20
385.3091951505927
 30
0.0
  0
VERTEX
  5
1BEB
  8
L1
 10
351.32565410540872
 20
385.3091951505927
 30
0.0
  0
VERTEX
  5
1BEC
  8
L1
 10
351.73197658498009
 20
385.3091951505927
 30
0.0
  0
VERTEX
  5
1BED
  8
L1
 10
364.83702960553961
 20
385.3091951505927
 30
0.0
  0
SEQEND
  5
1BEE
  8
L1
  0
POLYLINE
  5
FFD
  8
L1
 66
     1
 10
0.0
 20
0.0
 30
0.0
  0
VERTEX
  5
1BEF
  8
L1
 10
364.97293160694841
 20
385.30919515061288
 30
0.0
  0
VERTEX
  5
1BF0
  8
L1
 10
362.85573689656172
 20
383.30005238961991
 30
0.0
  0
SEQEND
  5
1BF1
  8
L1
  0
LINE
  5
FFE
  8
L1
 10
364.27833851186563
 20
385.3091951505927
 30
0.0
 11
364.27836100690058
 21
385.30876591975249
 31
0.0
  0
LINE
  5
FFF
  8
L2
 10
364.27833851186568
 20
384.80919515059259
 30
0.0
 11
364.27833851186568
 21
385.3091951505927
 31
0.0
  0
LINE
  5
1000
  8
L1
 10
364.27833851186563
 20
385.3091951505927
 30
0.0
 11
364.27836100690058
 21
385.30876591975249
 31
0.0
  0
LINE
  5
1001
  8
L1
 10
345.62475657809591
 20
335.11966234184121
 30
0.0
 11
344.27833851186568
 21
309.42847518127712
 31
0.0
  0
LINE
  5
1002
  8
L1
 10
344.27833851186568
 20
309.42847518127712
 30
0.0
 11
345.62475657809591
 21
335.11966234184121
 31
0.0
  0
ARC
  5
1003
  8
L1
 10
345.82448248504681
 20
335.10919515059271
 30
0.0
 40
0.2
 50
89.999999999999986
 51
177.00000000000031
  0
LINE
  5
1004
  8
L1
 10
344.27855420500072
 20
309.42825948814198
 30
0.0
 11
344.99761854255019
 21
308.70919515059251
 31
0.0
  0
POLYLINE
  5
1005
  8
L1
 66
     1
 10
0.0
 20
0.0
 30
0.0
  0
VERTEX
  5
1BF2
  8
L1
 10
344.27833851186568
 20
309.42847518127712
 30
0.0
  0
VERTEX
  5
1BF3
  8
L1
 10
344.278392435586
 20
309.42842125755681
 30
0.0
  0
VERTEX
  5
1BF4
  8
L1
 10
344.27855420500077
 20
309.42825948814198
 30
0.0
  0
SEQEND
  5
1BF5
  8
L1
  0
LINE
  5
1006
  8
L1
 10
345.97542653774241
 20
307.94479769748619
 30
0.0
 11
345.84120498722251
 21
308.70600593675073
 31
0.0
  0
LINE
  5
1007
  8
L1
 10
347.7336426427749
 20
308.70919515059251
 30
0.0
 11
344.99761854255007
 21
308.70919515059251
 31
0.0
  0
ARC
  5
1008
  8
L1
 10
346.34064264277492
 20
308.00919515059269
 30
0.0
 40
0.3708501521392529
 50
189.9999999999944
 51
270.0
  0
LINE
  5
1009
  8
L1
 10
344.99761854255007
 20
308.70919515059262
 30
0.0
 11
344.27833851186568
 21
309.42847518127712
 31
0.0
  0
LINE
  5
100A
  8
L2
 10
361.34064264277492
 20
308.70919515059262
 30
0.0
 11
361.9795791290631
 21
333.1091951505926
 31
0.0
  0
POLYLINE
  5
100B
  8
L1
 66
     1
 10
0.0
 20
0.0
 30
0.0
  0
VERTEX
  5
1BF6
  8
L1
 10
360.17901184559759
 20
335.30919515059259
 30
0.0
  0
VERTEX
  5
1BF7
  8
L1
 10
360.15790154482551
 20
335.30919515059259
 30
0.0
  0
VERTEX
  5
1BF8
  8
L1
 10
360.1508497294318
 20
335.30919515059259
 30
0.0
  0
SEQEND
  5
1BF9
  8
L1
  0
ARC
  5
100C
  8
L1
 10
360.1508497294318
 20
335.50919515059269
 30
0.0
 40
0.2
 50
270.0
 51
357.00000000000028
  0
LINE
  5
100D
  8
L1
 10
508.2307096491669
 20
335.49872795934408
 30
0.0
 11
505.72554838898787
 21
383.30005238961979
 31
0.0
  0
LINE
  5
100E
  8
L2
 10
504.0558146443941
 20
380.987699084957
 30
0.0
 11
506.60170615648661
 21
333.1091951505926
 31
0.0
  0
LINE
  5
100F
  8
L1
 10
522.33666272023811
 20
335.49872795934402
 30
0.0
 11
519.83150146005914
 21
383.30005238961991
 31
0.0
  0
POLYLINE
  5
1010
  8
L1
 66
     1
 10
0.0
 20
0.0
 30
0.0
  0
VERTEX
  5
1BFA
  8
L1
 10
503.6083536786013
 20
385.30919515061288
 30
0.0
  0
VERTEX
  5
1BFB
  8
L1
 10
505.72554838898787
 20
383.30005238961979
 30
0.0
  0
SEQEND
  5
1BFC
  8
L1
  0
POLYLINE
  5
1011
  8
L1
 66
     1
 10
0.0
 20
0.0
 30
0.0
  0
VERTEX
  5
1BFD
  8
L1
 10
517.71430674969395
 20
385.30919515059259
 30
0.0
  0
VERTEX
  5
1BFE
  8
L1
 10
517.68041858752099
 20
385.3091951505927
 30
0.0
  0
VERTEX
  5
1BFF
  8
L1
 10
517.53637591838844
 20
385.3091951505927
 30
0.0
  0
VERTEX
  5
1C00
  8
L1
 10
517.25563118014088
 20
385.3091951505927
 30
0.0
  0
VERTEX
  5
1C01
  8
L1
 10
516.8493087005694
 20
385.3091951505927
 30
0.0
  0
VERTEX
  5
1C02
  8
L1
 10
503.7442556800101
 20
385.3091951505927
 30
0.0
  0
SEQEND
  5
1C03
  8
L1
  0
LINE
  5
1012
  8
L2
 10
504.30294677368403
 20
384.80919515059259
 30
0.0
 11
504.30294677368403
 21
385.3091951505927
 31
0.0
  0
LINE
  5
1013
  8
L1
 10
504.30294677368408
 20
385.3091951505927
 30
0.0
 11
504.30292427864902
 21
385.30876591975249
 31
0.0
  0
ARC
  5
1014
  8
L2
 10
502.55787034226222
 20
380.90919515059272
 30
0.0
 40
1.5
 50
3.0000000000001559
 51
89.999999999999986
  0
POLYLINE
  5
1015
  8
L1
 66
     1
 10
0.0
 20
0.0
 30
0.0
  0
VERTEX
  5
1C04
  8
L1
 10
517.71430674967235
 20
385.30919515061288
 30
0.0
  0
VERTEX
  5
1C05
  8
L1
 10
519.83150146005914
 20
383.30005238961991
 30
0.0
  0
SEQEND
  5
1C06
  8
L1
  0
LINE
  5
1016
  8
L2
 10
507.24064264277479
 20
308.70919515059262
 30
0.0
 11
506.60170615648661
 21
333.1091951505926
 31
0.0
  0
ARC
  5
1017
  8
L1
 10
508.43043555611769
 20
335.50919515059257
 30
0.0
 40
0.2
 50
182.9999999999996
 51
270.0
  0
POLYLINE
  5
1018
  8
L1
 66
     1
 10
0.0
 20
0.0
 30
0.0
  0
VERTEX
  5
1C07
  8
L1
 10
508.40227343995201
 20
335.30919515059259
 30
0.0
  0
VERTEX
  5
1C08
  8
L1
 10
508.4233837407242
 20
335.30919515059259
 30
0.0
  0
VERTEX
  5
1C09
  8
L1
 10
508.43043555611791
 20
335.30919515059259
 30
0.0
  0
SEQEND
  5
1C0A
  8
L1
  0
LINE
  5
1019
  8
L1
 10
524.3029467736842
 20
309.42847518127712
 30
0.0
 11
522.95652870745403
 21
335.11966234184121
 31
0.0
  0
LINE
  5
101A
  8
L1
 10
524.30294677368408
 20
309.42847518127712
 30
0.0
 11
522.95652870745391
 21
335.11966234184121
 31
0.0
  0
LINE
  5
101B
  8
L1
 10
520.78644369447716
 20
335.30853394316011
 30
0.0
 11
520.78651762038226
 21
335.30712335286199
 31
0.0
  0
ARC
  5
101C
  8
L1
 10
522.13803600595338
 20
335.00919515059257
 30
0.0
 40
0.3
 50
89.999999999999986
 51
93.292043853694977
  0
ARC
  5
101D
  8
L1
 10
522.5363886271889
 20
335.50919515059257
 30
0.0
 40
0.1999999999999993
 50
183.0000000000006
 51
270.0
  0
ARC
  5
101E
  8
L1
 10
522.75680280050301
 20
335.10919515059248
 30
0.0
 40
0.1999999999999879
 50
2.9999999999996598
 51
89.999999999999986
  0
ARC
  5
101F
  8
L1
 10
522.75680280050278
 20
335.1091951505926
 30
0.0
 40
0.2
 50
2.9999999999996598
 51
89.999999999999986
  0
ARC
  5
1020
  8
L1
 10
522.2406426427749
 20
308.00919515059257
 30
0.0
 40
0.3708501521392529
 50
270.0000000000087
 51
350.00000000000563
  0
LINE
  5
1021
  8
L1
 10
522.60585874780725
 20
307.94479769748619
 30
0.0
 11
522.74008015388119
 21
308.70600511755578
 31
0.0
  0
LINE
  5
1022
  8
L1
 10
523.58366674299953
 20
308.70919515059262
 30
0.0
 11
524.30294677368386
 21
309.42847518127712
 31
0.0
  0
LINE
  5
1023
  8
L6
 10
434.29064264277508
 20
78.534589968142654
 30
0.0
 11
434.29064264277508
 21
-10.032986569641469
 31
0.0
  0
LINE
  5
1024
  8
L2
 10
507.24064264277479
 20
71.865717732103576
 30
0.0
 11
506.60170615648661
 21
47.465717732103599
 31
0.0
  0
LINE
  5
1025
  8
L1
 10
524.30294677368408
 20
71.146437701419131
 30
0.0
 11
522.95652870745391
 21
45.455250540854991
 31
0.0
  0
LINE
  5
1026
  8
L1
 10
524.3029467736842
 20
71.146437701419131
 30
0.0
 11
522.95652870745403
 21
45.455250540854991
 31
0.0
  0
LINE
  5
1027
  8
L1
 10
344.27833851186568
 20
71.146437701419131
 30
0.0
 11
345.62475657809591
 21
45.455250540854991
 31
0.0
  0
LINE
  5
1028
  8
L1
 10
345.62475657809591
 20
45.455250540854991
 30
0.0
 11
344.27833851186568
 21
71.146437701419131
 31
0.0
  0
LINE
  5
1029
  8
L2
 10
361.34064264277492
 20
71.865717732103576
 30
0.0
 11
361.9795791290631
 21
47.465717732103599
 31
0.0
  0
LINE
  5
102A
  8
L1
 10
344.27833851186568
 20
71.1464377014197
 30
0.0
 11
524.30294677368408
 21
71.146437701419131
 31
0.0
  0
LINE
  5
102B
  8
L1
 10
522.2406426427749
 20
72.936567884242891
 30
0.0
 11
346.34064264277492
 21
72.936567884242891
 31
0.0
  0
LINE
  5
102C
  8
L1
 10
344.99761854255058
 20
71.865717732104144
 30
0.0
 11
523.58366674299953
 21
71.865717732103576
 31
0.0
  0
LINE
  5
102D
  8
L1
 10
344.99761854255007
 20
71.865717732103576
 30
0.0
 11
344.27833851186568
 21
71.146437701419131
 31
0.0
  0
ARC
  5
102E
  8
L1
 10
346.34064264277492
 20
72.565717732103494
 30
0.0
 40
0.3708501521392529
 50
90.000000000000028
 51
170.00000000000551
  0
LINE
  5
102F
  8
L1
 10
345.97542653774241
 20
72.630115185210002
 30
0.0
 11
345.84120498722251
 21
71.868906945945469
 31
0.0
  0
LINE
  5
1030
  8
L1
 10
344.27855420500072
 20
71.146653394554164
 30
0.0
 11
344.99761854255019
 21
71.86571773210369
 31
0.0
  0
LINE
  5
1031
  8
L1
 10
347.7336426427749
 20
71.86571773210369
 30
0.0
 11
344.99761854255007
 21
71.86571773210369
 31
0.0
  0
POLYLINE
  5
1032
  8
L1
 66
     1
 10
0.0
 20
0.0
 30
0.0
  0
VERTEX
  5
1C0B
  8
L1
 10
344.27833851186568
 20
71.146437701419131
 30
0.0
  0
VERTEX
  5
1C0C
  8
L1
 10
344.278392435586
 20
71.146491625139447
 30
0.0
  0
VERTEX
  5
1C0D
  8
L1
 10
344.27855420500077
 20
71.146653394554164
 30
0.0
  0
SEQEND
  5
1C0E
  8
L1
  0
ARC
  5
1033
  8
L1
 10
522.2406426427749
 20
72.565717732103622
 30
0.0
 40
0.3708501521392529
 50
9.9999999999944063
 51
89.999999999991303
  0
LINE
  5
1034
  8
L1
 10
523.58366674299953
 20
71.865717732103576
 30
0.0
 11
524.30294677368386
 21
71.146437701419131
 31
0.0
  0
LINE
  5
1035
  8
L1
 10
522.60585874780725
 20
72.630115185210002
 30
0.0
 11
522.74008015388119
 21
71.86890776514042
 31
0.0
  0
LINE
  5
1036
  8
L1
 10
348.74978382549062
 20
-2.7251395069237101
 30
0.0
 11
434.29064264277508
 21
-2.7251395069237101
 31
0.0
  0
LINE
  5
1037
  8
L2
 10
504.30294677368403
 20
-4.2342822678964458
 30
0.0
 11
364.27833851186568
 21
-4.2342822678964458
 31
0.0
  0
LINE
  5
1038
  8
L2
 10
502.55787034226211
 20
-1.8342822678963551
 30
0.0
 11
366.02341494328732
 21
-1.834282267896469
 31
0.0
  0
LINE
  5
1039
  8
L1
 10
345.82448248504659
 20
45.26571773210344
 30
0.0
 11
522.7568028005029
 21
45.26571773210344
 31
0.0
  0
LINE
  5
103A
  8
L1
 10
364.8366866369625
 20
-4.7342822678964458
 30
0.0
 11
503.74465719362109
 21
-4.7342822678964458
 31
0.0
  0
LINE
  5
103B
  8
L1
 10
348.74978382549062
 20
-2.7251395069237101
 30
0.0
 11
346.24462256531177
 21
45.07618492335223
 31
0.0
  0
LINE
  5
103C
  8
L1
 10
360.35057563638281
 20
45.076184923352109
 30
0.0
 11
362.87032835925282
 21
-3.0035612010061641
 31
0.0
  0
LINE
  5
103D
  8
L2
 10
364.52547064115561
 20
-0.4127862022609179
 30
0.0
 11
361.9795791290631
 21
47.465717732103599
 31
0.0
  0
ARC
  5
103E
  8
L1
 10
345.82448248504681
 20
45.465717732103478
 30
0.0
 40
0.2
 50
182.9999999999996
 51
270.0
  0
ARC
  5
103F
  8
L1
 10
360.1508497294318
 20
45.065717732103501
 30
0.0
 40
0.2
 50
2.999999999999674
 51
90.000000000000028
  0
POLYLINE
  5
1040
  8
L1
 66
     1
 10
0.0
 20
0.0
 30
0.0
  0
VERTEX
  5
1C0F
  8
L1
 10
360.17901184559759
 20
45.265717732103553
 30
0.0
  0
VERTEX
  5
1C10
  8
L1
 10
360.15790154482551
 20
45.265717732103553
 30
0.0
  0
VERTEX
  5
1C11
  8
L1
 10
360.1508497294318
 20
45.265717732103553
 30
0.0
  0
SEQEND
  5
1C12
  8
L1
  0
POLYLINE
  5
1041
  8
L1
 66
     1
 10
0.0
 20
0.0
 30
0.0
  0
VERTEX
  5
1C13
  8
L1
 10
350.86697853585571
 20
-4.7342822678963321
 30
0.0
  0
VERTEX
  5
1C14
  8
L1
 10
350.90086669802872
 20
-4.7342822678964458
 30
0.0
  0
VERTEX
  5
1C15
  8
L1
 10
351.04490936716121
 20
-4.7342822678964458
 30
0.0
  0
VERTEX
  5
1C16
  8
L1
 10
351.32565410540872
 20
-4.7342822678964458
 30
0.0
  0
VERTEX
  5
1C17
  8
L1
 10
351.73197658498009
 20
-4.7342822678964458
 30
0.0
  0
VERTEX
  5
1C18
  8
L1
 10
364.83702960553961
 20
-4.7342822678964458
 30
0.0
  0
SEQEND
  5
1C19
  8
L1
  0
POLYLINE
  5
1042
  8
L1
 66
     1
 10
0.0
 20
0.0
 30
0.0
  0
VERTEX
  5
1C1A
  8
L1
 10
350.86697853587719
 20
-4.7342822679166821
 30
0.0
  0
VERTEX
  5
1C1B
  8
L1
 10
348.74978382549062
 20
-2.7251395069237101
 30
0.0
  0
SEQEND
  5
1C1C
  8
L1
  0
LINE
  5
1043
  8
L1
 10
364.27833851186563
 20
-4.7342822678964458
 30
0.0
 11
364.27836100690058
 21
-4.7338530370562921
 31
0.0
  0
LINE
  5
1044
  8
L2
 10
364.27833851186568
 20
-4.2342822678964458
 30
0.0
 11
364.27833851186568
 21
-4.7342822678964458
 31
0.0
  0
LINE
  5
1045
  8
L1
 10
364.27833851186563
 20
-4.7342822678964458
 30
0.0
 11
364.27836100690058
 21
-4.7338530370562921
 31
0.0
  0
ARC
  5
1046
  8
L2
 10
366.02341494328738
 20
-0.3342822678965831
 30
0.0
 40
1.5
 50
183.00000000000011
 51
270.0
  0
POLYLINE
  5
1047
  8
L1
 66
     1
 10
0.0
 20
0.0
 30
0.0
  0
VERTEX
  5
1C1D
  8
L1
 10
364.97293160694841
 20
-4.7342822679166821
 30
0.0
  0
VERTEX
  5
1C1E
  8
L1
 10
362.85573689656172
 20
-2.7251395069237101
 30
0.0
  0
SEQEND
  5
1C1F
  8
L1
  0
LINE
  5
1048
  8
L2
 10
504.0558146443941
 20
-0.4127862022608042
 30
0.0
 11
506.60170615648661
 21
47.465717732103599
 31
0.0
  0
LINE
  5
1049
  8
L1
 10
508.2307096491669
 20
45.076184923352109
 30
0.0
 11
505.72554838898787
 21
-2.725139506923596
 31
0.0
  0
LINE
  5
104A
  8
L1
 10
522.33666272023811
 20
45.07618492335223
 30
0.0
 11
519.83150146005914
 21
-2.7251395069237101
 31
0.0
  0
ARC
  5
104B
  8
L1
 10
508.43043555611769
 20
45.065717732103622
 30
0.0
 40
0.2
 50
90.000000000000028
 51
177.00000000000031
  0
POLYLINE
  5
104C
  8
L1
 66
     1
 10
0.0
 20
0.0
 30
0.0
  0
VERTEX
  5
1C20
  8
L1
 10
508.40227343995201
 20
45.265717732103553
 30
0.0
  0
VERTEX
  5
1C21
  8
L1
 10
508.4233837407242
 20
45.265717732103553
 30
0.0
  0
VERTEX
  5
1C22
  8
L1
 10
508.43043555611791
 20
45.265717732103553
 30
0.0
  0
SEQEND
  5
1C23
  8
L1
  0
ARC
  5
104D
  8
L1
 10
522.5363886271889
 20
45.065717732103622
 30
0.0
 40
0.1999999999999993
 50
90.000000000000028
 51
176.99999999999929
  0
LINE
  5
104E
  8
L1
 10
520.78644369447716
 20
45.266378939536139
 30
0.0
 11
520.78651762038226
 21
45.267789529834197
 31
0.0
  0
ARC
  5
104F
  8
L1
 10
522.13803600595338
 20
45.565717732103622
 30
0.0
 40
0.3
 50
266.70795614630498
 51
270.0
  0
ARC
  5
1050
  8
L1
 10
522.75680280050278
 20
45.465717732103592
 30
0.0
 40
0.2
 50
270.0
 51
357.00000000000028
  0
ARC
  5
1051
  8
L1
 10
522.75680280050301
 20
45.465717732103712
 30
0.0
 40
0.1999999999999879
 50
270.0
 51
357.00000000000028
  0
LINE
  5
1052
  8
L1
 10
519.83150146005914
 20
-2.7251395069237101
 30
0.0
 11
434.29064264277508
 21
-2.7251395069237101
 31
0.0
  0
POLYLINE
  5
1053
  8
L1
 66
     1
 10
0.0
 20
0.0
 30
0.0
  0
VERTEX
  5
1C24
  8
L1
 10
517.71430674969395
 20
-4.7342822678963321
 30
0.0
  0
VERTEX
  5
1C25
  8
L1
 10
517.68041858752099
 20
-4.7342822678964458
 30
0.0
  0
VERTEX
  5
1C26
  8
L1
 10
517.53637591838844
 20
-4.7342822678964458
 30
0.0
  0
VERTEX
  5
1C27
  8
L1
 10
517.25563118014088
 20
-4.7342822678964458
 30
0.0
  0
VERTEX
  5
1C28
  8
L1
 10
516.8493087005694
 20
-4.7342822678964458
 30
0.0
  0
VERTEX
  5
1C29
  8
L1
 10
503.7442556800101
 20
-4.7342822678964458
 30
0.0
  0
SEQEND
  5
1C2A
  8
L1
  0
ARC
  5
1054
  8
L2
 10
502.55787034226222
 20
-0.3342822678964694
 30
0.0
 40
1.5
 50
270.0
 51
356.99999999999977
  0
LINE
  5
1055
  8
L1
 10
504.30294677368408
 20
-4.7342822678964458
 30
0.0
 11
504.30292427864902
 21
-4.7338530370562921
 31
0.0
  0
LINE
  5
1056
  8
L2
 10
504.30294677368403
 20
-4.2342822678964458
 30
0.0
 11
504.30294677368403
 21
-4.7342822678964458
 31
0.0
  0
POLYLINE
  5
1057
  8
L1
 66
     1
 10
0.0
 20
0.0
 30
0.0
  0
VERTEX
  5
1C2B
  8
L1
 10
503.6083536786013
 20
-4.7342822679166821
 30
0.0
  0
VERTEX
  5
1C2C
  8
L1
 10
505.72554838898787
 20
-2.725139506923596
 30
0.0
  0
SEQEND
  5
1C2D
  8
L1
  0
POLYLINE
  5
1058
  8
L1
 66
     1
 10
0.0
 20
0.0
 30
0.0
  0
VERTEX
  5
1C2E
  8
L1
 10
517.71430674967235
 20
-4.7342822679166821
 30
0.0
  0
VERTEX
  5
1C2F
  8
L1
 10
519.83150146005914
 20
-2.7251395069237101
 30
0.0
  0
SEQEND
  5
1C30
  8
L1
  0
LINE
  5
1059
  8
L2
 10
650.63647320849054
 20
235.29976057225721
 30
0.0
 11
650.63647320849054
 21
145.27515231043901
 31
0.0
  0
LINE
  5
105A
  8
L1
 10
649.12733044751781
 20
250.82831525863239
 30
0.0
 11
649.12733044751781
 21
190.2874564413481
 31
0.0
  0
LINE
  5
105B
  8
L2
 10
648.23647320849057
 20
233.55468414083541
 30
0.0
 11
648.23647320849057
 21
147.02022874186051
 31
0.0
  0
LINE
  5
105C
  8
L1
 10
601.13647320849066
 20
126.8212962836199
 30
0.0
 11
601.13647320849066
 21
253.7536165990762
 31
0.0
  0
LINE
  5
105D
  8
L1
 10
575.25575323917451
 20
125.275152310439
 30
0.0
 11
575.25575323917496
 21
255.29976057225721
 31
0.0
  0
LINE
  5
105E
  8
L1
 10
573.46562305635143
 20
253.2374564413482
 30
0.0
 11
573.46562305635143
 21
127.33745644134819
 31
0.0
  0
LINE
  5
105F
  8
L1
 10
651.13647320849066
 20
145.83350043553571
 30
0.0
 11
651.13647320849066
 21
234.74147099219439
 31
0.0
  0
LINE
  5
1060
  8
L1
 10
574.53647320848995
 20
125.9944323411239
 30
0.0
 11
574.53647320849063
 21
254.5804805415728
 31
0.0
  0
LINE
  5
1061
  8
L2
 10
646.8149771428549
 20
145.52228443972879
 30
0.0
 11
598.93647320849061
 21
142.97639292763631
 31
0.0
  0
LINE
  5
1062
  8
L1
 10
649.12733044751781
 20
129.7465976240639
 30
0.0
 11
601.32600601724187
 21
127.241436363885
 31
0.0
  0
LINE
  5
1063
  8
L1
 10
601.32600601724198
 20
141.34738943495611
 30
0.0
 11
649.40575214160026
 21
143.86714215782609
 31
0.0
  0
LINE
  5
1064
  8
L6
 10
567.86760097245156
 20
190.2874564413481
 30
0.0
 11
656.43517751023558
 21
190.2874564413481
 31
0.0
  0
POLYLINE
  5
1065
  8
L1
 66
     1
 10
0.0
 20
0.0
 30
0.0
  0
VERTEX
  5
1C31
  8
L1
 10
651.13647320851089
 20
131.86379233445049
 30
0.0
  0
VERTEX
  5
1C32
  8
L1
 10
649.12733044751781
 20
129.7465976240639
 30
0.0
  0
SEQEND
  5
1C33
  8
L1
  0
LINE
  5
1066
  8
L1
 10
649.12733044751781
 20
129.7465976240639
 30
0.0
 11
649.12733044751781
 21
190.2874564413481
 31
0.0
  0
ARC
  5
1067
  8
L2
 10
646.73647320849068
 20
147.02022874186071
 30
0.0
 40
1.5
 50
273.00000000000011
 51
0.000000000000007
  0
POLYLINE
  5
1068
  8
L1
 66
     1
 10
0.0
 20
0.0
 30
0.0
  0
VERTEX
  5
1C34
  8
L1
 10
651.13647320849054
 20
131.86379233442901
 30
0.0
  0
VERTEX
  5
1C35
  8
L1
 10
651.13647320849054
 20
131.89768049660199
 30
0.0
  0
VERTEX
  5
1C36
  8
L1
 10
651.13647320849054
 20
132.04172316573451
 30
0.0
  0
VERTEX
  5
1C37
  8
L1
 10
651.13647320849054
 20
132.32246790398199
 30
0.0
  0
VERTEX
  5
1C38
  8
L1
 10
651.13647320849054
 20
132.72879038355339
 30
0.0
  0
VERTEX
  5
1C39
  8
L1
 10
651.13647320849054
 20
145.83384340411291
 30
0.0
  0
SEQEND
  5
1C3A
  8
L1
  0
POLYLINE
  5
1069
  8
L1
 66
     1
 10
0.0
 20
0.0
 30
0.0
  0
VERTEX
  5
1C3B
  8
L1
 10
651.13647320851089
 20
145.96974540552159
 30
0.0
  0
VERTEX
  5
1C3C
  8
L1
 10
649.12733044751781
 20
143.85255069513499
 30
0.0
  0
SEQEND
  5
1C3D
  8
L1
  0
LINE
  5
106A
  8
L1
 10
651.13647320849054
 20
145.27515231043881
 30
0.0
 11
651.13604397765039
 21
145.27517480547399
 31
0.0
  0
LINE
  5
106B
  8
L2
 10
650.63647320849054
 20
145.27515231043901
 30
0.0
 11
651.13647320849054
 21
145.27515231043901
 31
0.0
  0
LINE
  5
106C
  8
L1
 10
651.13647320849054
 20
145.27515231043881
 30
0.0
 11
651.13604397765039
 21
145.27517480547399
 31
0.0
  0
LINE
  5
106D
  8
L1
 10
600.94694039973911
 20
126.6215703766691
 30
0.0
 11
575.25575323917485
 21
125.275152310439
 31
0.0
  0
LINE
  5
106E
  8
L1
 10
575.25575323917496
 20
125.275152310439
 30
0.0
 11
600.94694039973922
 21
126.6215703766691
 31
0.0
  0
ARC
  5
106F
  8
L1
 10
600.93647320849061
 20
126.82129628362
 30
0.0
 40
0.2
 50
272.9999999999996
 51
0.000000000000007
  0
LINE
  5
1070
  8
L1
 10
575.25553754604005
 20
125.275368003574
 30
0.0
 11
574.53647320849063
 21
125.9944323411235
 31
0.0
  0
POLYLINE
  5
1071
  8
L1
 66
     1
 10
0.0
 20
0.0
 30
0.0
  0
VERTEX
  5
1C3E
  8
L1
 10
575.25575323917496
 20
125.275152310439
 30
0.0
  0
VERTEX
  5
1C3F
  8
L1
 10
575.25569931545465
 20
125.2752062341593
 30
0.0
  0
VERTEX
  5
1C40
  8
L1
 10
575.25553754603993
 20
125.2753680035741
 30
0.0
  0
SEQEND
  5
1C41
  8
L1
  0
LINE
  5
1072
  8
L1
 10
573.77207575538409
 20
126.97224033631571
 30
0.0
 11
574.53328399464885
 21
126.8380187857958
 31
0.0
  0
LINE
  5
1073
  8
L1
 10
574.53647320849063
 20
128.7304564413482
 30
0.0
 11
574.53647320849063
 21
125.9944323411234
 31
0.0
  0
ARC
  5
1074
  8
L1
 10
573.83647320849059
 20
127.33745644134819
 30
0.0
 40
0.3708501521392529
 50
180.0
 51
260.00000000000563
  0
LINE
  5
1075
  8
L1
 10
574.53647320849063
 20
125.9944323411234
 30
0.0
 11
575.25575323917496
 21
125.275152310439
 31
0.0
  0
LINE
  5
1076
  8
L2
 10
574.53647320849063
 20
142.33745644134811
 30
0.0
 11
598.93647320849061
 21
142.97639292763631
 31
0.0
  0
POLYLINE
  5
1077
  8
L1
 66
     1
 10
0.0
 20
0.0
 30
0.0
  0
VERTEX
  5
1C42
  8
L1
 10
601.13647320849066
 20
141.17582564417091
 30
0.0
  0
VERTEX
  5
1C43
  8
L1
 10
601.13647320849066
 20
141.15471534339881
 30
0.0
  0
VERTEX
  5
1C44
  8
L1
 10
601.13647320849066
 20
141.1476635280051
 30
0.0
  0
SEQEND
  5
1C45
  8
L1
  0
ARC
  5
1078
  8
L1
 10
601.33647320849047
 20
141.14766352800521
 30
0.0
 40
0.2
 50
92.999999999999659
 51
180.0
  0
LINE
  5
1079
  8
L1
 10
601.32600601724198
 20
239.2275234477402
 30
0.0
 11
649.12733044751781
 21
236.7223621875612
 31
0.0
  0
LINE
  5
107A
  8
L2
 10
646.8149771428549
 20
235.05262844296729
 30
0.0
 11
598.93647320849061
 21
237.59851995505991
 31
0.0
  0
LINE
  5
107B
  8
L1
 10
601.32600601724187
 20
253.3334765188113
 30
0.0
 11
649.12733044751781
 21
250.82831525863239
 31
0.0
  0
POLYLINE
  5
107C
  8
L1
 66
     1
 10
0.0
 20
0.0
 30
0.0
  0
VERTEX
  5
1C46
  8
L1
 10
651.13647320851089
 20
234.6051674771746
 30
0.0
  0
VERTEX
  5
1C47
  8
L1
 10
649.12733044751781
 20
236.7223621875612
 30
0.0
  0
SEQEND
  5
1C48
  8
L1
  0
POLYLINE
  5
107D
  8
L1
 66
     1
 10
0.0
 20
0.0
 30
0.0
  0
VERTEX
  5
1C49
  8
L1
 10
651.13647320849054
 20
248.71112054826719
 30
0.0
  0
VERTEX
  5
1C4A
  8
L1
 10
651.13647320849054
 20
248.67723238609429
 30
0.0
  0
VERTEX
  5
1C4B
  8
L1
 10
651.13647320849054
 20
248.53318971696169
 30
0.0
  0
VERTEX
  5
1C4C
  8
L1
 10
651.13647320849054
 20
248.25244497871421
 30
0.0
  0
VERTEX
  5
1C4D
  8
L1
 10
651.13647320849054
 20
247.84612249914269
 30
0.0
  0
VERTEX
  5
1C4E
  8
L1
 10
651.13647320849054
 20
234.7410694785834
 30
0.0
  0
SEQEND
  5
1C4F
  8
L1
  0
LINE
  5
107E
  8
L2
 10
650.63647320849054
 20
235.29976057225721
 30
0.0
 11
651.13647320849054
 21
235.29976057225721
 31
0.0
  0
LINE
  5
107F
  8
L1
 10
651.13647320849054
 20
235.29976057225741
 30
0.0
 11
651.13604397765039
 21
235.29973807722229
 31
0.0
  0
ARC
  5
1080
  8
L2
 10
646.73647320849068
 20
233.55468414083549
 30
0.0
 40
1.5
 50
0.000000000000007
 51
86.999999999999844
  0
POLYLINE
  5
1081
  8
L1
 66
     1
 10
0.0
 20
0.0
 30
0.0
  0
VERTEX
  5
1C50
  8
L1
 10
651.13647320851089
 20
248.7111205482457
 30
0.0
  0
VERTEX
  5
1C51
  8
L1
 10
649.12733044751781
 20
250.82831525863239
 30
0.0
  0
SEQEND
  5
1C52
  8
L1
  0
LINE
  5
1082
  8
L2
 10
574.53647320849063
 20
238.23745644134809
 30
0.0
 11
598.93647320849061
 21
237.59851995505991
 31
0.0
  0
ARC
  5
1083
  8
L1
 10
601.33647320849047
 20
239.42724935469101
 30
0.0
 40
0.2
 50
180.0
 51
267.00000000000028
  0
POLYLINE
  5
1084
  8
L1
 66
     1
 10
0.0
 20
0.0
 30
0.0
  0
VERTEX
  5
1C53
  8
L1
 10
601.13647320849066
 20
239.39908723852531
 30
0.0
  0
VERTEX
  5
1C54
  8
L1
 10
601.13647320849066
 20
239.42019753929739
 30
0.0
  0
VERTEX
  5
1C55
  8
L1
 10
601.13647320849066
 20
239.4272493546911
 30
0.0
  0
SEQEND
  5
1C56
  8
L1
  0
LINE
  5
1085
  8
L1
 10
575.25575323917485
 20
255.29976057225741
 30
0.0
 11
600.94694039973911
 21
253.95334250602721
 31
0.0
  0
LINE
  5
1086
  8
L1
 10
575.25575323917496
 20
255.29976057225721
 30
0.0
 11
600.94694039973922
 21
253.9533425060271
 31
0.0
  0
LINE
  5
1087
  8
L1
 10
601.13581200105796
 20
251.78325749305051
 30
0.0
 11
601.13440141075978
 21
251.7833314189555
 31
0.0
  0
ARC
  5
1088
  8
L1
 10
600.83647320849047
 20
253.1348498045266
 30
0.0
 40
0.3
 50
356.70795614630498
 51
0.000000000000007
  0
ARC
  5
1089
  8
L1
 10
601.33647320849047
 20
253.5332024257622
 30
0.0
 40
0.1999999999999993
 50
180.0
 51
266.99999999999932
  0
ARC
  5
108A
  8
L1
 10
600.9364732084905
 20
253.75361659907631
 30
0.0
 40
0.1999999999999879
 50
0.000000000000007
 51
87.000000000000341
  0
ARC
  5
108B
  8
L1
 10
600.93647320849061
 20
253.7536165990762
 30
0.0
 40
0.2
 50
0.000000000000007
 51
87.000000000000341
  0
ARC
  5
108C
  8
L1
 10
573.83647320849059
 20
253.2374564413482
 30
0.0
 40
0.3708501521392529
 50
99.999999999994358
 51
179.99999999999119
  0
LINE
  5
108D
  8
L1
 10
573.77207575538409
 20
253.6026725463806
 30
0.0
 11
574.53328317545368
 21
253.73689395245441
 31
0.0
  0
LINE
  5
108E
  8
L1
 10
574.53647320849063
 20
254.5804805415728
 30
0.0
 11
575.25575323917496
 21
255.29976057225721
 31
0.0
  0
ENDSEC
  0
EOF
