  0
SECTION
  2
HEADER
  9
$ACADVER
  1
AC1009
  9
$INSBASE
 10
0.0
 20
0.0
 30
0.0
  9
$EXTMIN
 10
4.7719568220478541
 20
16.159604515050201
 30
0.0
  9
$EXTMAX
 10
659.14829966978584
 20
338.3657094015453
 30
0.0
  9
$LIMMIN
 10
0.0
 20
0.0
  9
$LIMMAX
 10
619.08203200118908
 20
354.01013425917972
  9
$ORTHOMODE
 70
     1
  9
$REGENMODE
 70
     1
  9
$FILLMODE
 70
     1
  9
$QTEXTMODE
 70
     0
  9
$MIRRTEXT
 70
     1
  9
$DRAGMODE
 70
     2
  9
$LTSCALE
 40
15.0
  9
$OSMODE
 70
     5
  9
$ATTMODE
 70
     1
  9
$TEXTSIZE
 40
2.5
  9
$TRACEWID
 40
1.0
  9
$TEXTSTYLE
  7
SIMPLEX
  9
$CLAYER
  8
L1
  9
$CELTYPE
  6
BYLAYER
  9
$CECOLOR
 62
   256
  9
$DIMSCALE
 40
1.0
  9
$DIMASZ
 40
3.5
  9
$DIMEXO
 40
0.1
  9
$DIMDLI
 40
0.38
  9
$DIMRND
 40
0.0
  9
$DIMDLE
 40
0.0
  9
$DIMEXE
 40
0.18
  9
$DIMTP
 40
0.0
  9
$DIMTM
 40
0.0
  9
$DIMTXT
 40
3.5
  9
$DIMCEN
 40
1.0
  9
$DIMTSZ
 40
0.0
  9
$DIMTOL
 70
     0
  9
$DIMLIM
 70
     0
  9
$DIMTIH
 70
     0
  9
$DIMTOH
 70
     0
  9
$DIMSE1
 70
     0
  9
$DIMSE2
 70
     0
  9
$DIMTAD
 70
     1
  9
$DIMZIN
 70
     8
  9
$DIMBLK
  1

  9
$DIMASO
 70
     1
  9
$DIMSHO
 70
     1
  9
$DIMPOST
  1

  9
$DIMAPOST
  1

  9
$DIMALT
 70
     0
  9
$DIMALTD
 70
     2
  9
$DIMALTF
 40
25.399999999999999
  9
$DIMLFAC
 40
1.0
  9
$DIMTOFL
 70
     1
  9
$DIMTVP
 40
0.0
  9
$DIMTIX
 70
     0
  9
$DIMSOXD
 70
     0
  9
$DIMSAH
 70
     0
  9
$DIMBLK1
  1

  9
$DIMBLK2
  1

  9
$DIMSTYLE
  2
FIBOX
  9
$DIMCLRD
 70
     1
  9
$DIMCLRE
 70
     1
  9
$DIMCLRT
 70
     3
  9
$DIMTFAC
 40
1.0
  9
$DIMGAP
 40
1.0
  9
$LUNITS
 70
     2
  9
$LUPREC
 70
     4
  9
$SKETCHINC
 40
1.0
  9
$FILLETRAD
 40
0.2
  9
$AUNITS
 70
     0
  9
$AUPREC
 70
     0
  9
$MENU
  1
.
  9
$ELEVATION
 40
0.0
  9
$PELEVATION
 40
0.0
  9
$THICKNESS
 40
0.0
  9
$LIMCHECK
 70
     0
  9
$BLIPMODE
 70
     0
  9
$CHAMFERA
 40
10.0
  9
$CHAMFERB
 40
10.0
  9
$SKPOLY
 70
     0
  9
$TDCREATE
 40
2450519.5748858559
  9
$TDUPDATE
 40
2452502.5297097792
  9
$TDINDWG
 40
0.6751353588
  9
$TDUSRTIMER
 40
0.6751353588
  9
$USRTIMER
 70
     1
  9
$ANGBASE
 50
0.0
  9
$ANGDIR
 70
     0
  9
$PDMODE
 70
     0
  9
$PDSIZE
 40
0.0
  9
$PLINEWID
 40
0.0
  9
$COORDS
 70
     2
  9
$SPLFRAME
 70
     0
  9
$SPLINETYPE
 70
     6
  9
$SPLINESEGS
 70
     8
  9
$ATTDIA
 70
     0
  9
$ATTREQ
 70
     1
  9
$HANDLING
 70
 22529
  9
$HANDSEED
  5
1B3E
  9
$SURFTAB1
 70
     6
  9
$SURFTAB2
 70
     6
  9
$SURFTYPE
 70
     6
  9
$SURFU
 70
     6
  9
$SURFV
 70
     6
  9
$UCSNAME
  2

  9
$UCSORG
 10
0.0
 20
0.0
 30
0.0
  9
$UCSXDIR
 10
1.0
 20
0.0
 30
0.0
  9
$UCSYDIR
 10
0.0
 20
1.0
 30
0.0
  9
$PUCSNAME
  2

  9
$PUCSORG
 10
0.0
 20
0.0
 30
0.0
  9
$PUCSXDIR
 10
1.0
 20
0.0
 30
0.0
  9
$PUCSYDIR
 10
0.0
 20
1.0
 30
0.0
  9
$USERI1
 70
     0
  9
$USERI2
 70
     0
  9
$USERI3
 70
     0
  9
$USERI4
 70
     0
  9
$USERI5
 70
     0
  9
$USERR1
 40
0.0
  9
$USERR2
 40
0.0
  9
$USERR3
 40
0.0
  9
$USERR4
 40
0.0
  9
$USERR5
 40
0.0
  9
$WORLDVIEW
 70
     1
  9
$SHADEDGE
 70
     3
  9
$SHADEDIF
 70
    70
  9
$TILEMODE
 70
     1
  9
$MAXACTVP
 70
    16
  9
$PLIMCHECK
 70
     0
  9
$PEXTMIN
 10
-654.13216052409575
 20
-8.3302140657851851
 30
0.0
  9
$PEXTMAX
 10
194.89904178742091
 20
585.66978593421481
 30
0.0
  9
$PLIMMIN
 10
0.0
 20
0.0
  9
$PLIMMAX
 10
420.0
 20
297.0
  9
$UNITMODE
 70
     0
  9
$VISRETAIN
 70
     0
  9
$PLINEGEN
 70
     0
  9
$PSLTSCALE
 70
     1
  0
ENDSEC
  0
SECTION
  2
TABLES
  0
TABLE
  2
VPORT
 70
     2
  0
VPORT
  2
*ACTIVE
 70
     0
 10
0.0
 20
0.0
 11
1.0
 21
1.0
 12
617.93571738499122
 22
-138.0344394681342
 13
0.0
 23
0.0
 14
10.0
 24
10.0
 15
10.0
 25
10.0
 16
0.0
 26
0.0
 36
1.0
 17
-285.95991502819271
 27
315.29609130558771
 37
121.7730677876683
 40
432.50754075622422
 41
1.5205479452054791
 42
50.0
 43
0.0
 44
0.0
 50
0.0
 51
0.0
 71
     0
 72
   500
 73
     1
 74
     0
 75
     0
 76
     0
 77
     0
 78
     0
  0
ENDTAB
  0
TABLE
  2
LTYPE
 70
     3
  0
LTYPE
  2
CONTINUOUS
 70
     0
  3
Solid line
 72
    65
 73
     0
 40
0.0
  0
LTYPE
  2
HIDDEN
 70
     0
  3
__ __ __ __ __ __ __ __ __ __ __ __ __ __ __ __
 72
    65
 73
     2
 40
0.375
 49
0.25
 49
-0.125
  0
LTYPE
  2
CENTER
 70
     0
  3
____ _ ____ _ ____ _ ____ _ ____ _ ____ _ ____ 
 72
    65
 73
     4
 40
2.0
 49
1.25
 49
-0.25
 49
0.25
 49
-0.25
  0
ENDTAB
  0
TABLE
  2
LAYER
 70
     4
  0
LAYER
  2
0
 70
     0
 62
     7
  6
CONTINUOUS
  0
LAYER
  2
L2
 70
     0
 62
     1
  6
HIDDEN
  0
LAYER
  2
L1
 70
     0
 62
     7
  6
CONTINUOUS
  0
LAYER
  2
L6
 70
     0
 62
     1
  6
CENTER
  0
ENDTAB
  0
TABLE
  2
STYLE
 70
     2
  0
STYLE
  2
STANDARD
 70
     0
 40
0.0
 41
1.0
 50
0.0
 71
     0
 42
2.5
  3
ISOCP
  4

  0
STYLE
  2
SIMPLEX
 70
     0
 40
0.0
 41
0.8
 50
0.0
 71
     0
 42
2.5
  3
SIMPLEX.SHX
  4

  0
ENDTAB
  0
TABLE
  2
VIEW
 70
     0
  0
ENDTAB
  0
TABLE
  2
UCS
 70
     0
  0
ENDTAB
  0
TABLE
  2
APPID
 70
     1
  0
APPID
  2
ACAD
 70
     0
  0
ENDTAB
  0
TABLE
  2
DIMSTYLE
 70
     1
  0
DIMSTYLE
  2
FIBOX
 70
     0
  3

  4

  5

  6

  7

 40
1.0
 41
3.5
 42
0.1
 43
0.38
 44
0.18
 45
0.0
 46
0.0
 47
0.0
 48
0.0
140
3.5
141
1.0
142
0.0
143
25.399999999999999
144
1.0
145
0.0
146
1.0
147
1.0
 71
     0
 72
     0
 73
     0
 74
     0
 75
     0
 76
     0
 77
     1
 78
     8
170
     0
171
     2
172
     1
173
     0
174
     0
175
     0
176
     1
177
     1
178
     3
  0
ENDTAB
  0
ENDSEC
  0
SECTION
  2
BLOCKS
  0
BLOCK
  8
0
  2
$MODEL_SPACE
 70
     0
 10
0.0
 20
0.0
 30
0.0
  3
$MODEL_SPACE
  1

  0
ENDBLK
  5
6
  8
0
  0
BLOCK
 67
     1
  8
0
  2
$PAPER_SPACE
 70
     0
 10
0.0
 20
0.0
 30
0.0
  3
$PAPER_SPACE
  1

  0
ENDBLK
  5
9
 67
     1
  8
0
  0
ENDSEC
  0
SECTION
  2
ENTITIES
  0
LINE
  5
1F
  8
L6
 10
356.04875069148352
 20
177.2626569582977
 30
0.0
 11
543.50109446838735
 21
177.2626569582977
 31
0.0
  0
LINE
  5
2C
  8
L1
 10
380.8532219739264
 20
131.25035282738861
 30
0.0
 11
518.87783023574468
 21
131.2503528273885
 31
0.0
  0
LINE
  5
2D
  8
L1
 10
377.22572058691168
 20
117.52879836930271
 30
0.0
 11
522.50533162275963
 21
117.52879836930271
 31
0.0
  0
LINE
  5
2E
  8
L1
 10
377.92271816795272
 20
114.2166368808346
 30
0.0
 11
521.80833404171858
 21
114.2166368808345
 31
0.0
  0
LINE
  5
2F
  8
L1
 10
535.03620879787366
 20
113.5967708936187
 30
0.0
 11
364.69484341179759
 21
113.5967708936187
 31
0.0
  0
LINE
  5
30
  8
L1
 10
520.6133672636156
 20
115.41160365893749
 30
0.0
 11
379.11768494605548
 21
115.41160365893749
 31
0.0
  0
LINE
  5
31
  8
L1
 10
536.3826268641036
 20
112.2503528273886
 30
0.0
 11
363.34842534556742
 21
112.2503528273886
 31
0.0
  0
LINE
  5
32
  8
L1
 10
536.3826268641036
 20
242.2749610892069
 30
0.0
 11
363.34842534556742
 21
242.2749610892069
 31
0.0
  0
LINE
  5
33
  8
L1
 10
520.6133672636156
 20
239.113710257658
 30
0.0
 11
379.11768494605548
 21
239.113710257658
 31
0.0
  0
LINE
  5
34
  8
L1
 10
535.03620879787366
 20
240.92854302297681
 30
0.0
 11
364.69484341179759
 21
240.9285430229767
 31
0.0
  0
LINE
  5
35
  8
L1
 10
377.92271816795272
 20
240.30867703576089
 30
0.0
 11
521.80833404171858
 21
240.30867703576089
 31
0.0
  0
LINE
  5
36
  8
L1
 10
377.22572058691168
 20
236.99651554729269
 30
0.0
 11
522.50533162275963
 21
236.9965155472928
 31
0.0
  0
LINE
  5
37
  8
L1
 10
380.8532219739264
 20
223.2749610892069
 30
0.0
 11
518.87783023574468
 21
223.27496108920701
 31
0.0
  0
LINE
  5
3A
  8
L6
 10
97.726556705694804
 20
249.53026019682309
 30
0.0
 11
97.726556705694804
 21
104.9950537197724
 31
0.0
  0
LINE
  5
3B
  8
L1
 10
22.035140734349451
 20
237.12569908978929
 30
0.0
 11
19.27898080173264
 21
239.8818590224061
 31
0.0
  0
ARC
  5
3C
  8
L1
 10
25.576556705694831
 20
237.51265695829781
 30
0.0
 40
3.2000000000000282
 50
129.51794668407791
 51
180.0
  0
LINE
  5
3D
  8
L1
 10
16.206727723628831
 20
238.9886509722821
 30
0.0
 11
20.952550719679088
 21
234.24282797623169
 31
0.0
  0
ARC
  5
3E
  8
L1
 10
15.976556705694801
 20
234.0126569582977
 30
0.0
 40
4.981314598045679
 50
87.351597658712251
 51
182.64840234128931
  0
LINE
  5
3F
  8
L1
 10
9.4765567056948044
 20
237.9126569582977
 30
0.0
 11
9.4765567056948044
 21
226.63974885474781
 31
0.0
  0
LINE
  5
40
  8
L1
 10
25.415493191982989
 20
234.01265695829761
 30
0.0
 11
25.415493191982989
 21
238.57382327451711
 31
0.0
  0
LINE
  5
41
  8
L1
 10
8.4335326054702477
 20
115.70565695829769
 30
0.0
 11
8.4335326054701341
 21
238.81965695829771
 31
0.0
  0
LINE
  5
42
  8
L1
 10
7.7142525747856894
 20
238.77975771756601
 30
0.0
 11
7.7142525747856894
 21
115.74555619902959
 31
0.0
  0
POLYLINE
  5
43
  8
L1
 66
     1
 10
0.0
 20
0.0
 30
0.0
  0
VERTEX
  5
152A
  8
L1
 10
361.1996400401564
 20
237.43333965133581
 30
0.0
  0
VERTEX
  5
152B
  8
L1
 10
361.20264565911089
 20
237.5778923262217
 30
0.0
  0
VERTEX
  5
152C
  8
L1
 10
361.21161226298648
 20
237.7221834856216
 30
0.0
  0
VERTEX
  5
152D
  8
L1
 10
361.22652458586219
 20
237.8659674693674
 30
0.0
  0
VERTEX
  5
152E
  8
L1
 10
361.24735723904638
 20
238.0089994807731
 30
0.0
  0
VERTEX
  5
152F
  8
L1
 10
361.27407475430198
 20
238.1510360034091
 30
0.0
  0
VERTEX
  5
1530
  8
L1
 10
361.30663164423152
 20
238.2918352156961
 30
0.0
  0
VERTEX
  5
1531
  8
L1
 10
361.34497247972138
 20
238.4311574026141
 30
0.0
  0
VERTEX
  5
1532
  8
L1
 10
361.389031984312
 20
238.56876536382441
 30
0.0
  0
VERTEX
  5
1533
  8
L1
 10
361.43873514533158
 20
238.7044248175109
 30
0.0
  0
VERTEX
  5
1534
  8
L1
 10
361.49399734160932
 20
238.83790479925179
 30
0.0
  0
VERTEX
  5
1535
  8
L1
 10
361.55472448754432
 20
238.96897805524381
 30
0.0
  0
VERTEX
  5
1536
  8
L1
 10
361.62081319328951
 20
239.09742142920851
 30
0.0
  0
VERTEX
  5
1537
  8
L1
 10
361.69215094077651
 20
239.22301624232341
 30
0.0
  0
VERTEX
  5
1538
  8
L1
 10
361.76861627528041
 20
239.34554866552909
 30
0.0
  0
VERTEX
  5
1539
  8
L1
 10
361.85007901220098
 20
239.46481008357969
 30
0.0
  0
VERTEX
  5
153A
  8
L1
 10
361.93640045870529
 20
239.58059745021691
 30
0.0
  0
VERTEX
  5
153B
  8
L1
 10
362.0274336498569
 20
239.69271363386281
 30
0.0
  0
VERTEX
  5
153C
  8
L1
 10
362.1230235988283
 20
239.80096775324171
 30
0.0
  0
VERTEX
  5
153D
  8
L1
 10
362.22300756077061
 20
239.90517550236271
 30
0.0
  0
VERTEX
  5
153E
  8
L1
 10
362.32721530989153
 20
240.00515946430491
 30
0.0
  0
VERTEX
  5
153F
  8
L1
 10
362.43546942927043
 20
240.1007494132763
 30
0.0
  0
VERTEX
  5
1540
  8
L1
 10
362.54758561291618
 20
240.191782604428
 30
0.0
  0
VERTEX
  5
1541
  8
L1
 10
362.66337297955351
 20
240.2781040509322
 30
0.0
  0
VERTEX
  5
1542
  8
L1
 10
362.78263439760411
 20
240.3595667878528
 30
0.0
  0
VERTEX
  5
1543
  8
L1
 10
362.90516682080982
 20
240.43603212235669
 30
0.0
  0
VERTEX
  5
1544
  8
L1
 10
363.03076163392473
 20
240.50736986984381
 30
0.0
  0
VERTEX
  5
1545
  8
L1
 10
363.15920500788951
 20
240.573458575589
 30
0.0
  0
VERTEX
  5
1546
  8
L1
 10
363.29027826388131
 20
240.63418572152389
 30
0.0
  0
VERTEX
  5
1547
  8
L1
 10
363.4237582456222
 20
240.68944791780169
 30
0.0
  0
VERTEX
  5
1548
  8
L1
 10
363.55941769930871
 20
240.73915107882129
 30
0.0
  0
VERTEX
  5
1549
  8
L1
 10
363.6970256605191
 20
240.78321058341169
 30
0.0
  0
VERTEX
  5
154A
  8
L1
 10
363.8363478474372
 20
240.82155141890181
 30
0.0
  0
VERTEX
  5
154B
  8
L1
 10
363.97714705972419
 20
240.85410830883129
 30
0.0
  0
VERTEX
  5
154C
  8
L1
 10
364.11918358236011
 20
240.8808258240868
 30
0.0
  0
VERTEX
  5
154D
  8
L1
 10
364.26221559376592
 20
240.90165847727101
 30
0.0
  0
VERTEX
  5
154E
  8
L1
 10
364.40599957751158
 20
240.91657080014679
 30
0.0
  0
VERTEX
  5
154F
  8
L1
 10
364.55029073691151
 20
240.92553740402229
 30
0.0
  0
VERTEX
  5
1550
  8
L1
 10
364.69484341179742
 20
240.92854302297681
 30
0.0
  0
SEQEND
  5
1551
  8
L1
  0
POLYLINE
  5
44
  8
L1
 66
     1
 10
0.0
 20
0.0
 30
0.0
  0
VERTEX
  5
1552
  8
L1
 10
379.11768494605548
 20
239.113710257658
 30
0.0
  0
VERTEX
  5
1553
  8
L1
 10
378.7721834514706
 20
239.08180296602009
 30
0.0
  0
VERTEX
  5
1554
  8
L1
 10
378.44048315559132
 20
238.9870472084541
 30
0.0
  0
VERTEX
  5
1555
  8
L1
 10
378.13262757491879
 20
238.83231208404291
 30
0.0
  0
VERTEX
  5
1556
  8
L1
 10
377.857938234465
 20
238.62228280047151
 30
0.0
  0
VERTEX
  5
1557
  8
L1
 10
377.62473242232949
 20
238.36331881114251
 30
0.0
  0
VERTEX
  5
1558
  8
L1
 10
377.44007135145517
 20
238.06326125799151
 30
0.0
  0
VERTEX
  5
1559
  8
L1
 10
377.30954635394369
 20
237.73119555041939
 30
0.0
  0
VERTEX
  5
155A
  8
L1
 10
377.23710958173041
 20
237.37717626918749
 30
0.0
  0
VERTEX
  5
155B
  8
L1
 10
377.22495433981391
 20
237.01192272488109
 30
0.0
  0
SEQEND
  5
155C
  8
L1
  0
CIRCLE
  5
45
  8
L1
 10
368.11552610483551
 20
234.0126569582977
 30
0.0
 40
5.7974047862592784
  0
LINE
  5
46
  8
L1
 10
373.06582524252218
 20
234.2314978881692
 30
0.0
 11
368.33436703470687
 21
238.9629560959844
 31
0.0
  0
ARC
  5
47
  8
L1
 10
368.11552610483551
 20
234.0126569582977
 30
0.0
 40
4.9551339946734032
 50
87.468738206707457
 51
182.53126179329121
  0
CIRCLE
  5
48
  8
L1
 10
368.11552610483551
 20
234.0126569582977
 30
0.0
 40
6.097393363178492
  0
LINE
  5
49
  8
L1
 10
375.92545909844341
 20
238.31141796625181
 30
0.0
 11
375.92545909844341
 21
233.7923084288245
 31
0.0
  0
LINE
  5
4A
  8
L1
 10
359.85322197392628
 20
115.74555619902949
 30
0.0
 11
359.85322197392628
 21
238.77975771756601
 31
0.0
  0
LINE
  5
51
  8
L1
 10
187.01958080591939
 20
115.70565695829769
 30
0.0
 11
187.01958080591939
 21
238.81965695829771
 31
0.0
  0
LINE
  5
52
  8
L1
 10
187.73886083660389
 20
238.77975771756601
 30
0.0
 11
187.73886083660389
 21
115.74555619902959
 31
0.0
  0
LINE
  5
53
  8
L1
 10
170.03762021940659
 20
234.01265695829761
 30
0.0
 11
170.03762021940659
 21
238.57382327451711
 31
0.0
  0
ARC
  5
54
  8
L1
 10
169.8765567056947
 20
237.51265695829781
 30
0.0
 40
3.2000000000000282
 50
0.0
 51
50.482053315922073
  0
LINE
  5
55
  8
L1
 10
185.97655670569469
 20
237.9126569582977
 30
0.0
 11
185.97655670569469
 21
226.63974885474781
 31
0.0
  0
LINE
  5
56
  8
L1
 10
173.4179726770401
 20
237.12569908978929
 30
0.0
 11
176.17413260965691
 21
239.8818590224061
 31
0.0
  0
ARC
  5
57
  8
L1
 10
179.4765567056948
 20
234.0126569582977
 30
0.0
 40
4.981314598045679
 50
357.3515976587106
 51
92.648402341287735
  0
LINE
  5
58
  8
L1
 10
179.24638568776081
 20
238.9886509722821
 30
0.0
 11
174.50056269171051
 21
234.24282797623169
 31
0.0
  0
LINE
  5
59
  8
L6
 10
4.7719568220478541
 20
177.26265695829781
 30
0.0
 11
190.82035587605921
 21
177.26265695829781
 31
0.0
  0
LINE
  5
5A
  8
L1
 10
169.73772302191401
 20
115.6515934445859
 30
0.0
 11
25.715390389475541
 21
115.6515934445859
 31
0.0
  0
LINE
  5
5B
  8
L1
 10
11.209455946426541
 20
112.2503528273885
 30
0.0
 11
184.24365746496281
 21
112.2503528273885
 31
0.0
  0
LINE
  5
5C
  8
L1
 10
184.28355670569471
 20
112.969632858073
 30
0.0
 11
11.169556705694781
 21
112.9696328580729
 31
0.0
  0
LINE
  5
5D
  8
L1
 10
25.57655670569471
 20
113.8126569582975
 30
0.0
 11
169.8765567056947
 21
113.81265695829759
 31
0.0
  0
LINE
  5
5E
  8
L1
 10
9.2765567056946452
 20
224.41265695829779
 30
0.0
 11
9.2765567056946452
 21
130.11265695829789
 31
0.0
  0
LINE
  5
5F
  8
L1
 10
11.115493191983029
 20
130.25149064207861
 30
0.0
 11
11.115493191983029
 21
224.2738232745169
 31
0.0
  0
LINE
  5
60
  8
L1
 10
24.218393321429001
 20
127.31329885077881
 30
0.0
 11
23.556318166856212
 21
126.5242684067494
 31
0.0
  0
POLYLINE
  5
61
  8
L1
 66
     1
 10
0.0
 20
0.0
 30
0.0
  0
VERTEX
  5
155D
  8
L1
 10
12.72207706287969
 20
126.9126569582976
 30
0.0
  0
VERTEX
  5
155E
  8
L1
 10
12.83319798832343
 20
126.878951938451
 30
0.0
  0
VERTEX
  5
155F
  8
L1
 10
12.90686558379258
 20
126.78919716254001
 30
0.0
  0
VERTEX
  5
1560
  8
L1
 10
12.91825017161392
 20
126.6736444955983
 30
0.0
  0
VERTEX
  5
1561
  8
L1
 10
12.86351457420283
 20
126.5712409869522
 30
0.0
  0
SEQEND
  5
1562
  8
L1
  0
LINE
  5
62
  8
L1
 10
9.4765567056948044
 20
116.6126569582978
 30
0.0
 11
9.4765567056948044
 21
127.8855650618476
 31
0.0
  0
ARC
  5
63
  8
L1
 10
12.476556705694801
 20
130.11265695829769
 30
0.0
 40
3.200000000000113
 50
219.51794668407621
 51
270.0
  0
ARC
  5
64
  8
L1
 10
20.015493191982891
 20
124.5515934445859
 30
0.0
 40
5.3999999999999986
 50
0.0
 51
90.0
  0
ARC
  5
65
  8
L1
 10
15.976556705694801
 20
120.5126569582976
 30
0.0
 40
6.3999999999999941
 50
0.0
 51
90.0
  0
ARC
  5
66
  8
L1
 10
11.169556705694781
 20
115.70565695829769
 30
0.0
 40
2.736024100224733
 50
180.0
 51
270.0
  0
POLYLINE
  5
67
  8
L1
 66
     1
 10
0.0
 20
0.0
 30
0.0
  0
VERTEX
  5
1563
  8
L1
 10
11.169556705694781
 20
112.2505685205236
 30
0.0
  0
VERTEX
  5
1564
  8
L1
 10
10.507769103249361
 20
112.3209425681833
 30
0.0
  0
VERTEX
  5
1565
  8
L1
 10
9.8527843194537468
 20
112.5230719562952
 30
0.0
  0
VERTEX
  5
1566
  8
L1
 10
9.249937474798628
 20
112.8492162081116
 30
0.0
  0
VERTEX
  5
1567
  8
L1
 10
8.7366275866211822
 20
113.2727278392241
 30
0.0
  0
VERTEX
  5
1568
  8
L1
 10
8.3131159555087493
 20
113.78603772740171
 30
0.0
  0
VERTEX
  5
1569
  8
L1
 10
7.9869717036924044
 20
114.3888845720567
 30
0.0
  0
VERTEX
  5
156A
  8
L1
 10
7.7848423155805326
 20
115.04386935585239
 30
0.0
  0
VERTEX
  5
156B
  8
L1
 10
7.7144682679207222
 20
115.70565695829769
 30
0.0
  0
SEQEND
  5
156C
  8
L1
  0
ARC
  5
68
  8
L1
 10
15.976556705694801
 20
120.5126569582978
 30
0.0
 40
4.981314598045679
 50
177.3515976587106
 51
272.64840234128769
  0
LINE
  5
69
  8
L1
 10
10.107354641586481
 20
123.81508105433581
 30
0.0
 11
12.86351457420283
 21
126.5712409869522
 31
0.0
  0
ARC
  5
6A
  8
L1
 10
12.076556705694941
 20
116.6126569582978
 30
0.0
 40
2.6000000000000001
 50
180.0
 51
270.0
  0
POLYLINE
  5
6B
  8
L1
 66
     1
 10
0.0
 20
0.0
 30
0.0
  0
VERTEX
  5
156D
  8
L1
 10
7.7144682679207222
 20
115.70565695829769
 30
0.0
  0
VERTEX
  5
156E
  8
L1
 10
7.714306498506005
 20
115.7256089262594
 30
0.0
  0
VERTEX
  5
156F
  8
L1
 10
7.7142525747856894
 20
115.74555619902949
 30
0.0
  0
SEQEND
  5
1570
  8
L1
  0
POLYLINE
  5
6C
  8
L1
 66
     1
 10
0.0
 20
0.0
 30
0.0
  0
VERTEX
  5
1571
  8
L1
 10
10.107354641586481
 20
123.81508105433581
 30
0.0
  0
VERTEX
  5
1572
  8
L1
 10
10.00882691891848
 20
123.74954684153499
 30
0.0
  0
VERTEX
  5
1573
  8
L1
 10
9.8926354708276563
 20
123.72720454226661
 30
0.0
  0
SEQEND
  5
1574
  8
L1
  0
POLYLINE
  5
6D
  8
L1
 66
     1
 10
0.0
 20
0.0
 30
0.0
  0
VERTEX
  5
1575
  8
L1
 10
9.592646893908352
 20
124.0209396111437
 30
0.0
  0
VERTEX
  5
1576
  8
L1
 10
9.6814310534908241
 20
123.8141379231906
 30
0.0
  0
VERTEX
  5
1577
  8
L1
 10
9.8926354708276563
 20
123.72720454226661
 30
0.0
  0
SEQEND
  5
1578
  8
L1
  0
LINE
  5
6E
  8
L1
 10
22.376556705694782
 20
117.0126569582977
 30
0.0
 11
22.376556705694782
 21
117.7126569582976
 31
0.0
  0
LINE
  5
6F
  8
L1
 10
25.415493191982989
 20
120.5126569582979
 30
0.0
 11
25.415493191982989
 21
115.9514906420784
 31
0.0
  0
LINE
  5
70
  8
L1
 10
16.206727723628831
 20
115.53666294431341
 30
0.0
 11
20.952550719679088
 21
120.2824859403637
 31
0.0
  0
LINE
  5
71
  8
L1
 10
23.34946480924469
 20
114.0126569582978
 30
0.0
 11
12.076556705694941
 21
114.0126569582978
 31
0.0
  0
POLYLINE
  5
72
  8
L1
 66
     1
 10
0.0
 20
0.0
 30
0.0
  0
VERTEX
  5
1579
  8
L1
 10
11.20945594642677
 20
112.2503528273885
 30
0.0
  0
VERTEX
  5
157A
  8
L1
 10
11.189508673656571
 20
112.2504067511089
 30
0.0
  0
VERTEX
  5
157B
  8
L1
 10
11.169556705694781
 20
112.2505685205236
 30
0.0
  0
SEQEND
  5
157C
  8
L1
  0
ARC
  5
73
  8
L1
 10
25.576556705694831
 20
117.0126569582977
 30
0.0
 40
3.2000000000000282
 50
230.482053315922
 51
270.0
  0
POLYLINE
  5
74
  8
L1
 66
     1
 10
0.0
 20
0.0
 30
0.0
  0
VERTEX
  5
157D
  8
L1
 10
25.415493191982758
 20
115.9514906420784
 30
0.0
  0
VERTEX
  5
157E
  8
L1
 10
25.415493271046721
 20
115.951336592121
 30
0.0
  0
VERTEX
  5
157F
  8
L1
 10
25.415493508238619
 20
115.951182621268
 30
0.0
  0
SEQEND
  5
1580
  8
L1
  0
POLYLINE
  5
75
  8
L1
 66
     1
 10
0.0
 20
0.0
 30
0.0
  0
VERTEX
  5
1581
  8
L1
 10
25.415493508238619
 20
115.9511826212682
 30
0.0
  0
VERTEX
  5
1582
  8
L1
 10
25.503445973921941
 20
115.73954622652499
 30
0.0
  0
VERTEX
  5
1583
  8
L1
 10
25.715082368665261
 20
115.65159376084171
 30
0.0
  0
SEQEND
  5
1584
  8
L1
  0
POLYLINE
  5
76
  8
L1
 66
     1
 10
0.0
 20
0.0
 30
0.0
  0
VERTEX
  5
1585
  8
L1
 10
25.71508236866503
 20
115.65159376084161
 30
0.0
  0
VERTEX
  5
1586
  8
L1
 10
25.715236339518071
 20
115.65159352364979
 30
0.0
  0
VERTEX
  5
1587
  8
L1
 10
25.715390389475541
 20
115.6515934445859
 30
0.0
  0
SEQEND
  5
1588
  8
L1
  0
POLYLINE
  5
77
  8
L1
 66
     1
 10
0.0
 20
0.0
 30
0.0
  0
VERTEX
  5
1589
  8
L1
 10
23.54033307671483
 20
114.5440959740836
 30
0.0
  0
VERTEX
  5
158A
  8
L1
 10
23.542488747415341
 20
114.542300843259
 30
0.0
  0
VERTEX
  5
158B
  8
L1
 10
23.61665606149068
 20
114.4490381446422
 30
0.0
  0
VERTEX
  5
158C
  8
L1
 10
23.6481707904723
 20
114.34035786733421
 30
0.0
  0
VERTEX
  5
158D
  8
L1
 10
23.636096096370292
 20
114.2241183605654
 30
0.0
  0
VERTEX
  5
158E
  8
L1
 10
23.579834075468451
 20
114.1204857423392
 30
0.0
  0
VERTEX
  5
158F
  8
L1
 10
23.491103156118069
 20
114.04819679352541
 30
0.0
  0
VERTEX
  5
1590
  8
L1
 10
23.40125570335368
 20
114.0171610039159
 30
0.0
  0
VERTEX
  5
1591
  8
L1
 10
23.34946480924469
 20
114.0126569582978
 30
0.0
  0
SEQEND
  5
1592
  8
L1
  0
ARC
  5
78
  8
L1
 10
25.576556705694831
 20
117.0126569582977
 30
0.0
 40
3.2000000000000282
 50
180.0
 51
230.482053315922
  0
POLYLINE
  5
79
  8
L1
 66
     1
 10
0.0
 20
0.0
 30
0.0
  0
VERTEX
  5
1593
  8
L1
 10
22.035140734349451
 20
117.3996148268061
 30
0.0
  0
VERTEX
  5
1594
  8
L1
 10
22.137544242995599
 20
117.4543504242172
 30
0.0
  0
VERTEX
  5
1595
  8
L1
 10
22.253096909937138
 20
117.4429658363959
 30
0.0
  0
VERTEX
  5
1596
  8
L1
 10
22.342851685848299
 20
117.3692982409267
 30
0.0
  0
VERTEX
  5
1597
  8
L1
 10
22.376556705694892
 20
117.258177315483
 30
0.0
  0
SEQEND
  5
1598
  8
L1
  0
POLYLINE
  5
7A
  8
L1
 66
     1
 10
0.0
 20
0.0
 30
0.0
  0
VERTEX
  5
1599
  8
L1
 10
19.191104289663429
 20
114.42873572343051
 30
0.0
  0
VERTEX
  5
159A
  8
L1
 10
19.213446588931951
 20
114.54492717152129
 30
0.0
  0
VERTEX
  5
159B
  8
L1
 10
19.27898080173264
 20
114.6434548941893
 30
0.0
  0
SEQEND
  5
159C
  8
L1
  0
POLYLINE
  5
7B
  8
L1
 66
     1
 10
0.0
 20
0.0
 30
0.0
  0
VERTEX
  5
159D
  8
L1
 10
19.191104289663539
 20
114.42873572343051
 30
0.0
  0
VERTEX
  5
159E
  8
L1
 10
19.27803767058748
 20
114.2175313060938
 30
0.0
  0
VERTEX
  5
159F
  8
L1
 10
19.7552439779036
 20
114.0126569582978
 30
0.0
  0
SEQEND
  5
15A0
  8
L1
  0
LINE
  5
7C
  8
L1
 10
22.035140734349451
 20
117.3996148268061
 30
0.0
 11
19.27898080173264
 21
114.6434548941893
 31
0.0
  0
ARC
  5
7D
  8
L1
 10
15.976556705694801
 20
120.5126569582978
 30
0.0
 40
4.981314598045679
 50
357.35159765871231
 51
92.648402341290335
  0
LINE
  5
7E
  8
L1
 10
15.746385687760769
 20
125.4886509722819
 30
0.0
 11
11.00056269171062
 21
120.74282797623179
 31
0.0
  0
ARC
  5
7F
  8
L1
 10
15.976556705694801
 20
120.5126569582979
 30
0.0
 40
9.4389364862881635
 50
0.0
 51
36.689290052442303
  0
POLYLINE
  5
80
  8
L1
 66
     1
 10
0.0
 20
0.0
 30
0.0
  0
VERTEX
  5
15A1
  8
L1
 10
23.556318166856212
 20
126.5242684067494
 30
0.0
  0
VERTEX
  5
15A2
  8
L1
 10
23.545084778338211
 20
126.5100284955779
 30
0.0
  0
VERTEX
  5
15A3
  8
L1
 10
23.494844670643079
 20
126.40326788512191
 30
0.0
  0
VERTEX
  5
15A4
  8
L1
 10
23.489383031508218
 20
126.2871591009789
 30
0.0
  0
VERTEX
  5
15A5
  8
L1
 10
23.526547434139101
 20
126.18096792314959
 30
0.0
  0
VERTEX
  5
15A6
  8
L1
 10
23.54552038303887
 20
126.1521880419279
 30
0.0
  0
SEQEND
  5
15A7
  8
L1
  0
LINE
  5
81
  8
L1
 10
25.415493191982989
 20
120.5126569582979
 30
0.0
 11
25.415493191982989
 21
124.5515934445859
 31
0.0
  0
LINE
  5
82
  8
L1
 10
22.376556705694782
 20
117.7126569582975
 30
0.0
 11
22.376556705694782
 21
120.5126569582975
 31
0.0
  0
POLYLINE
  5
83
  8
L1
 66
     1
 10
0.0
 20
0.0
 30
0.0
  0
VERTEX
  5
15A8
  8
L1
 10
9.4765567056948044
 20
127.8855650618476
 30
0.0
  0
VERTEX
  5
15A9
  8
L1
 10
9.4767839039409978
 20
127.8972388317486
 30
0.0
  0
VERTEX
  5
15AA
  8
L1
 10
9.5045918377098246
 20
128.01219708440371
 30
0.0
  0
VERTEX
  5
15AB
  8
L1
 10
9.5743559556188416
 20
128.1071837563849
 30
0.0
  0
VERTEX
  5
15AC
  8
L1
 10
9.6628919796884816
 20
128.16319393634791
 30
0.0
  0
VERTEX
  5
15AD
  8
L1
 10
9.7514634884760767
 20
128.18450424133371
 30
0.0
  0
VERTEX
  5
15AE
  8
L1
 10
9.8385130948500432
 20
128.1790836121491
 30
0.0
  0
VERTEX
  5
15AF
  8
L1
 10
9.9288676739714106
 20
128.14400752418959
 30
0.0
  0
VERTEX
  5
15B0
  8
L1
 10
10.007995721480651
 20
128.07643332931769
 30
0.0
  0
SEQEND
  5
15B1
  8
L1
  0
ARC
  5
84
  8
L1
 10
12.476556705694801
 20
130.11265695829769
 30
0.0
 40
3.200000000000113
 50
180.0
 51
219.51794668407621
  0
LINE
  5
85
  8
L1
 10
20.015493191982891
 20
129.95159344458591
 30
0.0
 11
15.976556705694801
 21
129.95159344458591
 31
0.0
  0
ARC
  5
86
  8
L1
 10
15.976556705694801
 20
120.5126569582979
 30
0.0
 40
9.4389364862881635
 50
53.310709947555509
 51
90.0
  0
LINE
  5
87
  8
L1
 10
13.176556705694731
 20
126.9126569582975
 30
0.0
 11
12.476556705694801
 21
126.9126569582975
 31
0.0
  0
LINE
  5
88
  8
L1
 10
15.976556705694801
 20
126.9126569582975
 30
0.0
 11
13.176556705694731
 21
126.9126569582975
 31
0.0
  0
LINE
  5
89
  8
L1
 10
11.41539038947559
 20
129.95159344458591
 30
0.0
 11
15.976556705694801
 21
129.95159344458591
 31
0.0
  0
POLYLINE
  5
8A
  8
L1
 66
     1
 10
0.0
 20
0.0
 30
0.0
  0
VERTEX
  5
15B2
  8
L1
 10
11.415082368665081
 20
129.9515937608416
 30
0.0
  0
VERTEX
  5
15B3
  8
L1
 10
11.41523633951811
 20
129.95159352364979
 30
0.0
  0
VERTEX
  5
15B4
  8
L1
 10
11.41539038947559
 20
129.95159344458591
 30
0.0
  0
SEQEND
  5
15B5
  8
L1
  0
POLYLINE
  5
8B
  8
L1
 66
     1
 10
0.0
 20
0.0
 30
0.0
  0
VERTEX
  5
15B6
  8
L1
 10
11.115493191983029
 20
130.25149064207861
 30
0.0
  0
VERTEX
  5
15B7
  8
L1
 10
11.115493271047001
 20
130.25133659212119
 30
0.0
  0
VERTEX
  5
15B8
  8
L1
 10
11.11549350823878
 20
130.25118262126821
 30
0.0
  0
SEQEND
  5
15B9
  8
L1
  0
POLYLINE
  5
8C
  8
L1
 66
     1
 10
0.0
 20
0.0
 30
0.0
  0
VERTEX
  5
15BA
  8
L1
 10
11.11549350823889
 20
130.2511826212683
 30
0.0
  0
VERTEX
  5
15BB
  8
L1
 10
11.203445973922101
 20
130.03954622652509
 30
0.0
  0
VERTEX
  5
15BC
  8
L1
 10
11.41508236866531
 20
129.9515937608418
 30
0.0
  0
SEQEND
  5
15BD
  8
L1
  0
POLYLINE
  5
8D
  8
L1
 66
     1
 10
0.0
 20
0.0
 30
0.0
  0
VERTEX
  5
15BE
  8
L1
 10
21.61608778932515
 20
128.08162063564171
 30
0.0
  0
VERTEX
  5
15BF
  8
L1
 10
21.66136562034313
 20
128.0537609116368
 30
0.0
  0
VERTEX
  5
15C0
  8
L1
 10
21.74994718498175
 20
128.025651123366
 30
0.0
  0
VERTEX
  5
15C1
  8
L1
 10
21.835576339240841
 20
128.02492364521581
 30
0.0
  0
VERTEX
  5
15C2
  8
L1
 10
21.923912662097159
 20
128.0511782809682
 30
0.0
  0
VERTEX
  5
15C3
  8
L1
 10
21.988168154146528
 20
128.09241841945911
 30
0.0
  0
SEQEND
  5
15C4
  8
L1
  0
ARC
  5
8E
  8
L1
 10
23.98857998849331
 20
127.50613513368479
 30
0.0
 40
0.3
 50
320.0
 51
45.0
  0
ARC
  5
8F
  8
L1
 10
22.970034881082078
 20
128.52468024109621
 30
0.0
 40
0.3
 50
45.0
 51
130.00000000000199
  0
LINE
  5
90
  8
L1
 10
23.18216691543801
 20
128.73681227545211
 30
0.0
 11
24.200712022849348
 21
127.7182671680407
 31
0.0
  0
LINE
  5
91
  8
L1
 10
21.988168154146528
 20
128.09241841945911
 30
0.0
 11
22.777198598176081
 21
128.7544935740319
 31
0.0
  0
LINE
  5
92
  8
L1
 10
10.107354641586481
 20
230.71023286225969
 30
0.0
 11
12.86351457420283
 21
227.9540729296433
 31
0.0
  0
ARC
  5
93
  8
L1
 10
12.476556705694801
 20
224.41265695829779
 30
0.0
 40
3.200000000000113
 50
90.0
 51
140.48205331592371
  0
POLYLINE
  5
94
  8
L1
 66
     1
 10
0.0
 20
0.0
 30
0.0
  0
VERTEX
  5
15C5
  8
L1
 10
9.4765567056948044
 20
226.63974885474781
 30
0.0
  0
VERTEX
  5
15C6
  8
L1
 10
9.4767839039409978
 20
226.6280750848469
 30
0.0
  0
VERTEX
  5
15C7
  8
L1
 10
9.5045918377098246
 20
226.51311683219171
 30
0.0
  0
VERTEX
  5
15C8
  8
L1
 10
9.5743559556188416
 20
226.41813016021061
 30
0.0
  0
VERTEX
  5
15C9
  8
L1
 10
9.6628919796884816
 20
226.3621199802476
 30
0.0
  0
VERTEX
  5
15CA
  8
L1
 10
9.7514634884760767
 20
226.3408096752618
 30
0.0
  0
VERTEX
  5
15CB
  8
L1
 10
9.8385130948500432
 20
226.34623030444641
 30
0.0
  0
VERTEX
  5
15CC
  8
L1
 10
9.9288676739714106
 20
226.38130639240589
 30
0.0
  0
VERTEX
  5
15CD
  8
L1
 10
10.007995721480651
 20
226.4488805872777
 30
0.0
  0
SEQEND
  5
15CE
  8
L1
  0
ARC
  5
95
  8
L1
 10
12.476556705694801
 20
224.41265695829779
 30
0.0
 40
3.200000000000113
 50
140.48205331592371
 51
180.0
  0
POLYLINE
  5
96
  8
L1
 66
     1
 10
0.0
 20
0.0
 30
0.0
  0
VERTEX
  5
15CF
  8
L1
 10
9.592646893908352
 20
230.50437430545171
 30
0.0
  0
VERTEX
  5
15D0
  8
L1
 10
9.6814310534908241
 20
230.71117599340491
 30
0.0
  0
VERTEX
  5
15D1
  8
L1
 10
9.8926354708276563
 20
230.79810937432879
 30
0.0
  0
SEQEND
  5
15D2
  8
L1
  0
POLYLINE
  5
97
  8
L1
 66
     1
 10
0.0
 20
0.0
 30
0.0
  0
VERTEX
  5
15D3
  8
L1
 10
10.107354641586481
 20
230.71023286225969
 30
0.0
  0
VERTEX
  5
15D4
  8
L1
 10
10.00882691891848
 20
230.7757670750604
 30
0.0
  0
VERTEX
  5
15D5
  8
L1
 10
9.8926354708276563
 20
230.79810937432879
 30
0.0
  0
SEQEND
  5
15D6
  8
L1
  0
ARC
  5
98
  8
L1
 10
15.976556705694801
 20
234.01265695829761
 30
0.0
 40
9.4389364862881635
 50
323.31070994755771
 51
0.0
  0
ARC
  5
99
  8
L1
 10
15.976556705694801
 20
234.0126569582977
 30
0.0
 40
4.981314598045679
 50
267.35159765870958
 51
2.648402341287694
  0
ARC
  5
9A
  8
L1
 10
15.976556705694801
 20
234.01265695829781
 30
0.0
 40
6.3999999999999941
 50
270.0
 51
0.0
  0
ARC
  5
9B
  8
L1
 10
20.015493191982891
 20
229.97372047200949
 30
0.0
 40
5.3999999999999986
 50
270.0
 51
0.0
  0
LINE
  5
9C
  8
L1
 10
20.015493191982891
 20
224.5737204720096
 30
0.0
 11
15.976556705694801
 21
224.5737204720096
 31
0.0
  0
ARC
  5
9D
  8
L1
 10
15.976556705694801
 20
234.01265695829761
 30
0.0
 40
9.4389364862881635
 50
270.0
 51
306.68929005244439
  0
POLYLINE
  5
9E
  8
L1
 66
     1
 10
0.0
 20
0.0
 30
0.0
  0
VERTEX
  5
15D7
  8
L1
 10
12.72207706287969
 20
227.61265695829789
 30
0.0
  0
VERTEX
  5
15D8
  8
L1
 10
12.83319798832343
 20
227.6463619781444
 30
0.0
  0
VERTEX
  5
15D9
  8
L1
 10
12.90686558379258
 20
227.7361167540555
 30
0.0
  0
VERTEX
  5
15DA
  8
L1
 10
12.91825017161392
 20
227.8516694209971
 30
0.0
  0
VERTEX
  5
15DB
  8
L1
 10
12.86351457420283
 20
227.9540729296433
 30
0.0
  0
SEQEND
  5
15DC
  8
L1
  0
LINE
  5
9F
  8
L1
 10
15.976556705694801
 20
227.61265695829789
 30
0.0
 11
13.176556705694731
 21
227.61265695829789
 31
0.0
  0
LINE
  5
A0
  8
L1
 10
13.176556705694731
 20
227.61265695829789
 30
0.0
 11
12.476556705694801
 21
227.61265695829789
 31
0.0
  0
POLYLINE
  5
A1
  8
L1
 66
     1
 10
0.0
 20
0.0
 30
0.0
  0
VERTEX
  5
15DD
  8
L1
 10
11.415082368665081
 20
224.57372015575379
 30
0.0
  0
VERTEX
  5
15DE
  8
L1
 10
11.41523633951811
 20
224.57372039294569
 30
0.0
  0
VERTEX
  5
15DF
  8
L1
 10
11.41539038947559
 20
224.5737204720096
 30
0.0
  0
SEQEND
  5
15E0
  8
L1
  0
POLYLINE
  5
A2
  8
L1
 66
     1
 10
0.0
 20
0.0
 30
0.0
  0
VERTEX
  5
15E1
  8
L1
 10
11.11549350823889
 20
224.27413129532709
 30
0.0
  0
VERTEX
  5
15E2
  8
L1
 10
11.203445973922101
 20
224.48576769007039
 30
0.0
  0
VERTEX
  5
15E3
  8
L1
 10
11.41508236866531
 20
224.57372015575359
 30
0.0
  0
SEQEND
  5
15E4
  8
L1
  0
POLYLINE
  5
A3
  8
L1
 66
     1
 10
0.0
 20
0.0
 30
0.0
  0
VERTEX
  5
15E5
  8
L1
 10
11.115493191983029
 20
224.2738232745169
 30
0.0
  0
VERTEX
  5
15E6
  8
L1
 10
11.115493271047001
 20
224.27397732447429
 30
0.0
  0
VERTEX
  5
15E7
  8
L1
 10
11.11549350823878
 20
224.27413129532729
 30
0.0
  0
SEQEND
  5
15E8
  8
L1
  0
LINE
  5
A4
  8
L1
 10
11.41539038947559
 20
224.5737204720096
 30
0.0
 11
15.976556705694801
 21
224.5737204720096
 31
0.0
  0
ARC
  5
A5
  8
L1
 10
23.98857998849331
 20
227.0191787829107
 30
0.0
 40
0.3
 50
315.0
 51
39.999999999999957
  0
LINE
  5
A6
  8
L1
 10
24.218393321429001
 20
227.21201506581659
 30
0.0
 11
23.556318166856212
 21
228.00104550984611
 31
0.0
  0
POLYLINE
  5
A7
  8
L1
 66
     1
 10
0.0
 20
0.0
 30
0.0
  0
VERTEX
  5
15E9
  8
L1
 10
21.61608778932515
 20
226.44369328095371
 30
0.0
  0
VERTEX
  5
15EA
  8
L1
 10
21.66136562034313
 20
226.47155300495871
 30
0.0
  0
VERTEX
  5
15EB
  8
L1
 10
21.74994718498175
 20
226.4996627932295
 30
0.0
  0
VERTEX
  5
15EC
  8
L1
 10
21.835576339240841
 20
226.5003902713797
 30
0.0
  0
VERTEX
  5
15ED
  8
L1
 10
21.923912662097159
 20
226.47413563562731
 30
0.0
  0
VERTEX
  5
15EE
  8
L1
 10
21.988168154146528
 20
226.4328954971364
 30
0.0
  0
SEQEND
  5
15EF
  8
L1
  0
POLYLINE
  5
A8
  8
L1
 66
     1
 10
0.0
 20
0.0
 30
0.0
  0
VERTEX
  5
15F0
  8
L1
 10
23.556318166856212
 20
228.00104550984611
 30
0.0
  0
VERTEX
  5
15F1
  8
L1
 10
23.545084778338211
 20
228.01528542101761
 30
0.0
  0
VERTEX
  5
15F2
  8
L1
 10
23.494844670643079
 20
228.12204603147359
 30
0.0
  0
VERTEX
  5
15F3
  8
L1
 10
23.489383031508218
 20
228.23815481561661
 30
0.0
  0
VERTEX
  5
15F4
  8
L1
 10
23.526547434139101
 20
228.3443459934459
 30
0.0
  0
VERTEX
  5
15F5
  8
L1
 10
23.54552038303887
 20
228.37312587466761
 30
0.0
  0
SEQEND
  5
15F6
  8
L1
  0
ARC
  5
A9
  8
L1
 10
22.970034881082078
 20
226.0006336754993
 30
0.0
 40
0.3
 50
229.99999999999801
 51
315.0
  0
LINE
  5
AA
  8
L1
 10
21.988168154146528
 20
226.4328954971364
 30
0.0
 11
22.777198598176081
 21
225.77082034256361
 31
0.0
  0
LINE
  5
AB
  8
L1
 10
23.18216691543801
 20
225.78850164114331
 30
0.0
 11
24.200712022849348
 21
226.80704674855471
 31
0.0
  0
LINE
  5
AC
  8
L1
 10
15.746385687760769
 20
229.0366629443136
 30
0.0
 11
11.00056269171062
 21
233.7824859403637
 31
0.0
  0
POLYLINE
  5
AD
  8
L1
 66
     1
 10
0.0
 20
0.0
 30
0.0
  0
VERTEX
  5
15F7
  8
L1
 10
22.035140734349451
 20
237.12569908978929
 30
0.0
  0
VERTEX
  5
15F8
  8
L1
 10
22.137544242995599
 20
237.0709634923783
 30
0.0
  0
VERTEX
  5
15F9
  8
L1
 10
22.253096909937138
 20
237.08234808019961
 30
0.0
  0
VERTEX
  5
15FA
  8
L1
 10
22.342851685848299
 20
237.1560156756687
 30
0.0
  0
VERTEX
  5
15FB
  8
L1
 10
22.376556705694892
 20
237.2671366011125
 30
0.0
  0
SEQEND
  5
15FC
  8
L1
  0
LINE
  5
AE
  8
L1
 10
22.376556705694782
 20
237.51265695829781
 30
0.0
 11
22.376556705694782
 21
236.81265695829791
 31
0.0
  0
LINE
  5
AF
  8
L1
 10
25.415493191982989
 20
234.01265695829761
 30
0.0
 11
25.415493191982989
 21
229.9737204720096
 31
0.0
  0
LINE
  5
B0
  8
L1
 10
22.376556705694782
 20
236.81265695829799
 30
0.0
 11
22.376556705694782
 21
234.01265695829801
 31
0.0
  0
LINE
  5
CE
  8
L1
 10
186.17655670569491
 20
224.41265695829779
 30
0.0
 11
186.17655670569491
 21
130.11265695829789
 31
0.0
  0
LINE
  5
CF
  8
L1
 10
184.3376202194066
 20
130.25149064207861
 30
0.0
 11
184.3376202194066
 21
224.2738232745169
 31
0.0
  0
POLYLINE
  5
D0
  8
L1
 66
     1
 10
0.0
 20
0.0
 30
0.0
  0
VERTEX
  5
15FD
  8
L1
 10
182.7310363485098
 20
126.9126569582976
 30
0.0
  0
VERTEX
  5
15FE
  8
L1
 10
182.61991542306609
 20
126.878951938451
 30
0.0
  0
VERTEX
  5
15FF
  8
L1
 10
182.54624782759689
 20
126.78919716254001
 30
0.0
  0
VERTEX
  5
1600
  8
L1
 10
182.5348632397756
 20
126.6736444955983
 30
0.0
  0
VERTEX
  5
1601
  8
L1
 10
182.58959883718671
 20
126.5712409869522
 30
0.0
  0
SEQEND
  5
1602
  8
L1
  0
ARC
  5
D1
  8
L1
 10
182.9765567056948
 20
130.11265695829769
 30
0.0
 40
3.200000000000113
 50
270.0
 51
320.48205331592368
  0
LINE
  5
D2
  8
L1
 10
171.23472008996049
 20
127.31329885077881
 30
0.0
 11
171.89679524453339
 21
126.5242684067494
 31
0.0
  0
LINE
  5
D3
  8
L1
 10
185.97655670569469
 20
116.6126569582978
 30
0.0
 11
185.97655670569469
 21
127.8855650618476
 31
0.0
  0
ARC
  5
D4
  8
L1
 10
179.4765567056948
 20
120.5126569582976
 30
0.0
 40
6.3999999999999941
 50
90.0
 51
180.0
  0
ARC
  5
D5
  8
L1
 10
175.4376202194066
 20
124.5515934445859
 30
0.0
 40
5.3999999999999986
 50
90.0
 51
180.0
  0
LINE
  5
D6
  8
L1
 10
173.4179726770401
 20
117.3996148268061
 30
0.0
 11
176.17413260965691
 21
114.6434548941893
 31
0.0
  0
LINE
  5
D7
  8
L1
 10
172.10364860214489
 20
114.0126569582978
 30
0.0
 11
183.3765567056947
 21
114.0126569582978
 31
0.0
  0
ARC
  5
D8
  8
L1
 10
179.4765567056948
 20
120.5126569582978
 30
0.0
 40
4.981314598045679
 50
87.351597658709665
 51
182.64840234128761
  0
LINE
  5
D9
  8
L1
 10
179.24638568776081
 20
115.53666294431341
 30
0.0
 11
174.50056269171051
 21
120.2824859403637
 31
0.0
  0
LINE
  5
DA
  8
L1
 10
173.0765567056948
 20
117.0126569582977
 30
0.0
 11
173.0765567056948
 21
117.7126569582976
 31
0.0
  0
LINE
  5
DB
  8
L1
 10
170.03762021940659
 20
120.5126569582979
 30
0.0
 11
170.03762021940659
 21
115.9514906420784
 31
0.0
  0
POLYLINE
  5
DC
  8
L1
 66
     1
 10
0.0
 20
0.0
 30
0.0
  0
VERTEX
  5
1603
  8
L1
 10
173.4179726770401
 20
117.3996148268061
 30
0.0
  0
VERTEX
  5
1604
  8
L1
 10
173.31556916839401
 20
117.4543504242172
 30
0.0
  0
VERTEX
  5
1605
  8
L1
 10
173.20001650145241
 20
117.4429658363959
 30
0.0
  0
VERTEX
  5
1606
  8
L1
 10
173.11026172554131
 20
117.3692982409267
 30
0.0
  0
VERTEX
  5
1607
  8
L1
 10
173.07655670569471
 20
117.258177315483
 30
0.0
  0
SEQEND
  5
1608
  8
L1
  0
ARC
  5
DD
  8
L1
 10
169.8765567056947
 20
117.0126569582977
 30
0.0
 40
3.2000000000000282
 50
309.51794668407791
 51
0.0
  0
POLYLINE
  5
DE
  8
L1
 66
     1
 10
0.0
 20
0.0
 30
0.0
  0
VERTEX
  5
1609
  8
L1
 10
171.91278033467469
 20
114.5440959740836
 30
0.0
  0
VERTEX
  5
160A
  8
L1
 10
171.91062466397429
 20
114.542300843259
 30
0.0
  0
VERTEX
  5
160B
  8
L1
 10
171.83645734989881
 20
114.4490381446422
 30
0.0
  0
VERTEX
  5
160C
  8
L1
 10
171.8049426209173
 20
114.34035786733421
 30
0.0
  0
VERTEX
  5
160D
  8
L1
 10
171.81701731501931
 20
114.2241183605654
 30
0.0
  0
VERTEX
  5
160E
  8
L1
 10
171.87327933592101
 20
114.1204857423392
 30
0.0
  0
VERTEX
  5
160F
  8
L1
 10
171.96201025527151
 20
114.04819679352541
 30
0.0
  0
VERTEX
  5
1610
  8
L1
 10
172.0518577080359
 20
114.0171610039159
 30
0.0
  0
VERTEX
  5
1611
  8
L1
 10
172.10364860214489
 20
114.0126569582978
 30
0.0
  0
SEQEND
  5
1612
  8
L1
  0
POLYLINE
  5
DF
  8
L1
 66
     1
 10
0.0
 20
0.0
 30
0.0
  0
VERTEX
  5
1613
  8
L1
 10
169.73803104272449
 20
115.65159376084161
 30
0.0
  0
VERTEX
  5
1614
  8
L1
 10
169.73787707187159
 20
115.65159352364979
 30
0.0
  0
VERTEX
  5
1615
  8
L1
 10
169.73772302191409
 20
115.6515934445859
 30
0.0
  0
SEQEND
  5
1616
  8
L1
  0
POLYLINE
  5
E0
  8
L1
 66
     1
 10
0.0
 20
0.0
 30
0.0
  0
VERTEX
  5
1617
  8
L1
 10
170.0376199031509
 20
115.9511826212682
 30
0.0
  0
VERTEX
  5
1618
  8
L1
 10
169.94966743746761
 20
115.73954622652499
 30
0.0
  0
VERTEX
  5
1619
  8
L1
 10
169.73803104272429
 20
115.65159376084171
 30
0.0
  0
SEQEND
  5
161A
  8
L1
  0
POLYLINE
  5
E1
  8
L1
 66
     1
 10
0.0
 20
0.0
 30
0.0
  0
VERTEX
  5
161B
  8
L1
 10
170.03762021940679
 20
115.9514906420784
 30
0.0
  0
VERTEX
  5
161C
  8
L1
 10
170.0376201403428
 20
115.951336592121
 30
0.0
  0
VERTEX
  5
161D
  8
L1
 10
170.03761990315101
 20
115.951182621268
 30
0.0
  0
SEQEND
  5
161E
  8
L1
  0
ARC
  5
E2
  8
L1
 10
169.8765567056947
 20
117.0126569582977
 30
0.0
 40
3.2000000000000282
 50
270.0
 51
309.51794668407791
  0
LINE
  5
E3
  8
L1
 10
170.03762021940659
 20
120.5126569582979
 30
0.0
 11
170.03762021940659
 21
124.5515934445859
 31
0.0
  0
POLYLINE
  5
E4
  8
L1
 66
     1
 10
0.0
 20
0.0
 30
0.0
  0
VERTEX
  5
161F
  8
L1
 10
171.89679524453339
 20
126.5242684067494
 30
0.0
  0
VERTEX
  5
1620
  8
L1
 10
171.90802863305129
 20
126.5100284955779
 30
0.0
  0
VERTEX
  5
1621
  8
L1
 10
171.95826874074641
 20
126.40326788512191
 30
0.0
  0
VERTEX
  5
1622
  8
L1
 10
171.96373037988141
 20
126.2871591009789
 30
0.0
  0
VERTEX
  5
1623
  8
L1
 10
171.9265659772505
 20
126.18096792314959
 30
0.0
  0
VERTEX
  5
1624
  8
L1
 10
171.9075930283507
 20
126.1521880419279
 30
0.0
  0
SEQEND
  5
1625
  8
L1
  0
ARC
  5
E5
  8
L1
 10
179.4765567056948
 20
120.5126569582979
 30
0.0
 40
9.4389364862881635
 50
143.3107099475576
 51
180.0
  0
LINE
  5
E6
  8
L1
 10
173.0765567056948
 20
117.7126569582975
 30
0.0
 11
173.0765567056948
 21
120.5126569582975
 31
0.0
  0
ARC
  5
E7
  8
L1
 10
179.4765567056948
 20
120.5126569582978
 30
0.0
 40
4.981314598045679
 50
267.35159765871219
 51
2.6484023412893221
  0
ARC
  5
E8
  8
L1
 10
183.3765567056947
 20
116.6126569582978
 30
0.0
 40
2.6000000000000001
 50
270.0
 51
0.0
  0
POLYLINE
  5
E9
  8
L1
 66
     1
 10
0.0
 20
0.0
 30
0.0
  0
VERTEX
  5
1626
  8
L1
 10
176.26200912172601
 20
114.42873572343051
 30
0.0
  0
VERTEX
  5
1627
  8
L1
 10
176.1750757408021
 20
114.2175313060938
 30
0.0
  0
VERTEX
  5
1628
  8
L1
 10
175.69786943348589
 20
114.0126569582978
 30
0.0
  0
SEQEND
  5
1629
  8
L1
  0
POLYLINE
  5
EA
  8
L1
 66
     1
 10
0.0
 20
0.0
 30
0.0
  0
VERTEX
  5
162A
  8
L1
 10
176.26200912172609
 20
114.42873572343051
 30
0.0
  0
VERTEX
  5
162B
  8
L1
 10
176.23966682245759
 20
114.54492717152129
 30
0.0
  0
VERTEX
  5
162C
  8
L1
 10
176.17413260965691
 20
114.6434548941893
 30
0.0
  0
SEQEND
  5
162D
  8
L1
  0
POLYLINE
  5
EB
  8
L1
 66
     1
 10
0.0
 20
0.0
 30
0.0
  0
VERTEX
  5
162E
  8
L1
 10
184.24365746496281
 20
112.2503528273885
 30
0.0
  0
VERTEX
  5
162F
  8
L1
 10
184.26360473773289
 20
112.2504067511089
 30
0.0
  0
VERTEX
  5
1630
  8
L1
 10
184.28355670569471
 20
112.2505685205236
 30
0.0
  0
SEQEND
  5
1631
  8
L1
  0
POLYLINE
  5
EC
  8
L1
 66
     1
 10
0.0
 20
0.0
 30
0.0
  0
VERTEX
  5
1632
  8
L1
 10
184.28355670569471
 20
112.2505685205236
 30
0.0
  0
VERTEX
  5
1633
  8
L1
 10
184.94534430814019
 20
112.3209425681833
 30
0.0
  0
VERTEX
  5
1634
  8
L1
 10
185.60032909193581
 20
112.5230719562952
 30
0.0
  0
VERTEX
  5
1635
  8
L1
 10
186.2031759365909
 20
112.8492162081116
 30
0.0
  0
VERTEX
  5
1636
  8
L1
 10
186.7164858247684
 20
113.2727278392241
 30
0.0
  0
VERTEX
  5
1637
  8
L1
 10
187.1399974558808
 20
113.78603772740171
 30
0.0
  0
VERTEX
  5
1638
  8
L1
 10
187.46614170769709
 20
114.3888845720567
 30
0.0
  0
VERTEX
  5
1639
  8
L1
 10
187.66827109580899
 20
115.04386935585239
 30
0.0
  0
VERTEX
  5
163A
  8
L1
 10
187.7386451434688
 20
115.70565695829769
 30
0.0
  0
SEQEND
  5
163B
  8
L1
  0
POLYLINE
  5
ED
  8
L1
 66
     1
 10
0.0
 20
0.0
 30
0.0
  0
VERTEX
  5
163C
  8
L1
 10
187.73864514346889
 20
115.70565695829769
 30
0.0
  0
VERTEX
  5
163D
  8
L1
 10
187.73880691288349
 20
115.7256089262594
 30
0.0
  0
VERTEX
  5
163E
  8
L1
 10
187.73886083660389
 20
115.74555619902949
 30
0.0
  0
SEQEND
  5
163F
  8
L1
  0
ARC
  5
EE
  8
L1
 10
184.28355670569471
 20
115.70565695829769
 30
0.0
 40
2.736024100224733
 50
270.0
 51
0.0
  0
LINE
  5
EF
  8
L1
 10
179.70672772362889
 20
125.4886509722819
 30
0.0
 11
184.4525507196789
 21
120.74282797623179
 31
0.0
  0
LINE
  5
F0
  8
L1
 10
185.34575876980301
 20
123.81508105433581
 30
0.0
 11
182.58959883718671
 21
126.5712409869522
 31
0.0
  0
POLYLINE
  5
F1
  8
L1
 66
     1
 10
0.0
 20
0.0
 30
0.0
  0
VERTEX
  5
1640
  8
L1
 10
185.8604665174812
 20
124.0209396111437
 30
0.0
  0
VERTEX
  5
1641
  8
L1
 10
185.7716823578987
 20
123.8141379231906
 30
0.0
  0
VERTEX
  5
1642
  8
L1
 10
185.56047794056201
 20
123.72720454226661
 30
0.0
  0
SEQEND
  5
1643
  8
L1
  0
POLYLINE
  5
F2
  8
L1
 66
     1
 10
0.0
 20
0.0
 30
0.0
  0
VERTEX
  5
1644
  8
L1
 10
185.34575876980301
 20
123.81508105433581
 30
0.0
  0
VERTEX
  5
1645
  8
L1
 10
185.44428649247109
 20
123.74954684153499
 30
0.0
  0
VERTEX
  5
1646
  8
L1
 10
185.56047794056201
 20
123.72720454226661
 30
0.0
  0
SEQEND
  5
1647
  8
L1
  0
ARC
  5
F3
  8
L1
 10
179.4765567056948
 20
120.5126569582979
 30
0.0
 40
9.4389364862881635
 50
90.0
 51
126.68929005244441
  0
ARC
  5
F4
  8
L1
 10
171.46453342289621
 20
127.50613513368479
 30
0.0
 40
0.3
 50
135.0
 51
219.99999999999989
  0
POLYLINE
  5
F5
  8
L1
 66
     1
 10
0.0
 20
0.0
 30
0.0
  0
VERTEX
  5
1648
  8
L1
 10
173.83702562206449
 20
128.08162063564171
 30
0.0
  0
VERTEX
  5
1649
  8
L1
 10
173.7917477910465
 20
128.0537609116368
 30
0.0
  0
VERTEX
  5
164A
  8
L1
 10
173.70316622640789
 20
128.025651123366
 30
0.0
  0
VERTEX
  5
164B
  8
L1
 10
173.61753707214871
 20
128.02492364521581
 30
0.0
  0
VERTEX
  5
164C
  8
L1
 10
173.52920074929239
 20
128.0511782809682
 30
0.0
  0
VERTEX
  5
164D
  8
L1
 10
173.46494525724299
 20
128.09241841945911
 30
0.0
  0
SEQEND
  5
164E
  8
L1
  0
ARC
  5
F6
  8
L1
 10
172.48307853030749
 20
128.52468024109621
 30
0.0
 40
0.3
 50
49.99999999999801
 51
135.0
  0
LINE
  5
F7
  8
L1
 10
173.46494525724299
 20
128.09241841945911
 30
0.0
 11
172.6759148132135
 21
128.7544935740319
 31
0.0
  0
LINE
  5
F8
  8
L1
 10
172.27094649595159
 20
128.73681227545211
 30
0.0
 11
171.25240138854019
 21
127.7182671680407
 31
0.0
  0
LINE
  5
F9
  8
L1
 10
184.03772302191391
 20
129.95159344458591
 30
0.0
 11
179.4765567056948
 21
129.95159344458591
 31
0.0
  0
LINE
  5
FA
  8
L1
 10
179.4765567056948
 20
126.9126569582975
 30
0.0
 11
182.27655670569479
 21
126.9126569582975
 31
0.0
  0
LINE
  5
FB
  8
L1
 10
182.27655670569479
 20
126.9126569582975
 30
0.0
 11
182.9765567056948
 21
126.9126569582975
 31
0.0
  0
LINE
  5
FC
  8
L1
 10
175.4376202194066
 20
129.95159344458591
 30
0.0
 11
179.4765567056948
 21
129.95159344458591
 31
0.0
  0
POLYLINE
  5
FD
  8
L1
 66
     1
 10
0.0
 20
0.0
 30
0.0
  0
VERTEX
  5
164F
  8
L1
 10
185.97655670569469
 20
127.8855650618476
 30
0.0
  0
VERTEX
  5
1650
  8
L1
 10
185.97632950744861
 20
127.8972388317486
 30
0.0
  0
VERTEX
  5
1651
  8
L1
 10
185.94852157367981
 20
128.01219708440371
 30
0.0
  0
VERTEX
  5
1652
  8
L1
 10
185.87875745577071
 20
128.1071837563849
 30
0.0
  0
VERTEX
  5
1653
  8
L1
 10
185.7902214317011
 20
128.16319393634791
 30
0.0
  0
VERTEX
  5
1654
  8
L1
 10
185.70164992291359
 20
128.18450424133371
 30
0.0
  0
VERTEX
  5
1655
  8
L1
 10
185.61460031653951
 20
128.1790836121491
 30
0.0
  0
VERTEX
  5
1656
  8
L1
 10
185.5242457374182
 20
128.14400752418959
 30
0.0
  0
VERTEX
  5
1657
  8
L1
 10
185.4451176899089
 20
128.07643332931769
 30
0.0
  0
SEQEND
  5
1658
  8
L1
  0
POLYLINE
  5
FE
  8
L1
 66
     1
 10
0.0
 20
0.0
 30
0.0
  0
VERTEX
  5
1659
  8
L1
 10
184.0380310427245
 20
129.9515937608416
 30
0.0
  0
VERTEX
  5
165A
  8
L1
 10
184.03787707187149
 20
129.95159352364979
 30
0.0
  0
VERTEX
  5
165B
  8
L1
 10
184.03772302191391
 20
129.95159344458591
 30
0.0
  0
SEQEND
  5
165C
  8
L1
  0
POLYLINE
  5
FF
  8
L1
 66
     1
 10
0.0
 20
0.0
 30
0.0
  0
VERTEX
  5
165D
  8
L1
 10
184.33761990315071
 20
130.2511826212683
 30
0.0
  0
VERTEX
  5
165E
  8
L1
 10
184.24966743746751
 20
130.03954622652509
 30
0.0
  0
VERTEX
  5
165F
  8
L1
 10
184.03803104272421
 20
129.9515937608418
 30
0.0
  0
SEQEND
  5
1660
  8
L1
  0
POLYLINE
  5
100
  8
L1
 66
     1
 10
0.0
 20
0.0
 30
0.0
  0
VERTEX
  5
1661
  8
L1
 10
184.33762021940649
 20
130.25149064207861
 30
0.0
  0
VERTEX
  5
1662
  8
L1
 10
184.33762014034261
 20
130.25133659212119
 30
0.0
  0
VERTEX
  5
1663
  8
L1
 10
184.3376199031508
 20
130.25118262126821
 30
0.0
  0
SEQEND
  5
1664
  8
L1
  0
ARC
  5
101
  8
L1
 10
182.9765567056948
 20
130.11265695829769
 30
0.0
 40
3.200000000000113
 50
320.48205331592368
 51
0.0
  0
ARC
  5
11D
  8
L1
 10
179.4765567056948
 20
234.01265695829761
 30
0.0
 40
9.4389364862881635
 50
233.31070994755541
 51
270.0
  0
ARC
  5
11E
  8
L1
 10
175.4376202194066
 20
229.97372047200949
 30
0.0
 40
5.3999999999999986
 50
180.0
 51
270.0
  0
ARC
  5
11F
  8
L1
 10
179.4765567056948
 20
234.01265695829781
 30
0.0
 40
6.3999999999999941
 50
180.0
 51
270.0
  0
ARC
  5
120
  8
L1
 10
179.4765567056948
 20
234.0126569582977
 30
0.0
 40
4.981314598045679
 50
177.35159765871231
 51
272.64840234129031
  0
ARC
  5
121
  8
L1
 10
179.4765567056948
 20
234.01265695829761
 30
0.0
 40
9.4389364862881635
 50
180.0
 51
216.6892900524422
  0
ARC
  5
122
  8
L1
 10
172.48307853030749
 20
226.0006336754993
 30
0.0
 40
0.3
 50
225.0
 51
310.00000000000199
  0
ARC
  5
123
  8
L1
 10
171.46453342289621
 20
227.0191787829107
 30
0.0
 40
0.3
 50
140.0
 51
225.0
  0
LINE
  5
124
  8
L1
 10
171.23472008996049
 20
227.21201506581659
 30
0.0
 11
171.89679524453339
 21
228.00104550984611
 31
0.0
  0
POLYLINE
  5
125
  8
L1
 66
     1
 10
0.0
 20
0.0
 30
0.0
  0
VERTEX
  5
1665
  8
L1
 10
171.89679524453339
 20
228.00104550984611
 30
0.0
  0
VERTEX
  5
1666
  8
L1
 10
171.90802863305129
 20
228.01528542101761
 30
0.0
  0
VERTEX
  5
1667
  8
L1
 10
171.95826874074641
 20
228.12204603147359
 30
0.0
  0
VERTEX
  5
1668
  8
L1
 10
171.96373037988141
 20
228.23815481561661
 30
0.0
  0
VERTEX
  5
1669
  8
L1
 10
171.9265659772505
 20
228.3443459934459
 30
0.0
  0
VERTEX
  5
166A
  8
L1
 10
171.9075930283507
 20
228.37312587466761
 30
0.0
  0
SEQEND
  5
166B
  8
L1
  0
POLYLINE
  5
126
  8
L1
 66
     1
 10
0.0
 20
0.0
 30
0.0
  0
VERTEX
  5
166C
  8
L1
 10
173.83702562206449
 20
226.44369328095371
 30
0.0
  0
VERTEX
  5
166D
  8
L1
 10
173.7917477910465
 20
226.47155300495871
 30
0.0
  0
VERTEX
  5
166E
  8
L1
 10
173.70316622640789
 20
226.4996627932295
 30
0.0
  0
VERTEX
  5
166F
  8
L1
 10
173.61753707214871
 20
226.5003902713797
 30
0.0
  0
VERTEX
  5
1670
  8
L1
 10
173.52920074929239
 20
226.47413563562731
 30
0.0
  0
VERTEX
  5
1671
  8
L1
 10
173.46494525724299
 20
226.4328954971364
 30
0.0
  0
SEQEND
  5
1672
  8
L1
  0
LINE
  5
127
  8
L1
 10
173.46494525724299
 20
226.4328954971364
 30
0.0
 11
172.6759148132135
 21
225.77082034256361
 31
0.0
  0
LINE
  5
128
  8
L1
 10
172.27094649595159
 20
225.78850164114331
 30
0.0
 11
171.25240138854019
 21
226.80704674855471
 31
0.0
  0
LINE
  5
129
  8
L1
 10
170.03762021940659
 20
234.01265695829761
 30
0.0
 11
170.03762021940659
 21
229.9737204720096
 31
0.0
  0
LINE
  5
12A
  8
L1
 10
173.0765567056948
 20
237.51265695829781
 30
0.0
 11
173.0765567056948
 21
236.81265695829791
 31
0.0
  0
LINE
  5
12B
  8
L1
 10
173.0765567056948
 20
236.81265695829799
 30
0.0
 11
173.0765567056948
 21
234.01265695829801
 31
0.0
  0
POLYLINE
  5
12C
  8
L1
 66
     1
 10
0.0
 20
0.0
 30
0.0
  0
VERTEX
  5
1673
  8
L1
 10
173.4179726770401
 20
237.12569908978929
 30
0.0
  0
VERTEX
  5
1674
  8
L1
 10
173.31556916839401
 20
237.0709634923783
 30
0.0
  0
VERTEX
  5
1675
  8
L1
 10
173.20001650145241
 20
237.08234808019961
 30
0.0
  0
VERTEX
  5
1676
  8
L1
 10
173.11026172554131
 20
237.1560156756687
 30
0.0
  0
VERTEX
  5
1677
  8
L1
 10
173.07655670569471
 20
237.2671366011125
 30
0.0
  0
SEQEND
  5
1678
  8
L1
  0
LINE
  5
12D
  8
L1
 10
185.34575876980301
 20
230.71023286225969
 30
0.0
 11
182.58959883718671
 21
227.9540729296433
 31
0.0
  0
ARC
  5
12E
  8
L1
 10
182.9765567056948
 20
224.41265695829779
 30
0.0
 40
3.200000000000113
 50
39.51794668407625
 51
90.0
  0
LINE
  5
12F
  8
L1
 10
184.03772302191391
 20
224.5737204720096
 30
0.0
 11
179.4765567056948
 21
224.5737204720096
 31
0.0
  0
LINE
  5
130
  8
L1
 10
175.4376202194066
 20
224.5737204720096
 30
0.0
 11
179.4765567056948
 21
224.5737204720096
 31
0.0
  0
LINE
  5
131
  8
L1
 10
182.27655670569479
 20
227.61265695829789
 30
0.0
 11
182.9765567056948
 21
227.61265695829789
 31
0.0
  0
LINE
  5
132
  8
L1
 10
179.4765567056948
 20
227.61265695829789
 30
0.0
 11
182.27655670569479
 21
227.61265695829789
 31
0.0
  0
POLYLINE
  5
133
  8
L1
 66
     1
 10
0.0
 20
0.0
 30
0.0
  0
VERTEX
  5
1679
  8
L1
 10
182.7310363485098
 20
227.61265695829789
 30
0.0
  0
VERTEX
  5
167A
  8
L1
 10
182.61991542306609
 20
227.6463619781444
 30
0.0
  0
VERTEX
  5
167B
  8
L1
 10
182.54624782759689
 20
227.7361167540555
 30
0.0
  0
VERTEX
  5
167C
  8
L1
 10
182.5348632397756
 20
227.8516694209971
 30
0.0
  0
VERTEX
  5
167D
  8
L1
 10
182.58959883718671
 20
227.9540729296433
 30
0.0
  0
SEQEND
  5
167E
  8
L1
  0
ARC
  5
134
  8
L1
 10
182.9765567056948
 20
224.41265695829779
 30
0.0
 40
3.200000000000113
 50
0.0
 51
39.51794668407625
  0
POLYLINE
  5
135
  8
L1
 66
     1
 10
0.0
 20
0.0
 30
0.0
  0
VERTEX
  5
167F
  8
L1
 10
184.33762021940649
 20
224.2738232745169
 30
0.0
  0
VERTEX
  5
1680
  8
L1
 10
184.33762014034261
 20
224.27397732447429
 30
0.0
  0
VERTEX
  5
1681
  8
L1
 10
184.3376199031508
 20
224.27413129532729
 30
0.0
  0
SEQEND
  5
1682
  8
L1
  0
POLYLINE
  5
136
  8
L1
 66
     1
 10
0.0
 20
0.0
 30
0.0
  0
VERTEX
  5
1683
  8
L1
 10
184.33761990315071
 20
224.27413129532709
 30
0.0
  0
VERTEX
  5
1684
  8
L1
 10
184.24966743746751
 20
224.48576769007039
 30
0.0
  0
VERTEX
  5
1685
  8
L1
 10
184.03803104272421
 20
224.57372015575359
 30
0.0
  0
SEQEND
  5
1686
  8
L1
  0
POLYLINE
  5
137
  8
L1
 66
     1
 10
0.0
 20
0.0
 30
0.0
  0
VERTEX
  5
1687
  8
L1
 10
184.0380310427245
 20
224.57372015575379
 30
0.0
  0
VERTEX
  5
1688
  8
L1
 10
184.03787707187149
 20
224.57372039294569
 30
0.0
  0
VERTEX
  5
1689
  8
L1
 10
184.03772302191391
 20
224.5737204720096
 30
0.0
  0
SEQEND
  5
168A
  8
L1
  0
POLYLINE
  5
138
  8
L1
 66
     1
 10
0.0
 20
0.0
 30
0.0
  0
VERTEX
  5
168B
  8
L1
 10
185.97655670569469
 20
226.63974885474781
 30
0.0
  0
VERTEX
  5
168C
  8
L1
 10
185.97632950744861
 20
226.6280750848469
 30
0.0
  0
VERTEX
  5
168D
  8
L1
 10
185.94852157367981
 20
226.51311683219171
 30
0.0
  0
VERTEX
  5
168E
  8
L1
 10
185.87875745577071
 20
226.41813016021061
 30
0.0
  0
VERTEX
  5
168F
  8
L1
 10
185.7902214317011
 20
226.3621199802476
 30
0.0
  0
VERTEX
  5
1690
  8
L1
 10
185.70164992291359
 20
226.3408096752618
 30
0.0
  0
VERTEX
  5
1691
  8
L1
 10
185.61460031653951
 20
226.34623030444641
 30
0.0
  0
VERTEX
  5
1692
  8
L1
 10
185.5242457374182
 20
226.38130639240589
 30
0.0
  0
VERTEX
  5
1693
  8
L1
 10
185.4451176899089
 20
226.4488805872777
 30
0.0
  0
SEQEND
  5
1694
  8
L1
  0
LINE
  5
139
  8
L1
 10
179.70672772362889
 20
229.0366629443136
 30
0.0
 11
184.4525507196789
 21
233.7824859403637
 31
0.0
  0
POLYLINE
  5
13A
  8
L1
 66
     1
 10
0.0
 20
0.0
 30
0.0
  0
VERTEX
  5
1695
  8
L1
 10
185.34575876980301
 20
230.71023286225969
 30
0.0
  0
VERTEX
  5
1696
  8
L1
 10
185.44428649247109
 20
230.7757670750604
 30
0.0
  0
VERTEX
  5
1697
  8
L1
 10
185.56047794056201
 20
230.79810937432879
 30
0.0
  0
SEQEND
  5
1698
  8
L1
  0
POLYLINE
  5
13B
  8
L1
 66
     1
 10
0.0
 20
0.0
 30
0.0
  0
VERTEX
  5
1699
  8
L1
 10
185.8604665174812
 20
230.50437430545171
 30
0.0
  0
VERTEX
  5
169A
  8
L1
 10
185.7716823578987
 20
230.71117599340491
 30
0.0
  0
VERTEX
  5
169B
  8
L1
 10
185.56047794056201
 20
230.79810937432879
 30
0.0
  0
SEQEND
  5
169C
  8
L1
  0
LINE
  5
14A
  8
L1
 10
378.8532219739264
 20
221.27496108920701
 30
0.0
 11
378.85322197392628
 21
133.2503528273885
 31
0.0
  0
LINE
  5
14B
  8
L1
 10
365.13166751584032
 20
224.9024624762217
 30
0.0
 11
365.13166751584032
 21
129.62285144037381
 31
0.0
  0
LINE
  5
14C
  8
L1
 10
361.81950602737231
 20
224.20546489518071
 30
0.0
 11
361.81950602737231
 21
130.3198490214148
 31
0.0
  0
LINE
  5
14D
  8
L1
 10
361.1996400401564
 20
117.09197426525969
 30
0.0
 11
361.1996400401564
 21
237.43333965133581
 31
0.0
  0
LINE
  5
14E
  8
L1
 10
363.01447280547518
 20
131.51481579951781
 30
0.0
 11
363.01447280547518
 21
223.0104981170777
 31
0.0
  0
POLYLINE
  5
150
  8
L1
 66
     1
 10
0.0
 20
0.0
 30
0.0
  0
VERTEX
  5
169D
  8
L1
 10
375.92545909844341
 20
120.7330054877709
 30
0.0
  0
VERTEX
  5
169E
  8
L1
 10
375.92266338510927
 20
120.93870899576589
 30
0.0
  0
VERTEX
  5
169F
  8
L1
 10
375.91430786495641
 20
121.14424732643219
 30
0.0
  0
VERTEX
  5
16A0
  8
L1
 10
375.90039864480161
 20
121.3494702575322
 30
0.0
  0
VERTEX
  5
16A1
  8
L1
 10
375.8809458905061
 20
121.5542277973454
 30
0.0
  0
VERTEX
  5
16A2
  8
L1
 10
375.85596381954599
 20
121.7583702942926
 30
0.0
  0
VERTEX
  5
16A3
  8
L1
 10
375.8254706906207
 20
121.96174854631219
 30
0.0
  0
VERTEX
  5
16A4
  8
L1
 10
375.78948879030821
 20
122.1642139099081
 30
0.0
  0
VERTEX
  5
16A5
  8
L1
 10
375.74804441677668
 20
122.3656184087889
 30
0.0
  0
VERTEX
  5
16A6
  8
L1
 10
375.7011678605636
 20
122.56581484201961
 30
0.0
  0
VERTEX
  5
16A7
  8
L1
 10
375.64889338243751
 20
122.76465689160671
 30
0.0
  0
VERTEX
  5
16A8
  8
L1
 10
375.59125918835753
 20
122.96199922943779
 30
0.0
  0
VERTEX
  5
16A9
  8
L1
 10
375.5283074015498
 20
123.15769762349839
 30
0.0
  0
VERTEX
  5
16AA
  8
L1
 10
375.46008403172078
 20
123.3516090432864
 30
0.0
  0
VERTEX
  5
16AB
  8
L1
 10
375.38663894143019
 20
123.5435917643494
 30
0.0
  0
VERTEX
  5
16AC
  8
L1
 10
375.3080258096474
 20
123.7335054718674
 30
0.0
  0
VERTEX
  5
16AD
  8
L1
 10
375.22430209251962
 20
123.92121136320441
 30
0.0
  0
VERTEX
  5
16AE
  8
L1
 10
375.13552898137817
 20
124.10657224935591
 30
0.0
  0
VERTEX
  5
16AF
  8
L1
 10
375.04177135801592
 20
124.28945265521619
 30
0.0
  0
VERTEX
  5
16B0
  8
L1
 10
374.94309774726662
 20
124.4697189185937
 30
0.0
  0
VERTEX
  5
16B1
  8
L1
 10
374.83958026692238
 20
124.6472392879008
 30
0.0
  0
VERTEX
  5
16B2
  8
L1
 10
374.73129457502449
 20
124.8218840184468
 30
0.0
  0
VERTEX
  5
16B3
  8
L1
 10
374.6183198145672
 20
124.9935254672657
 30
0.0
  0
VERTEX
  5
16B4
  8
L1
 10
374.50073855565421
 20
125.16203818640631
 30
0.0
  0
VERTEX
  5
16B5
  8
L1
 10
374.37863673515068
 20
125.3272990146186
 30
0.0
  0
VERTEX
  5
16B6
  8
L1
 10
374.2521035938741
 20
125.48918716736929
 30
0.0
  0
VERTEX
  5
16B7
  8
L1
 10
374.12123161137112
 20
125.6475843251195
 30
0.0
  0
VERTEX
  5
16B8
  8
L1
 10
373.98611643832601
 20
125.80237471980089
 30
0.0
  0
VERTEX
  5
16B9
  8
L1
 10
373.84685682665321
 20
125.9534452194283
 30
0.0
  0
VERTEX
  5
16BA
  8
L1
 10
373.70355455732158
 20
126.1006854107839
 30
0.0
  0
VERTEX
  5
16BB
  8
L1
 10
373.55631436596599
 20
126.2439876801154
 30
0.0
  0
VERTEX
  5
16BC
  8
L1
 10
373.40524386633859
 20
126.38324729178829
 30
0.0
  0
VERTEX
  5
16BD
  8
L1
 10
373.25045347165718
 20
126.5183624648333
 30
0.0
  0
VERTEX
  5
16BE
  8
L1
 10
373.09205631390711
 20
126.6492344473364
 30
0.0
  0
VERTEX
  5
16BF
  8
L1
 10
372.93016816115642
 20
126.77576758861289
 30
0.0
  0
VERTEX
  5
16C0
  8
L1
 10
372.76490733294401
 20
126.8978694091165
 30
0.0
  0
VERTEX
  5
16C1
  8
L1
 10
372.5963946138034
 20
127.0154506680294
 30
0.0
  0
VERTEX
  5
16C2
  8
L1
 10
372.42475316498451
 20
127.12842542848669
 30
0.0
  0
VERTEX
  5
16C3
  8
L1
 10
372.25010843443852
 20
127.2367111203847
 30
0.0
  0
VERTEX
  5
16C4
  8
L1
 10
372.07258806513153
 20
127.34022860072891
 30
0.0
  0
VERTEX
  5
16C5
  8
L1
 10
371.89232180175401
 20
127.43890221147819
 30
0.0
  0
VERTEX
  5
16C6
  8
L1
 10
371.70944139589358
 20
127.5326598348405
 30
0.0
  0
VERTEX
  5
16C7
  8
L1
 10
371.52408050974208
 20
127.62143294598189
 30
0.0
  0
VERTEX
  5
16C8
  8
L1
 10
371.3363746184051
 20
127.7051566631097
 30
0.0
  0
VERTEX
  5
16C9
  8
L1
 10
371.14646091088719
 20
127.78376979489251
 30
0.0
  0
VERTEX
  5
16CA
  8
L1
 10
370.9544781898241
 20
127.8572148851831
 30
0.0
  0
VERTEX
  5
16CB
  8
L1
 10
370.76056677003612
 20
127.9254382550121
 30
0.0
  0
VERTEX
  5
16CC
  8
L1
 10
370.56486837597549
 20
127.9883900418198
 30
0.0
  0
VERTEX
  5
16CD
  8
L1
 10
370.36752603814438
 20
128.04602423589981
 30
0.0
  0
VERTEX
  5
16CE
  8
L1
 10
370.1686839885574
 20
128.0982987140259
 30
0.0
  0
VERTEX
  5
16CF
  8
L1
 10
369.9684875553267
 20
128.14517527023901
 30
0.0
  0
VERTEX
  5
16D0
  8
L1
 10
369.76708305644593
 20
128.18661964377051
 30
0.0
  0
VERTEX
  5
16D1
  8
L1
 10
369.56461769284988
 20
128.22260154408301
 30
0.0
  0
VERTEX
  5
16D2
  8
L1
 10
369.36123944083027
 20
128.25309467300829
 30
0.0
  0
VERTEX
  5
16D3
  8
L1
 10
369.15709694388312
 20
128.2780767439684
 30
0.0
  0
VERTEX
  5
16D4
  8
L1
 10
368.95233940407002
 20
128.2975294982638
 30
0.0
  0
VERTEX
  5
16D5
  8
L1
 10
368.74711647296988
 20
128.31143871841871
 30
0.0
  0
VERTEX
  5
16D6
  8
L1
 10
368.54157814230371
 20
128.3197942385716
 30
0.0
  0
VERTEX
  5
16D7
  8
L1
 10
368.33587463430871
 20
128.32258995190571
 30
0.0
  0
SEQEND
  5
16D8
  8
L1
  0
POLYLINE
  5
151
  8
L1
 66
     1
 10
0.0
 20
0.0
 30
0.0
  0
VERTEX
  5
16D9
  8
L1
 10
369.63613612277669
 20
129.62285144037381
 30
0.0
  0
VERTEX
  5
16DA
  8
L1
 10
370.4301437900437
 20
129.58130584573709
 30
0.0
  0
VERTEX
  5
16DB
  8
L1
 10
371.21525483660889
 20
129.45712265944809
 30
0.0
  0
VERTEX
  5
16DC
  8
L1
 10
371.98289736679351
 20
129.25165772196121
 30
0.0
  0
VERTEX
  5
16DD
  8
L1
 10
372.72469020736548
 20
128.96715431340519
 30
0.0
  0
VERTEX
  5
16DE
  8
L1
 10
373.4325344137585
 20
128.60671866129931
 30
0.0
  0
VERTEX
  5
16DF
  8
L1
 10
374.09870169489739
 20
128.17428602654999
 30
0.0
  0
VERTEX
  5
16E0
  8
L1
 10
374.71591879120479
 20
127.6745777380056
 30
0.0
  0
VERTEX
  5
16E1
  8
L1
 10
375.27744688454311
 20
127.1130496446672
 30
0.0
  0
VERTEX
  5
16E2
  8
L1
 10
375.77715517308758
 20
126.4958325483597
 30
0.0
  0
VERTEX
  5
16E3
  8
L1
 10
376.2095878078369
 20
125.8296652672209
 30
0.0
  0
VERTEX
  5
16E4
  8
L1
 10
376.57002345994272
 20
125.1218210608279
 30
0.0
  0
VERTEX
  5
16E5
  8
L1
 10
376.85452686849879
 20
124.3800282202558
 30
0.0
  0
VERTEX
  5
16E6
  8
L1
 10
377.05999180598582
 20
123.61238569007141
 30
0.0
  0
VERTEX
  5
16E7
  8
L1
 10
377.18417499227468
 20
122.8272746435061
 30
0.0
  0
VERTEX
  5
16E8
  8
L1
 10
377.22572058691151
 20
122.0332669762391
 30
0.0
  0
SEQEND
  5
16E9
  8
L1
  0
LINE
  5
152
  8
L1
 10
363.16522696714878
 20
120.731497888169
 30
0.0
 11
367.89668517496432
 21
125.4629560959845
 31
0.0
  0
CIRCLE
  5
153
  8
L1
 10
368.11552610483551
 20
120.5126569582977
 30
0.0
 40
6.097393363178492
  0
ARC
  5
154
  8
L1
 10
368.11552610483551
 20
120.5126569582977
 30
0.0
 40
4.9551339946734032
 50
177.46873820670871
 51
272.53126179329251
  0
CIRCLE
  5
155
  8
L1
 10
368.11552610483551
 20
120.5126569582977
 30
0.0
 40
5.7974047862592784
  0
POLYLINE
  5
156
  8
L1
 66
     1
 10
0.0
 20
0.0
 30
0.0
  0
VERTEX
  5
16EA
  8
L1
 10
363.30852610483549
 20
112.2505685205236
 30
0.0
  0
VERTEX
  5
16EB
  8
L1
 10
363.32847807279728
 20
112.2504067511089
 30
0.0
  0
VERTEX
  5
16EC
  8
L1
 10
363.34842534556742
 20
112.2503528273886
 30
0.0
  0
SEQEND
  5
16ED
  8
L1
  0
POLYLINE
  5
157
  8
L1
 66
     1
 10
0.0
 20
0.0
 30
0.0
  0
VERTEX
  5
16EE
  8
L1
 10
359.8532219739264
 20
115.74555619902949
 30
0.0
  0
VERTEX
  5
16EF
  8
L1
 10
359.85327589764671
 20
115.7256089262595
 30
0.0
  0
VERTEX
  5
16F0
  8
L1
 10
359.85343766706143
 20
115.70565695829769
 30
0.0
  0
SEQEND
  5
16F1
  8
L1
  0
POLYLINE
  5
158
  8
L1
 66
     1
 10
0.0
 20
0.0
 30
0.0
  0
VERTEX
  5
16F2
  8
L1
 10
359.85343766706143
 20
115.70565695829769
 30
0.0
  0
VERTEX
  5
16F3
  8
L1
 10
359.87251203244949
 20
115.3770263896653
 30
0.0
  0
VERTEX
  5
16F4
  8
L1
 10
359.92381171472118
 20
115.04386935585239
 30
0.0
  0
VERTEX
  5
16F5
  8
L1
 10
360.00850164449253
 20
114.7125050151238
 30
0.0
  0
VERTEX
  5
16F6
  8
L1
 10
360.125941102833
 20
114.3888845720567
 30
0.0
  0
VERTEX
  5
16F7
  8
L1
 10
360.27476960583499
 20
114.0784602554144
 30
0.0
  0
VERTEX
  5
16F8
  8
L1
 10
360.4520853546494
 20
113.78603772740171
 30
0.0
  0
VERTEX
  5
16F9
  8
L1
 10
360.65412548925519
 20
113.51625794005341
 30
0.0
  0
VERTEX
  5
16FA
  8
L1
 10
360.87559698576177
 20
113.2727278392241
 30
0.0
  0
VERTEX
  5
16FB
  8
L1
 10
361.11912708659111
 20
113.05125634271749
 30
0.0
  0
VERTEX
  5
16FC
  8
L1
 10
361.38890687393939
 20
112.8492162081116
 30
0.0
  0
VERTEX
  5
16FD
  8
L1
 10
361.6813294019521
 20
112.67190045929721
 30
0.0
  0
VERTEX
  5
16FE
  8
L1
 10
361.99175371859451
 20
112.5230719562953
 30
0.0
  0
VERTEX
  5
16FF
  8
L1
 10
362.31537416166162
 20
112.4056324979548
 30
0.0
  0
VERTEX
  5
1700
  8
L1
 10
362.64673850239018
 20
112.3209425681833
 30
0.0
  0
VERTEX
  5
1701
  8
L1
 10
362.97989553620312
 20
112.26964288591169
 30
0.0
  0
VERTEX
  5
1702
  8
L1
 10
363.30852610483549
 20
112.2505685205236
 30
0.0
  0
SEQEND
  5
1703
  8
L1
  0
POLYLINE
  5
159
  8
L1
 66
     1
 10
0.0
 20
0.0
 30
0.0
  0
VERTEX
  5
1704
  8
L1
 10
361.1996400401564
 20
117.09197426525969
 30
0.0
  0
VERTEX
  5
1705
  8
L1
 10
361.20264565911089
 20
116.94742159037381
 30
0.0
  0
VERTEX
  5
1706
  8
L1
 10
361.21161226298648
 20
116.80313043097389
 30
0.0
  0
VERTEX
  5
1707
  8
L1
 10
361.22652458586219
 20
116.6593464472281
 30
0.0
  0
VERTEX
  5
1708
  8
L1
 10
361.24735723904638
 20
116.51631443582239
 30
0.0
  0
VERTEX
  5
1709
  8
L1
 10
361.27407475430198
 20
116.3742779131864
 30
0.0
  0
VERTEX
  5
170A
  8
L1
 10
361.30663164423152
 20
116.2334787008994
 30
0.0
  0
VERTEX
  5
170B
  8
L1
 10
361.34497247972138
 20
116.0941565139814
 30
0.0
  0
VERTEX
  5
170C
  8
L1
 10
361.389031984312
 20
115.956548552771
 30
0.0
  0
VERTEX
  5
170D
  8
L1
 10
361.43873514533158
 20
115.8208890990845
 30
0.0
  0
VERTEX
  5
170E
  8
L1
 10
361.49399734160932
 20
115.68740911734361
 30
0.0
  0
VERTEX
  5
170F
  8
L1
 10
361.55472448754432
 20
115.5563358613517
 30
0.0
  0
VERTEX
  5
1710
  8
L1
 10
361.62081319328951
 20
115.427892487387
 30
0.0
  0
VERTEX
  5
1711
  8
L1
 10
361.69215094077651
 20
115.302297674272
 30
0.0
  0
VERTEX
  5
1712
  8
L1
 10
361.76861627528041
 20
115.1797652510663
 30
0.0
  0
VERTEX
  5
1713
  8
L1
 10
361.85007901220098
 20
115.0605038330158
 30
0.0
  0
VERTEX
  5
1714
  8
L1
 10
361.93640045870529
 20
114.94471646637859
 30
0.0
  0
VERTEX
  5
1715
  8
L1
 10
362.0274336498569
 20
114.8326002827327
 30
0.0
  0
VERTEX
  5
1716
  8
L1
 10
362.1230235988283
 20
114.7243461633538
 30
0.0
  0
VERTEX
  5
1717
  8
L1
 10
362.22300756077061
 20
114.6201384142328
 30
0.0
  0
VERTEX
  5
1718
  8
L1
 10
362.32721530989153
 20
114.5201544522906
 30
0.0
  0
VERTEX
  5
1719
  8
L1
 10
362.43546942927043
 20
114.4245645033192
 30
0.0
  0
VERTEX
  5
171A
  8
L1
 10
362.54758561291618
 20
114.33353131216749
 30
0.0
  0
VERTEX
  5
171B
  8
L1
 10
362.66337297955351
 20
114.24720986566329
 30
0.0
  0
VERTEX
  5
171C
  8
L1
 10
362.78263439760411
 20
114.16574712874269
 30
0.0
  0
VERTEX
  5
171D
  8
L1
 10
362.90516682080982
 20
114.0892817942387
 30
0.0
  0
VERTEX
  5
171E
  8
L1
 10
363.03076163392473
 20
114.01794404675169
 30
0.0
  0
VERTEX
  5
171F
  8
L1
 10
363.15920500788951
 20
113.95185534100651
 30
0.0
  0
VERTEX
  5
1720
  8
L1
 10
363.29027826388131
 20
113.8911281950715
 30
0.0
  0
VERTEX
  5
1721
  8
L1
 10
363.4237582456222
 20
113.83586599879381
 30
0.0
  0
VERTEX
  5
1722
  8
L1
 10
363.55941769930871
 20
113.7861628377742
 30
0.0
  0
VERTEX
  5
1723
  8
L1
 10
363.6970256605191
 20
113.74210333318371
 30
0.0
  0
VERTEX
  5
1724
  8
L1
 10
363.8363478474372
 20
113.7037624976937
 30
0.0
  0
VERTEX
  5
1725
  8
L1
 10
363.97714705972419
 20
113.67120560776419
 30
0.0
  0
VERTEX
  5
1726
  8
L1
 10
364.11918358236011
 20
113.64448809250869
 30
0.0
  0
VERTEX
  5
1727
  8
L1
 10
364.26221559376592
 20
113.62365543932439
 30
0.0
  0
VERTEX
  5
1728
  8
L1
 10
364.40599957751158
 20
113.60874311644869
 30
0.0
  0
VERTEX
  5
1729
  8
L1
 10
364.55029073691151
 20
113.5997765125732
 30
0.0
  0
VERTEX
  5
172A
  8
L1
 10
364.69484341179742
 20
113.5967708936187
 30
0.0
  0
SEQEND
  5
172B
  8
L1
  0
LINE
  5
15A
  8
L1
 10
375.92545909844341
 20
116.2138959503437
 30
0.0
 11
375.92545909844341
 21
120.7330054877709
 31
0.0
  0
LINE
  5
15B
  8
L1
 10
377.22572058691151
 20
117.52879836930271
 30
0.0
 11
377.22572058691151
 21
122.0332669762391
 31
0.0
  0
LINE
  5
15C
  8
L1
 10
373.06582524252218
 20
120.29381602842631
 30
0.0
 11
368.33436703470687
 21
115.5623578206111
 31
0.0
  0
LINE
  5
15D
  8
L1
 10
377.22572058691151
 20
117.52879836930271
 30
0.0
 11
377.22495433981391
 21
117.51339119171431
 31
0.0
  0
POLYLINE
  5
15E
  8
L1
 66
     1
 10
0.0
 20
0.0
 30
0.0
  0
VERTEX
  5
172C
  8
L1
 10
379.11768494605548
 20
115.41160365893749
 30
0.0
  0
VERTEX
  5
172D
  8
L1
 10
378.7721834514706
 20
115.4435109505754
 30
0.0
  0
VERTEX
  5
172E
  8
L1
 10
378.44048315559132
 20
115.53826670814141
 30
0.0
  0
VERTEX
  5
172F
  8
L1
 10
378.13262757491879
 20
115.6930018325526
 30
0.0
  0
VERTEX
  5
1730
  8
L1
 10
377.857938234465
 20
115.903031116124
 30
0.0
  0
VERTEX
  5
1731
  8
L1
 10
377.62473242232949
 20
116.1619951054529
 30
0.0
  0
VERTEX
  5
1732
  8
L1
 10
377.44007135145517
 20
116.46205265860389
 30
0.0
  0
VERTEX
  5
1733
  8
L1
 10
377.30954635394369
 20
116.79411836617609
 30
0.0
  0
VERTEX
  5
1734
  8
L1
 10
377.23710958173041
 20
117.14813764740801
 30
0.0
  0
VERTEX
  5
1735
  8
L1
 10
377.22495433981391
 20
117.5133911917144
 30
0.0
  0
SEQEND
  5
1736
  8
L1
  0
POLYLINE
  5
15F
  8
L1
 66
     1
 10
0.0
 20
0.0
 30
0.0
  0
VERTEX
  5
1737
  8
L1
 10
377.92271816795261
 20
114.2166368808345
 30
0.0
  0
VERTEX
  5
1738
  8
L1
 10
377.72673222616959
 20
114.2261961718344
 30
0.0
  0
VERTEX
  5
1739
  8
L1
 10
377.53268507487797
 20
114.25488936061529
 30
0.0
  0
VERTEX
  5
173A
  8
L1
 10
377.34243898779459
 20
114.3024410781705
 30
0.0
  0
VERTEX
  5
173B
  8
L1
 10
377.15781975975972
 20
114.36839496988119
 30
0.0
  0
VERTEX
  5
173C
  8
L1
 10
376.98059918455471
 20
114.45211807515879
 30
0.0
  0
VERTEX
  5
173D
  8
L1
 10
376.8124780509674
 20
114.5528069019792
 30
0.0
  0
VERTEX
  5
173E
  8
L1
 10
376.6550698202941
 20
114.6694951380079
 30
0.0
  0
VERTEX
  5
173F
  8
L1
 10
376.509885141925
 20
114.8010629243161
 30
0.0
  0
VERTEX
  5
1740
  8
L1
 10
376.37831735561679
 20
114.9462476026852
 30
0.0
  0
VERTEX
  5
1741
  8
L1
 10
376.26162911958812
 20
115.1036558333585
 30
0.0
  0
VERTEX
  5
1742
  8
L1
 10
376.16094029276769
 20
115.27177696694579
 30
0.0
  0
VERTEX
  5
1743
  8
L1
 10
376.07721718749002
 20
115.44899754215081
 30
0.0
  0
VERTEX
  5
1744
  8
L1
 10
376.01126329577937
 20
115.6336167701857
 30
0.0
  0
VERTEX
  5
1745
  8
L1
 10
375.96371157822421
 20
115.82386285726911
 30
0.0
  0
VERTEX
  5
1746
  8
L1
 10
375.93501838944331
 20
116.01791000856061
 30
0.0
  0
VERTEX
  5
1747
  8
L1
 10
375.92545909844341
 20
116.2138959503437
 30
0.0
  0
SEQEND
  5
1748
  8
L1
  0
ARC
  5
160
  8
L1
 10
368.11552610483551
 20
120.5126569582977
 30
0.0
 40
4.9551339946734032
 50
357.4687382067068
 51
92.531261793290597
  0
LINE
  5
161
  8
L1
 10
369.63613612277669
 20
129.62285144037381
 30
0.0
 11
365.13166751584032
 21
129.62285144037381
 31
0.0
  0
LINE
  5
162
  8
L1
 10
368.33587463430871
 20
128.3225899519056
 30
0.0
 11
363.8167650968814
 21
128.3225899519056
 31
0.0
  0
LINE
  5
163
  8
L1
 10
365.116260338252
 20
129.62208519327621
 30
0.0
 11
365.13166751584032
 21
129.62285144037381
 31
0.0
  0
POLYLINE
  5
164
  8
L1
 66
     1
 10
0.0
 20
0.0
 30
0.0
  0
VERTEX
  5
1749
  8
L1
 10
365.116260338252
 20
129.62208519327629
 30
0.0
  0
VERTEX
  5
174A
  8
L1
 10
364.75100679394581
 20
129.63424043519271
 30
0.0
  0
VERTEX
  5
174B
  8
L1
 10
364.39698751271379
 20
129.7066772074061
 30
0.0
  0
VERTEX
  5
174C
  8
L1
 10
364.06492180514169
 20
129.83720220491759
 30
0.0
  0
VERTEX
  5
174D
  8
L1
 10
363.76486425199067
 20
130.0218632757919
 30
0.0
  0
VERTEX
  5
174E
  8
L1
 10
363.50590026266178
 20
130.25506908792741
 30
0.0
  0
VERTEX
  5
174F
  8
L1
 10
363.2958709790903
 20
130.5297584283812
 30
0.0
  0
VERTEX
  5
1750
  8
L1
 10
363.14113585467908
 20
130.83761400905371
 30
0.0
  0
VERTEX
  5
1751
  8
L1
 10
363.04638009711311
 20
131.16931430493301
 30
0.0
  0
VERTEX
  5
1752
  8
L1
 10
363.01447280547518
 20
131.51481579951781
 30
0.0
  0
SEQEND
  5
1753
  8
L1
  0
POLYLINE
  5
165
  8
L1
 66
     1
 10
0.0
 20
0.0
 30
0.0
  0
VERTEX
  5
1754
  8
L1
 10
363.8167650968814
 20
128.32258995190571
 30
0.0
  0
VERTEX
  5
1755
  8
L1
 10
363.62077915509838
 20
128.33214924290559
 30
0.0
  0
VERTEX
  5
1756
  8
L1
 10
363.42673200380699
 20
128.36084243168651
 30
0.0
  0
VERTEX
  5
1757
  8
L1
 10
363.2364859167235
 20
128.4083941492417
 30
0.0
  0
VERTEX
  5
1758
  8
L1
 10
363.05186668868862
 20
128.47434804095229
 30
0.0
  0
VERTEX
  5
1759
  8
L1
 10
362.87464611348361
 20
128.55807114622999
 30
0.0
  0
VERTEX
  5
175A
  8
L1
 10
362.7065249798963
 20
128.65875997305039
 30
0.0
  0
VERTEX
  5
175B
  8
L1
 10
362.549116749223
 20
128.77544820907909
 30
0.0
  0
VERTEX
  5
175C
  8
L1
 10
362.4039320708539
 20
128.9070159953873
 30
0.0
  0
VERTEX
  5
175D
  8
L1
 10
362.27236428454569
 20
129.0522006737564
 30
0.0
  0
VERTEX
  5
175E
  8
L1
 10
362.15567604851702
 20
129.20960890442959
 30
0.0
  0
VERTEX
  5
175F
  8
L1
 10
362.05498722169659
 20
129.37773003801689
 30
0.0
  0
VERTEX
  5
1760
  8
L1
 10
361.97126411641898
 20
129.55495061322191
 30
0.0
  0
VERTEX
  5
1761
  8
L1
 10
361.90531022470827
 20
129.73956984125681
 30
0.0
  0
VERTEX
  5
1762
  8
L1
 10
361.85775850715311
 20
129.9298159283403
 30
0.0
  0
VERTEX
  5
1763
  8
L1
 10
361.82906531837222
 20
130.1238630796318
 30
0.0
  0
VERTEX
  5
1764
  8
L1
 10
361.81950602737231
 20
130.3198490214148
 30
0.0
  0
SEQEND
  5
1765
  8
L1
  0
ARC
  5
166
  8
L1
 10
380.8532219739264
 20
133.2503528273885
 30
0.0
 40
2.0
 50
180.0
 51
270.0
  0
LINE
  5
167
  8
L1
 10
363.16522696714878
 20
233.79381602842639
 30
0.0
 11
367.89668517496432
 21
229.062357820611
 31
0.0
  0
LINE
  5
168
  8
L1
 10
368.33587463430871
 20
226.20272396468991
 30
0.0
 11
363.8167650968814
 21
226.20272396468991
 31
0.0
  0
LINE
  5
169
  8
L1
 10
369.63613612277669
 20
224.9024624762217
 30
0.0
 11
365.13166751584032
 21
224.9024624762217
 31
0.0
  0
POLYLINE
  5
16A
  8
L1
 66
     1
 10
0.0
 20
0.0
 30
0.0
  0
VERTEX
  5
1766
  8
L1
 10
363.8167650968814
 20
226.20272396468971
 30
0.0
  0
VERTEX
  5
1767
  8
L1
 10
363.62077915509838
 20
226.19316467368989
 30
0.0
  0
VERTEX
  5
1768
  8
L1
 10
363.42673200380699
 20
226.16447148490889
 30
0.0
  0
VERTEX
  5
1769
  8
L1
 10
363.2364859167235
 20
226.11691976735381
 30
0.0
  0
VERTEX
  5
176A
  8
L1
 10
363.05186668868862
 20
226.05096587564319
 30
0.0
  0
VERTEX
  5
176B
  8
L1
 10
362.87464611348361
 20
225.9672427703654
 30
0.0
  0
VERTEX
  5
176C
  8
L1
 10
362.7065249798963
 20
225.86655394354511
 30
0.0
  0
VERTEX
  5
176D
  8
L1
 10
362.549116749223
 20
225.74986570751639
 30
0.0
  0
VERTEX
  5
176E
  8
L1
 10
362.4039320708539
 20
225.61829792120821
 30
0.0
  0
VERTEX
  5
176F
  8
L1
 10
362.27236428454569
 20
225.4731132428391
 30
0.0
  0
VERTEX
  5
1770
  8
L1
 10
362.15567604851702
 20
225.31570501216589
 30
0.0
  0
VERTEX
  5
1771
  8
L1
 10
362.05498722169659
 20
225.1475838785785
 30
0.0
  0
VERTEX
  5
1772
  8
L1
 10
361.97126411641898
 20
224.97036330337349
 30
0.0
  0
VERTEX
  5
1773
  8
L1
 10
361.90531022470827
 20
224.78574407533861
 30
0.0
  0
VERTEX
  5
1774
  8
L1
 10
361.85775850715311
 20
224.5954979882552
 30
0.0
  0
VERTEX
  5
1775
  8
L1
 10
361.82906531837222
 20
224.4014508369637
 30
0.0
  0
VERTEX
  5
1776
  8
L1
 10
361.81950602737231
 20
224.20546489518071
 30
0.0
  0
SEQEND
  5
1777
  8
L1
  0
POLYLINE
  5
16B
  8
L1
 66
     1
 10
0.0
 20
0.0
 30
0.0
  0
VERTEX
  5
1778
  8
L1
 10
365.116260338252
 20
224.90322872331919
 30
0.0
  0
VERTEX
  5
1779
  8
L1
 10
364.75100679394581
 20
224.8910734814028
 30
0.0
  0
VERTEX
  5
177A
  8
L1
 10
364.39698751271379
 20
224.81863670918941
 30
0.0
  0
VERTEX
  5
177B
  8
L1
 10
364.06492180514169
 20
224.68811171167789
 30
0.0
  0
VERTEX
  5
177C
  8
L1
 10
363.76486425199067
 20
224.50345064080361
 30
0.0
  0
VERTEX
  5
177D
  8
L1
 10
363.50590026266178
 20
224.2702448286681
 30
0.0
  0
VERTEX
  5
177E
  8
L1
 10
363.2958709790903
 20
223.99555548821431
 30
0.0
  0
VERTEX
  5
177F
  8
L1
 10
363.14113585467908
 20
223.6876999075418
 30
0.0
  0
VERTEX
  5
1780
  8
L1
 10
363.04638009711311
 20
223.3559996116625
 30
0.0
  0
VERTEX
  5
1781
  8
L1
 10
363.01447280547518
 20
223.0104981170777
 30
0.0
  0
SEQEND
  5
1782
  8
L1
  0
LINE
  5
16C
  8
L1
 10
365.116260338252
 20
224.90322872331919
 30
0.0
 11
365.13166751584032
 21
224.9024624762217
 31
0.0
  0
ARC
  5
16D
  8
L1
 10
368.11552610483551
 20
234.0126569582977
 30
0.0
 40
4.9551339946734032
 50
267.4687382067093
 51
2.5312617932932042
  0
POLYLINE
  5
16E
  8
L1
 66
     1
 10
0.0
 20
0.0
 30
0.0
  0
VERTEX
  5
1783
  8
L1
 10
369.63613612277669
 20
224.90246247622159
 30
0.0
  0
VERTEX
  5
1784
  8
L1
 10
370.4301437900437
 20
224.94400807085839
 30
0.0
  0
VERTEX
  5
1785
  8
L1
 10
371.21525483660889
 20
225.06819125714739
 30
0.0
  0
VERTEX
  5
1786
  8
L1
 10
371.98289736679351
 20
225.2736561946343
 30
0.0
  0
VERTEX
  5
1787
  8
L1
 10
372.72469020736548
 20
225.55815960319029
 30
0.0
  0
VERTEX
  5
1788
  8
L1
 10
373.4325344137585
 20
225.9185952552962
 30
0.0
  0
VERTEX
  5
1789
  8
L1
 10
374.09870169489739
 20
226.35102789004549
 30
0.0
  0
VERTEX
  5
178A
  8
L1
 10
374.71591879120479
 20
226.8507361785899
 30
0.0
  0
VERTEX
  5
178B
  8
L1
 10
375.27744688454311
 20
227.41226427192819
 30
0.0
  0
VERTEX
  5
178C
  8
L1
 10
375.77715517308758
 20
228.02948136823571
 30
0.0
  0
VERTEX
  5
178D
  8
L1
 10
376.2095878078369
 20
228.69564864937459
 30
0.0
  0
VERTEX
  5
178E
  8
L1
 10
376.57002345994272
 20
229.40349285576761
 30
0.0
  0
VERTEX
  5
178F
  8
L1
 10
376.85452686849879
 20
230.14528569633961
 30
0.0
  0
VERTEX
  5
1790
  8
L1
 10
377.05999180598582
 20
230.91292822652409
 30
0.0
  0
VERTEX
  5
1791
  8
L1
 10
377.18417499227468
 20
231.69803927308939
 30
0.0
  0
VERTEX
  5
1792
  8
L1
 10
377.22572058691151
 20
232.4920469403564
 30
0.0
  0
SEQEND
  5
1793
  8
L1
  0
POLYLINE
  5
16F
  8
L1
 66
     1
 10
0.0
 20
0.0
 30
0.0
  0
VERTEX
  5
1794
  8
L1
 10
375.92545909844341
 20
233.7923084288245
 30
0.0
  0
VERTEX
  5
1795
  8
L1
 10
375.92266338510927
 20
233.5866049208295
 30
0.0
  0
VERTEX
  5
1796
  8
L1
 10
375.91430786495641
 20
233.3810665901633
 30
0.0
  0
VERTEX
  5
1797
  8
L1
 10
375.90039864480161
 20
233.17584365906319
 30
0.0
  0
VERTEX
  5
1798
  8
L1
 10
375.8809458905061
 20
232.97108611925009
 30
0.0
  0
VERTEX
  5
1799
  8
L1
 10
375.85596381954599
 20
232.7669436223029
 30
0.0
  0
VERTEX
  5
179A
  8
L1
 10
375.8254706906207
 20
232.5635653702833
 30
0.0
  0
VERTEX
  5
179B
  8
L1
 10
375.78948879030821
 20
232.36110000668731
 30
0.0
  0
VERTEX
  5
179C
  8
L1
 10
375.74804441677668
 20
232.1596955078065
 30
0.0
  0
VERTEX
  5
179D
  8
L1
 10
375.7011678605636
 20
231.95949907457589
 30
0.0
  0
VERTEX
  5
179E
  8
L1
 10
375.64889338243751
 20
231.7606570249888
 30
0.0
  0
VERTEX
  5
179F
  8
L1
 10
375.59125918835753
 20
231.5633146871576
 30
0.0
  0
VERTEX
  5
17A0
  8
L1
 10
375.5283074015498
 20
231.36761629309709
 30
0.0
  0
VERTEX
  5
17A1
  8
L1
 10
375.46008403172078
 20
231.17370487330911
 30
0.0
  0
VERTEX
  5
17A2
  8
L1
 10
375.38663894143019
 20
230.98172215224611
 30
0.0
  0
VERTEX
  5
17A3
  8
L1
 10
375.3080258096474
 20
230.7918084447281
 30
0.0
  0
VERTEX
  5
17A4
  8
L1
 10
375.22430209251962
 20
230.6041025533911
 30
0.0
  0
VERTEX
  5
17A5
  8
L1
 10
375.13552898137817
 20
230.4187416672396
 30
0.0
  0
VERTEX
  5
17A6
  8
L1
 10
375.04177135801592
 20
230.23586126137931
 30
0.0
  0
VERTEX
  5
17A7
  8
L1
 10
374.94309774726662
 20
230.05559499800171
 30
0.0
  0
VERTEX
  5
17A8
  8
L1
 10
374.83958026692238
 20
229.87807462869469
 30
0.0
  0
VERTEX
  5
17A9
  8
L1
 10
374.73129457502449
 20
229.7034298981487
 30
0.0
  0
VERTEX
  5
17AA
  8
L1
 10
374.6183198145672
 20
229.53178844932981
 30
0.0
  0
VERTEX
  5
17AB
  8
L1
 10
374.50073855565421
 20
229.3632757301892
 30
0.0
  0
VERTEX
  5
17AC
  8
L1
 10
374.37863673515068
 20
229.19801490197679
 30
0.0
  0
VERTEX
  5
17AD
  8
L1
 10
374.2521035938741
 20
229.0361267492261
 30
0.0
  0
VERTEX
  5
17AE
  8
L1
 10
374.12123161137112
 20
228.877729591476
 30
0.0
  0
VERTEX
  5
17AF
  8
L1
 10
373.98611643832601
 20
228.72293919679461
 30
0.0
  0
VERTEX
  5
17B0
  8
L1
 10
373.84685682665321
 20
228.57186869716719
 30
0.0
  0
VERTEX
  5
17B1
  8
L1
 10
373.70355455732158
 20
228.4246285058116
 30
0.0
  0
VERTEX
  5
17B2
  8
L1
 10
373.55631436596599
 20
228.28132623648
 30
0.0
  0
VERTEX
  5
17B3
  8
L1
 10
373.40524386633859
 20
228.1420666248072
 30
0.0
  0
VERTEX
  5
17B4
  8
L1
 10
373.25045347165718
 20
228.00695145176209
 30
0.0
  0
VERTEX
  5
17B5
  8
L1
 10
373.09205631390711
 20
227.87607946925911
 30
0.0
  0
VERTEX
  5
17B6
  8
L1
 10
372.93016816115642
 20
227.74954632798261
 30
0.0
  0
VERTEX
  5
17B7
  8
L1
 10
372.76490733294401
 20
227.627444507479
 30
0.0
  0
VERTEX
  5
17B8
  8
L1
 10
372.5963946138034
 20
227.50986324856609
 30
0.0
  0
VERTEX
  5
17B9
  8
L1
 10
372.42475316498451
 20
227.39688848810869
 30
0.0
  0
VERTEX
  5
17BA
  8
L1
 10
372.25010843443852
 20
227.2886027962108
 30
0.0
  0
VERTEX
  5
17BB
  8
L1
 10
372.07258806513153
 20
227.18508531586659
 30
0.0
  0
VERTEX
  5
17BC
  8
L1
 10
371.89232180175401
 20
227.08641170511731
 30
0.0
  0
VERTEX
  5
17BD
  8
L1
 10
371.70944139589358
 20
226.99265408175501
 30
0.0
  0
VERTEX
  5
17BE
  8
L1
 10
371.52408050974208
 20
226.90388097061361
 30
0.0
  0
VERTEX
  5
17BF
  8
L1
 10
371.3363746184051
 20
226.8201572534858
 30
0.0
  0
VERTEX
  5
17C0
  8
L1
 10
371.14646091088719
 20
226.74154412170299
 30
0.0
  0
VERTEX
  5
17C1
  8
L1
 10
370.9544781898241
 20
226.6680990314124
 30
0.0
  0
VERTEX
  5
17C2
  8
L1
 10
370.76056677003612
 20
226.59987566158341
 30
0.0
  0
VERTEX
  5
17C3
  8
L1
 10
370.56486837597549
 20
226.53692387477571
 30
0.0
  0
VERTEX
  5
17C4
  8
L1
 10
370.36752603814438
 20
226.4792896806957
 30
0.0
  0
VERTEX
  5
17C5
  8
L1
 10
370.1686839885574
 20
226.42701520256961
 30
0.0
  0
VERTEX
  5
17C6
  8
L1
 10
369.9684875553267
 20
226.3801386463565
 30
0.0
  0
VERTEX
  5
17C7
  8
L1
 10
369.76708305644593
 20
226.33869427282499
 30
0.0
  0
VERTEX
  5
17C8
  8
L1
 10
369.56461769284988
 20
226.3027123725125
 30
0.0
  0
VERTEX
  5
17C9
  8
L1
 10
369.36123944083027
 20
226.2722192435871
 30
0.0
  0
VERTEX
  5
17CA
  8
L1
 10
369.15709694388312
 20
226.24723717262711
 30
0.0
  0
VERTEX
  5
17CB
  8
L1
 10
368.95233940407002
 20
226.22778441833159
 30
0.0
  0
VERTEX
  5
17CC
  8
L1
 10
368.74711647296988
 20
226.21387519817679
 30
0.0
  0
VERTEX
  5
17CD
  8
L1
 10
368.54157814230371
 20
226.2055196780239
 30
0.0
  0
VERTEX
  5
17CE
  8
L1
 10
368.33587463430871
 20
226.2027239646898
 30
0.0
  0
SEQEND
  5
17CF
  8
L1
  0
ARC
  5
170
  8
L1
 10
380.8532219739264
 20
221.27496108920701
 30
0.0
 40
2.0
 50
90.0
 51
180.0
  0
LINE
  5
171
  8
L1
 10
377.22572058691151
 20
236.9965155472928
 30
0.0
 11
377.22495433981391
 21
237.0119227248812
 31
0.0
  0
LINE
  5
172
  8
L1
 10
377.22572058691151
 20
236.9965155472928
 30
0.0
 11
377.22572058691151
 21
232.4920469403564
 31
0.0
  0
LINE
  5
173
  8
L1
 10
25.57655670569471
 20
240.712656958298
 30
0.0
 11
169.8765567056947
 21
240.71265695829791
 31
0.0
  0
LINE
  5
174
  8
L1
 10
184.28355670569471
 20
241.55568105852251
 30
0.0
 11
11.169556705694781
 21
241.55568105852259
 31
0.0
  0
LINE
  5
175
  8
L1
 10
11.209455946426541
 20
242.2749610892069
 30
0.0
 11
184.24365746496281
 21
242.2749610892069
 31
0.0
  0
LINE
  5
176
  8
L1
 10
169.73772302191401
 20
238.87372047200961
 30
0.0
 11
25.715390389475541
 21
238.87372047200961
 31
0.0
  0
ARC
  5
177
  8
L1
 10
12.076556705694941
 20
237.9126569582977
 30
0.0
 40
2.6000000000000001
 50
90.0
 51
180.0
  0
POLYLINE
  5
178
  8
L1
 66
     1
 10
0.0
 20
0.0
 30
0.0
  0
VERTEX
  5
17D0
  8
L1
 10
11.169556705694781
 20
242.27474539607189
 30
0.0
  0
VERTEX
  5
17D1
  8
L1
 10
10.507769103249361
 20
242.2043713484122
 30
0.0
  0
VERTEX
  5
17D2
  8
L1
 10
9.8527843194537468
 20
242.00224196030021
 30
0.0
  0
VERTEX
  5
17D3
  8
L1
 10
9.249937474798628
 20
241.67609770848389
 30
0.0
  0
VERTEX
  5
17D4
  8
L1
 10
8.7366275866211822
 20
241.25258607737129
 30
0.0
  0
VERTEX
  5
17D5
  8
L1
 10
8.3131159555087493
 20
240.73927618919379
 30
0.0
  0
VERTEX
  5
17D6
  8
L1
 10
7.9869717036924044
 20
240.13642934453881
 30
0.0
  0
VERTEX
  5
17D7
  8
L1
 10
7.7848423155805326
 20
239.481444560743
 30
0.0
  0
VERTEX
  5
17D8
  8
L1
 10
7.7144682679207222
 20
238.81965695829771
 30
0.0
  0
SEQEND
  5
17D9
  8
L1
  0
ARC
  5
179
  8
L1
 10
11.169556705694781
 20
238.81965695829771
 30
0.0
 40
2.736024100224733
 50
90.0
 51
180.0
  0
POLYLINE
  5
17A
  8
L1
 66
     1
 10
0.0
 20
0.0
 30
0.0
  0
VERTEX
  5
17DA
  8
L1
 10
7.7144682679207222
 20
238.81965695829771
 30
0.0
  0
VERTEX
  5
17DB
  8
L1
 10
7.714306498506005
 20
238.79970499033601
 30
0.0
  0
VERTEX
  5
17DC
  8
L1
 10
7.7142525747856894
 20
238.77975771756601
 30
0.0
  0
SEQEND
  5
17DD
  8
L1
  0
LINE
  5
17B
  8
L1
 10
23.34946480924469
 20
240.5126569582977
 30
0.0
 11
12.076556705694941
 21
240.5126569582977
 31
0.0
  0
POLYLINE
  5
17C
  8
L1
 66
     1
 10
0.0
 20
0.0
 30
0.0
  0
VERTEX
  5
17DE
  8
L1
 10
11.20945594642677
 20
242.2749610892069
 30
0.0
  0
VERTEX
  5
17DF
  8
L1
 10
11.189508673656571
 20
242.27490716548661
 30
0.0
  0
VERTEX
  5
17E0
  8
L1
 10
11.169556705694781
 20
242.27474539607189
 30
0.0
  0
SEQEND
  5
17E1
  8
L1
  0
POLYLINE
  5
17D
  8
L1
 66
     1
 10
0.0
 20
0.0
 30
0.0
  0
VERTEX
  5
17E2
  8
L1
 10
19.191104289663539
 20
240.09657819316499
 30
0.0
  0
VERTEX
  5
17E3
  8
L1
 10
19.27803767058748
 20
240.3077826105017
 30
0.0
  0
VERTEX
  5
17E4
  8
L1
 10
19.7552439779036
 20
240.5126569582977
 30
0.0
  0
SEQEND
  5
17E5
  8
L1
  0
POLYLINE
  5
17E
  8
L1
 66
     1
 10
0.0
 20
0.0
 30
0.0
  0
VERTEX
  5
17E6
  8
L1
 10
19.191104289663429
 20
240.09657819316499
 30
0.0
  0
VERTEX
  5
17E7
  8
L1
 10
19.213446588931951
 20
239.9803867450741
 30
0.0
  0
VERTEX
  5
17E8
  8
L1
 10
19.27898080173264
 20
239.8818590224061
 30
0.0
  0
SEQEND
  5
17E9
  8
L1
  0
POLYLINE
  5
17F
  8
L1
 66
     1
 10
0.0
 20
0.0
 30
0.0
  0
VERTEX
  5
17EA
  8
L1
 10
23.54033307671483
 20
239.9812179425119
 30
0.0
  0
VERTEX
  5
17EB
  8
L1
 10
23.542488747415341
 20
239.98301307333639
 30
0.0
  0
VERTEX
  5
17EC
  8
L1
 10
23.61665606149068
 20
240.07627577195331
 30
0.0
  0
VERTEX
  5
17ED
  8
L1
 10
23.6481707904723
 20
240.18495604926119
 30
0.0
  0
VERTEX
  5
17EE
  8
L1
 10
23.636096096370292
 20
240.30119555603
 30
0.0
  0
VERTEX
  5
17EF
  8
L1
 10
23.579834075468451
 20
240.40482817425629
 30
0.0
  0
VERTEX
  5
17F0
  8
L1
 10
23.491103156118069
 20
240.47711712307009
 30
0.0
  0
VERTEX
  5
17F1
  8
L1
 10
23.40125570335368
 20
240.50815291267961
 30
0.0
  0
VERTEX
  5
17F2
  8
L1
 10
23.34946480924469
 20
240.5126569582977
 30
0.0
  0
SEQEND
  5
17F3
  8
L1
  0
POLYLINE
  5
180
  8
L1
 66
     1
 10
0.0
 20
0.0
 30
0.0
  0
VERTEX
  5
17F4
  8
L1
 10
25.71508236866503
 20
238.8737201557538
 30
0.0
  0
VERTEX
  5
17F5
  8
L1
 10
25.715236339518071
 20
238.87372039294559
 30
0.0
  0
VERTEX
  5
17F6
  8
L1
 10
25.715390389475541
 20
238.87372047200961
 30
0.0
  0
SEQEND
  5
17F7
  8
L1
  0
POLYLINE
  5
181
  8
L1
 66
     1
 10
0.0
 20
0.0
 30
0.0
  0
VERTEX
  5
17F8
  8
L1
 10
25.415493508238619
 20
238.57413129532731
 30
0.0
  0
VERTEX
  5
17F9
  8
L1
 10
25.503445973921941
 20
238.78576769007049
 30
0.0
  0
VERTEX
  5
17FA
  8
L1
 10
25.715082368665261
 20
238.87372015575369
 30
0.0
  0
SEQEND
  5
17FB
  8
L1
  0
POLYLINE
  5
182
  8
L1
 66
     1
 10
0.0
 20
0.0
 30
0.0
  0
VERTEX
  5
17FC
  8
L1
 10
25.415493191982758
 20
238.57382327451711
 30
0.0
  0
VERTEX
  5
17FD
  8
L1
 10
25.415493271046721
 20
238.5739773244745
 30
0.0
  0
VERTEX
  5
17FE
  8
L1
 10
25.415493508238619
 20
238.57413129532739
 30
0.0
  0
SEQEND
  5
17FF
  8
L1
  0
ARC
  5
183
  8
L1
 10
25.576556705694831
 20
237.51265695829781
 30
0.0
 40
3.2000000000000282
 50
90.0
 51
129.51794668407791
  0
LINE
  5
184
  8
L1
 10
172.10364860214489
 20
240.5126569582977
 30
0.0
 11
183.3765567056947
 21
240.5126569582977
 31
0.0
  0
ARC
  5
185
  8
L1
 10
169.8765567056947
 20
237.51265695829781
 30
0.0
 40
3.2000000000000282
 50
50.482053315922073
 51
90.0
  0
POLYLINE
  5
186
  8
L1
 66
     1
 10
0.0
 20
0.0
 30
0.0
  0
VERTEX
  5
1800
  8
L1
 10
170.03762021940679
 20
238.57382327451711
 30
0.0
  0
VERTEX
  5
1801
  8
L1
 10
170.0376201403428
 20
238.5739773244745
 30
0.0
  0
VERTEX
  5
1802
  8
L1
 10
170.03761990315101
 20
238.57413129532739
 30
0.0
  0
SEQEND
  5
1803
  8
L1
  0
POLYLINE
  5
187
  8
L1
 66
     1
 10
0.0
 20
0.0
 30
0.0
  0
VERTEX
  5
1804
  8
L1
 10
170.0376199031509
 20
238.57413129532731
 30
0.0
  0
VERTEX
  5
1805
  8
L1
 10
169.94966743746761
 20
238.78576769007049
 30
0.0
  0
VERTEX
  5
1806
  8
L1
 10
169.73803104272429
 20
238.87372015575369
 30
0.0
  0
SEQEND
  5
1807
  8
L1
  0
POLYLINE
  5
188
  8
L1
 66
     1
 10
0.0
 20
0.0
 30
0.0
  0
VERTEX
  5
1808
  8
L1
 10
169.73803104272449
 20
238.8737201557538
 30
0.0
  0
VERTEX
  5
1809
  8
L1
 10
169.73787707187159
 20
238.87372039294559
 30
0.0
  0
VERTEX
  5
180A
  8
L1
 10
169.73772302191409
 20
238.87372047200961
 30
0.0
  0
SEQEND
  5
180B
  8
L1
  0
POLYLINE
  5
189
  8
L1
 66
     1
 10
0.0
 20
0.0
 30
0.0
  0
VERTEX
  5
180C
  8
L1
 10
171.91278033467469
 20
239.9812179425119
 30
0.0
  0
VERTEX
  5
180D
  8
L1
 10
171.91062466397429
 20
239.98301307333639
 30
0.0
  0
VERTEX
  5
180E
  8
L1
 10
171.83645734989881
 20
240.07627577195331
 30
0.0
  0
VERTEX
  5
180F
  8
L1
 10
171.8049426209173
 20
240.18495604926119
 30
0.0
  0
VERTEX
  5
1810
  8
L1
 10
171.81701731501931
 20
240.30119555603
 30
0.0
  0
VERTEX
  5
1811
  8
L1
 10
171.87327933592101
 20
240.40482817425629
 30
0.0
  0
VERTEX
  5
1812
  8
L1
 10
171.96201025527151
 20
240.47711712307009
 30
0.0
  0
VERTEX
  5
1813
  8
L1
 10
172.0518577080359
 20
240.50815291267961
 30
0.0
  0
VERTEX
  5
1814
  8
L1
 10
172.10364860214489
 20
240.5126569582977
 30
0.0
  0
SEQEND
  5
1815
  8
L1
  0
ARC
  5
18A
  8
L1
 10
183.3765567056947
 20
237.9126569582977
 30
0.0
 40
2.6000000000000001
 50
0.0
 51
90.0
  0
POLYLINE
  5
18B
  8
L1
 66
     1
 10
0.0
 20
0.0
 30
0.0
  0
VERTEX
  5
1816
  8
L1
 10
176.26200912172609
 20
240.09657819316499
 30
0.0
  0
VERTEX
  5
1817
  8
L1
 10
176.23966682245759
 20
239.9803867450741
 30
0.0
  0
VERTEX
  5
1818
  8
L1
 10
176.17413260965691
 20
239.8818590224061
 30
0.0
  0
SEQEND
  5
1819
  8
L1
  0
POLYLINE
  5
18C
  8
L1
 66
     1
 10
0.0
 20
0.0
 30
0.0
  0
VERTEX
  5
181A
  8
L1
 10
176.26200912172601
 20
240.09657819316499
 30
0.0
  0
VERTEX
  5
181B
  8
L1
 10
176.1750757408021
 20
240.3077826105017
 30
0.0
  0
VERTEX
  5
181C
  8
L1
 10
175.69786943348589
 20
240.5126569582977
 30
0.0
  0
SEQEND
  5
181D
  8
L1
  0
ARC
  5
18D
  8
L1
 10
184.28355670569471
 20
238.81965695829771
 30
0.0
 40
2.736024100224733
 50
0.0
 51
90.0
  0
POLYLINE
  5
18E
  8
L1
 66
     1
 10
0.0
 20
0.0
 30
0.0
  0
VERTEX
  5
181E
  8
L1
 10
187.73864514346889
 20
238.81965695829771
 30
0.0
  0
VERTEX
  5
181F
  8
L1
 10
187.73880691288349
 20
238.79970499033601
 30
0.0
  0
VERTEX
  5
1820
  8
L1
 10
187.73886083660389
 20
238.77975771756601
 30
0.0
  0
SEQEND
  5
1821
  8
L1
  0
POLYLINE
  5
18F
  8
L1
 66
     1
 10
0.0
 20
0.0
 30
0.0
  0
VERTEX
  5
1822
  8
L1
 10
184.28355670569471
 20
242.27474539607189
 30
0.0
  0
VERTEX
  5
1823
  8
L1
 10
184.94534430814019
 20
242.2043713484122
 30
0.0
  0
VERTEX
  5
1824
  8
L1
 10
185.60032909193581
 20
242.00224196030021
 30
0.0
  0
VERTEX
  5
1825
  8
L1
 10
186.2031759365909
 20
241.67609770848389
 30
0.0
  0
VERTEX
  5
1826
  8
L1
 10
186.7164858247684
 20
241.25258607737129
 30
0.0
  0
VERTEX
  5
1827
  8
L1
 10
187.1399974558808
 20
240.73927618919379
 30
0.0
  0
VERTEX
  5
1828
  8
L1
 10
187.46614170769709
 20
240.13642934453881
 30
0.0
  0
VERTEX
  5
1829
  8
L1
 10
187.66827109580899
 20
239.481444560743
 30
0.0
  0
VERTEX
  5
182A
  8
L1
 10
187.7386451434688
 20
238.81965695829771
 30
0.0
  0
SEQEND
  5
182B
  8
L1
  0
POLYLINE
  5
190
  8
L1
 66
     1
 10
0.0
 20
0.0
 30
0.0
  0
VERTEX
  5
182C
  8
L1
 10
184.24365746496281
 20
242.2749610892069
 30
0.0
  0
VERTEX
  5
182D
  8
L1
 10
184.26360473773289
 20
242.27490716548661
 30
0.0
  0
VERTEX
  5
182E
  8
L1
 10
184.28355670569471
 20
242.27474539607189
 30
0.0
  0
SEQEND
  5
182F
  8
L1
  0
POLYLINE
  5
19B
  8
L1
 66
     1
 10
0.0
 20
0.0
 30
0.0
  0
VERTEX
  5
1830
  8
L1
 10
359.8532219739264
 20
238.77975771756601
 30
0.0
  0
VERTEX
  5
1831
  8
L1
 10
359.85327589764671
 20
238.79970499033601
 30
0.0
  0
VERTEX
  5
1832
  8
L1
 10
359.85343766706143
 20
238.81965695829771
 30
0.0
  0
SEQEND
  5
1833
  8
L1
  0
POLYLINE
  5
19C
  8
L1
 66
     1
 10
0.0
 20
0.0
 30
0.0
  0
VERTEX
  5
1834
  8
L1
 10
359.85343766706143
 20
238.81965695829771
 30
0.0
  0
VERTEX
  5
1835
  8
L1
 10
359.87251203244949
 20
239.14828752693009
 30
0.0
  0
VERTEX
  5
1836
  8
L1
 10
359.92381171472118
 20
239.48144456074311
 30
0.0
  0
VERTEX
  5
1837
  8
L1
 10
360.00850164449253
 20
239.8128089014717
 30
0.0
  0
VERTEX
  5
1838
  8
L1
 10
360.125941102833
 20
240.13642934453881
 30
0.0
  0
VERTEX
  5
1839
  8
L1
 10
360.27476960583499
 20
240.44685366118111
 30
0.0
  0
VERTEX
  5
183A
  8
L1
 10
360.4520853546494
 20
240.7392761891937
 30
0.0
  0
VERTEX
  5
183B
  8
L1
 10
360.65412548925519
 20
241.00905597654199
 30
0.0
  0
VERTEX
  5
183C
  8
L1
 10
360.87559698576177
 20
241.2525860773714
 30
0.0
  0
VERTEX
  5
183D
  8
L1
 10
361.11912708659111
 20
241.47405757387801
 30
0.0
  0
VERTEX
  5
183E
  8
L1
 10
361.38890687393939
 20
241.67609770848381
 30
0.0
  0
VERTEX
  5
183F
  8
L1
 10
361.6813294019521
 20
241.8534134572983
 30
0.0
  0
VERTEX
  5
1840
  8
L1
 10
361.99175371859451
 20
242.00224196030021
 30
0.0
  0
VERTEX
  5
1841
  8
L1
 10
362.31537416166162
 20
242.11968141864071
 30
0.0
  0
VERTEX
  5
1842
  8
L1
 10
362.64673850239018
 20
242.20437134841211
 30
0.0
  0
VERTEX
  5
1843
  8
L1
 10
362.97989553620312
 20
242.25567103068369
 30
0.0
  0
VERTEX
  5
1844
  8
L1
 10
363.30852610483549
 20
242.27474539607189
 30
0.0
  0
SEQEND
  5
1845
  8
L1
  0
POLYLINE
  5
19D
  8
L1
 66
     1
 10
0.0
 20
0.0
 30
0.0
  0
VERTEX
  5
1846
  8
L1
 10
363.30852610483549
 20
242.27474539607189
 30
0.0
  0
VERTEX
  5
1847
  8
L1
 10
363.32847807279728
 20
242.27490716548661
 30
0.0
  0
VERTEX
  5
1848
  8
L1
 10
363.34842534556742
 20
242.2749610892069
 30
0.0
  0
SEQEND
  5
1849
  8
L1
  0
POLYLINE
  5
19E
  8
L1
 66
     1
 10
0.0
 20
0.0
 30
0.0
  0
VERTEX
  5
184A
  8
L1
 10
377.92271816795261
 20
240.30867703576089
 30
0.0
  0
VERTEX
  5
184B
  8
L1
 10
377.72673222616959
 20
240.29911774476099
 30
0.0
  0
VERTEX
  5
184C
  8
L1
 10
377.53268507487797
 20
240.2704245559801
 30
0.0
  0
VERTEX
  5
184D
  8
L1
 10
377.34243898779459
 20
240.22287283842499
 30
0.0
  0
VERTEX
  5
184E
  8
L1
 10
377.15781975975972
 20
240.15691894671431
 30
0.0
  0
VERTEX
  5
184F
  8
L1
 10
376.98059918455471
 20
240.07319584143659
 30
0.0
  0
VERTEX
  5
1850
  8
L1
 10
376.8124780509674
 20
239.9725070146163
 30
0.0
  0
VERTEX
  5
1851
  8
L1
 10
376.6550698202941
 20
239.8558187785876
 30
0.0
  0
VERTEX
  5
1852
  8
L1
 10
376.509885141925
 20
239.72425099227939
 30
0.0
  0
VERTEX
  5
1853
  8
L1
 10
376.37831735561679
 20
239.57906631391029
 30
0.0
  0
VERTEX
  5
1854
  8
L1
 10
376.26162911958812
 20
239.42165808323699
 30
0.0
  0
VERTEX
  5
1855
  8
L1
 10
376.16094029276769
 20
239.25353694964971
 30
0.0
  0
VERTEX
  5
1856
  8
L1
 10
376.07721718749002
 20
239.0763163744447
 30
0.0
  0
VERTEX
  5
1857
  8
L1
 10
376.01126329577937
 20
238.8916971464098
 30
0.0
  0
VERTEX
  5
1858
  8
L1
 10
375.96371157822421
 20
238.7014510593263
 30
0.0
  0
VERTEX
  5
1859
  8
L1
 10
375.93501838944331
 20
238.5074039080348
 30
0.0
  0
VERTEX
  5
185A
  8
L1
 10
375.92545909844341
 20
238.31141796625181
 30
0.0
  0
SEQEND
  5
185B
  8
L1
  0
LINE
  5
1B2
  8
L6
 10
449.86552610483551
 20
249.53026019682309
 30
0.0
 11
449.86552610483551
 21
104.9950537197724
 31
0.0
  0
POLYLINE
  5
1B6
  8
L1
 66
     1
 10
0.0
 20
0.0
 30
0.0
  0
VERTEX
  5
185C
  8
L1
 10
520.6133672636156
 20
239.113710257658
 30
0.0
  0
VERTEX
  5
185D
  8
L1
 10
520.95886875820042
 20
239.08180296602009
 30
0.0
  0
VERTEX
  5
185E
  8
L1
 10
521.2905690540797
 20
238.9870472084541
 30
0.0
  0
VERTEX
  5
185F
  8
L1
 10
521.59842463475229
 20
238.83231208404291
 30
0.0
  0
VERTEX
  5
1860
  8
L1
 10
521.87311397520602
 20
238.62228280047151
 30
0.0
  0
VERTEX
  5
1861
  8
L1
 10
522.10631978734159
 20
238.36331881114251
 30
0.0
  0
VERTEX
  5
1862
  8
L1
 10
522.29098085821579
 20
238.06326125799151
 30
0.0
  0
VERTEX
  5
1863
  8
L1
 10
522.42150585572745
 20
237.73119555041939
 30
0.0
  0
VERTEX
  5
1864
  8
L1
 10
522.49394262794056
 20
237.37717626918749
 30
0.0
  0
VERTEX
  5
1865
  8
L1
 10
522.50609786985717
 20
237.01192272488109
 30
0.0
  0
SEQEND
  5
1866
  8
L1
  0
LINE
  5
1B7
  8
L1
 10
539.8778302357448
 20
115.74555619902949
 30
0.0
 11
539.8778302357448
 21
238.77975771756601
 31
0.0
  0
POLYLINE
  5
1B8
  8
L1
 66
     1
 10
0.0
 20
0.0
 30
0.0
  0
VERTEX
  5
1867
  8
L1
 10
538.53141216951462
 20
237.43333965133581
 30
0.0
  0
VERTEX
  5
1868
  8
L1
 10
538.52840655056013
 20
237.5778923262217
 30
0.0
  0
VERTEX
  5
1869
  8
L1
 10
538.51943994668454
 20
237.7221834856216
 30
0.0
  0
VERTEX
  5
186A
  8
L1
 10
538.50452762380883
 20
237.8659674693674
 30
0.0
  0
VERTEX
  5
186B
  8
L1
 10
538.48369497062458
 20
238.0089994807731
 30
0.0
  0
VERTEX
  5
186C
  8
L1
 10
538.45697745536904
 20
238.1510360034091
 30
0.0
  0
VERTEX
  5
186D
  8
L1
 10
538.42442056543962
 20
238.2918352156961
 30
0.0
  0
VERTEX
  5
186E
  8
L1
 10
538.38607972994964
 20
238.4311574026141
 30
0.0
  0
VERTEX
  5
186F
  8
L1
 10
538.34202022535908
 20
238.56876536382441
 30
0.0
  0
VERTEX
  5
1870
  8
L1
 10
538.2923170643395
 20
238.7044248175109
 30
0.0
  0
VERTEX
  5
1871
  8
L1
 10
538.2370548680617
 20
238.83790479925179
 30
0.0
  0
VERTEX
  5
1872
  8
L1
 10
538.17632772212676
 20
238.96897805524381
 30
0.0
  0
VERTEX
  5
1873
  8
L1
 10
538.11023901638157
 20
239.09742142920851
 30
0.0
  0
VERTEX
  5
1874
  8
L1
 10
538.03890126889451
 20
239.22301624232341
 30
0.0
  0
VERTEX
  5
1875
  8
L1
 10
537.96243593439056
 20
239.34554866552909
 30
0.0
  0
VERTEX
  5
1876
  8
L1
 10
537.88097319746998
 20
239.46481008357969
 30
0.0
  0
VERTEX
  5
1877
  8
L1
 10
537.79465175096584
 20
239.58059745021691
 30
0.0
  0
VERTEX
  5
1878
  8
L1
 10
537.70361855981423
 20
239.69271363386281
 30
0.0
  0
VERTEX
  5
1879
  8
L1
 10
537.60802861084267
 20
239.80096775324171
 30
0.0
  0
VERTEX
  5
187A
  8
L1
 10
537.50804464890052
 20
239.90517550236271
 30
0.0
  0
VERTEX
  5
187B
  8
L1
 10
537.40383689977955
 20
240.00515946430491
 30
0.0
  0
VERTEX
  5
187C
  8
L1
 10
537.29558278040065
 20
240.1007494132763
 30
0.0
  0
VERTEX
  5
187D
  8
L1
 10
537.1834665967549
 20
240.191782604428
 30
0.0
  0
VERTEX
  5
187E
  8
L1
 10
537.06767923011762
 20
240.2781040509322
 30
0.0
  0
VERTEX
  5
187F
  8
L1
 10
536.94841781206696
 20
240.3595667878528
 30
0.0
  0
VERTEX
  5
1880
  8
L1
 10
536.82588538886125
 20
240.43603212235669
 30
0.0
  0
VERTEX
  5
1881
  8
L1
 10
536.70029057574629
 20
240.50736986984381
 30
0.0
  0
VERTEX
  5
1882
  8
L1
 10
536.57184720178157
 20
240.573458575589
 30
0.0
  0
VERTEX
  5
1883
  8
L1
 10
536.44077394578972
 20
240.63418572152389
 30
0.0
  0
VERTEX
  5
1884
  8
L1
 10
536.30729396404877
 20
240.68944791780169
 30
0.0
  0
VERTEX
  5
1885
  8
L1
 10
536.17163451036231
 20
240.73915107882129
 30
0.0
  0
VERTEX
  5
1886
  8
L1
 10
536.03402654915203
 20
240.78321058341169
 30
0.0
  0
VERTEX
  5
1887
  8
L1
 10
535.89470436223394
 20
240.82155141890181
 30
0.0
  0
VERTEX
  5
1888
  8
L1
 10
535.75390514994695
 20
240.85410830883129
 30
0.0
  0
VERTEX
  5
1889
  8
L1
 10
535.61186862731086
 20
240.8808258240868
 30
0.0
  0
VERTEX
  5
188A
  8
L1
 10
535.46883661590516
 20
240.90165847727101
 30
0.0
  0
VERTEX
  5
188B
  8
L1
 10
535.32505263215944
 20
240.91657080014679
 30
0.0
  0
VERTEX
  5
188C
  8
L1
 10
535.18076147275951
 20
240.92553740402229
 30
0.0
  0
VERTEX
  5
188D
  8
L1
 10
535.03620879787366
 20
240.92854302297681
 30
0.0
  0
SEQEND
  5
188E
  8
L1
  0
LINE
  5
1B9
  8
L1
 10
523.80559311122761
 20
238.31141796625181
 30
0.0
 11
523.80559311122761
 21
233.7923084288245
 31
0.0
  0
CIRCLE
  5
1BA
  8
L1
 10
531.61552610483568
 20
234.0126569582977
 30
0.0
 40
6.097393363178492
  0
ARC
  5
1BB
  8
L1
 10
531.61552610483568
 20
234.0126569582977
 30
0.0
 40
4.9551339946734032
 50
357.46873820670868
 51
92.531261793292543
  0
LINE
  5
1BC
  8
L1
 10
526.66522696714901
 20
234.2314978881692
 30
0.0
 11
531.3966851749642
 21
238.9629560959844
 31
0.0
  0
CIRCLE
  5
1BD
  8
L1
 10
531.61552610483568
 20
234.0126569582977
 30
0.0
 40
5.7974047862592784
  0
LINE
  5
1D4
  8
L1
 10
536.71657940419595
 20
131.51481579951781
 30
0.0
 11
536.71657940419595
 21
223.0104981170777
 31
0.0
  0
LINE
  5
1D5
  8
L1
 10
538.53141216951462
 20
117.09197426525969
 30
0.0
 11
538.53141216951462
 21
237.43333965133581
 31
0.0
  0
LINE
  5
1D6
  8
L1
 10
537.91154618229882
 20
224.20546489518071
 30
0.0
 11
537.91154618229882
 21
130.3198490214148
 31
0.0
  0
LINE
  5
1D7
  8
L1
 10
534.59938469383064
 20
224.9024624762217
 30
0.0
 11
534.59938469383064
 21
129.62285144037381
 31
0.0
  0
LINE
  5
1D8
  8
L1
 10
520.8778302357448
 20
221.27496108920701
 30
0.0
 11
520.8778302357448
 21
133.2503528273885
 31
0.0
  0
POLYLINE
  5
1D9
  8
L1
 66
     1
 10
0.0
 20
0.0
 30
0.0
  0
VERTEX
  5
188F
  8
L1
 10
530.09491608689439
 20
129.62285144037381
 30
0.0
  0
VERTEX
  5
1890
  8
L1
 10
529.30090841962726
 20
129.58130584573709
 30
0.0
  0
VERTEX
  5
1891
  8
L1
 10
528.51579737306213
 20
129.45712265944809
 30
0.0
  0
VERTEX
  5
1892
  8
L1
 10
527.74815484287763
 20
129.25165772196121
 30
0.0
  0
VERTEX
  5
1893
  8
L1
 10
527.00636200230565
 20
128.96715431340519
 30
0.0
  0
VERTEX
  5
1894
  8
L1
 10
526.29851779591263
 20
128.60671866129931
 30
0.0
  0
VERTEX
  5
1895
  8
L1
 10
525.63235051477363
 20
128.17428602654999
 30
0.0
  0
VERTEX
  5
1896
  8
L1
 10
525.01513341846623
 20
127.6745777380056
 30
0.0
  0
VERTEX
  5
1897
  8
L1
 10
524.45360532512791
 20
127.1130496446672
 30
0.0
  0
VERTEX
  5
1898
  8
L1
 10
523.9538970365835
 20
126.4958325483597
 30
0.0
  0
VERTEX
  5
1899
  8
L1
 10
523.52146440183424
 20
125.8296652672209
 30
0.0
  0
VERTEX
  5
189A
  8
L1
 10
523.16102874972819
 20
125.1218210608279
 30
0.0
  0
VERTEX
  5
189B
  8
L1
 10
522.87652534117217
 20
124.3800282202558
 30
0.0
  0
VERTEX
  5
189C
  8
L1
 10
522.67106040368515
 20
123.61238569007141
 30
0.0
  0
VERTEX
  5
189D
  8
L1
 10
522.5468772173964
 20
122.8272746435061
 30
0.0
  0
VERTEX
  5
189E
  8
L1
 10
522.50533162275963
 20
122.0332669762391
 30
0.0
  0
SEQEND
  5
189F
  8
L1
  0
POLYLINE
  5
1DA
  8
L1
 66
     1
 10
0.0
 20
0.0
 30
0.0
  0
VERTEX
  5
18A0
  8
L1
 10
523.80559311122761
 20
120.7330054877709
 30
0.0
  0
VERTEX
  5
18A1
  8
L1
 10
523.80838882456169
 20
120.93870899576589
 30
0.0
  0
VERTEX
  5
18A2
  8
L1
 10
523.81674434471472
 20
121.14424732643219
 30
0.0
  0
VERTEX
  5
18A3
  8
L1
 10
523.83065356486952
 20
121.3494702575322
 30
0.0
  0
VERTEX
  5
18A4
  8
L1
 10
523.85010631916487
 20
121.5542277973454
 30
0.0
  0
VERTEX
  5
18A5
  8
L1
 10
523.87508839012503
 20
121.7583702942926
 30
0.0
  0
VERTEX
  5
18A6
  8
L1
 10
523.90558151905043
 20
121.96174854631219
 30
0.0
  0
VERTEX
  5
18A7
  8
L1
 10
523.94156341936275
 20
122.1642139099081
 30
0.0
  0
VERTEX
  5
18A8
  8
L1
 10
523.98300779289434
 20
122.3656184087889
 30
0.0
  0
VERTEX
  5
18A9
  8
L1
 10
524.02988434910753
 20
122.56581484201961
 30
0.0
  0
VERTEX
  5
18AA
  8
L1
 10
524.08215882723357
 20
122.76465689160671
 30
0.0
  0
VERTEX
  5
18AB
  8
L1
 10
524.13979302131349
 20
122.96199922943779
 30
0.0
  0
VERTEX
  5
18AC
  8
L1
 10
524.20274480812122
 20
123.15769762349839
 30
0.0
  0
VERTEX
  5
18AD
  8
L1
 10
524.27096817795018
 20
123.3516090432864
 30
0.0
  0
VERTEX
  5
18AE
  8
L1
 10
524.34441326824094
 20
123.5435917643494
 30
0.0
  0
VERTEX
  5
18AF
  8
L1
 10
524.42302640002356
 20
123.7335054718674
 30
0.0
  0
VERTEX
  5
18B0
  8
L1
 10
524.50675011715146
 20
123.92121136320441
 30
0.0
  0
VERTEX
  5
18B1
  8
L1
 10
524.5955232282929
 20
124.10657224935591
 30
0.0
  0
VERTEX
  5
18B2
  8
L1
 10
524.68928085165521
 20
124.28945265521619
 30
0.0
  0
VERTEX
  5
18B3
  8
L1
 10
524.78795446240451
 20
124.4697189185937
 30
0.0
  0
VERTEX
  5
18B4
  8
L1
 10
524.89147194274869
 20
124.6472392879008
 30
0.0
  0
VERTEX
  5
18B5
  8
L1
 10
524.99975763464658
 20
124.8218840184468
 30
0.0
  0
VERTEX
  5
18B6
  8
L1
 10
525.11273239510376
 20
124.9935254672657
 30
0.0
  0
VERTEX
  5
18B7
  8
L1
 10
525.23031365401687
 20
125.16203818640631
 30
0.0
  0
VERTEX
  5
18B8
  8
L1
 10
525.35241547452051
 20
125.3272990146186
 30
0.0
  0
VERTEX
  5
18B9
  8
L1
 10
525.47894861579687
 20
125.48918716736929
 30
0.0
  0
VERTEX
  5
18BA
  8
L1
 10
525.60982059830008
 20
125.6475843251195
 30
0.0
  0
VERTEX
  5
18BB
  8
L1
 10
525.74493577134513
 20
125.80237471980089
 30
0.0
  0
VERTEX
  5
18BC
  8
L1
 10
525.88419538301775
 20
125.9534452194283
 30
0.0
  0
VERTEX
  5
18BD
  8
L1
 10
526.02749765234944
 20
126.1006854107839
 30
0.0
  0
VERTEX
  5
18BE
  8
L1
 10
526.17473784370509
 20
126.2439876801154
 30
0.0
  0
VERTEX
  5
18BF
  8
L1
 10
526.32580834333237
 20
126.38324729178829
 30
0.0
  0
VERTEX
  5
18C0
  8
L1
 10
526.4805987380139
 20
126.5183624648333
 30
0.0
  0
VERTEX
  5
18C1
  8
L1
 10
526.63899589576397
 20
126.6492344473364
 30
0.0
  0
VERTEX
  5
18C2
  8
L1
 10
526.80088404851472
 20
126.77576758861289
 30
0.0
  0
VERTEX
  5
18C3
  8
L1
 10
526.96614487672696
 20
126.8978694091165
 30
0.0
  0
VERTEX
  5
18C4
  8
L1
 10
527.13465759586757
 20
127.0154506680294
 30
0.0
  0
VERTEX
  5
18C5
  8
L1
 10
527.30629904468663
 20
127.12842542848669
 30
0.0
  0
VERTEX
  5
18C6
  8
L1
 10
527.48094377523262
 20
127.2367111203847
 30
0.0
  0
VERTEX
  5
18C7
  8
L1
 10
527.65846414453961
 20
127.34022860072891
 30
0.0
  0
VERTEX
  5
18C8
  8
L1
 10
527.83873040791718
 20
127.43890221147819
 30
0.0
  0
VERTEX
  5
18C9
  8
L1
 10
528.02161081377744
 20
127.5326598348405
 30
0.0
  0
VERTEX
  5
18CA
  8
L1
 10
528.206971699929
 20
127.62143294598189
 30
0.0
  0
VERTEX
  5
18CB
  8
L1
 10
528.39467759126592
 20
127.7051566631097
 30
0.0
  0
VERTEX
  5
18CC
  8
L1
 10
528.58459129878383
 20
127.78376979489251
 30
0.0
  0
VERTEX
  5
18CD
  8
L1
 10
528.77657401984686
 20
127.8572148851831
 30
0.0
  0
VERTEX
  5
18CE
  8
L1
 10
528.97048543963501
 20
127.9254382550121
 30
0.0
  0
VERTEX
  5
18CF
  8
L1
 10
529.16618383369553
 20
127.9883900418198
 30
0.0
  0
VERTEX
  5
18D0
  8
L1
 10
529.3635261715267
 20
128.04602423589981
 30
0.0
  0
VERTEX
  5
18D1
  8
L1
 10
529.56236822111373
 20
128.0982987140259
 30
0.0
  0
VERTEX
  5
18D2
  8
L1
 10
529.76256465434437
 20
128.14517527023901
 30
0.0
  0
VERTEX
  5
18D3
  8
L1
 10
529.96396915322509
 20
128.18661964377051
 30
0.0
  0
VERTEX
  5
18D4
  8
L1
 10
530.16643451682125
 20
128.22260154408301
 30
0.0
  0
VERTEX
  5
18D5
  8
L1
 10
530.3698127688408
 20
128.25309467300829
 30
0.0
  0
VERTEX
  5
18D6
  8
L1
 10
530.57395526578784
 20
128.2780767439684
 30
0.0
  0
VERTEX
  5
18D7
  8
L1
 10
530.77871280560112
 20
128.2975294982638
 30
0.0
  0
VERTEX
  5
18D8
  8
L1
 10
530.98393573670114
 20
128.31143871841871
 30
0.0
  0
VERTEX
  5
18D9
  8
L1
 10
531.18947406736743
 20
128.3197942385716
 30
0.0
  0
VERTEX
  5
18DA
  8
L1
 10
531.39517757536225
 20
128.32258995190571
 30
0.0
  0
SEQEND
  5
18DB
  8
L1
  0
ARC
  5
1DB
  8
L1
 10
531.61552610483568
 20
120.5126569582977
 30
0.0
 40
4.9551339946734032
 50
87.468738206709389
 51
182.53126179329311
  0
CIRCLE
  5
1DC
  8
L1
 10
531.61552610483568
 20
120.5126569582977
 30
0.0
 40
5.7974047862592784
  0
LINE
  5
1DD
  8
L1
 10
526.66522696714901
 20
120.29381602842631
 30
0.0
 11
531.3966851749642
 21
115.5623578206111
 31
0.0
  0
CIRCLE
  5
1DE
  8
L1
 10
531.61552610483568
 20
120.5126569582977
 30
0.0
 40
6.097393363178492
  0
LINE
  5
1DF
  8
L1
 10
522.50533162275963
 20
117.52879836930271
 30
0.0
 11
522.50533162275963
 21
122.0332669762391
 31
0.0
  0
LINE
  5
1E0
  8
L1
 10
523.80559311122761
 20
116.2138959503437
 30
0.0
 11
523.80559311122761
 21
120.7330054877709
 31
0.0
  0
POLYLINE
  5
1E1
  8
L1
 66
     1
 10
0.0
 20
0.0
 30
0.0
  0
VERTEX
  5
18DC
  8
L1
 10
521.80833404171858
 20
114.2166368808345
 30
0.0
  0
VERTEX
  5
18DD
  8
L1
 10
522.00431998350155
 20
114.2261961718344
 30
0.0
  0
VERTEX
  5
18DE
  8
L1
 10
522.19836713479287
 20
114.25488936061529
 30
0.0
  0
VERTEX
  5
18DF
  8
L1
 10
522.38861322187654
 20
114.3024410781705
 30
0.0
  0
VERTEX
  5
18E0
  8
L1
 10
522.57323244991142
 20
114.36839496988119
 30
0.0
  0
VERTEX
  5
18E1
  8
L1
 10
522.75045302511649
 20
114.45211807515879
 30
0.0
  0
VERTEX
  5
18E2
  8
L1
 10
522.91857415870368
 20
114.5528069019792
 30
0.0
  0
VERTEX
  5
18E3
  8
L1
 10
523.07598238937703
 20
114.6694951380079
 30
0.0
  0
VERTEX
  5
18E4
  8
L1
 10
523.22116706774614
 20
114.8010629243161
 30
0.0
  0
VERTEX
  5
18E5
  8
L1
 10
523.35273485405423
 20
114.9462476026852
 30
0.0
  0
VERTEX
  5
18E6
  8
L1
 10
523.46942309008296
 20
115.1036558333585
 30
0.0
  0
VERTEX
  5
18E7
  8
L1
 10
523.57011191690344
 20
115.27177696694579
 30
0.0
  0
VERTEX
  5
18E8
  8
L1
 10
523.65383502218106
 20
115.44899754215081
 30
0.0
  0
VERTEX
  5
18E9
  8
L1
 10
523.71978891389176
 20
115.6336167701857
 30
0.0
  0
VERTEX
  5
18EA
  8
L1
 10
523.76734063144681
 20
115.82386285726911
 30
0.0
  0
VERTEX
  5
18EB
  8
L1
 10
523.79603382022765
 20
116.01791000856061
 30
0.0
  0
VERTEX
  5
18EC
  8
L1
 10
523.80559311122761
 20
116.2138959503437
 30
0.0
  0
SEQEND
  5
18ED
  8
L1
  0
POLYLINE
  5
1E2
  8
L1
 66
     1
 10
0.0
 20
0.0
 30
0.0
  0
VERTEX
  5
18EE
  8
L1
 10
520.6133672636156
 20
115.41160365893749
 30
0.0
  0
VERTEX
  5
18EF
  8
L1
 10
520.95886875820042
 20
115.4435109505754
 30
0.0
  0
VERTEX
  5
18F0
  8
L1
 10
521.2905690540797
 20
115.53826670814141
 30
0.0
  0
VERTEX
  5
18F1
  8
L1
 10
521.59842463475229
 20
115.6930018325526
 30
0.0
  0
VERTEX
  5
18F2
  8
L1
 10
521.87311397520602
 20
115.903031116124
 30
0.0
  0
VERTEX
  5
18F3
  8
L1
 10
522.10631978734159
 20
116.1619951054529
 30
0.0
  0
VERTEX
  5
18F4
  8
L1
 10
522.29098085821579
 20
116.46205265860389
 30
0.0
  0
VERTEX
  5
18F5
  8
L1
 10
522.42150585572745
 20
116.79411836617609
 30
0.0
  0
VERTEX
  5
18F6
  8
L1
 10
522.49394262794056
 20
117.14813764740801
 30
0.0
  0
VERTEX
  5
18F7
  8
L1
 10
522.50609786985717
 20
117.5133911917144
 30
0.0
  0
SEQEND
  5
18F8
  8
L1
  0
LINE
  5
1E3
  8
L1
 10
522.50533162275963
 20
117.52879836930271
 30
0.0
 11
522.50609786985717
 21
117.51339119171431
 31
0.0
  0
ARC
  5
1E4
  8
L1
 10
531.61552610483568
 20
120.5126569582977
 30
0.0
 40
4.9551339946734032
 50
267.46873820670743
 51
2.5312617932912711
  0
POLYLINE
  5
1E5
  8
L1
 66
     1
 10
0.0
 20
0.0
 30
0.0
  0
VERTEX
  5
18F9
  8
L1
 10
538.53141216951462
 20
117.09197426525969
 30
0.0
  0
VERTEX
  5
18FA
  8
L1
 10
538.52840655056013
 20
116.94742159037381
 30
0.0
  0
VERTEX
  5
18FB
  8
L1
 10
538.51943994668454
 20
116.80313043097389
 30
0.0
  0
VERTEX
  5
18FC
  8
L1
 10
538.50452762380883
 20
116.6593464472281
 30
0.0
  0
VERTEX
  5
18FD
  8
L1
 10
538.48369497062458
 20
116.51631443582239
 30
0.0
  0
VERTEX
  5
18FE
  8
L1
 10
538.45697745536904
 20
116.3742779131864
 30
0.0
  0
VERTEX
  5
18FF
  8
L1
 10
538.42442056543962
 20
116.2334787008994
 30
0.0
  0
VERTEX
  5
1900
  8
L1
 10
538.38607972994964
 20
116.0941565139814
 30
0.0
  0
VERTEX
  5
1901
  8
L1
 10
538.34202022535908
 20
115.956548552771
 30
0.0
  0
VERTEX
  5
1902
  8
L1
 10
538.2923170643395
 20
115.8208890990845
 30
0.0
  0
VERTEX
  5
1903
  8
L1
 10
538.2370548680617
 20
115.68740911734361
 30
0.0
  0
VERTEX
  5
1904
  8
L1
 10
538.17632772212676
 20
115.5563358613517
 30
0.0
  0
VERTEX
  5
1905
  8
L1
 10
538.11023901638157
 20
115.427892487387
 30
0.0
  0
VERTEX
  5
1906
  8
L1
 10
538.03890126889451
 20
115.302297674272
 30
0.0
  0
VERTEX
  5
1907
  8
L1
 10
537.96243593439056
 20
115.1797652510663
 30
0.0
  0
VERTEX
  5
1908
  8
L1
 10
537.88097319746998
 20
115.0605038330158
 30
0.0
  0
VERTEX
  5
1909
  8
L1
 10
537.79465175096584
 20
114.94471646637859
 30
0.0
  0
VERTEX
  5
190A
  8
L1
 10
537.70361855981423
 20
114.8326002827327
 30
0.0
  0
VERTEX
  5
190B
  8
L1
 10
537.60802861084267
 20
114.7243461633538
 30
0.0
  0
VERTEX
  5
190C
  8
L1
 10
537.50804464890052
 20
114.6201384142328
 30
0.0
  0
VERTEX
  5
190D
  8
L1
 10
537.40383689977955
 20
114.5201544522906
 30
0.0
  0
VERTEX
  5
190E
  8
L1
 10
537.29558278040065
 20
114.4245645033192
 30
0.0
  0
VERTEX
  5
190F
  8
L1
 10
537.1834665967549
 20
114.33353131216749
 30
0.0
  0
VERTEX
  5
1910
  8
L1
 10
537.06767923011762
 20
114.24720986566329
 30
0.0
  0
VERTEX
  5
1911
  8
L1
 10
536.94841781206696
 20
114.16574712874269
 30
0.0
  0
VERTEX
  5
1912
  8
L1
 10
536.82588538886125
 20
114.0892817942387
 30
0.0
  0
VERTEX
  5
1913
  8
L1
 10
536.70029057574629
 20
114.01794404675169
 30
0.0
  0
VERTEX
  5
1914
  8
L1
 10
536.57184720178157
 20
113.95185534100651
 30
0.0
  0
VERTEX
  5
1915
  8
L1
 10
536.44077394578972
 20
113.8911281950715
 30
0.0
  0
VERTEX
  5
1916
  8
L1
 10
536.30729396404877
 20
113.83586599879381
 30
0.0
  0
VERTEX
  5
1917
  8
L1
 10
536.17163451036231
 20
113.7861628377742
 30
0.0
  0
VERTEX
  5
1918
  8
L1
 10
536.03402654915203
 20
113.74210333318371
 30
0.0
  0
VERTEX
  5
1919
  8
L1
 10
535.89470436223394
 20
113.7037624976937
 30
0.0
  0
VERTEX
  5
191A
  8
L1
 10
535.75390514994695
 20
113.67120560776419
 30
0.0
  0
VERTEX
  5
191B
  8
L1
 10
535.61186862731086
 20
113.64448809250869
 30
0.0
  0
VERTEX
  5
191C
  8
L1
 10
535.46883661590516
 20
113.62365543932439
 30
0.0
  0
VERTEX
  5
191D
  8
L1
 10
535.32505263215944
 20
113.60874311644869
 30
0.0
  0
VERTEX
  5
191E
  8
L1
 10
535.18076147275951
 20
113.5997765125732
 30
0.0
  0
VERTEX
  5
191F
  8
L1
 10
535.03620879787366
 20
113.5967708936187
 30
0.0
  0
SEQEND
  5
1920
  8
L1
  0
POLYLINE
  5
1E6
  8
L1
 66
     1
 10
0.0
 20
0.0
 30
0.0
  0
VERTEX
  5
1921
  8
L1
 10
539.87761454260965
 20
115.70565695829769
 30
0.0
  0
VERTEX
  5
1922
  8
L1
 10
539.85854017722158
 20
115.3770263896653
 30
0.0
  0
VERTEX
  5
1923
  8
L1
 10
539.80724049494995
 20
115.04386935585239
 30
0.0
  0
VERTEX
  5
1924
  8
L1
 10
539.72255056517849
 20
114.7125050151238
 30
0.0
  0
VERTEX
  5
1925
  8
L1
 10
539.60511110683808
 20
114.3888845720567
 30
0.0
  0
VERTEX
  5
1926
  8
L1
 10
539.45628260383614
 20
114.0784602554144
 30
0.0
  0
VERTEX
  5
1927
  8
L1
 10
539.27896685502174
 20
113.78603772740171
 30
0.0
  0
VERTEX
  5
1928
  8
L1
 10
539.07692672041594
 20
113.51625794005341
 30
0.0
  0
VERTEX
  5
1929
  8
L1
 10
538.85545522390919
 20
113.2727278392241
 30
0.0
  0
VERTEX
  5
192A
  8
L1
 10
538.61192512308003
 20
113.05125634271749
 30
0.0
  0
VERTEX
  5
192B
  8
L1
 10
538.34214533573163
 20
112.8492162081116
 30
0.0
  0
VERTEX
  5
192C
  8
L1
 10
538.04972280771904
 20
112.67190045929721
 30
0.0
  0
VERTEX
  5
192D
  8
L1
 10
537.73929849107662
 20
112.5230719562953
 30
0.0
  0
VERTEX
  5
192E
  8
L1
 10
537.41567804800945
 20
112.4056324979548
 30
0.0
  0
VERTEX
  5
192F
  8
L1
 10
537.08431370728078
 20
112.3209425681833
 30
0.0
  0
VERTEX
  5
1930
  8
L1
 10
536.7511566734679
 20
112.26964288591169
 30
0.0
  0
VERTEX
  5
1931
  8
L1
 10
536.42252610483547
 20
112.2505685205236
 30
0.0
  0
SEQEND
  5
1932
  8
L1
  0
POLYLINE
  5
1E7
  8
L1
 66
     1
 10
0.0
 20
0.0
 30
0.0
  0
VERTEX
  5
1933
  8
L1
 10
536.42252610483547
 20
112.2505685205236
 30
0.0
  0
VERTEX
  5
1934
  8
L1
 10
536.40257413687368
 20
112.2504067511089
 30
0.0
  0
VERTEX
  5
1935
  8
L1
 10
536.3826268641036
 20
112.2503528273886
 30
0.0
  0
SEQEND
  5
1936
  8
L1
  0
POLYLINE
  5
1E8
  8
L1
 66
     1
 10
0.0
 20
0.0
 30
0.0
  0
VERTEX
  5
1937
  8
L1
 10
539.8778302357448
 20
115.74555619902949
 30
0.0
  0
VERTEX
  5
1938
  8
L1
 10
539.87777631202425
 20
115.7256089262595
 30
0.0
  0
VERTEX
  5
1939
  8
L1
 10
539.87761454260965
 20
115.70565695829769
 30
0.0
  0
SEQEND
  5
193A
  8
L1
  0
LINE
  5
1E9
  8
L1
 10
536.56582524252235
 20
120.731497888169
 30
0.0
 11
531.83436703470682
 21
125.4629560959845
 31
0.0
  0
LINE
  5
1EA
  8
L1
 10
530.09491608689439
 20
129.62285144037381
 30
0.0
 11
534.59938469383064
 21
129.62285144037381
 31
0.0
  0
ARC
  5
1EB
  8
L1
 10
518.87783023574468
 20
133.2503528273885
 30
0.0
 40
2.0
 50
270.0
 51
0.0
  0
POLYLINE
  5
1EC
  8
L1
 66
     1
 10
0.0
 20
0.0
 30
0.0
  0
VERTEX
  5
193B
  8
L1
 10
535.91428711278968
 20
128.32258995190571
 30
0.0
  0
VERTEX
  5
193C
  8
L1
 10
536.11027305457264
 20
128.33214924290559
 30
0.0
  0
VERTEX
  5
193D
  8
L1
 10
536.30432020586409
 20
128.36084243168651
 30
0.0
  0
VERTEX
  5
193E
  8
L1
 10
536.49456629294764
 20
128.4083941492417
 30
0.0
  0
VERTEX
  5
193F
  8
L1
 10
536.6791855209824
 20
128.47434804095229
 30
0.0
  0
VERTEX
  5
1940
  8
L1
 10
536.85640609618747
 20
128.55807114622999
 30
0.0
  0
VERTEX
  5
1941
  8
L1
 10
537.02452722977466
 20
128.65875997305039
 30
0.0
  0
VERTEX
  5
1942
  8
L1
 10
537.18193546044813
 20
128.77544820907909
 30
0.0
  0
VERTEX
  5
1943
  8
L1
 10
537.32712013881724
 20
128.9070159953873
 30
0.0
  0
VERTEX
  5
1944
  8
L1
 10
537.45868792512533
 20
129.0522006737564
 30
0.0
  0
VERTEX
  5
1945
  8
L1
 10
537.57537616115405
 20
129.20960890442959
 30
0.0
  0
VERTEX
  5
1946
  8
L1
 10
537.67606498797454
 20
129.37773003801689
 30
0.0
  0
VERTEX
  5
1947
  8
L1
 10
537.75978809325215
 20
129.55495061322191
 30
0.0
  0
VERTEX
  5
1948
  8
L1
 10
537.82574198496275
 20
129.73956984125681
 30
0.0
  0
VERTEX
  5
1949
  8
L1
 10
537.87329370251791
 20
129.9298159283403
 30
0.0
  0
VERTEX
  5
194A
  8
L1
 10
537.90198689129886
 20
130.1238630796318
 30
0.0
  0
VERTEX
  5
194B
  8
L1
 10
537.91154618229882
 20
130.3198490214148
 30
0.0
  0
SEQEND
  5
194C
  8
L1
  0
LINE
  5
1ED
  8
L1
 10
531.39517757536225
 20
128.3225899519056
 30
0.0
 11
535.91428711278968
 21
128.3225899519056
 31
0.0
  0
POLYLINE
  5
1EE
  8
L1
 66
     1
 10
0.0
 20
0.0
 30
0.0
  0
VERTEX
  5
194D
  8
L1
 10
534.61479187141913
 20
129.62208519327629
 30
0.0
  0
VERTEX
  5
194E
  8
L1
 10
534.98004541572527
 20
129.63424043519271
 30
0.0
  0
VERTEX
  5
194F
  8
L1
 10
535.33406469695728
 20
129.7066772074061
 30
0.0
  0
VERTEX
  5
1950
  8
L1
 10
535.66613040452944
 20
129.83720220491759
 30
0.0
  0
VERTEX
  5
1951
  8
L1
 10
535.9661879576804
 20
130.0218632757919
 30
0.0
  0
VERTEX
  5
1952
  8
L1
 10
536.22515194700941
 20
130.25506908792741
 30
0.0
  0
VERTEX
  5
1953
  8
L1
 10
536.43518123058084
 20
130.5297584283812
 30
0.0
  0
VERTEX
  5
1954
  8
L1
 10
536.58991635499206
 20
130.83761400905371
 30
0.0
  0
VERTEX
  5
1955
  8
L1
 10
536.68467211255802
 20
131.16931430493301
 30
0.0
  0
VERTEX
  5
1956
  8
L1
 10
536.71657940419584
 20
131.51481579951781
 30
0.0
  0
SEQEND
  5
1957
  8
L1
  0
LINE
  5
1EF
  8
L1
 10
534.61479187141913
 20
129.62208519327621
 30
0.0
 11
534.59938469383064
 21
129.62285144037381
 31
0.0
  0
POLYLINE
  5
1F0
  8
L1
 66
     1
 10
0.0
 20
0.0
 30
0.0
  0
VERTEX
  5
1958
  8
L1
 10
523.80559311122761
 20
233.7923084288245
 30
0.0
  0
VERTEX
  5
1959
  8
L1
 10
523.80838882456169
 20
233.5866049208295
 30
0.0
  0
VERTEX
  5
195A
  8
L1
 10
523.81674434471472
 20
233.3810665901633
 30
0.0
  0
VERTEX
  5
195B
  8
L1
 10
523.83065356486952
 20
233.17584365906319
 30
0.0
  0
VERTEX
  5
195C
  8
L1
 10
523.85010631916487
 20
232.97108611925009
 30
0.0
  0
VERTEX
  5
195D
  8
L1
 10
523.87508839012503
 20
232.7669436223029
 30
0.0
  0
VERTEX
  5
195E
  8
L1
 10
523.90558151905043
 20
232.5635653702833
 30
0.0
  0
VERTEX
  5
195F
  8
L1
 10
523.94156341936275
 20
232.36110000668731
 30
0.0
  0
VERTEX
  5
1960
  8
L1
 10
523.98300779289434
 20
232.1596955078065
 30
0.0
  0
VERTEX
  5
1961
  8
L1
 10
524.02988434910753
 20
231.95949907457589
 30
0.0
  0
VERTEX
  5
1962
  8
L1
 10
524.08215882723357
 20
231.7606570249888
 30
0.0
  0
VERTEX
  5
1963
  8
L1
 10
524.13979302131349
 20
231.5633146871576
 30
0.0
  0
VERTEX
  5
1964
  8
L1
 10
524.20274480812122
 20
231.36761629309709
 30
0.0
  0
VERTEX
  5
1965
  8
L1
 10
524.27096817795018
 20
231.17370487330911
 30
0.0
  0
VERTEX
  5
1966
  8
L1
 10
524.34441326824094
 20
230.98172215224611
 30
0.0
  0
VERTEX
  5
1967
  8
L1
 10
524.42302640002356
 20
230.7918084447281
 30
0.0
  0
VERTEX
  5
1968
  8
L1
 10
524.50675011715146
 20
230.6041025533911
 30
0.0
  0
VERTEX
  5
1969
  8
L1
 10
524.5955232282929
 20
230.4187416672396
 30
0.0
  0
VERTEX
  5
196A
  8
L1
 10
524.68928085165521
 20
230.23586126137931
 30
0.0
  0
VERTEX
  5
196B
  8
L1
 10
524.78795446240451
 20
230.05559499800171
 30
0.0
  0
VERTEX
  5
196C
  8
L1
 10
524.89147194274869
 20
229.87807462869469
 30
0.0
  0
VERTEX
  5
196D
  8
L1
 10
524.99975763464658
 20
229.7034298981487
 30
0.0
  0
VERTEX
  5
196E
  8
L1
 10
525.11273239510376
 20
229.53178844932981
 30
0.0
  0
VERTEX
  5
196F
  8
L1
 10
525.23031365401687
 20
229.3632757301892
 30
0.0
  0
VERTEX
  5
1970
  8
L1
 10
525.35241547452051
 20
229.19801490197679
 30
0.0
  0
VERTEX
  5
1971
  8
L1
 10
525.47894861579687
 20
229.0361267492261
 30
0.0
  0
VERTEX
  5
1972
  8
L1
 10
525.60982059830008
 20
228.877729591476
 30
0.0
  0
VERTEX
  5
1973
  8
L1
 10
525.74493577134513
 20
228.72293919679461
 30
0.0
  0
VERTEX
  5
1974
  8
L1
 10
525.88419538301775
 20
228.57186869716719
 30
0.0
  0
VERTEX
  5
1975
  8
L1
 10
526.02749765234944
 20
228.4246285058116
 30
0.0
  0
VERTEX
  5
1976
  8
L1
 10
526.17473784370509
 20
228.28132623648
 30
0.0
  0
VERTEX
  5
1977
  8
L1
 10
526.32580834333237
 20
228.1420666248072
 30
0.0
  0
VERTEX
  5
1978
  8
L1
 10
526.4805987380139
 20
228.00695145176209
 30
0.0
  0
VERTEX
  5
1979
  8
L1
 10
526.63899589576397
 20
227.87607946925911
 30
0.0
  0
VERTEX
  5
197A
  8
L1
 10
526.80088404851472
 20
227.74954632798261
 30
0.0
  0
VERTEX
  5
197B
  8
L1
 10
526.96614487672696
 20
227.627444507479
 30
0.0
  0
VERTEX
  5
197C
  8
L1
 10
527.13465759586757
 20
227.50986324856609
 30
0.0
  0
VERTEX
  5
197D
  8
L1
 10
527.30629904468663
 20
227.39688848810869
 30
0.0
  0
VERTEX
  5
197E
  8
L1
 10
527.48094377523262
 20
227.2886027962108
 30
0.0
  0
VERTEX
  5
197F
  8
L1
 10
527.65846414453961
 20
227.18508531586659
 30
0.0
  0
VERTEX
  5
1980
  8
L1
 10
527.83873040791718
 20
227.08641170511731
 30
0.0
  0
VERTEX
  5
1981
  8
L1
 10
528.02161081377744
 20
226.99265408175501
 30
0.0
  0
VERTEX
  5
1982
  8
L1
 10
528.206971699929
 20
226.90388097061361
 30
0.0
  0
VERTEX
  5
1983
  8
L1
 10
528.39467759126592
 20
226.8201572534858
 30
0.0
  0
VERTEX
  5
1984
  8
L1
 10
528.58459129878383
 20
226.74154412170299
 30
0.0
  0
VERTEX
  5
1985
  8
L1
 10
528.77657401984686
 20
226.6680990314124
 30
0.0
  0
VERTEX
  5
1986
  8
L1
 10
528.97048543963501
 20
226.59987566158341
 30
0.0
  0
VERTEX
  5
1987
  8
L1
 10
529.16618383369553
 20
226.53692387477571
 30
0.0
  0
VERTEX
  5
1988
  8
L1
 10
529.3635261715267
 20
226.4792896806957
 30
0.0
  0
VERTEX
  5
1989
  8
L1
 10
529.56236822111373
 20
226.42701520256961
 30
0.0
  0
VERTEX
  5
198A
  8
L1
 10
529.76256465434437
 20
226.3801386463565
 30
0.0
  0
VERTEX
  5
198B
  8
L1
 10
529.96396915322509
 20
226.33869427282499
 30
0.0
  0
VERTEX
  5
198C
  8
L1
 10
530.16643451682125
 20
226.3027123725125
 30
0.0
  0
VERTEX
  5
198D
  8
L1
 10
530.3698127688408
 20
226.2722192435871
 30
0.0
  0
VERTEX
  5
198E
  8
L1
 10
530.57395526578784
 20
226.24723717262711
 30
0.0
  0
VERTEX
  5
198F
  8
L1
 10
530.77871280560112
 20
226.22778441833159
 30
0.0
  0
VERTEX
  5
1990
  8
L1
 10
530.98393573670114
 20
226.21387519817679
 30
0.0
  0
VERTEX
  5
1991
  8
L1
 10
531.18947406736743
 20
226.2055196780239
 30
0.0
  0
VERTEX
  5
1992
  8
L1
 10
531.39517757536225
 20
226.2027239646898
 30
0.0
  0
SEQEND
  5
1993
  8
L1
  0
LINE
  5
1F1
  8
L1
 10
530.09491608689439
 20
224.9024624762217
 30
0.0
 11
534.59938469383064
 21
224.9024624762217
 31
0.0
  0
ARC
  5
1F2
  8
L1
 10
531.61552610483568
 20
234.0126569582977
 30
0.0
 40
4.9551339946734032
 50
177.4687382067068
 51
272.53126179329053
  0
POLYLINE
  5
1F3
  8
L1
 66
     1
 10
0.0
 20
0.0
 30
0.0
  0
VERTEX
  5
1994
  8
L1
 10
530.09491608689439
 20
224.90246247622159
 30
0.0
  0
VERTEX
  5
1995
  8
L1
 10
529.30090841962726
 20
224.94400807085839
 30
0.0
  0
VERTEX
  5
1996
  8
L1
 10
528.51579737306213
 20
225.06819125714739
 30
0.0
  0
VERTEX
  5
1997
  8
L1
 10
527.74815484287763
 20
225.2736561946343
 30
0.0
  0
VERTEX
  5
1998
  8
L1
 10
527.00636200230565
 20
225.55815960319029
 30
0.0
  0
VERTEX
  5
1999
  8
L1
 10
526.29851779591263
 20
225.9185952552962
 30
0.0
  0
VERTEX
  5
199A
  8
L1
 10
525.63235051477363
 20
226.35102789004549
 30
0.0
  0
VERTEX
  5
199B
  8
L1
 10
525.01513341846623
 20
226.8507361785899
 30
0.0
  0
VERTEX
  5
199C
  8
L1
 10
524.45360532512791
 20
227.41226427192819
 30
0.0
  0
VERTEX
  5
199D
  8
L1
 10
523.9538970365835
 20
228.02948136823571
 30
0.0
  0
VERTEX
  5
199E
  8
L1
 10
523.52146440183424
 20
228.69564864937459
 30
0.0
  0
VERTEX
  5
199F
  8
L1
 10
523.16102874972819
 20
229.40349285576761
 30
0.0
  0
VERTEX
  5
19A0
  8
L1
 10
522.87652534117217
 20
230.14528569633961
 30
0.0
  0
VERTEX
  5
19A1
  8
L1
 10
522.67106040368515
 20
230.91292822652409
 30
0.0
  0
VERTEX
  5
19A2
  8
L1
 10
522.5468772173964
 20
231.69803927308939
 30
0.0
  0
VERTEX
  5
19A3
  8
L1
 10
522.50533162275963
 20
232.4920469403564
 30
0.0
  0
SEQEND
  5
19A4
  8
L1
  0
ARC
  5
1F4
  8
L1
 10
518.87783023574468
 20
221.27496108920701
 30
0.0
 40
2.0
 50
0.0
 51
90.0
  0
LINE
  5
1F5
  8
L1
 10
522.50533162275963
 20
236.9965155472928
 30
0.0
 11
522.50609786985717
 21
237.0119227248812
 31
0.0
  0
LINE
  5
1F6
  8
L1
 10
522.50533162275963
 20
236.9965155472928
 30
0.0
 11
522.50533162275963
 21
232.4920469403564
 31
0.0
  0
LINE
  5
1F7
  8
L1
 10
534.61479187141913
 20
224.90322872331919
 30
0.0
 11
534.59938469383064
 21
224.9024624762217
 31
0.0
  0
POLYLINE
  5
1F8
  8
L1
 66
     1
 10
0.0
 20
0.0
 30
0.0
  0
VERTEX
  5
19A5
  8
L1
 10
534.61479187141913
 20
224.90322872331919
 30
0.0
  0
VERTEX
  5
19A6
  8
L1
 10
534.98004541572527
 20
224.8910734814028
 30
0.0
  0
VERTEX
  5
19A7
  8
L1
 10
535.33406469695728
 20
224.81863670918941
 30
0.0
  0
VERTEX
  5
19A8
  8
L1
 10
535.66613040452944
 20
224.68811171167789
 30
0.0
  0
VERTEX
  5
19A9
  8
L1
 10
535.9661879576804
 20
224.50345064080361
 30
0.0
  0
VERTEX
  5
19AA
  8
L1
 10
536.22515194700941
 20
224.2702448286681
 30
0.0
  0
VERTEX
  5
19AB
  8
L1
 10
536.43518123058084
 20
223.99555548821431
 30
0.0
  0
VERTEX
  5
19AC
  8
L1
 10
536.58991635499206
 20
223.6876999075418
 30
0.0
  0
VERTEX
  5
19AD
  8
L1
 10
536.68467211255802
 20
223.3559996116625
 30
0.0
  0
VERTEX
  5
19AE
  8
L1
 10
536.71657940419584
 20
223.0104981170777
 30
0.0
  0
SEQEND
  5
19AF
  8
L1
  0
LINE
  5
1F9
  8
L1
 10
531.39517757536225
 20
226.20272396468991
 30
0.0
 11
535.91428711278968
 21
226.20272396468991
 31
0.0
  0
POLYLINE
  5
1FA
  8
L1
 66
     1
 10
0.0
 20
0.0
 30
0.0
  0
VERTEX
  5
19B0
  8
L1
 10
535.91428711278968
 20
226.20272396468971
 30
0.0
  0
VERTEX
  5
19B1
  8
L1
 10
536.11027305457264
 20
226.19316467368989
 30
0.0
  0
VERTEX
  5
19B2
  8
L1
 10
536.30432020586409
 20
226.16447148490889
 30
0.0
  0
VERTEX
  5
19B3
  8
L1
 10
536.49456629294764
 20
226.11691976735381
 30
0.0
  0
VERTEX
  5
19B4
  8
L1
 10
536.6791855209824
 20
226.05096587564319
 30
0.0
  0
VERTEX
  5
19B5
  8
L1
 10
536.85640609618747
 20
225.9672427703654
 30
0.0
  0
VERTEX
  5
19B6
  8
L1
 10
537.02452722977466
 20
225.86655394354511
 30
0.0
  0
VERTEX
  5
19B7
  8
L1
 10
537.18193546044813
 20
225.74986570751639
 30
0.0
  0
VERTEX
  5
19B8
  8
L1
 10
537.32712013881724
 20
225.61829792120821
 30
0.0
  0
VERTEX
  5
19B9
  8
L1
 10
537.45868792512533
 20
225.4731132428391
 30
0.0
  0
VERTEX
  5
19BA
  8
L1
 10
537.57537616115405
 20
225.31570501216589
 30
0.0
  0
VERTEX
  5
19BB
  8
L1
 10
537.67606498797454
 20
225.1475838785785
 30
0.0
  0
VERTEX
  5
19BC
  8
L1
 10
537.75978809325215
 20
224.97036330337349
 30
0.0
  0
VERTEX
  5
19BD
  8
L1
 10
537.82574198496275
 20
224.78574407533861
 30
0.0
  0
VERTEX
  5
19BE
  8
L1
 10
537.87329370251791
 20
224.5954979882552
 30
0.0
  0
VERTEX
  5
19BF
  8
L1
 10
537.90198689129886
 20
224.4014508369637
 30
0.0
  0
VERTEX
  5
19C0
  8
L1
 10
537.91154618229882
 20
224.20546489518071
 30
0.0
  0
SEQEND
  5
19C1
  8
L1
  0
LINE
  5
1FB
  8
L1
 10
536.56582524252235
 20
233.79381602842639
 30
0.0
 11
531.83436703470682
 21
229.062357820611
 31
0.0
  0
POLYLINE
  5
20B
  8
L1
 66
     1
 10
0.0
 20
0.0
 30
0.0
  0
VERTEX
  5
19C2
  8
L1
 10
521.80833404171858
 20
240.30867703576089
 30
0.0
  0
VERTEX
  5
19C3
  8
L1
 10
522.00431998350155
 20
240.29911774476099
 30
0.0
  0
VERTEX
  5
19C4
  8
L1
 10
522.19836713479287
 20
240.2704245559801
 30
0.0
  0
VERTEX
  5
19C5
  8
L1
 10
522.38861322187654
 20
240.22287283842499
 30
0.0
  0
VERTEX
  5
19C6
  8
L1
 10
522.57323244991142
 20
240.15691894671431
 30
0.0
  0
VERTEX
  5
19C7
  8
L1
 10
522.75045302511649
 20
240.07319584143659
 30
0.0
  0
VERTEX
  5
19C8
  8
L1
 10
522.91857415870368
 20
239.9725070146163
 30
0.0
  0
VERTEX
  5
19C9
  8
L1
 10
523.07598238937703
 20
239.8558187785876
 30
0.0
  0
VERTEX
  5
19CA
  8
L1
 10
523.22116706774614
 20
239.72425099227939
 30
0.0
  0
VERTEX
  5
19CB
  8
L1
 10
523.35273485405423
 20
239.57906631391029
 30
0.0
  0
VERTEX
  5
19CC
  8
L1
 10
523.46942309008296
 20
239.42165808323699
 30
0.0
  0
VERTEX
  5
19CD
  8
L1
 10
523.57011191690344
 20
239.25353694964971
 30
0.0
  0
VERTEX
  5
19CE
  8
L1
 10
523.65383502218106
 20
239.0763163744447
 30
0.0
  0
VERTEX
  5
19CF
  8
L1
 10
523.71978891389176
 20
238.8916971464098
 30
0.0
  0
VERTEX
  5
19D0
  8
L1
 10
523.76734063144681
 20
238.7014510593263
 30
0.0
  0
VERTEX
  5
19D1
  8
L1
 10
523.79603382022765
 20
238.5074039080348
 30
0.0
  0
VERTEX
  5
19D2
  8
L1
 10
523.80559311122761
 20
238.31141796625181
 30
0.0
  0
SEQEND
  5
19D3
  8
L1
  0
POLYLINE
  5
20C
  8
L1
 66
     1
 10
0.0
 20
0.0
 30
0.0
  0
VERTEX
  5
19D4
  8
L1
 10
539.87761454260965
 20
238.81965695829771
 30
0.0
  0
VERTEX
  5
19D5
  8
L1
 10
539.85854017722158
 20
239.14828752693009
 30
0.0
  0
VERTEX
  5
19D6
  8
L1
 10
539.80724049494995
 20
239.48144456074311
 30
0.0
  0
VERTEX
  5
19D7
  8
L1
 10
539.72255056517849
 20
239.8128089014717
 30
0.0
  0
VERTEX
  5
19D8
  8
L1
 10
539.60511110683808
 20
240.13642934453881
 30
0.0
  0
VERTEX
  5
19D9
  8
L1
 10
539.45628260383614
 20
240.44685366118111
 30
0.0
  0
VERTEX
  5
19DA
  8
L1
 10
539.27896685502174
 20
240.7392761891937
 30
0.0
  0
VERTEX
  5
19DB
  8
L1
 10
539.07692672041594
 20
241.00905597654199
 30
0.0
  0
VERTEX
  5
19DC
  8
L1
 10
538.85545522390919
 20
241.2525860773714
 30
0.0
  0
VERTEX
  5
19DD
  8
L1
 10
538.61192512308003
 20
241.47405757387801
 30
0.0
  0
VERTEX
  5
19DE
  8
L1
 10
538.34214533573163
 20
241.67609770848381
 30
0.0
  0
VERTEX
  5
19DF
  8
L1
 10
538.04972280771904
 20
241.8534134572983
 30
0.0
  0
VERTEX
  5
19E0
  8
L1
 10
537.73929849107662
 20
242.00224196030021
 30
0.0
  0
VERTEX
  5
19E1
  8
L1
 10
537.41567804800945
 20
242.11968141864071
 30
0.0
  0
VERTEX
  5
19E2
  8
L1
 10
537.08431370728078
 20
242.20437134841211
 30
0.0
  0
VERTEX
  5
19E3
  8
L1
 10
536.7511566734679
 20
242.25567103068369
 30
0.0
  0
VERTEX
  5
19E4
  8
L1
 10
536.42252610483547
 20
242.27474539607189
 30
0.0
  0
SEQEND
  5
19E5
  8
L1
  0
POLYLINE
  5
20D
  8
L1
 66
     1
 10
0.0
 20
0.0
 30
0.0
  0
VERTEX
  5
19E6
  8
L1
 10
536.42252610483547
 20
242.27474539607189
 30
0.0
  0
VERTEX
  5
19E7
  8
L1
 10
536.40257413687368
 20
242.27490716548661
 30
0.0
  0
VERTEX
  5
19E8
  8
L1
 10
536.3826268641036
 20
242.2749610892069
 30
0.0
  0
SEQEND
  5
19E9
  8
L1
  0
POLYLINE
  5
20E
  8
L1
 66
     1
 10
0.0
 20
0.0
 30
0.0
  0
VERTEX
  5
19EA
  8
L1
 10
539.8778302357448
 20
238.77975771756601
 30
0.0
  0
VERTEX
  5
19EB
  8
L1
 10
539.87777631202425
 20
238.79970499033601
 30
0.0
  0
VERTEX
  5
19EC
  8
L1
 10
539.87761454260965
 20
238.81965695829771
 30
0.0
  0
SEQEND
  5
19ED
  8
L1
  0
LINE
  5
DD7
  8
L1
 10
243.74291035066301
 20
117.5283553830287
 30
0.0
 11
243.7429103506631
 21
236.9969585335669
 31
0.0
  0
LINE
  5
DD8
  8
L1
 10
295.34291035066309
 20
112.9696328580729
 30
0.0
 11
295.34291035066309
 21
241.5556810585224
 31
0.0
  0
LINE
  5
DD9
  8
L1
 10
294.62363031997859
 20
242.2749610892069
 30
0.0
 11
294.62363031997859
 21
112.2503528273885
 31
0.0
  0
LINE
  5
DDA
  8
L1
 10
268.74291035066301
 20
240.72881711602579
 30
0.0
 11
268.74291035066312
 21
113.7964968005696
 31
0.0
  0
LINE
  5
DDB
  8
L1
 10
296.4135448096672
 20
240.2128726514328
 30
0.0
 11
296.41354480966731
 21
114.3124412651627
 31
0.0
  0
LINE
  5
DDC
  8
L1
 10
245.7518374185008
 20
115.4113879658024
 30
0.0
 11
245.75183741850071
 21
239.11392595079309
 31
0.0
  0
LINE
  5
DDD
  8
L6
 10
240.58275253988521
 20
177.2626569582977
 30
0.0
 11
299.68020769650121
 21
177.2626569582977
 31
0.0
  0
LINE
  5
DDE
  8
L2
 10
295.34291035066309
 20
225.2126569582978
 30
0.0
 11
270.94291035066311
 21
224.5737204720096
 31
0.0
  0
LINE
  5
DDF
  8
L2
 10
295.34291035066309
 20
129.31265695829759
 30
0.0
 11
270.94291035066311
 21
129.95159344458591
 31
0.0
  0
LINE
  5
DE0
  8
L1
 10
294.62363031997859
 20
112.2503528273885
 30
0.0
 11
268.9324431594145
 21
113.5967708936187
 31
0.0
  0
LINE
  5
DE1
  8
L2
 10
246.2429103506631
 20
221.8400791398611
 30
0.0
 11
246.2429103506631
 21
132.68523477673421
 31
0.0
  0
LINE
  5
DE2
  8
L2
 10
244.2429103506631
 20
223.27496108920701
 30
0.0
 11
244.2429103506631
 21
131.2503528273885
 31
0.0
  0
LINE
  5
DE3
  8
L1
 10
243.7429103506631
 20
117.5283553830286
 30
0.0
 11
245.75183741850071
 21
115.4113879658024
 31
0.0
  0
LINE
  5
DE4
  8
L1
 10
268.5531618487766
 20
114.2164211876995
 30
0.0
 11
245.75183741850071
 21
115.4113879658024
 31
0.0
  0
ARC
  5
DE5
  8
L1
 10
268.94291035066311
 20
113.7964968005696
 30
0.0
 40
0.2
 50
180.0
 51
267.00000000000091
  0
ARC
  5
DE6
  8
L1
 10
268.54269465752799
 20
114.01669528074861
 30
0.0
 40
0.1999999999999993
 50
0.0
 51
86.999999999999304
  0
LINE
  5
DE7
  8
L1
 10
245.7518374185008
 20
129.5175680340067
 30
0.0
 11
268.5533775419118
 21
128.3225899519056
 31
0.0
  0
LINE
  5
DE8
  8
L2
 10
247.36440641629869
 20
131.18729047460229
 30
0.0
 11
270.94291035066311
 21
129.95159344458591
 31
0.0
  0
POLYLINE
  5
DE9
  8
L1
 66
     1
 10
0.0
 20
0.0
 30
0.0
  0
VERTEX
  5
19EE
  8
L1
 10
243.74762483586559
 20
131.50379837085279
 30
0.0
  0
VERTEX
  5
19EF
  8
L1
 10
243.7426946572771
 20
131.50939363584149
 30
0.0
  0
SEQEND
  5
19F0
  8
L1
  0
POLYLINE
  5
DEA
  8
L1
 66
     1
 10
0.0
 20
0.0
 30
0.0
  0
VERTEX
  5
19F1
  8
L1
 10
243.74415361553301
 20
131.50778426639741
 30
0.0
  0
VERTEX
  5
19F2
  8
L1
 10
243.7426946573718
 20
131.5094397100919
 30
0.0
  0
SEQEND
  5
19F3
  8
L1
  0
POLYLINE
  5
DEB
  8
L1
 66
     1
 10
0.0
 20
0.0
 30
0.0
  0
VERTEX
  5
19F4
  8
L1
 10
243.74269465783519
 20
131.50933804426811
 30
0.0
  0
VERTEX
  5
19F5
  8
L1
 10
243.7440434185811
 20
131.5078043168802
 30
0.0
  0
SEQEND
  5
19F6
  8
L1
  0
POLYLINE
  5
DEC
  8
L1
 66
     1
 10
0.0
 20
0.0
 30
0.0
  0
VERTEX
  5
19F7
  8
L1
 10
243.74269465752801
 20
131.5096532194701
 30
0.0
  0
VERTEX
  5
19F8
  8
L1
 10
243.74269465752801
 20
131.50971335447201
 30
0.0
  0
VERTEX
  5
19F9
  8
L1
 10
243.74269465752801
 20
131.50969961185331
 30
0.0
  0
VERTEX
  5
19FA
  8
L1
 10
243.74269465752801
 20
131.5096278235269
 30
0.0
  0
VERTEX
  5
19FB
  8
L1
 10
243.74269465752801
 20
131.50951382140539
 30
0.0
  0
VERTEX
  5
19FC
  8
L1
 10
243.74269465752801
 20
131.50937343740179
 30
0.0
  0
VERTEX
  5
19FD
  8
L1
 10
243.74269465752801
 20
131.5092225034287
 30
0.0
  0
VERTEX
  5
19FE
  8
L1
 10
243.74269465752801
 20
131.50907685139879
 30
0.0
  0
VERTEX
  5
19FF
  8
L1
 10
243.74269465752801
 20
131.50895231322531
 30
0.0
  0
SEQEND
  5
1A00
  8
L1
  0
POLYLINE
  5
DED
  8
L1
 66
     1
 10
0.0
 20
0.0
 30
0.0
  0
VERTEX
  5
1A01
  8
L1
 10
243.74762483586559
 20
131.50379837085271
 30
0.0
  0
VERTEX
  5
1A02
  8
L1
 10
243.7426946572771
 20
131.50939363584149
 30
0.0
  0
SEQEND
  5
1A03
  8
L1
  0
POLYLINE
  5
DEE
  8
L1
 66
     1
 10
0.0
 20
0.0
 30
0.0
  0
VERTEX
  5
1A04
  8
L1
 10
243.74415361553301
 20
131.50778426639741
 30
0.0
  0
VERTEX
  5
1A05
  8
L1
 10
243.7426946573718
 20
131.5094397100919
 30
0.0
  0
SEQEND
  5
1A06
  8
L1
  0
POLYLINE
  5
DEF
  8
L1
 66
     1
 10
0.0
 20
0.0
 30
0.0
  0
VERTEX
  5
1A07
  8
L1
 10
243.74269465783519
 20
131.50933804426811
 30
0.0
  0
VERTEX
  5
1A08
  8
L1
 10
243.7440434185811
 20
131.5078043168802
 30
0.0
  0
SEQEND
  5
1A09
  8
L1
  0
POLYLINE
  5
DF0
  8
L1
 66
     1
 10
0.0
 20
0.0
 30
0.0
  0
VERTEX
  5
1A0A
  8
L1
 10
243.74269465752801
 20
131.5096532194701
 30
0.0
  0
VERTEX
  5
1A0B
  8
L1
 10
243.74269465752801
 20
131.5097133544719
 30
0.0
  0
VERTEX
  5
1A0C
  8
L1
 10
243.74269465752801
 20
131.50969961185331
 30
0.0
  0
VERTEX
  5
1A0D
  8
L1
 10
243.74269465752801
 20
131.5096278235269
 30
0.0
  0
VERTEX
  5
1A0E
  8
L1
 10
243.74269465752801
 20
131.50951382140531
 30
0.0
  0
VERTEX
  5
1A0F
  8
L1
 10
243.74269465752801
 20
131.50937343740171
 30
0.0
  0
VERTEX
  5
1A10
  8
L1
 10
243.74269465752801
 20
131.50922250342859
 30
0.0
  0
VERTEX
  5
1A11
  8
L1
 10
243.74269465752801
 20
131.50907685139879
 30
0.0
  0
VERTEX
  5
1A12
  8
L1
 10
243.74269465752801
 20
131.50895231322519
 30
0.0
  0
SEQEND
  5
1A13
  8
L1
  0
POLYLINE
  5
DF1
  8
L1
 66
     1
 10
0.0
 20
0.0
 30
0.0
  0
VERTEX
  5
1A14
  8
L1
 10
243.74762483586559
 20
131.50379837085271
 30
0.0
  0
VERTEX
  5
1A15
  8
L1
 10
243.7426946572771
 20
131.50939363584149
 30
0.0
  0
SEQEND
  5
1A16
  8
L1
  0
POLYLINE
  5
DF2
  8
L1
 66
     1
 10
0.0
 20
0.0
 30
0.0
  0
VERTEX
  5
1A17
  8
L1
 10
243.74415361553301
 20
131.50778426639741
 30
0.0
  0
VERTEX
  5
1A18
  8
L1
 10
243.7426946573718
 20
131.5094397100919
 30
0.0
  0
SEQEND
  5
1A19
  8
L1
  0
POLYLINE
  5
DF3
  8
L1
 66
     1
 10
0.0
 20
0.0
 30
0.0
  0
VERTEX
  5
1A1A
  8
L1
 10
243.74269465783519
 20
131.50933804426811
 30
0.0
  0
VERTEX
  5
1A1B
  8
L1
 10
243.7440434185811
 20
131.5078043168802
 30
0.0
  0
SEQEND
  5
1A1C
  8
L1
  0
POLYLINE
  5
DF4
  8
L1
 66
     1
 10
0.0
 20
0.0
 30
0.0
  0
VERTEX
  5
1A1D
  8
L1
 10
243.74269465752801
 20
131.5096532194701
 30
0.0
  0
VERTEX
  5
1A1E
  8
L1
 10
243.74269465752801
 20
131.5097133544719
 30
0.0
  0
VERTEX
  5
1A1F
  8
L1
 10
243.74269465752801
 20
131.50969961185331
 30
0.0
  0
VERTEX
  5
1A20
  8
L1
 10
243.74269465752801
 20
131.5096278235269
 30
0.0
  0
VERTEX
  5
1A21
  8
L1
 10
243.74269465752801
 20
131.50951382140531
 30
0.0
  0
VERTEX
  5
1A22
  8
L1
 10
243.74269465752801
 20
131.50937343740171
 30
0.0
  0
VERTEX
  5
1A23
  8
L1
 10
243.74269465752801
 20
131.50922250342859
 30
0.0
  0
VERTEX
  5
1A24
  8
L1
 10
243.74269465752801
 20
131.50907685139879
 30
0.0
  0
VERTEX
  5
1A25
  8
L1
 10
243.74269465752801
 20
131.50895231322519
 30
0.0
  0
SEQEND
  5
1A26
  8
L1
  0
LINE
  5
DF5
  8
L1
 10
243.74269465752801
 20
131.25013713425341
 30
0.0
 11
243.74285740856439
 21
131.25014566367381
 31
0.0
  0
LINE
  5
DF6
  8
L2
 10
244.2429103506631
 20
131.2503528273885
 30
0.0
 11
243.7429103506631
 21
131.2503528273885
 31
0.0
  0
LINE
  5
DF7
  8
L1
 10
243.74269465752801
 20
131.25013713425341
 30
0.0
 11
243.74285740856439
 21
131.25014566367381
 31
0.0
  0
LINE
  5
DF8
  8
L1
 10
243.7429103506631
 20
131.63453545123301
 30
0.0
 11
245.7518374185008
 21
129.5175680340067
 31
0.0
  0
ARC
  5
DF9
  8
L2
 10
247.7429103506631
 20
132.68523477673421
 30
0.0
 40
1.5
 50
180.0
 51
266.9999999999992
  0
POLYLINE
  5
DFA
  8
L1
 66
     1
 10
0.0
 20
0.0
 30
0.0
  0
VERTEX
  5
1A27
  8
L1
 10
268.74291035066312
 20
128.14450912527531
 30
0.0
  0
VERTEX
  5
1A28
  8
L1
 10
268.74291035066312
 20
128.12828197725341
 30
0.0
  0
VERTEX
  5
1A29
  8
L1
 10
268.74291035066312
 20
128.1228640449547
 30
0.0
  0
SEQEND
  5
1A2A
  8
L1
  0
ARC
  5
DFB
  8
L1
 10
268.54291035066308
 20
128.1228640449547
 30
0.0
 40
0.2
 50
0.0
 51
87.000000000000909
  0
LINE
  5
DFC
  8
L1
 10
245.7518374185008
 20
225.00774588258869
 30
0.0
 11
268.5533775419118
 21
226.2027239646898
 31
0.0
  0
LINE
  5
DFD
  8
L2
 10
270.94291035066311
 20
224.5737204720096
 30
0.0
 11
247.36440641629869
 21
223.33802344199299
 31
0.0
  0
POLYLINE
  5
DFE
  8
L1
 66
     1
 10
0.0
 20
0.0
 30
0.0
  0
VERTEX
  5
1A2B
  8
L1
 10
243.74269465752801
 20
223.0156606971253
 30
0.0
  0
VERTEX
  5
1A2C
  8
L1
 10
243.74269465752801
 20
223.0156005621235
 30
0.0
  0
VERTEX
  5
1A2D
  8
L1
 10
243.74269465752801
 20
223.01561430474209
 30
0.0
  0
VERTEX
  5
1A2E
  8
L1
 10
243.74269465752801
 20
223.01568609306861
 30
0.0
  0
VERTEX
  5
1A2F
  8
L1
 10
243.74269465752801
 20
223.01580009519009
 30
0.0
  0
VERTEX
  5
1A30
  8
L1
 10
243.74269465752801
 20
223.01594047919369
 30
0.0
  0
VERTEX
  5
1A31
  8
L1
 10
243.74269465752801
 20
223.01609141316681
 30
0.0
  0
VERTEX
  5
1A32
  8
L1
 10
243.74269465752801
 20
223.01623706519661
 30
0.0
  0
VERTEX
  5
1A33
  8
L1
 10
243.74269465752801
 20
223.0163616033702
 30
0.0
  0
SEQEND
  5
1A34
  8
L1
  0
POLYLINE
  5
DFF
  8
L1
 66
     1
 10
0.0
 20
0.0
 30
0.0
  0
VERTEX
  5
1A35
  8
L1
 10
243.74269465783519
 20
223.01597587232729
 30
0.0
  0
VERTEX
  5
1A36
  8
L1
 10
243.7440434185811
 20
223.01750959971531
 30
0.0
  0
SEQEND
  5
1A37
  8
L1
  0
POLYLINE
  5
E00
  8
L1
 66
     1
 10
0.0
 20
0.0
 30
0.0
  0
VERTEX
  5
1A38
  8
L1
 10
243.74415361553301
 20
223.01752965019799
 30
0.0
  0
VERTEX
  5
1A39
  8
L1
 10
243.7426946573718
 20
223.0158742065035
 30
0.0
  0
SEQEND
  5
1A3A
  8
L1
  0
POLYLINE
  5
E01
  8
L1
 66
     1
 10
0.0
 20
0.0
 30
0.0
  0
VERTEX
  5
1A3B
  8
L1
 10
243.74762483586559
 20
223.02151554574269
 30
0.0
  0
VERTEX
  5
1A3C
  8
L1
 10
243.7426946572771
 20
223.0159202807539
 30
0.0
  0
SEQEND
  5
1A3D
  8
L1
  0
LINE
  5
E02
  8
L2
 10
244.2429103506631
 20
223.27496108920701
 30
0.0
 11
243.7429103506631
 21
223.27496108920701
 31
0.0
  0
LINE
  5
E03
  8
L1
 10
243.7429103506631
 20
222.89077846536239
 30
0.0
 11
245.7518374185008
 21
225.00774588258869
 31
0.0
  0
LINE
  5
E04
  8
L1
 10
243.74269465752801
 20
223.2751767823421
 30
0.0
 11
243.74285740856439
 21
223.27516825292159
 31
0.0
  0
ARC
  5
E05
  8
L2
 10
247.7429103506631
 20
221.8400791398611
 30
0.0
 40
1.5
 50
93.000000000000711
 51
180.0
  0
POLYLINE
  5
E06
  8
L1
 66
     1
 10
0.0
 20
0.0
 30
0.0
  0
VERTEX
  5
1A3E
  8
L1
 10
268.74291035066312
 20
226.4024498716407
 30
0.0
  0
VERTEX
  5
1A3F
  8
L1
 10
268.74291035066312
 20
226.396767723126
 30
0.0
  0
VERTEX
  5
1A40
  8
L1
 10
268.74291035066312
 20
226.37975058900349
 30
0.0
  0
SEQEND
  5
1A41
  8
L1
  0
ARC
  5
E07
  8
L1
 10
268.54291035066308
 20
226.4024498716407
 30
0.0
 40
0.2
 50
272.99999999999909
 51
0.0
  0
LINE
  5
E08
  8
L1
 10
295.34291035066309
 20
112.9696328580729
 30
0.0
 11
294.62363031997859
 21
112.2503528273885
 31
0.0
  0
LINE
  5
E09
  8
L2
 10
295.342694657528
 20
114.8124412651627
 30
0.0
 11
296.10709211063448
 21
114.67765737019521
 31
0.0
  0
LINE
  5
E0A
  8
L1
 10
296.10709211063448
 20
113.9472251601302
 30
0.0
 11
295.3458846340929
 21
113.81300374409891
 31
0.0
  0
ARC
  5
E0B
  8
L1
 10
296.04269465752799
 20
114.3124412651627
 30
0.0
 40
0.3708501521392529
 50
280.00000000000011
 51
0.0
  0
ARC
  5
E0C
  8
L2
 10
296.04269465752799
 20
114.3124412651627
 30
0.0
 40
0.3708501521392529
 50
0.0
 51
79.999999999999801
  0
LINE
  5
E0D
  8
L1
 10
294.62363031997859
 20
242.2749610892069
 30
0.0
 11
268.9324431594145
 21
240.92854302297681
 31
0.0
  0
LINE
  5
E0E
  8
L1
 10
268.5531618487766
 20
240.30889272889601
 30
0.0
 11
245.75183741850071
 21
239.11392595079309
 31
0.0
  0
LINE
  5
E0F
  8
L1
 10
243.7429103506631
 20
236.9969585335669
 30
0.0
 11
245.75183741850071
 21
239.11392595079309
 31
0.0
  0
ARC
  5
E10
  8
L1
 10
268.94291035066311
 20
240.72881711602591
 30
0.0
 40
0.2
 50
92.999999999999105
 51
180.0
  0
ARC
  5
E11
  8
L1
 10
268.94291035066311
 20
240.72881711602579
 30
0.0
 40
0.2
 50
93.000000000000711
 51
180.0
  0
ARC
  5
E12
  8
L1
 10
268.54269465752799
 20
240.50861863584689
 30
0.0
 40
0.1999999999999993
 50
273.00000000000068
 51
0.0
  0
LINE
  5
E13
  8
L1
 10
294.62363031997859
 20
242.2749610892069
 30
0.0
 11
295.34291035066309
 21
241.5556810585224
 31
0.0
  0
LINE
  5
E14
  8
L1
 10
296.10709211063448
 20
240.57808875646529
 30
0.0
 11
295.3458846340929
 21
240.71231017249659
 31
0.0
  0
ARC
  5
E15
  8
L1
 10
296.04269465752799
 20
240.2128726514328
 30
0.0
 40
0.3708501521392529
 50
0.0
 51
79.999999999999801
  0
LINE
  5
E16
  8
L2
 10
295.342694657528
 20
239.7128726514328
 30
0.0
 11
296.10709211063448
 21
239.8476565464002
 31
0.0
  0
ARC
  5
E17
  8
L2
 10
296.04269465752799
 20
240.2128726514328
 30
0.0
 40
0.3708501521392529
 50
280.00000000000011
 51
0.0
  0
LINE
  5
E18
  8
L1
 10
539.15855020506035
 20
283.6055515907675
 30
0.0
 11
360.57250200461073
 21
283.6055515907675
 31
0.0
  0
LINE
  5
E19
  8
L1
 10
359.85322197392622
 20
284.32483162145201
 30
0.0
 11
539.8778302357448
 21
284.32483162145189
 31
0.0
  0
LINE
  5
E1A
  8
L1
 10
361.91531041170037
 20
282.53491713176328
 30
0.0
 11
537.81574179797065
 21
282.53491713176328
 31
0.0
  0
LINE
  5
E1B
  8
L1
 10
534.59982768010457
 20
335.20555159076753
 30
0.0
 11
365.13122452956623
 21
335.20555159076753
 31
0.0
  0
LINE
  5
E1C
  8
L1
 10
361.3993659471073
 20
310.20555159076758
 30
0.0
 11
538.33168626256384
 21
310.20555159076753
 31
0.0
  0
LINE
  5
E1D
  8
L1
 10
536.71679509733099
 20
333.19662452292982
 30
0.0
 11
363.0142571123402
 21
333.19662452292982
 31
0.0
  0
LINE
  5
E1E
  8
L2
 10
377.55446259112369
 20
308.00555159076748
 30
0.0
 11
378.79015962114011
 21
331.58405552513187
 31
0.0
  0
LINE
  5
E1F
  8
L1
 10
379.23740459777071
 20
335.20555159076741
 30
0.0
 11
377.12043718054451
 21
333.19662452292982
 31
0.0
  0
LINE
  5
E20
  8
L1
 10
361.81929033423722
 20
310.39530009265388
 30
0.0
 11
363.0142571123402
 21
333.19662452292982
 31
0.0
  0
LINE
  5
E21
  8
L1
 10
377.12043718054451
 20
333.19662452292982
 30
0.0
 11
375.9254590984433
 21
310.39508439951879
 31
0.0
  0
ARC
  5
E22
  8
L1
 10
361.3993659471073
 20
310.00555159076748
 30
0.0
 40
0.2
 50
90.0
 51
177.00000000000091
  0
ARC
  5
E23
  8
L1
 10
361.3993659471073
 20
310.00555159076748
 30
0.0
 40
0.2
 50
90.0
 51
177.00000000000091
  0
ARC
  5
E24
  8
L1
 10
361.61956442728632
 20
310.40576728390261
 30
0.0
 40
0.1999999999999993
 50
270.0
 51
356.99999999999761
  0
POLYLINE
  5
E25
  8
L1
 66
     1
 10
0.0
 20
0.0
 30
0.0
  0
VERTEX
  5
1A42
  8
L1
 10
375.72573319149251
 20
310.20555159076753
 30
0.0
  0
VERTEX
  5
1A43
  8
L1
 10
375.73141534000712
 20
310.20555159076753
 30
0.0
  0
VERTEX
  5
1A44
  8
L1
 10
375.74843247412957
 20
310.20555159076753
 30
0.0
  0
SEQEND
  5
1A45
  8
L1
  0
ARC
  5
E26
  8
L1
 10
375.72573319149262
 20
310.4055515907674
 30
0.0
 40
0.2
 50
270.0
 51
357.00000000000091
  0
LINE
  5
E27
  8
L1
 10
359.85322197392622
 20
284.32483162145201
 30
0.0
 11
360.57250200461073
 21
283.6055515907675
 31
0.0
  0
LINE
  5
E28
  8
L1
 10
361.55009430666792
 20
282.84136983079611
 30
0.0
 11
361.41587289063659
 21
283.60257730733753
 31
0.0
  0
ARC
  5
E29
  8
L1
 10
361.91531041170049
 20
282.90576728390249
 30
0.0
 40
0.3708501521392529
 50
189.99999999999861
 51
270.0
  0
LINE
  5
E2A
  8
L2
 10
362.41531041170037
 20
283.60576728390259
 30
0.0
 11
362.28052651673289
 21
282.84136983079611
 31
0.0
  0
ARC
  5
E2B
  8
L2
 10
361.91531041170049
 20
282.90576728390249
 30
0.0
 40
0.3708501521392529
 50
270.0
 51
349.99999999999812
  0
LINE
  5
E2C
  8
L1
 10
359.85322197392622
 20
284.32483162145189
 30
0.0
 11
361.19964004015628
 21
310.01601878201609
 31
0.0
  0
LINE
  5
E2D
  8
L2
 10
376.91552610483541
 20
283.6055515907675
 30
0.0
 11
377.55446259112369
 21
308.00555159076748
 31
0.0
  0
LINE
  5
E2E
  8
L1
 10
365.13122452956623
 20
335.20555159076753
 30
0.0
 11
363.0142571123402
 21
333.19662452292982
 31
0.0
  0
LINE
  5
E2F
  8
L2
 10
380.2881039232721
 20
332.70555159076741
 30
0.0
 11
519.44294828639909
 21
332.70555159076741
 31
0.0
  0
LINE
  5
E30
  8
L2
 10
378.85322197392611
 20
334.70555159076753
 30
0.0
 11
520.8778302357448
 21
334.70555159076753
 31
0.0
  0
LINE
  5
E31
  8
L6
 10
449.86552610483551
 20
338.3657094015453
 30
0.0
 11
449.86552610483551
 21
279.26825424492938
 31
0.0
  0
POLYLINE
  5
E32
  8
L1
 66
     1
 10
0.0
 20
0.0
 30
0.0
  0
VERTEX
  5
1A46
  8
L1
 10
379.11252236600779
 20
335.20576728390267
 30
0.0
  0
VERTEX
  5
1A47
  8
L1
 10
379.11258250100968
 20
335.20576728390267
 30
0.0
  0
VERTEX
  5
1A48
  8
L1
 10
379.11256875839098
 20
335.20576728390267
 30
0.0
  0
VERTEX
  5
1A49
  8
L1
 10
379.11249697006451
 20
335.20576728390267
 30
0.0
  0
VERTEX
  5
1A4A
  8
L1
 10
379.11238296794312
 20
335.20576728390267
 30
0.0
  0
VERTEX
  5
1A4B
  8
L1
 10
379.11224258393941
 20
335.20576728390267
 30
0.0
  0
VERTEX
  5
1A4C
  8
L1
 10
379.11209164996632
 20
335.20576728390267
 30
0.0
  0
VERTEX
  5
1A4D
  8
L1
 10
379.11194599793657
 20
335.20576728390267
 30
0.0
  0
VERTEX
  5
1A4E
  8
L1
 10
379.11182145976301
 20
335.20576728390267
 30
0.0
  0
SEQEND
  5
1A4F
  8
L1
  0
POLYLINE
  5
E33
  8
L1
 66
     1
 10
0.0
 20
0.0
 30
0.0
  0
VERTEX
  5
1A50
  8
L1
 10
379.1122071908058
 20
335.20576728359521
 30
0.0
  0
VERTEX
  5
1A51
  8
L1
 10
379.11067346341792
 20
335.20441852284949
 30
0.0
  0
SEQEND
  5
1A52
  8
L1
  0
POLYLINE
  5
E34
  8
L1
 66
     1
 10
0.0
 20
0.0
 30
0.0
  0
VERTEX
  5
1A53
  8
L1
 10
379.11065341293511
 20
335.20430832589761
 30
0.0
  0
VERTEX
  5
1A54
  8
L1
 10
379.11230885662962
 20
335.20576728405871
 30
0.0
  0
SEQEND
  5
1A55
  8
L1
  0
POLYLINE
  5
E35
  8
L1
 66
     1
 10
0.0
 20
0.0
 30
0.0
  0
VERTEX
  5
1A56
  8
L1
 10
379.10666751739041
 20
335.20083710556497
 30
0.0
  0
VERTEX
  5
1A57
  8
L1
 10
379.11226278237928
 20
335.20576728415341
 30
0.0
  0
SEQEND
  5
1A58
  8
L1
  0
LINE
  5
E36
  8
L2
 10
378.85322197392611
 20
334.70555159076753
 30
0.0
 11
378.85322197392611
 21
335.20555159076753
 31
0.0
  0
LINE
  5
E37
  8
L1
 10
378.85300628079108
 20
335.20576728390267
 30
0.0
 11
378.85301481021162
 21
335.20560453286618
 31
0.0
  0
ARC
  5
E38
  8
L2
 10
380.2881039232721
 20
331.20555159076741
 30
0.0
 40
1.5
 50
90.0
 51
177.00000000000091
  0
LINE
  5
E39
  8
L1
 10
537.91176187543397
 20
310.39530009265388
 30
0.0
 11
536.71679509733099
 21
333.19662452292982
 31
0.0
  0
LINE
  5
E3A
  8
L1
 10
522.61061502912662
 20
333.19662452292982
 30
0.0
 11
523.80559311122772
 21
310.39508439951879
 31
0.0
  0
LINE
  5
E3B
  8
L2
 10
520.94089258853103
 20
331.58405552513187
 30
0.0
 11
522.17658961854738
 21
308.00555159076748
 31
0.0
  0
ARC
  5
E3C
  8
L1
 10
524.00531901817862
 20
310.4055515907674
 30
0.0
 40
0.2
 50
182.99999999999909
 51
270.0
  0
LINE
  5
E3D
  8
L2
 10
522.81552610483573
 20
283.6055515907675
 30
0.0
 11
522.17658961854738
 21
308.00555159076748
 31
0.0
  0
POLYLINE
  5
E3E
  8
L1
 66
     1
 10
0.0
 20
0.0
 30
0.0
  0
VERTEX
  5
1A59
  8
L1
 10
523.98367393785804
 20
310.20555159076753
 30
0.0
  0
VERTEX
  5
1A5A
  8
L1
 10
523.99990108587997
 20
310.20555159076753
 30
0.0
  0
VERTEX
  5
1A5B
  8
L1
 10
524.00531901817862
 20
310.20555159076753
 30
0.0
  0
SEQEND
  5
1A5C
  8
L1
  0
ARC
  5
E3F
  8
L1
 10
538.33168626256395
 20
310.00555159076748
 30
0.0
 40
0.2
 50
2.9999999999990901
 51
90.0
  0
ARC
  5
E40
  8
L1
 10
538.11148778238476
 20
310.40576728390261
 30
0.0
 40
0.1999999999999993
 50
182.99999999999909
 51
270.0
  0
LINE
  5
E41
  8
L1
 10
539.15855020506035
 20
283.6055515907675
 30
0.0
 11
539.8778302357448
 21
284.32483162145189
 31
0.0
  0
LINE
  5
E42
  8
L2
 10
537.31574179797065
 20
283.60576728390259
 30
0.0
 11
537.45052569293796
 21
282.84136983079611
 31
0.0
  0
LINE
  5
E43
  8
L1
 10
538.18095790300322
 20
282.84136983079611
 30
0.0
 11
538.31517931903443
 21
283.60257730733753
 31
0.0
  0
ARC
  5
E44
  8
L1
 10
537.81574179797065
 20
282.90576728390249
 30
0.0
 40
0.3708501521392529
 50
270.0
 51
349.99999999999812
  0
ARC
  5
E45
  8
L2
 10
537.81574179797065
 20
282.90576728390249
 30
0.0
 40
0.3708501521392529
 50
189.99999999999861
 51
270.0
  0
LINE
  5
E46
  8
L1
 10
539.8778302357448
 20
284.32483162145189
 30
0.0
 11
538.53141216951462
 21
310.01601878201609
 31
0.0
  0
POLYLINE
  5
E47
  8
L1
 66
     1
 10
0.0
 20
0.0
 30
0.0
  0
VERTEX
  5
1A5D
  8
L1
 10
520.6243846922805
 20
335.20083710556497
 30
0.0
  0
VERTEX
  5
1A5E
  8
L1
 10
520.61878942729174
 20
335.20576728415341
 30
0.0
  0
SEQEND
  5
1A5F
  8
L1
  0
POLYLINE
  5
E48
  8
L1
 66
     1
 10
0.0
 20
0.0
 30
0.0
  0
VERTEX
  5
1A60
  8
L1
 10
520.6203987967358
 20
335.20430832589761
 30
0.0
  0
VERTEX
  5
1A61
  8
L1
 10
520.61874335304151
 20
335.20576728405871
 30
0.0
  0
SEQEND
  5
1A62
  8
L1
  0
POLYLINE
  5
E49
  8
L1
 66
     1
 10
0.0
 20
0.0
 30
0.0
  0
VERTEX
  5
1A63
  8
L1
 10
520.61884501886504
 20
335.20576728359521
 30
0.0
  0
VERTEX
  5
1A64
  8
L1
 10
520.6203787462531
 20
335.20441852284949
 30
0.0
  0
SEQEND
  5
1A65
  8
L1
  0
POLYLINE
  5
E4A
  8
L1
 66
     1
 10
0.0
 20
0.0
 30
0.0
  0
VERTEX
  5
1A66
  8
L1
 10
520.61852984366328
 20
335.20576728390267
 30
0.0
  0
VERTEX
  5
1A67
  8
L1
 10
520.61846970866145
 20
335.20576728390267
 30
0.0
  0
VERTEX
  5
1A68
  8
L1
 10
520.6184834512801
 20
335.20576728390267
 30
0.0
  0
VERTEX
  5
1A69
  8
L1
 10
520.61855523960628
 20
335.20576728390267
 30
0.0
  0
VERTEX
  5
1A6A
  8
L1
 10
520.61866924172784
 20
335.20576728390267
 30
0.0
  0
VERTEX
  5
1A6B
  8
L1
 10
520.6188096257315
 20
335.20576728390267
 30
0.0
  0
VERTEX
  5
1A6C
  8
L1
 10
520.61896055970465
 20
335.20576728390267
 30
0.0
  0
VERTEX
  5
1A6D
  8
L1
 10
520.61910621173445
 20
335.20576728390267
 30
0.0
  0
VERTEX
  5
1A6E
  8
L1
 10
520.61923074990807
 20
335.20576728390267
 30
0.0
  0
SEQEND
  5
1A6F
  8
L1
  0
POLYLINE
  5
E4B
  8
L1
 66
     1
 10
0.0
 20
0.0
 30
0.0
  0
VERTEX
  5
1A70
  8
L1
 10
520.62438469228061
 20
335.20083710556497
 30
0.0
  0
VERTEX
  5
1A71
  8
L1
 10
520.61878942729174
 20
335.20576728415341
 30
0.0
  0
SEQEND
  5
1A72
  8
L1
  0
POLYLINE
  5
E4C
  8
L1
 66
     1
 10
0.0
 20
0.0
 30
0.0
  0
VERTEX
  5
1A73
  8
L1
 10
520.62039879673603
 20
335.20430832589761
 30
0.0
  0
VERTEX
  5
1A74
  8
L1
 10
520.61874335304151
 20
335.20576728405871
 30
0.0
  0
SEQEND
  5
1A75
  8
L1
  0
POLYLINE
  5
E4D
  8
L1
 66
     1
 10
0.0
 20
0.0
 30
0.0
  0
VERTEX
  5
1A76
  8
L1
 10
520.61884501886516
 20
335.20576728359521
 30
0.0
  0
VERTEX
  5
1A77
  8
L1
 10
520.6203787462531
 20
335.20441852284949
 30
0.0
  0
SEQEND
  5
1A78
  8
L1
  0
POLYLINE
  5
E4E
  8
L1
 66
     1
 10
0.0
 20
0.0
 30
0.0
  0
VERTEX
  5
1A79
  8
L1
 10
520.61852984366328
 20
335.20576728390267
 30
0.0
  0
VERTEX
  5
1A7A
  8
L1
 10
520.61846970866145
 20
335.20576728390267
 30
0.0
  0
VERTEX
  5
1A7B
  8
L1
 10
520.6184834512801
 20
335.20576728390267
 30
0.0
  0
VERTEX
  5
1A7C
  8
L1
 10
520.61855523960651
 20
335.20576728390267
 30
0.0
  0
VERTEX
  5
1A7D
  8
L1
 10
520.61866924172784
 20
335.20576728390267
 30
0.0
  0
VERTEX
  5
1A7E
  8
L1
 10
520.6188096257315
 20
335.20576728390267
 30
0.0
  0
VERTEX
  5
1A7F
  8
L1
 10
520.61896055970465
 20
335.20576728390267
 30
0.0
  0
VERTEX
  5
1A80
  8
L1
 10
520.61910621173445
 20
335.20576728390267
 30
0.0
  0
VERTEX
  5
1A81
  8
L1
 10
520.61923074990807
 20
335.20576728390267
 30
0.0
  0
SEQEND
  5
1A82
  8
L1
  0
POLYLINE
  5
E4F
  8
L1
 66
     1
 10
0.0
 20
0.0
 30
0.0
  0
VERTEX
  5
1A83
  8
L1
 10
520.62438469228061
 20
335.20083710556497
 30
0.0
  0
VERTEX
  5
1A84
  8
L1
 10
520.61878942729174
 20
335.20576728415341
 30
0.0
  0
SEQEND
  5
1A85
  8
L1
  0
POLYLINE
  5
E50
  8
L1
 66
     1
 10
0.0
 20
0.0
 30
0.0
  0
VERTEX
  5
1A86
  8
L1
 10
520.62039879673603
 20
335.20430832589761
 30
0.0
  0
VERTEX
  5
1A87
  8
L1
 10
520.61874335304151
 20
335.20576728405871
 30
0.0
  0
SEQEND
  5
1A88
  8
L1
  0
POLYLINE
  5
E51
  8
L1
 66
     1
 10
0.0
 20
0.0
 30
0.0
  0
VERTEX
  5
1A89
  8
L1
 10
520.61884501886516
 20
335.20576728359521
 30
0.0
  0
VERTEX
  5
1A8A
  8
L1
 10
520.6203787462531
 20
335.20441852284949
 30
0.0
  0
SEQEND
  5
1A8B
  8
L1
  0
POLYLINE
  5
E52
  8
L1
 66
     1
 10
0.0
 20
0.0
 30
0.0
  0
VERTEX
  5
1A8C
  8
L1
 10
520.61852984366328
 20
335.20576728390267
 30
0.0
  0
VERTEX
  5
1A8D
  8
L1
 10
520.61846970866145
 20
335.20576728390267
 30
0.0
  0
VERTEX
  5
1A8E
  8
L1
 10
520.6184834512801
 20
335.20576728390267
 30
0.0
  0
VERTEX
  5
1A8F
  8
L1
 10
520.61855523960651
 20
335.20576728390267
 30
0.0
  0
VERTEX
  5
1A90
  8
L1
 10
520.61866924172784
 20
335.20576728390267
 30
0.0
  0
VERTEX
  5
1A91
  8
L1
 10
520.6188096257315
 20
335.20576728390267
 30
0.0
  0
VERTEX
  5
1A92
  8
L1
 10
520.61896055970465
 20
335.20576728390267
 30
0.0
  0
VERTEX
  5
1A93
  8
L1
 10
520.61910621173445
 20
335.20576728390267
 30
0.0
  0
VERTEX
  5
1A94
  8
L1
 10
520.61923074990807
 20
335.20576728390267
 30
0.0
  0
SEQEND
  5
1A95
  8
L1
  0
LINE
  5
E53
  8
L1
 10
520.87804592888006
 20
335.20576728390267
 30
0.0
 11
520.87803739945957
 21
335.20560453286618
 31
0.0
  0
LINE
  5
E54
  8
L2
 10
520.8778302357448
 20
334.70555159076753
 30
0.0
 11
520.8778302357448
 21
335.20555159076753
 31
0.0
  0
LINE
  5
E55
  8
L1
 10
520.87804592888006
 20
335.20576728390267
 30
0.0
 11
520.87803739945957
 21
335.20560453286618
 31
0.0
  0
LINE
  5
E56
  8
L1
 10
520.4936476119002
 20
335.20555159076741
 30
0.0
 11
522.61061502912662
 21
333.19662452292982
 31
0.0
  0
ARC
  5
E57
  8
L2
 10
519.44294828639931
 20
331.20555159076741
 30
0.0
 40
1.5
 50
3.0000000000023421
 51
90.0
  0
LINE
  5
E58
  8
L1
 10
534.59982768010468
 20
335.20555159076753
 30
0.0
 11
536.71679509733099
 21
333.19662452292982
 31
0.0
  0
LINE
  5
E59
  8
L2
 10
380.2881039232721
 20
21.819762325828091
 30
0.0
 11
519.44294828639909
 21
21.819762325828091
 31
0.0
  0
LINE
  5
E5A
  8
L2
 10
378.85322197392611
 20
19.81976232582803
 30
0.0
 11
520.8778302357448
 21
19.81976232582803
 31
0.0
  0
LINE
  5
E5B
  8
L1
 10
536.71679509733099
 20
21.328689393665741
 30
0.0
 11
363.0142571123402
 21
21.328689393665741
 31
0.0
  0
LINE
  5
E5C
  8
L1
 10
361.3993659471073
 20
44.319762325827917
 30
0.0
 11
538.33168626256384
 21
44.319762325828037
 31
0.0
  0
LINE
  5
E5D
  8
L1
 10
534.59982768010457
 20
19.31976232582803
 30
0.0
 11
365.13122452956623
 21
19.31976232582803
 31
0.0
  0
LINE
  5
E5E
  8
L1
 10
361.91531041170037
 20
71.990396784832228
 30
0.0
 11
537.81574179797065
 21
71.990396784832228
 31
0.0
  0
LINE
  5
E5F
  8
L1
 10
359.85322197392622
 20
70.200482295143502
 30
0.0
 11
539.8778302357448
 21
70.200482295143615
 31
0.0
  0
LINE
  5
E60
  8
L1
 10
539.15855020506035
 20
70.91976232582806
 30
0.0
 11
360.57250200461073
 21
70.91976232582806
 31
0.0
  0
LINE
  5
E61
  8
L1
 10
359.85322197392622
 20
70.200482295143615
 30
0.0
 11
361.19964004015628
 21
44.509295134579467
 31
0.0
  0
LINE
  5
E62
  8
L2
 10
376.91552610483541
 20
70.91976232582806
 30
0.0
 11
377.55446259112369
 21
46.519762325828083
 31
0.0
  0
LINE
  5
E63
  8
L6
 10
449.86552610483551
 20
16.159604515050201
 30
0.0
 11
449.86552610483551
 21
75.257059671666184
 31
0.0
  0
LINE
  5
E64
  8
L1
 10
359.85322197392622
 20
70.200482295143502
 30
0.0
 11
360.57250200461073
 21
70.91976232582806
 31
0.0
  0
LINE
  5
E65
  8
L1
 10
361.55009430666792
 20
71.683944085799453
 30
0.0
 11
361.41587289063659
 21
70.922736609257981
 31
0.0
  0
ARC
  5
E66
  8
L1
 10
361.91531041170049
 20
71.619546632692959
 30
0.0
 40
0.3708501521392529
 50
90.000000000000028
 51
170.00000000000131
  0
LINE
  5
E67
  8
L2
 10
362.41531041170037
 20
70.919546632692914
 30
0.0
 11
362.28052651673289
 21
71.683944085799453
 31
0.0
  0
ARC
  5
E68
  8
L2
 10
361.91531041170049
 20
71.619546632692959
 30
0.0
 40
0.3708501521392529
 50
10.00000000000183
 51
90.000000000000028
  0
LINE
  5
E69
  8
L2
 10
377.55446259112369
 20
46.519762325828083
 30
0.0
 11
378.79015962114011
 21
22.941258391463631
 31
0.0
  0
LINE
  5
E6A
  8
L1
 10
361.81929033423722
 20
44.13001382394156
 30
0.0
 11
363.0142571123402
 21
21.328689393665741
 31
0.0
  0
LINE
  5
E6B
  8
L1
 10
377.12043718054451
 20
21.328689393665741
 30
0.0
 11
375.9254590984433
 21
44.130229517076707
 31
0.0
  0
ARC
  5
E6C
  8
L1
 10
361.3993659471073
 20
44.519762325828083
 30
0.0
 40
0.2
 50
182.99999999999909
 51
270.0
  0
ARC
  5
E6D
  8
L1
 10
361.3993659471073
 20
44.519762325828083
 30
0.0
 40
0.2
 50
182.99999999999909
 51
270.0
  0
ARC
  5
E6E
  8
L1
 10
361.61956442728632
 20
44.119546632692959
 30
0.0
 40
0.1999999999999993
 50
3.000000000002371
 51
90.000000000000028
  0
POLYLINE
  5
E6F
  8
L1
 66
     1
 10
0.0
 20
0.0
 30
0.0
  0
VERTEX
  5
1A96
  8
L1
 10
375.72573319149251
 20
44.319762325828037
 30
0.0
  0
VERTEX
  5
1A97
  8
L1
 10
375.73141534000712
 20
44.319762325828037
 30
0.0
  0
VERTEX
  5
1A98
  8
L1
 10
375.74843247412957
 20
44.319762325828037
 30
0.0
  0
SEQEND
  5
1A99
  8
L1
  0
ARC
  5
E70
  8
L1
 10
375.72573319149262
 20
44.119762325828098
 30
0.0
 40
0.2
 50
2.9999999999991149
 51
90.000000000000028
  0
LINE
  5
E71
  8
L1
 10
365.13122452956623
 20
19.31976232582803
 30
0.0
 11
363.0142571123402
 21
21.328689393665741
 31
0.0
  0
POLYLINE
  5
E72
  8
L1
 66
     1
 10
0.0
 20
0.0
 30
0.0
  0
VERTEX
  5
1A9A
  8
L1
 10
379.10666751739041
 20
19.324476811030529
 30
0.0
  0
VERTEX
  5
1A9B
  8
L1
 10
379.11226278237928
 20
19.319546632442091
 30
0.0
  0
SEQEND
  5
1A9C
  8
L1
  0
POLYLINE
  5
E73
  8
L1
 66
     1
 10
0.0
 20
0.0
 30
0.0
  0
VERTEX
  5
1A9D
  8
L1
 10
379.11065341293511
 20
19.321005590697951
 30
0.0
  0
VERTEX
  5
1A9E
  8
L1
 10
379.11230885662962
 20
19.319546632536792
 30
0.0
  0
SEQEND
  5
1A9F
  8
L1
  0
POLYLINE
  5
E74
  8
L1
 66
     1
 10
0.0
 20
0.0
 30
0.0
  0
VERTEX
  5
1AA0
  8
L1
 10
379.1122071908058
 20
19.3195466330003
 30
0.0
  0
VERTEX
  5
1AA1
  8
L1
 10
379.11067346341792
 20
19.32089539374601
 30
0.0
  0
SEQEND
  5
1AA2
  8
L1
  0
POLYLINE
  5
E75
  8
L1
 66
     1
 10
0.0
 20
0.0
 30
0.0
  0
VERTEX
  5
1AA3
  8
L1
 10
379.11252236600779
 20
19.319546632692891
 30
0.0
  0
VERTEX
  5
1AA4
  8
L1
 10
379.11258250100968
 20
19.319546632692891
 30
0.0
  0
VERTEX
  5
1AA5
  8
L1
 10
379.11256875839098
 20
19.319546632692891
 30
0.0
  0
VERTEX
  5
1AA6
  8
L1
 10
379.11249697006451
 20
19.319546632692891
 30
0.0
  0
VERTEX
  5
1AA7
  8
L1
 10
379.11238296794312
 20
19.319546632692891
 30
0.0
  0
VERTEX
  5
1AA8
  8
L1
 10
379.11224258393941
 20
19.319546632692891
 30
0.0
  0
VERTEX
  5
1AA9
  8
L1
 10
379.11209164996632
 20
19.319546632692891
 30
0.0
  0
VERTEX
  5
1AAA
  8
L1
 10
379.11194599793657
 20
19.319546632692891
 30
0.0
  0
VERTEX
  5
1AAB
  8
L1
 10
379.11182145976301
 20
19.319546632692891
 30
0.0
  0
SEQEND
  5
1AAC
  8
L1
  0
LINE
  5
E76
  8
L1
 10
379.23740459777071
 20
19.319762325828151
 30
0.0
 11
377.12043718054451
 21
21.328689393665741
 31
0.0
  0
LINE
  5
E77
  8
L2
 10
378.85322197392611
 20
19.81976232582803
 30
0.0
 11
378.85322197392611
 21
19.31976232582803
 31
0.0
  0
LINE
  5
E78
  8
L1
 10
378.85300628079108
 20
19.319546632692891
 30
0.0
 11
378.85301481021162
 21
19.319709383729329
 31
0.0
  0
ARC
  5
E79
  8
L2
 10
380.2881039232721
 20
23.319762325828091
 30
0.0
 40
1.5
 50
182.99999999999909
 51
270.0
  0
LINE
  5
E7A
  8
L1
 10
539.8778302357448
 20
70.200482295143615
 30
0.0
 11
538.53141216951462
 21
44.509295134579467
 31
0.0
  0
LINE
  5
E7B
  8
L2
 10
522.81552610483573
 20
70.91976232582806
 30
0.0
 11
522.17658961854738
 21
46.519762325828083
 31
0.0
  0
LINE
  5
E7C
  8
L1
 10
539.15855020506035
 20
70.91976232582806
 30
0.0
 11
539.8778302357448
 21
70.200482295143615
 31
0.0
  0
LINE
  5
E7D
  8
L2
 10
537.31574179797065
 20
70.919546632692914
 30
0.0
 11
537.45052569293796
 21
71.683944085799453
 31
0.0
  0
LINE
  5
E7E
  8
L1
 10
538.18095790300322
 20
71.683944085799453
 30
0.0
 11
538.31517931903443
 21
70.922736609257981
 31
0.0
  0
ARC
  5
E7F
  8
L1
 10
537.81574179797065
 20
71.619546632692959
 30
0.0
 40
0.3708501521392529
 50
10.00000000000183
 51
90.000000000000028
  0
ARC
  5
E80
  8
L2
 10
537.81574179797065
 20
71.619546632692959
 30
0.0
 40
0.3708501521392529
 50
90.000000000000028
 51
170.00000000000131
  0
LINE
  5
E81
  8
L1
 10
537.91176187543397
 20
44.13001382394156
 30
0.0
 11
536.71679509733099
 21
21.328689393665741
 31
0.0
  0
LINE
  5
E82
  8
L1
 10
522.61061502912662
 20
21.328689393665741
 30
0.0
 11
523.80559311122772
 21
44.130229517076707
 31
0.0
  0
LINE
  5
E83
  8
L2
 10
520.94089258853103
 20
22.941258391463631
 30
0.0
 11
522.17658961854738
 21
46.519762325828083
 31
0.0
  0
POLYLINE
  5
E84
  8
L1
 66
     1
 10
0.0
 20
0.0
 30
0.0
  0
VERTEX
  5
1AAD
  8
L1
 10
523.98367393785804
 20
44.319762325828037
 30
0.0
  0
VERTEX
  5
1AAE
  8
L1
 10
523.99990108587997
 20
44.319762325828037
 30
0.0
  0
VERTEX
  5
1AAF
  8
L1
 10
524.00531901817862
 20
44.319762325828037
 30
0.0
  0
SEQEND
  5
1AB0
  8
L1
  0
ARC
  5
E85
  8
L1
 10
524.00531901817862
 20
44.119762325828098
 30
0.0
 40
0.2
 50
90.000000000000028
 51
177.00000000000091
  0
ARC
  5
E86
  8
L1
 10
538.33168626256395
 20
44.519762325828083
 30
0.0
 40
0.2
 50
270.0
 51
357.00000000000091
  0
ARC
  5
E87
  8
L1
 10
538.11148778238476
 20
44.119546632692959
 30
0.0
 40
0.1999999999999993
 50
90.000000000000028
 51
177.00000000000091
  0
ARC
  5
E88
  8
L2
 10
519.44294828639931
 20
23.319762325828091
 30
0.0
 40
1.5
 50
270.0
 51
356.99999999999761
  0
LINE
  5
E89
  8
L1
 10
520.4936476119002
 20
19.319762325828151
 30
0.0
 11
522.61061502912662
 21
21.328689393665741
 31
0.0
  0
POLYLINE
  5
E8A
  8
L1
 66
     1
 10
0.0
 20
0.0
 30
0.0
  0
VERTEX
  5
1AB1
  8
L1
 10
520.61852984366328
 20
19.319546632692891
 30
0.0
  0
VERTEX
  5
1AB2
  8
L1
 10
520.61846970866145
 20
19.319546632692891
 30
0.0
  0
VERTEX
  5
1AB3
  8
L1
 10
520.6184834512801
 20
19.319546632692891
 30
0.0
  0
VERTEX
  5
1AB4
  8
L1
 10
520.61855523960651
 20
19.319546632692891
 30
0.0
  0
VERTEX
  5
1AB5
  8
L1
 10
520.61866924172784
 20
19.319546632692891
 30
0.0
  0
VERTEX
  5
1AB6
  8
L1
 10
520.6188096257315
 20
19.319546632692891
 30
0.0
  0
VERTEX
  5
1AB7
  8
L1
 10
520.61896055970465
 20
19.319546632692891
 30
0.0
  0
VERTEX
  5
1AB8
  8
L1
 10
520.61910621173445
 20
19.319546632692891
 30
0.0
  0
VERTEX
  5
1AB9
  8
L1
 10
520.61923074990807
 20
19.319546632692891
 30
0.0
  0
SEQEND
  5
1ABA
  8
L1
  0
POLYLINE
  5
E8B
  8
L1
 66
     1
 10
0.0
 20
0.0
 30
0.0
  0
VERTEX
  5
1ABB
  8
L1
 10
520.61884501886516
 20
19.3195466330003
 30
0.0
  0
VERTEX
  5
1ABC
  8
L1
 10
520.6203787462531
 20
19.32089539374601
 30
0.0
  0
SEQEND
  5
1ABD
  8
L1
  0
POLYLINE
  5
E8C
  8
L1
 66
     1
 10
0.0
 20
0.0
 30
0.0
  0
VERTEX
  5
1ABE
  8
L1
 10
520.62039879673603
 20
19.321005590697951
 30
0.0
  0
VERTEX
  5
1ABF
  8
L1
 10
520.61874335304151
 20
19.319546632536792
 30
0.0
  0
SEQEND
  5
1AC0
  8
L1
  0
POLYLINE
  5
E8D
  8
L1
 66
     1
 10
0.0
 20
0.0
 30
0.0
  0
VERTEX
  5
1AC1
  8
L1
 10
520.62438469228061
 20
19.324476811030529
 30
0.0
  0
VERTEX
  5
1AC2
  8
L1
 10
520.61878942729174
 20
19.319546632442091
 30
0.0
  0
SEQEND
  5
1AC3
  8
L1
  0
POLYLINE
  5
E8E
  8
L1
 66
     1
 10
0.0
 20
0.0
 30
0.0
  0
VERTEX
  5
1AC4
  8
L1
 10
520.61852984366328
 20
19.319546632692891
 30
0.0
  0
VERTEX
  5
1AC5
  8
L1
 10
520.61846970866145
 20
19.319546632692891
 30
0.0
  0
VERTEX
  5
1AC6
  8
L1
 10
520.6184834512801
 20
19.319546632692891
 30
0.0
  0
VERTEX
  5
1AC7
  8
L1
 10
520.61855523960651
 20
19.319546632692891
 30
0.0
  0
VERTEX
  5
1AC8
  8
L1
 10
520.61866924172784
 20
19.319546632692891
 30
0.0
  0
VERTEX
  5
1AC9
  8
L1
 10
520.6188096257315
 20
19.319546632692891
 30
0.0
  0
VERTEX
  5
1ACA
  8
L1
 10
520.61896055970465
 20
19.319546632692891
 30
0.0
  0
VERTEX
  5
1ACB
  8
L1
 10
520.61910621173445
 20
19.319546632692891
 30
0.0
  0
VERTEX
  5
1ACC
  8
L1
 10
520.61923074990807
 20
19.319546632692891
 30
0.0
  0
SEQEND
  5
1ACD
  8
L1
  0
POLYLINE
  5
E8F
  8
L1
 66
     1
 10
0.0
 20
0.0
 30
0.0
  0
VERTEX
  5
1ACE
  8
L1
 10
520.61884501886516
 20
19.3195466330003
 30
0.0
  0
VERTEX
  5
1ACF
  8
L1
 10
520.6203787462531
 20
19.32089539374601
 30
0.0
  0
SEQEND
  5
1AD0
  8
L1
  0
POLYLINE
  5
E90
  8
L1
 66
     1
 10
0.0
 20
0.0
 30
0.0
  0
VERTEX
  5
1AD1
  8
L1
 10
520.62039879673603
 20
19.321005590697951
 30
0.0
  0
VERTEX
  5
1AD2
  8
L1
 10
520.61874335304151
 20
19.319546632536792
 30
0.0
  0
SEQEND
  5
1AD3
  8
L1
  0
POLYLINE
  5
E91
  8
L1
 66
     1
 10
0.0
 20
0.0
 30
0.0
  0
VERTEX
  5
1AD4
  8
L1
 10
520.62438469228061
 20
19.324476811030529
 30
0.0
  0
VERTEX
  5
1AD5
  8
L1
 10
520.61878942729174
 20
19.319546632442091
 30
0.0
  0
SEQEND
  5
1AD6
  8
L1
  0
POLYLINE
  5
E92
  8
L1
 66
     1
 10
0.0
 20
0.0
 30
0.0
  0
VERTEX
  5
1AD7
  8
L1
 10
520.61852984366328
 20
19.319546632692891
 30
0.0
  0
VERTEX
  5
1AD8
  8
L1
 10
520.61846970866145
 20
19.319546632692891
 30
0.0
  0
VERTEX
  5
1AD9
  8
L1
 10
520.6184834512801
 20
19.319546632692891
 30
0.0
  0
VERTEX
  5
1ADA
  8
L1
 10
520.61855523960628
 20
19.319546632692891
 30
0.0
  0
VERTEX
  5
1ADB
  8
L1
 10
520.61866924172784
 20
19.319546632692891
 30
0.0
  0
VERTEX
  5
1ADC
  8
L1
 10
520.6188096257315
 20
19.319546632692891
 30
0.0
  0
VERTEX
  5
1ADD
  8
L1
 10
520.61896055970465
 20
19.319546632692891
 30
0.0
  0
VERTEX
  5
1ADE
  8
L1
 10
520.61910621173445
 20
19.319546632692891
 30
0.0
  0
VERTEX
  5
1ADF
  8
L1
 10
520.61923074990807
 20
19.319546632692891
 30
0.0
  0
SEQEND
  5
1AE0
  8
L1
  0
POLYLINE
  5
E93
  8
L1
 66
     1
 10
0.0
 20
0.0
 30
0.0
  0
VERTEX
  5
1AE1
  8
L1
 10
520.61884501886504
 20
19.3195466330003
 30
0.0
  0
VERTEX
  5
1AE2
  8
L1
 10
520.6203787462531
 20
19.32089539374601
 30
0.0
  0
SEQEND
  5
1AE3
  8
L1
  0
POLYLINE
  5
E94
  8
L1
 66
     1
 10
0.0
 20
0.0
 30
0.0
  0
VERTEX
  5
1AE4
  8
L1
 10
520.6203987967358
 20
19.321005590697951
 30
0.0
  0
VERTEX
  5
1AE5
  8
L1
 10
520.61874335304151
 20
19.319546632536792
 30
0.0
  0
SEQEND
  5
1AE6
  8
L1
  0
POLYLINE
  5
E95
  8
L1
 66
     1
 10
0.0
 20
0.0
 30
0.0
  0
VERTEX
  5
1AE7
  8
L1
 10
520.6243846922805
 20
19.324476811030529
 30
0.0
  0
VERTEX
  5
1AE8
  8
L1
 10
520.61878942729174
 20
19.319546632442091
 30
0.0
  0
SEQEND
  5
1AE9
  8
L1
  0
LINE
  5
E96
  8
L1
 10
520.87804592888006
 20
19.319546632692891
 30
0.0
 11
520.87803739945957
 21
19.319709383729329
 31
0.0
  0
LINE
  5
E97
  8
L2
 10
520.8778302357448
 20
19.81976232582803
 30
0.0
 11
520.8778302357448
 21
19.31976232582803
 31
0.0
  0
LINE
  5
E98
  8
L1
 10
520.87804592888006
 20
19.319546632692891
 30
0.0
 11
520.87803739945957
 21
19.319709383729329
 31
0.0
  0
LINE
  5
E99
  8
L1
 10
534.59982768010468
 20
19.31976232582803
 30
0.0
 11
536.71679509733099
 21
21.328689393665741
 31
0.0
  0
LINE
  5
E9A
  8
L2
 10
653.48814185900801
 20
221.8400791398611
 30
0.0
 11
653.48814185900801
 21
132.68523477673421
 31
0.0
  0
LINE
  5
E9B
  8
L2
 10
655.4881418590079
 20
223.27496108920701
 30
0.0
 11
655.4881418590079
 21
131.2503528273885
 31
0.0
  0
LINE
  5
E9C
  8
L1
 10
653.97921479117031
 20
115.4113879658024
 30
0.0
 11
653.97921479117031
 21
239.11392595079309
 31
0.0
  0
LINE
  5
E9D
  8
L1
 10
603.31750740000393
 20
240.2128726514328
 30
0.0
 11
603.31750740000382
 21
114.3124412651627
 31
0.0
  0
LINE
  5
E9E
  8
L1
 10
630.98814185900812
 20
240.72881711602579
 30
0.0
 11
630.98814185900801
 21
113.7964968005696
 31
0.0
  0
LINE
  5
E9F
  8
L1
 10
605.10742188969255
 20
242.2749610892069
 30
0.0
 11
605.10742188969243
 21
112.2503528273885
 31
0.0
  0
LINE
  5
EA0
  8
L1
 10
604.38814185900787
 20
112.9696328580729
 30
0.0
 11
604.38814185900787
 21
241.5556810585224
 31
0.0
  0
LINE
  5
EA1
  8
L1
 10
655.98814185900801
 20
117.5283553830287
 30
0.0
 11
655.98814185900801
 21
236.9969585335669
 31
0.0
  0
LINE
  5
EA2
  8
L1
 10
631.17789036089448
 20
114.2164211876995
 30
0.0
 11
653.97921479117031
 21
115.4113879658024
 31
0.0
  0
LINE
  5
EA3
  8
L1
 10
655.98814185900801
 20
117.5283553830286
 30
0.0
 11
653.97921479117031
 21
115.4113879658024
 31
0.0
  0
LINE
  5
EA4
  8
L1
 10
605.10742188969243
 20
112.2503528273885
 30
0.0
 11
630.79860905025646
 21
113.5967708936187
 31
0.0
  0
ARC
  5
EA5
  8
L1
 10
631.18835755214309
 20
114.01669528074861
 30
0.0
 40
0.1999999999999993
 50
93.000000000000711
 51
180.0
  0
ARC
  5
EA6
  8
L1
 10
630.78814185900796
 20
113.7964968005696
 30
0.0
 40
0.2
 50
272.99999999999909
 51
0.000000000000007
  0
LINE
  5
EA7
  8
L2
 10
604.38835755214313
 20
114.8124412651627
 30
0.0
 11
603.62396009903659
 21
114.67765737019521
 31
0.0
  0
ARC
  5
EA8
  8
L2
 10
603.68835755214297
 20
114.3124412651627
 30
0.0
 40
0.3708501521392529
 50
100.0000000000001
 51
180.0
  0
ARC
  5
EA9
  8
L1
 10
603.68835755214297
 20
114.3124412651627
 30
0.0
 40
0.3708501521392529
 50
180.0
 51
259.99999999999977
  0
LINE
  5
EAA
  8
L1
 10
603.62396009903659
 20
113.9472251601302
 30
0.0
 11
604.38516757557818
 21
113.81300374409891
 31
0.0
  0
LINE
  5
EAB
  8
L1
 10
604.38814185900787
 20
112.9696328580729
 30
0.0
 11
605.10742188969243
 21
112.2503528273885
 31
0.0
  0
LINE
  5
EAC
  8
L2
 10
652.36664579337241
 20
131.18729047460229
 30
0.0
 11
628.78814185900785
 21
129.95159344458591
 31
0.0
  0
LINE
  5
EAD
  8
L1
 10
653.97921479117031
 20
129.5175680340067
 30
0.0
 11
631.17767466775933
 21
128.3225899519056
 31
0.0
  0
ARC
  5
EAE
  8
L2
 10
651.98814185900801
 20
132.68523477673421
 30
0.0
 40
1.5
 50
273.00000000000068
 51
0.000000000000007
  0
LINE
  5
EAF
  8
L1
 10
655.98814185900801
 20
131.63453545123301
 30
0.0
 11
653.97921479117031
 21
129.5175680340067
 31
0.0
  0
LINE
  5
EB0
  8
L1
 10
655.98835755214316
 20
131.25013713425341
 30
0.0
 11
655.98819480110672
 21
131.25014566367381
 31
0.0
  0
LINE
  5
EB1
  8
L2
 10
655.4881418590079
 20
131.2503528273885
 30
0.0
 11
655.98814185900801
 21
131.2503528273885
 31
0.0
  0
LINE
  5
EB2
  8
L1
 10
655.98835755214316
 20
131.25013713425341
 30
0.0
 11
655.98819480110672
 21
131.25014566367381
 31
0.0
  0
POLYLINE
  5
EB3
  8
L1
 66
     1
 10
0.0
 20
0.0
 30
0.0
  0
VERTEX
  5
1AEA
  8
L1
 10
655.98835755214316
 20
131.5096532194701
 30
0.0
  0
VERTEX
  5
1AEB
  8
L1
 10
655.98835755214316
 20
131.5097133544719
 30
0.0
  0
VERTEX
  5
1AEC
  8
L1
 10
655.98835755214316
 20
131.50969961185331
 30
0.0
  0
VERTEX
  5
1AED
  8
L1
 10
655.98835755214316
 20
131.5096278235269
 30
0.0
  0
VERTEX
  5
1AEE
  8
L1
 10
655.98835755214316
 20
131.50951382140531
 30
0.0
  0
VERTEX
  5
1AEF
  8
L1
 10
655.98835755214316
 20
131.50937343740171
 30
0.0
  0
VERTEX
  5
1AF0
  8
L1
 10
655.98835755214316
 20
131.50922250342859
 30
0.0
  0
VERTEX
  5
1AF1
  8
L1
 10
655.98835755214316
 20
131.50907685139879
 30
0.0
  0
VERTEX
  5
1AF2
  8
L1
 10
655.98835755214316
 20
131.50895231322519
 30
0.0
  0
SEQEND
  5
1AF3
  8
L1
  0
POLYLINE
  5
EB4
  8
L1
 66
     1
 10
0.0
 20
0.0
 30
0.0
  0
VERTEX
  5
1AF4
  8
L1
 10
655.98835755183575
 20
131.50933804426811
 30
0.0
  0
VERTEX
  5
1AF5
  8
L1
 10
655.98700879109003
 20
131.5078043168802
 30
0.0
  0
SEQEND
  5
1AF6
  8
L1
  0
POLYLINE
  5
EB5
  8
L1
 66
     1
 10
0.0
 20
0.0
 30
0.0
  0
VERTEX
  5
1AF7
  8
L1
 10
655.98689859413798
 20
131.50778426639741
 30
0.0
  0
VERTEX
  5
1AF8
  8
L1
 10
655.98835755229925
 20
131.5094397100919
 30
0.0
  0
SEQEND
  5
1AF9
  8
L1
  0
POLYLINE
  5
EB6
  8
L1
 66
     1
 10
0.0
 20
0.0
 30
0.0
  0
VERTEX
  5
1AFA
  8
L1
 10
655.9834273738054
 20
131.50379837085271
 30
0.0
  0
VERTEX
  5
1AFB
  8
L1
 10
655.98835755239395
 20
131.50939363584149
 30
0.0
  0
SEQEND
  5
1AFC
  8
L1
  0
POLYLINE
  5
EB7
  8
L1
 66
     1
 10
0.0
 20
0.0
 30
0.0
  0
VERTEX
  5
1AFD
  8
L1
 10
655.98835755214316
 20
131.5096532194701
 30
0.0
  0
VERTEX
  5
1AFE
  8
L1
 10
655.98835755214316
 20
131.5097133544719
 30
0.0
  0
VERTEX
  5
1AFF
  8
L1
 10
655.98835755214316
 20
131.50969961185331
 30
0.0
  0
VERTEX
  5
1B00
  8
L1
 10
655.98835755214316
 20
131.5096278235269
 30
0.0
  0
VERTEX
  5
1B01
  8
L1
 10
655.98835755214316
 20
131.50951382140531
 30
0.0
  0
VERTEX
  5
1B02
  8
L1
 10
655.98835755214316
 20
131.50937343740171
 30
0.0
  0
VERTEX
  5
1B03
  8
L1
 10
655.98835755214316
 20
131.50922250342859
 30
0.0
  0
VERTEX
  5
1B04
  8
L1
 10
655.98835755214316
 20
131.50907685139879
 30
0.0
  0
VERTEX
  5
1B05
  8
L1
 10
655.98835755214316
 20
131.50895231322519
 30
0.0
  0
SEQEND
  5
1B06
  8
L1
  0
POLYLINE
  5
EB8
  8
L1
 66
     1
 10
0.0
 20
0.0
 30
0.0
  0
VERTEX
  5
1B07
  8
L1
 10
655.98835755183575
 20
131.50933804426811
 30
0.0
  0
VERTEX
  5
1B08
  8
L1
 10
655.98700879109003
 20
131.5078043168802
 30
0.0
  0
SEQEND
  5
1B09
  8
L1
  0
POLYLINE
  5
EB9
  8
L1
 66
     1
 10
0.0
 20
0.0
 30
0.0
  0
VERTEX
  5
1B0A
  8
L1
 10
655.98689859413798
 20
131.50778426639741
 30
0.0
  0
VERTEX
  5
1B0B
  8
L1
 10
655.98835755229925
 20
131.5094397100919
 30
0.0
  0
SEQEND
  5
1B0C
  8
L1
  0
POLYLINE
  5
EBA
  8
L1
 66
     1
 10
0.0
 20
0.0
 30
0.0
  0
VERTEX
  5
1B0D
  8
L1
 10
655.9834273738054
 20
131.50379837085271
 30
0.0
  0
VERTEX
  5
1B0E
  8
L1
 10
655.98835755239395
 20
131.50939363584149
 30
0.0
  0
SEQEND
  5
1B0F
  8
L1
  0
POLYLINE
  5
EBB
  8
L1
 66
     1
 10
0.0
 20
0.0
 30
0.0
  0
VERTEX
  5
1B10
  8
L1
 10
655.98835755214316
 20
131.5096532194701
 30
0.0
  0
VERTEX
  5
1B11
  8
L1
 10
655.98835755214316
 20
131.50971335447201
 30
0.0
  0
VERTEX
  5
1B12
  8
L1
 10
655.98835755214316
 20
131.50969961185331
 30
0.0
  0
VERTEX
  5
1B13
  8
L1
 10
655.98835755214316
 20
131.5096278235269
 30
0.0
  0
VERTEX
  5
1B14
  8
L1
 10
655.98835755214316
 20
131.50951382140539
 30
0.0
  0
VERTEX
  5
1B15
  8
L1
 10
655.98835755214316
 20
131.50937343740179
 30
0.0
  0
VERTEX
  5
1B16
  8
L1
 10
655.98835755214316
 20
131.5092225034287
 30
0.0
  0
VERTEX
  5
1B17
  8
L1
 10
655.98835755214316
 20
131.50907685139879
 30
0.0
  0
VERTEX
  5
1B18
  8
L1
 10
655.98835755214316
 20
131.50895231322531
 30
0.0
  0
SEQEND
  5
1B19
  8
L1
  0
POLYLINE
  5
EBC
  8
L1
 66
     1
 10
0.0
 20
0.0
 30
0.0
  0
VERTEX
  5
1B1A
  8
L1
 10
655.98835755183575
 20
131.50933804426811
 30
0.0
  0
VERTEX
  5
1B1B
  8
L1
 10
655.98700879109003
 20
131.5078043168802
 30
0.0
  0
SEQEND
  5
1B1C
  8
L1
  0
POLYLINE
  5
EBD
  8
L1
 66
     1
 10
0.0
 20
0.0
 30
0.0
  0
VERTEX
  5
1B1D
  8
L1
 10
655.98689859413798
 20
131.50778426639741
 30
0.0
  0
VERTEX
  5
1B1E
  8
L1
 10
655.98835755229925
 20
131.5094397100919
 30
0.0
  0
SEQEND
  5
1B1F
  8
L1
  0
POLYLINE
  5
EBE
  8
L1
 66
     1
 10
0.0
 20
0.0
 30
0.0
  0
VERTEX
  5
1B20
  8
L1
 10
655.9834273738054
 20
131.50379837085279
 30
0.0
  0
VERTEX
  5
1B21
  8
L1
 10
655.98835755239395
 20
131.50939363584149
 30
0.0
  0
SEQEND
  5
1B22
  8
L1
  0
LINE
  5
EBF
  8
L2
 10
604.38814185900787
 20
129.31265695829759
 30
0.0
 11
628.78814185900785
 21
129.95159344458591
 31
0.0
  0
ARC
  5
EC0
  8
L1
 10
631.18814185900794
 20
128.1228640449547
 30
0.0
 40
0.2
 50
92.999999999999105
 51
180.0
  0
POLYLINE
  5
EC1
  8
L1
 66
     1
 10
0.0
 20
0.0
 30
0.0
  0
VERTEX
  5
1B23
  8
L1
 10
630.98814185900801
 20
128.14450912527531
 30
0.0
  0
VERTEX
  5
1B24
  8
L1
 10
630.98814185900801
 20
128.12828197725341
 30
0.0
  0
VERTEX
  5
1B25
  8
L1
 10
630.98814185900801
 20
128.1228640449547
 30
0.0
  0
SEQEND
  5
1B26
  8
L1
  0
LINE
  5
EC2
  8
L2
 10
628.78814185900785
 20
224.5737204720096
 30
0.0
 11
652.36664579337241
 21
223.33802344199299
 31
0.0
  0
LINE
  5
EC3
  8
L1
 10
653.97921479117031
 20
225.00774588258869
 30
0.0
 11
631.17767466775933
 21
226.2027239646898
 31
0.0
  0
LINE
  5
EC4
  8
L6
 10
659.14829966978584
 20
177.2626569582977
 30
0.0
 11
600.05084451316975
 21
177.2626569582977
 31
0.0
  0
ARC
  5
EC5
  8
L2
 10
651.98814185900801
 20
221.8400791398611
 30
0.0
 40
1.5
 50
0.000000000000007
 51
86.999999999999304
  0
LINE
  5
EC6
  8
L1
 10
655.98835755214316
 20
223.2751767823421
 30
0.0
 11
655.98819480110672
 21
223.27516825292159
 31
0.0
  0
LINE
  5
EC7
  8
L1
 10
655.98814185900801
 20
222.89077846536239
 30
0.0
 11
653.97921479117031
 21
225.00774588258869
 31
0.0
  0
LINE
  5
EC8
  8
L2
 10
655.4881418590079
 20
223.27496108920701
 30
0.0
 11
655.98814185900801
 21
223.27496108920701
 31
0.0
  0
POLYLINE
  5
EC9
  8
L1
 66
     1
 10
0.0
 20
0.0
 30
0.0
  0
VERTEX
  5
1B27
  8
L1
 10
655.9834273738054
 20
223.02151554574269
 30
0.0
  0
VERTEX
  5
1B28
  8
L1
 10
655.98835755239395
 20
223.0159202807539
 30
0.0
  0
SEQEND
  5
1B29
  8
L1
  0
POLYLINE
  5
ECA
  8
L1
 66
     1
 10
0.0
 20
0.0
 30
0.0
  0
VERTEX
  5
1B2A
  8
L1
 10
655.98689859413798
 20
223.01752965019799
 30
0.0
  0
VERTEX
  5
1B2B
  8
L1
 10
655.98835755229925
 20
223.0158742065035
 30
0.0
  0
SEQEND
  5
1B2C
  8
L1
  0
POLYLINE
  5
ECB
  8
L1
 66
     1
 10
0.0
 20
0.0
 30
0.0
  0
VERTEX
  5
1B2D
  8
L1
 10
655.98835755183575
 20
223.01597587232729
 30
0.0
  0
VERTEX
  5
1B2E
  8
L1
 10
655.98700879109003
 20
223.01750959971531
 30
0.0
  0
SEQEND
  5
1B2F
  8
L1
  0
POLYLINE
  5
ECC
  8
L1
 66
     1
 10
0.0
 20
0.0
 30
0.0
  0
VERTEX
  5
1B30
  8
L1
 10
655.98835755214316
 20
223.0156606971253
 30
0.0
  0
VERTEX
  5
1B31
  8
L1
 10
655.98835755214316
 20
223.0156005621235
 30
0.0
  0
VERTEX
  5
1B32
  8
L1
 10
655.98835755214316
 20
223.01561430474209
 30
0.0
  0
VERTEX
  5
1B33
  8
L1
 10
655.98835755214316
 20
223.01568609306861
 30
0.0
  0
VERTEX
  5
1B34
  8
L1
 10
655.98835755214316
 20
223.01580009519009
 30
0.0
  0
VERTEX
  5
1B35
  8
L1
 10
655.98835755214316
 20
223.01594047919369
 30
0.0
  0
VERTEX
  5
1B36
  8
L1
 10
655.98835755214316
 20
223.01609141316681
 30
0.0
  0
VERTEX
  5
1B37
  8
L1
 10
655.98835755214316
 20
223.01623706519661
 30
0.0
  0
VERTEX
  5
1B38
  8
L1
 10
655.98835755214316
 20
223.0163616033702
 30
0.0
  0
SEQEND
  5
1B39
  8
L1
  0
LINE
  5
ECD
  8
L2
 10
604.38814185900787
 20
225.2126569582978
 30
0.0
 11
628.78814185900785
 21
224.5737204720096
 31
0.0
  0
ARC
  5
ECE
  8
L1
 10
631.18814185900794
 20
226.4024498716407
 30
0.0
 40
0.2
 50
180.0
 51
267.00000000000091
  0
POLYLINE
  5
ECF
  8
L1
 66
     1
 10
0.0
 20
0.0
 30
0.0
  0
VERTEX
  5
1B3A
  8
L1
 10
630.98814185900801
 20
226.4024498716407
 30
0.0
  0
VERTEX
  5
1B3B
  8
L1
 10
630.98814185900801
 20
226.396767723126
 30
0.0
  0
VERTEX
  5
1B3C
  8
L1
 10
630.98814185900801
 20
226.37975058900349
 30
0.0
  0
SEQEND
  5
1B3D
  8
L1
  0
LINE
  5
ED0
  8
L1
 10
631.17789036089448
 20
240.30889272889601
 30
0.0
 11
653.97921479117031
 21
239.11392595079309
 31
0.0
  0
LINE
  5
ED1
  8
L1
 10
655.98814185900801
 20
236.9969585335669
 30
0.0
 11
653.97921479117031
 21
239.11392595079309
 31
0.0
  0
LINE
  5
ED2
  8
L1
 10
605.10742188969243
 20
242.2749610892069
 30
0.0
 11
630.79860905025646
 21
240.92854302297681
 31
0.0
  0
ARC
  5
ED3
  8
L1
 10
631.18835755214309
 20
240.50861863584689
 30
0.0
 40
0.1999999999999993
 50
180.0
 51
266.9999999999992
  0
ARC
  5
ED4
  8
L1
 10
630.78814185900796
 20
240.72881711602579
 30
0.0
 40
0.2
 50
0.000000000000007
 51
86.999999999999304
  0
ARC
  5
ED5
  8
L1
 10
630.78814185900796
 20
240.72881711602591
 30
0.0
 40
0.2
 50
0.000000000000007
 51
87.000000000000924
  0
ARC
  5
ED6
  8
L2
 10
603.68835755214297
 20
240.2128726514328
 30
0.0
 40
0.3708501521392529
 50
180.0
 51
259.99999999999977
  0
LINE
  5
ED7
  8
L2
 10
604.38835755214313
 20
239.7128726514328
 30
0.0
 11
603.62396009903659
 21
239.8476565464002
 31
0.0
  0
ARC
  5
ED8
  8
L1
 10
603.68835755214297
 20
240.2128726514328
 30
0.0
 40
0.3708501521392529
 50
100.0000000000001
 51
180.0
  0
LINE
  5
ED9
  8
L1
 10
603.62396009903659
 20
240.57808875646529
 30
0.0
 11
604.38516757557818
 21
240.71231017249659
 31
0.0
  0
LINE
  5
EDA
  8
L1
 10
605.10742188969255
 20
242.2749610892069
 30
0.0
 11
604.38814185900787
 21
241.5556810585224
 31
0.0
  0
ENDSEC
  0
EOF
