  0
SECTION
  2
HEADER
  9
$ACADVER
  1
AC1009
  9
$INSBASE
 10
0.0
 20
0.0
 30
0.0
  9
$EXTMIN
 10
2.4002796264669248
 20
1.2463997870692649
 30
0.0
  9
$EXTMAX
 10
572.73022026304238
 20
282.84214527125772
 30
0.0
  9
$LIMMIN
 10
0.0
 20
0.0
  9
$LIMMAX
 10
571.84598788675544
 20
282.45921431323222
  9
$ORTHOMODE
 70
     1
  9
$REGENMODE
 70
     1
  9
$FILLMODE
 70
     1
  9
$QTEXTMODE
 70
     0
  9
$MIRRTEXT
 70
     1
  9
$DRAGMODE
 70
     2
  9
$LTSCALE
 40
15.0
  9
$OSMODE
 70
     5
  9
$ATTMODE
 70
     1
  9
$TEXTSIZE
 40
3.5
  9
$TRACEWID
 40
1.0
  9
$TEXTSTYLE
  7
SIMPLEX
  9
$CLAYER
  8
L1
  9
$CELTYPE
  6
BYLAYER
  9
$CECOLOR
 62
   256
  9
$DIMSCALE
 40
1.0
  9
$DIMASZ
 40
3.5
  9
$DIMEXO
 40
0.0625
  9
$DIMDLI
 40
0.38
  9
$DIMRND
 40
0.0
  9
$DIMDLE
 40
0.0
  9
$DIMEXE
 40
0.18
  9
$DIMTP
 40
0.0
  9
$DIMTM
 40
0.0
  9
$DIMTXT
 40
3.5
  9
$DIMCEN
 40
1.0
  9
$DIMTSZ
 40
0.0
  9
$DIMTOL
 70
     0
  9
$DIMLIM
 70
     0
  9
$DIMTIH
 70
     0
  9
$DIMTOH
 70
     0
  9
$DIMSE1
 70
     0
  9
$DIMSE2
 70
     0
  9
$DIMTAD
 70
     1
  9
$DIMZIN
 70
     8
  9
$DIMBLK
  1

  9
$DIMASO
 70
     1
  9
$DIMSHO
 70
     1
  9
$DIMPOST
  1

  9
$DIMAPOST
  1

  9
$DIMALT
 70
     0
  9
$DIMALTD
 70
     2
  9
$DIMALTF
 40
25.399999999999999
  9
$DIMLFAC
 40
1.0
  9
$DIMTOFL
 70
     0
  9
$DIMTVP
 40
0.0
  9
$DIMTIX
 70
     0
  9
$DIMSOXD
 70
     0
  9
$DIMSAH
 70
     0
  9
$DIMBLK1
  1

  9
$DIMBLK2
  1

  9
$DIMSTYLE
  2
FIBOX
  9
$DIMCLRD
 70
     1
  9
$DIMCLRE
 70
     1
  9
$DIMCLRT
 70
     3
  9
$DIMTFAC
 40
1.0
  9
$DIMGAP
 40
0.8
  9
$LUNITS
 70
     2
  9
$LUPREC
 70
     4
  9
$SKETCHINC
 40
1.0
  9
$FILLETRAD
 40
0.0
  9
$AUNITS
 70
     0
  9
$AUPREC
 70
     0
  9
$MENU
  1
.
  9
$ELEVATION
 40
0.0
  9
$PELEVATION
 40
0.0
  9
$THICKNESS
 40
0.0
  9
$LIMCHECK
 70
     0
  9
$BLIPMODE
 70
     0
  9
$CHAMFERA
 40
10.0
  9
$CHAMFERB
 40
10.0
  9
$SKPOLY
 70
     0
  9
$TDCREATE
 40
2450458.5830949759
  9
$TDUPDATE
 40
2452502.5294012381
  9
$TDINDWG
 40
0.672538287
  9
$TDUSRTIMER
 40
0.672538287
  9
$USRTIMER
 70
     1
  9
$ANGBASE
 50
0.0
  9
$ANGDIR
 70
     0
  9
$PDMODE
 70
     0
  9
$PDSIZE
 40
0.0
  9
$PLINEWID
 40
0.0
  9
$COORDS
 70
     2
  9
$SPLFRAME
 70
     0
  9
$SPLINETYPE
 70
     6
  9
$SPLINESEGS
 70
     8
  9
$ATTDIA
 70
     0
  9
$ATTREQ
 70
     1
  9
$HANDLING
 70
 22529
  9
$HANDSEED
  5
14A3
  9
$SURFTAB1
 70
     6
  9
$SURFTAB2
 70
     6
  9
$SURFTYPE
 70
     6
  9
$SURFU
 70
     6
  9
$SURFV
 70
     6
  9
$UCSNAME
  2

  9
$UCSORG
 10
0.0
 20
0.0
 30
0.0
  9
$UCSXDIR
 10
1.0
 20
0.0
 30
0.0
  9
$UCSYDIR
 10
0.0
 20
1.0
 30
0.0
  9
$PUCSNAME
  2

  9
$PUCSORG
 10
0.0
 20
0.0
 30
0.0
  9
$PUCSXDIR
 10
1.0
 20
0.0
 30
0.0
  9
$PUCSYDIR
 10
0.0
 20
1.0
 30
0.0
  9
$USERI1
 70
     0
  9
$USERI2
 70
     0
  9
$USERI3
 70
     0
  9
$USERI4
 70
     0
  9
$USERI5
 70
     0
  9
$USERR1
 40
0.0
  9
$USERR2
 40
0.0
  9
$USERR3
 40
0.0
  9
$USERR4
 40
0.0
  9
$USERR5
 40
0.0
  9
$WORLDVIEW
 70
     1
  9
$SHADEDGE
 70
     3
  9
$SHADEDIF
 70
    70
  9
$TILEMODE
 70
     1
  9
$MAXACTVP
 70
    16
  9
$PLIMCHECK
 70
     0
  9
$PEXTMIN
 10
-563.59530269305765
 20
-0.2105770487715972
 30
0.0
  9
$PEXTMAX
 10
30.404697306942349
 20
419.7894229512284
 30
0.0
  9
$PLIMMIN
 10
0.0
 20
0.0
  9
$PLIMMAX
 10
420.0
 20
297.0
  9
$UNITMODE
 70
     0
  9
$VISRETAIN
 70
     0
  9
$PLINEGEN
 70
     0
  9
$PSLTSCALE
 70
     1
  0
ENDSEC
  0
SECTION
  2
TABLES
  0
TABLE
  2
VPORT
 70
     2
  0
VPORT
  2
*ACTIVE
 70
     0
 10
0.0
 20
0.0
 11
1.0
 21
1.0
 12
528.77725569744734
 22
-29.44917199604361
 13
0.0
 23
0.0
 14
10.0
 24
10.0
 15
10.0
 25
10.0
 16
0.0
 26
0.0
 36
1.0
 17
-241.20173189795719
 27
171.50037569982149
 37
-221.07012254811389
 40
376.9553437035529
 41
1.5205479452054791
 42
50.0
 43
0.0
 44
0.0
 50
0.0
 51
0.0
 71
     0
 72
   500
 73
     1
 74
     1
 75
     0
 76
     0
 77
     0
 78
     0
  0
ENDTAB
  0
TABLE
  2
LTYPE
 70
     3
  0
LTYPE
  2
CONTINUOUS
 70
     0
  3
Solid line
 72
    65
 73
     0
 40
0.0
  0
LTYPE
  2
HIDDEN
 70
     0
  3
__ __ __ __ __ __ __ __ __ __ __ __ __ __ __ __
 72
    65
 73
     2
 40
0.375
 49
0.25
 49
-0.125
  0
LTYPE
  2
CENTER
 70
     0
  3
____ _ ____ _ ____ _ ____ _ ____ _ ____ _ ____ 
 72
    65
 73
     4
 40
2.0
 49
1.25
 49
-0.25
 49
0.25
 49
-0.25
  0
ENDTAB
  0
TABLE
  2
LAYER
 70
     4
  0
LAYER
  2
0
 70
     0
 62
     7
  6
CONTINUOUS
  0
LAYER
  2
L2
 70
     0
 62
     1
  6
HIDDEN
  0
LAYER
  2
L1
 70
     0
 62
     7
  6
CONTINUOUS
  0
LAYER
  2
L6
 70
     0
 62
     1
  6
CENTER
  0
ENDTAB
  0
TABLE
  2
STYLE
 70
     2
  0
STYLE
  2
STANDARD
 70
     0
 40
0.0
 41
1.0
 50
0.0
 71
     0
 42
2.5
  3
ISOCP
  4

  0
STYLE
  2
SIMPLEX
 70
     0
 40
0.0
 41
0.8
 50
0.0
 71
     0
 42
3.5
  3
simplex.shx
  4

  0
ENDTAB
  0
TABLE
  2
VIEW
 70
     0
  0
ENDTAB
  0
TABLE
  2
UCS
 70
     0
  0
ENDTAB
  0
TABLE
  2
APPID
 70
     1
  0
APPID
  2
ACAD
 70
     0
  0
ENDTAB
  0
TABLE
  2
DIMSTYLE
 70
     1
  0
DIMSTYLE
  2
FIBOX
 70
     0
  3

  4

  5

  6

  7

 40
1.0
 41
3.5
 42
0.0625
 43
0.38
 44
0.18
 45
0.0
 46
0.0
 47
0.0
 48
0.0
140
3.5
141
1.0
142
0.0
143
25.399999999999999
144
1.0
145
0.0
146
1.0
147
0.8
 71
     0
 72
     0
 73
     0
 74
     0
 75
     0
 76
     0
 77
     1
 78
     8
170
     0
171
     2
172
     0
173
     0
174
     0
175
     0
176
     1
177
     1
178
     3
  0
ENDTAB
  0
ENDSEC
  0
SECTION
  2
BLOCKS
  0
BLOCK
  8
0
  2
$MODEL_SPACE
 70
     0
 10
0.0
 20
0.0
 30
0.0
  3
$MODEL_SPACE
  1

  0
ENDBLK
  5
6
  8
0
  0
BLOCK
 67
     1
  8
0
  2
$PAPER_SPACE
 70
     0
 10
0.0
 20
0.0
 30
0.0
  3
$PAPER_SPACE
  1

  0
ENDBLK
  5
9
 67
     1
  8
0
  0
ENDSEC
  0
SECTION
  2
ENTITIES
  0
LINE
  5
1F
  8
L6
 10
302.44983039099287
 20
142.04427252916349
 30
0.0
 11
493.44404267775337
 21
142.04427252916349
 31
0.0
  0
LINE
  5
27
  8
L1
 10
326.33790408862649
 20
93.044272529163464
 30
0.0
 11
470.33790408862649
 21
93.044272529163464
 31
0.0
  0
LINE
  5
28
  8
L1
 10
483.4918571596977
 20
77.644272529163473
 30
0.0
 11
313.1839510175555
 21
77.644272529163473
 31
0.0
  0
LINE
  5
29
  8
L1
 10
313.1839510175555
 20
77.044272529163464
 30
0.0
 11
483.4918571596977
 21
77.044272529163464
 31
0.0
  0
LINE
  5
2A
  8
L1
 10
313.1839510175555
 20
207.04427252916349
 30
0.0
 11
483.4918571596977
 21
207.04427252916349
 31
0.0
  0
LINE
  5
2B
  8
L1
 10
483.4918571596977
 20
206.44427252916341
 30
0.0
 11
313.1839510175555
 21
206.44427252916341
 31
0.0
  0
LINE
  5
2C
  8
L1
 10
326.33790408862649
 20
191.04427252916349
 30
0.0
 11
470.33790408862649
 21
191.04427252916349
 31
0.0
  0
LINE
  5
2D
  8
L1
 10
310.42774247090728
 20
247.07281434381721
 30
0.0
 11
486.24806570634581
 21
247.07281434381721
 31
0.0
  0
LINE
  5
2E
  8
L1
 10
487.58790408862671
 20
248.2421452712577
 30
0.0
 11
309.0879040886266
 21
248.2421452712577
 31
0.0
  0
LINE
  5
2F
  8
L1
 10
308.32983031205288
 20
249.04214527125771
 30
0.0
 11
488.34597786520021
 21
249.04214527125771
 31
0.0
  0
LINE
  5
30
  8
L1
 10
483.4918571596977
 20
274.2421452712577
 30
0.0
 11
468.82716191483792
 21
274.2421452712577
 31
0.0
  0
LINE
  5
31
  8
L2
 10
324.33790408862649
 20
274.34214527125772
 30
0.0
 11
472.3379040886266
 21
274.54214527125782
 31
0.0
  0
LINE
  5
35
  8
L1
 10
310.28195101755551
 20
274.84214527125772
 30
0.0
 11
486.39385715969757
 21
274.84214527125772
 31
0.0
  0
LINE
  5
36
  8
L6
 10
2.4002796264669248
 20
142.04427252916349
 30
0.0
 11
194.573469621828
 21
142.04427252916349
 31
0.0
  0
LINE
  5
37
  8
L1
 10
26.742158737333
 20
78.544272529163578
 30
0.0
 11
171.04215873733281
 21
78.544272529163635
 31
0.0
  0
LINE
  5
38
  8
L1
 10
27.441644724796269
 20
79.844272529163646
 30
0.0
 11
170.34267274986951
 21
79.844272529163703
 31
0.0
  0
LINE
  5
39
  8
L1
 10
12.38888817175205
 20
77.044272529163635
 30
0.0
 11
185.3954293029137
 21
77.044272529163635
 31
0.0
  0
LINE
  5
3A
  8
L1
 10
185.44015873733281
 20
77.844272529163646
 30
0.0
 11
12.34415873733286
 21
77.844272529163646
 31
0.0
  0
LINE
  5
3B
  8
L1
 10
185.44015873733281
 20
206.24427252916351
 30
0.0
 11
12.34415873733286
 21
206.24427252916351
 31
0.0
  0
LINE
  5
3C
  8
L1
 10
12.38888817175205
 20
207.04427252916349
 30
0.0
 11
185.3954293029137
 21
207.04427252916349
 31
0.0
  0
LINE
  5
3D
  8
L1
 10
27.441644724796269
 20
204.24427252916351
 30
0.0
 11
170.34267274986951
 21
204.2442725291634
 31
0.0
  0
LINE
  5
3E
  8
L1
 10
26.742158737333
 20
205.54427252916349
 30
0.0
 11
171.04215873733281
 21
205.54427252916349
 31
0.0
  0
LINE
  5
3F
  8
L6
 10
98.892158737332863
 20
211.18170698041851
 30
0.0
 11
98.892158737332863
 21
70.393902078758003
 31
0.0
  0
LINE
  5
40
  8
L1
 10
23.442158737332811
 20
82.794272529163635
 30
0.0
 11
23.442158737332811
 21
85.294272529163578
 31
0.0
  0
LINE
  5
41
  8
L1
 10
25.942158737332811
 20
81.343758516626991
 30
0.0
 11
25.942158737332811
 21
85.294272529163635
 31
0.0
  0
ARC
  5
42
  8
L1
 10
17.14215873733286
 20
85.294272529163635
 30
0.0
 40
5.0261806033722758
 50
177.26858442957189
 51
272.73141557042749
  0
LINE
  5
43
  8
L1
 10
17.391785814799562
 20
80.274284461489771
 30
0.0
 11
22.162146805006781
 21
85.044645451696866
 31
0.0
  0
LINE
  5
44
  8
L1
 10
10.681997119613641
 20
81.444272529163669
 30
0.0
 11
10.681997119613641
 21
92.513109301824301
 31
0.0
  0
LINE
  5
45
  8
L1
 10
9.6421587373328634
 20
80.546272529163517
 30
0.0
 11
9.6421587373328634
 21
203.54227252916351
 31
0.0
  0
LINE
  5
46
  8
L1
 10
8.8819971196136862
 20
203.54227252916351
 30
0.0
 11
8.8819971196136862
 21
80.546272529163517
 31
0.0
  0
ARC
  5
47
  8
L1
 10
26.742158737332879
 20
81.844272529163689
 30
0.0
 40
3.3000000000000149
 50
228.59010301923431
 51
270.0
  0
LINE
  5
48
  8
L1
 10
24.360995509993408
 20
78.844272529163646
 30
0.0
 11
13.28199711961366
 21
78.844272529163646
 31
0.0
  0
POLYLINE
  5
49
  8
L1
 66
     1
 10
0.0
 20
0.0
 30
0.0
  0
VERTEX
  5
1087
  8
L1
 10
12.38888817175194
 20
77.044272529163635
 30
0.0
  0
VERTEX
  5
1088
  8
L1
 10
12.3665267317578
 20
77.044343743878898
 30
0.0
  0
VERTEX
  5
1089
  8
L1
 10
12.34415873733286
 20
77.044557385126751
 30
0.0
  0
SEQEND
  5
108A
  8
L1
  0
POLYLINE
  5
4A
  8
L1
 66
     1
 10
0.0
 20
0.0
 30
0.0
  0
VERTEX
  5
108B
  8
L1
 10
8.8819971483806626
 20
80.544272529163635
 30
0.0
  0
VERTEX
  5
108C
  8
L1
 10
8.8819971196136862
 20
80.546272529163645
 30
0.0
  0
SEQEND
  5
108D
  8
L1
  0
POLYLINE
  5
4B
  8
L1
 66
     1
 10
0.0
 20
0.0
 30
0.0
  0
VERTEX
  5
108E
  8
L1
 10
12.34415873733286
 20
77.044557385126751
 30
0.0
  0
VERTEX
  5
108F
  8
L1
 10
12.17875477954459
 20
77.050596165264807
 30
0.0
  0
VERTEX
  5
1090
  8
L1
 10
12.01143922855743
 20
77.064664904771604
 30
0.0
  0
VERTEX
  5
1091
  8
L1
 10
11.8430269331364
 20
77.08696363849802
 30
0.0
  0
VERTEX
  5
1092
  8
L1
 10
11.674332742046261
 20
77.11769240129459
 30
0.0
  0
VERTEX
  5
1093
  8
L1
 10
11.506158927823369
 20
77.156990645577849
 30
0.0
  0
VERTEX
  5
1094
  8
L1
 10
11.339260300852111
 20
77.204769196854471
 30
0.0
  0
VERTEX
  5
1095
  8
L1
 10
11.17438051667153
 20
77.260885149609891
 30
0.0
  0
VERTEX
  5
1096
  8
L1
 10
11.01226323081999
 20
77.325195598329771
 30
0.0
  0
VERTEX
  5
1097
  8
L1
 10
10.853568344802561
 20
77.397535999917551
 30
0.0
  0
VERTEX
  5
1098
  8
L1
 10
10.69887310753205
 20
77.477547584417295
 30
0.0
  0
VERTEX
  5
1099
  8
L1
 10
10.5487971956598
 20
77.564796106025113
 30
0.0
  0
VERTEX
  5
109A
  8
L1
 10
10.40396028583671
 20
77.658847318937333
 30
0.0
  0
VERTEX
  5
109B
  8
L1
 10
10.264951033444101
 20
77.759221695705179
 30
0.0
  0
VERTEX
  5
109C
  8
L1
 10
10.13222589592379
 20
77.865246750790419
 30
0.0
  0
VERTEX
  5
109D
  8
L1
 10
10.00620625301775
 20
77.976198801255151
 30
0.0
  0
VERTEX
  5
109E
  8
L1
 10
9.8873134844686206
 20
78.091354164161174
 30
0.0
  0
VERTEX
  5
109F
  8
L1
 10
9.7748102458226072
 20
78.211188165106279
 30
0.0
  0
VERTEX
  5
10A0
  8
L1
 10
9.6665424621075431
 20
78.338012682973755
 30
0.0
  0
VERTEX
  5
10A1
  8
L1
 10
9.5632254123300413
 20
78.471401503935198
 30
0.0
  0
VERTEX
  5
10A2
  8
L1
 10
9.4655743754967148
 20
78.610928414162203
 30
0.0
  0
VERTEX
  5
10A3
  8
L1
 10
9.3742534715517536
 20
78.756133228916127
 30
0.0
  0
VERTEX
  5
10A4
  8
L1
 10
9.2897334409817063
 20
78.906427358588104
 30
0.0
  0
VERTEX
  5
10A5
  8
L1
 10
9.2124394936077465
 20
79.061191982044448
 30
0.0
  0
VERTEX
  5
10A6
  8
L1
 10
9.1427968392507069
 20
79.219808278151362
 30
0.0
  0
VERTEX
  5
10A7
  8
L1
 10
9.0811563329411342
 20
79.381700441299714
 30
0.0
  0
VERTEX
  5
10A8
  8
L1
 10
9.0276744143804422
 20
79.546212984720029
 30
0.0
  0
VERTEX
  5
10A9
  8
L1
 10
8.9824846703963317
 20
79.712607565538548
 30
0.0
  0
VERTEX
  5
10AA
  8
L1
 10
8.9457206878168432
 20
79.88014584088117
 30
0.0
  0
VERTEX
  5
10AB
  8
L1
 10
8.9175358788822336
 20
80.047564364537067
 30
0.0
  0
VERTEX
  5
10AC
  8
L1
 10
8.8976578052455011
 20
80.214589816067502
 30
0.0
  0
VERTEX
  5
10AD
  8
L1
 10
8.8858802880353664
 20
80.380424952075387
 30
0.0
  0
VERTEX
  5
10AE
  8
L1
 10
8.8819971483806626
 20
80.544272529163635
 30
0.0
  0
SEQEND
  5
10AF
  8
L1
  0
ARC
  5
4C
  8
L1
 10
12.34415873733286
 20
80.546272529163645
 30
0.0
 40
2.7019999999999542
 50
180.0000000000006
 51
270.00000000000119
  0
ARC
  5
4D
  8
L1
 10
13.28199711961366
 20
81.444272529163669
 30
0.0
 40
2.6000000000000001
 50
180.0
 51
270.0
  0
ARC
  5
4E
  8
L1
 10
26.742158737332879
 20
81.844272529163689
 30
0.0
 40
3.3000000000000149
 50
180.00000000000051
 51
228.59010301923431
  0
POLYLINE
  5
4F
  8
L1
 66
     1
 10
0.0
 20
0.0
 30
0.0
  0
VERTEX
  5
10B0
  8
L1
 10
24.559402032133502
 20
79.369283000719719
 30
0.0
  0
VERTEX
  5
10B1
  8
L1
 10
24.57925071939297
 20
79.350083520271227
 30
0.0
  0
VERTEX
  5
10B2
  8
L1
 10
24.597215219944299
 20
79.329185213388456
 30
0.0
  0
VERTEX
  5
10B3
  8
L1
 10
24.613187134588479
 20
79.306726114771905
 30
0.0
  0
VERTEX
  5
10B4
  8
L1
 10
24.627058064127649
 20
79.282844259122015
 30
0.0
  0
VERTEX
  5
10B5
  8
L1
 10
24.638992972586891
 20
79.257005301428961
 30
0.0
  0
VERTEX
  5
10B6
  8
L1
 10
24.648407689644781
 20
79.230212224596499
 30
0.0
  0
VERTEX
  5
10B7
  8
L1
 10
24.655247120564521
 20
79.202649078584074
 30
0.0
  0
VERTEX
  5
10B8
  8
L1
 10
24.659456170609189
 20
79.174499913351241
 30
0.0
  0
VERTEX
  5
10B9
  8
L1
 10
24.660982954542249
 20
79.145134902880642
 30
0.0
  0
VERTEX
  5
10BA
  8
L1
 10
24.659634300652272
 20
79.115830796758615
 30
0.0
  0
VERTEX
  5
10BB
  8
L1
 10
24.655430219277321
 20
79.086798505718349
 30
0.0
  0
VERTEX
  5
10BC
  8
L1
 10
24.648390720755678
 20
79.058248940493016
 30
0.0
  0
VERTEX
  5
10BD
  8
L1
 10
24.638478281899829
 20
79.030253727434371
 30
0.0
  0
VERTEX
  5
10BE
  8
L1
 10
24.62587995171765
 20
79.003439188868839
 30
0.0
  0
VERTEX
  5
10BF
  8
L1
 10
24.610698165567381
 20
78.97799807778145
 30
0.0
  0
VERTEX
  5
10C0
  8
L1
 10
24.593035358807519
 20
78.954123147157162
 30
0.0
  0
VERTEX
  5
10C1
  8
L1
 10
24.573605840914009
 20
78.93262051672454
 30
0.0
  0
VERTEX
  5
10C2
  8
L1
 10
24.552243438480961
 20
78.913135661836719
 30
0.0
  0
VERTEX
  5
10C3
  8
L1
 10
24.529104437838271
 20
78.895797875250111
 30
0.0
  0
VERTEX
  5
10C4
  8
L1
 10
24.504345125315751
 20
78.880736449720786
 30
0.0
  0
VERTEX
  5
10C5
  8
L1
 10
24.482869016872819
 20
78.870142617696189
 30
0.0
  0
VERTEX
  5
10C6
  8
L1
 10
24.460651985280769
 20
78.861308086246964
 30
0.0
  0
VERTEX
  5
10C7
  8
L1
 10
24.437801974734889
 20
78.854270837176131
 30
0.0
  0
VERTEX
  5
10C8
  8
L1
 10
24.414426929430132
 20
78.849068852286706
 30
0.0
  0
VERTEX
  5
10C9
  8
L1
 10
24.387804671728471
 20
78.845472753767595
 30
0.0
  0
VERTEX
  5
10CA
  8
L1
 10
24.360995509993408
 20
78.844272529163646
 30
0.0
  0
SEQEND
  5
10CB
  8
L1
  0
LINE
  5
50
  8
L1
 10
17.38167705174402
 20
80.273802189167867
 30
0.0
 11
17.391785814799562
 21
80.274284461489771
 31
0.0
  0
LINE
  5
51
  8
L1
 10
23.442158737332811
 20
81.844272529163646
 30
0.0
 11
23.442158737332811
 21
82.794272529163635
 31
0.0
  0
POLYLINE
  5
52
  8
L1
 66
     1
 10
0.0
 20
0.0
 30
0.0
  0
VERTEX
  5
10CC
  8
L1
 10
27.441644724796159
 20
79.844272529163646
 30
0.0
  0
VERTEX
  5
10CD
  8
L1
 10
27.260863774457839
 20
79.855203435563936
 30
0.0
  0
VERTEX
  5
10CE
  8
L1
 10
27.082731701196451
 20
79.887836896404366
 30
0.0
  0
VERTEX
  5
10CF
  8
L1
 10
26.909843808720719
 20
79.941697456925937
 30
0.0
  0
VERTEX
  5
10D0
  8
L1
 10
26.7447189953985
 20
80.016000393131918
 30
0.0
  0
VERTEX
  5
10D1
  8
L1
 10
26.589763055046831
 20
80.109663144861159
 30
0.0
  0
VERTEX
  5
10D2
  8
L1
 10
26.447233625604611
 20
80.221321088200085
 30
0.0
  0
VERTEX
  5
10D3
  8
L1
 10
26.31920729636926
 20
80.349347417435439
 30
0.0
  0
VERTEX
  5
10D4
  8
L1
 10
26.207549353030291
 20
80.491876846877716
 30
0.0
  0
VERTEX
  5
10D5
  8
L1
 10
26.11388660130109
 20
80.646832787229329
 30
0.0
  0
VERTEX
  5
10D6
  8
L1
 10
26.039583665095108
 20
80.811957600551551
 30
0.0
  0
VERTEX
  5
10D7
  8
L1
 10
25.98572310457342
 20
80.984845493027237
 30
0.0
  0
VERTEX
  5
10D8
  8
L1
 10
25.953089643733112
 20
81.162977566288674
 30
0.0
  0
VERTEX
  5
10D9
  8
L1
 10
25.942158737332811
 20
81.343758516626991
 30
0.0
  0
SEQEND
  5
10DA
  8
L1
  0
LINE
  5
53
  8
L1
 10
24.152597590250991
 20
90.999768606938716
 30
0.0
 11
25.065463568091161
 21
92.087679915586776
 31
0.0
  0
LINE
  5
54
  8
L1
 10
25.047782942761099
 20
92.492632812896119
 30
0.0
 11
24.34051902106529
 21
93.199896734592045
 31
0.0
  0
ARC
  5
55
  8
L1
 10
17.14215873733286
 20
85.294272529163578
 30
0.0
 40
8.8000000000000114
 50
0.0000000000001018
 51
37.285473900598191
  0
ARC
  5
56
  8
L1
 10
26.742158737332879
 20
202.2442725291634
 30
0.0
 40
3.3000000000000149
 50
90.0
 51
131.40989698076561
  0
LINE
  5
57
  8
L1
 10
25.047782942761099
 20
191.59591224543101
 30
0.0
 11
24.34051902106529
 21
190.88864832373511
 31
0.0
  0
LINE
  5
58
  8
L1
 10
24.152597590250991
 20
193.08877645138841
 30
0.0
 11
25.065463568091161
 21
192.00086514274031
 31
0.0
  0
ARC
  5
59
  8
L1
 10
17.14215873733286
 20
198.79427252916349
 30
0.0
 40
8.8000000000000114
 50
322.71452609940178
 51
359.99999999999977
  0
LINE
  5
5A
  8
L1
 10
10.381997119613681
 20
189.1942725291635
 30
0.0
 11
10.381997119613789
 21
94.894272529163473
 31
0.0
  0
LINE
  5
5B
  8
L1
 10
11.681997119613751
 20
188.49478654170019
 30
0.0
 11
11.681997119613751
 21
95.593758516626934
 31
0.0
  0
ARC
  5
5C
  8
L1
 10
13.681997119613641
 20
94.894272529163601
 30
0.0
 40
3.2999999999999439
 50
221.40989698076501
 51
270.0
  0
ARC
  5
5D
  8
L1
 10
17.14215873733286
 20
85.294272529163635
 30
0.0
 40
6.3000000000000487
 50
359.99999999999972
 51
90.0
  0
LINE
  5
5E
  8
L1
 10
16.892531659866052
 20
90.314260596837514
 30
0.0
 11
12.12217066965894
 21
85.543899606630333
 31
0.0
  0
LINE
  5
5F
  8
L1
 10
17.14215873733286
 20
91.594272529163646
 30
0.0
 11
14.64215873733286
 21
91.594272529163646
 31
0.0
  0
LINE
  5
60
  8
L1
 10
12.12217066965894
 20
85.54389960663039
 30
0.0
 11
12.12168839733698
 21
85.533790843574849
 31
0.0
  0
LINE
  5
61
  8
L1
 10
14.64215873733286
 20
91.594272529163646
 30
0.0
 11
13.681997119613641
 21
91.594272529163646
 31
0.0
  0
LINE
  5
62
  8
L1
 10
22.162146805006781
 20
85.044645451696866
 30
0.0
 11
22.162629077328631
 21
85.054754214752478
 31
0.0
  0
LINE
  5
63
  8
L1
 10
16.902640422921589
 20
90.314742869159403
 30
0.0
 11
16.892531659866052
 21
90.314260596837514
 31
0.0
  0
POLYLINE
  5
64
  8
L1
 66
     1
 10
0.0
 20
0.0
 30
0.0
  0
VERTEX
  5
10DB
  8
L1
 10
24.143677133504241
 20
90.625195540057035
 30
0.0
  0
VERTEX
  5
10DC
  8
L1
 10
24.130731449496182
 20
90.643590621888421
 30
0.0
  0
VERTEX
  5
10DD
  8
L1
 10
24.11917585445763
 20
90.662950148958856
 30
0.0
  0
VERTEX
  5
10DE
  8
L1
 10
24.106740347007811
 20
90.688487303628023
 30
0.0
  0
VERTEX
  5
10DF
  8
L1
 10
24.096795842010518
 20
90.715026465890645
 30
0.0
  0
VERTEX
  5
10E0
  8
L1
 10
24.089400717980372
 20
90.742385822939042
 30
0.0
  0
VERTEX
  5
10E1
  8
L1
 10
24.084613353431731
 20
90.770383561965701
 30
0.0
  0
VERTEX
  5
10E2
  8
L1
 10
24.082471784207371
 20
90.799646442784464
 30
0.0
  0
VERTEX
  5
10E3
  8
L1
 10
24.083194270336492
 20
90.828909563871349
 30
0.0
  0
VERTEX
  5
10E4
  8
L1
 10
24.086765107728461
 20
90.857963072235322
 30
0.0
  0
VERTEX
  5
10E5
  8
L1
 10
24.093168592292781
 20
90.886597114885504
 30
0.0
  0
VERTEX
  5
10E6
  8
L1
 10
24.102472494185971
 20
90.914817734566753
 30
0.0
  0
VERTEX
  5
10E7
  8
L1
 10
24.114489525937131
 20
90.941915858548185
 30
0.0
  0
VERTEX
  5
10E8
  8
L1
 10
24.129121114574609
 20
90.967696454303365
 30
0.0
  0
VERTEX
  5
10E9
  8
L1
 10
24.146268687126451
 20
90.991964489305843
 30
0.0
  0
VERTEX
  5
10EA
  8
L1
 10
24.152597590250991
 20
90.999768606938716
 30
0.0
  0
SEQEND
  5
10EB
  8
L1
  0
ARC
  5
65
  8
L1
 10
17.14215873733286
 20
85.294272529163635
 30
0.0
 40
5.0261806033722758
 50
357.26858442957263
 51
92.731415570428211
  0
LINE
  5
66
  8
L1
 10
17.14215873733286
 20
94.094272529163575
 30
0.0
 11
13.181483107077099
 21
94.094272529163575
 31
0.0
  0
POLYLINE
  5
67
  8
L1
 66
     1
 10
0.0
 20
0.0
 30
0.0
  0
VERTEX
  5
10EC
  8
L1
 10
13.181483107077099
 20
94.094272529163646
 30
0.0
  0
VERTEX
  5
10ED
  8
L1
 10
13.000702156738781
 20
94.10520343556388
 30
0.0
  0
VERTEX
  5
10EE
  8
L1
 10
12.82257008347727
 20
94.137836896404295
 30
0.0
  0
VERTEX
  5
10EF
  8
L1
 10
12.64968219100154
 20
94.191697456925937
 30
0.0
  0
VERTEX
  5
10F0
  8
L1
 10
12.48455737767943
 20
94.266000393131904
 30
0.0
  0
VERTEX
  5
10F1
  8
L1
 10
12.32960143732776
 20
94.359663144861116
 30
0.0
  0
VERTEX
  5
10F2
  8
L1
 10
12.18707200788554
 20
94.471321088200085
 30
0.0
  0
VERTEX
  5
10F3
  8
L1
 10
12.059045678650071
 20
94.599347417435425
 30
0.0
  0
VERTEX
  5
10F4
  8
L1
 10
11.947387735311329
 20
94.741876846877659
 30
0.0
  0
VERTEX
  5
10F5
  8
L1
 10
11.853724983581911
 20
94.896832787229329
 30
0.0
  0
VERTEX
  5
10F6
  8
L1
 10
11.779422047376039
 20
95.061957600551494
 30
0.0
  0
VERTEX
  5
10F7
  8
L1
 10
11.72556148685447
 20
95.234845493027166
 30
0.0
  0
VERTEX
  5
10F8
  8
L1
 10
11.692928026013931
 20
95.412977566288674
 30
0.0
  0
VERTEX
  5
10F9
  8
L1
 10
11.681997119613641
 20
95.593758516626934
 30
0.0
  0
SEQEND
  5
10FA
  8
L1
  0
POLYLINE
  5
68
  8
L1
 66
     1
 10
0.0
 20
0.0
 30
0.0
  0
VERTEX
  5
10FB
  8
L1
 10
10.681997119613641
 20
92.513109301824244
 30
0.0
  0
VERTEX
  5
10FC
  8
L1
 10
10.68206874181015
 20
92.519664504196413
 30
0.0
  0
VERTEX
  5
10FD
  8
L1
 10
10.68419152020584
 20
92.549328828246331
 30
0.0
  0
VERTEX
  5
10FE
  8
L1
 10
10.68922521117104
 20
92.578566934195777
 30
0.0
  0
VERTEX
  5
10FF
  8
L1
 10
10.69712205529941
 20
92.607164895383008
 30
0.0
  0
VERTEX
  5
1100
  8
L1
 10
10.70783429318595
 20
92.634908785145882
 30
0.0
  0
VERTEX
  5
1101
  8
L1
 10
10.72121238925666
 20
92.661405151074504
 30
0.0
  0
VERTEX
  5
1102
  8
L1
 10
10.737102144830089
 20
92.686391240751533
 30
0.0
  0
VERTEX
  5
1103
  8
L1
 10
10.75537770850354
 20
92.709689140882546
 30
0.0
  0
VERTEX
  5
1104
  8
L1
 10
10.775913228873771
 20
92.731120938172836
 30
0.0
  0
VERTEX
  5
1105
  8
L1
 10
10.796067351939371
 20
92.748543532257045
 30
0.0
  0
VERTEX
  5
1106
  8
L1
 10
10.81764433316237
 20
92.764080829125675
 30
0.0
  0
VERTEX
  5
1107
  8
L1
 10
10.840512343385109
 20
92.777646523176287
 30
0.0
  0
VERTEX
  5
1108
  8
L1
 10
10.86453955345058
 20
92.789154308806161
 30
0.0
  0
VERTEX
  5
1109
  8
L1
 10
10.886022135020021
 20
92.797336673117826
 30
0.0
  0
VERTEX
  5
110A
  8
L1
 10
10.908035775778041
 20
92.803841747789107
 30
0.0
  0
VERTEX
  5
110B
  8
L1
 10
10.93048236227065
 20
92.808644606969352
 30
0.0
  0
VERTEX
  5
110C
  8
L1
 10
10.953263781044541
 20
92.811720324807723
 30
0.0
  0
VERTEX
  5
110D
  8
L1
 10
10.9746227010325
 20
92.813007783024574
 30
0.0
  0
VERTEX
  5
110E
  8
L1
 10
10.99599208806006
 20
92.812770787929736
 30
0.0
  0
VERTEX
  5
110F
  8
L1
 10
11.017290396915479
 20
92.811013178835438
 30
0.0
  0
VERTEX
  5
1110
  8
L1
 10
11.03843608238668
 20
92.807738795053893
 30
0.0
  0
VERTEX
  5
1111
  8
L1
 10
11.061891850550801
 20
92.802260385125038
 30
0.0
  0
VERTEX
  5
1112
  8
L1
 10
11.084796466893
 20
92.794931223510744
 30
0.0
  0
VERTEX
  5
1113
  8
L1
 10
11.10704055057584
 20
92.785791244042031
 30
0.0
  0
VERTEX
  5
1114
  8
L1
 10
11.128514720761871
 20
92.774880380549774
 30
0.0
  0
VERTEX
  5
1115
  8
L1
 10
11.15011689315889
 20
92.761559852141218
 30
0.0
  0
VERTEX
  5
1116
  8
L1
 10
11.170468542925329
 20
92.746499793885974
 30
0.0
  0
VERTEX
  5
1117
  8
L1
 10
11.189466499211839
 20
92.729788889816263
 30
0.0
  0
VERTEX
  5
1118
  8
L1
 10
11.207007591169649
 20
92.711515823964319
 30
0.0
  0
SEQEND
  5
1119
  8
L1
  0
ARC
  5
69
  8
L1
 10
13.681997119613641
 20
94.894272529163601
 30
0.0
 40
3.2999999999999439
 50
180.0
 51
221.40989698076501
  0
POLYLINE
  5
6A
  8
L1
 66
     1
 10
0.0
 20
0.0
 30
0.0
  0
VERTEX
  5
111A
  8
L1
 10
22.84765481510788
 20
92.304711382081919
 30
0.0
  0
VERTEX
  5
111B
  8
L1
 10
22.816261007134639
 20
92.281666746588741
 30
0.0
  0
VERTEX
  5
111C
  8
L1
 10
22.782087703573939
 20
92.262852712387058
 30
0.0
  0
VERTEX
  5
111D
  8
L1
 10
22.760598167465162
 20
92.253783416066895
 30
0.0
  0
VERTEX
  5
111E
  8
L1
 10
22.73850269648716
 20
92.246420334127748
 30
0.0
  0
VERTEX
  5
111F
  8
L1
 10
22.71590275506292
 20
92.240793101582341
 30
0.0
  0
VERTEX
  5
1120
  8
L1
 10
22.692899807615099
 20
92.236931353443566
 30
0.0
  0
VERTEX
  5
1121
  8
L1
 10
22.671173383483559
 20
92.23494705798376
 30
0.0
  0
VERTEX
  5
1122
  8
L1
 10
22.649388868126771
 20
92.23454649824933
 30
0.0
  0
VERTEX
  5
1123
  8
L1
 10
22.62763276494757
 20
92.235728221305763
 30
0.0
  0
VERTEX
  5
1124
  8
L1
 10
22.605991577348671
 20
92.238490774218604
 30
0.0
  0
VERTEX
  5
1125
  8
L1
 10
22.582740217669709
 20
92.243274945907984
 30
0.0
  0
VERTEX
  5
1126
  8
L1
 10
22.55997507446175
 20
92.249871342672094
 30
0.0
  0
VERTEX
  5
1127
  8
L1
 10
22.5378019209491
 20
92.258244793652722
 30
0.0
  0
VERTEX
  5
1128
  8
L1
 10
22.51632653035545
 20
92.268360127991713
 30
0.0
  0
VERTEX
  5
1129
  8
L1
 10
22.49409231364967
 20
92.281166765303894
 30
0.0
  0
VERTEX
  5
112A
  8
L1
 10
22.47308174822609
 20
92.295790925335169
 30
0.0
  0
SEQEND
  5
112B
  8
L1
  0
LINE
  5
6B
  8
L1
 10
23.935566123755901
 20
93.217577359922046
 30
0.0
 11
22.84765481510788
 21
92.304711382081877
 31
0.0
  0
POLYLINE
  5
6C
  8
L1
 66
     1
 10
0.0
 20
0.0
 30
0.0
  0
VERTEX
  5
112C
  8
L1
 10
23.935566123755901
 20
93.217577359922103
 30
0.0
  0
VERTEX
  5
112D
  8
L1
 10
24.011180982275789
 20
93.263914679196674
 30
0.0
  0
VERTEX
  5
112E
  8
L1
 10
24.097038161959681
 20
93.286119371190608
 30
0.0
  0
VERTEX
  5
112F
  8
L1
 10
24.18563526261795
 20
93.282251138236816
 30
0.0
  0
VERTEX
  5
1130
  8
L1
 10
24.269230463389079
 20
93.252647995534204
 30
0.0
  0
VERTEX
  5
1131
  8
L1
 10
24.34051902106517
 20
93.199896734592045
 30
0.0
  0
SEQEND
  5
1132
  8
L1
  0
ARC
  5
6D
  8
L1
 10
17.14215873733286
 20
85.294272529163578
 30
0.0
 40
8.8000000000000114
 50
52.714526099403137
 51
90.000000000000355
  0
ARC
  5
6E
  8
L1
 10
13.28199711961366
 20
202.64427252916349
 30
0.0
 40
2.6000000000000001
 50
90.0
 51
180.0
  0
LINE
  5
6F
  8
L1
 10
17.391785814799562
 20
203.8142605968373
 30
0.0
 11
22.162146805006781
 21
199.04389960663019
 31
0.0
  0
ARC
  5
70
  8
L1
 10
17.14215873733286
 20
198.79427252916349
 30
0.0
 40
5.0261806033722758
 50
87.268584429572414
 51
182.731415570428
  0
ARC
  5
71
  8
L1
 10
26.742158737332879
 20
202.2442725291634
 30
0.0
 40
3.3000000000000149
 50
131.40989698076561
 51
179.9999999999994
  0
LINE
  5
72
  8
L1
 10
16.892531659866052
 20
193.7742844614896
 30
0.0
 11
12.12217066965894
 21
198.54464545169679
 31
0.0
  0
LINE
  5
73
  8
L1
 10
10.681997119613641
 20
202.64427252916349
 30
0.0
 11
10.681997119613641
 21
191.5754357565028
 31
0.0
  0
ARC
  5
74
  8
L1
 10
17.14215873733286
 20
198.79427252916349
 30
0.0
 40
6.3000000000000487
 50
270.0
 51
0.0000000000002544
  0
ARC
  5
75
  8
L1
 10
17.14215873733286
 20
198.79427252916349
 30
0.0
 40
5.0261806033722758
 50
267.26858442957172
 51
2.7314155704273979
  0
LINE
  5
76
  8
L1
 10
17.14215873733286
 20
192.49427252916351
 30
0.0
 11
14.64215873733286
 21
192.49427252916351
 31
0.0
  0
LINE
  5
77
  8
L1
 10
17.14215873733286
 20
189.99427252916351
 30
0.0
 11
13.181483107077099
 21
189.99427252916351
 31
0.0
  0
POLYLINE
  5
78
  8
L1
 66
     1
 10
0.0
 20
0.0
 30
0.0
  0
VERTEX
  5
1133
  8
L1
 10
10.681997119613641
 20
191.57543575650291
 30
0.0
  0
VERTEX
  5
1134
  8
L1
 10
10.68206874181015
 20
191.56888055413069
 30
0.0
  0
VERTEX
  5
1135
  8
L1
 10
10.68419152020584
 20
191.5392162300808
 30
0.0
  0
VERTEX
  5
1136
  8
L1
 10
10.68922521117104
 20
191.50997812413129
 30
0.0
  0
VERTEX
  5
1137
  8
L1
 10
10.69712205529941
 20
191.48138016294411
 30
0.0
  0
VERTEX
  5
1138
  8
L1
 10
10.70783429318595
 20
191.45363627318119
 30
0.0
  0
VERTEX
  5
1139
  8
L1
 10
10.72121238925666
 20
191.42713990725261
 30
0.0
  0
VERTEX
  5
113A
  8
L1
 10
10.737102144830089
 20
191.40215381757559
 30
0.0
  0
VERTEX
  5
113B
  8
L1
 10
10.75537770850354
 20
191.37885591744461
 30
0.0
  0
VERTEX
  5
113C
  8
L1
 10
10.775913228873771
 20
191.35742412015429
 30
0.0
  0
VERTEX
  5
113D
  8
L1
 10
10.796067351939371
 20
191.34000152607001
 30
0.0
  0
VERTEX
  5
113E
  8
L1
 10
10.81764433316237
 20
191.3244642292014
 30
0.0
  0
VERTEX
  5
113F
  8
L1
 10
10.840512343385109
 20
191.31089853515081
 30
0.0
  0
VERTEX
  5
1140
  8
L1
 10
10.86453955345058
 20
191.29939074952091
 30
0.0
  0
VERTEX
  5
1141
  8
L1
 10
10.886022135020021
 20
191.2912083852093
 30
0.0
  0
VERTEX
  5
1142
  8
L1
 10
10.908035775778041
 20
191.28470331053799
 30
0.0
  0
VERTEX
  5
1143
  8
L1
 10
10.93048236227065
 20
191.2799004513578
 30
0.0
  0
VERTEX
  5
1144
  8
L1
 10
10.953263781044541
 20
191.27682473351939
 30
0.0
  0
VERTEX
  5
1145
  8
L1
 10
10.9746227010325
 20
191.2755372753025
 30
0.0
  0
VERTEX
  5
1146
  8
L1
 10
10.99599208806006
 20
191.27577427039739
 30
0.0
  0
VERTEX
  5
1147
  8
L1
 10
11.017290396915479
 20
191.2775318794917
 30
0.0
  0
VERTEX
  5
1148
  8
L1
 10
11.03843608238668
 20
191.28080626327321
 30
0.0
  0
VERTEX
  5
1149
  8
L1
 10
11.061891850550801
 20
191.28628467320209
 30
0.0
  0
VERTEX
  5
114A
  8
L1
 10
11.084796466893
 20
191.2936138348164
 30
0.0
  0
VERTEX
  5
114B
  8
L1
 10
11.10704055057584
 20
191.3027538142851
 30
0.0
  0
VERTEX
  5
114C
  8
L1
 10
11.128514720761871
 20
191.3136646777773
 30
0.0
  0
VERTEX
  5
114D
  8
L1
 10
11.15011689315889
 20
191.3269852061859
 30
0.0
  0
VERTEX
  5
114E
  8
L1
 10
11.170468542925329
 20
191.34204526444111
 30
0.0
  0
VERTEX
  5
114F
  8
L1
 10
11.189466499211839
 20
191.35875616851081
 30
0.0
  0
VERTEX
  5
1150
  8
L1
 10
11.207007591169649
 20
191.37702923436279
 30
0.0
  0
SEQEND
  5
1151
  8
L1
  0
ARC
  5
79
  8
L1
 10
13.681997119613641
 20
189.1942725291635
 30
0.0
 40
3.2999999999999439
 50
138.5901030192349
 51
180.0
  0
POLYLINE
  5
7A
  8
L1
 66
     1
 10
0.0
 20
0.0
 30
0.0
  0
VERTEX
  5
1152
  8
L1
 10
13.181483107077099
 20
189.99427252916351
 30
0.0
  0
VERTEX
  5
1153
  8
L1
 10
13.000702156738781
 20
189.98334162276319
 30
0.0
  0
VERTEX
  5
1154
  8
L1
 10
12.82257008347727
 20
189.95070816192279
 30
0.0
  0
VERTEX
  5
1155
  8
L1
 10
12.64968219100154
 20
189.89684760140119
 30
0.0
  0
VERTEX
  5
1156
  8
L1
 10
12.48455737767943
 20
189.82254466519521
 30
0.0
  0
VERTEX
  5
1157
  8
L1
 10
12.32960143732776
 20
189.72888191346601
 30
0.0
  0
VERTEX
  5
1158
  8
L1
 10
12.18707200788554
 20
189.61722397012699
 30
0.0
  0
VERTEX
  5
1159
  8
L1
 10
12.059045678650071
 20
189.48919764089169
 30
0.0
  0
VERTEX
  5
115A
  8
L1
 10
11.947387735311329
 20
189.34666821144941
 30
0.0
  0
VERTEX
  5
115B
  8
L1
 10
11.853724983581911
 20
189.1917122710978
 30
0.0
  0
VERTEX
  5
115C
  8
L1
 10
11.779422047376039
 20
189.02658745777561
 30
0.0
  0
VERTEX
  5
115D
  8
L1
 10
11.72556148685447
 20
188.85369956529999
 30
0.0
  0
VERTEX
  5
115E
  8
L1
 10
11.692928026013931
 20
188.6755674920384
 30
0.0
  0
VERTEX
  5
115F
  8
L1
 10
11.681997119613641
 20
188.49478654170019
 30
0.0
  0
SEQEND
  5
1160
  8
L1
  0
ARC
  5
7B
  8
L1
 10
13.681997119613641
 20
189.1942725291635
 30
0.0
 40
3.2999999999999439
 50
90.0
 51
138.5901030192349
  0
LINE
  5
7C
  8
L1
 10
14.64215873733286
 20
192.49427252916351
 30
0.0
 11
13.681997119613641
 21
192.49427252916351
 31
0.0
  0
LINE
  5
7D
  8
L1
 10
16.902640422921589
 20
193.7738021891677
 30
0.0
 11
16.892531659866052
 21
193.7742844614896
 31
0.0
  0
ARC
  5
7E
  8
L1
 10
17.14215873733286
 20
198.79427252916349
 30
0.0
 40
8.8000000000000114
 50
269.9999999999996
 51
307.2854739005968
  0
POLYLINE
  5
7F
  8
L1
 66
     1
 10
0.0
 20
0.0
 30
0.0
  0
VERTEX
  5
1161
  8
L1
 10
24.143677133504241
 20
193.46334951827009
 30
0.0
  0
VERTEX
  5
1162
  8
L1
 10
24.130731449496182
 20
193.44495443643871
 30
0.0
  0
VERTEX
  5
1163
  8
L1
 10
24.11917585445763
 20
193.4255949093683
 30
0.0
  0
VERTEX
  5
1164
  8
L1
 10
24.106740347007811
 20
193.40005775469911
 30
0.0
  0
VERTEX
  5
1165
  8
L1
 10
24.096795842010518
 20
193.37351859243651
 30
0.0
  0
VERTEX
  5
1166
  8
L1
 10
24.089400717980372
 20
193.34615923538809
 30
0.0
  0
VERTEX
  5
1167
  8
L1
 10
24.084613353431731
 20
193.3181614963614
 30
0.0
  0
VERTEX
  5
1168
  8
L1
 10
24.082471784207371
 20
193.28889861554259
 30
0.0
  0
VERTEX
  5
1169
  8
L1
 10
24.083194270336492
 20
193.25963549445581
 30
0.0
  0
VERTEX
  5
116A
  8
L1
 10
24.086765107728461
 20
193.23058198609181
 30
0.0
  0
VERTEX
  5
116B
  8
L1
 10
24.093168592292781
 20
193.20194794344161
 30
0.0
  0
VERTEX
  5
116C
  8
L1
 10
24.102472494185971
 20
193.1737273237604
 30
0.0
  0
VERTEX
  5
116D
  8
L1
 10
24.114489525937131
 20
193.14662919977891
 30
0.0
  0
VERTEX
  5
116E
  8
L1
 10
24.129121114574609
 20
193.12084860402371
 30
0.0
  0
VERTEX
  5
116F
  8
L1
 10
24.146268687126451
 20
193.09658056902131
 30
0.0
  0
VERTEX
  5
1170
  8
L1
 10
24.152597590250991
 20
193.08877645138841
 30
0.0
  0
SEQEND
  5
1171
  8
L1
  0
POLYLINE
  5
80
  8
L1
 66
     1
 10
0.0
 20
0.0
 30
0.0
  0
VERTEX
  5
1172
  8
L1
 10
23.935566123755901
 20
190.870967698405
 30
0.0
  0
VERTEX
  5
1173
  8
L1
 10
24.011180982275789
 20
190.82463037913041
 30
0.0
  0
VERTEX
  5
1174
  8
L1
 10
24.097038161959681
 20
190.80242568713649
 30
0.0
  0
VERTEX
  5
1175
  8
L1
 10
24.18563526261795
 20
190.8062939200903
 30
0.0
  0
VERTEX
  5
1176
  8
L1
 10
24.269230463389079
 20
190.8358970627929
 30
0.0
  0
VERTEX
  5
1177
  8
L1
 10
24.34051902106517
 20
190.88864832373511
 30
0.0
  0
SEQEND
  5
1178
  8
L1
  0
LINE
  5
81
  8
L1
 10
23.935566123755901
 20
190.87096769840511
 30
0.0
 11
22.84765481510788
 21
191.78383367624519
 31
0.0
  0
POLYLINE
  5
82
  8
L1
 66
     1
 10
0.0
 20
0.0
 30
0.0
  0
VERTEX
  5
1179
  8
L1
 10
22.84765481510788
 20
191.78383367624519
 30
0.0
  0
VERTEX
  5
117A
  8
L1
 10
22.816261007134639
 20
191.80687831173839
 30
0.0
  0
VERTEX
  5
117B
  8
L1
 10
22.782087703573939
 20
191.82569234594001
 30
0.0
  0
VERTEX
  5
117C
  8
L1
 10
22.760598167465162
 20
191.83476164226019
 30
0.0
  0
VERTEX
  5
117D
  8
L1
 10
22.73850269648716
 20
191.84212472419941
 30
0.0
  0
VERTEX
  5
117E
  8
L1
 10
22.71590275506292
 20
191.84775195674479
 30
0.0
  0
VERTEX
  5
117F
  8
L1
 10
22.692899807615099
 20
191.8516137048835
 30
0.0
  0
VERTEX
  5
1180
  8
L1
 10
22.671173383483559
 20
191.8535980003434
 30
0.0
  0
VERTEX
  5
1181
  8
L1
 10
22.649388868126771
 20
191.8539985600778
 30
0.0
  0
VERTEX
  5
1182
  8
L1
 10
22.62763276494757
 20
191.85281683702129
 30
0.0
  0
VERTEX
  5
1183
  8
L1
 10
22.605991577348671
 20
191.8500542841085
 30
0.0
  0
VERTEX
  5
1184
  8
L1
 10
22.582740217669709
 20
191.84527011241909
 30
0.0
  0
VERTEX
  5
1185
  8
L1
 10
22.55997507446175
 20
191.83867371565501
 30
0.0
  0
VERTEX
  5
1186
  8
L1
 10
22.5378019209491
 20
191.83030026467441
 30
0.0
  0
VERTEX
  5
1187
  8
L1
 10
22.51632653035545
 20
191.82018493033539
 30
0.0
  0
VERTEX
  5
1188
  8
L1
 10
22.49409231364967
 20
191.80737829302319
 30
0.0
  0
VERTEX
  5
1189
  8
L1
 10
22.47308174822609
 20
191.79275413299189
 30
0.0
  0
SEQEND
  5
118A
  8
L1
  0
LINE
  5
83
  8
L1
 10
12.12217066965894
 20
198.54464545169671
 30
0.0
 11
12.12168839733698
 21
198.55475421475231
 31
0.0
  0
LINE
  5
84
  8
L1
 10
22.162146805006781
 20
199.04389960663019
 30
0.0
 11
22.162629077328631
 21
199.03379084357459
 31
0.0
  0
LINE
  5
85
  8
L1
 10
23.442158737332811
 20
201.29427252916349
 30
0.0
 11
23.442158737332811
 21
198.79427252916349
 31
0.0
  0
LINE
  5
86
  8
L1
 10
23.442158737332811
 20
202.24427252916351
 30
0.0
 11
23.442158737332811
 21
201.29427252916349
 31
0.0
  0
LINE
  5
87
  8
L1
 10
24.360995509993408
 20
205.24427252916351
 30
0.0
 11
13.28199711961366
 21
205.24427252916351
 31
0.0
  0
POLYLINE
  5
88
  8
L1
 66
     1
 10
0.0
 20
0.0
 30
0.0
  0
VERTEX
  5
118B
  8
L1
 10
12.38888817175194
 20
207.04427252916349
 30
0.0
  0
VERTEX
  5
118C
  8
L1
 10
12.3665267317578
 20
207.0442013144482
 30
0.0
  0
VERTEX
  5
118D
  8
L1
 10
12.34415873733286
 20
207.04398767320041
 30
0.0
  0
SEQEND
  5
118E
  8
L1
  0
ARC
  5
89
  8
L1
 10
12.34415873733286
 20
203.54227252916351
 30
0.0
 40
2.7019999999999542
 50
89.999999999998806
 51
179.99999999999929
  0
POLYLINE
  5
8A
  8
L1
 66
     1
 10
0.0
 20
0.0
 30
0.0
  0
VERTEX
  5
118F
  8
L1
 10
8.8819971483806626
 20
203.54427252916349
 30
0.0
  0
VERTEX
  5
1190
  8
L1
 10
8.8819971196136862
 20
203.54227252916351
 30
0.0
  0
SEQEND
  5
1191
  8
L1
  0
POLYLINE
  5
8B
  8
L1
 66
     1
 10
0.0
 20
0.0
 30
0.0
  0
VERTEX
  5
1192
  8
L1
 10
12.34415873733286
 20
207.04398767320041
 30
0.0
  0
VERTEX
  5
1193
  8
L1
 10
12.17875477954459
 20
207.03794889306229
 30
0.0
  0
VERTEX
  5
1194
  8
L1
 10
12.01143922855743
 20
207.0238801535555
 30
0.0
  0
VERTEX
  5
1195
  8
L1
 10
11.8430269331364
 20
207.00158141982911
 30
0.0
  0
VERTEX
  5
1196
  8
L1
 10
11.674332742046261
 20
206.97085265703251
 30
0.0
  0
VERTEX
  5
1197
  8
L1
 10
11.506158927823369
 20
206.93155441274931
 30
0.0
  0
VERTEX
  5
1198
  8
L1
 10
11.339260300852111
 20
206.8837758614726
 30
0.0
  0
VERTEX
  5
1199
  8
L1
 10
11.17438051667153
 20
206.82765990871721
 30
0.0
  0
VERTEX
  5
119A
  8
L1
 10
11.01226323081999
 20
206.7633494599973
 30
0.0
  0
VERTEX
  5
119B
  8
L1
 10
10.853568344802561
 20
206.69100905840961
 30
0.0
  0
VERTEX
  5
119C
  8
L1
 10
10.69887310753205
 20
206.6109974739098
 30
0.0
  0
VERTEX
  5
119D
  8
L1
 10
10.5487971956598
 20
206.52374895230199
 30
0.0
  0
VERTEX
  5
119E
  8
L1
 10
10.40396028583671
 20
206.4296977393897
 30
0.0
  0
VERTEX
  5
119F
  8
L1
 10
10.264951033444101
 20
206.32932336262189
 30
0.0
  0
VERTEX
  5
11A0
  8
L1
 10
10.13222589592379
 20
206.22329830753671
 30
0.0
  0
VERTEX
  5
11A1
  8
L1
 10
10.00620625301775
 20
206.11234625707201
 30
0.0
  0
VERTEX
  5
11A2
  8
L1
 10
9.8873134844686206
 20
205.9971908941659
 30
0.0
  0
VERTEX
  5
11A3
  8
L1
 10
9.7748102458226072
 20
205.87735689322079
 30
0.0
  0
VERTEX
  5
11A4
  8
L1
 10
9.6665424621075431
 20
205.7505323753534
 30
0.0
  0
VERTEX
  5
11A5
  8
L1
 10
9.5632254123300413
 20
205.6171435543919
 30
0.0
  0
VERTEX
  5
11A6
  8
L1
 10
9.4655743754967148
 20
205.4776166441649
 30
0.0
  0
VERTEX
  5
11A7
  8
L1
 10
9.3742534715517536
 20
205.332411829411
 30
0.0
  0
VERTEX
  5
11A8
  8
L1
 10
9.2897334409817063
 20
205.182117699739
 30
0.0
  0
VERTEX
  5
11A9
  8
L1
 10
9.2124394936077465
 20
205.02735307628271
 30
0.0
  0
VERTEX
  5
11AA
  8
L1
 10
9.1427968392507069
 20
204.86873678017579
 30
0.0
  0
VERTEX
  5
11AB
  8
L1
 10
9.0811563329411342
 20
204.7068446170274
 30
0.0
  0
VERTEX
  5
11AC
  8
L1
 10
9.0276744143804422
 20
204.5423320736071
 30
0.0
  0
VERTEX
  5
11AD
  8
L1
 10
8.9824846703963317
 20
204.37593749278861
 30
0.0
  0
VERTEX
  5
11AE
  8
L1
 10
8.9457206878168432
 20
204.2083992174459
 30
0.0
  0
VERTEX
  5
11AF
  8
L1
 10
8.9175358788822336
 20
204.04098069379
 30
0.0
  0
VERTEX
  5
11B0
  8
L1
 10
8.8976578052455011
 20
203.8739552422596
 30
0.0
  0
VERTEX
  5
11B1
  8
L1
 10
8.8858802880353664
 20
203.7081201062517
 30
0.0
  0
VERTEX
  5
11B2
  8
L1
 10
8.8819971483806626
 20
203.54427252916349
 30
0.0
  0
SEQEND
  5
11B3
  8
L1
  0
LINE
  5
8C
  8
L1
 10
17.38167705174402
 20
203.8147428691592
 30
0.0
 11
17.391785814799562
 21
203.8142605968373
 31
0.0
  0
POLYLINE
  5
8D
  8
L1
 66
     1
 10
0.0
 20
0.0
 30
0.0
  0
VERTEX
  5
11B4
  8
L1
 10
24.559402032133502
 20
204.71926205760741
 30
0.0
  0
VERTEX
  5
11B5
  8
L1
 10
24.57925071939297
 20
204.7384615380559
 30
0.0
  0
VERTEX
  5
11B6
  8
L1
 10
24.597215219944299
 20
204.75935984493859
 30
0.0
  0
VERTEX
  5
11B7
  8
L1
 10
24.613187134588479
 20
204.78181894355521
 30
0.0
  0
VERTEX
  5
11B8
  8
L1
 10
24.627058064127649
 20
204.80570079920511
 30
0.0
  0
VERTEX
  5
11B9
  8
L1
 10
24.638992972586891
 20
204.83153975689811
 30
0.0
  0
VERTEX
  5
11BA
  8
L1
 10
24.648407689644781
 20
204.8583328337306
 30
0.0
  0
VERTEX
  5
11BB
  8
L1
 10
24.655247120564521
 20
204.885895979743
 30
0.0
  0
VERTEX
  5
11BC
  8
L1
 10
24.659456170609189
 20
204.91404514497589
 30
0.0
  0
VERTEX
  5
11BD
  8
L1
 10
24.660982954542249
 20
204.94341015544649
 30
0.0
  0
VERTEX
  5
11BE
  8
L1
 10
24.659634300652272
 20
204.97271426156851
 30
0.0
  0
VERTEX
  5
11BF
  8
L1
 10
24.655430219277321
 20
205.00174655260881
 30
0.0
  0
VERTEX
  5
11C0
  8
L1
 10
24.648390720755678
 20
205.0302961178341
 30
0.0
  0
VERTEX
  5
11C1
  8
L1
 10
24.638478281899829
 20
205.0582913308927
 30
0.0
  0
VERTEX
  5
11C2
  8
L1
 10
24.62587995171765
 20
205.08510586945829
 30
0.0
  0
VERTEX
  5
11C3
  8
L1
 10
24.610698165567381
 20
205.11054698054559
 30
0.0
  0
VERTEX
  5
11C4
  8
L1
 10
24.593035358807519
 20
205.13442191116999
 30
0.0
  0
VERTEX
  5
11C5
  8
L1
 10
24.573605840914009
 20
205.15592454160259
 30
0.0
  0
VERTEX
  5
11C6
  8
L1
 10
24.552243438480961
 20
205.17540939649041
 30
0.0
  0
VERTEX
  5
11C7
  8
L1
 10
24.529104437838271
 20
205.19274718307699
 30
0.0
  0
VERTEX
  5
11C8
  8
L1
 10
24.504345125315751
 20
205.20780860860631
 30
0.0
  0
VERTEX
  5
11C9
  8
L1
 10
24.482869016872819
 20
205.21840244063091
 30
0.0
  0
VERTEX
  5
11CA
  8
L1
 10
24.460651985280769
 20
205.22723697208011
 30
0.0
  0
VERTEX
  5
11CB
  8
L1
 10
24.437801974734889
 20
205.234274221151
 30
0.0
  0
VERTEX
  5
11CC
  8
L1
 10
24.414426929430132
 20
205.23947620604039
 30
0.0
  0
VERTEX
  5
11CD
  8
L1
 10
24.387804671728471
 20
205.24307230455949
 30
0.0
  0
VERTEX
  5
11CE
  8
L1
 10
24.360995509993408
 20
205.24427252916351
 30
0.0
  0
SEQEND
  5
11CF
  8
L1
  0
POLYLINE
  5
8E
  8
L1
 66
     1
 10
0.0
 20
0.0
 30
0.0
  0
VERTEX
  5
11D0
  8
L1
 10
25.047782942761099
 20
92.492632812896119
 30
0.0
  0
VERTEX
  5
11D1
  8
L1
 10
25.100534203703258
 20
92.421344255220006
 30
0.0
  0
VERTEX
  5
11D2
  8
L1
 10
25.130137346405888
 20
92.337749054448892
 30
0.0
  0
VERTEX
  5
11D3
  8
L1
 10
25.134005579359549
 20
92.24915195379063
 30
0.0
  0
VERTEX
  5
11D4
  8
L1
 10
25.111800887365739
 20
92.163294774106674
 30
0.0
  0
VERTEX
  5
11D5
  8
L1
 10
25.065463568091161
 20
92.087679915586847
 30
0.0
  0
SEQEND
  5
11D6
  8
L1
  0
POLYLINE
  5
8F
  8
L1
 66
     1
 10
0.0
 20
0.0
 30
0.0
  0
VERTEX
  5
11D7
  8
L1
 10
27.441644724796159
 20
204.24427252916351
 30
0.0
  0
VERTEX
  5
11D8
  8
L1
 10
27.260863774457839
 20
204.23334162276319
 30
0.0
  0
VERTEX
  5
11D9
  8
L1
 10
27.082731701196451
 20
204.20070816192271
 30
0.0
  0
VERTEX
  5
11DA
  8
L1
 10
26.909843808720719
 20
204.14684760140119
 30
0.0
  0
VERTEX
  5
11DB
  8
L1
 10
26.7447189953985
 20
204.07254466519521
 30
0.0
  0
VERTEX
  5
11DC
  8
L1
 10
26.589763055046831
 20
203.9788819134659
 30
0.0
  0
VERTEX
  5
11DD
  8
L1
 10
26.447233625604611
 20
203.86722397012699
 30
0.0
  0
VERTEX
  5
11DE
  8
L1
 10
26.31920729636926
 20
203.73919764089169
 30
0.0
  0
VERTEX
  5
11DF
  8
L1
 10
26.207549353030291
 20
203.59666821144941
 30
0.0
  0
VERTEX
  5
11E0
  8
L1
 10
26.11388660130109
 20
203.4417122710978
 30
0.0
  0
VERTEX
  5
11E1
  8
L1
 10
26.039583665095108
 20
203.27658745777549
 30
0.0
  0
VERTEX
  5
11E2
  8
L1
 10
25.98572310457342
 20
203.10369956529991
 30
0.0
  0
VERTEX
  5
11E3
  8
L1
 10
25.953089643733112
 20
202.9255674920384
 30
0.0
  0
VERTEX
  5
11E4
  8
L1
 10
25.942158737332811
 20
202.74478654170011
 30
0.0
  0
SEQEND
  5
11E5
  8
L1
  0
POLYLINE
  5
90
  8
L1
 66
     1
 10
0.0
 20
0.0
 30
0.0
  0
VERTEX
  5
11E6
  8
L1
 10
25.047782942761099
 20
191.59591224543101
 30
0.0
  0
VERTEX
  5
11E7
  8
L1
 10
25.100534203703258
 20
191.66720080310711
 30
0.0
  0
VERTEX
  5
11E8
  8
L1
 10
25.130137346405888
 20
191.75079600387821
 30
0.0
  0
VERTEX
  5
11E9
  8
L1
 10
25.134005579359549
 20
191.8393931045365
 30
0.0
  0
VERTEX
  5
11EA
  8
L1
 10
25.111800887365739
 20
191.92525028422051
 30
0.0
  0
VERTEX
  5
11EB
  8
L1
 10
25.065463568091161
 20
192.00086514274031
 30
0.0
  0
SEQEND
  5
11EC
  8
L1
  0
LINE
  5
91
  8
L1
 10
25.942158737332811
 20
202.74478654170011
 30
0.0
 11
25.942158737332811
 21
198.79427252916349
 31
0.0
  0
LINE
  5
92
  8
L6
 10
398.3379040886266
 20
212.94891674438509
 30
0.0
 11
398.3379040886266
 21
75.58305449410642
 31
0.0
  0
LINE
  5
96
  8
L1
 10
231.94558791421071
 20
206.44427252916341
 30
0.0
 11
231.94558791421071
 21
77.644272529163601
 31
0.0
  0
CIRCLE
  5
97
  8
L1
 10
316.5879040886266
 20
85.294272529163464
 30
0.0
 40
5.7982698575061704
  0
CIRCLE
  5
98
  8
L1
 10
316.5879040886266
 20
85.294272529163464
 30
0.0
 40
5.9982622421189946
  0
ARC
  5
99
  8
L1
 10
316.5879040886266
 20
85.294272529163464
 30
0.0
 40
5.0
 50
177.2685844295726
 51
272.73141557042828
  0
LINE
  5
9A
  8
L1
 10
321.58222356913558
 20
85.05600182889205
 30
0.0
 11
316.82617478889802
 21
80.299953048654416
 31
0.0
  0
LINE
  5
9B
  8
L1
 10
310.2819510175554
 20
80.546272529163517
 30
0.0
 11
310.2819510175554
 21
203.54227252916351
 31
0.0
  0
LINE
  5
9C
  8
L1
 10
308.32774247090742
 20
80.546272529163488
 30
0.0
 11
308.32774247090742
 21
203.54227252916351
 31
0.0
  0
LINE
  5
9D
  8
L1
 10
187.10232035505209
 20
81.444272529163669
 30
0.0
 11
187.10232035505209
 21
92.513109301824301
 31
0.0
  0
LINE
  5
9E
  8
L1
 10
180.39253165986611
 20
80.274284461489771
 30
0.0
 11
175.62217066965891
 21
85.044645451696866
 31
0.0
  0
ARC
  5
9F
  8
L1
 10
180.64215873733281
 20
85.294272529163635
 30
0.0
 40
5.0261806033722758
 50
267.2685844295724
 51
2.73141557042806
  0
LINE
  5
A0
  8
L1
 10
174.34215873733291
 20
82.794272529163635
 30
0.0
 11
174.34215873733291
 21
85.294272529163578
 31
0.0
  0
LINE
  5
A1
  8
L1
 10
171.84215873733291
 20
81.343758516626991
 30
0.0
 11
171.84215873733291
 21
85.294272529163635
 31
0.0
  0
LINE
  5
A2
  8
L1
 10
188.90232035505201
 20
203.54227252916351
 30
0.0
 11
188.90232035505201
 21
80.546272529163517
 31
0.0
  0
LINE
  5
A3
  8
L1
 10
188.14215873733281
 20
80.546272529163517
 30
0.0
 11
188.14215873733281
 21
203.54227252916351
 31
0.0
  0
ARC
  5
A4
  8
L1
 10
184.50232035505201
 20
81.444272529163669
 30
0.0
 40
2.6000000000000001
 50
270.0
 51
0.0
  0
LINE
  5
A5
  8
L1
 10
173.42332196467231
 20
78.844272529163646
 30
0.0
 11
184.50232035505201
 21
78.844272529163646
 31
0.0
  0
POLYLINE
  5
A6
  8
L1
 66
     1
 10
0.0
 20
0.0
 30
0.0
  0
VERTEX
  5
11ED
  8
L1
 10
173.22491544253219
 20
79.369283000719719
 30
0.0
  0
VERTEX
  5
11EE
  8
L1
 10
173.2050667552727
 20
79.350083520271227
 30
0.0
  0
VERTEX
  5
11EF
  8
L1
 10
173.1871022547214
 20
79.329185213388456
 30
0.0
  0
VERTEX
  5
11F0
  8
L1
 10
173.17113034007721
 20
79.306726114771905
 30
0.0
  0
VERTEX
  5
11F1
  8
L1
 10
173.15725941053799
 20
79.282844259122015
 30
0.0
  0
VERTEX
  5
11F2
  8
L1
 10
173.14532450207881
 20
79.257005301428961
 30
0.0
  0
VERTEX
  5
11F3
  8
L1
 10
173.13590978502091
 20
79.230212224596499
 30
0.0
  0
VERTEX
  5
11F4
  8
L1
 10
173.1290703541012
 20
79.202649078584074
 30
0.0
  0
VERTEX
  5
11F5
  8
L1
 10
173.12486130405651
 20
79.174499913351241
 30
0.0
  0
VERTEX
  5
11F6
  8
L1
 10
173.12333452012339
 20
79.145134902880642
 30
0.0
  0
VERTEX
  5
11F7
  8
L1
 10
173.1246831740134
 20
79.115830796758615
 30
0.0
  0
VERTEX
  5
11F8
  8
L1
 10
173.12888725538841
 20
79.086798505718349
 30
0.0
  0
VERTEX
  5
11F9
  8
L1
 10
173.13592675391001
 20
79.058248940493016
 30
0.0
  0
VERTEX
  5
11FA
  8
L1
 10
173.14583919276581
 20
79.030253727434371
 30
0.0
  0
VERTEX
  5
11FB
  8
L1
 10
173.15843752294799
 20
79.003439188868839
 30
0.0
  0
VERTEX
  5
11FC
  8
L1
 10
173.17361930909831
 20
78.97799807778145
 30
0.0
  0
VERTEX
  5
11FD
  8
L1
 10
173.1912821158582
 20
78.954123147157162
 30
0.0
  0
VERTEX
  5
11FE
  8
L1
 10
173.21071163375171
 20
78.93262051672454
 30
0.0
  0
VERTEX
  5
11FF
  8
L1
 10
173.23207403618471
 20
78.913135661836719
 30
0.0
  0
VERTEX
  5
1200
  8
L1
 10
173.2552130368274
 20
78.895797875250111
 30
0.0
  0
VERTEX
  5
1201
  8
L1
 10
173.27997234934989
 20
78.880736449720786
 30
0.0
  0
VERTEX
  5
1202
  8
L1
 10
173.30144845779279
 20
78.870142617696189
 30
0.0
  0
VERTEX
  5
1203
  8
L1
 10
173.32366548938489
 20
78.861308086246964
 30
0.0
  0
VERTEX
  5
1204
  8
L1
 10
173.3465154999308
 20
78.854270837176131
 30
0.0
  0
VERTEX
  5
1205
  8
L1
 10
173.36989054523551
 20
78.849068852286706
 30
0.0
  0
VERTEX
  5
1206
  8
L1
 10
173.3965128029372
 20
78.845472753767595
 30
0.0
  0
VERTEX
  5
1207
  8
L1
 10
173.42332196467231
 20
78.844272529163646
 30
0.0
  0
SEQEND
  5
1208
  8
L1
  0
ARC
  5
A7
  8
L1
 10
171.04215873733281
 20
81.844272529163689
 30
0.0
 40
3.3000000000000149
 50
311.40989698076561
 51
359.99999999999937
  0
ARC
  5
A8
  8
L1
 10
171.04215873733281
 20
81.844272529163689
 30
0.0
 40
3.3000000000000149
 50
270.0
 51
311.40989698076561
  0
POLYLINE
  5
A9
  8
L1
 66
     1
 10
0.0
 20
0.0
 30
0.0
  0
VERTEX
  5
1209
  8
L1
 10
170.34267274986951
 20
79.844272529163646
 30
0.0
  0
VERTEX
  5
120A
  8
L1
 10
170.5234537002078
 20
79.855203435563936
 30
0.0
  0
VERTEX
  5
120B
  8
L1
 10
170.70158577346919
 20
79.887836896404366
 30
0.0
  0
VERTEX
  5
120C
  8
L1
 10
170.874473665945
 20
79.941697456925937
 30
0.0
  0
VERTEX
  5
120D
  8
L1
 10
171.0395984792672
 20
80.016000393131918
 30
0.0
  0
VERTEX
  5
120E
  8
L1
 10
171.1945544196189
 20
80.109663144861159
 30
0.0
  0
VERTEX
  5
120F
  8
L1
 10
171.33708384906109
 20
80.221321088200085
 30
0.0
  0
VERTEX
  5
1210
  8
L1
 10
171.46511017829641
 20
80.349347417435439
 30
0.0
  0
VERTEX
  5
1211
  8
L1
 10
171.57676812163541
 20
80.491876846877716
 30
0.0
  0
VERTEX
  5
1212
  8
L1
 10
171.67043087336461
 20
80.646832787229329
 30
0.0
  0
VERTEX
  5
1213
  8
L1
 10
171.74473380957059
 20
80.811957600551551
 30
0.0
  0
VERTEX
  5
1214
  8
L1
 10
171.7985943700923
 20
80.984845493027237
 30
0.0
  0
VERTEX
  5
1215
  8
L1
 10
171.83122783093259
 20
81.162977566288674
 30
0.0
  0
VERTEX
  5
1216
  8
L1
 10
171.84215873733291
 20
81.343758516626991
 30
0.0
  0
SEQEND
  5
1217
  8
L1
  0
LINE
  5
AA
  8
L1
 10
174.34215873733291
 20
81.844272529163646
 30
0.0
 11
174.34215873733291
 21
82.794272529163635
 31
0.0
  0
LINE
  5
AB
  8
L1
 10
180.40264042292171
 20
80.273802189167867
 30
0.0
 11
180.39253165986611
 21
80.274284461489771
 31
0.0
  0
POLYLINE
  5
AC
  8
L1
 66
     1
 10
0.0
 20
0.0
 30
0.0
  0
VERTEX
  5
1218
  8
L1
 10
185.3954293029137
 20
77.044272529163635
 30
0.0
  0
VERTEX
  5
1219
  8
L1
 10
185.4177907429079
 20
77.044343743878898
 30
0.0
  0
VERTEX
  5
121A
  8
L1
 10
185.44015873733281
 20
77.044557385126751
 30
0.0
  0
SEQEND
  5
121B
  8
L1
  0
ARC
  5
AD
  8
L1
 10
185.44015873733281
 20
80.546272529163645
 30
0.0
 40
2.7019999999999542
 50
269.99999999999869
 51
359.99999999999932
  0
POLYLINE
  5
AE
  8
L1
 66
     1
 10
0.0
 20
0.0
 30
0.0
  0
VERTEX
  5
121C
  8
L1
 10
188.90232032628501
 20
80.544272529163635
 30
0.0
  0
VERTEX
  5
121D
  8
L1
 10
188.90232035505201
 20
80.546272529163645
 30
0.0
  0
SEQEND
  5
121E
  8
L1
  0
POLYLINE
  5
AF
  8
L1
 66
     1
 10
0.0
 20
0.0
 30
0.0
  0
VERTEX
  5
121F
  8
L1
 10
185.44015873733281
 20
77.044557385126751
 30
0.0
  0
VERTEX
  5
1220
  8
L1
 10
185.60556269512111
 20
77.050596165264807
 30
0.0
  0
VERTEX
  5
1221
  8
L1
 10
185.77287824610821
 20
77.064664904771604
 30
0.0
  0
VERTEX
  5
1222
  8
L1
 10
185.9412905415293
 20
77.08696363849802
 30
0.0
  0
VERTEX
  5
1223
  8
L1
 10
186.10998473261941
 20
77.11769240129459
 30
0.0
  0
VERTEX
  5
1224
  8
L1
 10
186.27815854684229
 20
77.156990645577849
 30
0.0
  0
VERTEX
  5
1225
  8
L1
 10
186.44505717381361
 20
77.204769196854471
 30
0.0
  0
VERTEX
  5
1226
  8
L1
 10
186.60993695799411
 20
77.260885149609891
 30
0.0
  0
VERTEX
  5
1227
  8
L1
 10
186.7720542438457
 20
77.325195598329771
 30
0.0
  0
VERTEX
  5
1228
  8
L1
 10
186.9307491298631
 20
77.397535999917551
 30
0.0
  0
VERTEX
  5
1229
  8
L1
 10
187.08544436713359
 20
77.477547584417295
 30
0.0
  0
VERTEX
  5
122A
  8
L1
 10
187.2355202790059
 20
77.564796106025113
 30
0.0
  0
VERTEX
  5
122B
  8
L1
 10
187.38035718882901
 20
77.658847318937333
 30
0.0
  0
VERTEX
  5
122C
  8
L1
 10
187.51936644122159
 20
77.759221695705179
 30
0.0
  0
VERTEX
  5
122D
  8
L1
 10
187.6520915787419
 20
77.865246750790419
 30
0.0
  0
VERTEX
  5
122E
  8
L1
 10
187.77811122164789
 20
77.976198801255151
 30
0.0
  0
VERTEX
  5
122F
  8
L1
 10
187.89700399019711
 20
78.091354164161174
 30
0.0
  0
VERTEX
  5
1230
  8
L1
 10
188.00950722884309
 20
78.211188165106279
 30
0.0
  0
VERTEX
  5
1231
  8
L1
 10
188.11777501255821
 20
78.338012682973755
 30
0.0
  0
VERTEX
  5
1232
  8
L1
 10
188.2210920623356
 20
78.471401503935198
 30
0.0
  0
VERTEX
  5
1233
  8
L1
 10
188.31874309916901
 20
78.610928414162203
 30
0.0
  0
VERTEX
  5
1234
  8
L1
 10
188.41006400311389
 20
78.756133228916127
 30
0.0
  0
VERTEX
  5
1235
  8
L1
 10
188.49458403368399
 20
78.906427358588104
 30
0.0
  0
VERTEX
  5
1236
  8
L1
 10
188.5718779810579
 20
79.061191982044448
 30
0.0
  0
VERTEX
  5
1237
  8
L1
 10
188.64152063541499
 20
79.219808278151362
 30
0.0
  0
VERTEX
  5
1238
  8
L1
 10
188.70316114172459
 20
79.381700441299714
 30
0.0
  0
VERTEX
  5
1239
  8
L1
 10
188.7566430602852
 20
79.546212984720029
 30
0.0
  0
VERTEX
  5
123A
  8
L1
 10
188.8018328042694
 20
79.712607565538548
 30
0.0
  0
VERTEX
  5
123B
  8
L1
 10
188.8385967868488
 20
79.88014584088117
 30
0.0
  0
VERTEX
  5
123C
  8
L1
 10
188.86678159578341
 20
80.047564364537067
 30
0.0
  0
VERTEX
  5
123D
  8
L1
 10
188.8866596694202
 20
80.214589816067502
 30
0.0
  0
VERTEX
  5
123E
  8
L1
 10
188.8984371866303
 20
80.380424952075387
 30
0.0
  0
VERTEX
  5
123F
  8
L1
 10
188.90232032628501
 20
80.544272529163635
 30
0.0
  0
SEQEND
  5
1240
  8
L1
  0
LINE
  5
B0
  8
L1
 10
232.5455879142107
 20
77.044272529163521
 30
0.0
 11
257.74558791421072
 21
77.044272529163521
 31
0.0
  0
LINE
  5
B4
  8
L1
 10
231.94558791421071
 20
77.64427252916353
 30
0.0
 11
232.5455879142107
 21
77.044272529163521
 31
0.0
  0
LINE
  5
B7
  8
L1
 10
257.74558791421072
 20
77.044272529163536
 30
0.0
 11
258.54558791421078
 21
77.844272529163547
 31
0.0
  0
LINE
  5
BF
  8
L1
 10
311.83463352304568
 20
77.044272529163464
 30
0.0
 11
313.15530342026591
 21
77.044272529163464
 31
0.0
  0
ARC
  5
C0
  8
L1
 10
313.18395101755539
 20
80.546272529163474
 30
0.0
 40
2.902000000000057
 50
180.0
 51
269.99999999999881
  0
POLYLINE
  5
C1
  8
L1
 66
     1
 10
0.0
 20
0.0
 30
0.0
  0
VERTEX
  5
1241
  8
L1
 10
311.78990408862649
 20
77.044557385126581
 30
0.0
  0
VERTEX
  5
1242
  8
L1
 10
311.8122720830516
 20
77.044343743878784
 30
0.0
  0
VERTEX
  5
1243
  8
L1
 10
311.83463352304568
 20
77.044272529163464
 30
0.0
  0
SEQEND
  5
1244
  8
L1
  0
POLYLINE
  5
C2
  8
L1
 66
     1
 10
0.0
 20
0.0
 30
0.0
  0
VERTEX
  5
1245
  8
L1
 10
308.32774247090742
 20
80.546272529163517
 30
0.0
  0
VERTEX
  5
1246
  8
L1
 10
308.3277424996744
 20
80.544272529163464
 30
0.0
  0
SEQEND
  5
1247
  8
L1
  0
POLYLINE
  5
C3
  8
L1
 66
     1
 10
0.0
 20
0.0
 30
0.0
  0
VERTEX
  5
1248
  8
L1
 10
308.3277424996744
 20
80.544272529163464
 30
0.0
  0
VERTEX
  5
1249
  8
L1
 10
308.33162563932899
 20
80.380424952075174
 30
0.0
  0
VERTEX
  5
124A
  8
L1
 10
308.34340315653918
 20
80.214589816067274
 30
0.0
  0
VERTEX
  5
124B
  8
L1
 10
308.36328123017591
 20
80.047564364536782
 30
0.0
  0
VERTEX
  5
124C
  8
L1
 10
308.3914660391107
 20
79.880145840880942
 30
0.0
  0
VERTEX
  5
124D
  8
L1
 10
308.42823002169013
 20
79.71260756553832
 30
0.0
  0
VERTEX
  5
124E
  8
L1
 10
308.47341976567418
 20
79.546212984719858
 30
0.0
  0
VERTEX
  5
124F
  8
L1
 10
308.52690168423487
 20
79.3817004412995
 30
0.0
  0
VERTEX
  5
1250
  8
L1
 10
308.5885421905445
 20
79.219808278151191
 30
0.0
  0
VERTEX
  5
1251
  8
L1
 10
308.65818484490143
 20
79.061191982044221
 30
0.0
  0
VERTEX
  5
1252
  8
L1
 10
308.73547879227539
 20
78.906427358587877
 30
0.0
  0
VERTEX
  5
1253
  8
L1
 10
308.81999882284549
 20
78.756133228916013
 30
0.0
  0
VERTEX
  5
1254
  8
L1
 10
308.91131972679051
 20
78.610928414162032
 30
0.0
  0
VERTEX
  5
1255
  8
L1
 10
309.00897076362372
 20
78.471401503935084
 30
0.0
  0
VERTEX
  5
1256
  8
L1
 10
309.11228781340122
 20
78.338012682973471
 30
0.0
  0
VERTEX
  5
1257
  8
L1
 10
309.2205555971164
 20
78.211188165106051
 30
0.0
  0
VERTEX
  5
1258
  8
L1
 10
309.33305883576247
 20
78.091354164160947
 30
0.0
  0
VERTEX
  5
1259
  8
L1
 10
309.45195160431172
 20
77.976198801254867
 30
0.0
  0
VERTEX
  5
125A
  8
L1
 10
309.57797124721742
 20
77.865246750790192
 30
0.0
  0
VERTEX
  5
125B
  8
L1
 10
309.71069638473779
 20
77.759221695704952
 30
0.0
  0
VERTEX
  5
125C
  8
L1
 10
309.8497056371304
 20
77.65884731893712
 30
0.0
  0
VERTEX
  5
125D
  8
L1
 10
309.99454254695348
 20
77.564796106024886
 30
0.0
  0
VERTEX
  5
125E
  8
L1
 10
310.14461845882579
 20
77.477547584417067
 30
0.0
  0
VERTEX
  5
125F
  8
L1
 10
310.29931369609619
 20
77.397535999917324
 30
0.0
  0
VERTEX
  5
1260
  8
L1
 10
310.45800858211379
 20
77.325195598329543
 30
0.0
  0
VERTEX
  5
1261
  8
L1
 10
310.62012586796533
 20
77.26088514960972
 30
0.0
  0
VERTEX
  5
1262
  8
L1
 10
310.78500565214603
 20
77.204769196854301
 30
0.0
  0
VERTEX
  5
1263
  8
L1
 10
310.951904279117
 20
77.156990645577622
 30
0.0
  0
VERTEX
  5
1264
  8
L1
 10
311.12007809334
 20
77.117692401294406
 30
0.0
  0
VERTEX
  5
1265
  8
L1
 10
311.28877228443008
 20
77.086963638497849
 30
0.0
  0
VERTEX
  5
1266
  8
L1
 10
311.45718457985112
 20
77.06466490477149
 30
0.0
  0
VERTEX
  5
1267
  8
L1
 10
311.62450013083833
 20
77.050596165264636
 30
0.0
  0
VERTEX
  5
1268
  8
L1
 10
311.78990408862649
 20
77.044557385126581
 30
0.0
  0
SEQEND
  5
1269
  8
L1
  0
POLYLINE
  5
C4
  8
L1
 66
     1
 10
0.0
 20
0.0
 30
0.0
  0
VERTEX
  5
126A
  8
L1
 10
313.18395101755539
 20
77.044272529163464
 30
0.0
  0
VERTEX
  5
126B
  8
L1
 10
313.15530342026591
 20
77.044272529163464
 30
0.0
  0
SEQEND
  5
126C
  8
L1
  0
LINE
  5
C5
  8
L2
 10
234.64558791421069
 20
95.220287450912494
 30
0.0
 11
234.64558791421069
 21
188.86825760741451
 31
0.0
  0
LINE
  5
C7
  8
L1
 10
259.71491884165118
 20
204.94427252916361
 30
0.0
 11
259.71491884165118
 21
79.144272529163402
 31
0.0
  0
LINE
  5
C8
  8
L1
 10
186.10232035505189
 20
188.49478654170019
 30
0.0
 11
186.10232035505189
 21
95.593758516626934
 31
0.0
  0
LINE
  5
C9
  8
L1
 10
187.40232035505201
 20
189.1942725291635
 30
0.0
 11
187.4023203550519
 21
94.894272529163473
 31
0.0
  0
LINE
  5
CA
  8
L1
 10
180.89178581479959
 20
90.314260596837514
 30
0.0
 11
185.6621468050067
 21
85.543899606630333
 31
0.0
  0
POLYLINE
  5
CB
  8
L1
 66
     1
 10
0.0
 20
0.0
 30
0.0
  0
VERTEX
  5
126D
  8
L1
 10
184.6028343675886
 20
94.094272529163646
 30
0.0
  0
VERTEX
  5
126E
  8
L1
 10
184.78361531792689
 20
94.10520343556388
 30
0.0
  0
VERTEX
  5
126F
  8
L1
 10
184.9617473911884
 20
94.137836896404295
 30
0.0
  0
VERTEX
  5
1270
  8
L1
 10
185.1346352836641
 20
94.191697456925937
 30
0.0
  0
VERTEX
  5
1271
  8
L1
 10
185.2997600969862
 20
94.266000393131904
 30
0.0
  0
VERTEX
  5
1272
  8
L1
 10
185.4547160373379
 20
94.359663144861116
 30
0.0
  0
VERTEX
  5
1273
  8
L1
 10
185.59724546678009
 20
94.471321088200085
 30
0.0
  0
VERTEX
  5
1274
  8
L1
 10
185.72527179601559
 20
94.599347417435425
 30
0.0
  0
VERTEX
  5
1275
  8
L1
 10
185.8369297393543
 20
94.741876846877659
 30
0.0
  0
VERTEX
  5
1276
  8
L1
 10
185.93059249108379
 20
94.896832787229329
 30
0.0
  0
VERTEX
  5
1277
  8
L1
 10
186.0048954272896
 20
95.061957600551494
 30
0.0
  0
VERTEX
  5
1278
  8
L1
 10
186.0587559878112
 20
95.234845493027166
 30
0.0
  0
VERTEX
  5
1279
  8
L1
 10
186.09138944865171
 20
95.412977566288674
 30
0.0
  0
VERTEX
  5
127A
  8
L1
 10
186.102320355052
 20
95.593758516626934
 30
0.0
  0
SEQEND
  5
127B
  8
L1
  0
ARC
  5
CC
  8
L1
 10
184.10232035505209
 20
94.894272529163601
 30
0.0
 40
3.2999999999999439
 50
270.0
 51
318.59010301923479
  0
LINE
  5
CD
  8
L1
 10
173.63171988441471
 20
90.999768606938716
 30
0.0
 11
172.71885390657451
 21
92.087679915586776
 31
0.0
  0
ARC
  5
CE
  8
L1
 10
180.64215873733281
 20
85.294272529163635
 30
0.0
 40
6.3000000000000487
 50
90.0
 51
180.0000000000002
  0
ARC
  5
CF
  8
L1
 10
180.64215873733281
 20
85.294272529163635
 30
0.0
 40
5.0261806033722758
 50
87.268584429571774
 51
182.7314155704274
  0
LINE
  5
D0
  8
L1
 10
175.62217066965891
 20
85.044645451696866
 30
0.0
 11
175.62168839733701
 21
85.054754214752478
 31
0.0
  0
POLYLINE
  5
D1
  8
L1
 66
     1
 10
0.0
 20
0.0
 30
0.0
  0
VERTEX
  5
127C
  8
L1
 10
173.6406403411614
 20
90.625195540057035
 30
0.0
  0
VERTEX
  5
127D
  8
L1
 10
173.65358602516949
 20
90.643590621888421
 30
0.0
  0
VERTEX
  5
127E
  8
L1
 10
173.665141620208
 20
90.662950148958856
 30
0.0
  0
VERTEX
  5
127F
  8
L1
 10
173.67757712765791
 20
90.688487303628023
 30
0.0
  0
VERTEX
  5
1280
  8
L1
 10
173.6875216326552
 20
90.715026465890645
 30
0.0
  0
VERTEX
  5
1281
  8
L1
 10
173.6949167566853
 20
90.742385822939042
 30
0.0
  0
VERTEX
  5
1282
  8
L1
 10
173.69970412123391
 20
90.770383561965701
 30
0.0
  0
VERTEX
  5
1283
  8
L1
 10
173.7018456904583
 20
90.799646442784464
 30
0.0
  0
VERTEX
  5
1284
  8
L1
 10
173.70112320432921
 20
90.828909563871349
 30
0.0
  0
VERTEX
  5
1285
  8
L1
 10
173.6975523669372
 20
90.857963072235322
 30
0.0
  0
VERTEX
  5
1286
  8
L1
 10
173.69114888237289
 20
90.886597114885504
 30
0.0
  0
VERTEX
  5
1287
  8
L1
 10
173.6818449804797
 20
90.914817734566753
 30
0.0
  0
VERTEX
  5
1288
  8
L1
 10
173.6698279487286
 20
90.941915858548185
 30
0.0
  0
VERTEX
  5
1289
  8
L1
 10
173.65519636009111
 20
90.967696454303365
 30
0.0
  0
VERTEX
  5
128A
  8
L1
 10
173.63804878753919
 20
90.991964489305843
 30
0.0
  0
VERTEX
  5
128B
  8
L1
 10
173.63171988441471
 20
90.999768606938716
 30
0.0
  0
SEQEND
  5
128C
  8
L1
  0
ARC
  5
D2
  8
L1
 10
180.64215873733281
 20
85.294272529163578
 30
0.0
 40
8.8000000000000114
 50
142.71452609940181
 51
179.9999999999998
  0
LINE
  5
D3
  8
L1
 10
180.88167705174411
 20
90.314742869159403
 30
0.0
 11
180.89178581479959
 21
90.314260596837514
 31
0.0
  0
LINE
  5
D4
  8
L1
 10
180.64215873733281
 20
91.594272529163646
 30
0.0
 11
183.14215873733281
 21
91.594272529163646
 31
0.0
  0
LINE
  5
D5
  8
L1
 10
183.14215873733281
 20
91.594272529163646
 30
0.0
 11
184.10232035505209
 21
91.594272529163646
 31
0.0
  0
ARC
  5
D6
  8
L1
 10
180.64215873733281
 20
85.294272529163578
 30
0.0
 40
8.8000000000000114
 50
89.999999999999645
 51
127.2854739005968
  0
POLYLINE
  5
D7
  8
L1
 66
     1
 10
0.0
 20
0.0
 30
0.0
  0
VERTEX
  5
128D
  8
L1
 10
172.7365345319046
 20
92.492632812896119
 30
0.0
  0
VERTEX
  5
128E
  8
L1
 10
172.68378327096241
 20
92.421344255220006
 30
0.0
  0
VERTEX
  5
128F
  8
L1
 10
172.65418012825981
 20
92.337749054448892
 30
0.0
  0
VERTEX
  5
1290
  8
L1
 10
172.65031189530609
 20
92.24915195379063
 30
0.0
  0
VERTEX
  5
1291
  8
L1
 10
172.6725165872999
 20
92.163294774106674
 30
0.0
  0
VERTEX
  5
1292
  8
L1
 10
172.71885390657451
 20
92.087679915586847
 30
0.0
  0
SEQEND
  5
1293
  8
L1
  0
LINE
  5
D8
  8
L1
 10
172.7365345319046
 20
92.492632812896119
 30
0.0
 11
173.44379845360041
 21
93.199896734592045
 31
0.0
  0
POLYLINE
  5
D9
  8
L1
 66
     1
 10
0.0
 20
0.0
 30
0.0
  0
VERTEX
  5
1294
  8
L1
 10
173.84875135090979
 20
93.217577359922103
 30
0.0
  0
VERTEX
  5
1295
  8
L1
 10
173.77313649238991
 20
93.263914679196674
 30
0.0
  0
VERTEX
  5
1296
  8
L1
 10
173.68727931270601
 20
93.286119371190608
 30
0.0
  0
VERTEX
  5
1297
  8
L1
 10
173.59868221204769
 20
93.282251138236816
 30
0.0
  0
VERTEX
  5
1298
  8
L1
 10
173.51508701127659
 20
93.252647995534204
 30
0.0
  0
VERTEX
  5
1299
  8
L1
 10
173.44379845360049
 20
93.199896734592045
 30
0.0
  0
SEQEND
  5
129A
  8
L1
  0
LINE
  5
DA
  8
L1
 10
173.84875135090979
 20
93.217577359922046
 30
0.0
 11
174.93666265955781
 21
92.304711382081877
 31
0.0
  0
POLYLINE
  5
DB
  8
L1
 66
     1
 10
0.0
 20
0.0
 30
0.0
  0
VERTEX
  5
129B
  8
L1
 10
174.93666265955781
 20
92.304711382081919
 30
0.0
  0
VERTEX
  5
129C
  8
L1
 10
174.968056467531
 20
92.281666746588741
 30
0.0
  0
VERTEX
  5
129D
  8
L1
 10
175.00222977109169
 20
92.262852712387058
 30
0.0
  0
VERTEX
  5
129E
  8
L1
 10
175.02371930720051
 20
92.253783416066895
 30
0.0
  0
VERTEX
  5
129F
  8
L1
 10
175.04581477817851
 20
92.246420334127748
 30
0.0
  0
VERTEX
  5
12A0
  8
L1
 10
175.06841471960271
 20
92.240793101582341
 30
0.0
  0
VERTEX
  5
12A1
  8
L1
 10
175.09141766705059
 20
92.236931353443566
 30
0.0
  0
VERTEX
  5
12A2
  8
L1
 10
175.11314409118211
 20
92.23494705798376
 30
0.0
  0
VERTEX
  5
12A3
  8
L1
 10
175.13492860653889
 20
92.23454649824933
 30
0.0
  0
VERTEX
  5
12A4
  8
L1
 10
175.15668470971809
 20
92.235728221305763
 30
0.0
  0
VERTEX
  5
12A5
  8
L1
 10
175.17832589731699
 20
92.238490774218604
 30
0.0
  0
VERTEX
  5
12A6
  8
L1
 10
175.20157725699599
 20
92.243274945907984
 30
0.0
  0
VERTEX
  5
12A7
  8
L1
 10
175.22434240020391
 20
92.249871342672094
 30
0.0
  0
VERTEX
  5
12A8
  8
L1
 10
175.24651555371659
 20
92.258244793652722
 30
0.0
  0
VERTEX
  5
12A9
  8
L1
 10
175.26799094431021
 20
92.268360127991713
 30
0.0
  0
VERTEX
  5
12AA
  8
L1
 10
175.290225161016
 20
92.281166765303894
 30
0.0
  0
VERTEX
  5
12AB
  8
L1
 10
175.31123572643961
 20
92.295790925335169
 30
0.0
  0
SEQEND
  5
12AC
  8
L1
  0
LINE
  5
DC
  8
L1
 10
180.64215873733281
 20
94.094272529163575
 30
0.0
 11
184.6028343675886
 21
94.094272529163575
 31
0.0
  0
LINE
  5
DD
  8
L1
 10
185.6621468050067
 20
85.54389960663039
 30
0.0
 11
185.66262907732869
 21
85.533790843574849
 31
0.0
  0
POLYLINE
  5
DE
  8
L1
 66
     1
 10
0.0
 20
0.0
 30
0.0
  0
VERTEX
  5
12AD
  8
L1
 10
187.10232035505209
 20
92.513109301824244
 30
0.0
  0
VERTEX
  5
12AE
  8
L1
 10
187.10224873285549
 20
92.519664504196413
 30
0.0
  0
VERTEX
  5
12AF
  8
L1
 10
187.1001259544598
 20
92.549328828246331
 30
0.0
  0
VERTEX
  5
12B0
  8
L1
 10
187.09509226349459
 20
92.578566934195777
 30
0.0
  0
VERTEX
  5
12B1
  8
L1
 10
187.08719541936631
 20
92.607164895383008
 30
0.0
  0
VERTEX
  5
12B2
  8
L1
 10
187.07648318147969
 20
92.634908785145882
 30
0.0
  0
VERTEX
  5
12B3
  8
L1
 10
187.06310508540901
 20
92.661405151074504
 30
0.0
  0
VERTEX
  5
12B4
  8
L1
 10
187.04721532983561
 20
92.686391240751533
 30
0.0
  0
VERTEX
  5
12B5
  8
L1
 10
187.02893976616221
 20
92.709689140882546
 30
0.0
  0
VERTEX
  5
12B6
  8
L1
 10
187.00840424579189
 20
92.731120938172836
 30
0.0
  0
VERTEX
  5
12B7
  8
L1
 10
186.9882501227263
 20
92.748543532257045
 30
0.0
  0
VERTEX
  5
12B8
  8
L1
 10
186.96667314150329
 20
92.764080829125675
 30
0.0
  0
VERTEX
  5
12B9
  8
L1
 10
186.94380513128061
 20
92.777646523176287
 30
0.0
  0
VERTEX
  5
12BA
  8
L1
 10
186.91977792121509
 20
92.789154308806161
 30
0.0
  0
VERTEX
  5
12BB
  8
L1
 10
186.89829533964561
 20
92.797336673117826
 30
0.0
  0
VERTEX
  5
12BC
  8
L1
 10
186.8762816988876
 20
92.803841747789107
 30
0.0
  0
VERTEX
  5
12BD
  8
L1
 10
186.85383511239499
 20
92.808644606969352
 30
0.0
  0
VERTEX
  5
12BE
  8
L1
 10
186.8310536936211
 20
92.811720324807723
 30
0.0
  0
VERTEX
  5
12BF
  8
L1
 10
186.8096947736332
 20
92.813007783024574
 30
0.0
  0
VERTEX
  5
12C0
  8
L1
 10
186.78832538660561
 20
92.812770787929736
 30
0.0
  0
VERTEX
  5
12C1
  8
L1
 10
186.76702707775021
 20
92.811013178835438
 30
0.0
  0
VERTEX
  5
12C2
  8
L1
 10
186.74588139227899
 20
92.807738795053893
 30
0.0
  0
VERTEX
  5
12C3
  8
L1
 10
186.72242562411489
 20
92.802260385125038
 30
0.0
  0
VERTEX
  5
12C4
  8
L1
 10
186.69952100777269
 20
92.794931223510744
 30
0.0
  0
VERTEX
  5
12C5
  8
L1
 10
186.6772769240898
 20
92.785791244042031
 30
0.0
  0
VERTEX
  5
12C6
  8
L1
 10
186.6558027539038
 20
92.774880380549774
 30
0.0
  0
VERTEX
  5
12C7
  8
L1
 10
186.6342005815068
 20
92.761559852141218
 30
0.0
  0
VERTEX
  5
12C8
  8
L1
 10
186.61384893174031
 20
92.746499793885974
 30
0.0
  0
VERTEX
  5
12C9
  8
L1
 10
186.5948509754538
 20
92.729788889816263
 30
0.0
  0
VERTEX
  5
12CA
  8
L1
 10
186.57730988349601
 20
92.711515823964319
 30
0.0
  0
SEQEND
  5
12CB
  8
L1
  0
ARC
  5
DF
  8
L1
 10
184.10232035505209
 20
94.894272529163601
 30
0.0
 40
3.2999999999999439
 50
318.59010301923479
 51
0.0
  0
LINE
  5
E0
  8
L2
 10
258.54558791421078
 20
94.094272529163504
 30
0.0
 11
235.13249944005679
 21
94.720458788424722
 31
0.0
  0
ARC
  5
EA
  8
L2
 10
235.14558791421069
 20
95.220287450912494
 30
0.0
 40
0.5
 50
180.0
 51
268.50000000000051
  0
LINE
  5
EF
  8
L6
 10
267.71491884165118
 20
142.04427252916349
 30
0.0
 11
223.94558791421071
 21
142.04427252916349
 31
0.0
  0
POLYLINE
  5
F0
  8
L1
 66
     1
 10
0.0
 20
0.0
 30
0.0
  0
VERTEX
  5
12CC
  8
L1
 10
184.6028343675886
 20
189.99427252916351
 30
0.0
  0
VERTEX
  5
12CD
  8
L1
 10
184.78361531792689
 20
189.98334162276319
 30
0.0
  0
VERTEX
  5
12CE
  8
L1
 10
184.9617473911884
 20
189.95070816192279
 30
0.0
  0
VERTEX
  5
12CF
  8
L1
 10
185.1346352836641
 20
189.89684760140119
 30
0.0
  0
VERTEX
  5
12D0
  8
L1
 10
185.2997600969862
 20
189.82254466519521
 30
0.0
  0
VERTEX
  5
12D1
  8
L1
 10
185.4547160373379
 20
189.72888191346601
 30
0.0
  0
VERTEX
  5
12D2
  8
L1
 10
185.59724546678009
 20
189.61722397012699
 30
0.0
  0
VERTEX
  5
12D3
  8
L1
 10
185.72527179601559
 20
189.48919764089169
 30
0.0
  0
VERTEX
  5
12D4
  8
L1
 10
185.8369297393543
 20
189.34666821144941
 30
0.0
  0
VERTEX
  5
12D5
  8
L1
 10
185.93059249108379
 20
189.1917122710978
 30
0.0
  0
VERTEX
  5
12D6
  8
L1
 10
186.0048954272896
 20
189.02658745777561
 30
0.0
  0
VERTEX
  5
12D7
  8
L1
 10
186.0587559878112
 20
188.85369956529999
 30
0.0
  0
VERTEX
  5
12D8
  8
L1
 10
186.09138944865171
 20
188.6755674920384
 30
0.0
  0
VERTEX
  5
12D9
  8
L1
 10
186.102320355052
 20
188.49478654170019
 30
0.0
  0
SEQEND
  5
12DA
  8
L1
  0
ARC
  5
F1
  8
L1
 10
184.10232035505209
 20
189.1942725291635
 30
0.0
 40
3.2999999999999439
 50
41.409896980765069
 51
90.0
  0
ARC
  5
F2
  8
L1
 10
184.50232035505201
 20
202.64427252916349
 30
0.0
 40
2.6000000000000001
 50
0.0
 51
90.0
  0
LINE
  5
F3
  8
L1
 10
180.89178581479959
 20
193.7742844614896
 30
0.0
 11
185.6621468050067
 21
198.54464545169679
 31
0.0
  0
ARC
  5
F4
  8
L1
 10
180.64215873733281
 20
198.79427252916349
 30
0.0
 40
5.0261806033722758
 50
357.26858442957189
 51
92.731415570427572
  0
POLYLINE
  5
F5
  8
L1
 66
     1
 10
0.0
 20
0.0
 30
0.0
  0
VERTEX
  5
12DB
  8
L1
 10
170.34267274986951
 20
204.24427252916351
 30
0.0
  0
VERTEX
  5
12DC
  8
L1
 10
170.5234537002078
 20
204.23334162276319
 30
0.0
  0
VERTEX
  5
12DD
  8
L1
 10
170.70158577346919
 20
204.20070816192271
 30
0.0
  0
VERTEX
  5
12DE
  8
L1
 10
170.874473665945
 20
204.14684760140119
 30
0.0
  0
VERTEX
  5
12DF
  8
L1
 10
171.0395984792672
 20
204.07254466519521
 30
0.0
  0
VERTEX
  5
12E0
  8
L1
 10
171.1945544196189
 20
203.9788819134659
 30
0.0
  0
VERTEX
  5
12E1
  8
L1
 10
171.33708384906109
 20
203.86722397012699
 30
0.0
  0
VERTEX
  5
12E2
  8
L1
 10
171.46511017829641
 20
203.73919764089169
 30
0.0
  0
VERTEX
  5
12E3
  8
L1
 10
171.57676812163541
 20
203.59666821144941
 30
0.0
  0
VERTEX
  5
12E4
  8
L1
 10
171.67043087336461
 20
203.4417122710978
 30
0.0
  0
VERTEX
  5
12E5
  8
L1
 10
171.74473380957059
 20
203.27658745777549
 30
0.0
  0
VERTEX
  5
12E6
  8
L1
 10
171.7985943700923
 20
203.10369956529991
 30
0.0
  0
VERTEX
  5
12E7
  8
L1
 10
171.83122783093259
 20
202.9255674920384
 30
0.0
  0
VERTEX
  5
12E8
  8
L1
 10
171.84215873733291
 20
202.74478654170011
 30
0.0
  0
SEQEND
  5
12E9
  8
L1
  0
LINE
  5
F6
  8
L1
 10
180.39253165986611
 20
203.8142605968373
 30
0.0
 11
175.62217066965891
 21
199.04389960663019
 31
0.0
  0
ARC
  5
F7
  8
L1
 10
171.04215873733281
 20
202.2442725291634
 30
0.0
 40
3.3000000000000149
 50
0.0000000000005089
 51
48.59010301923432
  0
ARC
  5
F8
  8
L1
 10
180.64215873733281
 20
198.79427252916349
 30
0.0
 40
8.8000000000000114
 50
180.00000000000011
 51
217.28547390059811
  0
ARC
  5
F9
  8
L1
 10
180.64215873733281
 20
198.79427252916349
 30
0.0
 40
5.0261806033722758
 50
177.2685844295726
 51
272.73141557042823
  0
ARC
  5
FA
  8
L1
 10
180.64215873733281
 20
198.79427252916349
 30
0.0
 40
6.3000000000000487
 50
179.99999999999969
 51
270.0
  0
ARC
  5
FB
  8
L1
 10
180.64215873733281
 20
198.79427252916349
 30
0.0
 40
8.8000000000000114
 50
232.71452609940309
 51
270.00000000000028
  0
LINE
  5
FC
  8
L1
 10
173.63171988441471
 20
193.08877645138841
 30
0.0
 11
172.71885390657451
 21
192.00086514274031
 31
0.0
  0
LINE
  5
FD
  8
L1
 10
173.84875135090979
 20
190.87096769840511
 30
0.0
 11
174.93666265955781
 21
191.78383367624519
 31
0.0
  0
POLYLINE
  5
FE
  8
L1
 66
     1
 10
0.0
 20
0.0
 30
0.0
  0
VERTEX
  5
12EA
  8
L1
 10
173.84875135090979
 20
190.870967698405
 30
0.0
  0
VERTEX
  5
12EB
  8
L1
 10
173.77313649238991
 20
190.82463037913041
 30
0.0
  0
VERTEX
  5
12EC
  8
L1
 10
173.68727931270601
 20
190.80242568713649
 30
0.0
  0
VERTEX
  5
12ED
  8
L1
 10
173.59868221204769
 20
190.8062939200903
 30
0.0
  0
VERTEX
  5
12EE
  8
L1
 10
173.51508701127659
 20
190.8358970627929
 30
0.0
  0
VERTEX
  5
12EF
  8
L1
 10
173.44379845360049
 20
190.88864832373511
 30
0.0
  0
SEQEND
  5
12F0
  8
L1
  0
LINE
  5
FF
  8
L1
 10
172.7365345319046
 20
191.59591224543101
 30
0.0
 11
173.44379845360041
 21
190.88864832373511
 31
0.0
  0
POLYLINE
  5
100
  8
L1
 66
     1
 10
0.0
 20
0.0
 30
0.0
  0
VERTEX
  5
12F1
  8
L1
 10
172.7365345319046
 20
191.59591224543101
 30
0.0
  0
VERTEX
  5
12F2
  8
L1
 10
172.68378327096241
 20
191.66720080310711
 30
0.0
  0
VERTEX
  5
12F3
  8
L1
 10
172.65418012825981
 20
191.75079600387821
 30
0.0
  0
VERTEX
  5
12F4
  8
L1
 10
172.65031189530609
 20
191.8393931045365
 30
0.0
  0
VERTEX
  5
12F5
  8
L1
 10
172.6725165872999
 20
191.92525028422051
 30
0.0
  0
VERTEX
  5
12F6
  8
L1
 10
172.71885390657451
 20
192.00086514274031
 30
0.0
  0
SEQEND
  5
12F7
  8
L1
  0
POLYLINE
  5
101
  8
L1
 66
     1
 10
0.0
 20
0.0
 30
0.0
  0
VERTEX
  5
12F8
  8
L1
 10
173.6406403411614
 20
193.46334951827009
 30
0.0
  0
VERTEX
  5
12F9
  8
L1
 10
173.65358602516949
 20
193.44495443643871
 30
0.0
  0
VERTEX
  5
12FA
  8
L1
 10
173.665141620208
 20
193.4255949093683
 30
0.0
  0
VERTEX
  5
12FB
  8
L1
 10
173.67757712765791
 20
193.40005775469911
 30
0.0
  0
VERTEX
  5
12FC
  8
L1
 10
173.6875216326552
 20
193.37351859243651
 30
0.0
  0
VERTEX
  5
12FD
  8
L1
 10
173.6949167566853
 20
193.34615923538809
 30
0.0
  0
VERTEX
  5
12FE
  8
L1
 10
173.69970412123391
 20
193.3181614963614
 30
0.0
  0
VERTEX
  5
12FF
  8
L1
 10
173.7018456904583
 20
193.28889861554259
 30
0.0
  0
VERTEX
  5
1300
  8
L1
 10
173.70112320432921
 20
193.25963549445581
 30
0.0
  0
VERTEX
  5
1301
  8
L1
 10
173.6975523669372
 20
193.23058198609181
 30
0.0
  0
VERTEX
  5
1302
  8
L1
 10
173.69114888237289
 20
193.20194794344161
 30
0.0
  0
VERTEX
  5
1303
  8
L1
 10
173.6818449804797
 20
193.1737273237604
 30
0.0
  0
VERTEX
  5
1304
  8
L1
 10
173.6698279487286
 20
193.14662919977891
 30
0.0
  0
VERTEX
  5
1305
  8
L1
 10
173.65519636009111
 20
193.12084860402371
 30
0.0
  0
VERTEX
  5
1306
  8
L1
 10
173.63804878753919
 20
193.09658056902131
 30
0.0
  0
VERTEX
  5
1307
  8
L1
 10
173.63171988441471
 20
193.08877645138841
 30
0.0
  0
SEQEND
  5
1308
  8
L1
  0
POLYLINE
  5
102
  8
L1
 66
     1
 10
0.0
 20
0.0
 30
0.0
  0
VERTEX
  5
1309
  8
L1
 10
174.93666265955781
 20
191.78383367624519
 30
0.0
  0
VERTEX
  5
130A
  8
L1
 10
174.968056467531
 20
191.80687831173839
 30
0.0
  0
VERTEX
  5
130B
  8
L1
 10
175.00222977109169
 20
191.82569234594001
 30
0.0
  0
VERTEX
  5
130C
  8
L1
 10
175.02371930720051
 20
191.83476164226019
 30
0.0
  0
VERTEX
  5
130D
  8
L1
 10
175.04581477817851
 20
191.84212472419941
 30
0.0
  0
VERTEX
  5
130E
  8
L1
 10
175.06841471960271
 20
191.84775195674479
 30
0.0
  0
VERTEX
  5
130F
  8
L1
 10
175.09141766705059
 20
191.8516137048835
 30
0.0
  0
VERTEX
  5
1310
  8
L1
 10
175.11314409118211
 20
191.8535980003434
 30
0.0
  0
VERTEX
  5
1311
  8
L1
 10
175.13492860653889
 20
191.8539985600778
 30
0.0
  0
VERTEX
  5
1312
  8
L1
 10
175.15668470971809
 20
191.85281683702129
 30
0.0
  0
VERTEX
  5
1313
  8
L1
 10
175.17832589731699
 20
191.8500542841085
 30
0.0
  0
VERTEX
  5
1314
  8
L1
 10
175.20157725699599
 20
191.84527011241909
 30
0.0
  0
VERTEX
  5
1315
  8
L1
 10
175.22434240020391
 20
191.83867371565501
 30
0.0
  0
VERTEX
  5
1316
  8
L1
 10
175.24651555371659
 20
191.83030026467441
 30
0.0
  0
VERTEX
  5
1317
  8
L1
 10
175.26799094431021
 20
191.82018493033539
 30
0.0
  0
VERTEX
  5
1318
  8
L1
 10
175.290225161016
 20
191.80737829302319
 30
0.0
  0
VERTEX
  5
1319
  8
L1
 10
175.31123572643961
 20
191.79275413299189
 30
0.0
  0
SEQEND
  5
131A
  8
L1
  0
LINE
  5
103
  8
L1
 10
180.64215873733281
 20
189.99427252916351
 30
0.0
 11
184.6028343675886
 21
189.99427252916351
 31
0.0
  0
LINE
  5
104
  8
L1
 10
183.14215873733281
 20
192.49427252916351
 30
0.0
 11
184.10232035505209
 21
192.49427252916351
 31
0.0
  0
LINE
  5
105
  8
L1
 10
180.88167705174411
 20
193.7738021891677
 30
0.0
 11
180.89178581479959
 21
193.7742844614896
 31
0.0
  0
LINE
  5
106
  8
L1
 10
180.64215873733281
 20
192.49427252916351
 30
0.0
 11
183.14215873733281
 21
192.49427252916351
 31
0.0
  0
LINE
  5
107
  8
L1
 10
171.84215873733291
 20
202.74478654170011
 30
0.0
 11
171.84215873733291
 21
198.79427252916349
 31
0.0
  0
LINE
  5
108
  8
L1
 10
174.34215873733291
 20
202.24427252916351
 30
0.0
 11
174.34215873733291
 21
201.29427252916349
 31
0.0
  0
LINE
  5
109
  8
L1
 10
175.62217066965891
 20
199.04389960663019
 30
0.0
 11
175.62168839733701
 21
199.03379084357459
 31
0.0
  0
LINE
  5
10A
  8
L1
 10
174.34215873733291
 20
201.29427252916349
 30
0.0
 11
174.34215873733291
 21
198.79427252916349
 31
0.0
  0
LINE
  5
10B
  8
L1
 10
173.42332196467231
 20
205.24427252916351
 30
0.0
 11
184.50232035505201
 21
205.24427252916351
 31
0.0
  0
ARC
  5
10C
  8
L1
 10
171.04215873733281
 20
202.2442725291634
 30
0.0
 40
3.3000000000000149
 50
48.59010301923432
 51
90.0
  0
POLYLINE
  5
10D
  8
L1
 66
     1
 10
0.0
 20
0.0
 30
0.0
  0
VERTEX
  5
131B
  8
L1
 10
173.22491544253219
 20
204.71926205760741
 30
0.0
  0
VERTEX
  5
131C
  8
L1
 10
173.2050667552727
 20
204.7384615380559
 30
0.0
  0
VERTEX
  5
131D
  8
L1
 10
173.1871022547214
 20
204.75935984493859
 30
0.0
  0
VERTEX
  5
131E
  8
L1
 10
173.17113034007721
 20
204.78181894355521
 30
0.0
  0
VERTEX
  5
131F
  8
L1
 10
173.15725941053799
 20
204.80570079920511
 30
0.0
  0
VERTEX
  5
1320
  8
L1
 10
173.14532450207881
 20
204.83153975689811
 30
0.0
  0
VERTEX
  5
1321
  8
L1
 10
173.13590978502091
 20
204.8583328337306
 30
0.0
  0
VERTEX
  5
1322
  8
L1
 10
173.1290703541012
 20
204.885895979743
 30
0.0
  0
VERTEX
  5
1323
  8
L1
 10
173.12486130405651
 20
204.91404514497589
 30
0.0
  0
VERTEX
  5
1324
  8
L1
 10
173.12333452012339
 20
204.94341015544649
 30
0.0
  0
VERTEX
  5
1325
  8
L1
 10
173.1246831740134
 20
204.97271426156851
 30
0.0
  0
VERTEX
  5
1326
  8
L1
 10
173.12888725538841
 20
205.00174655260881
 30
0.0
  0
VERTEX
  5
1327
  8
L1
 10
173.13592675391001
 20
205.0302961178341
 30
0.0
  0
VERTEX
  5
1328
  8
L1
 10
173.14583919276581
 20
205.0582913308927
 30
0.0
  0
VERTEX
  5
1329
  8
L1
 10
173.15843752294799
 20
205.08510586945829
 30
0.0
  0
VERTEX
  5
132A
  8
L1
 10
173.17361930909831
 20
205.11054698054559
 30
0.0
  0
VERTEX
  5
132B
  8
L1
 10
173.1912821158582
 20
205.13442191116999
 30
0.0
  0
VERTEX
  5
132C
  8
L1
 10
173.21071163375171
 20
205.15592454160259
 30
0.0
  0
VERTEX
  5
132D
  8
L1
 10
173.23207403618471
 20
205.17540939649041
 30
0.0
  0
VERTEX
  5
132E
  8
L1
 10
173.2552130368274
 20
205.19274718307699
 30
0.0
  0
VERTEX
  5
132F
  8
L1
 10
173.27997234934989
 20
205.20780860860631
 30
0.0
  0
VERTEX
  5
1330
  8
L1
 10
173.30144845779279
 20
205.21840244063091
 30
0.0
  0
VERTEX
  5
1331
  8
L1
 10
173.32366548938489
 20
205.22723697208011
 30
0.0
  0
VERTEX
  5
1332
  8
L1
 10
173.3465154999308
 20
205.234274221151
 30
0.0
  0
VERTEX
  5
1333
  8
L1
 10
173.36989054523551
 20
205.23947620604039
 30
0.0
  0
VERTEX
  5
1334
  8
L1
 10
173.3965128029372
 20
205.24307230455949
 30
0.0
  0
VERTEX
  5
1335
  8
L1
 10
173.42332196467231
 20
205.24427252916351
 30
0.0
  0
SEQEND
  5
1336
  8
L1
  0
LINE
  5
10E
  8
L1
 10
180.40264042292171
 20
203.8147428691592
 30
0.0
 11
180.39253165986611
 21
203.8142605968373
 31
0.0
  0
LINE
  5
10F
  8
L1
 10
187.10232035505209
 20
202.64427252916349
 30
0.0
 11
187.10232035505209
 21
191.5754357565028
 31
0.0
  0
ARC
  5
110
  8
L1
 10
184.10232035505209
 20
189.1942725291635
 30
0.0
 40
3.2999999999999439
 50
0.0
 51
41.409896980765069
  0
POLYLINE
  5
111
  8
L1
 66
     1
 10
0.0
 20
0.0
 30
0.0
  0
VERTEX
  5
1337
  8
L1
 10
187.10232035505209
 20
191.57543575650291
 30
0.0
  0
VERTEX
  5
1338
  8
L1
 10
187.10224873285549
 20
191.56888055413069
 30
0.0
  0
VERTEX
  5
1339
  8
L1
 10
187.1001259544598
 20
191.5392162300808
 30
0.0
  0
VERTEX
  5
133A
  8
L1
 10
187.09509226349459
 20
191.50997812413129
 30
0.0
  0
VERTEX
  5
133B
  8
L1
 10
187.08719541936631
 20
191.48138016294411
 30
0.0
  0
VERTEX
  5
133C
  8
L1
 10
187.07648318147969
 20
191.45363627318119
 30
0.0
  0
VERTEX
  5
133D
  8
L1
 10
187.06310508540901
 20
191.42713990725261
 30
0.0
  0
VERTEX
  5
133E
  8
L1
 10
187.04721532983561
 20
191.40215381757559
 30
0.0
  0
VERTEX
  5
133F
  8
L1
 10
187.02893976616221
 20
191.37885591744461
 30
0.0
  0
VERTEX
  5
1340
  8
L1
 10
187.00840424579189
 20
191.35742412015429
 30
0.0
  0
VERTEX
  5
1341
  8
L1
 10
186.9882501227263
 20
191.34000152607001
 30
0.0
  0
VERTEX
  5
1342
  8
L1
 10
186.96667314150329
 20
191.3244642292014
 30
0.0
  0
VERTEX
  5
1343
  8
L1
 10
186.94380513128061
 20
191.31089853515081
 30
0.0
  0
VERTEX
  5
1344
  8
L1
 10
186.91977792121509
 20
191.29939074952091
 30
0.0
  0
VERTEX
  5
1345
  8
L1
 10
186.89829533964561
 20
191.2912083852093
 30
0.0
  0
VERTEX
  5
1346
  8
L1
 10
186.8762816988876
 20
191.28470331053799
 30
0.0
  0
VERTEX
  5
1347
  8
L1
 10
186.85383511239499
 20
191.2799004513578
 30
0.0
  0
VERTEX
  5
1348
  8
L1
 10
186.8310536936211
 20
191.27682473351939
 30
0.0
  0
VERTEX
  5
1349
  8
L1
 10
186.8096947736332
 20
191.2755372753025
 30
0.0
  0
VERTEX
  5
134A
  8
L1
 10
186.78832538660561
 20
191.27577427039739
 30
0.0
  0
VERTEX
  5
134B
  8
L1
 10
186.76702707775021
 20
191.2775318794917
 30
0.0
  0
VERTEX
  5
134C
  8
L1
 10
186.74588139227899
 20
191.28080626327321
 30
0.0
  0
VERTEX
  5
134D
  8
L1
 10
186.72242562411489
 20
191.28628467320209
 30
0.0
  0
VERTEX
  5
134E
  8
L1
 10
186.69952100777269
 20
191.2936138348164
 30
0.0
  0
VERTEX
  5
134F
  8
L1
 10
186.6772769240898
 20
191.3027538142851
 30
0.0
  0
VERTEX
  5
1350
  8
L1
 10
186.6558027539038
 20
191.3136646777773
 30
0.0
  0
VERTEX
  5
1351
  8
L1
 10
186.6342005815068
 20
191.3269852061859
 30
0.0
  0
VERTEX
  5
1352
  8
L1
 10
186.61384893174031
 20
191.34204526444111
 30
0.0
  0
VERTEX
  5
1353
  8
L1
 10
186.5948509754538
 20
191.35875616851081
 30
0.0
  0
VERTEX
  5
1354
  8
L1
 10
186.57730988349601
 20
191.37702923436279
 30
0.0
  0
SEQEND
  5
1355
  8
L1
  0
LINE
  5
112
  8
L1
 10
185.6621468050067
 20
198.54464545169671
 30
0.0
 11
185.66262907732869
 21
198.55475421475231
 31
0.0
  0
POLYLINE
  5
113
  8
L1
 66
     1
 10
0.0
 20
0.0
 30
0.0
  0
VERTEX
  5
1356
  8
L1
 10
185.44015873733281
 20
207.04398767320041
 30
0.0
  0
VERTEX
  5
1357
  8
L1
 10
185.60556269512111
 20
207.03794889306229
 30
0.0
  0
VERTEX
  5
1358
  8
L1
 10
185.77287824610821
 20
207.0238801535555
 30
0.0
  0
VERTEX
  5
1359
  8
L1
 10
185.9412905415293
 20
207.00158141982911
 30
0.0
  0
VERTEX
  5
135A
  8
L1
 10
186.10998473261941
 20
206.97085265703251
 30
0.0
  0
VERTEX
  5
135B
  8
L1
 10
186.27815854684229
 20
206.93155441274931
 30
0.0
  0
VERTEX
  5
135C
  8
L1
 10
186.44505717381361
 20
206.8837758614726
 30
0.0
  0
VERTEX
  5
135D
  8
L1
 10
186.60993695799411
 20
206.82765990871721
 30
0.0
  0
VERTEX
  5
135E
  8
L1
 10
186.7720542438457
 20
206.7633494599973
 30
0.0
  0
VERTEX
  5
135F
  8
L1
 10
186.9307491298631
 20
206.69100905840961
 30
0.0
  0
VERTEX
  5
1360
  8
L1
 10
187.08544436713359
 20
206.6109974739098
 30
0.0
  0
VERTEX
  5
1361
  8
L1
 10
187.2355202790059
 20
206.52374895230199
 30
0.0
  0
VERTEX
  5
1362
  8
L1
 10
187.38035718882901
 20
206.4296977393897
 30
0.0
  0
VERTEX
  5
1363
  8
L1
 10
187.51936644122159
 20
206.32932336262189
 30
0.0
  0
VERTEX
  5
1364
  8
L1
 10
187.6520915787419
 20
206.22329830753671
 30
0.0
  0
VERTEX
  5
1365
  8
L1
 10
187.77811122164789
 20
206.11234625707201
 30
0.0
  0
VERTEX
  5
1366
  8
L1
 10
187.89700399019711
 20
205.9971908941659
 30
0.0
  0
VERTEX
  5
1367
  8
L1
 10
188.00950722884309
 20
205.87735689322079
 30
0.0
  0
VERTEX
  5
1368
  8
L1
 10
188.11777501255821
 20
205.7505323753534
 30
0.0
  0
VERTEX
  5
1369
  8
L1
 10
188.2210920623356
 20
205.6171435543919
 30
0.0
  0
VERTEX
  5
136A
  8
L1
 10
188.31874309916901
 20
205.4776166441649
 30
0.0
  0
VERTEX
  5
136B
  8
L1
 10
188.41006400311389
 20
205.332411829411
 30
0.0
  0
VERTEX
  5
136C
  8
L1
 10
188.49458403368399
 20
205.182117699739
 30
0.0
  0
VERTEX
  5
136D
  8
L1
 10
188.5718779810579
 20
205.02735307628271
 30
0.0
  0
VERTEX
  5
136E
  8
L1
 10
188.64152063541499
 20
204.86873678017579
 30
0.0
  0
VERTEX
  5
136F
  8
L1
 10
188.70316114172459
 20
204.7068446170274
 30
0.0
  0
VERTEX
  5
1370
  8
L1
 10
188.7566430602852
 20
204.5423320736071
 30
0.0
  0
VERTEX
  5
1371
  8
L1
 10
188.8018328042694
 20
204.37593749278861
 30
0.0
  0
VERTEX
  5
1372
  8
L1
 10
188.8385967868488
 20
204.2083992174459
 30
0.0
  0
VERTEX
  5
1373
  8
L1
 10
188.86678159578341
 20
204.04098069379
 30
0.0
  0
VERTEX
  5
1374
  8
L1
 10
188.8866596694202
 20
203.8739552422596
 30
0.0
  0
VERTEX
  5
1375
  8
L1
 10
188.8984371866303
 20
203.7081201062517
 30
0.0
  0
VERTEX
  5
1376
  8
L1
 10
188.90232032628501
 20
203.54427252916349
 30
0.0
  0
SEQEND
  5
1377
  8
L1
  0
POLYLINE
  5
114
  8
L1
 66
     1
 10
0.0
 20
0.0
 30
0.0
  0
VERTEX
  5
1378
  8
L1
 10
188.90232032628501
 20
203.54427252916349
 30
0.0
  0
VERTEX
  5
1379
  8
L1
 10
188.90232035505201
 20
203.54227252916351
 30
0.0
  0
SEQEND
  5
137A
  8
L1
  0
ARC
  5
115
  8
L1
 10
185.44015873733281
 20
203.54227252916351
 30
0.0
 40
2.7019999999999542
 50
0.0000000000006395
 51
90.000000000001194
  0
POLYLINE
  5
116
  8
L1
 66
     1
 10
0.0
 20
0.0
 30
0.0
  0
VERTEX
  5
137B
  8
L1
 10
185.3954293029137
 20
207.04427252916349
 30
0.0
  0
VERTEX
  5
137C
  8
L1
 10
185.4177907429079
 20
207.0442013144482
 30
0.0
  0
VERTEX
  5
137D
  8
L1
 10
185.44015873733281
 20
207.04398767320041
 30
0.0
  0
SEQEND
  5
137E
  8
L1
  0
LINE
  5
117
  8
L2
 10
258.54558791421078
 20
189.99427252916351
 30
0.0
 11
235.13249944005679
 21
189.36808626990231
 31
0.0
  0
LINE
  5
11A
  8
L1
 10
232.5455879142107
 20
207.04427252916349
 30
0.0
 11
257.74558791421072
 21
207.04427252916349
 31
0.0
  0
ARC
  5
11F
  8
L2
 10
235.14558791421069
 20
188.86825760741451
 30
0.0
 40
0.5
 50
91.499999999999503
 51
180.0
  0
LINE
  5
128
  8
L1
 10
231.94558791421071
 20
206.44427252916341
 30
0.0
 11
232.5455879142107
 21
207.04427252916349
 31
0.0
  0
LINE
  5
12B
  8
L1
 10
258.54558791421078
 20
206.24427252916351
 30
0.0
 11
258.54558791421078
 21
77.844272529163533
 31
0.0
  0
LINE
  5
130
  8
L1
 10
257.74558791421072
 20
207.04427252916349
 30
0.0
 11
258.54558791421078
 21
206.24427252916351
 31
0.0
  0
LINE
  5
131
  8
L1
 10
324.3379040886266
 20
189.04427252916349
 30
0.0
 11
324.3379040886266
 21
95.044272529163521
 31
0.0
  0
LINE
  5
132
  8
L1
 10
311.59358460811751
 20
85.532543229434864
 30
0.0
 11
316.34963338835507
 21
90.28859200967247
 31
0.0
  0
ARC
  5
133
  8
L1
 10
316.5879040886266
 20
85.294272529163464
 30
0.0
 40
5.0
 50
357.2685844295716
 51
92.731415570428325
  0
ARC
  5
134
  8
L1
 10
326.33790408862649
 20
95.044272529163464
 30
0.0
 40
1.9999999999999989
 50
180.0
 51
270.0
  0
LINE
  5
135
  8
L1
 10
311.83463352304568
 20
207.04427252916349
 30
0.0
 11
313.15530342026591
 21
207.04427252916349
 31
0.0
  0
ARC
  5
136
  8
L1
 10
313.18395101755539
 20
203.54227252916351
 30
0.0
 40
2.902000000000057
 50
90.000000000001108
 51
180.0
  0
LINE
  5
137
  8
L1
 10
311.59358460811751
 20
198.55600182889211
 30
0.0
 11
316.34963338835507
 21
193.79995304865449
 31
0.0
  0
ARC
  5
138
  8
L1
 10
316.5879040886266
 20
198.79427252916349
 30
0.0
 40
5.0
 50
87.268584429571689
 51
182.73141557042729
  0
CIRCLE
  5
139
  8
L1
 10
316.5879040886266
 20
198.79427252916349
 30
0.0
 40
5.9982622421189946
  0
CIRCLE
  5
13A
  8
L1
 10
316.5879040886266
 20
198.79427252916349
 30
0.0
 40
5.7982698575061704
  0
POLYLINE
  5
13B
  8
L1
 66
     1
 10
0.0
 20
0.0
 30
0.0
  0
VERTEX
  5
137F
  8
L1
 10
311.78990408862649
 20
207.04398767320041
 30
0.0
  0
VERTEX
  5
1380
  8
L1
 10
311.8122720830516
 20
207.04420131444809
 30
0.0
  0
VERTEX
  5
1381
  8
L1
 10
311.83463352304568
 20
207.04427252916349
 30
0.0
  0
SEQEND
  5
1382
  8
L1
  0
POLYLINE
  5
13C
  8
L1
 66
     1
 10
0.0
 20
0.0
 30
0.0
  0
VERTEX
  5
1383
  8
L1
 10
308.3277424996744
 20
203.54427252916349
 30
0.0
  0
VERTEX
  5
1384
  8
L1
 10
308.33162563932899
 20
203.70812010625181
 30
0.0
  0
VERTEX
  5
1385
  8
L1
 10
308.34340315653918
 20
203.87395524225971
 30
0.0
  0
VERTEX
  5
1386
  8
L1
 10
308.36328123017591
 20
204.0409806937902
 30
0.0
  0
VERTEX
  5
1387
  8
L1
 10
308.3914660391107
 20
204.20839921744599
 30
0.0
  0
VERTEX
  5
1388
  8
L1
 10
308.42823002169013
 20
204.37593749278861
 30
0.0
  0
VERTEX
  5
1389
  8
L1
 10
308.47341976567418
 20
204.5423320736071
 30
0.0
  0
VERTEX
  5
138A
  8
L1
 10
308.52690168423487
 20
204.7068446170274
 30
0.0
  0
VERTEX
  5
138B
  8
L1
 10
308.5885421905445
 20
204.86873678017579
 30
0.0
  0
VERTEX
  5
138C
  8
L1
 10
308.65818484490143
 20
205.02735307628271
 30
0.0
  0
VERTEX
  5
138D
  8
L1
 10
308.73547879227539
 20
205.18211769973911
 30
0.0
  0
VERTEX
  5
138E
  8
L1
 10
308.81999882284549
 20
205.33241182941089
 30
0.0
  0
VERTEX
  5
138F
  8
L1
 10
308.91131972679051
 20
205.4776166441649
 30
0.0
  0
VERTEX
  5
1390
  8
L1
 10
309.00897076362372
 20
205.6171435543919
 30
0.0
  0
VERTEX
  5
1391
  8
L1
 10
309.11228781340122
 20
205.75053237535349
 30
0.0
  0
VERTEX
  5
1392
  8
L1
 10
309.2205555971164
 20
205.87735689322091
 30
0.0
  0
VERTEX
  5
1393
  8
L1
 10
309.33305883576247
 20
205.99719089416601
 30
0.0
  0
VERTEX
  5
1394
  8
L1
 10
309.45195160431172
 20
206.11234625707209
 30
0.0
  0
VERTEX
  5
1395
  8
L1
 10
309.57797124721742
 20
206.22329830753679
 30
0.0
  0
VERTEX
  5
1396
  8
L1
 10
309.71069638473779
 20
206.32932336262201
 30
0.0
  0
VERTEX
  5
1397
  8
L1
 10
309.8497056371304
 20
206.42969773938981
 30
0.0
  0
VERTEX
  5
1398
  8
L1
 10
309.99454254695348
 20
206.52374895230199
 30
0.0
  0
VERTEX
  5
1399
  8
L1
 10
310.14461845882579
 20
206.61099747390989
 30
0.0
  0
VERTEX
  5
139A
  8
L1
 10
310.29931369609619
 20
206.69100905840961
 30
0.0
  0
VERTEX
  5
139B
  8
L1
 10
310.45800858211379
 20
206.76334945999739
 30
0.0
  0
VERTEX
  5
139C
  8
L1
 10
310.62012586796533
 20
206.82765990871721
 30
0.0
  0
VERTEX
  5
139D
  8
L1
 10
310.78500565214603
 20
206.8837758614726
 30
0.0
  0
VERTEX
  5
139E
  8
L1
 10
310.951904279117
 20
206.93155441274931
 30
0.0
  0
VERTEX
  5
139F
  8
L1
 10
311.12007809334
 20
206.97085265703251
 30
0.0
  0
VERTEX
  5
13A0
  8
L1
 10
311.28877228443008
 20
207.00158141982911
 30
0.0
  0
VERTEX
  5
13A1
  8
L1
 10
311.45718457985112
 20
207.0238801535555
 30
0.0
  0
VERTEX
  5
13A2
  8
L1
 10
311.62450013083833
 20
207.03794889306229
 30
0.0
  0
VERTEX
  5
13A3
  8
L1
 10
311.78990408862649
 20
207.04398767320041
 30
0.0
  0
SEQEND
  5
13A4
  8
L1
  0
POLYLINE
  5
13D
  8
L1
 66
     1
 10
0.0
 20
0.0
 30
0.0
  0
VERTEX
  5
13A5
  8
L1
 10
308.32774247090742
 20
203.5422725291634
 30
0.0
  0
VERTEX
  5
13A6
  8
L1
 10
308.3277424996744
 20
203.54427252916349
 30
0.0
  0
SEQEND
  5
13A7
  8
L1
  0
LINE
  5
13E
  8
L1
 10
321.58222356913558
 20
199.03254322943491
 30
0.0
 11
316.82617478889802
 21
203.7885920096725
 31
0.0
  0
ARC
  5
13F
  8
L1
 10
316.5879040886266
 20
198.79427252916349
 30
0.0
 40
5.0
 50
267.2685844295716
 51
2.7314155704283141
  0
ARC
  5
140
  8
L1
 10
326.33790408862649
 20
189.04427252916349
 30
0.0
 40
1.9999999999999989
 50
90.0
 51
180.0
  0
POLYLINE
  5
141
  8
L1
 66
     1
 10
0.0
 20
0.0
 30
0.0
  0
VERTEX
  5
13A8
  8
L1
 10
313.18395101755539
 20
207.04427252916349
 30
0.0
  0
VERTEX
  5
13A9
  8
L1
 10
313.15530342026591
 20
207.04427252916349
 30
0.0
  0
SEQEND
  5
13AA
  8
L1
  0
LINE
  5
145
  8
L1
 10
309.6487672318176
 20
274.20896091977841
 30
0.0
 11
308.3277424996744
 21
249.00230743788359
 31
0.0
  0
LINE
  5
146
  8
L2
 10
325.38790408862661
 20
248.2421452712577
 30
0.0
 11
326.001073915836
 21
271.65815625980628
 31
0.0
  0
LINE
  5
14C
  8
L1
 10
309.0879040886266
 20
248.2421452712577
 30
0.0
 11
308.32774247090742
 21
249.00230688897679
 31
0.0
  0
POLYLINE
  5
14D
  8
L1
 66
     1
 10
0.0
 20
0.0
 30
0.0
  0
VERTEX
  5
13AB
  8
L1
 10
308.32774247090742
 20
249.00230688897679
 30
0.0
  0
VERTEX
  5
13AC
  8
L1
 10
308.3277424996744
 20
249.0023074378837
 30
0.0
  0
SEQEND
  5
13AD
  8
L1
  0
POLYLINE
  5
14E
  8
L1
 66
     1
 10
0.0
 20
0.0
 30
0.0
  0
VERTEX
  5
13AE
  8
L1
 10
308.3277424996744
 20
249.0023074378837
 30
0.0
  0
VERTEX
  5
13AF
  8
L1
 10
308.32774247090742
 20
249.00230688897679
 30
0.0
  0
SEQEND
  5
13B0
  8
L1
  0
LINE
  5
14F
  8
L2
 10
311.02774247090741
 20
248.2421452712577
 30
0.0
 11
310.88994320697918
 21
247.460646810985
 31
0.0
  0
LINE
  5
150
  8
L1
 10
309.96554173483548
 20
247.46064681098491
 30
0.0
 11
309.82829897925552
 21
248.2389891555799
 31
0.0
  0
ARC
  5
151
  8
L2
 10
310.42774247090728
 20
247.54214527125771
 30
0.0
 40
0.4693309274404737
 50
270.0
 51
350.00000000000188
  0
ARC
  5
152
  8
L1
 10
310.42774247090728
 20
247.54214527125771
 30
0.0
 40
0.4693309274404737
 50
190.00000000000151
 51
270.0
  0
POLYLINE
  5
158
  8
L1
 66
     1
 10
0.0
 20
0.0
 30
0.0
  0
VERTEX
  5
13B1
  8
L1
 10
313.1553034202658
 20
274.24202809948429
 30
0.0
  0
VERTEX
  5
13B2
  8
L1
 10
312.9953186908013
 20
274.24070842669869
 30
0.0
  0
VERTEX
  5
13B3
  8
L1
 10
312.8335376102217
 20
274.23935187155399
 30
0.0
  0
VERTEX
  5
13B4
  8
L1
 10
312.67067923221339
 20
274.23796398875402
 30
0.0
  0
VERTEX
  5
13B5
  8
L1
 10
312.50746261046288
 20
274.23655033300281
 30
0.0
  0
VERTEX
  5
13B6
  8
L1
 10
312.33726193951622
 20
274.23505154094158
 30
0.0
  0
VERTEX
  5
13B7
  8
L1
 10
312.16820946604292
 20
274.23353834392032
 30
0.0
  0
VERTEX
  5
13B8
  8
L1
 10
312.00106061269082
 20
274.2320184536942
 30
0.0
  0
VERTEX
  5
13B9
  8
L1
 10
311.83657080210781
 20
274.23049958201869
 30
0.0
  0
VERTEX
  5
13BA
  8
L1
 10
311.67541053130873
 20
274.22898900304898
 30
0.0
  0
VERTEX
  5
13BB
  8
L1
 10
311.51817018315069
 20
274.22749428455148
 30
0.0
  0
VERTEX
  5
13BC
  8
L1
 10
311.36548500904502
 20
274.22602357869891
 30
0.0
  0
VERTEX
  5
13BD
  8
L1
 10
311.21799026040247
 20
274.22458503766342
 30
0.0
  0
VERTEX
  5
13BE
  8
L1
 10
311.07629056138842
 20
274.22318679067212
 30
0.0
  0
VERTEX
  5
13BF
  8
L1
 10
310.94085979384982
 20
274.22183619034899
 30
0.0
  0
VERTEX
  5
13C0
  8
L1
 10
310.81213709572188
 20
274.22054022396338
 30
0.0
  0
VERTEX
  5
13C1
  8
L1
 10
310.69056160493932
 20
274.21930587878359
 30
0.0
  0
VERTEX
  5
13C2
  8
L1
 10
310.57410548585727
 20
274.21811477948859
 30
0.0
  0
VERTEX
  5
13C3
  8
L1
 10
310.46201496025049
 20
274.21696130392792
 30
0.0
  0
VERTEX
  5
13C4
  8
L1
 10
310.35503072664602
 20
274.21585516453911
 30
0.0
  0
VERTEX
  5
13C5
  8
L1
 10
310.25389348357089
 20
274.21480607375992
 30
0.0
  0
VERTEX
  5
13C6
  8
L1
 10
310.15929126282469
 20
274.21382339299441
 30
0.0
  0
VERTEX
  5
13C7
  8
L1
 10
310.07171369383559
 20
274.21291451990629
 30
0.0
  0
VERTEX
  5
13C8
  8
L1
 10
309.9916038715736
 20
274.21208622132377
 30
0.0
  0
VERTEX
  5
13C9
  8
L1
 10
309.91940489100909
 20
274.21134526407508
 30
0.0
  0
VERTEX
  5
13CA
  8
L1
 10
309.85548240552919
 20
274.2106975761364
 30
0.0
  0
VERTEX
  5
13CB
  8
L1
 10
309.80000262707148
 20
274.21014637672022
 30
0.0
  0
VERTEX
  5
13CC
  8
L1
 10
309.75310948843179
 20
274.20969436950833
 30
0.0
  0
VERTEX
  5
13CD
  8
L1
 10
309.71494692240611
 20
274.20934425818302
 30
0.0
  0
VERTEX
  5
13CE
  8
L1
 10
309.68567846329478
 20
274.20909852989638
 30
0.0
  0
VERTEX
  5
13CF
  8
L1
 10
309.66503056314798
 20
274.20895440335352
 30
0.0
  0
VERTEX
  5
13D0
  8
L1
 10
309.65279591998308
 20
274.20890936962422
 30
0.0
  0
VERTEX
  5
13D1
  8
L1
 10
309.6487672318176
 20
274.20896091977852
 30
0.0
  0
SEQEND
  5
13D2
  8
L1
  0
LINE
  5
161
  8
L1
 10
310.28195101755551
 20
274.84214527125772
 30
0.0
 11
309.64876726310661
 21
274.20896151680893
 31
0.0
  0
LINE
  5
174
  8
L2
 10
324.33790408862649
 20
274.84214527125772
 30
0.0
 11
324.33790408862649
 21
274.8387575162148
 31
0.0
  0
LINE
  5
175
  8
L2
 10
324.33790408862649
 20
274.8387575162148
 30
0.0
 11
324.33790408862649
 21
274.54214527125771
 31
0.0
  0
LINE
  5
179
  8
L6
 10
398.3379040886266
 20
282.84214527125772
 30
0.0
 11
398.3379040886266
 21
239.0728143438173
 31
0.0
  0
LINE
  5
17D
  8
L1
 10
475.09358460811751
 20
85.05600182889205
 30
0.0
 11
479.84963338835507
 21
80.299953048654416
 31
0.0
  0
ARC
  5
17E
  8
L1
 10
480.0879040886266
 20
85.294272529163464
 30
0.0
 40
5.0
 50
267.2685844295716
 51
2.7314155704273482
  0
CIRCLE
  5
17F
  8
L1
 10
480.0879040886266
 20
85.294272529163464
 30
0.0
 40
5.9982622421189946
  0
CIRCLE
  5
180
  8
L1
 10
480.0879040886266
 20
85.294272529163464
 30
0.0
 40
5.7982698575061704
  0
LINE
  5
182
  8
L1
 10
488.34806570634572
 20
80.546272529163488
 30
0.0
 11
488.34806570634572
 21
203.54227252916351
 31
0.0
  0
LINE
  5
183
  8
L1
 10
486.39385715969769
 20
80.546272529163517
 30
0.0
 11
486.39385715969769
 21
203.54227252916351
 31
0.0
  0
POLYLINE
  5
18A
  8
L1
 66
     1
 10
0.0
 20
0.0
 30
0.0
  0
VERTEX
  5
13D3
  8
L1
 10
484.8859040886266
 20
77.044557385126581
 30
0.0
  0
VERTEX
  5
13D4
  8
L1
 10
484.86353609420161
 20
77.044343743878784
 30
0.0
  0
VERTEX
  5
13D5
  8
L1
 10
484.84117465420741
 20
77.044272529163464
 30
0.0
  0
SEQEND
  5
13D6
  8
L1
  0
POLYLINE
  5
18B
  8
L1
 66
     1
 10
0.0
 20
0.0
 30
0.0
  0
VERTEX
  5
13D7
  8
L1
 10
488.3480656775788
 20
80.544272529163464
 30
0.0
  0
VERTEX
  5
13D8
  8
L1
 10
488.34418253792398
 20
80.380424952075174
 30
0.0
  0
VERTEX
  5
13D9
  8
L1
 10
488.33240502071402
 20
80.214589816067274
 30
0.0
  0
VERTEX
  5
13DA
  8
L1
 10
488.31252694707729
 20
80.047564364536782
 30
0.0
  0
VERTEX
  5
13DB
  8
L1
 10
488.28434213814251
 20
79.880145840880942
 30
0.0
  0
VERTEX
  5
13DC
  8
L1
 10
488.24757815556302
 20
79.71260756553832
 30
0.0
  0
VERTEX
  5
13DD
  8
L1
 10
488.20238841157891
 20
79.546212984719858
 30
0.0
  0
VERTEX
  5
13DE
  8
L1
 10
488.14890649301827
 20
79.3817004412995
 30
0.0
  0
VERTEX
  5
13DF
  8
L1
 10
488.0872659867087
 20
79.219808278151191
 30
0.0
  0
VERTEX
  5
13E0
  8
L1
 10
488.01762333235172
 20
79.061191982044221
 30
0.0
  0
VERTEX
  5
13E1
  8
L1
 10
487.94032938497782
 20
78.906427358587877
 30
0.0
  0
VERTEX
  5
13E2
  8
L1
 10
487.8558093544076
 20
78.756133228916013
 30
0.0
  0
VERTEX
  5
13E3
  8
L1
 10
487.76448845046258
 20
78.610928414162032
 30
0.0
  0
VERTEX
  5
13E4
  8
L1
 10
487.66683741362931
 20
78.471401503935084
 30
0.0
  0
VERTEX
  5
13E5
  8
L1
 10
487.56352036385198
 20
78.338012682973471
 30
0.0
  0
VERTEX
  5
13E6
  8
L1
 10
487.4552525801368
 20
78.211188165106051
 30
0.0
  0
VERTEX
  5
13E7
  8
L1
 10
487.34274934149062
 20
78.091354164160947
 30
0.0
  0
VERTEX
  5
13E8
  8
L1
 10
487.22385657294137
 20
77.976198801254867
 30
0.0
  0
VERTEX
  5
13E9
  8
L1
 10
487.09783693003573
 20
77.865246750790192
 30
0.0
  0
VERTEX
  5
13EA
  8
L1
 10
486.96511179251542
 20
77.759221695704952
 30
0.0
  0
VERTEX
  5
13EB
  8
L1
 10
486.8261025401228
 20
77.65884731893712
 30
0.0
  0
VERTEX
  5
13EC
  8
L1
 10
486.68126563029972
 20
77.564796106024886
 30
0.0
  0
VERTEX
  5
13ED
  8
L1
 10
486.5311897184273
 20
77.477547584417067
 30
0.0
  0
VERTEX
  5
13EE
  8
L1
 10
486.37649448115701
 20
77.397535999917324
 30
0.0
  0
VERTEX
  5
13EF
  8
L1
 10
486.2177995951393
 20
77.325195598329543
 30
0.0
  0
VERTEX
  5
13F0
  8
L1
 10
486.05568230928787
 20
77.26088514960972
 30
0.0
  0
VERTEX
  5
13F1
  8
L1
 10
485.89080252510712
 20
77.204769196854301
 30
0.0
  0
VERTEX
  5
13F2
  8
L1
 10
485.7239038981362
 20
77.156990645577622
 30
0.0
  0
VERTEX
  5
13F3
  8
L1
 10
485.55573008391309
 20
77.117692401294406
 30
0.0
  0
VERTEX
  5
13F4
  8
L1
 10
485.38703589282312
 20
77.086963638497849
 30
0.0
  0
VERTEX
  5
13F5
  8
L1
 10
485.21862359740209
 20
77.06466490477149
 30
0.0
  0
VERTEX
  5
13F6
  8
L1
 10
485.05130804641482
 20
77.050596165264636
 30
0.0
  0
VERTEX
  5
13F7
  8
L1
 10
484.8859040886266
 20
77.044557385126581
 30
0.0
  0
SEQEND
  5
13F8
  8
L1
  0
POLYLINE
  5
18C
  8
L1
 66
     1
 10
0.0
 20
0.0
 30
0.0
  0
VERTEX
  5
13F9
  8
L1
 10
488.34806570634572
 20
80.546272529163517
 30
0.0
  0
VERTEX
  5
13FA
  8
L1
 10
488.3480656775788
 20
80.544272529163464
 30
0.0
  0
SEQEND
  5
13FB
  8
L1
  0
LINE
  5
18D
  8
L1
 10
484.84117465420741
 20
77.044272529163464
 30
0.0
 11
483.52050475698718
 21
77.044272529163464
 31
0.0
  0
ARC
  5
18E
  8
L1
 10
483.49185715969759
 20
80.546272529163474
 30
0.0
 40
2.902000000000057
 50
270.00000000000108
 51
0.0
  0
POLYLINE
  5
18F
  8
L1
 66
     1
 10
0.0
 20
0.0
 30
0.0
  0
VERTEX
  5
13FC
  8
L1
 10
483.4918571596977
 20
77.044272529163464
 30
0.0
  0
VERTEX
  5
13FD
  8
L1
 10
483.52050475698718
 20
77.044272529163464
 30
0.0
  0
SEQEND
  5
13FE
  8
L1
  0
LINE
  5
194
  8
L1
 10
472.33790408862649
 20
189.04427252916349
 30
0.0
 11
472.33790408862649
 21
95.044272529163521
 31
0.0
  0
ARC
  5
195
  8
L1
 10
470.33790408862649
 20
95.044272529163464
 30
0.0
 40
1.9999999999999989
 50
270.0
 51
0.0
  0
LINE
  5
196
  8
L1
 10
485.08222356913558
 20
85.532543229434864
 30
0.0
 11
480.32617478889802
 21
90.28859200967247
 31
0.0
  0
ARC
  5
197
  8
L1
 10
480.0879040886266
 20
85.294272529163464
 30
0.0
 40
5.0
 50
87.268584429571689
 51
182.7314155704282
  0
ARC
  5
198
  8
L1
 10
470.33790408862649
 20
189.04427252916349
 30
0.0
 40
1.9999999999999989
 50
0.0
 51
90.0
  0
ARC
  5
199
  8
L1
 10
480.0879040886266
 20
198.79427252916349
 30
0.0
 40
5.0
 50
357.26858442957263
 51
92.731415570428325
  0
LINE
  5
19A
  8
L1
 10
475.09358460811751
 20
199.03254322943491
 30
0.0
 11
479.84963338835507
 21
203.7885920096725
 31
0.0
  0
CIRCLE
  5
19B
  8
L1
 10
480.0879040886266
 20
198.79427252916349
 30
0.0
 40
5.7982698575061704
  0
CIRCLE
  5
19C
  8
L1
 10
480.0879040886266
 20
198.79427252916349
 30
0.0
 40
5.9982622421189946
  0
ARC
  5
19D
  8
L1
 10
480.0879040886266
 20
198.79427252916349
 30
0.0
 40
5.0
 50
177.2685844295716
 51
272.73141557042828
  0
LINE
  5
19E
  8
L1
 10
485.08222356913558
 20
198.55600182889211
 30
0.0
 11
480.32617478889802
 21
193.79995304865449
 31
0.0
  0
LINE
  5
19F
  8
L1
 10
484.84117465420741
 20
207.04427252916349
 30
0.0
 11
483.52050475698718
 21
207.04427252916349
 31
0.0
  0
POLYLINE
  5
1A0
  8
L1
 66
     1
 10
0.0
 20
0.0
 30
0.0
  0
VERTEX
  5
13FF
  8
L1
 10
488.34806570634572
 20
203.5422725291634
 30
0.0
  0
VERTEX
  5
1400
  8
L1
 10
488.3480656775788
 20
203.54427252916349
 30
0.0
  0
SEQEND
  5
1401
  8
L1
  0
POLYLINE
  5
1A1
  8
L1
 66
     1
 10
0.0
 20
0.0
 30
0.0
  0
VERTEX
  5
1402
  8
L1
 10
488.3480656775788
 20
203.54427252916349
 30
0.0
  0
VERTEX
  5
1403
  8
L1
 10
488.34418253792398
 20
203.70812010625181
 30
0.0
  0
VERTEX
  5
1404
  8
L1
 10
488.33240502071402
 20
203.87395524225971
 30
0.0
  0
VERTEX
  5
1405
  8
L1
 10
488.31252694707729
 20
204.0409806937902
 30
0.0
  0
VERTEX
  5
1406
  8
L1
 10
488.28434213814251
 20
204.20839921744599
 30
0.0
  0
VERTEX
  5
1407
  8
L1
 10
488.24757815556302
 20
204.37593749278861
 30
0.0
  0
VERTEX
  5
1408
  8
L1
 10
488.20238841157891
 20
204.5423320736071
 30
0.0
  0
VERTEX
  5
1409
  8
L1
 10
488.14890649301827
 20
204.7068446170274
 30
0.0
  0
VERTEX
  5
140A
  8
L1
 10
488.0872659867087
 20
204.86873678017579
 30
0.0
  0
VERTEX
  5
140B
  8
L1
 10
488.01762333235172
 20
205.02735307628271
 30
0.0
  0
VERTEX
  5
140C
  8
L1
 10
487.94032938497782
 20
205.18211769973911
 30
0.0
  0
VERTEX
  5
140D
  8
L1
 10
487.8558093544076
 20
205.33241182941089
 30
0.0
  0
VERTEX
  5
140E
  8
L1
 10
487.76448845046258
 20
205.4776166441649
 30
0.0
  0
VERTEX
  5
140F
  8
L1
 10
487.66683741362931
 20
205.6171435543919
 30
0.0
  0
VERTEX
  5
1410
  8
L1
 10
487.56352036385198
 20
205.75053237535349
 30
0.0
  0
VERTEX
  5
1411
  8
L1
 10
487.4552525801368
 20
205.87735689322091
 30
0.0
  0
VERTEX
  5
1412
  8
L1
 10
487.34274934149062
 20
205.99719089416601
 30
0.0
  0
VERTEX
  5
1413
  8
L1
 10
487.22385657294137
 20
206.11234625707209
 30
0.0
  0
VERTEX
  5
1414
  8
L1
 10
487.09783693003573
 20
206.22329830753679
 30
0.0
  0
VERTEX
  5
1415
  8
L1
 10
486.96511179251542
 20
206.32932336262201
 30
0.0
  0
VERTEX
  5
1416
  8
L1
 10
486.8261025401228
 20
206.42969773938981
 30
0.0
  0
VERTEX
  5
1417
  8
L1
 10
486.68126563029972
 20
206.52374895230199
 30
0.0
  0
VERTEX
  5
1418
  8
L1
 10
486.5311897184273
 20
206.61099747390989
 30
0.0
  0
VERTEX
  5
1419
  8
L1
 10
486.37649448115701
 20
206.69100905840961
 30
0.0
  0
VERTEX
  5
141A
  8
L1
 10
486.2177995951393
 20
206.76334945999739
 30
0.0
  0
VERTEX
  5
141B
  8
L1
 10
486.05568230928787
 20
206.82765990871721
 30
0.0
  0
VERTEX
  5
141C
  8
L1
 10
485.89080252510712
 20
206.8837758614726
 30
0.0
  0
VERTEX
  5
141D
  8
L1
 10
485.7239038981362
 20
206.93155441274931
 30
0.0
  0
VERTEX
  5
141E
  8
L1
 10
485.55573008391309
 20
206.97085265703251
 30
0.0
  0
VERTEX
  5
141F
  8
L1
 10
485.38703589282312
 20
207.00158141982911
 30
0.0
  0
VERTEX
  5
1420
  8
L1
 10
485.21862359740209
 20
207.0238801535555
 30
0.0
  0
VERTEX
  5
1421
  8
L1
 10
485.05130804641482
 20
207.03794889306229
 30
0.0
  0
VERTEX
  5
1422
  8
L1
 10
484.8859040886266
 20
207.04398767320041
 30
0.0
  0
SEQEND
  5
1423
  8
L1
  0
POLYLINE
  5
1A2
  8
L1
 66
     1
 10
0.0
 20
0.0
 30
0.0
  0
VERTEX
  5
1424
  8
L1
 10
484.8859040886266
 20
207.04398767320041
 30
0.0
  0
VERTEX
  5
1425
  8
L1
 10
484.86353609420161
 20
207.04420131444809
 30
0.0
  0
VERTEX
  5
1426
  8
L1
 10
484.84117465420741
 20
207.04427252916349
 30
0.0
  0
SEQEND
  5
1427
  8
L1
  0
POLYLINE
  5
1A3
  8
L1
 66
     1
 10
0.0
 20
0.0
 30
0.0
  0
VERTEX
  5
1428
  8
L1
 10
483.4918571596977
 20
207.04427252916349
 30
0.0
  0
VERTEX
  5
1429
  8
L1
 10
483.52050475698718
 20
207.04427252916349
 30
0.0
  0
SEQEND
  5
142A
  8
L1
  0
ARC
  5
1A4
  8
L1
 10
483.49185715969759
 20
203.54227252916351
 30
0.0
 40
2.902000000000057
 50
0.0
 51
89.999999999998877
  0
LINE
  5
1B0
  8
L2
 10
471.28790408862648
 20
248.2421452712577
 30
0.0
 11
470.66965033838022
 21
271.85230344777602
 31
0.0
  0
LINE
  5
1B8
  8
L2
 10
472.3379040886266
 20
274.8387575162148
 30
0.0
 11
472.3379040886266
 21
274.54214527125771
 31
0.0
  0
LINE
  5
1B9
  8
L2
 10
472.3379040886266
 20
274.84214527125772
 30
0.0
 11
472.3379040886266
 21
274.8387575162148
 31
0.0
  0
LINE
  5
1BF
  8
L1
 10
487.02704094543549
 20
274.20896091977841
 30
0.0
 11
488.3480656775788
 21
249.00230743788359
 31
0.0
  0
POLYLINE
  5
1C3
  8
L1
 66
     1
 10
0.0
 20
0.0
 30
0.0
  0
VERTEX
  5
142B
  8
L1
 10
488.34806567757869
 20
249.0023074378837
 30
0.0
  0
VERTEX
  5
142C
  8
L1
 10
488.34806570634572
 20
249.00230688897679
 30
0.0
  0
SEQEND
  5
142D
  8
L1
  0
POLYLINE
  5
1C4
  8
L1
 66
     1
 10
0.0
 20
0.0
 30
0.0
  0
VERTEX
  5
142E
  8
L1
 10
488.34806570634572
 20
249.00230688897679
 30
0.0
  0
VERTEX
  5
142F
  8
L1
 10
488.34806567757869
 20
249.0023074378837
 30
0.0
  0
SEQEND
  5
1430
  8
L1
  0
LINE
  5
1C5
  8
L1
 10
487.5879040886266
 20
248.2421452712577
 30
0.0
 11
488.34806570634572
 21
249.00230688897679
 31
0.0
  0
ARC
  5
1C6
  8
L2
 10
486.24806570634581
 20
247.54214527125771
 30
0.0
 40
0.4693309274404737
 50
189.99999999999801
 51
270.0
  0
ARC
  5
1C7
  8
L1
 10
486.24806570634581
 20
247.54214527125771
 30
0.0
 40
0.4693309274404737
 50
270.0
 51
349.99999999999841
  0
LINE
  5
1C8
  8
L2
 10
485.64806570634579
 20
248.2421452712577
 30
0.0
 11
485.78586497027391
 21
247.460646810985
 31
0.0
  0
LINE
  5
1C9
  8
L1
 10
486.71026644241772
 20
247.46064681098491
 30
0.0
 11
486.84750919799762
 21
248.2389891555799
 31
0.0
  0
POLYLINE
  5
1E2
  8
L1
 66
     1
 10
0.0
 20
0.0
 30
0.0
  0
VERTEX
  5
1431
  8
L1
 10
483.52050475698729
 20
274.24202809948429
 30
0.0
  0
VERTEX
  5
1432
  8
L1
 10
483.6804894864519
 20
274.24070842669869
 30
0.0
  0
VERTEX
  5
1433
  8
L1
 10
483.84227056703139
 20
274.23935187155399
 30
0.0
  0
VERTEX
  5
1434
  8
L1
 10
484.00512894503959
 20
274.23796398875402
 30
0.0
  0
VERTEX
  5
1435
  8
L1
 10
484.16834556679032
 20
274.23655033300281
 30
0.0
  0
VERTEX
  5
1436
  8
L1
 10
484.33854623773681
 20
274.23505154094158
 30
0.0
  0
VERTEX
  5
1437
  8
L1
 10
484.50759871121022
 20
274.23353834392032
 30
0.0
  0
VERTEX
  5
1438
  8
L1
 10
484.67474756456232
 20
274.2320184536942
 30
0.0
  0
VERTEX
  5
1439
  8
L1
 10
484.83923737514539
 20
274.23049958201869
 30
0.0
  0
VERTEX
  5
143A
  8
L1
 10
485.00039764594442
 20
274.22898900304898
 30
0.0
  0
VERTEX
  5
143B
  8
L1
 10
485.1576379941024
 20
274.22749428455148
 30
0.0
  0
VERTEX
  5
143C
  8
L1
 10
485.31032316820819
 20
274.22602357869891
 30
0.0
  0
VERTEX
  5
143D
  8
L1
 10
485.4578179168505
 20
274.22458503766342
 30
0.0
  0
VERTEX
  5
143E
  8
L1
 10
485.59951761586473
 20
274.22318679067212
 30
0.0
  0
VERTEX
  5
143F
  8
L1
 10
485.73494838340332
 20
274.22183619034899
 30
0.0
  0
VERTEX
  5
1440
  8
L1
 10
485.86367108153132
 20
274.22054022396338
 30
0.0
  0
VERTEX
  5
1441
  8
L1
 10
485.98524657231388
 20
274.21930587878359
 30
0.0
  0
VERTEX
  5
1442
  8
L1
 10
486.10170269139581
 20
274.21811477948859
 30
0.0
  0
VERTEX
  5
1443
  8
L1
 10
486.21379321700272
 20
274.21696130392792
 30
0.0
  0
VERTEX
  5
1444
  8
L1
 10
486.32077745060712
 20
274.21585516453911
 30
0.0
  0
VERTEX
  5
1445
  8
L1
 10
486.42191469368231
 20
274.21480607375992
 30
0.0
  0
VERTEX
  5
1446
  8
L1
 10
486.51651691442839
 20
274.21382339299441
 30
0.0
  0
VERTEX
  5
1447
  8
L1
 10
486.60409448341761
 20
274.21291451990629
 30
0.0
  0
VERTEX
  5
1448
  8
L1
 10
486.6842043056796
 20
274.21208622132377
 30
0.0
  0
VERTEX
  5
1449
  8
L1
 10
486.75640328624399
 20
274.21134526407508
 30
0.0
  0
VERTEX
  5
144A
  8
L1
 10
486.8203257717239
 20
274.2106975761364
 30
0.0
  0
VERTEX
  5
144B
  8
L1
 10
486.87580555018172
 20
274.21014637672022
 30
0.0
  0
VERTEX
  5
144C
  8
L1
 10
486.92269868882141
 20
274.20969436950833
 30
0.0
  0
VERTEX
  5
144D
  8
L1
 10
486.96086125484698
 20
274.20934425818302
 30
0.0
  0
VERTEX
  5
144E
  8
L1
 10
486.99012971395831
 20
274.20909852989638
 30
0.0
  0
VERTEX
  5
144F
  8
L1
 10
487.01077761410511
 20
274.20895440335352
 30
0.0
  0
VERTEX
  5
1450
  8
L1
 10
487.02301225727001
 20
274.20890936962422
 30
0.0
  0
VERTEX
  5
1451
  8
L1
 10
487.02704094543549
 20
274.20896091977852
 30
0.0
  0
SEQEND
  5
1452
  8
L1
  0
LINE
  5
1E3
  8
L1
 10
486.39385715969757
 20
274.84214527125772
 30
0.0
 11
487.02704091414648
 21
274.20896151680893
 31
0.0
  0
LINE
  5
74F
  8
L2
 10
258.54558791421073
 20
204.34427252916359
 30
0.0
 11
259.32708637448337
 21
204.48207179309171
 31
0.0
  0
ARC
  5
750
  8
L2
 10
259.24558791421072
 20
204.94427252916361
 30
0.0
 40
0.4693309274404737
 50
279.99999999999801
 51
0.0
  0
LINE
  5
759
  8
L1
 10
259.32708637448337
 20
78.682071793091609
 30
0.0
 11
258.54558791421078
 21
78.544272529163365
 31
0.0
  0
ARC
  5
75A
  8
L1
 10
259.24558791421072
 20
79.144272529163402
 30
0.0
 40
0.4693309274404737
 50
280.0000000000021
 51
0.0
  0
LINE
  5
75B
  8
L1
 10
259.32708637448337
 20
205.40647326523541
 30
0.0
 11
258.54558791421078
 21
205.54427252916361
 31
0.0
  0
ARC
  5
75C
  8
L1
 10
259.24558791421072
 20
204.94427252916361
 30
0.0
 40
0.4693309274404737
 50
0.0
 51
79.999999999997854
  0
LINE
  5
76B
  8
L1
 10
257.74558791421072
 20
207.04427252916349
 30
0.0
 11
257.74558791421072
 21
77.044272529163536
 31
0.0
  0
LINE
  5
786
  8
L2
 10
258.54558791421073
 20
79.744272529163425
 30
0.0
 11
259.32708637448337
 21
79.606473265235252
 31
0.0
  0
ARC
  5
787
  8
L2
 10
259.24558791421072
 20
79.144272529163402
 30
0.0
 40
0.4693309274404737
 50
0.0
 51
80.000000000001947
  0
LINE
  5
788
  8
L1
 10
232.5455879142107
 20
207.04427252916349
 30
0.0
 11
232.5455879142107
 21
77.044272529163521
 31
0.0
  0
LINE
  5
78D
  8
L1
 10
328.21376123414399
 20
274.2421452712577
 30
0.0
 11
313.18395101755539
 21
274.2421452712577
 31
0.0
  0
LINE
  5
BEC
  8
L2
 10
326.500226903265
 20
272.14506732911531
 30
0.0
 11
470.16914600083362
 21
272.33921451708511
 31
0.0
  0
ARC
  5
BED
  8
L2
 10
470.16982167589242
 20
271.83921497362212
 30
0.0
 40
0.5
 50
1.5000000000000839
 51
90.077426681940835
  0
ARC
  5
BEE
  8
L2
 10
326.5009025783238
 20
271.64506778565232
 30
0.0
 40
0.5
 50
90.077426681940835
 51
178.49999999999989
  0
LINE
  5
BEF
  8
L2
 10
326.500226903265
 20
11.943477729211679
 30
0.0
 11
470.16914600083362
 21
11.74933054124193
 31
0.0
  0
LINE
  5
BF0
  8
L2
 10
324.33790408862649
 20
9.7463997870692651
 30
0.0
 11
472.3379040886266
 21
9.5463997870692197
 31
0.0
  0
LINE
  5
BF1
  8
L1
 10
310.28195101755551
 20
9.2463997870692651
 30
0.0
 11
486.39385715969757
 21
9.2463997870692651
 31
0.0
  0
LINE
  5
BF2
  8
L1
 10
308.32983031205288
 20
35.046399787069276
 30
0.0
 11
488.34597786520021
 21
35.046399787069298
 31
0.0
  0
LINE
  5
BF3
  8
L1
 10
487.58790408862671
 20
35.846399787069281
 30
0.0
 11
309.0879040886266
 21
35.846399787069281
 31
0.0
  0
LINE
  5
BF4
  8
L1
 10
310.42774247090728
 20
37.015730714509772
 30
0.0
 11
486.24806570634581
 21
37.0157307145098
 31
0.0
  0
LINE
  5
BF5
  8
L1
 10
309.6487672318176
 20
9.8795841385485801
 30
0.0
 11
308.3277424996744
 21
35.086237620443399
 31
0.0
  0
LINE
  5
BF6
  8
L2
 10
325.38790408862661
 20
35.846399787069281
 30
0.0
 11
326.001073915836
 21
12.43038879852071
 31
0.0
  0
LINE
  5
BF7
  8
L1
 10
309.0879040886266
 20
35.846399787069281
 30
0.0
 11
308.32774247090742
 21
35.086238169350132
 31
0.0
  0
POLYLINE
  5
BF8
  8
L1
 66
     1
 10
0.0
 20
0.0
 30
0.0
  0
VERTEX
  5
1453
  8
L1
 10
308.3277424996744
 20
35.086237620443313
 30
0.0
  0
VERTEX
  5
1454
  8
L1
 10
308.32774247090742
 20
35.086238169350132
 30
0.0
  0
SEQEND
  5
1455
  8
L1
  0
POLYLINE
  5
BF9
  8
L1
 66
     1
 10
0.0
 20
0.0
 30
0.0
  0
VERTEX
  5
1456
  8
L1
 10
308.32774247090742
 20
35.086238169350132
 30
0.0
  0
VERTEX
  5
1457
  8
L1
 10
308.3277424996744
 20
35.086237620443313
 30
0.0
  0
SEQEND
  5
1458
  8
L1
  0
ARC
  5
BFA
  8
L1
 10
310.42774247090728
 20
36.546399787069269
 30
0.0
 40
0.4693309274404737
 50
90.000000000000028
 51
169.99999999999841
  0
ARC
  5
BFB
  8
L2
 10
310.42774247090728
 20
36.546399787069269
 30
0.0
 40
0.4693309274404737
 50
9.9999999999980691
 51
90.000000000000028
  0
LINE
  5
BFC
  8
L1
 10
309.96554173483548
 20
36.627898247342067
 30
0.0
 11
309.82829897925552
 21
35.849555902747049
 31
0.0
  0
LINE
  5
BFD
  8
L2
 10
311.02774247090741
 20
35.846399787069281
 30
0.0
 11
310.88994320697918
 21
36.627898247342038
 31
0.0
  0
ARC
  5
BFE
  8
L2
 10
326.5009025783238
 20
12.44347727267467
 30
0.0
 40
0.5
 50
181.5
 51
269.92257331805911
  0
LINE
  5
BFF
  8
L1
 10
328.21376123414399
 20
9.8463997870692879
 30
0.0
 11
313.18395101755539
 21
9.8463997870692879
 31
0.0
  0
LINE
  5
C00
  8
L1
 10
310.28195101755551
 20
9.2463997870692651
 30
0.0
 11
309.64876726310661
 21
9.8795835415181141
 31
0.0
  0
POLYLINE
  5
C01
  8
L1
 66
     1
 10
0.0
 20
0.0
 30
0.0
  0
VERTEX
  5
1459
  8
L1
 10
313.1553034202658
 20
9.8465169588427557
 30
0.0
  0
VERTEX
  5
145A
  8
L1
 10
312.9953186908013
 20
9.8478366316282973
 30
0.0
  0
VERTEX
  5
145B
  8
L1
 10
312.8335376102217
 20
9.84919318677305
 30
0.0
  0
VERTEX
  5
145C
  8
L1
 10
312.67067923221339
 20
9.8505810695730247
 30
0.0
  0
VERTEX
  5
145D
  8
L1
 10
312.50746261046288
 20
9.8519947253242321
 30
0.0
  0
VERTEX
  5
145E
  8
L1
 10
312.33726193951622
 20
9.8534935173854024
 30
0.0
  0
VERTEX
  5
145F
  8
L1
 10
312.16820946604292
 20
9.8550067144066702
 30
0.0
  0
VERTEX
  5
1460
  8
L1
 10
312.00106061269082
 20
9.8565266046327338
 30
0.0
  0
VERTEX
  5
1461
  8
L1
 10
311.83657080210781
 20
9.8580454763082344
 30
0.0
  0
VERTEX
  5
1462
  8
L1
 10
311.67541053130873
 20
9.8595560552780057
 30
0.0
  0
VERTEX
  5
1463
  8
L1
 10
311.51817018315069
 20
9.861050773775446
 30
0.0
  0
VERTEX
  5
1464
  8
L1
 10
311.36548500904502
 20
9.8625214796281284
 30
0.0
  0
VERTEX
  5
1465
  8
L1
 10
311.21799026040247
 20
9.8639600206635691
 30
0.0
  0
VERTEX
  5
1466
  8
L1
 10
311.07629056138842
 20
9.8653582676549263
 30
0.0
  0
VERTEX
  5
1467
  8
L1
 10
310.94085979384982
 20
9.866708867977934
 30
0.0
  0
VERTEX
  5
1468
  8
L1
 10
310.81213709572188
 20
9.8680048343636031
 30
0.0
  0
VERTEX
  5
1469
  8
L1
 10
310.69056160493932
 20
9.8692391795433991
 30
0.0
  0
VERTEX
  5
146A
  8
L1
 10
310.57410548585727
 20
9.8704302788383416
 30
0.0
  0
VERTEX
  5
146B
  8
L1
 10
310.46201496025049
 20
9.8715837543991256
 30
0.0
  0
VERTEX
  5
146C
  8
L1
 10
310.35503072664602
 20
9.8726898937879355
 30
0.0
  0
VERTEX
  5
146D
  8
L1
 10
310.25389348357089
 20
9.8737389845670691
 30
0.0
  0
VERTEX
  5
146E
  8
L1
 10
310.15929126282469
 20
9.8747216653326291
 30
0.0
  0
VERTEX
  5
146F
  8
L1
 10
310.07171369383559
 20
9.8756305384206922
 30
0.0
  0
VERTEX
  5
1470
  8
L1
 10
309.9916038715736
 20
9.8764588370031561
 30
0.0
  0
VERTEX
  5
1471
  8
L1
 10
309.91940489100909
 20
9.8771997942519079
 30
0.0
  0
VERTEX
  5
1472
  8
L1
 10
309.85548240552919
 20
9.8778474821905888
 30
0.0
  0
VERTEX
  5
1473
  8
L1
 10
309.80000262707148
 20
9.8783986816068232
 30
0.0
  0
VERTEX
  5
1474
  8
L1
 10
309.75310948843179
 20
9.8788506888186571
 30
0.0
  0
VERTEX
  5
1475
  8
L1
 10
309.71494692240611
 20
9.8792008001439626
 30
0.0
  0
VERTEX
  5
1476
  8
L1
 10
309.68567846329478
 20
9.8794465284306057
 30
0.0
  0
VERTEX
  5
1477
  8
L1
 10
309.66503056314798
 20
9.8795906549734696
 30
0.0
  0
VERTEX
  5
1478
  8
L1
 10
309.65279591998308
 20
9.8796356887027628
 30
0.0
  0
VERTEX
  5
1479
  8
L1
 10
309.6487672318176
 20
9.8795841385485232
 30
0.0
  0
SEQEND
  5
147A
  8
L1
  0
LINE
  5
C02
  8
L2
 10
324.33790408862649
 20
9.2497875421121876
 30
0.0
 11
324.33790408862649
 21
9.5463997870693333
 31
0.0
  0
LINE
  5
C03
  8
L2
 10
324.33790408862649
 20
9.2463997870692651
 30
0.0
 11
324.33790408862649
 21
9.2497875421121876
 31
0.0
  0
LINE
  5
C04
  8
L6
 10
398.3379040886266
 20
1.2463997870692649
 30
0.0
 11
398.3379040886266
 21
45.015730714509708
 31
0.0
  0
LINE
  5
C05
  8
L1
 10
487.02704094543549
 20
9.8795841385485801
 30
0.0
 11
488.3480656775788
 21
35.086237620443399
 31
0.0
  0
LINE
  5
C06
  8
L2
 10
471.28790408862648
 20
35.846399787069281
 30
0.0
 11
470.66965033838022
 21
12.236241610550961
 31
0.0
  0
LINE
  5
C07
  8
L1
 10
487.5879040886266
 20
35.846399787069281
 30
0.0
 11
488.34806570634572
 21
35.086238169350132
 31
0.0
  0
LINE
  5
C08
  8
L1
 10
486.71026644241772
 20
36.627898247342067
 30
0.0
 11
486.84750919799762
 21
35.849555902747049
 31
0.0
  0
LINE
  5
C09
  8
L2
 10
485.64806570634579
 20
35.846399787069281
 30
0.0
 11
485.78586497027391
 21
36.627898247342038
 31
0.0
  0
ARC
  5
C0A
  8
L1
 10
486.24806570634581
 20
36.546399787069269
 30
0.0
 40
0.4693309274404737
 50
10.000000000001579
 51
90.000000000000028
  0
ARC
  5
C0B
  8
L2
 10
486.24806570634581
 20
36.546399787069269
 30
0.0
 40
0.4693309274404737
 50
90.000000000000028
 51
170.0000000000019
  0
POLYLINE
  5
C0C
  8
L1
 66
     1
 10
0.0
 20
0.0
 30
0.0
  0
VERTEX
  5
147B
  8
L1
 10
488.34806570634572
 20
35.086238169350132
 30
0.0
  0
VERTEX
  5
147C
  8
L1
 10
488.34806567757869
 20
35.086237620443313
 30
0.0
  0
SEQEND
  5
147D
  8
L1
  0
POLYLINE
  5
C0D
  8
L1
 66
     1
 10
0.0
 20
0.0
 30
0.0
  0
VERTEX
  5
147E
  8
L1
 10
488.34806567757869
 20
35.086237620443313
 30
0.0
  0
VERTEX
  5
147F
  8
L1
 10
488.34806570634572
 20
35.086238169350132
 30
0.0
  0
SEQEND
  5
1480
  8
L1
  0
ARC
  5
C0E
  8
L2
 10
470.16982167589242
 20
12.249330084704919
 30
0.0
 40
0.5
 50
269.92257331805911
 51
358.49999999999989
  0
LINE
  5
C0F
  8
L1
 10
483.4918571596977
 20
9.8463997870692879
 30
0.0
 11
468.82716191483792
 21
9.8463997870692879
 31
0.0
  0
LINE
  5
C10
  8
L2
 10
472.3379040886266
 20
9.2463997870692651
 30
0.0
 11
472.3379040886266
 21
9.2497875421121876
 31
0.0
  0
LINE
  5
C11
  8
L2
 10
472.3379040886266
 20
9.2497875421121876
 30
0.0
 11
472.3379040886266
 21
9.5463997870693333
 31
0.0
  0
LINE
  5
C12
  8
L1
 10
486.39385715969757
 20
9.2463997870692651
 30
0.0
 11
487.02704091414648
 21
9.8795835415181141
 31
0.0
  0
POLYLINE
  5
C13
  8
L1
 66
     1
 10
0.0
 20
0.0
 30
0.0
  0
VERTEX
  5
1481
  8
L1
 10
483.52050475698729
 20
9.8465169588427557
 30
0.0
  0
VERTEX
  5
1482
  8
L1
 10
483.6804894864519
 20
9.8478366316282973
 30
0.0
  0
VERTEX
  5
1483
  8
L1
 10
483.84227056703139
 20
9.84919318677305
 30
0.0
  0
VERTEX
  5
1484
  8
L1
 10
484.00512894503959
 20
9.8505810695730247
 30
0.0
  0
VERTEX
  5
1485
  8
L1
 10
484.16834556679032
 20
9.8519947253242321
 30
0.0
  0
VERTEX
  5
1486
  8
L1
 10
484.33854623773681
 20
9.8534935173854024
 30
0.0
  0
VERTEX
  5
1487
  8
L1
 10
484.50759871121022
 20
9.8550067144066702
 30
0.0
  0
VERTEX
  5
1488
  8
L1
 10
484.67474756456232
 20
9.8565266046327338
 30
0.0
  0
VERTEX
  5
1489
  8
L1
 10
484.83923737514539
 20
9.8580454763082344
 30
0.0
  0
VERTEX
  5
148A
  8
L1
 10
485.00039764594442
 20
9.8595560552780057
 30
0.0
  0
VERTEX
  5
148B
  8
L1
 10
485.1576379941024
 20
9.861050773775446
 30
0.0
  0
VERTEX
  5
148C
  8
L1
 10
485.31032316820819
 20
9.8625214796281284
 30
0.0
  0
VERTEX
  5
148D
  8
L1
 10
485.4578179168505
 20
9.8639600206635691
 30
0.0
  0
VERTEX
  5
148E
  8
L1
 10
485.59951761586473
 20
9.8653582676549263
 30
0.0
  0
VERTEX
  5
148F
  8
L1
 10
485.73494838340332
 20
9.866708867977934
 30
0.0
  0
VERTEX
  5
1490
  8
L1
 10
485.86367108153132
 20
9.8680048343636031
 30
0.0
  0
VERTEX
  5
1491
  8
L1
 10
485.98524657231388
 20
9.8692391795433991
 30
0.0
  0
VERTEX
  5
1492
  8
L1
 10
486.10170269139581
 20
9.8704302788383416
 30
0.0
  0
VERTEX
  5
1493
  8
L1
 10
486.21379321700272
 20
9.8715837543991256
 30
0.0
  0
VERTEX
  5
1494
  8
L1
 10
486.32077745060712
 20
9.8726898937879355
 30
0.0
  0
VERTEX
  5
1495
  8
L1
 10
486.42191469368231
 20
9.8737389845670691
 30
0.0
  0
VERTEX
  5
1496
  8
L1
 10
486.51651691442839
 20
9.8747216653326291
 30
0.0
  0
VERTEX
  5
1497
  8
L1
 10
486.60409448341761
 20
9.8756305384206922
 30
0.0
  0
VERTEX
  5
1498
  8
L1
 10
486.6842043056796
 20
9.8764588370031561
 30
0.0
  0
VERTEX
  5
1499
  8
L1
 10
486.75640328624399
 20
9.8771997942519079
 30
0.0
  0
VERTEX
  5
149A
  8
L1
 10
486.8203257717239
 20
9.8778474821905888
 30
0.0
  0
VERTEX
  5
149B
  8
L1
 10
486.87580555018172
 20
9.8783986816068232
 30
0.0
  0
VERTEX
  5
149C
  8
L1
 10
486.92269868882141
 20
9.8788506888186571
 30
0.0
  0
VERTEX
  5
149D
  8
L1
 10
486.96086125484698
 20
9.8792008001439626
 30
0.0
  0
VERTEX
  5
149E
  8
L1
 10
486.99012971395831
 20
9.8794465284306057
 30
0.0
  0
VERTEX
  5
149F
  8
L1
 10
487.01077761410511
 20
9.8795906549734696
 30
0.0
  0
VERTEX
  5
14A0
  8
L1
 10
487.02301225727001
 20
9.8796356887027628
 30
0.0
  0
VERTEX
  5
14A1
  8
L1
 10
487.02704094543549
 20
9.8795841385485232
 30
0.0
  0
SEQEND
  5
14A2
  8
L1
  0
LINE
  5
C16
  8
L2
 10
232.44558791421071
 20
95.220287450912494
 30
0.0
 11
232.44558791421071
 21
190.91739102081959
 31
0.0
  0
LINE
  5
C17
  8
L2
 10
231.94558791421079
 20
190.91671534514401
 30
0.0
 11
232.44558791421071
 21
190.91739102081959
 31
0.0
  0
LINE
  5
C18
  8
L2
 10
231.94558791421079
 20
93.171829713183016
 30
0.0
 11
232.44558791421071
 21
93.171154037507378
 31
0.0
  0
LINE
  5
C19
  8
L2
 10
564.23022026304238
 20
95.220287450912494
 30
0.0
 11
564.23022026304238
 21
190.91739102081959
 31
0.0
  0
LINE
  5
C1A
  8
L2
 10
562.03022026304245
 20
95.220287450912494
 30
0.0
 11
562.03022026304245
 21
188.86825760741451
 31
0.0
  0
LINE
  5
C1B
  8
L1
 10
564.13022026304236
 20
207.04427252916349
 30
0.0
 11
564.13022026304236
 21
77.044272529163521
 31
0.0
  0
LINE
  5
C1C
  8
L1
 10
538.93022026304243
 20
207.04427252916349
 30
0.0
 11
538.93022026304243
 21
77.044272529163536
 31
0.0
  0
LINE
  5
C1D
  8
L1
 10
538.13022026304247
 20
206.24427252916351
 30
0.0
 11
538.13022026304247
 21
77.844272529163533
 31
0.0
  0
LINE
  5
C1E
  8
L1
 10
536.96088933560179
 20
204.94427252916361
 30
0.0
 11
536.96088933560179
 21
79.144272529163402
 31
0.0
  0
LINE
  5
C1F
  8
L1
 10
564.73022026304238
 20
206.44427252916341
 30
0.0
 11
564.73022026304238
 21
77.644272529163601
 31
0.0
  0
LINE
  5
C20
  8
L2
 10
538.13022026304247
 20
94.094272529163504
 30
0.0
 11
561.54330873719641
 21
94.720458788424722
 31
0.0
  0
LINE
  5
C21
  8
L1
 10
564.13022026304236
 20
77.044272529163521
 30
0.0
 11
538.93022026304243
 21
77.044272529163521
 31
0.0
  0
LINE
  5
C22
  8
L1
 10
564.73022026304238
 20
77.64427252916353
 30
0.0
 11
564.13022026304236
 21
77.044272529163521
 31
0.0
  0
LINE
  5
C23
  8
L2
 10
564.73022026304238
 20
93.171829713183016
 30
0.0
 11
564.23022026304238
 21
93.171154037507378
 31
0.0
  0
ARC
  5
C24
  8
L2
 10
561.53022026304245
 20
95.220287450912494
 30
0.0
 40
0.5
 50
271.49999999999937
 51
0.000000000000007
  0
LINE
  5
C25
  8
L1
 10
538.93022026304243
 20
77.044272529163536
 30
0.0
 11
538.13022026304247
 21
77.844272529163547
 31
0.0
  0
ARC
  5
C26
  8
L2
 10
537.43022026304243
 20
79.144272529163402
 30
0.0
 40
0.4693309274404737
 50
99.999999999998039
 51
180.0
  0
LINE
  5
C27
  8
L2
 10
538.13022026304247
 20
79.744272529163425
 30
0.0
 11
537.34872180276966
 21
79.606473265235252
 31
0.0
  0
ARC
  5
C28
  8
L1
 10
537.43022026304243
 20
79.144272529163402
 30
0.0
 40
0.4693309274404737
 50
180.0
 51
259.9999999999979
  0
LINE
  5
C29
  8
L1
 10
537.34872180276966
 20
78.682071793091609
 30
0.0
 11
538.13022026304247
 21
78.544272529163365
 31
0.0
  0
LINE
  5
C2A
  8
L6
 10
528.96088933560179
 20
142.04427252916349
 30
0.0
 11
572.73022026304238
 21
142.04427252916349
 31
0.0
  0
LINE
  5
C2B
  8
L2
 10
538.13022026304247
 20
189.99427252916351
 30
0.0
 11
561.54330873719641
 21
189.36808626990231
 31
0.0
  0
LINE
  5
C2C
  8
L1
 10
564.13022026304236
 20
207.04427252916349
 30
0.0
 11
538.93022026304243
 21
207.04427252916349
 31
0.0
  0
LINE
  5
C2D
  8
L2
 10
564.73022026304238
 20
190.91671534514401
 30
0.0
 11
564.23022026304238
 21
190.91739102081959
 31
0.0
  0
ARC
  5
C2E
  8
L2
 10
561.53022026304245
 20
188.86825760741451
 30
0.0
 40
0.5
 50
0.000000000000007
 51
88.500000000000512
  0
LINE
  5
C2F
  8
L1
 10
564.73022026304238
 20
206.44427252916341
 30
0.0
 11
564.13022026304236
 21
207.04427252916349
 31
0.0
  0
LINE
  5
C30
  8
L1
 10
538.93022026304243
 20
207.04427252916349
 30
0.0
 11
538.13022026304247
 21
206.24427252916351
 31
0.0
  0
ARC
  5
C31
  8
L1
 10
537.43022026304243
 20
204.94427252916361
 30
0.0
 40
0.4693309274404737
 50
100.0000000000021
 51
180.0
  0
LINE
  5
C32
  8
L1
 10
537.34872180276966
 20
205.40647326523541
 30
0.0
 11
538.13022026304247
 21
205.54427252916361
 31
0.0
  0
ARC
  5
C33
  8
L2
 10
537.43022026304243
 20
204.94427252916361
 30
0.0
 40
0.4693309274404737
 50
180.0
 51
260.00000000000188
  0
LINE
  5
C34
  8
L2
 10
538.13022026304247
 20
204.34427252916359
 30
0.0
 11
537.34872180276966
 21
204.48207179309171
 31
0.0
  0
ENDSEC
  0
EOF
