  0
SECTION
  2
HEADER
  9
$ACADVER
  1
AC1009
  9
$INSBASE
 10
0.0
 20
0.0
 30
0.0
  9
$EXTMIN
 10
-2.9489404551802632
 20
-2.1048917574074721
 30
0.0
  9
$EXTMAX
 10
559.79842979602165
 20
258.6634904859402
 30
0.0
  9
$LIMMIN
 10
0.0
 20
0.0
  9
$LIMMAX
 10
559.50924806038267
 20
260.57477630459738
  9
$ORTHOMODE
 70
     1
  9
$REGENMODE
 70
     1
  9
$FILLMODE
 70
     1
  9
$QTEXTMODE
 70
     0
  9
$MIRRTEXT
 70
     1
  9
$DRAGMODE
 70
     2
  9
$LTSCALE
 40
10.0
  9
$OSMODE
 70
     5
  9
$ATTMODE
 70
     1
  9
$TEXTSIZE
 40
2.5
  9
$TRACEWID
 40
1.0
  9
$TEXTSTYLE
  7
SIMPLEX
  9
$CLAYER
  8
L1
  9
$CELTYPE
  6
BYLAYER
  9
$CECOLOR
 62
   256
  9
$DIMSCALE
 40
1.0
  9
$DIMASZ
 40
3.5
  9
$DIMEXO
 40
0.1
  9
$DIMDLI
 40
0.38
  9
$DIMRND
 40
0.0
  9
$DIMDLE
 40
0.0
  9
$DIMEXE
 40
0.18
  9
$DIMTP
 40
0.0
  9
$DIMTM
 40
0.0
  9
$DIMTXT
 40
3.5
  9
$DIMCEN
 40
1.0
  9
$DIMTSZ
 40
0.0
  9
$DIMTOL
 70
     0
  9
$DIMLIM
 70
     0
  9
$DIMTIH
 70
     0
  9
$DIMTOH
 70
     0
  9
$DIMSE1
 70
     0
  9
$DIMSE2
 70
     0
  9
$DIMTAD
 70
     1
  9
$DIMZIN
 70
     8
  9
$DIMBLK
  1

  9
$DIMASO
 70
     1
  9
$DIMSHO
 70
     1
  9
$DIMPOST
  1

  9
$DIMAPOST
  1

  9
$DIMALT
 70
     0
  9
$DIMALTD
 70
     2
  9
$DIMALTF
 40
25.399999999999999
  9
$DIMLFAC
 40
1.0
  9
$DIMTOFL
 70
     1
  9
$DIMTVP
 40
0.0
  9
$DIMTIX
 70
     0
  9
$DIMSOXD
 70
     0
  9
$DIMSAH
 70
     0
  9
$DIMBLK1
  1

  9
$DIMBLK2
  1

  9
$DIMSTYLE
  2
FIBOX
  9
$DIMCLRD
 70
     1
  9
$DIMCLRE
 70
     1
  9
$DIMCLRT
 70
     3
  9
$DIMTFAC
 40
1.0
  9
$DIMGAP
 40
1.0
  9
$LUNITS
 70
     2
  9
$LUPREC
 70
     4
  9
$SKETCHINC
 40
1.0
  9
$FILLETRAD
 40
2.0
  9
$AUNITS
 70
     0
  9
$AUPREC
 70
     0
  9
$MENU
  1
.
  9
$ELEVATION
 40
0.0
  9
$PELEVATION
 40
0.0
  9
$THICKNESS
 40
0.0
  9
$LIMCHECK
 70
     0
  9
$BLIPMODE
 70
     0
  9
$CHAMFERA
 40
10.0
  9
$CHAMFERB
 40
10.0
  9
$SKPOLY
 70
     0
  9
$TDCREATE
 40
2450519.5748858559
  9
$TDUPDATE
 40
2452502.5292251729
  9
$TDINDWG
 40
0.7719435532
  9
$TDUSRTIMER
 40
0.7719435532
  9
$USRTIMER
 70
     1
  9
$ANGBASE
 50
0.0
  9
$ANGDIR
 70
     0
  9
$PDMODE
 70
     0
  9
$PDSIZE
 40
0.0
  9
$PLINEWID
 40
0.0
  9
$COORDS
 70
     2
  9
$SPLFRAME
 70
     0
  9
$SPLINETYPE
 70
     6
  9
$SPLINESEGS
 70
     8
  9
$ATTDIA
 70
     0
  9
$ATTREQ
 70
     1
  9
$HANDLING
 70
 22529
  9
$HANDSEED
  5
816
  9
$SURFTAB1
 70
     6
  9
$SURFTAB2
 70
     6
  9
$SURFTYPE
 70
     6
  9
$SURFU
 70
     6
  9
$SURFV
 70
     6
  9
$UCSNAME
  2

  9
$UCSORG
 10
0.0
 20
0.0
 30
0.0
  9
$UCSXDIR
 10
1.0
 20
0.0
 30
0.0
  9
$UCSYDIR
 10
0.0
 20
1.0
 30
0.0
  9
$PUCSNAME
  2

  9
$PUCSORG
 10
0.0
 20
0.0
 30
0.0
  9
$PUCSXDIR
 10
1.0
 20
0.0
 30
0.0
  9
$PUCSYDIR
 10
0.0
 20
1.0
 30
0.0
  9
$USERI1
 70
     0
  9
$USERI2
 70
     0
  9
$USERI3
 70
     0
  9
$USERI4
 70
     0
  9
$USERI5
 70
     0
  9
$USERR1
 40
0.0
  9
$USERR2
 40
0.0
  9
$USERR3
 40
0.0
  9
$USERR4
 40
0.0
  9
$USERR5
 40
0.0
  9
$WORLDVIEW
 70
     1
  9
$SHADEDGE
 70
     3
  9
$SHADEDIF
 70
    70
  9
$TILEMODE
 70
     1
  9
$MAXACTVP
 70
    16
  9
$PLIMCHECK
 70
     0
  9
$PEXTMIN
 10
-774.10312634584443
 20
-14.62650078370908
 30
0.0
  9
$PEXTMAX
 10
65.896873654155556
 20
579.37349921629095
 30
0.0
  9
$PLIMMIN
 10
0.0
 20
0.0
  9
$PLIMMAX
 10
420.0
 20
297.0
  9
$UNITMODE
 70
     0
  9
$VISRETAIN
 70
     0
  9
$PLINEGEN
 70
     0
  9
$PSLTSCALE
 70
     1
  0
ENDSEC
  0
SECTION
  2
TABLES
  0
TABLE
  2
VPORT
 70
     2
  0
VPORT
  2
*ACTIVE
 70
     0
 10
0.0
 20
0.0
 11
1.0
 21
1.0
 12
629.71796054954496
 22
-121.10876111548779
 13
0.0
 23
0.0
 14
10.0
 24
10.0
 15
10.0
 25
10.0
 16
0.0
 26
0.0
 36
1.0
 17
-351.29321325854772
 27
249.3877258420992
 37
120.2042198531245
 40
371.95690533542478
 41
1.5205479452054791
 42
50.0
 43
0.0
 44
0.0
 50
0.0
 51
0.0
 71
     0
 72
   500
 73
     1
 74
     1
 75
     0
 76
     0
 77
     0
 78
     0
  0
ENDTAB
  0
TABLE
  2
LTYPE
 70
     3
  0
LTYPE
  2
CONTINUOUS
 70
     0
  3
Solid line
 72
    65
 73
     0
 40
0.0
  0
LTYPE
  2
HIDDEN
 70
     0
  3
__ __ __ __ __ __ __ __ __ __ __ __ __ __ __ __
 72
    65
 73
     2
 40
0.375
 49
0.25
 49
-0.125
  0
LTYPE
  2
CENTER
 70
     0
  3
____ _ ____ _ ____ _ ____ _ ____ _ ____ _ ____ 
 72
    65
 73
     4
 40
2.0
 49
1.25
 49
-0.25
 49
0.25
 49
-0.25
  0
ENDTAB
  0
TABLE
  2
LAYER
 70
     5
  0
LAYER
  2
0
 70
     0
 62
     7
  6
CONTINUOUS
  0
LAYER
  2
L2
 70
     0
 62
     1
  6
HIDDEN
  0
LAYER
  2
L1
 70
     0
 62
     7
  6
CONTINUOUS
  0
LAYER
  2
L6
 70
     0
 62
     1
  6
CENTER
  0
LAYER
  2
DEFPOINTS
 70
     0
 62
     7
  6
CONTINUOUS
  0
ENDTAB
  0
TABLE
  2
STYLE
 70
     2
  0
STYLE
  2
STANDARD
 70
     0
 40
0.0
 41
1.0
 50
0.0
 71
     0
 42
2.5
  3
ISOCP
  4

  0
STYLE
  2
SIMPLEX
 70
     0
 40
0.0
 41
0.8
 50
0.0
 71
     0
 42
2.5
  3
SIMPLEX.SHX
  4

  0
ENDTAB
  0
TABLE
  2
VIEW
 70
     0
  0
ENDTAB
  0
TABLE
  2
UCS
 70
     0
  0
ENDTAB
  0
TABLE
  2
APPID
 70
     1
  0
APPID
  2
ACAD
 70
     0
  0
ENDTAB
  0
TABLE
  2
DIMSTYLE
 70
     1
  0
DIMSTYLE
  2
FIBOX
 70
     0
  3

  4

  5

  6

  7

 40
1.0
 41
3.5
 42
0.1
 43
0.38
 44
0.18
 45
0.0
 46
0.0
 47
0.0
 48
0.0
140
3.5
141
1.0
142
0.0
143
25.399999999999999
144
1.0
145
0.0
146
1.0
147
1.0
 71
     0
 72
     0
 73
     0
 74
     0
 75
     0
 76
     0
 77
     1
 78
     8
170
     0
171
     2
172
     1
173
     0
174
     0
175
     0
176
     1
177
     1
178
     3
  0
ENDTAB
  0
ENDSEC
  0
SECTION
  2
BLOCKS
  0
BLOCK
  8
0
  2
$MODEL_SPACE
 70
     0
 10
0.0
 20
0.0
 30
0.0
  3
$MODEL_SPACE
  1

  0
ENDBLK
  5
6
  8
0
  0
BLOCK
 67
     1
  8
0
  2
$PAPER_SPACE
 70
     0
 10
0.0
 20
0.0
 30
0.0
  3
$PAPER_SPACE
  1

  0
ENDBLK
  5
9
 67
     1
  8
0
  0
ENDSEC
  0
SECTION
  2
ENTITIES
  0
LINE
  5
1F
  8
L6
 10
302.00523630441938
 20
128.27929936426631
 30
0.0
 11
490.94423500067199
 21
128.27929936426631
 31
0.0
  0
LINE
  5
27
  8
L1
 10
482.88961621943952
 20
64.804412590381986
 30
0.0
 11
310.82377180510042
 21
64.804412590381986
 31
0.0
  0
LINE
  5
28
  8
L1
 10
483.37379477153809
 20
63.266995233357157
 30
0.0
 11
310.33959325300168
 21
63.266995233357157
 31
0.0
  0
LINE
  5
29
  8
L1
 10
469.4066940122699
 20
78.73366279816176
 30
0.0
 11
324.30669401226999
 21
78.73366279816176
 31
0.0
  0
LINE
  5
2A
  8
L1
 10
486.44076943072002
 20
249.55386111266941
 30
0.0
 11
307.27261859382008
 21
249.55386111266941
 31
0.0
  0
LINE
  5
2B
  8
L1
 10
308.38180723838542
 20
250.6634904859402
 30
0.0
 11
485.33158078615452
 21
250.6634904859402
 31
0.0
  0
LINE
  5
2C
  8
L1
 10
486.86899814317911
 20
241.3827705166245
 30
0.0
 11
306.84438988136083
 21
241.3827705166245
 31
0.0
  0
LINE
  5
2D
  8
L1
 10
484.80669401226987
 20
239.59264033380089
 30
0.0
 11
308.90669401227001
 21
239.59264033380089
 31
0.0
  0
LINE
  5
2E
  8
L1
 10
486.14971811249461
 20
240.6634904859402
 30
0.0
 11
307.56366991204533
 21
240.6634904859402
 31
0.0
  0
LINE
  5
2F
  8
L1
 10
469.4066940122699
 20
177.82493593037091
 30
0.0
 11
324.30669401226999
 21
177.82493593037091
 31
0.0
  0
LINE
  5
30
  8
L1
 10
483.37379477153809
 20
193.29160349517551
 30
0.0
 11
310.33959325300168
 21
193.29160349517551
 31
0.0
  0
LINE
  5
31
  8
L1
 10
482.88961621943952
 20
191.75418613815069
 30
0.0
 11
310.82377180510042
 21
191.75418613815069
 31
0.0
  0
LINE
  5
32
  8
L6
 10
-2.9489404551802632
 20
128.27929936426631
 30
0.0
 11
183.33828390106009
 21
128.27929936426631
 31
0.0
  0
LINE
  5
33
  8
L1
 10
18.727067393077899
 20
64.829299364266262
 30
0.0
 11
163.02706739307791
 21
64.829299364266262
 31
0.0
  0
LINE
  5
34
  8
L1
 10
177.43406739307801
 20
63.986275264041637
 30
0.0
 11
4.3200673930779772
 21
63.986275264041637
 31
0.0
  0
LINE
  5
35
  8
L1
 10
18.22696459057061
 20
66.029299364266294
 30
0.0
 11
163.52717019558531
 21
66.029299364266294
 31
0.0
  0
LINE
  5
36
  8
L1
 10
4.3599666338097327
 20
63.266995233357193
 30
0.0
 11
177.394168152346
 21
63.266995233357193
 31
0.0
  0
LINE
  5
37
  8
L1
 10
4.3599666338097327
 20
193.29160349517551
 30
0.0
 11
177.394168152346
 21
193.29160349517551
 31
0.0
  0
LINE
  5
38
  8
L1
 10
18.22696459057061
 20
190.52929936426639
 30
0.0
 11
163.52717019558531
 21
190.52929936426639
 31
0.0
  0
LINE
  5
39
  8
L1
 10
177.43406739307801
 20
192.57232346449101
 30
0.0
 11
4.3200673930779772
 21
192.57232346449101
 31
0.0
  0
LINE
  5
3A
  8
L1
 10
18.727067393077899
 20
191.72929936426641
 30
0.0
 11
163.02706739307791
 21
191.72929936426641
 31
0.0
  0
LINE
  5
3B
  8
L6
 10
90.877067393077994
 20
200.3315318065479
 30
0.0
 11
90.877067393077994
 21
56.574722916909082
 31
0.0
  0
LINE
  5
3C
  8
L1
 10
16.153889125049709
 20
77.213211850173479
 30
0.0
 11
17.08037222383637
 21
78.317351411630213
 31
0.0
  0
ARC
  5
3D
  8
L1
 10
5.6270673930779926
 20
81.129299364266373
 30
0.0
 40
3.2000000000000002
 50
198.02065930515991
 51
270.0
  0
ARC
  5
3E
  8
L1
 10
9.1270673930779935
 20
71.529299364266294
 30
0.0
 40
6.4000000000000501
 50
0.0
 51
90.000000000001023
  0
LINE
  5
3F
  8
L1
 10
2.584043292853436
 20
72.781607144619215
 30
0.0
 11
2.584043292853436
 21
80.139347685924065
 31
0.0
  0
LINE
  5
40
  8
L1
 10
1.5840432928532091
 20
66.722299364266348
 30
0.0
 11
1.5840432928532091
 21
189.8362993642663
 31
0.0
  0
LINE
  5
41
  8
L1
 10
0.8647632621688786
 20
189.79640012353451
 30
0.0
 11
0.8647632621688786
 21
66.762198604998161
 31
0.0
  0
ARC
  5
42
  8
L1
 10
18.727067393077899
 20
68.029299364266308
 30
0.0
 40
3.2000000000000002
 50
251.97934069484759
 51
270.0
  0
ARC
  5
43
  8
L1
 10
4.4270673930779481
 20
66.829299364266262
 30
0.0
 40
2.0000000000000151
 50
135.0
 51
315.0
  0
POLYLINE
  5
44
  8
L1
 66
     1
 10
0.0
 20
0.0
 30
0.0
  0
VERTEX
  5
668
  8
L1
 10
4.3200673930779772
 20
63.267210926492218
 30
0.0
  0
VERTEX
  5
669
  8
L1
 10
3.6582797906325482
 20
63.33758497415193
 30
0.0
  0
VERTEX
  5
66A
  8
L1
 10
3.0032950068369351
 20
63.539714362264021
 30
0.0
  0
VERTEX
  5
66B
  8
L1
 10
2.4004481621818168
 20
63.865858614080253
 30
0.0
  0
VERTEX
  5
66C
  8
L1
 10
1.887138274004371
 20
64.289370245192799
 30
0.0
  0
VERTEX
  5
66D
  8
L1
 10
1.463626642891938
 20
64.802680133370302
 30
0.0
  0
VERTEX
  5
66E
  8
L1
 10
1.1374823910755929
 20
65.405526978025421
 30
0.0
  0
VERTEX
  5
66F
  8
L1
 10
0.9353530029637227
 20
66.06051176182109
 30
0.0
  0
VERTEX
  5
670
  8
L1
 10
0.8649789553039113
 20
66.722299364266405
 30
0.0
  0
SEQEND
  5
671
  8
L1
  0
ARC
  5
45
  8
L1
 10
4.3200673930779772
 20
66.722299364266405
 30
0.0
 40
2.7360241002247649
 50
180.0
 51
270.0
  0
POLYLINE
  5
46
  8
L1
 66
     1
 10
0.0
 20
0.0
 30
0.0
  0
VERTEX
  5
672
  8
L1
 10
0.8649789553039113
 20
66.722299364266405
 30
0.0
  0
VERTEX
  5
673
  8
L1
 10
0.8648171858891942
 20
66.742251332228079
 30
0.0
  0
VERTEX
  5
674
  8
L1
 10
0.8647632621688786
 20
66.762198604998161
 30
0.0
  0
SEQEND
  5
675
  8
L1
  0
LINE
  5
47
  8
L1
 10
17.927067393077941
 20
66.329196561759034
 30
0.0
 11
17.927067393077941
 21
71.529299364266478
 31
0.0
  0
LINE
  5
48
  8
L1
 10
15.527067393077971
 20
68.029299364266308
 30
0.0
 11
15.527067393077971
 21
70.133967483688934
 31
0.0
  0
LINE
  5
49
  8
L1
 10
3.0128538307048411
 20
68.243512926639369
 30
0.0
 11
4.4724834815010013
 21
69.703142577435514
 31
0.0
  0
LINE
  5
4A
  8
L1
 10
14.121386873587021
 20
71.29102866399495
 30
0.0
 11
9.3653380933494077
 21
66.534979883757273
 31
0.0
  0
LINE
  5
4B
  8
L1
 10
10.16724313907474
 20
65.498407298397638
 30
0.0
 11
15.014935358722081
 21
70.346099518044923
 31
0.0
  0
LINE
  5
4C
  8
L1
 10
17.737115714736031
 20
64.986275264041623
 30
0.0
 11
10.37937517343078
 21
64.986275264041623
 31
0.0
  0
ARC
  5
4D
  8
L1
 10
9.1270673930779935
 20
71.529299364266365
 30
0.0
 40
4.9999999999999849
 50
248.57817847820311
 51
272.7314155704276
  0
ARC
  5
4E
  8
L1
 10
10.37937517343078
 20
65.286275264041706
 30
0.0
 40
0.3000000000000114
 50
135.00000000000759
 51
270.0
  0
POLYLINE
  5
4F
  8
L1
 66
     1
 10
0.0
 20
0.0
 30
0.0
  0
VERTEX
  5
676
  8
L1
 10
3.8800022103384322
 20
69.110661306272902
 30
0.0
  0
VERTEX
  5
677
  8
L1
 10
3.9183326950944202
 20
69.021664413341057
 30
0.0
  0
VERTEX
  5
678
  8
L1
 10
3.9476340042166949
 20
68.959788573189925
 30
0.0
  0
VERTEX
  5
679
  8
L1
 10
3.993611155547057
 20
68.867881145264278
 30
0.0
  0
VERTEX
  5
67A
  8
L1
 10
4.0496517914497749
 20
68.762045849231583
 30
0.0
  0
VERTEX
  5
67B
  8
L1
 10
4.0500207806675803
 20
68.761368910741339
 30
0.0
  0
SEQEND
  5
67C
  8
L1
  0
POLYLINE
  5
50
  8
L1
 66
     1
 10
0.0
 20
0.0
 30
0.0
  0
VERTEX
  5
67D
  8
L1
 10
6.3591369395531379
 20
66.452252751855781
 30
0.0
  0
VERTEX
  5
67E
  8
L1
 10
6.3598138780433251
 20
66.451883762637976
 30
0.0
  0
VERTEX
  5
67F
  8
L1
 10
6.4656491740763036
 20
66.395843126735315
 30
0.0
  0
VERTEX
  5
680
  8
L1
 10
6.5575566020017391
 20
66.349865975404896
 30
0.0
  0
VERTEX
  5
681
  8
L1
 10
6.6194324421527986
 20
66.320564666282792
 30
0.0
  0
VERTEX
  5
682
  8
L1
 10
6.708429335085099
 20
66.282234181527144
 30
0.0
  0
SEQEND
  5
683
  8
L1
  0
POLYLINE
  5
51
  8
L1
 66
     1
 10
0.0
 20
0.0
 30
0.0
  0
VERTEX
  5
684
  8
L1
 10
4.3599666338099601
 20
63.266995233357193
 30
0.0
  0
VERTEX
  5
685
  8
L1
 10
4.340019361039765
 20
63.267049157077501
 30
0.0
  0
VERTEX
  5
686
  8
L1
 10
4.3200673930779772
 20
63.267210926492218
 30
0.0
  0
SEQEND
  5
687
  8
L1
  0
ARC
  5
52
  8
L1
 10
9.1270673930779935
 20
71.529299364266365
 30
0.0
 40
5.7825462644184809
 50
208.5985626837562
 51
241.4014373162457
  0
LINE
  5
53
  8
L1
 10
7.3009106062472142
 20
66.874715452689315
 30
0.0
 11
5.8412809554510536
 21
65.415085801893156
 31
0.0
  0
ARC
  5
54
  8
L1
 10
18.727067393077899
 20
68.029299364266308
 30
0.0
 40
3.2000000000000002
 50
180.0
 51
251.97934069484759
  0
POLYLINE
  5
55
  8
L1
 66
     1
 10
0.0
 20
0.0
 30
0.0
  0
VERTEX
  5
688
  8
L1
 10
18.22696459057061
 20
66.029299364266365
 30
0.0
  0
VERTEX
  5
689
  8
L1
 10
18.01489278684215
 20
66.117124758030627
 30
0.0
  0
VERTEX
  5
68A
  8
L1
 10
17.927067393077941
 20
66.329196561759034
 30
0.0
  0
SEQEND
  5
68B
  8
L1
  0
ARC
  5
56
  8
L1
 10
9.1270673930779935
 20
71.529299364266365
 30
0.0
 40
4.9999999999999849
 50
357.268584429572
 51
92.731415570427046
  0
ARC
  5
57
  8
L1
 10
9.1270673930779935
 20
71.529299364266365
 30
0.0
 40
4.9999999999999849
 50
177.26858442957229
 51
201.42182152179751
  0
ARC
  5
58
  8
L1
 10
2.884043292853391
 20
72.781607144619215
 30
0.0
 40
0.3000000000000145
 50
180.0
 51
314.99999999998852
  0
LINE
  5
59
  8
L1
 10
7.7317355125005056
 20
77.929299364266342
 30
0.0
 11
5.6270673930779926
 21
77.929299364266342
 31
0.0
  0
ARC
  5
5A
  8
L1
 10
7.7317355125005056
 20
77.62929936426633
 30
0.0
 40
0.3000000000000001
 50
315.00000000000381
 51
90.0
  0
LINE
  5
5B
  8
L1
 10
9.1270673930779935
 20
77.929299364266342
 30
0.0
 11
7.7317355125005056
 21
77.929299364266342
 31
0.0
  0
LINE
  5
5C
  8
L1
 10
4.132747912569072
 20
71.767570064537779
 30
0.0
 11
8.8887966928065794
 21
76.523618844775399
 31
0.0
  0
LINE
  5
5D
  8
L1
 10
7.9438675468565521
 20
77.417167329910399
 30
0.0
 11
3.096175327209437
 21
72.569475110263227
 31
0.0
  0
LINE
  5
5E
  8
L1
 10
15.527067393077971
 20
70.133967483688991
 30
0.0
 11
15.527067393077971
 21
71.529299364266294
 31
0.0
  0
ARC
  5
5F
  8
L1
 10
15.227067393077901
 20
70.133967483688991
 30
0.0
 40
0.2999999999999944
 50
0.0
 51
134.99999999999611
  0
POLYLINE
  5
60
  8
L1
 66
     1
 10
0.0
 20
0.0
 30
0.0
  0
VERTEX
  5
68C
  8
L1
 10
16.144428782177719
 20
76.839350130009848
 30
0.0
  0
VERTEX
  5
68D
  8
L1
 10
16.123735412928848
 20
76.87057377305581
 30
0.0
  0
VERTEX
  5
68E
  8
L1
 10
16.086817762310542
 20
76.977025757464673
 30
0.0
  0
VERTEX
  5
68F
  8
L1
 10
16.092652817308299
 20
77.093165799154235
 30
0.0
  0
VERTEX
  5
690
  8
L1
 10
16.14324768189061
 20
77.199768062485063
 30
0.0
  0
VERTEX
  5
691
  8
L1
 10
16.153889125049709
 20
77.213211850173423
 30
0.0
  0
SEQEND
  5
692
  8
L1
  0
ARC
  5
61
  8
L1
 10
9.1270673930779935
 20
71.529299364266478
 30
0.0
 40
8.8000000000000007
 50
0.0
 51
37.114862455073478
  0
ARC
  5
62
  8
L1
 10
18.727067393077899
 20
188.52929936426639
 30
0.0
 40
3.2000000000000002
 50
90.0
 51
108.02065930515229
  0
LINE
  5
63
  8
L1
 10
2.4270673930779481
 20
175.42929936426631
 30
0.0
 11
2.4270673930779481
 21
81.129299364266373
 31
0.0
  0
LINE
  5
64
  8
L1
 10
3.6270673930779931
 20
175.9294021667736
 30
0.0
 11
3.6270673930779931
 21
80.629196561758974
 31
0.0
  0
ARC
  5
65
  8
L1
 10
9.1270673930779935
 20
71.529299364266478
 30
0.0
 40
8.8000000000000007
 50
52.885137544925861
 51
90.0
  0
LINE
  5
66
  8
L1
 10
9.1270673930779935
 20
80.329299364266433
 30
0.0
 11
3.9269645905706621
 21
80.329299364266433
 31
0.0
  0
POLYLINE
  5
67
  8
L1
 66
     1
 10
0.0
 20
0.0
 30
0.0
  0
VERTEX
  5
693
  8
L1
 10
3.9269645905706621
 20
80.329299364266376
 30
0.0
  0
VERTEX
  5
694
  8
L1
 10
3.7148927868421988
 20
80.417124758030695
 30
0.0
  0
VERTEX
  5
695
  8
L1
 10
3.6270673930779931
 20
80.629196561759045
 30
0.0
  0
SEQEND
  5
696
  8
L1
  0
ARC
  5
68
  8
L1
 10
5.6270673930779926
 20
81.129299364266373
 30
0.0
 40
3.2000000000000002
 50
180.0
 51
198.02065930515991
  0
LINE
  5
69
  8
L1
 10
15.915119440441851
 20
79.482604195024734
 30
0.0
 11
14.81097987898505
 21
78.556121096238144
 31
0.0
  0
POLYLINE
  5
6A
  8
L1
 66
     1
 10
0.0
 20
0.0
 30
0.0
  0
VERTEX
  5
697
  8
L1
 10
15.915119440441741
 20
79.482604195024805
 30
0.0
  0
VERTEX
  5
698
  8
L1
 10
16.121033761939032
 20
79.552504115932607
 30
0.0
  0
VERTEX
  5
699
  8
L1
 10
16.320072337751011
 20
79.464923569694747
 30
0.0
  0
SEQEND
  5
69A
  8
L1
  0
LINE
  5
6B
  8
L1
 10
17.062691598506319
 20
78.722304308939442
 30
0.0
 11
16.320072337751011
 21
79.464923569694747
 31
0.0
  0
POLYLINE
  5
6C
  8
L1
 66
     1
 10
0.0
 20
0.0
 30
0.0
  0
VERTEX
  5
69B
  8
L1
 10
17.062691598506429
 20
78.722304308939442
 30
0.0
  0
VERTEX
  5
69C
  8
L1
 10
17.150272144744289
 20
78.523265733127459
 30
0.0
  0
VERTEX
  5
69D
  8
L1
 10
17.080372223836491
 20
78.31735141163017
 30
0.0
  0
SEQEND
  5
69E
  8
L1
  0
POLYLINE
  5
6D
  8
L1
 66
     1
 10
0.0
 20
0.0
 30
0.0
  0
VERTEX
  5
69F
  8
L1
 10
14.81097987898505
 20
78.556121096238144
 30
0.0
  0
VERTEX
  5
6A0
  8
L1
 10
14.74572757645813
 20
78.514410178447179
 30
0.0
  0
VERTEX
  5
6A1
  8
L1
 10
14.65651493448871
 20
78.488378398504324
 30
0.0
  0
VERTEX
  5
6A2
  8
L1
 10
14.569593753672899
 20
78.489854983831265
 30
0.0
  0
VERTEX
  5
6A3
  8
L1
 10
14.479932577736401
 20
78.519623874835361
 30
0.0
  0
VERTEX
  5
6A4
  8
L1
 10
14.43711815882153
 20
78.546660753366083
 30
0.0
  0
SEQEND
  5
6A5
  8
L1
  0
ARC
  5
6E
  8
L1
 10
5.6270673930779926
 20
175.42929936426631
 30
0.0
 40
3.2000000000000002
 50
90.0
 51
161.97934069484
  0
POLYLINE
  5
6F
  8
L1
 66
     1
 10
0.0
 20
0.0
 30
0.0
  0
VERTEX
  5
6A6
  8
L1
 10
17.062691598506429
 20
177.8362944195932
 30
0.0
  0
VERTEX
  5
6A7
  8
L1
 10
17.150272144744289
 20
178.03533299540521
 30
0.0
  0
VERTEX
  5
6A8
  8
L1
 10
17.080372223836491
 20
178.2412473169025
 30
0.0
  0
SEQEND
  5
6A9
  8
L1
  0
LINE
  5
70
  8
L1
 10
2.584043292853436
 20
183.77699158391351
 30
0.0
 11
2.584043292853436
 21
176.41925104260861
 31
0.0
  0
ARC
  5
71
  8
L1
 10
9.1270673930779935
 20
185.02929936426639
 30
0.0
 40
6.4000000000000501
 50
269.99999999999892
 51
0.0
  0
ARC
  5
72
  8
L1
 10
9.1270673930779935
 20
185.02929936426619
 30
0.0
 40
8.8000000000000007
 50
270.0
 51
307.1148624550741
  0
ARC
  5
73
  8
L1
 10
5.6270673930779926
 20
175.42929936426631
 30
0.0
 40
3.2000000000000002
 50
161.97934069484
 51
180.0
  0
POLYLINE
  5
74
  8
L1
 66
     1
 10
0.0
 20
0.0
 30
0.0
  0
VERTEX
  5
6AA
  8
L1
 10
3.9269645905706621
 20
176.2292993642663
 30
0.0
  0
VERTEX
  5
6AB
  8
L1
 10
3.7148927868421988
 20
176.14147397050201
 30
0.0
  0
VERTEX
  5
6AC
  8
L1
 10
3.6270673930779931
 20
175.9294021667736
 30
0.0
  0
SEQEND
  5
6AD
  8
L1
  0
LINE
  5
75
  8
L1
 10
9.1270673930779935
 20
176.22929936426621
 30
0.0
 11
3.9269645905706621
 21
176.22929936426621
 31
0.0
  0
POLYLINE
  5
76
  8
L1
 66
     1
 10
0.0
 20
0.0
 30
0.0
  0
VERTEX
  5
6AE
  8
L1
 10
14.81097987898505
 20
178.0024776322945
 30
0.0
  0
VERTEX
  5
6AF
  8
L1
 10
14.74572757645813
 20
178.04418855008549
 30
0.0
  0
VERTEX
  5
6B0
  8
L1
 10
14.65651493448871
 20
178.07022033002841
 30
0.0
  0
VERTEX
  5
6B1
  8
L1
 10
14.569593753672899
 20
178.06874374470141
 30
0.0
  0
VERTEX
  5
6B2
  8
L1
 10
14.479932577736401
 20
178.03897485369731
 30
0.0
  0
VERTEX
  5
6B3
  8
L1
 10
14.43711815882153
 20
178.0119379751666
 30
0.0
  0
SEQEND
  5
6B4
  8
L1
  0
LINE
  5
77
  8
L1
 10
17.062691598506319
 20
177.8362944195932
 30
0.0
 11
16.320072337751011
 21
177.0936751588379
 31
0.0
  0
POLYLINE
  5
78
  8
L1
 66
     1
 10
0.0
 20
0.0
 30
0.0
  0
VERTEX
  5
6B5
  8
L1
 10
15.915119440441741
 20
177.0759945335079
 30
0.0
  0
VERTEX
  5
6B6
  8
L1
 10
16.121033761939032
 20
177.00609461260009
 30
0.0
  0
VERTEX
  5
6B7
  8
L1
 10
16.320072337751011
 20
177.0936751588379
 30
0.0
  0
SEQEND
  5
6B8
  8
L1
  0
LINE
  5
79
  8
L1
 10
15.915119440441851
 20
177.0759945335079
 30
0.0
 11
14.81097987898505
 21
178.0024776322945
 31
0.0
  0
ARC
  5
7A
  8
L1
 10
4.3200673930779772
 20
189.8362993642663
 30
0.0
 40
2.7360241002247649
 50
90.0
 51
180.0
  0
ARC
  5
7B
  8
L1
 10
4.4270673930779481
 20
189.72929936426641
 30
0.0
 40
2.0000000000000151
 50
45.0
 51
225.0
  0
POLYLINE
  5
7C
  8
L1
 66
     1
 10
0.0
 20
0.0
 30
0.0
  0
VERTEX
  5
6B9
  8
L1
 10
4.3200673930779772
 20
193.2913878020405
 30
0.0
  0
VERTEX
  5
6BA
  8
L1
 10
3.6582797906325482
 20
193.22101375438081
 30
0.0
  0
VERTEX
  5
6BB
  8
L1
 10
3.0032950068369351
 20
193.01888436626871
 30
0.0
  0
VERTEX
  5
6BC
  8
L1
 10
2.4004481621818168
 20
192.69274011445239
 30
0.0
  0
VERTEX
  5
6BD
  8
L1
 10
1.887138274004371
 20
192.2692284833399
 30
0.0
  0
VERTEX
  5
6BE
  8
L1
 10
1.463626642891938
 20
191.7559185951624
 30
0.0
  0
VERTEX
  5
6BF
  8
L1
 10
1.1374823910755929
 20
191.15307175050731
 30
0.0
  0
VERTEX
  5
6C0
  8
L1
 10
0.9353530029637227
 20
190.49808696671161
 30
0.0
  0
VERTEX
  5
6C1
  8
L1
 10
0.8649789553039113
 20
189.8362993642663
 30
0.0
  0
SEQEND
  5
6C2
  8
L1
  0
POLYLINE
  5
7D
  8
L1
 66
     1
 10
0.0
 20
0.0
 30
0.0
  0
VERTEX
  5
6C3
  8
L1
 10
0.8649789553039113
 20
189.8362993642663
 30
0.0
  0
VERTEX
  5
6C4
  8
L1
 10
0.8648171858891942
 20
189.81634739630459
 30
0.0
  0
VERTEX
  5
6C5
  8
L1
 10
0.8647632621688786
 20
189.79640012353451
 30
0.0
  0
SEQEND
  5
6C6
  8
L1
  0
ARC
  5
7E
  8
L1
 10
9.1270673930779935
 20
185.02929936426631
 30
0.0
 40
4.9999999999999849
 50
158.57817847820229
 51
182.7314155704276
  0
LINE
  5
7F
  8
L1
 10
15.527067393077971
 20
188.52929936426639
 30
0.0
 11
15.527067393077971
 21
186.42463124484379
 31
0.0
  0
LINE
  5
80
  8
L1
 10
10.16724313907474
 20
191.06019143013501
 30
0.0
 11
15.014935358722081
 21
186.21249921048781
 31
0.0
  0
LINE
  5
81
  8
L1
 10
14.121386873587021
 20
185.26757006453769
 30
0.0
 11
9.3653380933494077
 21
190.0236188447754
 31
0.0
  0
LINE
  5
82
  8
L1
 10
17.927067393077941
 20
190.2294021667737
 30
0.0
 11
17.927067393077941
 21
185.02929936426619
 31
0.0
  0
ARC
  5
83
  8
L1
 10
9.1270673930779935
 20
185.02929936426631
 30
0.0
 40
4.9999999999999849
 50
267.26858442957291
 51
2.7314155704279841
  0
ARC
  5
84
  8
L1
 10
2.884043292853391
 20
183.77699158391351
 30
0.0
 40
0.3000000000000145
 50
45.000000000011497
 51
180.0
  0
LINE
  5
85
  8
L1
 10
9.1270673930779935
 20
178.6292993642663
 30
0.0
 11
7.7317355125005056
 21
178.6292993642663
 31
0.0
  0
ARC
  5
86
  8
L1
 10
7.7317355125005056
 20
178.92929936426631
 30
0.0
 40
0.3000000000000001
 50
270.0
 51
44.999999999996142
  0
LINE
  5
87
  8
L1
 10
7.7317355125005056
 20
178.6292993642663
 30
0.0
 11
5.6270673930779926
 21
178.6292993642663
 31
0.0
  0
LINE
  5
88
  8
L1
 10
7.9438675468565521
 20
179.1414313986223
 30
0.0
 11
3.096175327209437
 21
183.9891236182695
 31
0.0
  0
LINE
  5
89
  8
L1
 10
4.132747912569072
 20
184.79102866399489
 30
0.0
 11
8.8887966928065794
 21
180.0349798837573
 31
0.0
  0
ARC
  5
8A
  8
L1
 10
15.227067393077901
 20
186.42463124484371
 30
0.0
 40
0.2999999999999944
 50
225.00000000000381
 51
0.0
  0
LINE
  5
8B
  8
L1
 10
15.527067393077971
 20
186.42463124484371
 30
0.0
 11
15.527067393077971
 21
185.02929936426639
 31
0.0
  0
POLYLINE
  5
8C
  8
L1
 66
     1
 10
0.0
 20
0.0
 30
0.0
  0
VERTEX
  5
6C7
  8
L1
 10
16.144428782177719
 20
179.7192485985228
 30
0.0
  0
VERTEX
  5
6C8
  8
L1
 10
16.123735412928848
 20
179.68802495547689
 30
0.0
  0
VERTEX
  5
6C9
  8
L1
 10
16.086817762310542
 20
179.581572971068
 30
0.0
  0
VERTEX
  5
6CA
  8
L1
 10
16.092652817308299
 20
179.46543292937841
 30
0.0
  0
VERTEX
  5
6CB
  8
L1
 10
16.14324768189061
 20
179.3588306660476
 30
0.0
  0
VERTEX
  5
6CC
  8
L1
 10
16.153889125049709
 20
179.34538687835931
 30
0.0
  0
SEQEND
  5
6CD
  8
L1
  0
LINE
  5
8D
  8
L1
 10
16.153889125049709
 20
179.34538687835919
 30
0.0
 11
17.08037222383637
 21
178.24124731690239
 31
0.0
  0
ARC
  5
8E
  8
L1
 10
9.1270673930779935
 20
185.02929936426619
 30
0.0
 40
8.8000000000000007
 50
322.88513754492652
 51
0.0
  0
LINE
  5
8F
  8
L1
 10
17.737115714736031
 20
191.57232346449101
 30
0.0
 11
10.37937517343078
 21
191.57232346449101
 31
0.0
  0
LINE
  5
90
  8
L1
 10
3.0128538307048411
 20
188.3150858018933
 30
0.0
 11
4.4724834815010013
 21
186.8554561510972
 31
0.0
  0
LINE
  5
91
  8
L1
 10
7.3009106062472142
 20
189.68388327584341
 30
0.0
 11
5.8412809554510536
 21
191.14351292663949
 31
0.0
  0
ARC
  5
92
  8
L1
 10
9.1270673930779935
 20
185.02929936426631
 30
0.0
 40
5.7825462644184809
 50
118.5985626837542
 51
151.40143731624369
  0
POLYLINE
  5
93
  8
L1
 66
     1
 10
0.0
 20
0.0
 30
0.0
  0
VERTEX
  5
6CE
  8
L1
 10
4.3599666338099601
 20
193.29160349517551
 30
0.0
  0
VERTEX
  5
6CF
  8
L1
 10
4.340019361039765
 20
193.29154957145519
 30
0.0
  0
VERTEX
  5
6D0
  8
L1
 10
4.3200673930779772
 20
193.2913878020405
 30
0.0
  0
SEQEND
  5
6D1
  8
L1
  0
POLYLINE
  5
94
  8
L1
 66
     1
 10
0.0
 20
0.0
 30
0.0
  0
VERTEX
  5
6D2
  8
L1
 10
6.3591369395531379
 20
190.10634597667689
 30
0.0
  0
VERTEX
  5
6D3
  8
L1
 10
6.3598138780433251
 20
190.1067149658947
 30
0.0
  0
VERTEX
  5
6D4
  8
L1
 10
6.4656491740763036
 20
190.16275560179739
 30
0.0
  0
VERTEX
  5
6D5
  8
L1
 10
6.5575566020017391
 20
190.2087327531278
 30
0.0
  0
VERTEX
  5
6D6
  8
L1
 10
6.6194324421527986
 20
190.23803406224991
 30
0.0
  0
VERTEX
  5
6D7
  8
L1
 10
6.708429335085099
 20
190.2763645470055
 30
0.0
  0
SEQEND
  5
6D8
  8
L1
  0
POLYLINE
  5
95
  8
L1
 66
     1
 10
0.0
 20
0.0
 30
0.0
  0
VERTEX
  5
6D9
  8
L1
 10
3.8800022103384322
 20
187.4479374222598
 30
0.0
  0
VERTEX
  5
6DA
  8
L1
 10
3.9183326950944202
 20
187.53693431519159
 30
0.0
  0
VERTEX
  5
6DB
  8
L1
 10
3.9476340042166949
 20
187.5988101553427
 30
0.0
  0
VERTEX
  5
6DC
  8
L1
 10
3.993611155547057
 20
187.69071758326839
 30
0.0
  0
VERTEX
  5
6DD
  8
L1
 10
4.0496517914497749
 20
187.79655287930109
 30
0.0
  0
VERTEX
  5
6DE
  8
L1
 10
4.0500207806675803
 20
187.7972298177913
 30
0.0
  0
SEQEND
  5
6DF
  8
L1
  0
ARC
  5
96
  8
L1
 10
10.37937517343078
 20
191.272323464491
 30
0.0
 40
0.3000000000000114
 50
90.0
 51
224.9999999999923
  0
ARC
  5
97
  8
L1
 10
9.1270673930779935
 20
185.02929936426631
 30
0.0
 40
4.9999999999999849
 50
87.268584429572357
 51
111.4218215217968
  0
POLYLINE
  5
98
  8
L1
 66
     1
 10
0.0
 20
0.0
 30
0.0
  0
VERTEX
  5
6E0
  8
L1
 10
18.22696459057061
 20
190.52929936426631
 30
0.0
  0
VERTEX
  5
6E1
  8
L1
 10
18.01489278684215
 20
190.4414739705021
 30
0.0
  0
VERTEX
  5
6E2
  8
L1
 10
17.927067393077941
 20
190.2294021667737
 30
0.0
  0
SEQEND
  5
6E3
  8
L1
  0
ARC
  5
99
  8
L1
 10
18.727067393077899
 20
188.52929936426639
 30
0.0
 40
3.2000000000000002
 50
108.02065930515229
 51
180.0
  0
LINE
  5
9A
  8
L6
 10
396.85669401226988
 20
196.7960582190772
 30
0.0
 11
396.85669401226988
 21
58.847312361929312
 31
0.0
  0
LINE
  5
9B
  8
L1
 10
241.9149582285182
 20
64.804412590381901
 30
0.0
 11
241.9149582285182
 21
191.75418613815069
 31
0.0
  0
LINE
  5
9C
  8
L1
 10
308.38180723838548
 20
67.246377157096788
 30
0.0
 11
308.38180723838548
 21
189.31222157143591
 31
0.0
  0
LINE
  5
9D
  8
L1
 10
306.84438988136083
 20
66.762198604998105
 30
0.0
 11
306.84438988136083
 21
189.79640012353451
 31
0.0
  0
ARC
  5
9E
  8
L1
 10
176.12706739307799
 20
81.129299364266373
 30
0.0
 40
3.2000000000000002
 50
270.0
 51
341.97934069484012
  0
LINE
  5
9F
  8
L1
 10
165.60024566110619
 20
77.213211850173479
 30
0.0
 11
164.6737625623195
 21
78.317351411630213
 31
0.0
  0
LINE
  5
A0
  8
L1
 10
179.17009149330249
 20
72.781607144619215
 30
0.0
 11
179.17009149330249
 21
80.139347685924065
 31
0.0
  0
ARC
  5
A1
  8
L1
 10
172.62706739307799
 20
71.529299364266294
 30
0.0
 40
6.4000000000000501
 50
89.999999999998977
 51
180.0
  0
LINE
  5
A2
  8
L1
 10
252.98580838065749
 20
191.22929936426621
 30
0.0
 11
252.98580838065749
 21
65.329299364266319
 31
0.0
  0
LINE
  5
A6
  8
L1
 10
180.88937152398711
 20
189.79640012353451
 30
0.0
 11
180.88937152398711
 21
66.762198604998161
 31
0.0
  0
LINE
  5
A7
  8
L1
 10
180.17009149330269
 20
66.722299364266348
 30
0.0
 11
180.17009149330269
 21
189.8362993642663
 31
0.0
  0
ARC
  5
A8
  8
L1
 10
177.43406739307801
 20
66.722299364266405
 30
0.0
 40
2.7360241002247649
 50
270.0
 51
0.0
  0
ARC
  5
A9
  8
L1
 10
177.32706739307801
 20
66.829299364266262
 30
0.0
 40
2.0000000000000151
 50
225.0
 51
45.0
  0
POLYLINE
  5
AA
  8
L1
 66
     1
 10
0.0
 20
0.0
 30
0.0
  0
VERTEX
  5
6E4
  8
L1
 10
177.43406739307801
 20
63.267210926492218
 30
0.0
  0
VERTEX
  5
6E5
  8
L1
 10
178.09585499552341
 20
63.33758497415193
 30
0.0
  0
VERTEX
  5
6E6
  8
L1
 10
178.75083977931899
 20
63.539714362264021
 30
0.0
  0
VERTEX
  5
6E7
  8
L1
 10
179.35368662397411
 20
63.865858614080253
 30
0.0
  0
VERTEX
  5
6E8
  8
L1
 10
179.86699651215159
 20
64.289370245192799
 30
0.0
  0
VERTEX
  5
6E9
  8
L1
 10
180.29050814326399
 20
64.802680133370302
 30
0.0
  0
VERTEX
  5
6EA
  8
L1
 10
180.61665239508031
 20
65.405526978025421
 30
0.0
  0
VERTEX
  5
6EB
  8
L1
 10
180.81878178319221
 20
66.06051176182109
 30
0.0
  0
VERTEX
  5
6EC
  8
L1
 10
180.88915583085199
 20
66.722299364266405
 30
0.0
  0
SEQEND
  5
6ED
  8
L1
  0
ARC
  5
AB
  8
L1
 10
163.027067393078
 20
68.029299364266308
 30
0.0
 40
3.2000000000000002
 50
270.0
 51
288.02065930515232
  0
LINE
  5
AC
  8
L1
 10
178.74128095545109
 20
68.243512926639369
 30
0.0
 11
177.2816513046549
 21
69.703142577435514
 31
0.0
  0
LINE
  5
AD
  8
L1
 10
166.22706739307799
 20
68.029299364266308
 30
0.0
 11
166.22706739307799
 21
70.133967483688934
 31
0.0
  0
LINE
  5
AE
  8
L1
 10
171.58689164708119
 20
65.498407298397638
 30
0.0
 11
166.7391994274339
 21
70.346099518044923
 31
0.0
  0
LINE
  5
AF
  8
L1
 10
167.6327479125689
 20
71.29102866399495
 30
0.0
 11
172.38879669280649
 21
66.534979883757273
 31
0.0
  0
LINE
  5
B0
  8
L1
 10
163.82706739307801
 20
66.329196561759034
 30
0.0
 11
163.82706739307801
 21
71.529299364266478
 31
0.0
  0
ARC
  5
B1
  8
L1
 10
171.3747596127252
 20
65.286275264041706
 30
0.0
 40
0.3000000000000114
 50
270.0
 51
44.999999999992312
  0
POLYLINE
  5
B2
  8
L1
 66
     1
 10
0.0
 20
0.0
 30
0.0
  0
VERTEX
  5
6EE
  8
L1
 10
163.52717019558531
 20
66.029299364266365
 30
0.0
  0
VERTEX
  5
6EF
  8
L1
 10
163.7392419993138
 20
66.117124758030627
 30
0.0
  0
VERTEX
  5
6F0
  8
L1
 10
163.82706739307801
 20
66.329196561759034
 30
0.0
  0
SEQEND
  5
6F1
  8
L1
  0
LINE
  5
B3
  8
L1
 10
164.0170190714199
 20
64.986275264041623
 30
0.0
 11
171.3747596127252
 21
64.986275264041623
 31
0.0
  0
ARC
  5
B4
  8
L1
 10
163.027067393078
 20
68.029299364266308
 30
0.0
 40
3.2000000000000002
 50
288.02065930515232
 51
0.0
  0
LINE
  5
B5
  8
L1
 10
174.45322417990869
 20
66.874715452689315
 30
0.0
 11
175.9128538307049
 21
65.415085801893156
 31
0.0
  0
ARC
  5
B6
  8
L1
 10
172.62706739307799
 20
71.529299364266365
 30
0.0
 40
5.7825462644184809
 50
298.59856268375421
 51
331.40143731624369
  0
POLYLINE
  5
B7
  8
L1
 66
     1
 10
0.0
 20
0.0
 30
0.0
  0
VERTEX
  5
6F2
  8
L1
 10
177.394168152346
 20
63.266995233357193
 30
0.0
  0
VERTEX
  5
6F3
  8
L1
 10
177.41411542511619
 20
63.267049157077501
 30
0.0
  0
VERTEX
  5
6F4
  8
L1
 10
177.43406739307801
 20
63.267210926492218
 30
0.0
  0
SEQEND
  5
6F5
  8
L1
  0
POLYLINE
  5
B8
  8
L1
 66
     1
 10
0.0
 20
0.0
 30
0.0
  0
VERTEX
  5
6F6
  8
L1
 10
175.39499784660279
 20
66.452252751855781
 30
0.0
  0
VERTEX
  5
6F7
  8
L1
 10
175.3943209081126
 20
66.451883762637976
 30
0.0
  0
VERTEX
  5
6F8
  8
L1
 10
175.2884856120796
 20
66.395843126735315
 30
0.0
  0
VERTEX
  5
6F9
  8
L1
 10
175.19657818415419
 20
66.349865975404896
 30
0.0
  0
VERTEX
  5
6FA
  8
L1
 10
175.1347023440031
 20
66.320564666282792
 30
0.0
  0
VERTEX
  5
6FB
  8
L1
 10
175.0457054510708
 20
66.282234181527144
 30
0.0
  0
SEQEND
  5
6FC
  8
L1
  0
POLYLINE
  5
B9
  8
L1
 66
     1
 10
0.0
 20
0.0
 30
0.0
  0
VERTEX
  5
6FD
  8
L1
 10
177.8741325758175
 20
69.110661306272902
 30
0.0
  0
VERTEX
  5
6FE
  8
L1
 10
177.83580209106151
 20
69.021664413341057
 30
0.0
  0
VERTEX
  5
6FF
  8
L1
 10
177.80650078193921
 20
68.959788573189925
 30
0.0
  0
VERTEX
  5
700
  8
L1
 10
177.7605236306089
 20
68.867881145264278
 30
0.0
  0
VERTEX
  5
701
  8
L1
 10
177.70448299470621
 20
68.762045849231583
 30
0.0
  0
VERTEX
  5
702
  8
L1
 10
177.70411400548829
 20
68.761368910741339
 30
0.0
  0
SEQEND
  5
703
  8
L1
  0
ARC
  5
BA
  8
L1
 10
172.62706739307799
 20
71.529299364266365
 30
0.0
 40
4.9999999999999849
 50
267.26858442957229
 51
291.4218215217968
  0
ARC
  5
BB
  8
L1
 10
172.62706739307799
 20
71.529299364266365
 30
0.0
 40
4.9999999999999849
 50
87.268584429572954
 51
182.73141557042791
  0
ARC
  5
BC
  8
L1
 10
166.527067393078
 20
70.133967483688991
 30
0.0
 40
0.2999999999999944
 50
45.000000000003851
 51
180.0
  0
LINE
  5
BD
  8
L1
 10
166.22706739307799
 20
70.133967483688991
 30
0.0
 11
166.22706739307799
 21
71.529299364266294
 31
0.0
  0
POLYLINE
  5
BE
  8
L1
 66
     1
 10
0.0
 20
0.0
 30
0.0
  0
VERTEX
  5
704
  8
L1
 10
165.6097060039782
 20
76.839350130009848
 30
0.0
  0
VERTEX
  5
705
  8
L1
 10
165.63039937322711
 20
76.87057377305581
 30
0.0
  0
VERTEX
  5
706
  8
L1
 10
165.66731702384541
 20
76.977025757464673
 30
0.0
  0
VERTEX
  5
707
  8
L1
 10
165.6614819688476
 20
77.093165799154235
 30
0.0
  0
VERTEX
  5
708
  8
L1
 10
165.61088710426529
 20
77.199768062485063
 30
0.0
  0
VERTEX
  5
709
  8
L1
 10
165.60024566110619
 20
77.213211850173423
 30
0.0
  0
SEQEND
  5
70A
  8
L1
  0
ARC
  5
BF
  8
L1
 10
172.62706739307799
 20
71.529299364266478
 30
0.0
 40
8.8000000000000007
 50
142.88513754492649
 51
180.0
  0
ARC
  5
C0
  8
L1
 10
178.87009149330251
 20
72.781607144619215
 30
0.0
 40
0.3000000000000145
 50
225.00000000001151
 51
0.0
  0
ARC
  5
C1
  8
L1
 10
172.62706739307799
 20
71.529299364266365
 30
0.0
 40
4.9999999999999849
 50
338.57817847820229
 51
2.7314155704276519
  0
LINE
  5
C2
  8
L1
 10
172.62706739307799
 20
77.929299364266342
 30
0.0
 11
174.0223992736554
 21
77.929299364266342
 31
0.0
  0
ARC
  5
C3
  8
L1
 10
174.0223992736554
 20
77.62929936426633
 30
0.0
 40
0.3000000000000001
 50
90.0
 51
224.99999999999611
  0
LINE
  5
C4
  8
L1
 10
174.0223992736554
 20
77.929299364266342
 30
0.0
 11
176.12706739307799
 21
77.929299364266342
 31
0.0
  0
LINE
  5
C5
  8
L1
 10
173.81026723929941
 20
77.417167329910399
 30
0.0
 11
178.65795945894649
 21
72.569475110263227
 31
0.0
  0
LINE
  5
C6
  8
L1
 10
177.62138687358691
 20
71.767570064537779
 30
0.0
 11
172.86533809334941
 21
76.523618844775399
 31
0.0
  0
POLYLINE
  5
C7
  8
L1
 66
     1
 10
0.0
 20
0.0
 30
0.0
  0
VERTEX
  5
70B
  8
L1
 10
180.88915583085199
 20
66.722299364266405
 30
0.0
  0
VERTEX
  5
70C
  8
L1
 10
180.88931760026671
 20
66.742251332228079
 30
0.0
  0
VERTEX
  5
70D
  8
L1
 10
180.88937152398711
 20
66.762198604998161
 30
0.0
  0
SEQEND
  5
70E
  8
L1
  0
LINE
  5
C9
  8
L1
 10
251.19567819783379
 20
63.266995233357108
 30
0.0
 11
243.02412249802859
 21
63.695248320871599
 31
0.0
  0
LINE
  5
CA
  8
L1
 10
243.02412249802859
 20
63.695248320871599
 30
0.0
 11
241.9149582285182
 21
64.804412590381901
 31
0.0
  0
LINE
  5
CF
  8
L1
 10
251.9149582285182
 20
63.986275264041581
 30
0.0
 11
251.19567819783379
 21
63.266995233357129
 31
0.0
  0
ARC
  5
D8
  8
L2
 10
252.61495822851819
 20
65.329299364266319
 30
0.0
 40
0.3708501521392529
 50
0.0
 51
80.000000000001947
  0
LINE
  5
D9
  8
L2
 10
251.9149582285182
 20
65.829299364266291
 30
0.0
 11
252.67935568162471
 21
65.694515469298807
 31
0.0
  0
ARC
  5
DA
  8
L1
 10
252.61495822851819
 20
65.329299364266319
 30
0.0
 40
0.3708501521392529
 50
279.99999999999801
 51
0.0
  0
LINE
  5
DB
  8
L1
 10
252.67935568162471
 20
64.964083259233831
 30
0.0
 11
251.9149582285182
 21
64.829299364266348
 31
0.0
  0
LINE
  5
DC
  8
L1
 10
251.9149582285182
 20
64.829299364266319
 30
0.0
 11
251.9149582285182
 21
63.986275264041581
 31
0.0
  0
ARC
  5
E9
  8
L1
 10
310.82377180510042
 20
67.246377157096816
 30
0.0
 40
2.4419645667148311
 50
180.0
 51
270.00000000000131
  0
POLYLINE
  5
EA
  8
L1
 66
     1
 10
0.0
 20
0.0
 30
0.0
  0
VERTEX
  5
70F
  8
L1
 10
306.84460557449592
 20
66.722299364266377
 30
0.0
  0
VERTEX
  5
710
  8
L1
 10
306.91497962215561
 20
66.060511761821118
 30
0.0
  0
VERTEX
  5
711
  8
L1
 10
307.11710901026748
 20
65.405526978025449
 30
0.0
  0
VERTEX
  5
712
  8
L1
 10
307.44325326208389
 20
64.802680133370373
 30
0.0
  0
VERTEX
  5
713
  8
L1
 10
307.86676489319632
 20
64.289370245192771
 30
0.0
  0
VERTEX
  5
714
  8
L1
 10
308.38007478137388
 20
63.865858614080331
 30
0.0
  0
VERTEX
  5
715
  8
L1
 10
308.982921626029
 20
63.539714362263943
 30
0.0
  0
VERTEX
  5
716
  8
L1
 10
309.63790640982461
 20
63.337584974152008
 30
0.0
  0
VERTEX
  5
717
  8
L1
 10
310.29969401226992
 20
63.267210926492261
 30
0.0
  0
SEQEND
  5
718
  8
L1
  0
ARC
  5
EB
  8
L1
 10
315.10669401226988
 20
71.529299364266393
 30
0.0
 40
4.9738193966277091
 50
177.3850343868742
 51
201.61910855169899
  0
LINE
  5
EC
  8
L1
 10
310.12531578171883
 20
69.339323294101149
 30
0.0
 11
310.48276459599492
 21
69.696772108377246
 31
0.0
  0
LINE
  5
ED
  8
L1
 10
320.07533410578282
 20
71.30237424135899
 30
0.0
 11
315.33361913517729
 21
66.560659270753519
 31
0.0
  0
CIRCLE
  5
EE
  8
L1
 10
315.10669401226988
 20
71.529299364266393
 30
0.0
 40
5.7974047862592784
  0
CIRCLE
  5
EF
  8
L1
 10
315.10669401226988
 20
71.529299364266393
 30
0.0
 40
6.097393363178492
  0
POLYLINE
  5
F0
  8
L1
 66
     1
 10
0.0
 20
0.0
 30
0.0
  0
VERTEX
  5
719
  8
L1
 10
312.68747860419148
 20
66.322351982271485
 30
0.0
  0
VERTEX
  5
71A
  8
L1
 10
312.62161057231219
 20
66.310851851386786
 30
0.0
  0
SEQEND
  5
71B
  8
L1
  0
POLYLINE
  5
F1
  8
L1
 66
     1
 10
0.0
 20
0.0
 30
0.0
  0
VERTEX
  5
71C
  8
L1
 10
312.62161057231219
 20
66.310851851386786
 30
0.0
  0
VERTEX
  5
71D
  8
L1
 10
312.5990590613448
 20
66.32056466628282
 30
0.0
  0
VERTEX
  5
71E
  8
L1
 10
312.53718322119357
 20
66.349865975405024
 30
0.0
  0
VERTEX
  5
71F
  8
L1
 10
312.44527579326802
 20
66.3958431267354
 30
0.0
  0
VERTEX
  5
720
  8
L1
 10
312.33944049723522
 20
66.451883762638062
 30
0.0
  0
VERTEX
  5
721
  8
L1
 10
312.33876355874497
 20
66.452252751855752
 30
0.0
  0
SEQEND
  5
722
  8
L1
  0
LINE
  5
F2
  8
L1
 10
313.27416675638091
 20
66.905369947991304
 30
0.0
 11
312.91671794210481
 21
66.547921133715221
 31
0.0
  0
POLYLINE
  5
F3
  8
L1
 66
     1
 10
0.0
 20
0.0
 30
0.0
  0
VERTEX
  5
723
  8
L1
 10
309.88824649939028
 20
69.044215924308645
 30
0.0
  0
VERTEX
  5
724
  8
L1
 10
309.8997466302751
 20
69.110083956187992
 30
0.0
  0
SEQEND
  5
725
  8
L1
  0
POLYLINE
  5
F4
  8
L1
 66
     1
 10
0.0
 20
0.0
 30
0.0
  0
VERTEX
  5
726
  8
L1
 10
309.89974663027499
 20
69.110083956187992
 30
0.0
  0
VERTEX
  5
727
  8
L1
 10
309.9156821514444
 20
69.127370946833622
 30
0.0
  0
VERTEX
  5
728
  8
L1
 10
309.96308178237649
 20
69.175970432863807
 30
0.0
  0
VERTEX
  5
729
  8
L1
 10
310.03632662440509
 20
69.250037874882793
 30
0.0
  0
VERTEX
  5
72A
  8
L1
 10
310.12531578171871
 20
69.339323294101149
 30
0.0
  0
SEQEND
  5
72B
  8
L1
  0
POLYLINE
  5
F5
  8
L1
 66
     1
 10
0.0
 20
0.0
 30
0.0
  0
VERTEX
  5
72C
  8
L1
 10
310.02964739985941
 20
68.761368910741425
 30
0.0
  0
VERTEX
  5
72D
  8
L1
 10
310.0292784106415
 20
68.762045849231612
 30
0.0
  0
VERTEX
  5
72E
  8
L1
 10
309.973237774739
 20
68.86788114526442
 30
0.0
  0
VERTEX
  5
72F
  8
L1
 10
309.92726062340847
 20
68.959788573190025
 30
0.0
  0
VERTEX
  5
730
  8
L1
 10
309.89795931428642
 20
69.021664413341142
 30
0.0
  0
VERTEX
  5
731
  8
L1
 10
309.88824649939028
 20
69.044215924308645
 30
0.0
  0
SEQEND
  5
732
  8
L1
  0
ARC
  5
F6
  8
L1
 10
315.10669401226988
 20
71.529299364266393
 30
0.0
 40
4.9738193966277091
 50
248.3808914483015
 51
272.61496561312509
  0
POLYLINE
  5
F7
  8
L1
 66
     1
 10
0.0
 20
0.0
 30
0.0
  0
VERTEX
  5
733
  8
L1
 10
312.91671794210481
 20
66.547921133715221
 30
0.0
  0
VERTEX
  5
734
  8
L1
 10
312.8274325228864
 20
66.458931976401544
 30
0.0
  0
VERTEX
  5
735
  8
L1
 10
312.75336508086741
 20
66.385687134372944
 30
0.0
  0
VERTEX
  5
736
  8
L1
 10
312.70476559483728
 20
66.338287503440853
 30
0.0
  0
VERTEX
  5
737
  8
L1
 10
312.6874786041916
 20
66.322351982271485
 30
0.0
  0
SEQEND
  5
738
  8
L1
  0
ARC
  5
F8
  8
L1
 10
315.10669401226988
 20
71.529299364266393
 30
0.0
 40
4.9738193966277091
 50
357.38503438687349
 51
92.614965613125804
  0
LINE
  5
F9
  8
L1
 10
310.13805391875712
 20
71.756224487173739
 30
0.0
 11
314.87976888936259
 21
76.497939457779211
 31
0.0
  0
LINE
  5
FB
  8
L2
 10
244.9168273517495
 20
175.7662383274114
 30
0.0
 11
244.9168273517495
 21
80.792360401121329
 31
0.0
  0
LINE
  5
FC
  8
L1
 10
178.12706739307791
 20
175.9294021667736
 30
0.0
 11
178.12706739307791
 21
80.629196561758974
 31
0.0
  0
LINE
  5
FD
  8
L1
 10
179.32706739307801
 20
175.42929936426631
 30
0.0
 11
179.32706739307801
 21
81.129299364266373
 31
0.0
  0
ARC
  5
FE
  8
L1
 10
172.62706739307799
 20
71.529299364266478
 30
0.0
 40
8.8000000000000007
 50
90.0
 51
127.1148624550741
  0
POLYLINE
  5
FF
  8
L1
 66
     1
 10
0.0
 20
0.0
 30
0.0
  0
VERTEX
  5
739
  8
L1
 10
166.94315490717091
 20
78.556121096238144
 30
0.0
  0
VERTEX
  5
73A
  8
L1
 10
167.00840720969779
 20
78.514410178447179
 30
0.0
  0
VERTEX
  5
73B
  8
L1
 10
167.09761985166719
 20
78.488378398504324
 30
0.0
  0
VERTEX
  5
73C
  8
L1
 10
167.184541032483
 20
78.489854983831265
 30
0.0
  0
VERTEX
  5
73D
  8
L1
 10
167.2742022084195
 20
78.519623874835361
 30
0.0
  0
VERTEX
  5
73E
  8
L1
 10
167.3170166273344
 20
78.546660753366083
 30
0.0
  0
SEQEND
  5
73F
  8
L1
  0
POLYLINE
  5
100
  8
L1
 66
     1
 10
0.0
 20
0.0
 30
0.0
  0
VERTEX
  5
740
  8
L1
 10
164.6914431876495
 20
78.722304308939442
 30
0.0
  0
VERTEX
  5
741
  8
L1
 10
164.60386264141161
 20
78.523265733127459
 30
0.0
  0
VERTEX
  5
742
  8
L1
 10
164.67376256231941
 20
78.31735141163017
 30
0.0
  0
SEQEND
  5
743
  8
L1
  0
LINE
  5
101
  8
L1
 10
164.69144318764961
 20
78.722304308939442
 30
0.0
 11
165.43406244840489
 21
79.464923569694747
 31
0.0
  0
POLYLINE
  5
102
  8
L1
 66
     1
 10
0.0
 20
0.0
 30
0.0
  0
VERTEX
  5
744
  8
L1
 10
165.83901534571419
 20
79.482604195024805
 30
0.0
  0
VERTEX
  5
745
  8
L1
 10
165.6331010242169
 20
79.552504115932607
 30
0.0
  0
VERTEX
  5
746
  8
L1
 10
165.43406244840489
 20
79.464923569694747
 30
0.0
  0
SEQEND
  5
747
  8
L1
  0
LINE
  5
103
  8
L1
 10
165.8390153457141
 20
79.482604195024734
 30
0.0
 11
166.94315490717091
 21
78.556121096238144
 31
0.0
  0
ARC
  5
104
  8
L1
 10
176.12706739307799
 20
81.129299364266373
 30
0.0
 40
3.2000000000000002
 50
341.97934069484012
 51
0.0
  0
POLYLINE
  5
105
  8
L1
 66
     1
 10
0.0
 20
0.0
 30
0.0
  0
VERTEX
  5
748
  8
L1
 10
177.8271701955853
 20
80.329299364266376
 30
0.0
  0
VERTEX
  5
749
  8
L1
 10
178.03924199931379
 20
80.417124758030695
 30
0.0
  0
VERTEX
  5
74A
  8
L1
 10
178.12706739307791
 20
80.629196561759045
 30
0.0
  0
SEQEND
  5
74B
  8
L1
  0
LINE
  5
106
  8
L1
 10
172.62706739307799
 20
80.329299364266433
 30
0.0
 11
177.8271701955853
 21
80.329299364266433
 31
0.0
  0
LINE
  5
109
  8
L2
 10
251.9149582285182
 20
80.329299364266348
 30
0.0
 11
245.20710514402589
 21
80.525899416289832
 31
0.0
  0
ARC
  5
10A
  8
L2
 10
245.2149582285183
 20
80.825796613782501
 30
0.0
 40
0.2999999999999998
 50
186.39914151628139
 51
268.50000000000011
  0
LINE
  5
10B
  8
L6
 10
260.98580838065732
 20
128.27929936426631
 30
0.0
 11
233.91495822851809
 21
128.27929936426631
 31
0.0
  0
POLYLINE
  5
10C
  8
L1
 66
     1
 10
0.0
 20
0.0
 30
0.0
  0
VERTEX
  5
74C
  8
L1
 10
164.6914431876495
 20
177.8362944195932
 30
0.0
  0
VERTEX
  5
74D
  8
L1
 10
164.60386264141161
 20
178.03533299540521
 30
0.0
  0
VERTEX
  5
74E
  8
L1
 10
164.67376256231941
 20
178.2412473169025
 30
0.0
  0
SEQEND
  5
74F
  8
L1
  0
ARC
  5
10D
  8
L1
 10
176.12706739307799
 20
175.42929936426631
 30
0.0
 40
3.2000000000000002
 50
18.020659305159899
 51
90.0
  0
ARC
  5
10E
  8
L1
 10
172.62706739307799
 20
185.02929936426639
 30
0.0
 40
6.4000000000000501
 50
180.0
 51
270.00000000000102
  0
LINE
  5
10F
  8
L1
 10
179.17009149330249
 20
183.77699158391351
 30
0.0
 11
179.17009149330249
 21
176.41925104260861
 31
0.0
  0
ARC
  5
110
  8
L1
 10
172.62706739307799
 20
185.02929936426619
 30
0.0
 40
8.8000000000000007
 50
232.88513754492581
 51
270.0
  0
LINE
  5
111
  8
L1
 10
165.8390153457141
 20
177.0759945335079
 30
0.0
 11
166.94315490717091
 21
178.0024776322945
 31
0.0
  0
POLYLINE
  5
112
  8
L1
 66
     1
 10
0.0
 20
0.0
 30
0.0
  0
VERTEX
  5
750
  8
L1
 10
165.83901534571419
 20
177.0759945335079
 30
0.0
  0
VERTEX
  5
751
  8
L1
 10
165.6331010242169
 20
177.00609461260009
 30
0.0
  0
VERTEX
  5
752
  8
L1
 10
165.43406244840489
 20
177.0936751588379
 30
0.0
  0
SEQEND
  5
753
  8
L1
  0
LINE
  5
113
  8
L1
 10
164.69144318764961
 20
177.8362944195932
 30
0.0
 11
165.43406244840489
 21
177.0936751588379
 31
0.0
  0
POLYLINE
  5
114
  8
L1
 66
     1
 10
0.0
 20
0.0
 30
0.0
  0
VERTEX
  5
754
  8
L1
 10
166.94315490717091
 20
178.0024776322945
 30
0.0
  0
VERTEX
  5
755
  8
L1
 10
167.00840720969779
 20
178.04418855008549
 30
0.0
  0
VERTEX
  5
756
  8
L1
 10
167.09761985166719
 20
178.07022033002841
 30
0.0
  0
VERTEX
  5
757
  8
L1
 10
167.184541032483
 20
178.06874374470141
 30
0.0
  0
VERTEX
  5
758
  8
L1
 10
167.2742022084195
 20
178.03897485369731
 30
0.0
  0
VERTEX
  5
759
  8
L1
 10
167.3170166273344
 20
178.0119379751666
 30
0.0
  0
SEQEND
  5
75A
  8
L1
  0
POLYLINE
  5
115
  8
L1
 66
     1
 10
0.0
 20
0.0
 30
0.0
  0
VERTEX
  5
75B
  8
L1
 10
177.8271701955853
 20
176.2292993642663
 30
0.0
  0
VERTEX
  5
75C
  8
L1
 10
178.03924199931379
 20
176.14147397050201
 30
0.0
  0
VERTEX
  5
75D
  8
L1
 10
178.12706739307791
 20
175.9294021667736
 30
0.0
  0
SEQEND
  5
75E
  8
L1
  0
LINE
  5
116
  8
L1
 10
172.62706739307799
 20
176.22929936426621
 30
0.0
 11
177.8271701955853
 21
176.22929936426621
 31
0.0
  0
ARC
  5
117
  8
L1
 10
176.12706739307799
 20
175.42929936426631
 30
0.0
 40
3.2000000000000002
 50
0.0
 51
18.020659305159899
  0
POLYLINE
  5
118
  8
L1
 66
     1
 10
0.0
 20
0.0
 30
0.0
  0
VERTEX
  5
75F
  8
L1
 10
177.43406739307801
 20
193.2913878020405
 30
0.0
  0
VERTEX
  5
760
  8
L1
 10
178.09585499552341
 20
193.22101375438081
 30
0.0
  0
VERTEX
  5
761
  8
L1
 10
178.75083977931899
 20
193.01888436626871
 30
0.0
  0
VERTEX
  5
762
  8
L1
 10
179.35368662397411
 20
192.69274011445239
 30
0.0
  0
VERTEX
  5
763
  8
L1
 10
179.86699651215159
 20
192.2692284833399
 30
0.0
  0
VERTEX
  5
764
  8
L1
 10
180.29050814326399
 20
191.7559185951624
 30
0.0
  0
VERTEX
  5
765
  8
L1
 10
180.61665239508031
 20
191.15307175050731
 30
0.0
  0
VERTEX
  5
766
  8
L1
 10
180.81878178319221
 20
190.49808696671161
 30
0.0
  0
VERTEX
  5
767
  8
L1
 10
180.88915583085199
 20
189.8362993642663
 30
0.0
  0
SEQEND
  5
768
  8
L1
  0
ARC
  5
119
  8
L1
 10
177.32706739307801
 20
189.72929936426641
 30
0.0
 40
2.0000000000000151
 50
315.0
 51
135.0
  0
ARC
  5
11A
  8
L1
 10
177.43406739307801
 20
189.8362993642663
 30
0.0
 40
2.7360241002247649
 50
0.0
 51
90.0
  0
ARC
  5
11B
  8
L1
 10
163.027067393078
 20
188.52929936426639
 30
0.0
 40
3.2000000000000002
 50
71.979340694847622
 51
90.0
  0
LINE
  5
11C
  8
L1
 10
163.82706739307801
 20
190.2294021667737
 30
0.0
 11
163.82706739307801
 21
185.02929936426619
 31
0.0
  0
LINE
  5
11D
  8
L1
 10
167.6327479125689
 20
185.26757006453769
 30
0.0
 11
172.38879669280649
 21
190.0236188447754
 31
0.0
  0
ARC
  5
11E
  8
L1
 10
172.62706739307799
 20
185.02929936426631
 30
0.0
 40
4.9999999999999849
 50
357.26858442957229
 51
21.421821521797771
  0
LINE
  5
11F
  8
L1
 10
171.58689164708119
 20
191.06019143013501
 30
0.0
 11
166.7391994274339
 21
186.21249921048781
 31
0.0
  0
LINE
  5
120
  8
L1
 10
166.22706739307799
 20
188.52929936426639
 30
0.0
 11
166.22706739307799
 21
186.42463124484379
 31
0.0
  0
ARC
  5
121
  8
L1
 10
172.62706739307799
 20
185.02929936426631
 30
0.0
 40
4.9999999999999849
 50
177.268584429572
 51
272.73141557042698
  0
ARC
  5
122
  8
L1
 10
172.62706739307799
 20
185.02929936426619
 30
0.0
 40
8.8000000000000007
 50
180.0
 51
217.11486245507351
  0
LINE
  5
123
  8
L1
 10
165.60024566110619
 20
179.34538687835919
 30
0.0
 11
164.6737625623195
 21
178.24124731690239
 31
0.0
  0
POLYLINE
  5
124
  8
L1
 66
     1
 10
0.0
 20
0.0
 30
0.0
  0
VERTEX
  5
769
  8
L1
 10
165.6097060039782
 20
179.7192485985228
 30
0.0
  0
VERTEX
  5
76A
  8
L1
 10
165.63039937322711
 20
179.68802495547689
 30
0.0
  0
VERTEX
  5
76B
  8
L1
 10
165.66731702384541
 20
179.581572971068
 30
0.0
  0
VERTEX
  5
76C
  8
L1
 10
165.6614819688476
 20
179.46543292937841
 30
0.0
  0
VERTEX
  5
76D
  8
L1
 10
165.61088710426529
 20
179.3588306660476
 30
0.0
  0
VERTEX
  5
76E
  8
L1
 10
165.60024566110619
 20
179.34538687835931
 30
0.0
  0
SEQEND
  5
76F
  8
L1
  0
LINE
  5
125
  8
L1
 10
166.22706739307799
 20
186.42463124484371
 30
0.0
 11
166.22706739307799
 21
185.02929936426639
 31
0.0
  0
ARC
  5
126
  8
L1
 10
166.527067393078
 20
186.42463124484371
 30
0.0
 40
0.2999999999999944
 50
180.0
 51
314.99999999999608
  0
LINE
  5
127
  8
L1
 10
174.0223992736554
 20
178.6292993642663
 30
0.0
 11
176.12706739307799
 21
178.6292993642663
 31
0.0
  0
LINE
  5
128
  8
L1
 10
177.62138687358691
 20
184.79102866399489
 30
0.0
 11
172.86533809334941
 21
180.0349798837573
 31
0.0
  0
ARC
  5
129
  8
L1
 10
178.87009149330251
 20
183.77699158391351
 30
0.0
 40
0.3000000000000145
 50
0.0
 51
134.9999999999884
  0
LINE
  5
12A
  8
L1
 10
173.81026723929941
 20
179.1414313986223
 30
0.0
 11
178.65795945894649
 21
183.9891236182695
 31
0.0
  0
ARC
  5
12B
  8
L1
 10
174.0223992736554
 20
178.92929936426631
 30
0.0
 40
0.3000000000000001
 50
135.00000000000381
 51
270.0
  0
LINE
  5
12C
  8
L1
 10
172.62706739307799
 20
178.6292993642663
 30
0.0
 11
174.0223992736554
 21
178.6292993642663
 31
0.0
  0
ARC
  5
12D
  8
L1
 10
171.3747596127252
 20
191.272323464491
 30
0.0
 40
0.3000000000000114
 50
315.00000000000762
 51
90.0
  0
POLYLINE
  5
12E
  8
L1
 66
     1
 10
0.0
 20
0.0
 30
0.0
  0
VERTEX
  5
770
  8
L1
 10
163.52717019558531
 20
190.52929936426631
 30
0.0
  0
VERTEX
  5
771
  8
L1
 10
163.7392419993138
 20
190.4414739705021
 30
0.0
  0
VERTEX
  5
772
  8
L1
 10
163.82706739307801
 20
190.2294021667737
 30
0.0
  0
SEQEND
  5
773
  8
L1
  0
ARC
  5
12F
  8
L1
 10
163.027067393078
 20
188.52929936426639
 30
0.0
 40
3.2000000000000002
 50
0.0
 51
71.979340694847622
  0
LINE
  5
130
  8
L1
 10
164.0170190714199
 20
191.57232346449101
 30
0.0
 11
171.3747596127252
 21
191.57232346449101
 31
0.0
  0
POLYLINE
  5
131
  8
L1
 66
     1
 10
0.0
 20
0.0
 30
0.0
  0
VERTEX
  5
774
  8
L1
 10
177.394168152346
 20
193.29160349517551
 30
0.0
  0
VERTEX
  5
775
  8
L1
 10
177.41411542511619
 20
193.29154957145519
 30
0.0
  0
VERTEX
  5
776
  8
L1
 10
177.43406739307801
 20
193.2913878020405
 30
0.0
  0
SEQEND
  5
777
  8
L1
  0
ARC
  5
132
  8
L1
 10
172.62706739307799
 20
185.02929936426631
 30
0.0
 40
5.7825462644184809
 50
28.598562683756288
 51
61.40143731624579
  0
POLYLINE
  5
133
  8
L1
 66
     1
 10
0.0
 20
0.0
 30
0.0
  0
VERTEX
  5
778
  8
L1
 10
177.8741325758175
 20
187.4479374222598
 30
0.0
  0
VERTEX
  5
779
  8
L1
 10
177.83580209106151
 20
187.53693431519159
 30
0.0
  0
VERTEX
  5
77A
  8
L1
 10
177.80650078193921
 20
187.5988101553427
 30
0.0
  0
VERTEX
  5
77B
  8
L1
 10
177.7605236306089
 20
187.69071758326839
 30
0.0
  0
VERTEX
  5
77C
  8
L1
 10
177.70448299470621
 20
187.79655287930109
 30
0.0
  0
VERTEX
  5
77D
  8
L1
 10
177.70411400548829
 20
187.7972298177913
 30
0.0
  0
SEQEND
  5
77E
  8
L1
  0
POLYLINE
  5
134
  8
L1
 66
     1
 10
0.0
 20
0.0
 30
0.0
  0
VERTEX
  5
77F
  8
L1
 10
175.39499784660279
 20
190.10634597667689
 30
0.0
  0
VERTEX
  5
780
  8
L1
 10
175.3943209081126
 20
190.1067149658947
 30
0.0
  0
VERTEX
  5
781
  8
L1
 10
175.2884856120796
 20
190.16275560179739
 30
0.0
  0
VERTEX
  5
782
  8
L1
 10
175.19657818415419
 20
190.2087327531278
 30
0.0
  0
VERTEX
  5
783
  8
L1
 10
175.1347023440031
 20
190.23803406224991
 30
0.0
  0
VERTEX
  5
784
  8
L1
 10
175.0457054510708
 20
190.2763645470055
 30
0.0
  0
SEQEND
  5
785
  8
L1
  0
LINE
  5
135
  8
L1
 10
174.45322417990869
 20
189.68388327584341
 30
0.0
 11
175.9128538307049
 21
191.14351292663949
 31
0.0
  0
ARC
  5
136
  8
L1
 10
172.62706739307799
 20
185.02929936426631
 30
0.0
 40
4.9999999999999849
 50
68.578178478203142
 51
92.731415570427657
  0
LINE
  5
137
  8
L1
 10
178.74128095545109
 20
188.3150858018933
 30
0.0
 11
177.2816513046549
 21
186.8554561510972
 31
0.0
  0
POLYLINE
  5
138
  8
L1
 66
     1
 10
0.0
 20
0.0
 30
0.0
  0
VERTEX
  5
786
  8
L1
 10
180.88915583085199
 20
189.8362993642663
 30
0.0
  0
VERTEX
  5
787
  8
L1
 10
180.88931760026671
 20
189.81634739630459
 30
0.0
  0
VERTEX
  5
788
  8
L1
 10
180.88937152398711
 20
189.79640012353451
 30
0.0
  0
SEQEND
  5
789
  8
L1
  0
LINE
  5
13B
  8
L2
 10
251.9149582285182
 20
176.2292993642663
 30
0.0
 11
245.20710514402589
 21
176.03269931224281
 31
0.0
  0
ARC
  5
13C
  8
L2
 10
245.2149582285183
 20
175.7328021147502
 30
0.0
 40
0.2999999999999998
 50
91.499999999999915
 51
173.60085848371841
  0
LINE
  5
13E
  8
L1
 10
251.19567819783379
 20
193.29160349517559
 30
0.0
 11
243.02412249802859
 21
192.8633504076611
 31
0.0
  0
LINE
  5
141
  8
L1
 10
243.02412249802859
 20
192.8633504076611
 30
0.0
 11
241.9149582285182
 21
191.7541861381508
 31
0.0
  0
LINE
  5
146
  8
L2
 10
251.9149582285182
 20
180.0349798837573
 30
0.0
 11
251.9149582285182
 21
180.02929936426639
 31
0.0
  0
LINE
  5
149
  8
L1
 10
251.9149582285182
 20
192.57232346449109
 30
0.0
 11
251.19567819783379
 21
193.29160349517551
 31
0.0
  0
LINE
  5
152
  8
L2
 10
251.9149582285182
 20
190.72929936426641
 30
0.0
 11
252.67935568162471
 21
190.86408325923389
 31
0.0
  0
ARC
  5
153
  8
L2
 10
252.61495822851819
 20
191.22929936426641
 30
0.0
 40
0.3708501521392529
 50
279.99999999999801
 51
0.0
  0
ARC
  5
154
  8
L1
 10
252.61495822851819
 20
191.22929936426641
 30
0.0
 40
0.3708501521392529
 50
0.0
 51
80.000000000001947
  0
LINE
  5
155
  8
L1
 10
252.67935568162471
 20
191.5945154692989
 30
0.0
 11
251.9149582285182
 21
191.7292993642663
 31
0.0
  0
LINE
  5
156
  8
L1
 10
251.9149582285182
 20
64.829299364266348
 30
0.0
 11
251.9149582285182
 21
192.57232346449109
 31
0.0
  0
LINE
  5
157
  8
L1
 10
322.31105744616542
 20
80.729299364266353
 30
0.0
 11
322.31105744616542
 21
175.82929936426629
 31
0.0
  0
ARC
  5
158
  8
L1
 10
324.30669401226999
 20
80.729299364266367
 30
0.0
 40
1.99563656610462
 50
180.0
 51
270.0
  0
ARC
  5
159
  8
L1
 10
324.30669401226999
 20
175.82929936426629
 30
0.0
 40
1.99563656610462
 50
90.0
 51
180.0
  0
ARC
  5
15A
  8
L1
 10
310.82377180510042
 20
189.31222157143591
 30
0.0
 40
2.4419645667148311
 50
89.999999999998678
 51
180.0
  0
POLYLINE
  5
15B
  8
L1
 66
     1
 10
0.0
 20
0.0
 30
0.0
  0
VERTEX
  5
78A
  8
L1
 10
306.84460557449592
 20
189.8362993642663
 30
0.0
  0
VERTEX
  5
78B
  8
L1
 10
306.91497962215561
 20
190.49808696671161
 30
0.0
  0
VERTEX
  5
78C
  8
L1
 10
307.11710901026748
 20
191.15307175050719
 30
0.0
  0
VERTEX
  5
78D
  8
L1
 10
307.44325326208389
 20
191.75591859516231
 30
0.0
  0
VERTEX
  5
78E
  8
L1
 10
307.86676489319632
 20
192.2692284833399
 30
0.0
  0
VERTEX
  5
78F
  8
L1
 10
308.38007478137388
 20
192.69274011445231
 30
0.0
  0
VERTEX
  5
790
  8
L1
 10
308.982921626029
 20
193.01888436626871
 30
0.0
  0
VERTEX
  5
791
  8
L1
 10
309.63790640982461
 20
193.22101375438069
 30
0.0
  0
VERTEX
  5
792
  8
L1
 10
310.29969401226992
 20
193.29138780204039
 30
0.0
  0
SEQEND
  5
793
  8
L1
  0
ARC
  5
15C
  8
L1
 10
315.10669401226988
 20
185.02929936426631
 30
0.0
 40
4.9738193966277091
 50
158.38089144830079
 51
182.61496561312569
  0
LINE
  5
15D
  8
L1
 10
320.07533410578282
 20
185.25622448717371
 30
0.0
 11
315.33361913517729
 21
189.99793945777921
 31
0.0
  0
CIRCLE
  5
15E
  8
L1
 10
315.10669401226988
 20
185.02929936426631
 30
0.0
 40
6.097393363178492
  0
CIRCLE
  5
15F
  8
L1
 10
315.10669401226988
 20
185.02929936426631
 30
0.0
 40
5.7974047862592784
  0
ARC
  5
160
  8
L1
 10
315.10669401226988
 20
185.02929936426631
 30
0.0
 40
4.9738193966277091
 50
267.38503438687411
 51
2.6149656131264449
  0
LINE
  5
161
  8
L1
 10
310.13805391875712
 20
184.8023742413589
 30
0.0
 11
314.87976888936259
 21
180.06065927075349
 31
0.0
  0
POLYLINE
  5
162
  8
L1
 66
     1
 10
0.0
 20
0.0
 30
0.0
  0
VERTEX
  5
794
  8
L1
 10
312.62161057231219
 20
190.24774687714589
 30
0.0
  0
VERTEX
  5
795
  8
L1
 10
312.5990590613448
 20
190.23803406224991
 30
0.0
  0
VERTEX
  5
796
  8
L1
 10
312.53718322119357
 20
190.20873275312761
 30
0.0
  0
VERTEX
  5
797
  8
L1
 10
312.44527579326802
 20
190.1627556017973
 30
0.0
  0
VERTEX
  5
798
  8
L1
 10
312.33944049723522
 20
190.10671496589461
 30
0.0
  0
VERTEX
  5
799
  8
L1
 10
312.33876355874497
 20
190.10634597667689
 30
0.0
  0
SEQEND
  5
79A
  8
L1
  0
POLYLINE
  5
163
  8
L1
 66
     1
 10
0.0
 20
0.0
 30
0.0
  0
VERTEX
  5
79B
  8
L1
 10
312.68747860419148
 20
190.2362467462612
 30
0.0
  0
VERTEX
  5
79C
  8
L1
 10
312.62161057231219
 20
190.24774687714589
 30
0.0
  0
SEQEND
  5
79D
  8
L1
  0
POLYLINE
  5
164
  8
L1
 66
     1
 10
0.0
 20
0.0
 30
0.0
  0
VERTEX
  5
79E
  8
L1
 10
310.02964739985941
 20
187.7972298177913
 30
0.0
  0
VERTEX
  5
79F
  8
L1
 10
310.0292784106415
 20
187.79655287930109
 30
0.0
  0
VERTEX
  5
7A0
  8
L1
 10
309.973237774739
 20
187.69071758326831
 30
0.0
  0
VERTEX
  5
7A1
  8
L1
 10
309.92726062340847
 20
187.59881015534259
 30
0.0
  0
VERTEX
  5
7A2
  8
L1
 10
309.89795931428642
 20
187.5369343151915
 30
0.0
  0
VERTEX
  5
7A3
  8
L1
 10
309.88824649939028
 20
187.514382804224
 30
0.0
  0
SEQEND
  5
7A4
  8
L1
  0
LINE
  5
165
  8
L1
 10
310.12531578171883
 20
187.21927543443149
 30
0.0
 11
310.48276459599492
 21
186.8618266201554
 31
0.0
  0
POLYLINE
  5
166
  8
L1
 66
     1
 10
0.0
 20
0.0
 30
0.0
  0
VERTEX
  5
7A5
  8
L1
 10
309.89974663027499
 20
187.44851477234471
 30
0.0
  0
VERTEX
  5
7A6
  8
L1
 10
309.9156821514444
 20
187.43122778169911
 30
0.0
  0
VERTEX
  5
7A7
  8
L1
 10
309.96308178237649
 20
187.38262829566889
 30
0.0
  0
VERTEX
  5
7A8
  8
L1
 10
310.03632662440509
 20
187.30856085364991
 30
0.0
  0
VERTEX
  5
7A9
  8
L1
 10
310.12531578171871
 20
187.21927543443149
 30
0.0
  0
SEQEND
  5
7AA
  8
L1
  0
POLYLINE
  5
167
  8
L1
 66
     1
 10
0.0
 20
0.0
 30
0.0
  0
VERTEX
  5
7AB
  8
L1
 10
309.88824649939028
 20
187.514382804224
 30
0.0
  0
VERTEX
  5
7AC
  8
L1
 10
309.8997466302751
 20
187.44851477234471
 30
0.0
  0
SEQEND
  5
7AD
  8
L1
  0
LINE
  5
168
  8
L1
 10
313.27416675638091
 20
189.65322878054141
 30
0.0
 11
312.91671794210481
 21
190.01067759481751
 31
0.0
  0
POLYLINE
  5
169
  8
L1
 66
     1
 10
0.0
 20
0.0
 30
0.0
  0
VERTEX
  5
7AE
  8
L1
 10
312.91671794210481
 20
190.01067759481751
 30
0.0
  0
VERTEX
  5
7AF
  8
L1
 10
312.8274325228864
 20
190.0996667521311
 30
0.0
  0
VERTEX
  5
7B0
  8
L1
 10
312.75336508086741
 20
190.1729115941597
 30
0.0
  0
VERTEX
  5
7B1
  8
L1
 10
312.70476559483728
 20
190.22031122509179
 30
0.0
  0
VERTEX
  5
7B2
  8
L1
 10
312.6874786041916
 20
190.2362467462612
 30
0.0
  0
SEQEND
  5
7B3
  8
L1
  0
ARC
  5
16A
  8
L1
 10
315.10669401226988
 20
185.02929936426631
 30
0.0
 40
4.9738193966277091
 50
87.385034386874864
 51
111.6191085516984
  0
LINE
  5
16B
  8
L1
 10
307.27261859382008
 20
249.55386111266941
 30
0.0
 11
306.84438988136083
 21
241.38277051662459
 31
0.0
  0
LINE
  5
16C
  8
L1
 10
306.84460557449592
 20
241.38255482348961
 30
0.0
 11
307.56366991204533
 21
240.6634904859402
 31
0.0
  0
LINE
  5
16D
  8
L1
 10
308.54147790723761
 20
239.89909303283369
 30
0.0
 11
308.40725649120662
 21
240.66030050937371
 31
0.0
  0
ARC
  5
16E
  8
L1
 10
308.90669401227001
 20
239.96349048594021
 30
0.0
 40
0.3708501521392529
 50
189.9999999999965
 51
270.0
  0
LINE
  5
16F
  8
L1
 10
308.38180723838542
 20
250.6634904859402
 30
0.0
 11
307.27264296887529
 21
249.5543262164301
 31
0.0
  0
POLYLINE
  5
170
  8
L1
 66
     1
 10
0.0
 20
0.0
 30
0.0
  0
VERTEX
  5
7B4
  8
L1
 10
307.27261859382008
 20
249.55386111266941
 30
0.0
  0
VERTEX
  5
7B5
  8
L1
 10
307.27264296887529
 20
249.5543262164301
 30
0.0
  0
SEQEND
  5
7B6
  8
L1
  0
LINE
  5
171
  8
L6
 10
396.85669401227
 20
258.6634904859402
 30
0.0
 11
396.85669401226988
 21
231.592640333801
 31
0.0
  0
LINE
  5
177
  8
L1
 10
486.86899814317911
 20
66.762198604998105
 30
0.0
 11
486.86899814317911
 21
189.79640012353451
 31
0.0
  0
LINE
  5
178
  8
L1
 10
485.33158078615452
 20
67.246377157096788
 30
0.0
 11
485.33158078615452
 21
189.31222157143591
 31
0.0
  0
ARC
  5
17F
  8
L1
 10
482.88961621943952
 20
67.246377157096816
 30
0.0
 40
2.4419645667148311
 50
269.99999999999858
 51
0.0
  0
POLYLINE
  5
180
  8
L1
 66
     1
 10
0.0
 20
0.0
 30
0.0
  0
VERTEX
  5
7B7
  8
L1
 10
486.86878245004402
 20
66.722299364266377
 30
0.0
  0
VERTEX
  5
7B8
  8
L1
 10
486.79840840238433
 20
66.060511761821118
 30
0.0
  0
VERTEX
  5
7B9
  8
L1
 10
486.5962790142724
 20
65.405526978025449
 30
0.0
  0
VERTEX
  5
7BA
  8
L1
 10
486.270134762456
 20
64.802680133370373
 30
0.0
  0
VERTEX
  5
7BB
  8
L1
 10
485.84662313134362
 20
64.289370245192771
 30
0.0
  0
VERTEX
  5
7BC
  8
L1
 10
485.33331324316612
 20
63.865858614080331
 30
0.0
  0
VERTEX
  5
7BD
  8
L1
 10
484.73046639851088
 20
63.539714362263943
 30
0.0
  0
VERTEX
  5
7BE
  8
L1
 10
484.07548161471522
 20
63.337584974152008
 30
0.0
  0
VERTEX
  5
7BF
  8
L1
 10
483.41369401227001
 20
63.267210926492261
 30
0.0
  0
SEQEND
  5
7C0
  8
L1
  0
LINE
  5
181
  8
L1
 10
483.58807224282111
 20
69.339323294101149
 30
0.0
 11
483.23062342854502
 21
69.696772108377246
 31
0.0
  0
ARC
  5
182
  8
L1
 10
478.60669401227
 20
71.529299364266393
 30
0.0
 40
4.9738193966277091
 50
338.38089144830082
 51
2.614965613125809
  0
LINE
  5
183
  8
L1
 10
473.63805391875712
 20
71.30237424135899
 30
0.0
 11
478.37976888936271
 21
66.560659270753519
 31
0.0
  0
CIRCLE
  5
184
  8
L1
 10
478.60669401227
 20
71.529299364266393
 30
0.0
 40
6.097393363178492
  0
CIRCLE
  5
185
  8
L1
 10
478.60669401227
 20
71.529299364266393
 30
0.0
 40
5.7974047862592784
  0
POLYLINE
  5
186
  8
L1
 66
     1
 10
0.0
 20
0.0
 30
0.0
  0
VERTEX
  5
7C1
  8
L1
 10
481.09177745222769
 20
66.310851851386786
 30
0.0
  0
VERTEX
  5
7C2
  8
L1
 10
481.11432896319508
 20
66.32056466628282
 30
0.0
  0
VERTEX
  5
7C3
  8
L1
 10
481.17620480334642
 20
66.349865975405024
 30
0.0
  0
VERTEX
  5
7C4
  8
L1
 10
481.26811223127191
 20
66.3958431267354
 30
0.0
  0
VERTEX
  5
7C5
  8
L1
 10
481.37394752730472
 20
66.451883762638062
 30
0.0
  0
VERTEX
  5
7C6
  8
L1
 10
481.37462446579491
 20
66.452252751855752
 30
0.0
  0
SEQEND
  5
7C7
  8
L1
  0
POLYLINE
  5
187
  8
L1
 66
     1
 10
0.0
 20
0.0
 30
0.0
  0
VERTEX
  5
7C8
  8
L1
 10
481.0259094203484
 20
66.322351982271485
 30
0.0
  0
VERTEX
  5
7C9
  8
L1
 10
481.09177745222769
 20
66.310851851386786
 30
0.0
  0
SEQEND
  5
7CA
  8
L1
  0
POLYLINE
  5
188
  8
L1
 66
     1
 10
0.0
 20
0.0
 30
0.0
  0
VERTEX
  5
7CB
  8
L1
 10
483.68374062468058
 20
68.761368910741425
 30
0.0
  0
VERTEX
  5
7CC
  8
L1
 10
483.68410961389839
 20
68.762045849231612
 30
0.0
  0
VERTEX
  5
7CD
  8
L1
 10
483.74015024980099
 20
68.86788114526442
 30
0.0
  0
VERTEX
  5
7CE
  8
L1
 10
483.78612740113152
 20
68.959788573190025
 30
0.0
  0
VERTEX
  5
7CF
  8
L1
 10
483.8154287102534
 20
69.021664413341142
 30
0.0
  0
VERTEX
  5
7D0
  8
L1
 10
483.82514152514949
 20
69.044215924308645
 30
0.0
  0
SEQEND
  5
7D1
  8
L1
  0
POLYLINE
  5
189
  8
L1
 66
     1
 10
0.0
 20
0.0
 30
0.0
  0
VERTEX
  5
7D2
  8
L1
 10
483.81364139426489
 20
69.110083956187992
 30
0.0
  0
VERTEX
  5
7D3
  8
L1
 10
483.79770587309548
 20
69.127370946833622
 30
0.0
  0
VERTEX
  5
7D4
  8
L1
 10
483.75030624216339
 20
69.175970432863807
 30
0.0
  0
VERTEX
  5
7D5
  8
L1
 10
483.67706140013479
 20
69.250037874882793
 30
0.0
  0
VERTEX
  5
7D6
  8
L1
 10
483.58807224282123
 20
69.339323294101149
 30
0.0
  0
SEQEND
  5
7D7
  8
L1
  0
POLYLINE
  5
18A
  8
L1
 66
     1
 10
0.0
 20
0.0
 30
0.0
  0
VERTEX
  5
7D8
  8
L1
 10
483.82514152514949
 20
69.044215924308645
 30
0.0
  0
VERTEX
  5
7D9
  8
L1
 10
483.81364139426478
 20
69.110083956187992
 30
0.0
  0
SEQEND
  5
7DA
  8
L1
  0
LINE
  5
18B
  8
L1
 10
480.43922126815897
 20
66.905369947991304
 30
0.0
 11
480.79667008243513
 21
66.547921133715221
 31
0.0
  0
POLYLINE
  5
18C
  8
L1
 66
     1
 10
0.0
 20
0.0
 30
0.0
  0
VERTEX
  5
7DB
  8
L1
 10
480.79667008243513
 20
66.547921133715221
 30
0.0
  0
VERTEX
  5
7DC
  8
L1
 10
480.88595550165348
 20
66.458931976401544
 30
0.0
  0
VERTEX
  5
7DD
  8
L1
 10
480.96002294367253
 20
66.385687134372944
 30
0.0
  0
VERTEX
  5
7DE
  8
L1
 10
481.0086224297026
 20
66.338287503440853
 30
0.0
  0
VERTEX
  5
7DF
  8
L1
 10
481.02590942034828
 20
66.322351982271485
 30
0.0
  0
SEQEND
  5
7E0
  8
L1
  0
ARC
  5
18D
  8
L1
 10
478.60669401227
 20
71.529299364266393
 30
0.0
 40
4.9738193966277091
 50
267.38503438687479
 51
291.61910855169839
  0
ARC
  5
18E
  8
L1
 10
478.60669401227
 20
71.529299364266393
 30
0.0
 40
4.9738193966277091
 50
87.385034386874196
 51
182.6149656131264
  0
LINE
  5
18F
  8
L1
 10
483.57533410578282
 20
71.756224487173739
 30
0.0
 11
478.83361913517729
 21
76.497939457779211
 31
0.0
  0
LINE
  5
197
  8
L1
 10
471.40233057837452
 20
80.729299364266353
 30
0.0
 11
471.40233057837452
 21
175.82929936426629
 31
0.0
  0
ARC
  5
198
  8
L1
 10
469.4066940122699
 20
80.729299364266367
 30
0.0
 40
1.99563656610462
 50
270.0
 51
0.0
  0
ARC
  5
199
  8
L1
 10
469.4066940122699
 20
175.82929936426629
 30
0.0
 40
1.99563656610462
 50
0.0
 51
90.0
  0
POLYLINE
  5
19A
  8
L1
 66
     1
 10
0.0
 20
0.0
 30
0.0
  0
VERTEX
  5
7E1
  8
L1
 10
486.86878245004402
 20
189.8362993642663
 30
0.0
  0
VERTEX
  5
7E2
  8
L1
 10
486.79840840238433
 20
190.49808696671161
 30
0.0
  0
VERTEX
  5
7E3
  8
L1
 10
486.5962790142724
 20
191.15307175050719
 30
0.0
  0
VERTEX
  5
7E4
  8
L1
 10
486.270134762456
 20
191.75591859516231
 30
0.0
  0
VERTEX
  5
7E5
  8
L1
 10
485.84662313134362
 20
192.2692284833399
 30
0.0
  0
VERTEX
  5
7E6
  8
L1
 10
485.33331324316612
 20
192.69274011445231
 30
0.0
  0
VERTEX
  5
7E7
  8
L1
 10
484.73046639851088
 20
193.01888436626871
 30
0.0
  0
VERTEX
  5
7E8
  8
L1
 10
484.07548161471522
 20
193.22101375438069
 30
0.0
  0
VERTEX
  5
7E9
  8
L1
 10
483.41369401227001
 20
193.29138780204039
 30
0.0
  0
SEQEND
  5
7EA
  8
L1
  0
ARC
  5
19B
  8
L1
 10
482.88961621943952
 20
189.31222157143591
 30
0.0
 40
2.4419645667148311
 50
0.0
 51
90.000000000001336
  0
LINE
  5
19C
  8
L1
 10
473.63805391875712
 20
185.25622448717371
 30
0.0
 11
478.37976888936271
 21
189.99793945777921
 31
0.0
  0
CIRCLE
  5
19D
  8
L1
 10
478.60669401227
 20
185.02929936426631
 30
0.0
 40
5.7974047862592784
  0
CIRCLE
  5
19E
  8
L1
 10
478.60669401227
 20
185.02929936426631
 30
0.0
 40
6.097393363178492
  0
ARC
  5
19F
  8
L1
 10
478.60669401227
 20
185.02929936426631
 30
0.0
 40
4.9738193966277091
 50
357.38503438687411
 51
21.619108551699309
  0
ARC
  5
1A0
  8
L1
 10
478.60669401227
 20
185.02929936426631
 30
0.0
 40
4.9738193966277091
 50
177.38503438687351
 51
272.61496561312578
  0
LINE
  5
1A1
  8
L1
 10
483.57533410578282
 20
184.8023742413589
 30
0.0
 11
478.83361913517729
 21
180.06065927075349
 31
0.0
  0
ARC
  5
1A2
  8
L1
 10
478.60669401227
 20
185.02929936426631
 30
0.0
 40
4.9738193966277091
 50
68.38089144830154
 51
92.614965613125165
  0
LINE
  5
1A3
  8
L1
 10
480.43922126815897
 20
189.65322878054141
 30
0.0
 11
480.79667008243513
 21
190.01067759481751
 31
0.0
  0
POLYLINE
  5
1A4
  8
L1
 66
     1
 10
0.0
 20
0.0
 30
0.0
  0
VERTEX
  5
7EB
  8
L1
 10
480.79667008243513
 20
190.01067759481751
 30
0.0
  0
VERTEX
  5
7EC
  8
L1
 10
480.88595550165348
 20
190.0996667521311
 30
0.0
  0
VERTEX
  5
7ED
  8
L1
 10
480.96002294367253
 20
190.1729115941597
 30
0.0
  0
VERTEX
  5
7EE
  8
L1
 10
481.0086224297026
 20
190.22031122509179
 30
0.0
  0
VERTEX
  5
7EF
  8
L1
 10
481.02590942034828
 20
190.2362467462612
 30
0.0
  0
SEQEND
  5
7F0
  8
L1
  0
POLYLINE
  5
1A5
  8
L1
 66
     1
 10
0.0
 20
0.0
 30
0.0
  0
VERTEX
  5
7F1
  8
L1
 10
481.0259094203484
 20
190.2362467462612
 30
0.0
  0
VERTEX
  5
7F2
  8
L1
 10
481.09177745222769
 20
190.24774687714589
 30
0.0
  0
SEQEND
  5
7F3
  8
L1
  0
POLYLINE
  5
1A6
  8
L1
 66
     1
 10
0.0
 20
0.0
 30
0.0
  0
VERTEX
  5
7F4
  8
L1
 10
483.82514152514949
 20
187.514382804224
 30
0.0
  0
VERTEX
  5
7F5
  8
L1
 10
483.81364139426478
 20
187.44851477234471
 30
0.0
  0
SEQEND
  5
7F6
  8
L1
  0
POLYLINE
  5
1A7
  8
L1
 66
     1
 10
0.0
 20
0.0
 30
0.0
  0
VERTEX
  5
7F7
  8
L1
 10
483.81364139426489
 20
187.44851477234471
 30
0.0
  0
VERTEX
  5
7F8
  8
L1
 10
483.79770587309548
 20
187.43122778169911
 30
0.0
  0
VERTEX
  5
7F9
  8
L1
 10
483.75030624216339
 20
187.38262829566889
 30
0.0
  0
VERTEX
  5
7FA
  8
L1
 10
483.67706140013479
 20
187.30856085364991
 30
0.0
  0
VERTEX
  5
7FB
  8
L1
 10
483.58807224282123
 20
187.21927543443149
 30
0.0
  0
SEQEND
  5
7FC
  8
L1
  0
LINE
  5
1A8
  8
L1
 10
483.58807224282111
 20
187.21927543443149
 30
0.0
 11
483.23062342854502
 21
186.8618266201554
 31
0.0
  0
POLYLINE
  5
1A9
  8
L1
 66
     1
 10
0.0
 20
0.0
 30
0.0
  0
VERTEX
  5
7FD
  8
L1
 10
481.09177745222769
 20
190.24774687714589
 30
0.0
  0
VERTEX
  5
7FE
  8
L1
 10
481.11432896319508
 20
190.23803406224991
 30
0.0
  0
VERTEX
  5
7FF
  8
L1
 10
481.17620480334642
 20
190.20873275312761
 30
0.0
  0
VERTEX
  5
800
  8
L1
 10
481.26811223127191
 20
190.1627556017973
 30
0.0
  0
VERTEX
  5
801
  8
L1
 10
481.37394752730472
 20
190.10671496589461
 30
0.0
  0
VERTEX
  5
802
  8
L1
 10
481.37462446579491
 20
190.10634597667689
 30
0.0
  0
SEQEND
  5
803
  8
L1
  0
POLYLINE
  5
1AA
  8
L1
 66
     1
 10
0.0
 20
0.0
 30
0.0
  0
VERTEX
  5
804
  8
L1
 10
483.68374062468058
 20
187.7972298177913
 30
0.0
  0
VERTEX
  5
805
  8
L1
 10
483.68410961389839
 20
187.79655287930109
 30
0.0
  0
VERTEX
  5
806
  8
L1
 10
483.74015024980099
 20
187.69071758326831
 30
0.0
  0
VERTEX
  5
807
  8
L1
 10
483.78612740113152
 20
187.59881015534259
 30
0.0
  0
VERTEX
  5
808
  8
L1
 10
483.8154287102534
 20
187.5369343151915
 30
0.0
  0
VERTEX
  5
809
  8
L1
 10
483.82514152514949
 20
187.514382804224
 30
0.0
  0
SEQEND
  5
80A
  8
L1
  0
LINE
  5
1B0
  8
L1
 10
486.86899814317911
 20
241.3827705166245
 30
0.0
 11
486.44076943072002
 21
249.55386111266941
 31
0.0
  0
LINE
  5
1B1
  8
L1
 10
485.17191011730228
 20
239.89909303283369
 30
0.0
 11
485.30613166809633
 21
240.66030127365229
 31
0.0
  0
ARC
  5
1B2
  8
L1
 10
484.80669401226987
 20
239.96349048594021
 30
0.0
 40
0.3708501521392529
 50
270.0
 51
350.00000000000563
  0
LINE
  5
1B3
  8
L1
 10
486.86878245004402
 20
241.38255482348961
 30
0.0
 11
486.14971811249461
 21
240.6634904859402
 31
0.0
  0
POLYLINE
  5
1B4
  8
L1
 66
     1
 10
0.0
 20
0.0
 30
0.0
  0
VERTEX
  5
80B
  8
L1
 10
486.86878245004408
 20
241.38255482348939
 30
0.0
  0
VERTEX
  5
80C
  8
L1
 10
486.8689442194588
 20
241.38271659290419
 30
0.0
  0
VERTEX
  5
80D
  8
L1
 10
486.86899814317911
 20
241.3827705166245
 30
0.0
  0
SEQEND
  5
80E
  8
L1
  0
LINE
  5
1B5
  8
L1
 10
485.33158078615452
 20
250.6634904859402
 30
0.0
 11
486.44074505566471
 21
249.55432621643001
 31
0.0
  0
LINE
  5
3F8
  8
L1
 10
251.1956781978337
 20
63.266995233357093
 30
0.0
 11
251.19567819783379
 21
193.29160349517559
 31
0.0
  0
LINE
  5
3F9
  8
L1
 10
243.02412249802859
 20
63.695248320871599
 30
0.0
 11
243.02412249802859
 21
192.8633504076611
 31
0.0
  0
LINE
  5
410
  8
L2
 10
469.34363297541688
 20
247.66162136270879
 30
0.0
 11
324.36975504912499
 21
247.66162136270879
 31
0.0
  0
LINE
  5
411
  8
L2
 10
469.80669401226982
 20
240.6634904859402
 30
0.0
 11
469.61009396024627
 21
247.37134357043249
 31
0.0
  0
ARC
  5
412
  8
L2
 10
469.31019676275361
 20
247.3634904859401
 30
0.0
 40
0.2999999999999998
 50
1.499999999999919
 51
83.600858483718497
  0
LINE
  5
413
  8
L2
 10
323.90669401227001
 20
240.6634904859402
 30
0.0
 11
324.10329406429349
 21
247.37134357043249
 31
0.0
  0
ARC
  5
414
  8
L2
 10
324.40319126178622
 20
247.3634904859401
 30
0.0
 40
0.2999999999999998
 50
96.399141516281517
 51
178.5
  0
LINE
  5
442
  8
L2
 10
471.40233057837452
 20
250.1616213627089
 30
0.0
 11
322.31105744616542
 21
250.1616213627089
 31
0.0
  0
LINE
  5
444
  8
L2
 10
471.40233057837452
 20
250.66349048594009
 30
0.0
 11
471.40233057837452
 21
250.1616213627089
 31
0.0
  0
LINE
  5
445
  8
L2
 10
322.31105744616542
 20
250.66349048594009
 30
0.0
 11
322.31105744616542
 21
250.1616213627089
 31
0.0
  0
LINE
  5
446
  8
L2
 10
242.41682735174959
 20
177.82493593037091
 30
0.0
 11
242.41682735174959
 21
78.733662798161703
 31
0.0
  0
LINE
  5
447
  8
L2
 10
242.41682735174959
 20
177.82493593037091
 30
0.0
 11
241.9149582285182
 21
177.82493593037091
 31
0.0
  0
LINE
  5
448
  8
L2
 10
242.41682735174959
 20
78.733662798161703
 30
0.0
 11
241.9149582285182
 21
78.733662798161703
 31
0.0
  0
LINE
  5
449
  8
L2
 10
471.40233057837452
 20
6.3969773658238287
 30
0.0
 11
322.31105744616542
 21
6.3969773658238287
 31
0.0
  0
LINE
  5
44A
  8
L2
 10
469.34363297541688
 20
8.8969773658238296
 30
0.0
 11
324.36975504912499
 21
8.8969773658238296
 31
0.0
  0
LINE
  5
44B
  8
L1
 10
486.14971811249461
 20
15.895108242592521
 30
0.0
 11
307.56366991204533
 21
15.895108242592521
 31
0.0
  0
LINE
  5
44C
  8
L1
 10
484.80669401226987
 20
16.965958394731778
 30
0.0
 11
308.90669401227001
 21
16.965958394731778
 31
0.0
  0
LINE
  5
44D
  8
L1
 10
486.86899814317911
 20
15.17582821190814
 30
0.0
 11
306.84438988136083
 21
15.17582821190819
 31
0.0
  0
LINE
  5
44E
  8
L1
 10
308.38180723838542
 20
5.895108242592527
 30
0.0
 11
485.33158078615452
 21
5.895108242592527
 31
0.0
  0
LINE
  5
44F
  8
L1
 10
486.44076943072002
 20
7.0047376158632906
 30
0.0
 11
307.27261859382008
 21
7.0047376158632337
 31
0.0
  0
LINE
  5
450
  8
L1
 10
307.27261859382008
 20
7.0047376158632337
 30
0.0
 11
306.84438988136083
 21
15.17582821190808
 31
0.0
  0
ARC
  5
451
  8
L1
 10
308.90669401227001
 20
16.595108242592509
 30
0.0
 40
0.3708501521392529
 50
90.000000000000028
 51
170.00000000000341
  0
LINE
  5
452
  8
L1
 10
308.54147790723761
 20
16.659505695699011
 30
0.0
 11
308.40725649120662
 21
15.89829821915896
 31
0.0
  0
LINE
  5
453
  8
L1
 10
306.84460557449592
 20
15.176043905043111
 30
0.0
 11
307.56366991204533
 21
15.895108242592521
 31
0.0
  0
POLYLINE
  5
454
  8
L1
 66
     1
 10
0.0
 20
0.0
 30
0.0
  0
VERTEX
  5
80F
  8
L1
 10
307.27261859382008
 20
7.0047376158632337
 30
0.0
  0
VERTEX
  5
810
  8
L1
 10
307.27264296887529
 20
7.0042725121026024
 30
0.0
  0
SEQEND
  5
811
  8
L1
  0
LINE
  5
455
  8
L1
 10
308.38180723838542
 20
5.895108242592527
 30
0.0
 11
307.27264296887529
 21
7.0042725121026024
 31
0.0
  0
LINE
  5
456
  8
L2
 10
322.31105744616542
 20
5.8951082425925563
 30
0.0
 11
322.31105744616542
 21
6.3969773658238287
 31
0.0
  0
LINE
  5
457
  8
L2
 10
323.90669401227001
 20
15.895108242592521
 30
0.0
 11
324.10329406429349
 21
9.1872551581001858
 31
0.0
  0
ARC
  5
458
  8
L2
 10
324.40319126178622
 20
9.1951082425925392
 30
0.0
 40
0.2999999999999998
 50
181.49999999999989
 51
263.60085848371841
  0
LINE
  5
459
  8
L6
 10
396.85669401227
 20
-2.1048917574074721
 30
0.0
 11
396.85669401226988
 21
24.965958394731722
 31
0.0
  0
LINE
  5
45A
  8
L2
 10
469.80669401226982
 20
15.895108242592521
 30
0.0
 11
469.61009396024627
 21
9.1872551581001858
 31
0.0
  0
ARC
  5
45B
  8
L2
 10
469.31019676275361
 20
9.1951082425925392
 30
0.0
 40
0.2999999999999998
 50
276.39914151628147
 51
358.50000000000011
  0
LINE
  5
45C
  8
L2
 10
471.40233057837452
 20
5.8951082425925563
 30
0.0
 11
471.40233057837452
 21
6.3969773658238287
 31
0.0
  0
LINE
  5
45D
  8
L1
 10
486.86899814317911
 20
15.17582821190814
 30
0.0
 11
486.44076943072002
 21
7.0047376158632906
 31
0.0
  0
POLYLINE
  5
45E
  8
L1
 66
     1
 10
0.0
 20
0.0
 30
0.0
  0
VERTEX
  5
812
  8
L1
 10
486.86878245004408
 20
15.17604390504323
 30
0.0
  0
VERTEX
  5
813
  8
L1
 10
486.8689442194588
 20
15.175882135628511
 30
0.0
  0
VERTEX
  5
814
  8
L1
 10
486.86899814317911
 20
15.17582821190814
 30
0.0
  0
SEQEND
  5
815
  8
L1
  0
LINE
  5
45F
  8
L1
 10
486.86878245004402
 20
15.17604390504305
 30
0.0
 11
486.14971811249461
 21
15.895108242592521
 31
0.0
  0
ARC
  5
460
  8
L1
 10
484.80669401226987
 20
16.595108242592509
 30
0.0
 40
0.3708501521392529
 50
9.9999999999943547
 51
90.000000000000028
  0
LINE
  5
461
  8
L1
 10
485.17191011730228
 20
16.65950569569895
 30
0.0
 11
485.30613166809633
 21
15.898297454880369
 31
0.0
  0
LINE
  5
462
  8
L1
 10
485.33158078615452
 20
5.895108242592527
 30
0.0
 11
486.44074505566471
 21
7.0042725121027161
 31
0.0
  0
LINE
  5
463
  8
L2
 10
551.29656067279018
 20
177.82493593037091
 30
0.0
 11
551.29656067279018
 21
78.733662798161703
 31
0.0
  0
LINE
  5
464
  8
L2
 10
548.79656067279029
 20
175.7662383274114
 30
0.0
 11
548.79656067279029
 21
80.792360401121329
 31
0.0
  0
LINE
  5
465
  8
L1
 10
550.68926552651124
 20
63.695248320871599
 30
0.0
 11
550.68926552651124
 21
192.8633504076611
 31
0.0
  0
LINE
  5
466
  8
L1
 10
542.51770982670598
 20
63.266995233357093
 30
0.0
 11
542.51770982670598
 21
193.29160349517559
 31
0.0
  0
LINE
  5
467
  8
L1
 10
541.79842979602165
 20
64.829299364266348
 30
0.0
 11
541.79842979602154
 21
192.57232346449109
 31
0.0
  0
LINE
  5
468
  8
L1
 10
540.72757964388234
 20
191.22929936426621
 30
0.0
 11
540.72757964388234
 21
65.329299364266319
 31
0.0
  0
LINE
  5
469
  8
L1
 10
551.79842979602154
 20
64.804412590381901
 30
0.0
 11
551.79842979602154
 21
191.75418613815069
 31
0.0
  0
LINE
  5
46A
  8
L1
 10
542.51770982670598
 20
63.266995233357108
 30
0.0
 11
550.68926552651124
 21
63.695248320871599
 31
0.0
  0
LINE
  5
46B
  8
L1
 10
550.68926552651124
 20
63.695248320871599
 30
0.0
 11
551.79842979602154
 21
64.804412590381901
 31
0.0
  0
LINE
  5
46C
  8
L1
 10
541.79842979602154
 20
64.829299364266319
 30
0.0
 11
541.79842979602154
 21
63.986275264041581
 31
0.0
  0
LINE
  5
46D
  8
L1
 10
541.03403234291511
 20
64.964083259233831
 30
0.0
 11
541.79842979602154
 21
64.829299364266348
 31
0.0
  0
ARC
  5
46E
  8
L1
 10
541.09842979602161
 20
65.329299364266319
 30
0.0
 40
0.3708501521392529
 50
180.0
 51
260.00000000000188
  0
LINE
  5
46F
  8
L2
 10
541.79842979602154
 20
65.829299364266291
 30
0.0
 11
541.03403234291511
 21
65.694515469298807
 31
0.0
  0
ARC
  5
470
  8
L2
 10
541.09842979602161
 20
65.329299364266319
 30
0.0
 40
0.3708501521392529
 50
99.999999999998039
 51
180.0
  0
LINE
  5
471
  8
L1
 10
541.79842979602154
 20
63.986275264041581
 30
0.0
 11
542.51770982670598
 21
63.266995233357129
 31
0.0
  0
LINE
  5
472
  8
L2
 10
541.79842979602154
 20
80.329299364266348
 30
0.0
 11
548.50628288051394
 21
80.525899416289832
 31
0.0
  0
LINE
  5
473
  8
L2
 10
551.29656067279018
 20
78.733662798161703
 30
0.0
 11
551.79842979602154
 21
78.733662798161703
 31
0.0
  0
ARC
  5
474
  8
L2
 10
548.49842979602158
 20
80.825796613782501
 30
0.0
 40
0.2999999999999998
 50
271.49999999999977
 51
353.60085848371853
  0
LINE
  5
475
  8
L6
 10
532.72757964388245
 20
128.27929936426631
 30
0.0
 11
559.79842979602165
 21
128.27929936426631
 31
0.0
  0
LINE
  5
476
  8
L2
 10
541.79842979602154
 20
190.72929936426641
 30
0.0
 11
541.03403234291511
 21
190.86408325923389
 31
0.0
  0
LINE
  5
477
  8
L2
 10
541.79842979602154
 20
176.2292993642663
 30
0.0
 11
548.50628288051394
 21
176.03269931224281
 31
0.0
  0
LINE
  5
478
  8
L2
 10
551.29656067279018
 20
177.82493593037091
 30
0.0
 11
551.79842979602154
 21
177.82493593037091
 31
0.0
  0
ARC
  5
479
  8
L2
 10
548.49842979602158
 20
175.7328021147502
 30
0.0
 40
0.2999999999999998
 50
6.3991415162815057
 51
88.500000000000099
  0
LINE
  5
47A
  8
L2
 10
541.79842979602154
 20
180.0349798837573
 30
0.0
 11
541.79842979602154
 21
180.02929936426639
 31
0.0
  0
LINE
  5
47B
  8
L1
 10
542.51770982670598
 20
193.29160349517559
 30
0.0
 11
550.68926552651124
 21
192.8633504076611
 31
0.0
  0
LINE
  5
47C
  8
L1
 10
550.68926552651124
 20
192.8633504076611
 30
0.0
 11
551.79842979602154
 21
191.7541861381508
 31
0.0
  0
LINE
  5
47D
  8
L1
 10
541.03403234291511
 20
191.5945154692989
 30
0.0
 11
541.79842979602154
 21
191.7292993642663
 31
0.0
  0
ARC
  5
47E
  8
L1
 10
541.09842979602161
 20
191.22929936426641
 30
0.0
 40
0.3708501521392529
 50
99.999999999998039
 51
180.0
  0
ARC
  5
47F
  8
L2
 10
541.09842979602161
 20
191.22929936426641
 30
0.0
 40
0.3708501521392529
 50
180.0
 51
260.00000000000188
  0
LINE
  5
480
  8
L1
 10
541.79842979602154
 20
192.57232346449109
 30
0.0
 11
542.51770982670598
 21
193.29160349517551
 31
0.0
  0
ENDSEC
  0
EOF
