  0
SECTION
  2
HEADER
  9
$ACADVER
  1
AC1012
  9
$DWGCODEPAGE
  3
ansi_1252
  9
$INSBASE
 10
0.0
 20
0.0
 30
0.0
  9
$EXTMIN
 10
2.6406184691
 20
18.1250411603
 30
-16.3347985489
  9
$EXTMAX
 10
405.6992895694
 20
270.3098598528
 30
0.0
  9
$LIMMIN
 10
0.0
 20
0.0
  9
$LIMMAX
 10
420.0
 20
297.0
  9
$ORTHOMODE
 70
     1
  9
$REGENMODE
 70
     1
  9
$FILLMODE
 70
     1
  9
$QTEXTMODE
 70
     0
  9
$MIRRTEXT
 70
     1
  9
$DRAGMODE
 70
     2
  9
$LTSCALE
 40
4.0
  9
$OSMODE
 70
     0
  9
$ATTMODE
 70
     1
  9
$TEXTSIZE
 40
2.5
  9
$TRACEWID
 40
1.0
  9
$TEXTSTYLE
  7
SIMPLEX
  9
$CLAYER
  8
L2
  9
$CELTYPE
  6
BYLAYER
  9
$CECOLOR
 62
   256
  9
$CELTSCALE
 40
1.0
  9
$DELOBJ
 70
     1
  9
$DISPSILH
 70
     0
  9
$DIMSCALE
 40
1.0
  9
$DIMASZ
 40
3.5
  9
$DIMEXO
 40
0.1
  9
$DIMDLI
 40
0.38
  9
$DIMRND
 40
0.0
  9
$DIMDLE
 40
0.0
  9
$DIMEXE
 40
0.18
  9
$DIMTP
 40
0.0
  9
$DIMTM
 40
0.0
  9
$DIMTXT
 40
3.5
  9
$DIMCEN
 40
1.0
  9
$DIMTSZ
 40
0.0
  9
$DIMTOL
 70
     0
  9
$DIMLIM
 70
     0
  9
$DIMTIH
 70
     0
  9
$DIMTOH
 70
     0
  9
$DIMSE1
 70
     0
  9
$DIMSE2
 70
     0
  9
$DIMTAD
 70
     1
  9
$DIMZIN
 70
     8
  9
$DIMBLK
  1

  9
$DIMASO
 70
     1
  9
$DIMSHO
 70
     1
  9
$DIMPOST
  1

  9
$DIMAPOST
  1

  9
$DIMALT
 70
     0
  9
$DIMALTD
 70
     2
  9
$DIMALTF
 40
25.4
  9
$DIMLFAC
 40
1.0
  9
$DIMTOFL
 70
     1
  9
$DIMTVP
 40
0.0
  9
$DIMTIX
 70
     0
  9
$DIMSOXD
 70
     0
  9
$DIMSAH
 70
     0
  9
$DIMBLK1
  1

  9
$DIMBLK2
  1

  9
$DIMSTYLE
  2
FIBOX
  9
$DIMCLRD
 70
     1
  9
$DIMCLRE
 70
     1
  9
$DIMCLRT
 70
     3
  9
$DIMTFAC
 40
1.0
  9
$DIMGAP
 40
1.0
  9
$DIMJUST
 70
     0
  9
$DIMSD1
 70
     0
  9
$DIMSD2
 70
     0
  9
$DIMTOLJ
 70
     1
  9
$DIMTZIN
 70
     8
  9
$DIMALTZ
 70
     0
  9
$DIMALTTZ
 70
     0
  9
$DIMFIT
 70
     3
  9
$DIMUPT
 70
     0
  9
$DIMUNIT
 70
     2
  9
$DIMDEC
 70
     1
  9
$DIMTDEC
 70
     2
  9
$DIMALTU
 70
     2
  9
$DIMALTTD
 70
     2
  9
$DIMTXSTY
  7
SIMPLEX
  9
$DIMAUNIT
 70
     0
  9
$LUNITS
 70
     2
  9
$LUPREC
 70
     4
  9
$SKETCHINC
 40
1.0
  9
$FILLETRAD
 40
2.0
  9
$AUNITS
 70
     0
  9
$AUPREC
 70
     0
  9
$MENU
  1
C:\r13\win\SUPPORT\acad
  9
$ELEVATION
 40
0.0
  9
$PELEVATION
 40
0.0
  9
$THICKNESS
 40
0.0
  9
$LIMCHECK
 70
     0
  9
$BLIPMODE
 70
     0
  9
$CHAMFERA
 40
10.0
  9
$CHAMFERB
 40
10.0
  9
$CHAMFERC
 40
0.0
  9
$CHAMFERD
 40
0.0
  9
$SKPOLY
 70
     0
  9
$TDCREATE
 40
2450511.539299583
  9
$TDUPDATE
 40
2450746.611796041
  9
$TDINDWG
 40
0.7977337731
  9
$TDUSRTIMER
 40
0.7977337731
  9
$USRTIMER
 70
     1
  9
$ANGBASE
 50
0.0
  9
$ANGDIR
 70
     0
  9
$PDMODE
 70
     0
  9
$PDSIZE
 40
0.0
  9
$PLINEWID
 40
0.0
  9
$COORDS
 70
     1
  9
$SPLFRAME
 70
     0
  9
$SPLINETYPE
 70
     6
  9
$SPLINESEGS
 70
     8
  9
$ATTDIA
 70
     0
  9
$ATTREQ
 70
     1
  9
$HANDLING
 70
     1
  9
$HANDSEED
  5
987
  9
$SURFTAB1
 70
     6
  9
$SURFTAB2
 70
     6
  9
$SURFTYPE
 70
     6
  9
$SURFU
 70
     6
  9
$SURFV
 70
     6
  9
$UCSNAME
  2

  9
$UCSORG
 10
0.0
 20
0.0
 30
0.0
  9
$UCSXDIR
 10
1.0
 20
0.0
 30
0.0
  9
$UCSYDIR
 10
0.0
 20
1.0
 30
0.0
  9
$PUCSNAME
  2

  9
$PUCSORG
 10
0.0
 20
0.0
 30
0.0
  9
$PUCSXDIR
 10
1.0
 20
0.0
 30
0.0
  9
$PUCSYDIR
 10
0.0
 20
1.0
 30
0.0
  9
$USERI1
 70
     0
  9
$USERI2
 70
     0
  9
$USERI3
 70
     0
  9
$USERI4
 70
     0
  9
$USERI5
 70
     0
  9
$USERR1
 40
0.0
  9
$USERR2
 40
0.0
  9
$USERR3
 40
0.0
  9
$USERR4
 40
0.0
  9
$USERR5
 40
0.0
  9
$WORLDVIEW
 70
     1
  9
$SHADEDGE
 70
     3
  9
$SHADEDIF
 70
    70
  9
$TILEMODE
 70
     1
  9
$MAXACTVP
 70
    16
  9
$PINSBASE
 10
0.0
 20
0.0
 30
0.0
  9
$PLIMCHECK
 70
     0
  9
$PEXTMIN
 10
-550.1209692396
 20
29.3154764206
 30
0.0
  9
$PEXTMAX
 10
8.9949790795
 20
479.0819811324
 30
0.0
  9
$PLIMMIN
 10
0.0
 20
0.0
  9
$PLIMMAX
 10
420.0
 20
297.0
  9
$UNITMODE
 70
     0
  9
$VISRETAIN
 70
     0
  9
$PLINEGEN
 70
     0
  9
$PSLTSCALE
 70
     1
  9
$TREEDEPTH
 70
  3020
  9
$PICKSTYLE
 70
     1
  9
$CMLSTYLE
  2
STANDARD
  9
$CMLJUST
 70
     0
  9
$CMLSCALE
 40
1.0
  9
$SAVEIMAGES
 70
     0
  0
ENDSEC
  0
SECTION
  2
CLASSES
  0
CLASS
  1
ACMESCOPE
  2
AcMeScope
  3
ACME_MODULE_NAME
 90
        0
280
     1
281
     0
  0
CLASS
  1
ACMECOMMANDHISTORY
  2
AcMeCommandHistory
  3
ACME_MODULE_NAME
 90
        0
280
     1
281
     0
  0
CLASS
  1
AcRfInsAdjusterMgr
  2
AcRfInsAdjusterMgr
  3
ACME_MODULE_NAME
 90
        0
280
     1
281
     0
  0
CLASS
  1
ACGREFMASTER
  2
AcGrefMaster
  3
"AcadRfServer"
 90
        0
280
     1
281
     0
  0
CLASS
  1
AmiMaster
  2
AmiMaster
  3
"AmiServices"
 90
        0
280
     1
281
     0
  0
CLASS
  1
ACASGREFMASTER
  2
AcAsGrefMaster
  3
"AutoSurfResolver"
 90
        0
280
     1
281
     0
  0
CLASS
  1
ADAPPL
  2
AcAdAppl
  3
"DesignerServices"
 90
        0
280
     1
281
     0
  0
CLASS
  1
DEPMGR
  2
AcAdDepMgr
  3
"DesignerServices"
 90
        0
280
     1
281
     0
  0
CLASS
  1
PARAMMGR
  2
AcAdParamMgr
  3
"DesignerServices"
 90
        0
280
     1
281
     0
  0
CLASS
  1
PARAMSCOPE
  2
AcAdParamScope
  3
"DesignerServices"
 90
        0
280
     1
281
     0
  0
CLASS
  1
"IM_SYSVAR_MAN"
  2
AcImSysVarManager
  3
"ADAM"
 90
        0
280
     1
281
     0
  0
CLASS
  1
SYSTEM_VAR_INT
  2
AcImIntSysVar
  3
"ADAM"
 90
        0
280
     1
281
     0
  0
CLASS
  1
SYSTEM_VAR_REAL
  2
AcImRealSysVar
  3
"ADAM"
 90
        0
280
     1
281
     0
  0
CLASS
  1
SYSTEM_VAR_STR
  2
AcImStrSysVar
  3
"ADAM"
 90
        0
280
     1
281
     0
  0
CLASS
  1
NAMEDAPPL
  2
AcAdNamedAppl
  3
"DesignerServices"
 90
        0
280
     1
281
     0
  0
CLASS
  1
ADPART
  2
AcAdPart
  3
"DesignerServices"
 90
        0
280
     1
281
     1
  0
CLASS
  1
ADBASE
  2
AcAdBase
  3
"DesignerServices"
 90
        0
280
     1
281
     0
  0
CLASS
  1
BODYID
  2
AcAdBodyId
  3
"DesignerServices"
 90
        0
280
     1
281
     0
  0
CLASS
  1
WORKPLANEDISPLAYMGR
  2
AcAdDisplayMgr
  3
"DesignerServices"
 90
        0
280
     1
281
     0
  0
CLASS
  1
ADHNTMPLT
  2
AdHoleNoteTemplateMgr
  3
"DesignerServices"
 90
        0
280
     1
281
     0
  0
CLASS
  1
AM_HNTEMPLATE_MGR_NAME
  2
AdHoleNoteTemplateMgrName
  3
"DesignerServices"
 90
        0
280
     1
281
     0
  0
CLASS
  1
AcAdGrefModule
  2
AcAdGrefModule
  3
AD_GREF_SERVICES_NSTR
 90
        0
280
     1
281
     0
  0
CLASS
  1
AM_DRAWING_MGR
  2
AcDmDwgMgr
  3
"Designer_Drawing_Mgmt"
 90
        0
280
     1
281
     0
  0
CLASS
  1
AM_DWG_DOCUMENT
  2
AcDmDwgDocument
  3
"Designer_Drawing_Mgmt"
 90
        0
280
     1
281
     0
  0
CLASS
  1
AM_DWG_SHEET
  2
AcDmSheet
  3
"Designer_Drawing_Mgmt"
 90
        0
280
     1
281
     0
  0
CLASS
  1
AM_VIEWDIMPARMAP
  2
AcDmViewDimParMap
  3
"Designer_Drawing_Mgmt"
 90
        0
280
     1
281
     0
  0
CLASS
  1
AM_DWGMGR_NAME
  2
AcDmDwgMgrName
  3
"Designer_Drawing_Mgmt"
 90
        0
280
     1
281
     0
  0
CLASS
  1
ACAMPROJECT
  2
AcAmProject
  3
"DesignerAssemblies"
 90
        0
280
     1
281
     0
  0
CLASS
  1
ACAMGRCOMPDEF
  2
AcAmGrCompDef
  3
"DesignerAssemblies"
 90
        0
280
     1
281
     0
  0
CLASS
  1
ACAMCOMPDEF
  2
AcAmCompDef
  3
"DesignerAssemblies"
 90
        0
280
     1
281
     0
  0
CLASS
  1
ACAMCOMPDEFMGR
  2
AcAmCompDefMgr
  3
"DesignerAssemblies"
 90
        0
280
     1
281
     0
  0
CLASS
  1
AMCONTEXTMGR
  2
AcAmContextMgr
  3
"DesignerAssemblies"
 90
        0
280
     1
281
     0
  0
CLASS
  1
AcAmContextModeler
  2
AcAmContextModeler
  3
"DesignerAssemblies"
 90
        0
280
     1
281
     0
  0
CLASS
  1
ACAMDRAWINGMAN
  2
AcAmDrawingMan
  3
"DesignerAssemblies"
 90
        0
280
     1
281
     0
  0
CLASS
  1
ASSYSVARS
  2
AcAsSysVars
  3
"AutoSurf"
 90
        0
280
     1
281
     0
  0
CLASS
  1
ASSTATICVARS
  2
AcAsStaticVars
  3
"AutoSurf"
 90
        0
280
     1
281
     0
  0
CLASS
  1
ASAPP
  2
AcAsAppObject
  3
"AutoSurf"
 90
        0
280
     1
281
     0
  0
CLASS
  1
AGDICTIONARY
  2
AgDictionary
  3
"AccelView"
 90
        1
280
     1
281
     0
  0
CLASS
  1
ADDATUMPLANEABS
  2
AcAdDatumPlaneAbs
  3
"DesignerServices"
 90
        0
280
     1
281
     0
  0
CLASS
  1
ADDATUMAXISABS
  2
AcAdDatumAxisAbs
  3
"DesignerServices"
 90
        0
280
     1
281
     0
  0
CLASS
  1
ADDATUMORIENTEDPLANE
  2
AcAdDatumOrientedPlane
  3
"DesignerServices"
 90
        0
280
     1
281
     0
  0
CLASS
  1
ACADPLLINEACAD
  2
AcAdVirtualLinePlineAcad
  3
"DesignerServices"
 90
        0
280
     1
281
     0
  0
CLASS
  1
ACADREFLINEACAD
  2
AcAdVirtualReferenceLine
  3
"DesignerServices"
 90
        0
280
     1
281
     0
  0
CLASS
  1
ACADCONSLINE
  2
AcAdConstrainedLine
  3
"DesignerServices"
 90
        0
280
     1
281
     0
  0
CLASS
  1
ACADCONSGROUP
  2
AcAdConstraintGroup
  3
"DesignerServices"
 90
        0
280
     1
281
     0
  0
CLASS
  1
ACADIMPPTACAD
  2
AcAdVirtualImplicitPoint
  3
"DesignerServices"
 90
        0
280
     1
281
     0
  0
CLASS
  1
ACADCONSPOINT
  2
AcAdConstrainedPoint
  3
"DesignerServices"
 90
        0
280
     1
281
     0
  0
CLASS
  1
ADPCURCNS
  2
AcAdPointCurveConstr
  3
"DesignerServices"
 90
        0
280
     1
281
     0
  0
CLASS
  1
ADVERCNS
  2
AcAdVerticalConstr
  3
"DesignerServices"
 90
        0
280
     1
281
     0
  0
CLASS
  1
ADHORCNS
  2
AcAdHorizontalConstr
  3
"DesignerServices"
 90
        0
280
     1
281
     0
  0
CLASS
  1
ADCLPROF2D
  2
AcAdClosedProfile2d
  3
"DesignerServices"
 90
        0
280
     1
281
     0
  0
CLASS
  1
ADCONSDISP
  2
AcAdConstraintDisplay
  3
"DesignerServices"
 90
        0
280
     1
281
     1
  0
CLASS
  1
ADCONSTDSP
  2
AcAdConstraintDisplayTag
  3
"DesignerServices"
 90
        0
280
     1
281
     1
  0
CLASS
  1
ADPARCNS
  2
AcAdParallelConstr
  3
"DesignerServices"
 90
        0
280
     1
281
     0
  0
CLASS
  1
PARAM
  2
AcAdParam
  3
"DesignerServices"
 90
        0
280
     1
281
     0
  0
CLASS
  1
ADVDISTCNS
  2
AcAdLinearDistanceConstr
  3
"DesignerServices"
 90
        0
280
     1
281
     0
  0
CLASS
  1
ACMELINEARARROW
  2
AcImLinearArrowDisplay
  3
ACME_MODULE_NAME
 90
        0
280
     1
281
     1
  0
CLASS
  1
ADEXTRUSIONBLIND
  2
AcAdExtrusionBlind
  3
"DesignerServices"
 90
        0
280
     1
281
     0
  0
CLASS
  1
ACADCIRCLEACAD
  2
AcAdVirtualCircleAcad
  3
"DesignerServices"
 90
        0
280
     1
281
     0
  0
CLASS
  1
ACADCONSCIRCLE
  2
AcAdConstrainedCircle
  3
"DesignerServices"
 90
        0
280
     1
281
     0
  0
CLASS
  1
ADCTRPTCNS
  2
AcAdCenterPointConstr
  3
"DesignerServices"
 90
        0
280
     1
281
     0
  0
CLASS
  1
ADDIACNS
  2
AcAdAcadDiameterConstr
  3
"DesignerServices"
 90
        0
280
     1
281
     0
  0
CLASS
  1
HVREFID
  2
AcAdHVRefId
  3
"DesignerServices"
 90
        0
280
     1
281
     0
  0
CLASS
  1
ACADLINEDEPID
  2
AcAdVirtualPointDepId
  3
"DesignerServices"
 90
        0
280
     1
281
     0
  0
CLASS
  1
ADVDISTCNS
  2
AcAdVerticalDistanceConstr
  3
"DesignerServices"
 90
        0
280
     1
281
     0
  0
CLASS
  1
ADHDISTCNS
  2
AcAdHorizontalDistanceConstr
  3
"DesignerServices"
 90
        0
280
     1
281
     0
  0
CLASS
  1
ADFEATRECTARRAY
  2
AcAdRectangularFeatArray
  3
"DesignerServices"
 90
        0
280
     1
281
     0
  0
CLASS
  1
ADPLANEID
  2
AcAdPlaneId
  3
"DesignerServices"
 90
        0
280
     1
281
     0
  0
CLASS
  1
ADDATUMPLANEFACE
  2
AcAdDatumPlaneFace
  3
"DesignerServices"
 90
        0
280
     1
281
     0
  0
CLASS
  1
ADSTRAIGHTID
  2
AcAdStraightId
  3
"DesignerServices"
 90
        0
280
     1
281
     0
  0
CLASS
  1
ADDATUMAXISEDGE
  2
AcAdDatumAxisEdge
  3
"DesignerServices"
 90
        0
280
     1
281
     0
  0
CLASS
  1
ACADPLARCACAD
  2
AcAdVirtualArcPlineAcad
  3
"DesignerServices"
 90
        0
280
     1
281
     0
  0
CLASS
  1
ADCOLNCNS
  2
AcAdColinearConstr
  3
"DesignerServices"
 90
        0
280
     1
281
     0
  0
CLASS
  1
ADTANCNS
  2
AcAdTangentConstr
  3
"DesignerServices"
 90
        0
280
     1
281
     0
  0
CLASS
  1
ADEQRADCNS
  2
AcAdEqualRadiusConstr
  3
"DesignerServices"
 90
        0
280
     1
281
     0
  0
CLASS
  1
STREFID
  2
AcAdStraightRefId
  3
"DesignerServices"
 90
        0
280
     1
281
     0
  0
CLASS
  1
ACADLINEDEPID
  2
AcAdVirtualLineDepId
  3
"DesignerServices"
 90
        0
280
     1
281
     0
  0
CLASS
  1
RAYREFID
  2
AcAdRayRefId
  3
"DesignerServices"
 90
        0
280
     1
281
     0
  0
CLASS
  1
ADPDISTCNS
  2
AcAdParallelDistanceConstr
  3
"DesignerServices"
 90
        0
280
     1
281
     0
  0
CLASS
  1
ADRADCNS
  2
AcAdAcadRadiusConstr
  3
"DesignerServices"
 90
        0
280
     1
281
     0
  0
CLASS
  1
ADPERPCNS
  2
AcAdPerpendicularConstr
  3
"DesignerServices"
 90
        0
280
     1
281
     0
  0
CLASS
  1
CIRREFID
  2
AcAdCircleRefId
  3
"DesignerServices"
 90
        0
280
     1
281
     0
  0
CLASS
  1
ACADCIRCDEPID
  2
AcAdVirtualCircleDepId
  3
"DesignerServices"
 90
        0
280
     1
281
     0
  0
CLASS
  1
ADPLANEID
  2
AcAdSurfGeomId
  3
"DesignerServices"
 90
        0
280
     1
281
     0
  0
CLASS
  1
ADDATUMAXISCENTER
  2
AcAdDatumAxisCenter
  3
"DesignerServices"
 90
        0
280
     1
281
     0
  0
CLASS
  1
ADDATUMPOINTAXISPLANE
  2
AcAdDatumPointAxisPlane
  3
"DesignerServices"
 90
        0
280
     1
281
     0
  0
CLASS
  1
ADHOLEFEAT
  2
AcAdHoleFeat
  3
"DesignerServices"
 90
        0
280
     1
281
     0
  0
CLASS
  1
ADCONCCNS
  2
AcAdConcentricConstr
  3
"DesignerServices"
 90
        0
280
     1
281
     0
  0
CLASS
  1
ADEXTRUSIONTOPLANE
  2
AcAdExtrusionToPlane
  3
"DesignerServices"
 90
        0
280
     1
281
     0
  0
CLASS
  1
ADBDISTCNS
  2
AcAdAcadAngleConstr
  3
"DesignerServices"
 90
        0
280
     1
281
     0
  0
CLASS
  1
ADPATH2D
  2
AcAdPath2d
  3
"DesignerServices"
 90
        0
280
     1
281
     0
  0
CLASS
  1
DATUMPLANEDISPLAY
  2
AcAdDatumPlaneDisplay
  3
"DesignerServices"
 90
        0
280
     1
281
     1
  0
CLASS
  1
ADDATUMPLANEXSECT
  2
AcAdDatumPlaneXSect
  3
"DesignerServices"
 90
        0
280
     1
281
     0
  0
CLASS
  1
DATUMPOINTDISPLAY
  2
AcAdDatumPointDisplay
  3
"DesignerServices"
 90
        0
280
     1
281
     1
  0
CLASS
  1
ADDATUMPOINTPATHSTART
  2
AcAdDatumPointPathStart
  3
"DesignerServices"
 90
        0
280
     1
281
     0
  0
CLASS
  1
ACADVIRTUALPOINTDATUMID
  2
AcAdVirtualPointDatumId
  3
"DesignerServices"
 90
        0
280
     1
281
     0
  0
CLASS
  1
ADSWEEP
  2
AcAdSweep
  3
"DesignerServices"
 90
        0
280
     1
281
     0
  0
CLASS
  1
ADEXTRUSIONTHRU
  2
AcAdExtrusionThru
  3
"DesignerServices"
 90
        0
280
     1
281
     0
  0
CLASS
  1
EDGEID
  2
AcAdEdgeId
  3
"DesignerServices"
 90
        0
280
     1
281
     0
  0
CLASS
  1
ADFILLET
  2
AcAdFillet
  3
"DesignerServices"
 90
        0
280
     1
281
     0
  0
CLASS
  1
AM_VIEW_SELECT_FILTER
  2
AcDmActivePartViewEntFilter
  3
"Designer_Drawing_Mgmt"
 90
        0
280
     1
281
     0
  0
CLASS
  1
AM_ABS_PLANE
  2
AcDmAbsPlnDef
  3
DM_MODULE_NAME
 90
        0
280
     1
281
     0
  0
CLASS
  1
AM_ABS_AXIS
  2
AcDmAbsAxisDef
  3
DM_MODULE_NAME
 90
        0
280
     1
281
     0
  0
CLASS
  1
AM_BASE_VIEW_ORIENT
  2
AcDmBaseViewOr
  3
"Designer_Drawing_Mgmt"
 90
        0
280
     1
281
     0
  0
CLASS
  1
AM_DWG_VIEWPORT
  2
AcDmViewport
  3
"Designer_Drawing_Mgmt"
 90
        0
280
     1
281
     0
  0
CLASS
  1
AM_VIEW_DISPLAY
  2
AcDmDwgViewDisplay
  3
"Designer_Drawing_Mgmt"
 90
        0
280
     1
281
     0
  0
CLASS
  1
AM_BASE_VIEW
  2
AcDmBaseView
  3
"Designer_Drawing_Mgmt"
 90
        0
280
     1
281
     0
  0
CLASS
  1
ACDMVWEDARC
  2
AcDmViewEdgeArc
  3
"Designer_Drawing_Mgmt"
 90
        0
280
     1
281
     1
  0
CLASS
  1
ACDMVWEDLINE
  2
AcDmViewEdgeLine
  3
"Designer_Drawing_Mgmt"
 90
        0
280
     1
281
     1
  0
CLASS
  1
ACDMVWEDSPLINE
  2
AcDmViewEdgeSpline
  3
"Designer_Drawing_Mgmt"
 90
        0
280
     1
281
     1
  0
CLASS
  1
ACDMVWEDCIRC
  2
AcDmViewEdgeCircle
  3
"Designer_Drawing_Mgmt"
 90
        0
280
     1
281
     1
  0
CLASS
  1
ACADSKETCHPOINTRES
  2
AcAdSketchPointRes
  3
"DesignerServices"
 90
        0
280
     1
281
     0
  0
CLASS
  1
ACADSKETCHCIRCARCRES
  2
AcAdSketchCircArcRes
  3
"DesignerServices"
 90
        0
280
     1
281
     0
  0
CLASS
  1
ACADSKETCHLINERES
  2
AcAdSketchLineRes
  3
"DesignerServices"
 90
        0
280
     1
281
     0
  0
CLASS
  1
AM_VIEWDIMLINEAR
  2
AcDmViewDimLinear
  3
"Designer_Drawing_Mgmt"
 90
        0
280
     1
281
     0
  0
CLASS
  1
AM_VIEWDIMDIAMETER
  2
AcDmViewDimDiameter
  3
"Designer_Drawing_Mgmt"
 90
        0
280
     1
281
     0
  0
CLASS
  1
AM_VIEWDIMRADIUS
  2
AcDmViewDimRadius
  3
"Designer_Drawing_Mgmt"
 90
        0
280
     1
281
     0
  0
CLASS
  1
AM_VIEWDIMPARALLEL
  2
AcDmViewDimParallel
  3
"Designer_Drawing_Mgmt"
 90
        0
280
     1
281
     0
  0
CLASS
  1
AM_VIEWDIMANGULAR
  2
AcDmViewDimAngular
  3
"Designer_Drawing_Mgmt"
 90
        0
280
     1
281
     0
  0
CLASS
  1
AM_ORTHO_VIEW_ORIENT
  2
AcDmOrthoViewOr
  3
"Designer_Drawing_Mgmt"
 90
        0
280
     1
281
     0
  0
CLASS
  1
AM_ORTHO_VIEW
  2
AcDmOrthoView
  3
"Designer_Drawing_Mgmt"
 90
        0
280
     1
281
     0
  0
CLASS
  1
AM_ISO_VIEW_ORIENT
  2
AcDmIsoViewOr
  3
"Designer_Drawing_Mgmt"
 90
        0
280
     1
281
     0
  0
CLASS
  1
AM_ISO_VIEW
  2
AcDmIsoView
  3
"Designer_Drawing_Mgmt"
 90
        0
280
     1
281
     0
  0
CLASS
  1
AcAdPartCircEdgRES
  2
AcAdPartCircEdgRes
  3
AD_GREF_SERVICES_NSTR
 90
        0
280
     1
281
     0
  0
CLASS
  1
ACADPARTELLIPSEEDGERES
  2
AcAdPartEllipseEdgeRes
  3
AD_GREF_SERVICES_NSTR
 90
        0
280
     1
281
     0
  0
CLASS
  1
ELLREFID
  2
AcAdEllipseRefId
  3
"DesignerServices"
 90
        0
280
     1
281
     0
  0
CLASS
  1
ACADPARTLINEDGRES
  2
AcAdPartLinEdgRes
  3
AD_GREF_SERVICES_NSTR
 90
        0
280
     1
281
     0
  0
CLASS
  1
CNRREFID
  2
AcAdCornerId
  3
"DesignerServices"
 90
        0
280
     1
281
     0
  0
CLASS
  1
ACADPARTPOINTRES
  2
AcAdPartPointRes
  3
AD_GREF_SERVICES_NSTR
 90
        0
280
     1
281
     0
  0
CLASS
  1
ACAMGRCOMPSET
  2
AcAmGrCompSet
  3
DesignerAssemblies
 90
        0
280
     1
281
     0
  0
CLASS
  1
ACAMGRCOMPDEFSET
  2
AcAmGrCompDefSet
  3
DesignerAssemblies
 90
        0
280
     1
281
     0
  0
CLASS
  1
ACDMVIEWGEOM
  2
AcDmViewGeometry
  3
AcMechDwgViewMgmt
 90
        0
280
     1
281
     1
  0
CLASS
  1
ACADCIRCLEACAD
  2
AcAdVirtualVertex
  3
DesignerServices
 90
        0
280
     1
281
     0
  0
CLASS
  1
ACADCIRCLEACAD
  2
AcAdVirtualContainer
  3
DesignerServices
 90
        0
280
     1
281
     0
  0
CLASS
  1
ADPROJCNS
  2
AcAdProjectionConstr
  3
DesignerServices
 90
        0
280
     1
281
     0
  0
CLASS
  1
AM_FULLPOINTSECTION
  2
AcDmFullPointSection
  3
AcMechDwgViewMgmt
 90
        0
280
     1
281
     0
  0
CLASS
  1
AM_SECTIONSYMBOL
  2
AcDmSectionSymbol
  3
AcMechDwgViewMgmt
 90
        0
280
     1
281
     0
  0
CLASS
  1
AM_VIEWLABEL
  2
AcDmViewLabel
  3
AcMechDwgViewMgmt
 90
        0
280
     1
281
     0
  0
ENDSEC
  0
SECTION
  2
TABLES
  0
TABLE
  2
VPORT
  5
12
100
AcDbSymbolTable
 70
     3
  0
VPORT
  5
986
100
AcDbSymbolTableRecord
100
AcDbViewportTableRecord
  2
*ACTIVE
 70
     0
 10
0.0
 20
0.0
 11
1.0
 21
1.0
 12
284.0582366088
 22
-139.089573948
 13
0.0
 23
0.0
 14
0.5
 24
0.5
 15
10.0
 25
10.0
 16
0.0
 26
0.0
 36
1.0
 17
-77.9498665068
 27
282.9809532583
 37
0.0
 40
256.9018350914
 41
1.7668393782
 42
50.0
 43
0.0
 44
0.0
 50
0.0
 51
0.0
 71
     0
 72
  1000
 73
     1
 74
     1
 75
     0
 76
     0
 77
     0
 78
     0
  0
ENDTAB
  0
TABLE
  2
LTYPE
  5
E
100
AcDbSymbolTable
 70
     4
  0
LTYPE
  5
F
100
AcDbSymbolTableRecord
100
AcDbLinetypeTableRecord
  2
BYBLOCK
 70
     0
  3

 72
    65
 73
     0
 40
0.0
  0
LTYPE
  5
6
100
AcDbSymbolTableRecord
100
AcDbLinetypeTableRecord
  2
BYLAYER
 70
     0
  3

 72
    65
 73
     0
 40
0.0
  0
LTYPE
  5
5
100
AcDbSymbolTableRecord
100
AcDbLinetypeTableRecord
  2
CONTINUOUS
 70
     0
  3
Solid line
 72
    65
 73
     0
 40
0.0
  0
LTYPE
  5
377
100
AcDbSymbolTableRecord
100
AcDbLinetypeTableRecord
  2
HIDDEN
 70
    64
  3
__ __ __ __ __ __ __ __ __ __ __ __ __ __ __ __
 72
    65
 73
     2
 40
0.375
 49
0.25
 74
     0
 49
-0.125
 74
     0
  0
LTYPE
  5
24
100
AcDbSymbolTableRecord
100
AcDbLinetypeTableRecord
  2
CENTER
 70
     0
  3
____ _ ____ _ ____ _ ____ _ ____ _ ____ _ ____ 
 72
    65
 73
     4
 40
2.0
 49
1.25
 74
     0
 49
-0.25
 74
     0
 49
0.25
 74
     0
 49
-0.25
 74
     0
  0
LTYPE
  5
1C
100
AcDbSymbolTableRecord
100
AcDbLinetypeTableRecord
  2
DASHED
 70
    64
  3
__ __ __ __ __ __ __ __ __ __ __ __ __ __ __ __
 72
    65
 73
     2
 40
0.75
 49
0.5
 74
     0
 49
-0.25
 74
     0
  0
ENDTAB
  0
TABLE
  2
LAYER
  5
B
100
AcDbSymbolTable
 70
     5
  0
LAYER
  5
4
100
AcDbSymbolTableRecord
100
AcDbLayerTableRecord
  2
0
 70
    64
 62
     7
  6
CONTINUOUS
  0
LAYER
  5
1B
100
AcDbSymbolTableRecord
100
AcDbLayerTableRecord
  2
L2
 70
    64
 62
     1
  6
DASHED
  0
LAYER
  5
27
100
AcDbSymbolTableRecord
100
AcDbLayerTableRecord
  2
L1
 70
    64
 62
     7
  6
CONTINUOUS
  0
LAYER
  5
23
100
AcDbSymbolTableRecord
100
AcDbLayerTableRecord
  2
L6
 70
    64
 62
     1
  6
CENTER
  0
LAYER
  5
21
100
AcDbSymbolTableRecord
100
AcDbLayerTableRecord
  2
L46
 70
    64
 62
     9
  6
CONTINUOUS
  0
ENDTAB
  0
TABLE
  2
STYLE
  5
C
100
AcDbSymbolTable
 70
     2
  0
STYLE
  5
D
100
AcDbSymbolTableRecord
100
AcDbTextStyleTableRecord
  2
STANDARD
 70
    64
 40
0.0
 41
1.0
 50
0.0
 71
     0
 42
2.5
  3
ISOCP
  4

  0
STYLE
  5
1D
100
AcDbSymbolTableRecord
100
AcDbTextStyleTableRecord
  2
SIMPLEX
 70
    64
 40
0.0
 41
0.8
 50
0.0
 71
     0
 42
2.5
  3
SIMPLEX.SHX
  4

  0
ENDTAB
  0
TABLE
  2
VIEW
  5
10
100
AcDbSymbolTable
 70
     0
  0
ENDTAB
  0
TABLE
  2
UCS
  5
11
100
AcDbSymbolTable
 70
     0
  0
ENDTAB
  0
TABLE
  2
APPID
  5
14
100
AcDbSymbolTable
 70
     1
  0
APPID
  5
15
100
AcDbSymbolTableRecord
100
AcDbRegAppTableRecord
  2
ACAD
 70
     0
  0
ENDTAB
  0
TABLE
  2
DIMSTYLE
  5
16
100
AcDbSymbolTable
 70
     1
  0
DIMSTYLE
105
1F
100
AcDbSymbolTableRecord
100
AcDbDimStyleTableRecord
  2
FIBOX
 70
     0
  3

  4

  5

  6

  7

 40
1.0
 41
3.5
 42
0.1
 43
0.38
 44
0.18
 45
0.0
 46
0.0
 47
0.0
 48
0.0
140
3.5
141
1.0
142
0.0
143
25.4
144
1.0
145
0.0
146
1.0
147
1.0
 71
     0
 72
     0
 73
     0
 74
     0
 75
     0
 76
     0
 77
     1
 78
     8
170
     0
171
     2
172
     1
173
     0
174
     0
175
     0
176
     1
177
     1
178
     3
270
     2
271
     1
272
     2
273
     2
274
     2
340
1D
275
     0
280
     0
281
     0
282
     0
283
     1
284
     8
285
     0
286
     0
287
     3
288
     0
  0
ENDTAB
  0
TABLE
  2
BLOCK_RECORD
  5
1
100
AcDbSymbolTable
 70
     1
  0
BLOCK_RECORD
  5
2
100
AcDbSymbolTableRecord
100
AcDbBlockTableRecord
  2
*MODEL_SPACE
  0
BLOCK_RECORD
  5
8
100
AcDbSymbolTableRecord
100
AcDbBlockTableRecord
  2
*PAPER_SPACE
  0
BLOCK_RECORD
  5
2A
100
AcDbSymbolTableRecord
100
AcDbBlockTableRecord
  2
A$CD
  0
ENDTAB
  0
ENDSEC
  0
SECTION
  2
BLOCKS
  0
BLOCK
  5
3
100
AcDbEntity
  8
0
100
AcDbBlockBegin
  2
*MODEL_SPACE
 70
     0
 10
0.0
 20
0.0
 30
0.0
  3
*MODEL_SPACE
  1

  0
ENDBLK
  5
7
100
AcDbEntity
  8
0
100
AcDbBlockEnd
  0
BLOCK
  5
9
100
AcDbEntity
 67
     1
  8
0
100
AcDbBlockBegin
  2
*PAPER_SPACE
 70
     0
 10
0.0
 20
0.0
 30
0.0
  3
*PAPER_SPACE
  1

  0
ENDBLK
  5
A
100
AcDbEntity
 67
     1
  8
0
100
AcDbBlockEnd
  0
BLOCK
  5
215
100
AcDbEntity
  8
L1
100
AcDbBlockBegin
  2
A$CD
 70
     0
 10
0.0
 20
0.0
 30
0.0
  3
A$CD
  1

  0
CIRCLE
  5
2B
100
AcDbEntity
  8
L1
100
AcDbCircle
 10
8.2631303993
 20
121.8362147415
 30
-29.1382877593
 40
3.3605497214
  0
CIRCLE
  5
2C
100
AcDbEntity
  8
L1
100
AcDbCircle
 10
8.2631303993
 20
121.8362147415
 30
-29.1382877593
 40
3.9
  0
ARC
  5
2D
100
AcDbEntity
  8
L1
100
AcDbCircle
 10
8.2631303993
 20
121.8362147415
 30
-29.1382877593
 40
4.7063010141
100
AcDbArc
 50
204.5139055064
 51
65.4860944936
  0
ARC
  5
2E
100
AcDbEntity
  8
L1
100
AcDbCircle
 10
8.2631303993
 20
121.8362147415
 30
-29.1382877593
 40
5.1
100
AcDbArc
 50
326.724997998
 51
51.6082214207
  0
LINE
  5
2F
100
AcDbEntity
  8
L1
100
AcDbLine
 10
14.5900556167
 20
126.6093123703
 30
-29.1382877593
 11
14.5900556167
 21
122.3092895241
 31
-29.1382877593
  0
LINE
  5
30
100
AcDbEntity
  8
L1
100
AcDbLine
 10
0.8787335352
 20
126.4207182211
 30
-29.1382877593
 11
0.8787335352
 21
115.5154097551
 31
-29.1382877593
  0
LINE
  5
31
100
AcDbEntity
  8
L1
100
AcDbLine
 10
2.8839239626
 20
115.5154097551
 30
-29.1382877593
 11
2.8839239626
 21
126.1180163919
 31
-29.1382877593
  0
LINE
  5
32
100
AcDbEntity
  8
L1
100
AcDbLine
 10
0.6919318744
 20
117.5921061205
 30
-29.1382877593
 11
0.6919318744
 21
126.6075198819
 31
-29.1382877593
  0
CIRCLE
  5
33
100
AcDbEntity
  8
L1
100
AcDbCircle
 10
8.2631303993
 20
121.8362147415
 30
-29.1382877593
 40
2.2718171695
  0
LINE
  5
34
100
AcDbEntity
  8
L1
100
AcDbLine
 10
2.9293265217
 20
121.0580433341
 30
-29.1382877593
 11
2.9293265217
 21
122.614386149
 31
-29.1382877593
  0
POLYLINE
  5
35
100
AcDbEntity
  8
L1
100
AcDb2dPolyline
 66
     1
 10
0.0
 20
0.0
 30
-29.1382877593
  0
VERTEX
  5
36
100
AcDbEntity
  8
L1
100
AcDbVertex
100
AcDb2dVertex
 10
3.5980268408
 20
122.4575665134
 30
-29.1382877593
  0
VERTEX
  5
37
100
AcDbEntity
  8
L1
100
AcDbVertex
100
AcDb2dVertex
 10
3.5672606072
 20
122.4155168326
 30
-29.1382877593
  0
VERTEX
  5
38
100
AcDbEntity
  8
L1
100
AcDbVertex
100
AcDb2dVertex
 10
3.5331861634
 20
122.3838315971
 30
-29.1382877593
  0
VERTEX
  5
39
100
AcDbEntity
  8
L1
100
AcDbVertex
100
AcDb2dVertex
 10
3.4192185795
 20
122.3305020426
 30
-29.1382877593
  0
VERTEX
  5
3A
100
AcDbEntity
  8
L1
100
AcDbVertex
100
AcDb2dVertex
 10
3.4066772937
 20
122.3278868655
 30
-29.1382877593
  0
SEQEND
  5
3B
100
AcDbEntity
  8
L1
  0
POLYLINE
  5
3C
100
AcDbEntity
  8
L1
100
AcDb2dPolyline
 66
     1
 10
0.0
 20
0.0
 30
-29.1382877593
  0
VERTEX
  5
3D
100
AcDbEntity
  8
L1
100
AcDbVertex
100
AcDb2dVertex
 10
3.2293150987
 20
122.3143975721
 30
-29.1382877593
  0
VERTEX
  5
3E
100
AcDbEntity
  8
L1
100
AcDbVertex
100
AcDb2dVertex
 10
3.0171897559
 20
122.4022608062
 30
-29.1382877593
  0
VERTEX
  5
3F
100
AcDbEntity
  8
L1
100
AcDbVertex
100
AcDb2dVertex
 10
2.9293265217
 20
122.614386149
 30
-29.1382877593
  0
SEQEND
  5
40
100
AcDbEntity
  8
L1
  0
ARC
  5
41
100
AcDbEntity
  8
L1
100
AcDbCircle
 10
8.2631303993
 20
121.8362147415
 30
-29.1382877593
 40
4.7063010141
100
AcDbArc
 50
172.413345734
 51
187.1221183125
  0
ARC
  5
42
100
AcDbEntity
  8
L1
100
AcDbCircle
 10
7.7900556167
 20
122.3092895241
 30
-29.1382877593
 40
6.8
100
AcDbArc
 50
270.0
 51
0.0
  0
ARC
  5
43
100
AcDbEntity
  8
L1
100
AcDbCircle
 10
8.2631303993
 20
121.8362147415
 30
-29.1382877593
 40
5.1
100
AcDbArc
 50
218.3917785793
 51
303.275002002
  0
POLYLINE
  5
44
100
AcDbEntity
  8
L1
100
AcDb2dPolyline
 66
     1
 10
0.0
 20
0.0
 30
-29.1382877593
  0
VERTEX
  5
45
100
AcDbEntity
  8
L1
100
AcDbVertex
100
AcDb2dVertex
 10
3.9810525379
 20
119.8835042087
 30
-29.1382877593
  0
VERTEX
  5
46
100
AcDbEntity
  8
L1
100
AcDbVertex
100
AcDb2dVertex
 10
4.0530231916
 20
119.5895679776
 30
-29.1382877593
  0
VERTEX
  5
47
100
AcDbEntity
  8
L1
100
AcDbVertex
100
AcDb2dVertex
 10
4.1241254214
 20
119.2906426817
 30
-29.1382877593
  0
VERTEX
  5
48
100
AcDbEntity
  8
L1
100
AcDbVertex
100
AcDb2dVertex
 10
4.1948891459
 20
118.9845324589
 30
-29.1382877593
  0
VERTEX
  5
49
100
AcDbEntity
  8
L1
100
AcDbVertex
100
AcDb2dVertex
 10
4.26583925
 20
118.6689346043
 30
-29.1382877593
  0
SEQEND
  5
4A
100
AcDbEntity
  8
L1
  0
POLYLINE
  5
4B
100
AcDbEntity
  8
L1
100
AcDb2dPolyline
 66
     1
 10
0.0
 20
0.0
 30
-29.1382877593
  0
VERTEX
  5
4C
100
AcDbEntity
  8
L1
100
AcDbVertex
100
AcDb2dVertex
 10
3.5931425018
 20
121.2527061529
 30
-29.1382877593
  0
VERTEX
  5
4D
100
AcDbEntity
  8
L1
100
AcDbVertex
100
AcDb2dVertex
 10
3.6216184233
 20
121.2051370868
 30
-29.1382877593
  0
VERTEX
  5
4E
100
AcDbEntity
  8
L1
100
AcDbVertex
100
AcDb2dVertex
 10
3.6408546994
 20
121.1531398267
 30
-29.1382877593
  0
SEQEND
  5
4F
100
AcDbEntity
  8
L1
  0
LINE
  5
50
100
AcDbEntity
  8
L1
100
AcDbLine
 10
3.6408546994
 20
121.1531398267
 30
-29.1382877593
 11
3.9810525379
 21
119.8835042087
 31
-29.1382877593
  0
LINE
  5
51
100
AcDbEntity
  8
L1
100
AcDbLine
 10
3.3140688101
 20
122.318761006
 30
-29.1382877593
 11
3.3177301658
 21
122.3143975721
 31
-29.1382877593
  0
POLYLINE
  5
52
100
AcDbEntity
  8
L1
100
AcDb2dPolyline
 66
     1
 10
0.0
 20
0.0
 30
-29.1382877593
  0
VERTEX
  5
53
100
AcDbEntity
  8
L1
100
AcDbVertex
100
AcDb2dVertex
 10
3.4066772937
 20
122.3278868655
 30
-29.1382877593
  0
VERTEX
  5
54
100
AcDbEntity
  8
L1
100
AcDbVertex
100
AcDb2dVertex
 10
3.3627124508
 20
122.3177890651
 30
-29.1382877593
  0
VERTEX
  5
55
100
AcDbEntity
  8
L1
100
AcDbVertex
100
AcDb2dVertex
 10
3.3177301658
 20
122.3143975721
 30
-29.1382877593
  0
SEQEND
  5
56
100
AcDbEntity
  8
L1
  0
LINE
  5
57
100
AcDbEntity
  8
L1
100
AcDbLine
 10
3.2293150987
 20
122.3143975721
 30
-29.1382877593
 11
3.2336785326
 21
122.318761006
 31
-29.1382877593
  0
LINE
  5
58
100
AcDbEntity
  8
L1
100
AcDbLine
 10
3.2293150987
 20
122.3143975721
 30
-29.1382877593
 11
3.3177301658
 21
122.3143975721
 31
-29.1382877593
  0
POLYLINE
  5
59
100
AcDbEntity
  8
L1
100
AcDb2dPolyline
 66
     1
 10
0.0
 20
0.0
 30
-29.1382877593
  0
VERTEX
  5
5A
100
AcDbEntity
  8
L1
100
AcDbVertex
100
AcDb2dVertex
 10
2.9293265217
 20
121.0580433341
 30
-29.1382877593
  0
VERTEX
  5
5B
100
AcDbEntity
  8
L1
100
AcDbVertex
100
AcDb2dVertex
 10
3.0171897559
 20
121.2701686768
 30
-29.1382877593
  0
VERTEX
  5
5C
100
AcDbEntity
  8
L1
100
AcDbVertex
100
AcDb2dVertex
 10
3.2293150987
 20
121.358031911
 30
-29.1382877593
  0
SEQEND
  5
5D
100
AcDbEntity
  8
L1
  0
LINE
  5
5E
100
AcDbEntity
  8
L1
100
AcDbLine
 10
3.337695263
 20
121.358031911
 30
-29.1382877593
 11
3.2293150987
 21
121.358031911
 31
-29.1382877593
  0
POLYLINE
  5
5F
100
AcDbEntity
  8
L1
100
AcDb2dPolyline
 66
     1
 10
0.0
 20
0.0
 30
-29.1382877593
  0
VERTEX
  5
60
100
AcDbEntity
  8
L1
100
AcDbVertex
100
AcDb2dVertex
 10
3.4061153183
 20
121.3501255036
 30
-29.1382877593
  0
VERTEX
  5
61
100
AcDbEntity
  8
L1
100
AcDbVertex
100
AcDb2dVertex
 10
3.4407626888
 20
121.3440837645
 30
-29.1382877593
  0
VERTEX
  5
62
100
AcDbEntity
  8
L1
100
AcDbVertex
100
AcDb2dVertex
 10
3.5539096502
 20
121.2906538958
 30
-29.1382877593
  0
VERTEX
  5
63
100
AcDbEntity
  8
L1
100
AcDbVertex
100
AcDb2dVertex
 10
3.587748903
 20
121.2589389229
 30
-29.1382877593
  0
VERTEX
  5
64
100
AcDbEntity
  8
L1
100
AcDbVertex
100
AcDb2dVertex
 10
3.5931425018
 20
121.2527061529
 30
-29.1382877593
  0
SEQEND
  5
65
100
AcDbEntity
  8
L1
  0
POLYLINE
  5
66
100
AcDbEntity
  8
L1
100
AcDb2dPolyline
 66
     1
 10
0.0
 20
0.0
 30
-29.1382877593
  0
VERTEX
  5
67
100
AcDbEntity
  8
L1
100
AcDbVertex
100
AcDb2dVertex
 10
3.337695263
 20
121.358031911
 30
-29.1382877593
  0
VERTEX
  5
68
100
AcDbEntity
  8
L1
100
AcDbVertex
100
AcDb2dVertex
 10
3.3721330496
 20
121.3560487546
 30
-29.1382877593
  0
VERTEX
  5
69
100
AcDbEntity
  8
L1
100
AcDbVertex
100
AcDb2dVertex
 10
3.4061153183
 20
121.3501255036
 30
-29.1382877593
  0
SEQEND
  5
6A
100
AcDbEntity
  8
L1
  0
POLYLINE
  5
6B
100
AcDbEntity
  8
L1
100
AcDb2dPolyline
 66
     1
 10
0.0
 20
0.0
 30
-29.1382877593
  0
VERTEX
  5
6C
100
AcDbEntity
  8
L1
100
AcDbVertex
100
AcDb2dVertex
 10
3.4900327705
 20
115.5092895241
 30
-29.1382877593
  0
VERTEX
  5
6D
100
AcDbEntity
  8
L1
100
AcDbVertex
100
AcDb2dVertex
 10
3.065782085
 20
115.6850159925
 30
-29.1382877593
  0
VERTEX
  5
6E
100
AcDbEntity
  8
L1
100
AcDbVertex
100
AcDb2dVertex
 10
2.8900556167
 20
116.1092666779
 30
-29.1382877593
  0
SEQEND
  5
6F
100
AcDbEntity
  8
L1
  0
POLYLINE
  5
70
100
AcDbEntity
  8
L1
100
AcDb2dPolyline
 66
     1
 10
0.0
 20
0.0
 30
-29.1382877593
  0
VERTEX
  5
71
100
AcDbEntity
  8
L1
100
AcDbVertex
100
AcDb2dVertex
 10
0.8726018811
 20
115.7296782379
 30
-29.1382877593
  0
VERTEX
  5
72
100
AcDbEntity
  8
L1
100
AcDbVertex
100
AcDb2dVertex
 10
0.8162090724
 20
115.5545916286
 30
-29.1382877593
  0
VERTEX
  5
73
100
AcDbEntity
  8
L1
100
AcDbVertex
100
AcDb2dVertex
 10
0.6682308315
 20
115.4453352729
 30
-29.1382877593
  0
SEQEND
  5
74
100
AcDbEntity
  8
L1
  0
POLYLINE
  5
75
100
AcDbEntity
  8
L1
100
AcDb2dPolyline
 66
     1
 10
0.0
 20
0.0
 30
-29.1382877593
  0
VERTEX
  5
76
100
AcDbEntity
  8
L1
100
AcDbVertex
100
AcDb2dVertex
 10
0.6682308315
 20
115.4453352729
 30
-29.1382877593
  0
VERTEX
  5
77
100
AcDbEntity
  8
L1
100
AcDbVertex
100
AcDb2dVertex
 10
0.5751322119
 20
115.429777192
 30
-29.1382877593
  0
SEQEND
  5
78
100
AcDbEntity
  8
L1
  0
POLYLINE
  5
79
100
AcDbEntity
  8
L1
100
AcDb2dPolyline
 66
     1
 10
0.0
 20
0.0
 30
-29.1382877593
  0
VERTEX
  5
7A
100
AcDbEntity
  8
L1
100
AcDbVertex
100
AcDb2dVertex
 10
0.5751322119
 20
115.429777192
 30
-29.1382877593
  0
VERTEX
  5
7B
100
AcDbEntity
  8
L1
100
AcDbVertex
100
AcDb2dVertex
 10
0.2845616674
 20
115.4287655396
 30
-29.1382877593
  0
VERTEX
  5
7C
100
AcDbEntity
  8
L1
100
AcDbVertex
100
AcDb2dVertex
 10
0.16824987
 20
115.4305431762
 30
-29.1382877593
  0
SEQEND
  5
7D
100
AcDbEntity
  8
L1
  0
LINE
  5
7E
100
AcDbEntity
  8
L1
100
AcDbLine
 10
0.0066107777
 20
115.5921822685
 30
-29.1382877593
 11
0.4092136755
 21
115.5956957285
 31
-29.1382877593
  0
LINE
  5
7F
100
AcDbEntity
  8
L1
100
AcDbLine
 10
0.16824987
 20
115.4305431762
 30
-29.1382877593
 11
0.0066107777
 21
115.5921822685
 31
-29.1382877593
  0
ELLIPSE
  5
80
100
AcDbEntity
  8
L1
100
AcDbEllipse
 10
0.4066186585
 20
115.8956728836
 30
-29.1382877593
 11
0.2121320343438322
 21
0.2121320343680905
 31
0.0
210
0.0
220
0.0
230
1.0
 40
0.9999238505
 41
-2.347505920200959
 42
-0.7854362396653705
  0
ELLIPSE
  5
81
100
AcDbEntity
  8
L1
100
AcDbEllipse
 10
1.1787221121
 20
115.5154097551
 30
-29.1382877593
 11
-0.2121320343557818
 21
0.2121320343561951
 31
0.0
210
0.0
220
0.0
230
1.0
 40
0.9999238505
 41
0.7854362396093614
 42
2.356156413982379
  0
LINE
  5
82
100
AcDbEntity
  8
L1
100
AcDbLine
 10
1.1787221121
 20
115.2154211782
 30
-29.1382877593
 11
2.5839353857
 21
115.2154211782
 31
-29.1382877593
  0
ELLIPSE
  5
83
100
AcDbEntity
  8
L1
100
AcDbEllipse
 10
2.5839353857
 20
115.5154097551
 30
-29.1382877593
 11
-0.2121320343489898
 21
-0.2121320343629324
 31
0.0
210
0.0
220
0.0
230
1.0
 40
0.9999238505
 41
0.7854362395755267
 42
2.35615641394854
  0
ELLIPSE
  5
84
100
AcDbEntity
  8
L1
100
AcDbEllipse
 10
0.7067364229
 20
117.5921061205
 30
-29.1382877593
 11
0.0
 21
-1.69649782936798
 31
0.0
210
0.0
220
0.0
230
1.0
 40
0.0087265355
 41
-1.570796326794896
 42
-0.0087263139916212
  0
LINE
  5
85
100
AcDbEntity
  8
L1
100
AcDbLine
 10
7.7900556167
 20
115.5092895241
 30
-29.1382877593
 11
3.4900327705
 21
115.5092895241
 31
-29.1382877593
  0
ARC
  5
86
100
AcDbEntity
  8
L1
100
AcDbCircle
 10
8.2631303993
 20
121.8362147415
 30
-29.1382877593
 40
5.1
100
AcDbArc
 50
303.275002002
 51
326.724997998
  0
LINE
  5
87
100
AcDbEntity
  8
L1
100
AcDbLine
 10
11.7617217044
 20
116.8651364746
 30
-29.1382877593
 11
11.1285824884
 21
117.4982756906
 31
-29.1382877593
  0
LINE
  5
88
100
AcDbEntity
  8
L1
100
AcDbLine
 10
12.6010694502
 20
118.9707626524
 30
-29.1382877593
 11
13.2342086662
 21
118.3376234364
 31
-29.1382877593
  0
ARC
  5
89
100
AcDbEntity
  8
L1
100
AcDbCircle
 10
7.7900556167
 20
122.3092895241
 30
-29.1382877593
 40
6.7389119255
100
AcDbArc
 50
306.1118255431
 51
323.8881744569
  0
POLYLINE
  5
8A
100
AcDbEntity
  8
L1
100
AcDb2dPolyline
 66
     1
 10
0.0
 20
0.0
 30
-29.1382877593
  0
VERTEX
  5
8B
100
AcDbEntity
  8
L1
100
AcDbVertex
100
AcDb2dVertex
 10
8.7413132298
 20
126.8700300421
 30
-29.1382877593
  0
VERTEX
  5
8C
100
AcDbEntity
  8
L1
100
AcDbVertex
100
AcDb2dVertex
 10
8.829176464
 20
127.0821553849
 30
-29.1382877593
  0
VERTEX
  5
8D
100
AcDbEntity
  8
L1
100
AcDbVertex
100
AcDb2dVertex
 10
9.0413018067
 20
127.1700186191
 30
-29.1382877593
  0
SEQEND
  5
8E
100
AcDbEntity
  8
L1
  0
LINE
  5
8F
100
AcDbEntity
  8
L1
100
AcDbLine
 10
7.4849589918
 20
127.1700186191
 30
-29.1382877593
 11
9.0413018067
 21
127.1700186191
 31
-29.1382877593
  0
LINE
  5
90
100
AcDbEntity
  8
L1
100
AcDbLine
 10
10.2158409321
 20
126.1182926029
 30
-29.1382877593
 11
8.9462053141
 21
126.4584904414
 31
-29.1382877593
  0
LINE
  5
91
100
AcDbEntity
  8
L1
100
AcDbLine
 10
14.5839353857
 20
129.2206116056
 30
-29.1382877593
 11
3.6786269197
 21
129.2206116056
 31
-29.1382877593
  0
LINE
  5
92
100
AcDbEntity
  8
L1
100
AcDbLine
 10
3.4918252589
 20
129.4074132664
 30
-29.1382877593
 11
12.5072390203
 21
129.4074132664
 31
-29.1382877593
  0
LINE
  5
93
100
AcDbEntity
  8
L1
100
AcDbLine
 10
3.9813287489
 20
127.2154211782
 30
-29.1382877593
 11
14.5839353857
 21
127.2154211782
 31
-29.1382877593
  0
POLYLINE
  5
94
100
AcDbEntity
  8
L1
100
AcDb2dPolyline
 66
     1
 10
0.0
 20
0.0
 30
-29.1382877593
  0
VERTEX
  5
95
100
AcDbEntity
  8
L1
100
AcDbVertex
100
AcDb2dVertex
 10
3.6786269197
 20
129.2206116056
 30
-29.1382877593
  0
VERTEX
  5
96
100
AcDbEntity
  8
L1
100
AcDbVertex
100
AcDb2dVertex
 10
3.4202810859
 20
129.2086659915
 30
-29.1382877593
  0
VERTEX
  5
97
100
AcDbEntity
  8
L1
100
AcDbVertex
100
AcDb2dVertex
 10
3.1641407783
 20
129.1729352703
 30
-29.1382877593
  0
VERTEX
  5
98
100
AcDbEntity
  8
L1
100
AcDbVertex
100
AcDb2dVertex
 10
2.912391084
 20
129.1137242546
 30
-29.1382877593
  0
VERTEX
  5
99
100
AcDbEntity
  8
L1
100
AcDbVertex
100
AcDb2dVertex
 10
2.6671796344
 20
129.0315380628
 30
-29.1382877593
  0
VERTEX
  5
9A
100
AcDbEntity
  8
L1
100
AcDbVertex
100
AcDb2dVertex
 10
2.4305982844
 20
128.9270778107
 30
-29.1382877593
  0
VERTEX
  5
9B
100
AcDbEntity
  8
L1
100
AcDbVertex
100
AcDb2dVertex
 10
2.2046652673
 20
128.80123463
 30
-29.1382877593
  0
VERTEX
  5
9C
100
AcDbEntity
  8
L1
100
AcDbVertex
100
AcDb2dVertex
 10
1.9913079771
 20
128.6550820662
 30
-29.1382877593
  0
VERTEX
  5
9D
100
AcDbEntity
  8
L1
100
AcDbVertex
100
AcDb2dVertex
 10
1.7923465265
 20
128.4898669207
 30
-29.1382877593
  0
VERTEX
  5
9E
100
AcDbEntity
  8
L1
100
AcDbVertex
100
AcDb2dVertex
 10
1.6094782201
 20
128.3069986143
 30
-29.1382877593
  0
VERTEX
  5
9F
100
AcDbEntity
  8
L1
100
AcDbVertex
100
AcDb2dVertex
 10
1.4442630746
 20
128.1080371637
 30
-29.1382877593
  0
VERTEX
  5
A0
100
AcDbEntity
  8
L1
100
AcDbVertex
100
AcDb2dVertex
 10
1.2981105108
 20
127.8946798735
 30
-29.1382877593
  0
VERTEX
  5
A1
100
AcDbEntity
  8
L1
100
AcDbVertex
100
AcDb2dVertex
 10
1.1722673301
 20
127.6687468563
 30
-29.1382877593
  0
VERTEX
  5
A2
100
AcDbEntity
  8
L1
100
AcDbVertex
100
AcDb2dVertex
 10
1.067807078
 20
127.4321655064
 30
-29.1382877593
  0
VERTEX
  5
A3
100
AcDbEntity
  8
L1
100
AcDbVertex
100
AcDb2dVertex
 10
0.9856208862
 20
127.1869540568
 30
-29.1382877593
  0
VERTEX
  5
A4
100
AcDbEntity
  8
L1
100
AcDbVertex
100
AcDb2dVertex
 10
0.9264098705
 20
126.9352043625
 30
-29.1382877593
  0
VERTEX
  5
A5
100
AcDbEntity
  8
L1
100
AcDbVertex
100
AcDb2dVertex
 10
0.8906791493
 20
126.6790640548
 30
-29.1382877593
  0
VERTEX
  5
A6
100
AcDbEntity
  8
L1
100
AcDbVertex
100
AcDb2dVertex
 10
0.8787335352
 20
126.4207182211
 30
-29.1382877593
  0
SEQEND
  5
A7
100
AcDbEntity
  8
L1
  0
POLYLINE
  5
A8
100
AcDbEntity
  8
L1
100
AcDb2dPolyline
 66
     1
 10
0.0
 20
0.0
 30
-29.1382877593
  0
VERTEX
  5
A9
100
AcDbEntity
  8
L1
100
AcDbVertex
100
AcDb2dVertex
 10
0.6919318744
 20
126.6075198819
 30
-29.1382877593
  0
VERTEX
  5
AA
100
AcDbEntity
  8
L1
100
AcDbVertex
100
AcDb2dVertex
 10
0.7054117177
 20
126.8819661639
 30
-29.1382877593
  0
VERTEX
  5
AB
100
AcDbEntity
  8
L1
100
AcDbVertex
100
AcDb2dVertex
 10
0.7457259204
 20
127.1537673609
 30
-29.1382877593
  0
VERTEX
  5
AC
100
AcDbEntity
  8
L1
100
AcDbVertex
100
AcDb2dVertex
 10
0.812486272
 20
127.4203061324
 30
-29.1382877593
  0
VERTEX
  5
AD
100
AcDbEntity
  8
L1
100
AcDbVertex
100
AcDb2dVertex
 10
0.9050498963
 20
127.6790158129
 30
-29.1382877593
  0
VERTEX
  5
AE
100
AcDbEntity
  8
L1
100
AcDbVertex
100
AcDb2dVertex
 10
1.0225254414
 20
127.9274051282
 30
-29.1382877593
  0
VERTEX
  5
AF
100
AcDbEntity
  8
L1
100
AcDbVertex
100
AcDb2dVertex
 10
1.163781663
 20
128.1630821851
 30
-29.1382877593
  0
VERTEX
  5
B0
100
AcDbEntity
  8
L1
100
AcDbVertex
100
AcDb2dVertex
 10
1.3274583184
 20
128.3837775047
 30
-29.1382877593
  0
VERTEX
  5
B1
100
AcDbEntity
  8
L1
100
AcDbVertex
100
AcDb2dVertex
 10
1.5119792645
 20
128.5873658763
 30
-29.1382877593
  0
VERTEX
  5
B2
100
AcDbEntity
  8
L1
100
AcDbVertex
100
AcDb2dVertex
 10
1.7155676361
 20
128.7718868224
 30
-29.1382877593
  0
VERTEX
  5
B3
100
AcDbEntity
  8
L1
100
AcDbVertex
100
AcDb2dVertex
 10
1.9362629557
 20
128.9355634778
 30
-29.1382877593
  0
VERTEX
  5
B4
100
AcDbEntity
  8
L1
100
AcDbVertex
100
AcDb2dVertex
 10
2.1719400126
 20
129.0768196994
 30
-29.1382877593
  0
VERTEX
  5
B5
100
AcDbEntity
  8
L1
100
AcDbVertex
100
AcDb2dVertex
 10
2.4203293279
 20
129.1942952445
 30
-29.1382877593
  0
VERTEX
  5
B6
100
AcDbEntity
  8
L1
100
AcDbVertex
100
AcDb2dVertex
 10
2.6790390084
 20
129.2868588688
 30
-29.1382877593
  0
VERTEX
  5
B7
100
AcDbEntity
  8
L1
100
AcDbVertex
100
AcDb2dVertex
 10
2.9455777799
 20
129.3536192204
 30
-29.1382877593
  0
VERTEX
  5
B8
100
AcDbEntity
  8
L1
100
AcDbVertex
100
AcDb2dVertex
 10
3.2173789769
 20
129.3939334231
 30
-29.1382877593
  0
VERTEX
  5
B9
100
AcDbEntity
  8
L1
100
AcDbVertex
100
AcDb2dVertex
 10
3.4918252589
 20
129.4074132664
 30
-29.1382877593
  0
SEQEND
  5
BA
100
AcDbEntity
  8
L1
  0
POLYLINE
  5
BB
100
AcDbEntity
  8
L1
100
AcDb2dPolyline
 66
     1
 10
0.0
 20
0.0
 30
-29.1382877593
  0
VERTEX
  5
BC
100
AcDbEntity
  8
L1
100
AcDbVertex
100
AcDb2dVertex
 10
3.4631303993
 20
130.1310202981
 30
-29.1382877593
  0
VERTEX
  5
BD
100
AcDbEntity
  8
L1
100
AcDbVertex
100
AcDb2dVertex
 10
2.7914961255
 20
130.0649955549
 30
-29.1382877593
  0
VERTEX
  5
BE
100
AcDbEntity
  8
L1
100
AcDbVertex
100
AcDb2dVertex
 10
2.1264931002
 20
129.8636688159
 30
-29.1382877593
  0
VERTEX
  5
BF
100
AcDbEntity
  8
L1
100
AcDbVertex
100
AcDb2dVertex
 10
1.5143680384
 20
129.5349405655
 30
-29.1382877593
  0
VERTEX
  5
C0
100
AcDbEntity
  8
L1
100
AcDbVertex
100
AcDb2dVertex
 10
0.9933744237
 20
129.1059707171
 30
-29.1382877593
  0
VERTEX
  5
C1
100
AcDbEntity
  8
L1
100
AcDbVertex
100
AcDb2dVertex
 10
0.5644045753
 20
128.5849771023
 30
-29.1382877593
  0
VERTEX
  5
C2
100
AcDbEntity
  8
L1
100
AcDbVertex
100
AcDb2dVertex
 10
0.2356763249
 20
127.9728520406
 30
-29.1382877593
  0
VERTEX
  5
C3
100
AcDbEntity
  8
L1
100
AcDbVertex
100
AcDb2dVertex
 10
0.0343495859
 20
127.3078490153
 30
-29.1382877593
  0
VERTEX
  5
C4
100
AcDbEntity
  8
L1
100
AcDbVertex
100
AcDb2dVertex
 10
-0.0316751574
 20
126.6362147415
 30
-29.1382877593
  0
SEQEND
  5
C5
100
AcDbEntity
  8
L1
  0
LINE
  5
C6
100
AcDbEntity
  8
L1
100
AcDbLine
 10
3.7184877951
 20
123.0591181868
 30
-29.1382877593
 11
3.5980268408
 21
122.4575665134
 31
-29.1382877593
  0
ARC
  5
C7
100
AcDbEntity
  8
L1
100
AcDbCircle
 10
3.9813287489
 20
126.1180163919
 30
-29.1382877593
 40
1.0974047863
100
AcDbArc
 50
90.0
 51
180.0
  0
POLYLINE
  5
C8
100
AcDbEntity
  8
L1
100
AcDb2dPolyline
 66
     1
 10
0.0
 20
0.0
 30
-29.1382877593
  0
VERTEX
  5
C9
100
AcDbEntity
  8
L1
100
AcDbVertex
100
AcDb2dVertex
 10
3.8749825821
 20
124.0722842986
 30
-29.1382877593
  0
VERTEX
  5
CA
100
AcDbEntity
  8
L1
100
AcDbVertex
100
AcDb2dVertex
 10
3.8372450238
 20
123.8137932377
 30
-29.1382877593
  0
VERTEX
  5
CB
100
AcDbEntity
  8
L1
100
AcDbVertex
100
AcDb2dVertex
 10
3.798720021
 20
123.5596407746
 30
-29.1382877593
  0
VERTEX
  5
CC
100
AcDbEntity
  8
L1
100
AcDbVertex
100
AcDb2dVertex
 10
3.7592054978
 20
123.3085126573
 30
-29.1382877593
  0
VERTEX
  5
CD
100
AcDbEntity
  8
L1
100
AcDbVertex
100
AcDb2dVertex
 10
3.7184877951
 20
123.0591181868
 30
-29.1382877593
  0
SEQEND
  5
CE
100
AcDbEntity
  8
L1
  0
LINE
  5
CF
100
AcDbEntity
  8
L1
100
AcDbLine
 10
2.9336899556
 20
122.6187495829
 30
-29.1382877593
 11
2.9293265217
 21
122.614386149
 31
-29.1382877593
  0
POLYLINE
  5
D0
100
AcDbEntity
  8
L1
100
AcDb2dPolyline
 66
     1
 10
0.0
 20
0.0
 30
-29.1382877593
  0
VERTEX
  5
D1
100
AcDbEntity
  8
L1
100
AcDbVertex
100
AcDb2dVertex
 10
7.4849589918
 20
127.1700186191
 30
-29.1382877593
  0
VERTEX
  5
D2
100
AcDbEntity
  8
L1
100
AcDbVertex
100
AcDb2dVertex
 10
7.6970843346
 20
127.0821553849
 30
-29.1382877593
  0
VERTEX
  5
D3
100
AcDbEntity
  8
L1
100
AcDbVertex
100
AcDb2dVertex
 10
7.7849475687
 20
126.8700300421
 30
-29.1382877593
  0
SEQEND
  5
D4
100
AcDbEntity
  8
L1
  0
LINE
  5
D5
100
AcDbEntity
  8
L1
100
AcDbLine
 10
7.7714582753
 20
126.6926678471
 30
-29.1382877593
 11
7.7849475687
 21
126.8700300421
 31
-29.1382877593
  0
POLYLINE
  5
D6
100
AcDbEntity
  8
L1
100
AcDb2dPolyline
 66
     1
 10
0.0
 20
0.0
 30
-29.1382877593
  0
VERTEX
  5
D7
100
AcDbEntity
  8
L1
100
AcDbVertex
100
AcDb2dVertex
 10
7.6417786274
 20
126.5013183
 30
-29.1382877593
  0
VERTEX
  5
D8
100
AcDbEntity
  8
L1
100
AcDbVertex
100
AcDb2dVertex
 10
7.5992931782
 20
126.4830550956
 30
-29.1382877593
  0
VERTEX
  5
D9
100
AcDbEntity
  8
L1
100
AcDbVertex
100
AcDb2dVertex
 10
7.5545051971
 20
126.4715384755
 30
-29.1382877593
  0
SEQEND
  5
DA
100
AcDbEntity
  8
L1
  0
POLYLINE
  5
DB
100
AcDbEntity
  8
L1
100
AcDb2dPolyline
 66
     1
 10
0.0
 20
0.0
 30
-29.1382877593
  0
VERTEX
  5
DC
100
AcDbEntity
  8
L1
100
AcDbVertex
100
AcDb2dVertex
 10
7.7714582753
 20
126.6926678471
 30
-29.1382877593
  0
VERTEX
  5
DD
100
AcDbEntity
  8
L1
100
AcDbVertex
100
AcDb2dVertex
 10
7.7688430982
 20
126.6801265613
 30
-29.1382877593
  0
VERTEX
  5
DE
100
AcDbEntity
  8
L1
100
AcDbVertex
100
AcDb2dVertex
 10
7.7155135437
 20
126.5661589774
 30
-29.1382877593
  0
VERTEX
  5
DF
100
AcDbEntity
  8
L1
100
AcDbVertex
100
AcDb2dVertex
 10
7.6838283082
 20
126.5320845336
 30
-29.1382877593
  0
VERTEX
  5
E0
100
AcDbEntity
  8
L1
100
AcDbVertex
100
AcDb2dVertex
 10
7.6417786274
 20
126.5013183
 30
-29.1382877593
  0
SEQEND
  5
E1
100
AcDbEntity
  8
L1
  0
POLYLINE
  5
E2
100
AcDbEntity
  8
L1
100
AcDb2dPolyline
 66
     1
 10
0.0
 20
0.0
 30
-29.1382877593
  0
VERTEX
  5
E3
100
AcDbEntity
  8
L1
100
AcDbVertex
100
AcDb2dVertex
 10
7.040226954
 20
126.3808573457
 30
-29.1382877593
  0
VERTEX
  5
E4
100
AcDbEntity
  8
L1
100
AcDbVertex
100
AcDb2dVertex
 10
6.7908324835
 20
126.340139643
 30
-29.1382877593
  0
VERTEX
  5
E5
100
AcDbEntity
  8
L1
100
AcDbVertex
100
AcDb2dVertex
 10
6.5397043662
 20
126.3006251198
 30
-29.1382877593
  0
VERTEX
  5
E6
100
AcDbEntity
  8
L1
100
AcDbVertex
100
AcDb2dVertex
 10
6.2855519031
 20
126.262100117
 30
-29.1382877593
  0
VERTEX
  5
E7
100
AcDbEntity
  8
L1
100
AcDbVertex
100
AcDb2dVertex
 10
6.0270608422
 20
126.2243625587
 30
-29.1382877593
  0
SEQEND
  5
E8
100
AcDbEntity
  8
L1
  0
LINE
  5
E9
100
AcDbEntity
  8
L1
100
AcDbLine
 10
7.5545051971
 20
126.4715384755
 30
-29.1382877593
 11
7.040226954
 21
126.3808573457
 31
-29.1382877593
  0
POLYLINE
  5
EA
100
AcDbEntity
  8
L1
100
AcDb2dPolyline
 66
     1
 10
0.0
 20
0.0
 30
-29.1382877593
  0
VERTEX
  5
EB
100
AcDbEntity
  8
L1
100
AcDbVertex
100
AcDb2dVertex
 10
8.7492196372
 20
126.6932298225
 30
-29.1382877593
  0
VERTEX
  5
EC
100
AcDbEntity
  8
L1
100
AcDbVertex
100
AcDb2dVertex
 10
8.7432963862
 20
126.7272120912
 30
-29.1382877593
  0
VERTEX
  5
ED
100
AcDbEntity
  8
L1
100
AcDbVertex
100
AcDb2dVertex
 10
8.7413132298
 20
126.7616498778
 30
-29.1382877593
  0
SEQEND
  5
EE
100
AcDbEntity
  8
L1
  0
POLYLINE
  5
EF
100
AcDbEntity
  8
L1
100
AcDb2dPolyline
 66
     1
 10
0.0
 20
0.0
 30
-29.1382877593
  0
VERTEX
  5
F0
100
AcDbEntity
  8
L1
100
AcDbVertex
100
AcDb2dVertex
 10
8.8466389879
 20
126.506202639
 30
-29.1382877593
  0
VERTEX
  5
F1
100
AcDbEntity
  8
L1
100
AcDbVertex
100
AcDb2dVertex
 10
8.8404062179
 20
126.5115962378
 30
-29.1382877593
  0
VERTEX
  5
F2
100
AcDbEntity
  8
L1
100
AcDbVertex
100
AcDb2dVertex
 10
8.808691245
 20
126.5454354906
 30
-29.1382877593
  0
VERTEX
  5
F3
100
AcDbEntity
  8
L1
100
AcDbVertex
100
AcDb2dVertex
 10
8.7552613763
 20
126.658582452
 30
-29.1382877593
  0
VERTEX
  5
F4
100
AcDbEntity
  8
L1
100
AcDbVertex
100
AcDb2dVertex
 10
8.7492196372
 20
126.6932298225
 30
-29.1382877593
  0
SEQEND
  5
F5
100
AcDbEntity
  8
L1
  0
POLYLINE
  5
F6
100
AcDbEntity
  8
L1
100
AcDb2dPolyline
 66
     1
 10
0.0
 20
0.0
 30
-29.1382877593
  0
VERTEX
  5
F7
100
AcDbEntity
  8
L1
100
AcDbVertex
100
AcDb2dVertex
 10
8.9462053141
 20
126.4584904414
 30
-29.1382877593
  0
VERTEX
  5
F8
100
AcDbEntity
  8
L1
100
AcDbVertex
100
AcDb2dVertex
 10
8.894208054
 20
126.4777267175
 30
-29.1382877593
  0
VERTEX
  5
F9
100
AcDbEntity
  8
L1
100
AcDbVertex
100
AcDb2dVertex
 10
8.8466389879
 20
126.506202639
 30
-29.1382877593
  0
SEQEND
  5
FA
100
AcDbEntity
  8
L1
  0
LINE
  5
FB
100
AcDbEntity
  8
L1
100
AcDbLine
 10
8.7413132298
 20
126.8700300421
 30
-29.1382877593
 11
8.7413132298
 21
126.7616498778
 31
-29.1382877593
  0
ARC
  5
FC
100
AcDbEntity
  8
L1
100
AcDbCircle
 10
8.2631303993
 20
121.8362147415
 30
-29.1382877593
 40
4.7063010141
100
AcDbArc
 50
82.8778816875
 51
97.586654266
  0
ARC
  5
FD
100
AcDbEntity
  8
L1
100
AcDbCircle
 10
8.2631303993
 20
121.8362147415
 30
-29.1382877593
 40
4.7063010141
100
AcDbArc
 50
105.0607978502
 51
164.9392021497
  0
ARC
  5
FE
100
AcDbEntity
  8
L1
100
AcDbCircle
 10
8.2631303993
 20
121.8362147415
 30
-29.1382877593
 40
4.9250226729
100
AcDbArc
 50
117.0020375494
 51
152.9979624505
  0
LINE
  5
FF
100
AcDbEntity
  8
L1
100
AcDbLine
 10
14.8839239626
 20
127.5154097551
 30
-29.1382877593
 11
14.8839239626
 21
128.9206230287
 31
-29.1382877593
  0
POLYLINE
  5
100
100
AcDbEntity
  8
L1
100
AcDb2dPolyline
 66
     1
 10
0.0
 20
0.0
 30
-29.1382877593
  0
VERTEX
  5
101
100
AcDbEntity
  8
L1
100
AcDbVertex
100
AcDb2dVertex
 10
14.6688019645
 20
129.9310952708
 30
-29.1382877593
  0
VERTEX
  5
102
100
AcDbEntity
  8
L1
100
AcDbVertex
100
AcDb2dVertex
 10
14.6705796012
 20
129.8147834734
 30
-29.1382877593
  0
VERTEX
  5
103
100
AcDbEntity
  8
L1
100
AcDbVertex
100
AcDb2dVertex
 10
14.6695679487
 20
129.5242129289
 30
-29.1382877593
  0
SEQEND
  5
104
100
AcDbEntity
  8
L1
  0
POLYLINE
  5
105
100
AcDbEntity
  8
L1
100
AcDb2dPolyline
 66
     1
 10
0.0
 20
0.0
 30
-29.1382877593
  0
VERTEX
  5
106
100
AcDbEntity
  8
L1
100
AcDbVertex
100
AcDb2dVertex
 10
14.6695679487
 20
129.5242129289
 30
-29.1382877593
  0
VERTEX
  5
107
100
AcDbEntity
  8
L1
100
AcDbVertex
100
AcDb2dVertex
 10
14.6540098679
 20
129.4311143093
 30
-29.1382877593
  0
SEQEND
  5
108
100
AcDbEntity
  8
L1
  0
POLYLINE
  5
109
100
AcDbEntity
  8
L1
100
AcDb2dPolyline
 66
     1
 10
0.0
 20
0.0
 30
-29.1382877593
  0
VERTEX
  5
10A
100
AcDbEntity
  8
L1
100
AcDbVertex
100
AcDb2dVertex
 10
14.6540098679
 20
129.4311143093
 30
-29.1382877593
  0
VERTEX
  5
10B
100
AcDbEntity
  8
L1
100
AcDbVertex
100
AcDb2dVertex
 10
14.5447535122
 20
129.2831360684
 30
-29.1382877593
  0
VERTEX
  5
10C
100
AcDbEntity
  8
L1
100
AcDbVertex
100
AcDb2dVertex
 10
14.3696669029
 20
129.2267432597
 30
-29.1382877593
  0
SEQEND
  5
10D
100
AcDbEntity
  8
L1
  0
ELLIPSE
  5
10E
100
AcDbEntity
  8
L1
100
AcDbEllipse
 10
14.5839353857
 20
128.9206230287
 30
-29.1382877593
 11
-0.2121320343489898
 21
0.2121320343629323
 31
0.0
210
0.0
220
0.0
230
1.0
 40
0.9999238505
 41
-2.35615641394854
 42
-0.7854362395755268
  0
ELLIPSE
  5
10F
100
AcDbEntity
  8
L1
100
AcDbEllipse
 10
12.5072390203
 20
129.3926087179
 30
-29.1382877593
 11
-1.69649782936798
 21
0.0
 31
0.0
210
0.0
220
0.0
230
1.0
 40
0.0087265355
 41
-3.132866339598172
 42
-1.570796326794896
  0
ELLIPSE
  5
110
100
AcDbEntity
  8
L1
100
AcDbEllipse
 10
14.2036722572
 20
129.6927264823
 30
-29.1382877593
 11
-0.2121320343557549
 21
-0.2121320343561681
 31
0.0
210
0.0
220
0.0
230
1.0
 40
0.9999238505
 41
0.7854362396074134
 42
2.347505920142613
  0
LINE
  5
111
100
AcDbEntity
  8
L1
100
AcDbLine
 10
14.5071628723
 20
130.0927343631
 30
-29.1382877593
 11
14.6688019645
 21
129.9310952708
 31
-29.1382877593
  0
LINE
  5
112
100
AcDbEntity
  8
L1
100
AcDbLine
 10
14.5071628723
 20
130.0927343631
 30
-29.1382877593
 11
14.5036494123
 21
129.6901314653
 31
-29.1382877593
  0
POLYLINE
  5
113
100
AcDbEntity
  8
L1
100
AcDb2dPolyline
 66
     1
 10
0.0
 20
0.0
 30
-29.1382877593
  0
VERTEX
  5
114
100
AcDbEntity
  8
L1
100
AcDbVertex
100
AcDb2dVertex
 10
11.4304105365
 20
125.8335058908
 30
-29.1382877593
  0
VERTEX
  5
115
100
AcDbEntity
  8
L1
100
AcDbVertex
100
AcDb2dVertex
 10
11.1148126818
 20
125.9044559949
 30
-29.1382877593
  0
VERTEX
  5
116
100
AcDbEntity
  8
L1
100
AcDbVertex
100
AcDb2dVertex
 10
10.8087024591
 20
125.9752197194
 30
-29.1382877593
  0
VERTEX
  5
117
100
AcDbEntity
  8
L1
100
AcDbVertex
100
AcDb2dVertex
 10
10.5097771632
 20
126.0463219492
 30
-29.1382877593
  0
VERTEX
  5
118
100
AcDbEntity
  8
L1
100
AcDbVertex
100
AcDb2dVertex
 10
10.2158409321
 20
126.1182926029
 30
-29.1382877593
  0
SEQEND
  5
119
100
AcDbEntity
  8
L1
  0
POLYLINE
  5
11A
100
AcDbEntity
  8
L1
100
AcDb2dPolyline
 66
     1
 10
0.0
 20
0.0
 30
-29.1382877593
  0
VERTEX
  5
11B
100
AcDbEntity
  8
L1
100
AcDbVertex
100
AcDb2dVertex
 10
13.9900784628
 20
127.2092895241
 30
-29.1382877593
  0
VERTEX
  5
11C
100
AcDbEntity
  8
L1
100
AcDbVertex
100
AcDb2dVertex
 10
14.4143291483
 20
127.0335630558
 30
-29.1382877593
  0
VERTEX
  5
11D
100
AcDbEntity
  8
L1
100
AcDbVertex
100
AcDb2dVertex
 10
14.5900556167
 20
126.6093123703
 30
-29.1382877593
  0
SEQEND
  5
11E
100
AcDbEntity
  8
L1
  0
ELLIPSE
  5
11F
100
AcDbEntity
  8
L1
100
AcDbEllipse
 10
14.5839353857
 20
127.5154097551
 30
-29.1382877593
 11
-0.2121320343489898
 21
-0.2121320343629324
 31
0.0
210
0.0
220
0.0
230
1.0
 40
0.9999238505
 41
0.7854362395755267
 42
2.35615641394854
  0
ARC
  5
120
100
AcDbEntity
  8
L1
100
AcDbCircle
 10
8.2631303993
 20
8.3362147415
 30
-29.1382877593
 40
5.1
100
AcDbArc
 50
33.275002002
 51
56.724997998
  0
CIRCLE
  5
121
100
AcDbEntity
  8
L1
100
AcDbCircle
 10
8.2631303993
 20
8.3362147415
 30
-29.1382877593
 40
3.9
  0
ARC
  5
122
100
AcDbEntity
  8
L1
100
AcDbCircle
 10
7.7900556167
 20
7.863139959
 30
-29.1382877593
 40
6.8
100
AcDbArc
 50
0.0
 51
90.0
  0
ARC
  5
123
100
AcDbEntity
  8
L1
100
AcDbCircle
 10
8.2631303993
 20
8.3362147415
 30
-29.1382877593
 40
4.7063010141
100
AcDbArc
 50
294.5139055064
 51
155.4860944936
  0
LINE
  5
124
100
AcDbEntity
  8
L1
100
AcDbLine
 10
12.6010694502
 20
11.2016668306
 30
-29.1382877593
 11
13.2342086662
 21
11.8348060467
 31
-29.1382877593
  0
LINE
  5
125
100
AcDbEntity
  8
L1
100
AcDbLine
 10
0.8787335352
 20
3.751711262
 30
-29.1382877593
 11
0.8787335352
 21
14.657019728
 31
-29.1382877593
  0
LINE
  5
126
100
AcDbEntity
  8
L1
100
AcDbLine
 10
2.8839239626
 20
14.657019728
 30
-29.1382877593
 11
2.8839239626
 21
4.0544130912
 31
-29.1382877593
  0
LINE
  5
127
100
AcDbEntity
  8
L1
100
AcDbLine
 10
0.6919318744
 20
12.5803233626
 30
-29.1382877593
 11
0.6919318744
 21
3.5649096012
 31
-29.1382877593
  0
ARC
  5
128
100
AcDbEntity
  8
L1
100
AcDbCircle
 10
8.2631303993
 20
8.3362147415
 30
-29.1382877593
 40
5.1
100
AcDbArc
 50
56.724997998
 51
141.6082214207
  0
POLYLINE
  5
129
100
AcDbEntity
  8
L1
100
AcDb2dPolyline
 66
     1
 10
0.0
 20
0.0
 30
-29.1382877593
  0
VERTEX
  5
12A
100
AcDbEntity
  8
L1
100
AcDbVertex
100
AcDb2dVertex
 10
3.6786269197
 20
0.9518178774
 30
-29.1382877593
  0
VERTEX
  5
12B
100
AcDbEntity
  8
L1
100
AcDbVertex
100
AcDb2dVertex
 10
3.4202810859
 20
0.9637634916
 30
-29.1382877593
  0
VERTEX
  5
12C
100
AcDbEntity
  8
L1
100
AcDbVertex
100
AcDb2dVertex
 10
3.1641407783
 20
0.9994942128
 30
-29.1382877593
  0
VERTEX
  5
12D
100
AcDbEntity
  8
L1
100
AcDbVertex
100
AcDb2dVertex
 10
2.912391084
 20
1.0587052285
 30
-29.1382877593
  0
VERTEX
  5
12E
100
AcDbEntity
  8
L1
100
AcDbVertex
100
AcDb2dVertex
 10
2.6671796344
 20
1.1408914203
 30
-29.1382877593
  0
VERTEX
  5
12F
100
AcDbEntity
  8
L1
100
AcDbVertex
100
AcDb2dVertex
 10
2.4305982844
 20
1.2453516724
 30
-29.1382877593
  0
VERTEX
  5
130
100
AcDbEntity
  8
L1
100
AcDbVertex
100
AcDb2dVertex
 10
2.2046652673
 20
1.3711948531
 30
-29.1382877593
  0
VERTEX
  5
131
100
AcDbEntity
  8
L1
100
AcDbVertex
100
AcDb2dVertex
 10
1.9913079771
 20
1.5173474169
 30
-29.1382877593
  0
VERTEX
  5
132
100
AcDbEntity
  8
L1
100
AcDbVertex
100
AcDb2dVertex
 10
1.7923465265
 20
1.6825625624
 30
-29.1382877593
  0
VERTEX
  5
133
100
AcDbEntity
  8
L1
100
AcDbVertex
100
AcDb2dVertex
 10
1.6094782201
 20
1.8654308688
 30
-29.1382877593
  0
VERTEX
  5
134
100
AcDbEntity
  8
L1
100
AcDbVertex
100
AcDb2dVertex
 10
1.4442630746
 20
2.0643923194
 30
-29.1382877593
  0
VERTEX
  5
135
100
AcDbEntity
  8
L1
100
AcDbVertex
100
AcDb2dVertex
 10
1.2981105108
 20
2.2777496096
 30
-29.1382877593
  0
VERTEX
  5
136
100
AcDbEntity
  8
L1
100
AcDbVertex
100
AcDb2dVertex
 10
1.1722673301
 20
2.5036826267
 30
-29.1382877593
  0
VERTEX
  5
137
100
AcDbEntity
  8
L1
100
AcDbVertex
100
AcDb2dVertex
 10
1.067807078
 20
2.7402639766
 30
-29.1382877593
  0
VERTEX
  5
138
100
AcDbEntity
  8
L1
100
AcDbVertex
100
AcDb2dVertex
 10
0.9856208862
 20
2.9854754262
 30
-29.1382877593
  0
VERTEX
  5
139
100
AcDbEntity
  8
L1
100
AcDbVertex
100
AcDb2dVertex
 10
0.9264098705
 20
3.2372251206
 30
-29.1382877593
  0
VERTEX
  5
13A
100
AcDbEntity
  8
L1
100
AcDbVertex
100
AcDb2dVertex
 10
0.8906791493
 20
3.4933654282
 30
-29.1382877593
  0
VERTEX
  5
13B
100
AcDbEntity
  8
L1
100
AcDbVertex
100
AcDb2dVertex
 10
0.8787335352
 20
3.751711262
 30
-29.1382877593
  0
SEQEND
  5
13C
100
AcDbEntity
  8
L1
  0
POLYLINE
  5
13D
100
AcDbEntity
  8
L1
100
AcDb2dPolyline
 66
     1
 10
0.0
 20
0.0
 30
-29.1382877593
  0
VERTEX
  5
13E
100
AcDbEntity
  8
L1
100
AcDbVertex
100
AcDb2dVertex
 10
0.6919318744
 20
3.5649096012
 30
-29.1382877593
  0
VERTEX
  5
13F
100
AcDbEntity
  8
L1
100
AcDbVertex
100
AcDb2dVertex
 10
0.7054117177
 20
3.2904633192
 30
-29.1382877593
  0
VERTEX
  5
140
100
AcDbEntity
  8
L1
100
AcDbVertex
100
AcDb2dVertex
 10
0.7457259204
 20
3.0186621222
 30
-29.1382877593
  0
VERTEX
  5
141
100
AcDbEntity
  8
L1
100
AcDbVertex
100
AcDb2dVertex
 10
0.812486272
 20
2.7521233507
 30
-29.1382877593
  0
VERTEX
  5
142
100
AcDbEntity
  8
L1
100
AcDbVertex
100
AcDb2dVertex
 10
0.9050498963
 20
2.4934136702
 30
-29.1382877593
  0
VERTEX
  5
143
100
AcDbEntity
  8
L1
100
AcDbVertex
100
AcDb2dVertex
 10
1.0225254414
 20
2.2450243549
 30
-29.1382877593
  0
VERTEX
  5
144
100
AcDbEntity
  8
L1
100
AcDbVertex
100
AcDb2dVertex
 10
1.163781663
 20
2.009347298
 30
-29.1382877593
  0
VERTEX
  5
145
100
AcDbEntity
  8
L1
100
AcDbVertex
100
AcDb2dVertex
 10
1.3274583184
 20
1.7886519784
 30
-29.1382877593
  0
VERTEX
  5
146
100
AcDbEntity
  8
L1
100
AcDbVertex
100
AcDb2dVertex
 10
1.5119792645
 20
1.5850636068
 30
-29.1382877593
  0
VERTEX
  5
147
100
AcDbEntity
  8
L1
100
AcDbVertex
100
AcDb2dVertex
 10
1.7155676361
 20
1.4005426606
 30
-29.1382877593
  0
VERTEX
  5
148
100
AcDbEntity
  8
L1
100
AcDbVertex
100
AcDb2dVertex
 10
1.9362629557
 20
1.2368660053
 30
-29.1382877593
  0
VERTEX
  5
149
100
AcDbEntity
  8
L1
100
AcDbVertex
100
AcDb2dVertex
 10
2.1719400126
 20
1.0956097836
 30
-29.1382877593
  0
VERTEX
  5
14A
100
AcDbEntity
  8
L1
100
AcDbVertex
100
AcDb2dVertex
 10
2.4203293279
 20
0.9781342386
 30
-29.1382877593
  0
VERTEX
  5
14B
100
AcDbEntity
  8
L1
100
AcDbVertex
100
AcDb2dVertex
 10
2.6790390084
 20
0.8855706143
 30
-29.1382877593
  0
VERTEX
  5
14C
100
AcDbEntity
  8
L1
100
AcDbVertex
100
AcDb2dVertex
 10
2.9455777799
 20
0.8188102626
 30
-29.1382877593
  0
VERTEX
  5
14D
100
AcDbEntity
  8
L1
100
AcDbVertex
100
AcDb2dVertex
 10
3.2173789769
 20
0.77849606
 30
-29.1382877593
  0
VERTEX
  5
14E
100
AcDbEntity
  8
L1
100
AcDbVertex
100
AcDb2dVertex
 10
3.4918252589
 20
0.7650162166
 30
-29.1382877593
  0
SEQEND
  5
14F
100
AcDbEntity
  8
L1
  0
POLYLINE
  5
150
100
AcDbEntity
  8
L1
100
AcDb2dPolyline
 66
     1
 10
0.0
 20
0.0
 30
-29.1382877593
  0
VERTEX
  5
151
100
AcDbEntity
  8
L1
100
AcDbVertex
100
AcDb2dVertex
 10
3.4631303993
 20
0.0414091849
 30
-29.1382877593
  0
VERTEX
  5
152
100
AcDbEntity
  8
L1
100
AcDbVertex
100
AcDb2dVertex
 10
2.7914961255
 20
0.1074339282
 30
-29.1382877593
  0
VERTEX
  5
153
100
AcDbEntity
  8
L1
100
AcDbVertex
100
AcDb2dVertex
 10
2.1264931002
 20
0.3087606672
 30
-29.1382877593
  0
VERTEX
  5
154
100
AcDbEntity
  8
L1
100
AcDbVertex
100
AcDb2dVertex
 10
1.5143680384
 20
0.6374889176
 30
-29.1382877593
  0
VERTEX
  5
155
100
AcDbEntity
  8
L1
100
AcDbVertex
100
AcDb2dVertex
 10
0.9933744237
 20
1.066458766
 30
-29.1382877593
  0
VERTEX
  5
156
100
AcDbEntity
  8
L1
100
AcDbVertex
100
AcDb2dVertex
 10
0.5644045753
 20
1.5874523807
 30
-29.1382877593
  0
VERTEX
  5
157
100
AcDbEntity
  8
L1
100
AcDbVertex
100
AcDb2dVertex
 10
0.2356763249
 20
2.1995774425
 30
-29.1382877593
  0
VERTEX
  5
158
100
AcDbEntity
  8
L1
100
AcDbVertex
100
AcDb2dVertex
 10
0.0343495859
 20
2.8645804678
 30
-29.1382877593
  0
VERTEX
  5
159
100
AcDbEntity
  8
L1
100
AcDbVertex
100
AcDb2dVertex
 10
-0.0316751574
 20
3.5362147415
 30
-29.1382877593
  0
SEQEND
  5
15A
100
AcDbEntity
  8
L1
  0
LINE
  5
15B
100
AcDbEntity
  8
L1
100
AcDbLine
 10
14.8839239626
 20
2.657019728
 30
-29.1382877593
 11
14.8839239626
 21
1.2518064544
 31
-29.1382877593
  0
LINE
  5
15C
100
AcDbEntity
  8
L1
100
AcDbLine
 10
14.5839353857
 20
0.9518178774
 30
-29.1382877593
 11
3.6786269197
 21
0.9518178774
 31
-29.1382877593
  0
LINE
  5
15D
100
AcDbEntity
  8
L1
100
AcDbLine
 10
3.4918252589
 20
0.7650162166
 30
-29.1382877593
 11
12.5072390203
 21
0.7650162166
 31
-29.1382877593
  0
POLYLINE
  5
15E
100
AcDbEntity
  8
L1
100
AcDb2dPolyline
 66
     1
 10
0.0
 20
0.0
 30
-29.1382877593
  0
VERTEX
  5
15F
100
AcDbEntity
  8
L1
100
AcDbVertex
100
AcDb2dVertex
 10
14.6688019645
 20
0.2413342123
 30
-29.1382877593
  0
VERTEX
  5
160
100
AcDbEntity
  8
L1
100
AcDbVertex
100
AcDb2dVertex
 10
14.6705796012
 20
0.3576460096
 30
-29.1382877593
  0
VERTEX
  5
161
100
AcDbEntity
  8
L1
100
AcDbVertex
100
AcDb2dVertex
 10
14.6695679487
 20
0.6482165542
 30
-29.1382877593
  0
SEQEND
  5
162
100
AcDbEntity
  8
L1
  0
POLYLINE
  5
163
100
AcDbEntity
  8
L1
100
AcDb2dPolyline
 66
     1
 10
0.0
 20
0.0
 30
-29.1382877593
  0
VERTEX
  5
164
100
AcDbEntity
  8
L1
100
AcDbVertex
100
AcDb2dVertex
 10
14.6695679487
 20
0.6482165542
 30
-29.1382877593
  0
VERTEX
  5
165
100
AcDbEntity
  8
L1
100
AcDbVertex
100
AcDb2dVertex
 10
14.6540098679
 20
0.7413151738
 30
-29.1382877593
  0
SEQEND
  5
166
100
AcDbEntity
  8
L1
  0
POLYLINE
  5
167
100
AcDbEntity
  8
L1
100
AcDb2dPolyline
 66
     1
 10
0.0
 20
0.0
 30
-29.1382877593
  0
VERTEX
  5
168
100
AcDbEntity
  8
L1
100
AcDbVertex
100
AcDb2dVertex
 10
14.6540098679
 20
0.7413151738
 30
-29.1382877593
  0
VERTEX
  5
169
100
AcDbEntity
  8
L1
100
AcDbVertex
100
AcDb2dVertex
 10
14.5447535122
 20
0.8892934147
 30
-29.1382877593
  0
VERTEX
  5
16A
100
AcDbEntity
  8
L1
100
AcDbVertex
100
AcDb2dVertex
 10
14.3696669029
 20
0.9456862234
 30
-29.1382877593
  0
SEQEND
  5
16B
100
AcDbEntity
  8
L1
  0
LINE
  5
16C
100
AcDbEntity
  8
L1
100
AcDbLine
 10
14.5071628723
 20
0.07969512
 30
-29.1382877593
 11
14.6688019645
 21
0.2413342123
 31
-29.1382877593
  0
LINE
  5
16D
100
AcDbEntity
  8
L1
100
AcDbLine
 10
14.5071628723
 20
0.07969512
 30
-29.1382877593
 11
14.5036494123
 21
0.4822980177
 31
-29.1382877593
  0
ELLIPSE
  5
16E
100
AcDbEntity
  8
L1
100
AcDbEllipse
 10
14.5839353857
 20
1.2518064544
 30
-29.1382877593
 11
-0.2121320343489898
 21
-0.2121320343629323
 31
0.0
210
0.0
220
0.0
230
-1.0
 40
0.9999238505
 41
-2.356156413948541
 42
-0.7854362395755268
  0
ELLIPSE
  5
16F
100
AcDbEntity
  8
L1
100
AcDbEllipse
 10
12.5072390203
 20
0.7798207652
 30
-29.1382877593
 11
-1.69649782936798
 21
0.0
 31
0.0
210
0.0
220
0.0
230
-1.0
 40
0.0087265355
 41
-3.132866339598172
 42
-1.570796326794896
  0
ELLIPSE
  5
170
100
AcDbEntity
  8
L1
100
AcDbEllipse
 10
14.2036722572
 20
0.4797030008
 30
-29.1382877593
 11
-0.2121320343557549
 21
0.2121320343561681
 31
0.0
210
0.0
220
0.0
230
-1.0
 40
0.9999238505
 41
0.7854362396074136
 42
2.347505920142615
  0
CIRCLE
  5
171
100
AcDbEntity
  8
L1
100
AcDbCircle
 10
8.2631303993
 20
8.3362147415
 30
-29.1382877593
 40
2.2718171695
  0
POLYLINE
  5
172
100
AcDbEntity
  8
L1
100
AcDb2dPolyline
 66
     1
 10
0.0
 20
0.0
 30
-29.1382877593
  0
VERTEX
  5
173
100
AcDbEntity
  8
L1
100
AcDbVertex
100
AcDb2dVertex
 10
8.7413132298
 20
3.3023994409
 30
-29.1382877593
  0
VERTEX
  5
174
100
AcDbEntity
  8
L1
100
AcDbVertex
100
AcDb2dVertex
 10
8.829176464
 20
3.0902740982
 30
-29.1382877593
  0
VERTEX
  5
175
100
AcDbEntity
  8
L1
100
AcDbVertex
100
AcDb2dVertex
 10
9.0413018067
 20
3.002410864
 30
-29.1382877593
  0
SEQEND
  5
176
100
AcDbEntity
  8
L1
  0
LINE
  5
177
100
AcDbEntity
  8
L1
100
AcDbLine
 10
7.4849589918
 20
3.002410864
 30
-29.1382877593
 11
9.0413018067
 21
3.002410864
 31
-29.1382877593
  0
LINE
  5
178
100
AcDbEntity
  8
L1
100
AcDbLine
 10
10.2158409321
 20
4.0541368802
 30
-29.1382877593
 11
8.9462053141
 21
3.7139390417
 31
-29.1382877593
  0
CIRCLE
  5
179
100
AcDbEntity
  8
L1
100
AcDbCircle
 10
8.2631303993
 20
8.3362147415
 30
-29.1382877593
 40
3.3605497214
  0
LINE
  5
17A
100
AcDbEntity
  8
L1
100
AcDbLine
 10
3.9813287489
 20
2.9570083049
 30
-29.1382877593
 11
14.5839353857
 21
2.9570083049
 31
-29.1382877593
  0
POLYLINE
  5
17B
100
AcDbEntity
  8
L1
100
AcDb2dPolyline
 66
     1
 10
0.0
 20
0.0
 30
-29.1382877593
  0
VERTEX
  5
17C
100
AcDbEntity
  8
L1
100
AcDbVertex
100
AcDb2dVertex
 10
3.9810525379
 20
10.2889252744
 30
-29.1382877593
  0
VERTEX
  5
17D
100
AcDbEntity
  8
L1
100
AcDbVertex
100
AcDb2dVertex
 10
4.0530231916
 20
10.5828615055
 30
-29.1382877593
  0
VERTEX
  5
17E
100
AcDbEntity
  8
L1
100
AcDbVertex
100
AcDb2dVertex
 10
4.1241254214
 20
10.8817868014
 30
-29.1382877593
  0
VERTEX
  5
17F
100
AcDbEntity
  8
L1
100
AcDbVertex
100
AcDb2dVertex
 10
4.1948891459
 20
11.1878970241
 30
-29.1382877593
  0
VERTEX
  5
180
100
AcDbEntity
  8
L1
100
AcDbVertex
100
AcDb2dVertex
 10
4.26583925
 20
11.5034948788
 30
-29.1382877593
  0
SEQEND
  5
181
100
AcDbEntity
  8
L1
  0
LINE
  5
182
100
AcDbEntity
  8
L1
100
AcDbLine
 10
3.7184877951
 20
7.1133112962
 30
-29.1382877593
 11
3.5980268408
 21
7.7148629697
 31
-29.1382877593
  0
ARC
  5
183
100
AcDbEntity
  8
L1
100
AcDbCircle
 10
3.9813287489
 20
4.0544130912
 30
-29.1382877593
 40
1.0974047863
100
AcDbArc
 50
180.0
 51
270.0
  0
POLYLINE
  5
184
100
AcDbEntity
  8
L1
100
AcDb2dPolyline
 66
     1
 10
0.0
 20
0.0
 30
-29.1382877593
  0
VERTEX
  5
185
100
AcDbEntity
  8
L1
100
AcDbVertex
100
AcDb2dVertex
 10
3.5931425018
 20
8.9197233302
 30
-29.1382877593
  0
VERTEX
  5
186
100
AcDbEntity
  8
L1
100
AcDbVertex
100
AcDb2dVertex
 10
3.6216184233
 20
8.9672923963
 30
-29.1382877593
  0
VERTEX
  5
187
100
AcDbEntity
  8
L1
100
AcDbVertex
100
AcDb2dVertex
 10
3.6408546994
 20
9.0192896564
 30
-29.1382877593
  0
SEQEND
  5
188
100
AcDbEntity
  8
L1
  0
POLYLINE
  5
189
100
AcDbEntity
  8
L1
100
AcDb2dPolyline
 66
     1
 10
0.0
 20
0.0
 30
-29.1382877593
  0
VERTEX
  5
18A
100
AcDbEntity
  8
L1
100
AcDbVertex
100
AcDb2dVertex
 10
3.8749825821
 20
6.1001451845
 30
-29.1382877593
  0
VERTEX
  5
18B
100
AcDbEntity
  8
L1
100
AcDbVertex
100
AcDb2dVertex
 10
3.8372450238
 20
6.3586362453
 30
-29.1382877593
  0
VERTEX
  5
18C
100
AcDbEntity
  8
L1
100
AcDbVertex
100
AcDb2dVertex
 10
3.798720021
 20
6.6127887085
 30
-29.1382877593
  0
VERTEX
  5
18D
100
AcDbEntity
  8
L1
100
AcDbVertex
100
AcDb2dVertex
 10
3.7592054978
 20
6.8639168258
 30
-29.1382877593
  0
VERTEX
  5
18E
100
AcDbEntity
  8
L1
100
AcDbVertex
100
AcDb2dVertex
 10
3.7184877951
 20
7.1133112962
 30
-29.1382877593
  0
SEQEND
  5
18F
100
AcDbEntity
  8
L1
  0
LINE
  5
190
100
AcDbEntity
  8
L1
100
AcDbLine
 10
3.6408546994
 20
9.0192896564
 30
-29.1382877593
 11
3.9810525379
 21
10.2889252744
 31
-29.1382877593
  0
LINE
  5
191
100
AcDbEntity
  8
L1
100
AcDbLine
 10
2.9293265217
 20
9.114386149
 30
-29.1382877593
 11
2.9293265217
 21
7.5580433341
 31
-29.1382877593
  0
LINE
  5
192
100
AcDbEntity
  8
L1
100
AcDbLine
 10
2.9336899556
 20
7.5536799002
 30
-29.1382877593
 11
2.9293265217
 21
7.5580433341
 31
-29.1382877593
  0
LINE
  5
193
100
AcDbEntity
  8
L1
100
AcDbLine
 10
3.3140688101
 20
7.8536684771
 30
-29.1382877593
 11
3.3177301658
 21
7.858031911
 31
-29.1382877593
  0
POLYLINE
  5
194
100
AcDbEntity
  8
L1
100
AcDb2dPolyline
 66
     1
 10
0.0
 20
0.0
 30
-29.1382877593
  0
VERTEX
  5
195
100
AcDbEntity
  8
L1
100
AcDbVertex
100
AcDb2dVertex
 10
3.4066772937
 20
7.8445426176
 30
-29.1382877593
  0
VERTEX
  5
196
100
AcDbEntity
  8
L1
100
AcDbVertex
100
AcDb2dVertex
 10
3.3627124508
 20
7.854640418
 30
-29.1382877593
  0
VERTEX
  5
197
100
AcDbEntity
  8
L1
100
AcDbVertex
100
AcDb2dVertex
 10
3.3177301658
 20
7.858031911
 30
-29.1382877593
  0
SEQEND
  5
198
100
AcDbEntity
  8
L1
  0
POLYLINE
  5
199
100
AcDbEntity
  8
L1
100
AcDb2dPolyline
 66
     1
 10
0.0
 20
0.0
 30
-29.1382877593
  0
VERTEX
  5
19A
100
AcDbEntity
  8
L1
100
AcDbVertex
100
AcDb2dVertex
 10
3.5980268408
 20
7.7148629697
 30
-29.1382877593
  0
VERTEX
  5
19B
100
AcDbEntity
  8
L1
100
AcDbVertex
100
AcDb2dVertex
 10
3.5672606072
 20
7.7569126504
 30
-29.1382877593
  0
VERTEX
  5
19C
100
AcDbEntity
  8
L1
100
AcDbVertex
100
AcDb2dVertex
 10
3.5331861634
 20
7.7885978859
 30
-29.1382877593
  0
VERTEX
  5
19D
100
AcDbEntity
  8
L1
100
AcDbVertex
100
AcDb2dVertex
 10
3.4192185795
 20
7.8419274405
 30
-29.1382877593
  0
VERTEX
  5
19E
100
AcDbEntity
  8
L1
100
AcDbVertex
100
AcDb2dVertex
 10
3.4066772937
 20
7.8445426176
 30
-29.1382877593
  0
SEQEND
  5
19F
100
AcDbEntity
  8
L1
  0
LINE
  5
1A0
100
AcDbEntity
  8
L1
100
AcDbLine
 10
3.2293150987
 20
7.858031911
 30
-29.1382877593
 11
3.2336785326
 21
7.8536684771
 31
-29.1382877593
  0
LINE
  5
1A1
100
AcDbEntity
  8
L1
100
AcDbLine
 10
3.2293150987
 20
7.858031911
 30
-29.1382877593
 11
3.3177301658
 21
7.858031911
 31
-29.1382877593
  0
POLYLINE
  5
1A2
100
AcDbEntity
  8
L1
100
AcDb2dPolyline
 66
     1
 10
0.0
 20
0.0
 30
-29.1382877593
  0
VERTEX
  5
1A3
100
AcDbEntity
  8
L1
100
AcDbVertex
100
AcDb2dVertex
 10
3.2293150987
 20
7.858031911
 30
-29.1382877593
  0
VERTEX
  5
1A4
100
AcDbEntity
  8
L1
100
AcDbVertex
100
AcDb2dVertex
 10
3.0171897559
 20
7.7701686768
 30
-29.1382877593
  0
VERTEX
  5
1A5
100
AcDbEntity
  8
L1
100
AcDbVertex
100
AcDb2dVertex
 10
2.9293265217
 20
7.5580433341
 30
-29.1382877593
  0
SEQEND
  5
1A6
100
AcDbEntity
  8
L1
  0
POLYLINE
  5
1A7
100
AcDbEntity
  8
L1
100
AcDb2dPolyline
 66
     1
 10
0.0
 20
0.0
 30
-29.1382877593
  0
VERTEX
  5
1A8
100
AcDbEntity
  8
L1
100
AcDbVertex
100
AcDb2dVertex
 10
2.9293265217
 20
9.114386149
 30
-29.1382877593
  0
VERTEX
  5
1A9
100
AcDbEntity
  8
L1
100
AcDbVertex
100
AcDb2dVertex
 10
3.0171897559
 20
8.9022608062
 30
-29.1382877593
  0
VERTEX
  5
1AA
100
AcDbEntity
  8
L1
100
AcDbVertex
100
AcDb2dVertex
 10
3.2293150987
 20
8.8143975721
 30
-29.1382877593
  0
SEQEND
  5
1AB
100
AcDbEntity
  8
L1
  0
LINE
  5
1AC
100
AcDbEntity
  8
L1
100
AcDbLine
 10
3.337695263
 20
8.8143975721
 30
-29.1382877593
 11
3.2293150987
 21
8.8143975721
 31
-29.1382877593
  0
POLYLINE
  5
1AD
100
AcDbEntity
  8
L1
100
AcDb2dPolyline
 66
     1
 10
0.0
 20
0.0
 30
-29.1382877593
  0
VERTEX
  5
1AE
100
AcDbEntity
  8
L1
100
AcDbVertex
100
AcDb2dVertex
 10
3.4061153183
 20
8.8223039795
 30
-29.1382877593
  0
VERTEX
  5
1AF
100
AcDbEntity
  8
L1
100
AcDbVertex
100
AcDb2dVertex
 10
3.4407626888
 20
8.8283457186
 30
-29.1382877593
  0
VERTEX
  5
1B0
100
AcDbEntity
  8
L1
100
AcDbVertex
100
AcDb2dVertex
 10
3.5539096502
 20
8.8817755873
 30
-29.1382877593
  0
VERTEX
  5
1B1
100
AcDbEntity
  8
L1
100
AcDbVertex
100
AcDb2dVertex
 10
3.587748903
 20
8.9134905602
 30
-29.1382877593
  0
VERTEX
  5
1B2
100
AcDbEntity
  8
L1
100
AcDbVertex
100
AcDb2dVertex
 10
3.5931425018
 20
8.9197233302
 30
-29.1382877593
  0
SEQEND
  5
1B3
100
AcDbEntity
  8
L1
  0
POLYLINE
  5
1B4
100
AcDbEntity
  8
L1
100
AcDb2dPolyline
 66
     1
 10
0.0
 20
0.0
 30
-29.1382877593
  0
VERTEX
  5
1B5
100
AcDbEntity
  8
L1
100
AcDbVertex
100
AcDb2dVertex
 10
3.337695263
 20
8.8143975721
 30
-29.1382877593
  0
VERTEX
  5
1B6
100
AcDbEntity
  8
L1
100
AcDbVertex
100
AcDb2dVertex
 10
3.3721330496
 20
8.8163807285
 30
-29.1382877593
  0
VERTEX
  5
1B7
100
AcDbEntity
  8
L1
100
AcDbVertex
100
AcDb2dVertex
 10
3.4061153183
 20
8.8223039795
 30
-29.1382877593
  0
SEQEND
  5
1B8
100
AcDbEntity
  8
L1
  0
ARC
  5
1B9
100
AcDbEntity
  8
L1
100
AcDbCircle
 10
8.2631303993
 20
8.3362147415
 30
-29.1382877593
 40
4.7063010141
100
AcDbArc
 50
172.8778816875
 51
187.586654266
  0
POLYLINE
  5
1BA
100
AcDbEntity
  8
L1
100
AcDb2dPolyline
 66
     1
 10
0.0
 20
0.0
 30
-29.1382877593
  0
VERTEX
  5
1BB
100
AcDbEntity
  8
L1
100
AcDbVertex
100
AcDb2dVertex
 10
7.4849589918
 20
3.002410864
 30
-29.1382877593
  0
VERTEX
  5
1BC
100
AcDbEntity
  8
L1
100
AcDbVertex
100
AcDb2dVertex
 10
7.6970843346
 20
3.0902740982
 30
-29.1382877593
  0
VERTEX
  5
1BD
100
AcDbEntity
  8
L1
100
AcDbVertex
100
AcDb2dVertex
 10
7.7849475687
 20
3.3023994409
 30
-29.1382877593
  0
SEQEND
  5
1BE
100
AcDbEntity
  8
L1
  0
LINE
  5
1BF
100
AcDbEntity
  8
L1
100
AcDbLine
 10
7.7714582753
 20
3.479761636
 30
-29.1382877593
 11
7.7849475687
 21
3.3023994409
 31
-29.1382877593
  0
POLYLINE
  5
1C0
100
AcDbEntity
  8
L1
100
AcDb2dPolyline
 66
     1
 10
0.0
 20
0.0
 30
-29.1382877593
  0
VERTEX
  5
1C1
100
AcDbEntity
  8
L1
100
AcDbVertex
100
AcDb2dVertex
 10
7.6417786274
 20
3.6711111831
 30
-29.1382877593
  0
VERTEX
  5
1C2
100
AcDbEntity
  8
L1
100
AcDbVertex
100
AcDb2dVertex
 10
7.5992931782
 20
3.6893743875
 30
-29.1382877593
  0
VERTEX
  5
1C3
100
AcDbEntity
  8
L1
100
AcDbVertex
100
AcDb2dVertex
 10
7.5545051971
 20
3.7008910076
 30
-29.1382877593
  0
SEQEND
  5
1C4
100
AcDbEntity
  8
L1
  0
POLYLINE
  5
1C5
100
AcDbEntity
  8
L1
100
AcDb2dPolyline
 66
     1
 10
0.0
 20
0.0
 30
-29.1382877593
  0
VERTEX
  5
1C6
100
AcDbEntity
  8
L1
100
AcDbVertex
100
AcDb2dVertex
 10
7.7714582753
 20
3.479761636
 30
-29.1382877593
  0
VERTEX
  5
1C7
100
AcDbEntity
  8
L1
100
AcDbVertex
100
AcDb2dVertex
 10
7.7688430982
 20
3.4923029218
 30
-29.1382877593
  0
VERTEX
  5
1C8
100
AcDbEntity
  8
L1
100
AcDbVertex
100
AcDb2dVertex
 10
7.7155135437
 20
3.6062705057
 30
-29.1382877593
  0
VERTEX
  5
1C9
100
AcDbEntity
  8
L1
100
AcDbVertex
100
AcDb2dVertex
 10
7.6838283082
 20
3.6403449495
 30
-29.1382877593
  0
VERTEX
  5
1CA
100
AcDbEntity
  8
L1
100
AcDbVertex
100
AcDb2dVertex
 10
7.6417786274
 20
3.6711111831
 30
-29.1382877593
  0
SEQEND
  5
1CB
100
AcDbEntity
  8
L1
  0
POLYLINE
  5
1CC
100
AcDbEntity
  8
L1
100
AcDb2dPolyline
 66
     1
 10
0.0
 20
0.0
 30
-29.1382877593
  0
VERTEX
  5
1CD
100
AcDbEntity
  8
L1
100
AcDbVertex
100
AcDb2dVertex
 10
7.040226954
 20
3.7915721374
 30
-29.1382877593
  0
VERTEX
  5
1CE
100
AcDbEntity
  8
L1
100
AcDbVertex
100
AcDb2dVertex
 10
6.7908324835
 20
3.8322898401
 30
-29.1382877593
  0
VERTEX
  5
1CF
100
AcDbEntity
  8
L1
100
AcDbVertex
100
AcDb2dVertex
 10
6.5397043662
 20
3.8718043633
 30
-29.1382877593
  0
VERTEX
  5
1D0
100
AcDbEntity
  8
L1
100
AcDbVertex
100
AcDb2dVertex
 10
6.2855519031
 20
3.910329366
 30
-29.1382877593
  0
VERTEX
  5
1D1
100
AcDbEntity
  8
L1
100
AcDbVertex
100
AcDb2dVertex
 10
6.0270608422
 20
3.9480669244
 30
-29.1382877593
  0
SEQEND
  5
1D2
100
AcDbEntity
  8
L1
  0
LINE
  5
1D3
100
AcDbEntity
  8
L1
100
AcDbLine
 10
7.5545051971
 20
3.7008910076
 30
-29.1382877593
 11
7.040226954
 21
3.7915721374
 31
-29.1382877593
  0
POLYLINE
  5
1D4
100
AcDbEntity
  8
L1
100
AcDb2dPolyline
 66
     1
 10
0.0
 20
0.0
 30
-29.1382877593
  0
VERTEX
  5
1D5
100
AcDbEntity
  8
L1
100
AcDbVertex
100
AcDb2dVertex
 10
8.7492196372
 20
3.4791996606
 30
-29.1382877593
  0
VERTEX
  5
1D6
100
AcDbEntity
  8
L1
100
AcDbVertex
100
AcDb2dVertex
 10
8.7432963862
 20
3.4452173919
 30
-29.1382877593
  0
VERTEX
  5
1D7
100
AcDbEntity
  8
L1
100
AcDbVertex
100
AcDb2dVertex
 10
8.7413132298
 20
3.4107796053
 30
-29.1382877593
  0
SEQEND
  5
1D8
100
AcDbEntity
  8
L1
  0
POLYLINE
  5
1D9
100
AcDbEntity
  8
L1
100
AcDb2dPolyline
 66
     1
 10
0.0
 20
0.0
 30
-29.1382877593
  0
VERTEX
  5
1DA
100
AcDbEntity
  8
L1
100
AcDbVertex
100
AcDb2dVertex
 10
8.8466389879
 20
3.6662268441
 30
-29.1382877593
  0
VERTEX
  5
1DB
100
AcDbEntity
  8
L1
100
AcDbVertex
100
AcDb2dVertex
 10
8.8404062179
 20
3.6608332453
 30
-29.1382877593
  0
VERTEX
  5
1DC
100
AcDbEntity
  8
L1
100
AcDbVertex
100
AcDb2dVertex
 10
8.808691245
 20
3.6269939925
 30
-29.1382877593
  0
VERTEX
  5
1DD
100
AcDbEntity
  8
L1
100
AcDbVertex
100
AcDb2dVertex
 10
8.7552613763
 20
3.513847031
 30
-29.1382877593
  0
VERTEX
  5
1DE
100
AcDbEntity
  8
L1
100
AcDbVertex
100
AcDb2dVertex
 10
8.7492196372
 20
3.4791996606
 30
-29.1382877593
  0
SEQEND
  5
1DF
100
AcDbEntity
  8
L1
  0
POLYLINE
  5
1E0
100
AcDbEntity
  8
L1
100
AcDb2dPolyline
 66
     1
 10
0.0
 20
0.0
 30
-29.1382877593
  0
VERTEX
  5
1E1
100
AcDbEntity
  8
L1
100
AcDbVertex
100
AcDb2dVertex
 10
8.9462053141
 20
3.7139390417
 30
-29.1382877593
  0
VERTEX
  5
1E2
100
AcDbEntity
  8
L1
100
AcDbVertex
100
AcDb2dVertex
 10
8.894208054
 20
3.6947027656
 30
-29.1382877593
  0
VERTEX
  5
1E3
100
AcDbEntity
  8
L1
100
AcDbVertex
100
AcDb2dVertex
 10
8.8466389879
 20
3.6662268441
 30
-29.1382877593
  0
SEQEND
  5
1E4
100
AcDbEntity
  8
L1
  0
LINE
  5
1E5
100
AcDbEntity
  8
L1
100
AcDbLine
 10
8.7413132298
 20
3.3023994409
 30
-29.1382877593
 11
8.7413132298
 21
3.4107796053
 31
-29.1382877593
  0
ARC
  5
1E6
100
AcDbEntity
  8
L1
100
AcDbCircle
 10
8.2631303993
 20
8.3362147415
 30
-29.1382877593
 40
4.7063010141
100
AcDbArc
 50
262.413345734
 51
277.1221183125
  0
ARC
  5
1E7
100
AcDbEntity
  8
L1
100
AcDbCircle
 10
8.2631303993
 20
8.3362147415
 30
-29.1382877593
 40
4.7063010141
100
AcDbArc
 50
195.0607978503
 51
254.9392021498
  0
ARC
  5
1E8
100
AcDbEntity
  8
L1
100
AcDbCircle
 10
8.2631303993
 20
8.3362147415
 30
-29.1382877593
 40
4.9250226729
100
AcDbArc
 50
207.0020375495
 51
242.9979624506
  0
POLYLINE
  5
1E9
100
AcDbEntity
  8
L1
100
AcDb2dPolyline
 66
     1
 10
0.0
 20
0.0
 30
-29.1382877593
  0
VERTEX
  5
1EA
100
AcDbEntity
  8
L1
100
AcDbVertex
100
AcDb2dVertex
 10
11.4304105365
 20
4.3389235923
 30
-29.1382877593
  0
VERTEX
  5
1EB
100
AcDbEntity
  8
L1
100
AcDbVertex
100
AcDb2dVertex
 10
11.1148126818
 20
4.2679734882
 30
-29.1382877593
  0
VERTEX
  5
1EC
100
AcDbEntity
  8
L1
100
AcDbVertex
100
AcDb2dVertex
 10
10.8087024591
 20
4.1972097637
 30
-29.1382877593
  0
VERTEX
  5
1ED
100
AcDbEntity
  8
L1
100
AcDbVertex
100
AcDb2dVertex
 10
10.5097771632
 20
4.1261075339
 30
-29.1382877593
  0
VERTEX
  5
1EE
100
AcDbEntity
  8
L1
100
AcDbVertex
100
AcDb2dVertex
 10
10.2158409321
 20
4.0541368802
 30
-29.1382877593
  0
SEQEND
  5
1EF
100
AcDbEntity
  8
L1
  0
ARC
  5
1F0
100
AcDbEntity
  8
L1
100
AcDbCircle
 10
8.2631303993
 20
8.3362147415
 30
-29.1382877593
 40
5.1
100
AcDbArc
 50
308.3917785793
 51
33.275002002
  0
POLYLINE
  5
1F1
100
AcDbEntity
  8
L1
100
AcDb2dPolyline
 66
     1
 10
0.0
 20
0.0
 30
-29.1382877593
  0
VERTEX
  5
1F2
100
AcDbEntity
  8
L1
100
AcDbVertex
100
AcDb2dVertex
 10
13.9900784628
 20
2.963139959
 30
-29.1382877593
  0
VERTEX
  5
1F3
100
AcDbEntity
  8
L1
100
AcDbVertex
100
AcDb2dVertex
 10
14.4143291483
 20
3.1388664273
 30
-29.1382877593
  0
VERTEX
  5
1F4
100
AcDbEntity
  8
L1
100
AcDbVertex
100
AcDb2dVertex
 10
14.5900556167
 20
3.5631171128
 30
-29.1382877593
  0
SEQEND
  5
1F5
100
AcDbEntity
  8
L1
  0
LINE
  5
1F6
100
AcDbEntity
  8
L1
100
AcDbLine
 10
14.5900556167
 20
3.5631171128
 30
-29.1382877593
 11
14.5900556167
 21
7.863139959
 31
-29.1382877593
  0
ELLIPSE
  5
1F7
100
AcDbEntity
  8
L1
100
AcDbEllipse
 10
14.5839353857
 20
2.657019728
 30
-29.1382877593
 11
-0.2121320343489898
 21
0.2121320343629324
 31
0.0
210
0.0
220
0.0
230
-1.0
 40
0.9999238505
 41
0.7854362395755267
 42
2.35615641394854
  0
POLYLINE
  5
1F8
100
AcDbEntity
  8
L1
100
AcDb2dPolyline
 66
     1
 10
0.0
 20
0.0
 30
-29.1382877593
  0
VERTEX
  5
1F9
100
AcDbEntity
  8
L1
100
AcDbVertex
100
AcDb2dVertex
 10
3.4900327705
 20
14.663139959
 30
-29.1382877593
  0
VERTEX
  5
1FA
100
AcDbEntity
  8
L1
100
AcDbVertex
100
AcDb2dVertex
 10
3.065782085
 20
14.4874134906
 30
-29.1382877593
  0
VERTEX
  5
1FB
100
AcDbEntity
  8
L1
100
AcDbVertex
100
AcDb2dVertex
 10
2.8900556167
 20
14.0631628051
 30
-29.1382877593
  0
SEQEND
  5
1FC
100
AcDbEntity
  8
L1
  0
POLYLINE
  5
1FD
100
AcDbEntity
  8
L1
100
AcDb2dPolyline
 66
     1
 10
0.0
 20
0.0
 30
-29.1382877593
  0
VERTEX
  5
1FE
100
AcDbEntity
  8
L1
100
AcDbVertex
100
AcDb2dVertex
 10
0.8726018811
 20
14.4427512452
 30
-29.1382877593
  0
VERTEX
  5
1FF
100
AcDbEntity
  8
L1
100
AcDbVertex
100
AcDb2dVertex
 10
0.8162090724
 20
14.6178378545
 30
-29.1382877593
  0
VERTEX
  5
200
100
AcDbEntity
  8
L1
100
AcDbVertex
100
AcDb2dVertex
 10
0.6682308315
 20
14.7270942102
 30
-29.1382877593
  0
SEQEND
  5
201
100
AcDbEntity
  8
L1
  0
POLYLINE
  5
202
100
AcDbEntity
  8
L1
100
AcDb2dPolyline
 66
     1
 10
0.0
 20
0.0
 30
-29.1382877593
  0
VERTEX
  5
203
100
AcDbEntity
  8
L1
100
AcDbVertex
100
AcDb2dVertex
 10
0.6682308315
 20
14.7270942102
 30
-29.1382877593
  0
VERTEX
  5
204
100
AcDbEntity
  8
L1
100
AcDbVertex
100
AcDb2dVertex
 10
0.5751322119
 20
14.7426522911
 30
-29.1382877593
  0
SEQEND
  5
205
100
AcDbEntity
  8
L1
  0
POLYLINE
  5
206
100
AcDbEntity
  8
L1
100
AcDb2dPolyline
 66
     1
 10
0.0
 20
0.0
 30
-29.1382877593
  0
VERTEX
  5
207
100
AcDbEntity
  8
L1
100
AcDbVertex
100
AcDb2dVertex
 10
0.5751322119
 20
14.7426522911
 30
-29.1382877593
  0
VERTEX
  5
208
100
AcDbEntity
  8
L1
100
AcDbVertex
100
AcDb2dVertex
 10
0.2845616674
 20
14.7436639435
 30
-29.1382877593
  0
VERTEX
  5
209
100
AcDbEntity
  8
L1
100
AcDbVertex
100
AcDb2dVertex
 10
0.16824987
 20
14.7418863069
 30
-29.1382877593
  0
SEQEND
  5
20A
100
AcDbEntity
  8
L1
  0
LINE
  5
20B
100
AcDbEntity
  8
L1
100
AcDbLine
 10
0.0066107777
 20
14.5802472145
 30
-29.1382877593
 11
0.4092136755
 21
14.5767337546
 31
-29.1382877593
  0
LINE
  5
20C
100
AcDbEntity
  8
L1
100
AcDbLine
 10
0.16824987
 20
14.7418863069
 30
-29.1382877593
 11
0.0066107777
 21
14.5802472146
 31
-29.1382877593
  0
LINE
  5
20D
100
AcDbEntity
  8
L1
100
AcDbLine
 10
1.1787221121
 20
14.9570083049
 30
-29.1382877593
 11
2.5839353857
 21
14.9570083049
 31
-29.1382877593
  0
ELLIPSE
  5
20E
100
AcDbEntity
  8
L1
100
AcDbEllipse
 10
0.4066186585
 20
14.2767565995
 30
-29.1382877593
 11
0.2121320343438322
 21
-0.2121320343680905
 31
0.0
210
0.0
220
0.0
230
-1.0
 40
0.9999238505
 41
-2.347505920200958
 42
-0.7854362396653705
  0
ELLIPSE
  5
20F
100
AcDbEntity
  8
L1
100
AcDbEllipse
 10
1.1787221121
 20
14.657019728
 30
-29.1382877593
 11
-0.2121320343557818
 21
-0.2121320343561951
 31
0.0
210
0.0
220
0.0
230
-1.0
 40
0.9999238505
 41
0.7854362396093614
 42
2.356156413982379
  0
ELLIPSE
  5
210
100
AcDbEntity
  8
L1
100
AcDbEllipse
 10
2.5839353857
 20
14.657019728
 30
-29.1382877593
 11
-0.2121320343489898
 21
0.2121320343629324
 31
0.0
210
0.0
220
0.0
230
-1.0
 40
0.9999238505
 41
0.7854362395755267
 42
2.35615641394854
  0
ELLIPSE
  5
211
100
AcDbEntity
  8
L1
100
AcDbEllipse
 10
0.7067364229
 20
12.5803233626
 30
-29.1382877593
 11
0.0
 21
1.69649782936798
 31
0.0
210
0.0
220
0.0
230
-1.0
 40
0.0087265355
 41
-1.570796326794896
 42
-0.0087263139916211
  0
LINE
  5
212
100
AcDbEntity
  8
L1
100
AcDbLine
 10
7.7900556167
 20
14.663139959
 30
-29.1382877593
 11
3.4900327705
 21
14.663139959
 31
-29.1382877593
  0
LINE
  5
213
100
AcDbEntity
  8
L1
100
AcDbLine
 10
11.7617217044
 20
13.3072930085
 30
-29.1382877593
 11
11.1285824884
 21
12.6741537924
 31
-29.1382877593
  0
ARC
  5
214
100
AcDbEntity
  8
L1
100
AcDbCircle
 10
7.7900556167
 20
7.863139959
 30
-29.1382877593
 40
6.7389119255
100
AcDbArc
 50
36.1118255431
 51
53.8881744569
  0
ENDBLK
  5
216
100
AcDbEntity
  8
L1
100
AcDbBlockEnd
  0
ENDSEC
  0
SECTION
  2
ENTITIES
  0
MTEXT
  5
20
100
AcDbEntity
  8
L46
100
AcDbMText
 10
166.6288743083
 20
232.6125374446
 30
-16.3347985489
 40
4.0
 41
36.9320622624
 71
     1
 72
     1
  1
{FIBOX BASE PC 125L}
  7
SIMPLEX
  0
LINE
  5
22
100
AcDbEntity
  8
L6
100
AcDbLine
 10
75.5249302139
 20
76.8776223695
 30
0.0
 11
75.5249302139
 21
216.8437417025
 31
0.0
  0
LINE
  5
25
100
AcDbEntity
  8
L2
100
AcDbLine
 10
192.8673449065
 20
190.7403473777
 30
0.0
 11
192.8673449065
 21
100.9168261438
 31
0.0
  0
LINE
  5
26
100
AcDbEntity
  8
L1
100
AcDbLine
 10
195.8673449065
 20
95.4694662294
 30
0.0
 11
195.8673449065
 21
196.1877072921
 31
0.0
  0
LINE
  5
28
100
AcDbEntity
  8
L1
100
AcDbLine
 10
140.3698107432
 20
196.5528168464
 30
0.0
 11
140.3698107432
 21
95.864159977
 31
0.0
  0
INSERT
  5
29
100
AcDbEntity
  8
L1
100
AcDbBlockReference
  2
A$CD
 10
140.5380606132
 20
81.1222736701
 30
29.1382877593
 41
-1.0
  0
LINE
  5
217
100
AcDbEntity
  8
L1
100
AcDbLine
 10
140.5697393928
 20
84.6635459635
 30
0.0
 11
140.5697393928
 21
207.7534308599
 31
0.0
  0
LINE
  5
218
100
AcDbEntity
  8
L1
100
AcDbLine
 10
171.8673449065
 20
84.2785867607
 30
0.0
 11
171.8673449065
 21
207.3785867607
 31
0.0
  0
LINE
  5
219
100
AcDbEntity
  8
L1
100
AcDbLine
 10
172.4621540854
 20
207.373529209
 30
0.0
 11
172.4621540854
 21
84.2836443125
 31
0.0
  0
LINE
  5
21A
100
AcDbEntity
  8
L1
100
AcDbLine
 10
10.6800496846
 20
196.5528168464
 30
0.0
 11
10.6800496846
 21
95.864159977
 31
0.0
  0
INSERT
  5
21B
100
AcDbEntity
  8
L1
100
AcDbBlockReference
  2
A$CD
 10
10.5117998146
 20
81.1222736701
 30
29.1382877593
  0
LINE
  5
21C
100
AcDbEntity
  8
L1
100
AcDbLine
 10
10.480121035
 20
207.7534308599
 30
0.0
 11
10.480121035
 21
84.6635459635
 31
0.0
  0
LINE
  5
21D
100
AcDbEntity
  8
L1
100
AcDbLine
 10
25.1806017792
 20
81.3636078824
 30
0.0
 11
125.8692586486
 21
81.3636078824
 31
0.0
  0
LINE
  5
21E
100
AcDbEntity
  8
L6
100
AcDbLine
 10
2.6406184691
 20
146.2084884117
 30
0.0
 11
147.5919572239
 21
146.2084884117
 31
0.0
  0
LINE
  5
21F
100
AcDbEntity
  8
L1
100
AcDbLine
 10
13.9799877657
 20
81.1636792327
 30
0.0
 11
137.0698726621
 21
81.1636792327
 31
0.0
  0
LINE
  5
220
100
AcDbEntity
  8
L6
  6
CENTER
 62
     1
100
AcDbLine
 10
18.7749302139
 20
83.6996584986
 30
0.0
 11
18.7749302139
 21
95.482791028
 31
0.0
  0
LINE
  5
221
100
AcDbEntity
  8
L6
  6
CENTER
 62
     1
100
AcDbLine
 10
12.2843904414
 20
89.4584884117
 30
0.0
 11
25.9438511895
 21
89.4584884117
 31
0.0
  0
LINE
  5
222
100
AcDbEntity
  8
L6
  6
CENTER
 62
     1
100
AcDbLine
 10
127.2749302139
 20
89.4584884117
 30
0.0
 11
137.2749302139
 21
89.4584884117
 31
0.0
  0
LINE
  5
223
100
AcDbEntity
  8
L6
  6
CENTER
 62
     1
100
AcDbLine
 10
132.2749302139
 20
84.4584884117
 30
0.0
 11
132.2749302139
 21
94.4584884117
 31
0.0
  0
ARC
  5
224
100
AcDbEntity
  8
L1
100
AcDbCircle
 10
196.5673449065
 20
95.3993917472
 30
0.0
 40
0.3
100
AcDbArc
 50
0.0
 51
89.5
  0
LINE
  5
225
100
AcDbEntity
  8
L1
100
AcDbLine
 10
175.164612715
 20
81.5073882359
 30
0.0
 11
196.5699628671
 21
81.6941898966
 31
0.0
  0
LINE
  5
226
100
AcDbEntity
  8
L1
100
AcDbLine
 10
176.8497027798
 20
95.3226192337
 30
0.0
 11
195.3717081742
 21
95.484258326
 31
0.0
  0
LINE
  5
227
100
AcDbEntity
  8
L1
100
AcDbLine
 10
195.3717081742
 20
80.9837062315
 30
0.0
 11
176.8497027798
 21
80.8220671392
 31
0.0
  0
LINE
  5
228
100
AcDbEntity
  8
L1
100
AcDbLine
 10
174.8672306757
 20
84.304633098
 30
0.0
 11
174.8672306757
 21
93.3226953818
 31
0.0
  0
LINE
  5
229
100
AcDbEntity
  8
L1
100
AcDbLine
 10
172.4621540854
 20
80.7837775818
 30
0.0
 11
174.8672306757
 21
80.8047663672
 31
0.0
  0
LINE
  5
22A
100
AcDbEntity
  8
L1
100
AcDbLine
 10
171.8673449065
 20
84.2013756189
 30
0.0
 11
171.8674605128
 21
84.20137461
 31
0.0
  0
LINE
  5
22B
100
AcDbEntity
  8
L1
100
AcDbLine
 10
171.8673449065
 20
81.3785867607
 30
0.0
 11
171.8673449065
 21
84.2785867607
 31
0.0
  0
POLYLINE
  5
22C
100
AcDbEntity
  8
L1
100
AcDb2dPolyline
 66
     1
 10
0.0
 20
0.0
 30
0.0
  0
VERTEX
  5
22D
100
AcDbEntity
  8
L1
100
AcDbVertex
100
AcDb2dVertex
 10
172.4621504631
 20
84.2785867607
 30
0.0
  0
VERTEX
  5
22E
100
AcDbEntity
  8
L1
100
AcDbVertex
100
AcDb2dVertex
 10
172.4612868727
 20
83.606952487
 30
0.0
  0
VERTEX
  5
22F
100
AcDbEntity
  8
L1
100
AcDbVertex
100
AcDb2dVertex
 10
172.4606326231
 20
82.9419494617
 30
0.0
  0
VERTEX
  5
230
100
AcDbEntity
  8
L1
100
AcDbVertex
100
AcDb2dVertex
 10
172.4602357066
 20
82.3298243999
 30
0.0
  0
VERTEX
  5
231
100
AcDbEntity
  8
L1
100
AcDbVertex
100
AcDb2dVertex
 10
172.4601073028
 20
81.8088307852
 30
0.0
  0
VERTEX
  5
232
100
AcDbEntity
  8
L1
100
AcDbVertex
100
AcDb2dVertex
 10
172.4602357066
 20
81.3798609368
 30
0.0
  0
VERTEX
  5
233
100
AcDbEntity
  8
L1
100
AcDbVertex
100
AcDb2dVertex
 10
172.4606326231
 20
81.0511326864
 30
0.0
  0
VERTEX
  5
234
100
AcDbEntity
  8
L1
100
AcDbVertex
100
AcDb2dVertex
 10
172.4612868727
 20
80.8498059474
 30
0.0
  0
VERTEX
  5
235
100
AcDbEntity
  8
L1
100
AcDbVertex
100
AcDb2dVertex
 10
172.4621504631
 20
80.7837812041
 30
0.0
  0
SEQEND
  5
236
100
AcDbEntity
  8
L1
  0
LINE
  5
237
100
AcDbEntity
  8
L1
100
AcDbLine
 10
171.8673449065
 20
81.3785867607
 30
0.0
 11
172.4621504631
 21
80.7837812041
 31
0.0
  0
POLYLINE
  5
238
100
AcDbEntity
  8
L1
100
AcDb2dPolyline
 66
     1
 10
0.0
 20
0.0
 30
0.0
  0
VERTEX
  5
239
100
AcDbEntity
  8
L1
100
AcDbVertex
100
AcDb2dVertex
 10
172.4621504631
 20
80.7837812041
 30
0.0
  0
VERTEX
  5
23A
100
AcDbEntity
  8
L1
100
AcDbVertex
100
AcDb2dVertex
 10
172.4621531798
 20
80.7837784874
 30
0.0
  0
VERTEX
  5
23B
100
AcDbEntity
  8
L1
100
AcDbVertex
100
AcDb2dVertex
 10
172.4621540854
 20
80.7837775818
 30
0.0
  0
SEQEND
  5
23C
100
AcDbEntity
  8
L1
  0
POLYLINE
  5
23D
100
AcDbEntity
  8
L1
100
AcDb2dPolyline
 66
     1
 10
0.0
 20
0.0
 30
0.0
  0
VERTEX
  5
23E
100
AcDbEntity
  8
L1
100
AcDbVertex
100
AcDb2dVertex
 10
172.4621540854
 20
84.2836443125
 30
0.0
  0
VERTEX
  5
23F
100
AcDbEntity
  8
L1
100
AcDbVertex
100
AcDb2dVertex
 10
172.4621531798
 20
84.2811155438
 30
0.0
  0
VERTEX
  5
240
100
AcDbEntity
  8
L1
100
AcDbVertex
100
AcDb2dVertex
 10
172.4621504631
 20
84.2785867607
 30
0.0
  0
SEQEND
  5
241
100
AcDbEntity
  8
L1
  0
ARC
  5
242
100
AcDbEntity
  8
L1
100
AcDbCircle
 10
172.1673449065
 20
84.6811933976
 30
0.0
 40
0.3
100
AcDbArc
 50
179.2528421354
 51
180.0
  0
POLYLINE
  5
243
100
AcDbEntity
  8
L1
100
AcDb2dPolyline
 66
     1
 10
0.0
 20
0.0
 30
0.0
  0
VERTEX
  5
244
100
AcDbEntity
  8
L1
100
AcDbVertex
100
AcDb2dVertex
 10
174.8672306757
 20
80.8047663672
 30
0.0
  0
VERTEX
  5
245
100
AcDbEntity
  8
L1
100
AcDbVertex
100
AcDb2dVertex
 10
174.8672306757
 20
80.9760586102
 30
0.0
  0
VERTEX
  5
246
100
AcDbEntity
  8
L1
100
AcDbVertex
100
AcDb2dVertex
 10
174.8672306757
 20
81.4731696732
 30
0.0
  0
VERTEX
  5
247
100
AcDbEntity
  8
L1
100
AcDbVertex
100
AcDb2dVertex
 10
174.8672306757
 20
82.247443541
 30
0.0
  0
VERTEX
  5
248
100
AcDbEntity
  8
L1
100
AcDbVertex
100
AcDb2dVertex
 10
174.8672306757
 20
83.2230961808
 30
0.0
  0
VERTEX
  5
249
100
AcDbEntity
  8
L1
100
AcDbVertex
100
AcDb2dVertex
 10
174.8672306757
 20
84.304633098
 30
0.0
  0
SEQEND
  5
24A
100
AcDbEntity
  8
L1
  0
ARC
  5
24B
100
AcDbEntity
  8
L1
100
AcDbCircle
 10
175.1672306757
 20
81.2073996589
 30
0.0
 40
0.3
100
AcDbArc
 50
90.5
 51
179.9344244782
  0
LINE
  5
24C
100
AcDbEntity
  8
L1
100
AcDbLine
 10
174.8672770671
 20
80.8047667721
 30
0.0
 11
176.8497027798
 21
80.8220671392
 31
0.0
  0
LINE
  5
24D
100
AcDbEntity
  8
L1
100
AcDbLine
 10
171.8676223178
 20
94.1785843398
 30
0.0
 11
171.8673449065
 21
94.1785867607
 31
0.0
  0
LINE
  5
24E
100
AcDbEntity
  8
L1
100
AcDbLine
 10
171.8673449065
 20
93.8236010031
 30
0.0
 11
171.8681628553
 21
93.8235938649
 31
0.0
  0
POLYLINE
  5
24F
100
AcDbEntity
  8
L1
100
AcDb2dPolyline
 66
     1
 10
0.0
 20
0.0
 30
0.0
  0
VERTEX
  5
250
100
AcDbEntity
  8
L1
100
AcDbVertex
100
AcDb2dVertex
 10
171.8673449065
 20
95.0274380775
 30
0.0
  0
VERTEX
  5
251
100
AcDbEntity
  8
L1
100
AcDbVertex
100
AcDb2dVertex
 10
171.8675392754
 20
95.0274343354
 30
0.0
  0
SEQEND
  5
252
100
AcDbEntity
  8
L1
  0
POLYLINE
  5
253
100
AcDbEntity
  8
L1
100
AcDb2dPolyline
 66
     1
 10
0.0
 20
0.0
 30
0.0
  0
VERTEX
  5
254
100
AcDbEntity
  8
L1
100
AcDbVertex
100
AcDb2dVertex
 10
171.867928505
 20
95.0274268416
 30
0.0
  0
VERTEX
  5
255
100
AcDbEntity
  8
L1
100
AcDbVertex
100
AcDb2dVertex
 10
171.8673449065
 20
95.0274380775
 30
0.0
  0
SEQEND
  5
256
100
AcDbEntity
  8
L1
  0
POLYLINE
  5
257
100
AcDbEntity
  8
L1
100
AcDb2dPolyline
 66
     1
 10
0.0
 20
0.0
 30
0.0
  0
VERTEX
  5
258
100
AcDbEntity
  8
L1
100
AcDbVertex
100
AcDb2dVertex
 10
171.8673449065
 20
95.7092848595
 30
0.0
  0
VERTEX
  5
259
100
AcDbEntity
  8
L1
100
AcDbVertex
100
AcDb2dVertex
 10
171.8697919826
 20
95.7092568035
 30
0.0
  0
SEQEND
  5
25A
100
AcDbEntity
  8
L1
  0
POLYLINE
  5
25B
100
AcDbEntity
  8
L1
100
AcDb2dPolyline
 66
     1
 10
0.0
 20
0.0
 30
0.0
  0
VERTEX
  5
25C
100
AcDbEntity
  8
L1
100
AcDbVertex
100
AcDb2dVertex
 10
171.8673449065
 20
94.1416276835
 30
0.0
  0
VERTEX
  5
25D
100
AcDbEntity
  8
L1
100
AcDbVertex
100
AcDb2dVertex
 10
171.871778682
 20
94.17697887
 30
0.0
  0
SEQEND
  5
25E
100
AcDbEntity
  8
L1
  0
POLYLINE
  5
25F
100
AcDbEntity
  8
L1
100
AcDb2dPolyline
 66
     1
 10
0.0
 20
0.0
 30
0.0
  0
VERTEX
  5
260
100
AcDbEntity
  8
L1
100
AcDbVertex
100
AcDb2dVertex
 10
171.8673543642
 20
93.9415179149
 30
0.0
  0
VERTEX
  5
261
100
AcDbEntity
  8
L1
100
AcDbVertex
100
AcDb2dVertex
 10
171.8673449065
 20
93.9415179066
 30
0.0
  0
SEQEND
  5
262
100
AcDbEntity
  8
L1
  0
ELLIPSE
  5
263
100
AcDbEntity
  8
L1
100
AcDbEllipse
 10
176.8671545218
 20
93.3226953818
 30
0.0
 11
0.0
 21
-2.0
 31
0.0
210
0.0
220
0.0
230
1.0
 40
0.9999619231
 41
-3.132866339596905
 42
-1.570796326794896
  0
LINE
  5
264
100
AcDbEntity
  8
L1
100
AcDbLine
 10
196.8673449065
 20
84.4940832812
 30
0.0
 11
196.8673449065
 21
95.3993917472
 31
0.0
  0
POLYLINE
  5
265
100
AcDbEntity
  8
L1
100
AcDb2dPolyline
 66
     1
 10
0.0
 20
0.0
 30
0.0
  0
VERTEX
  5
266
100
AcDbEntity
  8
L1
100
AcDbVertex
100
AcDb2dVertex
 10
195.8673449065
 20
81.6878227724
 30
0.0
  0
VERTEX
  5
267
100
AcDbEntity
  8
L1
100
AcDbVertex
100
AcDb2dVertex
 10
195.8673449065
 20
81.6281490792
 30
0.0
  0
VERTEX
  5
268
100
AcDbEntity
  8
L1
100
AcDbVertex
100
AcDb2dVertex
 10
195.8673449065
 20
81.483687193
 30
0.0
  0
SEQEND
  5
269
100
AcDbEntity
  8
L1
  0
POLYLINE
  5
26A
100
AcDbEntity
  8
L1
100
AcDb2dPolyline
 66
     1
 10
0.0
 20
0.0
 30
0.0
  0
VERTEX
  5
26B
100
AcDbEntity
  8
L1
100
AcDbVertex
100
AcDb2dVertex
 10
195.8586010993
 20
81.3905885734
 30
0.0
  0
VERTEX
  5
26C
100
AcDbEntity
  8
L1
100
AcDbVertex
100
AcDb2dVertex
 10
195.6879661354
 20
81.1000180289
 30
0.0
  0
VERTEX
  5
26D
100
AcDbEntity
  8
L1
100
AcDbVertex
100
AcDb2dVertex
 10
195.3717081742
 20
80.9837062315
 30
0.0
  0
SEQEND
  5
26E
100
AcDbEntity
  8
L1
  0
POLYLINE
  5
26F
100
AcDbEntity
  8
L1
100
AcDb2dPolyline
 66
     1
 10
0.0
 20
0.0
 30
0.0
  0
VERTEX
  5
270
100
AcDbEntity
  8
L1
100
AcDbVertex
100
AcDb2dVertex
 10
195.8673449065
 20
81.483687193
 30
0.0
  0
VERTEX
  5
271
100
AcDbEntity
  8
L1
100
AcDbVertex
100
AcDb2dVertex
 10
195.8586010993
 20
81.3905885734
 30
0.0
  0
SEQEND
  5
272
100
AcDbEntity
  8
L1
  0
POLYLINE
  5
273
100
AcDbEntity
  8
L1
100
AcDb2dPolyline
 66
     1
 10
0.0
 20
0.0
 30
0.0
  0
VERTEX
  5
274
100
AcDbEntity
  8
L1
100
AcDbVertex
100
AcDb2dVertex
 10
196.8673449065
 20
81.9941784736
 30
0.0
  0
VERTEX
  5
275
100
AcDbEntity
  8
L1
100
AcDbVertex
100
AcDb2dVertex
 10
196.8673449065
 20
82.0048424056
 30
0.0
  0
VERTEX
  5
276
100
AcDbEntity
  8
L1
100
AcDbVertex
100
AcDb2dVertex
 10
196.8673449065
 20
82.0367432296
 30
0.0
  0
VERTEX
  5
277
100
AcDbEntity
  8
L1
100
AcDbVertex
100
AcDb2dVertex
 10
196.8673449065
 20
82.0896088054
 30
0.0
  0
VERTEX
  5
278
100
AcDbEntity
  8
L1
100
AcDbVertex
100
AcDb2dVertex
 10
196.8673449065
 20
82.1629881462
 30
0.0
  0
VERTEX
  5
279
100
AcDbEntity
  8
L1
100
AcDbVertex
100
AcDb2dVertex
 10
196.8673449065
 20
82.256255266
 30
0.0
  0
VERTEX
  5
27A
100
AcDbEntity
  8
L1
100
AcDbVertex
100
AcDb2dVertex
 10
196.8673449065
 20
82.3686145197
 30
0.0
  0
VERTEX
  5
27B
100
AcDbEntity
  8
L1
100
AcDbVertex
100
AcDb2dVertex
 10
196.8673449065
 20
82.4991073906
 30
0.0
  0
VERTEX
  5
27C
100
AcDbEntity
  8
L1
100
AcDbVertex
100
AcDb2dVertex
 10
196.8673449065
 20
82.6466206676
 30
0.0
  0
VERTEX
  5
27D
100
AcDbEntity
  8
L1
100
AcDbVertex
100
AcDb2dVertex
 10
196.8673449065
 20
82.8098959412
 30
0.0
  0
VERTEX
  5
27E
100
AcDbEntity
  8
L1
100
AcDbVertex
100
AcDb2dVertex
 10
196.8673449065
 20
82.9875403393
 30
0.0
  0
VERTEX
  5
27F
100
AcDbEntity
  8
L1
100
AcDbVertex
100
AcDb2dVertex
 10
196.8673449065
 20
83.1780384094
 30
0.0
  0
VERTEX
  5
280
100
AcDbEntity
  8
L1
100
AcDbVertex
100
AcDb2dVertex
 10
196.8673449065
 20
83.3797650466
 30
0.0
  0
VERTEX
  5
281
100
AcDbEntity
  8
L1
100
AcDbVertex
100
AcDb2dVertex
 10
196.8673449065
 20
83.5909993572
 30
0.0
  0
VERTEX
  5
282
100
AcDbEntity
  8
L1
100
AcDbVertex
100
AcDb2dVertex
 10
196.8673449065
 20
83.8099393391
 30
0.0
  0
VERTEX
  5
283
100
AcDbEntity
  8
L1
100
AcDbVertex
100
AcDb2dVertex
 10
196.8673449065
 20
84.0347172545
 30
0.0
  0
VERTEX
  5
284
100
AcDbEntity
  8
L1
100
AcDbVertex
100
AcDb2dVertex
 10
196.8673449065
 20
84.2634155633
 30
0.0
  0
VERTEX
  5
285
100
AcDbEntity
  8
L1
100
AcDbVertex
100
AcDb2dVertex
 10
196.8673449065
 20
84.4940832812
 30
0.0
  0
SEQEND
  5
286
100
AcDbEntity
  8
L1
  0
ARC
  5
287
100
AcDbEntity
  8
L1
100
AcDbCircle
 10
196.5673449065
 20
81.9941784736
 30
0.0
 40
0.3
100
AcDbArc
 50
270.5
 51
0.0
  0
POLYLINE
  5
288
100
AcDbEntity
  8
L1
100
AcDb2dPolyline
 66
     1
 10
0.0
 20
0.0
 30
0.0
  0
VERTEX
  5
289
100
AcDbEntity
  8
L1
100
AcDbVertex
100
AcDb2dVertex
 10
195.8586010993
 20
95.4850243102
 30
0.0
  0
VERTEX
  5
28A
100
AcDbEntity
  8
L1
100
AcDbVertex
100
AcDb2dVertex
 10
195.8673449065
 20
95.4694662294
 30
0.0
  0
SEQEND
  5
28B
100
AcDbEntity
  8
L1
  0
POLYLINE
  5
28C
100
AcDbEntity
  8
L1
100
AcDb2dPolyline
 66
     1
 10
0.0
 20
0.0
 30
0.0
  0
VERTEX
  5
28D
100
AcDbEntity
  8
L1
100
AcDbVertex
100
AcDb2dVertex
 10
195.3717081742
 20
95.484258326
 30
0.0
  0
VERTEX
  5
28E
100
AcDbEntity
  8
L1
100
AcDbVertex
100
AcDb2dVertex
 10
195.6879661354
 20
95.4860359627
 30
0.0
  0
VERTEX
  5
28F
100
AcDbEntity
  8
L1
100
AcDbVertex
100
AcDb2dVertex
 10
195.8586010993
 20
95.4850243102
 30
0.0
  0
SEQEND
  5
290
100
AcDbEntity
  8
L1
  0
LINE
  5
291
100
AcDbEntity
  8
L1
100
AcDbLine
 10
196.5699628671
 20
95.6993803241
 30
0.0
 11
195.8674431305
 21
95.705511121
 31
0.0
  0
LINE
  5
292
100
AcDbEntity
  8
L1
100
AcDbLine
 10
171.8673449065
 20
97.3013756189
 30
0.0
 11
171.8681628553
 21
97.3013684808
 31
0.0
  0
ARC
  5
293
100
AcDbEntity
  8
L1
100
AcDbCircle
 10
172.1673449065
 20
97.5811933976
 30
0.0
 40
0.3
100
AcDbArc
 50
179.8623620196
 51
180.0
  0
LINE
  5
294
100
AcDbEntity
  8
L6
  6
CENTER
 62
     1
100
AcDbLine
 10
168.3262456713
 20
145.8285867607
 30
0.0
 11
198.7742552178
 21
145.8285867607
 31
0.0
  0
LINE
  5
295
100
AcDbEntity
  8
L1
100
AcDbLine
 10
126.9497579069
 20
211.0533689409
 30
0.0
 11
25.1806017792
 21
211.0533689409
 31
0.0
  0
LINE
  5
296
100
AcDbEntity
  8
L1
100
AcDbLine
 10
137.0698726621
 20
211.2532975906
 30
0.0
 11
13.9799877657
 21
211.2532975906
 31
0.0
  0
LINE
  5
297
100
AcDbEntity
  8
L6
  6
CENTER
 62
     1
100
AcDbLine
 10
18.7749302139
 20
196.5727640714
 30
0.0
 11
18.7749302139
 21
208.6670438877
 31
0.0
  0
LINE
  5
298
100
AcDbEntity
  8
L6
  6
CENTER
 62
     1
100
AcDbLine
 10
13.2346898303
 20
202.9584884117
 30
0.0
 11
23.7749302139
 21
202.9584884117
 31
0.0
  0
LINE
  5
299
100
AcDbEntity
  8
L6
  6
CENTER
 62
     1
100
AcDbLine
 10
132.2749302139
 20
196.6572880329
 30
0.0
 11
132.2749302139
 21
208.7515671611
 31
0.0
  0
LINE
  5
29A
100
AcDbEntity
  8
L6
  6
CENTER
 62
     1
100
AcDbLine
 10
137.9039367498
 20
202.9584884117
 30
0.0
 11
126.1312923725
 21
202.9584884117
 31
0.0
  0
POLYLINE
  5
29B
100
AcDbEntity
  8
L1
100
AcDb2dPolyline
 66
     1
 10
0.0
 20
0.0
 30
0.0
  0
VERTEX
  5
29C
100
AcDbEntity
  8
L1
100
AcDbVertex
100
AcDb2dVertex
 10
196.8673449065
 20
207.1630902403
 30
0.0
  0
VERTEX
  5
29D
100
AcDbEntity
  8
L1
100
AcDbVertex
100
AcDb2dVertex
 10
196.8673449065
 20
207.3937579582
 30
0.0
  0
VERTEX
  5
29E
100
AcDbEntity
  8
L1
100
AcDbVertex
100
AcDb2dVertex
 10
196.8673449065
 20
207.622456267
 30
0.0
  0
VERTEX
  5
29F
100
AcDbEntity
  8
L1
100
AcDbVertex
100
AcDb2dVertex
 10
196.8673449065
 20
207.8472341824
 30
0.0
  0
VERTEX
  5
2A0
100
AcDbEntity
  8
L1
100
AcDbVertex
100
AcDb2dVertex
 10
196.8673449065
 20
208.0661741643
 30
0.0
  0
VERTEX
  5
2A1
100
AcDbEntity
  8
L1
100
AcDbVertex
100
AcDb2dVertex
 10
196.8673449065
 20
208.2774084748
 30
0.0
  0
VERTEX
  5
2A2
100
AcDbEntity
  8
L1
100
AcDbVertex
100
AcDb2dVertex
 10
196.8673449065
 20
208.4791351121
 30
0.0
  0
VERTEX
  5
2A3
100
AcDbEntity
  8
L1
100
AcDbVertex
100
AcDb2dVertex
 10
196.8673449065
 20
208.6696331822
 30
0.0
  0
VERTEX
  5
2A4
100
AcDbEntity
  8
L1
100
AcDbVertex
100
AcDb2dVertex
 10
196.8673449065
 20
208.8472775803
 30
0.0
  0
VERTEX
  5
2A5
100
AcDbEntity
  8
L1
100
AcDbVertex
100
AcDb2dVertex
 10
196.8673449065
 20
209.0105528539
 30
0.0
  0
VERTEX
  5
2A6
100
AcDbEntity
  8
L1
100
AcDbVertex
100
AcDb2dVertex
 10
196.8673449065
 20
209.1580661309
 30
0.0
  0
VERTEX
  5
2A7
100
AcDbEntity
  8
L1
100
AcDbVertex
100
AcDb2dVertex
 10
196.8673449065
 20
209.2885590018
 30
0.0
  0
VERTEX
  5
2A8
100
AcDbEntity
  8
L1
100
AcDbVertex
100
AcDb2dVertex
 10
196.8673449065
 20
209.4009182555
 30
0.0
  0
VERTEX
  5
2A9
100
AcDbEntity
  8
L1
100
AcDbVertex
100
AcDb2dVertex
 10
196.8673449065
 20
209.4941853753
 30
0.0
  0
VERTEX
  5
2AA
100
AcDbEntity
  8
L1
100
AcDbVertex
100
AcDb2dVertex
 10
196.8673449065
 20
209.5675647161
 30
0.0
  0
VERTEX
  5
2AB
100
AcDbEntity
  8
L1
100
AcDbVertex
100
AcDb2dVertex
 10
196.8673449065
 20
209.6204302919
 30
0.0
  0
VERTEX
  5
2AC
100
AcDbEntity
  8
L1
100
AcDbVertex
100
AcDb2dVertex
 10
196.8673449065
 20
209.6523311159
 30
0.0
  0
VERTEX
  5
2AD
100
AcDbEntity
  8
L1
100
AcDbVertex
100
AcDb2dVertex
 10
196.8673449065
 20
209.6629950479
 30
0.0
  0
SEQEND
  5
2AE
100
AcDbEntity
  8
L1
  0
LINE
  5
2AF
100
AcDbEntity
  8
L1
100
AcDbLine
 10
171.8673449065
 20
207.3785867607
 30
0.0
 11
171.8673449065
 21
210.2785867607
 31
0.0
  0
POLYLINE
  5
2B0
100
AcDbEntity
  8
L1
100
AcDb2dPolyline
 66
     1
 10
0.0
 20
0.0
 30
0.0
  0
VERTEX
  5
2B1
100
AcDbEntity
  8
L1
100
AcDbVertex
100
AcDb2dVertex
 10
172.4621504631
 20
210.8733923174
 30
0.0
  0
VERTEX
  5
2B2
100
AcDbEntity
  8
L1
100
AcDbVertex
100
AcDb2dVertex
 10
172.4612868727
 20
210.8073675741
 30
0.0
  0
VERTEX
  5
2B3
100
AcDbEntity
  8
L1
100
AcDbVertex
100
AcDb2dVertex
 10
172.4606326231
 20
210.6060408351
 30
0.0
  0
VERTEX
  5
2B4
100
AcDbEntity
  8
L1
100
AcDbVertex
100
AcDb2dVertex
 10
172.4602357066
 20
210.2773125847
 30
0.0
  0
VERTEX
  5
2B5
100
AcDbEntity
  8
L1
100
AcDbVertex
100
AcDb2dVertex
 10
172.4601073028
 20
209.8483427363
 30
0.0
  0
VERTEX
  5
2B6
100
AcDbEntity
  8
L1
100
AcDbVertex
100
AcDb2dVertex
 10
172.4602357066
 20
209.3273491216
 30
0.0
  0
VERTEX
  5
2B7
100
AcDbEntity
  8
L1
100
AcDbVertex
100
AcDb2dVertex
 10
172.4606326231
 20
208.7152240598
 30
0.0
  0
VERTEX
  5
2B8
100
AcDbEntity
  8
L1
100
AcDbVertex
100
AcDb2dVertex
 10
172.4612868727
 20
208.0502210345
 30
0.0
  0
VERTEX
  5
2B9
100
AcDbEntity
  8
L1
100
AcDbVertex
100
AcDb2dVertex
 10
172.4621504631
 20
207.3785867607
 30
0.0
  0
SEQEND
  5
2BA
100
AcDbEntity
  8
L1
  0
POLYLINE
  5
2BB
100
AcDbEntity
  8
L1
100
AcDb2dPolyline
 66
     1
 10
0.0
 20
0.0
 30
0.0
  0
VERTEX
  5
2BC
100
AcDbEntity
  8
L1
100
AcDbVertex
100
AcDb2dVertex
 10
174.8672306757
 20
207.3525404235
 30
0.0
  0
VERTEX
  5
2BD
100
AcDbEntity
  8
L1
100
AcDbVertex
100
AcDb2dVertex
 10
174.8672306757
 20
208.4340773407
 30
0.0
  0
VERTEX
  5
2BE
100
AcDbEntity
  8
L1
100
AcDbVertex
100
AcDb2dVertex
 10
174.8672306757
 20
209.4097299805
 30
0.0
  0
VERTEX
  5
2BF
100
AcDbEntity
  8
L1
100
AcDbVertex
100
AcDb2dVertex
 10
174.8672306757
 20
210.1840038483
 30
0.0
  0
VERTEX
  5
2C0
100
AcDbEntity
  8
L1
100
AcDbVertex
100
AcDb2dVertex
 10
174.8672306757
 20
210.6811149113
 30
0.0
  0
VERTEX
  5
2C1
100
AcDbEntity
  8
L1
100
AcDbVertex
100
AcDb2dVertex
 10
174.8672306757
 20
210.8524071543
 30
0.0
  0
SEQEND
  5
2C2
100
AcDbEntity
  8
L1
  0
LINE
  5
2C3
100
AcDbEntity
  8
L1
100
AcDbLine
 10
195.3717081742
 20
196.1729151955
 30
0.0
 11
176.8497027798
 21
196.3345542878
 31
0.0
  0
LINE
  5
2C4
100
AcDbEntity
  8
L1
100
AcDbLine
 10
174.8672306757
 20
198.3344781397
 30
0.0
 11
174.8672306757
 21
207.3525404235
 31
0.0
  0
LINE
  5
2C5
100
AcDbEntity
  8
L1
100
AcDbLine
 10
171.8673449065
 20
197.4785867607
 30
0.0
 11
171.8676349681
 21
197.4785892921
 31
0.0
  0
LINE
  5
2C6
100
AcDbEntity
  8
L1
100
AcDbLine
 10
171.8681628553
 20
197.8335796566
 30
0.0
 11
171.8673449065
 21
197.8335725184
 31
0.0
  0
LINE
  5
2C7
100
AcDbEntity
  8
L1
100
AcDbLine
 10
171.8673449065
 20
194.3557979026
 30
0.0
 11
171.8681628553
 21
194.3558050407
 31
0.0
  0
ARC
  5
2C8
100
AcDbEntity
  8
L1
100
AcDbCircle
 10
172.1673449065
 20
194.0759801239
 30
0.0
 40
0.3
100
AcDbArc
 50
180.0
 51
180.0944687363
  0
POLYLINE
  5
2C9
100
AcDbEntity
  8
L1
100
AcDb2dPolyline
 66
     1
 10
0.0
 20
0.0
 30
0.0
  0
VERTEX
  5
2CA
100
AcDbEntity
  8
L1
100
AcDbVertex
100
AcDb2dVertex
 10
171.8675392754
 20
196.6297391861
 30
0.0
  0
VERTEX
  5
2CB
100
AcDbEntity
  8
L1
100
AcDbVertex
100
AcDb2dVertex
 10
171.8673449065
 20
196.629735444
 30
0.0
  0
SEQEND
  5
2CC
100
AcDbEntity
  8
L1
  0
POLYLINE
  5
2CD
100
AcDbEntity
  8
L1
100
AcDb2dPolyline
 66
     1
 10
0.0
 20
0.0
 30
0.0
  0
VERTEX
  5
2CE
100
AcDbEntity
  8
L1
100
AcDbVertex
100
AcDb2dVertex
 10
171.8673449065
 20
196.629735444
 30
0.0
  0
VERTEX
  5
2CF
100
AcDbEntity
  8
L1
100
AcDbVertex
100
AcDb2dVertex
 10
171.8679371493
 20
196.6297468463
 30
0.0
  0
SEQEND
  5
2D0
100
AcDbEntity
  8
L1
  0
POLYLINE
  5
2D1
100
AcDbEntity
  8
L1
100
AcDb2dPolyline
 66
     1
 10
0.0
 20
0.0
 30
0.0
  0
VERTEX
  5
2D2
100
AcDbEntity
  8
L1
100
AcDbVertex
100
AcDb2dVertex
 10
171.8673449065
 20
197.515545838
 30
0.0
  0
VERTEX
  5
2D3
100
AcDbEntity
  8
L1
100
AcDbVertex
100
AcDb2dVertex
 10
171.8869530748
 20
197.4392182091
 30
0.0
  0
SEQEND
  5
2D4
100
AcDbEntity
  8
L1
  0
POLYLINE
  5
2D5
100
AcDbEntity
  8
L1
100
AcDb2dPolyline
 66
     1
 10
0.0
 20
0.0
 30
0.0
  0
VERTEX
  5
2D6
100
AcDbEntity
  8
L1
100
AcDbVertex
100
AcDb2dVertex
 10
171.8876556745
 20
195.6703669619
 30
0.0
  0
VERTEX
  5
2D7
100
AcDbEntity
  8
L1
100
AcDbVertex
100
AcDb2dVertex
 10
171.8673449065
 20
195.747778885
 30
0.0
  0
SEQEND
  5
2D8
100
AcDbEntity
  8
L1
  0
POLYLINE
  5
2D9
100
AcDbEntity
  8
L1
100
AcDb2dPolyline
 66
     1
 10
0.0
 20
0.0
 30
0.0
  0
VERTEX
  5
2DA
100
AcDbEntity
  8
L1
100
AcDbVertex
100
AcDb2dVertex
 10
171.8673449065
 20
195.947888662
 30
0.0
  0
VERTEX
  5
2DB
100
AcDbEntity
  8
L1
100
AcDbVertex
100
AcDb2dVertex
 10
171.8875551744
 20
195.9481203761
 30
0.0
  0
SEQEND
  5
2DC
100
AcDbEntity
  8
L1
  0
ELLIPSE
  5
2DD
100
AcDbEntity
  8
L1
100
AcDbEllipse
 10
176.8671545218
 20
198.3344781397
 30
0.0
 11
0.0
 21
-2.0
 31
0.0
210
0.0
220
0.0
230
1.0
 40
0.9999619231
 41
-1.570796326794896
 42
-0.0087263139928879
  0
LINE
  5
2DE
100
AcDbEntity
  8
L1
100
AcDbLine
 10
171.8673449065
 20
207.4557979026
 30
0.0
 11
171.8674715026
 21
207.4557990074
 31
0.0
  0
POLYLINE
  5
2DF
100
AcDbEntity
  8
L1
100
AcDb2dPolyline
 66
     1
 10
0.0
 20
0.0
 30
0.0
  0
VERTEX
  5
2E0
100
AcDbEntity
  8
L1
100
AcDbVertex
100
AcDb2dVertex
 10
172.4621504631
 20
207.3785867607
 30
0.0
  0
VERTEX
  5
2E1
100
AcDbEntity
  8
L1
100
AcDbVertex
100
AcDb2dVertex
 10
172.4621531798
 20
207.3760579777
 30
0.0
  0
VERTEX
  5
2E2
100
AcDbEntity
  8
L1
100
AcDbVertex
100
AcDb2dVertex
 10
172.4621540854
 20
207.373529209
 30
0.0
  0
SEQEND
  5
2E3
100
AcDbEntity
  8
L1
  0
ARC
  5
2E4
100
AcDbEntity
  8
L1
100
AcDbCircle
 10
172.1673449065
 20
206.9759801239
 30
0.0
 40
0.3
100
AcDbArc
 50
180.0
 51
180.7048810222
  0
LINE
  5
2E5
100
AcDbEntity
  8
L1
100
AcDbLine
 10
196.8673449065
 20
196.2577817743
 30
0.0
 11
196.8673449065
 21
207.1630902403
 31
0.0
  0
LINE
  5
2E6
100
AcDbEntity
  8
L1
100
AcDbLine
 10
195.8674431305
 20
195.9516624005
 30
0.0
 11
196.5699628671
 21
195.9577931974
 31
0.0
  0
ARC
  5
2E7
100
AcDbEntity
  8
L1
100
AcDbCircle
 10
196.5673449065
 20
196.2577817743
 30
0.0
 40
0.3
100
AcDbArc
 50
270.5
 51
0.0
  0
POLYLINE
  5
2E8
100
AcDbEntity
  8
L1
100
AcDb2dPolyline
 66
     1
 10
0.0
 20
0.0
 30
0.0
  0
VERTEX
  5
2E9
100
AcDbEntity
  8
L1
100
AcDbVertex
100
AcDb2dVertex
 10
195.8586010993
 20
196.1721492113
 30
0.0
  0
VERTEX
  5
2EA
100
AcDbEntity
  8
L1
100
AcDbVertex
100
AcDb2dVertex
 10
195.6879661354
 20
196.1711375588
 30
0.0
  0
VERTEX
  5
2EB
100
AcDbEntity
  8
L1
100
AcDbVertex
100
AcDb2dVertex
 10
195.3717081742
 20
196.1729151955
 30
0.0
  0
SEQEND
  5
2EC
100
AcDbEntity
  8
L1
  0
POLYLINE
  5
2ED
100
AcDbEntity
  8
L1
100
AcDb2dPolyline
 66
     1
 10
0.0
 20
0.0
 30
0.0
  0
VERTEX
  5
2EE
100
AcDbEntity
  8
L1
100
AcDbVertex
100
AcDb2dVertex
 10
195.8673449065
 20
196.1877072921
 30
0.0
  0
VERTEX
  5
2EF
100
AcDbEntity
  8
L1
100
AcDbVertex
100
AcDb2dVertex
 10
195.8586010993
 20
196.1721492113
 30
0.0
  0
SEQEND
  5
2F0
100
AcDbEntity
  8
L1
  0
LINE
  5
2F1
100
AcDbEntity
  8
L1
100
AcDbLine
 10
196.5699628671
 20
209.9629836248
 30
0.0
 11
175.164612715
 21
210.1497852856
 31
0.0
  0
LINE
  5
2F2
100
AcDbEntity
  8
L1
100
AcDbLine
 10
176.8497027798
 20
210.8351063823
 30
0.0
 11
195.3717081742
 21
210.67346729
 31
0.0
  0
LINE
  5
2F3
100
AcDbEntity
  8
L1
100
AcDbLine
 10
174.8672306757
 20
210.8524071543
 30
0.0
 11
172.4621540854
 21
210.8733959397
 31
0.0
  0
POLYLINE
  5
2F4
100
AcDbEntity
  8
L1
100
AcDb2dPolyline
 66
     1
 10
0.0
 20
0.0
 30
0.0
  0
VERTEX
  5
2F5
100
AcDbEntity
  8
L1
100
AcDbVertex
100
AcDb2dVertex
 10
172.4621540854
 20
210.8733959397
 30
0.0
  0
VERTEX
  5
2F6
100
AcDbEntity
  8
L1
100
AcDbVertex
100
AcDb2dVertex
 10
172.4621531798
 20
210.8733950341
 30
0.0
  0
VERTEX
  5
2F7
100
AcDbEntity
  8
L1
100
AcDbVertex
100
AcDb2dVertex
 10
172.4621504631
 20
210.8733923174
 30
0.0
  0
SEQEND
  5
2F8
100
AcDbEntity
  8
L1
  0
LINE
  5
2F9
100
AcDbEntity
  8
L1
100
AcDbLine
 10
171.8673449065
 20
210.2785867607
 30
0.0
 11
172.4621504631
 21
210.8733923174
 31
0.0
  0
ARC
  5
2FA
100
AcDbEntity
  8
L1
100
AcDbCircle
 10
175.1672306757
 20
210.4497738626
 30
0.0
 40
0.3
100
AcDbArc
 50
180.0
 51
269.5
  0
LINE
  5
2FB
100
AcDbEntity
  8
L1
100
AcDbLine
 10
176.8497027798
 20
210.8351063823
 30
0.0
 11
174.8672306757
 21
210.8524071543
 31
0.0
  0
ARC
  5
2FC
100
AcDbEntity
  8
L1
100
AcDbCircle
 10
196.5673449065
 20
209.6629950479
 30
0.0
 40
0.3
100
AcDbArc
 50
0.0
 51
89.5
  0
POLYLINE
  5
2FD
100
AcDbEntity
  8
L1
100
AcDb2dPolyline
 66
     1
 10
0.0
 20
0.0
 30
0.0
  0
VERTEX
  5
2FE
100
AcDbEntity
  8
L1
100
AcDbVertex
100
AcDb2dVertex
 10
195.8586010993
 20
210.2665849481
 30
0.0
  0
VERTEX
  5
2FF
100
AcDbEntity
  8
L1
100
AcDbVertex
100
AcDb2dVertex
 10
195.8673449065
 20
210.1734863285
 30
0.0
  0
SEQEND
  5
300
100
AcDbEntity
  8
L1
  0
POLYLINE
  5
301
100
AcDbEntity
  8
L1
100
AcDb2dPolyline
 66
     1
 10
0.0
 20
0.0
 30
0.0
  0
VERTEX
  5
302
100
AcDbEntity
  8
L1
100
AcDbVertex
100
AcDb2dVertex
 10
195.3717081742
 20
210.67346729
 30
0.0
  0
VERTEX
  5
303
100
AcDbEntity
  8
L1
100
AcDbVertex
100
AcDb2dVertex
 10
195.6879661354
 20
210.5571554926
 30
0.0
  0
VERTEX
  5
304
100
AcDbEntity
  8
L1
100
AcDbVertex
100
AcDb2dVertex
 10
195.8586010993
 20
210.2665849481
 30
0.0
  0
SEQEND
  5
305
100
AcDbEntity
  8
L1
  0
POLYLINE
  5
306
100
AcDbEntity
  8
L1
100
AcDb2dPolyline
 66
     1
 10
0.0
 20
0.0
 30
0.0
  0
VERTEX
  5
307
100
AcDbEntity
  8
L1
100
AcDbVertex
100
AcDb2dVertex
 10
195.8673449065
 20
209.9691151926
 30
0.0
  0
VERTEX
  5
308
100
AcDbEntity
  8
L1
100
AcDbVertex
100
AcDb2dVertex
 10
195.8673449065
 20
209.9690601877
 30
0.0
  0
VERTEX
  5
309
100
AcDbEntity
  8
L1
100
AcDbVertex
100
AcDb2dVertex
 10
195.8673449065
 20
209.9689035675
 30
0.0
  0
SEQEND
  5
30A
100
AcDbEntity
  8
L1
  0
POLYLINE
  5
30B
100
AcDbEntity
  8
L1
100
AcDb2dPolyline
 66
     1
 10
0.0
 20
0.0
 30
0.0
  0
VERTEX
  5
30C
100
AcDbEntity
  8
L1
100
AcDbVertex
100
AcDb2dVertex
 10
195.8673449065
 20
210.1734863285
 30
0.0
  0
VERTEX
  5
30D
100
AcDbEntity
  8
L1
100
AcDbVertex
100
AcDb2dVertex
 10
195.8673449065
 20
210.0255080876
 30
0.0
  0
VERTEX
  5
30E
100
AcDbEntity
  8
L1
100
AcDbVertex
100
AcDb2dVertex
 10
195.8673449065
 20
209.9691152789
 30
0.0
  0
SEQEND
  5
30F
100
AcDbEntity
  8
L1
  0
LINE
  5
310
100
AcDbEntity
  8
L6
100
AcDbLine
 10
287.0127676204
 20
75.526180582
 30
0.0
 11
287.0127676204
 21
214.4045591415
 31
0.0
  0
LINE
  5
311
100
AcDbEntity
  8
L1
100
AcDbLine
 10
337.4419626339
 20
53.9208958272
 30
0.0
 11
348.3472710999
 21
53.9208958272
 31
0.0
  0
ELLIPSE
  5
312
100
AcDbEntity
  8
L1
100
AcDbEllipse
 10
339.5186589993
 20
33.9207054425
 30
0.0
 11
-2.0
 21
0.0
 31
0.0
210
0.0
220
0.0
230
-1.0
 40
0.9999619231
 41
-1.570796326794896
 42
-0.008726313992888
  0
LINE
  5
313
100
AcDbEntity
  8
L1
100
AcDbLine
 10
348.5577100686
 20
29.5157050061
 30
0.0
 11
225.4678251721
 21
29.5157050061
 31
0.0
  0
LINE
  5
314
100
AcDbEntity
  8
L1
100
AcDbLine
 10
225.4627676204
 20
28.9208958272
 30
0.0
 11
348.5627676204
 21
28.9208958272
 31
0.0
  0
LINE
  5
315
100
AcDbEntity
  8
L1
100
AcDbLine
 10
337.357096055
 20
52.4252590949
 30
0.0
 11
337.5187351473
 21
33.9032537005
 31
0.0
  0
LINE
  5
316
100
AcDbEntity
  8
L6
  6
CENTER
 62
     1
100
AcDbLine
 10
287.0127676204
 20
59.7790953433
 30
0.0
 11
287.0127676204
 21
18.1250411603
 31
0.0
  0
LINE
  5
317
100
AcDbEntity
  8
L1
100
AcDbLine
 10
236.5068000934
 20
33.9032537005
 30
0.0
 11
236.6684391856
 21
52.4252590949
 31
0.0
  0
LINE
  5
318
100
AcDbEntity
  8
L1
100
AcDbLine
 10
222.6915690955
 20
32.2181636357
 30
0.0
 11
222.8783707563
 21
53.6235137878
 31
0.0
  0
LINE
  5
319
100
AcDbEntity
  8
L1
100
AcDbLine
 10
222.1678870911
 20
52.4252590949
 30
0.0
 11
222.0062479988
 21
33.9032537005
 31
0.0
  0
LINE
  5
31A
100
AcDbEntity
  8
L1
100
AcDbLine
 10
221.9679584414
 20
29.5157050061
 30
0.0
 11
221.9889472269
 21
31.9207815964
 31
0.0
  0
LINE
  5
31B
100
AcDbEntity
  8
L1
100
AcDbLine
 10
225.3855564785
 20
28.9208958272
 30
0.0
 11
225.3855554664
 21
28.9210118031
 31
0.0
  0
POLYLINE
  5
31C
100
AcDbEntity
  8
L1
100
AcDb2dPolyline
 66
     1
 10
0.0
 20
0.0
 30
0.0
  0
VERTEX
  5
31D
100
AcDbEntity
  8
L1
100
AcDbVertex
100
AcDb2dVertex
 10
225.4678251721
 20
29.5157050061
 30
0.0
  0
VERTEX
  5
31E
100
AcDbEntity
  8
L1
100
AcDbVertex
100
AcDb2dVertex
 10
225.4652964034
 20
29.5157041005
 30
0.0
  0
VERTEX
  5
31F
100
AcDbEntity
  8
L1
100
AcDbVertex
100
AcDb2dVertex
 10
225.4627676204
 20
29.5157013838
 30
0.0
  0
SEQEND
  5
320
100
AcDbEntity
  8
L1
  0
ARC
  5
321
100
AcDbEntity
  8
L1
100
AcDbCircle
 10
225.8653742572
 20
29.2208958272
 30
0.0
 40
0.3
100
AcDbArc
 50
270.0
 51
270.7454932043
  0
POLYLINE
  5
322
100
AcDbEntity
  8
L1
100
AcDb2dPolyline
 66
     1
 10
0.0
 20
0.0
 30
0.0
  0
VERTEX
  5
323
100
AcDbEntity
  8
L1
100
AcDbVertex
100
AcDb2dVertex
 10
221.9679620637
 20
29.5157013838
 30
0.0
  0
VERTEX
  5
324
100
AcDbEntity
  8
L1
100
AcDbVertex
100
AcDb2dVertex
 10
221.967959347
 20
29.5157041005
 30
0.0
  0
VERTEX
  5
325
100
AcDbEntity
  8
L1
100
AcDbVertex
100
AcDb2dVertex
 10
221.9679584414
 20
29.5157050061
 30
0.0
  0
SEQEND
  5
326
100
AcDbEntity
  8
L1
  0
LINE
  5
327
100
AcDbEntity
  8
L1
100
AcDbLine
 10
222.5627676204
 20
28.9208958272
 30
0.0
 11
221.9679620637
 21
29.5157013838
 31
0.0
  0
LINE
  5
328
100
AcDbEntity
  8
L1
100
AcDbLine
 10
222.5627676204
 20
28.9208958272
 30
0.0
 11
225.4627676204
 21
28.9208958272
 31
0.0
  0
POLYLINE
  5
329
100
AcDbEntity
  8
L1
100
AcDb2dPolyline
 66
     1
 10
0.0
 20
0.0
 30
0.0
  0
VERTEX
  5
32A
100
AcDbEntity
  8
L1
100
AcDbVertex
100
AcDb2dVertex
 10
225.4627676204
 20
29.5157013838
 30
0.0
  0
VERTEX
  5
32B
100
AcDbEntity
  8
L1
100
AcDbVertex
100
AcDb2dVertex
 10
224.7911333466
 20
29.5148377934
 30
0.0
  0
VERTEX
  5
32C
100
AcDbEntity
  8
L1
100
AcDbVertex
100
AcDb2dVertex
 10
224.4547223113
 20
29.5144806787
 30
0.0
  0
VERTEX
  5
32D
100
AcDbEntity
  8
L1
100
AcDbVertex
100
AcDb2dVertex
 10
224.1261303213
 20
29.5141835438
 30
0.0
  0
VERTEX
  5
32E
100
AcDbEntity
  8
L1
100
AcDbVertex
100
AcDb2dVertex
 10
223.8109205688
 20
29.5139514872
 30
0.0
  0
VERTEX
  5
32F
100
AcDbEntity
  8
L1
100
AcDbVertex
100
AcDb2dVertex
 10
223.5140052596
 20
29.5137866273
 30
0.0
  0
VERTEX
  5
330
100
AcDbEntity
  8
L1
100
AcDbVertex
100
AcDb2dVertex
 10
222.9930116448
 20
29.5136582235
 30
0.0
  0
VERTEX
  5
331
100
AcDbEntity
  8
L1
100
AcDbVertex
100
AcDb2dVertex
 10
222.5640417964
 20
29.5137866273
 30
0.0
  0
VERTEX
  5
332
100
AcDbEntity
  8
L1
100
AcDbVertex
100
AcDb2dVertex
 10
222.3850351412
 20
29.5139514872
 30
0.0
  0
VERTEX
  5
333
100
AcDbEntity
  8
L1
100
AcDbVertex
100
AcDb2dVertex
 10
222.235313546
 20
29.5141835438
 30
0.0
  0
VERTEX
  5
334
100
AcDbEntity
  8
L1
100
AcDbVertex
100
AcDb2dVertex
 10
222.117834469
 20
29.5144806787
 30
0.0
  0
VERTEX
  5
335
100
AcDbEntity
  8
L1
100
AcDbVertex
100
AcDb2dVertex
 10
222.033986807
 20
29.5148377934
 30
0.0
  0
VERTEX
  5
336
100
AcDbEntity
  8
L1
100
AcDbVertex
100
AcDb2dVertex
 10
221.9679620637
 20
29.5157013838
 30
0.0
  0
SEQEND
  5
337
100
AcDbEntity
  8
L1
  0
LINE
  5
338
100
AcDbEntity
  8
L1
100
AcDbLine
 10
238.4855564785
 20
28.9208958272
 30
0.0
 11
238.4855493423
 21
28.9217135611
 31
0.0
  0
ARC
  5
339
100
AcDbEntity
  8
L1
100
AcDbCircle
 10
238.7653742572
 20
29.2208958272
 30
0.0
 40
0.3
100
AcDbArc
 50
270.0
 51
270.1359346416
  0
POLYLINE
  5
33A
100
AcDbEntity
  8
L1
100
AcDb2dPolyline
 66
     1
 10
0.0
 20
0.0
 30
0.0
  0
VERTEX
  5
33B
100
AcDbEntity
  8
L1
100
AcDbVertex
100
AcDb2dVertex
 10
236.2116189371
 20
28.9208958272
 30
0.0
  0
VERTEX
  5
33C
100
AcDbEntity
  8
L1
100
AcDbVertex
100
AcDb2dVertex
 10
236.2116151959
 20
28.9210901451
 30
0.0
  0
SEQEND
  5
33D
100
AcDbEntity
  8
L1
  0
POLYLINE
  5
33E
100
AcDbEntity
  8
L1
100
AcDb2dPolyline
 66
     1
 10
0.0
 20
0.0
 30
0.0
  0
VERTEX
  5
33F
100
AcDbEntity
  8
L1
100
AcDbVertex
100
AcDb2dVertex
 10
236.2116076956
 20
28.9214797163
 30
0.0
  0
VERTEX
  5
340
100
AcDbEntity
  8
L1
100
AcDbVertex
100
AcDb2dVertex
 10
236.2116189371
 20
28.9208958272
 30
0.0
  0
SEQEND
  5
341
100
AcDbEntity
  8
L1
  0
POLYLINE
  5
342
100
AcDbEntity
  8
L1
100
AcDb2dPolyline
 66
     1
 10
0.0
 20
0.0
 30
0.0
  0
VERTEX
  5
343
100
AcDbEntity
  8
L1
100
AcDbVertex
100
AcDb2dVertex
 10
237.0935754961
 20
28.9208958272
 30
0.0
  0
VERTEX
  5
344
100
AcDbEntity
  8
L1
100
AcDbVertex
100
AcDb2dVertex
 10
237.1709925566
 20
28.9412093484
 30
0.0
  0
SEQEND
  5
345
100
AcDbEntity
  8
L1
  0
POLYLINE
  5
346
100
AcDbEntity
  8
L1
100
AcDb2dPolyline
 66
     1
 10
0.0
 20
0.0
 30
0.0
  0
VERTEX
  5
347
100
AcDbEntity
  8
L1
100
AcDbVertex
100
AcDb2dVertex
 10
236.8932339812
 20
28.9411081753
 30
0.0
  0
VERTEX
  5
348
100
AcDbEntity
  8
L1
100
AcDbVertex
100
AcDb2dVertex
 10
236.8934657191
 20
28.9208958272
 30
0.0
  0
SEQEND
  5
349
100
AcDbEntity
  8
L1
  0
LINE
  5
34A
100
AcDbEntity
  8
L1
100
AcDbLine
 10
235.3627651957
 20
28.9211736647
 30
0.0
 11
235.3627676204
 21
28.9208958272
 31
0.0
  0
LINE
  5
34B
100
AcDbEntity
  8
L1
100
AcDbLine
 10
235.0077818627
 20
28.9208958272
 30
0.0
 11
235.0077747264
 21
28.9217135611
 31
0.0
  0
POLYLINE
  5
34C
100
AcDbEntity
  8
L1
100
AcDb2dPolyline
 66
     1
 10
0.0
 20
0.0
 30
0.0
  0
VERTEX
  5
34D
100
AcDbEntity
  8
L1
100
AcDbVertex
100
AcDb2dVertex
 10
235.4021342708
 20
28.9405030063
 30
0.0
  0
VERTEX
  5
34E
100
AcDbEntity
  8
L1
100
AcDbVertex
100
AcDb2dVertex
 10
235.3258085431
 20
28.9208958272
 30
0.0
  0
SEQEND
  5
34F
100
AcDbEntity
  8
L1
  0
LINE
  5
350
100
AcDbEntity
  8
L1
100
AcDbLine
 10
225.4888139576
 20
31.9207815964
 30
0.0
 11
234.5068762414
 21
31.9207815964
 31
0.0
  0
ARC
  5
351
100
AcDbEntity
  8
L1
100
AcDbCircle
 10
222.3915805185
 20
32.2207815964
 30
0.0
 40
0.3
100
AcDbArc
 50
270.0616524831
 51
359.5
  0
LINE
  5
352
100
AcDbEntity
  8
L1
100
AcDbLine
 10
221.9889476314
 20
31.9208279483
 30
0.0
 11
222.0062479988
 21
33.9032537005
 31
0.0
  0
POLYLINE
  5
353
100
AcDbEntity
  8
L1
100
AcDb2dPolyline
 66
     1
 10
0.0
 20
0.0
 30
0.0
  0
VERTEX
  5
354
100
AcDbEntity
  8
L1
100
AcDbVertex
100
AcDb2dVertex
 10
221.9889472269
 20
31.9207815964
 30
0.0
  0
VERTEX
  5
355
100
AcDbEntity
  8
L1
100
AcDbVertex
100
AcDb2dVertex
 10
222.0766944028
 20
31.9207815964
 30
0.0
  0
VERTEX
  5
356
100
AcDbEntity
  8
L1
100
AcDbVertex
100
AcDb2dVertex
 10
222.3355363457
 20
31.9207815964
 30
0.0
  0
VERTEX
  5
357
100
AcDbEntity
  8
L1
100
AcDbVertex
100
AcDb2dVertex
 10
222.7524948928
 20
31.9207815964
 30
0.0
  0
VERTEX
  5
358
100
AcDbEntity
  8
L1
100
AcDbVertex
100
AcDb2dVertex
 10
223.3066640203
 20
31.9207815964
 30
0.0
  0
VERTEX
  5
359
100
AcDbEntity
  8
L1
100
AcDbVertex
100
AcDb2dVertex
 10
223.970258057
 20
31.9207815964
 30
0.0
  0
VERTEX
  5
35A
100
AcDbEntity
  8
L1
100
AcDbVertex
100
AcDb2dVertex
 10
224.7100048398
 20
31.9207815964
 30
0.0
  0
VERTEX
  5
35B
100
AcDbEntity
  8
L1
100
AcDbVertex
100
AcDb2dVertex
 10
225.4888139576
 20
31.9207815964
 30
0.0
  0
SEQEND
  5
35C
100
AcDbEntity
  8
L1
  0
ELLIPSE
  5
35D
100
AcDbEntity
  8
L1
100
AcDbEllipse
 10
234.5068762414
 20
33.9207054425
 30
0.0
 11
-1.999999999999999
 21
0.0
 31
0.0
210
0.0
220
0.0
230
-1.0
 40
0.9999619231
 41
-3.132866339596905
 42
-1.570796326794896
  0
LINE
  5
35E
100
AcDbEntity
  8
L1
100
AcDbLine
 10
338.6627676204
 20
28.9208958272
 30
0.0
 11
338.662770148
 21
28.921185464
 31
0.0
  0
LINE
  5
35F
100
AcDbEntity
  8
L1
100
AcDbLine
 10
339.0177605143
 20
28.9217135611
 30
0.0
 11
339.017753378
 21
28.9208958272
 31
0.0
  0
POLYLINE
  5
360
100
AcDbEntity
  8
L1
100
AcDb2dPolyline
 66
     1
 10
0.0
 20
0.0
 30
0.0
  0
VERTEX
  5
361
100
AcDbEntity
  8
L1
100
AcDbVertex
100
AcDb2dVertex
 10
338.6646815644
 20
28.925256883
 30
0.0
  0
VERTEX
  5
362
100
AcDbEntity
  8
L1
100
AcDbVertex
100
AcDb2dVertex
 10
338.6997266976
 20
28.9208958272
 30
0.0
  0
SEQEND
  5
363
100
AcDbEntity
  8
L1
  0
POLYLINE
  5
364
100
AcDbEntity
  8
L1
100
AcDb2dPolyline
 66
     1
 10
0.0
 20
0.0
 30
0.0
  0
VERTEX
  5
365
100
AcDbEntity
  8
L1
100
AcDbVertex
100
AcDb2dVertex
 10
338.8998364745
 20
28.9208958272
 30
0.0
  0
VERTEX
  5
366
100
AcDbEntity
  8
L1
100
AcDbVertex
100
AcDb2dVertex
 10
338.899836467
 20
28.9209044802
 30
0.0
  0
SEQEND
  5
367
100
AcDbEntity
  8
L1
  0
POLYLINE
  5
368
100
AcDbEntity
  8
L1
100
AcDb2dPolyline
 66
     1
 10
0.0
 20
0.0
 30
0.0
  0
VERTEX
  5
369
100
AcDbEntity
  8
L1
100
AcDbVertex
100
AcDb2dVertex
 10
337.8139163036
 20
28.9208958272
 30
0.0
  0
VERTEX
  5
36A
100
AcDbEntity
  8
L1
100
AcDbVertex
100
AcDb2dVertex
 10
337.8139277003
 20
28.9214877792
 30
0.0
  0
SEQEND
  5
36B
100
AcDbEntity
  8
L1
  0
POLYLINE
  5
36C
100
AcDbEntity
  8
L1
100
AcDb2dPolyline
 66
     1
 10
0.0
 20
0.0
 30
0.0
  0
VERTEX
  5
36D
100
AcDbEntity
  8
L1
100
AcDbVertex
100
AcDb2dVertex
 10
337.8139200448
 20
28.9210901451
 30
0.0
  0
VERTEX
  5
36E
100
AcDbEntity
  8
L1
100
AcDbVertex
100
AcDb2dVertex
 10
337.8139163036
 20
28.9208958272
 30
0.0
  0
SEQEND
  5
36F
100
AcDbEntity
  8
L1
  0
POLYLINE
  5
370
100
AcDbEntity
  8
L1
100
AcDb2dPolyline
 66
     1
 10
0.0
 20
0.0
 30
0.0
  0
VERTEX
  5
371
100
AcDbEntity
  8
L1
100
AcDbVertex
100
AcDb2dVertex
 10
337.1320975702
 20
28.9233422605
 30
0.0
  0
VERTEX
  5
372
100
AcDbEntity
  8
L1
100
AcDbVertex
100
AcDb2dVertex
 10
337.1320695216
 20
28.9208958272
 30
0.0
  0
SEQEND
  5
373
100
AcDbEntity
  8
L1
  0
LINE
  5
374
100
AcDbEntity
  8
L1
100
AcDbLine
 10
335.5399787622
 20
28.9208958272
 30
0.0
 11
335.5399858984
 21
28.9217135611
 31
0.0
  0
ARC
  5
375
100
AcDbEntity
  8
L1
100
AcDbCircle
 10
335.2601609835
 20
29.2208958272
 30
0.0
 40
0.3
100
AcDbArc
 50
269.904330692
 51
270.0
  0
LINE
  5
376
100
AcDbEntity
  8
L2
100
AcDbLine
 10
237.9935840869
 20
49.9208958272
 30
0.0
 11
336.0346212689
 21
49.9208958272
 31
0.0
  0
LINE
  5
378
100
AcDbEntity
  8
L1
100
AcDbLine
 10
236.653647089
 20
52.9208958272
 30
0.0
 11
337.3718881517
 21
52.9208958272
 31
0.0
  0
LINE
  5
379
100
AcDbEntity
  8
L1
100
AcDbLine
 10
225.6782641408
 20
53.9208958272
 30
0.0
 11
236.5835726068
 21
53.9208958272
 31
0.0
  0
ARC
  5
37A
100
AcDbEntity
  8
L1
100
AcDbCircle
 10
223.1783593332
 20
53.6208958272
 30
0.0
 40
0.3
100
AcDbArc
 50
90.0
 51
179.5
  0
POLYLINE
  5
37B
100
AcDbEntity
  8
L1
100
AcDb2dPolyline
 66
     1
 10
0.0
 20
0.0
 30
0.0
  0
VERTEX
  5
37C
100
AcDbEntity
  8
L1
100
AcDbVertex
100
AcDb2dVertex
 10
222.574769433
 20
52.91215202
 30
0.0
  0
VERTEX
  5
37D
100
AcDbEntity
  8
L1
100
AcDbVertex
100
AcDb2dVertex
 10
222.2841988885
 20
52.7415170561
 30
0.0
  0
VERTEX
  5
37E
100
AcDbEntity
  8
L1
100
AcDbVertex
100
AcDb2dVertex
 10
222.1678870911
 20
52.4252590949
 30
0.0
  0
SEQEND
  5
37F
100
AcDbEntity
  8
L1
  0
POLYLINE
  5
380
100
AcDbEntity
  8
L1
100
AcDb2dPolyline
 66
     1
 10
0.0
 20
0.0
 30
0.0
  0
VERTEX
  5
381
100
AcDbEntity
  8
L1
100
AcDbVertex
100
AcDb2dVertex
 10
222.6678680526
 20
52.9208958272
 30
0.0
  0
VERTEX
  5
382
100
AcDbEntity
  8
L1
100
AcDbVertex
100
AcDb2dVertex
 10
222.574769433
 20
52.91215202
 30
0.0
  0
SEQEND
  5
383
100
AcDbEntity
  8
L1
  0
POLYLINE
  5
384
100
AcDbEntity
  8
L1
100
AcDb2dPolyline
 66
     1
 10
0.0
 20
0.0
 30
0.0
  0
VERTEX
  5
385
100
AcDbEntity
  8
L1
100
AcDbVertex
100
AcDb2dVertex
 10
222.8720339079
 20
52.9208958272
 30
0.0
  0
VERTEX
  5
386
100
AcDbEntity
  8
L1
100
AcDbVertex
100
AcDb2dVertex
 10
222.8125667421
 20
52.9208958272
 30
0.0
  0
VERTEX
  5
387
100
AcDbEntity
  8
L1
100
AcDbVertex
100
AcDb2dVertex
 10
222.6678680526
 20
52.9208958272
 30
0.0
  0
SEQEND
  5
388
100
AcDbEntity
  8
L1
  0
POLYLINE
  5
389
100
AcDbEntity
  8
L1
100
AcDb2dPolyline
 66
     1
 10
0.0
 20
0.0
 30
0.0
  0
VERTEX
  5
38A
100
AcDbEntity
  8
L1
100
AcDbVertex
100
AcDb2dVertex
 10
223.1783593332
 20
53.9208958272
 30
0.0
  0
VERTEX
  5
38B
100
AcDbEntity
  8
L1
100
AcDbVertex
100
AcDb2dVertex
 10
223.1847286718
 20
53.9208958272
 30
0.0
  0
VERTEX
  5
38C
100
AcDbEntity
  8
L1
100
AcDbVertex
100
AcDb2dVertex
 10
223.2038042343
 20
53.9208958272
 30
0.0
  0
VERTEX
  5
38D
100
AcDbEntity
  8
L1
100
AcDbVertex
100
AcDb2dVertex
 10
223.2354888253
 20
53.9208958272
 30
0.0
  0
VERTEX
  5
38E
100
AcDbEntity
  8
L1
100
AcDbVertex
100
AcDb2dVertex
 10
223.279621003
 20
53.9208958272
 30
0.0
  0
VERTEX
  5
38F
100
AcDbEntity
  8
L1
100
AcDbVertex
100
AcDb2dVertex
 10
223.3359759018
 20
53.9208958272
 30
0.0
  0
VERTEX
  5
390
100
AcDbEntity
  8
L1
100
AcDbVertex
100
AcDb2dVertex
 10
223.4042663779
 20
53.9208958272
 30
0.0
  0
VERTEX
  5
391
100
AcDbEntity
  8
L1
100
AcDbVertex
100
AcDb2dVertex
 10
223.4841444724
 20
53.9208958272
 30
0.0
  0
VERTEX
  5
392
100
AcDbEntity
  8
L1
100
AcDbVertex
100
AcDb2dVertex
 10
223.5752031842
 20
53.9208958272
 30
0.0
  0
VERTEX
  5
393
100
AcDbEntity
  8
L1
100
AcDbVertex
100
AcDb2dVertex
 10
223.6769785441
 20
53.9208958272
 30
0.0
  0
VERTEX
  5
394
100
AcDbEntity
  8
L1
100
AcDbVertex
100
AcDb2dVertex
 10
223.7889519783
 20
53.9208958272
 30
0.0
  0
VERTEX
  5
395
100
AcDbEntity
  8
L1
100
AcDbVertex
100
AcDb2dVertex
 10
223.9105529513
 20
53.9208958272
 30
0.0
  0
VERTEX
  5
396
100
AcDbEntity
  8
L1
100
AcDbVertex
100
AcDb2dVertex
 10
224.0411618724
 20
53.9208958272
 30
0.0
  0
VERTEX
  5
397
100
AcDbEntity
  8
L1
100
AcDbVertex
100
AcDb2dVertex
 10
224.1801132529
 20
53.9208958272
 30
0.0
  0
VERTEX
  5
398
100
AcDbEntity
  8
L1
100
AcDbVertex
100
AcDb2dVertex
 10
224.3266990972
 20
53.9208958272
 30
0.0
  0
VERTEX
  5
399
100
AcDbEntity
  8
L1
100
AcDbVertex
100
AcDb2dVertex
 10
224.4801725097
 20
53.9208958272
 30
0.0
  0
VERTEX
  5
39A
100
AcDbEntity
  8
L1
100
AcDbVertex
100
AcDb2dVertex
 10
224.6397515009
 20
53.9208958272
 30
0.0
  0
VERTEX
  5
39B
100
AcDbEntity
  8
L1
100
AcDbVertex
100
AcDb2dVertex
 10
224.8046229717
 20
53.9208958272
 30
0.0
  0
VERTEX
  5
39C
100
AcDbEntity
  8
L1
100
AcDbVertex
100
AcDb2dVertex
 10
224.9739468562
 20
53.9208958272
 30
0.0
  0
VERTEX
  5
39D
100
AcDbEntity
  8
L1
100
AcDbVertex
100
AcDb2dVertex
 10
225.1468604024
 20
53.9208958272
 30
0.0
  0
VERTEX
  5
39E
100
AcDbEntity
  8
L1
100
AcDbVertex
100
AcDb2dVertex
 10
225.3224825679
 20
53.9208958272
 30
0.0
  0
VERTEX
  5
39F
100
AcDbEntity
  8
L1
100
AcDbVertex
100
AcDb2dVertex
 10
225.4999185092
 20
53.9208958272
 30
0.0
  0
VERTEX
  5
3A0
100
AcDbEntity
  8
L1
100
AcDbVertex
100
AcDb2dVertex
 10
225.6782641408
 20
53.9208958272
 30
0.0
  0
SEQEND
  5
3A1
100
AcDbEntity
  8
L1
  0
LINE
  5
3A2
100
AcDbEntity
  8
L1
100
AcDbLine
 10
236.8835611837
 20
53.6235137878
 30
0.0
 11
236.8896919808
 21
52.9209940254
 31
0.0
  0
ARC
  5
3A3
100
AcDbEntity
  8
L1
100
AcDbCircle
 10
236.5835726068
 20
53.6208958272
 30
0.0
 40
0.3
100
AcDbArc
 50
0.5
 51
90.0
  0
POLYLINE
  5
3A4
100
AcDbEntity
  8
L1
100
AcDb2dPolyline
 66
     1
 10
0.0
 20
0.0
 30
0.0
  0
VERTEX
  5
3A5
100
AcDbEntity
  8
L1
100
AcDbVertex
100
AcDb2dVertex
 10
236.6692051698
 20
52.91215202
 30
0.0
  0
VERTEX
  5
3A6
100
AcDbEntity
  8
L1
100
AcDbVertex
100
AcDb2dVertex
 10
236.653647089
 20
52.9208958272
 30
0.0
  0
SEQEND
  5
3A7
100
AcDbEntity
  8
L1
  0
POLYLINE
  5
3A8
100
AcDbEntity
  8
L1
100
AcDb2dPolyline
 66
     1
 10
0.0
 20
0.0
 30
0.0
  0
VERTEX
  5
3A9
100
AcDbEntity
  8
L1
100
AcDbVertex
100
AcDb2dVertex
 10
236.6684391856
 20
52.4252590949
 30
0.0
  0
VERTEX
  5
3AA
100
AcDbEntity
  8
L1
100
AcDbVertex
100
AcDb2dVertex
 10
236.6702168223
 20
52.7415170561
 30
0.0
  0
VERTEX
  5
3AB
100
AcDbEntity
  8
L1
100
AcDbVertex
100
AcDb2dVertex
 10
236.6692051698
 20
52.91215202
 30
0.0
  0
SEQEND
  5
3AC
100
AcDbEntity
  8
L1
  0
LINE
  5
3AD
100
AcDbEntity
  8
L1
100
AcDbLine
 10
337.1358432599
 20
52.9209940254
 30
0.0
 11
337.141974057
 21
53.6235137878
 31
0.0
  0
ARC
  5
3AE
100
AcDbEntity
  8
L1
100
AcDbCircle
 10
337.4419626339
 20
53.6208958272
 30
0.0
 40
0.3
100
AcDbArc
 50
90.0
 51
179.5
  0
POLYLINE
  5
3AF
100
AcDbEntity
  8
L1
100
AcDb2dPolyline
 66
     1
 10
0.0
 20
0.0
 30
0.0
  0
VERTEX
  5
3B0
100
AcDbEntity
  8
L1
100
AcDbVertex
100
AcDb2dVertex
 10
337.3563300708
 20
52.91215202
 30
0.0
  0
VERTEX
  5
3B1
100
AcDbEntity
  8
L1
100
AcDbVertex
100
AcDb2dVertex
 10
337.3553184184
 20
52.7415170561
 30
0.0
  0
VERTEX
  5
3B2
100
AcDbEntity
  8
L1
100
AcDbVertex
100
AcDb2dVertex
 10
337.357096055
 20
52.4252590949
 30
0.0
  0
SEQEND
  5
3B3
100
AcDbEntity
  8
L1
  0
POLYLINE
  5
3B4
100
AcDbEntity
  8
L1
100
AcDb2dPolyline
 66
     1
 10
0.0
 20
0.0
 30
0.0
  0
VERTEX
  5
3B5
100
AcDbEntity
  8
L1
100
AcDbVertex
100
AcDb2dVertex
 10
337.3718881517
 20
52.9208958272
 30
0.0
  0
VERTEX
  5
3B6
100
AcDbEntity
  8
L1
100
AcDbVertex
100
AcDb2dVertex
 10
337.3563300708
 20
52.91215202
 30
0.0
  0
SEQEND
  5
3B7
100
AcDbEntity
  8
L1
  0
LINE
  5
3B8
100
AcDbEntity
  8
L1
100
AcDbLine
 10
352.0192872419
 20
33.9032537005
 30
0.0
 11
351.8576481496
 21
52.4252590949
 31
0.0
  0
LINE
  5
3B9
100
AcDbEntity
  8
L1
100
AcDbLine
 10
351.1471644845
 20
53.6235137878
 30
0.0
 11
351.3339661453
 21
32.2181636357
 31
0.0
  0
LINE
  5
3BA
100
AcDbEntity
  8
L1
100
AcDbLine
 10
352.0365880139
 20
31.9207815964
 30
0.0
 11
352.0575767993
 21
29.5157050061
 31
0.0
  0
POLYLINE
  5
3BB
100
AcDbEntity
  8
L1
100
AcDb2dPolyline
 66
     1
 10
0.0
 20
0.0
 30
0.0
  0
VERTEX
  5
3BC
100
AcDbEntity
  8
L1
100
AcDbVertex
100
AcDb2dVertex
 10
352.0575767993
 20
29.5157050061
 30
0.0
  0
VERTEX
  5
3BD
100
AcDbEntity
  8
L1
100
AcDbVertex
100
AcDb2dVertex
 10
352.0575758937
 20
29.5157041005
 30
0.0
  0
VERTEX
  5
3BE
100
AcDbEntity
  8
L1
100
AcDbVertex
100
AcDb2dVertex
 10
352.057573177
 20
29.5157013838
 30
0.0
  0
SEQEND
  5
3BF
100
AcDbEntity
  8
L1
  0
LINE
  5
3C0
100
AcDbEntity
  8
L1
100
AcDbLine
 10
348.6399787622
 20
28.9208958272
 30
0.0
 11
348.6399798637
 21
28.9210220537
 31
0.0
  0
POLYLINE
  5
3C1
100
AcDbEntity
  8
L1
100
AcDb2dPolyline
 66
     1
 10
0.0
 20
0.0
 30
0.0
  0
VERTEX
  5
3C2
100
AcDbEntity
  8
L1
100
AcDbVertex
100
AcDb2dVertex
 10
348.5627676204
 20
29.5157013838
 30
0.0
  0
VERTEX
  5
3C3
100
AcDbEntity
  8
L1
100
AcDbVertex
100
AcDb2dVertex
 10
348.5602388373
 20
29.5157041005
 30
0.0
  0
VERTEX
  5
3C4
100
AcDbEntity
  8
L1
100
AcDbVertex
100
AcDb2dVertex
 10
348.5577100686
 20
29.5157050061
 30
0.0
  0
SEQEND
  5
3C5
100
AcDbEntity
  8
L1
  0
ARC
  5
3C6
100
AcDbEntity
  8
L1
100
AcDbCircle
 10
348.1601609835
 20
29.2208958272
 30
0.0
 40
0.3
100
AcDbArc
 50
269.2939396878
 51
270.0
  0
LINE
  5
3C7
100
AcDbEntity
  8
L1
100
AcDbLine
 10
348.5627676204
 20
28.9208958272
 30
0.0
 11
351.4627676204
 21
28.9208958272
 31
0.0
  0
LINE
  5
3C8
100
AcDbEntity
  8
L1
100
AcDbLine
 10
351.4627676204
 20
28.9208958272
 30
0.0
 11
352.057573177
 21
29.5157013838
 31
0.0
  0
POLYLINE
  5
3C9
100
AcDbEntity
  8
L1
100
AcDb2dPolyline
 66
     1
 10
0.0
 20
0.0
 30
0.0
  0
VERTEX
  5
3CA
100
AcDbEntity
  8
L1
100
AcDbVertex
100
AcDb2dVertex
 10
352.057573177
 20
29.5157013838
 30
0.0
  0
VERTEX
  5
3CB
100
AcDbEntity
  8
L1
100
AcDbVertex
100
AcDb2dVertex
 10
351.9915484337
 20
29.5148377934
 30
0.0
  0
VERTEX
  5
3CC
100
AcDbEntity
  8
L1
100
AcDbVertex
100
AcDb2dVertex
 10
351.9077007717
 20
29.5144806787
 30
0.0
  0
VERTEX
  5
3CD
100
AcDbEntity
  8
L1
100
AcDbVertex
100
AcDb2dVertex
 10
351.7902216947
 20
29.5141835438
 30
0.0
  0
VERTEX
  5
3CE
100
AcDbEntity
  8
L1
100
AcDbVertex
100
AcDb2dVertex
 10
351.6405000995
 20
29.5139514872
 30
0.0
  0
VERTEX
  5
3CF
100
AcDbEntity
  8
L1
100
AcDbVertex
100
AcDb2dVertex
 10
351.4614934443
 20
29.5137866273
 30
0.0
  0
VERTEX
  5
3D0
100
AcDbEntity
  8
L1
100
AcDbVertex
100
AcDb2dVertex
 10
351.0325235959
 20
29.5136582235
 30
0.0
  0
VERTEX
  5
3D1
100
AcDbEntity
  8
L1
100
AcDbVertex
100
AcDb2dVertex
 10
350.5115299812
 20
29.5137866273
 30
0.0
  0
VERTEX
  5
3D2
100
AcDbEntity
  8
L1
100
AcDbVertex
100
AcDb2dVertex
 10
350.2146146719
 20
29.5139514872
 30
0.0
  0
VERTEX
  5
3D3
100
AcDbEntity
  8
L1
100
AcDbVertex
100
AcDb2dVertex
 10
349.8994049194
 20
29.5141835438
 30
0.0
  0
VERTEX
  5
3D4
100
AcDbEntity
  8
L1
100
AcDbVertex
100
AcDb2dVertex
 10
349.5708129294
 20
29.5144806787
 30
0.0
  0
VERTEX
  5
3D5
100
AcDbEntity
  8
L1
100
AcDbVertex
100
AcDb2dVertex
 10
349.2344018941
 20
29.5148377934
 30
0.0
  0
VERTEX
  5
3D6
100
AcDbEntity
  8
L1
100
AcDbVertex
100
AcDb2dVertex
 10
348.5627676204
 20
29.5157013838
 30
0.0
  0
SEQEND
  5
3D7
100
AcDbEntity
  8
L1
  0
LINE
  5
3D8
100
AcDbEntity
  8
L1
100
AcDbLine
 10
352.0192872419
 20
33.9032537005
 30
0.0
 11
352.0365880139
 21
31.9207815964
 31
0.0
  0
ARC
  5
3D9
100
AcDbEntity
  8
L1
100
AcDbCircle
 10
351.6339547222
 20
32.2207815964
 30
0.0
 40
0.3
100
AcDbArc
 50
180.5
 51
270.0
  0
POLYLINE
  5
3DA
100
AcDbEntity
  8
L1
100
AcDb2dPolyline
 66
     1
 10
0.0
 20
0.0
 30
0.0
  0
VERTEX
  5
3DB
100
AcDbEntity
  8
L1
100
AcDbVertex
100
AcDb2dVertex
 10
348.5367212831
 20
31.9207815964
 30
0.0
  0
VERTEX
  5
3DC
100
AcDbEntity
  8
L1
100
AcDbVertex
100
AcDb2dVertex
 10
349.3155304009
 20
31.9207815964
 30
0.0
  0
VERTEX
  5
3DD
100
AcDbEntity
  8
L1
100
AcDbVertex
100
AcDb2dVertex
 10
350.0552771837
 20
31.9207815964
 30
0.0
  0
VERTEX
  5
3DE
100
AcDbEntity
  8
L1
100
AcDbVertex
100
AcDb2dVertex
 10
350.7188712204
 20
31.9207815964
 30
0.0
  0
VERTEX
  5
3DF
100
AcDbEntity
  8
L1
100
AcDbVertex
100
AcDb2dVertex
 10
351.2730403479
 20
31.9207815964
 30
0.0
  0
VERTEX
  5
3E0
100
AcDbEntity
  8
L1
100
AcDbVertex
100
AcDb2dVertex
 10
351.689998895
 20
31.9207815964
 30
0.0
  0
VERTEX
  5
3E1
100
AcDbEntity
  8
L1
100
AcDbVertex
100
AcDb2dVertex
 10
351.9488408379
 20
31.9207815964
 30
0.0
  0
VERTEX
  5
3E2
100
AcDbEntity
  8
L1
100
AcDbVertex
100
AcDb2dVertex
 10
352.0365880139
 20
31.9207815964
 30
0.0
  0
SEQEND
  5
3E3
100
AcDbEntity
  8
L1
  0
LINE
  5
3E4
100
AcDbEntity
  8
L1
100
AcDbLine
 10
339.5186589993
 20
31.9207815964
 30
0.0
 11
348.5367212831
 21
31.9207815964
 31
0.0
  0
ARC
  5
3E5
100
AcDbEntity
  8
L1
100
AcDbCircle
 10
350.8471759075
 20
53.6208958272
 30
0.0
 40
0.3
100
AcDbArc
 50
0.5
 51
90.0
  0
POLYLINE
  5
3E6
100
AcDbEntity
  8
L1
100
AcDb2dPolyline
 66
     1
 10
0.0
 20
0.0
 30
0.0
  0
VERTEX
  5
3E7
100
AcDbEntity
  8
L1
100
AcDbVertex
100
AcDb2dVertex
 10
351.4507658077
 20
52.91215202
 30
0.0
  0
VERTEX
  5
3E8
100
AcDbEntity
  8
L1
100
AcDbVertex
100
AcDb2dVertex
 10
351.3576671881
 20
52.9208958272
 30
0.0
  0
SEQEND
  5
3E9
100
AcDbEntity
  8
L1
  0
POLYLINE
  5
3EA
100
AcDbEntity
  8
L1
100
AcDb2dPolyline
 66
     1
 10
0.0
 20
0.0
 30
0.0
  0
VERTEX
  5
3EB
100
AcDbEntity
  8
L1
100
AcDbVertex
100
AcDb2dVertex
 10
351.8576481496
 20
52.4252590949
 30
0.0
  0
VERTEX
  5
3EC
100
AcDbEntity
  8
L1
100
AcDbVertex
100
AcDb2dVertex
 10
351.7413363523
 20
52.7415170561
 30
0.0
  0
VERTEX
  5
3ED
100
AcDbEntity
  8
L1
100
AcDbVertex
100
AcDb2dVertex
 10
351.4507658077
 20
52.91215202
 30
0.0
  0
SEQEND
  5
3EE
100
AcDbEntity
  8
L1
  0
POLYLINE
  5
3EF
100
AcDbEntity
  8
L1
100
AcDb2dPolyline
 66
     1
 10
0.0
 20
0.0
 30
0.0
  0
VERTEX
  5
3F0
100
AcDbEntity
  8
L1
100
AcDbVertex
100
AcDb2dVertex
 10
351.1532960636
 20
52.9208958272
 30
0.0
  0
VERTEX
  5
3F1
100
AcDbEntity
  8
L1
100
AcDbVertex
100
AcDb2dVertex
 10
351.1532483033
 20
52.9208958272
 30
0.0
  0
VERTEX
  5
3F2
100
AcDbEntity
  8
L1
100
AcDbVertex
100
AcDb2dVertex
 10
351.153112309
 20
52.9208958272
 30
0.0
  0
SEQEND
  5
3F3
100
AcDbEntity
  8
L1
  0
POLYLINE
  5
3F4
100
AcDbEntity
  8
L1
100
AcDb2dPolyline
 66
     1
 10
0.0
 20
0.0
 30
0.0
  0
VERTEX
  5
3F5
100
AcDbEntity
  8
L1
100
AcDbVertex
100
AcDb2dVertex
 10
351.3576671881
 20
52.9208958272
 30
0.0
  0
VERTEX
  5
3F6
100
AcDbEntity
  8
L1
100
AcDbVertex
100
AcDb2dVertex
 10
351.2096889472
 20
52.9208958272
 30
0.0
  0
VERTEX
  5
3F7
100
AcDbEntity
  8
L1
100
AcDbVertex
100
AcDb2dVertex
 10
351.1532961385
 20
52.9208958272
 30
0.0
  0
SEQEND
  5
3F8
100
AcDbEntity
  8
L1
  0
POLYLINE
  5
3F9
100
AcDbEntity
  8
L1
100
AcDb2dPolyline
 66
     1
 10
0.0
 20
0.0
 30
0.0
  0
VERTEX
  5
3FA
100
AcDbEntity
  8
L1
100
AcDbVertex
100
AcDb2dVertex
 10
348.3472710999
 20
53.9208958272
 30
0.0
  0
VERTEX
  5
3FB
100
AcDbEntity
  8
L1
100
AcDbVertex
100
AcDb2dVertex
 10
348.5256167316
 20
53.9208958272
 30
0.0
  0
VERTEX
  5
3FC
100
AcDbEntity
  8
L1
100
AcDbVertex
100
AcDb2dVertex
 10
348.7030526728
 20
53.9208958272
 30
0.0
  0
VERTEX
  5
3FD
100
AcDbEntity
  8
L1
100
AcDbVertex
100
AcDb2dVertex
 10
348.8786748383
 20
53.9208958272
 30
0.0
  0
VERTEX
  5
3FE
100
AcDbEntity
  8
L1
100
AcDbVertex
100
AcDb2dVertex
 10
349.0515883845
 20
53.9208958272
 30
0.0
  0
VERTEX
  5
3FF
100
AcDbEntity
  8
L1
100
AcDbVertex
100
AcDb2dVertex
 10
349.220912269
 20
53.9208958272
 30
0.0
  0
VERTEX
  5
400
100
AcDbEntity
  8
L1
100
AcDbVertex
100
AcDb2dVertex
 10
349.3857837398
 20
53.9208958272
 30
0.0
  0
VERTEX
  5
401
100
AcDbEntity
  8
L1
100
AcDbVertex
100
AcDb2dVertex
 10
349.545362731
 20
53.9208958272
 30
0.0
  0
VERTEX
  5
402
100
AcDbEntity
  8
L1
100
AcDbVertex
100
AcDb2dVertex
 10
349.6988361435
 20
53.9208958272
 30
0.0
  0
VERTEX
  5
403
100
AcDbEntity
  8
L1
100
AcDbVertex
100
AcDb2dVertex
 10
349.8454219878
 20
53.9208958272
 30
0.0
  0
VERTEX
  5
404
100
AcDbEntity
  8
L1
100
AcDbVertex
100
AcDb2dVertex
 10
349.9843733683
 20
53.9208958272
 30
0.0
  0
VERTEX
  5
405
100
AcDbEntity
  8
L1
100
AcDbVertex
100
AcDb2dVertex
 10
350.1149822894
 20
53.9208958272
 30
0.0
  0
VERTEX
  5
406
100
AcDbEntity
  8
L1
100
AcDbVertex
100
AcDb2dVertex
 10
350.2365832624
 20
53.9208958272
 30
0.0
  0
VERTEX
  5
407
100
AcDbEntity
  8
L1
100
AcDbVertex
100
AcDb2dVertex
 10
350.3485566966
 20
53.9208958272
 30
0.0
  0
VERTEX
  5
408
100
AcDbEntity
  8
L1
100
AcDbVertex
100
AcDb2dVertex
 10
350.4503320565
 20
53.9208958272
 30
0.0
  0
VERTEX
  5
409
100
AcDbEntity
  8
L1
100
AcDbVertex
100
AcDb2dVertex
 10
350.5413907683
 20
53.9208958272
 30
0.0
  0
VERTEX
  5
40A
100
AcDbEntity
  8
L1
100
AcDbVertex
100
AcDb2dVertex
 10
350.6212688628
 20
53.9208958272
 30
0.0
  0
VERTEX
  5
40B
100
AcDbEntity
  8
L1
100
AcDbVertex
100
AcDb2dVertex
 10
350.6895593389
 20
53.9208958272
 30
0.0
  0
VERTEX
  5
40C
100
AcDbEntity
  8
L1
100
AcDbVertex
100
AcDb2dVertex
 10
350.7459142377
 20
53.9208958272
 30
0.0
  0
VERTEX
  5
40D
100
AcDbEntity
  8
L1
100
AcDbVertex
100
AcDb2dVertex
 10
350.7900464154
 20
53.9208958272
 30
0.0
  0
VERTEX
  5
40E
100
AcDbEntity
  8
L1
100
AcDbVertex
100
AcDb2dVertex
 10
350.8217310064
 20
53.9208958272
 30
0.0
  0
VERTEX
  5
40F
100
AcDbEntity
  8
L1
100
AcDbVertex
100
AcDb2dVertex
 10
350.8408065689
 20
53.9208958272
 30
0.0
  0
VERTEX
  5
410
100
AcDbEntity
  8
L1
100
AcDbVertex
100
AcDb2dVertex
 10
350.8471759075
 20
53.9208958272
 30
0.0
  0
SEQEND
  5
411
100
AcDbEntity
  8
L1
  0
LINE
  5
412
100
AcDbEntity
  8
L1
100
AcDbLine
 10
402.1581903342
 20
84.2785867607
 30
0.0
 11
402.1581903342
 21
207.3785867607
 31
0.0
  0
LINE
  5
413
100
AcDbEntity
  8
L1
100
AcDbLine
 10
401.5633811553
 20
207.373529209
 30
0.0
 11
401.5633811553
 21
84.2836443125
 31
0.0
  0
LINE
  5
414
100
AcDbEntity
  8
L1
100
AcDbLine
 10
378.1581903342
 20
95.4694662294
 30
0.0
 11
378.1581903342
 21
196.1877072921
 31
0.0
  0
LINE
  5
415
100
AcDbEntity
  8
L2
100
AcDbLine
 10
381.1581903342
 20
190.7403473777
 30
0.0
 11
381.1581903342
 21
100.9168261438
 31
0.0
  0
LINE
  5
416
100
AcDbEntity
  8
L1
100
AcDbLine
 10
351.2854574785
 20
192.9785867607
 30
0.0
 11
351.2854574785
 21
98.6785867607
 31
0.0
  0
LINE
  5
417
100
AcDbEntity
  8
L1
100
AcDbLine
 10
351.4627676204
 20
84.2785867607
 30
0.0
 11
351.4627676204
 21
207.3785867607
 31
0.0
  0
LINE
  5
418
100
AcDbEntity
  8
L1
100
AcDbLine
 10
352.0575767993
 20
207.373529209
 30
0.0
 11
352.0575767993
 21
84.2836443125
 31
0.0
  0
LINE
  5
419
100
AcDbEntity
  8
L1
100
AcDbLine
 10
346.2515774198
 20
192.9953453833
 30
0.0
 11
346.2515774198
 21
98.6618281382
 31
0.0
  0
LINE
  5
41A
100
AcDbEntity
  8
L1
100
AcDbLine
 10
348.6399787622
 20
98.6785867607
 30
0.0
 11
348.6399787622
 21
192.9785867607
 31
0.0
  0
LINE
  5
41B
100
AcDbEntity
  8
L6
  6
CENTER
 62
     1
100
AcDbLine
 10
242.0127676204
 20
139.9628507778
 30
0.0
 11
242.0127676204
 21
152.4112879446
 31
0.0
  0
LINE
  5
41C
100
AcDbEntity
  8
L6
  6
CENTER
 62
     1
100
AcDbLine
 10
332.0127676204
 20
139.703508625
 30
0.0
 11
332.0127676204
 21
152.4112879446
 31
0.0
  0
LINE
  5
41D
100
AcDbEntity
  8
L1
100
AcDbLine
 10
222.7400777622
 20
98.6785867607
 30
0.0
 11
222.7400777622
 21
192.9785867607
 31
0.0
  0
LINE
  5
41E
100
AcDbEntity
  8
L1
100
AcDbLine
 10
222.5627676204
 20
207.3785867607
 30
0.0
 11
222.5627676204
 21
84.2785867607
 31
0.0
  0
LINE
  5
41F
100
AcDbEntity
  8
L1
100
AcDbLine
 10
227.7739578209
 20
98.6618281382
 30
0.0
 11
227.7739578209
 21
192.9953453833
 31
0.0
  0
LINE
  5
420
100
AcDbEntity
  8
L1
100
AcDbLine
 10
221.9679584414
 20
84.2836443125
 30
0.0
 11
221.9679584414
 21
207.373529209
 31
0.0
  0
LINE
  5
421
100
AcDbEntity
  8
L1
100
AcDbLine
 10
225.3855564785
 20
192.9785867607
 30
0.0
 11
225.3855564785
 21
98.6785867607
 31
0.0
  0
LINE
  5
422
100
AcDbEntity
  8
L6
100
AcDbLine
 10
218.9299717012
 20
145.8285867607
 30
0.0
 11
354.2957111112
 21
145.8285867607
 31
0.0
  0
ARC
  5
423
100
AcDbEntity
  8
L1
100
AcDbCircle
 10
343.7627676204
 20
89.0785867607
 30
0.0
 40
8.9832642236
100
AcDbArc
 50
90.0
 51
124.9005836332
  0
LINE
  5
424
100
AcDbEntity
  8
L6
  6
CENTER
 62
     1
100
AcDbLine
 10
338.7627676204
 20
89.0785867607
 30
0.0
 11
348.7627676204
 21
89.0785867607
 31
0.0
  0
ARC
  5
425
100
AcDbEntity
  8
L1
100
AcDbCircle
 10
343.7627676204
 20
89.0785867607
 30
0.0
 40
8.2227888582
100
AcDbArc
 50
90.0
 51
126.2561932473
  0
ARC
  5
426
100
AcDbEntity
  8
L1
100
AcDbCircle
 10
343.7627676204
 20
89.0785867607
 30
0.0
 40
5.0738193966
100
AcDbArc
 50
83.0
 51
187.0
  0
ARC
  5
427
100
AcDbEntity
  8
L1
100
AcDbCircle
 10
343.7627676204
 20
89.0785867607
 30
0.0
 40
5.1
100
AcDbArc
 50
83.0
 51
187.0
  0
ARC
  5
428
100
AcDbEntity
  8
L1
100
AcDbCircle
 10
334.1627676204
 20
85.5785867607
 30
0.0
 40
4.8549857577
100
AcDbArc
 50
318.7674923254
 51
7.0
  0
ARC
  5
429
100
AcDbEntity
  8
L1
100
AcDbCircle
 10
334.1627676204
 20
85.5785867607
 30
0.0
 40
4.881166361
100
AcDbArc
 50
319.4420036039
 51
7.0
  0
LINE
  5
42A
100
AcDbEntity
  8
L1
100
AcDbLine
 10
337.8712249117
 20
82.4047673641
 30
0.0
 11
348.5627676204
 21
82.4047673641
 31
0.0
  0
LINE
  5
42B
100
AcDbEntity
  8
L1
100
AcDbLine
 10
348.5627676204
 20
82.3785867607
 30
0.0
 11
337.8139163036
 21
82.3785867607
 31
0.0
  0
ARC
  5
42C
100
AcDbEntity
  8
L1
100
AcDbCircle
 10
343.7627676204
 20
89.0785867607
 30
0.0
 40
5.5773101419
100
AcDbArc
 50
90.0
 51
180.0
  0
LINE
  5
42D
100
AcDbEntity
  8
L1
100
AcDbLine
 10
348.5577100686
 20
80.7837775818
 30
0.0
 11
225.4678251721
 21
80.7837775818
 31
0.0
  0
LINE
  5
42E
100
AcDbEntity
  8
L1
100
AcDbLine
 10
225.4627676204
 20
81.3785867607
 30
0.0
 11
348.5627676204
 21
81.3785867607
 31
0.0
  0
LINE
  5
42F
100
AcDbEntity
  8
L1
100
AcDbLine
 10
334.1627676204
 20
81.5558969026
 30
0.0
 11
239.8627676204
 21
81.5558969026
 31
0.0
  0
LINE
  5
430
100
AcDbEntity
  8
L1
100
AcDbLine
 10
334.1795262429
 20
86.5897769613
 30
0.0
 11
239.8460089978
 21
86.5897769613
 31
0.0
  0
LINE
  5
431
100
AcDbEntity
  8
L1
100
AcDbLine
 10
239.8627676204
 20
84.2013756189
 30
0.0
 11
334.1627676204
 21
84.2013756189
 31
0.0
  0
LINE
  5
432
100
AcDbEntity
  8
L1
100
AcDbLine
 10
238.5077401241
 20
95.8725373665
 30
0.0
 11
237.4329277238
 21
94.591625827
 31
0.0
  0
LINE
  5
433
100
AcDbEntity
  8
L1
100
AcDbLine
 10
238.7371518929
 20
95.8825537006
 30
0.0
 11
237.6465861328
 21
94.5828680381
 31
0.0
  0
ARC
  5
434
100
AcDbEntity
  8
L1
100
AcDbCircle
 10
230.2627676204
 20
89.0785867607
 30
0.0
 40
8.8139629885
100
AcDbArc
 50
35.7142746473
 51
54.2857253527
  0
ARC
  5
435
100
AcDbEntity
  8
L1
100
AcDbCircle
 10
226.7627676204
 20
98.6785867607
 30
0.0
 40
4.0226898581
100
AcDbArc
 50
180.0
 51
270.0
  0
ARC
  5
436
100
AcDbEntity
  8
L1
100
AcDbCircle
 10
230.2627676204
 20
89.0785867607
 30
0.0
 40
5.5773101419
100
AcDbArc
 50
0.0
 51
90.0
  0
ARC
  5
437
100
AcDbEntity
  8
L1
100
AcDbCircle
 10
230.2627676204
 20
89.0785867607
 30
0.0
 40
8.2227888582
100
AcDbArc
 50
0.0
 51
90.0
  0
LINE
  5
438
100
AcDbEntity
  8
L1
100
AcDbLine
 10
235.8400777622
 20
85.5785867607
 30
0.0
 11
235.8400777622
 21
89.0785867607
 31
0.0
  0
POLYLINE
  5
439
100
AcDbEntity
  8
L1
100
AcDb2dPolyline
 66
     1
 10
0.0
 20
0.0
 30
0.0
  0
VERTEX
  5
43A
100
AcDbEntity
  8
L1
100
AcDbVertex
100
AcDb2dVertex
 10
239.246031844
 20
85.9897998074
 30
0.0
  0
VERTEX
  5
43B
100
AcDbEntity
  8
L1
100
AcDbVertex
100
AcDb2dVertex
 10
239.3264120472
 20
86.2897919184
 30
0.0
  0
VERTEX
  5
43C
100
AcDbEntity
  8
L1
100
AcDbVertex
100
AcDb2dVertex
 10
239.5460168869
 20
86.509396758
 30
0.0
  0
VERTEX
  5
43D
100
AcDbEntity
  8
L1
100
AcDbVertex
100
AcDb2dVertex
 10
239.8460089978
 20
86.5897769613
 30
0.0
  0
SEQEND
  5
43E
100
AcDbEntity
  8
L1
  0
LINE
  5
43F
100
AcDbEntity
  8
L1
100
AcDbLine
 10
239.246031844
 20
85.9897998074
 30
0.0
 11
239.246031844
 21
89.0785867607
 31
0.0
  0
LINE
  5
440
100
AcDbEntity
  8
L1
100
AcDbLine
 10
235.3247529937
 20
88.4570531094
 30
0.0
 11
235.0439701903
 21
86.1702606873
 31
0.0
  0
LINE
  5
441
100
AcDbEntity
  8
L1
100
AcDbLine
 10
235.0179847332
 20
86.1734513002
 30
0.0
 11
235.2987675366
 21
88.4602437223
 31
0.0
  0
LINE
  5
442
100
AcDbEntity
  8
L1
100
AcDbLine
 10
238.4855564785
 20
89.0785867607
 30
0.0
 11
238.4855564785
 21
85.5785867607
 31
0.0
  0
LINE
  5
443
100
AcDbEntity
  8
L6
  6
CENTER
 62
     1
100
AcDbLine
 10
230.2627676204
 20
84.0785867607
 30
0.0
 11
230.2627676204
 21
94.0785867607
 31
0.0
  0
LINE
  5
444
100
AcDbEntity
  8
L1
100
AcDbLine
 10
223.5889482237
 20
94.9701294694
 30
0.0
 11
223.5889482237
 21
84.2785867607
 31
0.0
  0
LINE
  5
445
100
AcDbEntity
  8
L1
100
AcDbLine
 10
223.5627676204
 20
84.2785867607
 30
0.0
 11
223.5627676204
 21
95.0274380775
 31
0.0
  0
CIRCLE
  5
446
100
AcDbEntity
  8
L1
100
AcDbCircle
 10
230.2627676204
 20
89.0785867607
 30
0.0
 40
4.0
  0
LINE
  5
447
100
AcDbEntity
  8
L1
100
AcDbLine
 10
225.4627676204
 20
82.4047673641
 30
0.0
 11
236.154310329
 21
82.4047673641
 31
0.0
  0
LINE
  5
448
100
AcDbEntity
  8
L1
100
AcDbLine
 10
236.2116189371
 20
82.3785867607
 30
0.0
 11
225.4627676204
 21
82.3785867607
 31
0.0
  0
ARC
  5
449
100
AcDbEntity
  8
L1
100
AcDbCircle
 10
225.4627676204
 20
84.2785867607
 30
0.0
 40
1.8738193966
100
AcDbArc
 50
180.0
 51
270.0
  0
ARC
  5
44A
100
AcDbEntity
  8
L1
100
AcDbCircle
 10
225.4627676204
 20
84.2785867607
 30
0.0
 40
1.9
100
AcDbArc
 50
180.0
 51
270.0
  0
POLYLINE
  5
44B
100
AcDbEntity
  8
L1
100
AcDb2dPolyline
 66
     1
 10
0.0
 20
0.0
 30
0.0
  0
VERTEX
  5
44C
100
AcDbEntity
  8
L1
100
AcDbVertex
100
AcDb2dVertex
 10
221.9679620637
 20
84.2785867607
 30
0.0
  0
VERTEX
  5
44D
100
AcDbEntity
  8
L1
100
AcDbVertex
100
AcDb2dVertex
 10
221.967959347
 20
84.2811155438
 30
0.0
  0
VERTEX
  5
44E
100
AcDbEntity
  8
L1
100
AcDbVertex
100
AcDb2dVertex
 10
221.9679584414
 20
84.2836443125
 30
0.0
  0
SEQEND
  5
44F
100
AcDbEntity
  8
L1
  0
ARC
  5
450
100
AcDbEntity
  8
L1
100
AcDbCircle
 10
225.4627676204
 20
84.2785867607
 30
0.0
 40
2.9
100
AcDbArc
 50
180.0
 51
270.0
  0
POLYLINE
  5
451
100
AcDbEntity
  8
L1
100
AcDb2dPolyline
 66
     1
 10
0.0
 20
0.0
 30
0.0
  0
VERTEX
  5
452
100
AcDbEntity
  8
L1
100
AcDbVertex
100
AcDb2dVertex
 10
225.4627676204
 20
80.7837812041
 30
0.0
  0
VERTEX
  5
453
100
AcDbEntity
  8
L1
100
AcDbVertex
100
AcDb2dVertex
 10
224.7911333466
 20
80.8498059474
 30
0.0
  0
VERTEX
  5
454
100
AcDbEntity
  8
L1
100
AcDbVertex
100
AcDb2dVertex
 10
224.4547223113
 20
80.9336536094
 30
0.0
  0
VERTEX
  5
455
100
AcDbEntity
  8
L1
100
AcDbVertex
100
AcDb2dVertex
 10
224.1261303213
 20
81.0511326864
 30
0.0
  0
VERTEX
  5
456
100
AcDbEntity
  8
L1
100
AcDbVertex
100
AcDb2dVertex
 10
223.8109205688
 20
81.2008542816
 30
0.0
  0
VERTEX
  5
457
100
AcDbEntity
  8
L1
100
AcDbVertex
100
AcDb2dVertex
 10
223.5140052596
 20
81.3798609368
 30
0.0
  0
VERTEX
  5
458
100
AcDbEntity
  8
L1
100
AcDbVertex
100
AcDb2dVertex
 10
222.9930116448
 20
81.8088307852
 30
0.0
  0
VERTEX
  5
459
100
AcDbEntity
  8
L1
100
AcDbVertex
100
AcDb2dVertex
 10
222.5640417964
 20
82.3298243999
 30
0.0
  0
VERTEX
  5
45A
100
AcDbEntity
  8
L1
100
AcDbVertex
100
AcDb2dVertex
 10
222.3850351412
 20
82.6267397092
 30
0.0
  0
VERTEX
  5
45B
100
AcDbEntity
  8
L1
100
AcDbVertex
100
AcDb2dVertex
 10
222.235313546
 20
82.9419494617
 30
0.0
  0
VERTEX
  5
45C
100
AcDbEntity
  8
L1
100
AcDbVertex
100
AcDb2dVertex
 10
222.117834469
 20
83.2705414517
 30
0.0
  0
VERTEX
  5
45D
100
AcDbEntity
  8
L1
100
AcDbVertex
100
AcDb2dVertex
 10
222.033986807
 20
83.606952487
 30
0.0
  0
VERTEX
  5
45E
100
AcDbEntity
  8
L1
100
AcDbVertex
100
AcDb2dVertex
 10
221.9679620637
 20
84.2785867607
 30
0.0
  0
SEQEND
  5
45F
100
AcDbEntity
  8
L1
  0
POLYLINE
  5
460
100
AcDbEntity
  8
L1
100
AcDb2dPolyline
 66
     1
 10
0.0
 20
0.0
 30
0.0
  0
VERTEX
  5
461
100
AcDbEntity
  8
L1
100
AcDbVertex
100
AcDb2dVertex
 10
225.4678251721
 20
80.7837775818
 30
0.0
  0
VERTEX
  5
462
100
AcDbEntity
  8
L1
100
AcDbVertex
100
AcDb2dVertex
 10
225.4652964034
 20
80.7837784874
 30
0.0
  0
VERTEX
  5
463
100
AcDbEntity
  8
L1
100
AcDbVertex
100
AcDb2dVertex
 10
225.4627676204
 20
80.7837812041
 30
0.0
  0
SEQEND
  5
464
100
AcDbEntity
  8
L1
  0
ARC
  5
465
100
AcDbEntity
  8
L1
100
AcDbCircle
 10
239.8627676204
 20
85.5785867607
 30
0.0
 40
4.0226898581
100
AcDbArc
 50
180.0
 51
270.0
  0
ARC
  5
466
100
AcDbEntity
  8
L1
100
AcDbCircle
 10
239.8627676204
 20
85.5785867607
 30
0.0
 40
4.881166361
100
AcDbArc
 50
173.0
 51
220.5579963961
  0
ARC
  5
467
100
AcDbEntity
  8
L1
100
AcDbCircle
 10
239.8627676204
 20
85.5785867607
 30
0.0
 40
4.8549857577
100
AcDbArc
 50
173.0
 51
221.2325076746
  0
POLYLINE
  5
468
100
AcDbEntity
  8
L1
100
AcDb2dPolyline
 66
     1
 10
0.0
 20
0.0
 30
0.0
  0
VERTEX
  5
469
100
AcDbEntity
  8
L1
100
AcDbVertex
100
AcDb2dVertex
 10
236.2116189371
 20
82.3785867607
 30
0.0
  0
VERTEX
  5
46A
100
AcDbEntity
  8
L1
100
AcDbVertex
100
AcDb2dVertex
 10
236.154310329
 20
82.4047673641
 30
0.0
  0
SEQEND
  5
46B
100
AcDbEntity
  8
L1
  0
ARC
  5
46C
100
AcDbEntity
  8
L1
100
AcDbCircle
 10
239.8627676204
 20
85.5785867607
 30
0.0
 40
1.3772111418
100
AcDbArc
 50
180.0
 51
270.0
  0
LINE
  5
46D
100
AcDbEntity
  8
L6
  6
CENTER
 62
     1
100
AcDbLine
 10
225.2627676204
 20
89.0785867607
 30
0.0
 11
235.2627676204
 21
89.0785867607
 31
0.0
  0
ARC
  5
46E
100
AcDbEntity
  8
L1
100
AcDbCircle
 10
230.2627676204
 20
89.0785867607
 30
0.0
 40
5.0738193966
100
AcDbArc
 50
353.0
 51
97.0
  0
ARC
  5
46F
100
AcDbEntity
  8
L1
100
AcDbCircle
 10
230.2627676204
 20
89.0785867607
 30
0.0
 40
5.1
100
AcDbArc
 50
353.0
 51
97.0
  0
LINE
  5
470
100
AcDbEntity
  8
L1
100
AcDbLine
 10
230.2627676204
 20
94.6558969026
 30
0.0
 11
226.7627676204
 21
94.6558969026
 31
0.0
  0
LINE
  5
471
100
AcDbEntity
  8
L1
100
AcDbLine
 10
227.3544415469
 20
93.8597893307
 30
0.0
 11
229.641233969
 21
94.1405721341
 31
0.0
  0
LINE
  5
472
100
AcDbEntity
  8
L1
100
AcDbLine
 10
229.6444245819
 20
94.114586677
 30
0.0
 11
227.3576321598
 21
93.8338038736
 31
0.0
  0
ARC
  5
473
100
AcDbEntity
  8
L1
100
AcDbCircle
 10
226.7627676204
 20
98.6785867607
 30
0.0
 40
4.8549857577
100
AcDbArc
 50
228.7674923254
 51
277.0
  0
ARC
  5
474
100
AcDbEntity
  8
L1
100
AcDbCircle
 10
226.7627676204
 20
98.6785867607
 30
0.0
 40
4.881166361
100
AcDbArc
 50
229.4420036039
 51
277.0
  0
POLYLINE
  5
475
100
AcDbEntity
  8
L1
100
AcDb2dPolyline
 66
     1
 10
0.0
 20
0.0
 30
0.0
  0
VERTEX
  5
476
100
AcDbEntity
  8
L1
100
AcDbVertex
100
AcDb2dVertex
 10
223.5889482237
 20
94.9701294694
 30
0.0
  0
VERTEX
  5
477
100
AcDbEntity
  8
L1
100
AcDbVertex
100
AcDb2dVertex
 10
223.5627676204
 20
95.0274380775
 30
0.0
  0
SEQEND
  5
478
100
AcDbEntity
  8
L1
  0
CIRCLE
  5
479
100
AcDbEntity
  8
L1
100
AcDbCircle
 10
230.2627676204
 20
89.0785867607
 30
0.0
 40
2.25
  0
POLYLINE
  5
47A
100
AcDbEntity
  8
L1
100
AcDb2dPolyline
 66
     1
 10
0.0
 20
0.0
 30
0.0
  0
VERTEX
  5
47B
100
AcDbEntity
  8
L1
100
AcDbVertex
100
AcDb2dVertex
 10
237.4191601455
 20
94.2236805003
 30
0.0
  0
VERTEX
  5
47C
100
AcDbEntity
  8
L1
100
AcDbVertex
100
AcDb2dVertex
 10
237.3809401612
 20
94.2959059853
 30
0.0
  0
VERTEX
  5
47D
100
AcDbEntity
  8
L1
100
AcDbVertex
100
AcDb2dVertex
 10
237.3663058
 20
94.3527013434
 30
0.0
  0
VERTEX
  5
47E
100
AcDbEntity
  8
L1
100
AcDbVertex
100
AcDb2dVertex
 10
237.3630018648
 20
94.4112586559
 30
0.0
  0
VERTEX
  5
47F
100
AcDbEntity
  8
L1
100
AcDbVertex
100
AcDb2dVertex
 10
237.3711548762
 20
94.469338139
 30
0.0
  0
VERTEX
  5
480
100
AcDbEntity
  8
L1
100
AcDbVertex
100
AcDb2dVertex
 10
237.3904523844
 20
94.5247214093
 30
0.0
  0
VERTEX
  5
481
100
AcDbEntity
  8
L1
100
AcDbVertex
100
AcDb2dVertex
 10
237.4329277238
 20
94.591625827
 30
0.0
  0
SEQEND
  5
482
100
AcDbEntity
  8
L1
  0
POLYLINE
  5
483
100
AcDbEntity
  8
L1
100
AcDb2dPolyline
 66
     1
 10
0.0
 20
0.0
 30
0.0
  0
VERTEX
  5
484
100
AcDbEntity
  8
L1
100
AcDbVertex
100
AcDb2dVertex
 10
237.6465861328
 20
94.5828680381
 30
0.0
  0
VERTEX
  5
485
100
AcDbEntity
  8
L1
100
AcDbVertex
100
AcDb2dVertex
 10
237.6039544438
 20
94.5156249799
 30
0.0
  0
VERTEX
  5
486
100
AcDbEntity
  8
L1
100
AcDbVertex
100
AcDb2dVertex
 10
237.5847258185
 20
94.4602177162
 30
0.0
  0
VERTEX
  5
487
100
AcDbEntity
  8
L1
100
AcDbVertex
100
AcDb2dVertex
 10
237.5766450492
 20
94.4021280985
 30
0.0
  0
VERTEX
  5
488
100
AcDbEntity
  8
L1
100
AcDbVertex
100
AcDb2dVertex
 10
237.5800218266
 20
94.343574857
 30
0.0
  0
VERTEX
  5
489
100
AcDbEntity
  8
L1
100
AcDbVertex
100
AcDb2dVertex
 10
237.5947268494
 20
94.2867976653
 30
0.0
  0
VERTEX
  5
48A
100
AcDbEntity
  8
L1
100
AcDbVertex
100
AcDb2dVertex
 10
237.6303562694
 20
94.2183993652
 30
0.0
  0
SEQEND
  5
48B
100
AcDbEntity
  8
L1
  0
ARC
  5
48C
100
AcDbEntity
  8
L1
100
AcDbCircle
 10
230.2627676204
 20
89.0785867607
 30
0.0
 40
8.9832642236
100
AcDbArc
 50
0.0
 51
34.9005836332
  0
CIRCLE
  5
48D
100
AcDbEntity
  8
L1
100
AcDbCircle
 10
249.5127676204
 20
100.8285867607
 30
0.0
 40
1.25
  0
LINE
  5
48E
100
AcDbEntity
  8
L6
  6
CENTER
 62
     1
100
AcDbLine
 10
244.5127676204
 20
100.8285867607
 30
0.0
 11
254.5127676204
 21
100.8285867607
 31
0.0
  0
CIRCLE
  5
48F
100
AcDbEntity
  8
L1
100
AcDbCircle
 10
249.5127676204
 20
100.8285867607
 30
0.0
 40
4.0918974745
  0
CIRCLE
  5
490
100
AcDbEntity
  8
L1
100
AcDbCircle
 10
249.5127676204
 20
100.8285867607
 30
0.0
 40
1.6
  0
ARC
  5
491
100
AcDbEntity
  8
L1
100
AcDbCircle
 10
230.2627676204
 20
89.0785867607
 30
0.0
 40
8.9832642236
100
AcDbArc
 50
55.0994163668
 51
90.0
  0
POLYLINE
  5
492
100
AcDbEntity
  8
L1
100
AcDb2dPolyline
 66
     1
 10
0.0
 20
0.0
 30
0.0
  0
VERTEX
  5
493
100
AcDbEntity
  8
L1
100
AcDbVertex
100
AcDb2dVertex
 10
227.7739578209
 20
98.6618281382
 30
0.0
  0
VERTEX
  5
494
100
AcDbEntity
  8
L1
100
AcDbVertex
100
AcDb2dVertex
 10
227.6935776176
 20
98.3618360273
 30
0.0
  0
VERTEX
  5
495
100
AcDbEntity
  8
L1
100
AcDbVertex
100
AcDb2dVertex
 10
227.473972778
 20
98.1422311876
 30
0.0
  0
VERTEX
  5
496
100
AcDbEntity
  8
L1
100
AcDbVertex
100
AcDb2dVertex
 10
227.1739806671
 20
98.0618509844
 30
0.0
  0
SEQEND
  5
497
100
AcDbEntity
  8
L1
  0
LINE
  5
498
100
AcDbEntity
  8
L1
100
AcDbLine
 10
230.2627676204
 20
98.0618509844
 30
0.0
 11
227.1739806671
 21
98.0618509844
 31
0.0
  0
LINE
  5
499
100
AcDbEntity
  8
L1
100
AcDbLine
 10
226.7627676204
 20
97.3013756189
 30
0.0
 11
230.2627676204
 21
97.3013756189
 31
0.0
  0
ARC
  5
49A
100
AcDbEntity
  8
L1
100
AcDbCircle
 10
226.7627676204
 20
98.6785867607
 30
0.0
 40
1.3772111418
100
AcDbArc
 50
180.0
 51
270.0
  0
POLYLINE
  5
49B
100
AcDbEntity
  8
L1
100
AcDb2dPolyline
 66
     1
 10
0.0
 20
0.0
 30
0.0
  0
VERTEX
  5
49C
100
AcDbEntity
  8
L1
100
AcDbVertex
100
AcDb2dVertex
 10
237.0667345602
 20
97.5529710333
 30
0.0
  0
VERTEX
  5
49D
100
AcDbEntity
  8
L1
100
AcDbVertex
100
AcDb2dVertex
 10
237.2726488817
 20
97.6228709542
 30
0.0
  0
VERTEX
  5
49E
100
AcDbEntity
  8
L1
100
AcDbVertex
100
AcDb2dVertex
 10
237.4716874575
 20
97.5352904079
 30
0.0
  0
SEQEND
  5
49F
100
AcDbEntity
  8
L1
  0
LINE
  5
4A0
100
AcDbEntity
  8
L1
100
AcDbLine
 10
237.4616711234
 20
97.3058786392
 30
0.0
 11
238.4900594988
 21
96.2774902638
 31
0.0
  0
POLYLINE
  5
4A1
100
AcDbEntity
  8
L1
100
AcDb2dPolyline
 66
     1
 10
0.0
 20
0.0
 30
0.0
  0
VERTEX
  5
4A2
100
AcDbEntity
  8
L1
100
AcDbVertex
100
AcDb2dVertex
 10
238.4900594988
 20
96.2774902638
 30
0.0
  0
VERTEX
  5
4A3
100
AcDbEntity
  8
L1
100
AcDbVertex
100
AcDb2dVertex
 10
238.5776400451
 20
96.078451688
 30
0.0
  0
VERTEX
  5
4A4
100
AcDbEntity
  8
L1
100
AcDbVertex
100
AcDb2dVertex
 10
238.5077401241
 20
95.8725373665
 30
0.0
  0
SEQEND
  5
4A5
100
AcDbEntity
  8
L1
  0
POLYLINE
  5
4A6
100
AcDbEntity
  8
L1
100
AcDb2dPolyline
 66
     1
 10
0.0
 20
0.0
 30
0.0
  0
VERTEX
  5
4A7
100
AcDbEntity
  8
L1
100
AcDbVertex
100
AcDb2dVertex
 10
237.0567182261
 20
97.3235592645
 30
0.0
  0
VERTEX
  5
4A8
100
AcDbEntity
  8
L1
100
AcDbVertex
100
AcDb2dVertex
 10
237.2626325476
 20
97.3934591854
 30
0.0
  0
VERTEX
  5
4A9
100
AcDbEntity
  8
L1
100
AcDbVertex
100
AcDb2dVertex
 10
237.4616711234
 20
97.3058786392
 30
0.0
  0
SEQEND
  5
4AA
100
AcDbEntity
  8
L1
  0
LINE
  5
4AB
100
AcDbEntity
  8
L1
100
AcDbLine
 10
235.7758066866
 20
96.2487468642
 30
0.0
 11
237.0567182261
 21
97.3235592645
 31
0.0
  0
POLYLINE
  5
4AC
100
AcDbEntity
  8
L1
100
AcDb2dPolyline
 66
     1
 10
0.0
 20
0.0
 30
0.0
  0
VERTEX
  5
4AD
100
AcDbEntity
  8
L1
100
AcDbVertex
100
AcDb2dVertex
 10
235.7758066866
 20
96.2487468642
 30
0.0
  0
VERTEX
  5
4AE
100
AcDbEntity
  8
L1
100
AcDbVertex
100
AcDb2dVertex
 10
235.7066389889
 20
96.2052361567
 30
0.0
  0
VERTEX
  5
4AF
100
AcDbEntity
  8
L1
100
AcDbVertex
100
AcDb2dVertex
 10
235.6510960481
 20
96.1863984564
 30
0.0
  0
VERTEX
  5
4B0
100
AcDbEntity
  8
L1
100
AcDbVertex
100
AcDb2dVertex
 10
235.5929493685
 20
96.1787278319
 30
0.0
  0
VERTEX
  5
4B1
100
AcDbEntity
  8
L1
100
AcDbVertex
100
AcDb2dVertex
 10
235.533185837
 20
96.1827234265
 30
0.0
  0
VERTEX
  5
4B2
100
AcDbEntity
  8
L1
100
AcDbVertex
100
AcDb2dVertex
 10
235.4754073012
 20
96.1985122866
 30
0.0
  0
VERTEX
  5
4B3
100
AcDbEntity
  8
L1
100
AcDbVertex
100
AcDb2dVertex
 10
235.4078613599
 20
96.2349792859
 30
0.0
  0
SEQEND
  5
4B4
100
AcDbEntity
  8
L1
  0
POLYLINE
  5
4B5
100
AcDbEntity
  8
L1
100
AcDb2dPolyline
 66
     1
 10
0.0
 20
0.0
 30
0.0
  0
VERTEX
  5
4B6
100
AcDbEntity
  8
L1
100
AcDbVertex
100
AcDb2dVertex
 10
238.7194712675
 20
96.2875065979
 30
0.0
  0
VERTEX
  5
4B7
100
AcDbEntity
  8
L1
100
AcDbVertex
100
AcDb2dVertex
 10
238.8070518138
 20
96.0884680221
 30
0.0
  0
VERTEX
  5
4B8
100
AcDbEntity
  8
L1
100
AcDbVertex
100
AcDb2dVertex
 10
238.7371518929
 20
95.8825537006
 30
0.0
  0
SEQEND
  5
4B9
100
AcDbEntity
  8
L1
  0
LINE
  5
4BA
100
AcDbEntity
  8
L1
100
AcDbLine
 10
237.4716874575
 20
97.5352904079
 30
0.0
 11
238.7194712675
 21
96.2875065979
 31
0.0
  0
LINE
  5
4BB
100
AcDbEntity
  8
L1
100
AcDbLine
 10
235.7670488977
 20
96.4624052732
 30
0.0
 11
237.0667345602
 21
97.5529710333
 31
0.0
  0
POLYLINE
  5
4BC
100
AcDbEntity
  8
L1
100
AcDb2dPolyline
 66
     1
 10
0.0
 20
0.0
 30
0.0
  0
VERTEX
  5
4BD
100
AcDbEntity
  8
L1
100
AcDbVertex
100
AcDb2dVertex
 10
235.4025802249
 20
96.4461754098
 30
0.0
  0
VERTEX
  5
4BE
100
AcDbEntity
  8
L1
100
AcDbVertex
100
AcDb2dVertex
 10
235.47098985
 20
96.4105418389
 30
0.0
  0
VERTEX
  5
4BF
100
AcDbEntity
  8
L1
100
AcDbVertex
100
AcDb2dVertex
 10
235.5277660911
 20
96.3958393406
 30
0.0
  0
VERTEX
  5
4C0
100
AcDbEntity
  8
L1
100
AcDbVertex
100
AcDb2dVertex
 10
235.5863178915
 20
96.39246455
 30
0.0
  0
VERTEX
  5
4C1
100
AcDbEntity
  8
L1
100
AcDbVertex
100
AcDb2dVertex
 10
235.6444087254
 20
96.4005474013
 30
0.0
  0
VERTEX
  5
4C2
100
AcDbEntity
  8
L1
100
AcDbVertex
100
AcDb2dVertex
 10
235.699816681
 20
96.4197785821
 30
0.0
  0
VERTEX
  5
4C3
100
AcDbEntity
  8
L1
100
AcDbVertex
100
AcDb2dVertex
 10
235.7670488977
 20
96.4624052732
 30
0.0
  0
SEQEND
  5
4C4
100
AcDbEntity
  8
L1
  0
LINE
  5
4C5
100
AcDbEntity
  8
L6
  6
CENTER
 62
     1
100
AcDbLine
 10
249.5127676204
 20
95.8285867607
 30
0.0
 11
249.5127676204
 21
105.8285867607
 31
0.0
  0
LINE
  5
4C6
100
AcDbEntity
  8
L1
100
AcDbLine
 10
338.6997266976
 20
95.9093946365
 30
0.0
 11
338.8998364745
 21
95.7092848595
 31
0.0
  0
LINE
  5
4C7
100
AcDbEntity
  8
L1
100
AcDbLine
 10
338.898440267
 20
95.6909344194
 30
0.0
 11
338.465953028
 21
96.1234216584
 31
0.0
  0
LINE
  5
4C8
100
AcDbEntity
  8
L1
100
AcDbLine
 10
336.3789491079
 20
94.5828680381
 30
0.0
 11
335.2883833478
 21
95.8825537006
 31
0.0
  0
LINE
  5
4C9
100
AcDbEntity
  8
L1
100
AcDbLine
 10
336.5926075169
 20
94.591625827
 30
0.0
 11
335.5177951166
 21
95.8725373665
 31
0.0
  0
ARC
  5
4CA
100
AcDbEntity
  8
L1
100
AcDbCircle
 10
343.7627676204
 20
89.0785867607
 30
0.0
 40
8.2088258697
100
AcDbArc
 50
126.339798915
 51
143.660201085
  0
LINE
  5
4CB
100
AcDbEntity
  8
L1
100
AcDbLine
 10
338.1854574785
 20
89.0785867607
 30
0.0
 11
338.1854574785
 21
85.5785867607
 31
0.0
  0
LINE
  5
4CC
100
AcDbEntity
  8
L1
100
AcDbLine
 10
338.9815650504
 20
86.1702606873
 30
0.0
 11
338.700782247
 21
88.4570531094
 31
0.0
  0
LINE
  5
4CD
100
AcDbEntity
  8
L1
100
AcDbLine
 10
338.7267677041
 20
88.4602437223
 30
0.0
 11
339.0075505075
 21
86.1734513002
 31
0.0
  0
POLYLINE
  5
4CE
100
AcDbEntity
  8
L1
100
AcDb2dPolyline
 66
     1
 10
0.0
 20
0.0
 30
0.0
  0
VERTEX
  5
4CF
100
AcDbEntity
  8
L1
100
AcDbVertex
100
AcDb2dVertex
 10
334.1795262429
 20
86.5897769613
 30
0.0
  0
VERTEX
  5
4D0
100
AcDbEntity
  8
L1
100
AcDbVertex
100
AcDb2dVertex
 10
334.4795183538
 20
86.509396758
 30
0.0
  0
VERTEX
  5
4D1
100
AcDbEntity
  8
L1
100
AcDbVertex
100
AcDb2dVertex
 10
334.6991231935
 20
86.2897919184
 30
0.0
  0
VERTEX
  5
4D2
100
AcDbEntity
  8
L1
100
AcDbVertex
100
AcDb2dVertex
 10
334.7795033968
 20
85.9897998074
 30
0.0
  0
SEQEND
  5
4D3
100
AcDbEntity
  8
L1
  0
LINE
  5
4D4
100
AcDbEntity
  8
L1
100
AcDbLine
 10
334.7795033968
 20
89.0785867607
 30
0.0
 11
334.7795033968
 21
85.9897998074
 31
0.0
  0
LINE
  5
4D5
100
AcDbEntity
  8
L1
100
AcDbLine
 10
335.5399787622
 20
85.5785867607
 30
0.0
 11
335.5399787622
 21
89.0785867607
 31
0.0
  0
POLYLINE
  5
4D6
100
AcDbEntity
  8
L1
100
AcDb2dPolyline
 66
     1
 10
0.0
 20
0.0
 30
0.0
  0
VERTEX
  5
4D7
100
AcDbEntity
  8
L1
100
AcDbVertex
100
AcDb2dVertex
 10
337.8712249117
 20
82.4047673641
 30
0.0
  0
VERTEX
  5
4D8
100
AcDbEntity
  8
L1
100
AcDbVertex
100
AcDb2dVertex
 10
337.8139163036
 20
82.3785867607
 30
0.0
  0
SEQEND
  5
4D9
100
AcDbEntity
  8
L1
  0
ARC
  5
4DA
100
AcDbEntity
  8
L1
100
AcDbCircle
 10
334.1627676204
 20
85.5785867607
 30
0.0
 40
1.3772111418
100
AcDbArc
 50
270.0
 51
0.0
  0
ARC
  5
4DB
100
AcDbEntity
  8
L1
100
AcDbCircle
 10
334.1627676204
 20
85.5785867607
 30
0.0
 40
4.0226898581
100
AcDbArc
 50
270.0
 51
0.0
  0
POLYLINE
  5
4DC
100
AcDbEntity
  8
L1
100
AcDb2dPolyline
 66
     1
 10
0.0
 20
0.0
 30
0.0
  0
VERTEX
  5
4DD
100
AcDbEntity
  8
L1
100
AcDbVertex
100
AcDb2dVertex
 10
338.8998364745
 20
95.7092848595
 30
0.0
  0
VERTEX
  5
4DE
100
AcDbEntity
  8
L1
100
AcDbVertex
100
AcDb2dVertex
 10
338.898440267
 20
95.6909344194
 30
0.0
  0
SEQEND
  5
4DF
100
AcDbEntity
  8
L1
  0
POLYLINE
  5
4E0
100
AcDbEntity
  8
L1
100
AcDb2dPolyline
 66
     1
 10
0.0
 20
0.0
 30
0.0
  0
VERTEX
  5
4E1
100
AcDbEntity
  8
L1
100
AcDbVertex
100
AcDb2dVertex
 10
336.3951789713
 20
94.2183993652
 30
0.0
  0
VERTEX
  5
4E2
100
AcDbEntity
  8
L1
100
AcDbVertex
100
AcDb2dVertex
 10
336.4308117963
 20
94.2868069551
 30
0.0
  0
VERTEX
  5
4E3
100
AcDbEntity
  8
L1
100
AcDbVertex
100
AcDb2dVertex
 10
336.4457063123
 20
94.3448224748
 30
0.0
  0
VERTEX
  5
4E4
100
AcDbEntity
  8
L1
100
AcDbVertex
100
AcDb2dVertex
 10
336.4487783096
 20
94.4046405931
 30
0.0
  0
VERTEX
  5
4E5
100
AcDbEntity
  8
L1
100
AcDbVertex
100
AcDb2dVertex
 10
336.4402104408
 20
94.4626619369
 30
0.0
  0
VERTEX
  5
4E6
100
AcDbEntity
  8
L1
100
AcDbVertex
100
AcDb2dVertex
 10
336.4205170269
 20
94.5179073588
 30
0.0
  0
VERTEX
  5
4E7
100
AcDbEntity
  8
L1
100
AcDbVertex
100
AcDb2dVertex
 10
336.3789491079
 20
94.5828680381
 30
0.0
  0
SEQEND
  5
4E8
100
AcDbEntity
  8
L1
  0
ARC
  5
4E9
100
AcDbEntity
  8
L1
100
AcDbCircle
 10
343.7627676204
 20
89.0785867607
 30
0.0
 40
8.2227888582
100
AcDbArc
 50
143.7438067527
 51
180.0
  0
ARC
  5
4EA
100
AcDbEntity
  8
L1
100
AcDbCircle
 10
343.7627676204
 20
89.0785867607
 30
0.0
 40
8.9832642236
100
AcDbArc
 50
145.0994163668
 51
180.0
  0
ARC
  5
4EB
100
AcDbEntity
  8
L1
100
AcDbCircle
 10
343.7627676204
 20
89.0785867607
 30
0.0
 40
8.8139629885
100
AcDbArc
 50
143.0615165491
 51
144.2857253527
  0
POLYLINE
  5
4EC
100
AcDbEntity
  8
L1
100
AcDb2dPolyline
 66
     1
 10
0.0
 20
0.0
 30
0.0
  0
VERTEX
  5
4ED
100
AcDbEntity
  8
L1
100
AcDbVertex
100
AcDb2dVertex
 10
336.660900566
 20
94.4324335098
 30
0.0
  0
VERTEX
  5
4EE
100
AcDbEntity
  8
L1
100
AcDbVertex
100
AcDb2dVertex
 10
336.6626266006
 20
94.4087669631
 30
0.0
  0
VERTEX
  5
4EF
100
AcDbEntity
  8
L1
100
AcDbVertex
100
AcDb2dVertex
 10
336.6588363041
 20
94.3502406305
 30
0.0
  0
VERTEX
  5
4F0
100
AcDbEntity
  8
L1
100
AcDbVertex
100
AcDb2dVertex
 10
336.6437311965
 20
94.2935702134
 30
0.0
  0
VERTEX
  5
4F1
100
AcDbEntity
  8
L1
100
AcDbVertex
100
AcDb2dVertex
 10
336.6063750952
 20
94.2236805003
 30
0.0
  0
SEQEND
  5
4F2
100
AcDbEntity
  8
L1
  0
POLYLINE
  5
4F3
100
AcDbEntity
  8
L1
100
AcDb2dPolyline
 66
     1
 10
0.0
 20
0.0
 30
0.0
  0
VERTEX
  5
4F4
100
AcDbEntity
  8
L1
100
AcDbVertex
100
AcDb2dVertex
 10
336.5926075169
 20
94.591625827
 30
0.0
  0
VERTEX
  5
4F5
100
AcDbEntity
  8
L1
100
AcDbVertex
100
AcDb2dVertex
 10
336.6350766492
 20
94.5247348295
 30
0.0
  0
VERTEX
  5
4F6
100
AcDbEntity
  8
L1
100
AcDbVertex
100
AcDb2dVertex
 10
336.660900566
 20
94.4324335098
 30
0.0
  0
SEQEND
  5
4F7
100
AcDbEntity
  8
L1
  0
LINE
  5
4F8
100
AcDbEntity
  8
L1
100
AcDbLine
 10
336.7179327227
 20
94.3754013531
 30
0.0
 11
337.1504199617
 21
93.9429141141
 31
0.0
  0
POLYLINE
  5
4F9
100
AcDbEntity
  8
L1
100
AcDb2dPolyline
 66
     1
 10
0.0
 20
0.0
 30
0.0
  0
VERTEX
  5
4FA
100
AcDbEntity
  8
L1
100
AcDbVertex
100
AcDb2dVertex
 10
337.1504199617
 20
93.9429141141
 30
0.0
  0
VERTEX
  5
4FB
100
AcDbEntity
  8
L1
100
AcDbVertex
100
AcDb2dVertex
 10
337.1320695216
 20
93.9415179066
 30
0.0
  0
SEQEND
  5
4FC
100
AcDbEntity
  8
L1
  0
LINE
  5
4FD
100
AcDbEntity
  8
L1
100
AcDbLine
 10
337.1320695216
 20
93.9415179066
 30
0.0
 11
336.9319597446
 21
94.1416276835
 31
0.0
  0
POLYLINE
  5
4FE
100
AcDbEntity
  8
L1
100
AcDb2dPolyline
 66
     1
 10
0.0
 20
0.0
 30
0.0
  0
VERTEX
  5
4FF
100
AcDbEntity
  8
L1
100
AcDbVertex
100
AcDb2dVertex
 10
336.9319597446
 20
94.1416276835
 30
0.0
  0
VERTEX
  5
500
100
AcDbEntity
  8
L1
100
AcDbVertex
100
AcDb2dVertex
 10
336.8900578522
 20
94.183605447
 30
0.0
  0
VERTEX
  5
501
100
AcDbEntity
  8
L1
100
AcDbVertex
100
AcDb2dVertex
 10
336.8497199653
 20
94.2241514626
 30
0.0
  0
VERTEX
  5
502
100
AcDbEntity
  8
L1
100
AcDbVertex
100
AcDb2dVertex
 10
336.8129544251
 20
94.2612639002
 30
0.0
  0
VERTEX
  5
503
100
AcDbEntity
  8
L1
100
AcDbVertex
100
AcDb2dVertex
 10
336.780506242
 20
94.2941710311
 30
0.0
  0
VERTEX
  5
504
100
AcDbEntity
  8
L1
100
AcDbVertex
100
AcDb2dVertex
 10
336.7544145433
 20
94.3208258273
 30
0.0
  0
VERTEX
  5
505
100
AcDbEntity
  8
L1
100
AcDbVertex
100
AcDb2dVertex
 10
336.7347428977
 20
94.341135553
 30
0.0
  0
VERTEX
  5
506
100
AcDbEntity
  8
L1
100
AcDbVertex
100
AcDb2dVertex
 10
336.7233564831
 20
94.3531973078
 30
0.0
  0
VERTEX
  5
507
100
AcDbEntity
  8
L1
100
AcDbVertex
100
AcDb2dVertex
 10
336.7191584042
 20
94.3580992104
 30
0.0
  0
SEQEND
  5
508
100
AcDbEntity
  8
L1
  0
POLYLINE
  5
509
100
AcDbEntity
  8
L1
100
AcDb2dPolyline
 66
     1
 10
0.0
 20
0.0
 30
0.0
  0
VERTEX
  5
50A
100
AcDbEntity
  8
L1
100
AcDbVertex
100
AcDb2dVertex
 10
336.7191584042
 20
94.3580992104
 30
0.0
  0
VERTEX
  5
50B
100
AcDbEntity
  8
L1
100
AcDbVertex
100
AcDb2dVertex
 10
336.7179327227
 20
94.3754013531
 30
0.0
  0
SEQEND
  5
50C
100
AcDbEntity
  8
L1
  0
LINE
  5
50D
100
AcDbEntity
  8
L6
  6
CENTER
 62
     1
100
AcDbLine
 10
280.5305365411
 20
100.8285867607
 30
0.0
 11
294.0264427949
 21
100.8285867607
 31
0.0
  0
CIRCLE
  5
50E
100
AcDbEntity
  8
L1
100
AcDbCircle
 10
287.0127676204
 20
100.8285867607
 30
0.0
 40
1.6
  0
CIRCLE
  5
50F
100
AcDbEntity
  8
L1
100
AcDbCircle
 10
287.0127676204
 20
100.8285867607
 30
0.0
 40
1.25
  0
CIRCLE
  5
510
100
AcDbEntity
  8
L1
100
AcDbCircle
 10
287.0127676204
 20
100.8285867607
 30
0.0
 40
4.0918974745
  0
LINE
  5
511
100
AcDbEntity
  8
L6
  6
CENTER
 62
     1
100
AcDbLine
 10
324.5127676204
 20
95.8285867607
 30
0.0
 11
324.5127676204
 21
105.8285867607
 31
0.0
  0
CIRCLE
  5
512
100
AcDbEntity
  8
L1
100
AcDbCircle
 10
324.5127676204
 20
100.8285867607
 30
0.0
 40
1.6
  0
CIRCLE
  5
513
100
AcDbEntity
  8
L1
100
AcDbCircle
 10
324.5127676204
 20
100.8285867607
 30
0.0
 40
1.25
  0
LINE
  5
514
100
AcDbEntity
  8
L6
  6
CENTER
 62
     1
100
AcDbLine
 10
329.5127676204
 20
100.8285867607
 30
0.0
 11
319.5127676204
 21
100.8285867607
 31
0.0
  0
CIRCLE
  5
515
100
AcDbEntity
  8
L1
100
AcDbCircle
 10
324.5127676204
 20
100.8285867607
 30
0.0
 40
4.0918974745
  0
POLYLINE
  5
516
100
AcDbEntity
  8
L1
100
AcDb2dPolyline
 66
     1
 10
0.0
 20
0.0
 30
0.0
  0
VERTEX
  5
517
100
AcDbEntity
  8
L1
100
AcDbVertex
100
AcDb2dVertex
 10
338.258486343
 20
96.4624052732
 30
0.0
  0
VERTEX
  5
518
100
AcDbEntity
  8
L1
100
AcDbVertex
100
AcDb2dVertex
 10
338.3257294012
 20
96.4197735842
 30
0.0
  0
VERTEX
  5
519
100
AcDbEntity
  8
L1
100
AcDbVertex
100
AcDb2dVertex
 10
338.3811366649
 20
96.4005449589
 30
0.0
  0
VERTEX
  5
51A
100
AcDbEntity
  8
L1
100
AcDbVertex
100
AcDb2dVertex
 10
338.4392262826
 20
96.3924641896
 30
0.0
  0
VERTEX
  5
51B
100
AcDbEntity
  8
L1
100
AcDbVertex
100
AcDb2dVertex
 10
338.4977795242
 20
96.395840967
 30
0.0
  0
VERTEX
  5
51C
100
AcDbEntity
  8
L1
100
AcDbVertex
100
AcDb2dVertex
 10
338.5545567159
 20
96.4105459898
 30
0.0
  0
VERTEX
  5
51D
100
AcDbEntity
  8
L1
100
AcDbVertex
100
AcDb2dVertex
 10
338.6229550159
 20
96.4461754098
 30
0.0
  0
SEQEND
  5
51E
100
AcDbEntity
  8
L1
  0
POLYLINE
  5
51F
100
AcDbEntity
  8
L1
100
AcDb2dPolyline
 66
     1
 10
0.0
 20
0.0
 30
0.0
  0
VERTEX
  5
520
100
AcDbEntity
  8
L1
100
AcDbVertex
100
AcDb2dVertex
 10
338.4089208713
 20
96.1804538151
 30
0.0
  0
VERTEX
  5
521
100
AcDbEntity
  8
L1
100
AcDbVertex
100
AcDb2dVertex
 10
338.3189092461
 20
96.2052302777
 30
0.0
  0
VERTEX
  5
522
100
AcDbEntity
  8
L1
100
AcDbVertex
100
AcDb2dVertex
 10
338.2497285541
 20
96.2487468642
 30
0.0
  0
SEQEND
  5
523
100
AcDbEntity
  8
L1
  0
POLYLINE
  5
524
100
AcDbEntity
  8
L1
100
AcDb2dPolyline
 66
     1
 10
0.0
 20
0.0
 30
0.0
  0
VERTEX
  5
525
100
AcDbEntity
  8
L1
100
AcDbVertex
100
AcDb2dVertex
 10
338.6176738808
 20
96.2349792859
 30
0.0
  0
VERTEX
  5
526
100
AcDbEntity
  8
L1
100
AcDbVertex
100
AcDb2dVertex
 10
338.5477961925
 20
96.197627689
 30
0.0
  0
VERTEX
  5
527
100
AcDbEntity
  8
L1
100
AcDbVertex
100
AcDb2dVertex
 10
338.491124865
 20
96.1825199003
 30
0.0
  0
VERTEX
  5
528
100
AcDbEntity
  8
L1
100
AcDbVertex
100
AcDb2dVertex
 10
338.4325970978
 20
96.1787274588
 30
0.0
  0
VERTEX
  5
529
100
AcDbEntity
  8
L1
100
AcDbVertex
100
AcDb2dVertex
 10
338.4089208713
 20
96.1804538151
 30
0.0
  0
SEQEND
  5
52A
100
AcDbEntity
  8
L1
  0
ARC
  5
52B
100
AcDbEntity
  8
L1
100
AcDbCircle
 10
343.7627676204
 20
89.0785867607
 30
0.0
 40
8.8139629885
100
AcDbArc
 50
125.7142746473
 51
126.9384834509
  0
POLYLINE
  5
52C
100
AcDbEntity
  8
L1
100
AcDb2dPolyline
 66
     1
 10
0.0
 20
0.0
 30
0.0
  0
VERTEX
  5
52D
100
AcDbEntity
  8
L1
100
AcDbVertex
100
AcDb2dVertex
 10
338.4832551707
 20
96.1221959769
 30
0.0
  0
VERTEX
  5
52E
100
AcDbEntity
  8
L1
100
AcDbVertex
100
AcDb2dVertex
 10
338.4881570733
 20
96.117997898
 30
0.0
  0
VERTEX
  5
52F
100
AcDbEntity
  8
L1
100
AcDbVertex
100
AcDb2dVertex
 10
338.5002188281
 20
96.1066114834
 30
0.0
  0
VERTEX
  5
530
100
AcDbEntity
  8
L1
100
AcDbVertex
100
AcDb2dVertex
 10
338.5205285538
 20
96.0869398378
 30
0.0
  0
VERTEX
  5
531
100
AcDbEntity
  8
L1
100
AcDbVertex
100
AcDb2dVertex
 10
338.54718335
 20
96.0608481391
 30
0.0
  0
VERTEX
  5
532
100
AcDbEntity
  8
L1
100
AcDbVertex
100
AcDb2dVertex
 10
338.5800904809
 20
96.028399956
 30
0.0
  0
VERTEX
  5
533
100
AcDbEntity
  8
L1
100
AcDbVertex
100
AcDb2dVertex
 10
338.6172029185
 20
95.9916344158
 30
0.0
  0
VERTEX
  5
534
100
AcDbEntity
  8
L1
100
AcDbVertex
100
AcDb2dVertex
 10
338.6577489341
 20
95.9512965289
 30
0.0
  0
VERTEX
  5
535
100
AcDbEntity
  8
L1
100
AcDbVertex
100
AcDb2dVertex
 10
338.6997266976
 20
95.9093946365
 30
0.0
  0
SEQEND
  5
536
100
AcDbEntity
  8
L1
  0
POLYLINE
  5
537
100
AcDbEntity
  8
L1
100
AcDb2dPolyline
 66
     1
 10
0.0
 20
0.0
 30
0.0
  0
VERTEX
  5
538
100
AcDbEntity
  8
L1
100
AcDbVertex
100
AcDb2dVertex
 10
338.465953028
 20
96.1234216584
 30
0.0
  0
VERTEX
  5
539
100
AcDbEntity
  8
L1
100
AcDbVertex
100
AcDb2dVertex
 10
338.4832551707
 20
96.1221959769
 30
0.0
  0
SEQEND
  5
53A
100
AcDbEntity
  8
L1
  0
POLYLINE
  5
53B
100
AcDbEntity
  8
L1
100
AcDb2dPolyline
 66
     1
 10
0.0
 20
0.0
 30
0.0
  0
VERTEX
  5
53C
100
AcDbEntity
  8
L1
100
AcDbVertex
100
AcDb2dVertex
 10
336.5538477832
 20
97.5352904079
 30
0.0
  0
VERTEX
  5
53D
100
AcDbEntity
  8
L1
100
AcDbVertex
100
AcDb2dVertex
 10
336.752886359
 20
97.6228709542
 30
0.0
  0
VERTEX
  5
53E
100
AcDbEntity
  8
L1
100
AcDbVertex
100
AcDb2dVertex
 10
336.9588006805
 20
97.5529710333
 30
0.0
  0
SEQEND
  5
53F
100
AcDbEntity
  8
L1
  0
LINE
  5
540
100
AcDbEntity
  8
L1
100
AcDbLine
 10
335.3060639732
 20
96.2875065979
 30
0.0
 11
336.5538477832
 21
97.5352904079
 31
0.0
  0
POLYLINE
  5
541
100
AcDbEntity
  8
L1
100
AcDb2dPolyline
 66
     1
 10
0.0
 20
0.0
 30
0.0
  0
VERTEX
  5
542
100
AcDbEntity
  8
L1
100
AcDbVertex
100
AcDb2dVertex
 10
335.2883833478
 20
95.8825537006
 30
0.0
  0
VERTEX
  5
543
100
AcDbEntity
  8
L1
100
AcDbVertex
100
AcDb2dVertex
 10
335.2184834269
 20
96.0884680221
 30
0.0
  0
VERTEX
  5
544
100
AcDbEntity
  8
L1
100
AcDbVertex
100
AcDb2dVertex
 10
335.3060639732
 20
96.2875065979
 30
0.0
  0
SEQEND
  5
545
100
AcDbEntity
  8
L1
  0
POLYLINE
  5
546
100
AcDbEntity
  8
L1
100
AcDb2dPolyline
 66
     1
 10
0.0
 20
0.0
 30
0.0
  0
VERTEX
  5
547
100
AcDbEntity
  8
L1
100
AcDbVertex
100
AcDb2dVertex
 10
335.5177951166
 20
95.8725373665
 30
0.0
  0
VERTEX
  5
548
100
AcDbEntity
  8
L1
100
AcDbVertex
100
AcDb2dVertex
 10
335.4478951957
 20
96.078451688
 30
0.0
  0
VERTEX
  5
549
100
AcDbEntity
  8
L1
100
AcDbVertex
100
AcDb2dVertex
 10
335.5354757419
 20
96.2774902638
 30
0.0
  0
SEQEND
  5
54A
100
AcDbEntity
  8
L1
  0
LINE
  5
54B
100
AcDbEntity
  8
L1
100
AcDbLine
 10
335.5354757419
 20
96.2774902638
 30
0.0
 11
336.5638641173
 21
97.3058786392
 31
0.0
  0
POLYLINE
  5
54C
100
AcDbEntity
  8
L1
100
AcDb2dPolyline
 66
     1
 10
0.0
 20
0.0
 30
0.0
  0
VERTEX
  5
54D
100
AcDbEntity
  8
L1
100
AcDbVertex
100
AcDb2dVertex
 10
336.5638641173
 20
97.3058786392
 30
0.0
  0
VERTEX
  5
54E
100
AcDbEntity
  8
L1
100
AcDbVertex
100
AcDb2dVertex
 10
336.7629026931
 20
97.3934591854
 30
0.0
  0
VERTEX
  5
54F
100
AcDbEntity
  8
L1
100
AcDbVertex
100
AcDb2dVertex
 10
336.9688170146
 20
97.3235592645
 30
0.0
  0
SEQEND
  5
550
100
AcDbEntity
  8
L1
  0
LINE
  5
551
100
AcDbEntity
  8
L1
100
AcDbLine
 10
336.9588006805
 20
97.5529710333
 30
0.0
 11
338.258486343
 21
96.4624052732
 31
0.0
  0
LINE
  5
552
100
AcDbEntity
  8
L1
100
AcDbLine
 10
336.9688170146
 20
97.3235592645
 30
0.0
 11
338.2497285541
 21
96.2487468642
 31
0.0
  0
CIRCLE
  5
553
100
AcDbEntity
  8
L1
100
AcDbCircle
 10
242.0127676204
 20
145.8285867607
 30
0.0
 40
4.0918974745
  0
CIRCLE
  5
554
100
AcDbEntity
  8
L1
100
AcDbCircle
 10
242.0127676204
 20
145.8285867607
 30
0.0
 40
1.6
  0
CIRCLE
  5
555
100
AcDbEntity
  8
L1
100
AcDbCircle
 10
242.0127676204
 20
145.8285867607
 30
0.0
 40
1.25
  0
CIRCLE
  5
556
100
AcDbEntity
  8
L1
100
AcDbCircle
 10
287.0127676204
 20
145.8285867607
 30
0.0
 40
1.0
  0
CIRCLE
  5
557
100
AcDbEntity
  8
L1
100
AcDbCircle
 10
332.0127676204
 20
145.8285867607
 30
0.0
 40
4.0918974745
  0
CIRCLE
  5
558
100
AcDbEntity
  8
L1
100
AcDbCircle
 10
332.0127676204
 20
145.8285867607
 30
0.0
 40
1.6
  0
CIRCLE
  5
559
100
AcDbEntity
  8
L1
100
AcDbCircle
 10
332.0127676204
 20
145.8285867607
 30
0.0
 40
1.25
  0
LINE
  5
55A
100
AcDbEntity
  8
L1
100
AcDbLine
 10
401.5633811553
 20
80.7837775818
 30
0.0
 11
399.1583045651
 21
80.8047663672
 31
0.0
  0
ARC
  5
55B
100
AcDbEntity
  8
L1
100
AcDbCircle
 10
377.4581903342
 20
95.3993917472
 30
0.0
 40
0.3
100
AcDbArc
 50
90.5
 51
180.0
  0
ARC
  5
55C
100
AcDbEntity
  8
L1
100
AcDbCircle
 10
347.2627676204
 20
98.6785867607
 30
0.0
 40
4.0226898581
100
AcDbArc
 50
270.0
 51
0.0
  0
LINE
  5
55D
100
AcDbEntity
  8
L1
100
AcDbLine
 10
350.436587017
 20
84.2785867607
 30
0.0
 11
350.436587017
 21
94.9701294694
 31
0.0
  0
LINE
  5
55E
100
AcDbEntity
  8
L1
100
AcDbLine
 10
350.4627676204
 20
95.0274380775
 30
0.0
 11
350.4627676204
 21
84.2785867607
 31
0.0
  0
LINE
  5
55F
100
AcDbEntity
  8
L6
  6
CENTER
 62
     1
100
AcDbLine
 10
343.7627676204
 20
84.0785867607
 30
0.0
 11
343.7627676204
 21
94.0785867607
 31
0.0
  0
CIRCLE
  5
560
100
AcDbEntity
  8
L1
100
AcDbCircle
 10
343.7627676204
 20
89.0785867607
 30
0.0
 40
4.0
  0
ARC
  5
561
100
AcDbEntity
  8
L1
100
AcDbCircle
 10
348.5627676204
 20
84.2785867607
 30
0.0
 40
1.8738193966
100
AcDbArc
 50
270.0
 51
0.0
  0
ARC
  5
562
100
AcDbEntity
  8
L1
100
AcDbCircle
 10
348.5627676204
 20
84.2785867607
 30
0.0
 40
1.9
100
AcDbArc
 50
270.0
 51
0.0
  0
POLYLINE
  5
563
100
AcDbEntity
  8
L1
100
AcDb2dPolyline
 66
     1
 10
0.0
 20
0.0
 30
0.0
  0
VERTEX
  5
564
100
AcDbEntity
  8
L1
100
AcDbVertex
100
AcDb2dVertex
 10
352.0575767993
 20
84.2836443125
 30
0.0
  0
VERTEX
  5
565
100
AcDbEntity
  8
L1
100
AcDbVertex
100
AcDb2dVertex
 10
352.0575758937
 20
84.2811155438
 30
0.0
  0
VERTEX
  5
566
100
AcDbEntity
  8
L1
100
AcDbVertex
100
AcDb2dVertex
 10
352.057573177
 20
84.2785867607
 30
0.0
  0
SEQEND
  5
567
100
AcDbEntity
  8
L1
  0
POLYLINE
  5
568
100
AcDbEntity
  8
L1
100
AcDb2dPolyline
 66
     1
 10
0.0
 20
0.0
 30
0.0
  0
VERTEX
  5
569
100
AcDbEntity
  8
L1
100
AcDbVertex
100
AcDb2dVertex
 10
348.5627676204
 20
80.7837812041
 30
0.0
  0
VERTEX
  5
56A
100
AcDbEntity
  8
L1
100
AcDbVertex
100
AcDb2dVertex
 10
348.5602388373
 20
80.7837784874
 30
0.0
  0
VERTEX
  5
56B
100
AcDbEntity
  8
L1
100
AcDbVertex
100
AcDb2dVertex
 10
348.5577100686
 20
80.7837775818
 30
0.0
  0
SEQEND
  5
56C
100
AcDbEntity
  8
L1
  0
ARC
  5
56D
100
AcDbEntity
  8
L1
100
AcDbCircle
 10
348.5627676204
 20
84.2785867607
 30
0.0
 40
2.9
100
AcDbArc
 50
270.0
 51
0.0
  0
POLYLINE
  5
56E
100
AcDbEntity
  8
L1
100
AcDb2dPolyline
 66
     1
 10
0.0
 20
0.0
 30
0.0
  0
VERTEX
  5
56F
100
AcDbEntity
  8
L1
100
AcDbVertex
100
AcDb2dVertex
 10
352.057573177
 20
84.2785867607
 30
0.0
  0
VERTEX
  5
570
100
AcDbEntity
  8
L1
100
AcDbVertex
100
AcDb2dVertex
 10
351.9915484337
 20
83.606952487
 30
0.0
  0
VERTEX
  5
571
100
AcDbEntity
  8
L1
100
AcDbVertex
100
AcDb2dVertex
 10
351.9077007717
 20
83.2705414517
 30
0.0
  0
VERTEX
  5
572
100
AcDbEntity
  8
L1
100
AcDbVertex
100
AcDb2dVertex
 10
351.7902216947
 20
82.9419494617
 30
0.0
  0
VERTEX
  5
573
100
AcDbEntity
  8
L1
100
AcDbVertex
100
AcDb2dVertex
 10
351.6405000995
 20
82.6267397092
 30
0.0
  0
VERTEX
  5
574
100
AcDbEntity
  8
L1
100
AcDbVertex
100
AcDb2dVertex
 10
351.4614934443
 20
82.3298243999
 30
0.0
  0
VERTEX
  5
575
100
AcDbEntity
  8
L1
100
AcDbVertex
100
AcDb2dVertex
 10
351.0325235959
 20
81.8088307852
 30
0.0
  0
VERTEX
  5
576
100
AcDbEntity
  8
L1
100
AcDbVertex
100
AcDb2dVertex
 10
350.5115299812
 20
81.3798609368
 30
0.0
  0
VERTEX
  5
577
100
AcDbEntity
  8
L1
100
AcDbVertex
100
AcDb2dVertex
 10
350.2146146719
 20
81.2008542816
 30
0.0
  0
VERTEX
  5
578
100
AcDbEntity
  8
L1
100
AcDbVertex
100
AcDb2dVertex
 10
349.8994049194
 20
81.0511326864
 30
0.0
  0
VERTEX
  5
579
100
AcDbEntity
  8
L1
100
AcDbVertex
100
AcDb2dVertex
 10
349.5708129294
 20
80.9336536094
 30
0.0
  0
VERTEX
  5
57A
100
AcDbEntity
  8
L1
100
AcDbVertex
100
AcDb2dVertex
 10
349.2344018941
 20
80.8498059474
 30
0.0
  0
VERTEX
  5
57B
100
AcDbEntity
  8
L1
100
AcDbVertex
100
AcDb2dVertex
 10
348.5627676204
 20
80.7837812041
 30
0.0
  0
SEQEND
  5
57C
100
AcDbEntity
  8
L1
  0
POLYLINE
  5
57D
100
AcDbEntity
  8
L1
100
AcDb2dPolyline
 66
     1
 10
0.0
 20
0.0
 30
0.0
  0
VERTEX
  5
57E
100
AcDbEntity
  8
L1
100
AcDbVertex
100
AcDb2dVertex
 10
350.4627676204
 20
95.0274380775
 30
0.0
  0
VERTEX
  5
57F
100
AcDbEntity
  8
L1
100
AcDbVertex
100
AcDb2dVertex
 10
350.436587017
 20
94.9701294694
 30
0.0
  0
SEQEND
  5
580
100
AcDbEntity
  8
L1
  0
CIRCLE
  5
581
100
AcDbEntity
  8
L1
100
AcDbCircle
 10
343.7627676204
 20
89.0785867607
 30
0.0
 40
2.25
  0
LINE
  5
582
100
AcDbEntity
  8
L1
100
AcDbLine
 10
347.2627676204
 20
94.6558969026
 30
0.0
 11
343.7627676204
 21
94.6558969026
 31
0.0
  0
LINE
  5
583
100
AcDbEntity
  8
L1
100
AcDbLine
 10
344.3843012717
 20
94.1405721341
 30
0.0
 11
346.6710936938
 21
93.8597893307
 31
0.0
  0
LINE
  5
584
100
AcDbEntity
  8
L1
100
AcDbLine
 10
346.6679030809
 20
93.8338038736
 30
0.0
 11
344.3811106588
 21
94.114586677
 31
0.0
  0
ARC
  5
585
100
AcDbEntity
  8
L1
100
AcDbCircle
 10
347.2627676204
 20
98.6785867607
 30
0.0
 40
4.881166361
100
AcDbArc
 50
263.0
 51
310.5579963961
  0
ARC
  5
586
100
AcDbEntity
  8
L1
100
AcDbCircle
 10
347.2627676204
 20
98.6785867607
 30
0.0
 40
4.8549857577
100
AcDbArc
 50
263.0
 51
311.2325076746
  0
LINE
  5
587
100
AcDbEntity
  8
L1
100
AcDbLine
 10
399.1583045651
 20
84.304633098
 30
0.0
 11
399.1583045651
 21
93.3226953818
 31
0.0
  0
LINE
  5
588
100
AcDbEntity
  8
L1
100
AcDbLine
 10
377.1581903342
 20
84.4940832812
 30
0.0
 11
377.1581903342
 21
95.3993917472
 31
0.0
  0
LINE
  5
589
100
AcDbEntity
  8
L1
100
AcDbLine
 10
398.8609225257
 20
81.5073882359
 30
0.0
 11
377.4555723736
 21
81.6941898966
 31
0.0
  0
LINE
  5
58A
100
AcDbEntity
  8
L1
100
AcDbLine
 10
378.6538270665
 20
80.9837062315
 30
0.0
 11
397.1758324609
 21
80.8220671392
 31
0.0
  0
POLYLINE
  5
58B
100
AcDbEntity
  8
L1
100
AcDb2dPolyline
 66
     1
 10
0.0
 20
0.0
 30
0.0
  0
VERTEX
  5
58C
100
AcDbEntity
  8
L1
100
AcDbVertex
100
AcDb2dVertex
 10
378.1581903342
 20
81.6878227724
 30
0.0
  0
VERTEX
  5
58D
100
AcDbEntity
  8
L1
100
AcDbVertex
100
AcDb2dVertex
 10
378.1581903342
 20
81.6281490792
 30
0.0
  0
VERTEX
  5
58E
100
AcDbEntity
  8
L1
100
AcDbVertex
100
AcDb2dVertex
 10
378.1581903342
 20
81.483687193
 30
0.0
  0
SEQEND
  5
58F
100
AcDbEntity
  8
L1
  0
POLYLINE
  5
590
100
AcDbEntity
  8
L1
100
AcDb2dPolyline
 66
     1
 10
0.0
 20
0.0
 30
0.0
  0
VERTEX
  5
591
100
AcDbEntity
  8
L1
100
AcDbVertex
100
AcDb2dVertex
 10
378.1669341414
 20
81.3905885734
 30
0.0
  0
VERTEX
  5
592
100
AcDbEntity
  8
L1
100
AcDbVertex
100
AcDb2dVertex
 10
378.3375691053
 20
81.1000180289
 30
0.0
  0
VERTEX
  5
593
100
AcDbEntity
  8
L1
100
AcDbVertex
100
AcDb2dVertex
 10
378.6538270665
 20
80.9837062315
 30
0.0
  0
SEQEND
  5
594
100
AcDbEntity
  8
L1
  0
POLYLINE
  5
595
100
AcDbEntity
  8
L1
100
AcDb2dPolyline
 66
     1
 10
0.0
 20
0.0
 30
0.0
  0
VERTEX
  5
596
100
AcDbEntity
  8
L1
100
AcDbVertex
100
AcDb2dVertex
 10
378.1581903342
 20
81.483687193
 30
0.0
  0
VERTEX
  5
597
100
AcDbEntity
  8
L1
100
AcDbVertex
100
AcDb2dVertex
 10
378.1669341414
 20
81.3905885734
 30
0.0
  0
SEQEND
  5
598
100
AcDbEntity
  8
L1
  0
POLYLINE
  5
599
100
AcDbEntity
  8
L1
100
AcDb2dPolyline
 66
     1
 10
0.0
 20
0.0
 30
0.0
  0
VERTEX
  5
59A
100
AcDbEntity
  8
L1
100
AcDbVertex
100
AcDb2dVertex
 10
377.1581903342
 20
81.9941784736
 30
0.0
  0
VERTEX
  5
59B
100
AcDbEntity
  8
L1
100
AcDbVertex
100
AcDb2dVertex
 10
377.1581903342
 20
82.0048424056
 30
0.0
  0
VERTEX
  5
59C
100
AcDbEntity
  8
L1
100
AcDbVertex
100
AcDb2dVertex
 10
377.1581903342
 20
82.0367432296
 30
0.0
  0
VERTEX
  5
59D
100
AcDbEntity
  8
L1
100
AcDbVertex
100
AcDb2dVertex
 10
377.1581903342
 20
82.0896088054
 30
0.0
  0
VERTEX
  5
59E
100
AcDbEntity
  8
L1
100
AcDbVertex
100
AcDb2dVertex
 10
377.1581903342
 20
82.1629881462
 30
0.0
  0
VERTEX
  5
59F
100
AcDbEntity
  8
L1
100
AcDbVertex
100
AcDb2dVertex
 10
377.1581903342
 20
82.256255266
 30
0.0
  0
VERTEX
  5
5A0
100
AcDbEntity
  8
L1
100
AcDbVertex
100
AcDb2dVertex
 10
377.1581903342
 20
82.3686145197
 30
0.0
  0
VERTEX
  5
5A1
100
AcDbEntity
  8
L1
100
AcDbVertex
100
AcDb2dVertex
 10
377.1581903342
 20
82.4991073906
 30
0.0
  0
VERTEX
  5
5A2
100
AcDbEntity
  8
L1
100
AcDbVertex
100
AcDb2dVertex
 10
377.1581903342
 20
82.6466206676
 30
0.0
  0
VERTEX
  5
5A3
100
AcDbEntity
  8
L1
100
AcDbVertex
100
AcDb2dVertex
 10
377.1581903342
 20
82.8098959412
 30
0.0
  0
VERTEX
  5
5A4
100
AcDbEntity
  8
L1
100
AcDbVertex
100
AcDb2dVertex
 10
377.1581903342
 20
82.9875403393
 30
0.0
  0
VERTEX
  5
5A5
100
AcDbEntity
  8
L1
100
AcDbVertex
100
AcDb2dVertex
 10
377.1581903342
 20
83.1780384094
 30
0.0
  0
VERTEX
  5
5A6
100
AcDbEntity
  8
L1
100
AcDbVertex
100
AcDb2dVertex
 10
377.1581903342
 20
83.3797650466
 30
0.0
  0
VERTEX
  5
5A7
100
AcDbEntity
  8
L1
100
AcDbVertex
100
AcDb2dVertex
 10
377.1581903342
 20
83.5909993572
 30
0.0
  0
VERTEX
  5
5A8
100
AcDbEntity
  8
L1
100
AcDbVertex
100
AcDb2dVertex
 10
377.1581903342
 20
83.8099393391
 30
0.0
  0
VERTEX
  5
5A9
100
AcDbEntity
  8
L1
100
AcDbVertex
100
AcDb2dVertex
 10
377.1581903342
 20
84.0347172545
 30
0.0
  0
VERTEX
  5
5AA
100
AcDbEntity
  8
L1
100
AcDbVertex
100
AcDb2dVertex
 10
377.1581903342
 20
84.2634155633
 30
0.0
  0
VERTEX
  5
5AB
100
AcDbEntity
  8
L1
100
AcDbVertex
100
AcDb2dVertex
 10
377.1581903342
 20
84.4940832812
 30
0.0
  0
SEQEND
  5
5AC
100
AcDbEntity
  8
L1
  0
ARC
  5
5AD
100
AcDbEntity
  8
L1
100
AcDbCircle
 10
377.4581903342
 20
81.9941784736
 30
0.0
 40
0.3
100
AcDbArc
 50
180.0
 51
269.5
  0
POLYLINE
  5
5AE
100
AcDbEntity
  8
L1
100
AcDb2dPolyline
 66
     1
 10
0.0
 20
0.0
 30
0.0
  0
VERTEX
  5
5AF
100
AcDbEntity
  8
L1
100
AcDbVertex
100
AcDb2dVertex
 10
399.1583045651
 20
80.8047663672
 30
0.0
  0
VERTEX
  5
5B0
100
AcDbEntity
  8
L1
100
AcDbVertex
100
AcDb2dVertex
 10
399.1583045651
 20
80.9760586102
 30
0.0
  0
VERTEX
  5
5B1
100
AcDbEntity
  8
L1
100
AcDbVertex
100
AcDb2dVertex
 10
399.1583045651
 20
81.4731696732
 30
0.0
  0
VERTEX
  5
5B2
100
AcDbEntity
  8
L1
100
AcDbVertex
100
AcDb2dVertex
 10
399.1583045651
 20
82.247443541
 30
0.0
  0
VERTEX
  5
5B3
100
AcDbEntity
  8
L1
100
AcDbVertex
100
AcDb2dVertex
 10
399.1583045651
 20
83.2230961808
 30
0.0
  0
VERTEX
  5
5B4
100
AcDbEntity
  8
L1
100
AcDbVertex
100
AcDb2dVertex
 10
399.1583045651
 20
84.304633098
 30
0.0
  0
SEQEND
  5
5B5
100
AcDbEntity
  8
L1
  0
LINE
  5
5B6
100
AcDbEntity
  8
L1
100
AcDbLine
 10
399.1582581736
 20
80.8047667721
 30
0.0
 11
397.1758324609
 21
80.8220671392
 31
0.0
  0
ARC
  5
5B7
100
AcDbEntity
  8
L1
100
AcDbCircle
 10
398.8583045651
 20
81.2073996589
 30
0.0
 40
0.3
100
AcDbArc
 50
0.0655755218
 51
89.5
  0
LINE
  5
5B8
100
AcDbEntity
  8
L1
100
AcDbLine
 10
397.1758324609
 20
95.3226192337
 30
0.0
 11
378.6538270665
 21
95.484258326
 31
0.0
  0
POLYLINE
  5
5B9
100
AcDbEntity
  8
L1
100
AcDb2dPolyline
 66
     1
 10
0.0
 20
0.0
 30
0.0
  0
VERTEX
  5
5BA
100
AcDbEntity
  8
L1
100
AcDbVertex
100
AcDb2dVertex
 10
378.1669341414
 20
95.4850243102
 30
0.0
  0
VERTEX
  5
5BB
100
AcDbEntity
  8
L1
100
AcDbVertex
100
AcDb2dVertex
 10
378.1581903342
 20
95.4694662294
 30
0.0
  0
SEQEND
  5
5BC
100
AcDbEntity
  8
L1
  0
POLYLINE
  5
5BD
100
AcDbEntity
  8
L1
100
AcDb2dPolyline
 66
     1
 10
0.0
 20
0.0
 30
0.0
  0
VERTEX
  5
5BE
100
AcDbEntity
  8
L1
100
AcDbVertex
100
AcDb2dVertex
 10
378.6538270665
 20
95.484258326
 30
0.0
  0
VERTEX
  5
5BF
100
AcDbEntity
  8
L1
100
AcDbVertex
100
AcDb2dVertex
 10
378.3375691053
 20
95.4860359627
 30
0.0
  0
VERTEX
  5
5C0
100
AcDbEntity
  8
L1
100
AcDbVertex
100
AcDb2dVertex
 10
378.1669341414
 20
95.4850243102
 30
0.0
  0
SEQEND
  5
5C1
100
AcDbEntity
  8
L1
  0
LINE
  5
5C2
100
AcDbEntity
  8
L1
100
AcDbLine
 10
377.4555723736
 20
95.6993803241
 30
0.0
 11
378.1580921102
 21
95.705511121
 31
0.0
  0
ELLIPSE
  5
5C3
100
AcDbEntity
  8
L1
100
AcDbEllipse
 10
397.1583807189
 20
93.3226953818
 30
0.0
 11
0.0
 21
-2.0
 31
0.0
210
0.0
220
0.0
230
-1.0
 40
0.9999619231
 41
-3.132866339596905
 42
-1.570796326794896
  0
LINE
  5
5C4
100
AcDbEntity
  8
L1
100
AcDbLine
 10
343.97616508
 20
114.0303333007
 30
0.0
 11
343.97616508
 21
104.0303333007
 31
0.0
  0
LINE
  5
5C5
100
AcDbEntity
  8
L1
100
AcDbLine
 10
343.5493701607
 20
104.0303333007
 30
0.0
 11
343.5493701607
 21
114.0303333007
 31
0.0
  0
LINE
  5
5C6
100
AcDbEntity
  8
L1
100
AcDbLine
 10
344.0627676204
 20
114.1169358411
 30
0.0
 11
344.0627676204
 21
104.1169358411
 31
0.0
  0
LINE
  5
5C7
100
AcDbEntity
  8
L1
100
AcDbLine
 10
343.4627676204
 20
104.1169358411
 30
0.0
 11
343.4627676204
 21
114.1169358411
 31
0.0
  0
POLYLINE
  5
5C8
100
AcDbEntity
  8
L1
100
AcDb2dPolyline
 66
     1
 10
0.0
 20
0.0
 30
0.0
  0
VERTEX
  5
5C9
100
AcDbEntity
  8
L1
100
AcDbVertex
100
AcDb2dVertex
 10
346.8515545737
 20
98.0618509844
 30
0.0
  0
VERTEX
  5
5CA
100
AcDbEntity
  8
L1
100
AcDbVertex
100
AcDb2dVertex
 10
346.5515624627
 20
98.1422311876
 30
0.0
  0
VERTEX
  5
5CB
100
AcDbEntity
  8
L1
100
AcDbVertex
100
AcDb2dVertex
 10
346.3319576231
 20
98.3618360273
 30
0.0
  0
VERTEX
  5
5CC
100
AcDbEntity
  8
L1
100
AcDbVertex
100
AcDb2dVertex
 10
346.2515774198
 20
98.6618281382
 30
0.0
  0
SEQEND
  5
5CD
100
AcDbEntity
  8
L1
  0
LINE
  5
5CE
100
AcDbEntity
  8
L1
100
AcDbLine
 10
344.0627676204
 20
104.1169358411
 30
0.0
 11
343.97616508
 21
104.0303333007
 31
0.0
  0
LINE
  5
5CF
100
AcDbEntity
  8
L1
100
AcDbLine
 10
343.97616508
 20
104.0303333007
 30
0.0
 11
344.5467927539
 21
104.0303333007
 31
0.0
  0
LINE
  5
5D0
100
AcDbEntity
  8
L1
100
AcDbLine
 10
342.9787424868
 20
104.0303333007
 30
0.0
 11
343.5493701607
 21
104.0303333007
 31
0.0
  0
LINE
  5
5D1
100
AcDbEntity
  8
L1
100
AcDbLine
 10
343.4627676204
 20
104.1169358411
 30
0.0
 11
343.5493701607
 21
104.0303333007
 31
0.0
  0
LINE
  5
5D2
100
AcDbEntity
  8
L1
100
AcDbLine
 10
342.8627676204
 20
104.1169358411
 30
0.0
 11
342.9787424868
 21
104.0303333007
 31
0.0
  0
LINE
  5
5D3
100
AcDbEntity
  8
L1
100
AcDbLine
 10
343.7627676204
 20
101.3835088081
 30
0.0
 11
342.9787424868
 21
104.0303333007
 31
0.0
  0
LINE
  5
5D4
100
AcDbEntity
  8
L1
100
AcDbLine
 10
344.6627676204
 20
104.1169358411
 30
0.0
 11
344.5467927539
 21
104.0303333007
 31
0.0
  0
LINE
  5
5D5
100
AcDbEntity
  8
L1
100
AcDbLine
 10
343.7627676204
 20
101.0785867607
 30
0.0
 11
343.7627676204
 21
101.3835088081
 31
0.0
  0
LINE
  5
5D6
100
AcDbEntity
  8
L1
100
AcDbLine
 10
344.5467927539
 20
104.0303333007
 30
0.0
 11
343.7627676204
 21
101.3835088081
 31
0.0
  0
LINE
  5
5D7
100
AcDbEntity
  8
L1
100
AcDbLine
 10
342.8627676204
 20
104.1169358411
 30
0.0
 11
343.4627676204
 21
104.1169358411
 31
0.0
  0
LINE
  5
5D8
100
AcDbEntity
  8
L1
100
AcDbLine
 10
343.7627676204
 20
101.0785867607
 30
0.0
 11
342.8627676204
 21
104.1169358411
 31
0.0
  0
LINE
  5
5D9
100
AcDbEntity
  8
L1
100
AcDbLine
 10
344.6627676204
 20
104.1169358411
 30
0.0
 11
343.7627676204
 21
101.0785867607
 31
0.0
  0
LINE
  5
5DA
100
AcDbEntity
  8
L1
100
AcDbLine
 10
344.0627676204
 20
104.1169358411
 30
0.0
 11
344.6627676204
 21
104.1169358411
 31
0.0
  0
LINE
  5
5DB
100
AcDbEntity
  8
L1
100
AcDbLine
 10
346.8515545737
 20
98.0618509844
 30
0.0
 11
343.7627676204
 21
98.0618509844
 31
0.0
  0
LINE
  5
5DC
100
AcDbEntity
  8
L1
100
AcDbLine
 10
343.7627676204
 20
97.3013756189
 30
0.0
 11
347.2627676204
 21
97.3013756189
 31
0.0
  0
ARC
  5
5DD
100
AcDbEntity
  8
L1
100
AcDbCircle
 10
347.2627676204
 20
98.6785867607
 30
0.0
 40
1.3772111418
100
AcDbArc
 50
270.0
 51
0.0
  0
LINE
  5
5DE
100
AcDbEntity
  8
L1
100
AcDbLine
 10
344.0627676204
 20
114.1169358411
 30
0.0
 11
343.97616508
 21
114.0303333007
 31
0.0
  0
LINE
  5
5DF
100
AcDbEntity
  8
L1
100
AcDbLine
 10
343.5493701607
 20
114.0303333007
 30
0.0
 11
343.97616508
 21
114.0303333007
 31
0.0
  0
LINE
  5
5E0
100
AcDbEntity
  8
L1
100
AcDbLine
 10
343.4627676204
 20
114.1169358411
 30
0.0
 11
343.5493701607
 21
114.0303333007
 31
0.0
  0
LINE
  5
5E1
100
AcDbEntity
  8
L1
100
AcDbLine
 10
343.4627676204
 20
114.1169358411
 30
0.0
 11
344.0627676204
 21
114.1169358411
 31
0.0
  0
LINE
  5
5E2
100
AcDbEntity
  8
L1
100
AcDbLine
 10
402.1581903342
 20
84.2013756189
 30
0.0
 11
402.1580747279
 21
84.20137461
 31
0.0
  0
LINE
  5
5E3
100
AcDbEntity
  8
L1
100
AcDbLine
 10
402.1581903342
 20
81.3785867607
 30
0.0
 11
402.1581903342
 21
84.2785867607
 31
0.0
  0
ARC
  5
5E4
100
AcDbEntity
  8
L1
100
AcDbCircle
 10
401.8581903342
 20
84.6811933976
 30
0.0
 40
0.3
100
AcDbArc
 50
0.0
 51
0.7471578646
  0
POLYLINE
  5
5E5
100
AcDbEntity
  8
L1
100
AcDb2dPolyline
 66
     1
 10
0.0
 20
0.0
 30
0.0
  0
VERTEX
  5
5E6
100
AcDbEntity
  8
L1
100
AcDbVertex
100
AcDb2dVertex
 10
401.5633847776
 20
84.2785867607
 30
0.0
  0
VERTEX
  5
5E7
100
AcDbEntity
  8
L1
100
AcDbVertex
100
AcDb2dVertex
 10
401.564248368
 20
83.606952487
 30
0.0
  0
VERTEX
  5
5E8
100
AcDbEntity
  8
L1
100
AcDbVertex
100
AcDb2dVertex
 10
401.5649026176
 20
82.9419494617
 30
0.0
  0
VERTEX
  5
5E9
100
AcDbEntity
  8
L1
100
AcDbVertex
100
AcDb2dVertex
 10
401.5652995341
 20
82.3298243999
 30
0.0
  0
VERTEX
  5
5EA
100
AcDbEntity
  8
L1
100
AcDbVertex
100
AcDb2dVertex
 10
401.5654279379
 20
81.8088307852
 30
0.0
  0
VERTEX
  5
5EB
100
AcDbEntity
  8
L1
100
AcDbVertex
100
AcDb2dVertex
 10
401.5652995341
 20
81.3798609368
 30
0.0
  0
VERTEX
  5
5EC
100
AcDbEntity
  8
L1
100
AcDbVertex
100
AcDb2dVertex
 10
401.5649026176
 20
81.0511326864
 30
0.0
  0
VERTEX
  5
5ED
100
AcDbEntity
  8
L1
100
AcDbVertex
100
AcDb2dVertex
 10
401.564248368
 20
80.8498059474
 30
0.0
  0
VERTEX
  5
5EE
100
AcDbEntity
  8
L1
100
AcDbVertex
100
AcDb2dVertex
 10
401.5633847776
 20
80.7837812041
 30
0.0
  0
SEQEND
  5
5EF
100
AcDbEntity
  8
L1
  0
POLYLINE
  5
5F0
100
AcDbEntity
  8
L1
100
AcDb2dPolyline
 66
     1
 10
0.0
 20
0.0
 30
0.0
  0
VERTEX
  5
5F1
100
AcDbEntity
  8
L1
100
AcDbVertex
100
AcDb2dVertex
 10
401.5633847776
 20
80.7837812041
 30
0.0
  0
VERTEX
  5
5F2
100
AcDbEntity
  8
L1
100
AcDbVertex
100
AcDb2dVertex
 10
401.5633820609
 20
80.7837784874
 30
0.0
  0
VERTEX
  5
5F3
100
AcDbEntity
  8
L1
100
AcDbVertex
100
AcDb2dVertex
 10
401.5633811553
 20
80.7837775818
 30
0.0
  0
SEQEND
  5
5F4
100
AcDbEntity
  8
L1
  0
POLYLINE
  5
5F5
100
AcDbEntity
  8
L1
100
AcDb2dPolyline
 66
     1
 10
0.0
 20
0.0
 30
0.0
  0
VERTEX
  5
5F6
100
AcDbEntity
  8
L1
100
AcDbVertex
100
AcDb2dVertex
 10
401.5633811553
 20
84.2836443125
 30
0.0
  0
VERTEX
  5
5F7
100
AcDbEntity
  8
L1
100
AcDbVertex
100
AcDb2dVertex
 10
401.5633820609
 20
84.2811155438
 30
0.0
  0
VERTEX
  5
5F8
100
AcDbEntity
  8
L1
100
AcDbVertex
100
AcDb2dVertex
 10
401.5633847776
 20
84.2785867607
 30
0.0
  0
SEQEND
  5
5F9
100
AcDbEntity
  8
L1
  0
LINE
  5
5FA
100
AcDbEntity
  8
L1
100
AcDbLine
 10
402.1581903342
 20
81.3785867607
 30
0.0
 11
401.5633847776
 21
80.7837812041
 31
0.0
  0
LINE
  5
5FB
100
AcDbEntity
  8
L1
100
AcDbLine
 10
402.1579129229
 20
94.1785843398
 30
0.0
 11
402.1581903342
 21
94.1785867607
 31
0.0
  0
LINE
  5
5FC
100
AcDbEntity
  8
L1
100
AcDbLine
 10
402.1581903342
 20
93.8236010031
 30
0.0
 11
402.1573723854
 21
93.8235938649
 31
0.0
  0
POLYLINE
  5
5FD
100
AcDbEntity
  8
L1
100
AcDb2dPolyline
 66
     1
 10
0.0
 20
0.0
 30
0.0
  0
VERTEX
  5
5FE
100
AcDbEntity
  8
L1
100
AcDbVertex
100
AcDb2dVertex
 10
402.1581903342
 20
95.0274380775
 30
0.0
  0
VERTEX
  5
5FF
100
AcDbEntity
  8
L1
100
AcDbVertex
100
AcDb2dVertex
 10
402.1579959653
 20
95.0274343354
 30
0.0
  0
SEQEND
  5
600
100
AcDbEntity
  8
L1
  0
POLYLINE
  5
601
100
AcDbEntity
  8
L1
100
AcDb2dPolyline
 66
     1
 10
0.0
 20
0.0
 30
0.0
  0
VERTEX
  5
602
100
AcDbEntity
  8
L1
100
AcDbVertex
100
AcDb2dVertex
 10
402.1576067358
 20
95.0274268416
 30
0.0
  0
VERTEX
  5
603
100
AcDbEntity
  8
L1
100
AcDbVertex
100
AcDb2dVertex
 10
402.1581903342
 20
95.0274380775
 30
0.0
  0
SEQEND
  5
604
100
AcDbEntity
  8
L1
  0
POLYLINE
  5
605
100
AcDbEntity
  8
L1
100
AcDb2dPolyline
 66
     1
 10
0.0
 20
0.0
 30
0.0
  0
VERTEX
  5
606
100
AcDbEntity
  8
L1
100
AcDbVertex
100
AcDb2dVertex
 10
402.1581903342
 20
95.7092848595
 30
0.0
  0
VERTEX
  5
607
100
AcDbEntity
  8
L1
100
AcDbVertex
100
AcDb2dVertex
 10
402.1557432581
 20
95.7092568035
 30
0.0
  0
SEQEND
  5
608
100
AcDbEntity
  8
L1
  0
POLYLINE
  5
609
100
AcDbEntity
  8
L1
100
AcDb2dPolyline
 66
     1
 10
0.0
 20
0.0
 30
0.0
  0
VERTEX
  5
60A
100
AcDbEntity
  8
L1
100
AcDbVertex
100
AcDb2dVertex
 10
402.1581903342
 20
94.1416276835
 30
0.0
  0
VERTEX
  5
60B
100
AcDbEntity
  8
L1
100
AcDbVertex
100
AcDb2dVertex
 10
402.1537565587
 20
94.17697887
 30
0.0
  0
SEQEND
  5
60C
100
AcDbEntity
  8
L1
  0
POLYLINE
  5
60D
100
AcDbEntity
  8
L1
100
AcDb2dPolyline
 66
     1
 10
0.0
 20
0.0
 30
0.0
  0
VERTEX
  5
60E
100
AcDbEntity
  8
L1
100
AcDbVertex
100
AcDb2dVertex
 10
402.1581808765
 20
93.9415179149
 30
0.0
  0
VERTEX
  5
60F
100
AcDbEntity
  8
L1
100
AcDbVertex
100
AcDb2dVertex
 10
402.1581903342
 20
93.9415179066
 30
0.0
  0
SEQEND
  5
610
100
AcDbEntity
  8
L1
  0
LINE
  5
611
100
AcDbEntity
  8
L1
100
AcDbLine
 10
402.1581903342
 20
97.3013756189
 30
0.0
 11
402.1573723854
 21
97.3013684808
 31
0.0
  0
ARC
  5
612
100
AcDbEntity
  8
L1
100
AcDbCircle
 10
401.8581903342
 20
97.5811933976
 30
0.0
 40
0.3
100
AcDbArc
 50
0.0
 51
0.1376379804
  0
LINE
  5
613
100
AcDbEntity
  8
L6
  6
CENTER
 62
     1
100
AcDbLine
 10
405.6992895694
 20
145.8285867607
 30
0.0
 11
375.2512800229
 21
145.8285867607
 31
0.0
  0
LINE
  5
614
100
AcDbEntity
  8
L6
  6
CENTER
 62
     1
100
AcDbLine
 10
338.7627676204
 20
202.5785867607
 30
0.0
 11
348.7627676204
 21
202.5785867607
 31
0.0
  0
ARC
  5
615
100
AcDbEntity
  8
L1
100
AcDbCircle
 10
343.7627676204
 20
202.5785867607
 30
0.0
 40
8.9832642236
100
AcDbArc
 50
235.0994163668
 51
270.0
  0
LINE
  5
616
100
AcDbEntity
  8
L1
100
AcDbLine
 10
348.5627676204
 20
209.2524061574
 30
0.0
 11
337.8712249117
 21
209.2524061574
 31
0.0
  0
LINE
  5
617
100
AcDbEntity
  8
L1
100
AcDbLine
 10
337.8139163036
 20
209.2785867607
 30
0.0
 11
348.5627676204
 21
209.2785867607
 31
0.0
  0
ARC
  5
618
100
AcDbEntity
  8
L1
100
AcDbCircle
 10
343.7627676204
 20
202.5785867607
 30
0.0
 40
5.0738193966
100
AcDbArc
 50
173.0
 51
277.0
  0
ARC
  5
619
100
AcDbEntity
  8
L1
100
AcDbCircle
 10
343.7627676204
 20
202.5785867607
 30
0.0
 40
5.1
100
AcDbArc
 50
173.0
 51
277.0
  0
ARC
  5
61A
100
AcDbEntity
  8
L1
100
AcDbCircle
 10
343.7627676204
 20
202.5785867607
 30
0.0
 40
5.5773101419
100
AcDbArc
 50
180.0
 51
270.0
  0
ARC
  5
61B
100
AcDbEntity
  8
L1
100
AcDbCircle
 10
343.7627676204
 20
202.5785867607
 30
0.0
 40
8.2227888582
100
AcDbArc
 50
180.0
 51
270.0
  0
ARC
  5
61C
100
AcDbEntity
  8
L1
100
AcDbCircle
 10
334.1627676204
 20
206.0785867607
 30
0.0
 40
4.881166361
100
AcDbArc
 50
353.0
 51
40.5579963961
  0
ARC
  5
61D
100
AcDbEntity
  8
L1
100
AcDbCircle
 10
334.1627676204
 20
206.0785867607
 30
0.0
 40
4.8549857577
100
AcDbArc
 50
353.0
 51
41.2325076746
  0
LINE
  5
61E
100
AcDbEntity
  8
L1
100
AcDbLine
 10
348.5627676204
 20
210.2785867607
 30
0.0
 11
225.4627676204
 21
210.2785867607
 31
0.0
  0
LINE
  5
61F
100
AcDbEntity
  8
L1
100
AcDbLine
 10
225.4678251721
 20
210.8733959397
 30
0.0
 11
348.5577100686
 21
210.8733959397
 31
0.0
  0
LINE
  5
620
100
AcDbEntity
  8
L6
  6
CENTER
 62
     1
100
AcDbLine
 10
324.5127676204
 20
185.8285867607
 30
0.0
 11
324.5127676204
 21
195.8285867607
 31
0.0
  0
CIRCLE
  5
621
100
AcDbEntity
  8
L1
100
AcDbCircle
 10
324.5127676204
 20
190.8285867607
 30
0.0
 40
1.6
  0
CIRCLE
  5
622
100
AcDbEntity
  8
L1
100
AcDbCircle
 10
287.0127676204
 20
190.8285867607
 30
0.0
 40
4.0918974745
  0
CIRCLE
  5
623
100
AcDbEntity
  8
L1
100
AcDbCircle
 10
287.0127676204
 20
190.8285867607
 30
0.0
 40
1.6
  0
CIRCLE
  5
624
100
AcDbEntity
  8
L1
100
AcDbCircle
 10
324.5127676204
 20
190.8285867607
 30
0.0
 40
4.0918974745
  0
LINE
  5
625
100
AcDbEntity
  8
L6
  6
CENTER
 62
     1
100
AcDbLine
 10
249.5127676204
 20
185.8285867607
 30
0.0
 11
249.5127676204
 21
195.8285867607
 31
0.0
  0
CIRCLE
  5
626
100
AcDbEntity
  8
L1
100
AcDbCircle
 10
249.5127676204
 20
190.8285867607
 30
0.0
 40
4.0918974745
  0
CIRCLE
  5
627
100
AcDbEntity
  8
L1
100
AcDbCircle
 10
249.5127676204
 20
190.8285867607
 30
0.0
 40
1.6
  0
LINE
  5
628
100
AcDbEntity
  8
L1
100
AcDbLine
 10
239.8627676204
 20
210.1012766189
 30
0.0
 11
334.1627676204
 21
210.1012766189
 31
0.0
  0
LINE
  5
629
100
AcDbEntity
  8
L1
100
AcDbLine
 10
239.8460089978
 20
205.0673965602
 30
0.0
 11
334.1795262429
 21
205.0673965602
 31
0.0
  0
LINE
  5
62A
100
AcDbEntity
  8
L1
100
AcDbLine
 10
334.1627676204
 20
207.4557979026
 30
0.0
 11
239.8627676204
 21
207.4557979026
 31
0.0
  0
ARC
  5
62B
100
AcDbEntity
  8
L1
100
AcDbCircle
 10
239.8627676204
 20
206.0785867607
 30
0.0
 40
4.0226898581
100
AcDbArc
 50
90.0
 51
180.0
  0
ARC
  5
62C
100
AcDbEntity
  8
L1
100
AcDbCircle
 10
239.8627676204
 20
206.0785867607
 30
0.0
 40
4.8549857577
100
AcDbArc
 50
138.7674923254
 51
187.0
  0
ARC
  5
62D
100
AcDbEntity
  8
L1
100
AcDbCircle
 10
239.8627676204
 20
206.0785867607
 30
0.0
 40
4.881166361
100
AcDbArc
 50
139.4420036039
 51
187.0
  0
ARC
  5
62E
100
AcDbEntity
  8
L1
100
AcDbCircle
 10
225.4627676204
 20
207.3785867607
 30
0.0
 40
1.8738193966
100
AcDbArc
 50
90.0
 51
180.0
  0
ARC
  5
62F
100
AcDbEntity
  8
L1
100
AcDbCircle
 10
225.4627676204
 20
207.3785867607
 30
0.0
 40
1.9
100
AcDbArc
 50
90.0
 51
180.0
  0
ARC
  5
630
100
AcDbEntity
  8
L1
100
AcDbCircle
 10
225.4627676204
 20
207.3785867607
 30
0.0
 40
2.9
100
AcDbArc
 50
90.0
 51
180.0
  0
POLYLINE
  5
631
100
AcDbEntity
  8
L1
100
AcDb2dPolyline
 66
     1
 10
0.0
 20
0.0
 30
0.0
  0
VERTEX
  5
632
100
AcDbEntity
  8
L1
100
AcDbVertex
100
AcDb2dVertex
 10
221.9679620637
 20
207.3785867607
 30
0.0
  0
VERTEX
  5
633
100
AcDbEntity
  8
L1
100
AcDbVertex
100
AcDb2dVertex
 10
222.033986807
 20
208.0502210345
 30
0.0
  0
VERTEX
  5
634
100
AcDbEntity
  8
L1
100
AcDbVertex
100
AcDb2dVertex
 10
222.117834469
 20
208.3866320698
 30
0.0
  0
VERTEX
  5
635
100
AcDbEntity
  8
L1
100
AcDbVertex
100
AcDb2dVertex
 10
222.235313546
 20
208.7152240598
 30
0.0
  0
VERTEX
  5
636
100
AcDbEntity
  8
L1
100
AcDbVertex
100
AcDb2dVertex
 10
222.3850351412
 20
209.0304338123
 30
0.0
  0
VERTEX
  5
637
100
AcDbEntity
  8
L1
100
AcDbVertex
100
AcDb2dVertex
 10
222.5640417964
 20
209.3273491216
 30
0.0
  0
VERTEX
  5
638
100
AcDbEntity
  8
L1
100
AcDbVertex
100
AcDb2dVertex
 10
222.9930116448
 20
209.8483427363
 30
0.0
  0
VERTEX
  5
639
100
AcDbEntity
  8
L1
100
AcDbVertex
100
AcDb2dVertex
 10
223.5140052596
 20
210.2773125847
 30
0.0
  0
VERTEX
  5
63A
100
AcDbEntity
  8
L1
100
AcDbVertex
100
AcDb2dVertex
 10
223.8109205688
 20
210.4563192399
 30
0.0
  0
VERTEX
  5
63B
100
AcDbEntity
  8
L1
100
AcDbVertex
100
AcDb2dVertex
 10
224.1261303213
 20
210.6060408351
 30
0.0
  0
VERTEX
  5
63C
100
AcDbEntity
  8
L1
100
AcDbVertex
100
AcDb2dVertex
 10
224.4547223113
 20
210.7235199121
 30
0.0
  0
VERTEX
  5
63D
100
AcDbEntity
  8
L1
100
AcDbVertex
100
AcDb2dVertex
 10
224.7911333466
 20
210.8073675741
 30
0.0
  0
VERTEX
  5
63E
100
AcDbEntity
  8
L1
100
AcDbVertex
100
AcDb2dVertex
 10
225.4627676204
 20
210.8733923174
 30
0.0
  0
SEQEND
  5
63F
100
AcDbEntity
  8
L1
  0
CIRCLE
  5
640
100
AcDbEntity
  8
L1
100
AcDbCircle
 10
249.5127676204
 20
190.8285867607
 30
0.0
 40
1.25
  0
LINE
  5
641
100
AcDbEntity
  8
L6
  6
CENTER
 62
     1
100
AcDbLine
 10
244.5127676204
 20
190.8285867607
 30
0.0
 11
254.5127676204
 21
190.8285867607
 31
0.0
  0
LINE
  5
642
100
AcDbEntity
  8
L1
100
AcDbLine
 10
265.2145141603
 20
202.3651893011
 30
0.0
 11
245.2145141603
 21
202.3651893011
 31
0.0
  0
LINE
  5
643
100
AcDbEntity
  8
L1
100
AcDbLine
 10
245.2145141603
 20
202.7919842204
 30
0.0
 11
265.2145141603
 21
202.7919842204
 31
0.0
  0
LINE
  5
644
100
AcDbEntity
  8
L1
100
AcDbLine
 10
265.3011167007
 20
202.2785867607
 30
0.0
 11
245.3011167007
 21
202.2785867607
 31
0.0
  0
LINE
  5
645
100
AcDbEntity
  8
L1
100
AcDbLine
 10
245.3011167007
 20
202.8785867607
 30
0.0
 11
265.3011167007
 21
202.8785867607
 31
0.0
  0
ARC
  5
646
100
AcDbEntity
  8
L1
100
AcDbCircle
 10
230.2627676204
 20
202.5785867607
 30
0.0
 40
8.9832642236
100
AcDbArc
 50
325.0994163668
 51
0.0
  0
ARC
  5
647
100
AcDbEntity
  8
L1
100
AcDbCircle
 10
230.2627676204
 20
202.5785867607
 30
0.0
 40
8.2227888582
100
AcDbArc
 50
323.7438067527
 51
0.0
  0
LINE
  5
648
100
AcDbEntity
  8
L6
  6
CENTER
 62
     1
100
AcDbLine
 10
230.2627676204
 20
197.5785867607
 30
0.0
 11
230.2627676204
 21
207.5785867607
 31
0.0
  0
LINE
  5
649
100
AcDbEntity
  8
L1
100
AcDbLine
 10
223.5889482237
 20
207.3785867607
 30
0.0
 11
223.5889482237
 21
196.6870440521
 31
0.0
  0
LINE
  5
64A
100
AcDbEntity
  8
L1
100
AcDbLine
 10
223.5627676204
 20
196.629735444
 30
0.0
 11
223.5627676204
 21
207.3785867607
 31
0.0
  0
ARC
  5
64B
100
AcDbEntity
  8
L1
100
AcDbCircle
 10
230.2627676204
 20
202.5785867607
 30
0.0
 40
5.0738193966
100
AcDbArc
 50
263.0
 51
7.0
  0
CIRCLE
  5
64C
100
AcDbEntity
  8
L1
100
AcDbCircle
 10
230.2627676204
 20
202.5785867607
 30
0.0
 40
4.0
  0
ARC
  5
64D
100
AcDbEntity
  8
L1
100
AcDbCircle
 10
230.2627676204
 20
202.5785867607
 30
0.0
 40
5.1
100
AcDbArc
 50
263.0
 51
7.0
  0
ARC
  5
64E
100
AcDbEntity
  8
L1
100
AcDbCircle
 10
230.2627676204
 20
202.5785867607
 30
0.0
 40
5.5773101419
100
AcDbArc
 50
270.0
 51
0.0
  0
ARC
  5
64F
100
AcDbEntity
  8
L1
100
AcDbCircle
 10
230.2627676204
 20
202.5785867607
 30
0.0
 40
8.9832642236
100
AcDbArc
 50
270.0
 51
304.9005836332
  0
ARC
  5
650
100
AcDbEntity
  8
L1
100
AcDbCircle
 10
230.2627676204
 20
202.5785867607
 30
0.0
 40
8.2227888582
100
AcDbArc
 50
270.0
 51
306.2561932473
  0
LINE
  5
651
100
AcDbEntity
  8
L1
100
AcDbLine
 10
226.7627676204
 20
197.0012766189
 30
0.0
 11
230.2627676204
 21
197.0012766189
 31
0.0
  0
POLYLINE
  5
652
100
AcDbEntity
  8
L1
100
AcDb2dPolyline
 66
     1
 10
0.0
 20
0.0
 30
0.0
  0
VERTEX
  5
653
100
AcDbEntity
  8
L1
100
AcDbVertex
100
AcDb2dVertex
 10
227.1739806671
 20
193.5953225371
 30
0.0
  0
VERTEX
  5
654
100
AcDbEntity
  8
L1
100
AcDbVertex
100
AcDb2dVertex
 10
227.473972778
 20
193.5149423339
 30
0.0
  0
VERTEX
  5
655
100
AcDbEntity
  8
L1
100
AcDbVertex
100
AcDb2dVertex
 10
227.6935776176
 20
193.2953374942
 30
0.0
  0
VERTEX
  5
656
100
AcDbEntity
  8
L1
100
AcDbVertex
100
AcDb2dVertex
 10
227.7739578209
 20
192.9953453833
 30
0.0
  0
SEQEND
  5
657
100
AcDbEntity
  8
L1
  0
LINE
  5
658
100
AcDbEntity
  8
L1
100
AcDbLine
 10
227.1739806671
 20
193.5953225371
 30
0.0
 11
230.2627676204
 21
193.5953225371
 31
0.0
  0
ARC
  5
659
100
AcDbEntity
  8
L1
100
AcDbCircle
 10
226.7627676204
 20
192.9785867607
 30
0.0
 40
4.0226898581
100
AcDbArc
 50
90.0
 51
180.0
  0
LINE
  5
65A
100
AcDbEntity
  8
L1
100
AcDbLine
 10
229.641233969
 20
197.5166013874
 30
0.0
 11
227.3544415469
 21
197.7973841908
 31
0.0
  0
LINE
  5
65B
100
AcDbEntity
  8
L1
100
AcDbLine
 10
227.3576321598
 20
197.8233696479
 30
0.0
 11
229.6444245819
 21
197.5425868445
 31
0.0
  0
ARC
  5
65C
100
AcDbEntity
  8
L1
100
AcDbCircle
 10
226.7627676204
 20
192.9785867607
 30
0.0
 40
4.881166361
100
AcDbArc
 50
83.0
 51
130.5579963961
  0
ARC
  5
65D
100
AcDbEntity
  8
L1
100
AcDbCircle
 10
226.7627676204
 20
192.9785867607
 30
0.0
 40
4.8549857577
100
AcDbArc
 50
83.0
 51
131.2325076746
  0
POLYLINE
  5
65E
100
AcDbEntity
  8
L1
100
AcDb2dPolyline
 66
     1
 10
0.0
 20
0.0
 30
0.0
  0
VERTEX
  5
65F
100
AcDbEntity
  8
L1
100
AcDbVertex
100
AcDb2dVertex
 10
223.5627676204
 20
196.629735444
 30
0.0
  0
VERTEX
  5
660
100
AcDbEntity
  8
L1
100
AcDbVertex
100
AcDb2dVertex
 10
223.5889482237
 20
196.6870440521
 30
0.0
  0
SEQEND
  5
661
100
AcDbEntity
  8
L1
  0
ARC
  5
662
100
AcDbEntity
  8
L1
100
AcDbCircle
 10
226.7627676204
 20
192.9785867607
 30
0.0
 40
1.3772111418
100
AcDbArc
 50
90.0
 51
180.0
  0
LINE
  5
663
100
AcDbEntity
  8
L1
100
AcDbLine
 10
230.2627676204
 20
194.3557979026
 30
0.0
 11
226.7627676204
 21
194.3557979026
 31
0.0
  0
POLYLINE
  5
664
100
AcDbEntity
  8
L1
100
AcDb2dPolyline
 66
     1
 10
0.0
 20
0.0
 30
0.0
  0
VERTEX
  5
665
100
AcDbEntity
  8
L1
100
AcDbVertex
100
AcDb2dVertex
 10
237.4716874575
 20
194.1218831136
 30
0.0
  0
VERTEX
  5
666
100
AcDbEntity
  8
L1
100
AcDbVertex
100
AcDb2dVertex
 10
237.2726488817
 20
194.0343025673
 30
0.0
  0
VERTEX
  5
667
100
AcDbEntity
  8
L1
100
AcDbVertex
100
AcDb2dVertex
 10
237.0667345602
 20
194.1042024882
 30
0.0
  0
SEQEND
  5
668
100
AcDbEntity
  8
L1
  0
ARC
  5
669
100
AcDbEntity
  8
L1
100
AcDbCircle
 10
230.2627676204
 20
202.5785867607
 30
0.0
 40
8.2088258697
100
AcDbArc
 50
306.339798915
 51
323.660201085
  0
LINE
  5
66A
100
AcDbEntity
  8
L1
100
AcDbLine
 10
237.0567182261
 20
194.333614257
 30
0.0
 11
235.7758066866
 21
195.4084266573
 31
0.0
  0
POLYLINE
  5
66B
100
AcDbEntity
  8
L1
100
AcDb2dPolyline
 66
     1
 10
0.0
 20
0.0
 30
0.0
  0
VERTEX
  5
66C
100
AcDbEntity
  8
L1
100
AcDbVertex
100
AcDb2dVertex
 10
237.4329277238
 20
197.0655476945
 30
0.0
  0
VERTEX
  5
66D
100
AcDbEntity
  8
L1
100
AcDbVertex
100
AcDb2dVertex
 10
237.3894170163
 20
197.1347153922
 30
0.0
  0
VERTEX
  5
66E
100
AcDbEntity
  8
L1
100
AcDbVertex
100
AcDb2dVertex
 10
237.3646346747
 20
197.2247400117
 30
0.0
  0
SEQEND
  5
66F
100
AcDbEntity
  8
L1
  0
POLYLINE
  5
670
100
AcDbEntity
  8
L1
100
AcDb2dPolyline
 66
     1
 10
0.0
 20
0.0
 30
0.0
  0
VERTEX
  5
671
100
AcDbEntity
  8
L1
100
AcDbVertex
100
AcDb2dVertex
 10
237.3646346747
 20
197.2247400117
 30
0.0
  0
VERTEX
  5
672
100
AcDbEntity
  8
L1
100
AcDbVertex
100
AcDb2dVertex
 10
237.3629086915
 20
197.2484050126
 30
0.0
  0
VERTEX
  5
673
100
AcDbEntity
  8
L1
100
AcDbVertex
100
AcDb2dVertex
 10
237.3666986862
 20
197.3069313647
 30
0.0
  0
VERTEX
  5
674
100
AcDbEntity
  8
L1
100
AcDbVertex
100
AcDb2dVertex
 10
237.3818035017
 20
197.3636018597
 30
0.0
  0
VERTEX
  5
675
100
AcDbEntity
  8
L1
100
AcDbVertex
100
AcDb2dVertex
 10
237.4191601455
 20
197.4334930212
 30
0.0
  0
SEQEND
  5
676
100
AcDbEntity
  8
L1
  0
LINE
  5
677
100
AcDbEntity
  8
L1
100
AcDbLine
 10
237.4329277238
 20
197.0655476945
 30
0.0
 11
238.5077401241
 21
195.784636155
 31
0.0
  0
POLYLINE
  5
678
100
AcDbEntity
  8
L1
100
AcDb2dPolyline
 66
     1
 10
0.0
 20
0.0
 30
0.0
  0
VERTEX
  5
679
100
AcDbEntity
  8
L1
100
AcDbVertex
100
AcDb2dVertex
 10
238.5077401241
 20
195.784636155
 30
0.0
  0
VERTEX
  5
67A
100
AcDbEntity
  8
L1
100
AcDbVertex
100
AcDb2dVertex
 10
238.5776400451
 20
195.5787218335
 30
0.0
  0
VERTEX
  5
67B
100
AcDbEntity
  8
L1
100
AcDbVertex
100
AcDb2dVertex
 10
238.4900594988
 20
195.3796832577
 30
0.0
  0
SEQEND
  5
67C
100
AcDbEntity
  8
L1
  0
LINE
  5
67D
100
AcDbEntity
  8
L1
100
AcDbLine
 10
238.4900594988
 20
195.3796832577
 30
0.0
 11
237.4616711234
 21
194.3512948823
 31
0.0
  0
POLYLINE
  5
67E
100
AcDbEntity
  8
L1
100
AcDb2dPolyline
 66
     1
 10
0.0
 20
0.0
 30
0.0
  0
VERTEX
  5
67F
100
AcDbEntity
  8
L1
100
AcDbVertex
100
AcDb2dVertex
 10
237.4616711234
 20
194.3512948823
 30
0.0
  0
VERTEX
  5
680
100
AcDbEntity
  8
L1
100
AcDbVertex
100
AcDb2dVertex
 10
237.2626325476
 20
194.2637143361
 30
0.0
  0
VERTEX
  5
681
100
AcDbEntity
  8
L1
100
AcDbVertex
100
AcDb2dVertex
 10
237.0567182261
 20
194.333614257
 30
0.0
  0
SEQEND
  5
682
100
AcDbEntity
  8
L1
  0
LINE
  5
683
100
AcDbEntity
  8
L1
100
AcDbLine
 10
237.0667345602
 20
194.1042024882
 30
0.0
 11
235.7670488977
 21
195.1947682483
 31
0.0
  0
LINE
  5
684
100
AcDbEntity
  8
L1
100
AcDbLine
 10
238.7194712675
 20
195.3696669236
 30
0.0
 11
237.4716874575
 21
194.1218831136
 31
0.0
  0
POLYLINE
  5
685
100
AcDbEntity
  8
L1
100
AcDb2dPolyline
 66
     1
 10
0.0
 20
0.0
 30
0.0
  0
VERTEX
  5
686
100
AcDbEntity
  8
L1
100
AcDbVertex
100
AcDb2dVertex
 10
238.7371518929
 20
195.7746198209
 30
0.0
  0
VERTEX
  5
687
100
AcDbEntity
  8
L1
100
AcDbVertex
100
AcDb2dVertex
 10
238.8070518138
 20
195.5687054994
 30
0.0
  0
VERTEX
  5
688
100
AcDbEntity
  8
L1
100
AcDbVertex
100
AcDb2dVertex
 10
238.7194712675
 20
195.3696669236
 30
0.0
  0
SEQEND
  5
689
100
AcDbEntity
  8
L1
  0
LINE
  5
68A
100
AcDbEntity
  8
L1
100
AcDbLine
 10
237.6465861328
 20
197.0743054834
 30
0.0
 11
238.7371518929
 21
195.7746198209
 31
0.0
  0
POLYLINE
  5
68B
100
AcDbEntity
  8
L1
100
AcDb2dPolyline
 66
     1
 10
0.0
 20
0.0
 30
0.0
  0
VERTEX
  5
68C
100
AcDbEntity
  8
L1
100
AcDbVertex
100
AcDb2dVertex
 10
237.6303562694
 20
197.4387741562
 30
0.0
  0
VERTEX
  5
68D
100
AcDbEntity
  8
L1
100
AcDbVertex
100
AcDb2dVertex
 10
237.5957608982
 20
197.3731543362
 30
0.0
  0
VERTEX
  5
68E
100
AcDbEntity
  8
L1
100
AcDbVertex
100
AcDb2dVertex
 10
237.5804944343
 20
197.3165189014
 30
0.0
  0
VERTEX
  5
68F
100
AcDbEntity
  8
L1
100
AcDbVertex
100
AcDb2dVertex
 10
237.5765406097
 20
197.2579953842
 30
0.0
  0
VERTEX
  5
690
100
AcDbEntity
  8
L1
100
AcDbVertex
100
AcDb2dVertex
 10
237.5840426133
 20
197.1998585322
 30
0.0
  0
VERTEX
  5
691
100
AcDbEntity
  8
L1
100
AcDbVertex
100
AcDb2dVertex
 10
237.6027071297
 20
197.1442904507
 30
0.0
  0
VERTEX
  5
692
100
AcDbEntity
  8
L1
100
AcDbVertex
100
AcDb2dVertex
 10
237.6465861328
 20
197.0743054834
 30
0.0
  0
SEQEND
  5
693
100
AcDbEntity
  8
L1
  0
POLYLINE
  5
694
100
AcDbEntity
  8
L1
100
AcDb2dPolyline
 66
     1
 10
0.0
 20
0.0
 30
0.0
  0
VERTEX
  5
695
100
AcDbEntity
  8
L1
100
AcDbVertex
100
AcDb2dVertex
 10
235.4078613599
 20
195.4221942356
 30
0.0
  0
VERTEX
  5
696
100
AcDbEntity
  8
L1
100
AcDbVertex
100
AcDb2dVertex
 10
235.4800872194
 20
195.4604143567
 30
0.0
  0
VERTEX
  5
697
100
AcDbEntity
  8
L1
100
AcDbVertex
100
AcDb2dVertex
 10
235.536882597
 20
195.4750486424
 30
0.0
  0
VERTEX
  5
698
100
AcDbEntity
  8
L1
100
AcDbVertex
100
AcDb2dVertex
 10
235.5954399138
 20
195.4783524997
 30
0.0
  0
VERTEX
  5
699
100
AcDbEntity
  8
L1
100
AcDbVertex
100
AcDb2dVertex
 10
235.6166143694
 20
195.4767197064
 30
0.0
  0
SEQEND
  5
69A
100
AcDbEntity
  8
L1
  0
POLYLINE
  5
69B
100
AcDbEntity
  8
L1
100
AcDb2dPolyline
 66
     1
 10
0.0
 20
0.0
 30
0.0
  0
VERTEX
  5
69C
100
AcDbEntity
  8
L1
100
AcDbVertex
100
AcDb2dVertex
 10
235.6166143694
 20
195.4767197064
 30
0.0
  0
VERTEX
  5
69D
100
AcDbEntity
  8
L1
100
AcDbVertex
100
AcDb2dVertex
 10
235.7089026308
 20
195.4509018294
 30
0.0
  0
VERTEX
  5
69E
100
AcDbEntity
  8
L1
100
AcDbVertex
100
AcDb2dVertex
 10
235.7758066866
 20
195.4084266573
 30
0.0
  0
SEQEND
  5
69F
100
AcDbEntity
  8
L1
  0
POLYLINE
  5
6A0
100
AcDbEntity
  8
L1
100
AcDb2dPolyline
 66
     1
 10
0.0
 20
0.0
 30
0.0
  0
VERTEX
  5
6A1
100
AcDbEntity
  8
L1
100
AcDbVertex
100
AcDb2dVertex
 10
235.7670488977
 20
195.1947682483
 30
0.0
  0
VERTEX
  5
6A2
100
AcDbEntity
  8
L1
100
AcDbVertex
100
AcDb2dVertex
 10
235.7035340239
 20
195.2356501878
 30
0.0
  0
VERTEX
  5
6A3
100
AcDbEntity
  8
L1
100
AcDbVertex
100
AcDb2dVertex
 10
235.6474302593
 20
195.255882358
 30
0.0
  0
VERTEX
  5
6A4
100
AcDbEntity
  8
L1
100
AcDbVertex
100
AcDb2dVertex
 10
235.5884328731
 20
195.2646161334
 30
0.0
  0
VERTEX
  5
6A5
100
AcDbEntity
  8
L1
100
AcDbVertex
100
AcDb2dVertex
 10
235.5288950386
 20
195.2615089244
 30
0.0
  0
VERTEX
  5
6A6
100
AcDbEntity
  8
L1
100
AcDbVertex
100
AcDb2dVertex
 10
235.4711473816
 20
195.2466893684
 30
0.0
  0
VERTEX
  5
6A7
100
AcDbEntity
  8
L1
100
AcDbVertex
100
AcDb2dVertex
 10
235.4025802249
 20
195.2109981117
 30
0.0
  0
SEQEND
  5
6A8
100
AcDbEntity
  8
L1
  0
ARC
  5
6A9
100
AcDbEntity
  8
L1
100
AcDbCircle
 10
230.2627676204
 20
202.5785867607
 30
0.0
 40
8.8139629885
100
AcDbArc
 50
323.0615165491
 51
324.2857253527
  0
ARC
  5
6AA
100
AcDbEntity
  8
L1
100
AcDbCircle
 10
230.2627676204
 20
202.5785867607
 30
0.0
 40
8.8139629885
100
AcDbArc
 50
305.7142746473
 51
306.9384834509
  0
LINE
  5
6AB
100
AcDbEntity
  8
L1
100
AcDbLine
 10
235.1270949737
 20
195.9662391021
 30
0.0
 11
235.5595822127
 21
195.533751863
 31
0.0
  0
POLYLINE
  5
6AC
100
AcDbEntity
  8
L1
100
AcDb2dPolyline
 66
     1
 10
0.0
 20
0.0
 30
0.0
  0
VERTEX
  5
6AD
100
AcDbEntity
  8
L1
100
AcDbVertex
100
AcDb2dVertex
 10
235.5595822127
 20
195.533751863
 30
0.0
  0
VERTEX
  5
6AE
100
AcDbEntity
  8
L1
100
AcDbVertex
100
AcDb2dVertex
 10
235.5422800701
 20
195.5349775446
 30
0.0
  0
SEQEND
  5
6AF
100
AcDbEntity
  8
L1
  0
POLYLINE
  5
6B0
100
AcDbEntity
  8
L1
100
AcDb2dPolyline
 66
     1
 10
0.0
 20
0.0
 30
0.0
  0
VERTEX
  5
6B1
100
AcDbEntity
  8
L1
100
AcDbVertex
100
AcDb2dVertex
 10
235.5422800701
 20
195.5349775446
 30
0.0
  0
VERTEX
  5
6B2
100
AcDbEntity
  8
L1
100
AcDbVertex
100
AcDb2dVertex
 10
235.5373781674
 20
195.5391756235
 30
0.0
  0
VERTEX
  5
6B3
100
AcDbEntity
  8
L1
100
AcDbVertex
100
AcDb2dVertex
 10
235.5253164126
 20
195.5505620381
 30
0.0
  0
VERTEX
  5
6B4
100
AcDbEntity
  8
L1
100
AcDbVertex
100
AcDb2dVertex
 10
235.5050066869
 20
195.5702336837
 30
0.0
  0
VERTEX
  5
6B5
100
AcDbEntity
  8
L1
100
AcDbVertex
100
AcDb2dVertex
 10
235.4783518907
 20
195.5963253824
 30
0.0
  0
VERTEX
  5
6B6
100
AcDbEntity
  8
L1
100
AcDbVertex
100
AcDb2dVertex
 10
235.4454447598
 20
195.6287735655
 30
0.0
  0
VERTEX
  5
6B7
100
AcDbEntity
  8
L1
100
AcDbVertex
100
AcDb2dVertex
 10
235.4083323222
 20
195.6655391057
 30
0.0
  0
VERTEX
  5
6B8
100
AcDbEntity
  8
L1
100
AcDbVertex
100
AcDb2dVertex
 10
235.3677863066
 20
195.7058769926
 30
0.0
  0
VERTEX
  5
6B9
100
AcDbEntity
  8
L1
100
AcDbVertex
100
AcDb2dVertex
 10
235.3258085431
 20
195.747778885
 30
0.0
  0
SEQEND
  5
6BA
100
AcDbEntity
  8
L1
  0
POLYLINE
  5
6BB
100
AcDbEntity
  8
L1
100
AcDb2dPolyline
 66
     1
 10
0.0
 20
0.0
 30
0.0
  0
VERTEX
  5
6BC
100
AcDbEntity
  8
L1
100
AcDbVertex
100
AcDb2dVertex
 10
235.1256987662
 20
195.947888662
 30
0.0
  0
VERTEX
  5
6BD
100
AcDbEntity
  8
L1
100
AcDbVertex
100
AcDb2dVertex
 10
235.1270949737
 20
195.9662391021
 30
0.0
  0
SEQEND
  5
6BE
100
AcDbEntity
  8
L1
  0
POLYLINE
  5
6BF
100
AcDbEntity
  8
L1
100
AcDb2dPolyline
 66
     1
 10
0.0
 20
0.0
 30
0.0
  0
VERTEX
  5
6C0
100
AcDbEntity
  8
L1
100
AcDbVertex
100
AcDb2dVertex
 10
237.0935754961
 20
197.515545838
 30
0.0
  0
VERTEX
  5
6C1
100
AcDbEntity
  8
L1
100
AcDbVertex
100
AcDb2dVertex
 10
237.1354773885
 20
197.4735680745
 30
0.0
  0
VERTEX
  5
6C2
100
AcDbEntity
  8
L1
100
AcDbVertex
100
AcDb2dVertex
 10
237.1758152754
 20
197.4330220589
 30
0.0
  0
VERTEX
  5
6C3
100
AcDbEntity
  8
L1
100
AcDbVertex
100
AcDb2dVertex
 10
237.2125808156
 20
197.3959096213
 30
0.0
  0
VERTEX
  5
6C4
100
AcDbEntity
  8
L1
100
AcDbVertex
100
AcDb2dVertex
 10
237.2450289987
 20
197.3630024904
 30
0.0
  0
VERTEX
  5
6C5
100
AcDbEntity
  8
L1
100
AcDbVertex
100
AcDb2dVertex
 10
237.2711206974
 20
197.3363476942
 30
0.0
  0
VERTEX
  5
6C6
100
AcDbEntity
  8
L1
100
AcDbVertex
100
AcDb2dVertex
 10
237.290792343
 20
197.3160379685
 30
0.0
  0
VERTEX
  5
6C7
100
AcDbEntity
  8
L1
100
AcDbVertex
100
AcDb2dVertex
 10
237.3021787576
 20
197.3039762137
 30
0.0
  0
VERTEX
  5
6C8
100
AcDbEntity
  8
L1
100
AcDbVertex
100
AcDb2dVertex
 10
237.3063768366
 20
197.2990743111
 30
0.0
  0
SEQEND
  5
6C9
100
AcDbEntity
  8
L1
  0
POLYLINE
  5
6CA
100
AcDbEntity
  8
L1
100
AcDb2dPolyline
 66
     1
 10
0.0
 20
0.0
 30
0.0
  0
VERTEX
  5
6CB
100
AcDbEntity
  8
L1
100
AcDbVertex
100
AcDb2dVertex
 10
237.3063768366
 20
197.2990743111
 30
0.0
  0
VERTEX
  5
6CC
100
AcDbEntity
  8
L1
100
AcDbVertex
100
AcDb2dVertex
 10
237.3076025181
 20
197.2817721684
 30
0.0
  0
SEQEND
  5
6CD
100
AcDbEntity
  8
L1
  0
LINE
  5
6CE
100
AcDbEntity
  8
L1
100
AcDbLine
 10
237.3076025181
 20
197.2817721684
 30
0.0
 11
236.875115279
 21
197.7142594074
 31
0.0
  0
POLYLINE
  5
6CF
100
AcDbEntity
  8
L1
100
AcDb2dPolyline
 66
     1
 10
0.0
 20
0.0
 30
0.0
  0
VERTEX
  5
6D0
100
AcDbEntity
  8
L1
100
AcDbVertex
100
AcDb2dVertex
 10
236.875115279
 20
197.7142594074
 30
0.0
  0
VERTEX
  5
6D1
100
AcDbEntity
  8
L1
100
AcDbVertex
100
AcDb2dVertex
 10
236.8934657191
 20
197.7156556149
 30
0.0
  0
SEQEND
  5
6D2
100
AcDbEntity
  8
L1
  0
LINE
  5
6D3
100
AcDbEntity
  8
L1
100
AcDbLine
 10
236.8934657191
 20
197.7156556149
 30
0.0
 11
237.0935754961
 21
197.515545838
 31
0.0
  0
LINE
  5
6D4
100
AcDbEntity
  8
L1
100
AcDbLine
 10
235.3258085431
 20
195.747778885
 30
0.0
 11
235.1256987662
 21
195.947888662
 31
0.0
  0
LINE
  5
6D5
100
AcDbEntity
  8
L6
  6
CENTER
 62
     1
100
AcDbLine
 10
225.2627676204
 20
202.5785867607
 30
0.0
 11
235.2627676204
 21
202.5785867607
 31
0.0
  0
POLYLINE
  5
6D6
100
AcDbEntity
  8
L1
100
AcDb2dPolyline
 66
     1
 10
0.0
 20
0.0
 30
0.0
  0
VERTEX
  5
6D7
100
AcDbEntity
  8
L1
100
AcDbVertex
100
AcDb2dVertex
 10
221.9679584414
 20
207.373529209
 30
0.0
  0
VERTEX
  5
6D8
100
AcDbEntity
  8
L1
100
AcDbVertex
100
AcDb2dVertex
 10
221.967959347
 20
207.3760579777
 30
0.0
  0
VERTEX
  5
6D9
100
AcDbEntity
  8
L1
100
AcDbVertex
100
AcDb2dVertex
 10
221.9679620637
 20
207.3785867607
 30
0.0
  0
SEQEND
  5
6DA
100
AcDbEntity
  8
L1
  0
CIRCLE
  5
6DB
100
AcDbEntity
  8
L1
100
AcDbCircle
 10
230.2627676204
 20
202.5785867607
 30
0.0
 40
2.25
  0
LINE
  5
6DC
100
AcDbEntity
  8
L1
100
AcDbLine
 10
245.3011167007
 20
202.2785867607
 30
0.0
 11
245.2145141603
 21
202.3651893011
 31
0.0
  0
LINE
  5
6DD
100
AcDbEntity
  8
L1
100
AcDbLine
 10
245.3011167007
 20
201.6785867607
 30
0.0
 11
245.2145141603
 21
201.7945616272
 31
0.0
  0
LINE
  5
6DE
100
AcDbEntity
  8
L1
100
AcDbLine
 10
245.2145141603
 20
202.3651893011
 30
0.0
 11
245.2145141603
 21
201.7945616272
 31
0.0
  0
LINE
  5
6DF
100
AcDbEntity
  8
L1
100
AcDbLine
 10
245.2145141603
 20
203.3626118943
 30
0.0
 11
245.2145141603
 21
202.7919842204
 31
0.0
  0
LINE
  5
6E0
100
AcDbEntity
  8
L1
100
AcDbLine
 10
245.3011167007
 20
202.8785867607
 30
0.0
 11
245.2145141603
 21
202.7919842204
 31
0.0
  0
LINE
  5
6E1
100
AcDbEntity
  8
L1
100
AcDbLine
 10
245.3011167007
 20
203.4785867607
 30
0.0
 11
245.2145141603
 21
203.3626118943
 31
0.0
  0
LINE
  5
6E2
100
AcDbEntity
  8
L1
100
AcDbLine
 10
245.3011167007
 20
203.4785867607
 30
0.0
 11
245.3011167007
 21
202.8785867607
 31
0.0
  0
LINE
  5
6E3
100
AcDbEntity
  8
L1
100
AcDbLine
 10
245.3011167007
 20
202.2785867607
 30
0.0
 11
245.3011167007
 21
201.6785867607
 31
0.0
  0
LINE
  5
6E4
100
AcDbEntity
  8
L1
100
AcDbLine
 10
242.2627676204
 20
202.5785867607
 30
0.0
 11
242.5676896677
 21
202.5785867607
 31
0.0
  0
LINE
  5
6E5
100
AcDbEntity
  8
L1
100
AcDbLine
 10
245.2145141603
 20
201.7945616272
 30
0.0
 11
242.5676896677
 21
202.5785867607
 31
0.0
  0
LINE
  5
6E6
100
AcDbEntity
  8
L1
100
AcDbLine
 10
242.5676896677
 20
202.5785867607
 30
0.0
 11
245.2145141603
 21
203.3626118943
 31
0.0
  0
LINE
  5
6E7
100
AcDbEntity
  8
L1
100
AcDbLine
 10
242.2627676204
 20
202.5785867607
 30
0.0
 11
245.3011167007
 21
203.4785867607
 31
0.0
  0
LINE
  5
6E8
100
AcDbEntity
  8
L1
100
AcDbLine
 10
245.3011167007
 20
201.6785867607
 30
0.0
 11
242.2627676204
 21
202.5785867607
 31
0.0
  0
LINE
  5
6E9
100
AcDbEntity
  8
L1
100
AcDbLine
 10
235.8400777622
 20
202.5785867607
 30
0.0
 11
235.8400777622
 21
206.0785867607
 31
0.0
  0
LINE
  5
6EA
100
AcDbEntity
  8
L1
100
AcDbLine
 10
239.246031844
 20
202.5785867607
 30
0.0
 11
239.246031844
 21
205.6673737141
 31
0.0
  0
POLYLINE
  5
6EB
100
AcDbEntity
  8
L1
100
AcDb2dPolyline
 66
     1
 10
0.0
 20
0.0
 30
0.0
  0
VERTEX
  5
6EC
100
AcDbEntity
  8
L1
100
AcDbVertex
100
AcDb2dVertex
 10
239.8460089978
 20
205.0673965602
 30
0.0
  0
VERTEX
  5
6ED
100
AcDbEntity
  8
L1
100
AcDbVertex
100
AcDb2dVertex
 10
239.5460168869
 20
205.1477767635
 30
0.0
  0
VERTEX
  5
6EE
100
AcDbEntity
  8
L1
100
AcDbVertex
100
AcDb2dVertex
 10
239.3264120472
 20
205.3673816031
 30
0.0
  0
VERTEX
  5
6EF
100
AcDbEntity
  8
L1
100
AcDbVertex
100
AcDb2dVertex
 10
239.246031844
 20
205.6673737141
 30
0.0
  0
SEQEND
  5
6F0
100
AcDbEntity
  8
L1
  0
LINE
  5
6F1
100
AcDbEntity
  8
L1
100
AcDbLine
 10
235.0439701903
 20
205.4869128342
 30
0.0
 11
235.3247529937
 21
203.2001204121
 31
0.0
  0
LINE
  5
6F2
100
AcDbEntity
  8
L1
100
AcDbLine
 10
235.2987675366
 20
203.1969297992
 30
0.0
 11
235.0179847332
 21
205.4837222213
 31
0.0
  0
LINE
  5
6F3
100
AcDbEntity
  8
L1
100
AcDbLine
 10
238.4855564785
 20
206.0785867607
 30
0.0
 11
238.4855564785
 21
202.5785867607
 31
0.0
  0
ARC
  5
6F4
100
AcDbEntity
  8
L1
100
AcDbCircle
 10
239.8627676204
 20
206.0785867607
 30
0.0
 40
1.3772111418
100
AcDbArc
 50
90.0
 51
180.0
  0
LINE
  5
6F5
100
AcDbEntity
  8
L1
100
AcDbLine
 10
265.3011167007
 20
202.2785867607
 30
0.0
 11
265.2145141603
 21
202.3651893011
 31
0.0
  0
LINE
  5
6F6
100
AcDbEntity
  8
L1
100
AcDbLine
 10
265.2145141603
 20
202.7919842204
 30
0.0
 11
265.2145141603
 21
202.3651893011
 31
0.0
  0
LINE
  5
6F7
100
AcDbEntity
  8
L1
100
AcDbLine
 10
265.3011167007
 20
202.8785867607
 30
0.0
 11
265.2145141603
 21
202.7919842204
 31
0.0
  0
LINE
  5
6F8
100
AcDbEntity
  8
L1
100
AcDbLine
 10
265.3011167007
 20
202.8785867607
 30
0.0
 11
265.3011167007
 21
202.2785867607
 31
0.0
  0
LINE
  5
6F9
100
AcDbEntity
  8
L1
100
AcDbLine
 10
236.154310329
 20
209.2524061574
 30
0.0
 11
225.4627676204
 21
209.2524061574
 31
0.0
  0
LINE
  5
6FA
100
AcDbEntity
  8
L1
100
AcDbLine
 10
225.4627676204
 20
209.2785867607
 30
0.0
 11
236.2116189371
 21
209.2785867607
 31
0.0
  0
POLYLINE
  5
6FB
100
AcDbEntity
  8
L1
100
AcDb2dPolyline
 66
     1
 10
0.0
 20
0.0
 30
0.0
  0
VERTEX
  5
6FC
100
AcDbEntity
  8
L1
100
AcDbVertex
100
AcDb2dVertex
 10
225.4627676204
 20
210.8733923174
 30
0.0
  0
VERTEX
  5
6FD
100
AcDbEntity
  8
L1
100
AcDbVertex
100
AcDb2dVertex
 10
225.4652964034
 20
210.8733950341
 30
0.0
  0
VERTEX
  5
6FE
100
AcDbEntity
  8
L1
100
AcDbVertex
100
AcDb2dVertex
 10
225.4678251721
 20
210.8733959397
 30
0.0
  0
SEQEND
  5
6FF
100
AcDbEntity
  8
L1
  0
POLYLINE
  5
700
100
AcDbEntity
  8
L1
100
AcDb2dPolyline
 66
     1
 10
0.0
 20
0.0
 30
0.0
  0
VERTEX
  5
701
100
AcDbEntity
  8
L1
100
AcDbVertex
100
AcDb2dVertex
 10
236.154310329
 20
209.2524061574
 30
0.0
  0
VERTEX
  5
702
100
AcDbEntity
  8
L1
100
AcDbVertex
100
AcDb2dVertex
 10
236.2116189371
 20
209.2785867607
 30
0.0
  0
SEQEND
  5
703
100
AcDbEntity
  8
L1
  0
ARC
  5
704
100
AcDbEntity
  8
L1
100
AcDbCircle
 10
334.1627676204
 20
206.0785867607
 30
0.0
 40
4.0226898581
100
AcDbArc
 50
0.0
 51
90.0
  0
LINE
  5
705
100
AcDbEntity
  8
L1
100
AcDbLine
 10
308.8110210804
 20
202.7919842204
 30
0.0
 11
328.8110210804
 21
202.7919842204
 31
0.0
  0
LINE
  5
706
100
AcDbEntity
  8
L1
100
AcDbLine
 10
328.8110210804
 20
202.3651893011
 30
0.0
 11
308.8110210804
 21
202.3651893011
 31
0.0
  0
LINE
  5
707
100
AcDbEntity
  8
L1
100
AcDbLine
 10
308.72441854
 20
202.8785867607
 30
0.0
 11
328.72441854
 21
202.8785867607
 31
0.0
  0
LINE
  5
708
100
AcDbEntity
  8
L1
100
AcDbLine
 10
328.72441854
 20
202.2785867607
 30
0.0
 11
308.72441854
 21
202.2785867607
 31
0.0
  0
CIRCLE
  5
709
100
AcDbEntity
  8
L1
100
AcDbCircle
 10
287.0127676204
 20
190.8285867607
 30
0.0
 40
1.25
  0
LINE
  5
70A
100
AcDbEntity
  8
L6
  6
CENTER
 62
     1
100
AcDbLine
 10
280.7900732312
 20
190.8285867607
 30
0.0
 11
293.7669061049
 21
190.8285867607
 31
0.0
  0
LINE
  5
70B
100
AcDbEntity
  8
L1
100
AcDbLine
 10
308.72441854
 20
202.8785867607
 30
0.0
 11
308.8110210804
 21
202.7919842204
 31
0.0
  0
LINE
  5
70C
100
AcDbEntity
  8
L1
100
AcDbLine
 10
308.8110210804
 20
202.3651893011
 30
0.0
 11
308.8110210804
 21
202.7919842204
 31
0.0
  0
LINE
  5
70D
100
AcDbEntity
  8
L1
100
AcDbLine
 10
308.72441854
 20
202.2785867607
 30
0.0
 11
308.8110210804
 21
202.3651893011
 31
0.0
  0
LINE
  5
70E
100
AcDbEntity
  8
L1
100
AcDbLine
 10
308.72441854
 20
202.2785867607
 30
0.0
 11
308.72441854
 21
202.8785867607
 31
0.0
  0
ARC
  5
70F
100
AcDbEntity
  8
L1
100
AcDbCircle
 10
343.7627676204
 20
202.5785867607
 30
0.0
 40
8.9832642236
100
AcDbArc
 50
180.0
 51
214.9005836332
  0
CIRCLE
  5
710
100
AcDbEntity
  8
L1
100
AcDbCircle
 10
324.5127676204
 20
190.8285867607
 30
0.0
 40
1.25
  0
LINE
  5
711
100
AcDbEntity
  8
L6
  6
CENTER
 62
     1
100
AcDbLine
 10
329.5127676204
 20
190.8285867607
 30
0.0
 11
319.5127676204
 21
190.8285867607
 31
0.0
  0
POLYLINE
  5
712
100
AcDbEntity
  8
L1
100
AcDb2dPolyline
 66
     1
 10
0.0
 20
0.0
 30
0.0
  0
VERTEX
  5
713
100
AcDbEntity
  8
L1
100
AcDbVertex
100
AcDb2dVertex
 10
338.2497285541
 20
195.4084266573
 30
0.0
  0
VERTEX
  5
714
100
AcDbEntity
  8
L1
100
AcDbVertex
100
AcDb2dVertex
 10
338.3188962518
 20
195.4519373648
 30
0.0
  0
VERTEX
  5
715
100
AcDbEntity
  8
L1
100
AcDbVertex
100
AcDb2dVertex
 10
338.3744391926
 20
195.4707750651
 30
0.0
  0
VERTEX
  5
716
100
AcDbEntity
  8
L1
100
AcDbVertex
100
AcDb2dVertex
 10
338.4325858722
 20
195.4784456896
 30
0.0
  0
VERTEX
  5
717
100
AcDbEntity
  8
L1
100
AcDbVertex
100
AcDb2dVertex
 10
338.4923494037
 20
195.474450095
 30
0.0
  0
VERTEX
  5
718
100
AcDbEntity
  8
L1
100
AcDbVertex
100
AcDb2dVertex
 10
338.5501279395
 20
195.4586612349
 30
0.0
  0
VERTEX
  5
719
100
AcDbEntity
  8
L1
100
AcDbVertex
100
AcDb2dVertex
 10
338.6176738808
 20
195.4221942356
 30
0.0
  0
SEQEND
  5
71A
100
AcDbEntity
  8
L1
  0
POLYLINE
  5
71B
100
AcDbEntity
  8
L1
100
AcDb2dPolyline
 66
     1
 10
0.0
 20
0.0
 30
0.0
  0
VERTEX
  5
71C
100
AcDbEntity
  8
L1
100
AcDbVertex
100
AcDb2dVertex
 10
338.6229550159
 20
195.2109981117
 30
0.0
  0
VERTEX
  5
71D
100
AcDbEntity
  8
L1
100
AcDbVertex
100
AcDb2dVertex
 10
338.5515179147
 20
195.2477228762
 30
0.0
  0
VERTEX
  5
71E
100
AcDbEntity
  8
L1
100
AcDbVertex
100
AcDb2dVertex
 10
338.4948860199
 20
195.2617717602
 30
0.0
  0
VERTEX
  5
71F
100
AcDbEntity
  8
L1
100
AcDbVertex
100
AcDb2dVertex
 10
338.4366057862
 20
195.2645921674
 30
0.0
  0
VERTEX
  5
720
100
AcDbEntity
  8
L1
100
AcDbVertex
100
AcDb2dVertex
 10
338.3787390585
 20
195.2560412102
 30
0.0
  0
VERTEX
  5
721
100
AcDbEntity
  8
L1
100
AcDbVertex
100
AcDb2dVertex
 10
338.3236317879
 20
195.2364231517
 30
0.0
  0
VERTEX
  5
722
100
AcDbEntity
  8
L1
100
AcDbVertex
100
AcDb2dVertex
 10
338.258486343
 20
195.1947682483
 30
0.0
  0
SEQEND
  5
723
100
AcDbEntity
  8
L1
  0
POLYLINE
  5
724
100
AcDbEntity
  8
L1
100
AcDb2dPolyline
 66
     1
 10
0.0
 20
0.0
 30
0.0
  0
VERTEX
  5
725
100
AcDbEntity
  8
L1
100
AcDbVertex
100
AcDb2dVertex
 10
336.9588006805
 20
194.1042024882
 30
0.0
  0
VERTEX
  5
726
100
AcDbEntity
  8
L1
100
AcDbVertex
100
AcDb2dVertex
 10
336.752886359
 20
194.0343025673
 30
0.0
  0
VERTEX
  5
727
100
AcDbEntity
  8
L1
100
AcDbVertex
100
AcDb2dVertex
 10
336.5538477832
 20
194.1218831136
 30
0.0
  0
SEQEND
  5
728
100
AcDbEntity
  8
L1
  0
LINE
  5
729
100
AcDbEntity
  8
L1
100
AcDbLine
 10
335.5177951166
 20
195.784636155
 30
0.0
 11
336.5926075169
 21
197.0655476945
 31
0.0
  0
POLYLINE
  5
72A
100
AcDbEntity
  8
L1
100
AcDb2dPolyline
 66
     1
 10
0.0
 20
0.0
 30
0.0
  0
VERTEX
  5
72B
100
AcDbEntity
  8
L1
100
AcDbVertex
100
AcDb2dVertex
 10
336.9688170146
 20
194.333614257
 30
0.0
  0
VERTEX
  5
72C
100
AcDbEntity
  8
L1
100
AcDbVertex
100
AcDb2dVertex
 10
336.7629026931
 20
194.2637143361
 30
0.0
  0
VERTEX
  5
72D
100
AcDbEntity
  8
L1
100
AcDbVertex
100
AcDb2dVertex
 10
336.5638641173
 20
194.3512948823
 30
0.0
  0
SEQEND
  5
72E
100
AcDbEntity
  8
L1
  0
LINE
  5
72F
100
AcDbEntity
  8
L1
100
AcDbLine
 10
336.5638641173
 20
194.3512948823
 30
0.0
 11
335.5354757419
 21
195.3796832577
 31
0.0
  0
POLYLINE
  5
730
100
AcDbEntity
  8
L1
100
AcDb2dPolyline
 66
     1
 10
0.0
 20
0.0
 30
0.0
  0
VERTEX
  5
731
100
AcDbEntity
  8
L1
100
AcDbVertex
100
AcDb2dVertex
 10
335.5354757419
 20
195.3796832577
 30
0.0
  0
VERTEX
  5
732
100
AcDbEntity
  8
L1
100
AcDbVertex
100
AcDb2dVertex
 10
335.4478951957
 20
195.5787218335
 30
0.0
  0
VERTEX
  5
733
100
AcDbEntity
  8
L1
100
AcDbVertex
100
AcDb2dVertex
 10
335.5177951166
 20
195.784636155
 30
0.0
  0
SEQEND
  5
734
100
AcDbEntity
  8
L1
  0
POLYLINE
  5
735
100
AcDbEntity
  8
L1
100
AcDb2dPolyline
 66
     1
 10
0.0
 20
0.0
 30
0.0
  0
VERTEX
  5
736
100
AcDbEntity
  8
L1
100
AcDbVertex
100
AcDb2dVertex
 10
336.6063750952
 20
197.4334930212
 30
0.0
  0
VERTEX
  5
737
100
AcDbEntity
  8
L1
100
AcDbVertex
100
AcDb2dVertex
 10
336.6445960773
 20
197.3612648034
 30
0.0
  0
VERTEX
  5
738
100
AcDbEntity
  8
L1
100
AcDbVertex
100
AcDb2dVertex
 10
336.6592298878
 20
197.3044693035
 30
0.0
  0
VERTEX
  5
739
100
AcDbEntity
  8
L1
100
AcDbVertex
100
AcDb2dVertex
 10
336.662533255
 20
197.2459119591
 30
0.0
  0
VERTEX
  5
73A
100
AcDbEntity
  8
L1
100
AcDbVertex
100
AcDb2dVertex
 10
336.6543796804
 20
197.187832555
 30
0.0
  0
VERTEX
  5
73B
100
AcDbEntity
  8
L1
100
AcDbVertex
100
AcDb2dVertex
 10
336.6350816352
 20
197.1324494718
 30
0.0
  0
VERTEX
  5
73C
100
AcDbEntity
  8
L1
100
AcDbVertex
100
AcDb2dVertex
 10
336.5926075169
 20
197.0655476945
 30
0.0
  0
SEQEND
  5
73D
100
AcDbEntity
  8
L1
  0
POLYLINE
  5
73E
100
AcDbEntity
  8
L1
100
AcDb2dPolyline
 66
     1
 10
0.0
 20
0.0
 30
0.0
  0
VERTEX
  5
73F
100
AcDbEntity
  8
L1
100
AcDbVertex
100
AcDb2dVertex
 10
336.3789491079
 20
197.0743054834
 30
0.0
  0
VERTEX
  5
740
100
AcDbEntity
  8
L1
100
AcDbVertex
100
AcDb2dVertex
 10
336.4197906281
 20
197.1377357849
 30
0.0
  0
VERTEX
  5
741
100
AcDbEntity
  8
L1
100
AcDbVertex
100
AcDb2dVertex
 10
336.4397994689
 20
197.1928838816
 30
0.0
  0
VERTEX
  5
742
100
AcDbEntity
  8
L1
100
AcDbVertex
100
AcDb2dVertex
 10
336.4486927322
 20
197.2508715838
 30
0.0
  0
VERTEX
  5
743
100
AcDbEntity
  8
L1
100
AcDbVertex
100
AcDb2dVertex
 10
336.4461352522
 20
197.3094423802
 30
0.0
  0
VERTEX
  5
744
100
AcDbEntity
  8
L1
100
AcDbVertex
100
AcDb2dVertex
 10
336.432235007
 20
197.3663973131
 30
0.0
  0
VERTEX
  5
745
100
AcDbEntity
  8
L1
100
AcDbVertex
100
AcDb2dVertex
 10
336.3951789713
 20
197.4387741562
 30
0.0
  0
SEQEND
  5
746
100
AcDbEntity
  8
L1
  0
LINE
  5
747
100
AcDbEntity
  8
L1
100
AcDbLine
 10
335.2883833478
 20
195.7746198209
 30
0.0
 11
336.3789491079
 21
197.0743054834
 31
0.0
  0
POLYLINE
  5
748
100
AcDbEntity
  8
L1
100
AcDb2dPolyline
 66
     1
 10
0.0
 20
0.0
 30
0.0
  0
VERTEX
  5
749
100
AcDbEntity
  8
L1
100
AcDbVertex
100
AcDb2dVertex
 10
335.3060639732
 20
195.3696669236
 30
0.0
  0
VERTEX
  5
74A
100
AcDbEntity
  8
L1
100
AcDbVertex
100
AcDb2dVertex
 10
335.2184834269
 20
195.5687054994
 30
0.0
  0
VERTEX
  5
74B
100
AcDbEntity
  8
L1
100
AcDbVertex
100
AcDb2dVertex
 10
335.2883833478
 20
195.7746198209
 30
0.0
  0
SEQEND
  5
74C
100
AcDbEntity
  8
L1
  0
LINE
  5
74D
100
AcDbEntity
  8
L1
100
AcDbLine
 10
336.5538477832
 20
194.1218831136
 30
0.0
 11
335.3060639732
 21
195.3696669236
 31
0.0
  0
LINE
  5
74E
100
AcDbEntity
  8
L1
100
AcDbLine
 10
338.2497285541
 20
195.4084266573
 30
0.0
 11
336.9688170146
 21
194.333614257
 31
0.0
  0
ARC
  5
74F
100
AcDbEntity
  8
L1
100
AcDbCircle
 10
343.7627676204
 20
202.5785867607
 30
0.0
 40
8.8139629885
100
AcDbArc
 50
215.7142746473
 51
234.2857253527
  0
LINE
  5
750
100
AcDbEntity
  8
L1
100
AcDbLine
 10
338.258486343
 20
195.1947682483
 30
0.0
 11
336.9588006805
 21
194.1042024882
 31
0.0
  0
LINE
  5
751
100
AcDbEntity
  8
L1
100
AcDbLine
 10
338.1854574785
 20
206.0785867607
 30
0.0
 11
338.1854574785
 21
202.5785867607
 31
0.0
  0
LINE
  5
752
100
AcDbEntity
  8
L1
100
AcDbLine
 10
338.700782247
 20
203.2001204121
 30
0.0
 11
338.9815650504
 21
205.4869128342
 31
0.0
  0
LINE
  5
753
100
AcDbEntity
  8
L1
100
AcDbLine
 10
339.0075505075
 20
205.4837222213
 30
0.0
 11
338.7267677041
 21
203.1969297992
 31
0.0
  0
POLYLINE
  5
754
100
AcDbEntity
  8
L1
100
AcDb2dPolyline
 66
     1
 10
0.0
 20
0.0
 30
0.0
  0
VERTEX
  5
755
100
AcDbEntity
  8
L1
100
AcDbVertex
100
AcDb2dVertex
 10
334.7795033968
 20
205.6673737141
 30
0.0
  0
VERTEX
  5
756
100
AcDbEntity
  8
L1
100
AcDbVertex
100
AcDb2dVertex
 10
334.6991231935
 20
205.3673816031
 30
0.0
  0
VERTEX
  5
757
100
AcDbEntity
  8
L1
100
AcDbVertex
100
AcDb2dVertex
 10
334.4795183538
 20
205.1477767635
 30
0.0
  0
VERTEX
  5
758
100
AcDbEntity
  8
L1
100
AcDbVertex
100
AcDb2dVertex
 10
334.1795262429
 20
205.0673965602
 30
0.0
  0
SEQEND
  5
759
100
AcDbEntity
  8
L1
  0
LINE
  5
75A
100
AcDbEntity
  8
L1
100
AcDbLine
 10
334.7795033968
 20
205.6673737141
 30
0.0
 11
334.7795033968
 21
202.5785867607
 31
0.0
  0
ARC
  5
75B
100
AcDbEntity
  8
L1
100
AcDbCircle
 10
334.1627676204
 20
206.0785867607
 30
0.0
 40
1.3772111418
100
AcDbArc
 50
0.0
 51
90.0
  0
LINE
  5
75C
100
AcDbEntity
  8
L1
100
AcDbLine
 10
335.5399787622
 20
202.5785867607
 30
0.0
 11
335.5399787622
 21
206.0785867607
 31
0.0
  0
LINE
  5
75D
100
AcDbEntity
  8
L1
100
AcDbLine
 10
328.8110210804
 20
203.3626118943
 30
0.0
 11
331.457845573
 21
202.5785867607
 31
0.0
  0
LINE
  5
75E
100
AcDbEntity
  8
L1
100
AcDbLine
 10
328.72441854
 20
202.8785867607
 30
0.0
 11
328.8110210804
 21
202.7919842204
 31
0.0
  0
LINE
  5
75F
100
AcDbEntity
  8
L1
100
AcDbLine
 10
328.72441854
 20
203.4785867607
 30
0.0
 11
328.8110210804
 21
203.3626118943
 31
0.0
  0
LINE
  5
760
100
AcDbEntity
  8
L1
100
AcDbLine
 10
328.8110210804
 20
202.7919842204
 30
0.0
 11
328.8110210804
 21
203.3626118943
 31
0.0
  0
LINE
  5
761
100
AcDbEntity
  8
L1
100
AcDbLine
 10
328.8110210804
 20
201.7945616272
 30
0.0
 11
328.8110210804
 21
202.3651893011
 31
0.0
  0
LINE
  5
762
100
AcDbEntity
  8
L1
100
AcDbLine
 10
328.72441854
 20
202.2785867607
 30
0.0
 11
328.8110210804
 21
202.3651893011
 31
0.0
  0
LINE
  5
763
100
AcDbEntity
  8
L1
100
AcDbLine
 10
331.7627676204
 20
202.5785867607
 30
0.0
 11
331.457845573
 21
202.5785867607
 31
0.0
  0
LINE
  5
764
100
AcDbEntity
  8
L1
100
AcDbLine
 10
328.72441854
 20
201.6785867607
 30
0.0
 11
328.8110210804
 21
201.7945616272
 31
0.0
  0
LINE
  5
765
100
AcDbEntity
  8
L1
100
AcDbLine
 10
331.457845573
 20
202.5785867607
 30
0.0
 11
328.8110210804
 21
201.7945616272
 31
0.0
  0
LINE
  5
766
100
AcDbEntity
  8
L1
100
AcDbLine
 10
328.72441854
 20
201.6785867607
 30
0.0
 11
328.72441854
 21
202.2785867607
 31
0.0
  0
LINE
  5
767
100
AcDbEntity
  8
L1
100
AcDbLine
 10
331.7627676204
 20
202.5785867607
 30
0.0
 11
328.72441854
 21
201.6785867607
 31
0.0
  0
LINE
  5
768
100
AcDbEntity
  8
L1
100
AcDbLine
 10
328.72441854
 20
203.4785867607
 30
0.0
 11
331.7627676204
 21
202.5785867607
 31
0.0
  0
LINE
  5
769
100
AcDbEntity
  8
L1
100
AcDbLine
 10
328.72441854
 20
202.8785867607
 30
0.0
 11
328.72441854
 21
203.4785867607
 31
0.0
  0
POLYLINE
  5
76A
100
AcDbEntity
  8
L1
100
AcDb2dPolyline
 66
     1
 10
0.0
 20
0.0
 30
0.0
  0
VERTEX
  5
76B
100
AcDbEntity
  8
L1
100
AcDbVertex
100
AcDb2dVertex
 10
337.8139163036
 20
209.2785867607
 30
0.0
  0
VERTEX
  5
76C
100
AcDbEntity
  8
L1
100
AcDbVertex
100
AcDb2dVertex
 10
337.8712249117
 20
209.2524061574
 30
0.0
  0
SEQEND
  5
76D
100
AcDbEntity
  8
L1
  0
LINE
  5
76E
100
AcDbEntity
  8
L1
100
AcDbLine
 10
343.7627676204
 20
190.2736647134
 30
0.0
 11
344.5467927539
 21
187.6268402208
 31
0.0
  0
LINE
  5
76F
100
AcDbEntity
  8
L1
100
AcDbLine
 10
342.9787424868
 20
187.6268402208
 30
0.0
 11
343.7627676204
 21
190.2736647134
 31
0.0
  0
LINE
  5
770
100
AcDbEntity
  8
L1
100
AcDbLine
 10
343.7627676204
 20
190.5785867607
 30
0.0
 11
344.6627676204
 21
187.5402376804
 31
0.0
  0
LINE
  5
771
100
AcDbEntity
  8
L1
100
AcDbLine
 10
342.8627676204
 20
187.5402376804
 30
0.0
 11
343.7627676204
 21
190.5785867607
 31
0.0
  0
LINE
  5
772
100
AcDbEntity
  8
L1
100
AcDbLine
 10
343.5493701607
 20
177.6268402208
 30
0.0
 11
343.5493701607
 21
187.6268402208
 31
0.0
  0
LINE
  5
773
100
AcDbEntity
  8
L1
100
AcDbLine
 10
343.97616508
 20
187.6268402208
 30
0.0
 11
343.97616508
 21
177.6268402208
 31
0.0
  0
LINE
  5
774
100
AcDbEntity
  8
L1
100
AcDbLine
 10
343.4627676204
 20
177.5402376804
 30
0.0
 11
343.4627676204
 21
187.5402376804
 31
0.0
  0
LINE
  5
775
100
AcDbEntity
  8
L1
100
AcDbLine
 10
344.0627676204
 20
187.5402376804
 30
0.0
 11
344.0627676204
 21
177.5402376804
 31
0.0
  0
LINE
  5
776
100
AcDbEntity
  8
L1
100
AcDbLine
 10
343.4627676204
 20
177.5402376804
 30
0.0
 11
343.5493701607
 21
177.6268402208
 31
0.0
  0
LINE
  5
777
100
AcDbEntity
  8
L1
100
AcDbLine
 10
343.97616508
 20
177.6268402208
 30
0.0
 11
343.5493701607
 21
177.6268402208
 31
0.0
  0
LINE
  5
778
100
AcDbEntity
  8
L1
100
AcDbLine
 10
344.0627676204
 20
177.5402376804
 30
0.0
 11
343.97616508
 21
177.6268402208
 31
0.0
  0
LINE
  5
779
100
AcDbEntity
  8
L1
100
AcDbLine
 10
344.0627676204
 20
177.5402376804
 30
0.0
 11
343.4627676204
 21
177.5402376804
 31
0.0
  0
LINE
  5
77A
100
AcDbEntity
  8
L1
100
AcDbLine
 10
343.4627676204
 20
187.5402376804
 30
0.0
 11
343.5493701607
 21
187.6268402208
 31
0.0
  0
LINE
  5
77B
100
AcDbEntity
  8
L1
100
AcDbLine
 10
343.5493701607
 20
187.6268402208
 30
0.0
 11
342.9787424868
 21
187.6268402208
 31
0.0
  0
LINE
  5
77C
100
AcDbEntity
  8
L1
100
AcDbLine
 10
344.5467927539
 20
187.6268402208
 30
0.0
 11
343.97616508
 21
187.6268402208
 31
0.0
  0
LINE
  5
77D
100
AcDbEntity
  8
L1
100
AcDbLine
 10
344.0627676204
 20
187.5402376804
 30
0.0
 11
343.97616508
 21
187.6268402208
 31
0.0
  0
LINE
  5
77E
100
AcDbEntity
  8
L1
100
AcDbLine
 10
344.6627676204
 20
187.5402376804
 30
0.0
 11
344.5467927539
 21
187.6268402208
 31
0.0
  0
LINE
  5
77F
100
AcDbEntity
  8
L1
100
AcDbLine
 10
342.8627676204
 20
187.5402376804
 30
0.0
 11
342.9787424868
 21
187.6268402208
 31
0.0
  0
LINE
  5
780
100
AcDbEntity
  8
L1
100
AcDbLine
 10
344.6627676204
 20
187.5402376804
 30
0.0
 11
344.0627676204
 21
187.5402376804
 31
0.0
  0
LINE
  5
781
100
AcDbEntity
  8
L1
100
AcDbLine
 10
343.4627676204
 20
187.5402376804
 30
0.0
 11
342.8627676204
 21
187.5402376804
 31
0.0
  0
LINE
  5
782
100
AcDbEntity
  8
L1
100
AcDbLine
 10
399.1583045651
 20
210.8524071543
 30
0.0
 11
401.5633811553
 21
210.8733959397
 31
0.0
  0
POLYLINE
  5
783
100
AcDbEntity
  8
L1
100
AcDb2dPolyline
 66
     1
 10
0.0
 20
0.0
 30
0.0
  0
VERTEX
  5
784
100
AcDbEntity
  8
L1
100
AcDbVertex
100
AcDb2dVertex
 10
377.1581903342
 20
207.1630902403
 30
0.0
  0
VERTEX
  5
785
100
AcDbEntity
  8
L1
100
AcDbVertex
100
AcDb2dVertex
 10
377.1581903342
 20
207.3937579582
 30
0.0
  0
VERTEX
  5
786
100
AcDbEntity
  8
L1
100
AcDbVertex
100
AcDb2dVertex
 10
377.1581903342
 20
207.622456267
 30
0.0
  0
VERTEX
  5
787
100
AcDbEntity
  8
L1
100
AcDbVertex
100
AcDb2dVertex
 10
377.1581903342
 20
207.8472341824
 30
0.0
  0
VERTEX
  5
788
100
AcDbEntity
  8
L1
100
AcDbVertex
100
AcDb2dVertex
 10
377.1581903342
 20
208.0661741643
 30
0.0
  0
VERTEX
  5
789
100
AcDbEntity
  8
L1
100
AcDbVertex
100
AcDb2dVertex
 10
377.1581903342
 20
208.2774084748
 30
0.0
  0
VERTEX
  5
78A
100
AcDbEntity
  8
L1
100
AcDbVertex
100
AcDb2dVertex
 10
377.1581903342
 20
208.4791351121
 30
0.0
  0
VERTEX
  5
78B
100
AcDbEntity
  8
L1
100
AcDbVertex
100
AcDb2dVertex
 10
377.1581903342
 20
208.6696331822
 30
0.0
  0
VERTEX
  5
78C
100
AcDbEntity
  8
L1
100
AcDbVertex
100
AcDb2dVertex
 10
377.1581903342
 20
208.8472775803
 30
0.0
  0
VERTEX
  5
78D
100
AcDbEntity
  8
L1
100
AcDbVertex
100
AcDb2dVertex
 10
377.1581903342
 20
209.0105528539
 30
0.0
  0
VERTEX
  5
78E
100
AcDbEntity
  8
L1
100
AcDbVertex
100
AcDb2dVertex
 10
377.1581903342
 20
209.1580661309
 30
0.0
  0
VERTEX
  5
78F
100
AcDbEntity
  8
L1
100
AcDbVertex
100
AcDb2dVertex
 10
377.1581903342
 20
209.2885590018
 30
0.0
  0
VERTEX
  5
790
100
AcDbEntity
  8
L1
100
AcDbVertex
100
AcDb2dVertex
 10
377.1581903342
 20
209.4009182555
 30
0.0
  0
VERTEX
  5
791
100
AcDbEntity
  8
L1
100
AcDbVertex
100
AcDb2dVertex
 10
377.1581903342
 20
209.4941853753
 30
0.0
  0
VERTEX
  5
792
100
AcDbEntity
  8
L1
100
AcDbVertex
100
AcDb2dVertex
 10
377.1581903342
 20
209.5675647161
 30
0.0
  0
VERTEX
  5
793
100
AcDbEntity
  8
L1
100
AcDbVertex
100
AcDb2dVertex
 10
377.1581903342
 20
209.6204302919
 30
0.0
  0
VERTEX
  5
794
100
AcDbEntity
  8
L1
100
AcDbVertex
100
AcDb2dVertex
 10
377.1581903342
 20
209.6523311159
 30
0.0
  0
VERTEX
  5
795
100
AcDbEntity
  8
L1
100
AcDbVertex
100
AcDb2dVertex
 10
377.1581903342
 20
209.6629950479
 30
0.0
  0
SEQEND
  5
796
100
AcDbEntity
  8
L1
  0
POLYLINE
  5
797
100
AcDbEntity
  8
L1
100
AcDb2dPolyline
 66
     1
 10
0.0
 20
0.0
 30
0.0
  0
VERTEX
  5
798
100
AcDbEntity
  8
L1
100
AcDbVertex
100
AcDb2dVertex
 10
399.1583045651
 20
207.3525404235
 30
0.0
  0
VERTEX
  5
799
100
AcDbEntity
  8
L1
100
AcDbVertex
100
AcDb2dVertex
 10
399.1583045651
 20
208.4340773407
 30
0.0
  0
VERTEX
  5
79A
100
AcDbEntity
  8
L1
100
AcDbVertex
100
AcDb2dVertex
 10
399.1583045651
 20
209.4097299805
 30
0.0
  0
VERTEX
  5
79B
100
AcDbEntity
  8
L1
100
AcDbVertex
100
AcDb2dVertex
 10
399.1583045651
 20
210.1840038483
 30
0.0
  0
VERTEX
  5
79C
100
AcDbEntity
  8
L1
100
AcDbVertex
100
AcDb2dVertex
 10
399.1583045651
 20
210.6811149113
 30
0.0
  0
VERTEX
  5
79D
100
AcDbEntity
  8
L1
100
AcDbVertex
100
AcDb2dVertex
 10
399.1583045651
 20
210.8524071543
 30
0.0
  0
SEQEND
  5
79E
100
AcDbEntity
  8
L1
  0
ARC
  5
79F
100
AcDbEntity
  8
L1
100
AcDbCircle
 10
348.5627676204
 20
207.3785867607
 30
0.0
 40
1.8738193966
100
AcDbArc
 50
0.0
 51
90.0
  0
ARC
  5
7A0
100
AcDbEntity
  8
L1
100
AcDbCircle
 10
348.5627676204
 20
207.3785867607
 30
0.0
 40
1.9
100
AcDbArc
 50
0.0
 51
90.0
  0
ARC
  5
7A1
100
AcDbEntity
  8
L1
100
AcDbCircle
 10
348.5627676204
 20
207.3785867607
 30
0.0
 40
2.9
100
AcDbArc
 50
0.0
 51
90.0
  0
POLYLINE
  5
7A2
100
AcDbEntity
  8
L1
100
AcDb2dPolyline
 66
     1
 10
0.0
 20
0.0
 30
0.0
  0
VERTEX
  5
7A3
100
AcDbEntity
  8
L1
100
AcDbVertex
100
AcDb2dVertex
 10
348.5627676204
 20
210.8733923174
 30
0.0
  0
VERTEX
  5
7A4
100
AcDbEntity
  8
L1
100
AcDbVertex
100
AcDb2dVertex
 10
349.2344018941
 20
210.8073675741
 30
0.0
  0
VERTEX
  5
7A5
100
AcDbEntity
  8
L1
100
AcDbVertex
100
AcDb2dVertex
 10
349.5708129294
 20
210.7235199121
 30
0.0
  0
VERTEX
  5
7A6
100
AcDbEntity
  8
L1
100
AcDbVertex
100
AcDb2dVertex
 10
349.8994049194
 20
210.6060408351
 30
0.0
  0
VERTEX
  5
7A7
100
AcDbEntity
  8
L1
100
AcDbVertex
100
AcDb2dVertex
 10
350.2146146719
 20
210.4563192399
 30
0.0
  0
VERTEX
  5
7A8
100
AcDbEntity
  8
L1
100
AcDbVertex
100
AcDb2dVertex
 10
350.5115299812
 20
210.2773125847
 30
0.0
  0
VERTEX
  5
7A9
100
AcDbEntity
  8
L1
100
AcDbVertex
100
AcDb2dVertex
 10
351.0325235959
 20
209.8483427363
 30
0.0
  0
VERTEX
  5
7AA
100
AcDbEntity
  8
L1
100
AcDbVertex
100
AcDb2dVertex
 10
351.4614934443
 20
209.3273491216
 30
0.0
  0
VERTEX
  5
7AB
100
AcDbEntity
  8
L1
100
AcDbVertex
100
AcDb2dVertex
 10
351.6405000995
 20
209.0304338123
 30
0.0
  0
VERTEX
  5
7AC
100
AcDbEntity
  8
L1
100
AcDbVertex
100
AcDb2dVertex
 10
351.7902216947
 20
208.7152240598
 30
0.0
  0
VERTEX
  5
7AD
100
AcDbEntity
  8
L1
100
AcDbVertex
100
AcDb2dVertex
 10
351.9077007717
 20
208.3866320698
 30
0.0
  0
VERTEX
  5
7AE
100
AcDbEntity
  8
L1
100
AcDbVertex
100
AcDb2dVertex
 10
351.9915484337
 20
208.0502210345
 30
0.0
  0
VERTEX
  5
7AF
100
AcDbEntity
  8
L1
100
AcDbVertex
100
AcDb2dVertex
 10
352.057573177
 20
207.3785867607
 30
0.0
  0
SEQEND
  5
7B0
100
AcDbEntity
  8
L1
  0
LINE
  5
7B1
100
AcDbEntity
  8
L1
100
AcDbLine
 10
350.436587017
 20
196.6870440521
 30
0.0
 11
350.436587017
 21
207.3785867607
 31
0.0
  0
LINE
  5
7B2
100
AcDbEntity
  8
L1
100
AcDbLine
 10
350.4627676204
 20
207.3785867607
 30
0.0
 11
350.4627676204
 21
196.629735444
 31
0.0
  0
LINE
  5
7B3
100
AcDbEntity
  8
L6
  6
CENTER
 62
     1
100
AcDbLine
 10
343.7627676204
 20
197.1359637761
 30
0.0
 11
343.7627676204
 21
207.5785867607
 31
0.0
  0
CIRCLE
  5
7B4
100
AcDbEntity
  8
L1
100
AcDbCircle
 10
343.7627676204
 20
202.5785867607
 30
0.0
 40
4.0
  0
POLYLINE
  5
7B5
100
AcDbEntity
  8
L1
100
AcDb2dPolyline
 66
     1
 10
0.0
 20
0.0
 30
0.0
  0
VERTEX
  5
7B6
100
AcDbEntity
  8
L1
100
AcDbVertex
100
AcDb2dVertex
 10
350.436587017
 20
196.6870440521
 30
0.0
  0
VERTEX
  5
7B7
100
AcDbEntity
  8
L1
100
AcDbVertex
100
AcDb2dVertex
 10
350.4627676204
 20
196.629735444
 30
0.0
  0
SEQEND
  5
7B8
100
AcDbEntity
  8
L1
  0
POLYLINE
  5
7B9
100
AcDbEntity
  8
L1
100
AcDb2dPolyline
 66
     1
 10
0.0
 20
0.0
 30
0.0
  0
VERTEX
  5
7BA
100
AcDbEntity
  8
L1
100
AcDbVertex
100
AcDb2dVertex
 10
346.2515774198
 20
192.9953453833
 30
0.0
  0
VERTEX
  5
7BB
100
AcDbEntity
  8
L1
100
AcDbVertex
100
AcDb2dVertex
 10
346.3319576231
 20
193.2953374942
 30
0.0
  0
VERTEX
  5
7BC
100
AcDbEntity
  8
L1
100
AcDbVertex
100
AcDb2dVertex
 10
346.5515624627
 20
193.5149423339
 30
0.0
  0
VERTEX
  5
7BD
100
AcDbEntity
  8
L1
100
AcDbVertex
100
AcDb2dVertex
 10
346.8515545737
 20
193.5953225371
 30
0.0
  0
SEQEND
  5
7BE
100
AcDbEntity
  8
L1
  0
LINE
  5
7BF
100
AcDbEntity
  8
L1
100
AcDbLine
 10
343.7627676204
 20
190.5785867607
 30
0.0
 11
343.7627676204
 21
190.2736647134
 31
0.0
  0
LINE
  5
7C0
100
AcDbEntity
  8
L1
100
AcDbLine
 10
343.7627676204
 20
197.0012766189
 30
0.0
 11
347.2627676204
 21
197.0012766189
 31
0.0
  0
LINE
  5
7C1
100
AcDbEntity
  8
L1
100
AcDbLine
 10
343.7627676204
 20
193.5953225371
 30
0.0
 11
346.8515545737
 21
193.5953225371
 31
0.0
  0
LINE
  5
7C2
100
AcDbEntity
  8
L1
100
AcDbLine
 10
346.6710936938
 20
197.7973841908
 30
0.0
 11
344.3843012717
 21
197.5166013874
 31
0.0
  0
LINE
  5
7C3
100
AcDbEntity
  8
L1
100
AcDbLine
 10
344.3811106588
 20
197.5425868445
 30
0.0
 11
346.6679030809
 21
197.8233696479
 31
0.0
  0
LINE
  5
7C4
100
AcDbEntity
  8
L1
100
AcDbLine
 10
347.2627676204
 20
194.3557979026
 30
0.0
 11
343.7627676204
 21
194.3557979026
 31
0.0
  0
ARC
  5
7C5
100
AcDbEntity
  8
L1
100
AcDbCircle
 10
347.2627676204
 20
192.9785867607
 30
0.0
 40
4.0226898581
100
AcDbArc
 50
0.0
 51
90.0
  0
ARC
  5
7C6
100
AcDbEntity
  8
L1
100
AcDbCircle
 10
347.2627676204
 20
192.9785867607
 30
0.0
 40
4.8549857577
100
AcDbArc
 50
48.7674923254
 51
97.0
  0
ARC
  5
7C7
100
AcDbEntity
  8
L1
100
AcDbCircle
 10
347.2627676204
 20
192.9785867607
 30
0.0
 40
4.881166361
100
AcDbArc
 50
49.4420036039
 51
97.0
  0
ARC
  5
7C8
100
AcDbEntity
  8
L1
100
AcDbCircle
 10
347.2627676204
 20
192.9785867607
 30
0.0
 40
1.3772111418
100
AcDbArc
 50
0.0
 51
90.0
  0
POLYLINE
  5
7C9
100
AcDbEntity
  8
L1
100
AcDb2dPolyline
 66
     1
 10
0.0
 20
0.0
 30
0.0
  0
VERTEX
  5
7CA
100
AcDbEntity
  8
L1
100
AcDbVertex
100
AcDb2dVertex
 10
352.057573177
 20
207.3785867607
 30
0.0
  0
VERTEX
  5
7CB
100
AcDbEntity
  8
L1
100
AcDbVertex
100
AcDb2dVertex
 10
352.0575758937
 20
207.3760579777
 30
0.0
  0
VERTEX
  5
7CC
100
AcDbEntity
  8
L1
100
AcDbVertex
100
AcDb2dVertex
 10
352.0575767993
 20
207.373529209
 30
0.0
  0
SEQEND
  5
7CD
100
AcDbEntity
  8
L1
  0
CIRCLE
  5
7CE
100
AcDbEntity
  8
L1
100
AcDbCircle
 10
343.7627676204
 20
202.5785867607
 30
0.0
 40
2.25
  0
LINE
  5
7CF
100
AcDbEntity
  8
L1
100
AcDbLine
 10
399.1583045651
 20
198.3344781397
 30
0.0
 11
399.1583045651
 21
207.3525404235
 31
0.0
  0
LINE
  5
7D0
100
AcDbEntity
  8
L1
100
AcDbLine
 10
377.1581903342
 20
196.2577817743
 30
0.0
 11
377.1581903342
 21
207.1630902403
 31
0.0
  0
LINE
  5
7D1
100
AcDbEntity
  8
L1
100
AcDbLine
 10
378.6538270665
 20
196.1729151955
 30
0.0
 11
397.1758324609
 21
196.3345542878
 31
0.0
  0
LINE
  5
7D2
100
AcDbEntity
  8
L1
100
AcDbLine
 10
378.1580921102
 20
195.9516624005
 30
0.0
 11
377.4555723736
 21
195.9577931974
 31
0.0
  0
ARC
  5
7D3
100
AcDbEntity
  8
L1
100
AcDbCircle
 10
377.4581903342
 20
196.2577817743
 30
0.0
 40
0.3
100
AcDbArc
 50
180.0
 51
269.5
  0
POLYLINE
  5
7D4
100
AcDbEntity
  8
L1
100
AcDb2dPolyline
 66
     1
 10
0.0
 20
0.0
 30
0.0
  0
VERTEX
  5
7D5
100
AcDbEntity
  8
L1
100
AcDbVertex
100
AcDb2dVertex
 10
378.1669341414
 20
196.1721492113
 30
0.0
  0
VERTEX
  5
7D6
100
AcDbEntity
  8
L1
100
AcDbVertex
100
AcDb2dVertex
 10
378.3375691053
 20
196.1711375588
 30
0.0
  0
VERTEX
  5
7D7
100
AcDbEntity
  8
L1
100
AcDbVertex
100
AcDb2dVertex
 10
378.6538270665
 20
196.1729151955
 30
0.0
  0
SEQEND
  5
7D8
100
AcDbEntity
  8
L1
  0
POLYLINE
  5
7D9
100
AcDbEntity
  8
L1
100
AcDb2dPolyline
 66
     1
 10
0.0
 20
0.0
 30
0.0
  0
VERTEX
  5
7DA
100
AcDbEntity
  8
L1
100
AcDbVertex
100
AcDb2dVertex
 10
378.1581903342
 20
196.1877072921
 30
0.0
  0
VERTEX
  5
7DB
100
AcDbEntity
  8
L1
100
AcDbVertex
100
AcDb2dVertex
 10
378.1669341414
 20
196.1721492113
 30
0.0
  0
SEQEND
  5
7DC
100
AcDbEntity
  8
L1
  0
ELLIPSE
  5
7DD
100
AcDbEntity
  8
L1
100
AcDbEllipse
 10
397.1583807189
 20
198.3344781397
 30
0.0
 11
0.0
 21
-2.0
 31
0.0
210
0.0
220
0.0
230
-1.0
 40
0.9999619231
 41
-1.570796326794896
 42
-0.0087263139928879
  0
POLYLINE
  5
7DE
100
AcDbEntity
  8
L1
100
AcDb2dPolyline
 66
     1
 10
0.0
 20
0.0
 30
0.0
  0
VERTEX
  5
7DF
100
AcDbEntity
  8
L1
100
AcDbVertex
100
AcDb2dVertex
 10
348.5577100686
 20
210.8733959397
 30
0.0
  0
VERTEX
  5
7E0
100
AcDbEntity
  8
L1
100
AcDbVertex
100
AcDb2dVertex
 10
348.5602388373
 20
210.8733950341
 30
0.0
  0
VERTEX
  5
7E1
100
AcDbEntity
  8
L1
100
AcDbVertex
100
AcDb2dVertex
 10
348.5627676204
 20
210.8733923174
 30
0.0
  0
SEQEND
  5
7E2
100
AcDbEntity
  8
L1
  0
LINE
  5
7E3
100
AcDbEntity
  8
L1
100
AcDbLine
 10
377.4555723736
 20
209.9629836248
 30
0.0
 11
398.8609225257
 21
210.1497852856
 31
0.0
  0
LINE
  5
7E4
100
AcDbEntity
  8
L1
100
AcDbLine
 10
397.1758324609
 20
210.8351063823
 30
0.0
 11
378.6538270665
 21
210.67346729
 31
0.0
  0
ARC
  5
7E5
100
AcDbEntity
  8
L1
100
AcDbCircle
 10
377.4581903342
 20
209.6629950479
 30
0.0
 40
0.3
100
AcDbArc
 50
90.5
 51
180.0
  0
POLYLINE
  5
7E6
100
AcDbEntity
  8
L1
100
AcDb2dPolyline
 66
     1
 10
0.0
 20
0.0
 30
0.0
  0
VERTEX
  5
7E7
100
AcDbEntity
  8
L1
100
AcDbVertex
100
AcDb2dVertex
 10
378.1669341414
 20
210.2665849481
 30
0.0
  0
VERTEX
  5
7E8
100
AcDbEntity
  8
L1
100
AcDbVertex
100
AcDb2dVertex
 10
378.1581903342
 20
210.1734863285
 30
0.0
  0
SEQEND
  5
7E9
100
AcDbEntity
  8
L1
  0
POLYLINE
  5
7EA
100
AcDbEntity
  8
L1
100
AcDb2dPolyline
 66
     1
 10
0.0
 20
0.0
 30
0.0
  0
VERTEX
  5
7EB
100
AcDbEntity
  8
L1
100
AcDbVertex
100
AcDb2dVertex
 10
378.6538270665
 20
210.67346729
 30
0.0
  0
VERTEX
  5
7EC
100
AcDbEntity
  8
L1
100
AcDbVertex
100
AcDb2dVertex
 10
378.3375691053
 20
210.5571554926
 30
0.0
  0
VERTEX
  5
7ED
100
AcDbEntity
  8
L1
100
AcDbVertex
100
AcDb2dVertex
 10
378.1669341414
 20
210.2665849481
 30
0.0
  0
SEQEND
  5
7EE
100
AcDbEntity
  8
L1
  0
POLYLINE
  5
7EF
100
AcDbEntity
  8
L1
100
AcDb2dPolyline
 66
     1
 10
0.0
 20
0.0
 30
0.0
  0
VERTEX
  5
7F0
100
AcDbEntity
  8
L1
100
AcDbVertex
100
AcDb2dVertex
 10
378.1581903342
 20
209.9691151926
 30
0.0
  0
VERTEX
  5
7F1
100
AcDbEntity
  8
L1
100
AcDbVertex
100
AcDb2dVertex
 10
378.1581903342
 20
209.9690601877
 30
0.0
  0
VERTEX
  5
7F2
100
AcDbEntity
  8
L1
100
AcDbVertex
100
AcDb2dVertex
 10
378.1581903342
 20
209.9689035675
 30
0.0
  0
SEQEND
  5
7F3
100
AcDbEntity
  8
L1
  0
POLYLINE
  5
7F4
100
AcDbEntity
  8
L1
100
AcDb2dPolyline
 66
     1
 10
0.0
 20
0.0
 30
0.0
  0
VERTEX
  5
7F5
100
AcDbEntity
  8
L1
100
AcDbVertex
100
AcDb2dVertex
 10
378.1581903342
 20
210.1734863285
 30
0.0
  0
VERTEX
  5
7F6
100
AcDbEntity
  8
L1
100
AcDbVertex
100
AcDb2dVertex
 10
378.1581903342
 20
210.0255080876
 30
0.0
  0
VERTEX
  5
7F7
100
AcDbEntity
  8
L1
100
AcDbVertex
100
AcDb2dVertex
 10
378.1581903342
 20
209.9691152789
 30
0.0
  0
SEQEND
  5
7F8
100
AcDbEntity
  8
L1
  0
LINE
  5
7F9
100
AcDbEntity
  8
L1
100
AcDbLine
 10
397.1758324609
 20
210.8351063823
 30
0.0
 11
399.1583045651
 21
210.8524071543
 31
0.0
  0
ARC
  5
7FA
100
AcDbEntity
  8
L1
100
AcDbCircle
 10
398.8583045651
 20
210.4497738626
 30
0.0
 40
0.3
100
AcDbArc
 50
270.5
 51
0.0
  0
LINE
  5
7FB
100
AcDbEntity
  8
L1
100
AcDbLine
 10
402.1581903342
 20
207.3785867607
 30
0.0
 11
402.1581903342
 21
210.2785867607
 31
0.0
  0
POLYLINE
  5
7FC
100
AcDbEntity
  8
L1
100
AcDb2dPolyline
 66
     1
 10
0.0
 20
0.0
 30
0.0
  0
VERTEX
  5
7FD
100
AcDbEntity
  8
L1
100
AcDbVertex
100
AcDb2dVertex
 10
401.5633847776
 20
210.8733923174
 30
0.0
  0
VERTEX
  5
7FE
100
AcDbEntity
  8
L1
100
AcDbVertex
100
AcDb2dVertex
 10
401.564248368
 20
210.8073675741
 30
0.0
  0
VERTEX
  5
7FF
100
AcDbEntity
  8
L1
100
AcDbVertex
100
AcDb2dVertex
 10
401.5649026176
 20
210.6060408351
 30
0.0
  0
VERTEX
  5
800
100
AcDbEntity
  8
L1
100
AcDbVertex
100
AcDb2dVertex
 10
401.5652995341
 20
210.2773125847
 30
0.0
  0
VERTEX
  5
801
100
AcDbEntity
  8
L1
100
AcDbVertex
100
AcDb2dVertex
 10
401.5654279379
 20
209.8483427363
 30
0.0
  0
VERTEX
  5
802
100
AcDbEntity
  8
L1
100
AcDbVertex
100
AcDb2dVertex
 10
401.5652995341
 20
209.3273491216
 30
0.0
  0
VERTEX
  5
803
100
AcDbEntity
  8
L1
100
AcDbVertex
100
AcDb2dVertex
 10
401.5649026176
 20
208.7152240598
 30
0.0
  0
VERTEX
  5
804
100
AcDbEntity
  8
L1
100
AcDbVertex
100
AcDb2dVertex
 10
401.564248368
 20
208.0502210345
 30
0.0
  0
VERTEX
  5
805
100
AcDbEntity
  8
L1
100
AcDbVertex
100
AcDb2dVertex
 10
401.5633847776
 20
207.3785867607
 30
0.0
  0
SEQEND
  5
806
100
AcDbEntity
  8
L1
  0
LINE
  5
807
100
AcDbEntity
  8
L1
100
AcDbLine
 10
402.1581903342
 20
197.4785867607
 30
0.0
 11
402.1579002727
 21
197.4785892921
 31
0.0
  0
LINE
  5
808
100
AcDbEntity
  8
L1
100
AcDbLine
 10
402.1573723854
 20
197.8335796566
 30
0.0
 11
402.1581903342
 21
197.8335725184
 31
0.0
  0
LINE
  5
809
100
AcDbEntity
  8
L1
100
AcDbLine
 10
402.1581903342
 20
194.3557979026
 30
0.0
 11
402.1573723854
 21
194.3558050407
 31
0.0
  0
ARC
  5
80A
100
AcDbEntity
  8
L1
100
AcDbCircle
 10
401.8581903342
 20
194.0759801239
 30
0.0
 40
0.3
100
AcDbArc
 50
359.9055312637
 51
0.0
  0
POLYLINE
  5
80B
100
AcDbEntity
  8
L1
100
AcDb2dPolyline
 66
     1
 10
0.0
 20
0.0
 30
0.0
  0
VERTEX
  5
80C
100
AcDbEntity
  8
L1
100
AcDbVertex
100
AcDb2dVertex
 10
402.1579959653
 20
196.6297391861
 30
0.0
  0
VERTEX
  5
80D
100
AcDbEntity
  8
L1
100
AcDbVertex
100
AcDb2dVertex
 10
402.1581903342
 20
196.629735444
 30
0.0
  0
SEQEND
  5
80E
100
AcDbEntity
  8
L1
  0
POLYLINE
  5
80F
100
AcDbEntity
  8
L1
100
AcDb2dPolyline
 66
     1
 10
0.0
 20
0.0
 30
0.0
  0
VERTEX
  5
810
100
AcDbEntity
  8
L1
100
AcDbVertex
100
AcDb2dVertex
 10
402.1581903342
 20
196.629735444
 30
0.0
  0
VERTEX
  5
811
100
AcDbEntity
  8
L1
100
AcDbVertex
100
AcDb2dVertex
 10
402.1575980914
 20
196.6297468463
 30
0.0
  0
SEQEND
  5
812
100
AcDbEntity
  8
L1
  0
POLYLINE
  5
813
100
AcDbEntity
  8
L1
100
AcDb2dPolyline
 66
     1
 10
0.0
 20
0.0
 30
0.0
  0
VERTEX
  5
814
100
AcDbEntity
  8
L1
100
AcDbVertex
100
AcDb2dVertex
 10
402.1581903342
 20
197.515545838
 30
0.0
  0
VERTEX
  5
815
100
AcDbEntity
  8
L1
100
AcDbVertex
100
AcDb2dVertex
 10
402.1385821659
 20
197.4392182091
 30
0.0
  0
SEQEND
  5
816
100
AcDbEntity
  8
L1
  0
POLYLINE
  5
817
100
AcDbEntity
  8
L1
100
AcDb2dPolyline
 66
     1
 10
0.0
 20
0.0
 30
0.0
  0
VERTEX
  5
818
100
AcDbEntity
  8
L1
100
AcDbVertex
100
AcDb2dVertex
 10
402.1378795663
 20
195.6703669619
 30
0.0
  0
VERTEX
  5
819
100
AcDbEntity
  8
L1
100
AcDbVertex
100
AcDb2dVertex
 10
402.1581903342
 20
195.747778885
 30
0.0
  0
SEQEND
  5
81A
100
AcDbEntity
  8
L1
  0
POLYLINE
  5
81B
100
AcDbEntity
  8
L1
100
AcDb2dPolyline
 66
     1
 10
0.0
 20
0.0
 30
0.0
  0
VERTEX
  5
81C
100
AcDbEntity
  8
L1
100
AcDbVertex
100
AcDb2dVertex
 10
402.1581903342
 20
195.947888662
 30
0.0
  0
VERTEX
  5
81D
100
AcDbEntity
  8
L1
100
AcDbVertex
100
AcDb2dVertex
 10
402.1379800663
 20
195.9481203761
 30
0.0
  0
SEQEND
  5
81E
100
AcDbEntity
  8
L1
  0
LINE
  5
81F
100
AcDbEntity
  8
L1
100
AcDbLine
 10
402.1581903342
 20
207.4557979026
 30
0.0
 11
402.1580637382
 21
207.4557990074
 31
0.0
  0
ARC
  5
820
100
AcDbEntity
  8
L1
100
AcDbCircle
 10
401.8581903342
 20
206.9759801239
 30
0.0
 40
0.3
100
AcDbArc
 50
359.2951189778
 51
0.0
  0
POLYLINE
  5
821
100
AcDbEntity
  8
L1
100
AcDb2dPolyline
 66
     1
 10
0.0
 20
0.0
 30
0.0
  0
VERTEX
  5
822
100
AcDbEntity
  8
L1
100
AcDbVertex
100
AcDb2dVertex
 10
401.5633847776
 20
207.3785867607
 30
0.0
  0
VERTEX
  5
823
100
AcDbEntity
  8
L1
100
AcDbVertex
100
AcDb2dVertex
 10
401.5633820609
 20
207.3760579777
 30
0.0
  0
VERTEX
  5
824
100
AcDbEntity
  8
L1
100
AcDbVertex
100
AcDb2dVertex
 10
401.5633811553
 20
207.373529209
 30
0.0
  0
SEQEND
  5
825
100
AcDbEntity
  8
L1
  0
POLYLINE
  5
826
100
AcDbEntity
  8
L1
100
AcDb2dPolyline
 66
     1
 10
0.0
 20
0.0
 30
0.0
  0
VERTEX
  5
827
100
AcDbEntity
  8
L1
100
AcDbVertex
100
AcDb2dVertex
 10
401.5633811553
 20
210.8733959397
 30
0.0
  0
VERTEX
  5
828
100
AcDbEntity
  8
L1
100
AcDbVertex
100
AcDb2dVertex
 10
401.5633820609
 20
210.8733950341
 30
0.0
  0
VERTEX
  5
829
100
AcDbEntity
  8
L1
100
AcDbVertex
100
AcDb2dVertex
 10
401.5633847776
 20
210.8733923174
 30
0.0
  0
SEQEND
  5
82A
100
AcDbEntity
  8
L1
  0
LINE
  5
82B
100
AcDbEntity
  8
L1
100
AcDbLine
 10
402.1581903342
 20
210.2785867607
 30
0.0
 11
401.5633847776
 21
210.8733923174
 31
0.0
  0
ELLIPSE
  5
82C
100
AcDbEntity
  8
L1
100
AcDbEllipse
 10
339.5186589993
 20
257.736468079
 30
0.0
 11
-2.0
 21
0.0
 31
0.0
210
0.0
220
0.0
230
1.0
 40
0.9999619231
 41
-1.570796326794896
 42
-0.008726313992888
  0
LINE
  5
82D
100
AcDbEntity
  8
L1
100
AcDbLine
 10
337.4419626339
 20
237.7362776943
 30
0.0
 11
348.3472710999
 21
237.7362776943
 31
0.0
  0
LINE
  5
82E
100
AcDbEntity
  8
L2
  6
DASHED
100
AcDbLine
 10
239.246031844
 20
241.7362776943
 30
0.0
 11
347.6795033968
 21
241.7362776943
 31
0.0
  0
LINE
  5
82F
100
AcDbEntity
  8
L1
100
AcDbLine
 10
348.5577100686
 20
262.1414685154
 30
0.0
 11
225.4678251721
 21
262.1414685154
 31
0.0
  0
LINE
  5
830
100
AcDbEntity
  8
L1
100
AcDbLine
 10
225.4627676204
 20
262.7362776943
 30
0.0
 11
348.5627676204
 21
262.7362776943
 31
0.0
  0
LINE
  5
831
100
AcDbEntity
  8
L6
100
AcDbLine
 10
287.0127676204
 20
233.9038578258
 30
0.0
 11
287.0127676204
 21
270.3098598528
 31
0.0
  0
LINE
  5
832
100
AcDbEntity
  8
L1
100
AcDbLine
 10
236.653647089
 20
238.7362776943
 30
0.0
 11
337.3718881517
 21
238.7362776943
 31
0.0
  0
POLYLINE
  5
833
100
AcDbEntity
  8
L2
100
AcDb2dPolyline
 66
     1
 10
0.0
 20
0.0
 30
0.0
1001
ACAD
1000
ASC_BOUNDS
1002
{
1070
    19
1002
}
  0
VERTEX
  5
834
100
AcDbEntity
  8
L2
100
AcDbVertex
100
AcDb2dVertex
 10
236.5732170141
 20
238.7362776943
 30
0.0
  0
VERTEX
  5
835
100
AcDbEntity
  8
L2
100
AcDbVertex
100
AcDb2dVertex
 10
236.4594874946
 20
251.7362776943
 30
0.0
  0
SEQEND
  5
836
100
AcDbEntity
  8
L2
  0
LINE
  5
837
100
AcDbEntity
  8
L2
100
AcDbLine
 10
232.5345847898
 20
243.2362776943
 30
0.0
 11
232.5127676204
 21
245.7362776943
 31
0.0
1001
ACAD
1000
ASC_BOUNDS
1002
{
1070
    19
1002
}
  0
LINE
  5
838
100
AcDbEntity
  8
L2
100
AcDbLine
 10
235.3627676204
 20
245.7362776943
 30
0.0
 11
234.9690686345
 21
241.2362776943
 31
0.0
1001
ACAD
1000
ASC_BOUNDS
1002
{
1070
    19
1002
}
  0
LINE
  5
839
100
AcDbEntity
  8
L2
100
AcDbLine
 10
228.0127676204
 20
245.7362776943
 30
0.0
 11
227.9909504509
 21
243.2362776943
 31
0.0
  0
LINE
  5
83A
100
AcDbEntity
  8
L2
100
AcDbLine
 10
244.4632336804
 20
245.8467484736
 30
0.0
 11
244.5708701458
 21
241.7362776943
 31
0.0
1001
ACAD
1000
ASC_BOUNDS
1002
{
1070
    19
1002
}
  0
LINE
  5
83B
100
AcDbEntity
  8
L2
100
AcDbLine
 10
239.0653628341
 20
262.438895655
 30
0.0
 11
239.246031844
 21
241.7362776943
 31
0.0
1001
ACAD
1000
ASC_BOUNDS
1002
{
1070
    19
1002
}
  0
LINE
  5
83C
100
AcDbEntity
  8
L2
100
AcDbLine
 10
252.4632336804
 20
245.8467484736
 30
0.0
 11
252.5708701458
 21
241.7362776943
 31
0.0
  0
LINE
  5
83D
100
AcDbEntity
  8
L2
100
AcDbLine
 10
246.4546650949
 20
241.7362776943
 30
0.0
 11
246.5623015603
 21
245.8467484736
 31
0.0
  0
LINE
  5
83E
100
AcDbEntity
  8
L1
100
AcDbLine
 10
236.5068000934
 20
257.753919821
 30
0.0
 11
236.6684391856
 21
239.2319144266
 31
0.0
  0
LINE
  5
83F
100
AcDbEntity
  8
L1
100
AcDbLine
 10
222.6915690955
 20
259.4390098858
 30
0.0
 11
222.8783707563
 21
238.0336597337
 31
0.0
  0
LINE
  5
840
100
AcDbEntity
  8
L1
100
AcDbLine
 10
222.1678870911
 20
239.2319144266
 30
0.0
 11
222.0062479988
 21
257.753919821
 31
0.0
  0
ARC
  5
841
100
AcDbEntity
  8
L2
100
AcDbCircle
 10
233.6233173418
 20
242.7362776943
 30
0.0
 40
0.5
100
AcDbArc
 50
1.5
 51
90.0
1001
ACAD
1000
ASC_BOUNDS
1002
{
1070
    19
1002
}
  0
LINE
  5
842
100
AcDbEntity
  8
L2
100
AcDbLine
 10
226.3627676204
 20
241.2362776943
 30
0.0
 11
234.1627676204
 21
241.2362776943
 31
0.0
  0
LINE
  5
843
100
AcDbEntity
  8
L1
100
AcDbLine
 10
225.6782641408
 20
237.7362776943
 30
0.0
 11
236.5835726068
 21
237.7362776943
 31
0.0
  0
LINE
  5
844
100
AcDbEntity
  8
L2
100
AcDbLine
 10
233.6233173418
 20
243.2362776943
 30
0.0
 11
232.5345847898
 21
243.2362776943
 31
0.0
1001
ACAD
1000
ASC_BOUNDS
1002
{
1070
    19
1002
}
  0
LINE
  5
845
100
AcDbEntity
  8
L2
100
AcDbLine
 10
224.9289637428
 20
243.2362776943
 30
0.0
 11
224.8835611837
 21
238.0336597337
 31
0.0
  0
LINE
  5
846
100
AcDbEntity
  8
L2
100
AcDbLine
 10
225.3814892792
 20
243.2362776943
 30
0.0
 11
224.9289637428
 21
243.2362776943
 31
0.0
  0
LINE
  5
847
100
AcDbEntity
  8
L2
100
AcDbLine
 10
225.5564666062
 20
241.2362776943
 30
0.0
 11
225.3814892792
 21
243.2362776943
 31
0.0
  0
LINE
  5
848
100
AcDbEntity
  8
L2
100
AcDbLine
 10
226.3627676204
 20
241.2362776943
 30
0.0
 11
225.5564666062
 21
241.2362776943
 31
0.0
  0
LINE
  5
849
100
AcDbEntity
  8
L2
100
AcDbLine
 10
226.4023892365
 20
242.7493661685
 30
0.0
 11
226.3627676204
 21
241.2362776943
 31
0.0
  0
ARC
  5
84A
100
AcDbEntity
  8
L2
100
AcDbCircle
 10
226.902217899
 20
242.7362776943
 30
0.0
 40
0.5
100
AcDbArc
 50
90.0
 51
178.5
  0
LINE
  5
84B
100
AcDbEntity
  8
L2
100
AcDbLine
 10
227.9909504509
 20
243.2362776943
 30
0.0
 11
226.902217899
 21
243.2362776943
 31
0.0
  0
LINE
  5
84C
100
AcDbEntity
  8
L2
100
AcDbLine
 10
224.5835726068
 20
237.7362776943
 30
0.0
 11
223.1783593332
 21
237.7362776943
 31
0.0
  0
ARC
  5
84D
100
AcDbEntity
  8
L2
100
AcDbCircle
 10
224.5835726068
 20
238.0362776943
 30
0.0
 40
0.3
100
AcDbArc
 50
270.0
 51
359.5
  0
POLYLINE
  5
84E
100
AcDbEntity
  8
L1
100
AcDb2dPolyline
 66
     1
 10
0.0
 20
0.0
 30
0.0
  0
VERTEX
  5
84F
100
AcDbEntity
  8
L1
100
AcDbVertex
100
AcDb2dVertex
 10
223.1783593332
 20
237.7362776943
 30
0.0
  0
VERTEX
  5
850
100
AcDbEntity
  8
L1
100
AcDbVertex
100
AcDb2dVertex
 10
223.1847286718
 20
237.7362776943
 30
0.0
  0
VERTEX
  5
851
100
AcDbEntity
  8
L1
100
AcDbVertex
100
AcDb2dVertex
 10
223.2038042343
 20
237.7362776943
 30
0.0
  0
VERTEX
  5
852
100
AcDbEntity
  8
L1
100
AcDbVertex
100
AcDb2dVertex
 10
223.2354888253
 20
237.7362776943
 30
0.0
  0
VERTEX
  5
853
100
AcDbEntity
  8
L1
100
AcDbVertex
100
AcDb2dVertex
 10
223.279621003
 20
237.7362776943
 30
0.0
  0
VERTEX
  5
854
100
AcDbEntity
  8
L1
100
AcDbVertex
100
AcDb2dVertex
 10
223.3359759018
 20
237.7362776943
 30
0.0
  0
VERTEX
  5
855
100
AcDbEntity
  8
L1
100
AcDbVertex
100
AcDb2dVertex
 10
223.4042663779
 20
237.7362776943
 30
0.0
  0
VERTEX
  5
856
100
AcDbEntity
  8
L1
100
AcDbVertex
100
AcDb2dVertex
 10
223.4841444724
 20
237.7362776943
 30
0.0
  0
VERTEX
  5
857
100
AcDbEntity
  8
L1
100
AcDbVertex
100
AcDb2dVertex
 10
223.5752031842
 20
237.7362776943
 30
0.0
  0
VERTEX
  5
858
100
AcDbEntity
  8
L1
100
AcDbVertex
100
AcDb2dVertex
 10
223.6769785441
 20
237.7362776943
 30
0.0
  0
VERTEX
  5
859
100
AcDbEntity
  8
L1
100
AcDbVertex
100
AcDb2dVertex
 10
223.7889519783
 20
237.7362776943
 30
0.0
  0
VERTEX
  5
85A
100
AcDbEntity
  8
L1
100
AcDbVertex
100
AcDb2dVertex
 10
223.9105529513
 20
237.7362776943
 30
0.0
  0
VERTEX
  5
85B
100
AcDbEntity
  8
L1
100
AcDbVertex
100
AcDb2dVertex
 10
224.0411618724
 20
237.7362776943
 30
0.0
  0
VERTEX
  5
85C
100
AcDbEntity
  8
L1
100
AcDbVertex
100
AcDb2dVertex
 10
224.1801132529
 20
237.7362776943
 30
0.0
  0
VERTEX
  5
85D
100
AcDbEntity
  8
L1
100
AcDbVertex
100
AcDb2dVertex
 10
224.3266990972
 20
237.7362776943
 30
0.0
  0
VERTEX
  5
85E
100
AcDbEntity
  8
L1
100
AcDbVertex
100
AcDb2dVertex
 10
224.4801725097
 20
237.7362776943
 30
0.0
  0
VERTEX
  5
85F
100
AcDbEntity
  8
L1
100
AcDbVertex
100
AcDb2dVertex
 10
224.6397515009
 20
237.7362776943
 30
0.0
  0
VERTEX
  5
860
100
AcDbEntity
  8
L1
100
AcDbVertex
100
AcDb2dVertex
 10
224.8046229717
 20
237.7362776943
 30
0.0
  0
VERTEX
  5
861
100
AcDbEntity
  8
L1
100
AcDbVertex
100
AcDb2dVertex
 10
224.9739468562
 20
237.7362776943
 30
0.0
  0
VERTEX
  5
862
100
AcDbEntity
  8
L1
100
AcDbVertex
100
AcDb2dVertex
 10
225.1468604024
 20
237.7362776943
 30
0.0
  0
VERTEX
  5
863
100
AcDbEntity
  8
L1
100
AcDbVertex
100
AcDb2dVertex
 10
225.3224825679
 20
237.7362776943
 30
0.0
  0
VERTEX
  5
864
100
AcDbEntity
  8
L1
100
AcDbVertex
100
AcDb2dVertex
 10
225.4999185092
 20
237.7362776943
 30
0.0
  0
VERTEX
  5
865
100
AcDbEntity
  8
L1
100
AcDbVertex
100
AcDb2dVertex
 10
225.6782641408
 20
237.7362776943
 30
0.0
  0
SEQEND
  5
866
100
AcDbEntity
  8
L1
  0
ARC
  5
867
100
AcDbEntity
  8
L1
100
AcDbCircle
 10
223.1783593332
 20
238.0362776943
 30
0.0
 40
0.3
100
AcDbArc
 50
180.5
 51
270.0
  0
POLYLINE
  5
868
100
AcDbEntity
  8
L1
100
AcDb2dPolyline
 66
     1
 10
0.0
 20
0.0
 30
0.0
  0
VERTEX
  5
869
100
AcDbEntity
  8
L1
100
AcDbVertex
100
AcDb2dVertex
 10
222.574769433
 20
238.7450215015
 30
0.0
  0
VERTEX
  5
86A
100
AcDbEntity
  8
L1
100
AcDbVertex
100
AcDb2dVertex
 10
222.2841988885
 20
238.9156564654
 30
0.0
  0
VERTEX
  5
86B
100
AcDbEntity
  8
L1
100
AcDbVertex
100
AcDb2dVertex
 10
222.1678870911
 20
239.2319144266
 30
0.0
  0
SEQEND
  5
86C
100
AcDbEntity
  8
L1
  0
POLYLINE
  5
86D
100
AcDbEntity
  8
L1
100
AcDb2dPolyline
 66
     1
 10
0.0
 20
0.0
 30
0.0
  0
VERTEX
  5
86E
100
AcDbEntity
  8
L1
100
AcDbVertex
100
AcDb2dVertex
 10
222.6678680526
 20
238.7362776943
 30
0.0
  0
VERTEX
  5
86F
100
AcDbEntity
  8
L1
100
AcDbVertex
100
AcDb2dVertex
 10
222.574769433
 20
238.7450215015
 30
0.0
  0
SEQEND
  5
870
100
AcDbEntity
  8
L1
  0
POLYLINE
  5
871
100
AcDbEntity
  8
L1
100
AcDb2dPolyline
 66
     1
 10
0.0
 20
0.0
 30
0.0
  0
VERTEX
  5
872
100
AcDbEntity
  8
L1
100
AcDbVertex
100
AcDb2dVertex
 10
222.8720339079
 20
238.7362776943
 30
0.0
  0
VERTEX
  5
873
100
AcDbEntity
  8
L1
100
AcDbVertex
100
AcDb2dVertex
 10
222.8125667421
 20
238.7362776943
 30
0.0
  0
VERTEX
  5
874
100
AcDbEntity
  8
L1
100
AcDbVertex
100
AcDb2dVertex
 10
222.6678680526
 20
238.7362776943
 30
0.0
  0
SEQEND
  5
875
100
AcDbEntity
  8
L1
  0
LINE
  5
876
100
AcDbEntity
  8
L2
100
AcDbLine
 10
227.9909504509
 20
243.2362776943
 30
0.0
 11
232.5345847898
 21
243.2362776943
 31
0.0
  0
LINE
  5
877
100
AcDbEntity
  8
L2
100
AcDbLine
 10
236.5732170141
 20
238.7362776943
 30
0.0
 11
236.653647089
 21
238.7362776943
 31
0.0
  0
LINE
  5
878
100
AcDbEntity
  8
L2
100
AcDbLine
 10
234.1627676204
 20
241.2362776943
 30
0.0
 11
234.1231460042
 21
242.7493661685
 31
0.0
1001
ACAD
1000
ASC_BOUNDS
1002
{
1070
    19
1002
}
  0
LINE
  5
879
100
AcDbEntity
  8
L2
100
AcDbLine
 10
234.9690686345
 20
241.2362776943
 30
0.0
 11
234.1627676204
 21
241.2362776943
 31
0.0
1001
ACAD
1000
ASC_BOUNDS
1002
{
1070
    19
1002
}
  0
LINE
  5
87A
100
AcDbEntity
  8
L2
100
AcDbLine
 10
239.2460370922
 20
241.7356763109
 30
0.0
 11
239.246031844
 21
241.7362776943
 31
0.0
  0
LINE
  5
87B
100
AcDbEntity
  8
L1
100
AcDbLine
 10
236.8835611837
 20
238.0336597337
 30
0.0
 11
236.8896919808
 21
238.7361794961
 31
0.0
  0
ARC
  5
87C
100
AcDbEntity
  8
L1
100
AcDbCircle
 10
236.5835726068
 20
238.0362776943
 30
0.0
 40
0.3
100
AcDbArc
 50
270.0
 51
359.5
  0
POLYLINE
  5
87D
100
AcDbEntity
  8
L1
100
AcDb2dPolyline
 66
     1
 10
0.0
 20
0.0
 30
0.0
  0
VERTEX
  5
87E
100
AcDbEntity
  8
L1
100
AcDbVertex
100
AcDb2dVertex
 10
236.6692051698
 20
238.7450215015
 30
0.0
  0
VERTEX
  5
87F
100
AcDbEntity
  8
L1
100
AcDbVertex
100
AcDb2dVertex
 10
236.653647089
 20
238.7362776943
 30
0.0
  0
SEQEND
  5
880
100
AcDbEntity
  8
L1
  0
POLYLINE
  5
881
100
AcDbEntity
  8
L1
100
AcDb2dPolyline
 66
     1
 10
0.0
 20
0.0
 30
0.0
  0
VERTEX
  5
882
100
AcDbEntity
  8
L1
100
AcDbVertex
100
AcDb2dVertex
 10
236.6684391856
 20
239.2319144266
 30
0.0
  0
VERTEX
  5
883
100
AcDbEntity
  8
L1
100
AcDbVertex
100
AcDb2dVertex
 10
236.6702168223
 20
238.9156564654
 30
0.0
  0
VERTEX
  5
884
100
AcDbEntity
  8
L1
100
AcDbVertex
100
AcDb2dVertex
 10
236.6692051698
 20
238.7450215015
 30
0.0
  0
SEQEND
  5
885
100
AcDbEntity
  8
L1
  0
LINE
  5
886
100
AcDbEntity
  8
L2
100
AcDbLine
 10
251.1127676204
 20
246.2362776943
 30
0.0
 11
247.9127676204
 21
246.2362776943
 31
0.0
  0
LINE
  5
887
100
AcDbEntity
  8
L2
100
AcDbLine
 10
234.2627676204
 20
245.7362776943
 30
0.0
 11
234.2627676204
 21
259.7362776943
 31
0.0
1001
ACAD
1000
ASC_BOUNDS
1002
{
1070
    19
1002
}
  0
LINE
  5
888
100
AcDbEntity
  8
L2
100
AcDbLine
 10
226.2627676204
 20
259.7362776943
 30
0.0
 11
226.2627676204
 21
245.7362776943
 31
0.0
  0
LINE
  5
889
100
AcDbEntity
  8
L2
 62
     1
100
AcDbLine
 10
225.2627676204
 20
259.7362776943
 30
0.0
 11
225.2627676204
 21
246.7362776943
 31
0.0
  0
LINE
  5
88A
100
AcDbEntity
  8
L2
 62
     1
100
AcDbLine
 10
235.2627676204
 20
246.7362776943
 30
0.0
 11
235.2627676204
 21
259.7362776943
 31
0.0
1001
ACAD
1000
ASC_BOUNDS
1002
{
1070
    19
1002
}
  0
LINE
  5
88B
100
AcDbEntity
  8
L2
100
AcDbLine
 10
232.5127676204
 20
245.7362776943
 30
0.0
 11
234.2627676204
 21
245.7362776943
 31
0.0
1001
ACAD
1000
ASC_BOUNDS
1002
{
1070
    19
1002
}
  0
LINE
  5
88C
100
AcDbEntity
  8
L2
100
AcDbLine
 10
226.2627676204
 20
245.7362776943
 30
0.0
 11
228.0127676204
 21
245.7362776943
 31
0.0
  0
LINE
  5
88D
100
AcDbEntity
  8
L2
100
AcDbLine
 10
231.0627564919
 20
245.7363114536
 30
0.0
 11
231.0627567549
 21
245.7363415917
 31
0.0
  0
LINE
  5
88E
100
AcDbEntity
  8
L2
100
AcDbLine
 10
230.7627629501
 20
245.7357425365
 30
0.0
 11
230.7627679671
 21
245.7363174323
 31
0.0
  0
POLYLINE
  5
88F
100
AcDbEntity
  8
L2
 62
     1
100
AcDb2dPolyline
 66
     1
 10
0.0
 20
0.0
 30
0.0
  0
VERTEX
  5
890
100
AcDbEntity
  8
L2
 62
     1
100
AcDbVertex
100
AcDb2dVertex
 10
226.2627676204
 20
245.7362776943
 30
0.0
  0
VERTEX
  5
891
100
AcDbEntity
  8
L2
 62
     1
100
AcDbVertex
100
AcDb2dVertex
 10
225.2627676204
 20
246.7362776943
 30
0.0
  0
SEQEND
  5
892
100
AcDbEntity
  8
L2
 62
     1
  0
LINE
  5
893
100
AcDbEntity
  8
L2
100
AcDbLine
 10
232.5127676204
 20
245.7362776943
 30
0.0
 11
228.0127676204
 21
245.7362776943
 31
0.0
  0
LINE
  5
894
100
AcDbEntity
  8
L2
100
AcDbLine
 10
243.1127676204
 20
246.2362776943
 30
0.0
 11
244.0633707504
 21
246.2362776943
 31
0.0
1001
ACAD
1000
ASC_BOUNDS
1002
{
1070
    19
1002
}
  0
ARC
  5
895
100
AcDbEntity
  8
L2
100
AcDbCircle
 10
244.0633707504
 20
245.8362776943
 30
0.0
 40
0.4
100
AcDbArc
 50
1.5
 51
90.0
1001
ACAD
1000
ASC_BOUNDS
1002
{
1070
    19
1002
}
  0
ARC
  5
896
100
AcDbEntity
  8
L2
100
AcDbCircle
 10
246.9621644903
 20
245.8362776943
 30
0.0
 40
0.4
100
AcDbArc
 50
90.0
 51
178.5
  0
LINE
  5
897
100
AcDbEntity
  8
L2
100
AcDbLine
 10
246.9621644903
 20
246.2362776943
 30
0.0
 11
247.9127676204
 21
246.2362776943
 31
0.0
  0
LINE
  5
898
100
AcDbEntity
  8
L2
100
AcDbLine
 10
236.4594874946
 20
251.7362776943
 30
0.0
 11
235.4151288271
 21
251.7362776943
 31
0.0
1001
ACAD
1000
ASC_BOUNDS
1002
{
1070
    19
1002
}
  0
LINE
  5
899
100
AcDbEntity
  8
L2
100
AcDbLine
 10
239.2067609389
 20
246.2362776943
 30
0.0
 11
239.9127676204
 21
246.2362776943
 31
0.0
1001
ACAD
1000
ASC_BOUNDS
1002
{
1070
    19
1002
}
  0
POLYLINE
  5
89A
100
AcDbEntity
  8
L2
 62
     1
100
AcDb2dPolyline
 66
     1
 10
0.0
 20
0.0
 30
0.0
  0
VERTEX
  5
89B
100
AcDbEntity
  8
L2
 62
     1
100
AcDbVertex
100
AcDb2dVertex
 10
234.2627676204
 20
245.7362776943
 30
0.0
  0
VERTEX
  5
89C
100
AcDbEntity
  8
L2
 62
     1
100
AcDbVertex
100
AcDb2dVertex
 10
235.2627676204
 20
246.7362776943
 30
0.0
  0
SEQEND
  5
89D
100
AcDbEntity
  8
L2
 62
     1
  0
LINE
  5
89E
100
AcDbEntity
  8
L2
100
AcDbLine
 10
235.4151288271
 20
251.7362776943
 30
0.0
 11
235.3627676204
 21
245.7362776943
 31
0.0
1001
ACAD
1000
ASC_BOUNDS
1002
{
1070
    19
1002
}
  0
LINE
  5
89F
100
AcDbEntity
  8
L2
100
AcDbLine
 10
243.1127676204
 20
246.2362776943
 30
0.0
 11
239.9127676204
 21
246.2362776943
 31
0.0
  0
LINE
  5
8A0
100
AcDbEntity
  8
L2
100
AcDbLine
 10
234.2627676204
 20
259.7362776943
 30
0.0
 11
226.2627676204
 21
259.7362776943
 31
0.0
  0
LINE
  5
8A1
100
AcDbEntity
  8
L1
100
AcDbLine
 10
225.4888139576
 20
259.7363919251
 30
0.0
 11
234.5068762414
 21
259.7363919251
 31
0.0
  0
LINE
  5
8A2
100
AcDbEntity
  8
L1
100
AcDbLine
 10
221.9679584414
 20
262.1414685154
 30
0.0
 11
222.5627676204
 21
262.7362776943
 31
0.0
  0
LINE
  5
8A3
100
AcDbEntity
  8
L1
100
AcDbLine
 10
222.5627676204
 20
262.7362776943
 30
0.0
 11
225.4627676204
 21
262.7362776943
 31
0.0
  0
LINE
  5
8A4
100
AcDbEntity
  8
L2
100
AcDbLine
 10
222.5627676204
 20
262.7362776943
 30
0.0
 11
223.5627676204
 21
262.7362776943
 31
0.0
  0
LINE
  5
8A5
100
AcDbEntity
  8
L2
100
AcDbLine
 10
223.5889482237
 20
259.7362776943
 30
0.0
 11
226.2627676204
 21
259.7362776943
 31
0.0
  0
POLYLINE
  5
8A6
100
AcDbEntity
  8
L2
100
AcDb2dPolyline
 66
     1
 10
0.0
 20
0.0
 30
0.0
  0
VERTEX
  5
8A7
100
AcDbEntity
  8
L2
100
AcDbVertex
100
AcDb2dVertex
 10
223.5889505991
 20
259.7363919251
 30
0.0
  0
VERTEX
  5
8A8
100
AcDbEntity
  8
L2
100
AcDbVertex
100
AcDb2dVertex
 10
223.5889536554
 20
259.7363919251
 30
0.0
  0
VERTEX
  5
8A9
100
AcDbEntity
  8
L2
100
AcDbVertex
100
AcDb2dVertex
 10
223.5889567117
 20
259.7363919251
 30
0.0
  0
SEQEND
  5
8AA
100
AcDbEntity
  8
L2
  0
LINE
  5
8AB
100
AcDbEntity
  8
L2
100
AcDbLine
 10
223.5627676204
 20
262.7362776943
 30
0.0
 11
223.5889482237
 21
259.7362776943
 31
0.0
  0
POLYLINE
  5
8AC
100
AcDbEntity
  8
L1
100
AcDb2dPolyline
 66
     1
 10
0.0
 20
0.0
 30
0.0
  0
VERTEX
  5
8AD
100
AcDbEntity
  8
L1
100
AcDbVertex
100
AcDb2dVertex
 10
221.9679620637
 20
262.1414721377
 30
0.0
  0
VERTEX
  5
8AE
100
AcDbEntity
  8
L1
100
AcDbVertex
100
AcDb2dVertex
 10
221.967959347
 20
262.141469421
 30
0.0
  0
VERTEX
  5
8AF
100
AcDbEntity
  8
L1
100
AcDbVertex
100
AcDb2dVertex
 10
221.9679584414
 20
262.1414685154
 30
0.0
  0
SEQEND
  5
8B0
100
AcDbEntity
  8
L1
  0
POLYLINE
  5
8B1
100
AcDbEntity
  8
L1
100
AcDb2dPolyline
 66
     1
 10
0.0
 20
0.0
 30
0.0
  0
VERTEX
  5
8B2
100
AcDbEntity
  8
L1
100
AcDbVertex
100
AcDb2dVertex
 10
225.4627676204
 20
262.1414721377
 30
0.0
  0
VERTEX
  5
8B3
100
AcDbEntity
  8
L1
100
AcDbVertex
100
AcDb2dVertex
 10
224.7911333466
 20
262.1423357281
 30
0.0
  0
VERTEX
  5
8B4
100
AcDbEntity
  8
L1
100
AcDbVertex
100
AcDb2dVertex
 10
224.4547223113
 20
262.1426928428
 30
0.0
  0
VERTEX
  5
8B5
100
AcDbEntity
  8
L1
100
AcDbVertex
100
AcDb2dVertex
 10
224.1261303213
 20
262.1429899777
 30
0.0
  0
VERTEX
  5
8B6
100
AcDbEntity
  8
L1
100
AcDbVertex
100
AcDb2dVertex
 10
223.8109205688
 20
262.1432220343
 30
0.0
  0
VERTEX
  5
8B7
100
AcDbEntity
  8
L1
100
AcDbVertex
100
AcDb2dVertex
 10
223.5140052596
 20
262.1433868942
 30
0.0
  0
VERTEX
  5
8B8
100
AcDbEntity
  8
L1
100
AcDbVertex
100
AcDb2dVertex
 10
222.9930116448
 20
262.143515298
 30
0.0
  0
VERTEX
  5
8B9
100
AcDbEntity
  8
L1
100
AcDbVertex
100
AcDb2dVertex
 10
222.5640417964
 20
262.1433868942
 30
0.0
  0
VERTEX
  5
8BA
100
AcDbEntity
  8
L1
100
AcDbVertex
100
AcDb2dVertex
 10
222.3850351412
 20
262.1432220343
 30
0.0
  0
VERTEX
  5
8BB
100
AcDbEntity
  8
L1
100
AcDbVertex
100
AcDb2dVertex
 10
222.235313546
 20
262.1429899777
 30
0.0
  0
VERTEX
  5
8BC
100
AcDbEntity
  8
L1
100
AcDbVertex
100
AcDb2dVertex
 10
222.117834469
 20
262.1426928428
 30
0.0
  0
VERTEX
  5
8BD
100
AcDbEntity
  8
L1
100
AcDbVertex
100
AcDb2dVertex
 10
222.033986807
 20
262.1423357281
 30
0.0
  0
VERTEX
  5
8BE
100
AcDbEntity
  8
L1
100
AcDbVertex
100
AcDb2dVertex
 10
221.9679620637
 20
262.1414721377
 30
0.0
  0
SEQEND
  5
8BF
100
AcDbEntity
  8
L1
  0
POLYLINE
  5
8C0
100
AcDbEntity
  8
L1
100
AcDb2dPolyline
 66
     1
 10
0.0
 20
0.0
 30
0.0
  0
VERTEX
  5
8C1
100
AcDbEntity
  8
L1
100
AcDbVertex
100
AcDb2dVertex
 10
225.4678251721
 20
262.1414685154
 30
0.0
  0
VERTEX
  5
8C2
100
AcDbEntity
  8
L1
100
AcDbVertex
100
AcDb2dVertex
 10
225.4652964034
 20
262.141469421
 30
0.0
  0
VERTEX
  5
8C3
100
AcDbEntity
  8
L1
100
AcDbVertex
100
AcDb2dVertex
 10
225.4627676204
 20
262.1414721377
 30
0.0
  0
SEQEND
  5
8C4
100
AcDbEntity
  8
L1
  0
POLYLINE
  5
8C5
100
AcDbEntity
  8
L1
100
AcDb2dPolyline
 66
     1
 10
0.0
 20
0.0
 30
0.0
  0
VERTEX
  5
8C6
100
AcDbEntity
  8
L1
100
AcDbVertex
100
AcDb2dVertex
 10
221.9889472269
 20
259.7363919251
 30
0.0
  0
VERTEX
  5
8C7
100
AcDbEntity
  8
L1
100
AcDbVertex
100
AcDb2dVertex
 10
222.0766944028
 20
259.7363919251
 30
0.0
  0
VERTEX
  5
8C8
100
AcDbEntity
  8
L1
100
AcDbVertex
100
AcDb2dVertex
 10
222.3355363457
 20
259.7363919251
 30
0.0
  0
VERTEX
  5
8C9
100
AcDbEntity
  8
L1
100
AcDbVertex
100
AcDb2dVertex
 10
222.7524948928
 20
259.7363919251
 30
0.0
  0
VERTEX
  5
8CA
100
AcDbEntity
  8
L1
100
AcDbVertex
100
AcDb2dVertex
 10
223.3066640203
 20
259.7363919251
 30
0.0
  0
VERTEX
  5
8CB
100
AcDbEntity
  8
L1
100
AcDbVertex
100
AcDb2dVertex
 10
223.970258057
 20
259.7363919251
 30
0.0
  0
VERTEX
  5
8CC
100
AcDbEntity
  8
L1
100
AcDbVertex
100
AcDb2dVertex
 10
224.7100048398
 20
259.7363919251
 30
0.0
  0
VERTEX
  5
8CD
100
AcDbEntity
  8
L1
100
AcDbVertex
100
AcDb2dVertex
 10
225.4888139576
 20
259.7363919251
 30
0.0
  0
SEQEND
  5
8CE
100
AcDbEntity
  8
L1
  0
ARC
  5
8CF
100
AcDbEntity
  8
L1
100
AcDbCircle
 10
222.3915805185
 20
259.4363919251
 30
0.0
 40
0.3
100
AcDbArc
 50
0.5
 51
89.9383475169
  0
LINE
  5
8D0
100
AcDbEntity
  8
L1
100
AcDbLine
 10
221.9679584414
 20
262.1414685154
 30
0.0
 11
221.9889472269
 21
259.7363919251
 31
0.0
  0
LINE
  5
8D1
100
AcDbEntity
  8
L1
100
AcDbLine
 10
221.9889476314
 20
259.7363455732
 30
0.0
 11
222.0062479988
 21
257.753919821
 31
0.0
  0
ELLIPSE
  5
8D2
100
AcDbEntity
  8
L2
100
AcDbEllipse
 10
234.5068762414
 20
257.7399815389
 30
0.0
 11
-1.996486406287232
 21
0.0
 31
0.0
210
0.0
220
0.0
230
1.0
 40
0.9999619231
 41
-1.611411896125902
 42
-1.589446612080935
1001
ACAD
1000
ASC_BOUNDS
1002
{
1070
    19
1002
}
  0
ARC
  5
8D3
100
AcDbEntity
  8
L2
100
AcDbCircle
 10
238.7653742572
 20
262.4362776943
 30
0.0
 40
0.3
100
AcDbArc
 50
0.5
 51
90.0
1001
ACAD
1000
ASC_BOUNDS
1002
{
1070
    19
1002
}
  0
LINE
  5
8D4
100
AcDbEntity
  8
L2
100
AcDbLine
 10
238.4855564785
 20
262.7362776943
 30
0.0
 11
238.7653742572
 21
262.7362776943
 31
0.0
1001
ACAD
1000
ASC_BOUNDS
1002
{
1070
    19
1002
}
  0
LINE
  5
8D5
100
AcDbEntity
  8
L2
100
AcDbLine
 10
235.3627676204
 20
262.7362776943
 30
0.0
 11
235.8400777622
 21
262.7362776943
 31
0.0
1001
ACAD
1000
ASC_BOUNDS
1002
{
1070
    19
1002
}
  0
LINE
  5
8DA
100
AcDbEntity
  8
L2
100
AcDbLine
 10
238.4855564785
 20
262.7362776943
 30
0.0
 11
235.8400777622
 21
262.7362776943
 31
0.0
  0
ARC
  5
8DB
100
AcDbEntity
  8
L2
100
AcDbCircle
 10
237.1628171204
 20
260.1362776943
 30
0.0
 40
1.3
100
AcDbArc
 50
180.5
 51
359.5
1001
ACAD
1000
ASC_BOUNDS
1002
{
1070
    19
1002
}
  0
LINE
  5
8DC
100
AcDbEntity
  8
L2
100
AcDbLine
 10
234.2627676204
 20
259.7362776943
 30
0.0
 11
235.336587017
 21
259.7362776943
 31
0.0
1001
ACAD
1000
ASC_BOUNDS
1002
{
1070
    19
1002
}
  0
LINE
  5
8DD
100
AcDbEntity
  8
L2
100
AcDbLine
 10
235.9261798112
 20
259.7362776943
 30
0.0
 11
235.9259721245
 21
259.7362776943
 31
0.0
  0
LINE
  5
8DE
100
AcDbEntity
  8
L2
100
AcDbLine
 10
234.5068762414
 20
259.736379958
 30
0.0
 11
234.5068762414
 21
259.7361230043
 31
0.0
  0
LINE
  5
8DF
100
AcDbEntity
  8
L2
100
AcDbLine
 10
239.0967986166
 20
258.8362776943
 30
0.0
 11
239.0929951808
 21
258.8362776943
 31
0.0
  0
LINE
  5
8E0
100
AcDbEntity
  8
L2
100
AcDbLine
 10
237.2143904507
 20
258.8362776943
 30
0.0
 11
237.1628171204
 21
258.8362776943
 31
0.0
  0
LINE
  5
8E1
100
AcDbEntity
  8
L2
100
AcDbLine
 10
238.4855564785
 20
262.7362776943
 30
0.0
 11
238.4627676204
 21
260.1249331982
 31
0.0
1001
ACAD
1000
ASC_BOUNDS
1002
{
1070
    19
1002
}
  0
LINE
  5
8E2
100
AcDbEntity
  8
L2
100
AcDbLine
 10
235.8628666204
 20
260.1249331982
 30
0.0
 11
235.8400777622
 21
262.7362776943
 31
0.0
1001
ACAD
1000
ASC_BOUNDS
1002
{
1070
    19
1002
}
  0
LINE
  5
8E3
100
AcDbEntity
  8
L2
100
AcDbLine
 10
235.336587017
 20
259.7362776943
 30
0.0
 11
235.3627676204
 21
262.7362776943
 31
0.0
1001
ACAD
1000
ASC_BOUNDS
1002
{
1070
    19
1002
}
  0
ELLIPSE
  5
8E5
100
AcDbEntity
  8
L1
100
AcDbEllipse
 10
234.5068762414
 20
257.736468079
 30
0.0
 11
-1.999999999999999
 21
0.0
 31
0.0
210
0.0
220
0.0
230
1.0
 40
0.9999619231
 41
-3.132866339596905
 42
-1.570796326794896
  0
ARC
  5
8E6
100
AcDbEntity
  8
L1
100
AcDbCircle
 10
238.7653742572
 20
262.4362776943
 30
0.0
 40
0.3
100
AcDbArc
 50
89.8640653584
 51
90.0
  0
LINE
  5
8EF
100
AcDbEntity
  8
L2
100
AcDbLine
 10
251.1127676204
 20
246.2362776943
 30
0.0
 11
252.0633707504
 21
246.2362776943
 31
0.0
  0
ARC
  5
8F0
100
AcDbEntity
  8
L2
100
AcDbCircle
 10
252.0633707504
 20
245.8362776943
 30
0.0
 40
0.4
100
AcDbArc
 50
1.5
 51
90.0
  0
LINE
  5
8F1
100
AcDbEntity
  8
L2
100
AcDbLine
 10
329.5623015603
 20
245.8467484736
 30
0.0
 11
329.4546650949
 21
241.7362776943
 31
0.0
1001
ACAD
1000
ASC_BOUNDS
1002
{
1070
    19
1002
}
  0
LINE
  5
8F2
100
AcDbEntity
  8
L2
100
AcDbLine
 10
335.4463742613
 20
261.1362776943
 30
0.0
 11
335.2169624926
 21
241.7362776943
 31
0.0
  0
LINE
  5
8F3
100
AcDbEntity
  8
L1
100
AcDbLine
 10
337.5187351473
 20
257.753919821
 30
0.0
 11
337.357096055
 21
239.2319144266
 31
0.0
  0
LINE
  5
8F4
100
AcDbEntity
  8
L2
100
AcDbLine
 10
327.4632336804
 20
245.8467484736
 30
0.0
 11
327.5708701458
 21
241.7362776943
 31
0.0
  0
LINE
  5
8F5
100
AcDbEntity
  8
L2
100
AcDbLine
 10
321.4546650949
 20
241.7362776943
 30
0.0
 11
321.5623015603
 21
245.8467484736
 31
0.0
  0
LINE
  5
8F6
100
AcDbEntity
  8
L2
100
AcDbLine
 10
289.9632336804
 20
245.8467484736
 30
0.0
 11
290.0708701458
 21
241.7362776943
 31
0.0
  0
LINE
  5
8F7
100
AcDbEntity
  8
L2
100
AcDbLine
 10
283.9546650949
 20
241.7362776943
 30
0.0
 11
284.0623015603
 21
245.8467484736
 31
0.0
  0
LINE
  5
8F8
100
AcDbEntity
  8
L1
100
AcDbLine
 10
337.1358432599
 20
238.7361794961
 30
0.0
 11
337.141974057
 21
238.0336597337
 31
0.0
  0
ARC
  5
8F9
100
AcDbEntity
  8
L1
100
AcDbCircle
 10
337.4419626339
 20
238.0362776943
 30
0.0
 40
0.3
100
AcDbArc
 50
180.5
 51
270.0
  0
POLYLINE
  5
8FA
100
AcDbEntity
  8
L1
100
AcDb2dPolyline
 66
     1
 10
0.0
 20
0.0
 30
0.0
  0
VERTEX
  5
8FB
100
AcDbEntity
  8
L1
100
AcDbVertex
100
AcDb2dVertex
 10
337.3563300708
 20
238.7450215015
 30
0.0
  0
VERTEX
  5
8FC
100
AcDbEntity
  8
L1
100
AcDbVertex
100
AcDb2dVertex
 10
337.3553184184
 20
238.9156564654
 30
0.0
  0
VERTEX
  5
8FD
100
AcDbEntity
  8
L1
100
AcDbVertex
100
AcDb2dVertex
 10
337.357096055
 20
239.2319144266
 30
0.0
  0
SEQEND
  5
8FE
100
AcDbEntity
  8
L1
  0
ARC
  5
8FF
100
AcDbEntity
  8
L2
100
AcDbCircle
 10
284.4621644903
 20
245.8362776943
 30
0.0
 40
0.4
100
AcDbArc
 50
90.0
 51
178.5
  0
LINE
  5
900
100
AcDbEntity
  8
L2
100
AcDbLine
 10
284.4621644903
 20
246.2362776943
 30
0.0
 11
285.4127676204
 21
246.2362776943
 31
0.0
  0
LINE
  5
901
100
AcDbEntity
  8
L2
100
AcDbLine
 10
288.6127676204
 20
246.2362776943
 30
0.0
 11
285.4127676204
 21
246.2362776943
 31
0.0
  0
LINE
  5
902
100
AcDbEntity
  8
L2
100
AcDbLine
 10
288.6127676204
 20
246.2362776943
 30
0.0
 11
289.5633707504
 21
246.2362776943
 31
0.0
  0
ARC
  5
903
100
AcDbEntity
  8
L2
100
AcDbCircle
 10
289.5633707504
 20
245.8362776943
 30
0.0
 40
0.4
100
AcDbArc
 50
1.5
 51
90.0
  0
LINE
  5
904
100
AcDbEntity
  8
L2
100
AcDbLine
 10
334.9589369858
 20
262.438895655
 30
0.0
 11
334.817538881
 21
246.2362776943
 31
0.0
  0
LINE
  5
905
100
AcDbEntity
  8
L2
100
AcDbLine
 10
326.1127676204
 20
246.2362776943
 30
0.0
 11
322.9127676204
 21
246.2362776943
 31
0.0
  0
ARC
  5
906
100
AcDbEntity
  8
L2
100
AcDbCircle
 10
321.9621644903
 20
245.8362776943
 30
0.0
 40
0.4
100
AcDbArc
 50
90.0
 51
178.5
  0
LINE
  5
907
100
AcDbEntity
  8
L2
100
AcDbLine
 10
321.9621644903
 20
246.2362776943
 30
0.0
 11
322.9127676204
 21
246.2362776943
 31
0.0
  0
LINE
  5
908
100
AcDbEntity
  8
L2
100
AcDbLine
 10
334.8187743018
 20
246.2362776943
 30
0.0
 11
334.1127676204
 21
246.2362776943
 31
0.0
1001
ACAD
1000
ASC_BOUNDS
1002
{
1070
    19
1002
}
  0
LINE
  5
909
100
AcDbEntity
  8
L2
100
AcDbLine
 10
330.9127676204
 20
246.2362776943
 30
0.0
 11
335.2701765626
 21
246.2362776943
 31
0.0
  0
ARC
  5
90A
100
AcDbEntity
  8
L2
100
AcDbCircle
 10
329.9621644903
 20
245.8362776943
 30
0.0
 40
0.4
100
AcDbArc
 50
90.0
 51
178.5
1001
ACAD
1000
ASC_BOUNDS
1002
{
1070
    19
1002
}
  0
LINE
  5
90B
100
AcDbEntity
  8
L2
100
AcDbLine
 10
330.9127676204
 20
246.2362776943
 30
0.0
 11
329.9621644903
 21
246.2362776943
 31
0.0
1001
ACAD
1000
ASC_BOUNDS
1002
{
1070
    19
1002
}
  0
ARC
  5
90C
100
AcDbEntity
  8
L2
100
AcDbCircle
 10
327.0633707504
 20
245.8362776943
 30
0.0
 40
0.4
100
AcDbArc
 50
1.5
 51
90.0
  0
LINE
  5
90D
100
AcDbEntity
  8
L2
100
AcDbLine
 10
326.1127676204
 20
246.2362776943
 30
0.0
 11
327.0633707504
 21
246.2362776943
 31
0.0
  0
LINE
  5
90E
100
AcDbEntity
  8
L2
100
AcDbLine
 10
338.4647176071
 20
261.1362776943
 30
0.0
 11
335.4463742613
 21
261.1362776943
 31
0.0
  0
ARC
  5
90F
100
AcDbEntity
  8
L2
100
AcDbCircle
 10
338.1820311729
 20
262.4362776943
 30
0.0
 40
0.3
100
AcDbArc
 50
0.5
 51
90.0
1001
ACAD
1000
ASC_BOUNDS
1002
{
1070
    19
1005
0
1002
}
  0
ARC
  5
910
100
AcDbEntity
  8
L2
100
AcDbCircle
 10
335.2589255627
 20
262.4362776943
 30
0.0
 40
0.3
100
AcDbArc
 50
90.0
 51
179.5
1001
ACAD
1000
ASC_BOUNDS
1002
{
1070
    19
1005
0
1002
}
  0
POLYLINE
  5
911
100
AcDbEntity
  8
L2
100
AcDb2dPolyline
 66
     1
 10
0.0
 20
0.0
 30
0.0
  0
VERTEX
  5
912
100
AcDbEntity
  8
L2
100
AcDbVertex
100
AcDb2dVertex
 10
338.4820197498
 20
262.438895655
 30
0.0
  0
VERTEX
  5
913
100
AcDbEntity
  8
L2
100
AcDbVertex
100
AcDb2dVertex
 10
338.4647176071
 20
261.1362776943
 30
0.0
  0
SEQEND
  5
914
100
AcDbEntity
  8
L2
  0
LINE
  5
915
100
AcDbEntity
  8
L1
100
AcDbLine
 10
339.0177605143
 20
262.7354599603
 30
0.0
 11
339.017753378
 21
262.7362776943
 31
0.0
  0
LINE
  5
916
100
AcDbEntity
  8
L1
100
AcDbLine
 10
335.5399787622
 20
262.7362776943
 30
0.0
 11
335.5399858984
 21
262.7354599603
 31
0.0
  0
ARC
  5
917
100
AcDbEntity
  8
L1
100
AcDbCircle
 10
335.2601609835
 20
262.4362776943
 30
0.0
 40
0.3
100
AcDbArc
 50
90.0
 51
90.095669308
  0
POLYLINE
  5
918
100
AcDbEntity
  8
L1
100
AcDb2dPolyline
 66
     1
 10
0.0
 20
0.0
 30
0.0
  0
VERTEX
  5
919
100
AcDbEntity
  8
L1
100
AcDbVertex
100
AcDb2dVertex
 10
337.8139163036
 20
262.7362776943
 30
0.0
  0
VERTEX
  5
91A
100
AcDbEntity
  8
L1
100
AcDbVertex
100
AcDb2dVertex
 10
337.8139277003
 20
262.7356857423
 30
0.0
  0
SEQEND
  5
91B
100
AcDbEntity
  8
L1
  0
POLYLINE
  5
91C
100
AcDbEntity
  8
L1
100
AcDb2dPolyline
 66
     1
 10
0.0
 20
0.0
 30
0.0
  0
VERTEX
  5
91D
100
AcDbEntity
  8
L1
100
AcDbVertex
100
AcDb2dVertex
 10
337.8139200448
 20
262.7360833764
 30
0.0
  0
VERTEX
  5
91E
100
AcDbEntity
  8
L1
100
AcDbVertex
100
AcDb2dVertex
 10
337.8139163036
 20
262.7362776943
 30
0.0
  0
SEQEND
  5
91F
100
AcDbEntity
  8
L1
  0
POLYLINE
  5
920
100
AcDbEntity
  8
L1
100
AcDb2dPolyline
 66
     1
 10
0.0
 20
0.0
 30
0.0
  0
VERTEX
  5
921
100
AcDbEntity
  8
L1
100
AcDbVertex
100
AcDb2dVertex
 10
337.1320975702
 20
262.7338312609
 30
0.0
  0
VERTEX
  5
922
100
AcDbEntity
  8
L1
100
AcDbVertex
100
AcDb2dVertex
 10
337.1320695216
 20
262.7362776943
 30
0.0
  0
SEQEND
  5
923
100
AcDbEntity
  8
L1
  0
LINE
  5
924
100
AcDbEntity
  8
L2
100
AcDbLine
 10
347.6795033968
 20
241.7362776943
 30
0.0
 11
347.8601724066
 21
262.438895655
 31
0.0
  0
LINE
  5
925
100
AcDbEntity
  8
L1
100
AcDbLine
 10
352.0192872419
 20
257.753919821
 30
0.0
 11
351.8576481496
 21
239.2319144266
 31
0.0
  0
LINE
  5
926
100
AcDbEntity
  8
L1
100
AcDbLine
 10
351.1471644845
 20
238.0336597337
 30
0.0
 11
351.3339661453
 21
259.4390098858
 31
0.0
  0
POLYLINE
  5
927
100
AcDbEntity
  8
L1
100
AcDb2dPolyline
 66
     1
 10
0.0
 20
0.0
 30
0.0
  0
VERTEX
  5
928
100
AcDbEntity
  8
L1
100
AcDbVertex
100
AcDb2dVertex
 10
348.3472710999
 20
237.7362776943
 30
0.0
  0
VERTEX
  5
929
100
AcDbEntity
  8
L1
100
AcDbVertex
100
AcDb2dVertex
 10
348.5256167316
 20
237.7362776943
 30
0.0
  0
VERTEX
  5
92A
100
AcDbEntity
  8
L1
100
AcDbVertex
100
AcDb2dVertex
 10
348.7030526728
 20
237.7362776943
 30
0.0
  0
VERTEX
  5
92B
100
AcDbEntity
  8
L1
100
AcDbVertex
100
AcDb2dVertex
 10
348.8786748383
 20
237.7362776943
 30
0.0
  0
VERTEX
  5
92C
100
AcDbEntity
  8
L1
100
AcDbVertex
100
AcDb2dVertex
 10
349.0515883845
 20
237.7362776943
 30
0.0
  0
VERTEX
  5
92D
100
AcDbEntity
  8
L1
100
AcDbVertex
100
AcDb2dVertex
 10
349.220912269
 20
237.7362776943
 30
0.0
  0
VERTEX
  5
92E
100
AcDbEntity
  8
L1
100
AcDbVertex
100
AcDb2dVertex
 10
349.3857837398
 20
237.7362776943
 30
0.0
  0
VERTEX
  5
92F
100
AcDbEntity
  8
L1
100
AcDbVertex
100
AcDb2dVertex
 10
349.545362731
 20
237.7362776943
 30
0.0
  0
VERTEX
  5
930
100
AcDbEntity
  8
L1
100
AcDbVertex
100
AcDb2dVertex
 10
349.6988361435
 20
237.7362776943
 30
0.0
  0
VERTEX
  5
931
100
AcDbEntity
  8
L1
100
AcDbVertex
100
AcDb2dVertex
 10
349.8454219878
 20
237.7362776943
 30
0.0
  0
VERTEX
  5
932
100
AcDbEntity
  8
L1
100
AcDbVertex
100
AcDb2dVertex
 10
349.9843733683
 20
237.7362776943
 30
0.0
  0
VERTEX
  5
933
100
AcDbEntity
  8
L1
100
AcDbVertex
100
AcDb2dVertex
 10
350.1149822894
 20
237.7362776943
 30
0.0
  0
VERTEX
  5
934
100
AcDbEntity
  8
L1
100
AcDbVertex
100
AcDb2dVertex
 10
350.2365832624
 20
237.7362776943
 30
0.0
  0
VERTEX
  5
935
100
AcDbEntity
  8
L1
100
AcDbVertex
100
AcDb2dVertex
 10
350.3485566966
 20
237.7362776943
 30
0.0
  0
VERTEX
  5
936
100
AcDbEntity
  8
L1
100
AcDbVertex
100
AcDb2dVertex
 10
350.4503320565
 20
237.7362776943
 30
0.0
  0
VERTEX
  5
937
100
AcDbEntity
  8
L1
100
AcDbVertex
100
AcDb2dVertex
 10
350.5413907683
 20
237.7362776943
 30
0.0
  0
VERTEX
  5
938
100
AcDbEntity
  8
L1
100
AcDbVertex
100
AcDb2dVertex
 10
350.6212688628
 20
237.7362776943
 30
0.0
  0
VERTEX
  5
939
100
AcDbEntity
  8
L1
100
AcDbVertex
100
AcDb2dVertex
 10
350.6895593389
 20
237.7362776943
 30
0.0
  0
VERTEX
  5
93A
100
AcDbEntity
  8
L1
100
AcDbVertex
100
AcDb2dVertex
 10
350.7459142377
 20
237.7362776943
 30
0.0
  0
VERTEX
  5
93B
100
AcDbEntity
  8
L1
100
AcDbVertex
100
AcDb2dVertex
 10
350.7900464154
 20
237.7362776943
 30
0.0
  0
VERTEX
  5
93C
100
AcDbEntity
  8
L1
100
AcDbVertex
100
AcDb2dVertex
 10
350.8217310064
 20
237.7362776943
 30
0.0
  0
VERTEX
  5
93D
100
AcDbEntity
  8
L1
100
AcDbVertex
100
AcDb2dVertex
 10
350.8408065689
 20
237.7362776943
 30
0.0
  0
VERTEX
  5
93E
100
AcDbEntity
  8
L1
100
AcDbVertex
100
AcDb2dVertex
 10
350.8471759075
 20
237.7362776943
 30
0.0
  0
SEQEND
  5
93F
100
AcDbEntity
  8
L1
  0
ARC
  5
940
100
AcDbEntity
  8
L1
100
AcDbCircle
 10
350.8471759075
 20
238.0362776943
 30
0.0
 40
0.3
100
AcDbArc
 50
270.0
 51
359.5
  0
POLYLINE
  5
941
100
AcDbEntity
  8
L1
100
AcDb2dPolyline
 66
     1
 10
0.0
 20
0.0
 30
0.0
  0
VERTEX
  5
942
100
AcDbEntity
  8
L1
100
AcDbVertex
100
AcDb2dVertex
 10
351.8576481496
 20
239.2319144266
 30
0.0
  0
VERTEX
  5
943
100
AcDbEntity
  8
L1
100
AcDbVertex
100
AcDb2dVertex
 10
351.7413363523
 20
238.9156564654
 30
0.0
  0
VERTEX
  5
944
100
AcDbEntity
  8
L1
100
AcDbVertex
100
AcDb2dVertex
 10
351.4507658077
 20
238.7450215015
 30
0.0
  0
SEQEND
  5
945
100
AcDbEntity
  8
L1
  0
ARC
  5
946
100
AcDbEntity
  8
L2
100
AcDbCircle
 10
348.1589255627
 20
262.4362776943
 30
0.0
 40
0.3
100
AcDbArc
 50
90.0
 51
179.5
1001
ACAD
1000
ASC_BOUNDS
1002
{
1070
    19
1005
0
1002
}
  0
LINE
  5
947
100
AcDbEntity
  8
L2
100
AcDbLine
 10
351.2626686203
 20
260.1249331982
 30
0.0
 11
351.2854574785
 21
262.7362776943
 31
0.0
  0
LINE
  5
948
100
AcDbEntity
  8
L2
100
AcDbLine
 10
348.6399787622
 20
262.7362776943
 30
0.0
 11
348.6627676204
 21
260.1249331982
 31
0.0
  0
LINE
  5
949
100
AcDbEntity
  8
L2
100
AcDbLine
 10
349.9627181203
 20
258.8362776943
 30
0.0
 11
349.9181821337
 21
258.8362776943
 31
0.0
  0
ARC
  5
94A
100
AcDbEntity
  8
L2
100
AcDbCircle
 10
349.9627181203
 20
260.1362776943
 30
0.0
 40
1.3
100
AcDbArc
 50
180.5
 51
359.5
  0
LINE
  5
94B
100
AcDbEntity
  8
L1
100
AcDbLine
 10
348.6399787622
 20
262.7362776943
 30
0.0
 11
348.6399798637
 21
262.7361514678
 31
0.0
  0
LINE
  5
94C
100
AcDbEntity
  8
L1
100
AcDbLine
 10
352.0365880139
 20
259.7363919251
 30
0.0
 11
352.0575767993
 21
262.1414685154
 31
0.0
  0
POLYLINE
  5
94D
100
AcDbEntity
  8
L1
100
AcDb2dPolyline
 66
     1
 10
0.0
 20
0.0
 30
0.0
  0
VERTEX
  5
94E
100
AcDbEntity
  8
L1
100
AcDbVertex
100
AcDb2dVertex
 10
352.0575767993
 20
262.1414685154
 30
0.0
  0
VERTEX
  5
94F
100
AcDbEntity
  8
L1
100
AcDbVertex
100
AcDb2dVertex
 10
352.0575758937
 20
262.141469421
 30
0.0
  0
VERTEX
  5
950
100
AcDbEntity
  8
L1
100
AcDbVertex
100
AcDb2dVertex
 10
352.057573177
 20
262.1414721377
 30
0.0
  0
SEQEND
  5
951
100
AcDbEntity
  8
L1
  0
POLYLINE
  5
952
100
AcDbEntity
  8
L1
100
AcDb2dPolyline
 66
     1
 10
0.0
 20
0.0
 30
0.0
  0
VERTEX
  5
953
100
AcDbEntity
  8
L1
100
AcDbVertex
100
AcDb2dVertex
 10
348.5627676204
 20
262.1414721377
 30
0.0
  0
VERTEX
  5
954
100
AcDbEntity
  8
L1
100
AcDbVertex
100
AcDb2dVertex
 10
348.5602388373
 20
262.141469421
 30
0.0
  0
VERTEX
  5
955
100
AcDbEntity
  8
L1
100
AcDbVertex
100
AcDb2dVertex
 10
348.5577100686
 20
262.1414685154
 30
0.0
  0
SEQEND
  5
956
100
AcDbEntity
  8
L1
  0
LINE
  5
957
100
AcDbEntity
  8
L1
100
AcDbLine
 10
348.5627676204
 20
262.7362776943
 30
0.0
 11
351.4627676204
 21
262.7362776943
 31
0.0
  0
LINE
  5
958
100
AcDbEntity
  8
L1
100
AcDbLine
 10
351.4627676204
 20
262.7362776943
 30
0.0
 11
352.057573177
 21
262.1414721377
 31
0.0
  0
POLYLINE
  5
959
100
AcDbEntity
  8
L1
100
AcDb2dPolyline
 66
     1
 10
0.0
 20
0.0
 30
0.0
  0
VERTEX
  5
95A
100
AcDbEntity
  8
L1
100
AcDbVertex
100
AcDb2dVertex
 10
352.057573177
 20
262.1414721377
 30
0.0
  0
VERTEX
  5
95B
100
AcDbEntity
  8
L1
100
AcDbVertex
100
AcDb2dVertex
 10
351.9915484337
 20
262.1423357281
 30
0.0
  0
VERTEX
  5
95C
100
AcDbEntity
  8
L1
100
AcDbVertex
100
AcDb2dVertex
 10
351.9077007717
 20
262.1426928428
 30
0.0
  0
VERTEX
  5
95D
100
AcDbEntity
  8
L1
100
AcDbVertex
100
AcDb2dVertex
 10
351.7902216947
 20
262.1429899777
 30
0.0
  0
VERTEX
  5
95E
100
AcDbEntity
  8
L1
100
AcDbVertex
100
AcDb2dVertex
 10
351.6405000995
 20
262.1432220343
 30
0.0
  0
VERTEX
  5
95F
100
AcDbEntity
  8
L1
100
AcDbVertex
100
AcDb2dVertex
 10
351.4614934443
 20
262.1433868942
 30
0.0
  0
VERTEX
  5
960
100
AcDbEntity
  8
L1
100
AcDbVertex
100
AcDb2dVertex
 10
351.0325235959
 20
262.143515298
 30
0.0
  0
VERTEX
  5
961
100
AcDbEntity
  8
L1
100
AcDbVertex
100
AcDb2dVertex
 10
350.5115299812
 20
262.1433868942
 30
0.0
  0
VERTEX
  5
962
100
AcDbEntity
  8
L1
100
AcDbVertex
100
AcDb2dVertex
 10
350.2146146719
 20
262.1432220343
 30
0.0
  0
VERTEX
  5
963
100
AcDbEntity
  8
L1
100
AcDbVertex
100
AcDb2dVertex
 10
349.8994049194
 20
262.1429899777
 30
0.0
  0
VERTEX
  5
964
100
AcDbEntity
  8
L1
100
AcDbVertex
100
AcDb2dVertex
 10
349.5708129294
 20
262.1426928428
 30
0.0
  0
VERTEX
  5
965
100
AcDbEntity
  8
L1
100
AcDbVertex
100
AcDb2dVertex
 10
349.2344018941
 20
262.1423357281
 30
0.0
  0
VERTEX
  5
966
100
AcDbEntity
  8
L1
100
AcDbVertex
100
AcDb2dVertex
 10
348.5627676204
 20
262.1414721377
 30
0.0
  0
SEQEND
  5
967
100
AcDbEntity
  8
L1
  0
LINE
  5
968
100
AcDbEntity
  8
L1
100
AcDbLine
 10
352.0192872419
 20
257.753919821
 30
0.0
 11
352.0365880139
 21
259.7363919251
 31
0.0
  0
POLYLINE
  5
969
100
AcDbEntity
  8
L1
100
AcDb2dPolyline
 66
     1
 10
0.0
 20
0.0
 30
0.0
  0
VERTEX
  5
96A
100
AcDbEntity
  8
L1
100
AcDbVertex
100
AcDb2dVertex
 10
348.5367212831
 20
259.7363919251
 30
0.0
  0
VERTEX
  5
96B
100
AcDbEntity
  8
L1
100
AcDbVertex
100
AcDb2dVertex
 10
349.3155304009
 20
259.7363919251
 30
0.0
  0
VERTEX
  5
96C
100
AcDbEntity
  8
L1
100
AcDbVertex
100
AcDb2dVertex
 10
350.0552771837
 20
259.7363919251
 30
0.0
  0
VERTEX
  5
96D
100
AcDbEntity
  8
L1
100
AcDbVertex
100
AcDb2dVertex
 10
350.7188712204
 20
259.7363919251
 30
0.0
  0
VERTEX
  5
96E
100
AcDbEntity
  8
L1
100
AcDbVertex
100
AcDb2dVertex
 10
351.2730403479
 20
259.7363919251
 30
0.0
  0
VERTEX
  5
96F
100
AcDbEntity
  8
L1
100
AcDbVertex
100
AcDb2dVertex
 10
351.689998895
 20
259.7363919251
 30
0.0
  0
VERTEX
  5
970
100
AcDbEntity
  8
L1
100
AcDbVertex
100
AcDb2dVertex
 10
351.9488408379
 20
259.7363919251
 30
0.0
  0
VERTEX
  5
971
100
AcDbEntity
  8
L1
100
AcDbVertex
100
AcDb2dVertex
 10
352.0365880139
 20
259.7363919251
 30
0.0
  0
SEQEND
  5
972
100
AcDbEntity
  8
L1
  0
ARC
  5
973
100
AcDbEntity
  8
L1
100
AcDbCircle
 10
351.6339547222
 20
259.4363919251
 30
0.0
 40
0.3
100
AcDbArc
 50
90.0
 51
179.5
  0
ARC
  5
974
100
AcDbEntity
  8
L1
100
AcDbCircle
 10
348.1601609835
 20
262.4362776943
 30
0.0
 40
0.3
100
AcDbArc
 50
90.0
 51
90.7060603122
  0
LINE
  5
975
100
AcDbEntity
  8
L1
100
AcDbLine
 10
339.5186589993
 20
259.7363919251
 30
0.0
 11
348.5367212831
 21
259.7363919251
 31
0.0
  0
ENDSEC
  0
SECTION
  2
OBJECTS
  0
DICTIONARY
  5
1A
100
AcDbDictionary
  3
ACAD_GROUP
350
18
  3
ACAD_MLINESTYLE
350
19
  0
DICTIONARY
  5
18
102
{ACAD_REACTORS
330
1A
102
}
100
AcDbDictionary
  0
DICTIONARY
  5
19
102
{ACAD_REACTORS
330
1A
102
}
100
AcDbDictionary
  3
STANDARD
350
1E
  0
MLINESTYLE
  5
1E
102
{ACAD_REACTORS
330
19
102
}
100
AcDbMlineStyle
  2
STANDARD
 70
     0
  3

 62
     0
 51
90.0
 52
90.0
 71
     2
 49
0.5
 62
   256
  6
BYLAYER
 49
-0.5
 62
   256
  6
BYLAYER
  0
ENDSEC
  0
EOF
