  0
SECTION
  2
HEADER
  9
$ACADVER
  1
AC1009
  9
$INSBASE
 10
0.0
 20
0.0
 30
0.0
  9
$EXTMIN
 10
-0.9544237241575501
 20
-45.11213776790504
 30
0.0
  9
$EXTMAX
 10
529.73518406741414
 20
362.5768434539807
 30
0.0
  9
$LIMMIN
 10
0.0
 20
0.0
  9
$LIMMAX
 10
534.27686058821382
 20
316.61240074808029
  9
$ORTHOMODE
 70
     1
  9
$REGENMODE
 70
     1
  9
$FILLMODE
 70
     1
  9
$QTEXTMODE
 70
     0
  9
$MIRRTEXT
 70
     1
  9
$DRAGMODE
 70
     2
  9
$LTSCALE
 40
10.0
  9
$OSMODE
 70
     5
  9
$ATTMODE
 70
     1
  9
$TEXTSIZE
 40
2.5
  9
$TRACEWID
 40
1.0
  9
$TEXTSTYLE
  7
SIMPLEX
  9
$CLAYER
  8
L1
  9
$CELTYPE
  6
BYLAYER
  9
$CECOLOR
 62
   256
  9
$DIMSCALE
 40
1.0
  9
$DIMASZ
 40
3.5
  9
$DIMEXO
 40
0.1
  9
$DIMDLI
 40
0.38
  9
$DIMRND
 40
0.0
  9
$DIMDLE
 40
0.0
  9
$DIMEXE
 40
0.18
  9
$DIMTP
 40
0.0
  9
$DIMTM
 40
0.0
  9
$DIMTXT
 40
3.5
  9
$DIMCEN
 40
1.0
  9
$DIMTSZ
 40
0.0
  9
$DIMTOL
 70
     0
  9
$DIMLIM
 70
     0
  9
$DIMTIH
 70
     0
  9
$DIMTOH
 70
     0
  9
$DIMSE1
 70
     0
  9
$DIMSE2
 70
     0
  9
$DIMTAD
 70
     1
  9
$DIMZIN
 70
     8
  9
$DIMBLK
  1

  9
$DIMASO
 70
     1
  9
$DIMSHO
 70
     1
  9
$DIMPOST
  1

  9
$DIMAPOST
  1

  9
$DIMALT
 70
     0
  9
$DIMALTD
 70
     2
  9
$DIMALTF
 40
25.399999999999999
  9
$DIMLFAC
 40
1.0
  9
$DIMTOFL
 70
     1
  9
$DIMTVP
 40
0.0
  9
$DIMTIX
 70
     0
  9
$DIMSOXD
 70
     0
  9
$DIMSAH
 70
     0
  9
$DIMBLK1
  1

  9
$DIMBLK2
  1

  9
$DIMSTYLE
  2
FIBOX
  9
$DIMCLRD
 70
     1
  9
$DIMCLRE
 70
     1
  9
$DIMCLRT
 70
     3
  9
$DIMTFAC
 40
1.0
  9
$DIMGAP
 40
1.0
  9
$LUNITS
 70
     2
  9
$LUPREC
 70
     4
  9
$SKETCHINC
 40
1.0
  9
$FILLETRAD
 40
0.0
  9
$AUNITS
 70
     0
  9
$AUPREC
 70
     0
  9
$MENU
  1
.
  9
$ELEVATION
 40
0.0
  9
$PELEVATION
 40
0.0
  9
$THICKNESS
 40
0.0
  9
$LIMCHECK
 70
     0
  9
$BLIPMODE
 70
     0
  9
$CHAMFERA
 40
10.0
  9
$CHAMFERB
 40
10.0
  9
$SKPOLY
 70
     0
  9
$TDCREATE
 40
2450519.5748858559
  9
$TDUPDATE
 40
2452502.528998923
  9
$TDINDWG
 40
0.8501179977
  9
$TDUSRTIMER
 40
0.8501179977
  9
$USRTIMER
 70
     1
  9
$ANGBASE
 50
0.0
  9
$ANGDIR
 70
     0
  9
$PDMODE
 70
     0
  9
$PDSIZE
 40
0.0
  9
$PLINEWID
 40
0.0
  9
$COORDS
 70
     2
  9
$SPLFRAME
 70
     0
  9
$SPLINETYPE
 70
     6
  9
$SPLINESEGS
 70
     8
  9
$ATTDIA
 70
     0
  9
$ATTREQ
 70
     1
  9
$HANDLING
 70
 22529
  9
$HANDSEED
  5
3FA2
  9
$SURFTAB1
 70
     6
  9
$SURFTAB2
 70
     6
  9
$SURFTYPE
 70
     6
  9
$SURFU
 70
     6
  9
$SURFV
 70
     6
  9
$UCSNAME
  2

  9
$UCSORG
 10
0.0
 20
0.0
 30
0.0
  9
$UCSXDIR
 10
1.0
 20
0.0
 30
0.0
  9
$UCSYDIR
 10
0.0
 20
1.0
 30
0.0
  9
$PUCSNAME
  2

  9
$PUCSORG
 10
0.0
 20
0.0
 30
0.0
  9
$PUCSXDIR
 10
1.0
 20
0.0
 30
0.0
  9
$PUCSYDIR
 10
0.0
 20
1.0
 30
0.0
  9
$USERI1
 70
     0
  9
$USERI2
 70
     0
  9
$USERI3
 70
     0
  9
$USERI4
 70
     0
  9
$USERI5
 70
     0
  9
$USERR1
 40
0.0
  9
$USERR2
 40
0.0
  9
$USERR3
 40
0.0
  9
$USERR4
 40
0.0
  9
$USERR5
 40
0.0
  9
$WORLDVIEW
 70
     1
  9
$SHADEDGE
 70
     3
  9
$SHADEDIF
 70
    70
  9
$TILEMODE
 70
     1
  9
$MAXACTVP
 70
    16
  9
$PLIMCHECK
 70
     0
  9
$PEXTMIN
 10
-713.17818562869934
 20
47.884823385623768
 30
0.0
  9
$PEXTMAX
 10
126.8218143713006
 20
641.8848233856238
 30
0.0
  9
$PLIMMIN
 10
0.0
 20
0.0
  9
$PLIMMAX
 10
420.0
 20
297.0
  9
$UNITMODE
 70
     0
  9
$VISRETAIN
 70
     0
  9
$PLINEGEN
 70
     0
  9
$PSLTSCALE
 70
     1
  0
ENDSEC
  0
SECTION
  2
TABLES
  0
TABLE
  2
VPORT
 70
     2
  0
VPORT
  2
*ACTIVE
 70
     0
 10
0.0
 20
0.0
 11
1.0
 21
1.0
 12
84.276835436695876
 22
87.551290639917084
 13
0.0
 23
0.0
 14
10.0
 24
10.0
 15
10.0
 25
10.0
 16
0.0
 26
0.0
 36
1.0
 17
180.12199435328739
 27
71.193187962007144
 37
152.2153894999073
 40
410.75896523891151
 41
1.5205479452054791
 42
50.0
 43
0.0
 44
0.0
 50
0.0
 51
0.0
 71
     0
 72
   500
 73
     1
 74
     0
 75
     0
 76
     0
 77
     0
 78
     0
  0
ENDTAB
  0
TABLE
  2
LTYPE
 70
     3
  0
LTYPE
  2
CONTINUOUS
 70
     0
  3
Solid line
 72
    65
 73
     0
 40
0.0
  0
LTYPE
  2
HIDDEN
 70
     0
  3
__ __ __ __ __ __ __ __ __ __ __ __ __ __ __ __
 72
    65
 73
     2
 40
0.375
 49
0.25
 49
-0.125
  0
LTYPE
  2
CENTER
 70
     0
  3
____ _ ____ _ ____ _ ____ _ ____ _ ____ _ ____ 
 72
    65
 73
     4
 40
2.0
 49
1.25
 49
-0.25
 49
0.25
 49
-0.25
  0
ENDTAB
  0
TABLE
  2
LAYER
 70
     4
  0
LAYER
  2
0
 70
     0
 62
     7
  6
CONTINUOUS
  0
LAYER
  2
L2
 70
     0
 62
     1
  6
HIDDEN
  0
LAYER
  2
L1
 70
     0
 62
     7
  6
CONTINUOUS
  0
LAYER
  2
L6
 70
     0
 62
     1
  6
CENTER
  0
ENDTAB
  0
TABLE
  2
STYLE
 70
     2
  0
STYLE
  2
STANDARD
 70
     0
 40
0.0
 41
1.0
 50
0.0
 71
     0
 42
2.5
  3
ISOCP
  4

  0
STYLE
  2
SIMPLEX
 70
     0
 40
0.0
 41
0.8
 50
0.0
 71
     0
 42
2.5
  3
SIMPLEX.SHX
  4

  0
ENDTAB
  0
TABLE
  2
VIEW
 70
     0
  0
ENDTAB
  0
TABLE
  2
UCS
 70
     0
  0
ENDTAB
  0
TABLE
  2
APPID
 70
     6
  0
APPID
  2
ACAD
 70
     0
  0
APPID
  2
MCAD_NO_VIS
 70
     0
  0
APPID
  2
AD_DRAW
 70
     0
  0
APPID
  2
DESIGNERASSEMBLIES
 70
     0
  0
APPID
  2
ASURF_PCURVE_APPNAME
 70
     0
  0
APPID
  2
CONTENTBLOCKICON
 70
     0
  0
ENDTAB
  0
TABLE
  2
DIMSTYLE
 70
     1
  0
DIMSTYLE
  2
FIBOX
 70
     0
  3

  4

  5

  6

  7

 40
1.0
 41
3.5
 42
0.1
 43
0.38
 44
0.18
 45
0.0
 46
0.0
 47
0.0
 48
0.0
140
3.5
141
1.0
142
0.0
143
25.399999999999999
144
1.0
145
0.0
146
1.0
147
1.0
 71
     0
 72
     0
 73
     0
 74
     0
 75
     0
 76
     0
 77
     1
 78
     8
170
     0
171
     2
172
     1
173
     0
174
     0
175
     0
176
     1
177
     1
178
     3
  0
ENDTAB
  0
ENDSEC
  0
SECTION
  2
BLOCKS
  0
BLOCK
  8
0
  2
$MODEL_SPACE
 70
     0
 10
0.0
 20
0.0
 30
0.0
  3
$MODEL_SPACE
  1

  0
ENDBLK
  5
7
  8
0
  0
BLOCK
 67
     1
  8
0
  2
$PAPER_SPACE
 70
     0
 10
0.0
 20
0.0
 30
0.0
  3
$PAPER_SPACE
  1

  0
ENDBLK
  5
A
 67
     1
  8
0
  0
BLOCK
  8
0
  2
B
 70
     0
 10
0.0
 20
0.0
 30
0.0
  3
B
  1

  0
LINE
  5
3028
  8
L1
 10
-63.449999999999932
 20
-47.149999999999949
 30
0.0
 11
-63.449999999999932
 21
47.150000000000198
 31
0.0
  0
LINE
  5
3029
  8
L1
 10
-62.449999999999932
 20
47.150000000000198
 30
0.0
 11
-62.449999999999932
 21
-47.149999999999999
 31
0.0
  0
LINE
  5
302A
  8
L1
 10
63.449999999999982
 20
47.150000000000198
 30
0.0
 11
63.449999999999982
 21
-47.149999999999949
 31
0.0
  0
LINE
  5
302B
  8
L1
 10
62.450000000000038
 20
-47.149999999999949
 30
0.0
 11
62.450000000000038
 21
47.150000000000198
 31
0.0
  0
LINE
  5
302C
  8
L1
 10
64.293024100224713
 20
-61.556999999999931
 30
0.0
 11
64.293024100224713
 21
61.55700000000013
 31
0.0
  0
LINE
  5
302D
  8
L1
 10
-65.012304130909115
 20
-61.517100759268061
 30
0.0
 11
-65.012304130909115
 21
61.517100759268367
 31
0.0
  0
LINE
  5
302E
  8
L1
 10
-64.293024100224784
 20
61.557000000000187
 30
0.0
 11
-64.293024100224784
 21
-61.556999999999931
 31
0.0
  0
LINE
  5
302F
  8
L1
 10
65.012304130909286
 20
61.517100759268367
 30
0.0
 11
65.012304130909286
 21
-61.517100759268111
 31
0.0
  0
LINE
  5
3030
  8
L1
 10
62.25
 20
47.65010280250749
 30
0.0
 11
62.25
 21
-47.650102802507291
 31
0.0
  0
LINE
  5
3031
  8
L1
 10
61.61106351371177
 20
-47.011166316219061
 30
0.0
 11
61.61106351371177
 21
47.011166316219366
 31
0.0
  0
LINE
  5
3032
  8
L1
 10
-62.25
 20
-47.650102802507291
 30
0.0
 11
-62.25
 21
47.65010280250749
 31
0.0
  0
LINE
  5
3033
  8
L1
 10
-61.61106351371177
 20
47.011166316219366
 30
0.0
 11
-61.61106351371177
 21
-47.011166316219061
 31
0.0
  0
LINE
  5
3034
  8
L6
 10
0.0
 20
72.302834530586011
 30
0.0
 11
0.0
 21
-72.302834530585869
 31
0.0
  0
LINE
  5
3035
  8
L1
 10
-47.011166316219139
 20
-61.611063513711798
 30
0.0
 11
47.011166316219139
 21
-61.611063513711798
 31
0.0
  0
LINE
  5
3036
  8
L1
 10
-61.556999999999903
 20
-64.293024100224585
 30
0.0
 11
61.557000000000023
 21
-64.293024100224585
 31
0.0
  0
LINE
  5
3037
  8
L1
 10
61.51710075926826
 20
-65.012304130909143
 30
0.0
 11
-61.517100759268139
 21
-65.012304130909087
 31
0.0
  0
LINE
  5
3038
  8
L1
 10
47.149999999999977
 20
-63.44999999999996
 30
0.0
 11
-47.149999999999977
 21
-63.44999999999996
 31
0.0
  0
LINE
  5
3039
  8
L1
 10
-47.149999999999977
 20
-62.44999999999996
 30
0.0
 11
47.149999999999977
 21
-62.44999999999996
 31
0.0
  0
LINE
  5
303A
  8
L1
 10
47.650102802507369
 20
-62.249999999999908
 30
0.0
 11
-47.650102802507263
 21
-62.249999999999908
 31
0.0
  0
LINE
  5
303B
  8
L1
 10
-56.75
 20
-47.31106351371178
 30
0.0
 11
-52.711063513711792
 21
-47.31106351371178
 31
0.0
  0
ARC
  5
303C
  8
L1
 10
-56.75
 20
-56.749999999999972
 30
0.0
 40
6.3999999999999941
 50
0.0
 51
90.0
  0
ARC
  5
303D
  8
L1
 10
-56.75
 20
-56.749999999999972
 30
0.0
 40
4.9551339946734032
 50
357.4687382067072
 51
92.531261793292728
  0
ARC
  5
303E
  8
L1
 10
-56.75
 20
-56.749999999999972
 30
0.0
 40
7.3999999999999604
 50
0.0
 51
90.0
  0
ARC
  5
303F
  8
L1
 10
-56.75
 20
-56.749999999999972
 30
0.0
 40
9.4389364862881635
 50
53.310709947557022
 51
90.0
  0
ARC
  5
3040
  8
L1
 10
-56.75
 20
-56.749999999999972
 30
0.0
 40
8.8000000000000007
 50
52.885137544926863
 51
90.0
  0
LINE
  5
3041
  8
L1
 10
-60.64999999999997
 20
-63.249999999999922
 30
0.0
 11
-49.377091896450331
 21
-63.249999999999922
 31
0.0
  0
LINE
  5
3042
  8
L1
 10
-51.799700862313209
 20
-56.968840929871277
 30
0.0
 11
-56.531159070128638
 21
-61.700299137686699
 31
0.0
  0
ARC
  5
3043
  8
L1
 10
-60.25
 20
-47.149999999999949
 30
0.0
 40
3.2000000000000282
 50
219.51794668407319
 51
270.0
  0
LINE
  5
3044
  8
L1
 10
-63.25
 20
-49.377091896450018
 30
0.0
 11
-63.25
 21
-60.650000000000013
 31
0.0
  0
POLYLINE
  5
3045
  8
L1
 66
     1
 10
0.0
 20
0.0
 30
0.0
  0
VERTEX
  5
3971
  8
L1
 10
-65.012088437774196
 20
-61.556999999999931
 30
0.0
  0
VERTEX
  5
3972
  8
L1
 10
-64.941714390114484
 20
-62.218787602445254
 30
0.0
  0
VERTEX
  5
3973
  8
L1
 10
-64.739585002002514
 20
-62.873772386240972
 30
0.0
  0
VERTEX
  5
3974
  8
L1
 10
-64.413440750186282
 20
-63.476619230896027
 30
0.0
  0
VERTEX
  5
3975
  8
L1
 10
-63.989929119073743
 20
-63.989929119073651
 30
0.0
  0
VERTEX
  5
3976
  8
L1
 10
-63.476619230896169
 20
-64.413440750186084
 30
0.0
  0
VERTEX
  5
3977
  8
L1
 10
-62.873772386241058
 20
-64.739585002002485
 30
0.0
  0
VERTEX
  5
3978
  8
L1
 10
-62.218787602445332
 20
-64.941714390114356
 30
0.0
  0
VERTEX
  5
3979
  8
L1
 10
-61.557000000000023
 20
-65.012088437774111
 30
0.0
  0
SEQEND
  5
397A
  8
L1
  0
LINE
  5
3046
  8
L1
 10
-59.376706762295051
 20
-61.901529179287792
 30
0.0
 11
-60.724120848982011
 21
-63.248943265974702
 31
0.0
  0
ARC
  5
3047
  8
L1
 10
-61.557000000000023
 20
-61.556999999999931
 30
0.0
 40
2.7360241002247041
 50
180.0
 51
270.0
  0
ARC
  5
3048
  8
L1
 10
-60.64999999999997
 20
-60.649999999999949
 30
0.0
 40
2.6000000000000001
 50
180.0
 51
270.0
  0
ARC
  5
3049
  8
L1
 10
-60.64999999999997
 20
-60.649999999999892
 30
0.0
 40
2.3853190523473331
 50
180.00000000000159
 51
270.0
  0
POLYLINE
  5
304A
  8
L1
 66
     1
 10
0.0
 20
0.0
 30
0.0
  0
VERTEX
  5
397B
  8
L1
 10
-61.557000000000023
 20
-65.012088437774111
 30
0.0
  0
VERTEX
  5
397C
  8
L1
 10
-61.537048032038342
 20
-65.012250207188828
 30
0.0
  0
VERTEX
  5
397D
  8
L1
 10
-61.51710075926826
 20
-65.012304130909143
 30
0.0
  0
SEQEND
  5
397E
  8
L1
  0
LINE
  5
304B
  8
L1
 10
-60.510496635354571
 20
-63.035319052347262
 30
0.0
 11
-60.64999999999997
 21
-63.035319052347198
 31
0.0
  0
LINE
  5
304C
  8
L1
 10
-61.70029913768667
 20
-56.531159070128552
 30
0.0
 11
-56.968840929871362
 21
-51.799700862313351
 31
0.0
  0
ARC
  5
304D
  8
L1
 10
-56.75
 20
-56.749999999999972
 30
0.0
 40
5.7825462644184809
 50
207.0165228096393
 51
242.98347719035991
  0
POLYLINE
  5
304E
  8
L1
 66
     1
 10
0.0
 20
0.0
 30
0.0
  0
VERTEX
  5
397F
  8
L1
 10
-65.012304130909342
 20
-61.517100759268182
 30
0.0
  0
VERTEX
  5
3980
  8
L1
 10
-65.012250207188913
 20
-61.5370480320382
 30
0.0
  0
VERTEX
  5
3981
  8
L1
 10
-65.01208843777431
 20
-61.556999999999931
 30
0.0
  0
SEQEND
  5
3982
  8
L1
  0
POLYLINE
  5
304F
  8
L1
 66
     1
 10
0.0
 20
0.0
 30
0.0
  0
VERTEX
  5
3983
  8
L1
 10
-61.901529179287763
 20
-59.376706762295072
 30
0.0
  0
VERTEX
  5
3984
  8
L1
 10
-61.883099641752317
 20
-59.263214172935051
 30
0.0
  0
SEQEND
  5
3985
  8
L1
  0
POLYLINE
  5
3050
  8
L1
 66
     1
 10
0.0
 20
0.0
 30
0.0
  0
VERTEX
  5
3986
  8
L1
 10
-61.88309964175221
 20
-59.263214172935108
 30
0.0
  0
VERTEX
  5
3987
  8
L1
 10
-61.867206662007902
 20
-59.245965950157789
 30
0.0
  0
VERTEX
  5
3988
  8
L1
 10
-61.820028179014678
 20
-59.197587405171902
 30
0.0
  0
VERTEX
  5
3989
  8
L1
 10
-61.747342135618972
 20
-59.124081047125649
 30
0.0
  0
VERTEX
  5
398A
  8
L1
 10
-61.659302189691509
 20
-59.035746534404922
 30
0.0
  0
SEQEND
  5
398B
  8
L1
  0
ARC
  5
3051
  8
L1
 10
-56.75
 20
-56.749999999999972
 30
0.0
 40
4.9551339946734032
 50
177.4687382067072
 51
203.01361607239039
  0
LINE
  5
3052
  8
L1
 10
-63.03531905234729
 20
-60.650000000000013
 30
0.0
 11
-63.03531905234717
 21
-60.510496635354542
 31
0.0
  0
LINE
  5
3053
  8
L1
 10
-61.659302189691509
 20
-59.035746534404922
 30
0.0
 11
-61.31076465179126
 21
-58.687208996504722
 31
0.0
  0
LINE
  5
3054
  8
L1
 10
-63.248943265974731
 20
-60.724120848982032
 30
0.0
 11
-61.901529179287763
 21
-59.376706762295072
 31
0.0
  0
POLYLINE
  5
3055
  8
L1
 66
     1
 10
0.0
 20
0.0
 30
0.0
  0
VERTEX
  5
398C
  8
L1
 10
-59.26321417293525
 20
-61.883099641752118
 30
0.0
  0
VERTEX
  5
398D
  8
L1
 10
-59.37670676229515
 20
-61.901529179287742
 30
0.0
  0
SEQEND
  5
398E
  8
L1
  0
POLYLINE
  5
3056
  8
L1
 66
     1
 10
0.0
 20
0.0
 30
0.0
  0
VERTEX
  5
398F
  8
L1
 10
-59.035746534405
 20
-61.659302189691431
 30
0.0
  0
VERTEX
  5
3990
  8
L1
 10
-59.124081047125628
 20
-61.747342135618879
 30
0.0
  0
VERTEX
  5
3991
  8
L1
 10
-59.19758740517193
 20
-61.820028179014663
 30
0.0
  0
VERTEX
  5
3992
  8
L1
 10
-59.245965950157817
 20
-61.867206662007881
 30
0.0
  0
VERTEX
  5
3993
  8
L1
 10
-59.263214172935143
 20
-61.883099641752239
 30
0.0
  0
SEQEND
  5
3994
  8
L1
  0
ARC
  5
3057
  8
L1
 10
-56.75
 20
-56.749999999999972
 30
0.0
 40
4.9551339946734032
 50
246.9863839276081
 51
272.53126179329098
  0
LINE
  5
3058
  8
L1
 10
-58.687208996504751
 20
-61.310764651791288
 30
0.0
 11
-59.035746534405
 21
-61.659302189691431
 31
0.0
  0
LINE
  5
3059
  8
L1
 10
-59.863042131491511
 20
-50.691415971345322
 30
0.0
 11
-62.619202064108322
 21
-53.447575903962068
 31
0.0
  0
POLYLINE
  5
305A
  8
L1
 66
     1
 10
0.0
 20
0.0
 30
0.0
  0
VERTEX
  5
3995
  8
L1
 10
-62.833921234867148
 20
-53.535452416031291
 30
0.0
  0
VERTEX
  5
3996
  8
L1
 10
-63.045125652203978
 20
-53.448519035107353
 30
0.0
  0
VERTEX
  5
3997
  8
L1
 10
-63.133909811786452
 20
-53.24171734715415
 30
0.0
  0
SEQEND
  5
3998
  8
L1
  0
POLYLINE
  5
305B
  8
L1
 66
     1
 10
0.0
 20
0.0
 30
0.0
  0
VERTEX
  5
3999
  8
L1
 10
-62.833921234867148
 20
-53.535452416031291
 30
0.0
  0
VERTEX
  5
399A
  8
L1
 10
-62.717729786776431
 20
-53.513110116762761
 30
0.0
  0
VERTEX
  5
399B
  8
L1
 10
-62.619202064108322
 20
-53.447575903962068
 30
0.0
  0
SEQEND
  5
399C
  8
L1
  0
POLYLINE
  5
305C
  8
L1
 66
     1
 10
0.0
 20
0.0
 30
0.0
  0
VERTEX
  5
399D
  8
L1
 10
-59.863042131491511
 20
-50.691415971345378
 30
0.0
  0
VERTEX
  5
399E
  8
L1
 10
-59.809747036442673
 20
-50.595661658921387
 30
0.0
  0
VERTEX
  5
399F
  8
L1
 10
-59.814914676135118
 20
-50.48619877707435
 30
0.0
  0
VERTEX
  5
39A0
  8
L1
 10
-59.876993618817551
 20
-50.39589033495659
 30
0.0
  0
VERTEX
  5
39A1
  8
L1
 10
-59.977346488722667
 20
-50.351848784842083
 30
0.0
  0
SEQEND
  5
39A2
  8
L1
  0
LINE
  5
305D
  8
L1
 10
-60.25
 20
-50.34999999999993
 30
0.0
 11
-59.549999999999947
 21
-50.34999999999993
 31
0.0
  0
LINE
  5
305E
  8
L1
 10
-59.549999999999947
 20
-50.34999999999993
 30
0.0
 11
-56.75
 21
-50.34999999999993
 31
0.0
  0
LINE
  5
305F
  8
L1
 10
-56.75
 20
-47.31106351371178
 30
0.0
 11
-61.311166316219207
 21
-47.31106351371178
 31
0.0
  0
LINE
  5
3060
  8
L1
 10
-61.950102802507331
 20
-47.94999999999996
 30
0.0
 11
-56.75
 21
-47.94999999999996
 31
0.0
  0
ARC
  5
3061
  8
L1
 10
-60.25
 20
-47.149999999999949
 30
0.0
 40
2.2000000000000619
 50
180.0
 51
270.0
  0
POLYLINE
  5
3062
  8
L1
 66
     1
 10
0.0
 20
0.0
 30
0.0
  0
VERTEX
  5
39A3
  8
L1
 10
-62.718560984214271
 20
-49.186223628979718
 30
0.0
  0
VERTEX
  5
39A4
  8
L1
 10
-62.728328363554283
 20
-49.174964228796597
 30
0.0
  0
VERTEX
  5
39A5
  8
L1
 10
-62.816397581964111
 20
-49.108500430629853
 30
0.0
  0
VERTEX
  5
39A6
  8
L1
 10
-62.894770114985249
 20
-49.082233380302881
 30
0.0
  0
VERTEX
  5
39A7
  8
L1
 10
-62.969342954089143
 20
-49.077725977076192
 30
0.0
  0
VERTEX
  5
39A8
  8
L1
 10
-63.046544182151479
 20
-49.093056538991931
 30
0.0
  0
VERTEX
  5
39A9
  8
L1
 10
-63.134927642499292
 20
-49.140868754507629
 30
0.0
  0
VERTEX
  5
39AA
  8
L1
 10
-63.211827010205177
 20
-49.230643189592882
 30
0.0
  0
VERTEX
  5
39AB
  8
L1
 10
-63.247225979339639
 20
-49.336387854965182
 30
0.0
  0
VERTEX
  5
39AC
  8
L1
 10
-63.25
 20
-49.377091896450018
 30
0.0
  0
SEQEND
  5
39AD
  8
L1
  0
POLYLINE
  5
3063
  8
L1
 66
     1
 10
0.0
 20
0.0
 30
0.0
  0
VERTEX
  5
39AE
  8
L1
 10
-62.25
 20
-47.650102802507291
 30
0.0
  0
VERTEX
  5
39AF
  8
L1
 10
-62.162174606235787
 20
-47.862174606235627
 30
0.0
  0
VERTEX
  5
39B0
  8
L1
 10
-61.950102802507331
 20
-47.94999999999996
 30
0.0
  0
SEQEND
  5
39B1
  8
L1
  0
POLYLINE
  5
3064
  8
L1
 66
     1
 10
0.0
 20
0.0
 30
0.0
  0
VERTEX
  5
39B2
  8
L1
 10
-61.611063197456133
 20
-47.011474337029732
 30
0.0
  0
VERTEX
  5
39B3
  8
L1
 10
-61.61106343464791
 20
-47.011320366176697
 30
0.0
  0
VERTEX
  5
39B4
  8
L1
 10
-61.61106351371177
 20
-47.011166316219168
 30
0.0
  0
SEQEND
  5
39B5
  8
L1
  0
POLYLINE
  5
3065
  8
L1
 66
     1
 10
0.0
 20
0.0
 30
0.0
  0
VERTEX
  5
39B6
  8
L1
 10
-61.611063197455913
 20
-47.011474337029448
 30
0.0
  0
VERTEX
  5
39B7
  8
L1
 10
-61.52311073177259
 20
-47.223110731772657
 30
0.0
  0
VERTEX
  5
39B8
  8
L1
 10
-61.311474337029381
 20
-47.311063197455923
 30
0.0
  0
SEQEND
  5
39B9
  8
L1
  0
POLYLINE
  5
3066
  8
L1
 66
     1
 10
0.0
 20
0.0
 30
0.0
  0
VERTEX
  5
39BA
  8
L1
 10
-61.311166316219101
 20
-47.31106351371173
 30
0.0
  0
VERTEX
  5
39BB
  8
L1
 10
-61.31132036617668
 20
-47.311063434647821
 30
0.0
  0
VERTEX
  5
39BC
  8
L1
 10
-61.311474337029487
 20
-47.311063197455979
 30
0.0
  0
SEQEND
  5
39BD
  8
L1
  0
ARC
  5
3067
  8
L1
 10
-60.25
 20
-47.149999999999949
 30
0.0
 40
3.2000000000000282
 50
180.0
 51
219.51794668407319
  0
LINE
  5
3068
  8
L1
 10
-56.75
 20
-49.349999999999987
 30
0.0
 11
-60.25
 21
-49.349999999999987
 31
0.0
  0
POLYLINE
  5
3069
  8
L1
 66
     1
 10
0.0
 20
0.0
 30
0.0
  0
VERTEX
  5
39BE
  8
L1
 10
-48.796695169241502
 20
-49.961947952636109
 30
0.0
  0
VERTEX
  5
39BF
  8
L1
 10
-48.726795248333701
 20
-49.75603363113887
 30
0.0
  0
VERTEX
  5
39C0
  8
L1
 10
-48.814375794571561
 20
-49.556995055326837
 30
0.0
  0
SEQEND
  5
39C1
  8
L1
  0
ARC
  5
306A
  8
L1
 10
-48.737976717201491
 20
-49.75652182461274
 30
0.0
 40
0.3
 50
319.99999999999977
 51
45.0
  0
ARC
  5
306B
  8
L1
 10
-52.711063513711792
 20
-52.711063513711821
 30
0.0
 40
5.3999999999999986
 50
359.99999999999829
 51
90.0
  0
ARC
  5
306C
  8
L1
 10
-47.149999999999977
 20
-60.249999999999908
 30
0.0
 40
2.2000000000000619
 50
180.0
 51
270.0
  0
ARC
  5
306D
  8
L1
 10
-47.149999999999977
 20
-60.249999999999908
 30
0.0
 40
3.2000000000000282
 50
180.0
 51
230.4820533159272
  0
LINE
  5
306E
  8
L1
 10
-53.447575903962047
 20
-62.619202064108237
 30
0.0
 11
-50.69141597134535
 21
-59.863042131491603
 31
0.0
  0
POLYLINE
  5
306F
  8
L1
 66
     1
 10
0.0
 20
0.0
 30
0.0
  0
VERTEX
  5
39C2
  8
L1
 10
-53.447575903962047
 20
-62.619202064108237
 30
0.0
  0
VERTEX
  5
39C3
  8
L1
 10
-53.513110116762839
 20
-62.717729786776353
 30
0.0
  0
VERTEX
  5
39C4
  8
L1
 10
-53.535452416031369
 20
-62.833921234867169
 30
0.0
  0
SEQEND
  5
39C5
  8
L1
  0
POLYLINE
  5
3070
  8
L1
 66
     1
 10
0.0
 20
0.0
 30
0.0
  0
VERTEX
  5
39C6
  8
L1
 10
-53.241717347154243
 20
-63.133909811786367
 30
0.0
  0
VERTEX
  5
39C7
  8
L1
 10
-53.448519035107331
 20
-63.045125652203893
 30
0.0
  0
VERTEX
  5
39C8
  8
L1
 10
-53.535452416031262
 20
-62.833921234867169
 30
0.0
  0
SEQEND
  5
39C9
  8
L1
  0
POLYLINE
  5
3071
  8
L1
 66
     1
 10
0.0
 20
0.0
 30
0.0
  0
VERTEX
  5
39CA
  8
L1
 10
-49.377091896450331
 20
-63.249999999999922
 30
0.0
  0
VERTEX
  5
39CB
  8
L1
 10
-49.329326939881298
 20
-63.246173334726933
 30
0.0
  0
VERTEX
  5
39CC
  8
L1
 10
-49.248597032242742
 20
-63.221089717646549
 30
0.0
  0
VERTEX
  5
39CD
  8
L1
 10
-49.156156936080599
 20
-63.152947646735562
 30
0.0
  0
VERTEX
  5
39CE
  8
L1
 10
-49.098202734683021
 20
-63.060535919167897
 30
0.0
  0
VERTEX
  5
39CF
  8
L1
 10
-49.077103407217457
 20
-62.949414895274877
 30
0.0
  0
VERTEX
  5
39D0
  8
L1
 10
-49.100632485334927
 20
-62.833547508367111
 30
0.0
  0
VERTEX
  5
39D1
  8
L1
 10
-49.16256111542998
 20
-62.740310602227083
 30
0.0
  0
VERTEX
  5
39D2
  8
L1
 10
-49.186223628979739
 20
-62.718560984214122
 30
0.0
  0
SEQEND
  5
39D3
  8
L1
  0
ARC
  5
3072
  8
L1
 10
-47.149999999999977
 20
-60.249999999999908
 30
0.0
 40
3.2000000000000282
 50
230.4820533159272
 51
270.0
  0
ARC
  5
3073
  8
L1
 10
-56.75
 20
-56.749999999999972
 30
0.0
 40
9.4389364862881635
 50
0.0
 51
36.689290052443639
  0
LINE
  5
3074
  8
L1
 10
-47.311063513711808
 20
-52.711063513711821
 30
0.0
 11
-47.311063513711808
 21
-56.749999999999972
 31
0.0
  0
ARC
  5
3075
  8
L1
 10
-56.75
 20
-56.749999999999972
 30
0.0
 40
8.8000000000000007
 50
0.0
 51
37.11486245507249
  0
POLYLINE
  5
3076
  8
L1
 66
     1
 10
0.0
 20
0.0
 30
0.0
  0
VERTEX
  5
39D4
  8
L1
 10
-50.350000000000023
 20
-60.004479642814687
 30
0.0
  0
VERTEX
  5
39D5
  8
L1
 10
-50.383705019846502
 20
-59.893358717371058
 30
0.0
  0
VERTEX
  5
39D6
  8
L1
 10
-50.473459795757663
 20
-59.819691121901798
 30
0.0
  0
VERTEX
  5
39D7
  8
L1
 10
-50.589012462699202
 20
-59.808306534080451
 30
0.0
  0
VERTEX
  5
39D8
  8
L1
 10
-50.69141597134535
 20
-59.863042131491603
 30
0.0
  0
SEQEND
  5
39D9
  8
L1
  0
POLYLINE
  5
3077
  8
L1
 66
     1
 10
0.0
 20
0.0
 30
0.0
  0
VERTEX
  5
39DA
  8
L1
 10
-47.950000000000038
 20
-61.950102802507239
 30
0.0
  0
VERTEX
  5
39DB
  8
L1
 10
-47.862174606235719
 20
-62.162174606235602
 30
0.0
  0
VERTEX
  5
39DC
  8
L1
 10
-47.650102802507369
 20
-62.249999999999908
 30
0.0
  0
SEQEND
  5
39DD
  8
L1
  0
POLYLINE
  5
3078
  8
L1
 66
     1
 10
0.0
 20
0.0
 30
0.0
  0
VERTEX
  5
39DE
  8
L1
 10
-47.311063197456058
 20
-61.31147433702963
 30
0.0
  0
VERTEX
  5
39DF
  8
L1
 10
-47.311063434647849
 20
-61.311320366176659
 30
0.0
  0
VERTEX
  5
39E0
  8
L1
 10
-47.311063513711808
 20
-61.311166316219129
 30
0.0
  0
SEQEND
  5
39E1
  8
L1
  0
POLYLINE
  5
3079
  8
L1
 66
     1
 10
0.0
 20
0.0
 30
0.0
  0
VERTEX
  5
39E2
  8
L1
 10
-47.311063197456058
 20
-61.31147433702953
 30
0.0
  0
VERTEX
  5
39E3
  8
L1
 10
-47.223110731772749
 20
-61.523110731772732
 30
0.0
  0
VERTEX
  5
39E4
  8
L1
 10
-47.01147433702954
 20
-61.611063197455991
 30
0.0
  0
SEQEND
  5
39E5
  8
L1
  0
POLYLINE
  5
307A
  8
L1
 66
     1
 10
0.0
 20
0.0
 30
0.0
  0
VERTEX
  5
39E6
  8
L1
 10
-47.011166316219139
 20
-61.611063513711798
 30
0.0
  0
VERTEX
  5
39E7
  8
L1
 10
-47.011320366176733
 20
-61.611063434647889
 30
0.0
  0
VERTEX
  5
39E8
  8
L1
 10
-47.011474337029647
 20
-61.611063197456048
 30
0.0
  0
SEQEND
  5
39E9
  8
L1
  0
LINE
  5
307B
  8
L1
 10
-50.349999999999909
 20
-59.549999999999869
 30
0.0
 11
-50.349999999999909
 21
-60.249999999999908
 31
0.0
  0
LINE
  5
307C
  8
L1
 10
-50.349999999999909
 20
-56.749999999999908
 30
0.0
 11
-50.349999999999909
 21
-59.549999999999812
 31
0.0
  0
LINE
  5
307D
  8
L1
 10
-49.350000000000023
 20
-60.249999999999908
 30
0.0
 11
-49.350000000000023
 21
-56.749999999999908
 31
0.0
  0
LINE
  5
307E
  8
L1
 10
-47.950000000000038
 20
-56.749999999999908
 30
0.0
 11
-47.950000000000038
 21
-61.950102802507239
 31
0.0
  0
LINE
  5
307F
  8
L1
 10
-47.311063513711808
 20
-61.311166316219129
 30
0.0
 11
-47.311063513711808
 21
-56.749999999999908
 31
0.0
  0
POLYLINE
  5
3080
  8
L1
 66
     1
 10
0.0
 20
0.0
 30
0.0
  0
VERTEX
  5
39EA
  8
L1
 10
-49.723178268028278
 20
-51.06608751409297
 30
0.0
  0
VERTEX
  5
39EB
  8
L1
 10
-49.730113646120799
 20
-51.074668220648867
 30
0.0
  0
VERTEX
  5
39EC
  8
L1
 10
-49.780604914290507
 20
-51.172320771318788
 30
0.0
  0
VERTEX
  5
39ED
  8
L1
 10
-49.792176433550928
 20
-51.285943643077722
 30
0.0
  0
VERTEX
  5
39EE
  8
L1
 10
-49.758682176200182
 20
-51.399032129046667
 30
0.0
  0
VERTEX
  5
39EF
  8
L1
 10
-49.732638610900267
 20
-51.439949234256488
 30
0.0
  0
SEQEND
  5
39F0
  8
L1
  0
POLYLINE
  5
3081
  8
L1
 66
     1
 10
0.0
 20
0.0
 30
0.0
  0
VERTEX
  5
39F1
  8
L1
 10
-49.181036322656162
 20
-51.110468916369797
 30
0.0
  0
VERTEX
  5
39F2
  8
L1
 10
-49.221532253349658
 20
-51.036114976060141
 30
0.0
  0
VERTEX
  5
39F3
  8
L1
 10
-49.240236551743692
 20
-50.919916266391027
 30
0.0
  0
VERTEX
  5
39F4
  8
L1
 10
-49.21497510694644
 20
-50.810286871908119
 30
0.0
  0
VERTEX
  5
39F5
  8
L1
 10
-49.170238538838703
 20
-50.73838855154829
 30
0.0
  0
SEQEND
  5
39F6
  8
L1
  0
LINE
  5
3082
  8
L1
 10
-49.170238538838703
 20
-50.73838855154829
 30
0.0
 11
-48.508163384265799
 21
-49.949358107518691
 31
0.0
  0
LINE
  5
3083
  8
L1
 10
-49.723178268028278
 20
-51.06608751409297
 30
0.0
 11
-48.796695169241502
 21
-49.961947952636052
 31
0.0
  0
LINE
  5
3084
  8
L1
 10
-49.949358107518719
 20
-48.508163384265771
 30
0.0
 11
-50.738388551548383
 21
-49.170238538838667
 31
0.0
  0
LINE
  5
3085
  8
L1
 10
-49.961947952636137
 20
-48.796695169241531
 30
0.0
 11
-51.066087514093049
 21
-49.723178268028249
 31
0.0
  0
POLYLINE
  5
3086
  8
L1
 66
     1
 10
0.0
 20
0.0
 30
0.0
  0
VERTEX
  5
39F7
  8
L1
 10
-51.439949234256567
 20
-49.732638610900288
 30
0.0
  0
VERTEX
  5
39F8
  8
L1
 10
-51.379236183845819
 20
-49.76822571539909
 30
0.0
  0
VERTEX
  5
39F9
  8
L1
 10
-51.301831308674757
 20
-49.790313818738838
 30
0.0
  0
VERTEX
  5
39FA
  8
L1
 10
-51.228206690632078
 20
-49.791809597496552
 30
0.0
  0
VERTEX
  5
39FB
  8
L1
 10
-51.149713592345051
 20
-49.772789027529342
 30
0.0
  0
VERTEX
  5
39FC
  8
L1
 10
-51.066087514093049
 20
-49.723178268028249
 30
0.0
  0
SEQEND
  5
39FD
  8
L1
  0
POLYLINE
  5
3087
  8
L1
 66
     1
 10
0.0
 20
0.0
 30
0.0
  0
VERTEX
  5
39FE
  8
L1
 10
-50.738388551548383
 20
-49.170238538838731
 30
0.0
  0
VERTEX
  5
39FF
  8
L1
 10
-50.740114986458373
 20
-49.17167621435911
 30
0.0
  0
VERTEX
  5
3A00
  8
L1
 10
-50.829096643909672
 20
-49.22251593656361
 30
0.0
  0
VERTEX
  5
3A01
  8
L1
 10
-50.904906570862629
 20
-49.239290622920322
 30
0.0
  0
VERTEX
  5
3A02
  8
L1
 10
-50.976091252715378
 20
-49.237084613486239
 30
0.0
  0
VERTEX
  5
3A03
  8
L1
 10
-51.051522375905961
 20
-49.215292371792678
 30
0.0
  0
VERTEX
  5
3A04
  8
L1
 10
-51.110468916369882
 20
-49.18103632265607
 30
0.0
  0
SEQEND
  5
3A05
  8
L1
  0
POLYLINE
  5
3088
  8
L1
 66
     1
 10
0.0
 20
0.0
 30
0.0
  0
VERTEX
  5
3A06
  8
L1
 10
-49.556995055326979
 20
-48.814375794571589
 30
0.0
  0
VERTEX
  5
3A07
  8
L1
 10
-49.756033631138962
 20
-48.726795248333723
 30
0.0
  0
VERTEX
  5
3A08
  8
L1
 10
-49.961947952636137
 20
-48.796695169241531
 30
0.0
  0
SEQEND
  5
3A09
  8
L1
  0
LINE
  5
3089
  8
L1
 10
-48.525844682845438
 20
-49.544389790256758
 30
0.0
 11
-49.54438979025678
 21
-48.525844682845467
 31
0.0
  0
ARC
  5
308A
  8
L1
 10
-49.756521824612719
 20
-48.737976717201462
 30
0.0
 40
0.3
 50
45.0
 51
130.00000000000071
  0
LINE
  5
308B
  8
L1
 10
-48.814375794571561
 20
-49.556995055326837
 30
0.0
 11
-49.556995055326858
 21
-48.814375794571589
 31
0.0
  0
POLYLINE
  5
308C
  8
L1
 66
     1
 10
0.0
 20
0.0
 30
0.0
  0
VERTEX
  5
3A0A
  8
L1
 10
48.796695169241502
 20
-49.961947952636109
 30
0.0
  0
VERTEX
  5
3A0B
  8
L1
 10
48.726795248333701
 20
-49.75603363113887
 30
0.0
  0
VERTEX
  5
3A0C
  8
L1
 10
48.814375794571561
 20
-49.556995055326837
 30
0.0
  0
SEQEND
  5
3A0D
  8
L1
  0
ARC
  5
308D
  8
L1
 10
48.737976717201491
 20
-49.75652182461274
 30
0.0
 40
0.3
 50
135.0
 51
220.00000000000011
  0
LINE
  5
308E
  8
L1
 10
63.25
 20
-49.377091896450018
 30
0.0
 11
63.25
 21
-60.650000000000013
 31
0.0
  0
ARC
  5
308F
  8
L1
 10
56.75
 20
-56.749999999999972
 30
0.0
 40
6.3999999999999941
 50
90.0
 51
180.0
  0
ARC
  5
3090
  8
L1
 10
60.25
 20
-47.149999999999949
 30
0.0
 40
3.2000000000000282
 50
270.0
 51
320.48205331592669
  0
ARC
  5
3091
  8
L1
 10
52.711063513711792
 20
-52.711063513711821
 30
0.0
 40
5.3999999999999986
 50
90.0
 51
180.00000000000159
  0
ARC
  5
3092
  8
L1
 10
56.75
 20
-56.749999999999972
 30
0.0
 40
7.3999999999999604
 50
90.0
 51
180.0
  0
ARC
  5
3093
  8
L1
 10
56.75
 20
-56.749999999999972
 30
0.0
 40
9.4389364862881635
 50
143.31070994755629
 51
180.0
  0
ARC
  5
3094
  8
L1
 10
47.149999999999977
 20
-60.249999999999908
 30
0.0
 40
3.2000000000000282
 50
270.0
 51
309.51794668407268
  0
ARC
  5
3095
  8
L1
 10
47.149999999999977
 20
-60.249999999999908
 30
0.0
 40
2.2000000000000619
 50
270.0
 51
0.0
  0
ARC
  5
3096
  8
L1
 10
56.75
 20
-56.749999999999972
 30
0.0
 40
8.8000000000000007
 50
142.8851375449257
 51
180.0
  0
LINE
  5
3097
  8
L1
 10
49.170238538838703
 20
-50.73838855154829
 30
0.0
 11
48.508163384265799
 21
-49.949358107518691
 31
0.0
  0
LINE
  5
3098
  8
L1
 10
49.723178268028278
 20
-51.06608751409297
 30
0.0
 11
48.796695169241502
 21
-49.961947952636052
 31
0.0
  0
LINE
  5
3099
  8
L1
 10
47.311063513711808
 20
-52.711063513711821
 30
0.0
 11
47.311063513711808
 21
-56.749999999999972
 31
0.0
  0
POLYLINE
  5
309A
  8
L1
 66
     1
 10
0.0
 20
0.0
 30
0.0
  0
VERTEX
  5
3A0E
  8
L1
 10
47.011166316219139
 20
-61.611063513711798
 30
0.0
  0
VERTEX
  5
3A0F
  8
L1
 10
47.011320366176733
 20
-61.611063434647889
 30
0.0
  0
VERTEX
  5
3A10
  8
L1
 10
47.011474337029647
 20
-61.611063197456048
 30
0.0
  0
SEQEND
  5
3A11
  8
L1
  0
POLYLINE
  5
309B
  8
L1
 66
     1
 10
0.0
 20
0.0
 30
0.0
  0
VERTEX
  5
3A12
  8
L1
 10
47.311063197456058
 20
-61.31147433702953
 30
0.0
  0
VERTEX
  5
3A13
  8
L1
 10
47.223110731772749
 20
-61.523110731772732
 30
0.0
  0
VERTEX
  5
3A14
  8
L1
 10
47.01147433702954
 20
-61.611063197455991
 30
0.0
  0
SEQEND
  5
3A15
  8
L1
  0
POLYLINE
  5
309C
  8
L1
 66
     1
 10
0.0
 20
0.0
 30
0.0
  0
VERTEX
  5
3A16
  8
L1
 10
47.311063197456058
 20
-61.31147433702963
 30
0.0
  0
VERTEX
  5
3A17
  8
L1
 10
47.311063434647849
 20
-61.311320366176659
 30
0.0
  0
VERTEX
  5
3A18
  8
L1
 10
47.311063513711808
 20
-61.311166316219129
 30
0.0
  0
SEQEND
  5
3A19
  8
L1
  0
POLYLINE
  5
309D
  8
L1
 66
     1
 10
0.0
 20
0.0
 30
0.0
  0
VERTEX
  5
3A1A
  8
L1
 10
47.950000000000038
 20
-61.950102802507239
 30
0.0
  0
VERTEX
  5
3A1B
  8
L1
 10
47.862174606235719
 20
-62.162174606235602
 30
0.0
  0
VERTEX
  5
3A1C
  8
L1
 10
47.650102802507369
 20
-62.249999999999908
 30
0.0
  0
SEQEND
  5
3A1D
  8
L1
  0
LINE
  5
309E
  8
L1
 10
47.311063513711808
 20
-61.311166316219129
 30
0.0
 11
47.311063513711808
 21
-56.749999999999908
 31
0.0
  0
LINE
  5
309F
  8
L1
 10
47.950000000000038
 20
-56.749999999999908
 30
0.0
 11
47.950000000000038
 21
-61.950102802507239
 31
0.0
  0
POLYLINE
  5
30A0
  8
L1
 66
     1
 10
0.0
 20
0.0
 30
0.0
  0
VERTEX
  5
3A1E
  8
L1
 10
65.012088437774196
 20
-61.556999999999931
 30
0.0
  0
VERTEX
  5
3A1F
  8
L1
 10
64.941714390114484
 20
-62.218787602445254
 30
0.0
  0
VERTEX
  5
3A20
  8
L1
 10
64.73958500200257
 20
-62.873772386240972
 30
0.0
  0
VERTEX
  5
3A21
  8
L1
 10
64.413440750186226
 20
-63.476619230896027
 30
0.0
  0
VERTEX
  5
3A22
  8
L1
 10
63.989929119073743
 20
-63.989929119073651
 30
0.0
  0
VERTEX
  5
3A23
  8
L1
 10
63.476619230896169
 20
-64.413440750186084
 30
0.0
  0
VERTEX
  5
3A24
  8
L1
 10
62.873772386241058
 20
-64.739585002002485
 30
0.0
  0
VERTEX
  5
3A25
  8
L1
 10
62.218787602445332
 20
-64.941714390114356
 30
0.0
  0
VERTEX
  5
3A26
  8
L1
 10
61.557000000000023
 20
-65.012088437774111
 30
0.0
  0
SEQEND
  5
3A27
  8
L1
  0
LINE
  5
30A1
  8
L1
 10
59.376706762295051
 20
-61.901529179287792
 30
0.0
 11
60.724120848982011
 21
-63.248943265974702
 31
0.0
  0
ARC
  5
30A2
  8
L1
 10
60.64999999999997
 20
-60.649999999999892
 30
0.0
 40
2.3853190523473331
 50
270.0
 51
359.99999999999829
  0
LINE
  5
30A3
  8
L1
 10
53.447575903962047
 20
-62.619202064108237
 30
0.0
 11
50.69141597134535
 21
-59.863042131491603
 31
0.0
  0
ARC
  5
30A4
  8
L1
 10
60.64999999999997
 20
-60.649999999999949
 30
0.0
 40
2.6000000000000001
 50
270.0
 51
0.0
  0
ARC
  5
30A5
  8
L1
 10
61.557000000000023
 20
-61.556999999999931
 30
0.0
 40
2.7360241002247041
 50
270.0
 51
0.0
  0
ARC
  5
30A6
  8
L1
 10
47.149999999999977
 20
-60.249999999999908
 30
0.0
 40
3.2000000000000282
 50
309.51794668407268
 51
0.0
  0
LINE
  5
30A7
  8
L1
 10
60.64999999999997
 20
-63.249999999999922
 30
0.0
 11
49.377091896450331
 21
-63.249999999999922
 31
0.0
  0
POLYLINE
  5
30A8
  8
L1
 66
     1
 10
0.0
 20
0.0
 30
0.0
  0
VERTEX
  5
3A28
  8
L1
 10
49.377091896450331
 20
-63.249999999999922
 30
0.0
  0
VERTEX
  5
3A29
  8
L1
 10
49.329326939881298
 20
-63.246173334726933
 30
0.0
  0
VERTEX
  5
3A2A
  8
L1
 10
49.248597032242742
 20
-63.221089717646549
 30
0.0
  0
VERTEX
  5
3A2B
  8
L1
 10
49.156156936080599
 20
-63.152947646735562
 30
0.0
  0
VERTEX
  5
3A2C
  8
L1
 10
49.098202734683021
 20
-63.060535919167897
 30
0.0
  0
VERTEX
  5
3A2D
  8
L1
 10
49.077103407217457
 20
-62.949414895274877
 30
0.0
  0
VERTEX
  5
3A2E
  8
L1
 10
49.100632485334927
 20
-62.833547508367111
 30
0.0
  0
VERTEX
  5
3A2F
  8
L1
 10
49.16256111542998
 20
-62.740310602227083
 30
0.0
  0
VERTEX
  5
3A30
  8
L1
 10
49.186223628979739
 20
-62.718560984214122
 30
0.0
  0
SEQEND
  5
3A31
  8
L1
  0
POLYLINE
  5
30A9
  8
L1
 66
     1
 10
0.0
 20
0.0
 30
0.0
  0
VERTEX
  5
3A32
  8
L1
 10
53.241717347154243
 20
-63.133909811786367
 30
0.0
  0
VERTEX
  5
3A33
  8
L1
 10
53.448519035107331
 20
-63.045125652203893
 30
0.0
  0
VERTEX
  5
3A34
  8
L1
 10
53.535452416031262
 20
-62.833921234867169
 30
0.0
  0
SEQEND
  5
3A35
  8
L1
  0
POLYLINE
  5
30AA
  8
L1
 66
     1
 10
0.0
 20
0.0
 30
0.0
  0
VERTEX
  5
3A36
  8
L1
 10
53.447575903962047
 20
-62.619202064108237
 30
0.0
  0
VERTEX
  5
3A37
  8
L1
 10
53.513110116762839
 20
-62.717729786776353
 30
0.0
  0
VERTEX
  5
3A38
  8
L1
 10
53.535452416031369
 20
-62.833921234867169
 30
0.0
  0
SEQEND
  5
3A39
  8
L1
  0
POLYLINE
  5
30AB
  8
L1
 66
     1
 10
0.0
 20
0.0
 30
0.0
  0
VERTEX
  5
3A3A
  8
L1
 10
61.557000000000023
 20
-65.012088437774111
 30
0.0
  0
VERTEX
  5
3A3B
  8
L1
 10
61.537048032038342
 20
-65.012250207188828
 30
0.0
  0
VERTEX
  5
3A3C
  8
L1
 10
61.51710075926826
 20
-65.012304130909143
 30
0.0
  0
SEQEND
  5
3A3D
  8
L1
  0
LINE
  5
30AC
  8
L1
 10
60.510496635354571
 20
-63.035319052347262
 30
0.0
 11
60.64999999999997
 21
-63.035319052347198
 31
0.0
  0
ARC
  5
30AD
  8
L1
 10
56.75
 20
-56.749999999999972
 30
0.0
 40
5.7825462644184809
 50
297.01652280963992
 51
332.9834771903607
  0
LINE
  5
30AE
  8
L1
 10
61.70029913768667
 20
-56.531159070128552
 30
0.0
 11
56.968840929871362
 21
-51.799700862313351
 31
0.0
  0
LINE
  5
30AF
  8
L1
 10
59.549999999999947
 20
-50.34999999999993
 30
0.0
 11
56.75
 21
-50.34999999999993
 31
0.0
  0
ARC
  5
30B0
  8
L1
 10
56.75
 20
-56.749999999999972
 30
0.0
 40
4.9551339946734032
 50
87.468738206707286
 51
182.53126179329271
  0
LINE
  5
30B1
  8
L1
 10
51.799700862313209
 20
-56.968840929871277
 30
0.0
 11
56.531159070128638
 21
-61.700299137686699
 31
0.0
  0
POLYLINE
  5
30B2
  8
L1
 66
     1
 10
0.0
 20
0.0
 30
0.0
  0
VERTEX
  5
3A3E
  8
L1
 10
50.350000000000023
 20
-60.004479642814687
 30
0.0
  0
VERTEX
  5
3A3F
  8
L1
 10
50.383705019846502
 20
-59.893358717371058
 30
0.0
  0
VERTEX
  5
3A40
  8
L1
 10
50.473459795757663
 20
-59.819691121901798
 30
0.0
  0
VERTEX
  5
3A41
  8
L1
 10
50.589012462699202
 20
-59.808306534080451
 30
0.0
  0
VERTEX
  5
3A42
  8
L1
 10
50.69141597134535
 20
-59.863042131491603
 30
0.0
  0
SEQEND
  5
3A43
  8
L1
  0
LINE
  5
30B3
  8
L1
 10
50.349999999999909
 20
-56.749999999999908
 30
0.0
 11
50.349999999999909
 21
-59.549999999999812
 31
0.0
  0
LINE
  5
30B4
  8
L1
 10
50.349999999999909
 20
-59.549999999999869
 30
0.0
 11
50.349999999999909
 21
-60.249999999999908
 31
0.0
  0
LINE
  5
30B5
  8
L1
 10
49.350000000000023
 20
-60.249999999999908
 30
0.0
 11
49.350000000000023
 21
-56.749999999999908
 31
0.0
  0
POLYLINE
  5
30B6
  8
L1
 66
     1
 10
0.0
 20
0.0
 30
0.0
  0
VERTEX
  5
3A44
  8
L1
 10
59.035746534405
 20
-61.659302189691431
 30
0.0
  0
VERTEX
  5
3A45
  8
L1
 10
59.124081047125628
 20
-61.747342135618879
 30
0.0
  0
VERTEX
  5
3A46
  8
L1
 10
59.19758740517193
 20
-61.820028179014663
 30
0.0
  0
VERTEX
  5
3A47
  8
L1
 10
59.245965950157817
 20
-61.867206662007881
 30
0.0
  0
VERTEX
  5
3A48
  8
L1
 10
59.263214172935143
 20
-61.883099641752239
 30
0.0
  0
SEQEND
  5
3A49
  8
L1
  0
POLYLINE
  5
30B7
  8
L1
 66
     1
 10
0.0
 20
0.0
 30
0.0
  0
VERTEX
  5
3A4A
  8
L1
 10
59.26321417293525
 20
-61.883099641752118
 30
0.0
  0
VERTEX
  5
3A4B
  8
L1
 10
59.37670676229515
 20
-61.901529179287742
 30
0.0
  0
SEQEND
  5
3A4C
  8
L1
  0
LINE
  5
30B8
  8
L1
 10
58.687208996504751
 20
-61.310764651791288
 30
0.0
 11
59.035746534405
 21
-61.659302189691431
 31
0.0
  0
ARC
  5
30B9
  8
L1
 10
56.75
 20
-56.749999999999972
 30
0.0
 40
4.9551339946734032
 50
267.46873820670891
 51
293.01361607239193
  0
POLYLINE
  5
30BA
  8
L1
 66
     1
 10
0.0
 20
0.0
 30
0.0
  0
VERTEX
  5
3A4D
  8
L1
 10
49.723178268028278
 20
-51.06608751409297
 30
0.0
  0
VERTEX
  5
3A4E
  8
L1
 10
49.730113646120799
 20
-51.074668220648867
 30
0.0
  0
VERTEX
  5
3A4F
  8
L1
 10
49.780604914290507
 20
-51.172320771318788
 30
0.0
  0
VERTEX
  5
3A50
  8
L1
 10
49.792176433550928
 20
-51.285943643077722
 30
0.0
  0
VERTEX
  5
3A51
  8
L1
 10
49.758682176200182
 20
-51.399032129046667
 30
0.0
  0
VERTEX
  5
3A52
  8
L1
 10
49.732638610900267
 20
-51.439949234256488
 30
0.0
  0
SEQEND
  5
3A53
  8
L1
  0
POLYLINE
  5
30BB
  8
L1
 66
     1
 10
0.0
 20
0.0
 30
0.0
  0
VERTEX
  5
3A54
  8
L1
 10
49.181036322656162
 20
-51.110468916369797
 30
0.0
  0
VERTEX
  5
3A55
  8
L1
 10
49.221532253349658
 20
-51.036114976060141
 30
0.0
  0
VERTEX
  5
3A56
  8
L1
 10
49.240236551743692
 20
-50.919916266391027
 30
0.0
  0
VERTEX
  5
3A57
  8
L1
 10
49.21497510694644
 20
-50.810286871908119
 30
0.0
  0
VERTEX
  5
3A58
  8
L1
 10
49.170238538838703
 20
-50.73838855154829
 30
0.0
  0
SEQEND
  5
3A59
  8
L1
  0
POLYLINE
  5
30BC
  8
L1
 66
     1
 10
0.0
 20
0.0
 30
0.0
  0
VERTEX
  5
3A5A
  8
L1
 10
61.88309964175221
 20
-59.263214172935108
 30
0.0
  0
VERTEX
  5
3A5B
  8
L1
 10
61.867206662007902
 20
-59.245965950157789
 30
0.0
  0
VERTEX
  5
3A5C
  8
L1
 10
61.820028179014678
 20
-59.197587405171902
 30
0.0
  0
VERTEX
  5
3A5D
  8
L1
 10
61.747342135618972
 20
-59.124081047125649
 30
0.0
  0
VERTEX
  5
3A5E
  8
L1
 10
61.659302189691509
 20
-59.035746534404922
 30
0.0
  0
SEQEND
  5
3A5F
  8
L1
  0
POLYLINE
  5
30BD
  8
L1
 66
     1
 10
0.0
 20
0.0
 30
0.0
  0
VERTEX
  5
3A60
  8
L1
 10
61.901529179287763
 20
-59.376706762295072
 30
0.0
  0
VERTEX
  5
3A61
  8
L1
 10
61.883099641752317
 20
-59.263214172935051
 30
0.0
  0
SEQEND
  5
3A62
  8
L1
  0
LINE
  5
30BE
  8
L1
 10
63.248943265974731
 20
-60.724120848982032
 30
0.0
 11
61.901529179287763
 21
-59.376706762295072
 31
0.0
  0
LINE
  5
30BF
  8
L1
 10
61.659302189691509
 20
-59.035746534404922
 30
0.0
 11
61.31076465179126
 21
-58.687208996504722
 31
0.0
  0
LINE
  5
30C0
  8
L1
 10
63.03531905234729
 20
-60.650000000000013
 30
0.0
 11
63.035319052347241
 21
-60.510496635354542
 31
0.0
  0
ARC
  5
30C1
  8
L1
 10
56.75
 20
-56.749999999999972
 30
0.0
 40
4.9551339946734032
 50
336.98638392760779
 51
2.531261793292745
  0
POLYLINE
  5
30C2
  8
L1
 66
     1
 10
0.0
 20
0.0
 30
0.0
  0
VERTEX
  5
3A63
  8
L1
 10
65.012304130909286
 20
-61.517100759268182
 30
0.0
  0
VERTEX
  5
3A64
  8
L1
 10
65.012250207188913
 20
-61.5370480320382
 30
0.0
  0
VERTEX
  5
3A65
  8
L1
 10
65.012088437774253
 20
-61.556999999999931
 30
0.0
  0
SEQEND
  5
3A66
  8
L1
  0
POLYLINE
  5
30C3
  8
L1
 66
     1
 10
0.0
 20
0.0
 30
0.0
  0
VERTEX
  5
3A67
  8
L1
 10
59.863042131491511
 20
-50.691415971345378
 30
0.0
  0
VERTEX
  5
3A68
  8
L1
 10
59.809747036442673
 20
-50.595661658921387
 30
0.0
  0
VERTEX
  5
3A69
  8
L1
 10
59.814914676135118
 20
-50.48619877707435
 30
0.0
  0
VERTEX
  5
3A6A
  8
L1
 10
59.876993618817551
 20
-50.39589033495659
 30
0.0
  0
VERTEX
  5
3A6B
  8
L1
 10
59.977346488722667
 20
-50.351848784842083
 30
0.0
  0
SEQEND
  5
3A6C
  8
L1
  0
POLYLINE
  5
30C4
  8
L1
 66
     1
 10
0.0
 20
0.0
 30
0.0
  0
VERTEX
  5
3A6D
  8
L1
 10
62.833921234867198
 20
-53.535452416031291
 30
0.0
  0
VERTEX
  5
3A6E
  8
L1
 10
62.717729786776431
 20
-53.513110116762761
 30
0.0
  0
VERTEX
  5
3A6F
  8
L1
 10
62.619202064108322
 20
-53.447575903962068
 30
0.0
  0
SEQEND
  5
3A70
  8
L1
  0
POLYLINE
  5
30C5
  8
L1
 66
     1
 10
0.0
 20
0.0
 30
0.0
  0
VERTEX
  5
3A71
  8
L1
 10
62.833921234867198
 20
-53.535452416031291
 30
0.0
  0
VERTEX
  5
3A72
  8
L1
 10
63.045125652203978
 20
-53.448519035107353
 30
0.0
  0
VERTEX
  5
3A73
  8
L1
 10
63.133909811786452
 20
-53.24171734715415
 30
0.0
  0
SEQEND
  5
3A74
  8
L1
  0
LINE
  5
30C6
  8
L1
 10
59.863042131491511
 20
-50.691415971345322
 30
0.0
 11
62.619202064108322
 21
-53.447575903962068
 31
0.0
  0
LINE
  5
30C7
  8
L1
 10
60.25
 20
-50.34999999999993
 30
0.0
 11
59.549999999999947
 21
-50.34999999999993
 31
0.0
  0
LINE
  5
30C8
  8
L1
 10
48.525844682845438
 20
-49.544389790256758
 30
0.0
 11
49.54438979025678
 21
-48.525844682845467
 31
0.0
  0
LINE
  5
30C9
  8
L1
 10
48.814375794571561
 20
-49.556995055326837
 30
0.0
 11
49.556995055326858
 21
-48.814375794571589
 31
0.0
  0
LINE
  5
30CA
  8
L1
 10
56.75
 20
-47.31106351371178
 30
0.0
 11
61.311166316219207
 21
-47.31106351371178
 31
0.0
  0
LINE
  5
30CB
  8
L1
 10
61.950102802507331
 20
-47.94999999999996
 30
0.0
 11
56.75
 21
-47.94999999999996
 31
0.0
  0
LINE
  5
30CC
  8
L1
 10
56.75
 20
-49.349999999999987
 30
0.0
 11
60.25
 21
-49.349999999999987
 31
0.0
  0
LINE
  5
30CD
  8
L1
 10
56.75
 20
-47.31106351371178
 30
0.0
 11
52.711063513711792
 21
-47.31106351371178
 31
0.0
  0
ARC
  5
30CE
  8
L1
 10
56.75
 20
-56.749999999999972
 30
0.0
 40
9.4389364862881635
 50
90.0
 51
126.689290052443
  0
ARC
  5
30CF
  8
L1
 10
56.75
 20
-56.749999999999972
 30
0.0
 40
8.8000000000000007
 50
90.0
 51
127.11486245507309
  0
POLYLINE
  5
30D0
  8
L1
 66
     1
 10
0.0
 20
0.0
 30
0.0
  0
VERTEX
  5
3A75
  8
L1
 10
51.439949234256567
 20
-49.732638610900288
 30
0.0
  0
VERTEX
  5
3A76
  8
L1
 10
51.379236183845819
 20
-49.76822571539909
 30
0.0
  0
VERTEX
  5
3A77
  8
L1
 10
51.301831308674757
 20
-49.790313818738838
 30
0.0
  0
VERTEX
  5
3A78
  8
L1
 10
51.228206690632078
 20
-49.791809597496552
 30
0.0
  0
VERTEX
  5
3A79
  8
L1
 10
51.149713592345051
 20
-49.772789027529342
 30
0.0
  0
VERTEX
  5
3A7A
  8
L1
 10
51.066087514093049
 20
-49.723178268028249
 30
0.0
  0
SEQEND
  5
3A7B
  8
L1
  0
POLYLINE
  5
30D1
  8
L1
 66
     1
 10
0.0
 20
0.0
 30
0.0
  0
VERTEX
  5
3A7C
  8
L1
 10
49.556995055326979
 20
-48.814375794571589
 30
0.0
  0
VERTEX
  5
3A7D
  8
L1
 10
49.756033631138962
 20
-48.726795248333723
 30
0.0
  0
VERTEX
  5
3A7E
  8
L1
 10
49.961947952636137
 20
-48.796695169241531
 30
0.0
  0
SEQEND
  5
3A7F
  8
L1
  0
POLYLINE
  5
30D2
  8
L1
 66
     1
 10
0.0
 20
0.0
 30
0.0
  0
VERTEX
  5
3A80
  8
L1
 10
50.738388551548383
 20
-49.170238538838731
 30
0.0
  0
VERTEX
  5
3A81
  8
L1
 10
50.740114986458373
 20
-49.17167621435911
 30
0.0
  0
VERTEX
  5
3A82
  8
L1
 10
50.829096643909672
 20
-49.22251593656361
 30
0.0
  0
VERTEX
  5
3A83
  8
L1
 10
50.904906570862629
 20
-49.239290622920322
 30
0.0
  0
VERTEX
  5
3A84
  8
L1
 10
50.976091252715378
 20
-49.237084613486239
 30
0.0
  0
VERTEX
  5
3A85
  8
L1
 10
51.051522375905961
 20
-49.215292371792678
 30
0.0
  0
VERTEX
  5
3A86
  8
L1
 10
51.110468916369882
 20
-49.18103632265607
 30
0.0
  0
SEQEND
  5
3A87
  8
L1
  0
ARC
  5
30D3
  8
L1
 10
49.756521824612719
 20
-48.737976717201462
 30
0.0
 40
0.3
 50
49.999999999999282
 51
135.0
  0
LINE
  5
30D4
  8
L1
 10
49.949358107518719
 20
-48.508163384265771
 30
0.0
 11
50.738388551548383
 21
-49.170238538838667
 31
0.0
  0
LINE
  5
30D5
  8
L1
 10
49.961947952636137
 20
-48.796695169241531
 30
0.0
 11
51.066087514093049
 21
-49.723178268028249
 31
0.0
  0
POLYLINE
  5
30D6
  8
L1
 66
     1
 10
0.0
 20
0.0
 30
0.0
  0
VERTEX
  5
3A88
  8
L1
 10
61.311166316219101
 20
-47.31106351371173
 30
0.0
  0
VERTEX
  5
3A89
  8
L1
 10
61.31132036617668
 20
-47.311063434647821
 30
0.0
  0
VERTEX
  5
3A8A
  8
L1
 10
61.311474337029487
 20
-47.311063197455979
 30
0.0
  0
SEQEND
  5
3A8B
  8
L1
  0
POLYLINE
  5
30D7
  8
L1
 66
     1
 10
0.0
 20
0.0
 30
0.0
  0
VERTEX
  5
3A8C
  8
L1
 10
61.611063197455913
 20
-47.011474337029448
 30
0.0
  0
VERTEX
  5
3A8D
  8
L1
 10
61.52311073177259
 20
-47.223110731772657
 30
0.0
  0
VERTEX
  5
3A8E
  8
L1
 10
61.311474337029381
 20
-47.311063197455923
 30
0.0
  0
SEQEND
  5
3A8F
  8
L1
  0
POLYLINE
  5
30D8
  8
L1
 66
     1
 10
0.0
 20
0.0
 30
0.0
  0
VERTEX
  5
3A90
  8
L1
 10
62.25
 20
-47.650102802507291
 30
0.0
  0
VERTEX
  5
3A91
  8
L1
 10
62.162174606235787
 20
-47.862174606235627
 30
0.0
  0
VERTEX
  5
3A92
  8
L1
 10
61.950102802507331
 20
-47.94999999999996
 30
0.0
  0
SEQEND
  5
3A93
  8
L1
  0
POLYLINE
  5
30D9
  8
L1
 66
     1
 10
0.0
 20
0.0
 30
0.0
  0
VERTEX
  5
3A94
  8
L1
 10
61.611063197456133
 20
-47.011474337029732
 30
0.0
  0
VERTEX
  5
3A95
  8
L1
 10
61.61106343464791
 20
-47.011320366176697
 30
0.0
  0
VERTEX
  5
3A96
  8
L1
 10
61.61106351371177
 20
-47.011166316219168
 30
0.0
  0
SEQEND
  5
3A97
  8
L1
  0
POLYLINE
  5
30DA
  8
L1
 66
     1
 10
0.0
 20
0.0
 30
0.0
  0
VERTEX
  5
3A98
  8
L1
 10
62.7185609842142
 20
-49.186223628979718
 30
0.0
  0
VERTEX
  5
3A99
  8
L1
 10
62.728328363554283
 20
-49.174964228796597
 30
0.0
  0
VERTEX
  5
3A9A
  8
L1
 10
62.816397581964111
 20
-49.108500430629853
 30
0.0
  0
VERTEX
  5
3A9B
  8
L1
 10
62.894770114985299
 20
-49.082233380302881
 30
0.0
  0
VERTEX
  5
3A9C
  8
L1
 10
62.969342954089093
 20
-49.077725977076192
 30
0.0
  0
VERTEX
  5
3A9D
  8
L1
 10
63.046544182151479
 20
-49.093056538991931
 30
0.0
  0
VERTEX
  5
3A9E
  8
L1
 10
63.134927642499292
 20
-49.140868754507629
 30
0.0
  0
VERTEX
  5
3A9F
  8
L1
 10
63.211827010205177
 20
-49.230643189592882
 30
0.0
  0
VERTEX
  5
3AA0
  8
L1
 10
63.247225979339639
 20
-49.336387854965182
 30
0.0
  0
VERTEX
  5
3AA1
  8
L1
 10
63.25
 20
-49.377091896450018
 30
0.0
  0
SEQEND
  5
3AA2
  8
L1
  0
ARC
  5
30DB
  8
L1
 10
60.25
 20
-47.149999999999949
 30
0.0
 40
3.2000000000000282
 50
320.48205331592669
 51
0.0
  0
ARC
  5
30DC
  8
L1
 10
60.25
 20
-47.149999999999949
 30
0.0
 40
2.2000000000000619
 50
270.0
 51
0.0
  0
LINE
  5
30DD
  8
L1
 10
47.011166316219139
 20
61.61106351371199
 30
0.0
 11
-47.011166316219139
 21
61.61106351371199
 31
0.0
  0
LINE
  5
30DE
  8
L1
 10
-61.517100759268139
 20
65.012304130909342
 30
0.0
 11
61.51710075926826
 21
65.012304130909342
 31
0.0
  0
LINE
  5
30DF
  8
L1
 10
61.557000000000023
 20
64.293024100224898
 30
0.0
 11
-61.557000000000023
 21
64.293024100224898
 31
0.0
  0
LINE
  5
30E0
  8
L1
 10
-47.149999999999977
 20
63.450000000000273
 30
0.0
 11
47.149999999999977
 21
63.450000000000273
 31
0.0
  0
LINE
  5
30E1
  8
L1
 10
47.149999999999977
 20
62.450000000000223
 30
0.0
 11
-47.149999999999977
 21
62.450000000000273
 31
0.0
  0
LINE
  5
30E2
  8
L1
 10
-47.650102802507369
 20
62.25000000000022
 30
0.0
 11
47.650102802507369
 21
62.25000000000022
 31
0.0
  0
LINE
  5
30E3
  8
L6
 10
-72.302834530585869
 20
0.0
 30
0.0
 11
72.302834530585869
 21
0.0
 31
0.0
  0
LINE
  5
30E4
  8
L1
 10
-51.799700862313209
 20
56.968840929871469
 30
0.0
 11
-56.531159070128638
 21
61.700299137686898
 31
0.0
  0
LINE
  5
30E5
  8
L1
 10
-60.64999999999997
 20
63.250000000000107
 30
0.0
 11
-49.377091896450331
 21
63.250000000000107
 31
0.0
  0
LINE
  5
30E6
  8
L1
 10
-56.75
 20
47.311063513711979
 30
0.0
 11
-52.711063513711792
 21
47.311063513711979
 31
0.0
  0
ARC
  5
30E7
  8
L1
 10
-56.75
 20
56.750000000000171
 30
0.0
 40
8.8000000000000007
 50
270.0
 51
307.11486245507308
  0
ARC
  5
30E8
  8
L1
 10
-56.75
 20
56.750000000000171
 30
0.0
 40
9.4389364862881635
 50
270.0
 51
306.68929005244291
  0
ARC
  5
30E9
  8
L1
 10
-56.75
 20
56.750000000000171
 30
0.0
 40
7.3999999999999604
 50
270.0
 51
0.0
  0
ARC
  5
30EA
  8
L1
 10
-56.75
 20
56.750000000000171
 30
0.0
 40
4.9551339946734032
 50
267.46873820670731
 51
2.531261793292745
  0
ARC
  5
30EB
  8
L1
 10
-56.75
 20
56.750000000000171
 30
0.0
 40
6.3999999999999941
 50
270.0
 51
0.0
  0
ARC
  5
30EC
  8
L1
 10
-60.25
 20
47.150000000000141
 30
0.0
 40
3.2000000000000282
 50
140.48205331592669
 51
180.0
  0
ARC
  5
30ED
  8
L1
 10
-60.25
 20
47.150000000000141
 30
0.0
 40
2.2000000000000619
 50
90.0
 51
180.0
  0
LINE
  5
30EE
  8
L1
 10
-61.950102802507331
 20
47.950000000000152
 30
0.0
 11
-56.75
 21
47.950000000000152
 31
0.0
  0
LINE
  5
30EF
  8
L1
 10
-56.75
 20
47.311063513711979
 30
0.0
 11
-61.311166316219207
 21
47.311063513711979
 31
0.0
  0
POLYLINE
  5
30F0
  8
L1
 66
     1
 10
0.0
 20
0.0
 30
0.0
  0
VERTEX
  5
3AA3
  8
L1
 10
-61.311166316219101
 20
47.311063513711929
 30
0.0
  0
VERTEX
  5
3AA4
  8
L1
 10
-61.31132036617668
 20
47.311063434648013
 30
0.0
  0
VERTEX
  5
3AA5
  8
L1
 10
-61.311474337029487
 20
47.311063197456178
 30
0.0
  0
SEQEND
  5
3AA6
  8
L1
  0
POLYLINE
  5
30F1
  8
L1
 66
     1
 10
0.0
 20
0.0
 30
0.0
  0
VERTEX
  5
3AA7
  8
L1
 10
-61.611063197455913
 20
47.011474337029647
 30
0.0
  0
VERTEX
  5
3AA8
  8
L1
 10
-61.52311073177259
 20
47.223110731772863
 30
0.0
  0
VERTEX
  5
3AA9
  8
L1
 10
-61.311474337029381
 20
47.311063197456122
 30
0.0
  0
SEQEND
  5
3AAA
  8
L1
  0
POLYLINE
  5
30F2
  8
L1
 66
     1
 10
0.0
 20
0.0
 30
0.0
  0
VERTEX
  5
3AAB
  8
L1
 10
-61.611063197456133
 20
47.011474337029938
 30
0.0
  0
VERTEX
  5
3AAC
  8
L1
 10
-61.61106343464791
 20
47.011320366176903
 30
0.0
  0
VERTEX
  5
3AAD
  8
L1
 10
-61.61106351371177
 20
47.011166316219366
 30
0.0
  0
SEQEND
  5
3AAE
  8
L1
  0
POLYLINE
  5
30F3
  8
L1
 66
     1
 10
0.0
 20
0.0
 30
0.0
  0
VERTEX
  5
3AAF
  8
L1
 10
-62.25
 20
47.65010280250749
 30
0.0
  0
VERTEX
  5
3AB0
  8
L1
 10
-62.162174606235787
 20
47.86217460623584
 30
0.0
  0
VERTEX
  5
3AB1
  8
L1
 10
-61.950102802507331
 20
47.950000000000152
 30
0.0
  0
SEQEND
  5
3AB2
  8
L1
  0
LINE
  5
30F4
  8
L1
 10
-58.687208996504751
 20
61.31076465179148
 30
0.0
 11
-59.035746534405
 21
61.65930218969163
 31
0.0
  0
ARC
  5
30F5
  8
L1
 10
-56.75
 20
56.750000000000171
 30
0.0
 40
5.7825462644184809
 50
117.01652280963989
 51
152.98347719036059
  0
ARC
  5
30F6
  8
L1
 10
-56.75
 20
56.750000000000171
 30
0.0
 40
4.9551339946734032
 50
87.46873820670892
 51
113.0136160723919
  0
ARC
  5
30F7
  8
L1
 10
-60.64999999999997
 20
60.650000000000091
 30
0.0
 40
2.3853190523473331
 50
90.0
 51
179.99999999999829
  0
ARC
  5
30F8
  8
L1
 10
-60.64999999999997
 20
60.650000000000148
 30
0.0
 40
2.6000000000000001
 50
90.0
 51
180.0
  0
LINE
  5
30F9
  8
L1
 10
-61.70029913768667
 20
56.531159070128751
 30
0.0
 11
-56.968840929871362
 21
51.799700862313557
 31
0.0
  0
LINE
  5
30FA
  8
L1
 10
-63.25
 20
49.377091896450231
 30
0.0
 11
-63.25
 21
60.650000000000198
 31
0.0
  0
LINE
  5
30FB
  8
L1
 10
-59.863042131491511
 20
50.691415971345521
 30
0.0
 11
-62.619202064108322
 21
53.447575903962267
 31
0.0
  0
ARC
  5
30FC
  8
L1
 10
-60.25
 20
47.150000000000141
 30
0.0
 40
3.2000000000000282
 50
90.0
 51
140.48205331592669
  0
POLYLINE
  5
30FD
  8
L1
 66
     1
 10
0.0
 20
0.0
 30
0.0
  0
VERTEX
  5
3AB3
  8
L1
 10
-62.833921234867148
 20
53.53545241603149
 30
0.0
  0
VERTEX
  5
3AB4
  8
L1
 10
-62.717729786776431
 20
53.513110116762959
 30
0.0
  0
VERTEX
  5
3AB5
  8
L1
 10
-62.619202064108322
 20
53.447575903962267
 30
0.0
  0
SEQEND
  5
3AB6
  8
L1
  0
POLYLINE
  5
30FE
  8
L1
 66
     1
 10
0.0
 20
0.0
 30
0.0
  0
VERTEX
  5
3AB7
  8
L1
 10
-62.833921234867148
 20
53.53545241603149
 30
0.0
  0
VERTEX
  5
3AB8
  8
L1
 10
-63.045125652203978
 20
53.448519035107552
 30
0.0
  0
VERTEX
  5
3AB9
  8
L1
 10
-63.133909811786452
 20
53.241717347154342
 30
0.0
  0
SEQEND
  5
3ABA
  8
L1
  0
POLYLINE
  5
30FF
  8
L1
 66
     1
 10
0.0
 20
0.0
 30
0.0
  0
VERTEX
  5
3ABB
  8
L1
 10
-62.718560984214271
 20
49.18622362897991
 30
0.0
  0
VERTEX
  5
3ABC
  8
L1
 10
-62.728328363554283
 20
49.174964228796789
 30
0.0
  0
VERTEX
  5
3ABD
  8
L1
 10
-62.816397581964111
 20
49.108500430630038
 30
0.0
  0
VERTEX
  5
3ABE
  8
L1
 10
-62.894770114985249
 20
49.08223338030308
 30
0.0
  0
VERTEX
  5
3ABF
  8
L1
 10
-62.969342954089143
 20
49.077725977076398
 30
0.0
  0
VERTEX
  5
3AC0
  8
L1
 10
-63.046544182151479
 20
49.09305653899213
 30
0.0
  0
VERTEX
  5
3AC1
  8
L1
 10
-63.134927642499292
 20
49.140868754507842
 30
0.0
  0
VERTEX
  5
3AC2
  8
L1
 10
-63.211827010205177
 20
49.230643189593081
 30
0.0
  0
VERTEX
  5
3AC3
  8
L1
 10
-63.247225979339639
 20
49.33638785496538
 30
0.0
  0
VERTEX
  5
3AC4
  8
L1
 10
-63.25
 20
49.377091896450231
 30
0.0
  0
SEQEND
  5
3AC5
  8
L1
  0
POLYLINE
  5
3100
  8
L1
 66
     1
 10
0.0
 20
0.0
 30
0.0
  0
VERTEX
  5
3AC6
  8
L1
 10
-59.863042131491511
 20
50.69141597134557
 30
0.0
  0
VERTEX
  5
3AC7
  8
L1
 10
-59.809747036442673
 20
50.595661658921578
 30
0.0
  0
VERTEX
  5
3AC8
  8
L1
 10
-59.814914676135118
 20
50.486198777074549
 30
0.0
  0
VERTEX
  5
3AC9
  8
L1
 10
-59.876993618817551
 20
50.395890334956789
 30
0.0
  0
VERTEX
  5
3ACA
  8
L1
 10
-59.977346488722667
 20
50.351848784842268
 30
0.0
  0
SEQEND
  5
3ACB
  8
L1
  0
LINE
  5
3101
  8
L1
 10
-59.549999999999947
 20
50.350000000000144
 30
0.0
 11
-56.75
 21
50.350000000000144
 31
0.0
  0
LINE
  5
3102
  8
L1
 10
-60.25
 20
50.350000000000144
 30
0.0
 11
-59.549999999999947
 21
50.350000000000144
 31
0.0
  0
LINE
  5
3103
  8
L1
 10
-56.75
 20
49.3500000000002
 30
0.0
 11
-60.25
 21
49.3500000000002
 31
0.0
  0
POLYLINE
  5
3104
  8
L1
 66
     1
 10
0.0
 20
0.0
 30
0.0
  0
VERTEX
  5
3ACC
  8
L1
 10
-61.88309964175221
 20
59.263214172935307
 30
0.0
  0
VERTEX
  5
3ACD
  8
L1
 10
-61.867206662007902
 20
59.245965950157988
 30
0.0
  0
VERTEX
  5
3ACE
  8
L1
 10
-61.820028179014678
 20
59.197587405172101
 30
0.0
  0
VERTEX
  5
3ACF
  8
L1
 10
-61.747342135618972
 20
59.124081047125863
 30
0.0
  0
VERTEX
  5
3AD0
  8
L1
 10
-61.659302189691509
 20
59.035746534405121
 30
0.0
  0
SEQEND
  5
3AD1
  8
L1
  0
POLYLINE
  5
3105
  8
L1
 66
     1
 10
0.0
 20
0.0
 30
0.0
  0
VERTEX
  5
3AD2
  8
L1
 10
-61.901529179287763
 20
59.376706762295271
 30
0.0
  0
VERTEX
  5
3AD3
  8
L1
 10
-61.883099641752317
 20
59.26321417293525
 30
0.0
  0
SEQEND
  5
3AD4
  8
L1
  0
LINE
  5
3106
  8
L1
 10
-63.248943265974731
 20
60.724120848982238
 30
0.0
 11
-61.901529179287763
 21
59.376706762295271
 31
0.0
  0
LINE
  5
3107
  8
L1
 10
-61.659302189691509
 20
59.035746534405121
 30
0.0
 11
-61.31076465179126
 21
58.687208996504921
 31
0.0
  0
LINE
  5
3108
  8
L1
 10
-63.03531905234729
 20
60.650000000000198
 30
0.0
 11
-63.03531905234717
 21
60.510496635354741
 31
0.0
  0
ARC
  5
3109
  8
L1
 10
-56.75
 20
56.750000000000171
 30
0.0
 40
4.9551339946734032
 50
156.9863839276095
 51
182.53126179329271
  0
POLYLINE
  5
310A
  8
L1
 66
     1
 10
0.0
 20
0.0
 30
0.0
  0
VERTEX
  5
3AD5
  8
L1
 10
-61.557000000000023
 20
65.01208843777431
 30
0.0
  0
VERTEX
  5
3AD6
  8
L1
 10
-61.537048032038342
 20
65.012250207189027
 30
0.0
  0
VERTEX
  5
3AD7
  8
L1
 10
-61.51710075926826
 20
65.012304130909342
 30
0.0
  0
SEQEND
  5
3AD8
  8
L1
  0
POLYLINE
  5
310B
  8
L1
 66
     1
 10
0.0
 20
0.0
 30
0.0
  0
VERTEX
  5
3AD9
  8
L1
 10
-65.012304130909342
 20
61.517100759268367
 30
0.0
  0
VERTEX
  5
3ADA
  8
L1
 10
-65.012250207188913
 20
61.537048032038399
 30
0.0
  0
VERTEX
  5
3ADB
  8
L1
 10
-65.01208843777431
 20
61.55700000000013
 30
0.0
  0
SEQEND
  5
3ADC
  8
L1
  0
POLYLINE
  5
310C
  8
L1
 66
     1
 10
0.0
 20
0.0
 30
0.0
  0
VERTEX
  5
3ADD
  8
L1
 10
-65.012088437774196
 20
61.55700000000013
 30
0.0
  0
VERTEX
  5
3ADE
  8
L1
 10
-64.941714390114484
 20
62.218787602445438
 30
0.0
  0
VERTEX
  5
3ADF
  8
L1
 10
-64.739585002002514
 20
62.873772386241171
 30
0.0
  0
VERTEX
  5
3AE0
  8
L1
 10
-64.413440750186282
 20
63.476619230896233
 30
0.0
  0
VERTEX
  5
3AE1
  8
L1
 10
-63.989929119073743
 20
63.989929119073842
 30
0.0
  0
VERTEX
  5
3AE2
  8
L1
 10
-63.476619230896169
 20
64.413440750186282
 30
0.0
  0
VERTEX
  5
3AE3
  8
L1
 10
-62.873772386241058
 20
64.739585002002684
 30
0.0
  0
VERTEX
  5
3AE4
  8
L1
 10
-62.218787602445332
 20
64.941714390114555
 30
0.0
  0
VERTEX
  5
3AE5
  8
L1
 10
-61.557000000000023
 20
65.01208843777431
 30
0.0
  0
SEQEND
  5
3AE6
  8
L1
  0
ARC
  5
310D
  8
L1
 10
-61.557000000000023
 20
61.55700000000013
 30
0.0
 40
2.7360241002247041
 50
90.0
 51
180.0
  0
POLYLINE
  5
310E
  8
L1
 66
     1
 10
0.0
 20
0.0
 30
0.0
  0
VERTEX
  5
3AE7
  8
L1
 10
-59.26321417293525
 20
61.883099641752317
 30
0.0
  0
VERTEX
  5
3AE8
  8
L1
 10
-59.37670676229515
 20
61.901529179287927
 30
0.0
  0
SEQEND
  5
3AE9
  8
L1
  0
POLYLINE
  5
310F
  8
L1
 66
     1
 10
0.0
 20
0.0
 30
0.0
  0
VERTEX
  5
3AEA
  8
L1
 10
-59.035746534405
 20
61.65930218969163
 30
0.0
  0
VERTEX
  5
3AEB
  8
L1
 10
-59.124081047125628
 20
61.747342135619078
 30
0.0
  0
VERTEX
  5
3AEC
  8
L1
 10
-59.19758740517193
 20
61.820028179014848
 30
0.0
  0
VERTEX
  5
3AED
  8
L1
 10
-59.245965950157817
 20
61.867206662008073
 30
0.0
  0
VERTEX
  5
3AEE
  8
L1
 10
-59.263214172935143
 20
61.88309964175243
 30
0.0
  0
SEQEND
  5
3AEF
  8
L1
  0
LINE
  5
3110
  8
L1
 10
-59.376706762295051
 20
61.901529179287991
 30
0.0
 11
-60.724120848982011
 21
63.248943265974901
 31
0.0
  0
LINE
  5
3111
  8
L1
 10
-60.510496635354571
 20
63.035319052347461
 30
0.0
 11
-60.64999999999997
 21
63.035319052347397
 31
0.0
  0
LINE
  5
3112
  8
L1
 10
-49.949358107518719
 20
48.508163384265963
 30
0.0
 11
-50.738388551548383
 21
49.170238538838873
 31
0.0
  0
LINE
  5
3113
  8
L1
 10
-49.961947952636137
 20
48.79669516924173
 30
0.0
 11
-51.066087514093049
 21
49.723178268028448
 31
0.0
  0
LINE
  5
3114
  8
L1
 10
-48.814375794571561
 20
49.556995055327029
 30
0.0
 11
-49.556995055326858
 21
48.814375794571788
 31
0.0
  0
LINE
  5
3115
  8
L1
 10
-48.525844682845438
 20
49.54438979025695
 30
0.0
 11
-49.54438979025678
 21
48.525844682845673
 31
0.0
  0
ARC
  5
3116
  8
L1
 10
-52.711063513711792
 20
52.711063513712013
 30
0.0
 40
5.3999999999999986
 50
270.0
 51
0.0000000000016284
  0
POLYLINE
  5
3117
  8
L1
 66
     1
 10
0.0
 20
0.0
 30
0.0
  0
VERTEX
  5
3AF0
  8
L1
 10
-49.556995055326979
 20
48.814375794571788
 30
0.0
  0
VERTEX
  5
3AF1
  8
L1
 10
-49.756033631138962
 20
48.726795248333929
 30
0.0
  0
VERTEX
  5
3AF2
  8
L1
 10
-49.961947952636137
 20
48.79669516924173
 30
0.0
  0
SEQEND
  5
3AF3
  8
L1
  0
ARC
  5
3118
  8
L1
 10
-49.756521824612719
 20
48.737976717201661
 30
0.0
 40
0.3
 50
229.99999999999929
 51
315.0
  0
POLYLINE
  5
3119
  8
L1
 66
     1
 10
0.0
 20
0.0
 30
0.0
  0
VERTEX
  5
3AF4
  8
L1
 10
-47.311063197456058
 20
61.311474337029722
 30
0.0
  0
VERTEX
  5
3AF5
  8
L1
 10
-47.223110731772749
 20
61.523110731772931
 30
0.0
  0
VERTEX
  5
3AF6
  8
L1
 10
-47.01147433702954
 20
61.61106319745619
 30
0.0
  0
SEQEND
  5
3AF7
  8
L1
  0
ARC
  5
311A
  8
L1
 10
-47.149999999999977
 20
60.250000000000107
 30
0.0
 40
3.2000000000000282
 50
129.51794668407271
 51
180.0
  0
ARC
  5
311B
  8
L1
 10
-47.149999999999977
 20
60.250000000000107
 30
0.0
 40
2.2000000000000619
 50
90.0
 51
180.0
  0
LINE
  5
311C
  8
L1
 10
-47.950000000000038
 20
56.750000000000107
 30
0.0
 11
-47.950000000000038
 21
61.950102802507452
 31
0.0
  0
LINE
  5
311D
  8
L1
 10
-53.447575903962047
 20
62.619202064108428
 30
0.0
 11
-50.69141597134535
 21
59.863042131491788
 31
0.0
  0
LINE
  5
311E
  8
L1
 10
-47.311063513711808
 20
52.711063513712013
 30
0.0
 11
-47.311063513711808
 21
56.750000000000171
 31
0.0
  0
ARC
  5
311F
  8
L1
 10
-56.75
 20
56.750000000000171
 30
0.0
 40
8.8000000000000007
 50
322.88513754492737
 51
0.0
  0
ARC
  5
3120
  8
L1
 10
-56.75
 20
56.750000000000171
 30
0.0
 40
9.4389364862881635
 50
323.31070994755629
 51
0.0
  0
POLYLINE
  5
3121
  8
L1
 66
     1
 10
0.0
 20
0.0
 30
0.0
  0
VERTEX
  5
3AF8
  8
L1
 10
-51.439949234256567
 20
49.732638610900501
 30
0.0
  0
VERTEX
  5
3AF9
  8
L1
 10
-51.379236183845819
 20
49.768225715399304
 30
0.0
  0
VERTEX
  5
3AFA
  8
L1
 10
-51.301831308674757
 20
49.790313818739037
 30
0.0
  0
VERTEX
  5
3AFB
  8
L1
 10
-51.228206690632078
 20
49.791809597496751
 30
0.0
  0
VERTEX
  5
3AFC
  8
L1
 10
-51.149713592345051
 20
49.772789027529541
 30
0.0
  0
VERTEX
  5
3AFD
  8
L1
 10
-51.066087514093049
 20
49.723178268028448
 30
0.0
  0
SEQEND
  5
3AFE
  8
L1
  0
POLYLINE
  5
3122
  8
L1
 66
     1
 10
0.0
 20
0.0
 30
0.0
  0
VERTEX
  5
3AFF
  8
L1
 10
-50.738388551548383
 20
49.17023853883893
 30
0.0
  0
VERTEX
  5
3B00
  8
L1
 10
-50.740114986458373
 20
49.171676214359309
 30
0.0
  0
VERTEX
  5
3B01
  8
L1
 10
-50.829096643909672
 20
49.222515936563809
 30
0.0
  0
VERTEX
  5
3B02
  8
L1
 10
-50.904906570862629
 20
49.239290622920521
 30
0.0
  0
VERTEX
  5
3B03
  8
L1
 10
-50.976091252715378
 20
49.237084613486452
 30
0.0
  0
VERTEX
  5
3B04
  8
L1
 10
-51.051522375905961
 20
49.215292371792891
 30
0.0
  0
VERTEX
  5
3B05
  8
L1
 10
-51.110468916369882
 20
49.181036322656261
 30
0.0
  0
SEQEND
  5
3B06
  8
L1
  0
POLYLINE
  5
3123
  8
L1
 66
     1
 10
0.0
 20
0.0
 30
0.0
  0
VERTEX
  5
3B07
  8
L1
 10
-49.181036322656162
 20
51.110468916369989
 30
0.0
  0
VERTEX
  5
3B08
  8
L1
 10
-49.221532253349658
 20
51.036114976060333
 30
0.0
  0
VERTEX
  5
3B09
  8
L1
 10
-49.240236551743692
 20
50.919916266391219
 30
0.0
  0
VERTEX
  5
3B0A
  8
L1
 10
-49.21497510694644
 20
50.810286871908318
 30
0.0
  0
VERTEX
  5
3B0B
  8
L1
 10
-49.170238538838703
 20
50.738388551548503
 30
0.0
  0
SEQEND
  5
3B0C
  8
L1
  0
POLYLINE
  5
3124
  8
L1
 66
     1
 10
0.0
 20
0.0
 30
0.0
  0
VERTEX
  5
3B0D
  8
L1
 10
-49.723178268028278
 20
51.066087514093169
 30
0.0
  0
VERTEX
  5
3B0E
  8
L1
 10
-49.730113646120799
 20
51.074668220649073
 30
0.0
  0
VERTEX
  5
3B0F
  8
L1
 10
-49.780604914290507
 20
51.172320771318986
 30
0.0
  0
VERTEX
  5
3B10
  8
L1
 10
-49.792176433550928
 20
51.285943643077928
 30
0.0
  0
VERTEX
  5
3B11
  8
L1
 10
-49.758682176200182
 20
51.399032129046873
 30
0.0
  0
VERTEX
  5
3B12
  8
L1
 10
-49.732638610900267
 20
51.439949234256687
 30
0.0
  0
SEQEND
  5
3B13
  8
L1
  0
POLYLINE
  5
3125
  8
L1
 66
     1
 10
0.0
 20
0.0
 30
0.0
  0
VERTEX
  5
3B14
  8
L1
 10
-48.796695169241502
 20
49.961947952636301
 30
0.0
  0
VERTEX
  5
3B15
  8
L1
 10
-48.726795248333701
 20
49.756033631139083
 30
0.0
  0
VERTEX
  5
3B16
  8
L1
 10
-48.814375794571561
 20
49.556995055327029
 30
0.0
  0
SEQEND
  5
3B17
  8
L1
  0
LINE
  5
3126
  8
L1
 10
-49.723178268028278
 20
51.066087514093169
 30
0.0
 11
-48.796695169241502
 21
49.961947952636251
 31
0.0
  0
ARC
  5
3127
  8
L1
 10
-48.737976717201491
 20
49.756521824612953
 30
0.0
 40
0.3
 50
315.0
 51
40.000000000000092
  0
LINE
  5
3128
  8
L1
 10
-49.170238538838703
 20
50.738388551548503
 30
0.0
 11
-48.508163384265799
 21
49.94935810751889
 31
0.0
  0
POLYLINE
  5
3129
  8
L1
 66
     1
 10
0.0
 20
0.0
 30
0.0
  0
VERTEX
  5
3B18
  8
L1
 10
-50.350000000000023
 20
60.004479642814879
 30
0.0
  0
VERTEX
  5
3B19
  8
L1
 10
-50.383705019846502
 20
59.89335871737125
 30
0.0
  0
VERTEX
  5
3B1A
  8
L1
 10
-50.473459795757663
 20
59.81969112190199
 30
0.0
  0
VERTEX
  5
3B1B
  8
L1
 10
-50.589012462699202
 20
59.808306534080657
 30
0.0
  0
VERTEX
  5
3B1C
  8
L1
 10
-50.69141597134535
 20
59.863042131491788
 30
0.0
  0
SEQEND
  5
3B1D
  8
L1
  0
POLYLINE
  5
312A
  8
L1
 66
     1
 10
0.0
 20
0.0
 30
0.0
  0
VERTEX
  5
3B1E
  8
L1
 10
-47.311063197456058
 20
61.311474337029843
 30
0.0
  0
VERTEX
  5
3B1F
  8
L1
 10
-47.311063434647849
 20
61.311320366176851
 30
0.0
  0
VERTEX
  5
3B20
  8
L1
 10
-47.311063513711808
 20
61.311166316219321
 30
0.0
  0
SEQEND
  5
3B21
  8
L1
  0
LINE
  5
312B
  8
L1
 10
-50.349999999999909
 20
56.750000000000107
 30
0.0
 11
-50.349999999999909
 21
59.550000000000011
 31
0.0
  0
LINE
  5
312C
  8
L1
 10
-50.349999999999909
 20
59.550000000000068
 30
0.0
 11
-50.349999999999909
 21
60.250000000000107
 31
0.0
  0
LINE
  5
312D
  8
L1
 10
-47.311063513711808
 20
61.311166316219321
 30
0.0
 11
-47.311063513711808
 21
56.750000000000107
 31
0.0
  0
LINE
  5
312E
  8
L1
 10
-49.350000000000023
 20
60.250000000000107
 30
0.0
 11
-49.350000000000023
 21
56.750000000000107
 31
0.0
  0
POLYLINE
  5
312F
  8
L1
 66
     1
 10
0.0
 20
0.0
 30
0.0
  0
VERTEX
  5
3B22
  8
L1
 10
-53.241717347154243
 20
63.133909811786559
 30
0.0
  0
VERTEX
  5
3B23
  8
L1
 10
-53.448519035107331
 20
63.045125652204092
 30
0.0
  0
VERTEX
  5
3B24
  8
L1
 10
-53.535452416031262
 20
62.833921234867383
 30
0.0
  0
SEQEND
  5
3B25
  8
L1
  0
POLYLINE
  5
3130
  8
L1
 66
     1
 10
0.0
 20
0.0
 30
0.0
  0
VERTEX
  5
3B26
  8
L1
 10
-53.447575903962047
 20
62.619202064108428
 30
0.0
  0
VERTEX
  5
3B27
  8
L1
 10
-53.513110116762839
 20
62.717729786776538
 30
0.0
  0
VERTEX
  5
3B28
  8
L1
 10
-53.535452416031369
 20
62.833921234867383
 30
0.0
  0
SEQEND
  5
3B29
  8
L1
  0
POLYLINE
  5
3131
  8
L1
 66
     1
 10
0.0
 20
0.0
 30
0.0
  0
VERTEX
  5
3B2A
  8
L1
 10
-47.950000000000038
 20
61.950102802507452
 30
0.0
  0
VERTEX
  5
3B2B
  8
L1
 10
-47.862174606235719
 20
62.162174606235787
 30
0.0
  0
VERTEX
  5
3B2C
  8
L1
 10
-47.650102802507369
 20
62.250000000000121
 30
0.0
  0
SEQEND
  5
3B2D
  8
L1
  0
POLYLINE
  5
3132
  8
L1
 66
     1
 10
0.0
 20
0.0
 30
0.0
  0
VERTEX
  5
3B2E
  8
L1
 10
-49.377091896450331
 20
63.250000000000107
 30
0.0
  0
VERTEX
  5
3B2F
  8
L1
 10
-49.329326939881298
 20
63.246173334727132
 30
0.0
  0
VERTEX
  5
3B30
  8
L1
 10
-49.248597032242742
 20
63.221089717646748
 30
0.0
  0
VERTEX
  5
3B31
  8
L1
 10
-49.156156936080599
 20
63.152947646735747
 30
0.0
  0
VERTEX
  5
3B32
  8
L1
 10
-49.098202734683021
 20
63.06053591916811
 30
0.0
  0
VERTEX
  5
3B33
  8
L1
 10
-49.077103407217457
 20
62.949414895275083
 30
0.0
  0
VERTEX
  5
3B34
  8
L1
 10
-49.100632485334927
 20
62.833547508367303
 30
0.0
  0
VERTEX
  5
3B35
  8
L1
 10
-49.16256111542998
 20
62.740310602227282
 30
0.0
  0
VERTEX
  5
3B36
  8
L1
 10
-49.186223628979739
 20
62.718560984214321
 30
0.0
  0
SEQEND
  5
3B37
  8
L1
  0
POLYLINE
  5
3133
  8
L1
 66
     1
 10
0.0
 20
0.0
 30
0.0
  0
VERTEX
  5
3B38
  8
L1
 10
-47.011166316219139
 20
61.61106351371199
 30
0.0
  0
VERTEX
  5
3B39
  8
L1
 10
-47.011320366176733
 20
61.611063434648081
 30
0.0
  0
VERTEX
  5
3B3A
  8
L1
 10
-47.011474337029647
 20
61.611063197456239
 30
0.0
  0
SEQEND
  5
3B3B
  8
L1
  0
ARC
  5
3134
  8
L1
 10
-47.149999999999977
 20
60.250000000000107
 30
0.0
 40
3.2000000000000282
 50
90.0
 51
129.51794668407271
  0
ARC
  5
3135
  8
L1
 10
60.25
 20
47.150000000000141
 30
0.0
 40
3.2000000000000282
 50
0.0
 51
39.517946684073252
  0
LINE
  5
3136
  8
L1
 10
49.949358107518719
 20
48.508163384265963
 30
0.0
 11
50.738388551548383
 21
49.170238538838873
 31
0.0
  0
ARC
  5
3137
  8
L1
 10
56.75
 20
56.750000000000171
 30
0.0
 40
9.4389364862881635
 50
233.31070994755689
 51
270.0
  0
LINE
  5
3138
  8
L1
 10
48.525844682845438
 20
49.54438979025695
 30
0.0
 11
49.54438979025678
 21
48.525844682845673
 31
0.0
  0
LINE
  5
3139
  8
L1
 10
48.814375794571561
 20
49.556995055327029
 30
0.0
 11
49.556995055326858
 21
48.814375794571788
 31
0.0
  0
LINE
  5
313A
  8
L1
 10
49.961947952636137
 20
48.79669516924173
 30
0.0
 11
51.066087514093049
 21
49.723178268028448
 31
0.0
  0
ARC
  5
313B
  8
L1
 10
56.75
 20
56.750000000000171
 30
0.0
 40
6.3999999999999941
 50
180.0
 51
270.0
  0
ARC
  5
313C
  8
L1
 10
60.25
 20
47.150000000000141
 30
0.0
 40
2.2000000000000619
 50
0.0
 51
90.0
  0
ARC
  5
313D
  8
L1
 10
56.75
 20
56.750000000000171
 30
0.0
 40
7.3999999999999604
 50
180.0
 51
270.0
  0
ARC
  5
313E
  8
L1
 10
52.711063513711792
 20
52.711063513712013
 30
0.0
 40
5.3999999999999986
 50
179.99999999999829
 51
270.0
  0
ARC
  5
313F
  8
L1
 10
56.75
 20
56.750000000000171
 30
0.0
 40
8.8000000000000007
 50
232.88513754492681
 51
270.0
  0
LINE
  5
3140
  8
L1
 10
56.75
 20
47.311063513711979
 30
0.0
 11
61.311166316219207
 21
47.311063513711979
 31
0.0
  0
LINE
  5
3141
  8
L1
 10
61.950102802507331
 20
47.950000000000152
 30
0.0
 11
56.75
 21
47.950000000000152
 31
0.0
  0
LINE
  5
3142
  8
L1
 10
56.75
 20
47.311063513711979
 30
0.0
 11
52.711063513711792
 21
47.311063513711979
 31
0.0
  0
POLYLINE
  5
3143
  8
L1
 66
     1
 10
0.0
 20
0.0
 30
0.0
  0
VERTEX
  5
3B3C
  8
L1
 10
49.556995055326979
 20
48.814375794571788
 30
0.0
  0
VERTEX
  5
3B3D
  8
L1
 10
49.756033631138962
 20
48.726795248333929
 30
0.0
  0
VERTEX
  5
3B3E
  8
L1
 10
49.961947952636137
 20
48.79669516924173
 30
0.0
  0
SEQEND
  5
3B3F
  8
L1
  0
ARC
  5
3144
  8
L1
 10
49.756521824612719
 20
48.737976717201661
 30
0.0
 40
0.3
 50
225.0
 51
310.00000000000068
  0
POLYLINE
  5
3145
  8
L1
 66
     1
 10
0.0
 20
0.0
 30
0.0
  0
VERTEX
  5
3B40
  8
L1
 10
62.25
 20
47.65010280250749
 30
0.0
  0
VERTEX
  5
3B41
  8
L1
 10
62.162174606235787
 20
47.86217460623584
 30
0.0
  0
VERTEX
  5
3B42
  8
L1
 10
61.950102802507331
 20
47.950000000000152
 30
0.0
  0
SEQEND
  5
3B43
  8
L1
  0
POLYLINE
  5
3146
  8
L1
 66
     1
 10
0.0
 20
0.0
 30
0.0
  0
VERTEX
  5
3B44
  8
L1
 10
61.611063197456133
 20
47.011474337029938
 30
0.0
  0
VERTEX
  5
3B45
  8
L1
 10
61.61106343464791
 20
47.011320366176903
 30
0.0
  0
VERTEX
  5
3B46
  8
L1
 10
61.61106351371177
 20
47.011166316219366
 30
0.0
  0
SEQEND
  5
3B47
  8
L1
  0
POLYLINE
  5
3147
  8
L1
 66
     1
 10
0.0
 20
0.0
 30
0.0
  0
VERTEX
  5
3B48
  8
L1
 10
61.611063197455913
 20
47.011474337029647
 30
0.0
  0
VERTEX
  5
3B49
  8
L1
 10
61.52311073177259
 20
47.223110731772863
 30
0.0
  0
VERTEX
  5
3B4A
  8
L1
 10
61.311474337029381
 20
47.311063197456122
 30
0.0
  0
SEQEND
  5
3B4B
  8
L1
  0
POLYLINE
  5
3148
  8
L1
 66
     1
 10
0.0
 20
0.0
 30
0.0
  0
VERTEX
  5
3B4C
  8
L1
 10
61.311166316219101
 20
47.311063513711929
 30
0.0
  0
VERTEX
  5
3B4D
  8
L1
 10
61.31132036617668
 20
47.311063434648013
 30
0.0
  0
VERTEX
  5
3B4E
  8
L1
 10
61.311474337029487
 20
47.311063197456178
 30
0.0
  0
SEQEND
  5
3B4F
  8
L1
  0
ARC
  5
3149
  8
L1
 10
56.75
 20
56.750000000000171
 30
0.0
 40
9.4389364862881635
 50
180.0
 51
216.6892900524436
  0
LINE
  5
314A
  8
L1
 10
49.170238538838703
 20
50.738388551548503
 30
0.0
 11
48.508163384265799
 21
49.94935810751889
 31
0.0
  0
ARC
  5
314B
  8
L1
 10
56.75
 20
56.750000000000171
 30
0.0
 40
8.8000000000000007
 50
180.0
 51
217.1148624550724
  0
LINE
  5
314C
  8
L1
 10
49.723178268028278
 20
51.066087514093169
 30
0.0
 11
48.796695169241502
 21
49.961947952636251
 31
0.0
  0
ARC
  5
314D
  8
L1
 10
47.149999999999977
 20
60.250000000000107
 30
0.0
 40
3.2000000000000282
 50
50.48205331592726
 51
90.0
  0
ARC
  5
314E
  8
L1
 10
47.149999999999977
 20
60.250000000000107
 30
0.0
 40
2.2000000000000619
 50
0.0
 51
90.0
  0
POLYLINE
  5
314F
  8
L1
 66
     1
 10
0.0
 20
0.0
 30
0.0
  0
VERTEX
  5
3B50
  8
L1
 10
47.311063197456058
 20
61.311474337029722
 30
0.0
  0
VERTEX
  5
3B51
  8
L1
 10
47.223110731772749
 20
61.523110731772931
 30
0.0
  0
VERTEX
  5
3B52
  8
L1
 10
47.01147433702954
 20
61.61106319745619
 30
0.0
  0
SEQEND
  5
3B53
  8
L1
  0
LINE
  5
3150
  8
L1
 10
47.950000000000038
 20
56.750000000000107
 30
0.0
 11
47.950000000000038
 21
61.950102802507452
 31
0.0
  0
LINE
  5
3151
  8
L1
 10
47.311063513711808
 20
52.711063513712013
 30
0.0
 11
47.311063513711808
 21
56.750000000000171
 31
0.0
  0
POLYLINE
  5
3152
  8
L1
 66
     1
 10
0.0
 20
0.0
 30
0.0
  0
VERTEX
  5
3B54
  8
L1
 10
48.796695169241502
 20
49.961947952636301
 30
0.0
  0
VERTEX
  5
3B55
  8
L1
 10
48.726795248333701
 20
49.756033631139083
 30
0.0
  0
VERTEX
  5
3B56
  8
L1
 10
48.814375794571561
 20
49.556995055327029
 30
0.0
  0
SEQEND
  5
3B57
  8
L1
  0
ARC
  5
3153
  8
L1
 10
48.737976717201491
 20
49.756521824612953
 30
0.0
 40
0.3
 50
139.9999999999998
 51
225.0
  0
POLYLINE
  5
3154
  8
L1
 66
     1
 10
0.0
 20
0.0
 30
0.0
  0
VERTEX
  5
3B58
  8
L1
 10
47.311063197456058
 20
61.311474337029843
 30
0.0
  0
VERTEX
  5
3B59
  8
L1
 10
47.311063434647849
 20
61.311320366176851
 30
0.0
  0
VERTEX
  5
3B5A
  8
L1
 10
47.311063513711808
 20
61.311166316219321
 30
0.0
  0
SEQEND
  5
3B5B
  8
L1
  0
LINE
  5
3155
  8
L1
 10
47.311063513711808
 20
61.311166316219321
 30
0.0
 11
47.311063513711808
 21
56.750000000000107
 31
0.0
  0
POLYLINE
  5
3156
  8
L1
 66
     1
 10
0.0
 20
0.0
 30
0.0
  0
VERTEX
  5
3B5C
  8
L1
 10
47.950000000000038
 20
61.950102802507452
 30
0.0
  0
VERTEX
  5
3B5D
  8
L1
 10
47.862174606235719
 20
62.162174606235787
 30
0.0
  0
VERTEX
  5
3B5E
  8
L1
 10
47.650102802507369
 20
62.250000000000121
 30
0.0
  0
SEQEND
  5
3B5F
  8
L1
  0
POLYLINE
  5
3157
  8
L1
 66
     1
 10
0.0
 20
0.0
 30
0.0
  0
VERTEX
  5
3B60
  8
L1
 10
47.011166316219139
 20
61.61106351371199
 30
0.0
  0
VERTEX
  5
3B61
  8
L1
 10
47.011320366176733
 20
61.611063434648081
 30
0.0
  0
VERTEX
  5
3B62
  8
L1
 10
47.011474337029647
 20
61.611063197456239
 30
0.0
  0
SEQEND
  5
3B63
  8
L1
  0
LINE
  5
3158
  8
L1
 10
58.687208996504751
 20
61.31076465179148
 30
0.0
 11
59.035746534405
 21
61.65930218969163
 31
0.0
  0
ARC
  5
3159
  8
L1
 10
56.75
 20
56.750000000000171
 30
0.0
 40
4.9551339946734032
 50
66.986383927608088
 51
92.531261793291065
  0
ARC
  5
315A
  8
L1
 10
47.149999999999977
 20
60.250000000000107
 30
0.0
 40
3.2000000000000282
 50
0.0
 51
50.48205331592726
  0
ARC
  5
315B
  8
L1
 10
60.64999999999997
 20
60.650000000000148
 30
0.0
 40
2.6000000000000001
 50
0.0
 51
90.0
  0
LINE
  5
315C
  8
L1
 10
53.447575903962047
 20
62.619202064108428
 30
0.0
 11
50.69141597134535
 21
59.863042131491788
 31
0.0
  0
LINE
  5
315D
  8
L1
 10
51.799700862313209
 20
56.968840929871469
 30
0.0
 11
56.531159070128638
 21
61.700299137686898
 31
0.0
  0
ARC
  5
315E
  8
L1
 10
60.64999999999997
 20
60.650000000000091
 30
0.0
 40
2.3853190523473331
 50
0.0000000000016284
 51
90.0
  0
ARC
  5
315F
  8
L1
 10
56.75
 20
56.750000000000171
 30
0.0
 40
5.7825462644184809
 50
27.01652280963927
 51
62.983477190359999
  0
LINE
  5
3160
  8
L1
 10
56.75
 20
49.3500000000002
 30
0.0
 11
60.25
 21
49.3500000000002
 31
0.0
  0
LINE
  5
3161
  8
L1
 10
59.549999999999947
 20
50.350000000000144
 30
0.0
 11
56.75
 21
50.350000000000144
 31
0.0
  0
LINE
  5
3162
  8
L1
 10
61.70029913768667
 20
56.531159070128751
 30
0.0
 11
56.968840929871362
 21
51.799700862313557
 31
0.0
  0
ARC
  5
3163
  8
L1
 10
56.75
 20
56.750000000000171
 30
0.0
 40
4.9551339946734032
 50
177.4687382067072
 51
272.53126179329257
  0
POLYLINE
  5
3164
  8
L1
 66
     1
 10
0.0
 20
0.0
 30
0.0
  0
VERTEX
  5
3B64
  8
L1
 10
51.439949234256567
 20
49.732638610900501
 30
0.0
  0
VERTEX
  5
3B65
  8
L1
 10
51.379236183845819
 20
49.768225715399304
 30
0.0
  0
VERTEX
  5
3B66
  8
L1
 10
51.301831308674757
 20
49.790313818739037
 30
0.0
  0
VERTEX
  5
3B67
  8
L1
 10
51.228206690632078
 20
49.791809597496751
 30
0.0
  0
VERTEX
  5
3B68
  8
L1
 10
51.149713592345051
 20
49.772789027529541
 30
0.0
  0
VERTEX
  5
3B69
  8
L1
 10
51.066087514093049
 20
49.723178268028448
 30
0.0
  0
SEQEND
  5
3B6A
  8
L1
  0
POLYLINE
  5
3165
  8
L1
 66
     1
 10
0.0
 20
0.0
 30
0.0
  0
VERTEX
  5
3B6B
  8
L1
 10
49.723178268028278
 20
51.066087514093169
 30
0.0
  0
VERTEX
  5
3B6C
  8
L1
 10
49.730113646120799
 20
51.074668220649073
 30
0.0
  0
VERTEX
  5
3B6D
  8
L1
 10
49.780604914290507
 20
51.172320771318986
 30
0.0
  0
VERTEX
  5
3B6E
  8
L1
 10
49.792176433550928
 20
51.285943643077928
 30
0.0
  0
VERTEX
  5
3B6F
  8
L1
 10
49.758682176200182
 20
51.399032129046873
 30
0.0
  0
VERTEX
  5
3B70
  8
L1
 10
49.732638610900267
 20
51.439949234256687
 30
0.0
  0
SEQEND
  5
3B71
  8
L1
  0
POLYLINE
  5
3166
  8
L1
 66
     1
 10
0.0
 20
0.0
 30
0.0
  0
VERTEX
  5
3B72
  8
L1
 10
49.181036322656162
 20
51.110468916369989
 30
0.0
  0
VERTEX
  5
3B73
  8
L1
 10
49.221532253349658
 20
51.036114976060333
 30
0.0
  0
VERTEX
  5
3B74
  8
L1
 10
49.240236551743692
 20
50.919916266391219
 30
0.0
  0
VERTEX
  5
3B75
  8
L1
 10
49.21497510694644
 20
50.810286871908318
 30
0.0
  0
VERTEX
  5
3B76
  8
L1
 10
49.170238538838703
 20
50.738388551548503
 30
0.0
  0
SEQEND
  5
3B77
  8
L1
  0
POLYLINE
  5
3167
  8
L1
 66
     1
 10
0.0
 20
0.0
 30
0.0
  0
VERTEX
  5
3B78
  8
L1
 10
50.738388551548383
 20
49.17023853883893
 30
0.0
  0
VERTEX
  5
3B79
  8
L1
 10
50.740114986458373
 20
49.171676214359309
 30
0.0
  0
VERTEX
  5
3B7A
  8
L1
 10
50.829096643909672
 20
49.222515936563809
 30
0.0
  0
VERTEX
  5
3B7B
  8
L1
 10
50.904906570862629
 20
49.239290622920521
 30
0.0
  0
VERTEX
  5
3B7C
  8
L1
 10
50.976091252715378
 20
49.237084613486452
 30
0.0
  0
VERTEX
  5
3B7D
  8
L1
 10
51.051522375905961
 20
49.215292371792891
 30
0.0
  0
VERTEX
  5
3B7E
  8
L1
 10
51.110468916369882
 20
49.181036322656261
 30
0.0
  0
SEQEND
  5
3B7F
  8
L1
  0
POLYLINE
  5
3168
  8
L1
 66
     1
 10
0.0
 20
0.0
 30
0.0
  0
VERTEX
  5
3B80
  8
L1
 10
50.350000000000023
 20
60.004479642814879
 30
0.0
  0
VERTEX
  5
3B81
  8
L1
 10
50.383705019846502
 20
59.89335871737125
 30
0.0
  0
VERTEX
  5
3B82
  8
L1
 10
50.473459795757663
 20
59.81969112190199
 30
0.0
  0
VERTEX
  5
3B83
  8
L1
 10
50.589012462699202
 20
59.808306534080657
 30
0.0
  0
VERTEX
  5
3B84
  8
L1
 10
50.69141597134535
 20
59.863042131491788
 30
0.0
  0
SEQEND
  5
3B85
  8
L1
  0
LINE
  5
3169
  8
L1
 10
49.350000000000023
 20
60.250000000000107
 30
0.0
 11
49.350000000000023
 21
56.750000000000107
 31
0.0
  0
LINE
  5
316A
  8
L1
 10
50.349999999999909
 20
59.550000000000068
 30
0.0
 11
50.349999999999909
 21
60.250000000000107
 31
0.0
  0
LINE
  5
316B
  8
L1
 10
50.349999999999909
 20
56.750000000000107
 30
0.0
 11
50.349999999999909
 21
59.550000000000011
 31
0.0
  0
LINE
  5
316C
  8
L1
 10
63.25
 20
49.377091896450231
 30
0.0
 11
63.25
 21
60.650000000000198
 31
0.0
  0
POLYLINE
  5
316D
  8
L1
 66
     1
 10
0.0
 20
0.0
 30
0.0
  0
VERTEX
  5
3B86
  8
L1
 10
62.833921234867198
 20
53.53545241603149
 30
0.0
  0
VERTEX
  5
3B87
  8
L1
 10
63.045125652203978
 20
53.448519035107552
 30
0.0
  0
VERTEX
  5
3B88
  8
L1
 10
63.133909811786452
 20
53.241717347154342
 30
0.0
  0
SEQEND
  5
3B89
  8
L1
  0
POLYLINE
  5
316E
  8
L1
 66
     1
 10
0.0
 20
0.0
 30
0.0
  0
VERTEX
  5
3B8A
  8
L1
 10
62.833921234867198
 20
53.53545241603149
 30
0.0
  0
VERTEX
  5
3B8B
  8
L1
 10
62.717729786776431
 20
53.513110116762959
 30
0.0
  0
VERTEX
  5
3B8C
  8
L1
 10
62.619202064108322
 20
53.447575903962267
 30
0.0
  0
SEQEND
  5
3B8D
  8
L1
  0
POLYLINE
  5
316F
  8
L1
 66
     1
 10
0.0
 20
0.0
 30
0.0
  0
VERTEX
  5
3B8E
  8
L1
 10
59.863042131491511
 20
50.69141597134557
 30
0.0
  0
VERTEX
  5
3B8F
  8
L1
 10
59.809747036442673
 20
50.595661658921578
 30
0.0
  0
VERTEX
  5
3B90
  8
L1
 10
59.814914676135118
 20
50.486198777074549
 30
0.0
  0
VERTEX
  5
3B91
  8
L1
 10
59.876993618817551
 20
50.395890334956789
 30
0.0
  0
VERTEX
  5
3B92
  8
L1
 10
59.977346488722667
 20
50.351848784842268
 30
0.0
  0
SEQEND
  5
3B93
  8
L1
  0
POLYLINE
  5
3170
  8
L1
 66
     1
 10
0.0
 20
0.0
 30
0.0
  0
VERTEX
  5
3B94
  8
L1
 10
62.7185609842142
 20
49.18622362897991
 30
0.0
  0
VERTEX
  5
3B95
  8
L1
 10
62.728328363554283
 20
49.174964228796789
 30
0.0
  0
VERTEX
  5
3B96
  8
L1
 10
62.816397581964111
 20
49.108500430630038
 30
0.0
  0
VERTEX
  5
3B97
  8
L1
 10
62.894770114985299
 20
49.08223338030308
 30
0.0
  0
VERTEX
  5
3B98
  8
L1
 10
62.969342954089093
 20
49.077725977076398
 30
0.0
  0
VERTEX
  5
3B99
  8
L1
 10
63.046544182151479
 20
49.09305653899213
 30
0.0
  0
VERTEX
  5
3B9A
  8
L1
 10
63.134927642499292
 20
49.140868754507842
 30
0.0
  0
VERTEX
  5
3B9B
  8
L1
 10
63.211827010205177
 20
49.230643189593081
 30
0.0
  0
VERTEX
  5
3B9C
  8
L1
 10
63.247225979339639
 20
49.33638785496538
 30
0.0
  0
VERTEX
  5
3B9D
  8
L1
 10
63.25
 20
49.377091896450231
 30
0.0
  0
SEQEND
  5
3B9E
  8
L1
  0
LINE
  5
3171
  8
L1
 10
60.25
 20
50.350000000000144
 30
0.0
 11
59.549999999999947
 21
50.350000000000144
 31
0.0
  0
LINE
  5
3172
  8
L1
 10
59.863042131491511
 20
50.691415971345521
 30
0.0
 11
62.619202064108322
 21
53.447575903962267
 31
0.0
  0
ARC
  5
3173
  8
L1
 10
60.25
 20
47.150000000000141
 30
0.0
 40
3.2000000000000282
 50
39.517946684073252
 51
90.0
  0
POLYLINE
  5
3174
  8
L1
 66
     1
 10
0.0
 20
0.0
 30
0.0
  0
VERTEX
  5
3B9F
  8
L1
 10
61.901529179287763
 20
59.376706762295271
 30
0.0
  0
VERTEX
  5
3BA0
  8
L1
 10
61.883099641752317
 20
59.26321417293525
 30
0.0
  0
SEQEND
  5
3BA1
  8
L1
  0
POLYLINE
  5
3175
  8
L1
 66
     1
 10
0.0
 20
0.0
 30
0.0
  0
VERTEX
  5
3BA2
  8
L1
 10
61.88309964175221
 20
59.263214172935307
 30
0.0
  0
VERTEX
  5
3BA3
  8
L1
 10
61.867206662007902
 20
59.245965950157988
 30
0.0
  0
VERTEX
  5
3BA4
  8
L1
 10
61.820028179014678
 20
59.197587405172101
 30
0.0
  0
VERTEX
  5
3BA5
  8
L1
 10
61.747342135618972
 20
59.124081047125863
 30
0.0
  0
VERTEX
  5
3BA6
  8
L1
 10
61.659302189691509
 20
59.035746534405121
 30
0.0
  0
SEQEND
  5
3BA7
  8
L1
  0
ARC
  5
3176
  8
L1
 10
56.75
 20
56.750000000000171
 30
0.0
 40
4.9551339946734032
 50
357.4687382067072
 51
23.013616072390409
  0
LINE
  5
3177
  8
L1
 10
63.03531905234729
 20
60.650000000000198
 30
0.0
 11
63.035319052347241
 21
60.510496635354741
 31
0.0
  0
LINE
  5
3178
  8
L1
 10
61.659302189691509
 20
59.035746534405121
 30
0.0
 11
61.31076465179126
 21
58.687208996504921
 31
0.0
  0
LINE
  5
3179
  8
L1
 10
63.248943265974731
 20
60.724120848982238
 30
0.0
 11
61.901529179287763
 21
59.376706762295271
 31
0.0
  0
LINE
  5
317A
  8
L1
 10
59.376706762295051
 20
61.901529179287991
 30
0.0
 11
60.724120848982011
 21
63.248943265974901
 31
0.0
  0
LINE
  5
317B
  8
L1
 10
60.64999999999997
 20
63.250000000000107
 30
0.0
 11
49.377091896450331
 21
63.250000000000107
 31
0.0
  0
POLYLINE
  5
317C
  8
L1
 66
     1
 10
0.0
 20
0.0
 30
0.0
  0
VERTEX
  5
3BA8
  8
L1
 10
49.377091896450331
 20
63.250000000000107
 30
0.0
  0
VERTEX
  5
3BA9
  8
L1
 10
49.329326939881298
 20
63.246173334727132
 30
0.0
  0
VERTEX
  5
3BAA
  8
L1
 10
49.248597032242742
 20
63.221089717646748
 30
0.0
  0
VERTEX
  5
3BAB
  8
L1
 10
49.156156936080599
 20
63.152947646735747
 30
0.0
  0
VERTEX
  5
3BAC
  8
L1
 10
49.098202734683021
 20
63.06053591916811
 30
0.0
  0
VERTEX
  5
3BAD
  8
L1
 10
49.077103407217457
 20
62.949414895275083
 30
0.0
  0
VERTEX
  5
3BAE
  8
L1
 10
49.100632485334927
 20
62.833547508367303
 30
0.0
  0
VERTEX
  5
3BAF
  8
L1
 10
49.16256111542998
 20
62.740310602227282
 30
0.0
  0
VERTEX
  5
3BB0
  8
L1
 10
49.186223628979739
 20
62.718560984214321
 30
0.0
  0
SEQEND
  5
3BB1
  8
L1
  0
POLYLINE
  5
317D
  8
L1
 66
     1
 10
0.0
 20
0.0
 30
0.0
  0
VERTEX
  5
3BB2
  8
L1
 10
53.447575903962047
 20
62.619202064108428
 30
0.0
  0
VERTEX
  5
3BB3
  8
L1
 10
53.513110116762839
 20
62.717729786776538
 30
0.0
  0
VERTEX
  5
3BB4
  8
L1
 10
53.535452416031369
 20
62.833921234867383
 30
0.0
  0
SEQEND
  5
3BB5
  8
L1
  0
POLYLINE
  5
317E
  8
L1
 66
     1
 10
0.0
 20
0.0
 30
0.0
  0
VERTEX
  5
3BB6
  8
L1
 10
53.241717347154243
 20
63.133909811786559
 30
0.0
  0
VERTEX
  5
3BB7
  8
L1
 10
53.448519035107331
 20
63.045125652204092
 30
0.0
  0
VERTEX
  5
3BB8
  8
L1
 10
53.535452416031262
 20
62.833921234867383
 30
0.0
  0
SEQEND
  5
3BB9
  8
L1
  0
POLYLINE
  5
317F
  8
L1
 66
     1
 10
0.0
 20
0.0
 30
0.0
  0
VERTEX
  5
3BBA
  8
L1
 10
59.26321417293525
 20
61.883099641752317
 30
0.0
  0
VERTEX
  5
3BBB
  8
L1
 10
59.37670676229515
 20
61.901529179287927
 30
0.0
  0
SEQEND
  5
3BBC
  8
L1
  0
POLYLINE
  5
3180
  8
L1
 66
     1
 10
0.0
 20
0.0
 30
0.0
  0
VERTEX
  5
3BBD
  8
L1
 10
59.035746534405
 20
61.65930218969163
 30
0.0
  0
VERTEX
  5
3BBE
  8
L1
 10
59.124081047125628
 20
61.747342135619078
 30
0.0
  0
VERTEX
  5
3BBF
  8
L1
 10
59.19758740517193
 20
61.820028179014848
 30
0.0
  0
VERTEX
  5
3BC0
  8
L1
 10
59.245965950157817
 20
61.867206662008073
 30
0.0
  0
VERTEX
  5
3BC1
  8
L1
 10
59.263214172935143
 20
61.88309964175243
 30
0.0
  0
SEQEND
  5
3BC2
  8
L1
  0
POLYLINE
  5
3181
  8
L1
 66
     1
 10
0.0
 20
0.0
 30
0.0
  0
VERTEX
  5
3BC3
  8
L1
 10
65.012088437774196
 20
61.55700000000013
 30
0.0
  0
VERTEX
  5
3BC4
  8
L1
 10
64.941714390114484
 20
62.218787602445438
 30
0.0
  0
VERTEX
  5
3BC5
  8
L1
 10
64.73958500200257
 20
62.873772386241171
 30
0.0
  0
VERTEX
  5
3BC6
  8
L1
 10
64.413440750186226
 20
63.476619230896233
 30
0.0
  0
VERTEX
  5
3BC7
  8
L1
 10
63.989929119073743
 20
63.989929119073842
 30
0.0
  0
VERTEX
  5
3BC8
  8
L1
 10
63.476619230896169
 20
64.413440750186282
 30
0.0
  0
VERTEX
  5
3BC9
  8
L1
 10
62.873772386241058
 20
64.739585002002684
 30
0.0
  0
VERTEX
  5
3BCA
  8
L1
 10
62.218787602445332
 20
64.941714390114555
 30
0.0
  0
VERTEX
  5
3BCB
  8
L1
 10
61.557000000000023
 20
65.01208843777431
 30
0.0
  0
SEQEND
  5
3BCC
  8
L1
  0
ARC
  5
3182
  8
L1
 10
61.557000000000023
 20
61.55700000000013
 30
0.0
 40
2.7360241002247041
 50
0.0
 51
90.0
  0
POLYLINE
  5
3183
  8
L1
 66
     1
 10
0.0
 20
0.0
 30
0.0
  0
VERTEX
  5
3BCD
  8
L1
 10
61.557000000000023
 20
65.01208843777431
 30
0.0
  0
VERTEX
  5
3BCE
  8
L1
 10
61.537048032038342
 20
65.012250207189027
 30
0.0
  0
VERTEX
  5
3BCF
  8
L1
 10
61.51710075926826
 20
65.012304130909342
 30
0.0
  0
SEQEND
  5
3BD0
  8
L1
  0
LINE
  5
3184
  8
L1
 10
60.510496635354571
 20
63.035319052347461
 30
0.0
 11
60.64999999999997
 21
63.035319052347397
 31
0.0
  0
POLYLINE
  5
3185
  8
L1
 66
     1
 10
0.0
 20
0.0
 30
0.0
  0
VERTEX
  5
3BD1
  8
L1
 10
65.012304130909286
 20
61.517100759268367
 30
0.0
  0
VERTEX
  5
3BD2
  8
L1
 10
65.012250207188913
 20
61.537048032038399
 30
0.0
  0
VERTEX
  5
3BD3
  8
L1
 10
65.012088437774253
 20
61.55700000000013
 30
0.0
  0
SEQEND
  5
3BD4
  8
L1
  0
ENDBLK
  5
2A58
  8
0
  0
BLOCK
  8
0
  2
S1
 70
     0
 10
0.0
 20
0.0
 30
0.0
  3
S1
  1

  0
LINE
  5
318B
  8
L1
 10
80.472173143411226
 20
-62.950215693134993
 30
0.0
 11
80.472173143411197
 21
62.950215693134879
 31
0.0
  0
LINE
  5
318C
  8
L1
 10
79.401538684407399
 20
64.293024100224557
 30
0.0
 11
79.401538684407086
 21
-64.293024100224699
 31
0.0
  0
LINE
  5
318D
  8
L2
 10
5.0015386844070804
 20
43.267227699487513
 30
0.0
 11
5.0015386844071079
 21
-43.267227699487442
 31
0.0
  0
LINE
  5
318E
  8
L1
 10
52.801538684407063
 20
-63.466160157728069
 30
0.0
 11
52.801538684407028
 21
49.139792913343079
 31
0.0
  0
LINE
  5
318F
  8
L1
 10
2.8015386844070909
 20
-58.424107093193172
 30
0.0
 11
2.801538684407034
 21
44.454014550839929
 31
0.0
  0
LINE
  5
3190
  8
L1
 10
2.8015386844070629
 20
58.424107093193101
 30
0.0
 11
2.8015386844070629
 21
-44.454014550839979
 31
0.0
  0
LINE
  5
3191
  8
L1
 10
78.682258653722656
 20
-65.012304130909115
 30
0.0
 11
78.682258653722641
 21
65.012304130909342
 31
0.0
  0
LINE
  5
3192
  8
L1
 10
4.810465752244653
 20
60.541074510419151
 30
0.0
 11
4.8104657522446814
 21
-60.541074510419207
 31
0.0
  0
LINE
  5
3193
  8
L2
 10
3.3015386844070629
 20
45.012304130909222
 30
0.0
 11
3.3015386844071202
 21
-43.267227699487442
 31
0.0
  0
LINE
  5
3194
  8
L1
 10
4.8104657522446814
 20
-46.435121439348158
 30
0.0
 11
52.611790182520622
 21
-48.940282699527067
 31
0.0
  0
LINE
  5
3195
  8
L1
 10
4.8104657522446814
 20
-60.541074510419207
 30
0.0
 11
52.611790182520501
 21
-63.04623577059818
 31
0.0
  0
LINE
  5
3196
  8
L2
 10
6.4230347500426603
 20
-44.765172001619277
 30
0.0
 11
55.001538684407109
 21
-47.311063513711808
 31
0.0
  0
LINE
  5
3197
  8
L1
 10
2.8015386844070909
 20
-58.424107093193172
 30
0.0
 11
4.8104657522446814
 21
-60.541074510419207
 31
0.0
  0
LINE
  5
3198
  8
L1
 10
4.8104657522446814
 20
-44.437862369839017
 30
0.0
 11
4.8104657522446814
 21
-40.1952442727952
 31
0.0
  0
ARC
  5
3199
  8
L2
 10
6.5015386844071079
 20
-43.267227699487442
 30
0.0
 40
1.5
 50
180.0
 51
266.9999999999992
  0
LINE
  5
319A
  8
L1
 10
2.8015386844070909
 20
-44.318154022122108
 30
0.0
 11
4.8104657522446814
 21
-46.435121439348158
 31
0.0
  0
LINE
  5
319B
  8
L2
 10
2.8015386844071202
 20
-45.012304130909293
 30
0.0
 11
3.3015386844071202
 21
-45.012304130909392
 31
0.0
  0
LINE
  5
319C
  8
L1
 10
78.682258653722641
 20
-65.012304130909143
 30
0.0
 11
52.991071493158501
 21
-63.665886064678972
 31
0.0
  0
ARC
  5
319D
  8
L1
 10
52.601538684407039
 20
-63.245972981547339
 30
0.0
 40
0.2
 50
0.0000000000081422
 51
86.999999999999304
  0
ARC
  5
319E
  8
L1
 10
53.001538684407109
 20
-63.466160157728069
 30
0.0
 40
0.2
 50
180.0
 51
267.00000000000091
  0
ARC
  5
319F
  8
L1
 10
80.101322991271985
 20
-62.950215693134993
 30
0.0
 40
0.3708501521392529
 50
280.00000000000011
 51
0.0
  0
LINE
  5
31A0
  8
L1
 10
80.165720444378479
 20
-63.315431798167509
 30
0.0
 11
79.404512967836951
 21
-63.449653214198769
 31
0.0
  0
ARC
  5
31A1
  8
L2
 10
80.10132299127207
 20
-62.950215693134993
 30
0.0
 40
0.3708501521392529
 50
0.0
 51
79.999999999999801
  0
LINE
  5
31A2
  8
L1
 10
79.401538684407086
 20
-64.293024100224699
 30
0.0
 11
78.682258653722641
 21
-65.012304130909115
 31
0.0
  0
LINE
  5
31A3
  8
L2
 10
79.401322991272025
 20
-62.450215693134993
 30
0.0
 11
80.165720444378564
 21
-62.58499958810247
 31
0.0
  0
LINE
  5
31A4
  8
L2
 10
79.401538684407086
 20
-47.949999999999989
 30
0.0
 11
55.001538684407109
 21
-47.311063513711808
 31
0.0
  0
POLYLINE
  5
31A5
  8
L1
 66
     1
 10
0.0
 20
0.0
 30
0.0
  0
VERTEX
  5
3BD6
  8
L1
 10
52.801538684407063
 20
-49.111630797005184
 30
0.0
  0
VERTEX
  5
3BD7
  8
L1
 10
52.801538684407063
 20
-49.13274109790617
 30
0.0
  0
VERTEX
  5
3BD8
  8
L1
 10
52.801538684407063
 20
-49.139792913342937
 30
0.0
  0
SEQEND
  5
3BD9
  8
L1
  0
POLYLINE
  5
31A6
  8
L1
 66
     1
 10
0.0
 20
0.0
 30
0.0
  0
VERTEX
  5
3BDA
  8
L1
 10
52.801538684407063
 20
-49.111630797005397
 30
0.0
  0
VERTEX
  5
3BDB
  8
L1
 10
52.801538684407063
 20
-49.132741097906397
 30
0.0
  0
VERTEX
  5
3BDC
  8
L1
 10
52.801538684407063
 20
-49.139792913343172
 30
0.0
  0
SEQEND
  5
3BDD
  8
L1
  0
ARC
  5
31A7
  8
L1
 10
52.601538684407132
 20
-49.139792913342923
 30
0.0
 40
0.2
 50
0.0
 51
87.000000000000909
  0
LINE
  5
31A8
  8
L1
 10
4.810465752244653
 20
46.43512143934808
 30
0.0
 11
52.611790182520593
 21
48.940282699527017
 31
0.0
  0
LINE
  5
31A9
  8
L1
 10
4.810465752244653
 20
60.541074510419151
 30
0.0
 11
52.612005875655598
 21
63.046247074596373
 31
0.0
  0
LINE
  5
31AA
  8
L2
 10
55.00153868440708
 20
47.311063513711872
 30
0.0
 11
6.423034750042631
 21
44.765172001619327
 31
0.0
  0
LINE
  5
31AB
  8
L6
 10
0.0
 20
0.0
 30
0.0
 11
84.048690364178583
 21
-0.0000000000000284
 31
0.0
  0
LINE
  5
31AC
  8
L1
 10
2.8015386844070629
 20
44.31815402212203
 30
0.0
 11
4.810465752244653
 21
46.43512143934808
 31
0.0
  0
LINE
  5
31AD
  8
L2
 10
2.8015386844070629
 20
45.012304130909342
 30
0.0
 11
3.3015386844070629
 21
45.012304130909222
 31
0.0
  0
ARC
  5
31AE
  8
L2
 10
6.5015386844070804
 20
43.267227699487513
 30
0.0
 40
1.5
 50
93.000000000000711
 51
180.0
  0
LINE
  5
31AF
  8
L1
 10
2.8015386844070629
 20
58.424107093193101
 30
0.0
 11
4.810465752244653
 21
60.541074510419151
 31
0.0
  0
ARC
  5
31B0
  8
L1
 10
52.601538684407103
 20
49.139792913343079
 30
0.0
 40
0.2
 50
272.99999999999909
 51
0.0
  0
LINE
  5
31B1
  8
L2
 10
79.401538684407058
 20
47.950000000000152
 30
0.0
 11
55.00153868440708
 21
47.311063513711979
 31
0.0
  0
LINE
  5
31B2
  8
L1
 10
78.682258653722613
 20
65.012304130909314
 30
0.0
 11
52.991071493158472
 21
63.665886064679142
 31
0.0
  0
LINE
  5
31B3
  8
L1
 10
52.801538684407028
 20
63.466160157728233
 30
0.0
 11
52.801538684405159
 21
49.139792913343058
 31
0.0
  0
POLYLINE
  5
31B4
  8
L1
 66
     1
 10
0.0
 20
0.0
 30
0.0
  0
VERTEX
  5
3BDE
  8
L1
 10
52.801538684407028
 20
49.111630797005347
 30
0.0
  0
VERTEX
  5
3BDF
  8
L1
 10
52.801538684407028
 20
49.13274109790634
 30
0.0
  0
VERTEX
  5
3BE0
  8
L1
 10
52.801538684407028
 20
49.139792913343108
 30
0.0
  0
SEQEND
  5
3BE1
  8
L1
  0
ARC
  5
31B5
  8
L1
 10
53.001538684406988
 20
63.245972981547219
 30
0.0
 40
0.2
 50
179.99999999999179
 51
179.99999999999179
  0
ARC
  5
31B6
  8
L1
 10
52.601538684407018
 20
63.245972981547283
 30
0.0
 40
0.2
 50
273.00000000000068
 51
359.99999999999181
  0
ARC
  5
31B7
  8
L1
 10
53.00153868440708
 20
63.466160157728233
 30
0.0
 40
0.2
 50
92.999999999999105
 51
180.0
  0
LINE
  5
31B8
  8
L1
 10
80.165720444378451
 20
63.315431798167403
 30
0.0
 11
79.404512967836922
 21
63.449653214198662
 31
0.0
  0
ARC
  5
31B9
  8
L1
 10
80.101322991271957
 20
62.950215693134879
 30
0.0
 40
0.3708501521392529
 50
0.0
 51
79.999999999999801
  0
ARC
  5
31BA
  8
L2
 10
80.101322991272056
 20
62.950215693134879
 30
0.0
 40
0.3708501521392529
 50
280.00000000000011
 51
0.0
  0
LINE
  5
31BB
  8
L2
 10
79.401322991271996
 20
62.450215693134879
 30
0.0
 11
80.165720444378536
 21
62.58499958810237
 31
0.0
  0
LINE
  5
31BC
  8
L1
 10
79.401538684407058
 20
64.293024100224855
 30
0.0
 11
78.682258653722613
 21
65.012304130909286
 31
0.0
  0
ENDBLK
  5
318A
  8
0
  0
BLOCK
  8
0
  2
T
 70
     0
 10
0.0
 20
0.0
 30
0.0
  3
T
  1

  0
LINE
  5
31C1
  8
L1
 10
-65.012304130943505
 20
61.517100759268182
 30
0.0
 11
-65.012304130943505
 21
-61.517100759268281
 31
0.0
  0
LINE
  5
31C2
  8
L1
 10
65.012304130874952
 20
-61.51710075926826
 30
0.0
 11
65.012304130874952
 21
61.517100759268232
 31
0.0
  0
LINE
  5
31C3
  8
L1
 10
-63.665886064713327
 20
60.170682693038032
 30
0.0
 11
-63.665886064713327
 21
-60.170682693038138
 31
0.0
  0
LINE
  5
31C4
  8
L1
 10
63.665886064644717
 20
-60.170682693038117
 30
0.0
 11
63.665886064644717
 21
60.170682693038088
 31
0.0
  0
LINE
  5
31C5
  8
L1
 10
-63.046020077497417
 20
-46.942807936883042
 30
0.0
 11
-63.046020077497467
 21
46.942807936882993
 31
0.0
  0
LINE
  5
31C6
  8
L1
 10
63.046020077428857
 20
46.942807936882993
 30
0.0
 11
63.046020077428857
 21
-46.942807936882993
 31
0.0
  0
LINE
  5
31C7
  8
L1
 10
60.540858817249898
 20
-44.43764667670402
 30
0.0
 11
60.540858817249898
 21
44.437646676704048
 31
0.0
  0
LINE
  5
31C8
  8
L1
 10
-60.540858817318501
 20
44.437646676704048
 30
0.0
 11
-60.540858817318501
 21
-44.43764667670407
 31
0.0
  0
LINE
  5
31C9
  8
L1
 10
58.423664106884758
 20
43.07515233174086
 30
0.0
 11
58.423664106884758
 21
-43.075191313587993
 31
0.0
  0
LINE
  5
31CA
  8
L1
 10
-58.423664106953311
 20
-43.075152331759263
 30
0.0
 11
-58.423664106953311
 21
43.07519131347663
 31
0.0
  0
LINE
  5
31CB
  8
L1
 10
45.012304130874902
 20
43.012304130909222
 30
0.0
 11
45.012304130874902
 21
-43.012304130909257
 31
0.0
  0
LINE
  5
31CC
  8
L1
 10
-45.012304130943448
 20
-43.012304130909307
 30
0.0
 11
-45.012304130943448
 21
43.012304130909172
 31
0.0
  0
LINE
  5
31CD
  8
L6
 10
0.0
 20
72.302834530585926
 30
0.0
 11
0.0
 21
-72.302834530585955
 31
0.0
  0
LINE
  5
31CE
  8
L1
 10
43.012304130874888
 20
-45.012304130909293
 30
0.0
 11
-43.012304130943512
 21
-45.012304130909342
 31
0.0
  0
LINE
  5
31CF
  8
L1
 10
43.075152331706533
 20
-58.423664106919091
 30
0.0
 11
-43.075191313635791
 21
-58.423664106919148
 31
0.0
  0
LINE
  5
31D0
  8
L1
 10
-44.437646676738318
 20
-60.540858817284317
 30
0.0
 11
44.437646676669651
 21
-60.540858817284253
 31
0.0
  0
LINE
  5
31D1
  8
L1
 10
46.942807936848617
 20
-63.046020077463218
 30
0.0
 11
-46.942807936917227
 21
-63.046020077463282
 31
0.0
  0
LINE
  5
31D2
  8
L1
 10
-60.170682693072301
 20
-63.665886064679107
 30
0.0
 11
60.170682693003698
 21
-63.665886064679107
 31
0.0
  0
LINE
  5
31D3
  8
L1
 10
-61.51710075930248
 20
-65.012304130909257
 30
0.0
 11
61.517100759233927
 21
-65.012304130909257
 31
0.0
  0
POLYLINE
  5
31D4
  8
L1
 66
     1
 10
0.0
 20
0.0
 30
0.0
  0
VERTEX
  5
3BE3
  8
L1
 10
-57.100290394830779
 20
-44.454040957736048
 30
0.0
  0
VERTEX
  5
3BE4
  8
L1
 10
-55.12958310587333
 20
-44.453896341579053
 30
0.0
  0
VERTEX
  5
3BE5
  8
L1
 10
-54.198899509893181
 20
-44.453818536426809
 30
0.0
  0
VERTEX
  5
3BE6
  8
L1
 10
-53.34825156458038
 20
-44.453743298912109
 30
0.0
  0
VERTEX
  5
3BE7
  8
L1
 10
-52.610330983686133
 20
-44.453675303300109
 30
0.0
  0
VERTEX
  5
3BE8
  8
L1
 10
-52.017829480961723
 20
-44.45361922385581
 30
0.0
  0
VERTEX
  5
3BE9
  8
L1
 10
-51.603438770158327
 20
-44.453579734844332
 30
0.0
  0
VERTEX
  5
3BEA
  8
L1
 10
-51.399850565027293
 20
-44.453561510530641
 30
0.0
  0
VERTEX
  5
3BEB
  8
L1
 10
-48.865195297500463
 20
-44.460091736170277
 30
0.0
  0
VERTEX
  5
3BEC
  8
L1
 10
-48.241901190176122
 20
-44.468094893257813
 30
0.0
  0
VERTEX
  5
3BED
  8
L1
 10
-47.788729892109806
 20
-44.475747109616599
 30
0.0
  0
VERTEX
  5
3BEE
  8
L1
 10
-47.441584518809911
 20
-44.479175263475518
 30
0.0
  0
VERTEX
  5
3BEF
  8
L1
 10
-47.186483483429022
 20
-44.480080126626987
 30
0.0
  0
VERTEX
  5
3BF0
  8
L1
 10
-46.793065960883212
 20
-44.485148469008408
 30
0.0
  0
VERTEX
  5
3BF1
  8
L1
 10
-46.256899934762203
 20
-44.529598540970881
 30
0.0
  0
VERTEX
  5
3BF2
  8
L1
 10
-45.82605721776104
 20
-44.641635904883991
 30
0.0
  0
VERTEX
  5
3BF3
  8
L1
 10
-45.475698902463989
 20
-44.818546972954948
 30
0.0
  0
VERTEX
  5
3BF4
  8
L1
 10
-45.17875858101791
 20
-45.045191923456322
 30
0.0
  0
VERTEX
  5
3BF5
  8
L1
 10
-44.869780946986623
 20
-45.400177662989023
 30
0.0
  0
VERTEX
  5
3BF6
  8
L1
 10
-44.712219408015073
 20
-45.672025835002273
 30
0.0
  0
VERTEX
  5
3BF7
  8
L1
 10
-44.519404587445528
 20
-46.375897861848067
 30
0.0
  0
VERTEX
  5
3BF8
  8
L1
 10
-44.486115986806617
 20
-46.964669316996464
 30
0.0
  0
VERTEX
  5
3BF9
  8
L1
 10
-44.483813889028333
 20
-47.32669482354364
 30
0.0
  0
VERTEX
  5
3BFA
  8
L1
 10
-44.479788883581357
 20
-47.803691474778901
 30
0.0
  0
VERTEX
  5
3BFB
  8
L1
 10
-44.470405628096437
 20
-48.324251987246349
 30
0.0
  0
VERTEX
  5
3BFC
  8
L1
 10
-44.465112038323412
 20
-48.650234162324551
 30
0.0
  0
VERTEX
  5
3BFD
  8
L1
 10
-44.460447215597178
 20
-49.067263443519977
 30
0.0
  0
VERTEX
  5
3BFE
  8
L1
 10
-44.455314964927709
 20
-49.955249152812058
 30
0.0
  0
VERTEX
  5
3BFF
  8
L1
 10
-44.454035986378692
 20
-50.530751382343709
 30
0.0
  0
VERTEX
  5
3C00
  8
L1
 10
-44.453397941333428
 20
-51.273153188240677
 30
0.0
  0
VERTEX
  5
3C01
  8
L1
 10
-44.453237956527232
 20
-52.241874565334172
 30
0.0
  0
VERTEX
  5
3C02
  8
L1
 10
-44.453286338818423
 20
-52.829673841464491
 30
0.0
  0
VERTEX
  5
3C03
  8
L1
 10
-44.453393158695057
 20
-53.496335508455559
 30
0.0
  0
VERTEX
  5
3C04
  8
L1
 10
-44.453538056998873
 20
-54.249287065661548
 30
0.0
  0
VERTEX
  5
3C05
  8
L1
 10
-44.453700674571849
 20
-55.09595601243614
 30
0.0
  0
VERTEX
  5
3C06
  8
L1
 10
-44.453860652255912
 20
-56.043769848133337
 30
0.0
  0
VERTEX
  5
3C07
  8
L1
 10
-44.4539976308929
 20
-57.10015607210704
 30
0.0
  0
SEQEND
  5
3C08
  8
L1
  0
POLYLINE
  5
31D5
  8
L1
 66
     1
 10
0.0
 20
0.0
 30
0.0
  0
VERTEX
  5
3C09
  8
L1
 10
-46.420485328254131
 20
-54.010069792354749
 30
0.0
  0
VERTEX
  5
3C0A
  8
L1
 10
-46.420592184052097
 20
-53.969931601290511
 30
0.0
  0
VERTEX
  5
3C0B
  8
L1
 10
-46.424117337549887
 20
-53.778931333126849
 30
0.0
  0
VERTEX
  5
3C0C
  8
L1
 10
-46.450616464034283
 20
-53.345504665492143
 30
0.0
  0
VERTEX
  5
3C0D
  8
L1
 10
-46.506736010602417
 20
-52.885252413672589
 30
0.0
  0
VERTEX
  5
3C0E
  8
L1
 10
-46.62214139923929
 20
-52.291575231118742
 30
0.0
  0
VERTEX
  5
3C0F
  8
L1
 10
-46.90552626675094
 20
-51.360830127576087
 30
0.0
  0
VERTEX
  5
3C10
  8
L1
 10
-47.305575376551872
 20
-50.47350957488252
 30
0.0
  0
VERTEX
  5
3C11
  8
L1
 10
-47.679708170321298
 20
-49.843140846553979
 30
0.0
  0
VERTEX
  5
3C12
  8
L1
 10
-48.112656330340428
 20
-49.251430488378872
 30
0.0
  0
VERTEX
  5
3C13
  8
L1
 10
-49.129276580203047
 20
-48.213623938523682
 30
0.0
  0
VERTEX
  5
3C14
  8
L1
 10
-50.191580607674837
 20
-47.463226482567137
 30
0.0
  0
VERTEX
  5
3C15
  8
L1
 10
-51.037658829524439
 20
-47.03594222671623
 30
0.0
  0
VERTEX
  5
3C16
  8
L1
 10
-51.930142620326819
 20
-46.71707408274488
 30
0.0
  0
VERTEX
  5
3C17
  8
L1
 10
-52.638456638820571
 20
-46.548887378894761
 30
0.0
  0
VERTEX
  5
3C18
  8
L1
 10
-53.208698420489718
 20
-46.464401175548289
 30
0.0
  0
VERTEX
  5
3C19
  8
L1
 10
-53.540044974376769
 20
-46.43557868300482
 30
0.0
  0
VERTEX
  5
3C1A
  8
L1
 10
-53.851898993123029
 20
-46.422174694199668
 30
0.0
  0
VERTEX
  5
3C1B
  8
L1
 10
-54.010049063797453
 20
-46.420464599628531
 30
0.0
  0
SEQEND
  5
3C1C
  8
L1
  0
POLYLINE
  5
31D6
  8
L1
 66
     1
 10
0.0
 20
0.0
 30
0.0
  0
VERTEX
  5
3C1D
  8
L1
 10
-56.529651470561127
 20
-48.940067006392241
 30
0.0
  0
VERTEX
  5
3C1E
  8
L1
 10
-56.144916159040918
 20
-48.949827868377383
 30
0.0
  0
VERTEX
  5
3C1F
  8
L1
 10
-55.761216937116728
 20
-48.979030165729618
 30
0.0
  0
VERTEX
  5
3C20
  8
L1
 10
-55.379535323925673
 20
-49.027599197714522
 30
0.0
  0
VERTEX
  5
3C21
  8
L1
 10
-55.000847677475058
 20
-49.095410722656169
 30
0.0
  0
VERTEX
  5
3C22
  8
L1
 10
-54.626122697076312
 20
-49.182291275752817
 30
0.0
  0
VERTEX
  5
3C23
  8
L1
 10
-54.256318945370253
 20
-49.288018612807321
 30
0.0
  0
VERTEX
  5
3C24
  8
L1
 10
-53.892382396282763
 20
-49.412322278737349
 30
0.0
  0
VERTEX
  5
3C25
  8
L1
 10
-53.535244015182798
 20
-49.554884299411192
 30
0.0
  0
VERTEX
  5
3C26
  8
L1
 10
-53.18581737743272
 20
-49.715339995039159
 30
0.0
  0
VERTEX
  5
3C27
  8
L1
 10
-52.84499633142326
 20
-49.893278913040319
 30
0.0
  0
VERTEX
  5
3C28
  8
L1
 10
-52.513652712070673
 20
-50.088245877997821
 30
0.0
  0
VERTEX
  5
3C29
  8
L1
 10
-52.192634110625647
 20
-50.299742156017253
 30
0.0
  0
VERTEX
  5
3C2A
  8
L1
 10
-51.882761706498457
 20
-50.527226730509362
 30
0.0
  0
VERTEX
  5
3C2B
  8
L1
 10
-51.584828166646332
 20
-50.770117686133851
 30
0.0
  0
VERTEX
  5
3C2C
  8
L1
 10
-51.29959561789758
 20
-51.027793697363848
 30
0.0
  0
VERTEX
  5
3C2D
  8
L1
 10
-51.02779369739801
 20
-51.299595617863417
 30
0.0
  0
VERTEX
  5
3C2E
  8
L1
 10
-50.770117686167957
 20
-51.584828166612191
 30
0.0
  0
VERTEX
  5
3C2F
  8
L1
 10
-50.527226730543532
 20
-51.882761706464287
 30
0.0
  0
VERTEX
  5
3C30
  8
L1
 10
-50.299742156051423
 20
-52.192634110591513
 30
0.0
  0
VERTEX
  5
3C31
  8
L1
 10
-50.088245878032012
 20
-52.513652712036503
 30
0.0
  0
VERTEX
  5
3C32
  8
L1
 10
-49.893278913074482
 20
-52.844996331389098
 30
0.0
  0
VERTEX
  5
3C33
  8
L1
 10
-49.715339995073293
 20
-53.185817377398592
 30
0.0
  0
VERTEX
  5
3C34
  8
L1
 10
-49.554884299445341
 20
-53.535244015148663
 30
0.0
  0
VERTEX
  5
3C35
  8
L1
 10
-49.412322278771512
 20
-53.892382396248593
 30
0.0
  0
VERTEX
  5
3C36
  8
L1
 10
-49.288018612841483
 20
-54.256318945336062
 30
0.0
  0
VERTEX
  5
3C37
  8
L1
 10
-49.182291275786952
 20
-54.626122697042121
 30
0.0
  0
VERTEX
  5
3C38
  8
L1
 10
-49.095410722690303
 20
-55.000847677440902
 30
0.0
  0
VERTEX
  5
3C39
  8
L1
 10
-49.02759919774865
 20
-55.379535323891467
 30
0.0
  0
VERTEX
  5
3C3A
  8
L1
 10
-48.979030165763781
 20
-55.761216937082509
 30
0.0
  0
VERTEX
  5
3C3B
  8
L1
 10
-48.949827868411489
 20
-56.14491615900679
 30
0.0
  0
VERTEX
  5
3C3C
  8
L1
 10
-48.940067006426382
 20
-56.529651470527
 30
0.0
  0
SEQEND
  5
3C3D
  8
L1
  0
POLYLINE
  5
31D7
  8
L1
 66
     1
 10
0.0
 20
0.0
 30
0.0
  0
VERTEX
  5
3C3E
  8
L1
 10
-59.263214172969533
 20
-61.883099641752381
 30
0.0
  0
VERTEX
  5
3C3F
  8
L1
 10
-59.245965950192158
 20
-61.867206662008037
 30
0.0
  0
VERTEX
  5
3C40
  8
L1
 10
-59.197587405206257
 20
-61.820028179014827
 30
0.0
  0
VERTEX
  5
3C41
  8
L1
 10
-59.124081047160068
 20
-61.747342135619107
 30
0.0
  0
VERTEX
  5
3C42
  8
L1
 10
-59.03574653443934
 20
-61.65930218969163
 30
0.0
  0
SEQEND
  5
3C43
  8
L1
  0
LINE
  5
31D8
  8
L1
 10
-56.968840929905582
 20
-51.799700862313351
 30
0.0
 11
-61.70029913772111
 21
-56.531159070128894
 31
0.0
  0
CIRCLE
  5
31D9
  8
L1
 10
-56.750000000034333
 20
-56.750000000000171
 30
0.0
 40
6.097393363178492
  0
CIRCLE
  5
31DA
  8
L1
 10
-56.750000000034333
 20
-56.750000000000171
 30
0.0
 40
5.797404786259249
  0
POLYLINE
  5
31DB
  8
L1
 66
     1
 10
0.0
 20
0.0
 30
0.0
  0
VERTEX
  5
3C44
  8
L1
 10
-60.170682693072301
 20
-63.665886064679199
 30
0.0
  0
VERTEX
  5
3C45
  8
L1
 10
-60.44511618632248
 20
-63.655078390929638
 30
0.0
  0
VERTEX
  5
3C46
  8
L1
 10
-60.717807988590941
 20
-63.622807465084463
 30
0.0
  0
VERTEX
  5
3C47
  8
L1
 10
-60.987082719390003
 20
-63.569271555221462
 30
0.0
  0
VERTEX
  5
3C48
  8
L1
 10
-61.251285992243758
 20
-63.494799578521281
 30
0.0
  0
VERTEX
  5
3C49
  8
L1
 10
-61.508794579008047
 20
-63.399849080445883
 30
0.0
  0
VERTEX
  5
3C4A
  8
L1
 10
-61.758026382758537
 20
-63.285003423642848
 30
0.0
  0
VERTEX
  5
3C4B
  8
L1
 10
-61.997450157974072
 20
-63.150968203846702
 30
0.0
  0
VERTEX
  5
3C4C
  8
L1
 10
-62.225594918295769
 20
-62.998566914796548
 30
0.0
  0
VERTEX
  5
3C4D
  8
L1
 10
-62.441058974062969
 20
-62.828735888805568
 30
0.0
  0
VERTEX
  5
3C4E
  8
L1
 10
-62.642518544099289
 20
-62.642518544065091
 30
0.0
  0
VERTEX
  5
3C4F
  8
L1
 10
-62.828735888839731
 20
-62.441058974028813
 30
0.0
  0
VERTEX
  5
3C50
  8
L1
 10
-62.99856691483069
 20
-62.225594918261571
 30
0.0
  0
VERTEX
  5
3C51
  8
L1
 10
-63.150968203880844
 20
-61.997450157939909
 30
0.0
  0
VERTEX
  5
3C52
  8
L1
 10
-63.285003423676983
 20
-61.75802638272441
 30
0.0
  0
VERTEX
  5
3C53
  8
L1
 10
-63.39984908048001
 20
-61.508794578973919
 30
0.0
  0
VERTEX
  5
3C54
  8
L1
 10
-63.494799578555437
 20
-61.251285992209603
 30
0.0
  0
VERTEX
  5
3C55
  8
L1
 10
-63.569271555255618
 20
-60.98708271935584
 30
0.0
  0
VERTEX
  5
3C56
  8
L1
 10
-63.622807465118633
 20
-60.717807988556729
 30
0.0
  0
VERTEX
  5
3C57
  8
L1
 10
-63.655078390963801
 20
-60.44511618628831
 30
0.0
  0
VERTEX
  5
3C58
  8
L1
 10
-63.665886064713327
 20
-60.170682693038167
 30
0.0
  0
SEQEND
  5
3C59
  8
L1
  0
POLYLINE
  5
31DC
  8
L1
 66
     1
 10
0.0
 20
0.0
 30
0.0
  0
VERTEX
  5
3C5A
  8
L1
 10
-61.557000000034293
 20
-65.012088437774253
 30
0.0
  0
VERTEX
  5
3C5B
  8
L1
 10
-62.218787602479601
 20
-64.941714390114555
 30
0.0
  0
VERTEX
  5
3C5C
  8
L1
 10
-62.87377238627527
 20
-64.739585002002599
 30
0.0
  0
VERTEX
  5
3C5D
  8
L1
 10
-63.476619230930389
 20
-64.413440750186282
 30
0.0
  0
VERTEX
  5
3C5E
  8
L1
 10
-63.989929119107948
 20
-63.989929119073878
 30
0.0
  0
VERTEX
  5
3C5F
  8
L1
 10
-64.413440750220389
 20
-63.47661923089629
 30
0.0
  0
VERTEX
  5
3C60
  8
L1
 10
-64.73958500203679
 20
-62.873772386241228
 30
0.0
  0
VERTEX
  5
3C61
  8
L1
 10
-64.941714390148718
 20
-62.218787602445467
 30
0.0
  0
VERTEX
  5
3C62
  8
L1
 10
-65.012088437808416
 20
-61.557000000000158
 30
0.0
  0
SEQEND
  5
3C63
  8
L1
  0
POLYLINE
  5
31DD
  8
L1
 66
     1
 10
0.0
 20
0.0
 30
0.0
  0
VERTEX
  5
3C64
  8
L1
 10
-61.51710075930248
 20
-65.012304130909342
 30
0.0
  0
VERTEX
  5
3C65
  8
L1
 10
-61.537048032072562
 20
-65.012250207189027
 30
0.0
  0
VERTEX
  5
3C66
  8
L1
 10
-61.557000000034293
 20
-65.012088437774253
 30
0.0
  0
SEQEND
  5
3C67
  8
L1
  0
POLYLINE
  5
31DE
  8
L1
 66
     1
 10
0.0
 20
0.0
 30
0.0
  0
VERTEX
  5
3C68
  8
L1
 10
-65.012088437808416
 20
-61.557000000000158
 30
0.0
  0
VERTEX
  5
3C69
  8
L1
 10
-65.012250207223246
 20
-61.537048032038371
 30
0.0
  0
VERTEX
  5
3C6A
  8
L1
 10
-65.012304130943562
 20
-61.517100759268317
 30
0.0
  0
SEQEND
  5
3C6B
  8
L1
  0
POLYLINE
  5
31DF
  8
L1
 66
     1
 10
0.0
 20
0.0
 30
0.0
  0
VERTEX
  5
3C6C
  8
L1
 10
-61.883099641786544
 20
-59.263214172935278
 30
0.0
  0
VERTEX
  5
3C6D
  8
L1
 10
-61.901529179322146
 20
-59.376706762295207
 30
0.0
  0
SEQEND
  5
3C6E
  8
L1
  0
POLYLINE
  5
31E0
  8
L1
 66
     1
 10
0.0
 20
0.0
 30
0.0
  0
VERTEX
  5
3C6F
  8
L1
 10
-61.65930218972585
 20
-59.035746534405142
 30
0.0
  0
VERTEX
  5
3C70
  8
L1
 10
-61.747342135653291
 20
-59.124081047125877
 30
0.0
  0
VERTEX
  5
3C71
  8
L1
 10
-61.820028179049011
 20
-59.197587405172101
 30
0.0
  0
VERTEX
  5
3C72
  8
L1
 10
-61.867206662042229
 20
-59.245965950157959
 30
0.0
  0
VERTEX
  5
3C73
  8
L1
 10
-61.883099641786544
 20
-59.263214172935307
 30
0.0
  0
SEQEND
  5
3C74
  8
L1
  0
POLYLINE
  5
31E1
  8
L1
 66
     1
 10
0.0
 20
0.0
 30
0.0
  0
VERTEX
  5
3C75
  8
L1
 10
-59.37670676232937
 20
-61.901529179287927
 30
0.0
  0
VERTEX
  5
3C76
  8
L1
 10
-59.263214172969462
 20
-61.883099641752352
 30
0.0
  0
SEQEND
  5
3C77
  8
L1
  0
ARC
  5
31E2
  8
L1
 10
-56.750000000034333
 20
-56.750000000000142
 30
0.0
 40
4.9551339946734032
 50
177.46873820670879
 51
203.01361607239249
  0
LINE
  5
31E3
  8
L1
 10
-61.310764651825593
 20
-58.68720899650495
 30
0.0
 11
-61.65930218972585
 21
-59.035746534405177
 31
0.0
  0
ARC
  5
31E4
  8
L1
 10
-56.750000000034333
 20
-56.750000000000171
 30
0.0
 40
5.7825462644184809
 50
207.0165228096393
 51
242.98347719036059
  0
POLYLINE
  5
31E5
  8
L1
 66
     1
 10
0.0
 20
0.0
 30
0.0
  0
VERTEX
  5
3C78
  8
L1
 10
-48.940067006426382
 20
-61.048761007954219
 30
0.0
  0
VERTEX
  5
3C79
  8
L1
 10
-48.788308917379823
 20
-61.81365941614709
 30
0.0
  0
VERTEX
  5
3C7A
  8
L1
 10
-48.35564096294479
 20
-62.461594033981747
 30
0.0
  0
VERTEX
  5
3C7B
  8
L1
 10
-47.707706345110068
 20
-62.894261988416758
 30
0.0
  0
VERTEX
  5
3C7C
  8
L1
 10
-46.942807936917227
 20
-63.046020077463361
 30
0.0
  0
SEQEND
  5
3C7D
  8
L1
  0
ARC
  5
31E6
  8
L1
 10
-56.750000000034333
 20
-56.750000000000142
 30
0.0
 40
4.9551339946734032
 50
357.46873820670879
 51
92.531261793291065
  0
LINE
  5
31E7
  8
L1
 10
-56.53115907016285
 20
-61.700299137686841
 30
0.0
 11
-51.799700862347493
 21
-56.968840929871469
 31
0.0
  0
LINE
  5
31E8
  8
L1
 10
-59.03574653443934
 20
-61.659302189691651
 30
0.0
 11
-58.687208996539141
 21
-61.31076465179143
 31
0.0
  0
ARC
  5
31E9
  8
L1
 10
-56.750000000034333
 20
-56.750000000000142
 30
0.0
 40
4.9551339946734032
 50
246.9863839276081
 51
272.53126179329098
  0
LINE
  5
31EA
  8
L1
 10
-48.940067006426382
 20
-56.529651470527
 30
0.0
 11
-48.940067006426382
 21
-61.048761007954219
 31
0.0
  0
POLYLINE
  5
31EB
  8
L1
 66
     1
 10
0.0
 20
0.0
 30
0.0
  0
VERTEX
  5
3C7E
  8
L1
 10
-46.420325997529567
 20
-58.529019999057446
 30
0.0
  0
VERTEX
  5
3C7F
  8
L1
 10
-46.420335247240359
 20
-57.412644394154853
 30
0.0
  0
VERTEX
  5
3C80
  8
L1
 10
-46.420316729527478
 20
-56.797974377353022
 30
0.0
  0
VERTEX
  5
3C81
  8
L1
 10
-46.420287737525648
 20
-56.342431028023363
 30
0.0
  0
VERTEX
  5
3C82
  8
L1
 10
-46.420245961481953
 20
-55.6435062293817
 30
0.0
  0
VERTEX
  5
3C83
  8
L1
 10
-46.420284181539948
 20
-55.052647450542757
 30
0.0
  0
VERTEX
  5
3C84
  8
L1
 10
-46.420375148284613
 20
-54.637681649780262
 30
0.0
  0
VERTEX
  5
3C85
  8
L1
 10
-46.420485328254131
 20
-54.010069792354749
 30
0.0
  0
SEQEND
  5
3C86
  8
L1
  0
POLYLINE
  5
31EC
  8
L1
 66
     1
 10
0.0
 20
0.0
 30
0.0
  0
VERTEX
  5
3C87
  8
L1
 10
-44.4539976308929
 20
-57.10015607210704
 30
0.0
  0
VERTEX
  5
3C88
  8
L1
 10
-44.391855197871848
 20
-57.559095770959942
 30
0.0
  0
VERTEX
  5
3C89
  8
L1
 10
-44.216260323726658
 20
-57.92271603526931
 30
0.0
  0
VERTEX
  5
3C8A
  8
L1
 10
-43.895990596507367
 20
-58.218488084637272
 30
0.0
  0
VERTEX
  5
3C8B
  8
L1
 10
-43.530079043727092
 20
-58.370100048988853
 30
0.0
  0
VERTEX
  5
3C8C
  8
L1
 10
-43.099524093906197
 20
-58.423529428565992
 30
0.0
  0
VERTEX
  5
3C8D
  8
L1
 10
-43.075152331624331
 20
-58.423664106919198
 30
0.0
  0
SEQEND
  5
3C8E
  8
L1
  0
POLYLINE
  5
31ED
  8
L1
 66
     1
 10
0.0
 20
0.0
 30
0.0
  0
VERTEX
  5
3C8F
  8
L1
 10
-45.188304356210828
 20
-60.38369432669694
 30
0.0
  0
VERTEX
  5
3C90
  8
L1
 10
-45.324276473463499
 20
-60.317682456810559
 30
0.0
  0
VERTEX
  5
3C91
  8
L1
 10
-45.87278753061463
 20
-59.895256596223931
 30
0.0
  0
VERTEX
  5
3C92
  8
L1
 10
-46.094602294704593
 20
-59.60990284708015
 30
0.0
  0
VERTEX
  5
3C93
  8
L1
 10
-46.263734026064697
 20
-59.28991684673565
 30
0.0
  0
VERTEX
  5
3C94
  8
L1
 10
-46.38550908271656
 20
-58.890468244896681
 30
0.0
  0
SEQEND
  5
3C95
  8
L1
  0
POLYLINE
  5
31EE
  8
L1
 66
     1
 10
0.0
 20
0.0
 30
0.0
  0
VERTEX
  5
3C96
  8
L1
 10
-46.38550908271656
 20
-58.890468244896681
 30
0.0
  0
VERTEX
  5
3C97
  8
L1
 10
-46.399975157314032
 20
-58.806135731935512
 30
0.0
  0
VERTEX
  5
3C98
  8
L1
 10
-46.413408931154713
 20
-58.691061878509537
 30
0.0
  0
VERTEX
  5
3C99
  8
L1
 10
-46.418208459260427
 20
-58.61879131435618
 30
0.0
  0
VERTEX
  5
3C9A
  8
L1
 10
-46.419990640412152
 20
-58.564750672259642
 30
0.0
  0
VERTEX
  5
3C9B
  8
L1
 10
-46.420325467301893
 20
-58.530399111488443
 30
0.0
  0
VERTEX
  5
3C9C
  8
L1
 10
-46.420325997529567
 20
-58.529019999057446
 30
0.0
  0
SEQEND
  5
3C9D
  8
L1
  0
POLYLINE
  5
31EF
  8
L1
 66
     1
 10
0.0
 20
0.0
 30
0.0
  0
VERTEX
  5
3C9E
  8
L1
 10
-45.188304356210828
 20
-60.38369432669694
 30
0.0
  0
VERTEX
  5
3C9F
  8
L1
 10
-44.82229039860988
 20
-60.501194452198291
 30
0.0
  0
VERTEX
  5
3CA0
  8
L1
 10
-44.437646676738318
 20
-60.540858817284459
 30
0.0
  0
SEQEND
  5
3CA1
  8
L1
  0
POLYLINE
  5
31F0
  8
L1
 66
     1
 10
0.0
 20
0.0
 30
0.0
  0
VERTEX
  5
3CA2
  8
L1
 10
-58.890382429733499
 20
-46.38551280753105
 30
0.0
  0
VERTEX
  5
3CA3
  8
L1
 10
-59.00805516154162
 20
-46.358875913250749
 30
0.0
  0
VERTEX
  5
3CA4
  8
L1
 10
-59.645719806666818
 20
-46.070902912414539
 30
0.0
  0
VERTEX
  5
3CA5
  8
L1
 10
-60.15049663849566
 20
-45.588426333293476
 30
0.0
  0
VERTEX
  5
3CA6
  8
L1
 10
-60.383625228886501
 20
-45.188461081674028
 30
0.0
  0
SEQEND
  5
3CA7
  8
L1
  0
LINE
  5
31F1
  8
L1
 10
-61.048761007988332
 20
-48.940067006392241
 30
0.0
 11
-56.529651470561191
 21
-48.940067006392241
 31
0.0
  0
POLYLINE
  5
31F2
  8
L1
 66
     1
 10
0.0
 20
0.0
 30
0.0
  0
VERTEX
  5
3CA8
  8
L1
 10
-63.046020077497467
 20
-46.942807936883128
 30
0.0
  0
VERTEX
  5
3CA9
  8
L1
 10
-62.894261988450808
 20
-47.707706345075991
 30
0.0
  0
VERTEX
  5
3CAA
  8
L1
 10
-62.461594034015889
 20
-48.355640962910648
 30
0.0
  0
VERTEX
  5
3CAB
  8
L1
 10
-61.813659416181167
 20
-48.788308917345653
 30
0.0
  0
VERTEX
  5
3CAC
  8
L1
 10
-61.048761007988332
 20
-48.940067006392269
 30
0.0
  0
SEQEND
  5
3CAD
  8
L1
  0
POLYLINE
  5
31F3
  8
L1
 66
     1
 10
0.0
 20
0.0
 30
0.0
  0
VERTEX
  5
3CAE
  8
L1
 10
-60.540858817318501
 20
-44.43764667670419
 30
0.0
  0
VERTEX
  5
3CAF
  8
L1
 10
-60.501176846354383
 20
-44.822374479034238
 30
0.0
  0
VERTEX
  5
3CB0
  8
L1
 10
-60.383625228886501
 20
-45.188461081674028
 30
0.0
  0
SEQEND
  5
3CB1
  8
L1
  0
POLYLINE
  5
31F4
  8
L1
 66
     1
 10
0.0
 20
0.0
 30
0.0
  0
VERTEX
  5
3CB2
  8
L1
 10
-58.423664106953368
 20
-43.075191313476772
 30
0.0
  0
VERTEX
  5
3CB3
  8
L1
 10
-58.422823394368827
 20
-43.13579543218264
 30
0.0
  0
VERTEX
  5
3CB4
  8
L1
 10
-58.332332524254689
 20
-43.655026941792293
 30
0.0
  0
VERTEX
  5
3CB5
  8
L1
 10
-58.13826013198355
 20
-44.010747122470093
 30
0.0
  0
VERTEX
  5
3CB6
  8
L1
 10
-57.803066324930448
 20
-44.291567759888459
 30
0.0
  0
VERTEX
  5
3CB7
  8
L1
 10
-57.457853840930113
 20
-44.417700814003318
 30
0.0
  0
VERTEX
  5
3CB8
  8
L1
 10
-57.100290394830779
 20
-44.454040957736048
 30
0.0
  0
SEQEND
  5
3CB9
  8
L1
  0
POLYLINE
  5
31F5
  8
L1
 66
     1
 10
0.0
 20
0.0
 30
0.0
  0
VERTEX
  5
3CBA
  8
L1
 10
-54.010049063797453
 20
-46.420464599628531
 30
0.0
  0
VERTEX
  5
3CBB
  8
L1
 10
-54.654487043359381
 20
-46.420351105562673
 30
0.0
  0
VERTEX
  5
3CBC
  8
L1
 10
-55.06508686908716
 20
-46.420262806217657
 30
0.0
  0
VERTEX
  5
3CBD
  8
L1
 10
-55.396785856331682
 20
-46.420221284052239
 30
0.0
  0
VERTEX
  5
3CBE
  8
L1
 10
-55.971434955241591
 20
-46.420233945030979
 30
0.0
  0
VERTEX
  5
3CBF
  8
L1
 10
-56.674341619830898
 20
-46.420299836040407
 30
0.0
  0
VERTEX
  5
3CC0
  8
L1
 10
-57.166362564174513
 20
-46.420324851413483
 30
0.0
  0
VERTEX
  5
3CC1
  8
L1
 10
-57.80141312984108
 20
-46.420329704622361
 30
0.0
  0
VERTEX
  5
3CC2
  8
L1
 10
-58.52900902132842
 20
-46.420315019732413
 30
0.0
  0
SEQEND
  5
3CC3
  8
L1
  0
POLYLINE
  5
31F6
  8
L1
 66
     1
 10
0.0
 20
0.0
 30
0.0
  0
VERTEX
  5
3CC4
  8
L1
 10
-58.52900902132842
 20
-46.420315019732413
 30
0.0
  0
VERTEX
  5
3CC5
  8
L1
 10
-58.54198837439742
 20
-46.420270579042459
 30
0.0
  0
VERTEX
  5
3CC6
  8
L1
 10
-58.580267883906679
 20
-46.41962494306383
 30
0.0
  0
VERTEX
  5
3CC7
  8
L1
 10
-58.653295793448017
 20
-46.416251614604477
 30
0.0
  0
VERTEX
  5
3CC8
  8
L1
 10
-58.807659551105651
 20
-46.399736103854451
 30
0.0
  0
VERTEX
  5
3CC9
  8
L1
 10
-58.890382429733499
 20
-46.38551280753105
 30
0.0
  0
SEQEND
  5
3CCA
  8
L1
  0
ARC
  5
31F7
  8
L1
 10
-43.012304130943562
 20
-43.012304130909307
 30
0.0
 40
2.0
 50
180.0
 51
270.0
  0
POLYLINE
  5
31F8
  8
L1
 66
     1
 10
0.0
 20
0.0
 30
0.0
  0
VERTEX
  5
3CCB
  8
L1
 10
56.529651470492468
 20
-48.940067006392241
 30
0.0
  0
VERTEX
  5
3CCC
  8
L1
 10
56.144916158972251
 20
-48.949827868377383
 30
0.0
  0
VERTEX
  5
3CCD
  8
L1
 10
55.761216937048061
 20
-48.979030165729618
 30
0.0
  0
VERTEX
  5
3CCE
  8
L1
 10
55.379535323856992
 20
-49.027599197714522
 30
0.0
  0
VERTEX
  5
3CCF
  8
L1
 10
55.000847677406398
 20
-49.095410722656169
 30
0.0
  0
VERTEX
  5
3CD0
  8
L1
 10
54.626122697007638
 20
-49.182291275752817
 30
0.0
  0
VERTEX
  5
3CD1
  8
L1
 10
54.256318945301587
 20
-49.288018612807321
 30
0.0
  0
VERTEX
  5
3CD2
  8
L1
 10
53.892382396214089
 20
-49.412322278737349
 30
0.0
  0
VERTEX
  5
3CD3
  8
L1
 10
53.535244015114131
 20
-49.554884299411192
 30
0.0
  0
VERTEX
  5
3CD4
  8
L1
 10
53.18581737736406
 20
-49.715339995039159
 30
0.0
  0
VERTEX
  5
3CD5
  8
L1
 10
52.844996331354587
 20
-49.893278913040319
 30
0.0
  0
VERTEX
  5
3CD6
  8
L1
 10
52.513652712001992
 20
-50.088245877997821
 30
0.0
  0
VERTEX
  5
3CD7
  8
L1
 10
52.19263411055698
 20
-50.299742156017253
 30
0.0
  0
VERTEX
  5
3CD8
  8
L1
 10
51.882761706429783
 20
-50.527226730509362
 30
0.0
  0
VERTEX
  5
3CD9
  8
L1
 10
51.584828166577658
 20
-50.770117686133851
 30
0.0
  0
VERTEX
  5
3CDA
  8
L1
 10
51.299595617828913
 20
-51.027793697363848
 30
0.0
  0
VERTEX
  5
3CDB
  8
L1
 10
51.027793697329336
 20
-51.299595617863417
 30
0.0
  0
VERTEX
  5
3CDC
  8
L1
 10
50.770117686099297
 20
-51.584828166612191
 30
0.0
  0
VERTEX
  5
3CDD
  8
L1
 10
50.527226730474872
 20
-51.882761706464287
 30
0.0
  0
VERTEX
  5
3CDE
  8
L1
 10
50.299742155982763
 20
-52.192634110591513
 30
0.0
  0
VERTEX
  5
3CDF
  8
L1
 10
50.088245877963338
 20
-52.513652712036503
 30
0.0
  0
VERTEX
  5
3CE0
  8
L1
 10
49.893278913005823
 20
-52.844996331389098
 30
0.0
  0
VERTEX
  5
3CE1
  8
L1
 10
49.715339995004619
 20
-53.185817377398592
 30
0.0
  0
VERTEX
  5
3CE2
  8
L1
 10
49.554884299376681
 20
-53.535244015148663
 30
0.0
  0
VERTEX
  5
3CE3
  8
L1
 10
49.412322278702838
 20
-53.892382396248593
 30
0.0
  0
VERTEX
  5
3CE4
  8
L1
 10
49.288018612772817
 20
-54.256318945336062
 30
0.0
  0
VERTEX
  5
3CE5
  8
L1
 10
49.182291275718278
 20
-54.626122697042121
 30
0.0
  0
VERTEX
  5
3CE6
  8
L1
 10
49.095410722621637
 20
-55.000847677440902
 30
0.0
  0
VERTEX
  5
3CE7
  8
L1
 10
49.02759919767999
 20
-55.379535323891467
 30
0.0
  0
VERTEX
  5
3CE8
  8
L1
 10
48.979030165695121
 20
-55.761216937082509
 30
0.0
  0
VERTEX
  5
3CE9
  8
L1
 10
48.949827868342823
 20
-56.14491615900679
 30
0.0
  0
VERTEX
  5
3CEA
  8
L1
 10
48.940067006357701
 20
-56.529651470527
 30
0.0
  0
SEQEND
  5
3CEB
  8
L1
  0
POLYLINE
  5
31F9
  8
L1
 66
     1
 10
0.0
 20
0.0
 30
0.0
  0
VERTEX
  5
3CEC
  8
L1
 10
46.420485328185457
 20
-54.010069792354749
 30
0.0
  0
VERTEX
  5
3CED
  8
L1
 10
46.420592183983437
 20
-53.969931601290511
 30
0.0
  0
VERTEX
  5
3CEE
  8
L1
 10
46.424117337481213
 20
-53.778931333126849
 30
0.0
  0
VERTEX
  5
3CEF
  8
L1
 10
46.450616463965623
 20
-53.345504665492143
 30
0.0
  0
VERTEX
  5
3CF0
  8
L1
 10
46.506736010533757
 20
-52.885252413672589
 30
0.0
  0
VERTEX
  5
3CF1
  8
L1
 10
46.62214139917063
 20
-52.291575231118742
 30
0.0
  0
VERTEX
  5
3CF2
  8
L1
 10
46.905526266682273
 20
-51.360830127576087
 30
0.0
  0
VERTEX
  5
3CF3
  8
L1
 10
47.305575376483198
 20
-50.47350957488252
 30
0.0
  0
VERTEX
  5
3CF4
  8
L1
 10
47.679708170252638
 20
-49.843140846553979
 30
0.0
  0
VERTEX
  5
3CF5
  8
L1
 10
48.112656330271761
 20
-49.251430488378872
 30
0.0
  0
VERTEX
  5
3CF6
  8
L1
 10
49.129276580134388
 20
-48.213623938523682
 30
0.0
  0
VERTEX
  5
3CF7
  8
L1
 10
50.191580607606163
 20
-47.463226482567137
 30
0.0
  0
VERTEX
  5
3CF8
  8
L1
 10
51.037658829455779
 20
-47.03594222671623
 30
0.0
  0
VERTEX
  5
3CF9
  8
L1
 10
51.930142620258152
 20
-46.71707408274488
 30
0.0
  0
VERTEX
  5
3CFA
  8
L1
 10
52.638456638751911
 20
-46.548887378894761
 30
0.0
  0
VERTEX
  5
3CFB
  8
L1
 10
53.208698420421058
 20
-46.464401175548289
 30
0.0
  0
VERTEX
  5
3CFC
  8
L1
 10
53.540044974308103
 20
-46.43557868300482
 30
0.0
  0
VERTEX
  5
3CFD
  8
L1
 10
53.851898993054363
 20
-46.422174694199668
 30
0.0
  0
VERTEX
  5
3CFE
  8
L1
 10
54.010049063728793
 20
-46.420464599628531
 30
0.0
  0
SEQEND
  5
3CFF
  8
L1
  0
POLYLINE
  5
31FA
  8
L1
 66
     1
 10
0.0
 20
0.0
 30
0.0
  0
VERTEX
  5
3D00
  8
L1
 10
57.100290394762112
 20
-44.454040957736048
 30
0.0
  0
VERTEX
  5
3D01
  8
L1
 10
55.12958310580467
 20
-44.453896341579053
 30
0.0
  0
VERTEX
  5
3D02
  8
L1
 10
54.198899509824507
 20
-44.453818536426809
 30
0.0
  0
VERTEX
  5
3D03
  8
L1
 10
53.348251564511713
 20
-44.453743298912109
 30
0.0
  0
VERTEX
  5
3D04
  8
L1
 10
52.610330983617473
 20
-44.453675303300109
 30
0.0
  0
VERTEX
  5
3D05
  8
L1
 10
52.017829480893063
 20
-44.45361922385581
 30
0.0
  0
VERTEX
  5
3D06
  8
L1
 10
51.60343877008966
 20
-44.453579734844332
 30
0.0
  0
VERTEX
  5
3D07
  8
L1
 10
51.399850564958633
 20
-44.453561510530641
 30
0.0
  0
VERTEX
  5
3D08
  8
L1
 10
48.865195297431789
 20
-44.460091736170277
 30
0.0
  0
VERTEX
  5
3D09
  8
L1
 10
48.241901190107448
 20
-44.468094893257813
 30
0.0
  0
VERTEX
  5
3D0A
  8
L1
 10
47.78872989204114
 20
-44.475747109616599
 30
0.0
  0
VERTEX
  5
3D0B
  8
L1
 10
47.441584518741251
 20
-44.479175263475518
 30
0.0
  0
VERTEX
  5
3D0C
  8
L1
 10
47.186483483360341
 20
-44.480080126626987
 30
0.0
  0
VERTEX
  5
3D0D
  8
L1
 10
46.793065960814538
 20
-44.485148469008408
 30
0.0
  0
VERTEX
  5
3D0E
  8
L1
 10
46.256899934693529
 20
-44.529598540970881
 30
0.0
  0
VERTEX
  5
3D0F
  8
L1
 10
45.82605721769238
 20
-44.641635904883991
 30
0.0
  0
VERTEX
  5
3D10
  8
L1
 10
45.475698902395322
 20
-44.818546972954948
 30
0.0
  0
VERTEX
  5
3D11
  8
L1
 10
45.178758580949243
 20
-45.045191923456322
 30
0.0
  0
VERTEX
  5
3D12
  8
L1
 10
44.869780946917949
 20
-45.400177662989023
 30
0.0
  0
VERTEX
  5
3D13
  8
L1
 10
44.712219407946407
 20
-45.672025835002273
 30
0.0
  0
VERTEX
  5
3D14
  8
L1
 10
44.519404587376869
 20
-46.375897861848067
 30
0.0
  0
VERTEX
  5
3D15
  8
L1
 10
44.48611598673795
 20
-46.964669316996464
 30
0.0
  0
VERTEX
  5
3D16
  8
L1
 10
44.483813888959673
 20
-47.32669482354364
 30
0.0
  0
VERTEX
  5
3D17
  8
L1
 10
44.47978888351269
 20
-47.803691474778901
 30
0.0
  0
VERTEX
  5
3D18
  8
L1
 10
44.470405628027777
 20
-48.324251987246349
 30
0.0
  0
VERTEX
  5
3D19
  8
L1
 10
44.465112038254738
 20
-48.650234162324551
 30
0.0
  0
VERTEX
  5
3D1A
  8
L1
 10
44.460447215528511
 20
-49.067263443519977
 30
0.0
  0
VERTEX
  5
3D1B
  8
L1
 10
44.455314964859042
 20
-49.955249152812058
 30
0.0
  0
VERTEX
  5
3D1C
  8
L1
 10
44.454035986310032
 20
-50.530751382343709
 30
0.0
  0
VERTEX
  5
3D1D
  8
L1
 10
44.453397941264768
 20
-51.273153188240677
 30
0.0
  0
VERTEX
  5
3D1E
  8
L1
 10
44.453237956458558
 20
-52.241874565334172
 30
0.0
  0
VERTEX
  5
3D1F
  8
L1
 10
44.453286338749763
 20
-52.829673841464491
 30
0.0
  0
VERTEX
  5
3D20
  8
L1
 10
44.45339315862639
 20
-53.496335508455559
 30
0.0
  0
VERTEX
  5
3D21
  8
L1
 10
44.453538056930192
 20
-54.249287065661548
 30
0.0
  0
VERTEX
  5
3D22
  8
L1
 10
44.453700674503182
 20
-55.09595601243614
 30
0.0
  0
VERTEX
  5
3D23
  8
L1
 10
44.453860652187238
 20
-56.043769848133337
 30
0.0
  0
VERTEX
  5
3D24
  8
L1
 10
44.453997630824233
 20
-57.10015607210704
 30
0.0
  0
SEQEND
  5
3D25
  8
L1
  0
POLYLINE
  5
31FB
  8
L1
 66
     1
 10
0.0
 20
0.0
 30
0.0
  0
VERTEX
  5
3D26
  8
L1
 10
45.188304356142169
 20
-60.38369432669694
 30
0.0
  0
VERTEX
  5
3D27
  8
L1
 10
45.324276473394832
 20
-60.317682456810559
 30
0.0
  0
VERTEX
  5
3D28
  8
L1
 10
45.872787530545963
 20
-59.895256596223931
 30
0.0
  0
VERTEX
  5
3D29
  8
L1
 10
46.094602294635934
 20
-59.60990284708015
 30
0.0
  0
VERTEX
  5
3D2A
  8
L1
 10
46.26373402599603
 20
-59.28991684673565
 30
0.0
  0
VERTEX
  5
3D2B
  8
L1
 10
46.385509082647893
 20
-58.890468244896681
 30
0.0
  0
SEQEND
  5
3D2C
  8
L1
  0
POLYLINE
  5
31FC
  8
L1
 66
     1
 10
0.0
 20
0.0
 30
0.0
  0
VERTEX
  5
3D2D
  8
L1
 10
45.188304356142169
 20
-60.38369432669694
 30
0.0
  0
VERTEX
  5
3D2E
  8
L1
 10
44.822290398541213
 20
-60.501194452198291
 30
0.0
  0
VERTEX
  5
3D2F
  8
L1
 10
44.437646676669651
 20
-60.540858817284459
 30
0.0
  0
SEQEND
  5
3D30
  8
L1
  0
POLYLINE
  5
31FD
  8
L1
 66
     1
 10
0.0
 20
0.0
 30
0.0
  0
VERTEX
  5
3D31
  8
L1
 10
44.453997630824233
 20
-57.10015607210704
 30
0.0
  0
VERTEX
  5
3D32
  8
L1
 10
44.391855197803181
 20
-57.559095770959942
 30
0.0
  0
VERTEX
  5
3D33
  8
L1
 10
44.216260323657991
 20
-57.92271603526931
 30
0.0
  0
VERTEX
  5
3D34
  8
L1
 10
43.8959905964387
 20
-58.218488084637272
 30
0.0
  0
VERTEX
  5
3D35
  8
L1
 10
43.530079043658411
 20
-58.370100048988853
 30
0.0
  0
VERTEX
  5
3D36
  8
L1
 10
43.099524093837537
 20
-58.423529428565992
 30
0.0
  0
VERTEX
  5
3D37
  8
L1
 10
43.075152331555671
 20
-58.423664106919198
 30
0.0
  0
SEQEND
  5
3D38
  8
L1
  0
POLYLINE
  5
31FE
  8
L1
 66
     1
 10
0.0
 20
0.0
 30
0.0
  0
VERTEX
  5
3D39
  8
L1
 10
48.940067006357701
 20
-61.048761007954219
 30
0.0
  0
VERTEX
  5
3D3A
  8
L1
 10
48.788308917311163
 20
-61.81365941614709
 30
0.0
  0
VERTEX
  5
3D3B
  8
L1
 10
48.355640962876123
 20
-62.461594033981747
 30
0.0
  0
VERTEX
  5
3D3C
  8
L1
 10
47.707706345041402
 20
-62.894261988416758
 30
0.0
  0
VERTEX
  5
3D3D
  8
L1
 10
46.94280793684856
 20
-63.046020077463361
 30
0.0
  0
SEQEND
  5
3D3E
  8
L1
  0
POLYLINE
  5
31FF
  8
L1
 66
     1
 10
0.0
 20
0.0
 30
0.0
  0
VERTEX
  5
3D3F
  8
L1
 10
61.556999999965633
 20
-65.012088437774253
 30
0.0
  0
VERTEX
  5
3D40
  8
L1
 10
62.218787602410941
 20
-64.941714390114555
 30
0.0
  0
VERTEX
  5
3D41
  8
L1
 10
62.87377238620661
 20
-64.739585002002599
 30
0.0
  0
VERTEX
  5
3D42
  8
L1
 10
63.476619230861729
 20
-64.413440750186282
 30
0.0
  0
VERTEX
  5
3D43
  8
L1
 10
63.989929119039289
 20
-63.989929119073878
 30
0.0
  0
VERTEX
  5
3D44
  8
L1
 10
64.413440750151722
 20
-63.47661923089629
 30
0.0
  0
VERTEX
  5
3D45
  8
L1
 10
64.739585001968123
 20
-62.873772386241228
 30
0.0
  0
VERTEX
  5
3D46
  8
L1
 10
64.941714390080051
 20
-62.218787602445467
 30
0.0
  0
VERTEX
  5
3D47
  8
L1
 10
65.012088437739749
 20
-61.557000000000158
 30
0.0
  0
SEQEND
  5
3D48
  8
L1
  0
POLYLINE
  5
3200
  8
L1
 66
     1
 10
0.0
 20
0.0
 30
0.0
  0
VERTEX
  5
3D49
  8
L1
 10
60.170682693003641
 20
-63.665886064679199
 30
0.0
  0
VERTEX
  5
3D4A
  8
L1
 10
60.445116186253813
 20
-63.655078390929638
 30
0.0
  0
VERTEX
  5
3D4B
  8
L1
 10
60.717807988522281
 20
-63.622807465084463
 30
0.0
  0
VERTEX
  5
3D4C
  8
L1
 10
60.987082719321329
 20
-63.569271555221462
 30
0.0
  0
VERTEX
  5
3D4D
  8
L1
 10
61.251285992175099
 20
-63.494799578521281
 30
0.0
  0
VERTEX
  5
3D4E
  8
L1
 10
61.508794578939387
 20
-63.399849080445883
 30
0.0
  0
VERTEX
  5
3D4F
  8
L1
 10
61.75802638268987
 20
-63.285003423642848
 30
0.0
  0
VERTEX
  5
3D50
  8
L1
 10
61.997450157905398
 20
-63.150968203846702
 30
0.0
  0
VERTEX
  5
3D51
  8
L1
 10
62.225594918227102
 20
-62.998566914796548
 30
0.0
  0
VERTEX
  5
3D52
  8
L1
 10
62.441058973994302
 20
-62.828735888805568
 30
0.0
  0
VERTEX
  5
3D53
  8
L1
 10
62.642518544030622
 20
-62.642518544065091
 30
0.0
  0
VERTEX
  5
3D54
  8
L1
 10
62.828735888771057
 20
-62.441058974028813
 30
0.0
  0
VERTEX
  5
3D55
  8
L1
 10
62.998566914762023
 20
-62.225594918261571
 30
0.0
  0
VERTEX
  5
3D56
  8
L1
 10
63.15096820381217
 20
-61.997450157939909
 30
0.0
  0
VERTEX
  5
3D57
  8
L1
 10
63.285003423608323
 20
-61.75802638272441
 30
0.0
  0
VERTEX
  5
3D58
  8
L1
 10
63.39984908041135
 20
-61.508794578973919
 30
0.0
  0
VERTEX
  5
3D59
  8
L1
 10
63.494799578486777
 20
-61.251285992209603
 30
0.0
  0
VERTEX
  5
3D5A
  8
L1
 10
63.569271555186958
 20
-60.98708271935584
 30
0.0
  0
VERTEX
  5
3D5B
  8
L1
 10
63.622807465049959
 20
-60.717807988556729
 30
0.0
  0
VERTEX
  5
3D5C
  8
L1
 10
63.655078390895142
 20
-60.44511618628831
 30
0.0
  0
VERTEX
  5
3D5D
  8
L1
 10
63.665886064644667
 20
-60.170682693038167
 30
0.0
  0
SEQEND
  5
3D5E
  8
L1
  0
CIRCLE
  5
3201
  8
L1
 10
56.749999999965667
 20
-56.750000000000171
 30
0.0
 40
5.797404786259249
  0
CIRCLE
  5
3202
  8
L1
 10
56.749999999965667
 20
-56.750000000000171
 30
0.0
 40
6.097393363178492
  0
POLYLINE
  5
3203
  8
L1
 66
     1
 10
0.0
 20
0.0
 30
0.0
  0
VERTEX
  5
3D5F
  8
L1
 10
61.517100759233813
 20
-65.012304130909342
 30
0.0
  0
VERTEX
  5
3D60
  8
L1
 10
61.537048032003902
 20
-65.012250207189027
 30
0.0
  0
VERTEX
  5
3D61
  8
L1
 10
61.556999999965633
 20
-65.012088437774253
 30
0.0
  0
SEQEND
  5
3D62
  8
L1
  0
LINE
  5
3204
  8
L1
 10
56.531159070094191
 20
-61.700299137686841
 30
0.0
 11
51.799700862278819
 21
-56.968840929871469
 31
0.0
  0
ARC
  5
3205
  8
L1
 10
56.749999999965667
 20
-56.750000000000142
 30
0.0
 40
4.9551339946734032
 50
87.46873820670892
 51
182.53126179329109
  0
POLYLINE
  5
3206
  8
L1
 66
     1
 10
0.0
 20
0.0
 30
0.0
  0
VERTEX
  5
3D63
  8
L1
 10
46.4203259974609
 20
-58.529019999057446
 30
0.0
  0
VERTEX
  5
3D64
  8
L1
 10
46.420335247171693
 20
-57.412644394154853
 30
0.0
  0
VERTEX
  5
3D65
  8
L1
 10
46.420316729458818
 20
-56.797974377353022
 30
0.0
  0
VERTEX
  5
3D66
  8
L1
 10
46.420287737456988
 20
-56.342431028023363
 30
0.0
  0
VERTEX
  5
3D67
  8
L1
 10
46.420245961413279
 20
-55.6435062293817
 30
0.0
  0
VERTEX
  5
3D68
  8
L1
 10
46.420284181471288
 20
-55.052647450542757
 30
0.0
  0
VERTEX
  5
3D69
  8
L1
 10
46.420375148215953
 20
-54.637681649780262
 30
0.0
  0
VERTEX
  5
3D6A
  8
L1
 10
46.420485328185457
 20
-54.010069792354749
 30
0.0
  0
SEQEND
  5
3D6B
  8
L1
  0
POLYLINE
  5
3207
  8
L1
 66
     1
 10
0.0
 20
0.0
 30
0.0
  0
VERTEX
  5
3D6C
  8
L1
 10
46.385509082647893
 20
-58.890468244896681
 30
0.0
  0
VERTEX
  5
3D6D
  8
L1
 10
46.399975157245372
 20
-58.806135731935512
 30
0.0
  0
VERTEX
  5
3D6E
  8
L1
 10
46.413408931086053
 20
-58.691061878509537
 30
0.0
  0
VERTEX
  5
3D6F
  8
L1
 10
46.41820845919176
 20
-58.61879131435618
 30
0.0
  0
VERTEX
  5
3D70
  8
L1
 10
46.419990640343478
 20
-58.564750672259642
 30
0.0
  0
VERTEX
  5
3D71
  8
L1
 10
46.420325467233219
 20
-58.530399111488443
 30
0.0
  0
VERTEX
  5
3D72
  8
L1
 10
46.4203259974609
 20
-58.529019999057446
 30
0.0
  0
SEQEND
  5
3D73
  8
L1
  0
LINE
  5
3208
  8
L1
 10
48.940067006357701
 20
-56.529651470527
 30
0.0
 11
48.940067006357701
 21
-61.048761007954219
 31
0.0
  0
LINE
  5
3209
  8
L1
 10
56.968840929836908
 20
-51.799700862313351
 30
0.0
 11
61.700299137652451
 21
-56.531159070128894
 31
0.0
  0
ARC
  5
320A
  8
L1
 10
56.749999999965667
 20
-56.750000000000171
 30
0.0
 40
5.7825462644184809
 50
297.0165228096393
 51
332.9834771903607
  0
POLYLINE
  5
320B
  8
L1
 66
     1
 10
0.0
 20
0.0
 30
0.0
  0
VERTEX
  5
3D74
  8
L1
 10
59.263214172900859
 20
-61.883099641752381
 30
0.0
  0
VERTEX
  5
3D75
  8
L1
 10
59.245965950123491
 20
-61.867206662008037
 30
0.0
  0
VERTEX
  5
3D76
  8
L1
 10
59.197587405137597
 20
-61.820028179014827
 30
0.0
  0
VERTEX
  5
3D77
  8
L1
 10
59.124081047091408
 20
-61.747342135619107
 30
0.0
  0
VERTEX
  5
3D78
  8
L1
 10
59.035746534370674
 20
-61.65930218969163
 30
0.0
  0
SEQEND
  5
3D79
  8
L1
  0
POLYLINE
  5
320C
  8
L1
 66
     1
 10
0.0
 20
0.0
 30
0.0
  0
VERTEX
  5
3D7A
  8
L1
 10
59.37670676226071
 20
-61.901529179287927
 30
0.0
  0
VERTEX
  5
3D7B
  8
L1
 10
59.263214172900803
 20
-61.883099641752352
 30
0.0
  0
SEQEND
  5
3D7C
  8
L1
  0
LINE
  5
320D
  8
L1
 10
59.035746534370674
 20
-61.659302189691651
 30
0.0
 11
58.687208996470481
 21
-61.31076465179143
 31
0.0
  0
ARC
  5
320E
  8
L1
 10
56.749999999965667
 20
-56.750000000000142
 30
0.0
 40
4.9551339946734032
 50
267.46873820670891
 51
293.01361607239193
  0
POLYLINE
  5
320F
  8
L1
 66
     1
 10
0.0
 20
0.0
 30
0.0
  0
VERTEX
  5
3D7D
  8
L1
 10
65.012088437739749
 20
-61.557000000000158
 30
0.0
  0
VERTEX
  5
3D7E
  8
L1
 10
65.01225020715458
 20
-61.537048032038371
 30
0.0
  0
VERTEX
  5
3D7F
  8
L1
 10
65.012304130874895
 20
-61.517100759268317
 30
0.0
  0
SEQEND
  5
3D80
  8
L1
  0
POLYLINE
  5
3210
  8
L1
 66
     1
 10
0.0
 20
0.0
 30
0.0
  0
VERTEX
  5
3D81
  8
L1
 10
61.659302189657183
 20
-59.035746534405142
 30
0.0
  0
VERTEX
  5
3D82
  8
L1
 10
61.747342135584631
 20
-59.124081047125877
 30
0.0
  0
VERTEX
  5
3D83
  8
L1
 10
61.820028178980351
 20
-59.197587405172101
 30
0.0
  0
VERTEX
  5
3D84
  8
L1
 10
61.867206661973569
 20
-59.245965950157959
 30
0.0
  0
VERTEX
  5
3D85
  8
L1
 10
61.883099641717877
 20
-59.263214172935307
 30
0.0
  0
SEQEND
  5
3D86
  8
L1
  0
POLYLINE
  5
3211
  8
L1
 66
     1
 10
0.0
 20
0.0
 30
0.0
  0
VERTEX
  5
3D87
  8
L1
 10
61.883099641717877
 20
-59.263214172935278
 30
0.0
  0
VERTEX
  5
3D88
  8
L1
 10
61.901529179253487
 20
-59.376706762295207
 30
0.0
  0
SEQEND
  5
3D89
  8
L1
  0
LINE
  5
3212
  8
L1
 10
61.310764651756919
 20
-58.68720899650495
 30
0.0
 11
61.659302189657183
 21
-59.035746534405177
 31
0.0
  0
ARC
  5
3213
  8
L1
 10
56.749999999965667
 20
-56.750000000000142
 30
0.0
 40
4.9551339946734032
 50
336.98638392760893
 51
2.5312617932911539
  0
ARC
  5
3214
  8
L1
 10
43.012304130874888
 20
-43.012304130909307
 30
0.0
 40
2.0
 50
270.0
 51
0.0
  0
POLYLINE
  5
3215
  8
L1
 66
     1
 10
0.0
 20
0.0
 30
0.0
  0
VERTEX
  5
3D8A
  8
L1
 10
54.010049063728793
 20
-46.420464599628531
 30
0.0
  0
VERTEX
  5
3D8B
  8
L1
 10
54.654487043290708
 20
-46.420351105562673
 30
0.0
  0
VERTEX
  5
3D8C
  8
L1
 10
55.065086869018501
 20
-46.420262806217657
 30
0.0
  0
VERTEX
  5
3D8D
  8
L1
 10
55.396785856263023
 20
-46.420221284052239
 30
0.0
  0
VERTEX
  5
3D8E
  8
L1
 10
55.971434955172917
 20
-46.420233945030979
 30
0.0
  0
VERTEX
  5
3D8F
  8
L1
 10
56.674341619762231
 20
-46.420299836040407
 30
0.0
  0
VERTEX
  5
3D90
  8
L1
 10
57.166362564105839
 20
-46.420324851413483
 30
0.0
  0
VERTEX
  5
3D91
  8
L1
 10
57.801413129772413
 20
-46.420329704622361
 30
0.0
  0
VERTEX
  5
3D92
  8
L1
 10
58.529009021259753
 20
-46.420315019732413
 30
0.0
  0
SEQEND
  5
3D93
  8
L1
  0
POLYLINE
  5
3216
  8
L1
 66
     1
 10
0.0
 20
0.0
 30
0.0
  0
VERTEX
  5
3D94
  8
L1
 10
58.423664106884701
 20
-43.075191313476772
 30
0.0
  0
VERTEX
  5
3D95
  8
L1
 10
58.422823394300167
 20
-43.13579543218264
 30
0.0
  0
VERTEX
  5
3D96
  8
L1
 10
58.332332524186029
 20
-43.655026941792293
 30
0.0
  0
VERTEX
  5
3D97
  8
L1
 10
58.138260131914869
 20
-44.010747122470093
 30
0.0
  0
VERTEX
  5
3D98
  8
L1
 10
57.803066324861788
 20
-44.291567759888459
 30
0.0
  0
VERTEX
  5
3D99
  8
L1
 10
57.457853840861439
 20
-44.417700814003318
 30
0.0
  0
VERTEX
  5
3D9A
  8
L1
 10
57.100290394762112
 20
-44.454040957736048
 30
0.0
  0
SEQEND
  5
3D9B
  8
L1
  0
LINE
  5
3217
  8
L1
 10
61.048761007919659
 20
-48.940067006392241
 30
0.0
 11
56.529651470492517
 21
-48.940067006392241
 31
0.0
  0
POLYLINE
  5
3218
  8
L1
 66
     1
 10
0.0
 20
0.0
 30
0.0
  0
VERTEX
  5
3D9C
  8
L1
 10
60.540858817249841
 20
-44.43764667670419
 30
0.0
  0
VERTEX
  5
3D9D
  8
L1
 10
60.501176846285709
 20
-44.822374479034238
 30
0.0
  0
VERTEX
  5
3D9E
  8
L1
 10
60.383625228817827
 20
-45.188461081674028
 30
0.0
  0
SEQEND
  5
3D9F
  8
L1
  0
POLYLINE
  5
3219
  8
L1
 66
     1
 10
0.0
 20
0.0
 30
0.0
  0
VERTEX
  5
3DA0
  8
L1
 10
58.890382429664839
 20
-46.38551280753105
 30
0.0
  0
VERTEX
  5
3DA1
  8
L1
 10
59.008055161472953
 20
-46.358875913250749
 30
0.0
  0
VERTEX
  5
3DA2
  8
L1
 10
59.645719806598152
 20
-46.070902912414539
 30
0.0
  0
VERTEX
  5
3DA3
  8
L1
 10
60.150496638427001
 20
-45.588426333293476
 30
0.0
  0
VERTEX
  5
3DA4
  8
L1
 10
60.383625228817827
 20
-45.188461081674028
 30
0.0
  0
SEQEND
  5
3DA5
  8
L1
  0
POLYLINE
  5
321A
  8
L1
 66
     1
 10
0.0
 20
0.0
 30
0.0
  0
VERTEX
  5
3DA6
  8
L1
 10
58.529009021259753
 20
-46.420315019732413
 30
0.0
  0
VERTEX
  5
3DA7
  8
L1
 10
58.541988374328753
 20
-46.420270579042459
 30
0.0
  0
VERTEX
  5
3DA8
  8
L1
 10
58.580267883838019
 20
-46.41962494306383
 30
0.0
  0
VERTEX
  5
3DA9
  8
L1
 10
58.65329579337935
 20
-46.416251614604477
 30
0.0
  0
VERTEX
  5
3DAA
  8
L1
 10
58.80765955103697
 20
-46.399736103854451
 30
0.0
  0
VERTEX
  5
3DAB
  8
L1
 10
58.890382429664839
 20
-46.38551280753105
 30
0.0
  0
SEQEND
  5
3DAC
  8
L1
  0
POLYLINE
  5
321B
  8
L1
 66
     1
 10
0.0
 20
0.0
 30
0.0
  0
VERTEX
  5
3DAD
  8
L1
 10
63.046020077428807
 20
-46.942807936883128
 30
0.0
  0
VERTEX
  5
3DAE
  8
L1
 10
62.894261988382141
 20
-47.707706345075991
 30
0.0
  0
VERTEX
  5
3DAF
  8
L1
 10
62.461594033947222
 20
-48.355640962910648
 30
0.0
  0
VERTEX
  5
3DB0
  8
L1
 10
61.8136594161125
 20
-48.788308917345653
 30
0.0
  0
VERTEX
  5
3DB1
  8
L1
 10
61.048761007919659
 20
-48.940067006392269
 30
0.0
  0
SEQEND
  5
3DB2
  8
L1
  0
LINE
  5
321C
  8
L1
 10
-43.012304130943562
 20
45.0123041309092
 30
0.0
 11
43.012304130874888
 21
45.01230413090925
 31
0.0
  0
LINE
  5
321D
  8
L1
 10
-43.075152331624331
 20
58.423664106919063
 30
0.0
 11
43.075191313553553
 21
58.423664106919091
 31
0.0
  0
LINE
  5
321E
  8
L1
 10
44.437646676669601
 20
60.540858817284288
 30
0.0
 11
-44.437646676738318
 21
60.540858817284253
 31
0.0
  0
LINE
  5
321F
  8
L1
 10
-46.942807936917227
 20
63.046020077463169
 30
0.0
 11
46.94280793684856
 21
63.046020077463197
 31
0.0
  0
LINE
  5
3220
  8
L1
 10
60.170682693003748
 20
63.665886064679079
 30
0.0
 11
-60.170682693072301
 21
63.665886064679057
 31
0.0
  0
LINE
  5
3221
  8
L1
 10
61.517100759233927
 20
65.012304130909257
 30
0.0
 11
-61.51710075930248
 21
65.0123041309092
 31
0.0
  0
LINE
  5
3222
  8
L6
 10
-68.314188390159188
 20
0.0
 30
0.0
 11
67.802405436393201
 21
0.0
 31
0.0
  0
POLYLINE
  5
3223
  8
L1
 66
     1
 10
0.0
 20
0.0
 30
0.0
  0
VERTEX
  5
3DB3
  8
L1
 10
-56.529651470561127
 20
48.940067006392091
 30
0.0
  0
VERTEX
  5
3DB4
  8
L1
 10
-56.144916159040918
 20
48.949827868377241
 30
0.0
  0
VERTEX
  5
3DB5
  8
L1
 10
-55.761216937116728
 20
48.979030165729483
 30
0.0
  0
VERTEX
  5
3DB6
  8
L1
 10
-55.379535323925673
 20
49.02759919771438
 30
0.0
  0
VERTEX
  5
3DB7
  8
L1
 10
-55.000847677475058
 20
49.095410722656027
 30
0.0
  0
VERTEX
  5
3DB8
  8
L1
 10
-54.626122697076312
 20
49.182291275752668
 30
0.0
  0
VERTEX
  5
3DB9
  8
L1
 10
-54.256318945370253
 20
49.288018612807171
 30
0.0
  0
VERTEX
  5
3DBA
  8
L1
 10
-53.892382396282763
 20
49.412322278737207
 30
0.0
  0
VERTEX
  5
3DBB
  8
L1
 10
-53.535244015182798
 20
49.554884299411043
 30
0.0
  0
VERTEX
  5
3DBC
  8
L1
 10
-53.18581737743272
 20
49.71533999503901
 30
0.0
  0
VERTEX
  5
3DBD
  8
L1
 10
-52.84499633142326
 20
49.893278913040177
 30
0.0
  0
VERTEX
  5
3DBE
  8
L1
 10
-52.513652712070673
 20
50.088245877997679
 30
0.0
  0
VERTEX
  5
3DBF
  8
L1
 10
-52.192634110625647
 20
50.299742156017111
 30
0.0
  0
VERTEX
  5
3DC0
  8
L1
 10
-51.882761706498457
 20
50.52722673050922
 30
0.0
  0
VERTEX
  5
3DC1
  8
L1
 10
-51.584828166646332
 20
50.770117686133709
 30
0.0
  0
VERTEX
  5
3DC2
  8
L1
 10
-51.29959561789758
 20
51.027793697363713
 30
0.0
  0
VERTEX
  5
3DC3
  8
L1
 10
-51.02779369739801
 20
51.299595617863282
 30
0.0
  0
VERTEX
  5
3DC4
  8
L1
 10
-50.770117686167957
 20
51.584828166612049
 30
0.0
  0
VERTEX
  5
3DC5
  8
L1
 10
-50.527226730543532
 20
51.882761706464152
 30
0.0
  0
VERTEX
  5
3DC6
  8
L1
 10
-50.299742156051423
 20
52.192634110591371
 30
0.0
  0
VERTEX
  5
3DC7
  8
L1
 10
-50.088245878032012
 20
52.513652712036361
 30
0.0
  0
VERTEX
  5
3DC8
  8
L1
 10
-49.893278913074482
 20
52.844996331388963
 30
0.0
  0
VERTEX
  5
3DC9
  8
L1
 10
-49.715339995073293
 20
53.18581737739845
 30
0.0
  0
VERTEX
  5
3DCA
  8
L1
 10
-49.554884299445341
 20
53.535244015148521
 30
0.0
  0
VERTEX
  5
3DCB
  8
L1
 10
-49.412322278771512
 20
53.892382396248451
 30
0.0
  0
VERTEX
  5
3DCC
  8
L1
 10
-49.288018612841483
 20
54.25631894533592
 30
0.0
  0
VERTEX
  5
3DCD
  8
L1
 10
-49.182291275786952
 20
54.626122697041978
 30
0.0
  0
VERTEX
  5
3DCE
  8
L1
 10
-49.095410722690303
 20
55.00084767744076
 30
0.0
  0
VERTEX
  5
3DCF
  8
L1
 10
-49.02759919774865
 20
55.379535323891332
 30
0.0
  0
VERTEX
  5
3DD0
  8
L1
 10
-48.979030165763781
 20
55.761216937082366
 30
0.0
  0
VERTEX
  5
3DD1
  8
L1
 10
-48.949827868411489
 20
56.144916159006641
 30
0.0
  0
VERTEX
  5
3DD2
  8
L1
 10
-48.940067006426382
 20
56.529651470526858
 30
0.0
  0
SEQEND
  5
3DD3
  8
L1
  0
POLYLINE
  5
3224
  8
L1
 66
     1
 10
0.0
 20
0.0
 30
0.0
  0
VERTEX
  5
3DD4
  8
L1
 10
-46.420485328254131
 20
54.010069792354606
 30
0.0
  0
VERTEX
  5
3DD5
  8
L1
 10
-46.420592184052097
 20
53.969931601290369
 30
0.0
  0
VERTEX
  5
3DD6
  8
L1
 10
-46.424117337549887
 20
53.778931333126707
 30
0.0
  0
VERTEX
  5
3DD7
  8
L1
 10
-46.450616464034283
 20
53.345504665492001
 30
0.0
  0
VERTEX
  5
3DD8
  8
L1
 10
-46.506736010602417
 20
52.885252413672447
 30
0.0
  0
VERTEX
  5
3DD9
  8
L1
 10
-46.62214139923929
 20
52.2915752311186
 30
0.0
  0
VERTEX
  5
3DDA
  8
L1
 10
-46.90552626675094
 20
51.360830127575952
 30
0.0
  0
VERTEX
  5
3DDB
  8
L1
 10
-47.305575376551872
 20
50.473509574882371
 30
0.0
  0
VERTEX
  5
3DDC
  8
L1
 10
-47.679708170321298
 20
49.843140846553837
 30
0.0
  0
VERTEX
  5
3DDD
  8
L1
 10
-48.112656330340428
 20
49.25143048837873
 30
0.0
  0
VERTEX
  5
3DDE
  8
L1
 10
-49.129276580203047
 20
48.213623938523533
 30
0.0
  0
VERTEX
  5
3DDF
  8
L1
 10
-50.191580607674837
 20
47.463226482567002
 30
0.0
  0
VERTEX
  5
3DE0
  8
L1
 10
-51.037658829524439
 20
47.035942226716081
 30
0.0
  0
VERTEX
  5
3DE1
  8
L1
 10
-51.930142620326819
 20
46.717074082744737
 30
0.0
  0
VERTEX
  5
3DE2
  8
L1
 10
-52.638456638820571
 20
46.548887378894619
 30
0.0
  0
VERTEX
  5
3DE3
  8
L1
 10
-53.208698420489718
 20
46.46440117554814
 30
0.0
  0
VERTEX
  5
3DE4
  8
L1
 10
-53.540044974376769
 20
46.435578683004678
 30
0.0
  0
VERTEX
  5
3DE5
  8
L1
 10
-53.851898993123029
 20
46.422174694199533
 30
0.0
  0
VERTEX
  5
3DE6
  8
L1
 10
-54.010049063797453
 20
46.420464599628389
 30
0.0
  0
SEQEND
  5
3DE7
  8
L1
  0
POLYLINE
  5
3225
  8
L1
 66
     1
 10
0.0
 20
0.0
 30
0.0
  0
VERTEX
  5
3DE8
  8
L1
 10
-57.100290394830779
 20
44.454040957735913
 30
0.0
  0
VERTEX
  5
3DE9
  8
L1
 10
-55.12958310587333
 20
44.453896341578911
 30
0.0
  0
VERTEX
  5
3DEA
  8
L1
 10
-54.198899509893181
 20
44.453818536426667
 30
0.0
  0
VERTEX
  5
3DEB
  8
L1
 10
-53.34825156458038
 20
44.453743298911967
 30
0.0
  0
VERTEX
  5
3DEC
  8
L1
 10
-52.610330983686133
 20
44.453675303299967
 30
0.0
  0
VERTEX
  5
3DED
  8
L1
 10
-52.017829480961723
 20
44.453619223855668
 30
0.0
  0
VERTEX
  5
3DEE
  8
L1
 10
-51.603438770158327
 20
44.45357973484419
 30
0.0
  0
VERTEX
  5
3DEF
  8
L1
 10
-51.399850565027293
 20
44.453561510530498
 30
0.0
  0
VERTEX
  5
3DF0
  8
L1
 10
-48.865195297500463
 20
44.460091736170142
 30
0.0
  0
VERTEX
  5
3DF1
  8
L1
 10
-48.241901190176122
 20
44.468094893257671
 30
0.0
  0
VERTEX
  5
3DF2
  8
L1
 10
-47.788729892109806
 20
44.475747109616456
 30
0.0
  0
VERTEX
  5
3DF3
  8
L1
 10
-47.441584518809911
 20
44.479175263475383
 30
0.0
  0
VERTEX
  5
3DF4
  8
L1
 10
-47.186483483429022
 20
44.480080126626852
 30
0.0
  0
VERTEX
  5
3DF5
  8
L1
 10
-46.793065960883212
 20
44.485148469008273
 30
0.0
  0
VERTEX
  5
3DF6
  8
L1
 10
-46.256899934762203
 20
44.529598540970731
 30
0.0
  0
VERTEX
  5
3DF7
  8
L1
 10
-45.82605721776104
 20
44.641635904883849
 30
0.0
  0
VERTEX
  5
3DF8
  8
L1
 10
-45.475698902463989
 20
44.818546972954813
 30
0.0
  0
VERTEX
  5
3DF9
  8
L1
 10
-45.17875858101791
 20
45.045191923456173
 30
0.0
  0
VERTEX
  5
3DFA
  8
L1
 10
-44.869780946986623
 20
45.400177662988881
 30
0.0
  0
VERTEX
  5
3DFB
  8
L1
 10
-44.712219408015073
 20
45.672025835002131
 30
0.0
  0
VERTEX
  5
3DFC
  8
L1
 10
-44.519404587445528
 20
46.375897861847932
 30
0.0
  0
VERTEX
  5
3DFD
  8
L1
 10
-44.486115986806617
 20
46.964669316996321
 30
0.0
  0
VERTEX
  5
3DFE
  8
L1
 10
-44.483813889028333
 20
47.326694823543498
 30
0.0
  0
VERTEX
  5
3DFF
  8
L1
 10
-44.479788883581357
 20
47.803691474778759
 30
0.0
  0
VERTEX
  5
3E00
  8
L1
 10
-44.470405628096437
 20
48.324251987246207
 30
0.0
  0
VERTEX
  5
3E01
  8
L1
 10
-44.465112038323412
 20
48.650234162324409
 30
0.0
  0
VERTEX
  5
3E02
  8
L1
 10
-44.460447215597178
 20
49.067263443519842
 30
0.0
  0
VERTEX
  5
3E03
  8
L1
 10
-44.455314964927709
 20
49.955249152811909
 30
0.0
  0
VERTEX
  5
3E04
  8
L1
 10
-44.454035986378692
 20
50.530751382343567
 30
0.0
  0
VERTEX
  5
3E05
  8
L1
 10
-44.453397941333428
 20
51.273153188240542
 30
0.0
  0
VERTEX
  5
3E06
  8
L1
 10
-44.453237956527232
 20
52.24187456533403
 30
0.0
  0
VERTEX
  5
3E07
  8
L1
 10
-44.453286338818423
 20
52.829673841464341
 30
0.0
  0
VERTEX
  5
3E08
  8
L1
 10
-44.453393158695057
 20
53.496335508455417
 30
0.0
  0
VERTEX
  5
3E09
  8
L1
 10
-44.453538056998873
 20
54.249287065661413
 30
0.0
  0
VERTEX
  5
3E0A
  8
L1
 10
-44.453700674571849
 20
55.095956012435998
 30
0.0
  0
VERTEX
  5
3E0B
  8
L1
 10
-44.453860652255912
 20
56.043769848133202
 30
0.0
  0
VERTEX
  5
3E0C
  8
L1
 10
-44.4539976308929
 20
57.100156072106898
 30
0.0
  0
SEQEND
  5
3E0D
  8
L1
  0
POLYLINE
  5
3226
  8
L1
 66
     1
 10
0.0
 20
0.0
 30
0.0
  0
VERTEX
  5
3E0E
  8
L1
 10
-58.890382429733499
 20
46.385512807530908
 30
0.0
  0
VERTEX
  5
3E0F
  8
L1
 10
-59.00805516154162
 20
46.358875913250607
 30
0.0
  0
VERTEX
  5
3E10
  8
L1
 10
-59.645719806666818
 20
46.070902912414397
 30
0.0
  0
VERTEX
  5
3E11
  8
L1
 10
-60.15049663849566
 20
45.588426333293341
 30
0.0
  0
VERTEX
  5
3E12
  8
L1
 10
-60.383625228886501
 20
45.188461081673893
 30
0.0
  0
SEQEND
  5
3E13
  8
L1
  0
LINE
  5
3227
  8
L1
 10
-61.048761007988332
 20
48.940067006392091
 30
0.0
 11
-56.529651470561191
 21
48.940067006392091
 31
0.0
  0
POLYLINE
  5
3228
  8
L1
 66
     1
 10
0.0
 20
0.0
 30
0.0
  0
VERTEX
  5
3E14
  8
L1
 10
-63.046020077497467
 20
46.942807936882993
 30
0.0
  0
VERTEX
  5
3E15
  8
L1
 10
-62.894261988450808
 20
47.707706345075842
 30
0.0
  0
VERTEX
  5
3E16
  8
L1
 10
-62.461594034015889
 20
48.355640962910513
 30
0.0
  0
VERTEX
  5
3E17
  8
L1
 10
-61.813659416181167
 20
48.78830891734551
 30
0.0
  0
VERTEX
  5
3E18
  8
L1
 10
-61.048761007988332
 20
48.940067006392127
 30
0.0
  0
SEQEND
  5
3E19
  8
L1
  0
POLYLINE
  5
3229
  8
L1
 66
     1
 10
0.0
 20
0.0
 30
0.0
  0
VERTEX
  5
3E1A
  8
L1
 10
-60.540858817318501
 20
44.437646676704048
 30
0.0
  0
VERTEX
  5
3E1B
  8
L1
 10
-60.501176846354383
 20
44.822374479034089
 30
0.0
  0
VERTEX
  5
3E1C
  8
L1
 10
-60.383625228886501
 20
45.188461081673893
 30
0.0
  0
SEQEND
  5
3E1D
  8
L1
  0
POLYLINE
  5
322A
  8
L1
 66
     1
 10
0.0
 20
0.0
 30
0.0
  0
VERTEX
  5
3E1E
  8
L1
 10
-54.010049063797453
 20
46.420464599628389
 30
0.0
  0
VERTEX
  5
3E1F
  8
L1
 10
-54.654487043359381
 20
46.420351105562517
 30
0.0
  0
VERTEX
  5
3E20
  8
L1
 10
-55.06508686908716
 20
46.420262806217522
 30
0.0
  0
VERTEX
  5
3E21
  8
L1
 10
-55.396785856331682
 20
46.420221284052097
 30
0.0
  0
VERTEX
  5
3E22
  8
L1
 10
-55.971434955241591
 20
46.420233945030837
 30
0.0
  0
VERTEX
  5
3E23
  8
L1
 10
-56.674341619830898
 20
46.420299836040272
 30
0.0
  0
VERTEX
  5
3E24
  8
L1
 10
-57.166362564174513
 20
46.420324851413341
 30
0.0
  0
VERTEX
  5
3E25
  8
L1
 10
-57.80141312984108
 20
46.420329704622219
 30
0.0
  0
VERTEX
  5
3E26
  8
L1
 10
-58.52900902132842
 20
46.420315019732271
 30
0.0
  0
SEQEND
  5
3E27
  8
L1
  0
POLYLINE
  5
322B
  8
L1
 66
     1
 10
0.0
 20
0.0
 30
0.0
  0
VERTEX
  5
3E28
  8
L1
 10
-58.52900902132842
 20
46.420315019732271
 30
0.0
  0
VERTEX
  5
3E29
  8
L1
 10
-58.54198837439742
 20
46.420270579042317
 30
0.0
  0
VERTEX
  5
3E2A
  8
L1
 10
-58.580267883906679
 20
46.419624943063688
 30
0.0
  0
VERTEX
  5
3E2B
  8
L1
 10
-58.653295793448017
 20
46.416251614604327
 30
0.0
  0
VERTEX
  5
3E2C
  8
L1
 10
-58.807659551105651
 20
46.399736103854309
 30
0.0
  0
VERTEX
  5
3E2D
  8
L1
 10
-58.890382429733499
 20
46.385512807530908
 30
0.0
  0
SEQEND
  5
3E2E
  8
L1
  0
POLYLINE
  5
322C
  8
L1
 66
     1
 10
0.0
 20
0.0
 30
0.0
  0
VERTEX
  5
3E2F
  8
L1
 10
-58.423664106953368
 20
43.07519131347663
 30
0.0
  0
VERTEX
  5
3E30
  8
L1
 10
-58.422823394368827
 20
43.135795432182498
 30
0.0
  0
VERTEX
  5
3E31
  8
L1
 10
-58.332332524254689
 20
43.655026941792151
 30
0.0
  0
VERTEX
  5
3E32
  8
L1
 10
-58.13826013198355
 20
44.010747122469951
 30
0.0
  0
VERTEX
  5
3E33
  8
L1
 10
-57.803066324930448
 20
44.291567759888324
 30
0.0
  0
VERTEX
  5
3E34
  8
L1
 10
-57.457853840930113
 20
44.417700814003183
 30
0.0
  0
VERTEX
  5
3E35
  8
L1
 10
-57.100290394830779
 20
44.454040957735913
 30
0.0
  0
SEQEND
  5
3E36
  8
L1
  0
ARC
  5
322D
  8
L1
 10
-43.012304130943562
 20
43.012304130909172
 30
0.0
 40
2.0
 50
90.0
 51
180.0
  0
POLYLINE
  5
322E
  8
L1
 66
     1
 10
0.0
 20
0.0
 30
0.0
  0
VERTEX
  5
3E37
  8
L1
 10
-59.263214172969533
 20
61.883099641752239
 30
0.0
  0
VERTEX
  5
3E38
  8
L1
 10
-59.245965950192158
 20
61.867206662007902
 30
0.0
  0
VERTEX
  5
3E39
  8
L1
 10
-59.197587405206257
 20
61.820028179014678
 30
0.0
  0
VERTEX
  5
3E3A
  8
L1
 10
-59.124081047160068
 20
61.747342135618972
 30
0.0
  0
VERTEX
  5
3E3B
  8
L1
 10
-59.03574653443934
 20
61.659302189691481
 30
0.0
  0
SEQEND
  5
3E3C
  8
L1
  0
LINE
  5
322F
  8
L1
 10
-56.968840929905582
 20
51.799700862313209
 30
0.0
 11
-61.70029913772111
 21
56.531159070128751
 31
0.0
  0
CIRCLE
  5
3230
  8
L1
 10
-56.750000000034333
 20
56.750000000000028
 30
0.0
 40
5.797404786259249
  0
CIRCLE
  5
3231
  8
L1
 10
-56.750000000034333
 20
56.750000000000028
 30
0.0
 40
6.097393363178492
  0
POLYLINE
  5
3232
  8
L1
 66
     1
 10
0.0
 20
0.0
 30
0.0
  0
VERTEX
  5
3E3D
  8
L1
 10
-60.170682693072301
 20
63.665886064679057
 30
0.0
  0
VERTEX
  5
3E3E
  8
L1
 10
-60.44511618632248
 20
63.655078390929503
 30
0.0
  0
VERTEX
  5
3E3F
  8
L1
 10
-60.717807988590941
 20
63.622807465084321
 30
0.0
  0
VERTEX
  5
3E40
  8
L1
 10
-60.987082719390003
 20
63.56927155522132
 30
0.0
  0
VERTEX
  5
3E41
  8
L1
 10
-61.251285992243758
 20
63.494799578521139
 30
0.0
  0
VERTEX
  5
3E42
  8
L1
 10
-61.508794579008047
 20
63.39984908044574
 30
0.0
  0
VERTEX
  5
3E43
  8
L1
 10
-61.758026382758537
 20
63.285003423642713
 30
0.0
  0
VERTEX
  5
3E44
  8
L1
 10
-61.997450157974072
 20
63.15096820384656
 30
0.0
  0
VERTEX
  5
3E45
  8
L1
 10
-62.225594918295769
 20
62.998566914796413
 30
0.0
  0
VERTEX
  5
3E46
  8
L1
 10
-62.441058974062969
 20
62.828735888805419
 30
0.0
  0
VERTEX
  5
3E47
  8
L1
 10
-62.642518544099289
 20
62.642518544064949
 30
0.0
  0
VERTEX
  5
3E48
  8
L1
 10
-62.828735888839731
 20
62.441058974028657
 30
0.0
  0
VERTEX
  5
3E49
  8
L1
 10
-62.99856691483069
 20
62.225594918261429
 30
0.0
  0
VERTEX
  5
3E4A
  8
L1
 10
-63.150968203880844
 20
61.99745015793976
 30
0.0
  0
VERTEX
  5
3E4B
  8
L1
 10
-63.285003423676983
 20
61.75802638272426
 30
0.0
  0
VERTEX
  5
3E4C
  8
L1
 10
-63.39984908048001
 20
61.508794578973777
 30
0.0
  0
VERTEX
  5
3E4D
  8
L1
 10
-63.494799578555437
 20
61.251285992209461
 30
0.0
  0
VERTEX
  5
3E4E
  8
L1
 10
-63.569271555255618
 20
60.987082719355698
 30
0.0
  0
VERTEX
  5
3E4F
  8
L1
 10
-63.622807465118633
 20
60.717807988556586
 30
0.0
  0
VERTEX
  5
3E50
  8
L1
 10
-63.655078390963801
 20
60.445116186288168
 30
0.0
  0
VERTEX
  5
3E51
  8
L1
 10
-63.665886064713327
 20
60.170682693038032
 30
0.0
  0
SEQEND
  5
3E52
  8
L1
  0
ARC
  5
3233
  8
L1
 10
-56.750000000034333
 20
56.750000000000028
 30
0.0
 40
5.7825462644184809
 50
117.0165228096392
 51
152.98347719036059
  0
POLYLINE
  5
3234
  8
L1
 66
     1
 10
0.0
 20
0.0
 30
0.0
  0
VERTEX
  5
3E53
  8
L1
 10
-61.65930218972585
 20
59.035746534405
 30
0.0
  0
VERTEX
  5
3E54
  8
L1
 10
-61.747342135653291
 20
59.124081047125742
 30
0.0
  0
VERTEX
  5
3E55
  8
L1
 10
-61.820028179049011
 20
59.197587405171952
 30
0.0
  0
VERTEX
  5
3E56
  8
L1
 10
-61.867206662042229
 20
59.245965950157817
 30
0.0
  0
VERTEX
  5
3E57
  8
L1
 10
-61.883099641786544
 20
59.263214172935157
 30
0.0
  0
SEQEND
  5
3E58
  8
L1
  0
POLYLINE
  5
3235
  8
L1
 66
     1
 10
0.0
 20
0.0
 30
0.0
  0
VERTEX
  5
3E59
  8
L1
 10
-61.883099641786544
 20
59.263214172935143
 30
0.0
  0
VERTEX
  5
3E5A
  8
L1
 10
-61.901529179322146
 20
59.376706762295072
 30
0.0
  0
SEQEND
  5
3E5B
  8
L1
  0
LINE
  5
3236
  8
L1
 10
-61.310764651825593
 20
58.6872089965048
 30
0.0
 11
-61.65930218972585
 21
59.035746534405042
 31
0.0
  0
ARC
  5
3237
  8
L1
 10
-56.750000000034333
 20
56.75
 30
0.0
 40
4.9551339946734032
 50
156.98638392760739
 51
182.53126179329109
  0
POLYLINE
  5
3238
  8
L1
 66
     1
 10
0.0
 20
0.0
 30
0.0
  0
VERTEX
  5
3E5C
  8
L1
 10
-61.557000000034293
 20
65.012088437774111
 30
0.0
  0
VERTEX
  5
3E5D
  8
L1
 10
-62.218787602479601
 20
64.941714390114413
 30
0.0
  0
VERTEX
  5
3E5E
  8
L1
 10
-62.87377238627527
 20
64.739585002002457
 30
0.0
  0
VERTEX
  5
3E5F
  8
L1
 10
-63.476619230930389
 20
64.41344075018614
 30
0.0
  0
VERTEX
  5
3E60
  8
L1
 10
-63.989929119107948
 20
63.989929119073743
 30
0.0
  0
VERTEX
  5
3E61
  8
L1
 10
-64.413440750220389
 20
63.476619230896141
 30
0.0
  0
VERTEX
  5
3E62
  8
L1
 10
-64.73958500203679
 20
62.873772386241093
 30
0.0
  0
VERTEX
  5
3E63
  8
L1
 10
-64.941714390148718
 20
62.218787602445332
 30
0.0
  0
VERTEX
  5
3E64
  8
L1
 10
-65.012088437808416
 20
61.557000000000023
 30
0.0
  0
SEQEND
  5
3E65
  8
L1
  0
POLYLINE
  5
3239
  8
L1
 66
     1
 10
0.0
 20
0.0
 30
0.0
  0
VERTEX
  5
3E66
  8
L1
 10
-65.012088437808416
 20
61.557000000000023
 30
0.0
  0
VERTEX
  5
3E67
  8
L1
 10
-65.012250207223246
 20
61.537048032038221
 30
0.0
  0
VERTEX
  5
3E68
  8
L1
 10
-65.012304130943562
 20
61.517100759268182
 30
0.0
  0
SEQEND
  5
3E69
  8
L1
  0
POLYLINE
  5
323A
  8
L1
 66
     1
 10
0.0
 20
0.0
 30
0.0
  0
VERTEX
  5
3E6A
  8
L1
 10
-61.51710075930248
 20
65.0123041309092
 30
0.0
  0
VERTEX
  5
3E6B
  8
L1
 10
-61.537048032072562
 20
65.012250207188885
 30
0.0
  0
VERTEX
  5
3E6C
  8
L1
 10
-61.557000000034293
 20
65.012088437774111
 30
0.0
  0
SEQEND
  5
3E6D
  8
L1
  0
POLYLINE
  5
323B
  8
L1
 66
     1
 10
0.0
 20
0.0
 30
0.0
  0
VERTEX
  5
3E6E
  8
L1
 10
-59.37670676232937
 20
61.901529179287792
 30
0.0
  0
VERTEX
  5
3E6F
  8
L1
 10
-59.263214172969462
 20
61.88309964175221
 30
0.0
  0
SEQEND
  5
3E70
  8
L1
  0
POLYLINE
  5
323C
  8
L1
 66
     1
 10
0.0
 20
0.0
 30
0.0
  0
VERTEX
  5
3E71
  8
L1
 10
-48.940067006426382
 20
61.048761007954077
 30
0.0
  0
VERTEX
  5
3E72
  8
L1
 10
-48.788308917379823
 20
61.813659416146947
 30
0.0
  0
VERTEX
  5
3E73
  8
L1
 10
-48.35564096294479
 20
62.461594033981612
 30
0.0
  0
VERTEX
  5
3E74
  8
L1
 10
-47.707706345110068
 20
62.894261988416609
 30
0.0
  0
VERTEX
  5
3E75
  8
L1
 10
-46.942807936917227
 20
63.046020077463218
 30
0.0
  0
SEQEND
  5
3E76
  8
L1
  0
LINE
  5
323D
  8
L1
 10
-59.03574653443934
 20
61.659302189691509
 30
0.0
 11
-58.687208996539141
 21
61.310764651791288
 31
0.0
  0
ARC
  5
323E
  8
L1
 10
-56.750000000034333
 20
56.75
 30
0.0
 40
4.9551339946734032
 50
87.46873820670892
 51
113.0136160723919
  0
LINE
  5
323F
  8
L1
 10
-56.53115907016285
 20
61.700299137686699
 30
0.0
 11
-51.799700862347493
 21
56.968840929871327
 31
0.0
  0
ARC
  5
3240
  8
L1
 10
-56.750000000034333
 20
56.75
 30
0.0
 40
4.9551339946734032
 50
267.46873820670891
 51
2.5312617932911539
  0
LINE
  5
3241
  8
L1
 10
-48.940067006426382
 20
56.529651470526858
 30
0.0
 11
-48.940067006426382
 21
61.048761007954077
 31
0.0
  0
POLYLINE
  5
3242
  8
L1
 66
     1
 10
0.0
 20
0.0
 30
0.0
  0
VERTEX
  5
3E77
  8
L1
 10
-46.420325997529567
 20
58.529019999057311
 30
0.0
  0
VERTEX
  5
3E78
  8
L1
 10
-46.420335247240359
 20
57.412644394154711
 30
0.0
  0
VERTEX
  5
3E79
  8
L1
 10
-46.420316729527478
 20
56.79797437735288
 30
0.0
  0
VERTEX
  5
3E7A
  8
L1
 10
-46.420287737525648
 20
56.342431028023213
 30
0.0
  0
VERTEX
  5
3E7B
  8
L1
 10
-46.420245961481953
 20
55.643506229381558
 30
0.0
  0
VERTEX
  5
3E7C
  8
L1
 10
-46.420284181539948
 20
55.052647450542622
 30
0.0
  0
VERTEX
  5
3E7D
  8
L1
 10
-46.420375148284613
 20
54.63768164978012
 30
0.0
  0
VERTEX
  5
3E7E
  8
L1
 10
-46.420485328254131
 20
54.010069792354606
 30
0.0
  0
SEQEND
  5
3E7F
  8
L1
  0
POLYLINE
  5
3243
  8
L1
 66
     1
 10
0.0
 20
0.0
 30
0.0
  0
VERTEX
  5
3E80
  8
L1
 10
-44.4539976308929
 20
57.100156072106898
 30
0.0
  0
VERTEX
  5
3E81
  8
L1
 10
-44.391855197871848
 20
57.5590957709598
 30
0.0
  0
VERTEX
  5
3E82
  8
L1
 10
-44.216260323726658
 20
57.922716035269161
 30
0.0
  0
VERTEX
  5
3E83
  8
L1
 10
-43.895990596507367
 20
58.218488084637123
 30
0.0
  0
VERTEX
  5
3E84
  8
L1
 10
-43.530079043727092
 20
58.370100048988711
 30
0.0
  0
VERTEX
  5
3E85
  8
L1
 10
-43.099524093906197
 20
58.423529428565843
 30
0.0
  0
VERTEX
  5
3E86
  8
L1
 10
-43.075152331624331
 20
58.423664106919063
 30
0.0
  0
SEQEND
  5
3E87
  8
L1
  0
POLYLINE
  5
3244
  8
L1
 66
     1
 10
0.0
 20
0.0
 30
0.0
  0
VERTEX
  5
3E88
  8
L1
 10
-45.188304356210828
 20
60.383694326696791
 30
0.0
  0
VERTEX
  5
3E89
  8
L1
 10
-44.82229039860988
 20
60.501194452198149
 30
0.0
  0
VERTEX
  5
3E8A
  8
L1
 10
-44.437646676738318
 20
60.540858817284317
 30
0.0
  0
SEQEND
  5
3E8B
  8
L1
  0
POLYLINE
  5
3245
  8
L1
 66
     1
 10
0.0
 20
0.0
 30
0.0
  0
VERTEX
  5
3E8C
  8
L1
 10
-46.38550908271656
 20
58.890468244896532
 30
0.0
  0
VERTEX
  5
3E8D
  8
L1
 10
-46.399975157314032
 20
58.80613573193537
 30
0.0
  0
VERTEX
  5
3E8E
  8
L1
 10
-46.413408931154713
 20
58.691061878509402
 30
0.0
  0
VERTEX
  5
3E8F
  8
L1
 10
-46.418208459260427
 20
58.618791314356031
 30
0.0
  0
VERTEX
  5
3E90
  8
L1
 10
-46.419990640412152
 20
58.564750672259493
 30
0.0
  0
VERTEX
  5
3E91
  8
L1
 10
-46.420325467301893
 20
58.5303991114883
 30
0.0
  0
VERTEX
  5
3E92
  8
L1
 10
-46.420325997529567
 20
58.529019999057311
 30
0.0
  0
SEQEND
  5
3E93
  8
L1
  0
POLYLINE
  5
3246
  8
L1
 66
     1
 10
0.0
 20
0.0
 30
0.0
  0
VERTEX
  5
3E94
  8
L1
 10
-45.188304356210828
 20
60.383694326696791
 30
0.0
  0
VERTEX
  5
3E95
  8
L1
 10
-45.324276473463499
 20
60.317682456810417
 30
0.0
  0
VERTEX
  5
3E96
  8
L1
 10
-45.87278753061463
 20
59.895256596223788
 30
0.0
  0
VERTEX
  5
3E97
  8
L1
 10
-46.094602294704593
 20
59.609902847080001
 30
0.0
  0
VERTEX
  5
3E98
  8
L1
 10
-46.263734026064697
 20
59.289916846735508
 30
0.0
  0
VERTEX
  5
3E99
  8
L1
 10
-46.38550908271656
 20
58.890468244896532
 30
0.0
  0
SEQEND
  5
3E9A
  8
L1
  0
POLYLINE
  5
3247
  8
L1
 66
     1
 10
0.0
 20
0.0
 30
0.0
  0
VERTEX
  5
3E9B
  8
L1
 10
46.420485328185457
 20
54.010069792354606
 30
0.0
  0
VERTEX
  5
3E9C
  8
L1
 10
46.420592183983437
 20
53.969931601290369
 30
0.0
  0
VERTEX
  5
3E9D
  8
L1
 10
46.424117337481213
 20
53.778931333126707
 30
0.0
  0
VERTEX
  5
3E9E
  8
L1
 10
46.450616463965623
 20
53.345504665492001
 30
0.0
  0
VERTEX
  5
3E9F
  8
L1
 10
46.506736010533757
 20
52.885252413672447
 30
0.0
  0
VERTEX
  5
3EA0
  8
L1
 10
46.62214139917063
 20
52.2915752311186
 30
0.0
  0
VERTEX
  5
3EA1
  8
L1
 10
46.905526266682273
 20
51.360830127575952
 30
0.0
  0
VERTEX
  5
3EA2
  8
L1
 10
47.305575376483198
 20
50.473509574882371
 30
0.0
  0
VERTEX
  5
3EA3
  8
L1
 10
47.679708170252638
 20
49.843140846553837
 30
0.0
  0
VERTEX
  5
3EA4
  8
L1
 10
48.112656330271761
 20
49.25143048837873
 30
0.0
  0
VERTEX
  5
3EA5
  8
L1
 10
49.129276580134388
 20
48.213623938523533
 30
0.0
  0
VERTEX
  5
3EA6
  8
L1
 10
50.191580607606163
 20
47.463226482567002
 30
0.0
  0
VERTEX
  5
3EA7
  8
L1
 10
51.037658829455779
 20
47.035942226716081
 30
0.0
  0
VERTEX
  5
3EA8
  8
L1
 10
51.930142620258152
 20
46.717074082744737
 30
0.0
  0
VERTEX
  5
3EA9
  8
L1
 10
52.638456638751911
 20
46.548887378894619
 30
0.0
  0
VERTEX
  5
3EAA
  8
L1
 10
53.208698420421058
 20
46.46440117554814
 30
0.0
  0
VERTEX
  5
3EAB
  8
L1
 10
53.540044974308103
 20
46.435578683004678
 30
0.0
  0
VERTEX
  5
3EAC
  8
L1
 10
53.851898993054363
 20
46.422174694199533
 30
0.0
  0
VERTEX
  5
3EAD
  8
L1
 10
54.010049063728793
 20
46.420464599628389
 30
0.0
  0
SEQEND
  5
3EAE
  8
L1
  0
POLYLINE
  5
3248
  8
L1
 66
     1
 10
0.0
 20
0.0
 30
0.0
  0
VERTEX
  5
3EAF
  8
L1
 10
56.529651470492468
 20
48.940067006392091
 30
0.0
  0
VERTEX
  5
3EB0
  8
L1
 10
56.144916158972251
 20
48.949827868377241
 30
0.0
  0
VERTEX
  5
3EB1
  8
L1
 10
55.761216937048061
 20
48.979030165729483
 30
0.0
  0
VERTEX
  5
3EB2
  8
L1
 10
55.379535323856992
 20
49.02759919771438
 30
0.0
  0
VERTEX
  5
3EB3
  8
L1
 10
55.000847677406398
 20
49.095410722656027
 30
0.0
  0
VERTEX
  5
3EB4
  8
L1
 10
54.626122697007638
 20
49.182291275752668
 30
0.0
  0
VERTEX
  5
3EB5
  8
L1
 10
54.256318945301587
 20
49.288018612807171
 30
0.0
  0
VERTEX
  5
3EB6
  8
L1
 10
53.892382396214089
 20
49.412322278737207
 30
0.0
  0
VERTEX
  5
3EB7
  8
L1
 10
53.535244015114131
 20
49.554884299411043
 30
0.0
  0
VERTEX
  5
3EB8
  8
L1
 10
53.18581737736406
 20
49.71533999503901
 30
0.0
  0
VERTEX
  5
3EB9
  8
L1
 10
52.844996331354587
 20
49.893278913040177
 30
0.0
  0
VERTEX
  5
3EBA
  8
L1
 10
52.513652712001992
 20
50.088245877997679
 30
0.0
  0
VERTEX
  5
3EBB
  8
L1
 10
52.19263411055698
 20
50.299742156017111
 30
0.0
  0
VERTEX
  5
3EBC
  8
L1
 10
51.882761706429783
 20
50.52722673050922
 30
0.0
  0
VERTEX
  5
3EBD
  8
L1
 10
51.584828166577658
 20
50.770117686133709
 30
0.0
  0
VERTEX
  5
3EBE
  8
L1
 10
51.299595617828913
 20
51.027793697363713
 30
0.0
  0
VERTEX
  5
3EBF
  8
L1
 10
51.027793697329336
 20
51.299595617863282
 30
0.0
  0
VERTEX
  5
3EC0
  8
L1
 10
50.770117686099297
 20
51.584828166612049
 30
0.0
  0
VERTEX
  5
3EC1
  8
L1
 10
50.527226730474872
 20
51.882761706464152
 30
0.0
  0
VERTEX
  5
3EC2
  8
L1
 10
50.299742155982763
 20
52.192634110591371
 30
0.0
  0
VERTEX
  5
3EC3
  8
L1
 10
50.088245877963338
 20
52.513652712036361
 30
0.0
  0
VERTEX
  5
3EC4
  8
L1
 10
49.893278913005823
 20
52.844996331388963
 30
0.0
  0
VERTEX
  5
3EC5
  8
L1
 10
49.715339995004619
 20
53.18581737739845
 30
0.0
  0
VERTEX
  5
3EC6
  8
L1
 10
49.554884299376681
 20
53.535244015148521
 30
0.0
  0
VERTEX
  5
3EC7
  8
L1
 10
49.412322278702838
 20
53.892382396248451
 30
0.0
  0
VERTEX
  5
3EC8
  8
L1
 10
49.288018612772817
 20
54.25631894533592
 30
0.0
  0
VERTEX
  5
3EC9
  8
L1
 10
49.182291275718278
 20
54.626122697041978
 30
0.0
  0
VERTEX
  5
3ECA
  8
L1
 10
49.095410722621637
 20
55.00084767744076
 30
0.0
  0
VERTEX
  5
3ECB
  8
L1
 10
49.02759919767999
 20
55.379535323891332
 30
0.0
  0
VERTEX
  5
3ECC
  8
L1
 10
48.979030165695121
 20
55.761216937082366
 30
0.0
  0
VERTEX
  5
3ECD
  8
L1
 10
48.949827868342823
 20
56.144916159006641
 30
0.0
  0
VERTEX
  5
3ECE
  8
L1
 10
48.940067006357701
 20
56.529651470526858
 30
0.0
  0
SEQEND
  5
3ECF
  8
L1
  0
POLYLINE
  5
3249
  8
L1
 66
     1
 10
0.0
 20
0.0
 30
0.0
  0
VERTEX
  5
3ED0
  8
L1
 10
57.100290394762112
 20
44.454040957735913
 30
0.0
  0
VERTEX
  5
3ED1
  8
L1
 10
55.12958310580467
 20
44.453896341578911
 30
0.0
  0
VERTEX
  5
3ED2
  8
L1
 10
54.198899509824507
 20
44.453818536426667
 30
0.0
  0
VERTEX
  5
3ED3
  8
L1
 10
53.348251564511713
 20
44.453743298911967
 30
0.0
  0
VERTEX
  5
3ED4
  8
L1
 10
52.610330983617473
 20
44.453675303299967
 30
0.0
  0
VERTEX
  5
3ED5
  8
L1
 10
52.017829480893063
 20
44.453619223855668
 30
0.0
  0
VERTEX
  5
3ED6
  8
L1
 10
51.60343877008966
 20
44.45357973484419
 30
0.0
  0
VERTEX
  5
3ED7
  8
L1
 10
51.399850564958633
 20
44.453561510530498
 30
0.0
  0
VERTEX
  5
3ED8
  8
L1
 10
48.865195297431789
 20
44.460091736170142
 30
0.0
  0
VERTEX
  5
3ED9
  8
L1
 10
48.241901190107448
 20
44.468094893257671
 30
0.0
  0
VERTEX
  5
3EDA
  8
L1
 10
47.78872989204114
 20
44.475747109616456
 30
0.0
  0
VERTEX
  5
3EDB
  8
L1
 10
47.441584518741251
 20
44.479175263475383
 30
0.0
  0
VERTEX
  5
3EDC
  8
L1
 10
47.186483483360341
 20
44.480080126626852
 30
0.0
  0
VERTEX
  5
3EDD
  8
L1
 10
46.793065960814538
 20
44.485148469008273
 30
0.0
  0
VERTEX
  5
3EDE
  8
L1
 10
46.256899934693529
 20
44.529598540970731
 30
0.0
  0
VERTEX
  5
3EDF
  8
L1
 10
45.82605721769238
 20
44.641635904883849
 30
0.0
  0
VERTEX
  5
3EE0
  8
L1
 10
45.475698902395322
 20
44.818546972954813
 30
0.0
  0
VERTEX
  5
3EE1
  8
L1
 10
45.178758580949243
 20
45.045191923456173
 30
0.0
  0
VERTEX
  5
3EE2
  8
L1
 10
44.869780946917949
 20
45.400177662988881
 30
0.0
  0
VERTEX
  5
3EE3
  8
L1
 10
44.712219407946407
 20
45.672025835002131
 30
0.0
  0
VERTEX
  5
3EE4
  8
L1
 10
44.519404587376869
 20
46.375897861847932
 30
0.0
  0
VERTEX
  5
3EE5
  8
L1
 10
44.48611598673795
 20
46.964669316996321
 30
0.0
  0
VERTEX
  5
3EE6
  8
L1
 10
44.483813888959673
 20
47.326694823543498
 30
0.0
  0
VERTEX
  5
3EE7
  8
L1
 10
44.47978888351269
 20
47.803691474778759
 30
0.0
  0
VERTEX
  5
3EE8
  8
L1
 10
44.470405628027777
 20
48.324251987246207
 30
0.0
  0
VERTEX
  5
3EE9
  8
L1
 10
44.465112038254738
 20
48.650234162324409
 30
0.0
  0
VERTEX
  5
3EEA
  8
L1
 10
44.460447215528511
 20
49.067263443519842
 30
0.0
  0
VERTEX
  5
3EEB
  8
L1
 10
44.455314964859042
 20
49.955249152811909
 30
0.0
  0
VERTEX
  5
3EEC
  8
L1
 10
44.454035986310032
 20
50.530751382343567
 30
0.0
  0
VERTEX
  5
3EED
  8
L1
 10
44.453397941264768
 20
51.273153188240542
 30
0.0
  0
VERTEX
  5
3EEE
  8
L1
 10
44.453237956458558
 20
52.24187456533403
 30
0.0
  0
VERTEX
  5
3EEF
  8
L1
 10
44.453286338749763
 20
52.829673841464341
 30
0.0
  0
VERTEX
  5
3EF0
  8
L1
 10
44.45339315862639
 20
53.496335508455417
 30
0.0
  0
VERTEX
  5
3EF1
  8
L1
 10
44.453538056930192
 20
54.249287065661413
 30
0.0
  0
VERTEX
  5
3EF2
  8
L1
 10
44.453700674503182
 20
55.095956012435998
 30
0.0
  0
VERTEX
  5
3EF3
  8
L1
 10
44.453860652187238
 20
56.043769848133202
 30
0.0
  0
VERTEX
  5
3EF4
  8
L1
 10
44.453997630824233
 20
57.100156072106898
 30
0.0
  0
SEQEND
  5
3EF5
  8
L1
  0
ARC
  5
324A
  8
L1
 10
43.012304130874888
 20
43.012304130909172
 30
0.0
 40
2.0
 50
0.0
 51
90.0
  0
POLYLINE
  5
324B
  8
L1
 66
     1
 10
0.0
 20
0.0
 30
0.0
  0
VERTEX
  5
3EF6
  8
L1
 10
54.010049063728793
 20
46.420464599628389
 30
0.0
  0
VERTEX
  5
3EF7
  8
L1
 10
54.654487043290708
 20
46.420351105562517
 30
0.0
  0
VERTEX
  5
3EF8
  8
L1
 10
55.065086869018501
 20
46.420262806217522
 30
0.0
  0
VERTEX
  5
3EF9
  8
L1
 10
55.396785856263023
 20
46.420221284052097
 30
0.0
  0
VERTEX
  5
3EFA
  8
L1
 10
55.971434955172917
 20
46.420233945030837
 30
0.0
  0
VERTEX
  5
3EFB
  8
L1
 10
56.674341619762231
 20
46.420299836040272
 30
0.0
  0
VERTEX
  5
3EFC
  8
L1
 10
57.166362564105839
 20
46.420324851413341
 30
0.0
  0
VERTEX
  5
3EFD
  8
L1
 10
57.801413129772413
 20
46.420329704622219
 30
0.0
  0
VERTEX
  5
3EFE
  8
L1
 10
58.529009021259753
 20
46.420315019732271
 30
0.0
  0
SEQEND
  5
3EFF
  8
L1
  0
LINE
  5
324C
  8
L1
 10
61.048761007919659
 20
48.940067006392091
 30
0.0
 11
56.529651470492517
 21
48.940067006392091
 31
0.0
  0
POLYLINE
  5
324D
  8
L1
 66
     1
 10
0.0
 20
0.0
 30
0.0
  0
VERTEX
  5
3F00
  8
L1
 10
58.529009021259753
 20
46.420315019732271
 30
0.0
  0
VERTEX
  5
3F01
  8
L1
 10
58.541988374328753
 20
46.420270579042317
 30
0.0
  0
VERTEX
  5
3F02
  8
L1
 10
58.580267883838019
 20
46.419624943063688
 30
0.0
  0
VERTEX
  5
3F03
  8
L1
 10
58.65329579337935
 20
46.416251614604327
 30
0.0
  0
VERTEX
  5
3F04
  8
L1
 10
58.80765955103697
 20
46.399736103854309
 30
0.0
  0
VERTEX
  5
3F05
  8
L1
 10
58.890382429664839
 20
46.385512807530908
 30
0.0
  0
SEQEND
  5
3F06
  8
L1
  0
POLYLINE
  5
324E
  8
L1
 66
     1
 10
0.0
 20
0.0
 30
0.0
  0
VERTEX
  5
3F07
  8
L1
 10
58.890382429664839
 20
46.385512807530908
 30
0.0
  0
VERTEX
  5
3F08
  8
L1
 10
59.008055161472953
 20
46.358875913250607
 30
0.0
  0
VERTEX
  5
3F09
  8
L1
 10
59.645719806598152
 20
46.070902912414397
 30
0.0
  0
VERTEX
  5
3F0A
  8
L1
 10
60.150496638427001
 20
45.588426333293341
 30
0.0
  0
VERTEX
  5
3F0B
  8
L1
 10
60.383625228817827
 20
45.188461081673893
 30
0.0
  0
SEQEND
  5
3F0C
  8
L1
  0
POLYLINE
  5
324F
  8
L1
 66
     1
 10
0.0
 20
0.0
 30
0.0
  0
VERTEX
  5
3F0D
  8
L1
 10
60.540858817249841
 20
44.437646676704048
 30
0.0
  0
VERTEX
  5
3F0E
  8
L1
 10
60.501176846285709
 20
44.822374479034089
 30
0.0
  0
VERTEX
  5
3F0F
  8
L1
 10
60.383625228817827
 20
45.188461081673893
 30
0.0
  0
SEQEND
  5
3F10
  8
L1
  0
POLYLINE
  5
3250
  8
L1
 66
     1
 10
0.0
 20
0.0
 30
0.0
  0
VERTEX
  5
3F11
  8
L1
 10
58.423664106884701
 20
43.07519131347663
 30
0.0
  0
VERTEX
  5
3F12
  8
L1
 10
58.422823394300167
 20
43.135795432182498
 30
0.0
  0
VERTEX
  5
3F13
  8
L1
 10
58.332332524186029
 20
43.655026941792151
 30
0.0
  0
VERTEX
  5
3F14
  8
L1
 10
58.138260131914869
 20
44.010747122469951
 30
0.0
  0
VERTEX
  5
3F15
  8
L1
 10
57.803066324861788
 20
44.291567759888324
 30
0.0
  0
VERTEX
  5
3F16
  8
L1
 10
57.457853840861439
 20
44.417700814003183
 30
0.0
  0
VERTEX
  5
3F17
  8
L1
 10
57.100290394762112
 20
44.454040957735913
 30
0.0
  0
SEQEND
  5
3F18
  8
L1
  0
POLYLINE
  5
3251
  8
L1
 66
     1
 10
0.0
 20
0.0
 30
0.0
  0
VERTEX
  5
3F19
  8
L1
 10
63.046020077428807
 20
46.942807936882993
 30
0.0
  0
VERTEX
  5
3F1A
  8
L1
 10
62.894261988382141
 20
47.707706345075842
 30
0.0
  0
VERTEX
  5
3F1B
  8
L1
 10
62.461594033947222
 20
48.355640962910513
 30
0.0
  0
VERTEX
  5
3F1C
  8
L1
 10
61.8136594161125
 20
48.78830891734551
 30
0.0
  0
VERTEX
  5
3F1D
  8
L1
 10
61.048761007919659
 20
48.940067006392127
 30
0.0
  0
SEQEND
  5
3F1E
  8
L1
  0
POLYLINE
  5
3252
  8
L1
 66
     1
 10
0.0
 20
0.0
 30
0.0
  0
VERTEX
  5
3F1F
  8
L1
 10
45.188304356142169
 20
60.383694326696791
 30
0.0
  0
VERTEX
  5
3F20
  8
L1
 10
45.324276473394832
 20
60.317682456810417
 30
0.0
  0
VERTEX
  5
3F21
  8
L1
 10
45.872787530545963
 20
59.895256596223788
 30
0.0
  0
VERTEX
  5
3F22
  8
L1
 10
46.094602294635934
 20
59.609902847080001
 30
0.0
  0
VERTEX
  5
3F23
  8
L1
 10
46.26373402599603
 20
59.289916846735508
 30
0.0
  0
VERTEX
  5
3F24
  8
L1
 10
46.385509082647893
 20
58.890468244896532
 30
0.0
  0
SEQEND
  5
3F25
  8
L1
  0
POLYLINE
  5
3253
  8
L1
 66
     1
 10
0.0
 20
0.0
 30
0.0
  0
VERTEX
  5
3F26
  8
L1
 10
44.453997630824233
 20
57.100156072106898
 30
0.0
  0
VERTEX
  5
3F27
  8
L1
 10
44.391855197803181
 20
57.5590957709598
 30
0.0
  0
VERTEX
  5
3F28
  8
L1
 10
44.216260323657991
 20
57.922716035269161
 30
0.0
  0
VERTEX
  5
3F29
  8
L1
 10
43.8959905964387
 20
58.218488084637123
 30
0.0
  0
VERTEX
  5
3F2A
  8
L1
 10
43.530079043658411
 20
58.370100048988711
 30
0.0
  0
VERTEX
  5
3F2B
  8
L1
 10
43.099524093837537
 20
58.423529428565843
 30
0.0
  0
VERTEX
  5
3F2C
  8
L1
 10
43.075152331555671
 20
58.423664106919063
 30
0.0
  0
SEQEND
  5
3F2D
  8
L1
  0
POLYLINE
  5
3254
  8
L1
 66
     1
 10
0.0
 20
0.0
 30
0.0
  0
VERTEX
  5
3F2E
  8
L1
 10
45.188304356142169
 20
60.383694326696791
 30
0.0
  0
VERTEX
  5
3F2F
  8
L1
 10
44.822290398541213
 20
60.501194452198149
 30
0.0
  0
VERTEX
  5
3F30
  8
L1
 10
44.437646676669651
 20
60.540858817284317
 30
0.0
  0
SEQEND
  5
3F31
  8
L1
  0
POLYLINE
  5
3255
  8
L1
 66
     1
 10
0.0
 20
0.0
 30
0.0
  0
VERTEX
  5
3F32
  8
L1
 10
48.940067006357701
 20
61.048761007954077
 30
0.0
  0
VERTEX
  5
3F33
  8
L1
 10
48.788308917311163
 20
61.813659416146947
 30
0.0
  0
VERTEX
  5
3F34
  8
L1
 10
48.355640962876123
 20
62.461594033981612
 30
0.0
  0
VERTEX
  5
3F35
  8
L1
 10
47.707706345041402
 20
62.894261988416609
 30
0.0
  0
VERTEX
  5
3F36
  8
L1
 10
46.94280793684856
 20
63.046020077463218
 30
0.0
  0
SEQEND
  5
3F37
  8
L1
  0
POLYLINE
  5
3256
  8
L1
 66
     1
 10
0.0
 20
0.0
 30
0.0
  0
VERTEX
  5
3F38
  8
L1
 10
60.170682693003641
 20
63.665886064679057
 30
0.0
  0
VERTEX
  5
3F39
  8
L1
 10
60.445116186253813
 20
63.655078390929503
 30
0.0
  0
VERTEX
  5
3F3A
  8
L1
 10
60.717807988522281
 20
63.622807465084321
 30
0.0
  0
VERTEX
  5
3F3B
  8
L1
 10
60.987082719321329
 20
63.56927155522132
 30
0.0
  0
VERTEX
  5
3F3C
  8
L1
 10
61.251285992175099
 20
63.494799578521139
 30
0.0
  0
VERTEX
  5
3F3D
  8
L1
 10
61.508794578939387
 20
63.39984908044574
 30
0.0
  0
VERTEX
  5
3F3E
  8
L1
 10
61.75802638268987
 20
63.285003423642713
 30
0.0
  0
VERTEX
  5
3F3F
  8
L1
 10
61.997450157905398
 20
63.15096820384656
 30
0.0
  0
VERTEX
  5
3F40
  8
L1
 10
62.225594918227102
 20
62.998566914796413
 30
0.0
  0
VERTEX
  5
3F41
  8
L1
 10
62.441058973994302
 20
62.828735888805419
 30
0.0
  0
VERTEX
  5
3F42
  8
L1
 10
62.642518544030622
 20
62.642518544064949
 30
0.0
  0
VERTEX
  5
3F43
  8
L1
 10
62.828735888771057
 20
62.441058974028657
 30
0.0
  0
VERTEX
  5
3F44
  8
L1
 10
62.998566914762023
 20
62.225594918261429
 30
0.0
  0
VERTEX
  5
3F45
  8
L1
 10
63.15096820381217
 20
61.99745015793976
 30
0.0
  0
VERTEX
  5
3F46
  8
L1
 10
63.285003423608323
 20
61.75802638272426
 30
0.0
  0
VERTEX
  5
3F47
  8
L1
 10
63.39984908041135
 20
61.508794578973777
 30
0.0
  0
VERTEX
  5
3F48
  8
L1
 10
63.494799578486777
 20
61.251285992209461
 30
0.0
  0
VERTEX
  5
3F49
  8
L1
 10
63.569271555186958
 20
60.987082719355698
 30
0.0
  0
VERTEX
  5
3F4A
  8
L1
 10
63.622807465049959
 20
60.717807988556586
 30
0.0
  0
VERTEX
  5
3F4B
  8
L1
 10
63.655078390895142
 20
60.445116186288168
 30
0.0
  0
VERTEX
  5
3F4C
  8
L1
 10
63.665886064644667
 20
60.170682693038032
 30
0.0
  0
SEQEND
  5
3F4D
  8
L1
  0
LINE
  5
3257
  8
L1
 10
59.035746534370674
 20
61.659302189691509
 30
0.0
 11
58.687208996470481
 21
61.310764651791288
 31
0.0
  0
ARC
  5
3258
  8
L1
 10
56.749999999965667
 20
56.75
 30
0.0
 40
4.9551339946734032
 50
66.986383927608088
 51
92.531261793291065
  0
CIRCLE
  5
3259
  8
L1
 10
56.749999999965667
 20
56.750000000000028
 30
0.0
 40
6.097393363178492
  0
CIRCLE
  5
325A
  8
L1
 10
56.749999999965667
 20
56.750000000000028
 30
0.0
 40
5.797404786259249
  0
LINE
  5
325B
  8
L1
 10
56.531159070094191
 20
61.700299137686699
 30
0.0
 11
51.799700862278819
 21
56.968840929871327
 31
0.0
  0
ARC
  5
325C
  8
L1
 10
56.749999999965667
 20
56.750000000000028
 30
0.0
 40
5.7825462644184809
 50
27.01652280963927
 51
62.98347719036073
  0
ARC
  5
325D
  8
L1
 10
56.749999999965667
 20
56.75
 30
0.0
 40
4.9551339946734032
 50
177.46873820670879
 51
272.53126179329098
  0
POLYLINE
  5
325E
  8
L1
 66
     1
 10
0.0
 20
0.0
 30
0.0
  0
VERTEX
  5
3F4E
  8
L1
 10
46.4203259974609
 20
58.529019999057311
 30
0.0
  0
VERTEX
  5
3F4F
  8
L1
 10
46.420335247171693
 20
57.412644394154711
 30
0.0
  0
VERTEX
  5
3F50
  8
L1
 10
46.420316729458818
 20
56.79797437735288
 30
0.0
  0
VERTEX
  5
3F51
  8
L1
 10
46.420287737456988
 20
56.342431028023213
 30
0.0
  0
VERTEX
  5
3F52
  8
L1
 10
46.420245961413279
 20
55.643506229381558
 30
0.0
  0
VERTEX
  5
3F53
  8
L1
 10
46.420284181471288
 20
55.052647450542622
 30
0.0
  0
VERTEX
  5
3F54
  8
L1
 10
46.420375148215953
 20
54.63768164978012
 30
0.0
  0
VERTEX
  5
3F55
  8
L1
 10
46.420485328185457
 20
54.010069792354606
 30
0.0
  0
SEQEND
  5
3F56
  8
L1
  0
POLYLINE
  5
325F
  8
L1
 66
     1
 10
0.0
 20
0.0
 30
0.0
  0
VERTEX
  5
3F57
  8
L1
 10
46.385509082647893
 20
58.890468244896532
 30
0.0
  0
VERTEX
  5
3F58
  8
L1
 10
46.399975157245372
 20
58.80613573193537
 30
0.0
  0
VERTEX
  5
3F59
  8
L1
 10
46.413408931086053
 20
58.691061878509402
 30
0.0
  0
VERTEX
  5
3F5A
  8
L1
 10
46.41820845919176
 20
58.618791314356031
 30
0.0
  0
VERTEX
  5
3F5B
  8
L1
 10
46.419990640343478
 20
58.564750672259493
 30
0.0
  0
VERTEX
  5
3F5C
  8
L1
 10
46.420325467233219
 20
58.5303991114883
 30
0.0
  0
VERTEX
  5
3F5D
  8
L1
 10
46.4203259974609
 20
58.529019999057311
 30
0.0
  0
SEQEND
  5
3F5E
  8
L1
  0
LINE
  5
3260
  8
L1
 10
48.940067006357701
 20
56.529651470526858
 30
0.0
 11
48.940067006357701
 21
61.048761007954077
 31
0.0
  0
LINE
  5
3261
  8
L1
 10
56.968840929836908
 20
51.799700862313209
 30
0.0
 11
61.700299137652451
 21
56.531159070128751
 31
0.0
  0
POLYLINE
  5
3262
  8
L1
 66
     1
 10
0.0
 20
0.0
 30
0.0
  0
VERTEX
  5
3F5F
  8
L1
 10
61.883099641717877
 20
59.263214172935143
 30
0.0
  0
VERTEX
  5
3F60
  8
L1
 10
61.901529179253487
 20
59.376706762295072
 30
0.0
  0
SEQEND
  5
3F61
  8
L1
  0
POLYLINE
  5
3263
  8
L1
 66
     1
 10
0.0
 20
0.0
 30
0.0
  0
VERTEX
  5
3F62
  8
L1
 10
61.659302189657183
 20
59.035746534405
 30
0.0
  0
VERTEX
  5
3F63
  8
L1
 10
61.747342135584631
 20
59.124081047125742
 30
0.0
  0
VERTEX
  5
3F64
  8
L1
 10
61.820028178980351
 20
59.197587405171952
 30
0.0
  0
VERTEX
  5
3F65
  8
L1
 10
61.867206661973569
 20
59.245965950157817
 30
0.0
  0
VERTEX
  5
3F66
  8
L1
 10
61.883099641717877
 20
59.263214172935157
 30
0.0
  0
SEQEND
  5
3F67
  8
L1
  0
ARC
  5
3264
  8
L1
 10
56.749999999965667
 20
56.75
 30
0.0
 40
4.9551339946734032
 50
357.46873820670879
 51
23.013616072392541
  0
LINE
  5
3265
  8
L1
 10
61.310764651756919
 20
58.6872089965048
 30
0.0
 11
61.659302189657183
 21
59.035746534405042
 31
0.0
  0
POLYLINE
  5
3266
  8
L1
 66
     1
 10
0.0
 20
0.0
 30
0.0
  0
VERTEX
  5
3F68
  8
L1
 10
59.37670676226071
 20
61.901529179287792
 30
0.0
  0
VERTEX
  5
3F69
  8
L1
 10
59.263214172900803
 20
61.88309964175221
 30
0.0
  0
SEQEND
  5
3F6A
  8
L1
  0
POLYLINE
  5
3267
  8
L1
 66
     1
 10
0.0
 20
0.0
 30
0.0
  0
VERTEX
  5
3F6B
  8
L1
 10
59.263214172900859
 20
61.883099641752239
 30
0.0
  0
VERTEX
  5
3F6C
  8
L1
 10
59.245965950123491
 20
61.867206662007902
 30
0.0
  0
VERTEX
  5
3F6D
  8
L1
 10
59.197587405137597
 20
61.820028179014678
 30
0.0
  0
VERTEX
  5
3F6E
  8
L1
 10
59.124081047091408
 20
61.747342135618972
 30
0.0
  0
VERTEX
  5
3F6F
  8
L1
 10
59.035746534370674
 20
61.659302189691481
 30
0.0
  0
SEQEND
  5
3F70
  8
L1
  0
POLYLINE
  5
3268
  8
L1
 66
     1
 10
0.0
 20
0.0
 30
0.0
  0
VERTEX
  5
3F71
  8
L1
 10
61.517100759233813
 20
65.0123041309092
 30
0.0
  0
VERTEX
  5
3F72
  8
L1
 10
61.537048032003902
 20
65.012250207188885
 30
0.0
  0
VERTEX
  5
3F73
  8
L1
 10
61.556999999965633
 20
65.012088437774111
 30
0.0
  0
SEQEND
  5
3F74
  8
L1
  0
POLYLINE
  5
3269
  8
L1
 66
     1
 10
0.0
 20
0.0
 30
0.0
  0
VERTEX
  5
3F75
  8
L1
 10
65.012088437739749
 20
61.557000000000023
 30
0.0
  0
VERTEX
  5
3F76
  8
L1
 10
65.01225020715458
 20
61.537048032038221
 30
0.0
  0
VERTEX
  5
3F77
  8
L1
 10
65.012304130874895
 20
61.517100759268182
 30
0.0
  0
SEQEND
  5
3F78
  8
L1
  0
POLYLINE
  5
326A
  8
L1
 66
     1
 10
0.0
 20
0.0
 30
0.0
  0
VERTEX
  5
3F79
  8
L1
 10
61.556999999965633
 20
65.012088437774111
 30
0.0
  0
VERTEX
  5
3F7A
  8
L1
 10
62.218787602410941
 20
64.941714390114413
 30
0.0
  0
VERTEX
  5
3F7B
  8
L1
 10
62.87377238620661
 20
64.739585002002457
 30
0.0
  0
VERTEX
  5
3F7C
  8
L1
 10
63.476619230861729
 20
64.41344075018614
 30
0.0
  0
VERTEX
  5
3F7D
  8
L1
 10
63.989929119039289
 20
63.989929119073743
 30
0.0
  0
VERTEX
  5
3F7E
  8
L1
 10
64.413440750151722
 20
63.476619230896141
 30
0.0
  0
VERTEX
  5
3F7F
  8
L1
 10
64.739585001968123
 20
62.873772386241093
 30
0.0
  0
VERTEX
  5
3F80
  8
L1
 10
64.941714390080051
 20
62.218787602445332
 30
0.0
  0
VERTEX
  5
3F81
  8
L1
 10
65.012088437739749
 20
61.557000000000023
 30
0.0
  0
SEQEND
  5
3F82
  8
L1
  0
ENDBLK
  5
31C0
  8
0
  0
BLOCK
  8
0
  2
S2
 70
     0
 10
0.0
 20
0.0
 30
0.0
  3
S2
  1

  0
LINE
  5
326F
  8
L1
 10
60.540858817249841
 20
-78.879070265553338
 30
0.0
 11
63.046020077428807
 21
-31.077745835277511
 31
0.0
  0
LINE
  5
3270
  8
L1
 10
46.434905746178849
 20
-78.879070265553395
 30
0.0
 11
48.940067006357701
 21
-31.077745835277391
 31
0.0
  0
ARC
  5
3271
  8
L2
 10
43.267012006386722
 20
-77.187997333390996
 30
0.0
 40
1.5
 50
270.0
 51
357.0
  0
ARC
  5
3272
  8
L2
 10
-43.267012006386722
 20
-77.187997333390939
 30
0.0
 40
1.5
 50
182.99999999999989
 51
270.0
  0
LINE
  5
3273
  8
L1
 10
-60.540858817318501
 20
-78.879070265553338
 30
0.0
 11
-63.046020077497467
 21
-31.077745835277511
 31
0.0
  0
LINE
  5
3274
  8
L1
 10
-46.434905746247459
 20
-78.879070265553395
 30
0.0
 11
-48.940067006426382
 21
-31.077745835277391
 31
0.0
  0
LINE
  5
3275
  8
L6
 10
0.0
 20
-84.025992826309917
 30
0.0
 11
0.0
 21
0.0
 31
0.0
  0
LINE
  5
3276
  8
L1
 10
58.423664106884758
 20
-80.888213026526074
 30
0.0
 11
-58.423664106953368
 21
-80.888213026525946
 31
0.0
  0
LINE
  5
3277
  8
L2
 10
43.267012006386778
 20
-78.687997333390939
 30
0.0
 11
-43.267012006386778
 21
-78.687997333390939
 31
0.0
  0
LINE
  5
3278
  8
L1
 10
-60.540858817318501
 20
-78.879070265553338
 30
0.0
 11
60.540858817249841
 21
-78.879070265553338
 31
0.0
  0
LINE
  5
3279
  8
L2
 10
45.012088437808302
 20
-80.387997333390985
 30
0.0
 11
-45.012088437808643
 21
-80.387997333390928
 31
0.0
  0
LINE
  5
327A
  8
L1
 10
-60.540858817318501
 20
-78.879070265553338
 30
0.0
 11
-58.423664106953368
 21
-80.888213026525946
 31
0.0
  0
LINE
  5
327B
  8
L2
 10
-45.012088437808579
 20
-80.887997333390913
 30
0.0
 11
-45.012088437808643
 21
-80.387997333390928
 31
0.0
  0
LINE
  5
327C
  8
L1
 10
-46.434905746247459
 20
-78.879070265553395
 30
0.0
 11
-44.317711035882319
 21
-80.888213026526017
 31
0.0
  0
LINE
  5
327D
  8
L1
 10
46.434905746178849
 20
-78.879070265553395
 30
0.0
 11
44.317711035813772
 21
-80.888213026526131
 31
0.0
  0
LINE
  5
327E
  8
L2
 10
45.012088437808409
 20
-80.887997333390985
 30
0.0
 11
45.012088437808302
 21
-80.387997333390985
 31
0.0
  0
LINE
  5
327F
  8
L1
 10
60.540858817249841
 20
-78.879070265553338
 30
0.0
 11
58.423664106884758
 21
-80.888213026526074
 31
0.0
  0
LINE
  5
3280
  8
L1
 10
-62.950000000034258
 20
-3.2173628743867648
 30
0.0
 11
62.949999999965478
 21
-3.2173628743867648
 31
0.0
  0
LINE
  5
3281
  8
L1
 10
-65.012304130943505
 20
-5.0074930572104668
 30
0.0
 11
65.012304130874952
 21
-5.0074930572105814
 31
0.0
  0
LINE
  5
3282
  8
L1
 10
-64.293024100259061
 20
-4.2882130265260221
 30
0.0
 11
64.293024100190394
 21
-4.2882130265260221
 31
0.0
  0
LINE
  5
3283
  8
L1
 10
-63.466160157762431
 20
-30.88821302652596
 30
0.0
 11
63.245745984379759
 21
-30.88821302652596
 31
0.0
  0
LINE
  5
3284
  8
L1
 10
-63.665886064713327
 20
-30.69868021777463
 30
0.0
 11
-65.012304130943505
 21
-5.0074930572104668
 31
0.0
  0
LINE
  5
3285
  8
L2
 10
-44.764956308518599
 20
-77.266501267755373
 30
0.0
 11
-47.310847820611109
 21
-28.687997333390928
 31
0.0
  0
ARC
  5
3286
  8
L1
 10
-63.466160157762431
 20
-30.688213026526029
 30
0.0
 40
0.1999999999999879
 50
183.00000000000071
 51
270.0
  0
ARC
  5
3287
  8
L1
 10
-63.24574598444832
 20
-31.088213026525999
 30
0.0
 40
0.1999999999999993
 50
3.0000000000007159
 51
90.0
  0
ARC
  5
3288
  8
L1
 10
-49.139792913377278
 20
-31.088213026525999
 30
0.0
 40
0.1999999999999957
 50
2.9999999999999032
 51
90.0
  0
LINE
  5
3289
  8
L1
 10
-63.315216105066781
 20
-3.5238155734195402
 30
0.0
 11
-63.449437521098048
 21
-4.285023049961068
 31
0.0
  0
LINE
  5
328A
  8
L1
 10
-65.012088437808416
 20
-5.007277364075378
 30
0.0
 11
-64.293024100259061
 21
-4.2882130265260221
 31
0.0
  0
POLYLINE
  5
328B
  8
L1
 66
     1
 10
0.0
 20
0.0
 30
0.0
  0
VERTEX
  5
3F84
  8
L1
 10
-65.012304130943505
 20
-5.0074930572104668
 30
0.0
  0
VERTEX
  5
3F85
  8
L1
 10
-65.01225020722319
 20
-5.007439133490152
 30
0.0
  0
VERTEX
  5
3F86
  8
L1
 10
-65.012088437808416
 20
-5.007277364075378
 30
0.0
  0
SEQEND
  5
3F87
  8
L1
  0
LINE
  5
328C
  8
L2
 10
-47.949784306899339
 20
-4.2879973333909334
 30
0.0
 11
-47.310847820611109
 21
-28.687997333390928
 31
0.0
  0
ARC
  5
328D
  8
L1
 10
-62.950000000034258
 20
-3.5882130265260339
 30
0.0
 40
0.3708501521392529
 50
90.0
 51
169.99999999999969
  0
LINE
  5
328E
  8
L1
 10
63.665886064644667
 20
-30.69868021777463
 30
0.0
 11
65.012304130874824
 21
-5.0074930572104668
 31
0.0
  0
LINE
  5
328F
  8
L2
 10
44.764956308518599
 20
-77.266501267755373
 30
0.0
 11
47.310847820611109
 21
-28.687997333390928
 31
0.0
  0
ARC
  5
3290
  8
L1
 10
49.139792913308611
 20
-31.088213026525999
 30
0.0
 40
0.1999999999999957
 50
90.0
 51
177.0
  0
ARC
  5
3291
  8
L1
 10
63.245745984379653
 20
-31.088213026525999
 30
0.0
 40
0.1999999999999993
 50
90.0
 51
176.9999999999992
  0
ARC
  5
3292
  8
L1
 10
63.466160157693757
 20
-30.688213026526029
 30
0.0
 40
0.1999999999999879
 50
270.0
 51
356.9999999999992
  0
LINE
  5
3293
  8
L1
 10
63.315216104998107
 20
-3.5238155734195402
 30
0.0
 11
63.449437521029381
 21
-4.285023049961068
 31
0.0
  0
LINE
  5
3294
  8
L2
 10
47.949784306899339
 20
-4.2879973333909334
 30
0.0
 11
47.310847820611109
 21
-28.687997333390928
 31
0.0
  0
POLYLINE
  5
3295
  8
L1
 66
     1
 10
0.0
 20
0.0
 30
0.0
  0
VERTEX
  5
3F88
  8
L1
 10
65.012304130874824
 20
-5.0074930572104668
 30
0.0
  0
VERTEX
  5
3F89
  8
L1
 10
65.012250207154523
 20
-5.007439133490152
 30
0.0
  0
VERTEX
  5
3F8A
  8
L1
 10
65.012088437739749
 20
-5.007277364075378
 30
0.0
  0
SEQEND
  5
3F8B
  8
L1
  0
LINE
  5
3296
  8
L1
 10
65.012088437739749
 20
-5.007277364075378
 30
0.0
 11
64.293024100190394
 21
-4.2882130265260221
 31
0.0
  0
ARC
  5
3297
  8
L1
 10
62.949999999965598
 20
-3.5882130265260339
 30
0.0
 40
0.3708501521392529
 50
10.00000000000021
 51
90.0
  0
ENDBLK
  5
326E
  8
0
  0
BLOCK
  8
0
  2
S3
 70
     0
 10
0.0
 20
0.0
 30
0.0
  3
S3
  1

  0
LINE
  5
329C
  8
L2
 10
80.747151679771491
 20
45.01230413090925
 30
0.0
 11
80.747151679771363
 21
-43.267227699487421
 31
0.0
  0
LINE
  5
329D
  8
L1
 10
79.238224611933902
 20
60.541074510419179
 30
0.0
 11
79.238224611933902
 21
-60.541074510419179
 31
0.0
  0
LINE
  5
329E
  8
L1
 10
5.3664317104559132
 20
-65.012304130909087
 30
0.0
 11
5.3664317104559132
 21
65.012304130909371
 31
0.0
  0
LINE
  5
329F
  8
L1
 10
81.247151679771477
 20
58.424107093193129
 30
0.0
 11
81.247151679771477
 21
-44.45401455083995
 31
0.0
  0
LINE
  5
32A0
  8
L1
 10
81.247151679771477
 20
-58.424107093193143
 30
0.0
 11
81.247151679771477
 21
44.45401455083995
 31
0.0
  0
LINE
  5
32A1
  8
L1
 10
31.247151679771491
 20
-63.466160157728041
 30
0.0
 11
31.247151679771491
 21
49.139792913343108
 31
0.0
  0
LINE
  5
32A2
  8
L2
 10
79.047151679771446
 20
43.267227699487528
 30
0.0
 11
79.047151679771446
 21
-43.267227699487421
 31
0.0
  0
LINE
  5
32A3
  8
L1
 10
4.6471516797711274
 20
64.293024100224585
 30
0.0
 11
4.6471516797714676
 21
-64.29302410022467
 31
0.0
  0
LINE
  5
32A4
  8
L1
 10
3.5765172207672999
 20
-62.950215693134957
 30
0.0
 11
3.5765172207673568
 21
62.950215693134901
 31
0.0
  0
LINE
  5
32A5
  8
L2
 10
77.625655614135894
 20
-44.765172001619241
 30
0.0
 11
29.047151679771439
 21
-47.31106351371178
 31
0.0
  0
LINE
  5
32A6
  8
L1
 10
79.238224611933902
 20
-60.541074510419179
 30
0.0
 11
31.436900181658071
 21
-63.046235770598138
 31
0.0
  0
LINE
  5
32A7
  8
L1
 10
79.238224611933902
 20
-46.43512143934813
 30
0.0
 11
31.436900181657961
 21
-48.940282699527053
 31
0.0
  0
LINE
  5
32A8
  8
L1
 10
5.3664317104559132
 20
-65.012304130909115
 30
0.0
 11
31.05761887102005
 21
-63.665886064678944
 31
0.0
  0
LINE
  5
32A9
  8
L2
 10
4.6473673729065013
 20
-62.450215693134972
 30
0.0
 11
3.8829699197999612
 21
-62.584999588102448
 31
0.0
  0
LINE
  5
32AA
  8
L1
 10
3.8829699198000749
 20
-63.315431798167481
 30
0.0
 11
4.6441773963416031
 21
-63.44965321419874
 31
0.0
  0
ARC
  5
32AB
  8
L2
 10
3.9473673729064549
 20
-62.950215693134957
 30
0.0
 40
0.3708501521392529
 50
100.00000000000171
 51
180.0
  0
ARC
  5
32AC
  8
L1
 10
3.947367372906569
 20
-62.950215693134957
 30
0.0
 40
0.3708501521392529
 50
180.0
 51
259.99999999999812
  0
LINE
  5
32AD
  8
L1
 10
4.6471516797714676
 20
-64.29302410022467
 30
0.0
 11
5.3664317104559132
 21
-65.012304130909087
 31
0.0
  0
ARC
  5
32AE
  8
L1
 10
31.047151679771439
 20
-63.466160157728041
 30
0.0
 40
0.2
 50
272.99999999999909
 51
0.0
  0
ARC
  5
32AF
  8
L1
 10
31.44715167977153
 20
-63.245972981547311
 30
0.0
 40
0.2
 50
92.999999999999105
 51
179.99999999999179
  0
LINE
  5
32B0
  8
L2
 10
4.6471516797714676
 20
-47.94999999999996
 30
0.0
 11
29.047151679771439
 21
-47.31106351371178
 31
0.0
  0
ARC
  5
32B1
  8
L1
 10
31.447151679771419
 20
-49.139792913342887
 30
0.0
 40
0.2
 50
92.999999999999105
 51
180.0
  0
POLYLINE
  5
32B2
  8
L1
 66
     1
 10
0.0
 20
0.0
 30
0.0
  0
VERTEX
  5
3F8D
  8
L1
 10
31.247151679771491
 20
-49.111630797005368
 30
0.0
  0
VERTEX
  5
3F8E
  8
L1
 10
31.247151679771491
 20
-49.132741097906383
 30
0.0
  0
VERTEX
  5
3F8F
  8
L1
 10
31.247151679771491
 20
-49.139792913343143
 30
0.0
  0
SEQEND
  5
3F90
  8
L1
  0
POLYLINE
  5
32B3
  8
L1
 66
     1
 10
0.0
 20
0.0
 30
0.0
  0
VERTEX
  5
3F91
  8
L1
 10
31.247151679771491
 20
-49.111630797005141
 30
0.0
  0
VERTEX
  5
3F92
  8
L1
 10
31.247151679771491
 20
-49.132741097906148
 30
0.0
  0
VERTEX
  5
3F93
  8
L1
 10
31.247151679771491
 20
-49.139792913342923
 30
0.0
  0
SEQEND
  5
3F94
  8
L1
  0
LINE
  5
32B4
  8
L1
 10
81.247151679771477
 20
-58.424107093193143
 30
0.0
 11
79.238224611933902
 21
-60.541074510419179
 31
0.0
  0
ARC
  5
32B5
  8
L2
 10
77.547151679771446
 20
-43.267227699487421
 30
0.0
 40
1.5
 50
273.00000000000227
 51
0.0
  0
LINE
  5
32B6
  8
L1
 10
79.238224611933902
 20
-44.437862369838989
 30
0.0
 11
79.238224611933902
 21
-40.195244272795179
 31
0.0
  0
LINE
  5
32B7
  8
L2
 10
81.247151679771378
 20
-45.01230413090925
 30
0.0
 11
80.747151679771363
 21
-45.012304130909371
 31
0.0
  0
LINE
  5
32B8
  8
L1
 10
81.247151679771477
 20
-44.31815402212208
 30
0.0
 11
79.238224611933902
 21
-46.43512143934813
 31
0.0
  0
LINE
  5
32B9
  8
L6
 10
84.048690364178583
 20
0.0000000000000284
 30
0.0
 11
0.0
 21
0.0
 31
0.0
  0
LINE
  5
32BA
  8
L2
 10
29.047151679771439
 20
47.3110635137119
 30
0.0
 11
77.625655614135894
 21
44.765172001619362
 31
0.0
  0
LINE
  5
32BB
  8
L1
 10
79.238224611933902
 20
60.541074510419179
 30
0.0
 11
31.436684488522928
 21
63.046247074596408
 31
0.0
  0
LINE
  5
32BC
  8
L1
 10
79.238224611933902
 20
46.435121439348109
 30
0.0
 11
31.436900181657961
 21
48.940282699527053
 31
0.0
  0
ARC
  5
32BD
  8
L1
 10
31.447151679771419
 20
49.139792913343108
 30
0.0
 40
0.2
 50
180.0
 51
267.00000000000091
  0
LINE
  5
32BE
  8
L2
 10
4.6471516797714676
 20
47.95000000000018
 30
0.0
 11
29.047151679771439
 21
47.311063513712007
 31
0.0
  0
LINE
  5
32BF
  8
L1
 10
5.3664317104559132
 20
65.012304130909342
 30
0.0
 11
31.05761887102005
 21
63.665886064679171
 31
0.0
  0
LINE
  5
32C0
  8
L2
 10
4.6473673729065581
 20
62.450215693134901
 30
0.0
 11
3.882969919800018
 21
62.584999588102391
 31
0.0
  0
LINE
  5
32C1
  8
L1
 10
3.8829699198000749
 20
63.315431798167417
 30
0.0
 11
4.6441773963416599
 21
63.44965321419869
 31
0.0
  0
ARC
  5
32C2
  8
L2
 10
3.9473673729065122
 20
62.950215693134901
 30
0.0
 40
0.3708501521392529
 50
180.0
 51
259.99999999999812
  0
ARC
  5
32C3
  8
L1
 10
3.947367372906569
 20
62.950215693134901
 30
0.0
 40
0.3708501521392529
 50
100.00000000000171
 51
180.0
  0
LINE
  5
32C4
  8
L1
 10
4.6471516797714676
 20
64.293024100224898
 30
0.0
 11
5.3664317104559132
 21
65.012304130909314
 31
0.0
  0
LINE
  5
32C5
  8
L1
 10
31.247151679771491
 20
63.466160157728268
 30
0.0
 11
31.24715167977342
 21
49.139792913343079
 31
0.0
  0
POLYLINE
  5
32C6
  8
L1
 66
     1
 10
0.0
 20
0.0
 30
0.0
  0
VERTEX
  5
3F95
  8
L1
 10
31.247151679771491
 20
49.111630797005368
 30
0.0
  0
VERTEX
  5
3F96
  8
L1
 10
31.247151679771491
 20
49.132741097906383
 30
0.0
  0
VERTEX
  5
3F97
  8
L1
 10
31.247151679771491
 20
49.139792913343143
 30
0.0
  0
SEQEND
  5
3F98
  8
L1
  0
ARC
  5
32C7
  8
L1
 10
31.047151679771439
 20
63.466160157728268
 30
0.0
 40
0.2
 50
0.0
 51
87.000000000000909
  0
ARC
  5
32C8
  8
L1
 10
31.44715167977153
 20
63.245972981547311
 30
0.0
 40
0.2
 50
180.0000000000081
 51
266.99999999999761
  0
ARC
  5
32C9
  8
L1
 10
31.047151679771559
 20
63.245972981547247
 30
0.0
 40
0.2
 50
0.0000000000081422
 51
0.0000000000081422
  0
ARC
  5
32CA
  8
L2
 10
77.547151679771446
 20
43.267227699487528
 30
0.0
 40
1.5
 50
0.0
 51
87.000000000000909
  0
LINE
  5
32CB
  8
L2
 10
81.247151679771477
 20
45.012304130909371
 30
0.0
 11
80.747151679771491
 21
45.01230413090925
 31
0.0
  0
LINE
  5
32CC
  8
L1
 10
81.247151679771477
 20
44.318154022122059
 30
0.0
 11
79.238224611933902
 21
46.435121439348109
 31
0.0
  0
LINE
  5
32CD
  8
L1
 10
81.247151679771477
 20
58.424107093193129
 30
0.0
 11
79.238224611933902
 21
60.541074510419179
 31
0.0
  0
ENDBLK
  5
329B
  8
0
  0
BLOCK
  8
0
  2
S4
 70
     0
 10
0.0
 20
0.0
 30
0.0
  3
S4
  1

  0
ARC
  5
32D2
  8
L2
 10
43.267012006386722
 20
77.187997333390953
 30
0.0
 40
1.5
 50
3.0000000000023421
 51
90.0
  0
LINE
  5
32D3
  8
L1
 10
46.434905746178849
 20
78.879070265553366
 30
0.0
 11
48.940067006357701
 21
31.077745835277369
 31
0.0
  0
LINE
  5
32D4
  8
L1
 10
60.540858817249841
 20
78.87907026555331
 30
0.0
 11
63.046020077428807
 21
31.077745835277479
 31
0.0
  0
ARC
  5
32D5
  8
L2
 10
-43.267012006386722
 20
77.187997333390911
 30
0.0
 40
1.5
 50
90.0
 51
176.99999999999761
  0
LINE
  5
32D6
  8
L1
 10
-46.434905746247459
 20
78.879070265553366
 30
0.0
 11
-48.940067006426382
 21
31.077745835277369
 31
0.0
  0
LINE
  5
32D7
  8
L1
 10
-60.540858817318501
 20
78.87907026555331
 30
0.0
 11
-63.046020077497467
 21
31.077745835277479
 31
0.0
  0
LINE
  5
32D8
  8
L6
 10
0.0
 20
84.025992826309903
 30
0.0
 11
0.0
 21
0.0
 31
0.0
  0
LINE
  5
32D9
  8
L1
 10
-63.466160157762431
 20
30.888213026525928
 30
0.0
 11
63.245745984379759
 21
30.888213026525928
 31
0.0
  0
LINE
  5
32DA
  8
L1
 10
-64.293024100259061
 20
4.2882130265260221
 30
0.0
 11
64.293024100190394
 21
4.2882130265260221
 31
0.0
  0
LINE
  5
32DB
  8
L1
 10
-65.012304130943505
 20
5.0074930572104668
 30
0.0
 11
65.012304130874952
 21
5.0074930572105814
 31
0.0
  0
LINE
  5
32DC
  8
L1
 10
-62.950000000034258
 20
3.217362874386708
 30
0.0
 11
62.949999999965478
 21
3.217362874386708
 31
0.0
  0
LINE
  5
32DD
  8
L2
 10
-47.949784306899339
 20
4.2879973333908756
 30
0.0
 11
-47.310847820611109
 21
28.687997333390911
 31
0.0
  0
LINE
  5
32DE
  8
L1
 10
-63.665886064713327
 20
30.698680217774609
 30
0.0
 11
-65.012304130943505
 21
5.0074930572104668
 31
0.0
  0
ARC
  5
32DF
  8
L1
 10
-62.950000000034258
 20
3.5882130265259771
 30
0.0
 40
0.3708501521392529
 50
189.99999999999861
 51
270.0
  0
LINE
  5
32E0
  8
L1
 10
-65.012088437808416
 20
5.0072773640753212
 30
0.0
 11
-64.293024100259061
 21
4.2882130265260221
 31
0.0
  0
POLYLINE
  5
32E1
  8
L1
 66
     1
 10
0.0
 20
0.0
 30
0.0
  0
VERTEX
  5
3F9A
  8
L1
 10
-65.012304130943505
 20
5.0074930572104668
 30
0.0
  0
VERTEX
  5
3F9B
  8
L1
 10
-65.01225020722319
 20
5.007439133490152
 30
0.0
  0
VERTEX
  5
3F9C
  8
L1
 10
-65.012088437808416
 20
5.0072773640753212
 30
0.0
  0
SEQEND
  5
3F9D
  8
L1
  0
LINE
  5
32E2
  8
L1
 10
-63.315216105066781
 20
3.5238155734194829
 30
0.0
 11
-63.449437521098048
 21
4.285023049961068
 31
0.0
  0
LINE
  5
32E3
  8
L2
 10
-44.764956308518599
 20
77.266501267755359
 30
0.0
 11
-47.310847820611109
 21
28.687997333390911
 31
0.0
  0
ARC
  5
32E4
  8
L1
 10
-63.24574598444832
 20
31.08821302652597
 30
0.0
 40
0.1999999999999993
 50
270.0
 51
356.99999999999761
  0
ARC
  5
32E5
  8
L1
 10
-63.466160157762431
 20
30.688213026526
 30
0.0
 40
0.1999999999999879
 50
90.0
 51
176.99999999999761
  0
ARC
  5
32E6
  8
L1
 10
-49.139792913377278
 20
31.08821302652597
 30
0.0
 40
0.1999999999999957
 50
270.0
 51
357.00000000000091
  0
LINE
  5
32E7
  8
L2
 10
47.949784306899339
 20
4.2879973333908756
 30
0.0
 11
47.310847820611109
 21
28.687997333390911
 31
0.0
  0
LINE
  5
32E8
  8
L1
 10
63.665886064644667
 20
30.698680217774609
 30
0.0
 11
65.012304130874824
 21
5.0074930572104668
 31
0.0
  0
ARC
  5
32E9
  8
L1
 10
62.949999999965598
 20
3.5882130265259771
 30
0.0
 40
0.3708501521392529
 50
270.0
 51
349.99999999999812
  0
LINE
  5
32EA
  8
L1
 10
65.012088437739749
 20
5.0072773640753212
 30
0.0
 11
64.293024100190394
 21
4.2882130265260221
 31
0.0
  0
POLYLINE
  5
32EB
  8
L1
 66
     1
 10
0.0
 20
0.0
 30
0.0
  0
VERTEX
  5
3F9E
  8
L1
 10
65.012304130874824
 20
5.0074930572104668
 30
0.0
  0
VERTEX
  5
3F9F
  8
L1
 10
65.012250207154523
 20
5.007439133490152
 30
0.0
  0
VERTEX
  5
3FA0
  8
L1
 10
65.012088437739749
 20
5.0072773640753212
 30
0.0
  0
SEQEND
  5
3FA1
  8
L1
  0
LINE
  5
32EC
  8
L1
 10
63.315216104998107
 20
3.5238155734194829
 30
0.0
 11
63.449437521029381
 21
4.285023049961068
 31
0.0
  0
LINE
  5
32ED
  8
L2
 10
44.764956308518599
 20
77.266501267755359
 30
0.0
 11
47.310847820611109
 21
28.687997333390911
 31
0.0
  0
ARC
  5
32EE
  8
L1
 10
49.139792913308611
 20
31.08821302652597
 30
0.0
 40
0.1999999999999957
 50
182.99999999999909
 51
270.0
  0
ARC
  5
32EF
  8
L1
 10
63.466160157693757
 20
30.688213026526
 30
0.0
 40
0.1999999999999879
 50
3.0000000000023421
 51
90.0
  0
ARC
  5
32F0
  8
L1
 10
63.245745984379653
 20
31.08821302652597
 30
0.0
 40
0.1999999999999993
 50
182.99999999999909
 51
270.0
  0
LINE
  5
32F1
  8
L2
 10
45.012088437808302
 20
80.387997333390956
 30
0.0
 11
-45.012088437808643
 21
80.387997333390885
 31
0.0
  0
LINE
  5
32F2
  8
L1
 10
-60.540858817318501
 20
78.87907026555331
 30
0.0
 11
60.540858817249841
 21
78.87907026555331
 31
0.0
  0
LINE
  5
32F3
  8
L2
 10
43.267012006386778
 20
78.687997333390911
 30
0.0
 11
-43.267012006386778
 21
78.687997333390911
 31
0.0
  0
LINE
  5
32F4
  8
L1
 10
58.423664106884758
 20
80.888213026526046
 30
0.0
 11
-58.423664106953368
 21
80.888213026525932
 31
0.0
  0
LINE
  5
32F5
  8
L1
 10
-60.540858817318501
 20
78.87907026555331
 30
0.0
 11
-58.423664106953368
 21
80.888213026525932
 31
0.0
  0
LINE
  5
32F6
  8
L2
 10
-45.012088437808579
 20
80.887997333390899
 30
0.0
 11
-45.012088437808643
 21
80.387997333390885
 31
0.0
  0
LINE
  5
32F7
  8
L1
 10
-46.434905746247459
 20
78.879070265553366
 30
0.0
 11
-44.317711035882319
 21
80.888213026525989
 31
0.0
  0
LINE
  5
32F8
  8
L1
 10
46.434905746178849
 20
78.879070265553366
 30
0.0
 11
44.317711035813772
 21
80.888213026526088
 31
0.0
  0
LINE
  5
32F9
  8
L2
 10
45.012088437808409
 20
80.887997333390956
 30
0.0
 11
45.012088437808302
 21
80.387997333390956
 31
0.0
  0
LINE
  5
32FA
  8
L1
 10
60.540858817249841
 20
78.87907026555331
 30
0.0
 11
58.423664106884758
 21
80.888213026526046
 31
0.0
  0
ENDBLK
  5
32D1
  8
0
  0
ENDSEC
  0
SECTION
  2
ENTITIES
  0
INSERT
  5
3186
  8
L1
  2
B
 10
71.348410806428319
 20
158.7323528430378
 30
0.0
  0
INSERT
  5
31BD
  8
L1
  2
S1
 10
163.909183788066
 20
158.7323528430378
 30
0.0
  0
INSERT
  5
326B
  8
L1
  2
T
 10
346.82218392774001
 20
158.73235284303789
 30
0.0
  0
INSERT
  5
3298
  8
L1
  2
S2
 10
346.82218392774001
 20
38.913855058404891
 30
0.0
  0
INSERT
  5
32CE
  8
L1
  2
S3
 10
445.68649370323561
 20
158.7323528430378
 30
0.0
  0
INSERT
  5
32FB
  8
L1
  2
S4
 10
346.82218392774001
 20
278.5508506276708
 30
0.0
  0
ENDSEC
  0
EOF
