  0
SECTION
  2
HEADER
  9
$ACADVER
  1
AC1009
  9
$INSBASE
 10
0.0
 20
0.0
 30
0.0
  9
$EXTMIN
 10
36.416630051886322
 20
1.2463997870692649
 30
0.0
  9
$EXTMAX
 10
567.82891854983313
 20
282.84214527125772
 30
0.0
  9
$LIMMIN
 10
0.0
 20
0.0
  9
$LIMMAX
 10
571.84598788675544
 20
282.45921431323222
  9
$ORTHOMODE
 70
     1
  9
$REGENMODE
 70
     1
  9
$FILLMODE
 70
     1
  9
$QTEXTMODE
 70
     0
  9
$MIRRTEXT
 70
     1
  9
$DRAGMODE
 70
     2
  9
$LTSCALE
 40
15.0
  9
$OSMODE
 70
     5
  9
$ATTMODE
 70
     1
  9
$TEXTSIZE
 40
3.5
  9
$TRACEWID
 40
1.0
  9
$TEXTSTYLE
  7
SIMPLEX
  9
$CLAYER
  8
L1
  9
$CELTYPE
  6
BYLAYER
  9
$CECOLOR
 62
   256
  9
$DIMSCALE
 40
1.0
  9
$DIMASZ
 40
3.5
  9
$DIMEXO
 40
0.0625
  9
$DIMDLI
 40
0.38
  9
$DIMRND
 40
0.0
  9
$DIMDLE
 40
0.0
  9
$DIMEXE
 40
0.18
  9
$DIMTP
 40
0.0
  9
$DIMTM
 40
0.0
  9
$DIMTXT
 40
3.5
  9
$DIMCEN
 40
1.0
  9
$DIMTSZ
 40
0.0
  9
$DIMTOL
 70
     0
  9
$DIMLIM
 70
     0
  9
$DIMTIH
 70
     0
  9
$DIMTOH
 70
     0
  9
$DIMSE1
 70
     0
  9
$DIMSE2
 70
     0
  9
$DIMTAD
 70
     1
  9
$DIMZIN
 70
     8
  9
$DIMBLK
  1

  9
$DIMASO
 70
     1
  9
$DIMSHO
 70
     1
  9
$DIMPOST
  1

  9
$DIMAPOST
  1

  9
$DIMALT
 70
     0
  9
$DIMALTD
 70
     2
  9
$DIMALTF
 40
25.399999999999999
  9
$DIMLFAC
 40
1.0
  9
$DIMTOFL
 70
     0
  9
$DIMTVP
 40
0.0
  9
$DIMTIX
 70
     0
  9
$DIMSOXD
 70
     0
  9
$DIMSAH
 70
     0
  9
$DIMBLK1
  1

  9
$DIMBLK2
  1

  9
$DIMSTYLE
  2
FIBOX
  9
$DIMCLRD
 70
     1
  9
$DIMCLRE
 70
     1
  9
$DIMCLRT
 70
     3
  9
$DIMTFAC
 40
1.0
  9
$DIMGAP
 40
0.8
  9
$LUNITS
 70
     2
  9
$LUPREC
 70
     4
  9
$SKETCHINC
 40
1.0
  9
$FILLETRAD
 40
0.0
  9
$AUNITS
 70
     0
  9
$AUPREC
 70
     0
  9
$MENU
  1
.
  9
$ELEVATION
 40
0.0
  9
$PELEVATION
 40
0.0
  9
$THICKNESS
 40
0.0
  9
$LIMCHECK
 70
     0
  9
$BLIPMODE
 70
     0
  9
$CHAMFERA
 40
10.0
  9
$CHAMFERB
 40
10.0
  9
$SKPOLY
 70
     0
  9
$TDCREATE
 40
2450458.5830949759
  9
$TDUPDATE
 40
2452502.5284985532
  9
$TDINDWG
 40
0.6907935995
  9
$TDUSRTIMER
 40
0.6907935995
  9
$USRTIMER
 70
     1
  9
$ANGBASE
 50
0.0
  9
$ANGDIR
 70
     0
  9
$PDMODE
 70
     0
  9
$PDSIZE
 40
0.0
  9
$PLINEWID
 40
0.0
  9
$COORDS
 70
     2
  9
$SPLFRAME
 70
     0
  9
$SPLINETYPE
 70
     6
  9
$SPLINESEGS
 70
     8
  9
$ATTDIA
 70
     0
  9
$ATTREQ
 70
     1
  9
$HANDLING
 70
 22529
  9
$HANDSEED
  5
24D4
  9
$SURFTAB1
 70
     6
  9
$SURFTAB2
 70
     6
  9
$SURFTYPE
 70
     6
  9
$SURFU
 70
     6
  9
$SURFV
 70
     6
  9
$UCSNAME
  2

  9
$UCSORG
 10
0.0
 20
0.0
 30
0.0
  9
$UCSXDIR
 10
1.0
 20
0.0
 30
0.0
  9
$UCSYDIR
 10
0.0
 20
1.0
 30
0.0
  9
$PUCSNAME
  2

  9
$PUCSORG
 10
0.0
 20
0.0
 30
0.0
  9
$PUCSXDIR
 10
1.0
 20
0.0
 30
0.0
  9
$PUCSYDIR
 10
0.0
 20
1.0
 30
0.0
  9
$USERI1
 70
     0
  9
$USERI2
 70
     0
  9
$USERI3
 70
     0
  9
$USERI4
 70
     0
  9
$USERI5
 70
     0
  9
$USERR1
 40
0.0
  9
$USERR2
 40
0.0
  9
$USERR3
 40
0.0
  9
$USERR4
 40
0.0
  9
$USERR5
 40
0.0
  9
$WORLDVIEW
 70
     1
  9
$SHADEDGE
 70
     3
  9
$SHADEDIF
 70
    70
  9
$TILEMODE
 70
     1
  9
$MAXACTVP
 70
    16
  9
$PLIMCHECK
 70
     0
  9
$PEXTMIN
 10
-563.59530269305765
 20
-0.2105770487715972
 30
0.0
  9
$PEXTMAX
 10
30.404697306942349
 20
419.7894229512284
 30
0.0
  9
$PLIMMIN
 10
0.0
 20
0.0
  9
$PLIMMAX
 10
420.0
 20
297.0
  9
$UNITMODE
 70
     0
  9
$VISRETAIN
 70
     0
  9
$PLINEGEN
 70
     0
  9
$PSLTSCALE
 70
     1
  0
ENDSEC
  0
SECTION
  2
TABLES
  0
TABLE
  2
VPORT
 70
     3
  0
VPORT
  2
*ACTIVE
 70
     0
 10
0.0
 20
0.0
 11
1.0
 21
1.0
 12
543.33267278641813
 22
-29.451339062370259
 13
0.0
 23
0.0
 14
10.0
 24
10.0
 15
10.0
 25
10.0
 16
0.0
 26
0.0
 36
1.0
 17
-241.20173189795719
 27
171.50037569982149
 37
-221.07012254811389
 40
351.2191875855587
 41
1.5205479452054791
 42
50.0
 43
0.0
 44
0.0
 50
0.0
 51
0.0
 71
     0
 72
   500
 73
     1
 74
     1
 75
     0
 76
     0
 77
     0
 78
     0
  0
ENDTAB
  0
TABLE
  2
LTYPE
 70
     3
  0
LTYPE
  2
CONTINUOUS
 70
     0
  3
Solid line
 72
    65
 73
     0
 40
0.0
  0
LTYPE
  2
HIDDEN
 70
     0
  3
__ __ __ __ __ __ __ __ __ __ __ __ __ __ __ __
 72
    65
 73
     2
 40
0.375
 49
0.25
 49
-0.125
  0
LTYPE
  2
CENTER
 70
     0
  3
____ _ ____ _ ____ _ ____ _ ____ _ ____ _ ____ 
 72
    65
 73
     4
 40
2.0
 49
1.25
 49
-0.25
 49
0.25
 49
-0.25
  0
ENDTAB
  0
TABLE
  2
LAYER
 70
     5
  0
LAYER
  2
0
 70
     0
 62
     7
  6
CONTINUOUS
  0
LAYER
  2
L2
 70
     0
 62
     1
  6
HIDDEN
  0
LAYER
  2
L1
 70
     0
 62
     7
  6
CONTINUOUS
  0
LAYER
  2
L6
 70
     0
 62
     1
  6
CENTER
  0
LAYER
  2
DEFPOINTS
 70
     0
 62
     7
  6
CONTINUOUS
  0
ENDTAB
  0
TABLE
  2
STYLE
 70
     2
  0
STYLE
  2
STANDARD
 70
     0
 40
0.0
 41
1.0
 50
0.0
 71
     0
 42
2.5
  3
ISOCP
  4

  0
STYLE
  2
SIMPLEX
 70
     0
 40
0.0
 41
0.8
 50
0.0
 71
     0
 42
3.5
  3
simplex.shx
  4

  0
ENDTAB
  0
TABLE
  2
VIEW
 70
     0
  0
ENDTAB
  0
TABLE
  2
UCS
 70
     0
  0
ENDTAB
  0
TABLE
  2
APPID
 70
     2
  0
APPID
  2
ACAD
 70
     0
  0
APPID
  2
CONTENTBLOCKICON
 70
     0
  0
ENDTAB
  0
TABLE
  2
DIMSTYLE
 70
     1
  0
DIMSTYLE
  2
FIBOX
 70
     0
  3

  4

  5

  6

  7

 40
1.0
 41
3.5
 42
0.0625
 43
0.38
 44
0.18
 45
0.0
 46
0.0
 47
0.0
 48
0.0
140
3.5
141
1.0
142
0.0
143
25.399999999999999
144
1.0
145
0.0
146
1.0
147
0.8
 71
     0
 72
     0
 73
     0
 74
     0
 75
     0
 76
     0
 77
     1
 78
     8
170
     0
171
     2
172
     0
173
     0
174
     0
175
     0
176
     1
177
     1
178
     3
  0
ENDTAB
  0
ENDSEC
  0
SECTION
  2
BLOCKS
  0
BLOCK
  8
0
  2
$MODEL_SPACE
 70
     0
 10
0.0
 20
0.0
 30
0.0
  3
$MODEL_SPACE
  1

  0
ENDBLK
  5
6
  8
0
  0
BLOCK
 67
     1
  8
0
  2
$PAPER_SPACE
 70
     0
 10
0.0
 20
0.0
 30
0.0
  3
$PAPER_SPACE
  1

  0
ENDBLK
  5
9
 67
     1
  8
0
  0
BLOCK
  8
0
  2
S1
 70
     0
 10
0.0
 20
0.0
 30
0.0
  3
S1
  1

  0
LINE
  5
1338
  8
L1
 10
33.799999999999947
 20
-64.99791218762148
 30
0.0
 11
33.800000000000061
 21
64.997912187621395
 31
0.0
  0
LINE
  5
1339
  8
L1
 10
8.0000000000001137
 20
-63.045791482119071
 30
0.0
 11
8.0
 21
63.04579148211883
 31
0.0
  0
LINE
  5
133A
  8
L1
 10
8.6000000000000227
 20
60.1437914821189
 30
0.0
 11
8.6000000000000227
 21
-63.64579148211898
 31
0.0
  0
LINE
  5
133B
  8
L1
 10
35.769330927440592
 20
-62.900000028767202
 30
0.0
 11
35.769330927440592
 21
62.90000002876706
 31
0.0
  0
LINE
  5
133C
  8
L1
 10
34.600000000000023
 20
64.239838411047799
 30
0.0
 11
34.600000000000023
 21
-64.239838411047927
 31
0.0
  0
LINE
  5
133D
  8
L2
 10
10.50000000000005
 20
-46.813823489298791
 30
0.0
 11
10.50000000000005
 21
46.813823489298642
 31
0.0
  0
LINE
  5
133E
  8
L2
 10
8.5000000000000568
 20
-49.000000000000071
 30
0.0
 11
8.5000000000000568
 21
48.999999999999972
 31
0.0
  0
LINE
  5
133F
  8
L1
 10
8.6331843514793718
 20
-63.67897526785687
 30
0.0
 11
33.83983783337419
 21
-65.000000000000071
 31
0.0
  0
LINE
  5
1340
  8
L2
 10
34.600000000000023
 20
-47.939838411047909
 30
0.0
 11
10.986911525846089
 21
-47.31365215178657
 31
0.0
  0
LINE
  5
1341
  8
L1
 10
8.0
 20
-63.045791482119007
 30
0.0
 11
8.6331837544488508
 21
-63.678975236567751
 31
0.0
  0
LINE
  5
1342
  8
L2
 10
8.5000000000000568
 20
-49.000000000000071
 30
0.0
 11
8.0000000000000568
 21
-49.000000000000071
 31
0.0
  0
ARC
  5
1343
  8
L2
 10
11.00000000000005
 20
-46.813823489298791
 30
0.0
 40
0.5
 50
180.0
 51
268.49999999999892
  0
LINE
  5
1344
  8
L1
 10
35.38149846027283
 20
-63.362200764838867
 30
0.0
 11
34.603156115677841
 21
-63.499443520418893
 31
0.0
  0
LINE
  5
1345
  8
L1
 10
34.600000000000023
 20
-64.23983841104787
 30
0.0
 11
33.839838382280838
 21
-65.000000028767047
 31
0.0
  0
ARC
  5
1346
  8
L1
 10
35.300000000000061
 20
-62.900000028767202
 30
0.0
 40
0.4693309274404737
 50
280.00000000000182
 51
0.0
  0
LINE
  5
1347
  8
L6
 10
0.0
 20
0.0
 30
0.0
 11
43.769330927440478
 21
0.0
 31
0.0
  0
LINE
  5
1348
  8
L1
 10
8.6331843514793718
 20
63.678975267856799
 30
0.0
 11
33.83983783337419
 21
65.0
 31
0.0
  0
LINE
  5
1349
  8
L2
 10
34.600000000000023
 20
47.939838411047837
 30
0.0
 11
10.986911525846089
 21
47.313652151786407
 31
0.0
  0
LINE
  5
134A
  8
L2
 10
8.5000000000000568
 20
48.999999999999972
 30
0.0
 11
7.9999999999999432
 21
49.0
 31
0.0
  0
ARC
  5
134B
  8
L2
 10
11.00000000000005
 20
46.813823489298642
 30
0.0
 40
0.5
 50
91.500000000001094
 51
180.0
  0
POLYLINE
  5
134C
  8
L1
 66
     1
 10
0.0
 20
0.0
 30
0.0
  0
VERTEX
  5
203E
  8
L1
 10
8.6001171717734906
 20
60.172439079408491
 30
0.0
  0
VERTEX
  5
203F
  8
L1
 10
8.6014368445590872
 20
60.332423808873152
 30
0.0
  0
VERTEX
  5
2040
  8
L1
 10
8.6027933997038417
 20
60.494204889452583
 30
0.0
  0
VERTEX
  5
2041
  8
L1
 10
8.6041812825037596
 20
60.657063267460899
 30
0.0
  0
VERTEX
  5
2042
  8
L1
 10
8.605594938254967
 20
60.82027988921152
 30
0.0
  0
VERTEX
  5
2043
  8
L1
 10
8.6070937303161372
 20
60.990480560158062
 30
0.0
  0
VERTEX
  5
2044
  8
L1
 10
8.6086069273374051
 20
61.159533033631412
 30
0.0
  0
VERTEX
  5
2045
  8
L1
 10
8.6101268175634686
 20
61.326681886983579
 30
0.0
  0
VERTEX
  5
2046
  8
L1
 10
8.6116456892390261
 20
61.491171697566529
 30
0.0
  0
VERTEX
  5
2047
  8
L1
 10
8.6131562682087406
 20
61.652331968365729
 30
0.0
  0
VERTEX
  5
2048
  8
L1
 10
8.6146509867062377
 20
61.809572316523713
 30
0.0
  0
VERTEX
  5
2049
  8
L1
 10
8.6161216925588633
 20
61.96225749062944
 30
0.0
  0
VERTEX
  5
204A
  8
L1
 10
8.617560233594304
 20
62.10975223927187
 30
0.0
  0
VERTEX
  5
204B
  8
L1
 10
8.6189584805856612
 20
62.251451938285982
 30
0.0
  0
VERTEX
  5
204C
  8
L1
 10
8.6203090809086689
 20
62.386882705824519
 30
0.0
  0
VERTEX
  5
204D
  8
L1
 10
8.6216050472943362
 20
62.515605403952463
 30
0.0
  0
VERTEX
  5
204E
  8
L1
 10
8.622839392474134
 20
62.637180894735032
 30
0.0
  0
VERTEX
  5
204F
  8
L1
 10
8.6240304917690764
 20
62.753637013816963
 30
0.0
  0
VERTEX
  5
2050
  8
L1
 10
8.6251839673299173
 20
62.865727539423801
 30
0.0
  0
VERTEX
  5
2051
  8
L1
 10
8.6262901067186704
 20
62.972711773028429
 30
0.0
  0
VERTEX
  5
2052
  8
L1
 10
8.6273391974978022
 20
63.073849016103509
 30
0.0
  0
VERTEX
  5
2053
  8
L1
 10
8.6283218782633622
 20
63.168451236849592
 30
0.0
  0
VERTEX
  5
2054
  8
L1
 10
8.6292307513514288
 20
63.25602880583881
 30
0.0
  0
VERTEX
  5
2055
  8
L1
 10
8.6300590499339478
 20
63.336138628100791
 30
0.0
  0
VERTEX
  5
2056
  8
L1
 10
8.6308000071826427
 20
63.408337608665192
 30
0.0
  0
VERTEX
  5
2057
  8
L1
 10
8.6314476951213237
 20
63.472260094145099
 30
0.0
  0
VERTEX
  5
2058
  8
L1
 10
8.6319988945375599
 20
63.527739872602858
 30
0.0
  0
VERTEX
  5
2059
  8
L1
 10
8.6324509017493938
 20
63.574633011242547
 30
0.0
  0
VERTEX
  5
205A
  8
L1
 10
8.6328010130747543
 20
63.61279557726823
 30
0.0
  0
VERTEX
  5
205B
  8
L1
 10
8.6330467413613405
 20
63.642064036379573
 30
0.0
  0
VERTEX
  5
205C
  8
L1
 10
8.6331908679042044
 20
63.662711936526307
 30
0.0
  0
VERTEX
  5
205D
  8
L1
 10
8.6332359016334976
 20
63.674946579691209
 30
0.0
  0
VERTEX
  5
205E
  8
L1
 10
8.6331843514792581
 20
63.678975267856799
 30
0.0
  0
SEQEND
  5
205F
  8
L1
  0
LINE
  5
134D
  8
L1
 10
8.0
 20
63.045791482118943
 30
0.0
 11
8.6331837544488508
 21
63.67897523656768
 31
0.0
  0
LINE
  5
134E
  8
L1
 10
35.38149846027283
 20
63.362200764838803
 30
0.0
 11
34.603156115677841
 21
63.499443520418822
 31
0.0
  0
LINE
  5
134F
  8
L1
 10
34.600000000000023
 20
64.239838411047799
 30
0.0
 11
33.839838382280838
 21
65.000000028766976
 31
0.0
  0
ARC
  5
1350
  8
L1
 10
35.300000000000061
 20
62.900000028767039
 30
0.0
 40
0.4693309274404737
 50
0.0
 51
79.999999999998195
  0
ENDBLK
  5
1337
  8
0
  0
BLOCK
  8
0
  2
S2
 70
     0
 10
0.0
 20
0.0
 30
0.0
  3
S2
  1

  0
LINE
  5
1398
  8
L2
 10
35.269330927440421
 20
-49.000000000000071
 30
0.0
 11
35.269330927440421
 21
48.999999999999972
 31
0.0
  0
LINE
  5
1399
  8
L2
 10
33.269330927440421
 20
-46.813823489298791
 30
0.0
 11
33.269330927440421
 21
46.813823489298642
 31
0.0
  0
LINE
  5
139A
  8
L1
 10
9.1693309274404555
 20
64.239838411047799
 30
0.0
 11
9.1693309274404555
 21
-64.239838411047927
 31
0.0
  0
LINE
  5
139B
  8
L1
 10
7.9999999999998863
 20
-62.900000028767202
 30
0.0
 11
7.9999999999998863
 21
62.90000002876706
 31
0.0
  0
LINE
  5
139C
  8
L1
 10
35.169330927440448
 20
60.1437914821189
 30
0.0
 11
35.169330927440448
 21
-63.64579148211898
 31
0.0
  0
LINE
  5
139D
  8
L1
 10
35.769330927440357
 20
-63.045791482119071
 30
0.0
 11
35.769330927440471
 21
63.04579148211883
 31
0.0
  0
LINE
  5
139E
  8
L1
 10
9.9693309274405237
 20
-64.99791218762148
 30
0.0
 11
9.9693309274404101
 21
64.997912187621395
 31
0.0
  0
LINE
  5
139F
  8
L2
 10
9.1693309274404555
 20
-47.939838411047909
 30
0.0
 11
32.782419401594382
 21
-47.31365215178657
 31
0.0
  0
LINE
  5
13A0
  8
L1
 10
35.136146575961099
 20
-63.67897526785687
 30
0.0
 11
9.9294930940662862
 21
-65.000000000000071
 31
0.0
  0
ARC
  5
13A1
  8
L1
 10
8.4693309274404101
 20
-62.900000028767202
 30
0.0
 40
0.4693309274404737
 50
180.0
 51
259.99999999999812
  0
LINE
  5
13A2
  8
L1
 10
8.3878324671676392
 20
-63.362200764838867
 30
0.0
 11
9.1661748117626303
 21
-63.499443520418893
 31
0.0
  0
LINE
  5
13A3
  8
L1
 10
9.1693309274404555
 20
-64.23983841104787
 30
0.0
 11
9.9294925451596328
 21
-65.000000028767047
 31
0.0
  0
LINE
  5
13A4
  8
L1
 10
35.769330927440471
 20
-63.045791482119007
 30
0.0
 11
35.13614717299162
 21
-63.678975236567751
 31
0.0
  0
ARC
  5
13A5
  8
L2
 10
32.769330927440421
 20
-46.813823489298791
 30
0.0
 40
0.5
 50
271.50000000000267
 51
0.0
  0
LINE
  5
13A6
  8
L2
 10
35.269330927440421
 20
-49.000000000000071
 30
0.0
 11
35.769330927440421
 21
-49.000000000000071
 31
0.0
  0
LINE
  5
13A7
  8
L6
 10
43.769330927440478
 20
0.0
 30
0.0
 11
0.0
 21
0.0
 31
0.0
  0
LINE
  5
13A8
  8
L2
 10
9.1693309274404555
 20
47.939838411047837
 30
0.0
 11
32.782419401594382
 21
47.313652151786407
 31
0.0
  0
LINE
  5
13A9
  8
L1
 10
35.136146575961099
 20
63.678975267856799
 30
0.0
 11
9.9294930940662862
 21
65.0
 31
0.0
  0
ARC
  5
13AA
  8
L1
 10
8.4693309274404101
 20
62.900000028767039
 30
0.0
 40
0.4693309274404737
 50
100.00000000000171
 51
180.0
  0
LINE
  5
13AB
  8
L1
 10
8.3878324671676392
 20
63.362200764838803
 30
0.0
 11
9.1661748117626303
 21
63.499443520418822
 31
0.0
  0
LINE
  5
13AC
  8
L1
 10
9.1693309274404555
 20
64.239838411047799
 30
0.0
 11
9.9294925451596328
 21
65.000000028766976
 31
0.0
  0
ARC
  5
13AD
  8
L2
 10
32.769330927440421
 20
46.813823489298642
 30
0.0
 40
0.5
 50
0.0
 51
88.499999999997272
  0
LINE
  5
13AE
  8
L2
 10
35.269330927440421
 20
48.999999999999972
 30
0.0
 11
35.769330927440528
 21
49.0
 31
0.0
  0
LINE
  5
13AF
  8
L1
 10
35.769330927440471
 20
63.045791482118943
 30
0.0
 11
35.13614717299162
 21
63.67897523656768
 31
0.0
  0
POLYLINE
  5
13B0
  8
L1
 66
     1
 10
0.0
 20
0.0
 30
0.0
  0
VERTEX
  5
2061
  8
L1
 10
35.169213755666988
 20
60.172439079408491
 30
0.0
  0
VERTEX
  5
2062
  8
L1
 10
35.167894082881389
 20
60.332423808873152
 30
0.0
  0
VERTEX
  5
2063
  8
L1
 10
35.166537527736629
 20
60.494204889452583
 30
0.0
  0
VERTEX
  5
2064
  8
L1
 10
35.165149644936712
 20
60.657063267460899
 30
0.0
  0
VERTEX
  5
2065
  8
L1
 10
35.163735989185511
 20
60.82027988921152
 30
0.0
  0
VERTEX
  5
2066
  8
L1
 10
35.162237197124341
 20
60.990480560158062
 30
0.0
  0
VERTEX
  5
2067
  8
L1
 10
35.160724000103073
 20
61.159533033631412
 30
0.0
  0
VERTEX
  5
2068
  8
L1
 10
35.15920410987701
 20
61.326681886983579
 30
0.0
  0
VERTEX
  5
2069
  8
L1
 10
35.157685238201452
 20
61.491171697566529
 30
0.0
  0
VERTEX
  5
206A
  8
L1
 10
35.156174659231738
 20
61.652331968365729
 30
0.0
  0
VERTEX
  5
206B
  8
L1
 10
35.154679940734241
 20
61.809572316523713
 30
0.0
  0
VERTEX
  5
206C
  8
L1
 10
35.153209234881608
 20
61.96225749062944
 30
0.0
  0
VERTEX
  5
206D
  8
L1
 10
35.151770693846167
 20
62.10975223927187
 30
0.0
  0
VERTEX
  5
206E
  8
L1
 10
35.150372446854817
 20
62.251451938285982
 30
0.0
  0
VERTEX
  5
206F
  8
L1
 10
35.149021846531802
 20
62.386882705824519
 30
0.0
  0
VERTEX
  5
2070
  8
L1
 10
35.14772588014614
 20
62.515605403952463
 30
0.0
  0
VERTEX
  5
2071
  8
L1
 10
35.146491534966337
 20
62.637180894735032
 30
0.0
  0
VERTEX
  5
2072
  8
L1
 10
35.145300435671402
 20
62.753637013816963
 30
0.0
  0
VERTEX
  5
2073
  8
L1
 10
35.144146960110561
 20
62.865727539423801
 30
0.0
  0
VERTEX
  5
2074
  8
L1
 10
35.143040820721808
 20
62.972711773028429
 30
0.0
  0
VERTEX
  5
2075
  8
L1
 10
35.141991729942667
 20
63.073849016103509
 30
0.0
  0
VERTEX
  5
2076
  8
L1
 10
35.141009049177107
 20
63.168451236849592
 30
0.0
  0
VERTEX
  5
2077
  8
L1
 10
35.140100176089049
 20
63.25602880583881
 30
0.0
  0
VERTEX
  5
2078
  8
L1
 10
35.13927187750653
 20
63.336138628100791
 30
0.0
  0
VERTEX
  5
2079
  8
L1
 10
35.138530920257828
 20
63.408337608665192
 30
0.0
  0
VERTEX
  5
207A
  8
L1
 10
35.137883232319147
 20
63.472260094145099
 30
0.0
  0
VERTEX
  5
207B
  8
L1
 10
35.137332032902911
 20
63.527739872602858
 30
0.0
  0
VERTEX
  5
207C
  8
L1
 10
35.136880025691077
 20
63.574633011242547
 30
0.0
  0
VERTEX
  5
207D
  8
L1
 10
35.136529914365717
 20
63.61279557726823
 30
0.0
  0
VERTEX
  5
207E
  8
L1
 10
35.136284186079131
 20
63.642064036379573
 30
0.0
  0
VERTEX
  5
207F
  8
L1
 10
35.136140059536267
 20
63.662711936526307
 30
0.0
  0
VERTEX
  5
2080
  8
L1
 10
35.136095025806981
 20
63.674946579691209
 30
0.0
  0
VERTEX
  5
2081
  8
L1
 10
35.13614657596122
 20
63.678975267856799
 30
0.0
  0
SEQEND
  5
2082
  8
L1
  0
ENDBLK
  5
1397
  8
0
  0
BLOCK
  8
0
  2
B
 70
     0
 10
0.0
 20
0.0
 30
0.0
  3
B
  1

  0
LINE
  5
1561
  8
L1
 10
63.522364668203807
 20
47.149999999999999
 30
0.0
 11
63.522364668203693
 21
-47.150000000000063
 31
0.0
  0
LINE
  5
1562
  8
L1
 10
62.222364668203738
 20
46.450514012536672
 30
0.0
 11
62.222364668203738
 21
-46.450514012536608
 31
0.0
  0
LINE
  5
1563
  8
L1
 10
64.262203050484629
 20
-61.498000000000019
 30
0.0
 11
64.262203050484629
 21
61.497999999999962
 31
0.0
  0
LINE
  5
1564
  8
L1
 10
65.022364668203807
 20
61.497999999999962
 30
0.0
 11
65.022364668203807
 21
-61.498000000000019
 31
0.0
  0
LINE
  5
1565
  8
L1
 10
-62.177350475832931
 20
46.450514012536672
 30
0.0
 11
-62.177350475832931
 21
-46.450514012536608
 31
0.0
  0
LINE
  5
1566
  8
L1
 10
-63.477350475832992
 20
47.149999999999999
 30
0.0
 11
-63.477350475832878
 21
-47.150000000000063
 31
0.0
  0
LINE
  5
1567
  8
L1
 10
-64.977350475832992
 20
61.497999999999962
 30
0.0
 11
-64.977350475832992
 21
-61.498000000000019
 31
0.0
  0
LINE
  5
1568
  8
L1
 10
-64.217188858113815
 20
-61.498000000000019
 30
0.0
 11
-64.217188858113815
 21
61.497999999999962
 31
0.0
  0
LINE
  5
1569
  8
L6
 10
0.0
 20
69.137434451255046
 30
0.0
 11
0.0
 21
-71.650370450405546
 31
0.0
  0
LINE
  5
156A
  8
L1
 10
-47.117188858113792
 20
-63.499999999999858
 30
0.0
 11
47.162203050484607
 21
-63.499999999999908
 31
0.0
  0
LINE
  5
156B
  8
L1
 10
-46.417702870650508
 20
-62.199999999999903
 30
0.0
 11
46.462717063021323
 21
-62.199999999999839
 31
0.0
  0
LINE
  5
156C
  8
L1
 10
-61.470459423694727
 20
-64.999999999999915
 30
0.0
 11
61.515473616065549
 21
-64.999999999999915
 31
0.0
  0
LINE
  5
156D
  8
L1
 10
61.560203050484631
 20
-64.199999999999903
 30
0.0
 11
-61.51518885811376
 21
-64.199999999999861
 31
0.0
  0
POLYLINE
  5
156E
  8
L1
 66
     1
 10
0.0
 20
0.0
 30
0.0
  0
VERTEX
  5
2084
  8
L1
 10
-46.417702870650508
 20
-62.199999999999903
 30
0.0
  0
VERTEX
  5
2085
  8
L1
 10
-46.598483820988832
 20
-62.18906909359962
 30
0.0
  0
VERTEX
  5
2086
  8
L1
 10
-46.776615894250227
 20
-62.156435632759177
 30
0.0
  0
VERTEX
  5
2087
  8
L1
 10
-46.949503786725948
 20
-62.10257507223762
 30
0.0
  0
VERTEX
  5
2088
  8
L1
 10
-47.114628600048171
 20
-62.028272136031632
 30
0.0
  0
VERTEX
  5
2089
  8
L1
 10
-47.26958454039984
 20
-61.934609384302377
 30
0.0
  0
VERTEX
  5
208A
  8
L1
 10
-47.412113969842068
 20
-61.822951440963472
 30
0.0
  0
VERTEX
  5
208B
  8
L1
 10
-47.540140299077422
 20
-61.694925111728111
 30
0.0
  0
VERTEX
  5
208C
  8
L1
 10
-47.65179824241639
 20
-61.552395682285841
 30
0.0
  0
VERTEX
  5
208D
  8
L1
 10
-47.745460994145589
 20
-61.397439741934221
 30
0.0
  0
VERTEX
  5
208E
  8
L1
 10
-47.81976393035157
 20
-61.232314928611999
 30
0.0
  0
VERTEX
  5
208F
  8
L1
 10
-47.873624490873247
 20
-61.05942703613632
 30
0.0
  0
VERTEX
  5
2090
  8
L1
 10
-47.90625795171357
 20
-60.881294962874868
 30
0.0
  0
VERTEX
  5
2091
  8
L1
 10
-47.91718885811386
 20
-60.700514012536559
 30
0.0
  0
SEQEND
  5
2092
  8
L1
  0
ARC
  5
156F
  8
L1
 10
-47.117188858113792
 20
-60.199999999999847
 30
0.0
 40
3.3000000000000149
 50
228.5901030192349
 51
270.0
  0
ARC
  5
1570
  8
L1
 10
-56.717188858113808
 20
-56.749999999999972
 30
0.0
 40
8.8000000000000114
 50
0.0
 51
37.285473900598028
  0
ARC
  5
1571
  8
L1
 10
-56.717188858113808
 20
-56.749999999999908
 30
0.0
 40
5.0261806033722758
 50
357.26858442957263
 51
92.731415570428993
  0
LINE
  5
1572
  8
L1
 10
-56.966815935580627
 20
-51.73001193232605
 30
0.0
 11
-61.737176925787729
 21
-56.500372922533217
 31
0.0
  0
LINE
  5
1573
  8
L1
 10
-63.177350475833038
 20
-60.599999999999881
 30
0.0
 11
-63.177350475833038
 21
-49.531163227339249
 31
0.0
  0
ARC
  5
1574
  8
L1
 10
-56.717188858113808
 20
-56.749999999999908
 30
0.0
 40
6.3000000000000487
 50
0.0
 51
90.0
  0
ARC
  5
1575
  8
L1
 10
-56.717188858113808
 20
-56.749999999999908
 30
0.0
 40
5.0261806033722758
 50
177.2685844295726
 51
272.73141557042732
  0
LINE
  5
1576
  8
L1
 10
-49.498352085453263
 20
-63.199999999999903
 30
0.0
 11
-60.577350475833008
 21
-63.199999999999903
 31
0.0
  0
ARC
  5
1577
  8
L1
 10
-60.577350475833008
 20
-60.599999999999881
 30
0.0
 40
2.6000000000000001
 50
180.0
 51
270.0
  0
POLYLINE
  5
1578
  8
L1
 66
     1
 10
0.0
 20
0.0
 30
0.0
  0
VERTEX
  5
2093
  8
L1
 10
-61.51518885811381
 20
-64.999715144036799
 30
0.0
  0
VERTEX
  5
2094
  8
L1
 10
-61.680592815902088
 20
-64.993676363898743
 30
0.0
  0
VERTEX
  5
2095
  8
L1
 10
-61.847908366889243
 20
-64.979607624391946
 30
0.0
  0
VERTEX
  5
2096
  8
L1
 10
-62.016320662310271
 20
-64.95730889066553
 30
0.0
  0
VERTEX
  5
2097
  8
L1
 10
-62.185014853400411
 20
-64.926580127868959
 30
0.0
  0
VERTEX
  5
2098
  8
L1
 10
-62.3531886676233
 20
-64.8872818835857
 30
0.0
  0
VERTEX
  5
2099
  8
L1
 10
-62.52008729459456
 20
-64.839503332309064
 30
0.0
  0
VERTEX
  5
209A
  8
L1
 10
-62.684967078775138
 20
-64.783387379553659
 30
0.0
  0
VERTEX
  5
209B
  8
L1
 10
-62.847084364626681
 20
-64.719076930833779
 30
0.0
  0
VERTEX
  5
209C
  8
L1
 10
-63.00577925064411
 20
-64.646736529245999
 30
0.0
  0
VERTEX
  5
209D
  8
L1
 10
-63.16047448791462
 20
-64.566724944746255
 30
0.0
  0
VERTEX
  5
209E
  8
L1
 10
-63.310550399786877
 20
-64.479476423138436
 30
0.0
  0
VERTEX
  5
209F
  8
L1
 10
-63.455387309609961
 20
-64.385425210226202
 30
0.0
  0
VERTEX
  5
20A0
  8
L1
 10
-63.594396562002572
 20
-64.285050833458371
 30
0.0
  0
VERTEX
  5
20A1
  8
L1
 10
-63.727121699522883
 20
-64.179025778373131
 30
0.0
  0
VERTEX
  5
20A2
  8
L1
 10
-63.853141342428927
 20
-64.068073727908398
 30
0.0
  0
VERTEX
  5
20A3
  8
L1
 10
-63.972034110978051
 20
-63.952918365002382
 30
0.0
  0
VERTEX
  5
20A4
  8
L1
 10
-64.084537349624071
 20
-63.833084364057271
 30
0.0
  0
VERTEX
  5
20A5
  8
L1
 10
-64.192805133339135
 20
-63.706259846189788
 30
0.0
  0
VERTEX
  5
20A6
  8
L1
 10
-64.296122183116637
 20
-63.572871025228352
 30
0.0
  0
VERTEX
  5
20A7
  8
L1
 10
-64.393773219949964
 20
-63.43334411500134
 30
0.0
  0
VERTEX
  5
20A8
  8
L1
 10
-64.485094123894925
 20
-63.288139300247423
 30
0.0
  0
VERTEX
  5
20A9
  8
L1
 10
-64.569614154464972
 20
-63.137845170575453
 30
0.0
  0
VERTEX
  5
20AA
  8
L1
 10
-64.646908101838932
 20
-62.983080547119101
 30
0.0
  0
VERTEX
  5
20AB
  8
L1
 10
-64.716550756195971
 20
-62.824464251012188
 30
0.0
  0
VERTEX
  5
20AC
  8
L1
 10
-64.778191262505544
 20
-62.662572087863822
 30
0.0
  0
VERTEX
  5
20AD
  8
L1
 10
-64.831673181066236
 20
-62.498059544443521
 30
0.0
  0
VERTEX
  5
20AE
  8
L1
 10
-64.876862925050347
 20
-62.331664963625002
 30
0.0
  0
VERTEX
  5
20AF
  8
L1
 10
-64.913626907629833
 20
-62.16412668828238
 30
0.0
  0
VERTEX
  5
20B0
  8
L1
 10
-64.941811716564445
 20
-61.996708164626483
 30
0.0
  0
VERTEX
  5
20B1
  8
L1
 10
-64.961689790201177
 20
-61.829682713096041
 30
0.0
  0
VERTEX
  5
20B2
  8
L1
 10
-64.973467307411312
 20
-61.663847577088148
 30
0.0
  0
VERTEX
  5
20B3
  8
L1
 10
-64.977350447066016
 20
-61.499999999999908
 30
0.0
  0
SEQEND
  5
20B4
  8
L1
  0
ARC
  5
1579
  8
L1
 10
-61.51518885811381
 20
-61.497999999999912
 30
0.0
 40
2.7019999999999542
 50
180.0
 51
270.00000000000159
  0
POLYLINE
  5
157A
  8
L1
 66
     1
 10
0.0
 20
0.0
 30
0.0
  0
VERTEX
  5
20B5
  8
L1
 10
-64.977350447066016
 20
-61.499999999999908
 30
0.0
  0
VERTEX
  5
20B6
  8
L1
 10
-64.977350475832992
 20
-61.497999999999912
 30
0.0
  0
SEQEND
  5
20B7
  8
L1
  0
POLYLINE
  5
157B
  8
L1
 66
     1
 10
0.0
 20
0.0
 30
0.0
  0
VERTEX
  5
20B8
  8
L1
 10
-61.470459423694727
 20
-64.999999999999915
 30
0.0
  0
VERTEX
  5
20B9
  8
L1
 10
-61.492820863688877
 20
-64.999928785284652
 30
0.0
  0
VERTEX
  5
20BA
  8
L1
 10
-61.51518885811381
 20
-64.999715144036799
 30
0.0
  0
SEQEND
  5
20BB
  8
L1
  0
LINE
  5
157C
  8
L1
 10
-61.737176925787729
 20
-56.500372922533153
 30
0.0
 11
-61.737659198109696
 21
-56.510481685588701
 31
0.0
  0
LINE
  5
157D
  8
L1
 10
-56.467561780647117
 20
-61.769988067673779
 30
0.0
 11
-51.697200790439886
 21
-56.99962707746667
 31
0.0
  0
ARC
  5
157E
  8
L1
 10
-47.117188858113792
 20
-60.199999999999847
 30
0.0
 40
3.3000000000000149
 50
180.0
 51
228.5901030192349
  0
LINE
  5
157F
  8
L1
 10
-56.477670543702658
 20
-61.770470339995683
 30
0.0
 11
-56.467561780647117
 21
-61.769988067673779
 31
0.0
  0
POLYLINE
  5
1580
  8
L1
 66
     1
 10
0.0
 20
0.0
 30
0.0
  0
VERTEX
  5
20BC
  8
L1
 10
-49.299945563313173
 20
-62.674989528443831
 30
0.0
  0
VERTEX
  5
20BD
  8
L1
 10
-49.280096876053712
 20
-62.694189008892323
 30
0.0
  0
VERTEX
  5
20BE
  8
L1
 10
-49.262132375502368
 20
-62.715087315775087
 30
0.0
  0
VERTEX
  5
20BF
  8
L1
 10
-49.246160460858192
 20
-62.73754641439163
 30
0.0
  0
VERTEX
  5
20C0
  8
L1
 10
-49.232289531319033
 20
-62.761428270041542
 30
0.0
  0
VERTEX
  5
20C1
  8
L1
 10
-49.220354622859787
 20
-62.787267227734588
 30
0.0
  0
VERTEX
  5
20C2
  8
L1
 10
-49.210939905801887
 20
-62.81406030456705
 30
0.0
  0
VERTEX
  5
20C3
  8
L1
 10
-49.204100474882154
 20
-62.841623450579469
 30
0.0
  0
VERTEX
  5
20C4
  8
L1
 10
-49.199891424837489
 20
-62.869772615812309
 30
0.0
  0
VERTEX
  5
20C5
  8
L1
 10
-49.19836464090443
 20
-62.899137626282908
 30
0.0
  0
VERTEX
  5
20C6
  8
L1
 10
-49.199713294794407
 20
-62.928441732404927
 30
0.0
  0
VERTEX
  5
20C7
  8
L1
 10
-49.20391737616935
 20
-62.957474023445201
 30
0.0
  0
VERTEX
  5
20C8
  8
L1
 10
-49.210956874690993
 20
-62.98602358867052
 30
0.0
  0
VERTEX
  5
20C9
  8
L1
 10
-49.220869313546842
 20
-63.014018801729172
 30
0.0
  0
VERTEX
  5
20CA
  8
L1
 10
-49.233467643729028
 20
-63.040833340294711
 30
0.0
  0
VERTEX
  5
20CB
  8
L1
 10
-49.248649429879293
 20
-63.0662744513821
 30
0.0
  0
VERTEX
  5
20CC
  8
L1
 10
-49.266312236639152
 20
-63.090149382006388
 30
0.0
  0
VERTEX
  5
20CD
  8
L1
 10
-49.285741754532673
 20
-63.111652012439009
 30
0.0
  0
VERTEX
  5
20CE
  8
L1
 10
-49.307104156965721
 20
-63.13113686732683
 30
0.0
  0
VERTEX
  5
20CF
  8
L1
 10
-49.330243157608408
 20
-63.148474653913439
 30
0.0
  0
VERTEX
  5
20D0
  8
L1
 10
-49.35500247013092
 20
-63.163536079442757
 30
0.0
  0
VERTEX
  5
20D1
  8
L1
 10
-49.376478578573852
 20
-63.174129911467361
 30
0.0
  0
VERTEX
  5
20D2
  8
L1
 10
-49.398695610165902
 20
-63.182964442916578
 30
0.0
  0
VERTEX
  5
20D3
  8
L1
 10
-49.421545620711782
 20
-63.190001691987419
 30
0.0
  0
VERTEX
  5
20D4
  8
L1
 10
-49.444920666016543
 20
-63.195203676876837
 30
0.0
  0
VERTEX
  5
20D5
  8
L1
 10
-49.471542923718197
 20
-63.198799775395941
 30
0.0
  0
VERTEX
  5
20D6
  8
L1
 10
-49.498352085453263
 20
-63.199999999999903
 30
0.0
  0
SEQEND
  5
20D7
  8
L1
  0
LINE
  5
1581
  8
L1
 10
-50.41718885811386
 20
-60.199999999999903
 30
0.0
 11
-50.41718885811386
 21
-59.249999999999908
 31
0.0
  0
LINE
  5
1582
  8
L1
 10
-50.41718885811386
 20
-59.249999999999908
 30
0.0
 11
-50.41718885811386
 21
-56.749999999999972
 31
0.0
  0
LINE
  5
1583
  8
L1
 10
-47.91718885811386
 20
-60.700514012536559
 30
0.0
 11
-47.91718885811386
 21
-56.749999999999908
 31
0.0
  0
LINE
  5
1584
  8
L1
 10
-51.697200790439886
 20
-56.99962707746667
 30
0.0
 11
-51.696718518118047
 21
-56.989518314411072
 31
0.0
  0
LINE
  5
1585
  8
L1
 10
-56.717188858113808
 20
-47.94999999999996
 30
0.0
 11
-60.677864488369579
 21
-47.94999999999996
 31
0.0
  0
LINE
  5
1586
  8
L1
 10
-56.717188858113808
 20
-50.44999999999991
 30
0.0
 11
-59.217188858113808
 21
-50.44999999999991
 31
0.0
  0
ARC
  5
1587
  8
L1
 10
-60.177350475833038
 20
-47.149999999999949
 30
0.0
 40
3.2999999999999439
 50
221.40989698076439
 51
270.0
  0
LINE
  5
1588
  8
L1
 10
-59.217188858113808
 20
-50.44999999999991
 30
0.0
 11
-60.177350475833038
 21
-50.44999999999991
 31
0.0
  0
POLYLINE
  5
1589
  8
L1
 66
     1
 10
0.0
 20
0.0
 30
0.0
  0
VERTEX
  5
20D8
  8
L1
 10
-63.177350475833038
 20
-49.531163227339299
 30
0.0
  0
VERTEX
  5
20D9
  8
L1
 10
-63.177278853636523
 20
-49.524608024967129
 30
0.0
  0
VERTEX
  5
20DA
  8
L1
 10
-63.175156075240828
 20
-49.494943700917219
 30
0.0
  0
VERTEX
  5
20DB
  8
L1
 10
-63.170122384275629
 20
-49.465705594967773
 30
0.0
  0
VERTEX
  5
20DC
  8
L1
 10
-63.162225540147261
 20
-49.437107633780528
 30
0.0
  0
VERTEX
  5
20DD
  8
L1
 10
-63.151513302260717
 20
-49.409363744017668
 30
0.0
  0
VERTEX
  5
20DE
  8
L1
 10
-63.138135206190007
 20
-49.38286737808906
 30
0.0
  0
VERTEX
  5
20DF
  8
L1
 10
-63.122245450616589
 20
-49.357881288412017
 30
0.0
  0
VERTEX
  5
20E0
  8
L1
 10
-63.103969886943133
 20
-49.334583388280997
 30
0.0
  0
VERTEX
  5
20E1
  8
L1
 10
-63.083434366572902
 20
-49.313151590990707
 30
0.0
  0
VERTEX
  5
20E2
  8
L1
 10
-63.0632802435073
 20
-49.29572899690649
 30
0.0
  0
VERTEX
  5
20E3
  8
L1
 10
-63.041703262284301
 20
-49.280191700037868
 30
0.0
  0
VERTEX
  5
20E4
  8
L1
 10
-63.018835252061557
 20
-49.266626005987263
 30
0.0
  0
VERTEX
  5
20E5
  8
L1
 10
-62.994808041996087
 20
-49.255118220357389
 30
0.0
  0
VERTEX
  5
20E6
  8
L1
 10
-62.973325460426651
 20
-49.246935856045717
 30
0.0
  0
VERTEX
  5
20E7
  8
L1
 10
-62.951311819668632
 20
-49.240430781374442
 30
0.0
  0
VERTEX
  5
20E8
  8
L1
 10
-62.928865233176019
 20
-49.235627922194197
 30
0.0
  0
VERTEX
  5
20E9
  8
L1
 10
-62.906083814402137
 20
-49.232552204355812
 30
0.0
  0
VERTEX
  5
20EA
  8
L1
 10
-62.88472489441417
 20
-49.231264746138983
 30
0.0
  0
VERTEX
  5
20EB
  8
L1
 10
-62.863355507386622
 20
-49.231501741233821
 30
0.0
  0
VERTEX
  5
20EC
  8
L1
 10
-62.842057198531187
 20
-49.233259350328098
 30
0.0
  0
VERTEX
  5
20ED
  8
L1
 10
-62.820911513059997
 20
-49.236533734109649
 30
0.0
  0
VERTEX
  5
20EE
  8
L1
 10
-62.797455744895871
 20
-49.242012144038512
 30
0.0
  0
VERTEX
  5
20EF
  8
L1
 10
-62.774551128553668
 20
-49.249341305652791
 30
0.0
  0
VERTEX
  5
20F0
  8
L1
 10
-62.752307044870832
 20
-49.258481285121519
 30
0.0
  0
VERTEX
  5
20F1
  8
L1
 10
-62.730832874684801
 20
-49.269392148613768
 30
0.0
  0
VERTEX
  5
20F2
  8
L1
 10
-62.70923070228779
 20
-49.282712677022317
 30
0.0
  0
VERTEX
  5
20F3
  8
L1
 10
-62.688879052521337
 20
-49.297772735277562
 30
0.0
  0
VERTEX
  5
20F4
  8
L1
 10
-62.669881096234832
 20
-49.314483639347287
 30
0.0
  0
VERTEX
  5
20F5
  8
L1
 10
-62.652340004277022
 20
-49.332756705199223
 30
0.0
  0
SEQEND
  5
20F6
  8
L1
  0
POLYLINE
  5
158A
  8
L1
 66
     1
 10
0.0
 20
0.0
 30
0.0
  0
VERTEX
  5
20F7
  8
L1
 10
-60.677864488369579
 20
-47.949999999999903
 30
0.0
  0
VERTEX
  5
20F8
  8
L1
 10
-60.858645438707903
 20
-47.93906909359967
 30
0.0
  0
VERTEX
  5
20F9
  8
L1
 10
-61.036777511969397
 20
-47.906435632759226
 30
0.0
  0
VERTEX
  5
20FA
  8
L1
 10
-61.209665404445133
 20
-47.852575072237613
 30
0.0
  0
VERTEX
  5
20FB
  8
L1
 10
-61.374790217767242
 20
-47.778272136031617
 30
0.0
  0
VERTEX
  5
20FC
  8
L1
 10
-61.529746158118911
 20
-47.684609384302433
 30
0.0
  0
VERTEX
  5
20FD
  8
L1
 10
-61.672275587561131
 20
-47.572951440963458
 30
0.0
  0
VERTEX
  5
20FE
  8
L1
 10
-61.800301916796599
 20
-47.444925111728097
 30
0.0
  0
VERTEX
  5
20FF
  8
L1
 10
-61.91195986013534
 20
-47.302395682285891
 30
0.0
  0
VERTEX
  5
2100
  8
L1
 10
-62.005622611864759
 20
-47.147439741934221
 30
0.0
  0
VERTEX
  5
2101
  8
L1
 10
-62.079925548070626
 20
-46.982314928612048
 30
0.0
  0
VERTEX
  5
2102
  8
L1
 10
-62.133786108592197
 20
-46.809427036136377
 30
0.0
  0
VERTEX
  5
2103
  8
L1
 10
-62.16641956943274
 20
-46.631294962874883
 30
0.0
  0
VERTEX
  5
2104
  8
L1
 10
-62.17735047583303
 20
-46.450514012536608
 30
0.0
  0
SEQEND
  5
2105
  8
L1
  0
ARC
  5
158B
  8
L1
 10
-60.177350475833038
 20
-47.149999999999949
 30
0.0
 40
3.2999999999999439
 50
180.0
 51
221.40989698076439
  0
LINE
  5
158C
  8
L1
 10
-49.706750005195687
 20
-51.044503922224827
 30
0.0
 11
-48.793884027355517
 21
-49.95659261357676
 31
0.0
  0
LINE
  5
158D
  8
L1
 10
-56.956707172525078
 20
-51.729529660004147
 30
0.0
 11
-56.966815935580627
 21
-51.73001193232605
 31
0.0
  0
POLYLINE
  5
158E
  8
L1
 66
     1
 10
0.0
 20
0.0
 30
0.0
  0
VERTEX
  5
2106
  8
L1
 10
-49.715670461942437
 20
-51.419076989106507
 30
0.0
  0
VERTEX
  5
2107
  8
L1
 10
-49.728616145950497
 20
-51.400681907275128
 30
0.0
  0
VERTEX
  5
2108
  8
L1
 10
-49.740171740989041
 20
-51.381322380204693
 30
0.0
  0
VERTEX
  5
2109
  8
L1
 10
-49.752607248438864
 20
-51.355785225535527
 30
0.0
  0
VERTEX
  5
210A
  8
L1
 10
-49.762551753436163
 20
-51.329246063272898
 30
0.0
  0
VERTEX
  5
210B
  8
L1
 10
-49.76994687746631
 20
-51.301886706224508
 30
0.0
  0
VERTEX
  5
210C
  8
L1
 10
-49.774734242014951
 20
-51.273888967197848
 30
0.0
  0
VERTEX
  5
210D
  8
L1
 10
-49.7768758112393
 20
-51.2446260863791
 30
0.0
  0
VERTEX
  5
210E
  8
L1
 10
-49.77615332511018
 20
-51.215362965292201
 30
0.0
  0
VERTEX
  5
210F
  8
L1
 10
-49.772582487718211
 20
-51.186309456928228
 30
0.0
  0
VERTEX
  5
2110
  8
L1
 10
-49.766179003153887
 20
-51.157675414278032
 30
0.0
  0
VERTEX
  5
2111
  8
L1
 10
-49.756875101260697
 20
-51.129454794596789
 30
0.0
  0
VERTEX
  5
2112
  8
L1
 10
-49.744858069509547
 20
-51.102356670615357
 30
0.0
  0
VERTEX
  5
2113
  8
L1
 10
-49.730226480872062
 20
-51.076576074860178
 30
0.0
  0
VERTEX
  5
2114
  8
L1
 10
-49.71307890832022
 20
-51.052308039857706
 30
0.0
  0
VERTEX
  5
2115
  8
L1
 10
-49.706750005195687
 20
-51.044503922224827
 30
0.0
  0
SEQEND
  5
2116
  8
L1
  0
ARC
  5
158F
  8
L1
 10
-56.717188858113808
 20
-56.749999999999972
 30
0.0
 40
8.8000000000000114
 50
52.714526099402612
 51
90.0
  0
POLYLINE
  5
1590
  8
L1
 66
     1
 10
0.0
 20
0.0
 30
0.0
  0
VERTEX
  5
2117
  8
L1
 10
-49.923781471690774
 20
-48.826695169241447
 30
0.0
  0
VERTEX
  5
2118
  8
L1
 10
-49.848166613170889
 20
-48.780357849966862
 30
0.0
  0
VERTEX
  5
2119
  8
L1
 10
-49.76230943348699
 20
-48.758153157972941
 30
0.0
  0
VERTEX
  5
211A
  8
L1
 10
-49.673712332828721
 20
-48.762021390926719
 30
0.0
  0
VERTEX
  5
211B
  8
L1
 10
-49.5901171320576
 20
-48.791624533629339
 30
0.0
  0
VERTEX
  5
211C
  8
L1
 10
-49.518828574381502
 20
-48.844375794571498
 30
0.0
  0
SEQEND
  5
211D
  8
L1
  0
POLYLINE
  5
1591
  8
L1
 66
     1
 10
0.0
 20
0.0
 30
0.0
  0
VERTEX
  5
211E
  8
L1
 10
-48.811564652685568
 20
-49.551639716267431
 30
0.0
  0
VERTEX
  5
211F
  8
L1
 10
-48.758813391743409
 20
-49.622928273943529
 30
0.0
  0
VERTEX
  5
2120
  8
L1
 10
-48.72921024904079
 20
-49.706523474714658
 30
0.0
  0
VERTEX
  5
2121
  8
L1
 10
-48.725342016087119
 20
-49.795120575372913
 30
0.0
  0
VERTEX
  5
2122
  8
L1
 10
-48.747546708080932
 20
-49.880977755056868
 30
0.0
  0
VERTEX
  5
2123
  8
L1
 10
-48.793884027355517
 20
-49.956592613576703
 30
0.0
  0
SEQEND
  5
2124
  8
L1
  0
POLYLINE
  5
1592
  8
L1
 66
     1
 10
0.0
 20
0.0
 30
0.0
  0
VERTEX
  5
2125
  8
L1
 10
-51.011692780338791
 20
-49.739561147081623
 30
0.0
  0
VERTEX
  5
2126
  8
L1
 10
-51.043086588312043
 20
-49.762605782574802
 30
0.0
  0
VERTEX
  5
2127
  8
L1
 10
-51.077259891872721
 20
-49.781419816776491
 30
0.0
  0
VERTEX
  5
2128
  8
L1
 10
-51.098749427981517
 20
-49.79048911309664
 30
0.0
  0
VERTEX
  5
2129
  8
L1
 10
-51.120844898959518
 20
-49.797852195035802
 30
0.0
  0
VERTEX
  5
212A
  8
L1
 10
-51.143444840383751
 20
-49.803479427581209
 30
0.0
  0
VERTEX
  5
212B
  8
L1
 10
-51.166447787831572
 20
-49.807341175719984
 30
0.0
  0
VERTEX
  5
212C
  8
L1
 10
-51.188174211963108
 20
-49.80932547117979
 30
0.0
  0
VERTEX
  5
212D
  8
L1
 10
-51.209958727319901
 20
-49.80972603091422
 30
0.0
  0
VERTEX
  5
212E
  8
L1
 10
-51.231714830499101
 20
-49.808544307857773
 30
0.0
  0
VERTEX
  5
212F
  8
L1
 10
-51.253356018098003
 20
-49.805781754944938
 30
0.0
  0
VERTEX
  5
2130
  8
L1
 10
-51.276607377776969
 20
-49.800997583255572
 30
0.0
  0
VERTEX
  5
2131
  8
L1
 10
-51.299372520984917
 20
-49.794401186491449
 30
0.0
  0
VERTEX
  5
2132
  8
L1
 10
-51.321545674497571
 20
-49.786027735510828
 30
0.0
  0
VERTEX
  5
2133
  8
L1
 10
-51.343021065091222
 20
-49.775912401171837
 30
0.0
  0
VERTEX
  5
2134
  8
L1
 10
-51.365255281796998
 20
-49.76310576385967
 30
0.0
  0
VERTEX
  5
2135
  8
L1
 10
-51.386265847220578
 20
-49.748481603828367
 30
0.0
  0
SEQEND
  5
2136
  8
L1
  0
LINE
  5
1593
  8
L1
 10
-48.811564652685568
 20
-49.551639716267431
 30
0.0
 11
-49.518828574381388
 21
-48.844375794571498
 31
0.0
  0
LINE
  5
1594
  8
L1
 10
-49.923781471690774
 20
-48.826695169241503
 30
0.0
 11
-51.011692780338791
 21
-49.739561147081673
 31
0.0
  0
POLYLINE
  5
1595
  8
L1
 66
     1
 10
0.0
 20
0.0
 30
0.0
  0
VERTEX
  5
2137
  8
L1
 10
61.560203050484631
 20
-64.999715144036799
 30
0.0
  0
VERTEX
  5
2138
  8
L1
 10
61.725607008272902
 20
-64.993676363898743
 30
0.0
  0
VERTEX
  5
2139
  8
L1
 10
61.89292255926005
 20
-64.979607624391946
 30
0.0
  0
VERTEX
  5
213A
  8
L1
 10
62.061334854681093
 20
-64.95730889066553
 30
0.0
  0
VERTEX
  5
213B
  8
L1
 10
62.230029045771232
 20
-64.926580127868959
 30
0.0
  0
VERTEX
  5
213C
  8
L1
 10
62.398202859994107
 20
-64.8872818835857
 30
0.0
  0
VERTEX
  5
213D
  8
L1
 10
62.565101486965382
 20
-64.839503332309064
 30
0.0
  0
VERTEX
  5
213E
  8
L1
 10
62.729981271145959
 20
-64.783387379553659
 30
0.0
  0
VERTEX
  5
213F
  8
L1
 10
62.892098556997489
 20
-64.719076930833779
 30
0.0
  0
VERTEX
  5
2140
  8
L1
 10
63.050793443014932
 20
-64.646736529245999
 30
0.0
  0
VERTEX
  5
2141
  8
L1
 10
63.205488680285441
 20
-64.566724944746255
 30
0.0
  0
VERTEX
  5
2142
  8
L1
 10
63.355564592157691
 20
-64.479476423138436
 30
0.0
  0
VERTEX
  5
2143
  8
L1
 10
63.500401501980768
 20
-64.385425210226202
 30
0.0
  0
VERTEX
  5
2144
  8
L1
 10
63.63941075437338
 20
-64.285050833458371
 30
0.0
  0
VERTEX
  5
2145
  8
L1
 10
63.772135891893697
 20
-64.179025778373131
 30
0.0
  0
VERTEX
  5
2146
  8
L1
 10
63.898155534799741
 20
-64.068073727908398
 30
0.0
  0
VERTEX
  5
2147
  8
L1
 10
64.017048303348872
 20
-63.952918365002382
 30
0.0
  0
VERTEX
  5
2148
  8
L1
 10
64.129551541994886
 20
-63.833084364057271
 30
0.0
  0
VERTEX
  5
2149
  8
L1
 10
64.23781932570995
 20
-63.706259846189788
 30
0.0
  0
VERTEX
  5
214A
  8
L1
 10
64.341136375487451
 20
-63.572871025228352
 30
0.0
  0
VERTEX
  5
214B
  8
L1
 10
64.438787412320778
 20
-63.43334411500134
 30
0.0
  0
VERTEX
  5
214C
  8
L1
 10
64.530108316265739
 20
-63.288139300247423
 30
0.0
  0
VERTEX
  5
214D
  8
L1
 10
64.614628346835786
 20
-63.137845170575453
 30
0.0
  0
VERTEX
  5
214E
  8
L1
 10
64.691922294209746
 20
-62.983080547119101
 30
0.0
  0
VERTEX
  5
214F
  8
L1
 10
64.761564948566786
 20
-62.824464251012188
 30
0.0
  0
VERTEX
  5
2150
  8
L1
 10
64.823205454876359
 20
-62.662572087863822
 30
0.0
  0
VERTEX
  5
2151
  8
L1
 10
64.876687373437051
 20
-62.498059544443521
 30
0.0
  0
VERTEX
  5
2152
  8
L1
 10
64.921877117421161
 20
-62.331664963625002
 30
0.0
  0
VERTEX
  5
2153
  8
L1
 10
64.958641100000648
 20
-62.16412668828238
 30
0.0
  0
VERTEX
  5
2154
  8
L1
 10
64.986825908935259
 20
-61.996708164626483
 30
0.0
  0
VERTEX
  5
2155
  8
L1
 10
65.006703982571992
 20
-61.829682713096041
 30
0.0
  0
VERTEX
  5
2156
  8
L1
 10
65.018481499782126
 20
-61.663847577088148
 30
0.0
  0
VERTEX
  5
2157
  8
L1
 10
65.02236463943683
 20
-61.499999999999908
 30
0.0
  0
SEQEND
  5
2158
  8
L1
  0
ARC
  5
1596
  8
L1
 10
61.560203050484631
 20
-61.497999999999912
 30
0.0
 40
2.7019999999999542
 50
269.99999999999829
 51
0.0
  0
LINE
  5
1597
  8
L1
 10
57.011830127951441
 20
-51.73001193232605
 30
0.0
 11
61.782191118158551
 21
-56.500372922533217
 31
0.0
  0
ARC
  5
1598
  8
L1
 10
56.762203050484629
 20
-56.749999999999972
 30
0.0
 40
8.8000000000000114
 50
142.71452609940189
 51
180.0
  0
ARC
  5
1599
  8
L1
 10
56.762203050484629
 20
-56.749999999999908
 30
0.0
 40
5.0261806033722758
 50
87.268584429571007
 51
182.73141557042729
  0
ARC
  5
159A
  8
L1
 10
56.762203050484629
 20
-56.749999999999908
 30
0.0
 40
6.3000000000000487
 50
90.0
 51
180.0
  0
LINE
  5
159B
  8
L1
 10
63.222364668203852
 20
-60.599999999999881
 30
0.0
 11
63.222364668203852
 21
-49.531163227339249
 31
0.0
  0
LINE
  5
159C
  8
L1
 10
49.54336627782407
 20
-63.199999999999903
 30
0.0
 11
60.622364668203829
 21
-63.199999999999903
 31
0.0
  0
LINE
  5
159D
  8
L1
 10
56.512575973017931
 20
-61.769988067673779
 30
0.0
 11
51.742214982810701
 21
-56.99962707746667
 31
0.0
  0
POLYLINE
  5
159E
  8
L1
 66
     1
 10
0.0
 20
0.0
 30
0.0
  0
VERTEX
  5
2159
  8
L1
 10
46.462717063021323
 20
-62.199999999999903
 30
0.0
  0
VERTEX
  5
215A
  8
L1
 10
46.643498013359647
 20
-62.18906909359962
 30
0.0
  0
VERTEX
  5
215B
  8
L1
 10
46.821630086621028
 20
-62.156435632759177
 30
0.0
  0
VERTEX
  5
215C
  8
L1
 10
46.994517979096763
 20
-62.10257507223762
 30
0.0
  0
VERTEX
  5
215D
  8
L1
 10
47.159642792418992
 20
-62.028272136031632
 30
0.0
  0
VERTEX
  5
215E
  8
L1
 10
47.314598732770662
 20
-61.934609384302377
 30
0.0
  0
VERTEX
  5
215F
  8
L1
 10
47.457128162212882
 20
-61.822951440963472
 30
0.0
  0
VERTEX
  5
2160
  8
L1
 10
47.585154491448229
 20
-61.694925111728111
 30
0.0
  0
VERTEX
  5
2161
  8
L1
 10
47.696812434787212
 20
-61.552395682285841
 30
0.0
  0
VERTEX
  5
2162
  8
L1
 10
47.790475186516403
 20
-61.397439741934221
 30
0.0
  0
VERTEX
  5
2163
  8
L1
 10
47.864778122722377
 20
-61.232314928611999
 30
0.0
  0
VERTEX
  5
2164
  8
L1
 10
47.918638683244069
 20
-61.05942703613632
 30
0.0
  0
VERTEX
  5
2165
  8
L1
 10
47.951272144084378
 20
-60.881294962874868
 30
0.0
  0
VERTEX
  5
2166
  8
L1
 10
47.962203050484668
 20
-60.700514012536559
 30
0.0
  0
SEQEND
  5
2167
  8
L1
  0
ARC
  5
159F
  8
L1
 10
47.162203050484607
 20
-60.199999999999847
 30
0.0
 40
3.3000000000000149
 50
311.40989698076498
 51
0.0
  0
POLYLINE
  5
15A0
  8
L1
 66
     1
 10
0.0
 20
0.0
 30
0.0
  0
VERTEX
  5
2168
  8
L1
 10
49.344959755683988
 20
-62.674989528443831
 30
0.0
  0
VERTEX
  5
2169
  8
L1
 10
49.325111068424519
 20
-62.694189008892323
 30
0.0
  0
VERTEX
  5
216A
  8
L1
 10
49.30714656787319
 20
-62.715087315775087
 30
0.0
  0
VERTEX
  5
216B
  8
L1
 10
49.291174653229
 20
-62.73754641439163
 30
0.0
  0
VERTEX
  5
216C
  8
L1
 10
49.27730372368984
 20
-62.761428270041542
 30
0.0
  0
VERTEX
  5
216D
  8
L1
 10
49.265368815230602
 20
-62.787267227734588
 30
0.0
  0
VERTEX
  5
216E
  8
L1
 10
49.255954098172708
 20
-62.81406030456705
 30
0.0
  0
VERTEX
  5
216F
  8
L1
 10
49.249114667252968
 20
-62.841623450579469
 30
0.0
  0
VERTEX
  5
2170
  8
L1
 10
49.244905617208303
 20
-62.869772615812309
 30
0.0
  0
VERTEX
  5
2171
  8
L1
 10
49.243378833275237
 20
-62.899137626282908
 30
0.0
  0
VERTEX
  5
2172
  8
L1
 10
49.244727487165221
 20
-62.928441732404927
 30
0.0
  0
VERTEX
  5
2173
  8
L1
 10
49.248931568540172
 20
-62.957474023445201
 30
0.0
  0
VERTEX
  5
2174
  8
L1
 10
49.255971067061807
 20
-62.98602358867052
 30
0.0
  0
VERTEX
  5
2175
  8
L1
 10
49.265883505917657
 20
-63.014018801729172
 30
0.0
  0
VERTEX
  5
2176
  8
L1
 10
49.278481836099843
 20
-63.040833340294711
 30
0.0
  0
VERTEX
  5
2177
  8
L1
 10
49.293663622250101
 20
-63.0662744513821
 30
0.0
  0
VERTEX
  5
2178
  8
L1
 10
49.311326429009974
 20
-63.090149382006388
 30
0.0
  0
VERTEX
  5
2179
  8
L1
 10
49.33075594690348
 20
-63.111652012439009
 30
0.0
  0
VERTEX
  5
217A
  8
L1
 10
49.352118349336529
 20
-63.13113686732683
 30
0.0
  0
VERTEX
  5
217B
  8
L1
 10
49.375257349979222
 20
-63.148474653913439
 30
0.0
  0
VERTEX
  5
217C
  8
L1
 10
49.400016662501741
 20
-63.163536079442757
 30
0.0
  0
VERTEX
  5
217D
  8
L1
 10
49.421492770944667
 20
-63.174129911467361
 30
0.0
  0
VERTEX
  5
217E
  8
L1
 10
49.443709802536723
 20
-63.182964442916578
 30
0.0
  0
VERTEX
  5
217F
  8
L1
 10
49.466559813082597
 20
-63.190001691987419
 30
0.0
  0
VERTEX
  5
2180
  8
L1
 10
49.489934858387358
 20
-63.195203676876837
 30
0.0
  0
VERTEX
  5
2181
  8
L1
 10
49.516557116089018
 20
-63.198799775395941
 30
0.0
  0
VERTEX
  5
2182
  8
L1
 10
49.54336627782407
 20
-63.199999999999903
 30
0.0
  0
SEQEND
  5
2183
  8
L1
  0
ARC
  5
15A1
  8
L1
 10
47.162203050484607
 20
-60.199999999999847
 30
0.0
 40
3.3000000000000149
 50
270.0
 51
311.40989698076498
  0
LINE
  5
15A2
  8
L1
 10
51.742214982810701
 20
-56.99962707746667
 30
0.0
 11
51.741732710488861
 21
-56.989518314411072
 31
0.0
  0
LINE
  5
15A3
  8
L1
 10
50.462203050484682
 20
-60.199999999999903
 30
0.0
 11
50.462203050484682
 21
-59.249999999999908
 31
0.0
  0
LINE
  5
15A4
  8
L1
 10
50.462203050484682
 20
-59.249999999999908
 30
0.0
 11
50.462203050484682
 21
-56.749999999999972
 31
0.0
  0
LINE
  5
15A5
  8
L1
 10
47.962203050484668
 20
-60.700514012536559
 30
0.0
 11
47.962203050484668
 21
-56.749999999999908
 31
0.0
  0
ARC
  5
15A6
  8
L1
 10
60.622364668203829
 20
-60.599999999999881
 30
0.0
 40
2.6000000000000001
 50
270.0
 51
0.0
  0
ARC
  5
15A7
  8
L1
 10
56.762203050484629
 20
-56.749999999999908
 30
0.0
 40
5.0261806033722758
 50
267.26858442957268
 51
2.7314155704273362
  0
LINE
  5
15A8
  8
L1
 10
56.522684736073472
 20
-61.770470339995683
 30
0.0
 11
56.512575973017931
 21
-61.769988067673779
 31
0.0
  0
POLYLINE
  5
15A9
  8
L1
 66
     1
 10
0.0
 20
0.0
 30
0.0
  0
VERTEX
  5
2184
  8
L1
 10
61.515473616065549
 20
-64.999999999999915
 30
0.0
  0
VERTEX
  5
2185
  8
L1
 10
61.537835056059691
 20
-64.999928785284652
 30
0.0
  0
VERTEX
  5
2186
  8
L1
 10
61.560203050484631
 20
-64.999715144036799
 30
0.0
  0
SEQEND
  5
2187
  8
L1
  0
LINE
  5
15AA
  8
L1
 10
61.782191118158551
 20
-56.500372922533153
 30
0.0
 11
61.782673390480511
 21
-56.510481685588701
 31
0.0
  0
ARC
  5
15AB
  8
L1
 10
56.762203050484629
 20
-56.749999999999972
 30
0.0
 40
8.8000000000000114
 50
90.0
 51
127.2854739005973
  0
LINE
  5
15AC
  8
L1
 10
49.751764197566501
 20
-51.044503922224827
 30
0.0
 11
48.838898219726332
 21
-49.95659261357676
 31
0.0
  0
POLYLINE
  5
15AD
  8
L1
 66
     1
 10
0.0
 20
0.0
 30
0.0
  0
VERTEX
  5
2188
  8
L1
 10
49.760684654313252
 20
-51.419076989106507
 30
0.0
  0
VERTEX
  5
2189
  8
L1
 10
49.773630338321311
 20
-51.400681907275128
 30
0.0
  0
VERTEX
  5
218A
  8
L1
 10
49.785185933359848
 20
-51.381322380204693
 30
0.0
  0
VERTEX
  5
218B
  8
L1
 10
49.797621440809678
 20
-51.355785225535527
 30
0.0
  0
VERTEX
  5
218C
  8
L1
 10
49.807565945806971
 20
-51.329246063272898
 30
0.0
  0
VERTEX
  5
218D
  8
L1
 10
49.814961069837118
 20
-51.301886706224508
 30
0.0
  0
VERTEX
  5
218E
  8
L1
 10
49.819748434385751
 20
-51.273888967197848
 30
0.0
  0
VERTEX
  5
218F
  8
L1
 10
49.821890003610122
 20
-51.2446260863791
 30
0.0
  0
VERTEX
  5
2190
  8
L1
 10
49.821167517481001
 20
-51.215362965292201
 30
0.0
  0
VERTEX
  5
2191
  8
L1
 10
49.817596680089018
 20
-51.186309456928228
 30
0.0
  0
VERTEX
  5
2192
  8
L1
 10
49.811193195524709
 20
-51.157675414278032
 30
0.0
  0
VERTEX
  5
2193
  8
L1
 10
49.801889293631511
 20
-51.129454794596789
 30
0.0
  0
VERTEX
  5
2194
  8
L1
 10
49.789872261880362
 20
-51.102356670615357
 30
0.0
  0
VERTEX
  5
2195
  8
L1
 10
49.775240673242877
 20
-51.076576074860178
 30
0.0
  0
VERTEX
  5
2196
  8
L1
 10
49.758093100691042
 20
-51.052308039857706
 30
0.0
  0
VERTEX
  5
2197
  8
L1
 10
49.751764197566501
 20
-51.044503922224827
 30
0.0
  0
SEQEND
  5
2198
  8
L1
  0
POLYLINE
  5
15AE
  8
L1
 66
     1
 10
0.0
 20
0.0
 30
0.0
  0
VERTEX
  5
2199
  8
L1
 10
51.056706972709598
 20
-49.739561147081623
 30
0.0
  0
VERTEX
  5
219A
  8
L1
 10
51.088100780682851
 20
-49.762605782574802
 30
0.0
  0
VERTEX
  5
219B
  8
L1
 10
51.122274084243543
 20
-49.781419816776491
 30
0.0
  0
VERTEX
  5
219C
  8
L1
 10
51.143763620352331
 20
-49.79048911309664
 30
0.0
  0
VERTEX
  5
219D
  8
L1
 10
51.165859091330333
 20
-49.797852195035802
 30
0.0
  0
VERTEX
  5
219E
  8
L1
 10
51.188459032754558
 20
-49.803479427581209
 30
0.0
  0
VERTEX
  5
219F
  8
L1
 10
51.21146198020238
 20
-49.807341175719984
 30
0.0
  0
VERTEX
  5
21A0
  8
L1
 10
51.23318840433393
 20
-49.80932547117979
 30
0.0
  0
VERTEX
  5
21A1
  8
L1
 10
51.254972919690722
 20
-49.80972603091422
 30
0.0
  0
VERTEX
  5
21A2
  8
L1
 10
51.276729022869922
 20
-49.808544307857773
 30
0.0
  0
VERTEX
  5
21A3
  8
L1
 10
51.298370210468811
 20
-49.805781754944938
 30
0.0
  0
VERTEX
  5
21A4
  8
L1
 10
51.321621570147791
 20
-49.800997583255572
 30
0.0
  0
VERTEX
  5
21A5
  8
L1
 10
51.344386713355732
 20
-49.794401186491449
 30
0.0
  0
VERTEX
  5
21A6
  8
L1
 10
51.366559866868393
 20
-49.786027735510828
 30
0.0
  0
VERTEX
  5
21A7
  8
L1
 10
51.388035257462043
 20
-49.775912401171837
 30
0.0
  0
VERTEX
  5
21A8
  8
L1
 10
51.410269474167819
 20
-49.76310576385967
 30
0.0
  0
VERTEX
  5
21A9
  8
L1
 10
51.4312800395914
 20
-49.748481603828367
 30
0.0
  0
SEQEND
  5
21AA
  8
L1
  0
POLYLINE
  5
15AF
  8
L1
 66
     1
 10
0.0
 20
0.0
 30
0.0
  0
VERTEX
  5
21AB
  8
L1
 10
48.85657884505639
 20
-49.551639716267431
 30
0.0
  0
VERTEX
  5
21AC
  8
L1
 10
48.803827584114231
 20
-49.622928273943529
 30
0.0
  0
VERTEX
  5
21AD
  8
L1
 10
48.774224441411597
 20
-49.706523474714658
 30
0.0
  0
VERTEX
  5
21AE
  8
L1
 10
48.77035620845794
 20
-49.795120575372913
 30
0.0
  0
VERTEX
  5
21AF
  8
L1
 10
48.79256090045174
 20
-49.880977755056868
 30
0.0
  0
VERTEX
  5
21B0
  8
L1
 10
48.838898219726332
 20
-49.956592613576703
 30
0.0
  0
SEQEND
  5
21B1
  8
L1
  0
POLYLINE
  5
15B0
  8
L1
 66
     1
 10
0.0
 20
0.0
 30
0.0
  0
VERTEX
  5
21B2
  8
L1
 10
49.968795664061588
 20
-48.826695169241447
 30
0.0
  0
VERTEX
  5
21B3
  8
L1
 10
49.893180805541697
 20
-48.780357849966862
 30
0.0
  0
VERTEX
  5
21B4
  8
L1
 10
49.807323625857798
 20
-48.758153157972941
 30
0.0
  0
VERTEX
  5
21B5
  8
L1
 10
49.718726525199543
 20
-48.762021390926719
 30
0.0
  0
VERTEX
  5
21B6
  8
L1
 10
49.635131324428407
 20
-48.791624533629339
 30
0.0
  0
VERTEX
  5
21B7
  8
L1
 10
49.563842766752309
 20
-48.844375794571498
 30
0.0
  0
SEQEND
  5
21B8
  8
L1
  0
LINE
  5
15B1
  8
L1
 10
49.968795664061588
 20
-48.826695169241503
 30
0.0
 11
51.056706972709598
 21
-49.739561147081673
 31
0.0
  0
LINE
  5
15B2
  8
L1
 10
48.85657884505639
 20
-49.551639716267431
 30
0.0
 11
49.563842766752202
 21
-48.844375794571498
 31
0.0
  0
ARC
  5
15B3
  8
L1
 10
60.222364668203852
 20
-47.149999999999949
 30
0.0
 40
3.2999999999999439
 50
270.0
 51
318.59010301923558
  0
LINE
  5
15B4
  8
L1
 10
56.762203050484629
 20
-50.44999999999991
 30
0.0
 11
59.262203050484629
 21
-50.44999999999991
 31
0.0
  0
LINE
  5
15B5
  8
L1
 10
57.0017213648959
 20
-51.729529660004147
 30
0.0
 11
57.011830127951441
 21
-51.73001193232605
 31
0.0
  0
LINE
  5
15B6
  8
L1
 10
59.262203050484629
 20
-50.44999999999991
 30
0.0
 11
60.222364668203852
 21
-50.44999999999991
 31
0.0
  0
LINE
  5
15B7
  8
L1
 10
56.762203050484629
 20
-47.94999999999996
 30
0.0
 11
60.722878680740394
 21
-47.94999999999996
 31
0.0
  0
POLYLINE
  5
15B8
  8
L1
 66
     1
 10
0.0
 20
0.0
 30
0.0
  0
VERTEX
  5
21B9
  8
L1
 10
63.222364668203852
 20
-49.531163227339299
 30
0.0
  0
VERTEX
  5
21BA
  8
L1
 10
63.222293046007337
 20
-49.524608024967129
 30
0.0
  0
VERTEX
  5
21BB
  8
L1
 10
63.22017026761165
 20
-49.494943700917219
 30
0.0
  0
VERTEX
  5
21BC
  8
L1
 10
63.215136576646437
 20
-49.465705594967773
 30
0.0
  0
VERTEX
  5
21BD
  8
L1
 10
63.207239732518083
 20
-49.437107633780528
 30
0.0
  0
VERTEX
  5
21BE
  8
L1
 10
63.196527494631539
 20
-49.409363744017668
 30
0.0
  0
VERTEX
  5
21BF
  8
L1
 10
63.183149398560829
 20
-49.38286737808906
 30
0.0
  0
VERTEX
  5
21C0
  8
L1
 10
63.167259642987403
 20
-49.357881288412017
 30
0.0
  0
VERTEX
  5
21C1
  8
L1
 10
63.148984079313941
 20
-49.334583388280997
 30
0.0
  0
VERTEX
  5
21C2
  8
L1
 10
63.128448558943717
 20
-49.313151590990707
 30
0.0
  0
VERTEX
  5
21C3
  8
L1
 10
63.108294435878122
 20
-49.29572899690649
 30
0.0
  0
VERTEX
  5
21C4
  8
L1
 10
63.086717454655108
 20
-49.280191700037868
 30
0.0
  0
VERTEX
  5
21C5
  8
L1
 10
63.063849444432371
 20
-49.266626005987263
 30
0.0
  0
VERTEX
  5
21C6
  8
L1
 10
63.039822234366902
 20
-49.255118220357389
 30
0.0
  0
VERTEX
  5
21C7
  8
L1
 10
63.018339652797472
 20
-49.246935856045717
 30
0.0
  0
VERTEX
  5
21C8
  8
L1
 10
62.996326012039447
 20
-49.240430781374442
 30
0.0
  0
VERTEX
  5
21C9
  8
L1
 10
62.973879425546841
 20
-49.235627922194197
 30
0.0
  0
VERTEX
  5
21CA
  8
L1
 10
62.951098006772952
 20
-49.232552204355812
 30
0.0
  0
VERTEX
  5
21CB
  8
L1
 10
62.929739086784991
 20
-49.231264746138983
 30
0.0
  0
VERTEX
  5
21CC
  8
L1
 10
62.908369699757422
 20
-49.231501741233821
 30
0.0
  0
VERTEX
  5
21CD
  8
L1
 10
62.887071390902008
 20
-49.233259350328098
 30
0.0
  0
VERTEX
  5
21CE
  8
L1
 10
62.865925705430811
 20
-49.236533734109649
 30
0.0
  0
VERTEX
  5
21CF
  8
L1
 10
62.842469937266678
 20
-49.242012144038512
 30
0.0
  0
VERTEX
  5
21D0
  8
L1
 10
62.819565320924482
 20
-49.249341305652791
 30
0.0
  0
VERTEX
  5
21D1
  8
L1
 10
62.797321237241647
 20
-49.258481285121519
 30
0.0
  0
VERTEX
  5
21D2
  8
L1
 10
62.775847067055622
 20
-49.269392148613768
 30
0.0
  0
VERTEX
  5
21D3
  8
L1
 10
62.754244894658591
 20
-49.282712677022317
 30
0.0
  0
VERTEX
  5
21D4
  8
L1
 10
62.733893244892151
 20
-49.297772735277562
 30
0.0
  0
VERTEX
  5
21D5
  8
L1
 10
62.714895288605639
 20
-49.314483639347287
 30
0.0
  0
VERTEX
  5
21D6
  8
L1
 10
62.697354196647829
 20
-49.332756705199223
 30
0.0
  0
SEQEND
  5
21D7
  8
L1
  0
POLYLINE
  5
15B9
  8
L1
 66
     1
 10
0.0
 20
0.0
 30
0.0
  0
VERTEX
  5
21D8
  8
L1
 10
60.722878680740394
 20
-47.949999999999903
 30
0.0
  0
VERTEX
  5
21D9
  8
L1
 10
60.90365963107871
 20
-47.93906909359967
 30
0.0
  0
VERTEX
  5
21DA
  8
L1
 10
61.081791704340219
 20
-47.906435632759226
 30
0.0
  0
VERTEX
  5
21DB
  8
L1
 10
61.254679596815947
 20
-47.852575072237613
 30
0.0
  0
VERTEX
  5
21DC
  8
L1
 10
61.419804410138063
 20
-47.778272136031617
 30
0.0
  0
VERTEX
  5
21DD
  8
L1
 10
61.574760350489719
 20
-47.684609384302433
 30
0.0
  0
VERTEX
  5
21DE
  8
L1
 10
61.717289779931939
 20
-47.572951440963458
 30
0.0
  0
VERTEX
  5
21DF
  8
L1
 10
61.845316109167413
 20
-47.444925111728097
 30
0.0
  0
VERTEX
  5
21E0
  8
L1
 10
61.956974052506162
 20
-47.302395682285891
 30
0.0
  0
VERTEX
  5
21E1
  8
L1
 10
62.05063680423558
 20
-47.147439741934221
 30
0.0
  0
VERTEX
  5
21E2
  8
L1
 10
62.124939740441448
 20
-46.982314928612048
 30
0.0
  0
VERTEX
  5
21E3
  8
L1
 10
62.178800300963019
 20
-46.809427036136377
 30
0.0
  0
VERTEX
  5
21E4
  8
L1
 10
62.211433761803562
 20
-46.631294962874883
 30
0.0
  0
VERTEX
  5
21E5
  8
L1
 10
62.222364668203852
 20
-46.450514012536608
 30
0.0
  0
SEQEND
  5
21E6
  8
L1
  0
ARC
  5
15BA
  8
L1
 10
60.222364668203852
 20
-47.149999999999949
 30
0.0
 40
3.2999999999999439
 50
318.59010301923558
 51
0.0
  0
POLYLINE
  5
15BB
  8
L1
 66
     1
 10
0.0
 20
0.0
 30
0.0
  0
VERTEX
  5
21E7
  8
L1
 10
65.02236463943683
 20
-61.499999999999908
 30
0.0
  0
VERTEX
  5
21E8
  8
L1
 10
65.022364668203807
 20
-61.497999999999912
 30
0.0
  0
SEQEND
  5
21E9
  8
L1
  0
LINE
  5
15BC
  8
L1
 10
-46.417702870650508
 20
62.19999999999996
 30
0.0
 11
46.462717063021323
 21
62.199999999999903
 31
0.0
  0
LINE
  5
15BD
  8
L1
 10
-47.117188858113792
 20
63.499999999999908
 30
0.0
 11
47.162203050484607
 21
63.499999999999972
 31
0.0
  0
LINE
  5
15BE
  8
L6
 10
-73.946072485782665
 20
0.0
 30
0.0
 11
70.693513934979791
 21
0.0
 31
0.0
  0
LINE
  5
15BF
  8
L1
 10
61.560203050484631
 20
64.19999999999996
 30
0.0
 11
-61.51518885811376
 21
64.199999999999903
 31
0.0
  0
LINE
  5
15C0
  8
L1
 10
-61.51518885811381
 20
64.999715144036855
 30
0.0
 11
61.515473616065549
 21
64.999999999999972
 31
0.0
  0
POLYLINE
  5
15C1
  8
L1
 66
     1
 10
0.0
 20
0.0
 30
0.0
  0
VERTEX
  5
21EA
  8
L1
 10
-46.417702870650508
 20
62.19999999999996
 30
0.0
  0
VERTEX
  5
21EB
  8
L1
 10
-46.598483820988832
 20
62.18906909359967
 30
0.0
  0
VERTEX
  5
21EC
  8
L1
 10
-46.776615894250227
 20
62.156435632759241
 30
0.0
  0
VERTEX
  5
21ED
  8
L1
 10
-46.949503786725948
 20
62.10257507223767
 30
0.0
  0
VERTEX
  5
21EE
  8
L1
 10
-47.114628600048171
 20
62.028272136031688
 30
0.0
  0
VERTEX
  5
21EF
  8
L1
 10
-47.26958454039984
 20
61.934609384302433
 30
0.0
  0
VERTEX
  5
21F0
  8
L1
 10
-47.412113969842068
 20
61.822951440963521
 30
0.0
  0
VERTEX
  5
21F1
  8
L1
 10
-47.540140299077422
 20
61.694925111728161
 30
0.0
  0
VERTEX
  5
21F2
  8
L1
 10
-47.65179824241639
 20
61.552395682285891
 30
0.0
  0
VERTEX
  5
21F3
  8
L1
 10
-47.745460994145589
 20
61.397439741934278
 30
0.0
  0
VERTEX
  5
21F4
  8
L1
 10
-47.81976393035157
 20
61.232314928612048
 30
0.0
  0
VERTEX
  5
21F5
  8
L1
 10
-47.873624490873247
 20
61.059427036136391
 30
0.0
  0
VERTEX
  5
21F6
  8
L1
 10
-47.90625795171357
 20
60.881294962874932
 30
0.0
  0
VERTEX
  5
21F7
  8
L1
 10
-47.91718885811386
 20
60.700514012536608
 30
0.0
  0
SEQEND
  5
21F8
  8
L1
  0
ARC
  5
15C2
  8
L1
 10
-47.117188858113792
 20
60.199999999999903
 30
0.0
 40
3.3000000000000149
 50
90.0
 51
131.40989698076501
  0
ARC
  5
15C3
  8
L1
 10
-56.717188858113808
 20
56.750000000000028
 30
0.0
 40
8.8000000000000114
 50
322.71452609940189
 51
0.0
  0
ARC
  5
15C4
  8
L1
 10
-56.717188858113808
 20
56.749999999999972
 30
0.0
 40
5.0261806033722758
 50
267.26858442957098
 51
2.7314155704273362
  0
LINE
  5
15C5
  8
L1
 10
-63.177350475833038
 20
60.599999999999937
 30
0.0
 11
-63.177350475833038
 21
49.531163227339299
 31
0.0
  0
LINE
  5
15C6
  8
L1
 10
-56.966815935580627
 20
51.730011932326107
 30
0.0
 11
-61.737176925787729
 21
56.500372922533273
 31
0.0
  0
ARC
  5
15C7
  8
L1
 10
-56.717188858113808
 20
56.749999999999972
 30
0.0
 40
6.3000000000000487
 50
270.0
 51
0.0
  0
LINE
  5
15C8
  8
L1
 10
-56.717188858113808
 20
50.44999999999996
 30
0.0
 11
-59.217188858113808
 21
50.44999999999996
 31
0.0
  0
LINE
  5
15C9
  8
L1
 10
-56.717188858113808
 20
47.95000000000001
 30
0.0
 11
-60.677864488369579
 21
47.95000000000001
 31
0.0
  0
ARC
  5
15CA
  8
L1
 10
-60.177350475833038
 20
47.149999999999999
 30
0.0
 40
3.2999999999999439
 50
138.5901030192355
 51
180.0
  0
POLYLINE
  5
15CB
  8
L1
 66
     1
 10
0.0
 20
0.0
 30
0.0
  0
VERTEX
  5
21F9
  8
L1
 10
-60.677864488369579
 20
47.94999999999996
 30
0.0
  0
VERTEX
  5
21FA
  8
L1
 10
-60.858645438707903
 20
47.93906909359972
 30
0.0
  0
VERTEX
  5
21FB
  8
L1
 10
-61.036777511969397
 20
47.906435632759298
 30
0.0
  0
VERTEX
  5
21FC
  8
L1
 10
-61.209665404445133
 20
47.85257507223767
 30
0.0
  0
VERTEX
  5
21FD
  8
L1
 10
-61.374790217767242
 20
47.778272136031688
 30
0.0
  0
VERTEX
  5
21FE
  8
L1
 10
-61.529746158118911
 20
47.68460938430249
 30
0.0
  0
VERTEX
  5
21FF
  8
L1
 10
-61.672275587561131
 20
47.572951440963521
 30
0.0
  0
VERTEX
  5
2200
  8
L1
 10
-61.800301916796599
 20
47.444925111728168
 30
0.0
  0
VERTEX
  5
2201
  8
L1
 10
-61.91195986013534
 20
47.30239568228594
 30
0.0
  0
VERTEX
  5
2202
  8
L1
 10
-62.005622611864759
 20
47.147439741934271
 30
0.0
  0
VERTEX
  5
2203
  8
L1
 10
-62.079925548070626
 20
46.982314928612112
 30
0.0
  0
VERTEX
  5
2204
  8
L1
 10
-62.133786108592197
 20
46.809427036136441
 30
0.0
  0
VERTEX
  5
2205
  8
L1
 10
-62.16641956943274
 20
46.631294962874932
 30
0.0
  0
VERTEX
  5
2206
  8
L1
 10
-62.17735047583303
 20
46.450514012536672
 30
0.0
  0
SEQEND
  5
2207
  8
L1
  0
POLYLINE
  5
15CC
  8
L1
 66
     1
 10
0.0
 20
0.0
 30
0.0
  0
VERTEX
  5
2208
  8
L1
 10
-63.177350475833038
 20
49.531163227339363
 30
0.0
  0
VERTEX
  5
2209
  8
L1
 10
-63.177278853636523
 20
49.5246080249672
 30
0.0
  0
VERTEX
  5
220A
  8
L1
 10
-63.175156075240828
 20
49.494943700917268
 30
0.0
  0
VERTEX
  5
220B
  8
L1
 10
-63.170122384275629
 20
49.465705594967829
 30
0.0
  0
VERTEX
  5
220C
  8
L1
 10
-63.162225540147261
 20
49.437107633780577
 30
0.0
  0
VERTEX
  5
220D
  8
L1
 10
-63.151513302260717
 20
49.409363744017718
 30
0.0
  0
VERTEX
  5
220E
  8
L1
 10
-63.138135206190007
 20
49.382867378089117
 30
0.0
  0
VERTEX
  5
220F
  8
L1
 10
-63.122245450616589
 20
49.357881288412067
 30
0.0
  0
VERTEX
  5
2210
  8
L1
 10
-63.103969886943133
 20
49.334583388281061
 30
0.0
  0
VERTEX
  5
2211
  8
L1
 10
-63.083434366572902
 20
49.313151590990771
 30
0.0
  0
VERTEX
  5
2212
  8
L1
 10
-63.0632802435073
 20
49.29572899690654
 30
0.0
  0
VERTEX
  5
2213
  8
L1
 10
-63.041703262284301
 20
49.280191700037932
 30
0.0
  0
VERTEX
  5
2214
  8
L1
 10
-63.018835252061557
 20
49.266626005987312
 30
0.0
  0
VERTEX
  5
2215
  8
L1
 10
-62.994808041996087
 20
49.255118220357438
 30
0.0
  0
VERTEX
  5
2216
  8
L1
 10
-62.973325460426651
 20
49.246935856045781
 30
0.0
  0
VERTEX
  5
2217
  8
L1
 10
-62.951311819668632
 20
49.240430781374499
 30
0.0
  0
VERTEX
  5
2218
  8
L1
 10
-62.928865233176019
 20
49.235627922194247
 30
0.0
  0
VERTEX
  5
2219
  8
L1
 10
-62.906083814402137
 20
49.232552204355869
 30
0.0
  0
VERTEX
  5
221A
  8
L1
 10
-62.88472489441417
 20
49.231264746139033
 30
0.0
  0
VERTEX
  5
221B
  8
L1
 10
-62.863355507386622
 20
49.23150174123387
 30
0.0
  0
VERTEX
  5
221C
  8
L1
 10
-62.842057198531187
 20
49.233259350328147
 30
0.0
  0
VERTEX
  5
221D
  8
L1
 10
-62.820911513059997
 20
49.236533734109713
 30
0.0
  0
VERTEX
  5
221E
  8
L1
 10
-62.797455744895871
 20
49.242012144038569
 30
0.0
  0
VERTEX
  5
221F
  8
L1
 10
-62.774551128553668
 20
49.249341305652848
 30
0.0
  0
VERTEX
  5
2220
  8
L1
 10
-62.752307044870832
 20
49.258481285121569
 30
0.0
  0
VERTEX
  5
2221
  8
L1
 10
-62.730832874684801
 20
49.269392148613832
 30
0.0
  0
VERTEX
  5
2222
  8
L1
 10
-62.70923070228779
 20
49.282712677022367
 30
0.0
  0
VERTEX
  5
2223
  8
L1
 10
-62.688879052521337
 20
49.297772735277611
 30
0.0
  0
VERTEX
  5
2224
  8
L1
 10
-62.669881096234832
 20
49.314483639347337
 30
0.0
  0
VERTEX
  5
2225
  8
L1
 10
-62.652340004277022
 20
49.332756705199273
 30
0.0
  0
SEQEND
  5
2226
  8
L1
  0
LINE
  5
15CD
  8
L1
 10
-59.217188858113808
 20
50.44999999999996
 30
0.0
 11
-60.177350475833038
 21
50.44999999999996
 31
0.0
  0
ARC
  5
15CE
  8
L1
 10
-60.177350475833038
 20
47.149999999999999
 30
0.0
 40
3.2999999999999439
 50
90.0
 51
138.5901030192355
  0
LINE
  5
15CF
  8
L1
 10
-48.811564652685568
 20
49.551639716267488
 30
0.0
 11
-49.518828574381388
 21
48.844375794571562
 31
0.0
  0
ARC
  5
15D0
  8
L1
 10
-56.717188858113808
 20
56.750000000000028
 30
0.0
 40
8.8000000000000114
 50
270.0
 51
307.28547390059731
  0
LINE
  5
15D1
  8
L1
 10
-49.923781471690774
 20
48.82669516924156
 30
0.0
 11
-51.011692780338791
 21
49.73956114708173
 31
0.0
  0
POLYLINE
  5
15D2
  8
L1
 66
     1
 10
0.0
 20
0.0
 30
0.0
  0
VERTEX
  5
2227
  8
L1
 10
-49.923781471690774
 20
48.826695169241503
 30
0.0
  0
VERTEX
  5
2228
  8
L1
 10
-49.848166613170889
 20
48.780357849966919
 30
0.0
  0
VERTEX
  5
2229
  8
L1
 10
-49.76230943348699
 20
48.758153157972998
 30
0.0
  0
VERTEX
  5
222A
  8
L1
 10
-49.673712332828721
 20
48.762021390926769
 30
0.0
  0
VERTEX
  5
222B
  8
L1
 10
-49.5901171320576
 20
48.791624533629403
 30
0.0
  0
VERTEX
  5
222C
  8
L1
 10
-49.518828574381502
 20
48.844375794571562
 30
0.0
  0
SEQEND
  5
222D
  8
L1
  0
LINE
  5
15D3
  8
L1
 10
-56.956707172525078
 20
51.729529660004197
 30
0.0
 11
-56.966815935580627
 21
51.730011932326107
 31
0.0
  0
POLYLINE
  5
15D4
  8
L1
 66
     1
 10
0.0
 20
0.0
 30
0.0
  0
VERTEX
  5
222E
  8
L1
 10
-49.715670461942437
 20
51.419076989106571
 30
0.0
  0
VERTEX
  5
222F
  8
L1
 10
-49.728616145950497
 20
51.400681907275178
 30
0.0
  0
VERTEX
  5
2230
  8
L1
 10
-49.740171740989041
 20
51.38132238020475
 30
0.0
  0
VERTEX
  5
2231
  8
L1
 10
-49.752607248438864
 20
51.355785225535577
 30
0.0
  0
VERTEX
  5
2232
  8
L1
 10
-49.762551753436163
 20
51.329246063272961
 30
0.0
  0
VERTEX
  5
2233
  8
L1
 10
-49.76994687746631
 20
51.301886706224558
 30
0.0
  0
VERTEX
  5
2234
  8
L1
 10
-49.774734242014951
 20
51.273888967197898
 30
0.0
  0
VERTEX
  5
2235
  8
L1
 10
-49.7768758112393
 20
51.244626086379157
 30
0.0
  0
VERTEX
  5
2236
  8
L1
 10
-49.77615332511018
 20
51.21536296529225
 30
0.0
  0
VERTEX
  5
2237
  8
L1
 10
-49.772582487718211
 20
51.186309456928278
 30
0.0
  0
VERTEX
  5
2238
  8
L1
 10
-49.766179003153887
 20
51.157675414278089
 30
0.0
  0
VERTEX
  5
2239
  8
L1
 10
-49.756875101260697
 20
51.12945479459686
 30
0.0
  0
VERTEX
  5
223A
  8
L1
 10
-49.744858069509547
 20
51.102356670615421
 30
0.0
  0
VERTEX
  5
223B
  8
L1
 10
-49.730226480872062
 20
51.076576074860242
 30
0.0
  0
VERTEX
  5
223C
  8
L1
 10
-49.71307890832022
 20
51.052308039857763
 30
0.0
  0
VERTEX
  5
223D
  8
L1
 10
-49.706750005195687
 20
51.044503922224891
 30
0.0
  0
SEQEND
  5
223E
  8
L1
  0
POLYLINE
  5
15D5
  8
L1
 66
     1
 10
0.0
 20
0.0
 30
0.0
  0
VERTEX
  5
223F
  8
L1
 10
-48.811564652685568
 20
49.551639716267488
 30
0.0
  0
VERTEX
  5
2240
  8
L1
 10
-48.758813391743409
 20
49.622928273943579
 30
0.0
  0
VERTEX
  5
2241
  8
L1
 10
-48.72921024904079
 20
49.706523474714707
 30
0.0
  0
VERTEX
  5
2242
  8
L1
 10
-48.725342016087119
 20
49.795120575372977
 30
0.0
  0
VERTEX
  5
2243
  8
L1
 10
-48.747546708080932
 20
49.880977755056932
 30
0.0
  0
VERTEX
  5
2244
  8
L1
 10
-48.793884027355517
 20
49.95659261357676
 30
0.0
  0
SEQEND
  5
2245
  8
L1
  0
POLYLINE
  5
15D6
  8
L1
 66
     1
 10
0.0
 20
0.0
 30
0.0
  0
VERTEX
  5
2246
  8
L1
 10
-51.011692780338791
 20
49.739561147081673
 30
0.0
  0
VERTEX
  5
2247
  8
L1
 10
-51.043086588312043
 20
49.762605782574873
 30
0.0
  0
VERTEX
  5
2248
  8
L1
 10
-51.077259891872721
 20
49.781419816776548
 30
0.0
  0
VERTEX
  5
2249
  8
L1
 10
-51.098749427981517
 20
49.790489113096697
 30
0.0
  0
VERTEX
  5
224A
  8
L1
 10
-51.120844898959518
 20
49.797852195035858
 30
0.0
  0
VERTEX
  5
224B
  8
L1
 10
-51.143444840383751
 20
49.803479427581259
 30
0.0
  0
VERTEX
  5
224C
  8
L1
 10
-51.166447787831572
 20
49.80734117572004
 30
0.0
  0
VERTEX
  5
224D
  8
L1
 10
-51.188174211963108
 20
49.809325471179839
 30
0.0
  0
VERTEX
  5
224E
  8
L1
 10
-51.209958727319901
 20
49.80972603091427
 30
0.0
  0
VERTEX
  5
224F
  8
L1
 10
-51.231714830499101
 20
49.808544307857822
 30
0.0
  0
VERTEX
  5
2250
  8
L1
 10
-51.253356018098003
 20
49.805781754945002
 30
0.0
  0
VERTEX
  5
2251
  8
L1
 10
-51.276607377776969
 20
49.800997583255622
 30
0.0
  0
VERTEX
  5
2252
  8
L1
 10
-51.299372520984917
 20
49.794401186491513
 30
0.0
  0
VERTEX
  5
2253
  8
L1
 10
-51.321545674497571
 20
49.786027735510878
 30
0.0
  0
VERTEX
  5
2254
  8
L1
 10
-51.343021065091222
 20
49.775912401171887
 30
0.0
  0
VERTEX
  5
2255
  8
L1
 10
-51.365255281796998
 20
49.763105763859727
 30
0.0
  0
VERTEX
  5
2256
  8
L1
 10
-51.386265847220578
 20
49.748481603828417
 30
0.0
  0
SEQEND
  5
2257
  8
L1
  0
LINE
  5
15D7
  8
L1
 10
-49.706750005195687
 20
51.044503922224891
 30
0.0
 11
-48.793884027355517
 21
49.956592613576817
 31
0.0
  0
ARC
  5
15D8
  8
L1
 10
-56.717188858113808
 20
56.749999999999972
 30
0.0
 40
5.0261806033722758
 50
87.268584429572698
 51
182.73141557042729
  0
LINE
  5
15D9
  8
L1
 10
-49.498352085453263
 20
63.19999999999996
 30
0.0
 11
-60.577350475833008
 21
63.19999999999996
 31
0.0
  0
LINE
  5
15DA
  8
L1
 10
-61.737176925787729
 20
56.500372922533217
 30
0.0
 11
-61.737659198109696
 21
56.510481685588758
 31
0.0
  0
POLYLINE
  5
15DB
  8
L1
 66
     1
 10
0.0
 20
0.0
 30
0.0
  0
VERTEX
  5
2258
  8
L1
 10
-61.51518885811381
 20
64.999715144036855
 30
0.0
  0
VERTEX
  5
2259
  8
L1
 10
-61.680592815902088
 20
64.9936763638988
 30
0.0
  0
VERTEX
  5
225A
  8
L1
 10
-61.847908366889243
 20
64.979607624392003
 30
0.0
  0
VERTEX
  5
225B
  8
L1
 10
-62.016320662310271
 20
64.957308890665587
 30
0.0
  0
VERTEX
  5
225C
  8
L1
 10
-62.185014853400411
 20
64.926580127869016
 30
0.0
  0
VERTEX
  5
225D
  8
L1
 10
-62.3531886676233
 20
64.887281883585743
 30
0.0
  0
VERTEX
  5
225E
  8
L1
 10
-62.52008729459456
 20
64.839503332309135
 30
0.0
  0
VERTEX
  5
225F
  8
L1
 10
-62.684967078775138
 20
64.783387379553716
 30
0.0
  0
VERTEX
  5
2260
  8
L1
 10
-62.847084364626681
 20
64.719076930833836
 30
0.0
  0
VERTEX
  5
2261
  8
L1
 10
-63.00577925064411
 20
64.646736529246056
 30
0.0
  0
VERTEX
  5
2262
  8
L1
 10
-63.16047448791462
 20
64.566724944746312
 30
0.0
  0
VERTEX
  5
2263
  8
L1
 10
-63.310550399786877
 20
64.479476423138493
 30
0.0
  0
VERTEX
  5
2264
  8
L1
 10
-63.455387309609961
 20
64.385425210226245
 30
0.0
  0
VERTEX
  5
2265
  8
L1
 10
-63.594396562002572
 20
64.285050833458428
 30
0.0
  0
VERTEX
  5
2266
  8
L1
 10
-63.727121699522883
 20
64.179025778373187
 30
0.0
  0
VERTEX
  5
2267
  8
L1
 10
-63.853141342428927
 20
64.068073727908455
 30
0.0
  0
VERTEX
  5
2268
  8
L1
 10
-63.972034110978051
 20
63.952918365002432
 30
0.0
  0
VERTEX
  5
2269
  8
L1
 10
-64.084537349624071
 20
63.833084364057328
 30
0.0
  0
VERTEX
  5
226A
  8
L1
 10
-64.192805133339135
 20
63.706259846189852
 30
0.0
  0
VERTEX
  5
226B
  8
L1
 10
-64.296122183116637
 20
63.572871025228409
 30
0.0
  0
VERTEX
  5
226C
  8
L1
 10
-64.393773219949964
 20
63.433344115001411
 30
0.0
  0
VERTEX
  5
226D
  8
L1
 10
-64.485094123894925
 20
63.288139300247479
 30
0.0
  0
VERTEX
  5
226E
  8
L1
 10
-64.569614154464972
 20
63.137845170575503
 30
0.0
  0
VERTEX
  5
226F
  8
L1
 10
-64.646908101838932
 20
62.983080547119158
 30
0.0
  0
VERTEX
  5
2270
  8
L1
 10
-64.716550756195971
 20
62.824464251012238
 30
0.0
  0
VERTEX
  5
2271
  8
L1
 10
-64.778191262505544
 20
62.662572087863879
 30
0.0
  0
VERTEX
  5
2272
  8
L1
 10
-64.831673181066236
 20
62.498059544443578
 30
0.0
  0
VERTEX
  5
2273
  8
L1
 10
-64.876862925050347
 20
62.331664963625059
 30
0.0
  0
VERTEX
  5
2274
  8
L1
 10
-64.913626907629833
 20
62.164126688282437
 30
0.0
  0
VERTEX
  5
2275
  8
L1
 10
-64.941811716564445
 20
61.99670816462654
 30
0.0
  0
VERTEX
  5
2276
  8
L1
 10
-64.961689790201177
 20
61.829682713096112
 30
0.0
  0
VERTEX
  5
2277
  8
L1
 10
-64.973467307411312
 20
61.663847577088198
 30
0.0
  0
VERTEX
  5
2278
  8
L1
 10
-64.977350447066016
 20
61.499999999999972
 30
0.0
  0
SEQEND
  5
2279
  8
L1
  0
ARC
  5
15DC
  8
L1
 10
-61.51518885811381
 20
61.497999999999962
 30
0.0
 40
2.7019999999999542
 50
89.999999999998366
 51
180.0
  0
POLYLINE
  5
15DD
  8
L1
 66
     1
 10
0.0
 20
0.0
 30
0.0
  0
VERTEX
  5
227A
  8
L1
 10
-64.977350447066016
 20
61.499999999999972
 30
0.0
  0
VERTEX
  5
227B
  8
L1
 10
-64.977350475832992
 20
61.497999999999962
 30
0.0
  0
SEQEND
  5
227C
  8
L1
  0
POLYLINE
  5
15DE
  8
L1
 66
     1
 10
0.0
 20
0.0
 30
0.0
  0
VERTEX
  5
227D
  8
L1
 10
-61.470459423694727
 20
64.999999999999972
 30
0.0
  0
VERTEX
  5
227E
  8
L1
 10
-61.492820863688877
 20
64.999928785284709
 30
0.0
  0
VERTEX
  5
227F
  8
L1
 10
-61.51518885811381
 20
64.999715144036855
 30
0.0
  0
SEQEND
  5
2280
  8
L1
  0
ARC
  5
15DF
  8
L1
 10
-60.577350475833008
 20
60.599999999999937
 30
0.0
 40
2.6000000000000001
 50
90.0
 51
180.0
  0
LINE
  5
15E0
  8
L1
 10
-47.91718885811386
 20
60.700514012536608
 30
0.0
 11
-47.91718885811386
 21
56.749999999999972
 31
0.0
  0
LINE
  5
15E1
  8
L1
 10
-50.41718885811386
 20
60.19999999999996
 30
0.0
 11
-50.41718885811386
 21
59.249999999999972
 31
0.0
  0
LINE
  5
15E2
  8
L1
 10
-56.467561780647117
 20
61.769988067673829
 30
0.0
 11
-51.697200790439886
 21
56.999627077466727
 31
0.0
  0
LINE
  5
15E3
  8
L1
 10
-50.41718885811386
 20
59.249999999999972
 30
0.0
 11
-50.41718885811386
 21
56.750000000000028
 31
0.0
  0
LINE
  5
15E4
  8
L1
 10
-51.697200790439886
 20
56.999627077466727
 30
0.0
 11
-51.696718518118047
 21
56.989518314411129
 31
0.0
  0
LINE
  5
15E5
  8
L1
 10
-56.477670543702658
 20
61.77047033999574
 30
0.0
 11
-56.467561780647117
 21
61.769988067673829
 31
0.0
  0
POLYLINE
  5
15E6
  8
L1
 66
     1
 10
0.0
 20
0.0
 30
0.0
  0
VERTEX
  5
2281
  8
L1
 10
-49.299945563313173
 20
62.674989528443881
 30
0.0
  0
VERTEX
  5
2282
  8
L1
 10
-49.280096876053712
 20
62.69418900889238
 30
0.0
  0
VERTEX
  5
2283
  8
L1
 10
-49.262132375502368
 20
62.715087315775151
 30
0.0
  0
VERTEX
  5
2284
  8
L1
 10
-49.246160460858192
 20
62.73754641439168
 30
0.0
  0
VERTEX
  5
2285
  8
L1
 10
-49.232289531319033
 20
62.761428270041591
 30
0.0
  0
VERTEX
  5
2286
  8
L1
 10
-49.220354622859787
 20
62.787267227734638
 30
0.0
  0
VERTEX
  5
2287
  8
L1
 10
-49.210939905801887
 20
62.814060304567107
 30
0.0
  0
VERTEX
  5
2288
  8
L1
 10
-49.204100474882154
 20
62.84162345057954
 30
0.0
  0
VERTEX
  5
2289
  8
L1
 10
-49.199891424837489
 20
62.869772615812359
 30
0.0
  0
VERTEX
  5
228A
  8
L1
 10
-49.19836464090443
 20
62.899137626282958
 30
0.0
  0
VERTEX
  5
228B
  8
L1
 10
-49.199713294794407
 20
62.928441732404991
 30
0.0
  0
VERTEX
  5
228C
  8
L1
 10
-49.20391737616935
 20
62.957474023445258
 30
0.0
  0
VERTEX
  5
228D
  8
L1
 10
-49.210956874690993
 20
62.986023588670569
 30
0.0
  0
VERTEX
  5
228E
  8
L1
 10
-49.220869313546842
 20
63.014018801729243
 30
0.0
  0
VERTEX
  5
228F
  8
L1
 10
-49.233467643729028
 20
63.040833340294768
 30
0.0
  0
VERTEX
  5
2290
  8
L1
 10
-49.248649429879293
 20
63.066274451382149
 30
0.0
  0
VERTEX
  5
2291
  8
L1
 10
-49.266312236639152
 20
63.090149382006437
 30
0.0
  0
VERTEX
  5
2292
  8
L1
 10
-49.285741754532673
 20
63.111652012439059
 30
0.0
  0
VERTEX
  5
2293
  8
L1
 10
-49.307104156965721
 20
63.13113686732688
 30
0.0
  0
VERTEX
  5
2294
  8
L1
 10
-49.330243157608408
 20
63.148474653913489
 30
0.0
  0
VERTEX
  5
2295
  8
L1
 10
-49.35500247013092
 20
63.163536079442821
 30
0.0
  0
VERTEX
  5
2296
  8
L1
 10
-49.376478578573852
 20
63.174129911467418
 30
0.0
  0
VERTEX
  5
2297
  8
L1
 10
-49.398695610165902
 20
63.182964442916642
 30
0.0
  0
VERTEX
  5
2298
  8
L1
 10
-49.421545620711782
 20
63.190001691987483
 30
0.0
  0
VERTEX
  5
2299
  8
L1
 10
-49.444920666016543
 20
63.195203676876901
 30
0.0
  0
VERTEX
  5
229A
  8
L1
 10
-49.471542923718197
 20
63.19879977539599
 30
0.0
  0
VERTEX
  5
229B
  8
L1
 10
-49.498352085453263
 20
63.19999999999996
 30
0.0
  0
SEQEND
  5
229C
  8
L1
  0
ARC
  5
15E7
  8
L1
 10
-47.117188858113792
 20
60.199999999999903
 30
0.0
 40
3.3000000000000149
 50
131.40989698076501
 51
180.0
  0
POLYLINE
  5
15E8
  8
L1
 66
     1
 10
0.0
 20
0.0
 30
0.0
  0
VERTEX
  5
229D
  8
L1
 10
61.560203050484631
 20
64.999715144036855
 30
0.0
  0
VERTEX
  5
229E
  8
L1
 10
61.725607008272902
 20
64.9936763638988
 30
0.0
  0
VERTEX
  5
229F
  8
L1
 10
61.89292255926005
 20
64.979607624392003
 30
0.0
  0
VERTEX
  5
22A0
  8
L1
 10
62.061334854681093
 20
64.957308890665587
 30
0.0
  0
VERTEX
  5
22A1
  8
L1
 10
62.230029045771232
 20
64.926580127869016
 30
0.0
  0
VERTEX
  5
22A2
  8
L1
 10
62.398202859994107
 20
64.887281883585743
 30
0.0
  0
VERTEX
  5
22A3
  8
L1
 10
62.565101486965382
 20
64.839503332309135
 30
0.0
  0
VERTEX
  5
22A4
  8
L1
 10
62.729981271145959
 20
64.783387379553716
 30
0.0
  0
VERTEX
  5
22A5
  8
L1
 10
62.892098556997489
 20
64.719076930833836
 30
0.0
  0
VERTEX
  5
22A6
  8
L1
 10
63.050793443014932
 20
64.646736529246056
 30
0.0
  0
VERTEX
  5
22A7
  8
L1
 10
63.205488680285441
 20
64.566724944746312
 30
0.0
  0
VERTEX
  5
22A8
  8
L1
 10
63.355564592157691
 20
64.479476423138493
 30
0.0
  0
VERTEX
  5
22A9
  8
L1
 10
63.500401501980768
 20
64.385425210226245
 30
0.0
  0
VERTEX
  5
22AA
  8
L1
 10
63.63941075437338
 20
64.285050833458428
 30
0.0
  0
VERTEX
  5
22AB
  8
L1
 10
63.772135891893697
 20
64.179025778373187
 30
0.0
  0
VERTEX
  5
22AC
  8
L1
 10
63.898155534799741
 20
64.068073727908455
 30
0.0
  0
VERTEX
  5
22AD
  8
L1
 10
64.017048303348872
 20
63.952918365002432
 30
0.0
  0
VERTEX
  5
22AE
  8
L1
 10
64.129551541994886
 20
63.833084364057328
 30
0.0
  0
VERTEX
  5
22AF
  8
L1
 10
64.23781932570995
 20
63.706259846189852
 30
0.0
  0
VERTEX
  5
22B0
  8
L1
 10
64.341136375487451
 20
63.572871025228409
 30
0.0
  0
VERTEX
  5
22B1
  8
L1
 10
64.438787412320778
 20
63.433344115001411
 30
0.0
  0
VERTEX
  5
22B2
  8
L1
 10
64.530108316265739
 20
63.288139300247479
 30
0.0
  0
VERTEX
  5
22B3
  8
L1
 10
64.614628346835786
 20
63.137845170575503
 30
0.0
  0
VERTEX
  5
22B4
  8
L1
 10
64.691922294209746
 20
62.983080547119158
 30
0.0
  0
VERTEX
  5
22B5
  8
L1
 10
64.761564948566786
 20
62.824464251012238
 30
0.0
  0
VERTEX
  5
22B6
  8
L1
 10
64.823205454876359
 20
62.662572087863879
 30
0.0
  0
VERTEX
  5
22B7
  8
L1
 10
64.876687373437051
 20
62.498059544443578
 30
0.0
  0
VERTEX
  5
22B8
  8
L1
 10
64.921877117421161
 20
62.331664963625059
 30
0.0
  0
VERTEX
  5
22B9
  8
L1
 10
64.958641100000648
 20
62.164126688282437
 30
0.0
  0
VERTEX
  5
22BA
  8
L1
 10
64.986825908935259
 20
61.99670816462654
 30
0.0
  0
VERTEX
  5
22BB
  8
L1
 10
65.006703982571992
 20
61.829682713096112
 30
0.0
  0
VERTEX
  5
22BC
  8
L1
 10
65.018481499782126
 20
61.663847577088198
 30
0.0
  0
VERTEX
  5
22BD
  8
L1
 10
65.02236463943683
 20
61.499999999999972
 30
0.0
  0
SEQEND
  5
22BE
  8
L1
  0
ARC
  5
15E9
  8
L1
 10
61.560203050484631
 20
61.497999999999962
 30
0.0
 40
2.7019999999999542
 50
0.0
 51
90.000000000001606
  0
LINE
  5
15EA
  8
L1
 10
57.011830127951441
 20
51.730011932326107
 30
0.0
 11
61.782191118158551
 21
56.500372922533273
 31
0.0
  0
ARC
  5
15EB
  8
L1
 10
56.762203050484629
 20
56.749999999999972
 30
0.0
 40
6.3000000000000487
 50
180.0
 51
270.0
  0
ARC
  5
15EC
  8
L1
 10
56.762203050484629
 20
56.749999999999972
 30
0.0
 40
5.0261806033722758
 50
177.2685844295726
 51
272.73141557042891
  0
ARC
  5
15ED
  8
L1
 10
56.762203050484629
 20
56.750000000000028
 30
0.0
 40
8.8000000000000114
 50
180.0
 51
217.28547390059799
  0
LINE
  5
15EE
  8
L1
 10
63.222364668203852
 20
60.599999999999937
 30
0.0
 11
63.222364668203852
 21
49.531163227339299
 31
0.0
  0
ARC
  5
15EF
  8
L1
 10
56.762203050484629
 20
56.750000000000028
 30
0.0
 40
8.8000000000000114
 50
232.7145260994026
 51
270.0
  0
LINE
  5
15F0
  8
L1
 10
49.968795664061588
 20
48.82669516924156
 30
0.0
 11
51.056706972709598
 21
49.73956114708173
 31
0.0
  0
LINE
  5
15F1
  8
L1
 10
48.85657884505639
 20
49.551639716267488
 30
0.0
 11
49.563842766752202
 21
48.844375794571562
 31
0.0
  0
POLYLINE
  5
15F2
  8
L1
 66
     1
 10
0.0
 20
0.0
 30
0.0
  0
VERTEX
  5
22BF
  8
L1
 10
49.968795664061588
 20
48.826695169241503
 30
0.0
  0
VERTEX
  5
22C0
  8
L1
 10
49.893180805541697
 20
48.780357849966919
 30
0.0
  0
VERTEX
  5
22C1
  8
L1
 10
49.807323625857798
 20
48.758153157972998
 30
0.0
  0
VERTEX
  5
22C2
  8
L1
 10
49.718726525199543
 20
48.762021390926769
 30
0.0
  0
VERTEX
  5
22C3
  8
L1
 10
49.635131324428407
 20
48.791624533629403
 30
0.0
  0
VERTEX
  5
22C4
  8
L1
 10
49.563842766752309
 20
48.844375794571562
 30
0.0
  0
SEQEND
  5
22C5
  8
L1
  0
POLYLINE
  5
15F3
  8
L1
 66
     1
 10
0.0
 20
0.0
 30
0.0
  0
VERTEX
  5
22C6
  8
L1
 10
51.056706972709598
 20
49.739561147081673
 30
0.0
  0
VERTEX
  5
22C7
  8
L1
 10
51.088100780682851
 20
49.762605782574873
 30
0.0
  0
VERTEX
  5
22C8
  8
L1
 10
51.122274084243543
 20
49.781419816776548
 30
0.0
  0
VERTEX
  5
22C9
  8
L1
 10
51.143763620352331
 20
49.790489113096697
 30
0.0
  0
VERTEX
  5
22CA
  8
L1
 10
51.165859091330333
 20
49.797852195035858
 30
0.0
  0
VERTEX
  5
22CB
  8
L1
 10
51.188459032754558
 20
49.803479427581259
 30
0.0
  0
VERTEX
  5
22CC
  8
L1
 10
51.21146198020238
 20
49.80734117572004
 30
0.0
  0
VERTEX
  5
22CD
  8
L1
 10
51.23318840433393
 20
49.809325471179839
 30
0.0
  0
VERTEX
  5
22CE
  8
L1
 10
51.254972919690722
 20
49.80972603091427
 30
0.0
  0
VERTEX
  5
22CF
  8
L1
 10
51.276729022869922
 20
49.808544307857822
 30
0.0
  0
VERTEX
  5
22D0
  8
L1
 10
51.298370210468811
 20
49.805781754945002
 30
0.0
  0
VERTEX
  5
22D1
  8
L1
 10
51.321621570147791
 20
49.800997583255622
 30
0.0
  0
VERTEX
  5
22D2
  8
L1
 10
51.344386713355732
 20
49.794401186491513
 30
0.0
  0
VERTEX
  5
22D3
  8
L1
 10
51.366559866868393
 20
49.786027735510878
 30
0.0
  0
VERTEX
  5
22D4
  8
L1
 10
51.388035257462043
 20
49.775912401171887
 30
0.0
  0
VERTEX
  5
22D5
  8
L1
 10
51.410269474167819
 20
49.763105763859727
 30
0.0
  0
VERTEX
  5
22D6
  8
L1
 10
51.4312800395914
 20
49.748481603828417
 30
0.0
  0
SEQEND
  5
22D7
  8
L1
  0
POLYLINE
  5
15F4
  8
L1
 66
     1
 10
0.0
 20
0.0
 30
0.0
  0
VERTEX
  5
22D8
  8
L1
 10
48.85657884505639
 20
49.551639716267488
 30
0.0
  0
VERTEX
  5
22D9
  8
L1
 10
48.803827584114231
 20
49.622928273943579
 30
0.0
  0
VERTEX
  5
22DA
  8
L1
 10
48.774224441411597
 20
49.706523474714707
 30
0.0
  0
VERTEX
  5
22DB
  8
L1
 10
48.77035620845794
 20
49.795120575372977
 30
0.0
  0
VERTEX
  5
22DC
  8
L1
 10
48.79256090045174
 20
49.880977755056932
 30
0.0
  0
VERTEX
  5
22DD
  8
L1
 10
48.838898219726332
 20
49.95659261357676
 30
0.0
  0
SEQEND
  5
22DE
  8
L1
  0
POLYLINE
  5
15F5
  8
L1
 66
     1
 10
0.0
 20
0.0
 30
0.0
  0
VERTEX
  5
22DF
  8
L1
 10
49.760684654313252
 20
51.419076989106571
 30
0.0
  0
VERTEX
  5
22E0
  8
L1
 10
49.773630338321311
 20
51.400681907275178
 30
0.0
  0
VERTEX
  5
22E1
  8
L1
 10
49.785185933359848
 20
51.38132238020475
 30
0.0
  0
VERTEX
  5
22E2
  8
L1
 10
49.797621440809678
 20
51.355785225535577
 30
0.0
  0
VERTEX
  5
22E3
  8
L1
 10
49.807565945806971
 20
51.329246063272961
 30
0.0
  0
VERTEX
  5
22E4
  8
L1
 10
49.814961069837118
 20
51.301886706224558
 30
0.0
  0
VERTEX
  5
22E5
  8
L1
 10
49.819748434385751
 20
51.273888967197898
 30
0.0
  0
VERTEX
  5
22E6
  8
L1
 10
49.821890003610122
 20
51.244626086379157
 30
0.0
  0
VERTEX
  5
22E7
  8
L1
 10
49.821167517481001
 20
51.21536296529225
 30
0.0
  0
VERTEX
  5
22E8
  8
L1
 10
49.817596680089018
 20
51.186309456928278
 30
0.0
  0
VERTEX
  5
22E9
  8
L1
 10
49.811193195524709
 20
51.157675414278089
 30
0.0
  0
VERTEX
  5
22EA
  8
L1
 10
49.801889293631511
 20
51.12945479459686
 30
0.0
  0
VERTEX
  5
22EB
  8
L1
 10
49.789872261880362
 20
51.102356670615421
 30
0.0
  0
VERTEX
  5
22EC
  8
L1
 10
49.775240673242877
 20
51.076576074860242
 30
0.0
  0
VERTEX
  5
22ED
  8
L1
 10
49.758093100691042
 20
51.052308039857763
 30
0.0
  0
VERTEX
  5
22EE
  8
L1
 10
49.751764197566501
 20
51.044503922224891
 30
0.0
  0
SEQEND
  5
22EF
  8
L1
  0
LINE
  5
15F6
  8
L1
 10
49.751764197566501
 20
51.044503922224891
 30
0.0
 11
48.838898219726332
 21
49.956592613576817
 31
0.0
  0
ARC
  5
15F7
  8
L1
 10
60.222364668203852
 20
47.149999999999999
 30
0.0
 40
3.2999999999999439
 50
0.0
 51
41.409896980764401
  0
LINE
  5
15F8
  8
L1
 10
56.762203050484629
 20
47.95000000000001
 30
0.0
 11
60.722878680740394
 21
47.95000000000001
 31
0.0
  0
POLYLINE
  5
15F9
  8
L1
 66
     1
 10
0.0
 20
0.0
 30
0.0
  0
VERTEX
  5
22F0
  8
L1
 10
60.722878680740394
 20
47.94999999999996
 30
0.0
  0
VERTEX
  5
22F1
  8
L1
 10
60.90365963107871
 20
47.93906909359972
 30
0.0
  0
VERTEX
  5
22F2
  8
L1
 10
61.081791704340219
 20
47.906435632759298
 30
0.0
  0
VERTEX
  5
22F3
  8
L1
 10
61.254679596815947
 20
47.85257507223767
 30
0.0
  0
VERTEX
  5
22F4
  8
L1
 10
61.419804410138063
 20
47.778272136031688
 30
0.0
  0
VERTEX
  5
22F5
  8
L1
 10
61.574760350489719
 20
47.68460938430249
 30
0.0
  0
VERTEX
  5
22F6
  8
L1
 10
61.717289779931939
 20
47.572951440963521
 30
0.0
  0
VERTEX
  5
22F7
  8
L1
 10
61.845316109167413
 20
47.444925111728168
 30
0.0
  0
VERTEX
  5
22F8
  8
L1
 10
61.956974052506162
 20
47.30239568228594
 30
0.0
  0
VERTEX
  5
22F9
  8
L1
 10
62.05063680423558
 20
47.147439741934271
 30
0.0
  0
VERTEX
  5
22FA
  8
L1
 10
62.124939740441448
 20
46.982314928612112
 30
0.0
  0
VERTEX
  5
22FB
  8
L1
 10
62.178800300963019
 20
46.809427036136441
 30
0.0
  0
VERTEX
  5
22FC
  8
L1
 10
62.211433761803562
 20
46.631294962874932
 30
0.0
  0
VERTEX
  5
22FD
  8
L1
 10
62.222364668203852
 20
46.450514012536672
 30
0.0
  0
SEQEND
  5
22FE
  8
L1
  0
LINE
  5
15FA
  8
L1
 10
56.762203050484629
 20
50.44999999999996
 30
0.0
 11
59.262203050484629
 21
50.44999999999996
 31
0.0
  0
LINE
  5
15FB
  8
L1
 10
57.0017213648959
 20
51.729529660004197
 30
0.0
 11
57.011830127951441
 21
51.730011932326107
 31
0.0
  0
POLYLINE
  5
15FC
  8
L1
 66
     1
 10
0.0
 20
0.0
 30
0.0
  0
VERTEX
  5
22FF
  8
L1
 10
63.222364668203852
 20
49.531163227339363
 30
0.0
  0
VERTEX
  5
2300
  8
L1
 10
63.222293046007337
 20
49.5246080249672
 30
0.0
  0
VERTEX
  5
2301
  8
L1
 10
63.22017026761165
 20
49.494943700917268
 30
0.0
  0
VERTEX
  5
2302
  8
L1
 10
63.215136576646437
 20
49.465705594967829
 30
0.0
  0
VERTEX
  5
2303
  8
L1
 10
63.207239732518083
 20
49.437107633780577
 30
0.0
  0
VERTEX
  5
2304
  8
L1
 10
63.196527494631539
 20
49.409363744017718
 30
0.0
  0
VERTEX
  5
2305
  8
L1
 10
63.183149398560829
 20
49.382867378089117
 30
0.0
  0
VERTEX
  5
2306
  8
L1
 10
63.167259642987403
 20
49.357881288412067
 30
0.0
  0
VERTEX
  5
2307
  8
L1
 10
63.148984079313941
 20
49.334583388281061
 30
0.0
  0
VERTEX
  5
2308
  8
L1
 10
63.128448558943717
 20
49.313151590990771
 30
0.0
  0
VERTEX
  5
2309
  8
L1
 10
63.108294435878122
 20
49.29572899690654
 30
0.0
  0
VERTEX
  5
230A
  8
L1
 10
63.086717454655108
 20
49.280191700037932
 30
0.0
  0
VERTEX
  5
230B
  8
L1
 10
63.063849444432371
 20
49.266626005987312
 30
0.0
  0
VERTEX
  5
230C
  8
L1
 10
63.039822234366902
 20
49.255118220357438
 30
0.0
  0
VERTEX
  5
230D
  8
L1
 10
63.018339652797472
 20
49.246935856045781
 30
0.0
  0
VERTEX
  5
230E
  8
L1
 10
62.996326012039447
 20
49.240430781374499
 30
0.0
  0
VERTEX
  5
230F
  8
L1
 10
62.973879425546841
 20
49.235627922194247
 30
0.0
  0
VERTEX
  5
2310
  8
L1
 10
62.951098006772952
 20
49.232552204355869
 30
0.0
  0
VERTEX
  5
2311
  8
L1
 10
62.929739086784991
 20
49.231264746139033
 30
0.0
  0
VERTEX
  5
2312
  8
L1
 10
62.908369699757422
 20
49.23150174123387
 30
0.0
  0
VERTEX
  5
2313
  8
L1
 10
62.887071390902008
 20
49.233259350328147
 30
0.0
  0
VERTEX
  5
2314
  8
L1
 10
62.865925705430811
 20
49.236533734109713
 30
0.0
  0
VERTEX
  5
2315
  8
L1
 10
62.842469937266678
 20
49.242012144038569
 30
0.0
  0
VERTEX
  5
2316
  8
L1
 10
62.819565320924482
 20
49.249341305652848
 30
0.0
  0
VERTEX
  5
2317
  8
L1
 10
62.797321237241647
 20
49.258481285121569
 30
0.0
  0
VERTEX
  5
2318
  8
L1
 10
62.775847067055622
 20
49.269392148613832
 30
0.0
  0
VERTEX
  5
2319
  8
L1
 10
62.754244894658591
 20
49.282712677022367
 30
0.0
  0
VERTEX
  5
231A
  8
L1
 10
62.733893244892151
 20
49.297772735277611
 30
0.0
  0
VERTEX
  5
231B
  8
L1
 10
62.714895288605639
 20
49.314483639347337
 30
0.0
  0
VERTEX
  5
231C
  8
L1
 10
62.697354196647829
 20
49.332756705199273
 30
0.0
  0
SEQEND
  5
231D
  8
L1
  0
LINE
  5
15FD
  8
L1
 10
59.262203050484629
 20
50.44999999999996
 30
0.0
 11
60.222364668203852
 21
50.44999999999996
 31
0.0
  0
ARC
  5
15FE
  8
L1
 10
60.222364668203852
 20
47.149999999999999
 30
0.0
 40
3.2999999999999439
 50
41.409896980764401
 51
90.0
  0
LINE
  5
15FF
  8
L1
 10
49.54336627782407
 20
63.19999999999996
 30
0.0
 11
60.622364668203829
 21
63.19999999999996
 31
0.0
  0
LINE
  5
1600
  8
L1
 10
56.512575973017931
 20
61.769988067673829
 30
0.0
 11
51.742214982810701
 21
56.999627077466727
 31
0.0
  0
LINE
  5
1601
  8
L1
 10
47.962203050484668
 20
60.700514012536608
 30
0.0
 11
47.962203050484668
 21
56.749999999999972
 31
0.0
  0
LINE
  5
1602
  8
L1
 10
50.462203050484682
 20
60.19999999999996
 30
0.0
 11
50.462203050484682
 21
59.249999999999972
 31
0.0
  0
LINE
  5
1603
  8
L1
 10
50.462203050484682
 20
59.249999999999972
 30
0.0
 11
50.462203050484682
 21
56.750000000000028
 31
0.0
  0
LINE
  5
1604
  8
L1
 10
51.742214982810701
 20
56.999627077466727
 30
0.0
 11
51.741732710488861
 21
56.989518314411129
 31
0.0
  0
POLYLINE
  5
1605
  8
L1
 66
     1
 10
0.0
 20
0.0
 30
0.0
  0
VERTEX
  5
231E
  8
L1
 10
46.462717063021323
 20
62.19999999999996
 30
0.0
  0
VERTEX
  5
231F
  8
L1
 10
46.643498013359647
 20
62.18906909359967
 30
0.0
  0
VERTEX
  5
2320
  8
L1
 10
46.821630086621028
 20
62.156435632759241
 30
0.0
  0
VERTEX
  5
2321
  8
L1
 10
46.994517979096763
 20
62.10257507223767
 30
0.0
  0
VERTEX
  5
2322
  8
L1
 10
47.159642792418992
 20
62.028272136031688
 30
0.0
  0
VERTEX
  5
2323
  8
L1
 10
47.314598732770662
 20
61.934609384302433
 30
0.0
  0
VERTEX
  5
2324
  8
L1
 10
47.457128162212882
 20
61.822951440963521
 30
0.0
  0
VERTEX
  5
2325
  8
L1
 10
47.585154491448229
 20
61.694925111728161
 30
0.0
  0
VERTEX
  5
2326
  8
L1
 10
47.696812434787212
 20
61.552395682285891
 30
0.0
  0
VERTEX
  5
2327
  8
L1
 10
47.790475186516403
 20
61.397439741934278
 30
0.0
  0
VERTEX
  5
2328
  8
L1
 10
47.864778122722377
 20
61.232314928612048
 30
0.0
  0
VERTEX
  5
2329
  8
L1
 10
47.918638683244069
 20
61.059427036136391
 30
0.0
  0
VERTEX
  5
232A
  8
L1
 10
47.951272144084378
 20
60.881294962874932
 30
0.0
  0
VERTEX
  5
232B
  8
L1
 10
47.962203050484668
 20
60.700514012536608
 30
0.0
  0
SEQEND
  5
232C
  8
L1
  0
POLYLINE
  5
1606
  8
L1
 66
     1
 10
0.0
 20
0.0
 30
0.0
  0
VERTEX
  5
232D
  8
L1
 10
49.344959755683988
 20
62.674989528443881
 30
0.0
  0
VERTEX
  5
232E
  8
L1
 10
49.325111068424519
 20
62.69418900889238
 30
0.0
  0
VERTEX
  5
232F
  8
L1
 10
49.30714656787319
 20
62.715087315775151
 30
0.0
  0
VERTEX
  5
2330
  8
L1
 10
49.291174653229
 20
62.73754641439168
 30
0.0
  0
VERTEX
  5
2331
  8
L1
 10
49.27730372368984
 20
62.761428270041591
 30
0.0
  0
VERTEX
  5
2332
  8
L1
 10
49.265368815230602
 20
62.787267227734638
 30
0.0
  0
VERTEX
  5
2333
  8
L1
 10
49.255954098172708
 20
62.814060304567107
 30
0.0
  0
VERTEX
  5
2334
  8
L1
 10
49.249114667252968
 20
62.84162345057954
 30
0.0
  0
VERTEX
  5
2335
  8
L1
 10
49.244905617208303
 20
62.869772615812359
 30
0.0
  0
VERTEX
  5
2336
  8
L1
 10
49.243378833275237
 20
62.899137626282958
 30
0.0
  0
VERTEX
  5
2337
  8
L1
 10
49.244727487165221
 20
62.928441732404991
 30
0.0
  0
VERTEX
  5
2338
  8
L1
 10
49.248931568540172
 20
62.957474023445258
 30
0.0
  0
VERTEX
  5
2339
  8
L1
 10
49.255971067061807
 20
62.986023588670569
 30
0.0
  0
VERTEX
  5
233A
  8
L1
 10
49.265883505917657
 20
63.014018801729243
 30
0.0
  0
VERTEX
  5
233B
  8
L1
 10
49.278481836099843
 20
63.040833340294768
 30
0.0
  0
VERTEX
  5
233C
  8
L1
 10
49.293663622250101
 20
63.066274451382149
 30
0.0
  0
VERTEX
  5
233D
  8
L1
 10
49.311326429009974
 20
63.090149382006437
 30
0.0
  0
VERTEX
  5
233E
  8
L1
 10
49.33075594690348
 20
63.111652012439059
 30
0.0
  0
VERTEX
  5
233F
  8
L1
 10
49.352118349336529
 20
63.13113686732688
 30
0.0
  0
VERTEX
  5
2340
  8
L1
 10
49.375257349979222
 20
63.148474653913489
 30
0.0
  0
VERTEX
  5
2341
  8
L1
 10
49.400016662501741
 20
63.163536079442821
 30
0.0
  0
VERTEX
  5
2342
  8
L1
 10
49.421492770944667
 20
63.174129911467418
 30
0.0
  0
VERTEX
  5
2343
  8
L1
 10
49.443709802536723
 20
63.182964442916642
 30
0.0
  0
VERTEX
  5
2344
  8
L1
 10
49.466559813082597
 20
63.190001691987483
 30
0.0
  0
VERTEX
  5
2345
  8
L1
 10
49.489934858387358
 20
63.195203676876901
 30
0.0
  0
VERTEX
  5
2346
  8
L1
 10
49.516557116089018
 20
63.19879977539599
 30
0.0
  0
VERTEX
  5
2347
  8
L1
 10
49.54336627782407
 20
63.19999999999996
 30
0.0
  0
SEQEND
  5
2348
  8
L1
  0
ARC
  5
1607
  8
L1
 10
47.162203050484607
 20
60.199999999999903
 30
0.0
 40
3.3000000000000149
 50
48.590103019234988
 51
90.0
  0
ARC
  5
1608
  8
L1
 10
47.162203050484607
 20
60.199999999999903
 30
0.0
 40
3.3000000000000149
 50
0.0
 51
48.590103019234988
  0
ARC
  5
1609
  8
L1
 10
56.762203050484629
 20
56.749999999999972
 30
0.0
 40
5.0261806033722758
 50
357.26858442957263
 51
92.731415570427302
  0
LINE
  5
160A
  8
L1
 10
61.782191118158551
 20
56.500372922533217
 30
0.0
 11
61.782673390480511
 21
56.510481685588758
 31
0.0
  0
LINE
  5
160B
  8
L1
 10
56.522684736073472
 20
61.77047033999574
 30
0.0
 11
56.512575973017931
 21
61.769988067673829
 31
0.0
  0
POLYLINE
  5
160C
  8
L1
 66
     1
 10
0.0
 20
0.0
 30
0.0
  0
VERTEX
  5
2349
  8
L1
 10
61.515473616065549
 20
64.999999999999972
 30
0.0
  0
VERTEX
  5
234A
  8
L1
 10
61.537835056059691
 20
64.999928785284709
 30
0.0
  0
VERTEX
  5
234B
  8
L1
 10
61.560203050484631
 20
64.999715144036855
 30
0.0
  0
SEQEND
  5
234C
  8
L1
  0
ARC
  5
160D
  8
L1
 10
60.622364668203829
 20
60.599999999999937
 30
0.0
 40
2.6000000000000001
 50
0.0
 51
90.0
  0
POLYLINE
  5
160E
  8
L1
 66
     1
 10
0.0
 20
0.0
 30
0.0
  0
VERTEX
  5
234D
  8
L1
 10
65.02236463943683
 20
61.499999999999972
 30
0.0
  0
VERTEX
  5
234E
  8
L1
 10
65.022364668203807
 20
61.497999999999962
 30
0.0
  0
SEQEND
  5
234F
  8
L1
  0
ENDBLK
  5
1560
  8
0
  0
BLOCK
  8
0
  2
T
 70
     0
 10
0.0
 20
0.0
 30
0.0
  3
T
  1

  0
LINE
  5
1637
  8
L1
 10
63.068164668203849
 20
-61.498000000000033
 30
0.0
 11
63.068164668203849
 21
61.49799999999999
 31
0.0
  0
LINE
  5
1638
  8
L1
 10
49.012203050484629
 20
47.0
 30
0.0
 11
49.012203050484629
 21
-47.0
 31
0.0
  0
LINE
  5
1639
  8
L1
 10
-48.96718885811373
 20
47.0
 30
0.0
 11
-48.96718885811373
 21
-47.0
 31
0.0
  0
LINE
  5
163A
  8
L1
 10
-63.02314192918498
 20
-61.497999999999998
 30
0.0
 11
-63.02314192918498
 21
61.49799999999999
 31
0.0
  0
LINE
  5
163B
  8
L1
 10
-64.977350475832964
 20
61.49799999999999
 30
0.0
 11
-64.977350475832964
 21
-61.49799999999999
 31
0.0
  0
LINE
  5
163C
  8
L1
 10
65.022364668203863
 20
61.49799999999999
 30
0.0
 11
65.022364668203863
 21
-61.49799999999999
 31
0.0
  0
LINE
  5
163D
  8
L6
 10
0.0
 20
70.904644215221623
 30
0.0
 11
0.0
 21
-81.170505648737304
 31
0.0
  0
LINE
  5
163E
  8
L1
 10
-60.12114192918483
 20
-65.000000000000057
 30
0.0
 11
61.560203050484752
 21
-64.999715144036941
 31
0.0
  0
LINE
  5
163F
  8
L1
 10
-61.443889916860599
 20
-63.04681624727445
 30
0.0
 11
61.488904109231498
 21
-63.04681624727445
 31
0.0
  0
LINE
  5
1640
  8
L1
 10
-46.967188858113779
 20
-49.00000000000005
 30
0.0
 11
47.012203050484679
 21
-49.00000000000005
 31
0.0
  0
ARC
  5
1641
  8
L1
 10
-56.717188858113794
 20
-56.750000000000057
 30
0.0
 40
5.0
 50
357.26858442957092
 51
92.731415570428993
  0
LINE
  5
1642
  8
L1
 10
-61.711508338622821
 20
-56.511729299728643
 30
0.0
 11
-56.955459558385201
 21
-51.755680519491051
 31
0.0
  0
CIRCLE
  5
1643
  8
L1
 10
-56.717188858113794
 20
-56.750000000000057
 30
0.0
 40
5.9982622421189946
  0
CIRCLE
  5
1644
  8
L1
 10
-56.717188858113794
 20
-56.750000000000057
 30
0.0
 40
5.7982698575061704
  0
ARC
  5
1645
  8
L1
 10
-56.717188858113794
 20
-56.750000000000057
 30
0.0
 40
5.0
 50
177.2685844295726
 51
272.73141557042891
  0
POLYLINE
  5
1646
  8
L1
 66
     1
 10
0.0
 20
0.0
 30
0.0
  0
VERTEX
  5
2351
  8
L1
 10
-64.977350447065973
 20
-61.50000000000005
 30
0.0
  0
VERTEX
  5
2352
  8
L1
 10
-64.973467307411283
 20
-61.663847577088347
 30
0.0
  0
VERTEX
  5
2353
  8
L1
 10
-64.961689790201206
 20
-61.829682713096247
 30
0.0
  0
VERTEX
  5
2354
  8
L1
 10
-64.941811716564473
 20
-61.996708164626739
 30
0.0
  0
VERTEX
  5
2355
  8
L1
 10
-64.913626907629691
 20
-62.164126688282579
 30
0.0
  0
VERTEX
  5
2356
  8
L1
 10
-64.876862925050204
 20
-62.331664963625201
 30
0.0
  0
VERTEX
  5
2357
  8
L1
 10
-64.831673181066151
 20
-62.498059544443663
 30
0.0
  0
VERTEX
  5
2358
  8
L1
 10
-64.778191262505459
 20
-62.662572087864021
 30
0.0
  0
VERTEX
  5
2359
  8
L1
 10
-64.716550756195886
 20
-62.82446425101233
 30
0.0
  0
VERTEX
  5
235A
  8
L1
 10
-64.64690810183896
 20
-62.9830805471193
 30
0.0
  0
VERTEX
  5
235B
  8
L1
 10
-64.569614154465
 20
-63.137845170575638
 30
0.0
  0
VERTEX
  5
235C
  8
L1
 10
-64.485094123894825
 20
-63.288139300247501
 30
0.0
  0
VERTEX
  5
235D
  8
L1
 10
-64.393773219949821
 20
-63.433344115001489
 30
0.0
  0
VERTEX
  5
235E
  8
L1
 10
-64.296122183116594
 20
-63.57287102522843
 30
0.0
  0
VERTEX
  5
235F
  8
L1
 10
-64.192805133339164
 20
-63.706259846190051
 30
0.0
  0
VERTEX
  5
2360
  8
L1
 10
-64.084537349623986
 20
-63.83308436405747
 30
0.0
  0
VERTEX
  5
2361
  8
L1
 10
-63.972034110977859
 20
-63.952918365002567
 30
0.0
  0
VERTEX
  5
2362
  8
L1
 10
-63.853141342428671
 20
-64.068073727908654
 30
0.0
  0
VERTEX
  5
2363
  8
L1
 10
-63.727121699522911
 20
-64.17902577837333
 30
0.0
  0
VERTEX
  5
2364
  8
L1
 10
-63.594396562002601
 20
-64.28505083345857
 30
0.0
  0
VERTEX
  5
2365
  8
L1
 10
-63.455387309609989
 20
-64.385425210226401
 30
0.0
  0
VERTEX
  5
2366
  8
L1
 10
-63.310550399786898
 20
-64.479476423138635
 30
0.0
  0
VERTEX
  5
2367
  8
L1
 10
-63.160474487914541
 20
-64.566724944746454
 30
0.0
  0
VERTEX
  5
2368
  8
L1
 10
-63.005779250644139
 20
-64.646736529246198
 30
0.0
  0
VERTEX
  5
2369
  8
L1
 10
-62.847084364626483
 20
-64.719076930833978
 30
0.0
  0
VERTEX
  5
236A
  8
L1
 10
-62.68496707877506
 20
-64.783387379553801
 30
0.0
  0
VERTEX
  5
236B
  8
L1
 10
-62.520087294594362
 20
-64.839503332309221
 30
0.0
  0
VERTEX
  5
236C
  8
L1
 10
-62.353188667623378
 20
-64.887281883585899
 30
0.0
  0
VERTEX
  5
236D
  8
L1
 10
-62.185014853400332
 20
-64.926580127869101
 30
0.0
  0
VERTEX
  5
236E
  8
L1
 10
-62.016320662310306
 20
-64.957308890665672
 30
0.0
  0
VERTEX
  5
236F
  8
L1
 10
-61.847908366889271
 20
-64.979607624392031
 30
0.0
  0
VERTEX
  5
2370
  8
L1
 10
-61.68059281590206
 20
-64.993676363898885
 30
0.0
  0
VERTEX
  5
2371
  8
L1
 10
-61.515188858113838
 20
-64.999715144036941
 30
0.0
  0
SEQEND
  5
2372
  8
L1
  0
POLYLINE
  5
1647
  8
L1
 66
     1
 10
0.0
 20
0.0
 30
0.0
  0
VERTEX
  5
2373
  8
L1
 10
-63.02369902973544
 20
-61.453699032815067
 30
0.0
  0
VERTEX
  5
2374
  8
L1
 10
-63.020908914385018
 20
-61.571426871784631
 30
0.0
  0
VERTEX
  5
2375
  8
L1
 10
-63.015691779392171
 20
-61.644887540589082
 30
0.0
  0
VERTEX
  5
2376
  8
L1
 10
-63.006887868628269
 20
-61.718862373233861
 30
0.0
  0
VERTEX
  5
2377
  8
L1
 10
-62.99453115847723
 20
-61.792261564106852
 30
0.0
  0
VERTEX
  5
2378
  8
L1
 10
-62.978379098489363
 20
-61.865868613281933
 30
0.0
  0
VERTEX
  5
2379
  8
L1
 10
-62.958368669591493
 20
-61.939549644305991
 30
0.0
  0
VERTEX
  5
237A
  8
L1
 10
-62.934683632429881
 20
-62.012405776047849
 30
0.0
  0
VERTEX
  5
237B
  8
L1
 10
-62.907611884686112
 20
-62.083506811143756
 30
0.0
  0
VERTEX
  5
237C
  8
L1
 10
-62.877018328961583
 20
-62.15318589702261
 30
0.0
  0
VERTEX
  5
237D
  8
L1
 10
-62.842763527963712
 20
-62.221773820891443
 30
0.0
  0
VERTEX
  5
237E
  8
L1
 10
-62.805293165761888
 20
-62.288403889972358
 30
0.0
  0
VERTEX
  5
237F
  8
L1
 10
-62.765145002675752
 20
-62.352241481715218
 30
0.0
  0
VERTEX
  5
2380
  8
L1
 10
-62.722200672887311
 20
-62.413601707284407
 30
0.0
  0
VERTEX
  5
2381
  8
L1
 10
-62.676326676667259
 20
-62.472827926788092
 30
0.0
  0
VERTEX
  5
2382
  8
L1
 10
-62.628226948818451
 20
-62.529171786287669
 30
0.0
  0
VERTEX
  5
2383
  8
L1
 10
-62.579094349470722
 20
-62.581505888199082
 30
0.0
  0
VERTEX
  5
2384
  8
L1
 10
-62.52691883375428
 20
-62.632041261548167
 30
0.0
  0
VERTEX
  5
2385
  8
L1
 10
-62.470877443512158
 20
-62.681382039024442
 30
0.0
  0
VERTEX
  5
2386
  8
L1
 10
-62.411848171548968
 20
-62.728536496186571
 30
0.0
  0
VERTEX
  5
2387
  8
L1
 10
-62.350569290370181
 20
-62.772784122883962
 30
0.0
  0
VERTEX
  5
2388
  8
L1
 10
-62.286699046840909
 20
-62.814258867686689
 30
0.0
  0
VERTEX
  5
2389
  8
L1
 10
-62.219925944383078
 20
-62.85307825182322
 30
0.0
  0
VERTEX
  5
238A
  8
L1
 10
-62.151080374670471
 20
-62.888686608070572
 30
0.0
  0
VERTEX
  5
238B
  8
L1
 10
-62.081026444768092
 20
-62.920620399694933
 30
0.0
  0
VERTEX
  5
238C
  8
L1
 10
-62.009441323744113
 20
-62.9490175643189
 30
0.0
  0
VERTEX
  5
238D
  8
L1
 10
-61.93600143281099
 20
-62.974012438435487
 30
0.0
  0
VERTEX
  5
238E
  8
L1
 10
-61.861639876240979
 20
-62.995300135692659
 30
0.0
  0
VERTEX
  5
238F
  8
L1
 10
-61.787333073972093
 20
-63.012663878561654
 30
0.0
  0
VERTEX
  5
2390
  8
L1
 10
-61.712783840157563
 20
-63.026243514634189
 30
0.0
  0
VERTEX
  5
2391
  8
L1
 10
-61.637663746881287
 20
-63.036189836862491
 30
0.0
  0
VERTEX
  5
2392
  8
L1
 10
-61.56300672053186
 20
-63.042467378010763
 30
0.0
  0
VERTEX
  5
2393
  8
L1
 10
-61.443889916860599
 20
-63.04681624727445
 30
0.0
  0
SEQEND
  5
2394
  8
L1
  0
POLYLINE
  5
1648
  8
L1
 66
     1
 10
0.0
 20
0.0
 30
0.0
  0
VERTEX
  5
2395
  8
L1
 10
-64.977350475832907
 20
-61.49799999999999
 30
0.0
  0
VERTEX
  5
2396
  8
L1
 10
-64.977350447065973
 20
-61.50000000000005
 30
0.0
  0
SEQEND
  5
2397
  8
L1
  0
POLYLINE
  5
1649
  8
L1
 66
     1
 10
0.0
 20
0.0
 30
0.0
  0
VERTEX
  5
2398
  8
L1
 10
-61.515188858113838
 20
-64.999715144036941
 30
0.0
  0
VERTEX
  5
2399
  8
L1
 10
-61.492820863688792
 20
-64.999928785284723
 30
0.0
  0
VERTEX
  5
239A
  8
L1
 10
-61.470459423694649
 20
-65.000000000000057
 30
0.0
  0
SEQEND
  5
239B
  8
L1
  0
POLYLINE
  5
164A
  8
L1
 66
     1
 10
0.0
 20
0.0
 30
0.0
  0
VERTEX
  5
239C
  8
L1
 10
-60.121141929184937
 20
-65.000000000000057
 30
0.0
  0
VERTEX
  5
239D
  8
L1
 10
-60.149789526474422
 20
-65.000000000000057
 30
0.0
  0
SEQEND
  5
239E
  8
L1
  0
LINE
  5
164B
  8
L1
 10
-61.470459423694649
 20
-65.000000000000057
 30
0.0
 11
-60.149789526474422
 21
-65.000000000000057
 31
0.0
  0
LINE
  5
164C
  8
L1
 10
-51.722869377604752
 20
-56.988270700271471
 30
0.0
 11
-56.478918157842308
 21
-61.744319480509091
 31
0.0
  0
ARC
  5
164D
  8
L1
 10
-46.967188858113779
 20
-47.00000000000005
 30
0.0
 40
1.9999999999999989
 50
180.0
 51
270.0
  0
ARC
  5
164E
  8
L1
 10
56.762203050484679
 20
-56.750000000000057
 30
0.0
 40
5.0
 50
87.268584429571007
 51
182.73141557042891
  0
CIRCLE
  5
164F
  8
L1
 10
56.762203050484679
 20
-56.750000000000057
 30
0.0
 40
5.7982698575061704
  0
CIRCLE
  5
1650
  8
L1
 10
56.762203050484679
 20
-56.750000000000057
 30
0.0
 40
5.9982622421189946
  0
LINE
  5
1651
  8
L1
 10
61.75652253099372
 20
-56.511729299728643
 30
0.0
 11
57.0004737507561
 21
-51.755680519491051
 31
0.0
  0
LINE
  5
1652
  8
L1
 10
51.767883569975652
 20
-56.988270700271471
 30
0.0
 11
56.523932350213208
 21
-61.744319480509091
 31
0.0
  0
ARC
  5
1653
  8
L1
 10
56.762203050484679
 20
-56.750000000000057
 30
0.0
 40
5.0
 50
267.26858442957098
 51
2.7314155704273748
  0
POLYLINE
  5
1654
  8
L1
 66
     1
 10
0.0
 20
0.0
 30
0.0
  0
VERTEX
  5
239F
  8
L1
 10
65.022364668203807
 20
-61.49799999999999
 30
0.0
  0
VERTEX
  5
23A0
  8
L1
 10
65.022364639436887
 20
-61.50000000000005
 30
0.0
  0
SEQEND
  5
23A1
  8
L1
  0
POLYLINE
  5
1655
  8
L1
 66
     1
 10
0.0
 20
0.0
 30
0.0
  0
VERTEX
  5
23A2
  8
L1
 10
63.068713222106339
 20
-61.453699032815067
 30
0.0
  0
VERTEX
  5
23A3
  8
L1
 10
63.065923106755918
 20
-61.571426871784631
 30
0.0
  0
VERTEX
  5
23A4
  8
L1
 10
63.06070597176307
 20
-61.644887540589082
 30
0.0
  0
VERTEX
  5
23A5
  8
L1
 10
63.051902060999168
 20
-61.718862373233861
 30
0.0
  0
VERTEX
  5
23A6
  8
L1
 10
63.039545350848122
 20
-61.792261564106852
 30
0.0
  0
VERTEX
  5
23A7
  8
L1
 10
63.02339329086027
 20
-61.865868613281933
 30
0.0
  0
VERTEX
  5
23A8
  8
L1
 10
63.0033828619624
 20
-61.939549644305991
 30
0.0
  0
VERTEX
  5
23A9
  8
L1
 10
62.97969782480078
 20
-62.012405776047849
 30
0.0
  0
VERTEX
  5
23AA
  8
L1
 10
62.952626077057012
 20
-62.083506811143756
 30
0.0
  0
VERTEX
  5
23AB
  8
L1
 10
62.922032521332483
 20
-62.15318589702261
 30
0.0
  0
VERTEX
  5
23AC
  8
L1
 10
62.887777720334611
 20
-62.221773820891443
 30
0.0
  0
VERTEX
  5
23AD
  8
L1
 10
62.850307358132788
 20
-62.288403889972358
 30
0.0
  0
VERTEX
  5
23AE
  8
L1
 10
62.810159195046651
 20
-62.352241481715218
 30
0.0
  0
VERTEX
  5
23AF
  8
L1
 10
62.767214865258211
 20
-62.413601707284407
 30
0.0
  0
VERTEX
  5
23B0
  8
L1
 10
62.721340869038158
 20
-62.472827926788092
 30
0.0
  0
VERTEX
  5
23B1
  8
L1
 10
62.673241141189351
 20
-62.529171786287669
 30
0.0
  0
VERTEX
  5
23B2
  8
L1
 10
62.624108541841622
 20
-62.581505888199082
 30
0.0
  0
VERTEX
  5
23B3
  8
L1
 10
62.57193302612518
 20
-62.632041261548167
 30
0.0
  0
VERTEX
  5
23B4
  8
L1
 10
62.515891635883058
 20
-62.681382039024442
 30
0.0
  0
VERTEX
  5
23B5
  8
L1
 10
62.456862363919861
 20
-62.728536496186571
 30
0.0
  0
VERTEX
  5
23B6
  8
L1
 10
62.395583482741067
 20
-62.772784122883962
 30
0.0
  0
VERTEX
  5
23B7
  8
L1
 10
62.331713239211808
 20
-62.814258867686689
 30
0.0
  0
VERTEX
  5
23B8
  8
L1
 10
62.264940136753978
 20
-62.85307825182322
 30
0.0
  0
VERTEX
  5
23B9
  8
L1
 10
62.196094567041371
 20
-62.888686608070572
 30
0.0
  0
VERTEX
  5
23BA
  8
L1
 10
62.126040637138999
 20
-62.920620399694933
 30
0.0
  0
VERTEX
  5
23BB
  8
L1
 10
62.054455516115013
 20
-62.9490175643189
 30
0.0
  0
VERTEX
  5
23BC
  8
L1
 10
61.98101562518189
 20
-62.974012438435487
 30
0.0
  0
VERTEX
  5
23BD
  8
L1
 10
61.906654068611893
 20
-62.995300135692659
 30
0.0
  0
VERTEX
  5
23BE
  8
L1
 10
61.832347266342992
 20
-63.012663878561654
 30
0.0
  0
VERTEX
  5
23BF
  8
L1
 10
61.757798032528449
 20
-63.026243514634189
 30
0.0
  0
VERTEX
  5
23C0
  8
L1
 10
61.682677939252187
 20
-63.036189836862491
 30
0.0
  0
VERTEX
  5
23C1
  8
L1
 10
61.608020912902759
 20
-63.042467378010763
 30
0.0
  0
VERTEX
  5
23C2
  8
L1
 10
61.488904109231498
 20
-63.04681624727445
 30
0.0
  0
SEQEND
  5
23C3
  8
L1
  0
POLYLINE
  5
1656
  8
L1
 66
     1
 10
0.0
 20
0.0
 30
0.0
  0
VERTEX
  5
23C4
  8
L1
 10
65.022364639436887
 20
-61.50000000000005
 30
0.0
  0
VERTEX
  5
23C5
  8
L1
 10
65.018481499782183
 20
-61.663847577088347
 30
0.0
  0
VERTEX
  5
23C6
  8
L1
 10
65.006703982572105
 20
-61.829682713096247
 30
0.0
  0
VERTEX
  5
23C7
  8
L1
 10
64.986825908935373
 20
-61.996708164626739
 30
0.0
  0
VERTEX
  5
23C8
  8
L1
 10
64.958641100000591
 20
-62.164126688282579
 30
0.0
  0
VERTEX
  5
23C9
  8
L1
 10
64.921877117421104
 20
-62.331664963625201
 30
0.0
  0
VERTEX
  5
23CA
  8
L1
 10
64.876687373437051
 20
-62.498059544443663
 30
0.0
  0
VERTEX
  5
23CB
  8
L1
 10
64.823205454876359
 20
-62.662572087864021
 30
0.0
  0
VERTEX
  5
23CC
  8
L1
 10
64.761564948566786
 20
-62.82446425101233
 30
0.0
  0
VERTEX
  5
23CD
  8
L1
 10
64.69192229420986
 20
-62.9830805471193
 30
0.0
  0
VERTEX
  5
23CE
  8
L1
 10
64.6146283468359
 20
-63.137845170575638
 30
0.0
  0
VERTEX
  5
23CF
  8
L1
 10
64.530108316265739
 20
-63.288139300247501
 30
0.0
  0
VERTEX
  5
23D0
  8
L1
 10
64.438787412320721
 20
-63.433344115001489
 30
0.0
  0
VERTEX
  5
23D1
  8
L1
 10
64.341136375487508
 20
-63.57287102522843
 30
0.0
  0
VERTEX
  5
23D2
  8
L1
 10
64.237819325710063
 20
-63.706259846190051
 30
0.0
  0
VERTEX
  5
23D3
  8
L1
 10
64.129551541994886
 20
-63.83308436405747
 30
0.0
  0
VERTEX
  5
23D4
  8
L1
 10
64.017048303348759
 20
-63.952918365002567
 30
0.0
  0
VERTEX
  5
23D5
  8
L1
 10
63.898155534799571
 20
-64.068073727908654
 30
0.0
  0
VERTEX
  5
23D6
  8
L1
 10
63.772135891893811
 20
-64.17902577837333
 30
0.0
  0
VERTEX
  5
23D7
  8
L1
 10
63.6394107543735
 20
-64.28505083345857
 30
0.0
  0
VERTEX
  5
23D8
  8
L1
 10
63.500401501980889
 20
-64.385425210226401
 30
0.0
  0
VERTEX
  5
23D9
  8
L1
 10
63.355564592157798
 20
-64.479476423138635
 30
0.0
  0
VERTEX
  5
23DA
  8
L1
 10
63.205488680285441
 20
-64.566724944746454
 30
0.0
  0
VERTEX
  5
23DB
  8
L1
 10
63.050793443015031
 20
-64.646736529246198
 30
0.0
  0
VERTEX
  5
23DC
  8
L1
 10
62.892098556997382
 20
-64.719076930833978
 30
0.0
  0
VERTEX
  5
23DD
  8
L1
 10
62.729981271145959
 20
-64.783387379553801
 30
0.0
  0
VERTEX
  5
23DE
  8
L1
 10
62.565101486965261
 20
-64.839503332309221
 30
0.0
  0
VERTEX
  5
23DF
  8
L1
 10
62.398202859994278
 20
-64.887281883585899
 30
0.0
  0
VERTEX
  5
23E0
  8
L1
 10
62.230029045771232
 20
-64.926580127869101
 30
0.0
  0
VERTEX
  5
23E1
  8
L1
 10
62.061334854681213
 20
-64.957308890665672
 30
0.0
  0
VERTEX
  5
23E2
  8
L1
 10
61.892922559260171
 20
-64.979607624392031
 30
0.0
  0
VERTEX
  5
23E3
  8
L1
 10
61.725607008272959
 20
-64.993676363898885
 30
0.0
  0
VERTEX
  5
23E4
  8
L1
 10
61.560203050484752
 20
-64.999715144036941
 30
0.0
  0
SEQEND
  5
23E5
  8
L1
  0
ARC
  5
1657
  8
L1
 10
47.012203050484679
 20
-47.00000000000005
 30
0.0
 40
1.9999999999999989
 50
270.0
 51
0.0
  0
LINE
  5
1658
  8
L6
 10
-70.855262555747458
 20
0.0
 30
0.0
 11
77.849689485080262
 21
0.0
 31
0.0
  0
LINE
  5
1659
  8
L1
 10
-60.12114192918483
 20
65.0
 30
0.0
 11
61.515473616065549
 21
65.0
 31
0.0
  0
LINE
  5
165A
  8
L1
 10
-61.443889916860599
 20
63.046816247274393
 30
0.0
 11
61.488904109231498
 21
63.046816247274393
 31
0.0
  0
LINE
  5
165B
  8
L1
 10
-46.967188858113779
 20
49.0
 30
0.0
 11
47.012203050484679
 21
49.0
 31
0.0
  0
ARC
  5
165C
  8
L1
 10
-56.717188858113794
 20
56.75
 30
0.0
 40
5.0
 50
267.26858442957098
 51
2.731415570429002
  0
CIRCLE
  5
165D
  8
L1
 10
-56.717188858113794
 20
56.75
 30
0.0
 40
5.7982698575061704
  0
CIRCLE
  5
165E
  8
L1
 10
-56.717188858113794
 20
56.75
 30
0.0
 40
5.9982622421189946
  0
LINE
  5
165F
  8
L1
 10
-61.711508338622821
 20
56.511729299728579
 30
0.0
 11
-56.955459558385201
 21
51.755680519490987
 31
0.0
  0
ARC
  5
1660
  8
L1
 10
-46.967188858113779
 20
47.0
 30
0.0
 40
1.9999999999999989
 50
90.0
 51
180.0
  0
ARC
  5
1661
  8
L1
 10
-56.717188858113794
 20
56.75
 30
0.0
 40
5.0
 50
87.268584429571007
 51
182.73141557042729
  0
POLYLINE
  5
1662
  8
L1
 66
     1
 10
0.0
 20
0.0
 30
0.0
  0
VERTEX
  5
23E6
  8
L1
 10
-64.977350447065973
 20
61.5
 30
0.0
  0
VERTEX
  5
23E7
  8
L1
 10
-64.973467307411283
 20
61.663847577088291
 30
0.0
  0
VERTEX
  5
23E8
  8
L1
 10
-64.961689790201206
 20
61.82968271309619
 30
0.0
  0
VERTEX
  5
23E9
  8
L1
 10
-64.941811716564473
 20
61.996708164626682
 30
0.0
  0
VERTEX
  5
23EA
  8
L1
 10
-64.913626907629691
 20
62.164126688282522
 30
0.0
  0
VERTEX
  5
23EB
  8
L1
 10
-64.876862925050204
 20
62.331664963625137
 30
0.0
  0
VERTEX
  5
23EC
  8
L1
 10
-64.831673181066151
 20
62.498059544443613
 30
0.0
  0
VERTEX
  5
23ED
  8
L1
 10
-64.778191262505459
 20
62.662572087863957
 30
0.0
  0
VERTEX
  5
23EE
  8
L1
 10
-64.716550756195886
 20
62.824464251012273
 30
0.0
  0
VERTEX
  5
23EF
  8
L1
 10
-64.64690810183896
 20
62.983080547119243
 30
0.0
  0
VERTEX
  5
23F0
  8
L1
 10
-64.569614154465
 20
63.137845170575588
 30
0.0
  0
VERTEX
  5
23F1
  8
L1
 10
-64.485094123894825
 20
63.288139300247451
 30
0.0
  0
VERTEX
  5
23F2
  8
L1
 10
-64.393773219949821
 20
63.433344115001432
 30
0.0
  0
VERTEX
  5
23F3
  8
L1
 10
-64.296122183116594
 20
63.57287102522838
 30
0.0
  0
VERTEX
  5
23F4
  8
L1
 10
-64.192805133339164
 20
63.706259846190001
 30
0.0
  0
VERTEX
  5
23F5
  8
L1
 10
-64.084537349623986
 20
63.833084364057413
 30
0.0
  0
VERTEX
  5
23F6
  8
L1
 10
-63.972034110977859
 20
63.952918365002517
 30
0.0
  0
VERTEX
  5
23F7
  8
L1
 10
-63.853141342428671
 20
64.068073727908597
 30
0.0
  0
VERTEX
  5
23F8
  8
L1
 10
-63.727121699522911
 20
64.179025778373273
 30
0.0
  0
VERTEX
  5
23F9
  8
L1
 10
-63.594396562002601
 20
64.285050833458513
 30
0.0
  0
VERTEX
  5
23FA
  8
L1
 10
-63.455387309609989
 20
64.385425210226344
 30
0.0
  0
VERTEX
  5
23FB
  8
L1
 10
-63.310550399786898
 20
64.479476423138578
 30
0.0
  0
VERTEX
  5
23FC
  8
L1
 10
-63.160474487914541
 20
64.566724944746397
 30
0.0
  0
VERTEX
  5
23FD
  8
L1
 10
-63.005779250644139
 20
64.646736529246141
 30
0.0
  0
VERTEX
  5
23FE
  8
L1
 10
-62.847084364626483
 20
64.719076930833921
 30
0.0
  0
VERTEX
  5
23FF
  8
L1
 10
-62.68496707877506
 20
64.783387379553744
 30
0.0
  0
VERTEX
  5
2400
  8
L1
 10
-62.520087294594362
 20
64.839503332309164
 30
0.0
  0
VERTEX
  5
2401
  8
L1
 10
-62.353188667623378
 20
64.887281883585842
 30
0.0
  0
VERTEX
  5
2402
  8
L1
 10
-62.185014853400332
 20
64.926580127869045
 30
0.0
  0
VERTEX
  5
2403
  8
L1
 10
-62.016320662310306
 20
64.957308890665615
 30
0.0
  0
VERTEX
  5
2404
  8
L1
 10
-61.847908366889271
 20
64.979607624391974
 30
0.0
  0
VERTEX
  5
2405
  8
L1
 10
-61.68059281590206
 20
64.993676363898828
 30
0.0
  0
VERTEX
  5
2406
  8
L1
 10
-61.515188858113838
 20
64.999715144036884
 30
0.0
  0
SEQEND
  5
2407
  8
L1
  0
POLYLINE
  5
1663
  8
L1
 66
     1
 10
0.0
 20
0.0
 30
0.0
  0
VERTEX
  5
2408
  8
L1
 10
-63.02369902973544
 20
61.453699032815017
 30
0.0
  0
VERTEX
  5
2409
  8
L1
 10
-63.020908914385018
 20
61.57142687178461
 30
0.0
  0
VERTEX
  5
240A
  8
L1
 10
-63.015691779392171
 20
61.644887540588968
 30
0.0
  0
VERTEX
  5
240B
  8
L1
 10
-63.006887868628269
 20
61.718862373233769
 30
0.0
  0
VERTEX
  5
240C
  8
L1
 10
-62.99453115847723
 20
61.792261564106781
 30
0.0
  0
VERTEX
  5
240D
  8
L1
 10
-62.978379098489363
 20
61.865868613281997
 30
0.0
  0
VERTEX
  5
240E
  8
L1
 10
-62.958368669591493
 20
61.939549644305941
 30
0.0
  0
VERTEX
  5
240F
  8
L1
 10
-62.93468363242993
 20
62.012405776047608
 30
0.0
  0
VERTEX
  5
2410
  8
L1
 10
-62.907611884686112
 20
62.083506811143707
 30
0.0
  0
VERTEX
  5
2411
  8
L1
 10
-62.877018328961462
 20
62.15318589702278
 30
0.0
  0
VERTEX
  5
2412
  8
L1
 10
-62.842763527963712
 20
62.2217738208914
 30
0.0
  0
VERTEX
  5
2413
  8
L1
 10
-62.805293165761952
 20
62.288403889972187
 30
0.0
  0
VERTEX
  5
2414
  8
L1
 10
-62.765145002675752
 20
62.352241481715168
 30
0.0
  0
VERTEX
  5
2415
  8
L1
 10
-62.722200672887311
 20
62.413601707284357
 30
0.0
  0
VERTEX
  5
2416
  8
L1
 10
-62.676326676667372
 20
62.472827926787879
 30
0.0
  0
VERTEX
  5
2417
  8
L1
 10
-62.62822694881833
 20
62.529171786287741
 30
0.0
  0
VERTEX
  5
2418
  8
L1
 10
-62.579094349470893
 20
62.581505888198869
 30
0.0
  0
VERTEX
  5
2419
  8
L1
 10
-62.52691883375411
 20
62.632041261548267
 30
0.0
  0
VERTEX
  5
241A
  8
L1
 10
-62.470877443512158
 20
62.681382039024378
 30
0.0
  0
VERTEX
  5
241B
  8
L1
 10
-62.411848171549138
 20
62.728536496186393
 30
0.0
  0
VERTEX
  5
241C
  8
L1
 10
-62.350569290369783
 20
62.77278412288419
 30
0.0
  0
VERTEX
  5
241D
  8
L1
 10
-62.286699046840909
 20
62.814258867686647
 30
0.0
  0
VERTEX
  5
241E
  8
L1
 10
-62.219925944383078
 20
62.853078251823177
 30
0.0
  0
VERTEX
  5
241F
  8
L1
 10
-62.151080374670933
 20
62.888686608070287
 30
0.0
  0
VERTEX
  5
2420
  8
L1
 10
-62.081026444768092
 20
62.920620399694847
 30
0.0
  0
VERTEX
  5
2421
  8
L1
 10
-62.009441323743602
 20
62.949017564319043
 30
0.0
  0
VERTEX
  5
2422
  8
L1
 10
-61.93600143281099
 20
62.974012438435459
 30
0.0
  0
VERTEX
  5
2423
  8
L1
 10
-61.86163987624127
 20
62.995300135692531
 30
0.0
  0
VERTEX
  5
2424
  8
L1
 10
-61.78733307397237
 20
63.01266387856154
 30
0.0
  0
VERTEX
  5
2425
  8
L1
 10
-61.712783840157563
 20
63.02624351463411
 30
0.0
  0
VERTEX
  5
2426
  8
L1
 10
-61.637663746881287
 20
63.036189836862427
 30
0.0
  0
VERTEX
  5
2427
  8
L1
 10
-61.563006720531568
 20
63.042467378010713
 30
0.0
  0
VERTEX
  5
2428
  8
L1
 10
-61.443889916860599
 20
63.046816247274393
 30
0.0
  0
SEQEND
  5
2429
  8
L1
  0
POLYLINE
  5
1664
  8
L1
 66
     1
 10
0.0
 20
0.0
 30
0.0
  0
VERTEX
  5
242A
  8
L1
 10
-64.977350475832907
 20
61.497999999999927
 30
0.0
  0
VERTEX
  5
242B
  8
L1
 10
-64.977350447065973
 20
61.5
 30
0.0
  0
SEQEND
  5
242C
  8
L1
  0
POLYLINE
  5
1665
  8
L1
 66
     1
 10
0.0
 20
0.0
 30
0.0
  0
VERTEX
  5
242D
  8
L1
 10
-61.515188858113838
 20
64.999715144036884
 30
0.0
  0
VERTEX
  5
242E
  8
L1
 10
-61.492820863688792
 20
64.999928785284681
 30
0.0
  0
VERTEX
  5
242F
  8
L1
 10
-61.470459423694649
 20
65.0
 30
0.0
  0
SEQEND
  5
2430
  8
L1
  0
POLYLINE
  5
1666
  8
L1
 66
     1
 10
0.0
 20
0.0
 30
0.0
  0
VERTEX
  5
2431
  8
L1
 10
-60.121141929184937
 20
65.0
 30
0.0
  0
VERTEX
  5
2432
  8
L1
 10
-60.149789526474422
 20
65.0
 30
0.0
  0
SEQEND
  5
2433
  8
L1
  0
LINE
  5
1667
  8
L1
 10
-61.470459423694649
 20
65.0
 30
0.0
 11
-60.149789526474422
 21
65.0
 31
0.0
  0
LINE
  5
1668
  8
L1
 10
-51.722869377604752
 20
56.988270700271407
 30
0.0
 11
-56.478918157842308
 21
61.744319480509027
 31
0.0
  0
ARC
  5
1669
  8
L1
 10
56.762203050484679
 20
56.75
 30
0.0
 40
5.0
 50
177.26858442957101
 51
272.73141557042891
  0
CIRCLE
  5
166A
  8
L1
 10
56.762203050484679
 20
56.75
 30
0.0
 40
5.9982622421189946
  0
CIRCLE
  5
166B
  8
L1
 10
56.762203050484679
 20
56.75
 30
0.0
 40
5.7982698575061704
  0
LINE
  5
166C
  8
L1
 10
61.75652253099372
 20
56.511729299728579
 30
0.0
 11
57.0004737507561
 21
51.755680519490987
 31
0.0
  0
ARC
  5
166D
  8
L1
 10
47.012203050484679
 20
47.0
 30
0.0
 40
1.9999999999999989
 50
0.0
 51
90.0
  0
LINE
  5
166E
  8
L1
 10
51.767883569975652
 20
56.988270700271407
 30
0.0
 11
56.523932350213208
 21
61.744319480509027
 31
0.0
  0
ARC
  5
166F
  8
L1
 10
56.762203050484679
 20
56.75
 30
0.0
 40
5.0
 50
357.26858442957263
 51
92.731415570428993
  0
LINE
  5
1670
  8
L1
 10
61.515473616065549
 20
65.0
 30
0.0
 11
60.194803718845321
 21
65.0
 31
0.0
  0
POLYLINE
  5
1671
  8
L1
 66
     1
 10
0.0
 20
0.0
 30
0.0
  0
VERTEX
  5
2434
  8
L1
 10
60.166156121555836
 20
65.0
 30
0.0
  0
VERTEX
  5
2435
  8
L1
 10
60.194803718845321
 20
65.0
 30
0.0
  0
SEQEND
  5
2436
  8
L1
  0
POLYLINE
  5
1672
  8
L1
 66
     1
 10
0.0
 20
0.0
 30
0.0
  0
VERTEX
  5
2437
  8
L1
 10
65.022364668203807
 20
61.497999999999927
 30
0.0
  0
VERTEX
  5
2438
  8
L1
 10
65.022364639436887
 20
61.5
 30
0.0
  0
SEQEND
  5
2439
  8
L1
  0
POLYLINE
  5
1673
  8
L1
 66
     1
 10
0.0
 20
0.0
 30
0.0
  0
VERTEX
  5
243A
  8
L1
 10
61.560203050484752
 20
64.999715144036884
 30
0.0
  0
VERTEX
  5
243B
  8
L1
 10
61.537835056059691
 20
64.999928785284681
 30
0.0
  0
VERTEX
  5
243C
  8
L1
 10
61.515473616065549
 20
65.0
 30
0.0
  0
SEQEND
  5
243D
  8
L1
  0
POLYLINE
  5
1674
  8
L1
 66
     1
 10
0.0
 20
0.0
 30
0.0
  0
VERTEX
  5
243E
  8
L1
 10
63.068713222106339
 20
61.453699032815017
 30
0.0
  0
VERTEX
  5
243F
  8
L1
 10
63.065923106755918
 20
61.57142687178461
 30
0.0
  0
VERTEX
  5
2440
  8
L1
 10
63.06070597176307
 20
61.644887540588968
 30
0.0
  0
VERTEX
  5
2441
  8
L1
 10
63.051902060999168
 20
61.718862373233769
 30
0.0
  0
VERTEX
  5
2442
  8
L1
 10
63.039545350848122
 20
61.792261564106781
 30
0.0
  0
VERTEX
  5
2443
  8
L1
 10
63.02339329086027
 20
61.865868613281997
 30
0.0
  0
VERTEX
  5
2444
  8
L1
 10
63.0033828619624
 20
61.939549644305941
 30
0.0
  0
VERTEX
  5
2445
  8
L1
 10
62.979697824800837
 20
62.012405776047608
 30
0.0
  0
VERTEX
  5
2446
  8
L1
 10
62.952626077057012
 20
62.083506811143707
 30
0.0
  0
VERTEX
  5
2447
  8
L1
 10
62.922032521332369
 20
62.15318589702278
 30
0.0
  0
VERTEX
  5
2448
  8
L1
 10
62.887777720334611
 20
62.2217738208914
 30
0.0
  0
VERTEX
  5
2449
  8
L1
 10
62.850307358132852
 20
62.288403889972187
 30
0.0
  0
VERTEX
  5
244A
  8
L1
 10
62.810159195046651
 20
62.352241481715168
 30
0.0
  0
VERTEX
  5
244B
  8
L1
 10
62.767214865258211
 20
62.413601707284357
 30
0.0
  0
VERTEX
  5
244C
  8
L1
 10
62.721340869038272
 20
62.472827926787879
 30
0.0
  0
VERTEX
  5
244D
  8
L1
 10
62.673241141189237
 20
62.529171786287741
 30
0.0
  0
VERTEX
  5
244E
  8
L1
 10
62.624108541841792
 20
62.581505888198869
 30
0.0
  0
VERTEX
  5
244F
  8
L1
 10
62.571933026125009
 20
62.632041261548267
 30
0.0
  0
VERTEX
  5
2450
  8
L1
 10
62.515891635883058
 20
62.681382039024378
 30
0.0
  0
VERTEX
  5
2451
  8
L1
 10
62.456862363920031
 20
62.728536496186393
 30
0.0
  0
VERTEX
  5
2452
  8
L1
 10
62.395583482740669
 20
62.77278412288419
 30
0.0
  0
VERTEX
  5
2453
  8
L1
 10
62.331713239211808
 20
62.814258867686647
 30
0.0
  0
VERTEX
  5
2454
  8
L1
 10
62.264940136753978
 20
62.853078251823177
 30
0.0
  0
VERTEX
  5
2455
  8
L1
 10
62.196094567041833
 20
62.888686608070287
 30
0.0
  0
VERTEX
  5
2456
  8
L1
 10
62.126040637138999
 20
62.920620399694847
 30
0.0
  0
VERTEX
  5
2457
  8
L1
 10
62.054455516114501
 20
62.949017564319043
 30
0.0
  0
VERTEX
  5
2458
  8
L1
 10
61.98101562518189
 20
62.974012438435459
 30
0.0
  0
VERTEX
  5
2459
  8
L1
 10
61.90665406861217
 20
62.995300135692531
 30
0.0
  0
VERTEX
  5
245A
  8
L1
 10
61.832347266343277
 20
63.01266387856154
 30
0.0
  0
VERTEX
  5
245B
  8
L1
 10
61.757798032528449
 20
63.02624351463411
 30
0.0
  0
VERTEX
  5
245C
  8
L1
 10
61.682677939252187
 20
63.036189836862427
 30
0.0
  0
VERTEX
  5
245D
  8
L1
 10
61.608020912902468
 20
63.042467378010713
 30
0.0
  0
VERTEX
  5
245E
  8
L1
 10
61.488904109231498
 20
63.046816247274393
 30
0.0
  0
SEQEND
  5
245F
  8
L1
  0
POLYLINE
  5
1675
  8
L1
 66
     1
 10
0.0
 20
0.0
 30
0.0
  0
VERTEX
  5
2460
  8
L1
 10
65.022364639436887
 20
61.5
 30
0.0
  0
VERTEX
  5
2461
  8
L1
 10
65.018481499782183
 20
61.663847577088291
 30
0.0
  0
VERTEX
  5
2462
  8
L1
 10
65.006703982572105
 20
61.82968271309619
 30
0.0
  0
VERTEX
  5
2463
  8
L1
 10
64.986825908935373
 20
61.996708164626682
 30
0.0
  0
VERTEX
  5
2464
  8
L1
 10
64.958641100000591
 20
62.164126688282522
 30
0.0
  0
VERTEX
  5
2465
  8
L1
 10
64.921877117421104
 20
62.331664963625137
 30
0.0
  0
VERTEX
  5
2466
  8
L1
 10
64.876687373437051
 20
62.498059544443613
 30
0.0
  0
VERTEX
  5
2467
  8
L1
 10
64.823205454876359
 20
62.662572087863957
 30
0.0
  0
VERTEX
  5
2468
  8
L1
 10
64.761564948566786
 20
62.824464251012273
 30
0.0
  0
VERTEX
  5
2469
  8
L1
 10
64.69192229420986
 20
62.983080547119243
 30
0.0
  0
VERTEX
  5
246A
  8
L1
 10
64.6146283468359
 20
63.137845170575588
 30
0.0
  0
VERTEX
  5
246B
  8
L1
 10
64.530108316265739
 20
63.288139300247451
 30
0.0
  0
VERTEX
  5
246C
  8
L1
 10
64.438787412320721
 20
63.433344115001432
 30
0.0
  0
VERTEX
  5
246D
  8
L1
 10
64.341136375487508
 20
63.57287102522838
 30
0.0
  0
VERTEX
  5
246E
  8
L1
 10
64.237819325710063
 20
63.706259846190001
 30
0.0
  0
VERTEX
  5
246F
  8
L1
 10
64.129551541994886
 20
63.833084364057413
 30
0.0
  0
VERTEX
  5
2470
  8
L1
 10
64.017048303348759
 20
63.952918365002517
 30
0.0
  0
VERTEX
  5
2471
  8
L1
 10
63.898155534799571
 20
64.068073727908597
 30
0.0
  0
VERTEX
  5
2472
  8
L1
 10
63.772135891893811
 20
64.179025778373273
 30
0.0
  0
VERTEX
  5
2473
  8
L1
 10
63.6394107543735
 20
64.285050833458513
 30
0.0
  0
VERTEX
  5
2474
  8
L1
 10
63.500401501980889
 20
64.385425210226344
 30
0.0
  0
VERTEX
  5
2475
  8
L1
 10
63.355564592157798
 20
64.479476423138578
 30
0.0
  0
VERTEX
  5
2476
  8
L1
 10
63.205488680285441
 20
64.566724944746397
 30
0.0
  0
VERTEX
  5
2477
  8
L1
 10
63.050793443015031
 20
64.646736529246141
 30
0.0
  0
VERTEX
  5
2478
  8
L1
 10
62.892098556997382
 20
64.719076930833921
 30
0.0
  0
VERTEX
  5
2479
  8
L1
 10
62.729981271145959
 20
64.783387379553744
 30
0.0
  0
VERTEX
  5
247A
  8
L1
 10
62.565101486965261
 20
64.839503332309164
 30
0.0
  0
VERTEX
  5
247B
  8
L1
 10
62.398202859994278
 20
64.887281883585842
 30
0.0
  0
VERTEX
  5
247C
  8
L1
 10
62.230029045771232
 20
64.926580127869045
 30
0.0
  0
VERTEX
  5
247D
  8
L1
 10
62.061334854681213
 20
64.957308890665615
 30
0.0
  0
VERTEX
  5
247E
  8
L1
 10
61.892922559260171
 20
64.979607624391974
 30
0.0
  0
VERTEX
  5
247F
  8
L1
 10
61.725607008272959
 20
64.993676363898828
 30
0.0
  0
VERTEX
  5
2480
  8
L1
 10
61.560203050484752
 20
64.999715144036884
 30
0.0
  0
SEQEND
  5
2481
  8
L1
  0
ENDBLK
  5
1636
  8
0
  0
BLOCK
  8
0
  2
S3
 70
     0
 10
0.0
 20
0.0
 30
0.0
  3
S3
  1

  0
INSERT
  5
169F
  8
L1
  2
S2
 10
0.0
 20
0.0
 30
0.0
  0
ENDBLK
  5
169E
  8
0
  0
BLOCK
  8
0
  2
S4
 70
     0
 10
0.0
 20
0.0
 30
0.0
  3
S4
  1

  0
LINE
  5
16A4
  8
L2
 10
-48.96718888688082
 20
35.269330927440443
 30
0.0
 11
49.012203079251663
 21
35.269330927440393
 31
0.0
  0
LINE
  5
16A5
  8
L1
 10
-62.877350504599967
 20
7.9999999999999432
 30
0.0
 11
62.922364696970867
 21
7.9999999999999138
 31
0.0
  0
LINE
  5
16A6
  8
L1
 10
64.262203079251663
 20
9.1693309274404271
 30
0.0
 11
-64.217188886880706
 21
9.1693309274404271
 31
0.0
  0
LINE
  5
16A7
  8
L1
 10
-64.97526266345443
 20
9.9693309274404385
 30
0.0
 11
65.020276855825315
 21
9.9693309274404385
 31
0.0
  0
LINE
  5
16A8
  8
L1
 10
-63.02314195795185
 20
35.76933092744045
 30
0.0
 11
63.068156150322629
 21
35.76933092744045
 31
0.0
  0
LINE
  5
16A9
  8
L1
 10
60.194803747612411
 20
35.169213755666952
 30
0.0
 11
-60.121141957951863
 21
35.16933092744042
 31
0.0
  0
LINE
  5
16AA
  8
L2
 10
-46.791173965131691
 20
33.269330927440393
 30
0.0
 11
46.83618815750259
 21
33.269330927440393
 31
0.0
  0
LINE
  5
16AB
  8
L1
 10
-63.656325743689699
 20
35.136146575961128
 30
0.0
 11
-64.977350475832964
 21
9.9294930940663164
 31
0.0
  0
POLYLINE
  5
16AC
  8
L1
 66
     1
 10
0.0
 20
0.0
 30
0.0
  0
VERTEX
  5
2484
  8
L1
 10
-64.977350504599883
 20
9.9294925451595741
 30
0.0
  0
VERTEX
  5
2485
  8
L1
 10
-64.977350475832907
 20
9.9294930940664017
 30
0.0
  0
SEQEND
  5
2486
  8
L1
  0
POLYLINE
  5
16AD
  8
L1
 66
     1
 10
0.0
 20
0.0
 30
0.0
  0
VERTEX
  5
2487
  8
L1
 10
-64.977350475832907
 20
9.9294930940664017
 30
0.0
  0
VERTEX
  5
2488
  8
L1
 10
-64.977350504599883
 20
9.9294925451595741
 30
0.0
  0
SEQEND
  5
2489
  8
L1
  0
LINE
  5
16AE
  8
L1
 10
-64.217188886880763
 20
9.1693309274404271
 30
0.0
 11
-64.977350504599883
 21
9.9294925451595741
 31
0.0
  0
ARC
  5
16AF
  8
L1
 10
-62.877350504599967
 20
8.4693309274404385
 30
0.0
 40
0.4693309274404737
 50
190.00000000000179
 51
270.0
  0
ARC
  5
16B0
  8
L2
 10
-62.877350504599967
 20
8.4693309274404385
 30
0.0
 40
0.4693309274404737
 50
270.0
 51
350.00000000000131
  0
LINE
  5
16B1
  8
L1
 10
-63.339551240671817
 20
8.3878324671676392
 30
0.0
 11
-63.476793996251843
 21
9.1661748117626587
 31
0.0
  0
LINE
  5
16B2
  8
L2
 10
-62.277350504599951
 20
9.1693309274404271
 30
0.0
 11
-62.415149768528117
 21
8.3878324671676694
 31
0.0
  0
LINE
  5
16B3
  8
L2
 10
-47.917188886880751
 20
9.1693309274404271
 30
0.0
 11
-47.291002627619477
 21
32.782419401594353
 31
0.0
  0
ARC
  5
16B4
  8
L2
 10
-46.791173965131691
 20
32.769330927440393
 30
0.0
 40
0.5
 50
90.0
 51
178.49999999999719
  0
LINE
  5
16B5
  8
L1
 10
-63.02314195795185
 20
35.76933092744045
 30
0.0
 11
-63.656325712400701
 21
35.136147172991599
 31
0.0
  0
POLYLINE
  5
16B6
  8
L1
 66
     1
 10
0.0
 20
0.0
 30
0.0
  0
VERTEX
  5
248A
  8
L1
 10
-60.149789555241512
 20
35.169213755666952
 30
0.0
  0
VERTEX
  5
248B
  8
L1
 10
-60.309774284706059
 20
35.167894082881418
 30
0.0
  0
VERTEX
  5
248C
  8
L1
 10
-60.47155536528561
 20
35.166537527736658
 30
0.0
  0
VERTEX
  5
248D
  8
L1
 10
-60.634413743293862
 20
35.16514964493669
 30
0.0
  0
VERTEX
  5
248E
  8
L1
 10
-60.797630365044419
 20
35.163735989185483
 30
0.0
  0
VERTEX
  5
248F
  8
L1
 10
-60.967831035991082
 20
35.162237197124313
 30
0.0
  0
VERTEX
  5
2490
  8
L1
 10
-61.13688350946444
 20
35.160724000103038
 30
0.0
  0
VERTEX
  5
2491
  8
L1
 10
-61.304032362816542
 20
35.159204109876981
 30
0.0
  0
VERTEX
  5
2492
  8
L1
 10
-61.468522173399542
 20
35.157685238201481
 30
0.0
  0
VERTEX
  5
2493
  8
L1
 10
-61.629682444198643
 20
35.156174659231702
 30
0.0
  0
VERTEX
  5
2494
  8
L1
 10
-61.786922792356613
 20
35.154679940734269
 30
0.0
  0
VERTEX
  5
2495
  8
L1
 10
-61.93960796646234
 20
35.153209234881579
 30
0.0
  0
VERTEX
  5
2496
  8
L1
 10
-62.087102715104777
 20
35.151770693846139
 30
0.0
  0
VERTEX
  5
2497
  8
L1
 10
-62.228802414118938
 20
35.150372446854782
 30
0.0
  0
VERTEX
  5
2498
  8
L1
 10
-62.364233181657482
 20
35.149021846531781
 30
0.0
  0
VERTEX
  5
2499
  8
L1
 10
-62.492955879785427
 20
35.147725880146112
 30
0.0
  0
VERTEX
  5
249A
  8
L1
 10
-62.614531370568038
 20
35.146491534966309
 30
0.0
  0
VERTEX
  5
249B
  8
L1
 10
-62.730987489649969
 20
35.145300435671373
 30
0.0
  0
VERTEX
  5
249C
  8
L1
 10
-62.843078015256822
 20
35.144146960110582
 30
0.0
  0
VERTEX
  5
249D
  8
L1
 10
-62.950062248861343
 20
35.143040820721779
 30
0.0
  0
VERTEX
  5
249E
  8
L1
 10
-63.051199491936423
 20
35.141991729942639
 30
0.0
  0
VERTEX
  5
249F
  8
L1
 10
-63.145801712682612
 20
35.141009049177079
 30
0.0
  0
VERTEX
  5
24A0
  8
L1
 10
-63.233379281671773
 20
35.140100176089021
 30
0.0
  0
VERTEX
  5
24A1
  8
L1
 10
-63.313489103933762
 20
35.139271877506559
 30
0.0
  0
VERTEX
  5
24A2
  8
L1
 10
-63.385688084498213
 20
35.1385309202578
 30
0.0
  0
VERTEX
  5
24A3
  8
L1
 10
-63.44961056997812
 20
35.137883232319119
 30
0.0
  0
VERTEX
  5
24A4
  8
L1
 10
-63.505090348435822
 20
35.13733203290289
 30
0.0
  0
VERTEX
  5
24A5
  8
L1
 10
-63.551983487075518
 20
35.136880025691049
 30
0.0
  0
VERTEX
  5
24A6
  8
L1
 10
-63.590146053101194
 20
35.136529914365752
 30
0.0
  0
VERTEX
  5
24A7
  8
L1
 10
-63.619414512212529
 20
35.136284186079109
 30
0.0
  0
VERTEX
  5
24A8
  8
L1
 10
-63.640062412359327
 20
35.136140059536238
 30
0.0
  0
VERTEX
  5
24A9
  8
L1
 10
-63.652297055524222
 20
35.136095025806952
 30
0.0
  0
VERTEX
  5
24AA
  8
L1
 10
-63.656325743689699
 20
35.136146575961192
 30
0.0
  0
SEQEND
  5
24AB
  8
L1
  0
LINE
  5
16B7
  8
L2
 10
-48.967188886880763
 20
35.76594317239752
 30
0.0
 11
-48.967188886880763
 21
35.469330927440382
 31
0.0
  0
LINE
  5
16B8
  8
L2
 10
-48.967188886880763
 20
35.76933092744045
 30
0.0
 11
-48.967188886880763
 21
35.76594317239752
 31
0.0
  0
LINE
  5
16B9
  8
L1
 10
63.701339936060599
 20
35.136146575961128
 30
0.0
 11
65.022364668203863
 21
9.9294930940663164
 31
0.0
  0
LINE
  5
16BA
  8
L6
 10
0.0
 20
43.76933092744045
 30
0.0
 11
0.0
 21
0.0
 31
0.0
  0
LINE
  5
16BB
  8
L2
 10
47.962203079251651
 20
9.1693309274404271
 30
0.0
 11
47.336016819990391
 21
32.782419401594353
 31
0.0
  0
ARC
  5
16BC
  8
L1
 10
62.922364696970867
 20
8.4693309274404385
 30
0.0
 40
0.4693309274404737
 50
270.0
 51
349.99999999999812
  0
LINE
  5
16BD
  8
L2
 10
62.322364696970851
 20
9.1693309274404271
 30
0.0
 11
62.460163960899031
 21
8.3878324671676694
 31
0.0
  0
ARC
  5
16BE
  8
L2
 10
62.922364696970867
 20
8.4693309274404385
 30
0.0
 40
0.4693309274404737
 50
189.99999999999861
 51
270.0
  0
POLYLINE
  5
16BF
  8
L1
 66
     1
 10
0.0
 20
0.0
 30
0.0
  0
VERTEX
  5
24AC
  8
L1
 10
65.022364668203807
 20
9.9294930940664017
 30
0.0
  0
VERTEX
  5
24AD
  8
L1
 10
65.022364696970783
 20
9.9294925451595741
 30
0.0
  0
SEQEND
  5
24AE
  8
L1
  0
POLYLINE
  5
16C0
  8
L1
 66
     1
 10
0.0
 20
0.0
 30
0.0
  0
VERTEX
  5
24AF
  8
L1
 10
65.022364696970783
 20
9.9294925451595741
 30
0.0
  0
VERTEX
  5
24B0
  8
L1
 10
65.022364668203807
 20
9.9294930940664017
 30
0.0
  0
SEQEND
  5
24B1
  8
L1
  0
LINE
  5
16C1
  8
L1
 10
63.384565433042717
 20
8.3878324671676392
 30
0.0
 11
63.521808188622742
 21
9.1661748117626587
 31
0.0
  0
LINE
  5
16C2
  8
L1
 10
64.262203079251663
 20
9.1693309274404271
 30
0.0
 11
65.022364696970783
 21
9.9294925451595741
 31
0.0
  0
ARC
  5
16C3
  8
L2
 10
46.83618815750259
 20
32.769330927440393
 30
0.0
 40
0.5
 50
1.5000000000027369
 51
90.0
  0
LINE
  5
16C4
  8
L2
 10
49.012203079251663
 20
35.76933092744045
 30
0.0
 11
49.012203079251663
 21
35.76594317239752
 31
0.0
  0
LINE
  5
16C5
  8
L2
 10
49.012203079251663
 20
35.76594317239752
 30
0.0
 11
49.012203079251663
 21
35.469330927440382
 31
0.0
  0
POLYLINE
  5
16C6
  8
L1
 66
     1
 10
0.0
 20
0.0
 30
0.0
  0
VERTEX
  5
24B2
  8
L1
 10
60.194803747612411
 20
35.169213755666952
 30
0.0
  0
VERTEX
  5
24B3
  8
L1
 10
60.354788477076973
 20
35.167894082881418
 30
0.0
  0
VERTEX
  5
24B4
  8
L1
 10
60.516569557656503
 20
35.166537527736658
 30
0.0
  0
VERTEX
  5
24B5
  8
L1
 10
60.679427935664762
 20
35.16514964493669
 30
0.0
  0
VERTEX
  5
24B6
  8
L1
 10
60.842644557415319
 20
35.163735989185483
 30
0.0
  0
VERTEX
  5
24B7
  8
L1
 10
61.012845228361982
 20
35.162237197124313
 30
0.0
  0
VERTEX
  5
24B8
  8
L1
 10
61.181897701835332
 20
35.160724000103038
 30
0.0
  0
VERTEX
  5
24B9
  8
L1
 10
61.349046555187442
 20
35.159204109876981
 30
0.0
  0
VERTEX
  5
24BA
  8
L1
 10
61.513536365770449
 20
35.157685238201481
 30
0.0
  0
VERTEX
  5
24BB
  8
L1
 10
61.674696636569529
 20
35.156174659231702
 30
0.0
  0
VERTEX
  5
24BC
  8
L1
 10
61.83193698472752
 20
35.154679940734269
 30
0.0
  0
VERTEX
  5
24BD
  8
L1
 10
61.98462215883324
 20
35.153209234881579
 30
0.0
  0
VERTEX
  5
24BE
  8
L1
 10
62.13211690747567
 20
35.151770693846139
 30
0.0
  0
VERTEX
  5
24BF
  8
L1
 10
62.273816606489838
 20
35.150372446854782
 30
0.0
  0
VERTEX
  5
24C0
  8
L1
 10
62.409247374028382
 20
35.149021846531781
 30
0.0
  0
VERTEX
  5
24C1
  8
L1
 10
62.537970072156327
 20
35.147725880146112
 30
0.0
  0
VERTEX
  5
24C2
  8
L1
 10
62.659545562938952
 20
35.146491534966309
 30
0.0
  0
VERTEX
  5
24C3
  8
L1
 10
62.776001682020883
 20
35.145300435671373
 30
0.0
  0
VERTEX
  5
24C4
  8
L1
 10
62.888092207627722
 20
35.144146960110582
 30
0.0
  0
VERTEX
  5
24C5
  8
L1
 10
62.995076441232243
 20
35.143040820721779
 30
0.0
  0
VERTEX
  5
24C6
  8
L1
 10
63.096213684307322
 20
35.141991729942639
 30
0.0
  0
VERTEX
  5
24C7
  8
L1
 10
63.190815905053512
 20
35.141009049177079
 30
0.0
  0
VERTEX
  5
24C8
  8
L1
 10
63.27839347404268
 20
35.140100176089021
 30
0.0
  0
VERTEX
  5
24C9
  8
L1
 10
63.358503296304661
 20
35.139271877506559
 30
0.0
  0
VERTEX
  5
24CA
  8
L1
 10
63.430702276869113
 20
35.1385309202578
 30
0.0
  0
VERTEX
  5
24CB
  8
L1
 10
63.494624762349019
 20
35.137883232319119
 30
0.0
  0
VERTEX
  5
24CC
  8
L1
 10
63.550104540806728
 20
35.13733203290289
 30
0.0
  0
VERTEX
  5
24CD
  8
L1
 10
63.596997679446417
 20
35.136880025691049
 30
0.0
  0
VERTEX
  5
24CE
  8
L1
 10
63.635160245472093
 20
35.136529914365752
 30
0.0
  0
VERTEX
  5
24CF
  8
L1
 10
63.664428704583422
 20
35.136284186079109
 30
0.0
  0
VERTEX
  5
24D0
  8
L1
 10
63.685076604730227
 20
35.136140059536238
 30
0.0
  0
VERTEX
  5
24D1
  8
L1
 10
63.697311247895129
 20
35.136095025806952
 30
0.0
  0
VERTEX
  5
24D2
  8
L1
 10
63.701339936060599
 20
35.136146575961192
 30
0.0
  0
SEQEND
  5
24D3
  8
L1
  0
LINE
  5
16C7
  8
L1
 10
63.06815615032275
 20
35.76933092744045
 30
0.0
 11
63.701339904771601
 21
35.136147172991599
 31
0.0
  0
ENDBLK
  5
16A3
  8
0
  0
ENDSEC
  0
SECTION
  2
ENTITIES
  0
INSERT
  5
1351
  8
L1
  2
S1
 10
228.84688962742001
 20
142.04427252916349
 30
0.0
  0
INSERT
  5
160F
  8
L1
  2
B
 10
110.36270253766899
 20
142.04427252916349
 30
0.0
  0
INSERT
  5
1676
  8
L1
  2
T
 10
398.3379040886266
 20
142.04427252916349
 30
0.0
  0
INSERT
  5
16A0
  8
L1
  2
S3
 10
524.05958762239266
 20
142.04427252916349
 30
0.0
  0
INSERT
  5
16C8
  8
L1
  2
S4
 10
398.3379040886266
 20
239.0728143438173
 30
0.0
  0
INSERT
  5
16C9
  8
L1
  2
S4
 10
398.3379040886266
 20
45.015730714509708
 30
0.0
 41
-1.0
 50
180.0
  0
ENDSEC
  0
EOF
