  0
SECTION
  2
HEADER
  9
$ACADVER
  1
AC1009
  9
$INSBASE
 10
0.0
 20
0.0
 30
0.0
  9
$EXTMIN
 10
-0.6863269031038044
 20
-4.5666840770239503
 30
0.0
  9
$EXTMAX
 10
424.68892691831797
 20
259.26106244748939
 30
0.0
  9
$LIMMIN
 10
0.0
 20
0.0
  9
$LIMMAX
 10
420.0
 20
297.0
  9
$ORTHOMODE
 70
     1
  9
$REGENMODE
 70
     1
  9
$FILLMODE
 70
     1
  9
$QTEXTMODE
 70
     0
  9
$MIRRTEXT
 70
     1
  9
$DRAGMODE
 70
     2
  9
$LTSCALE
 40
10.0
  9
$OSMODE
 70
     5
  9
$ATTMODE
 70
     1
  9
$TEXTSIZE
 40
2.5
  9
$TRACEWID
 40
1.0
  9
$TEXTSTYLE
  7
SIMPLEX
  9
$CLAYER
  8
L1
  9
$CELTYPE
  6
BYLAYER
  9
$CECOLOR
 62
   256
  9
$DIMSCALE
 40
1.0
  9
$DIMASZ
 40
3.5
  9
$DIMEXO
 40
0.1
  9
$DIMDLI
 40
0.38
  9
$DIMRND
 40
0.0
  9
$DIMDLE
 40
0.0
  9
$DIMEXE
 40
0.18
  9
$DIMTP
 40
0.0
  9
$DIMTM
 40
0.0
  9
$DIMTXT
 40
3.5
  9
$DIMCEN
 40
1.0
  9
$DIMTSZ
 40
0.0
  9
$DIMTOL
 70
     0
  9
$DIMLIM
 70
     0
  9
$DIMTIH
 70
     0
  9
$DIMTOH
 70
     0
  9
$DIMSE1
 70
     0
  9
$DIMSE2
 70
     0
  9
$DIMTAD
 70
     1
  9
$DIMZIN
 70
     8
  9
$DIMBLK
  1

  9
$DIMASO
 70
     1
  9
$DIMSHO
 70
     1
  9
$DIMPOST
  1

  9
$DIMAPOST
  1

  9
$DIMALT
 70
     0
  9
$DIMALTD
 70
     2
  9
$DIMALTF
 40
25.399999999999999
  9
$DIMLFAC
 40
1.0
  9
$DIMTOFL
 70
     1
  9
$DIMTVP
 40
0.0
  9
$DIMTIX
 70
     0
  9
$DIMSOXD
 70
     0
  9
$DIMSAH
 70
     0
  9
$DIMBLK1
  1

  9
$DIMBLK2
  1

  9
$DIMSTYLE
  2
FIBOX
  9
$DIMCLRD
 70
     1
  9
$DIMCLRE
 70
     1
  9
$DIMCLRT
 70
     3
  9
$DIMTFAC
 40
1.0
  9
$DIMGAP
 40
1.0
  9
$LUNITS
 70
     2
  9
$LUPREC
 70
     4
  9
$SKETCHINC
 40
1.0
  9
$FILLETRAD
 40
2.0
  9
$AUNITS
 70
     0
  9
$AUPREC
 70
     0
  9
$MENU
  1
.
  9
$ELEVATION
 40
0.0
  9
$PELEVATION
 40
0.0
  9
$THICKNESS
 40
0.0
  9
$LIMCHECK
 70
     0
  9
$BLIPMODE
 70
     0
  9
$CHAMFERA
 40
10.0
  9
$CHAMFERB
 40
10.0
  9
$SKPOLY
 70
     0
  9
$TDCREATE
 40
2450519.5748858559
  9
$TDUPDATE
 40
2452502.5274709142
  9
$TDINDWG
 40
0.7761859144
  9
$TDUSRTIMER
 40
0.7761859144
  9
$USRTIMER
 70
     1
  9
$ANGBASE
 50
0.0
  9
$ANGDIR
 70
     0
  9
$PDMODE
 70
     0
  9
$PDSIZE
 40
0.0
  9
$PLINEWID
 40
0.0
  9
$COORDS
 70
     2
  9
$SPLFRAME
 70
     0
  9
$SPLINETYPE
 70
     6
  9
$SPLINESEGS
 70
     8
  9
$ATTDIA
 70
     0
  9
$ATTREQ
 70
     1
  9
$HANDLING
 70
 22529
  9
$HANDSEED
  5
1EC2
  9
$SURFTAB1
 70
     6
  9
$SURFTAB2
 70
     6
  9
$SURFTYPE
 70
     6
  9
$SURFU
 70
     6
  9
$SURFV
 70
     6
  9
$UCSNAME
  2

  9
$UCSORG
 10
0.0
 20
0.0
 30
0.0
  9
$UCSXDIR
 10
1.0
 20
0.0
 30
0.0
  9
$UCSYDIR
 10
0.0
 20
1.0
 30
0.0
  9
$PUCSNAME
  2

  9
$PUCSORG
 10
0.0
 20
0.0
 30
0.0
  9
$PUCSXDIR
 10
1.0
 20
0.0
 30
0.0
  9
$PUCSYDIR
 10
0.0
 20
1.0
 30
0.0
  9
$USERI1
 70
     0
  9
$USERI2
 70
     0
  9
$USERI3
 70
     0
  9
$USERI4
 70
     0
  9
$USERI5
 70
     0
  9
$USERR1
 40
0.0
  9
$USERR2
 40
0.0
  9
$USERR3
 40
0.0
  9
$USERR4
 40
0.0
  9
$USERR5
 40
0.0
  9
$WORLDVIEW
 70
     1
  9
$SHADEDGE
 70
     3
  9
$SHADEDIF
 70
    70
  9
$TILEMODE
 70
     1
  9
$MAXACTVP
 70
    16
  9
$PLIMCHECK
 70
     0
  9
$PEXTMIN
 10
-774.10312634584443
 20
-14.62650078370908
 30
0.0
  9
$PEXTMAX
 10
65.896873654155556
 20
579.37349921629095
 30
0.0
  9
$PLIMMIN
 10
0.0
 20
0.0
  9
$PLIMMAX
 10
420.0
 20
297.0
  9
$UNITMODE
 70
     0
  9
$VISRETAIN
 70
     0
  9
$PLINEGEN
 70
     0
  9
$PSLTSCALE
 70
     1
  0
ENDSEC
  0
SECTION
  2
TABLES
  0
TABLE
  2
VPORT
 70
     2
  0
VPORT
  2
*ACTIVE
 70
     0
 10
0.0
 20
0.0
 11
1.0
 21
1.0
 12
397.36955125412521
 22
13.710746028497651
 13
0.0
 23
0.0
 14
10.0
 24
10.0
 15
10.0
 25
10.0
 16
0.0
 26
0.0
 36
1.0
 17
-185.36971790085821
 27
113.6400907713027
 37
-48.89407963265365
 40
281.15646998088869
 41
1.5205479452054791
 42
50.0
 43
0.0
 44
0.0
 50
0.0
 51
0.0
 71
     0
 72
   500
 73
     1
 74
     1
 75
     0
 76
     0
 77
     0
 78
     0
  0
ENDTAB
  0
TABLE
  2
LTYPE
 70
     3
  0
LTYPE
  2
CONTINUOUS
 70
     0
  3
Solid line
 72
    65
 73
     0
 40
0.0
  0
LTYPE
  2
HIDDEN
 70
     0
  3
__ __ __ __ __ __ __ __ __ __ __ __ __ __ __ __
 72
    65
 73
     2
 40
0.375
 49
0.25
 49
-0.125
  0
LTYPE
  2
CENTER
 70
     0
  3
____ _ ____ _ ____ _ ____ _ ____ _ ____ _ ____ 
 72
    65
 73
     4
 40
2.0
 49
1.25
 49
-0.25
 49
0.25
 49
-0.25
  0
ENDTAB
  0
TABLE
  2
LAYER
 70
     4
  0
LAYER
  2
0
 70
     0
 62
     7
  6
CONTINUOUS
  0
LAYER
  2
L2
 70
     0
 62
     1
  6
HIDDEN
  0
LAYER
  2
L1
 70
     0
 62
     7
  6
CONTINUOUS
  0
LAYER
  2
L6
 70
     0
 62
     1
  6
CENTER
  0
ENDTAB
  0
TABLE
  2
STYLE
 70
     2
  0
STYLE
  2
STANDARD
 70
     0
 40
0.0
 41
1.0
 50
0.0
 71
     0
 42
2.5
  3
ISOCP
  4

  0
STYLE
  2
SIMPLEX
 70
     0
 40
0.0
 41
0.8
 50
0.0
 71
     0
 42
2.5
  3
SIMPLEX.SHX
  4

  0
ENDTAB
  0
TABLE
  2
VIEW
 70
     0
  0
ENDTAB
  0
TABLE
  2
UCS
 70
     0
  0
ENDTAB
  0
TABLE
  2
APPID
 70
     6
  0
APPID
  2
ACAD
 70
     0
  0
APPID
  2
MCAD_NO_VIS
 70
     0
  0
APPID
  2
AD_DRAW
 70
     0
  0
APPID
  2
DESIGNERASSEMBLIES
 70
     0
  0
APPID
  2
ASURF_PCURVE_APPNAME
 70
     0
  0
APPID
  2
CONTENTBLOCKICON
 70
     0
  0
ENDTAB
  0
TABLE
  2
DIMSTYLE
 70
     1
  0
DIMSTYLE
  2
FIBOX
 70
     0
  3

  4

  5

  6

  7

 40
1.0
 41
3.5
 42
0.1
 43
0.38
 44
0.18
 45
0.0
 46
0.0
 47
0.0
 48
0.0
140
3.5
141
1.0
142
0.0
143
25.399999999999999
144
1.0
145
0.0
146
1.0
147
1.0
 71
     0
 72
     0
 73
     0
 74
     0
 75
     0
 76
     0
 77
     1
 78
     8
170
     0
171
     2
172
     1
173
     0
174
     0
175
     0
176
     1
177
     1
178
     3
  0
ENDTAB
  0
ENDSEC
  0
SECTION
  2
BLOCKS
  0
BLOCK
  8
0
  2
$MODEL_SPACE
 70
     0
 10
0.0
 20
0.0
 30
0.0
  3
$MODEL_SPACE
  1

  0
ENDBLK
  5
7
  8
0
  0
BLOCK
 67
     1
  8
0
  2
$PAPER_SPACE
 70
     0
 10
0.0
 20
0.0
 30
0.0
  3
$PAPER_SPACE
  1

  0
ENDBLK
  5
A
 67
     1
  8
0
  0
BLOCK
  8
0
  2
B
 70
     0
 10
0.0
 20
0.0
 30
0.0
  3
B
  1

  0
LINE
  5
1922
  8
L6
 10
0.0
 20
73.610113253966546
 30
0.0
 11
0.0
 21
-73.610113253966489
 31
0.0
  0
LINE
  5
1923
  8
L1
 10
-65.012304130909115
 20
61.517100759268232
 30
0.0
 11
-65.012304130909115
 21
-61.517100759268182
 31
0.0
  0
LINE
  5
1924
  8
L1
 10
-62.249999999999879
 20
47.650102802507341
 30
0.0
 11
-62.249999999999879
 21
-47.650102802507341
 31
0.0
  0
LINE
  5
1925
  8
L1
 10
-64.29302410022467
 20
-61.556999999999988
 30
0.0
 11
-64.29302410022467
 21
61.556999999999988
 31
0.0
  0
LINE
  5
1926
  8
L1
 10
-63.450000000000159
 20
47.149999999999999
 30
0.0
 11
-63.450000000000159
 21
-47.149999999999949
 31
0.0
  0
LINE
  5
1927
  8
L1
 10
63.450000000000102
 20
47.149999999999999
 30
0.0
 11
63.450000000000102
 21
-47.149999999999949
 31
0.0
  0
LINE
  5
1928
  8
L1
 10
64.293024100224713
 20
-61.556999999999988
 30
0.0
 11
64.293024100224713
 21
61.556999999999988
 31
0.0
  0
LINE
  5
1929
  8
L1
 10
62.249999999999943
 20
47.650102802507341
 30
0.0
 11
62.249999999999943
 21
-47.650102802507341
 31
0.0
  0
LINE
  5
192A
  8
L1
 10
65.012304130909115
 20
61.517100759268232
 30
0.0
 11
65.012304130909115
 21
-61.517100759268182
 31
0.0
  0
LINE
  5
192B
  8
L6
 10
-73.61011325396646
 20
0.0
 30
0.0
 11
73.610113253966517
 21
0.0
 31
0.0
  0
LINE
  5
192C
  8
L1
 10
-61.517100759268139
 20
-65.0123041309092
 30
0.0
 11
61.517100759268089
 21
-65.0123041309092
 31
0.0
  0
LINE
  5
192D
  8
L1
 10
-47.650102802507369
 20
-62.250000000000078
 30
0.0
 11
47.650102802507369
 21
-62.250000000000078
 31
0.0
  0
LINE
  5
192E
  8
L1
 10
61.556999999999952
 20
-64.293024100224855
 30
0.0
 11
-61.557000000000023
 21
-64.293024100224855
 31
0.0
  0
LINE
  5
192F
  8
L1
 10
-47.149999999999977
 20
-63.450000000000131
 30
0.0
 11
47.150000000000027
 21
-63.450000000000131
 31
0.0
  0
ARC
  5
1930
  8
L1
 10
-56.75
 20
-56.750000000000028
 30
0.0
 40
5.7825462644184809
 50
208.59856268375449
 51
241.40143731624431
  0
ARC
  5
1931
  8
L1
 10
-61.450000000000159
 20
-61.450000000000131
 30
0.0
 40
2.0000000000000151
 50
135.0
 51
314.99999999999937
  0
LINE
  5
1932
  8
L1
 10
-56.75
 20
-47.94999999999996
 30
0.0
 11
-61.950102802507331
 21
-47.94999999999996
 31
0.0
  0
LINE
  5
1933
  8
L1
 10
-57.933199846221548
 20
-50.862132034355987
 30
0.0
 11
-62.78089206586867
 21
-55.709824254003159
 31
0.0
  0
LINE
  5
1934
  8
L1
 10
-61.744319480509027
 20
-56.511729299728621
 30
0.0
 11
-56.988270700271407
 21
-51.755680519490987
 31
0.0
  0
ARC
  5
1935
  8
L1
 10
-60.250000000000107
 20
-47.149999999999999
 30
0.0
 40
3.200000000000085
 50
198.02065930516079
 51
270.0
  0
LINE
  5
1936
  8
L1
 10
-63.29302410022467
 20
-55.497692219647291
 30
0.0
 11
-63.29302410022467
 21
-48.139951678342491
 31
0.0
  0
ARC
  5
1937
  8
L1
 10
-61.556999999999903
 20
-61.556999999999988
 30
0.0
 40
2.7360241002247649
 50
180.0
 51
270.0
  0
POLYLINE
  5
1938
  8
L1
 66
     1
 10
0.0
 20
0.0
 30
0.0
  0
VERTEX
  5
1D28
  8
L1
 10
-61.556999999999903
 20
-65.012088437774153
 30
0.0
  0
VERTEX
  5
1D29
  8
L1
 10
-62.218787602445332
 20
-64.94171439011447
 30
0.0
  0
VERTEX
  5
1D2A
  8
L1
 10
-62.873772386241058
 20
-64.739585002002485
 30
0.0
  0
VERTEX
  5
1D2B
  8
L1
 10
-63.476619230896063
 20
-64.41344075018614
 30
0.0
  0
VERTEX
  5
1D2C
  8
L1
 10
-63.989929119073743
 20
-63.989929119073601
 30
0.0
  0
VERTEX
  5
1D2D
  8
L1
 10
-64.413440750186055
 20
-63.476619230896027
 30
0.0
  0
VERTEX
  5
1D2E
  8
L1
 10
-64.739585002002386
 20
-62.873772386240972
 30
0.0
  0
VERTEX
  5
1D2F
  8
L1
 10
-64.941714390114271
 20
-62.218787602445303
 30
0.0
  0
VERTEX
  5
1D30
  8
L1
 10
-65.012088437773969
 20
-61.556999999999988
 30
0.0
  0
SEQEND
  5
1D31
  8
L1
  0
POLYLINE
  5
1939
  8
L1
 66
     1
 10
0.0
 20
0.0
 30
0.0
  0
VERTEX
  5
1D32
  8
L1
 10
-61.517100759268139
 20
-65.0123041309092
 30
0.0
  0
VERTEX
  5
1D33
  8
L1
 10
-61.537048032038122
 20
-65.012250207188885
 30
0.0
  0
VERTEX
  5
1D34
  8
L1
 10
-61.556999999999903
 20
-65.012088437774153
 30
0.0
  0
SEQEND
  5
1D35
  8
L1
  0
POLYLINE
  5
193A
  8
L1
 66
     1
 10
0.0
 20
0.0
 30
0.0
  0
VERTEX
  5
1D36
  8
L1
 10
-65.012088437773969
 20
-61.556999999999988
 30
0.0
  0
VERTEX
  5
1D37
  8
L1
 10
-65.012250207188686
 20
-61.537048032038257
 30
0.0
  0
VERTEX
  5
1D38
  8
L1
 10
-65.012304130909115
 20
-61.517100759268232
 30
0.0
  0
SEQEND
  5
1D39
  8
L1
  0
POLYLINE
  5
193B
  8
L1
 66
     1
 10
0.0
 20
0.0
 30
0.0
  0
VERTEX
  5
1D3A
  8
L1
 10
-61.99706518273922
 20
-59.168638057993007
 30
0.0
  0
VERTEX
  5
1D3B
  8
L1
 10
-61.958734697983573
 20
-59.257634950925222
 30
0.0
  0
VERTEX
  5
1D3C
  8
L1
 10
-61.929433388861412
 20
-59.319510791076333
 30
0.0
  0
VERTEX
  5
1D3D
  8
L1
 10
-61.88345623753105
 20
-59.411418219001881
 30
0.0
  0
VERTEX
  5
1D3E
  8
L1
 10
-61.827415601628331
 20
-59.517253515034753
 30
0.0
  0
VERTEX
  5
1D3F
  8
L1
 10
-61.827046612410641
 20
-59.517930453524883
 30
0.0
  0
SEQEND
  5
1D40
  8
L1
  0
LINE
  5
193C
  8
L1
 10
-62.864213562373259
 20
-60.035786437627017
 30
0.0
 11
-61.404583911576992
 21
-58.576156786830808
 31
0.0
  0
ARC
  5
193D
  8
L1
 10
-56.75
 20
-56.750000000000028
 30
0.0
 40
4.9999999999999849
 50
177.2685844295726
 51
201.42182152179751
  0
ARC
  5
193E
  8
L1
 10
-62.993024100224602
 20
-55.497692219647291
 30
0.0
 40
0.3000000000000145
 50
180.0
 51
315.0
  0
ARC
  5
193F
  8
L1
 10
-60.250000000000107
 20
-47.149999999999999
 30
0.0
 40
3.200000000000085
 50
180.0
 51
198.02065930516079
  0
POLYLINE
  5
1940
  8
L1
 66
     1
 10
0.0
 20
0.0
 30
0.0
  0
VERTEX
  5
1D41
  8
L1
 10
-61.950102802507331
 20
-47.95000000000001
 30
0.0
  0
VERTEX
  5
1D42
  8
L1
 10
-62.162174606235681
 20
-47.862174606235698
 30
0.0
  0
VERTEX
  5
1D43
  8
L1
 10
-62.25
 20
-47.650102802507341
 30
0.0
  0
SEQEND
  5
1D44
  8
L1
  0
LINE
  5
1941
  8
L1
 10
-49.723178268028157
 20
-51.066087514092906
 30
0.0
 11
-48.796695169241609
 21
-49.961947952636223
 31
0.0
  0
ARC
  5
1942
  8
L1
 10
-58.145331880577373
 20
-50.650000000000063
 30
0.0
 40
0.3000000000000001
 50
315.00000000000398
 51
90.0
  0
ARC
  5
1943
  8
L1
 10
-56.750000000000107
 20
-56.750000000000078
 30
0.0
 40
6.3999999999999941
 50
0.0
 51
90.00000000000081
  0
LINE
  5
1944
  8
L1
 10
-47.949999999999932
 20
-61.950102802507359
 30
0.0
 11
-47.949999999999932
 21
-56.749999999999858
 31
0.0
  0
ARC
  5
1945
  8
L1
 10
-47.149999999999977
 20
-60.250000000000092
 30
0.0
 40
3.2000000000000282
 50
180.0
 51
251.97934069484711
  0
POLYLINE
  5
1946
  8
L1
 66
     1
 10
0.0
 20
0.0
 30
0.0
  0
VERTEX
  5
1D45
  8
L1
 10
-59.517930453524968
 20
-61.827046612410612
 30
0.0
  0
VERTEX
  5
1D46
  8
L1
 10
-59.517253515034781
 20
-61.82741560162836
 30
0.0
  0
VERTEX
  5
1D47
  8
L1
 10
-59.41141821900203
 20
-61.883456237531021
 30
0.0
  0
VERTEX
  5
1D48
  8
L1
 10
-59.319510791076368
 20
-61.92943338886144
 30
0.0
  0
VERTEX
  5
1D49
  8
L1
 10
-59.257634950925308
 20
-61.958734697983537
 30
0.0
  0
VERTEX
  5
1D4A
  8
L1
 10
-59.16863805799278
 20
-61.997065182739021
 30
0.0
  0
SEQEND
  5
1D4B
  8
L1
  0
LINE
  5
1947
  8
L1
 10
-58.576156786830893
 20
-61.404583911577021
 30
0.0
 11
-60.035786437627053
 21
-62.86421356237323
 31
0.0
  0
LINE
  5
1948
  8
L1
 10
-55.709824254003252
 20
-62.780892065868812
 30
0.0
 11
-50.862132034356023
 21
-57.933199846221527
 31
0.0
  0
LINE
  5
1949
  8
L1
 10
-48.139951678342072
 20
-63.293024100224748
 30
0.0
 11
-55.49769221964732
 21
-63.293024100224748
 31
0.0
  0
ARC
  5
194A
  8
L1
 10
-55.49769221964732
 20
-62.993024100224737
 30
0.0
 40
0.3000000000000114
 50
134.9999999999925
 51
270.0
  0
ARC
  5
194B
  8
L1
 10
-47.149999999999977
 20
-60.250000000000092
 30
0.0
 40
3.2000000000000282
 50
251.97934069484711
 51
270.0
  0
POLYLINE
  5
194C
  8
L1
 66
     1
 10
0.0
 20
0.0
 30
0.0
  0
VERTEX
  5
1D4C
  8
L1
 10
-47.650102802507369
 20
-62.250000000000028
 30
0.0
  0
VERTEX
  5
1D4D
  8
L1
 10
-47.862174606235719
 20
-62.162174606235759
 30
0.0
  0
VERTEX
  5
1D4E
  8
L1
 10
-47.950000000000038
 20
-61.950102802507359
 30
0.0
  0
SEQEND
  5
1D4F
  8
L1
  0
LINE
  5
194D
  8
L1
 10
-51.755680519490959
 20
-56.988270700271492
 30
0.0
 11
-56.511729299728579
 21
-61.74431948050912
 31
0.0
  0
ARC
  5
194E
  8
L1
 10
-56.75
 20
-56.750000000000028
 30
0.0
 40
4.9999999999999849
 50
357.26858442957098
 51
92.731415570427373
  0
ARC
  5
194F
  8
L1
 10
-56.75
 20
-56.750000000000028
 30
0.0
 40
4.9999999999999849
 50
248.57817847820141
 51
272.73141557042732
  0
LINE
  5
1950
  8
L1
 10
-56.750000000000107
 20
-50.350000000000101
 30
0.0
 11
-58.145331880577373
 21
-50.350000000000101
 31
0.0
  0
LINE
  5
1951
  8
L1
 10
-58.145331880577373
 20
-50.350000000000101
 30
0.0
 11
-60.250000000000107
 21
-50.350000000000101
 31
0.0
  0
ARC
  5
1952
  8
L1
 10
-56.75
 20
-56.749999999999858
 30
0.0
 40
8.8000000000000007
 50
0.0
 51
37.114862455074281
  0
LINE
  5
1953
  8
L1
 10
-50.350000000000023
 20
-60.250000000000092
 30
0.0
 11
-50.350000000000023
 21
-58.145331880577459
 31
0.0
  0
ARC
  5
1954
  8
L1
 10
-50.64999999999997
 20
-58.145331880577459
 30
0.0
 40
0.2999999999999944
 50
0.0
 51
134.9999999999965
  0
LINE
  5
1955
  8
L1
 10
-50.350000000000023
 20
-58.145331880577459
 30
0.0
 11
-50.350000000000023
 21
-56.750000000000078
 31
0.0
  0
POLYLINE
  5
1956
  8
L1
 66
     1
 10
0.0
 20
0.0
 30
0.0
  0
VERTEX
  5
1D50
  8
L1
 10
-49.732638610900267
 20
-51.439949234256432
 30
0.0
  0
VERTEX
  5
1D51
  8
L1
 10
-49.773907242476177
 20
-51.365315670871922
 30
0.0
  0
VERTEX
  5
1D52
  8
L1
 10
-49.793263852058203
 20
-51.25022543024042
 30
0.0
  0
VERTEX
  5
1D53
  8
L1
 10
-49.766179973376317
 20
-51.134122856952132
 30
0.0
  0
VERTEX
  5
1D54
  8
L1
 10
-49.723178268028157
 20
-51.066087514092906
 30
0.0
  0
SEQEND
  5
1D55
  8
L1
  0
ARC
  5
1957
  8
L1
 10
-56.75
 20
-56.749999999999858
 30
0.0
 40
8.8000000000000007
 50
52.885137544925207
 51
90.0
  0
POLYLINE
  5
1958
  8
L1
 66
     1
 10
0.0
 20
0.0
 30
0.0
  0
VERTEX
  5
1D56
  8
L1
 10
-51.066087514092942
 20
-49.723178268028249
 30
0.0
  0
VERTEX
  5
1D57
  8
L1
 10
-51.141003878231679
 20
-49.769225045624779
 30
0.0
  0
VERTEX
  5
1D58
  8
L1
 10
-51.255262207134251
 20
-49.793368462534289
 30
0.0
  0
VERTEX
  5
1D59
  8
L1
 10
-51.372346610474779
 20
-49.771139411701341
 30
0.0
  0
VERTEX
  5
1D5A
  8
L1
 10
-51.43994923425646
 20
-49.732638610900239
 30
0.0
  0
SEQEND
  5
1D5B
  8
L1
  0
POLYLINE
  5
1959
  8
L1
 66
     1
 10
0.0
 20
0.0
 30
0.0
  0
VERTEX
  5
1D5C
  8
L1
 10
-49.961947952636251
 20
-48.796695169241588
 30
0.0
  0
VERTEX
  5
1D5D
  8
L1
 10
-49.756033631138962
 20
-48.726795248333787
 30
0.0
  0
VERTEX
  5
1D5E
  8
L1
 10
-49.556995055326979
 20
-48.814375794571639
 30
0.0
  0
SEQEND
  5
1D5F
  8
L1
  0
LINE
  5
195A
  8
L1
 10
-49.961947952636251
 20
-48.796695169241588
 30
0.0
 11
-51.066087514092942
 21
-49.723178268028192
 31
0.0
  0
POLYLINE
  5
195B
  8
L1
 66
     1
 10
0.0
 20
0.0
 30
0.0
  0
VERTEX
  5
1D60
  8
L1
 10
-48.814375794571667
 20
-49.556995055326951
 30
0.0
  0
VERTEX
  5
1D61
  8
L1
 10
-48.726795248333808
 20
-49.756033631138941
 30
0.0
  0
VERTEX
  5
1D62
  8
L1
 10
-48.796695169241609
 20
-49.961947952636223
 30
0.0
  0
SEQEND
  5
1D63
  8
L1
  0
LINE
  5
195C
  8
L1
 10
-48.814375794571667
 20
-49.556995055326951
 30
0.0
 11
-49.556995055326858
 21
-48.814375794571639
 31
0.0
  0
ARC
  5
195D
  8
L1
 10
60.25000000000005
 20
-47.149999999999999
 30
0.0
 40
3.200000000000085
 50
270.0
 51
341.9793406948391
  0
ARC
  5
195E
  8
L1
 10
58.14533188057743
 20
-50.650000000000063
 30
0.0
 40
0.3000000000000001
 50
90.0
 51
224.99999999999599
  0
LINE
  5
195F
  8
L1
 10
63.293024100224613
 20
-55.497692219647291
 30
0.0
 11
63.293024100224613
 21
-48.139951678342491
 31
0.0
  0
LINE
  5
1960
  8
L1
 10
49.723178268028221
 20
-51.066087514092906
 30
0.0
 11
48.796695169241609
 21
-49.961947952636223
 31
0.0
  0
ARC
  5
1961
  8
L1
 10
56.750000000000057
 20
-56.750000000000078
 30
0.0
 40
6.3999999999999941
 50
89.999999999999204
 51
180.0
  0
LINE
  5
1962
  8
L1
 10
51.755680519490959
 20
-56.988270700271492
 30
0.0
 11
56.511729299728579
 21
-61.74431948050912
 31
0.0
  0
LINE
  5
1963
  8
L1
 10
48.139951678342008
 20
-63.293024100224748
 30
0.0
 11
55.49769221964732
 21
-63.293024100224748
 31
0.0
  0
LINE
  5
1964
  8
L1
 10
55.709824254003252
 20
-62.780892065868812
 30
0.0
 11
50.862132034355973
 21
-57.933199846221527
 31
0.0
  0
ARC
  5
1965
  8
L1
 10
56.75
 20
-56.750000000000028
 30
0.0
 40
4.9999999999999849
 50
87.268584429572627
 51
182.73141557042891
  0
ARC
  5
1966
  8
L1
 10
47.150000000000027
 20
-60.250000000000092
 30
0.0
 40
3.2000000000000282
 50
288.02065930515289
 51
0.0
  0
LINE
  5
1967
  8
L1
 10
47.949999999999989
 20
-61.950102802507359
 30
0.0
 11
47.949999999999989
 21
-56.749999999999858
 31
0.0
  0
POLYLINE
  5
1968
  8
L1
 66
     1
 10
0.0
 20
0.0
 30
0.0
  0
VERTEX
  5
1D64
  8
L1
 10
47.650102802507369
 20
-62.250000000000028
 30
0.0
  0
VERTEX
  5
1D65
  8
L1
 10
47.862174606235783
 20
-62.162174606235759
 30
0.0
  0
VERTEX
  5
1D66
  8
L1
 10
47.950000000000038
 20
-61.950102802507359
 30
0.0
  0
SEQEND
  5
1D67
  8
L1
  0
ARC
  5
1969
  8
L1
 10
47.150000000000027
 20
-60.250000000000092
 30
0.0
 40
3.2000000000000282
 50
270.0
 51
288.02065930515289
  0
ARC
  5
196A
  8
L1
 10
56.75
 20
-56.749999999999858
 30
0.0
 40
8.8000000000000007
 50
142.8851375449257
 51
180.0
  0
ARC
  5
196B
  8
L1
 10
50.650000000000027
 20
-58.145331880577459
 30
0.0
 40
0.2999999999999944
 50
45.000000000003453
 51
180.0
  0
LINE
  5
196C
  8
L1
 10
50.350000000000023
 20
-58.145331880577459
 30
0.0
 11
50.350000000000023
 21
-56.750000000000078
 31
0.0
  0
LINE
  5
196D
  8
L1
 10
50.350000000000023
 20
-60.250000000000092
 30
0.0
 11
50.350000000000023
 21
-58.145331880577459
 31
0.0
  0
POLYLINE
  5
196E
  8
L1
 66
     1
 10
0.0
 20
0.0
 30
0.0
  0
VERTEX
  5
1D68
  8
L1
 10
49.732638610900267
 20
-51.439949234256432
 30
0.0
  0
VERTEX
  5
1D69
  8
L1
 10
49.773907242476177
 20
-51.365315670871922
 30
0.0
  0
VERTEX
  5
1D6A
  8
L1
 10
49.793263852058203
 20
-51.25022543024042
 30
0.0
  0
VERTEX
  5
1D6B
  8
L1
 10
49.766179973376381
 20
-51.134122856952132
 30
0.0
  0
VERTEX
  5
1D6C
  8
L1
 10
49.723178268028157
 20
-51.066087514092906
 30
0.0
  0
SEQEND
  5
1D6D
  8
L1
  0
ARC
  5
196F
  8
L1
 10
61.450000000000102
 20
-61.450000000000131
 30
0.0
 40
2.0000000000000151
 50
225.0000000000006
 51
45.0
  0
POLYLINE
  5
1970
  8
L1
 66
     1
 10
0.0
 20
0.0
 30
0.0
  0
VERTEX
  5
1D6E
  8
L1
 10
61.556999999999952
 20
-65.012088437774153
 30
0.0
  0
VERTEX
  5
1D6F
  8
L1
 10
62.218787602445389
 20
-64.94171439011447
 30
0.0
  0
VERTEX
  5
1D70
  8
L1
 10
62.873772386241058
 20
-64.739585002002485
 30
0.0
  0
VERTEX
  5
1D71
  8
L1
 10
63.476619230896119
 20
-64.41344075018614
 30
0.0
  0
VERTEX
  5
1D72
  8
L1
 10
63.989929119073679
 20
-63.989929119073601
 30
0.0
  0
VERTEX
  5
1D73
  8
L1
 10
64.413440750186055
 20
-63.476619230896027
 30
0.0
  0
VERTEX
  5
1D74
  8
L1
 10
64.739585002002386
 20
-62.873772386240972
 30
0.0
  0
VERTEX
  5
1D75
  8
L1
 10
64.941714390114271
 20
-62.218787602445303
 30
0.0
  0
VERTEX
  5
1D76
  8
L1
 10
65.012088437774025
 20
-61.556999999999988
 30
0.0
  0
SEQEND
  5
1D77
  8
L1
  0
ARC
  5
1971
  8
L1
 10
61.556999999999952
 20
-61.556999999999988
 30
0.0
 40
2.7360241002247649
 50
270.0
 51
0.0
  0
LINE
  5
1972
  8
L1
 10
58.576156786830829
 20
-61.404583911577021
 30
0.0
 11
60.035786437627053
 21
-62.86421356237323
 31
0.0
  0
ARC
  5
1973
  8
L1
 10
56.75
 20
-56.750000000000028
 30
0.0
 40
5.7825462644184809
 50
298.59856268375557
 51
331.40143731624539
  0
POLYLINE
  5
1974
  8
L1
 66
     1
 10
0.0
 20
0.0
 30
0.0
  0
VERTEX
  5
1D78
  8
L1
 10
59.517930453524968
 20
-61.827046612410612
 30
0.0
  0
VERTEX
  5
1D79
  8
L1
 10
59.517253515034781
 20
-61.82741560162836
 30
0.0
  0
VERTEX
  5
1D7A
  8
L1
 10
59.411418219001973
 20
-61.883456237531021
 30
0.0
  0
VERTEX
  5
1D7B
  8
L1
 10
59.319510791076368
 20
-61.92943338886144
 30
0.0
  0
VERTEX
  5
1D7C
  8
L1
 10
59.257634950925251
 20
-61.958734697983537
 30
0.0
  0
VERTEX
  5
1D7D
  8
L1
 10
59.168638057992837
 20
-61.997065182739021
 30
0.0
  0
SEQEND
  5
1D7E
  8
L1
  0
ARC
  5
1975
  8
L1
 10
55.49769221964732
 20
-62.993024100224737
 30
0.0
 40
0.3000000000000114
 50
270.0
 51
45.000000000007482
  0
POLYLINE
  5
1976
  8
L1
 66
     1
 10
0.0
 20
0.0
 30
0.0
  0
VERTEX
  5
1D7F
  8
L1
 10
61.517100759268089
 20
-65.0123041309092
 30
0.0
  0
VERTEX
  5
1D80
  8
L1
 10
61.537048032038172
 20
-65.012250207188885
 30
0.0
  0
VERTEX
  5
1D81
  8
L1
 10
61.556999999999952
 20
-65.012088437774153
 30
0.0
  0
SEQEND
  5
1D82
  8
L1
  0
LINE
  5
1977
  8
L1
 10
62.864213562373209
 20
-60.035786437627017
 30
0.0
 11
61.404583911576992
 21
-58.576156786830808
 31
0.0
  0
ARC
  5
1978
  8
L1
 10
62.993024100224602
 20
-55.497692219647291
 30
0.0
 40
0.3000000000000145
 50
225.0
 51
0.0
  0
LINE
  5
1979
  8
L1
 10
61.744319480509027
 20
-56.511729299728621
 30
0.0
 11
56.988270700271407
 21
-51.755680519490987
 31
0.0
  0
ARC
  5
197A
  8
L1
 10
56.75
 20
-56.750000000000028
 30
0.0
 40
4.9999999999999849
 50
267.26858442957263
 51
291.42182152179851
  0
POLYLINE
  5
197B
  8
L1
 66
     1
 10
0.0
 20
0.0
 30
0.0
  0
VERTEX
  5
1D83
  8
L1
 10
61.99706518273927
 20
-59.168638057993007
 30
0.0
  0
VERTEX
  5
1D84
  8
L1
 10
61.958734697983573
 20
-59.257634950925222
 30
0.0
  0
VERTEX
  5
1D85
  8
L1
 10
61.929433388861348
 20
-59.319510791076333
 30
0.0
  0
VERTEX
  5
1D86
  8
L1
 10
61.88345623753105
 20
-59.411418219001881
 30
0.0
  0
VERTEX
  5
1D87
  8
L1
 10
61.827415601628381
 20
-59.517253515034753
 30
0.0
  0
VERTEX
  5
1D88
  8
L1
 10
61.827046612410641
 20
-59.517930453524883
 30
0.0
  0
SEQEND
  5
1D89
  8
L1
  0
ARC
  5
197C
  8
L1
 10
56.75
 20
-56.750000000000028
 30
0.0
 40
4.9999999999999849
 50
338.5781784782024
 51
2.7314155704273362
  0
LINE
  5
197D
  8
L1
 10
58.14533188057743
 20
-50.350000000000101
 30
0.0
 11
60.25000000000005
 21
-50.350000000000101
 31
0.0
  0
LINE
  5
197E
  8
L1
 10
57.933199846221498
 20
-50.862132034355987
 30
0.0
 11
62.780892065868727
 21
-55.709824254003159
 31
0.0
  0
LINE
  5
197F
  8
L1
 10
56.750000000000057
 20
-50.350000000000101
 30
0.0
 11
58.14533188057743
 21
-50.350000000000101
 31
0.0
  0
POLYLINE
  5
1980
  8
L1
 66
     1
 10
0.0
 20
0.0
 30
0.0
  0
VERTEX
  5
1D8A
  8
L1
 10
65.012088437774025
 20
-61.556999999999988
 30
0.0
  0
VERTEX
  5
1D8B
  8
L1
 10
65.012250207188742
 20
-61.537048032038257
 30
0.0
  0
VERTEX
  5
1D8C
  8
L1
 10
65.012304130909115
 20
-61.517100759268232
 30
0.0
  0
SEQEND
  5
1D8D
  8
L1
  0
ARC
  5
1981
  8
L1
 10
56.75
 20
-56.749999999999858
 30
0.0
 40
8.8000000000000007
 50
90.0
 51
127.1148624550747
  0
LINE
  5
1982
  8
L1
 10
49.961947952636187
 20
-48.796695169241588
 30
0.0
 11
51.066087514092942
 21
-49.723178268028192
 31
0.0
  0
LINE
  5
1983
  8
L1
 10
48.814375794571667
 20
-49.556995055326951
 30
0.0
 11
49.556995055326922
 21
-48.814375794571639
 31
0.0
  0
POLYLINE
  5
1984
  8
L1
 66
     1
 10
0.0
 20
0.0
 30
0.0
  0
VERTEX
  5
1D8E
  8
L1
 10
48.814375794571617
 20
-49.556995055326951
 30
0.0
  0
VERTEX
  5
1D8F
  8
L1
 10
48.726795248333758
 20
-49.756033631138941
 30
0.0
  0
VERTEX
  5
1D90
  8
L1
 10
48.796695169241559
 20
-49.961947952636223
 30
0.0
  0
SEQEND
  5
1D91
  8
L1
  0
POLYLINE
  5
1985
  8
L1
 66
     1
 10
0.0
 20
0.0
 30
0.0
  0
VERTEX
  5
1D92
  8
L1
 10
49.961947952636251
 20
-48.796695169241588
 30
0.0
  0
VERTEX
  5
1D93
  8
L1
 10
49.756033631138962
 20
-48.726795248333787
 30
0.0
  0
VERTEX
  5
1D94
  8
L1
 10
49.556995055326979
 20
-48.814375794571639
 30
0.0
  0
SEQEND
  5
1D95
  8
L1
  0
POLYLINE
  5
1986
  8
L1
 66
     1
 10
0.0
 20
0.0
 30
0.0
  0
VERTEX
  5
1D96
  8
L1
 10
51.066087514092942
 20
-49.723178268028249
 30
0.0
  0
VERTEX
  5
1D97
  8
L1
 10
51.141003878231679
 20
-49.769225045624779
 30
0.0
  0
VERTEX
  5
1D98
  8
L1
 10
51.255262207134187
 20
-49.793368462534289
 30
0.0
  0
VERTEX
  5
1D99
  8
L1
 10
51.372346610474779
 20
-49.771139411701341
 30
0.0
  0
VERTEX
  5
1D9A
  8
L1
 10
51.43994923425641
 20
-49.732638610900239
 30
0.0
  0
SEQEND
  5
1D9B
  8
L1
  0
LINE
  5
1987
  8
L1
 10
56.75
 20
-47.94999999999996
 30
0.0
 11
61.950102802507331
 21
-47.94999999999996
 31
0.0
  0
POLYLINE
  5
1988
  8
L1
 66
     1
 10
0.0
 20
0.0
 30
0.0
  0
VERTEX
  5
1D9C
  8
L1
 10
61.950102802507331
 20
-47.95000000000001
 30
0.0
  0
VERTEX
  5
1D9D
  8
L1
 10
62.162174606235737
 20
-47.862174606235698
 30
0.0
  0
VERTEX
  5
1D9E
  8
L1
 10
62.25
 20
-47.650102802507341
 30
0.0
  0
SEQEND
  5
1D9F
  8
L1
  0
ARC
  5
1989
  8
L1
 10
60.25000000000005
 20
-47.149999999999999
 30
0.0
 40
3.200000000000085
 50
341.9793406948391
 51
0.0
  0
LINE
  5
198A
  8
L1
 10
-47.149999999999977
 20
63.450000000000131
 30
0.0
 11
47.150000000000027
 21
63.450000000000131
 31
0.0
  0
LINE
  5
198B
  8
L1
 10
61.556999999999952
 20
64.293024100224855
 30
0.0
 11
-61.557000000000023
 21
64.293024100224855
 31
0.0
  0
LINE
  5
198C
  8
L1
 10
-47.650102802507369
 20
62.250000000000078
 30
0.0
 11
47.650102802507369
 21
62.250000000000078
 31
0.0
  0
LINE
  5
198D
  8
L1
 10
-61.517100759268139
 20
65.0123041309092
 30
0.0
 11
61.517100759268089
 21
65.0123041309092
 31
0.0
  0
ARC
  5
198E
  8
L1
 10
-61.450000000000159
 20
61.450000000000131
 30
0.0
 40
2.0000000000000151
 50
45.000000000000568
 51
225.0
  0
ARC
  5
198F
  8
L1
 10
-56.75
 20
56.750000000000028
 30
0.0
 40
5.7825462644184809
 50
118.5985626837556
 51
151.40143731624539
  0
ARC
  5
1990
  8
L1
 10
-60.250000000000107
 20
47.149999999999999
 30
0.0
 40
3.200000000000085
 50
90.0
 51
161.9793406948391
  0
LINE
  5
1991
  8
L1
 10
-61.744319480509027
 20
56.511729299728621
 30
0.0
 11
-56.988270700271407
 21
51.755680519490987
 31
0.0
  0
LINE
  5
1992
  8
L1
 10
-57.933199846221548
 20
50.862132034355987
 30
0.0
 11
-62.78089206586867
 21
55.709824254003159
 31
0.0
  0
LINE
  5
1993
  8
L1
 10
-56.75
 20
47.94999999999996
 30
0.0
 11
-61.950102802507331
 21
47.94999999999996
 31
0.0
  0
LINE
  5
1994
  8
L1
 10
-63.29302410022467
 20
55.497692219647291
 30
0.0
 11
-63.29302410022467
 21
48.139951678342491
 31
0.0
  0
POLYLINE
  5
1995
  8
L1
 66
     1
 10
0.0
 20
0.0
 30
0.0
  0
VERTEX
  5
1DA0
  8
L1
 10
-61.950102802507331
 20
47.95000000000001
 30
0.0
  0
VERTEX
  5
1DA1
  8
L1
 10
-62.162174606235681
 20
47.862174606235698
 30
0.0
  0
VERTEX
  5
1DA2
  8
L1
 10
-62.25
 20
47.650102802507341
 30
0.0
  0
SEQEND
  5
1DA3
  8
L1
  0
ARC
  5
1996
  8
L1
 10
-60.250000000000107
 20
47.149999999999999
 30
0.0
 40
3.200000000000085
 50
161.9793406948391
 51
180.0
  0
LINE
  5
1997
  8
L1
 10
-62.864213562373259
 20
60.035786437627017
 30
0.0
 11
-61.404583911576992
 21
58.576156786830808
 31
0.0
  0
POLYLINE
  5
1998
  8
L1
 66
     1
 10
0.0
 20
0.0
 30
0.0
  0
VERTEX
  5
1DA4
  8
L1
 10
-61.99706518273922
 20
59.168638057993007
 30
0.0
  0
VERTEX
  5
1DA5
  8
L1
 10
-61.958734697983573
 20
59.257634950925222
 30
0.0
  0
VERTEX
  5
1DA6
  8
L1
 10
-61.929433388861412
 20
59.319510791076333
 30
0.0
  0
VERTEX
  5
1DA7
  8
L1
 10
-61.88345623753105
 20
59.411418219001881
 30
0.0
  0
VERTEX
  5
1DA8
  8
L1
 10
-61.827415601628331
 20
59.517253515034753
 30
0.0
  0
VERTEX
  5
1DA9
  8
L1
 10
-61.827046612410641
 20
59.517930453524883
 30
0.0
  0
SEQEND
  5
1DAA
  8
L1
  0
ARC
  5
1999
  8
L1
 10
-62.993024100224602
 20
55.497692219647291
 30
0.0
 40
0.3000000000000145
 50
45.0
 51
180.0
  0
ARC
  5
199A
  8
L1
 10
-56.75
 20
56.750000000000028
 30
0.0
 40
4.9999999999999849
 50
158.5781784782024
 51
182.73141557042729
  0
POLYLINE
  5
199B
  8
L1
 66
     1
 10
0.0
 20
0.0
 30
0.0
  0
VERTEX
  5
1DAB
  8
L1
 10
-61.556999999999903
 20
65.012088437774153
 30
0.0
  0
VERTEX
  5
1DAC
  8
L1
 10
-62.218787602445332
 20
64.94171439011447
 30
0.0
  0
VERTEX
  5
1DAD
  8
L1
 10
-62.873772386241058
 20
64.739585002002485
 30
0.0
  0
VERTEX
  5
1DAE
  8
L1
 10
-63.476619230896063
 20
64.41344075018614
 30
0.0
  0
VERTEX
  5
1DAF
  8
L1
 10
-63.989929119073743
 20
63.989929119073601
 30
0.0
  0
VERTEX
  5
1DB0
  8
L1
 10
-64.413440750186055
 20
63.476619230896027
 30
0.0
  0
VERTEX
  5
1DB1
  8
L1
 10
-64.739585002002386
 20
62.873772386240972
 30
0.0
  0
VERTEX
  5
1DB2
  8
L1
 10
-64.941714390114271
 20
62.218787602445303
 30
0.0
  0
VERTEX
  5
1DB3
  8
L1
 10
-65.012088437773969
 20
61.556999999999988
 30
0.0
  0
SEQEND
  5
1DB4
  8
L1
  0
ARC
  5
199C
  8
L1
 10
-61.556999999999903
 20
61.556999999999988
 30
0.0
 40
2.7360241002247649
 50
90.0
 51
180.0
  0
POLYLINE
  5
199D
  8
L1
 66
     1
 10
0.0
 20
0.0
 30
0.0
  0
VERTEX
  5
1DB5
  8
L1
 10
-65.012088437773969
 20
61.556999999999988
 30
0.0
  0
VERTEX
  5
1DB6
  8
L1
 10
-65.012250207188686
 20
61.537048032038257
 30
0.0
  0
VERTEX
  5
1DB7
  8
L1
 10
-65.012304130909115
 20
61.517100759268232
 30
0.0
  0
SEQEND
  5
1DB8
  8
L1
  0
POLYLINE
  5
199E
  8
L1
 66
     1
 10
0.0
 20
0.0
 30
0.0
  0
VERTEX
  5
1DB9
  8
L1
 10
-61.517100759268139
 20
65.0123041309092
 30
0.0
  0
VERTEX
  5
1DBA
  8
L1
 10
-61.537048032038122
 20
65.012250207188885
 30
0.0
  0
VERTEX
  5
1DBB
  8
L1
 10
-61.556999999999903
 20
65.012088437774153
 30
0.0
  0
SEQEND
  5
1DBC
  8
L1
  0
ARC
  5
199F
  8
L1
 10
-56.75
 20
56.749999999999858
 30
0.0
 40
8.8000000000000007
 50
322.88513754492573
 51
0.0
  0
ARC
  5
19A0
  8
L1
 10
-56.750000000000107
 20
56.750000000000078
 30
0.0
 40
6.3999999999999941
 50
269.9999999999992
 51
0.0
  0
ARC
  5
19A1
  8
L1
 10
-56.75
 20
56.750000000000028
 30
0.0
 40
4.9999999999999849
 50
267.26858442957263
 51
2.7314155704289629
  0
ARC
  5
19A2
  8
L1
 10
-56.75
 20
56.749999999999858
 30
0.0
 40
8.8000000000000007
 50
270.0
 51
307.11486245507467
  0
LINE
  5
19A3
  8
L1
 10
-58.145331880577373
 20
50.350000000000101
 30
0.0
 11
-60.250000000000107
 21
50.350000000000101
 31
0.0
  0
ARC
  5
19A4
  8
L1
 10
-58.145331880577373
 20
50.650000000000063
 30
0.0
 40
0.3000000000000001
 50
270.0
 51
44.999999999995971
  0
LINE
  5
19A5
  8
L1
 10
-56.750000000000107
 20
50.350000000000101
 30
0.0
 11
-58.145331880577373
 21
50.350000000000101
 31
0.0
  0
LINE
  5
19A6
  8
L1
 10
-48.814375794571667
 20
49.556995055326951
 30
0.0
 11
-49.556995055326858
 21
48.814375794571639
 31
0.0
  0
LINE
  5
19A7
  8
L1
 10
-49.723178268028157
 20
51.066087514092906
 30
0.0
 11
-48.796695169241609
 21
49.961947952636223
 31
0.0
  0
POLYLINE
  5
19A8
  8
L1
 66
     1
 10
0.0
 20
0.0
 30
0.0
  0
VERTEX
  5
1DBD
  8
L1
 10
-48.814375794571667
 20
49.556995055326951
 30
0.0
  0
VERTEX
  5
1DBE
  8
L1
 10
-48.726795248333808
 20
49.756033631138941
 30
0.0
  0
VERTEX
  5
1DBF
  8
L1
 10
-48.796695169241609
 20
49.961947952636223
 30
0.0
  0
SEQEND
  5
1DC0
  8
L1
  0
LINE
  5
19A9
  8
L1
 10
-49.961947952636251
 20
48.796695169241588
 30
0.0
 11
-51.066087514092942
 21
49.723178268028192
 31
0.0
  0
POLYLINE
  5
19AA
  8
L1
 66
     1
 10
0.0
 20
0.0
 30
0.0
  0
VERTEX
  5
1DC1
  8
L1
 10
-49.961947952636251
 20
48.796695169241588
 30
0.0
  0
VERTEX
  5
1DC2
  8
L1
 10
-49.756033631138962
 20
48.726795248333787
 30
0.0
  0
VERTEX
  5
1DC3
  8
L1
 10
-49.556995055326979
 20
48.814375794571639
 30
0.0
  0
SEQEND
  5
1DC4
  8
L1
  0
POLYLINE
  5
19AB
  8
L1
 66
     1
 10
0.0
 20
0.0
 30
0.0
  0
VERTEX
  5
1DC5
  8
L1
 10
-51.066087514092942
 20
49.723178268028249
 30
0.0
  0
VERTEX
  5
1DC6
  8
L1
 10
-51.141003878231679
 20
49.769225045624779
 30
0.0
  0
VERTEX
  5
1DC7
  8
L1
 10
-51.255262207134251
 20
49.793368462534289
 30
0.0
  0
VERTEX
  5
1DC8
  8
L1
 10
-51.372346610474779
 20
49.771139411701341
 30
0.0
  0
VERTEX
  5
1DC9
  8
L1
 10
-51.43994923425646
 20
49.732638610900239
 30
0.0
  0
SEQEND
  5
1DCA
  8
L1
  0
POLYLINE
  5
19AC
  8
L1
 66
     1
 10
0.0
 20
0.0
 30
0.0
  0
VERTEX
  5
1DCB
  8
L1
 10
-49.732638610900267
 20
51.439949234256432
 30
0.0
  0
VERTEX
  5
1DCC
  8
L1
 10
-49.773907242476177
 20
51.365315670871922
 30
0.0
  0
VERTEX
  5
1DCD
  8
L1
 10
-49.793263852058203
 20
51.25022543024042
 30
0.0
  0
VERTEX
  5
1DCE
  8
L1
 10
-49.766179973376317
 20
51.134122856952132
 30
0.0
  0
VERTEX
  5
1DCF
  8
L1
 10
-49.723178268028157
 20
51.066087514092906
 30
0.0
  0
SEQEND
  5
1DD0
  8
L1
  0
LINE
  5
19AD
  8
L1
 10
-51.755680519490959
 20
56.988270700271492
 30
0.0
 11
-56.511729299728579
 21
61.74431948050912
 31
0.0
  0
LINE
  5
19AE
  8
L1
 10
-48.139951678342072
 20
63.293024100224748
 30
0.0
 11
-55.49769221964732
 21
63.293024100224748
 31
0.0
  0
LINE
  5
19AF
  8
L1
 10
-55.709824254003252
 20
62.780892065868812
 30
0.0
 11
-50.862132034356023
 21
57.933199846221527
 31
0.0
  0
LINE
  5
19B0
  8
L1
 10
-58.576156786830893
 20
61.404583911577021
 30
0.0
 11
-60.035786437627053
 21
62.86421356237323
 31
0.0
  0
POLYLINE
  5
19B1
  8
L1
 66
     1
 10
0.0
 20
0.0
 30
0.0
  0
VERTEX
  5
1DD1
  8
L1
 10
-59.517930453524968
 20
61.827046612410612
 30
0.0
  0
VERTEX
  5
1DD2
  8
L1
 10
-59.517253515034781
 20
61.82741560162836
 30
0.0
  0
VERTEX
  5
1DD3
  8
L1
 10
-59.41141821900203
 20
61.883456237531021
 30
0.0
  0
VERTEX
  5
1DD4
  8
L1
 10
-59.319510791076368
 20
61.92943338886144
 30
0.0
  0
VERTEX
  5
1DD5
  8
L1
 10
-59.257634950925308
 20
61.958734697983537
 30
0.0
  0
VERTEX
  5
1DD6
  8
L1
 10
-59.16863805799278
 20
61.997065182739021
 30
0.0
  0
SEQEND
  5
1DD7
  8
L1
  0
ARC
  5
19B2
  8
L1
 10
-56.75
 20
56.750000000000028
 30
0.0
 40
4.9999999999999849
 50
87.268584429572627
 51
111.42182152179861
  0
ARC
  5
19B3
  8
L1
 10
-55.49769221964732
 20
62.993024100224737
 30
0.0
 40
0.3000000000000114
 50
90.0
 51
225.00000000000739
  0
LINE
  5
19B4
  8
L1
 10
-47.949999999999932
 20
61.950102802507359
 30
0.0
 11
-47.949999999999932
 21
56.749999999999858
 31
0.0
  0
LINE
  5
19B5
  8
L1
 10
-50.350000000000023
 20
60.250000000000092
 30
0.0
 11
-50.350000000000023
 21
58.145331880577459
 31
0.0
  0
LINE
  5
19B6
  8
L1
 10
-50.350000000000023
 20
58.145331880577459
 30
0.0
 11
-50.350000000000023
 21
56.750000000000078
 31
0.0
  0
ARC
  5
19B7
  8
L1
 10
-50.64999999999997
 20
58.145331880577459
 30
0.0
 40
0.2999999999999944
 50
225.00000000000341
 51
0.0
  0
ARC
  5
19B8
  8
L1
 10
-47.149999999999977
 20
60.250000000000092
 30
0.0
 40
3.2000000000000282
 50
90.0
 51
108.0206593051529
  0
ARC
  5
19B9
  8
L1
 10
-47.149999999999977
 20
60.250000000000092
 30
0.0
 40
3.2000000000000282
 50
108.0206593051529
 51
180.0
  0
POLYLINE
  5
19BA
  8
L1
 66
     1
 10
0.0
 20
0.0
 30
0.0
  0
VERTEX
  5
1DD8
  8
L1
 10
-47.650102802507369
 20
62.250000000000028
 30
0.0
  0
VERTEX
  5
1DD9
  8
L1
 10
-47.862174606235719
 20
62.162174606235759
 30
0.0
  0
VERTEX
  5
1DDA
  8
L1
 10
-47.950000000000038
 20
61.950102802507359
 30
0.0
  0
SEQEND
  5
1DDB
  8
L1
  0
LINE
  5
19BB
  8
L1
 10
48.139951678342008
 20
63.293024100224748
 30
0.0
 11
55.49769221964732
 21
63.293024100224748
 31
0.0
  0
LINE
  5
19BC
  8
L1
 10
55.709824254003252
 20
62.780892065868812
 30
0.0
 11
50.862132034355973
 21
57.933199846221527
 31
0.0
  0
ARC
  5
19BD
  8
L1
 10
56.750000000000057
 20
56.750000000000078
 30
0.0
 40
6.3999999999999941
 50
180.0
 51
270.0000000000008
  0
ARC
  5
19BE
  8
L1
 10
56.75
 20
56.750000000000028
 30
0.0
 40
4.9999999999999849
 50
177.26858442957101
 51
272.73141557042732
  0
LINE
  5
19BF
  8
L1
 10
51.755680519490959
 20
56.988270700271492
 30
0.0
 11
56.511729299728579
 21
61.74431948050912
 31
0.0
  0
ARC
  5
19C0
  8
L1
 10
56.75
 20
56.749999999999858
 30
0.0
 40
8.8000000000000007
 50
232.8851375449251
 51
270.0
  0
ARC
  5
19C1
  8
L1
 10
56.75
 20
56.749999999999858
 30
0.0
 40
8.8000000000000007
 50
180.0
 51
217.1148624550743
  0
LINE
  5
19C2
  8
L1
 10
49.961947952636187
 20
48.796695169241588
 30
0.0
 11
51.066087514092942
 21
49.723178268028192
 31
0.0
  0
POLYLINE
  5
19C3
  8
L1
 66
     1
 10
0.0
 20
0.0
 30
0.0
  0
VERTEX
  5
1DDC
  8
L1
 10
49.732638610900267
 20
51.439949234256432
 30
0.0
  0
VERTEX
  5
1DDD
  8
L1
 10
49.773907242476177
 20
51.365315670871922
 30
0.0
  0
VERTEX
  5
1DDE
  8
L1
 10
49.793263852058203
 20
51.25022543024042
 30
0.0
  0
VERTEX
  5
1DDF
  8
L1
 10
49.766179973376381
 20
51.134122856952132
 30
0.0
  0
VERTEX
  5
1DE0
  8
L1
 10
49.723178268028157
 20
51.066087514092906
 30
0.0
  0
SEQEND
  5
1DE1
  8
L1
  0
LINE
  5
19C4
  8
L1
 10
49.723178268028221
 20
51.066087514092906
 30
0.0
 11
48.796695169241609
 21
49.961947952636223
 31
0.0
  0
POLYLINE
  5
19C5
  8
L1
 66
     1
 10
0.0
 20
0.0
 30
0.0
  0
VERTEX
  5
1DE2
  8
L1
 10
48.814375794571617
 20
49.556995055326951
 30
0.0
  0
VERTEX
  5
1DE3
  8
L1
 10
48.726795248333758
 20
49.756033631138941
 30
0.0
  0
VERTEX
  5
1DE4
  8
L1
 10
48.796695169241559
 20
49.961947952636223
 30
0.0
  0
SEQEND
  5
1DE5
  8
L1
  0
LINE
  5
19C6
  8
L1
 10
48.814375794571667
 20
49.556995055326951
 30
0.0
 11
49.556995055326922
 21
48.814375794571639
 31
0.0
  0
POLYLINE
  5
19C7
  8
L1
 66
     1
 10
0.0
 20
0.0
 30
0.0
  0
VERTEX
  5
1DE6
  8
L1
 10
49.961947952636251
 20
48.796695169241588
 30
0.0
  0
VERTEX
  5
1DE7
  8
L1
 10
49.756033631138962
 20
48.726795248333787
 30
0.0
  0
VERTEX
  5
1DE8
  8
L1
 10
49.556995055326979
 20
48.814375794571639
 30
0.0
  0
SEQEND
  5
1DE9
  8
L1
  0
POLYLINE
  5
19C8
  8
L1
 66
     1
 10
0.0
 20
0.0
 30
0.0
  0
VERTEX
  5
1DEA
  8
L1
 10
51.066087514092942
 20
49.723178268028249
 30
0.0
  0
VERTEX
  5
1DEB
  8
L1
 10
51.141003878231679
 20
49.769225045624779
 30
0.0
  0
VERTEX
  5
1DEC
  8
L1
 10
51.255262207134187
 20
49.793368462534289
 30
0.0
  0
VERTEX
  5
1DED
  8
L1
 10
51.372346610474779
 20
49.771139411701341
 30
0.0
  0
VERTEX
  5
1DEE
  8
L1
 10
51.43994923425641
 20
49.732638610900239
 30
0.0
  0
SEQEND
  5
1DEF
  8
L1
  0
LINE
  5
19C9
  8
L1
 10
50.350000000000023
 20
60.250000000000092
 30
0.0
 11
50.350000000000023
 21
58.145331880577459
 31
0.0
  0
LINE
  5
19CA
  8
L1
 10
47.949999999999989
 20
61.950102802507359
 30
0.0
 11
47.949999999999989
 21
56.749999999999858
 31
0.0
  0
ARC
  5
19CB
  8
L1
 10
50.650000000000027
 20
58.145331880577459
 30
0.0
 40
0.2999999999999944
 50
180.0
 51
314.99999999999648
  0
LINE
  5
19CC
  8
L1
 10
50.350000000000023
 20
58.145331880577459
 30
0.0
 11
50.350000000000023
 21
56.750000000000078
 31
0.0
  0
ARC
  5
19CD
  8
L1
 10
47.150000000000027
 20
60.250000000000092
 30
0.0
 40
3.2000000000000282
 50
0.0
 51
71.979340694847096
  0
ARC
  5
19CE
  8
L1
 10
47.150000000000027
 20
60.250000000000092
 30
0.0
 40
3.2000000000000282
 50
71.979340694847096
 51
90.0
  0
POLYLINE
  5
19CF
  8
L1
 66
     1
 10
0.0
 20
0.0
 30
0.0
  0
VERTEX
  5
1DF0
  8
L1
 10
47.650102802507369
 20
62.250000000000028
 30
0.0
  0
VERTEX
  5
1DF1
  8
L1
 10
47.862174606235783
 20
62.162174606235759
 30
0.0
  0
VERTEX
  5
1DF2
  8
L1
 10
47.950000000000038
 20
61.950102802507359
 30
0.0
  0
SEQEND
  5
1DF3
  8
L1
  0
LINE
  5
19D0
  8
L1
 10
63.293024100224613
 20
55.497692219647291
 30
0.0
 11
63.293024100224613
 21
48.139951678342491
 31
0.0
  0
LINE
  5
19D1
  8
L1
 10
57.933199846221498
 20
50.862132034355987
 30
0.0
 11
62.780892065868727
 21
55.709824254003159
 31
0.0
  0
LINE
  5
19D2
  8
L1
 10
61.744319480509027
 20
56.511729299728621
 30
0.0
 11
56.988270700271407
 21
51.755680519490987
 31
0.0
  0
ARC
  5
19D3
  8
L1
 10
60.25000000000005
 20
47.149999999999999
 30
0.0
 40
3.200000000000085
 50
18.020659305160891
 51
90.0
  0
LINE
  5
19D4
  8
L1
 10
56.75
 20
47.94999999999996
 30
0.0
 11
61.950102802507331
 21
47.94999999999996
 31
0.0
  0
POLYLINE
  5
19D5
  8
L1
 66
     1
 10
0.0
 20
0.0
 30
0.0
  0
VERTEX
  5
1DF4
  8
L1
 10
61.950102802507331
 20
47.95000000000001
 30
0.0
  0
VERTEX
  5
1DF5
  8
L1
 10
62.162174606235737
 20
47.862174606235698
 30
0.0
  0
VERTEX
  5
1DF6
  8
L1
 10
62.25
 20
47.650102802507341
 30
0.0
  0
SEQEND
  5
1DF7
  8
L1
  0
LINE
  5
19D6
  8
L1
 10
58.14533188057743
 20
50.350000000000101
 30
0.0
 11
60.25000000000005
 21
50.350000000000101
 31
0.0
  0
LINE
  5
19D7
  8
L1
 10
56.750000000000057
 20
50.350000000000101
 30
0.0
 11
58.14533188057743
 21
50.350000000000101
 31
0.0
  0
ARC
  5
19D8
  8
L1
 10
58.14533188057743
 20
50.650000000000063
 30
0.0
 40
0.3000000000000001
 50
135.00000000000401
 51
270.0
  0
ARC
  5
19D9
  8
L1
 10
60.25000000000005
 20
47.149999999999999
 30
0.0
 40
3.200000000000085
 50
0.0
 51
18.020659305160891
  0
ARC
  5
19DA
  8
L1
 10
62.993024100224602
 20
55.497692219647291
 30
0.0
 40
0.3000000000000145
 50
0.0
 51
135.0
  0
ARC
  5
19DB
  8
L1
 10
61.556999999999952
 20
61.556999999999988
 30
0.0
 40
2.7360241002247649
 50
0.0
 51
90.0
  0
LINE
  5
19DC
  8
L1
 10
62.864213562373209
 20
60.035786437627017
 30
0.0
 11
61.404583911576992
 21
58.576156786830808
 31
0.0
  0
ARC
  5
19DD
  8
L1
 10
61.450000000000102
 20
61.450000000000131
 30
0.0
 40
2.0000000000000151
 50
315.0
 51
134.9999999999994
  0
POLYLINE
  5
19DE
  8
L1
 66
     1
 10
0.0
 20
0.0
 30
0.0
  0
VERTEX
  5
1DF8
  8
L1
 10
61.556999999999952
 20
65.012088437774153
 30
0.0
  0
VERTEX
  5
1DF9
  8
L1
 10
62.218787602445389
 20
64.94171439011447
 30
0.0
  0
VERTEX
  5
1DFA
  8
L1
 10
62.873772386241058
 20
64.739585002002485
 30
0.0
  0
VERTEX
  5
1DFB
  8
L1
 10
63.476619230896119
 20
64.41344075018614
 30
0.0
  0
VERTEX
  5
1DFC
  8
L1
 10
63.989929119073679
 20
63.989929119073601
 30
0.0
  0
VERTEX
  5
1DFD
  8
L1
 10
64.413440750186055
 20
63.476619230896027
 30
0.0
  0
VERTEX
  5
1DFE
  8
L1
 10
64.739585002002386
 20
62.873772386240972
 30
0.0
  0
VERTEX
  5
1DFF
  8
L1
 10
64.941714390114271
 20
62.218787602445303
 30
0.0
  0
VERTEX
  5
1E00
  8
L1
 10
65.012088437774025
 20
61.556999999999988
 30
0.0
  0
SEQEND
  5
1E01
  8
L1
  0
ARC
  5
19DF
  8
L1
 10
56.75
 20
56.750000000000028
 30
0.0
 40
5.7825462644184809
 50
28.598562683754501
 51
61.40143731624439
  0
ARC
  5
19E0
  8
L1
 10
56.75
 20
56.750000000000028
 30
0.0
 40
4.9999999999999849
 50
357.26858442957263
 51
21.421821521797529
  0
POLYLINE
  5
19E1
  8
L1
 66
     1
 10
0.0
 20
0.0
 30
0.0
  0
VERTEX
  5
1E02
  8
L1
 10
61.99706518273927
 20
59.168638057993007
 30
0.0
  0
VERTEX
  5
1E03
  8
L1
 10
61.958734697983573
 20
59.257634950925222
 30
0.0
  0
VERTEX
  5
1E04
  8
L1
 10
61.929433388861348
 20
59.319510791076333
 30
0.0
  0
VERTEX
  5
1E05
  8
L1
 10
61.88345623753105
 20
59.411418219001881
 30
0.0
  0
VERTEX
  5
1E06
  8
L1
 10
61.827415601628381
 20
59.517253515034753
 30
0.0
  0
VERTEX
  5
1E07
  8
L1
 10
61.827046612410641
 20
59.517930453524883
 30
0.0
  0
SEQEND
  5
1E08
  8
L1
  0
LINE
  5
19E2
  8
L1
 10
58.576156786830829
 20
61.404583911577021
 30
0.0
 11
60.035786437627053
 21
62.86421356237323
 31
0.0
  0
ARC
  5
19E3
  8
L1
 10
55.49769221964732
 20
62.993024100224737
 30
0.0
 40
0.3000000000000114
 50
314.99999999999238
 51
90.0
  0
ARC
  5
19E4
  8
L1
 10
56.75
 20
56.750000000000028
 30
0.0
 40
4.9999999999999849
 50
68.578178478201409
 51
92.731415570427373
  0
POLYLINE
  5
19E5
  8
L1
 66
     1
 10
0.0
 20
0.0
 30
0.0
  0
VERTEX
  5
1E09
  8
L1
 10
59.517930453524968
 20
61.827046612410612
 30
0.0
  0
VERTEX
  5
1E0A
  8
L1
 10
59.517253515034781
 20
61.82741560162836
 30
0.0
  0
VERTEX
  5
1E0B
  8
L1
 10
59.411418219001973
 20
61.883456237531021
 30
0.0
  0
VERTEX
  5
1E0C
  8
L1
 10
59.319510791076368
 20
61.92943338886144
 30
0.0
  0
VERTEX
  5
1E0D
  8
L1
 10
59.257634950925251
 20
61.958734697983537
 30
0.0
  0
VERTEX
  5
1E0E
  8
L1
 10
59.168638057992837
 20
61.997065182739021
 30
0.0
  0
SEQEND
  5
1E0F
  8
L1
  0
POLYLINE
  5
19E6
  8
L1
 66
     1
 10
0.0
 20
0.0
 30
0.0
  0
VERTEX
  5
1E10
  8
L1
 10
61.517100759268089
 20
65.0123041309092
 30
0.0
  0
VERTEX
  5
1E11
  8
L1
 10
61.537048032038172
 20
65.012250207188885
 30
0.0
  0
VERTEX
  5
1E12
  8
L1
 10
61.556999999999952
 20
65.012088437774153
 30
0.0
  0
SEQEND
  5
1E13
  8
L1
  0
POLYLINE
  5
19E7
  8
L1
 66
     1
 10
0.0
 20
0.0
 30
0.0
  0
VERTEX
  5
1E14
  8
L1
 10
65.012088437774025
 20
61.556999999999988
 30
0.0
  0
VERTEX
  5
1E15
  8
L1
 10
65.012250207188742
 20
61.537048032038257
 30
0.0
  0
VERTEX
  5
1E16
  8
L1
 10
65.012304130909115
 20
61.517100759268232
 30
0.0
  0
SEQEND
  5
1E17
  8
L1
  0
ENDBLK
  5
1921
  8
0
  0
BLOCK
  8
0
  2
S1
 70
     0
 10
0.0
 20
0.0
 30
0.0
  3
S1
  1

  0
LINE
  5
1B29
  8
L2
 10
10.9018691232313
 20
47.486938963145093
 30
0.0
 11
10.9018691232313
 21
-47.486938963144979
 31
0.0
  0
LINE
  5
1B2A
  8
L1
 10
19.070850152139251
 20
62.95000000000001
 30
0.0
 11
19.070850152139251
 21
-62.949999999999932
 31
0.0
  0
LINE
  5
1B2B
  8
L2
 10
8.5
 20
-49.545636566104598
 30
0.0
 11
8.5
 21
49.545636566104662
 31
0.0
  0
LINE
  5
1B2C
  8
L1
 10
8.0000000000000568
 20
-63.474886773884542
 30
0.0
 11
8.0
 21
63.474886773884442
 31
0.0
  0
LINE
  5
1B2D
  8
L1
 10
18.0
 20
63.44999999999996
 30
0.0
 11
18.0
 21
-64.293024100224756
 31
0.0
  0
LINE
  5
1B2E
  8
L1
 10
9.1091642695103303
 20
64.584051043394822
 30
0.0
 11
9.1091642695103001
 21
-64.584051043394709
 31
0.0
  0
LINE
  5
1B2F
  8
L1
 10
17.280719969315609
 20
-65.012304130909257
 30
0.0
 11
17.280719969315609
 21
65.012304130909257
 31
0.0
  0
LINE
  5
1B30
  8
L2
 10
8.0
 20
-49.549999999999947
 30
0.0
 11
8.5
 21
-49.545636566104569
 31
0.0
  0
LINE
  5
1B31
  8
L1
 10
9.1091642695103001
 20
-64.584051043394709
 30
0.0
 11
8.0
 21
-63.4748867738844
 31
0.0
  0
LINE
  5
1B32
  8
L1
 10
17.280719969315609
 20
-65.012304130909172
 30
0.0
 11
9.1091642695103001
 21
-64.58405104339468
 31
0.0
  0
LINE
  5
1B33
  8
L2
 10
18.0
 20
-62.44999999999996
 30
0.0
 11
18.764397453106479
 21
-62.584783894967437
 31
0.0
  0
ARC
  5
1B34
  8
L2
 10
18.699999999999989
 20
-62.949999999999868
 30
0.0
 40
0.3708501521392529
 50
0.0
 51
80.000000000004874
  0
ARC
  5
1B35
  8
L1
 10
18.699999999999989
 20
-62.949999999999932
 30
0.0
 40
0.3708501521392529
 50
279.999999999995
 51
0.0
  0
LINE
  5
1B36
  8
L1
 10
18.0
 20
-64.293024100224756
 30
0.0
 11
17.280719969315609
 21
-65.012304130909143
 31
0.0
  0
LINE
  5
1B37
  8
L1
 10
18.764397453106419
 20
-63.31521610503242
 30
0.0
 11
17.99999999999994
 21
-63.449999999999903
 31
0.0
  0
LINE
  5
1B38
  8
L2
 10
18.0
 20
-47.94999999999996
 30
0.0
 11
11.19214691550766
 21
-47.753399947976469
 31
0.0
  0
ARC
  5
1B39
  8
L2
 10
11.20000000000001
 20
-47.4535027504838
 30
0.0
 40
0.2999999999999998
 50
186.39914151628199
 51
268.50000000000051
  0
LINE
  5
1B3A
  8
L6
 10
27.070850152139251
 20
0.0
 30
0.0
 11
0.0
 21
0.0
 31
0.0
  0
LINE
  5
1B3B
  8
L1
 10
9.1091642695103001
 20
64.584051043394822
 30
0.0
 11
8.0
 21
63.474886773884521
 31
0.0
  0
LINE
  5
1B3C
  8
L2
 10
8.0
 20
49.550000000000068
 30
0.0
 11
8.5
 21
49.54563656610469
 31
0.0
  0
LINE
  5
1B3D
  8
L2
 10
18.0
 20
47.950000000000067
 30
0.0
 11
11.19214691550766
 21
47.75339994797659
 31
0.0
  0
ARC
  5
1B3E
  8
L2
 10
11.20000000000001
 20
47.453502750483921
 30
0.0
 40
0.2999999999999998
 50
91.499999999999474
 51
173.6008584837179
  0
LINE
  5
1B3F
  8
L1
 10
17.280719969315609
 20
65.012304130909286
 30
0.0
 11
9.1091642695103001
 21
64.584051043394794
 31
0.0
  0
ARC
  5
1B40
  8
L1
 10
18.699999999999989
 20
62.950000000000053
 30
0.0
 40
0.3708501521392529
 50
0.0
 51
80.000000000004874
  0
LINE
  5
1B41
  8
L1
 10
18.0
 20
64.293024100224855
 30
0.0
 11
17.280719969315609
 21
65.012304130909257
 31
0.0
  0
LINE
  5
1B42
  8
L1
 10
18.0
 20
63.450000000000188
 30
0.0
 11
18.0
 21
64.293024100224855
 31
0.0
  0
LINE
  5
1B43
  8
L1
 10
18.764397453106419
 20
63.315216105032533
 30
0.0
 11
17.99999999999994
 21
63.450000000000017
 31
0.0
  0
LINE
  5
1B44
  8
L2
 10
18.0
 20
62.450000000000081
 30
0.0
 11
18.764397453106479
 21
62.584783894967551
 31
0.0
  0
ARC
  5
1B45
  8
L2
 10
18.699999999999989
 20
62.949999999999989
 30
0.0
 40
0.3708501521392529
 50
279.999999999995
 51
0.0
  0
ENDBLK
  5
19EB
  8
0
  0
BLOCK
  8
0
  2
T
 70
     0
 10
0.0
 20
0.0
 30
0.0
  3
T
  1

  0
LINE
  5
1A0D
  8
L6
 10
0.0
 20
73.610113253966546
 30
0.0
 11
0.0
 21
-73.610113253966489
 31
0.0
  0
LINE
  5
1A0E
  8
L1
 10
-63.474886773884457
 20
61.032922207169598
 30
0.0
 11
-63.474886773884457
 21
-61.032922207169548
 31
0.0
  0
LINE
  5
1A0F
  8
L1
 10
63.4748867738844
 20
-61.032922207169548
 30
0.0
 11
63.4748867738844
 21
61.032922207169598
 31
0.0
  0
LINE
  5
1A10
  8
L1
 10
-65.012304130909172
 20
61.517100759268232
 30
0.0
 11
-65.012304130909172
 21
-61.517100759268139
 31
0.0
  0
LINE
  5
1A11
  8
L1
 10
65.012304130909172
 20
-61.517100759268182
 30
0.0
 11
65.012304130909172
 21
61.517100759268232
 31
0.0
  0
LINE
  5
1A12
  8
L1
 10
49.545636566104569
 20
-47.549999999999947
 30
0.0
 11
49.545636566104569
 21
47.55000000000004
 31
0.0
  0
LINE
  5
1A13
  8
L1
 10
-49.545636566104641
 20
47.55000000000004
 30
0.0
 11
-49.545636566104641
 21
-47.549999999999983
 31
0.0
  0
LINE
  5
1A14
  8
L6
 10
-73.610113253966517
 20
0.0
 30
0.0
 11
67.552021820653735
 21
0.0
 31
0.0
  0
LINE
  5
1A15
  8
L1
 10
-61.032922207169577
 20
-63.474886773884378
 30
0.0
 11
61.032922207169577
 21
-63.47488677388435
 31
0.0
  0
LINE
  5
1A16
  8
L1
 10
-61.517100759268139
 20
-65.012304130909143
 30
0.0
 11
61.517100759268139
 21
-65.012304130909143
 31
0.0
  0
LINE
  5
1A17
  8
L1
 10
-47.550000000000011
 20
-49.545636566104598
 30
0.0
 11
47.549999999999947
 21
-49.545636566104598
 31
0.0
  0
ARC
  5
1A18
  8
L1
 10
-47.549999999999947
 20
-47.549999999999983
 30
0.0
 40
2.0
 50
180.0
 51
270.0
  0
POLYLINE
  5
1A19
  8
L1
 66
     1
 10
0.0
 20
0.0
 30
0.0
  0
VERTEX
  5
1E1A
  8
L1
 10
-65.012088437774025
 20
-61.556999999999988
 30
0.0
  0
VERTEX
  5
1E1B
  8
L1
 10
-64.941714390114328
 20
-62.218787602445254
 30
0.0
  0
VERTEX
  5
1E1C
  8
L1
 10
-64.739585002002457
 20
-62.873772386240923
 30
0.0
  0
VERTEX
  5
1E1D
  8
L1
 10
-64.413440750186112
 20
-63.476619230895977
 30
0.0
  0
VERTEX
  5
1E1E
  8
L1
 10
-63.989929119073679
 20
-63.98992911907353
 30
0.0
  0
VERTEX
  5
1E1F
  8
L1
 10
-63.476619230896169
 20
-64.413440750186084
 30
0.0
  0
VERTEX
  5
1E20
  8
L1
 10
-62.873772386241001
 20
-64.739585002002372
 30
0.0
  0
VERTEX
  5
1E21
  8
L1
 10
-62.218787602445282
 20
-64.941714390114356
 30
0.0
  0
VERTEX
  5
1E22
  8
L1
 10
-61.557000000000023
 20
-65.012088437774111
 30
0.0
  0
SEQEND
  5
1E23
  8
L1
  0
ARC
  5
1A1A
  8
L1
 10
-56.750000000000057
 20
-56.749999999999972
 30
0.0
 40
5.7825462644184809
 50
208.59856268375481
 51
241.4014373162436
  0
ARC
  5
1A1B
  8
L1
 10
-61.032922207169577
 20
-61.032922207169548
 30
0.0
 40
2.4419645667147751
 50
180.0
 51
270.0
  0
POLYLINE
  5
1A1C
  8
L1
 66
     1
 10
0.0
 20
0.0
 30
0.0
  0
VERTEX
  5
1E24
  8
L1
 10
-59.235083439957577
 20
-61.968447512879401
 30
0.0
  0
VERTEX
  5
1E25
  8
L1
 10
-59.257634950925251
 20
-61.958734697983537
 30
0.0
  0
VERTEX
  5
1E26
  8
L1
 10
-59.319510791076368
 20
-61.929433388861327
 30
0.0
  0
VERTEX
  5
1E27
  8
L1
 10
-59.41141821900203
 20
-61.883456237530972
 30
0.0
  0
VERTEX
  5
1E28
  8
L1
 10
-59.517253515034831
 20
-61.82741560162836
 30
0.0
  0
VERTEX
  5
1E29
  8
L1
 10
-59.517930453525018
 20
-61.827046612410498
 30
0.0
  0
SEQEND
  5
1E2A
  8
L1
  0
POLYLINE
  5
1A1D
  8
L1
 66
     1
 10
0.0
 20
0.0
 30
0.0
  0
VERTEX
  5
1E2B
  8
L1
 10
-58.939976070165187
 20
-61.731378230551137
 30
0.0
  0
VERTEX
  5
1E2C
  8
L1
 10
-59.029261489383543
 20
-61.820367387864763
 30
0.0
  0
VERTEX
  5
1E2D
  8
L1
 10
-59.103328931402643
 20
-61.893612229893421
 30
0.0
  0
VERTEX
  5
1E2E
  8
L1
 10
-59.151928417432707
 20
-61.941011860825512
 30
0.0
  0
VERTEX
  5
1E2F
  8
L1
 10
-59.169215408078337
 20
-61.956947381994858
 30
0.0
  0
SEQEND
  5
1E30
  8
L1
  0
CIRCLE
  5
1A1E
  8
L1
 10
-56.750000000000057
 20
-56.749999999999972
 30
0.0
 40
6.097393363178492
  0
CIRCLE
  5
1A1F
  8
L1
 10
-56.750000000000057
 20
-56.749999999999972
 30
0.0
 40
5.7974047862592784
  0
POLYLINE
  5
1A20
  8
L1
 66
     1
 10
0.0
 20
0.0
 30
0.0
  0
VERTEX
  5
1E31
  8
L1
 10
-59.169215408078401
 20
-61.956947381994858
 30
0.0
  0
VERTEX
  5
1E32
  8
L1
 10
-59.235083439957577
 20
-61.968447512879401
 30
0.0
  0
SEQEND
  5
1E33
  8
L1
  0
ARC
  5
1A21
  8
L1
 10
-56.750000000000057
 20
-56.749999999999972
 30
0.0
 40
4.9738193966277091
 50
248.38089144829999
 51
272.61496561312612
  0
ARC
  5
1A22
  8
L1
 10
-56.750000000000057
 20
-56.749999999999972
 30
0.0
 40
4.9738193966277091
 50
357.38503438687388
 51
92.614965613126088
  0
LINE
  5
1A23
  8
L1
 10
-61.718640093512867
 20
-56.523074877092618
 30
0.0
 11
-56.976925122907403
 21
-51.781359906487161
 31
0.0
  0
POLYLINE
  5
1A24
  8
L1
 66
     1
 10
0.0
 20
0.0
 30
0.0
  0
VERTEX
  5
1E34
  8
L1
 10
-61.827046612410641
 20
-59.517930453524883
 30
0.0
  0
VERTEX
  5
1E35
  8
L1
 10
-61.827415601628452
 20
-59.517253515034689
 30
0.0
  0
VERTEX
  5
1E36
  8
L1
 10
-61.88345623753105
 20
-59.411418219001952
 30
0.0
  0
VERTEX
  5
1E37
  8
L1
 10
-61.929433388861469
 20
-59.319510791076283
 30
0.0
  0
VERTEX
  5
1E38
  8
L1
 10
-61.95873469798363
 20
-59.257634950925222
 30
0.0
  0
VERTEX
  5
1E39
  8
L1
 10
-61.968447512879663
 20
-59.235083439957663
 30
0.0
  0
SEQEND
  5
1E3A
  8
L1
  0
LINE
  5
1A25
  8
L1
 10
-61.731378230551229
 20
-58.939976070165102
 30
0.0
 11
-61.373929416275132
 21
-58.582527255889012
 31
0.0
  0
POLYLINE
  5
1A26
  8
L1
 66
     1
 10
0.0
 20
0.0
 30
0.0
  0
VERTEX
  5
1E3B
  8
L1
 10
-61.956947381994951
 20
-59.169215408078259
 30
0.0
  0
VERTEX
  5
1E3C
  8
L1
 10
-61.94101186082554
 20
-59.151928417432622
 30
0.0
  0
VERTEX
  5
1E3D
  8
L1
 10
-61.893612229893513
 20
-59.103328931402437
 30
0.0
  0
VERTEX
  5
1E3E
  8
L1
 10
-61.820367387864898
 20
-59.029261489383451
 30
0.0
  0
VERTEX
  5
1E3F
  8
L1
 10
-61.731378230551229
 20
-58.939976070165102
 30
0.0
  0
SEQEND
  5
1E40
  8
L1
  0
POLYLINE
  5
1A27
  8
L1
 66
     1
 10
0.0
 20
0.0
 30
0.0
  0
VERTEX
  5
1E41
  8
L1
 10
-61.968447512879663
 20
-59.235083439957663
 30
0.0
  0
VERTEX
  5
1E42
  8
L1
 10
-61.956947381994951
 20
-59.169215408078308
 30
0.0
  0
SEQEND
  5
1E43
  8
L1
  0
ARC
  5
1A28
  8
L1
 10
-56.750000000000057
 20
-56.749999999999972
 30
0.0
 40
4.9738193966277091
 50
177.385034386874
 51
201.61910855169779
  0
LINE
  5
1A29
  8
L1
 10
-58.582527255889147
 20
-61.373929416275047
 30
0.0
 11
-58.939976070165237
 21
-61.731378230551137
 31
0.0
  0
LINE
  5
1A2A
  8
L1
 10
-51.781359906487182
 20
-56.976925122907367
 30
0.0
 11
-56.523074877092647
 21
-61.718640093512789
 31
0.0
  0
ARC
  5
1A2B
  8
L1
 10
47.549999999999947
 20
-47.549999999999983
 30
0.0
 40
2.0
 50
270.0
 51
0.0
  0
POLYLINE
  5
1A2C
  8
L1
 66
     1
 10
0.0
 20
0.0
 30
0.0
  0
VERTEX
  5
1E44
  8
L1
 10
65.012088437774025
 20
-61.556999999999988
 30
0.0
  0
VERTEX
  5
1E45
  8
L1
 10
64.941714390114328
 20
-62.218787602445254
 30
0.0
  0
VERTEX
  5
1E46
  8
L1
 10
64.739585002002457
 20
-62.873772386240923
 30
0.0
  0
VERTEX
  5
1E47
  8
L1
 10
64.413440750186112
 20
-63.476619230895977
 30
0.0
  0
VERTEX
  5
1E48
  8
L1
 10
63.989929119073679
 20
-63.98992911907353
 30
0.0
  0
VERTEX
  5
1E49
  8
L1
 10
63.476619230896169
 20
-64.413440750186084
 30
0.0
  0
VERTEX
  5
1E4A
  8
L1
 10
62.873772386241001
 20
-64.739585002002372
 30
0.0
  0
VERTEX
  5
1E4B
  8
L1
 10
62.218787602445282
 20
-64.941714390114356
 30
0.0
  0
VERTEX
  5
1E4C
  8
L1
 10
61.557000000000023
 20
-65.012088437774111
 30
0.0
  0
SEQEND
  5
1E4D
  8
L1
  0
POLYLINE
  5
1A2D
  8
L1
 66
     1
 10
0.0
 20
0.0
 30
0.0
  0
VERTEX
  5
1E4E
  8
L1
 10
58.939976070165187
 20
-61.731378230551137
 30
0.0
  0
VERTEX
  5
1E4F
  8
L1
 10
59.029261489383543
 20
-61.820367387864763
 30
0.0
  0
VERTEX
  5
1E50
  8
L1
 10
59.103328931402643
 20
-61.893612229893421
 30
0.0
  0
VERTEX
  5
1E51
  8
L1
 10
59.151928417432707
 20
-61.941011860825512
 30
0.0
  0
VERTEX
  5
1E52
  8
L1
 10
59.169215408078337
 20
-61.956947381994858
 30
0.0
  0
SEQEND
  5
1E53
  8
L1
  0
POLYLINE
  5
1A2E
  8
L1
 66
     1
 10
0.0
 20
0.0
 30
0.0
  0
VERTEX
  5
1E54
  8
L1
 10
59.235083439957577
 20
-61.968447512879401
 30
0.0
  0
VERTEX
  5
1E55
  8
L1
 10
59.257634950925251
 20
-61.958734697983537
 30
0.0
  0
VERTEX
  5
1E56
  8
L1
 10
59.319510791076368
 20
-61.929433388861327
 30
0.0
  0
VERTEX
  5
1E57
  8
L1
 10
59.41141821900203
 20
-61.883456237530972
 30
0.0
  0
VERTEX
  5
1E58
  8
L1
 10
59.517253515034831
 20
-61.82741560162836
 30
0.0
  0
VERTEX
  5
1E59
  8
L1
 10
59.517930453525018
 20
-61.827046612410498
 30
0.0
  0
SEQEND
  5
1E5A
  8
L1
  0
ARC
  5
1A2F
  8
L1
 10
61.032922207169577
 20
-61.032922207169548
 30
0.0
 40
2.4419645667147751
 50
270.0
 51
0.0
  0
ARC
  5
1A30
  8
L1
 10
56.750000000000057
 20
-56.749999999999972
 30
0.0
 40
5.7825462644184809
 50
298.5985626837562
 51
331.40143731624499
  0
CIRCLE
  5
1A31
  8
L1
 10
56.750000000000057
 20
-56.749999999999972
 30
0.0
 40
5.7974047862592784
  0
CIRCLE
  5
1A32
  8
L1
 10
56.750000000000057
 20
-56.749999999999972
 30
0.0
 40
6.097393363178492
  0
POLYLINE
  5
1A33
  8
L1
 66
     1
 10
0.0
 20
0.0
 30
0.0
  0
VERTEX
  5
1E5B
  8
L1
 10
59.169215408078401
 20
-61.956947381994858
 30
0.0
  0
VERTEX
  5
1E5C
  8
L1
 10
59.235083439957577
 20
-61.968447512879401
 30
0.0
  0
SEQEND
  5
1E5D
  8
L1
  0
ARC
  5
1A34
  8
L1
 10
56.750000000000057
 20
-56.749999999999972
 30
0.0
 40
4.9738193966277091
 50
267.38503438687388
 51
291.61910855169992
  0
LINE
  5
1A35
  8
L1
 10
61.718640093512867
 20
-56.523074877092618
 30
0.0
 11
56.976925122907403
 21
-51.781359906487161
 31
0.0
  0
ARC
  5
1A36
  8
L1
 10
56.750000000000057
 20
-56.749999999999972
 30
0.0
 40
4.9738193966277091
 50
87.385034386873912
 51
182.614965613126
  0
LINE
  5
1A37
  8
L1
 10
51.781359906487182
 20
-56.976925122907367
 30
0.0
 11
56.523074877092647
 21
-61.718640093512789
 31
0.0
  0
POLYLINE
  5
1A38
  8
L1
 66
     1
 10
0.0
 20
0.0
 30
0.0
  0
VERTEX
  5
1E5E
  8
L1
 10
61.968447512879663
 20
-59.235083439957663
 30
0.0
  0
VERTEX
  5
1E5F
  8
L1
 10
61.956947381994951
 20
-59.169215408078308
 30
0.0
  0
SEQEND
  5
1E60
  8
L1
  0
POLYLINE
  5
1A39
  8
L1
 66
     1
 10
0.0
 20
0.0
 30
0.0
  0
VERTEX
  5
1E61
  8
L1
 10
61.956947381994951
 20
-59.169215408078259
 30
0.0
  0
VERTEX
  5
1E62
  8
L1
 10
61.94101186082554
 20
-59.151928417432622
 30
0.0
  0
VERTEX
  5
1E63
  8
L1
 10
61.893612229893513
 20
-59.103328931402437
 30
0.0
  0
VERTEX
  5
1E64
  8
L1
 10
61.820367387864898
 20
-59.029261489383451
 30
0.0
  0
VERTEX
  5
1E65
  8
L1
 10
61.731378230551229
 20
-58.939976070165102
 30
0.0
  0
SEQEND
  5
1E66
  8
L1
  0
LINE
  5
1A3A
  8
L1
 10
61.731378230551229
 20
-58.939976070165102
 30
0.0
 11
61.373929416275132
 21
-58.582527255889012
 31
0.0
  0
POLYLINE
  5
1A3B
  8
L1
 66
     1
 10
0.0
 20
0.0
 30
0.0
  0
VERTEX
  5
1E67
  8
L1
 10
61.827046612410641
 20
-59.517930453524883
 30
0.0
  0
VERTEX
  5
1E68
  8
L1
 10
61.827415601628452
 20
-59.517253515034689
 30
0.0
  0
VERTEX
  5
1E69
  8
L1
 10
61.88345623753105
 20
-59.411418219001952
 30
0.0
  0
VERTEX
  5
1E6A
  8
L1
 10
61.929433388861469
 20
-59.319510791076283
 30
0.0
  0
VERTEX
  5
1E6B
  8
L1
 10
61.95873469798363
 20
-59.257634950925222
 30
0.0
  0
VERTEX
  5
1E6C
  8
L1
 10
61.968447512879663
 20
-59.235083439957663
 30
0.0
  0
SEQEND
  5
1E6D
  8
L1
  0
LINE
  5
1A3C
  8
L1
 10
58.582527255889147
 20
-61.373929416275047
 30
0.0
 11
58.939976070165237
 21
-61.731378230551137
 31
0.0
  0
ARC
  5
1A3D
  8
L1
 10
56.750000000000057
 20
-56.749999999999972
 30
0.0
 40
4.9738193966277091
 50
338.38089144830212
 51
2.6149656131260208
  0
LINE
  5
1A3E
  8
L1
 10
61.032922207169513
 20
63.474886773884442
 30
0.0
 11
-61.032922207169577
 21
63.474886773884442
 31
0.0
  0
LINE
  5
1A3F
  8
L1
 10
61.517100759268089
 20
65.012304130909257
 30
0.0
 11
-61.517100759268203
 21
65.012304130909257
 31
0.0
  0
LINE
  5
1A40
  8
L1
 10
47.549999999999947
 20
49.545636566104662
 30
0.0
 11
-47.549999999999947
 21
49.545636566104662
 31
0.0
  0
ARC
  5
1A41
  8
L1
 10
-47.549999999999947
 20
47.55000000000004
 30
0.0
 40
2.0
 50
90.0
 51
180.0
  0
POLYLINE
  5
1A42
  8
L1
 66
     1
 10
0.0
 20
0.0
 30
0.0
  0
VERTEX
  5
1E6E
  8
L1
 10
-65.012088437774025
 20
61.557000000000038
 30
0.0
  0
VERTEX
  5
1E6F
  8
L1
 10
-64.941714390114328
 20
62.218787602445303
 30
0.0
  0
VERTEX
  5
1E70
  8
L1
 10
-64.739585002002457
 20
62.873772386240972
 30
0.0
  0
VERTEX
  5
1E71
  8
L1
 10
-64.413440750186112
 20
63.476619230896027
 30
0.0
  0
VERTEX
  5
1E72
  8
L1
 10
-63.989929119073679
 20
63.989929119073601
 30
0.0
  0
VERTEX
  5
1E73
  8
L1
 10
-63.476619230896169
 20
64.41344075018614
 30
0.0
  0
VERTEX
  5
1E74
  8
L1
 10
-62.873772386241001
 20
64.739585002002428
 30
0.0
  0
VERTEX
  5
1E75
  8
L1
 10
-62.218787602445282
 20
64.941714390114413
 30
0.0
  0
VERTEX
  5
1E76
  8
L1
 10
-61.557000000000023
 20
65.012088437774153
 30
0.0
  0
SEQEND
  5
1E77
  8
L1
  0
LINE
  5
1A43
  8
L1
 10
-61.718640093512867
 20
56.523074877092682
 30
0.0
 11
-56.976925122907403
 21
51.781359906487211
 31
0.0
  0
ARC
  5
1A44
  8
L1
 10
-56.750000000000057
 20
56.750000000000028
 30
0.0
 40
4.9738193966277091
 50
267.38503438687388
 51
2.6149656131260208
  0
CIRCLE
  5
1A45
  8
L1
 10
-56.750000000000057
 20
56.750000000000028
 30
0.0
 40
5.7974047862592784
  0
CIRCLE
  5
1A46
  8
L1
 10
-56.750000000000057
 20
56.750000000000028
 30
0.0
 40
6.097393363178492
  0
ARC
  5
1A47
  8
L1
 10
-56.750000000000057
 20
56.750000000000028
 30
0.0
 40
4.9738193966277091
 50
87.385034386873912
 51
111.6191085516999
  0
ARC
  5
1A48
  8
L1
 10
-56.750000000000057
 20
56.750000000000028
 30
0.0
 40
5.7825462644184809
 50
118.5985626837563
 51
151.40143731624511
  0
POLYLINE
  5
1A49
  8
L1
 66
     1
 10
0.0
 20
0.0
 30
0.0
  0
VERTEX
  5
1E78
  8
L1
 10
-61.968447512879663
 20
59.23508343995772
 30
0.0
  0
VERTEX
  5
1E79
  8
L1
 10
-61.956947381994951
 20
59.169215408078372
 30
0.0
  0
SEQEND
  5
1E7A
  8
L1
  0
POLYLINE
  5
1A4A
  8
L1
 66
     1
 10
0.0
 20
0.0
 30
0.0
  0
VERTEX
  5
1E7B
  8
L1
 10
-61.956947381994951
 20
59.169215408078308
 30
0.0
  0
VERTEX
  5
1E7C
  8
L1
 10
-61.94101186082554
 20
59.151928417432693
 30
0.0
  0
VERTEX
  5
1E7D
  8
L1
 10
-61.893612229893513
 20
59.103328931402501
 30
0.0
  0
VERTEX
  5
1E7E
  8
L1
 10
-61.820367387864898
 20
59.029261489383522
 30
0.0
  0
VERTEX
  5
1E7F
  8
L1
 10
-61.731378230551229
 20
58.939976070165152
 30
0.0
  0
SEQEND
  5
1E80
  8
L1
  0
LINE
  5
1A4B
  8
L1
 10
-61.731378230551229
 20
58.939976070165152
 30
0.0
 11
-61.373929416275132
 21
58.582527255889062
 31
0.0
  0
POLYLINE
  5
1A4C
  8
L1
 66
     1
 10
0.0
 20
0.0
 30
0.0
  0
VERTEX
  5
1E81
  8
L1
 10
-61.827046612410641
 20
59.51793045352494
 30
0.0
  0
VERTEX
  5
1E82
  8
L1
 10
-61.827415601628452
 20
59.517253515034753
 30
0.0
  0
VERTEX
  5
1E83
  8
L1
 10
-61.88345623753105
 20
59.411418219002002
 30
0.0
  0
VERTEX
  5
1E84
  8
L1
 10
-61.929433388861469
 20
59.319510791076333
 30
0.0
  0
VERTEX
  5
1E85
  8
L1
 10
-61.95873469798363
 20
59.257634950925279
 30
0.0
  0
VERTEX
  5
1E86
  8
L1
 10
-61.968447512879663
 20
59.23508343995772
 30
0.0
  0
SEQEND
  5
1E87
  8
L1
  0
ARC
  5
1A4D
  8
L1
 10
-56.750000000000057
 20
56.750000000000028
 30
0.0
 40
4.9738193966277091
 50
158.38089144830209
 51
182.614965613126
  0
ARC
  5
1A4E
  8
L1
 10
-61.032922207169577
 20
61.032922207169598
 30
0.0
 40
2.4419645667147751
 50
90.0
 51
180.0
  0
LINE
  5
1A4F
  8
L1
 10
-58.582527255889147
 20
61.373929416275097
 30
0.0
 11
-58.939976070165237
 21
61.731378230551201
 31
0.0
  0
POLYLINE
  5
1A50
  8
L1
 66
     1
 10
0.0
 20
0.0
 30
0.0
  0
VERTEX
  5
1E88
  8
L1
 10
-58.939976070165187
 20
61.731378230551201
 30
0.0
  0
VERTEX
  5
1E89
  8
L1
 10
-59.029261489383543
 20
61.82036738786482
 30
0.0
  0
VERTEX
  5
1E8A
  8
L1
 10
-59.103328931402643
 20
61.893612229893471
 30
0.0
  0
VERTEX
  5
1E8B
  8
L1
 10
-59.151928417432707
 20
61.941011860825569
 30
0.0
  0
VERTEX
  5
1E8C
  8
L1
 10
-59.169215408078337
 20
61.956947381994922
 30
0.0
  0
SEQEND
  5
1E8D
  8
L1
  0
POLYLINE
  5
1A51
  8
L1
 66
     1
 10
0.0
 20
0.0
 30
0.0
  0
VERTEX
  5
1E8E
  8
L1
 10
-59.169215408078401
 20
61.956947381994922
 30
0.0
  0
VERTEX
  5
1E8F
  8
L1
 10
-59.235083439957577
 20
61.968447512879457
 30
0.0
  0
SEQEND
  5
1E90
  8
L1
  0
POLYLINE
  5
1A52
  8
L1
 66
     1
 10
0.0
 20
0.0
 30
0.0
  0
VERTEX
  5
1E91
  8
L1
 10
-59.235083439957577
 20
61.968447512879457
 30
0.0
  0
VERTEX
  5
1E92
  8
L1
 10
-59.257634950925251
 20
61.958734697983601
 30
0.0
  0
VERTEX
  5
1E93
  8
L1
 10
-59.319510791076368
 20
61.929433388861383
 30
0.0
  0
VERTEX
  5
1E94
  8
L1
 10
-59.41141821900203
 20
61.883456237531021
 30
0.0
  0
VERTEX
  5
1E95
  8
L1
 10
-59.517253515034831
 20
61.827415601628417
 30
0.0
  0
VERTEX
  5
1E96
  8
L1
 10
-59.517930453525018
 20
61.827046612410548
 30
0.0
  0
SEQEND
  5
1E97
  8
L1
  0
LINE
  5
1A53
  8
L1
 10
-51.781359906487182
 20
56.976925122907431
 30
0.0
 11
-56.523074877092647
 21
61.718640093512853
 31
0.0
  0
ARC
  5
1A54
  8
L1
 10
47.549999999999947
 20
47.55000000000004
 30
0.0
 40
2.0
 50
0.0
 51
90.0
  0
CIRCLE
  5
1A55
  8
L1
 10
56.750000000000057
 20
56.750000000000028
 30
0.0
 40
6.097393363178492
  0
CIRCLE
  5
1A56
  8
L1
 10
56.750000000000057
 20
56.750000000000028
 30
0.0
 40
5.7974047862592784
  0
LINE
  5
1A57
  8
L1
 10
61.718640093512867
 20
56.523074877092682
 30
0.0
 11
56.976925122907403
 21
51.781359906487211
 31
0.0
  0
ARC
  5
1A58
  8
L1
 10
56.750000000000057
 20
56.750000000000028
 30
0.0
 40
4.9738193966277091
 50
177.385034386874
 51
272.61496561312612
  0
ARC
  5
1A59
  8
L1
 10
56.750000000000057
 20
56.750000000000028
 30
0.0
 40
4.9738193966277091
 50
68.380891448300062
 51
92.614965613126088
  0
LINE
  5
1A5A
  8
L1
 10
51.781359906487182
 20
56.976925122907431
 30
0.0
 11
56.523074877092647
 21
61.718640093512853
 31
0.0
  0
ARC
  5
1A5B
  8
L1
 10
56.750000000000057
 20
56.750000000000028
 30
0.0
 40
5.7825462644184809
 50
28.598562683754889
 51
61.40143731624368
  0
POLYLINE
  5
1A5C
  8
L1
 66
     1
 10
0.0
 20
0.0
 30
0.0
  0
VERTEX
  5
1E98
  8
L1
 10
61.827046612410641
 20
59.51793045352494
 30
0.0
  0
VERTEX
  5
1E99
  8
L1
 10
61.827415601628452
 20
59.517253515034753
 30
0.0
  0
VERTEX
  5
1E9A
  8
L1
 10
61.88345623753105
 20
59.411418219002002
 30
0.0
  0
VERTEX
  5
1E9B
  8
L1
 10
61.929433388861469
 20
59.319510791076333
 30
0.0
  0
VERTEX
  5
1E9C
  8
L1
 10
61.95873469798363
 20
59.257634950925279
 30
0.0
  0
VERTEX
  5
1E9D
  8
L1
 10
61.968447512879663
 20
59.23508343995772
 30
0.0
  0
SEQEND
  5
1E9E
  8
L1
  0
LINE
  5
1A5D
  8
L1
 10
61.731378230551229
 20
58.939976070165152
 30
0.0
 11
61.373929416275132
 21
58.582527255889062
 31
0.0
  0
POLYLINE
  5
1A5E
  8
L1
 66
     1
 10
0.0
 20
0.0
 30
0.0
  0
VERTEX
  5
1E9F
  8
L1
 10
61.956947381994951
 20
59.169215408078308
 30
0.0
  0
VERTEX
  5
1EA0
  8
L1
 10
61.94101186082554
 20
59.151928417432693
 30
0.0
  0
VERTEX
  5
1EA1
  8
L1
 10
61.893612229893513
 20
59.103328931402501
 30
0.0
  0
VERTEX
  5
1EA2
  8
L1
 10
61.820367387864898
 20
59.029261489383522
 30
0.0
  0
VERTEX
  5
1EA3
  8
L1
 10
61.731378230551229
 20
58.939976070165152
 30
0.0
  0
SEQEND
  5
1EA4
  8
L1
  0
POLYLINE
  5
1A5F
  8
L1
 66
     1
 10
0.0
 20
0.0
 30
0.0
  0
VERTEX
  5
1EA5
  8
L1
 10
61.968447512879663
 20
59.23508343995772
 30
0.0
  0
VERTEX
  5
1EA6
  8
L1
 10
61.956947381994951
 20
59.169215408078372
 30
0.0
  0
SEQEND
  5
1EA7
  8
L1
  0
ARC
  5
1A60
  8
L1
 10
56.750000000000057
 20
56.750000000000028
 30
0.0
 40
4.9738193966277091
 50
357.38503438687388
 51
21.619108551697821
  0
ARC
  5
1A61
  8
L1
 10
61.032922207169577
 20
61.032922207169598
 30
0.0
 40
2.4419645667147751
 50
0.0
 51
90.0
  0
POLYLINE
  5
1A62
  8
L1
 66
     1
 10
0.0
 20
0.0
 30
0.0
  0
VERTEX
  5
1EA8
  8
L1
 10
65.012088437774025
 20
61.557000000000038
 30
0.0
  0
VERTEX
  5
1EA9
  8
L1
 10
64.941714390114328
 20
62.218787602445303
 30
0.0
  0
VERTEX
  5
1EAA
  8
L1
 10
64.739585002002457
 20
62.873772386240972
 30
0.0
  0
VERTEX
  5
1EAB
  8
L1
 10
64.413440750186112
 20
63.476619230896027
 30
0.0
  0
VERTEX
  5
1EAC
  8
L1
 10
63.989929119073679
 20
63.989929119073601
 30
0.0
  0
VERTEX
  5
1EAD
  8
L1
 10
63.476619230896169
 20
64.41344075018614
 30
0.0
  0
VERTEX
  5
1EAE
  8
L1
 10
62.873772386241001
 20
64.739585002002428
 30
0.0
  0
VERTEX
  5
1EAF
  8
L1
 10
62.218787602445282
 20
64.941714390114413
 30
0.0
  0
VERTEX
  5
1EB0
  8
L1
 10
61.557000000000023
 20
65.012088437774153
 30
0.0
  0
SEQEND
  5
1EB1
  8
L1
  0
POLYLINE
  5
1A63
  8
L1
 66
     1
 10
0.0
 20
0.0
 30
0.0
  0
VERTEX
  5
1EB2
  8
L1
 10
59.235083439957577
 20
61.968447512879457
 30
0.0
  0
VERTEX
  5
1EB3
  8
L1
 10
59.257634950925251
 20
61.958734697983601
 30
0.0
  0
VERTEX
  5
1EB4
  8
L1
 10
59.319510791076368
 20
61.929433388861383
 30
0.0
  0
VERTEX
  5
1EB5
  8
L1
 10
59.41141821900203
 20
61.883456237531021
 30
0.0
  0
VERTEX
  5
1EB6
  8
L1
 10
59.517253515034831
 20
61.827415601628417
 30
0.0
  0
VERTEX
  5
1EB7
  8
L1
 10
59.517930453525018
 20
61.827046612410548
 30
0.0
  0
SEQEND
  5
1EB8
  8
L1
  0
POLYLINE
  5
1A64
  8
L1
 66
     1
 10
0.0
 20
0.0
 30
0.0
  0
VERTEX
  5
1EB9
  8
L1
 10
59.169215408078401
 20
61.956947381994922
 30
0.0
  0
VERTEX
  5
1EBA
  8
L1
 10
59.235083439957577
 20
61.968447512879457
 30
0.0
  0
SEQEND
  5
1EBB
  8
L1
  0
POLYLINE
  5
1A65
  8
L1
 66
     1
 10
0.0
 20
0.0
 30
0.0
  0
VERTEX
  5
1EBC
  8
L1
 10
58.939976070165187
 20
61.731378230551201
 30
0.0
  0
VERTEX
  5
1EBD
  8
L1
 10
59.029261489383543
 20
61.82036738786482
 30
0.0
  0
VERTEX
  5
1EBE
  8
L1
 10
59.103328931402643
 20
61.893612229893471
 30
0.0
  0
VERTEX
  5
1EBF
  8
L1
 10
59.151928417432707
 20
61.941011860825569
 30
0.0
  0
VERTEX
  5
1EC0
  8
L1
 10
59.169215408078337
 20
61.956947381994922
 30
0.0
  0
SEQEND
  5
1EC1
  8
L1
  0
LINE
  5
1A66
  8
L1
 10
58.582527255889147
 20
61.373929416275097
 30
0.0
 11
58.939976070165237
 21
61.731378230551201
 31
0.0
  0
ENDBLK
  5
1A0C
  8
0
  0
ENDSEC
  0
SECTION
  2
ENTITIES
  0
INSERT
  5
19E8
  8
L1
  2
B
 10
72.923786350862656
 20
129.22502511884801
 30
0.0
  0
INSERT
  5
1A67
  8
L1
  2
T
 10
291.00008233343323
 20
129.22502511884809
 30
0.0
  0
INSERT
  5
1B46
  8
L1
  2
S1
 10
168.42531821850829
 20
129.22502511884809
 30
0.0
  0
INSERT
  5
1B4D
  8
L1
  2
S1
 10
291.00008233343323
 20
-4.5666840770239503
 30
0.0
 50
90.0
  0
INSERT
  5
1B4E
  8
L1
  2
S1
 10
424.68892691831797
 20
129.22502511884809
 30
0.0
 50
180.0
  0
INSERT
  5
1B4F
  8
L1
  2
S1
 10
291.00008233343323
 20
259.26106244748939
 30
0.0
 50
270.0
  0
ENDSEC
  0
EOF
