  0
SECTION
  2
HEADER
  9
$ACADVER
  1
AC1012
  9
$DWGCODEPAGE
  3
ANSI_1252
  9
$INSBASE
 10
0.0
 20
0.0
 30
0.0
  9
$EXTMIN
 10
12.81848662221386
 20
13.0315823803167
 30
0.0
  9
$EXTMAX
 10
414.2488581685047
 20
229.5688023854085
 30
0.0000000000000036
  9
$LIMMIN
 10
0.0
 20
0.0
  9
$LIMMAX
 10
420.0
 20
297.0
  9
$ORTHOMODE
 70
     1
  9
$REGENMODE
 70
     1
  9
$FILLMODE
 70
     1
  9
$QTEXTMODE
 70
     0
  9
$MIRRTEXT
 70
     1
  9
$DRAGMODE
 70
     2
  9
$LTSCALE
 40
10.0
  9
$OSMODE
 70
    37
  9
$ATTMODE
 70
     1
  9
$TEXTSIZE
 40
2.5
  9
$TRACEWID
 40
1.0
  9
$TEXTSTYLE
  7
SIMPLEX
  9
$CLAYER
  8
L1
  9
$CELTYPE
  6
BYLAYER
  9
$CECOLOR
 62
   256
  9
$CELTSCALE
 40
1.0
  9
$DELOBJ
 70
     1
  9
$DISPSILH
 70
     1
  9
$DIMSCALE
 40
1.0
  9
$DIMASZ
 40
3.5
  9
$DIMEXO
 40
0.1
  9
$DIMDLI
 40
0.38
  9
$DIMRND
 40
0.0
  9
$DIMDLE
 40
0.0
  9
$DIMEXE
 40
0.18
  9
$DIMTP
 40
0.0
  9
$DIMTM
 40
0.0
  9
$DIMTXT
 40
3.5
  9
$DIMCEN
 40
-5.0
  9
$DIMTSZ
 40
0.0
  9
$DIMTOL
 70
     0
  9
$DIMLIM
 70
     0
  9
$DIMTIH
 70
     0
  9
$DIMTOH
 70
     0
  9
$DIMSE1
 70
     0
  9
$DIMSE2
 70
     0
  9
$DIMTAD
 70
     1
  9
$DIMZIN
 70
     8
  9
$DIMBLK
  1

  9
$DIMASO
 70
     1
  9
$DIMSHO
 70
     1
  9
$DIMPOST
  1

  9
$DIMAPOST
  1

  9
$DIMALT
 70
     0
  9
$DIMALTD
 70
     2
  9
$DIMALTF
 40
25.4
  9
$DIMLFAC
 40
1.0
  9
$DIMTOFL
 70
     1
  9
$DIMTVP
 40
0.0
  9
$DIMTIX
 70
     0
  9
$DIMSOXD
 70
     0
  9
$DIMSAH
 70
     0
  9
$DIMBLK1
  1

  9
$DIMBLK2
  1

  9
$DIMSTYLE
  2
FIBOX
  9
$DIMCLRD
 70
     1
  9
$DIMCLRE
 70
     1
  9
$DIMCLRT
 70
     3
  9
$DIMTFAC
 40
1.0
  9
$DIMGAP
 40
1.0
  9
$DIMJUST
 70
     0
  9
$DIMSD1
 70
     0
  9
$DIMSD2
 70
     0
  9
$DIMTOLJ
 70
     1
  9
$DIMTZIN
 70
     8
  9
$DIMALTZ
 70
     0
  9
$DIMALTTZ
 70
     0
  9
$DIMFIT
 70
     3
  9
$DIMUPT
 70
     0
  9
$DIMUNIT
 70
     2
  9
$DIMDEC
 70
     1
  9
$DIMTDEC
 70
     2
  9
$DIMALTU
 70
     2
  9
$DIMALTTD
 70
     2
  9
$DIMTXSTY
  7
SIMPLEX
  9
$DIMAUNIT
 70
     0
  9
$LUNITS
 70
     2
  9
$LUPREC
 70
     4
  9
$SKETCHINC
 40
1.0
  9
$FILLETRAD
 40
0.0
  9
$AUNITS
 70
     0
  9
$AUPREC
 70
     0
  9
$MENU
  1
C:\r13\win\SUPPORT\acad
  9
$ELEVATION
 40
0.0
  9
$PELEVATION
 40
0.0
  9
$THICKNESS
 40
0.0
  9
$LIMCHECK
 70
     0
  9
$BLIPMODE
 70
     0
  9
$CHAMFERA
 40
10.0
  9
$CHAMFERB
 40
10.0
  9
$CHAMFERC
 40
0.0
  9
$CHAMFERD
 40
0.0
  9
$SKPOLY
 70
     0
  9
$TDCREATE
 40
2450511.539299583
  9
$TDUPDATE
 40
2451981.403734652
  9
$TDINDWG
 40
0.9879381481
  9
$TDUSRTIMER
 40
0.9879381481
  9
$USRTIMER
 70
     1
  9
$ANGBASE
 50
0.0
  9
$ANGDIR
 70
     0
  9
$PDMODE
 70
     0
  9
$PDSIZE
 40
0.0
  9
$PLINEWID
 40
0.0
  9
$COORDS
 70
     1
  9
$SPLFRAME
 70
     0
  9
$SPLINETYPE
 70
     6
  9
$SPLINESEGS
 70
     8
  9
$ATTDIA
 70
     0
  9
$ATTREQ
 70
     1
  9
$HANDLING
 70
-16383
  9
$HANDSEED
  5
FE7
  9
$SURFTAB1
 70
     6
  9
$SURFTAB2
 70
     6
  9
$SURFTYPE
 70
     6
  9
$SURFU
 70
     6
  9
$SURFV
 70
     6
  9
$UCSNAME
  2

  9
$UCSORG
 10
0.0
 20
0.0
 30
0.0
  9
$UCSXDIR
 10
1.0
 20
0.0
 30
0.0
  9
$UCSYDIR
 10
0.0
 20
1.0
 30
0.0
  9
$PUCSNAME
  2

  9
$PUCSORG
 10
0.0
 20
0.0
 30
0.0
  9
$PUCSXDIR
 10
1.0
 20
0.0
 30
0.0
  9
$PUCSYDIR
 10
0.0
 20
1.0
 30
0.0
  9
$USERI1
 70
     0
  9
$USERI2
 70
     0
  9
$USERI3
 70
     0
  9
$USERI4
 70
     0
  9
$USERI5
 70
     0
  9
$USERR1
 40
0.0
  9
$USERR2
 40
0.0
  9
$USERR3
 40
0.0
  9
$USERR4
 40
0.0
  9
$USERR5
 40
0.0
  9
$WORLDVIEW
 70
     1
  9
$SHADEDGE
 70
     3
  9
$SHADEDIF
 70
    70
  9
$TILEMODE
 70
     1
  9
$MAXACTVP
 70
    16
  9
$PINSBASE
 10
0.0
 20
0.0
 30
0.0
  9
$PLIMCHECK
 70
     0
  9
$PEXTMIN
 10
1.000000000000000E+20
 20
1.000000000000000E+20
 30
1.000000000000000E+20
  9
$PEXTMAX
 10
-1.000000000000000E+20
 20
-1.000000000000000E+20
 30
-1.000000000000000E+20
  9
$PLIMMIN
 10
0.0
 20
0.0
  9
$PLIMMAX
 10
420.0
 20
297.0
  9
$UNITMODE
 70
     0
  9
$VISRETAIN
 70
     0
  9
$PLINEGEN
 70
     0
  9
$PSLTSCALE
 70
     1
  9
$TREEDEPTH
 70
  3020
  9
$PICKSTYLE
 70
     1
  9
$CMLSTYLE
  2
STANDARD
  9
$CMLJUST
 70
     0
  9
$CMLSCALE
 40
1.0
  9
$SAVEIMAGES
 70
     1
  0
ENDSEC
  0
SECTION
  2
CLASSES
  0
CLASS
  1
ACMESCOPE
  2
AcMeScope
  3
ACME_MODULE_NAME
 90
    32768
280
     1
281
     0
  0
CLASS
  1
ACMECOMMANDHISTORY
  2
AcMeCommandHistory
  3
ACME_MODULE_NAME
 90
    32768
280
     1
281
     0
  0
CLASS
  1
AcRfInsAdjusterMgr
  2
AcRfInsAdjusterMgr
  3
ACME_MODULE_NAME
 90
    32768
280
     1
281
     0
  0
CLASS
  1
ACGREFMASTER
  2
AcGrefMaster
  3
"AcadRfServer"
 90
    32768
280
     1
281
     0
  0
CLASS
  1
AmiMaster
  2
AmiMaster
  3
"AmiServices"
 90
    32768
280
     1
281
     0
  0
CLASS
  1
ACASGREFMASTER
  2
AcAsGrefMaster
  3
"AutoSurfResolver"
 90
    32768
280
     1
281
     0
  0
CLASS
  1
ADAPPL
  2
AcAdAppl
  3
"DesignerServices"
 90
    32768
280
     1
281
     0
  0
CLASS
  1
DEPMGR
  2
AcAdDepMgr
  3
"DesignerServices"
 90
    32768
280
     1
281
     0
  0
CLASS
  1
PARAMMGR
  2
AcAdParamMgr
  3
"DesignerServices"
 90
    32768
280
     1
281
     0
  0
CLASS
  1
PARAMSCOPE
  2
AcAdParamScope
  3
"DesignerServices"
 90
    32768
280
     1
281
     0
  0
CLASS
  1
"IM_SYSVAR_MAN"
  2
AcImSysVarManager
  3
"ADAM"
 90
    32768
280
     1
281
     0
  0
CLASS
  1
SYSTEM_VAR_INT
  2
AcImIntSysVar
  3
"ADAM"
 90
    32768
280
     1
281
     0
  0
CLASS
  1
SYSTEM_VAR_REAL
  2
AcImRealSysVar
  3
"ADAM"
 90
    32768
280
     1
281
     0
  0
CLASS
  1
SYSTEM_VAR_STR
  2
AcImStrSysVar
  3
"ADAM"
 90
    32768
280
     1
281
     0
  0
CLASS
  1
NAMEDAPPL
  2
AcAdNamedAppl
  3
"DesignerServices"
 90
    32768
280
     1
281
     0
  0
CLASS
  1
ADPART
  2
AcAdPart
  3
"DesignerServices"
 90
    32768
280
     1
281
     1
  0
CLASS
  1
ADBASE
  2
AcAdBase
  3
"DesignerServices"
 90
    32768
280
     1
281
     0
  0
CLASS
  1
BODYID
  2
AcAdBodyId
  3
"DesignerServices"
 90
    32768
280
     1
281
     0
  0
CLASS
  1
WORKPLANEDISPLAYMGR
  2
AcAdDisplayMgr
  3
"DesignerServices"
 90
    32768
280
     1
281
     0
  0
CLASS
  1
ADHNTMPLT
  2
AdHoleNoteTemplateMgr
  3
"DesignerServices"
 90
    32768
280
     1
281
     0
  0
CLASS
  1
AM_HNTEMPLATE_MGR_NAME
  2
AdHoleNoteTemplateMgrName
  3
"DesignerServices"
 90
    32768
280
     1
281
     0
  0
CLASS
  1
AcAdGrefModule
  2
AcAdGrefModule
  3
AD_GREF_SERVICES_NSTR
 90
    32768
280
     1
281
     0
  0
CLASS
  1
AM_DRAWING_MGR
  2
AcDmDwgMgr
  3
"Designer_Drawing_Mgmt"
 90
    32768
280
     1
281
     0
  0
CLASS
  1
AM_DWG_DOCUMENT
  2
AcDmDwgDocument
  3
"Designer_Drawing_Mgmt"
 90
    32768
280
     1
281
     0
  0
CLASS
  1
AM_DWG_SHEET
  2
AcDmSheet
  3
"Designer_Drawing_Mgmt"
 90
    32768
280
     1
281
     0
  0
CLASS
  1
AM_VIEWDIMPARMAP
  2
AcDmViewDimParMap
  3
"Designer_Drawing_Mgmt"
 90
    32768
280
     1
281
     0
  0
CLASS
  1
AM_DWGMGR_NAME
  2
AcDmDwgMgrName
  3
"Designer_Drawing_Mgmt"
 90
    32768
280
     1
281
     0
  0
CLASS
  1
ACAMPROJECT
  2
AcAmProject
  3
"DesignerAssemblies"
 90
    32768
280
     1
281
     0
  0
CLASS
  1
ACAMGRCOMPDEF
  2
AcAmGrCompDef
  3
"DesignerAssemblies"
 90
    32768
280
     1
281
     0
  0
CLASS
  1
ACAMCOMPDEF
  2
AcAmCompDef
  3
"DesignerAssemblies"
 90
    32768
280
     1
281
     0
  0
CLASS
  1
ACAMCOMPDEFMGR
  2
AcAmCompDefMgr
  3
"DesignerAssemblies"
 90
    32768
280
     1
281
     0
  0
CLASS
  1
AMCONTEXTMGR
  2
AcAmContextMgr
  3
"DesignerAssemblies"
 90
    32768
280
     1
281
     0
  0
CLASS
  1
AcAmContextModeler
  2
AcAmContextModeler
  3
"DesignerAssemblies"
 90
    32768
280
     1
281
     0
  0
CLASS
  1
ACAMDRAWINGMAN
  2
AcAmDrawingMan
  3
"DesignerAssemblies"
 90
    32768
280
     1
281
     0
  0
CLASS
  1
ASSYSVARS
  2
AcAsSysVars
  3
"AutoSurf"
 90
    32768
280
     1
281
     0
  0
CLASS
  1
ASSTATICVARS
  2
AcAsStaticVars
  3
"AutoSurf"
 90
    32768
280
     1
281
     0
  0
CLASS
  1
ASAPP
  2
AcAsAppObject
  3
"AutoSurf"
 90
    32768
280
     1
281
     0
  0
CLASS
  1
AGDICTIONARY
  2
AgDictionary
  3
"AccelView"
 90
    32768
280
     1
281
     0
  0
CLASS
  1
ADDATUMPLANEABS
  2
AcAdDatumPlaneAbs
  3
"DesignerServices"
 90
    32768
280
     1
281
     0
  0
CLASS
  1
ADDATUMAXISABS
  2
AcAdDatumAxisAbs
  3
"DesignerServices"
 90
    32768
280
     1
281
     0
  0
CLASS
  1
ADDATUMORIENTEDPLANE
  2
AcAdDatumOrientedPlane
  3
"DesignerServices"
 90
    32768
280
     1
281
     0
  0
CLASS
  1
ACADPLLINEACAD
  2
AcAdVirtualLinePlineAcad
  3
"DesignerServices"
 90
    32768
280
     1
281
     0
  0
CLASS
  1
ACADREFLINEACAD
  2
AcAdVirtualReferenceLine
  3
"DesignerServices"
 90
    32768
280
     1
281
     0
  0
CLASS
  1
ACADCONSLINE
  2
AcAdConstrainedLine
  3
"DesignerServices"
 90
    32768
280
     1
281
     0
  0
CLASS
  1
ACADCONSGROUP
  2
AcAdConstraintGroup
  3
"DesignerServices"
 90
    32768
280
     1
281
     0
  0
CLASS
  1
ACADIMPPTACAD
  2
AcAdVirtualImplicitPoint
  3
"DesignerServices"
 90
    32768
280
     1
281
     0
  0
CLASS
  1
ACADCONSPOINT
  2
AcAdConstrainedPoint
  3
"DesignerServices"
 90
    32768
280
     1
281
     0
  0
CLASS
  1
ADPCURCNS
  2
AcAdPointCurveConstr
  3
"DesignerServices"
 90
    32768
280
     1
281
     0
  0
CLASS
  1
ADVERCNS
  2
AcAdVerticalConstr
  3
"DesignerServices"
 90
    32768
280
     1
281
     0
  0
CLASS
  1
ADHORCNS
  2
AcAdHorizontalConstr
  3
"DesignerServices"
 90
    32768
280
     1
281
     0
  0
CLASS
  1
ADCLPROF2D
  2
AcAdClosedProfile2d
  3
"DesignerServices"
 90
    32768
280
     1
281
     0
  0
CLASS
  1
ADCONSDISP
  2
AcAdConstraintDisplay
  3
"DesignerServices"
 90
    32768
280
     1
281
     1
  0
CLASS
  1
ADCONSTDSP
  2
AcAdConstraintDisplayTag
  3
"DesignerServices"
 90
    32768
280
     1
281
     1
  0
CLASS
  1
ADPARCNS
  2
AcAdParallelConstr
  3
"DesignerServices"
 90
    32768
280
     1
281
     0
  0
CLASS
  1
PARAM
  2
AcAdParam
  3
"DesignerServices"
 90
    32768
280
     1
281
     0
  0
CLASS
  1
ADVDISTCNS
  2
AcAdLinearDistanceConstr
  3
"DesignerServices"
 90
    32768
280
     1
281
     0
  0
CLASS
  1
ACMELINEARARROW
  2
AcImLinearArrowDisplay
  3
ACME_MODULE_NAME
 90
    32768
280
     1
281
     1
  0
CLASS
  1
ADEXTRUSIONBLIND
  2
AcAdExtrusionBlind
  3
"DesignerServices"
 90
    32768
280
     1
281
     0
  0
CLASS
  1
ACADCIRCLEACAD
  2
AcAdVirtualCircleAcad
  3
"DesignerServices"
 90
    32768
280
     1
281
     0
  0
CLASS
  1
ACADCONSCIRCLE
  2
AcAdConstrainedCircle
  3
"DesignerServices"
 90
    32768
280
     1
281
     0
  0
CLASS
  1
ADCTRPTCNS
  2
AcAdCenterPointConstr
  3
"DesignerServices"
 90
    32768
280
     1
281
     0
  0
CLASS
  1
ADDIACNS
  2
AcAdAcadDiameterConstr
  3
"DesignerServices"
 90
    32768
280
     1
281
     0
  0
CLASS
  1
HVREFID
  2
AcAdHVRefId
  3
"DesignerServices"
 90
    32768
280
     1
281
     0
  0
CLASS
  1
ACADLINEDEPID
  2
AcAdVirtualPointDepId
  3
"DesignerServices"
 90
    32768
280
     1
281
     0
  0
CLASS
  1
ADVDISTCNS
  2
AcAdVerticalDistanceConstr
  3
"DesignerServices"
 90
    32768
280
     1
281
     0
  0
CLASS
  1
ADHDISTCNS
  2
AcAdHorizontalDistanceConstr
  3
"DesignerServices"
 90
    32768
280
     1
281
     0
  0
CLASS
  1
ADFEATRECTARRAY
  2
AcAdRectangularFeatArray
  3
"DesignerServices"
 90
    32768
280
     1
281
     0
  0
CLASS
  1
ADPLANEID
  2
AcAdPlaneId
  3
"DesignerServices"
 90
    32768
280
     1
281
     0
  0
CLASS
  1
ADDATUMPLANEFACE
  2
AcAdDatumPlaneFace
  3
"DesignerServices"
 90
    32768
280
     1
281
     0
  0
CLASS
  1
ADSTRAIGHTID
  2
AcAdStraightId
  3
"DesignerServices"
 90
    32768
280
     1
281
     0
  0
CLASS
  1
ADDATUMAXISEDGE
  2
AcAdDatumAxisEdge
  3
"DesignerServices"
 90
    32768
280
     1
281
     0
  0
CLASS
  1
ACADPLARCACAD
  2
AcAdVirtualArcPlineAcad
  3
"DesignerServices"
 90
    32768
280
     1
281
     0
  0
CLASS
  1
ADCOLNCNS
  2
AcAdColinearConstr
  3
"DesignerServices"
 90
    32768
280
     1
281
     0
  0
CLASS
  1
ADTANCNS
  2
AcAdTangentConstr
  3
"DesignerServices"
 90
    32768
280
     1
281
     0
  0
CLASS
  1
ADEQRADCNS
  2
AcAdEqualRadiusConstr
  3
"DesignerServices"
 90
    32768
280
     1
281
     0
  0
CLASS
  1
STREFID
  2
AcAdStraightRefId
  3
"DesignerServices"
 90
    32768
280
     1
281
     0
  0
CLASS
  1
ACADLINEDEPID
  2
AcAdVirtualLineDepId
  3
"DesignerServices"
 90
    32768
280
     1
281
     0
  0
CLASS
  1
RAYREFID
  2
AcAdRayRefId
  3
"DesignerServices"
 90
    32768
280
     1
281
     0
  0
CLASS
  1
ADPDISTCNS
  2
AcAdParallelDistanceConstr
  3
"DesignerServices"
 90
    32768
280
     1
281
     0
  0
CLASS
  1
ADRADCNS
  2
AcAdAcadRadiusConstr
  3
"DesignerServices"
 90
    32768
280
     1
281
     0
  0
CLASS
  1
ADPERPCNS
  2
AcAdPerpendicularConstr
  3
"DesignerServices"
 90
    32768
280
     1
281
     0
  0
CLASS
  1
CIRREFID
  2
AcAdCircleRefId
  3
"DesignerServices"
 90
    32768
280
     1
281
     0
  0
CLASS
  1
ACADCIRCDEPID
  2
AcAdVirtualCircleDepId
  3
"DesignerServices"
 90
    32768
280
     1
281
     0
  0
CLASS
  1
ADPLANEID
  2
AcAdSurfGeomId
  3
"DesignerServices"
 90
    32768
280
     1
281
     0
  0
CLASS
  1
ADDATUMAXISCENTER
  2
AcAdDatumAxisCenter
  3
"DesignerServices"
 90
    32768
280
     1
281
     0
  0
CLASS
  1
ADDATUMPOINTAXISPLANE
  2
AcAdDatumPointAxisPlane
  3
"DesignerServices"
 90
    32768
280
     1
281
     0
  0
CLASS
  1
ADHOLEFEAT
  2
AcAdHoleFeat
  3
"DesignerServices"
 90
    32768
280
     1
281
     0
  0
CLASS
  1
ADCONCCNS
  2
AcAdConcentricConstr
  3
"DesignerServices"
 90
    32768
280
     1
281
     0
  0
CLASS
  1
ADEXTRUSIONTOPLANE
  2
AcAdExtrusionToPlane
  3
"DesignerServices"
 90
    32768
280
     1
281
     0
  0
CLASS
  1
ADBDISTCNS
  2
AcAdAcadAngleConstr
  3
"DesignerServices"
 90
    32768
280
     1
281
     0
  0
CLASS
  1
ADPATH2D
  2
AcAdPath2d
  3
"DesignerServices"
 90
    32768
280
     1
281
     0
  0
CLASS
  1
DATUMPLANEDISPLAY
  2
AcAdDatumPlaneDisplay
  3
"DesignerServices"
 90
    32768
280
     1
281
     1
  0
CLASS
  1
ADDATUMPLANEXSECT
  2
AcAdDatumPlaneXSect
  3
"DesignerServices"
 90
    32768
280
     1
281
     0
  0
CLASS
  1
DATUMPOINTDISPLAY
  2
AcAdDatumPointDisplay
  3
"DesignerServices"
 90
    32768
280
     1
281
     1
  0
CLASS
  1
ADDATUMPOINTPATHSTART
  2
AcAdDatumPointPathStart
  3
"DesignerServices"
 90
    32768
280
     1
281
     0
  0
CLASS
  1
ACADVIRTUALPOINTDATUMID
  2
AcAdVirtualPointDatumId
  3
"DesignerServices"
 90
    32768
280
     1
281
     0
  0
CLASS
  1
ADSWEEP
  2
AcAdSweep
  3
"DesignerServices"
 90
    32768
280
     1
281
     0
  0
CLASS
  1
ADEXTRUSIONTHRU
  2
AcAdExtrusionThru
  3
"DesignerServices"
 90
    32768
280
     1
281
     0
  0
CLASS
  1
EDGEID
  2
AcAdEdgeId
  3
"DesignerServices"
 90
    32768
280
     1
281
     0
  0
CLASS
  1
ADFILLET
  2
AcAdFillet
  3
"DesignerServices"
 90
    32768
280
     1
281
     0
  0
CLASS
  1
AM_VIEW_SELECT_FILTER
  2
AcDmActivePartViewEntFilter
  3
"Designer_Drawing_Mgmt"
 90
    32768
280
     1
281
     0
  0
CLASS
  1
AM_ABS_PLANE
  2
AcDmAbsPlnDef
  3
DM_MODULE_NAME
 90
    32768
280
     1
281
     0
  0
CLASS
  1
AM_ABS_AXIS
  2
AcDmAbsAxisDef
  3
DM_MODULE_NAME
 90
    32768
280
     1
281
     0
  0
CLASS
  1
AM_BASE_VIEW_ORIENT
  2
AcDmBaseViewOr
  3
"Designer_Drawing_Mgmt"
 90
    32768
280
     1
281
     0
  0
CLASS
  1
AM_DWG_VIEWPORT
  2
AcDmViewport
  3
"Designer_Drawing_Mgmt"
 90
    32768
280
     1
281
     0
  0
CLASS
  1
AM_VIEW_DISPLAY
  2
AcDmDwgViewDisplay
  3
"Designer_Drawing_Mgmt"
 90
    32768
280
     1
281
     0
  0
CLASS
  1
AM_BASE_VIEW
  2
AcDmBaseView
  3
"Designer_Drawing_Mgmt"
 90
    32768
280
     1
281
     0
  0
CLASS
  1
ACDMVWEDARC
  2
AcDmViewEdgeArc
  3
"Designer_Drawing_Mgmt"
 90
    32768
280
     1
281
     1
  0
CLASS
  1
ACDMVWEDLINE
  2
AcDmViewEdgeLine
  3
"Designer_Drawing_Mgmt"
 90
    32768
280
     1
281
     1
  0
CLASS
  1
ACDMVWEDSPLINE
  2
AcDmViewEdgeSpline
  3
"Designer_Drawing_Mgmt"
 90
    32768
280
     1
281
     1
  0
CLASS
  1
ACDMVWEDCIRC
  2
AcDmViewEdgeCircle
  3
"Designer_Drawing_Mgmt"
 90
    32768
280
     1
281
     1
  0
CLASS
  1
ACADSKETCHPOINTRES
  2
AcAdSketchPointRes
  3
"DesignerServices"
 90
    32768
280
     1
281
     0
  0
CLASS
  1
ACADSKETCHCIRCARCRES
  2
AcAdSketchCircArcRes
  3
"DesignerServices"
 90
    32768
280
     1
281
     0
  0
CLASS
  1
ACADSKETCHLINERES
  2
AcAdSketchLineRes
  3
"DesignerServices"
 90
    32768
280
     1
281
     0
  0
CLASS
  1
AM_VIEWDIMLINEAR
  2
AcDmViewDimLinear
  3
"Designer_Drawing_Mgmt"
 90
    32768
280
     1
281
     0
  0
CLASS
  1
AM_VIEWDIMDIAMETER
  2
AcDmViewDimDiameter
  3
"Designer_Drawing_Mgmt"
 90
    32768
280
     1
281
     0
  0
CLASS
  1
AM_VIEWDIMRADIUS
  2
AcDmViewDimRadius
  3
"Designer_Drawing_Mgmt"
 90
    32768
280
     1
281
     0
  0
CLASS
  1
AM_VIEWDIMPARALLEL
  2
AcDmViewDimParallel
  3
"Designer_Drawing_Mgmt"
 90
    32768
280
     1
281
     0
  0
CLASS
  1
AM_VIEWDIMANGULAR
  2
AcDmViewDimAngular
  3
"Designer_Drawing_Mgmt"
 90
    32768
280
     1
281
     0
  0
CLASS
  1
AM_ORTHO_VIEW_ORIENT
  2
AcDmOrthoViewOr
  3
"Designer_Drawing_Mgmt"
 90
    32768
280
     1
281
     0
  0
CLASS
  1
AM_ORTHO_VIEW
  2
AcDmOrthoView
  3
"Designer_Drawing_Mgmt"
 90
    32768
280
     1
281
     0
  0
CLASS
  1
AM_ISO_VIEW_ORIENT
  2
AcDmIsoViewOr
  3
"Designer_Drawing_Mgmt"
 90
    32768
280
     1
281
     0
  0
CLASS
  1
AM_ISO_VIEW
  2
AcDmIsoView
  3
"Designer_Drawing_Mgmt"
 90
    32768
280
     1
281
     0
  0
CLASS
  1
AcAdPartCircEdgRES
  2
AcAdPartCircEdgRes
  3
AD_GREF_SERVICES_NSTR
 90
    32768
280
     1
281
     0
  0
CLASS
  1
ACADPARTELLIPSEEDGERES
  2
AcAdPartEllipseEdgeRes
  3
AD_GREF_SERVICES_NSTR
 90
    32768
280
     1
281
     0
  0
CLASS
  1
ELLREFID
  2
AcAdEllipseRefId
  3
"DesignerServices"
 90
    32768
280
     1
281
     0
  0
CLASS
  1
ACADPARTLINEDGRES
  2
AcAdPartLinEdgRes
  3
AD_GREF_SERVICES_NSTR
 90
    32768
280
     1
281
     0
  0
CLASS
  1
CNRREFID
  2
AcAdCornerId
  3
"DesignerServices"
 90
    32768
280
     1
281
     0
  0
CLASS
  1
ACADPARTPOINTRES
  2
AcAdPartPointRes
  3
AD_GREF_SERVICES_NSTR
 90
    32768
280
     1
281
     0
  0
CLASS
  1
ACAMGRCOMPSET
  2
AcAmGrCompSet
  3
DesignerAssemblies
 90
    32768
280
     1
281
     0
  0
CLASS
  1
ACAMGRCOMPDEFSET
  2
AcAmGrCompDefSet
  3
DesignerAssemblies
 90
    32768
280
     1
281
     0
  0
CLASS
  1
ACDMVIEWGEOM
  2
AcDmViewGeometry
  3
AcMechDwgViewMgmt
 90
    32768
280
     1
281
     1
  0
CLASS
  1
ACADCIRCLEACAD
  2
AcAdVirtualVertex
  3
DesignerServices
 90
    32768
280
     1
281
     0
  0
CLASS
  1
ACADCIRCLEACAD
  2
AcAdVirtualContainer
  3
DesignerServices
 90
    32768
280
     1
281
     0
  0
CLASS
  1
ADPROJCNS
  2
AcAdProjectionConstr
  3
DesignerServices
 90
    32768
280
     1
281
     0
  0
CLASS
  1
AM_FULLPOINTSECTION
  2
AcDmFullPointSection
  3
AcMechDwgViewMgmt
 90
    32768
280
     1
281
     0
  0
CLASS
  1
AM_SECTIONSYMBOL
  2
AcDmSectionSymbol
  3
AcMechDwgViewMgmt
 90
    32768
280
     1
281
     0
  0
CLASS
  1
AM_VIEWLABEL
  2
AcDmViewLabel
  3
AcMechDwgViewMgmt
 90
    32768
280
     1
281
     0
  0
CLASS
  1
ACRFATTGENMGR
  2
AcRfAttGeneralMgr
  3
"AcadRfServer"
 90
    32768
280
     1
281
     0
  0
CLASS
  1
ACDBDICTIONARYWDFLT
  2
AcDbDictionaryWithDefault
  3
AutoCAD 2000
 90
    32768
280
     0
281
     0
  0
CLASS
  1
ACDBPLACEHOLDER
  2
AcDbPlaceHolder
  3
AutoCAD 2000
 90
    32768
280
     0
281
     0
  0
CLASS
  1
LAYOUT
  2
AcDbLayout
  3
AutoCAD 2000
 90
    32768
280
     0
281
     0
  0
CLASS
  1
LONG_TRANSACTION
  2
AcDbLongTransaction
  3
AutoCAD 2000
 90
    32768
280
     0
281
     0
  0
CLASS
  1
LWPOLYLINE
  2
AcDbPolyline
  3
AutoCAD 2000
 90
    32768
280
     0
281
     1
  0
CLASS
  1
HATCH
  2
AcDbHatch
  3
AutoCAD 2000
 90
    32768
280
     0
281
     1
  0
CLASS
  1
XRECORD
  2
AcDbXrecord
  3
AutoCAD 2000
 90
    32768
280
     0
281
     0
  0
ENDSEC
  0
SECTION
  2
TABLES
  0
TABLE
  2
VPORT
  5
12
330
0
100
AcDbSymbolTable
 70
     2
  0
VPORT
  5
BA3
330
12
100
AcDbSymbolTableRecord
100
AcDbViewportTableRecord
  2
*ACTIVE
 70
     0
 10
0.0
 20
0.0
 11
1.0
 21
1.0
 12
8.424850402609962
 22
-157.4952721646906
 13
0.0
 23
0.0
 14
1.0
 24
1.0
 15
10.0
 25
10.0
 16
0.0
 26
0.0
 36
1.0
 17
205.7937810153394
 27
298.7052387384286
 37
-15.21531516126031
 40
334.9817621240835
 41
1.448317307692307
 42
50.0
 43
0.0
 44
0.0
 50
0.0
 51
0.0
 71
     0
 72
   500
 73
     1
 74
     1
 75
     0
 76
     0
 77
     0
 78
     0
  0
ENDTAB
  0
TABLE
  2
LTYPE
  5
E
330
0
100
AcDbSymbolTable
 70
     3
  0
LTYPE
  5
F
330
E
100
AcDbSymbolTableRecord
100
AcDbLinetypeTableRecord
  2
BYBLOCK
 70
     0
  3

 72
    65
 73
     0
 40
0.0
  0
LTYPE
  5
6
330
E
100
AcDbSymbolTableRecord
100
AcDbLinetypeTableRecord
  2
BYLAYER
 70
     0
  3

 72
    65
 73
     0
 40
0.0
  0
LTYPE
  5
5
330
E
100
AcDbSymbolTableRecord
100
AcDbLinetypeTableRecord
  2
CONTINUOUS
 70
     0
  3
Solid line
 72
    65
 73
     0
 40
0.0
  0
LTYPE
  5
39
330
E
100
AcDbSymbolTableRecord
100
AcDbLinetypeTableRecord
  2
CENTER
 70
     0
  3
____ _ ____ _ ____ _ ____ _ ____ _ ____ _ ____ 
 72
    65
 73
     4
 40
2.0
 49
1.25
 74
     0
 49
-0.25
 74
     0
 49
0.25
 74
     0
 49
-0.25
 74
     0
  0
LTYPE
  5
1C
330
E
100
AcDbSymbolTableRecord
100
AcDbLinetypeTableRecord
  2
HIDDEN
 70
     0
  3
__ __ __ __ __ __ __ __ __ __ __ __ __ __ __ __
 72
    65
 73
     2
 40
0.375
 49
0.25
 74
     0
 49
-0.125
 74
     0
  0
ENDTAB
  0
TABLE
  2
LAYER
  5
B
330
0
100
AcDbSymbolTable
 70
     4
  0
LAYER
  5
4
330
B
100
AcDbSymbolTableRecord
100
AcDbLayerTableRecord
  2
0
 70
     0
 62
     7
  6
CONTINUOUS
  0
LAYER
  5
1B
330
B
100
AcDbSymbolTableRecord
100
AcDbLayerTableRecord
  2
L2
 70
     0
 62
     1
  6
HIDDEN
  0
LAYER
  5
21
330
B
100
AcDbSymbolTableRecord
100
AcDbLayerTableRecord
  2
L1
 70
     0
 62
     7
  6
CONTINUOUS
  0
LAYER
  5
38
330
B
100
AcDbSymbolTableRecord
100
AcDbLayerTableRecord
  2
L6
 70
     0
 62
     1
  6
CENTER
  0
ENDTAB
  0
TABLE
  2
STYLE
  5
C
330
0
100
AcDbSymbolTable
 70
     2
  0
STYLE
  5
D
330
C
100
AcDbSymbolTableRecord
100
AcDbTextStyleTableRecord
  2
STANDARD
 70
     0
 40
0.0
 41
1.0
 50
0.0
 71
     0
 42
2.5
  3
ISOCP
  4

  0
STYLE
  5
1D
330
C
100
AcDbSymbolTableRecord
100
AcDbTextStyleTableRecord
  2
SIMPLEX
 70
     0
 40
0.0
 41
0.8
 50
0.0
 71
     0
 42
2.5
  3
SIMPLEX.SHX
  4

  0
ENDTAB
  0
TABLE
  2
VIEW
  5
10
330
0
100
AcDbSymbolTable
 70
     0
  0
ENDTAB
  0
TABLE
  2
UCS
  5
11
330
0
100
AcDbSymbolTable
 70
     0
  0
ENDTAB
  0
TABLE
  2
APPID
  5
14
330
0
100
AcDbSymbolTable
 70
     1
  0
APPID
  5
15
330
14
100
AcDbSymbolTableRecord
100
AcDbRegAppTableRecord
  2
ACAD
 70
     0
  0
ENDTAB
  0
TABLE
  2
DIMSTYLE
  5
16
330
0
100
AcDbSymbolTable
 70
     1
  0
DIMSTYLE
105
1F
330
16
100
AcDbSymbolTableRecord
100
AcDbDimStyleTableRecord
  2
FIBOX
 70
     0
  3

  4

  5

  6

  7

 40
1.0
 41
3.5
 42
0.1
 43
0.38
 44
0.18
 45
0.0
 46
0.0
 47
0.0
 48
0.0
140
3.5
141
1.0
142
0.0
143
25.4
144
1.0
145
0.0
146
1.0
147
1.0
 71
     0
 72
     0
 73
     0
 74
     0
 75
     0
 76
     0
 77
     1
 78
     8
170
     0
171
     2
172
     1
173
     0
174
     0
175
     0
176
     1
177
     1
178
     3
270
     2
271
     1
272
     2
273
     2
274
     2
340
1D
275
     0
280
     0
281
     0
282
     0
283
     1
284
     8
285
     0
286
     0
287
     3
288
     0
  0
ENDTAB
  0
TABLE
  2
BLOCK_RECORD
  5
1
330
0
100
AcDbSymbolTable
 70
     0
  0
BLOCK_RECORD
  5
2
102
{ACAD_XDICTIONARY
360
BA4
102
}
330
1
100
AcDbSymbolTableRecord
100
AcDbBlockTableRecord
  2
*MODEL_SPACE
  0
BLOCK_RECORD
  5
8
102
{ACAD_XDICTIONARY
360
BA6
102
}
330
1
100
AcDbSymbolTableRecord
100
AcDbBlockTableRecord
  2
*PAPER_SPACE
  0
ENDTAB
  0
ENDSEC
  0
SECTION
  2
BLOCKS
  0
BLOCK
  5
3
330
2
100
AcDbEntity
  8
0
100
AcDbBlockBegin
  2
*MODEL_SPACE
 70
     0
 10
0.0
 20
0.0
 30
0.0
  3
*MODEL_SPACE
  1

  0
ENDBLK
  5
7
330
2
100
AcDbEntity
  8
0
100
AcDbBlockEnd
  0
BLOCK
  5
9
330
8
100
AcDbEntity
 67
     1
  8
0
100
AcDbBlockBegin
  2
*PAPER_SPACE
 70
     0
 10
0.0
 20
0.0
 30
0.0
  3
*PAPER_SPACE
  1

  0
ENDBLK
  5
A
330
8
100
AcDbEntity
 67
     1
  8
0
100
AcDbBlockEnd
  0
ENDSEC
  0
SECTION
  2
ENTITIES
  0
LINE
  5
20
330
2
100
AcDbEntity
  8
L1
100
AcDbLine
 10
144.4391540396168
 20
157.8451348310728
 30
0.0
 11
144.4391540396168
 21
84.75524993465249
 31
0.0
  0
LINE
  5
22
330
2
100
AcDbEntity
  8
L1
100
AcDbLine
 10
132.6457535555232
 20
148.0791141158994
 30
0.0
 11
133.2788927715757
 21
148.7122533319519
 31
0.0
  0
ELLIPSE
  5
23
330
2
100
AcDbEntity
  8
L1
100
AcDbEllipse
 10
143.700738837046
 20
148.8060837617953
 30
0.0
 11
0.0
 21
-1.69649782936798
 31
0.0
210
0.0
220
0.0
230
-1.0
 40
0.0087265354983806
 41
-1.570796326794896
 42
-0.0087263139916212
  0
ARC
  5
24
330
2
100
AcDbEntity
  8
L1
100
AcDbCircle
 10
136.6174196432524
 20
153.5232671654334
 30
0.0
 40
6.799999999999897
100
AcDbArc
 50
180.0
 51
270.0
  0
ARC
  5
25
330
2
100
AcDbEntity
  8
L1
100
AcDbCircle
 10
136.1443448606822
 20
153.0501923828627
 30
0.0
 40
5.099999999999999
100
AcDbArc
 50
236.7249979980041
 51
321.6082214206732
  0
ARC
  5
26
330
2
100
AcDbEntity
  8
L1
100
AcDbCircle
 10
136.1443448606822
 20
153.0501923828627
 30
0.0
 40
4.70630101413334
100
AcDbArc
 50
114.5139055063791
 51
335.4860944935798
  0
LINE
  5
27
330
2
100
AcDbEntity
  8
L1
100
AcDbLine
 10
141.5235512973027
 20
146.7293873964026
 30
0.0
 11
141.5235512973027
 21
157.3319940332241
 31
0.0
  0
LINE
  5
28
330
2
100
AcDbEntity
  8
L1
100
AcDbLine
 10
143.5287417247844
 20
157.6346958623851
 30
0.0
 11
143.5287417247844
 21
146.7293873964026
 31
0.0
  0
ARC
  5
29
330
2
100
AcDbEntity
  8
L1
100
AcDbCircle
 10
136.6174196432524
 20
153.5232671654334
 30
0.0
 40
6.738911925464585
100
AcDbArc
 50
216.1118255431146
 51
233.8881744568919
  0
ARC
  5
2A
330
2
100
AcDbEntity
  8
L1
100
AcDbCircle
 10
22.17127007811191
 20
153.5232671654334
 30
0.0
 40
6.738911925464585
100
AcDbArc
 50
306.111825543108
 51
323.8881744568853
  0
LINE
  5
2B
330
2
100
AcDbEntity
  8
L1
100
AcDbLine
 10
26.14293616584111
 20
148.0791141158994
 30
0.0
 11
25.50979694978857
 21
148.7122533319519
 31
0.0
  0
ELLIPSE
  5
2C
330
2
100
AcDbEntity
  8
L1
100
AcDbEllipse
 10
15.08795088431829
 20
148.8060837617953
 30
0.0
 11
0.0
 21
-1.69649782936798
 31
0.0
210
0.0
220
0.0
230
1.0
 40
0.0087265354983806
 41
-1.570796326794896
 42
-0.0087263139916212
  0
ARC
  5
2D
330
2
100
AcDbEntity
  8
L1
100
AcDbCircle
 10
22.64434486068207
 20
153.0501923828627
 30
0.0
 40
5.099999999999999
100
AcDbArc
 50
218.3917785793267
 51
303.2750020019958
  0
ARC
  5
2E
330
2
100
AcDbEntity
  8
L1
100
AcDbCircle
 10
22.17127007811191
 20
153.5232671654334
 30
0.0
 40
6.799999999999897
100
AcDbArc
 50
270.0
 51
0.0
  0
LINE
  5
2F
330
2
100
AcDbEntity
  8
L1
100
AcDbLine
 10
17.26513842406157
 20
146.7293873964026
 30
0.0
 11
17.26513842406157
 21
157.3319940332241
 31
0.0
  0
LINE
  5
30
330
2
100
AcDbEntity
  8
L1
100
AcDbLine
 10
15.25994799657987
 20
157.6346958623851
 30
0.0
 11
15.25994799657987
 21
146.7293873964026
 31
0.0
  0
ARC
  5
31
330
2
100
AcDbEntity
  8
L1
100
AcDbCircle
 10
22.64434486068207
 20
153.0501923828627
 30
0.0
 40
4.70630101413334
100
AcDbArc
 50
204.5139055064222
 51
65.48609449362088
  0
LINE
  5
35
330
2
100
AcDbEntity
  8
L1
100
AcDbLine
 10
175.3063575627614
 20
81.85019238286258
 30
0.0
 11
175.3063575627614
 21
160.7501923828284
 31
0.0
  0
SPLINE
  5
36
330
2
100
AcDbEntity
  8
L1
 62
     9
100
AcDbSpline
210
0.0
220
0.0
230
1.0
 70
     8
 71
     3
 72
    22
 73
    18
 74
     0
 42
0.0000000001
 43
0.0000000001
 40
0.0
 40
0.0
 40
0.0
 40
0.0
 40
0.6579131854116439
 40
0.6579131854116439
 40
1.315826370823287
 40
1.315826370823287
 40
1.973739556234931
 40
1.973739556234931
 40
2.631652741646575
 40
2.631652741646575
 40
3.289565927058184
 40
3.289565927058184
 40
3.947479112469793
 40
3.947479112469793
 40
4.605392297881402
 40
4.605392297881402
 40
5.263305483293011
 40
5.263305483293011
 40
5.263305483293011
 40
5.263305483293011
 10
175.9011631193714
 20
161.3449979394569
 30
0.0
 10
175.9008489809932
 20
84.53088843770739
 30
0.0
 10
175.9005562485618
 20
84.30410912029335
 30
0.0
 10
175.9000428094689
 20
83.85300709790723
 30
0.0
 10
175.8998220259087
 20
83.62868070135819
 30
0.0
 10
175.899468532925
 20
83.19842946626263
 30
0.0
 10
175.8993355138259
 20
82.99216304852526
 30
0.0
 10
175.8991612119225
 20
82.61069699558705
 30
0.0
 10
175.8991199591272
 20
82.43550803226451
 30
0.0
 10
175.8991199591272
 20
82.12536478237344
 30
0.0
 10
175.8991612119225
 20
81.97979803080771
 30
0.0
 10
175.8993355138259
 20
81.72313508695458
 30
0.0
 10
175.899468532925
 20
81.61202303389227
 30
0.0
 10
175.8998220259087
 20
81.43345358310812
 30
0.0
 10
175.900042809469
 20
81.36585440828282
 30
0.0
 10
175.9005562485618
 20
81.27696873078289
 30
0.0
 10
175.9008489809933
 20
81.25570096463071
 30
0.0
 10
175.9011631193716
 20
81.25538682625244
 30
0.0
  0
LINE
  5
37
330
2
100
AcDbEntity
  8
L6
 62
     1
100
AcDbLine
 10
79.39434486068217
 20
78.86895552568034
 30
0.0
 11
79.39434486068217
 21
163.3842579765564
 31
0.0
  0
LINE
  5
3A
330
2
100
AcDbEntity
  8
L1
100
AcDbLine
 10
14.34953568174745
 20
157.8451348310728
 30
0.0
 11
14.34953568174745
 21
84.75524993465249
 31
0.0
  0
LINE
  5
3B
330
2
100
AcDbEntity
  8
L1
100
AcDbLine
 10
14.34953568174745
 20
157.8451348310728
 30
0.0
 11
14.34953568174745
 21
84.75524993465249
 31
0.0
  0
LINE
  5
3C
330
2
100
AcDbEntity
  8
L6
 48
0.3
100
AcDbLine
 10
136.1443448606822
 20
146.3627555066737
 30
0.0
 11
136.1443448606822
 21
159.5852727096286
 31
0.0
  0
LINE
  5
3D
330
2
100
AcDbEntity
  8
L6
 48
0.3
100
AcDbLine
 10
22.64434486068208
 20
159.3310750410065
 30
0.0
 11
22.64434486068208
 21
146.7514974939244
 31
0.0
  0
LINE
  5
3E
330
2
100
AcDbEntity
  8
L6
 62
     1
100
AcDbLine
 10
12.81848662221386
 20
121.3001923828626
 30
0.0
 11
145.9702030991504
 21
121.3001923828626
 31
0.0
  0
LINE
  5
3F
330
2
100
AcDbEntity
  8
L1
100
AcDbLine
 10
17.84940241247204
 20
81.2553832039279
 30
0.0
 11
140.9392873088922
 21
81.25538320392788
 31
0.0
  0
LINE
  5
40
330
2
100
AcDbEntity
  8
L1
100
AcDbLine
 10
29.0500164260128
 20
81.45531185360624
 30
0.0
 11
129.7386732953911
 21
81.45531185360622
 31
0.0
  0
LINE
  5
41
330
2
100
AcDbEntity
  8
L1
100
AcDbLine
 10
17.84940241247204
 20
81.2553832039279
 30
0.0
 11
140.9392873088922
 21
81.25538320392788
 31
0.0
  0
LINE
  5
42
330
2
100
AcDbEntity
  8
L1
100
AcDbLine
 10
29.0500164260128
 20
81.45531185360624
 30
0.0
 11
129.7386732953911
 21
81.45531185360622
 31
0.0
  0
LINE
  5
43
330
2
100
AcDbEntity
  8
L1
100
AcDbLine
 10
14.54946433142578
 20
146.644520817537
 30
0.0
 11
14.54946433142578
 21
95.95586394815368
 31
0.0
  0
LINE
  5
44
330
2
100
AcDbEntity
  8
L1
100
AcDbLine
 10
14.54946433142578
 20
146.644520817537
 30
0.0
 11
14.54946433142578
 21
95.95586394815368
 31
0.0
  0
ARC
  5
45
330
2
100
AcDbEntity
  8
L1
100
AcDbCircle
 10
22.17127007811191
 20
89.07711760034741
 30
0.0
 40
6.799999999999897
100
AcDbArc
 50
0.0
 51
90.0
  0
LINE
  5
46
330
2
100
AcDbEntity
  8
L6
 48
0.3
100
AcDbLine
 10
29.673275188399
 20
89.55019238291809
 30
0.0
 11
15.6719137439002
 21
89.55019238291809
 31
0.0
  0
ARC
  5
47
330
2
100
AcDbEntity
  8
L1
100
AcDbCircle
 10
22.64434486068207
 20
89.55019238291809
 30
0.0
 40
5.099999999999999
100
AcDbArc
 50
308.3917785793127
 51
33.2750020019976
  0
LINE
  5
48
330
2
100
AcDbEntity
  8
L1
100
AcDbLine
 10
18.02206916082334
 20
90.23326729775901
 30
0.0
 11
18.36226699935494
 21
91.50290291578391
 31
0.0
  0
CIRCLE
  5
49
330
2
100
AcDbEntity
  8
L1
100
AcDbCircle
 10
22.64434486068207
 20
89.55019238291809
 30
0.0
 40
3.360549721400785
  0
CIRCLE
  5
4A
330
2
100
AcDbEntity
  8
L1
100
AcDbCircle
 10
22.64434486068219
 20
89.55019238291804
 30
0.0
 40
2.271817169476896
  0
LINE
  5
4B
330
2
100
AcDbEntity
  8
L1
100
AcDbLine
 10
15.07314633578735
 20
93.79430100398547
 30
0.0
 11
15.07314633578735
 21
84.77888724260321
 31
0.0
  0
LINE
  5
4C
330
2
100
AcDbEntity
  8
L1
100
AcDbLine
 10
17.26513842406157
 20
95.87099736937817
 30
0.0
 11
17.26513842406157
 21
85.2683907325567
 31
0.0
  0
LINE
  5
4D
330
2
100
AcDbEntity
  8
L1
100
AcDbLine
 10
15.25994799657987
 20
84.96568890339567
 30
0.0
 11
15.25994799657987
 21
95.87099736937823
 31
0.0
  0
ARC
  5
4E
330
2
100
AcDbEntity
  8
L1
100
AcDbCircle
 10
22.64434486068207
 20
89.55019238291809
 30
0.0
 40
4.70630101413334
100
AcDbArc
 50
294.5139055063791
 51
155.4860944935755
  0
CIRCLE
  5
4F
330
2
100
AcDbEntity
  8
L1
100
AcDbCircle
 10
22.64434486068207
 20
89.55019238291809
 30
0.0
 40
3.9
  0
LINE
  5
50
330
2
100
AcDbEntity
  8
L6
 48
0.3
100
AcDbLine
 10
22.64434486068207
 20
95.83107504106186
 30
0.0
 11
22.64434486068207
 21
83.25149749397978
 31
0.0
  0
ARC
  5
51
330
2
100
AcDbEntity
  8
L1
100
AcDbCircle
 10
22.64434486068207
 20
89.55019238291809
 30
0.0
 40
4.70630101413334
100
AcDbArc
 50
195.0607978502589
 51
254.9392021498149
  0
POLYLINE
  5
52
330
2
100
AcDbEntity
  8
L1
100
AcDb2dPolyline
 66
     1
 10
0.0
 20
0.0
 30
0.0
  0
VERTEX
  5
BA8
330
52
100
AcDbEntity
  8
L1
100
AcDbVertex
100
AcDb2dVertex
 10
21.42144141539452
 20
85.00554977880323
 30
0.0
  0
VERTEX
  5
BA9
330
52
100
AcDbEntity
  8
L1
100
AcDbVertex
100
AcDb2dVertex
 10
21.17204694493025
 20
85.04626748145817
 30
0.0
  0
VERTEX
  5
BAA
330
52
100
AcDbEntity
  8
L1
100
AcDbVertex
100
AcDb2dVertex
 10
20.92091882760351
 20
85.08578200470696
 30
0.0
  0
VERTEX
  5
BAB
330
52
100
AcDbEntity
  8
L1
100
AcDbVertex
100
AcDb2dVertex
 10
20.66676636448394
 20
85.12430700742623
 30
0.0
  0
VERTEX
  5
BAC
330
52
100
AcDbEntity
  8
L1
100
AcDbVertex
100
AcDb2dVertex
 10
20.40827530366985
 20
85.16204456575684
 30
0.0
  0
SEQEND
  5
BAD
330
52
100
AcDbEntity
  8
L1
  0
LINE
  5
59
330
2
100
AcDbEntity
  8
L1
100
AcDbLine
 10
18.36254321032063
 20
84.17098594629742
 30
0.0
 11
28.96514984714226
 21
84.17098594629742
 31
0.0
  0
LINE
  5
5A
330
2
100
AcDbEntity
  8
L1
100
AcDbLine
 10
17.87303972036707
 20
81.97899385802349
 30
0.0
 11
26.88845348174939
 21
81.97899385802349
 31
0.0
  0
LINE
  5
5B
330
2
100
AcDbEntity
  8
L1
100
AcDbLine
 10
28.96514984714226
 20
82.16579551881595
 30
0.0
 11
18.05984138115959
 21
82.16579551881595
 31
0.0
  0
ARC
  5
5C
330
2
100
AcDbEntity
  8
L1
100
AcDbCircle
 10
18.36254321032063
 20
85.2683907325567
 30
0.0
 40
1.097404786259289
100
AcDbArc
 50
180.0
 51
270.0
  0
POLYLINE
  5
5D
330
2
100
AcDbEntity
  8
L1
100
AcDb2dPolyline
 66
     1
 10
0.0
 20
0.0
 30
0.0
  0
VERTEX
  5
BAE
330
5D
100
AcDbEntity
  8
L1
100
AcDbVertex
100
AcDb2dVertex
 10
17.84434486068212
 20
81.25538682630802
 30
0.0
  0
VERTEX
  5
BAF
330
5D
100
AcDbEntity
  8
L1
100
AcDbVertex
100
AcDb2dVertex
 10
17.17271058691974
 20
81.32141156958839
 30
0.0
  0
VERTEX
  5
BB0
330
5D
100
AcDbEntity
  8
L1
100
AcDbVertex
100
AcDb2dVertex
 10
16.50770756162992
 20
81.52273830855579
 30
0.0
  0
VERTEX
  5
BB1
330
5D
100
AcDbEntity
  8
L1
100
AcDbVertex
100
AcDb2dVertex
 10
15.89558249987569
 20
81.85146655893667
 30
0.0
  0
VERTEX
  5
BB2
330
5D
100
AcDbEntity
  8
L1
100
AcDbVertex
100
AcDb2dVertex
 10
15.37458888513847
 20
82.2804364073746
 30
0.0
  0
VERTEX
  5
BB3
330
5D
100
AcDbEntity
  8
L1
100
AcDbVertex
100
AcDb2dVertex
 10
14.9456190367006
 20
82.80143002211177
 30
0.0
  0
VERTEX
  5
BB4
330
5D
100
AcDbEntity
  8
L1
100
AcDbVertex
100
AcDb2dVertex
 10
14.61689078631959
 20
83.41355508386611
 30
0.0
  0
VERTEX
  5
BB5
330
5D
100
AcDbEntity
  8
L1
100
AcDbVertex
100
AcDb2dVertex
 10
14.41556404735231
 20
84.07855810915593
 30
0.0
  0
VERTEX
  5
BB6
330
5D
100
AcDbEntity
  8
L1
100
AcDbVertex
100
AcDb2dVertex
 10
14.34953930407189
 20
84.75019238291819
 30
0.0
  0
SEQEND
  5
BB7
330
5D
100
AcDbEntity
  8
L1
  0
POLYLINE
  5
68
330
2
100
AcDbEntity
  8
L1
100
AcDb2dPolyline
 66
     1
 10
0.0
 20
0.0
 30
0.0
  0
VERTEX
  5
BB8
330
68
100
AcDbEntity
  8
L1
100
AcDbVertex
100
AcDb2dVertex
 10
15.07314633578735
 20
84.77888724260321
 30
0.0
  0
VERTEX
  5
BB9
330
68
100
AcDbEntity
  8
L1
100
AcDbVertex
100
AcDb2dVertex
 10
15.08662617916914
 20
84.50444096055752
 30
0.0
  0
VERTEX
  5
BBA
330
68
100
AcDbEntity
  8
L1
100
AcDbVertex
100
AcDb2dVertex
 10
15.1269403817894
 20
84.23263976354865
 30
0.0
  0
VERTEX
  5
BBB
330
68
100
AcDbEntity
  8
L1
100
AcDbVertex
100
AcDb2dVertex
 10
15.19370073345228
 20
83.96610099209276
 30
0.0
  0
VERTEX
  5
BBC
330
68
100
AcDbEntity
  8
L1
100
AcDbVertex
100
AcDb2dVertex
 10
15.28626435776416
 20
83.70739131158119
 30
0.0
  0
VERTEX
  5
BBD
330
68
100
AcDbEntity
  8
L1
100
AcDbVertex
100
AcDb2dVertex
 10
15.40373990278535
 20
83.45900199628413
 30
0.0
  0
VERTEX
  5
BBE
330
68
100
AcDbEntity
  8
L1
100
AcDbVertex
100
AcDb2dVertex
 10
15.54499612440397
 20
83.22332493934219
 30
0.0
  0
VERTEX
  5
BBF
330
68
100
AcDbEntity
  8
L1
100
AcDbVertex
100
AcDb2dVertex
 10
15.70867277978075
 20
83.00262961975937
 30
0.0
  0
VERTEX
  5
BC0
330
68
100
AcDbEntity
  8
L1
100
AcDbVertex
100
AcDb2dVertex
 10
15.89319372596108
 20
82.79904124819715
 30
0.0
  0
VERTEX
  5
BC1
330
68
100
AcDbEntity
  8
L1
100
AcDbVertex
100
AcDb2dVertex
 10
16.09678209752328
 20
82.61452030201683
 30
0.0
  0
VERTEX
  5
BC2
330
68
100
AcDbEntity
  8
L1
100
AcDbVertex
100
AcDb2dVertex
 10
16.31747741710605
 20
82.45084364664011
 30
0.0
  0
VERTEX
  5
BC3
330
68
100
AcDbEntity
  8
L1
100
AcDbVertex
100
AcDb2dVertex
 10
16.55315447404805
 20
82.30958742502144
 30
0.0
  0
VERTEX
  5
BC4
330
68
100
AcDbEntity
  8
L1
100
AcDbVertex
100
AcDb2dVertex
 10
16.80154378934505
 20
82.19211188000029
 30
0.0
  0
VERTEX
  5
BC5
330
68
100
AcDbEntity
  8
L1
100
AcDbVertex
100
AcDb2dVertex
 10
17.06025346985668
 20
82.09954825568836
 30
0.0
  0
VERTEX
  5
BC6
330
68
100
AcDbEntity
  8
L1
100
AcDbVertex
100
AcDb2dVertex
 10
17.32679224131257
 20
82.03278790402547
 30
0.0
  0
VERTEX
  5
BC7
330
68
100
AcDbEntity
  8
L1
100
AcDbVertex
100
AcDb2dVertex
 10
17.59859343832138
 20
81.99247370140527
 30
0.0
  0
VERTEX
  5
BC8
330
68
100
AcDbEntity
  8
L1
100
AcDbVertex
100
AcDb2dVertex
 10
17.87303972036707
 20
81.97899385802349
 30
0.0
  0
SEQEND
  5
BC9
330
68
100
AcDbEntity
  8
L1
  0
POLYLINE
  5
7B
330
2
100
AcDbEntity
  8
L1
100
AcDb2dPolyline
 66
     1
 10
0.0
 20
0.0
 30
0.0
  0
VERTEX
  5
BCA
330
7B
100
AcDbEntity
  8
L1
100
AcDbVertex
100
AcDb2dVertex
 10
18.05984138115959
 20
82.16579551881606
 30
0.0
  0
VERTEX
  5
BCB
330
7B
100
AcDbEntity
  8
L1
100
AcDbVertex
100
AcDb2dVertex
 10
17.8014955473715
 20
82.17774113300002
 30
0.0
  0
VERTEX
  5
BCC
330
7B
100
AcDbEntity
  8
L1
100
AcDbVertex
100
AcDb2dVertex
 10
17.54535523976133
 20
82.21347185414719
 30
0.0
  0
VERTEX
  5
BCD
330
7B
100
AcDbEntity
  8
L1
100
AcDbVertex
100
AcDb2dVertex
 10
17.29360554538962
 20
82.27268286987877
 30
0.0
  0
VERTEX
  5
BCE
330
7B
100
AcDbEntity
  8
L1
100
AcDbVertex
100
AcDb2dVertex
 10
17.04839409578246
 20
82.35486906163094
 30
0.0
  0
VERTEX
  5
BCF
330
7B
100
AcDbEntity
  8
L1
100
AcDbVertex
100
AcDb2dVertex
 10
16.81181274587154
 20
82.45932931373049
 30
0.0
  0
VERTEX
  5
BD0
330
7B
100
AcDbEntity
  8
L1
100
AcDbVertex
100
AcDb2dVertex
 10
16.58587972875457
 20
82.58517249448754
 30
0.0
  0
VERTEX
  5
BD1
330
7B
100
AcDbEntity
  8
L1
100
AcDbVertex
100
AcDb2dVertex
 10
16.37252243851073
 20
82.73132505827957
 30
0.0
  0
VERTEX
  5
BD2
330
7B
100
AcDbEntity
  8
L1
100
AcDbVertex
100
AcDb2dVertex
 10
16.17356098794678
 20
82.89654020377723
 30
0.0
  0
VERTEX
  5
BD3
330
7B
100
AcDbEntity
  8
L1
100
AcDbVertex
100
AcDb2dVertex
 10
15.9906926815411
 20
83.07940851018292
 30
0.0
  0
VERTEX
  5
BD4
330
7B
100
AcDbEntity
  8
L1
100
AcDbVertex
100
AcDb2dVertex
 10
15.82547753604344
 20
83.27836996074687
 30
0.0
  0
VERTEX
  5
BD5
330
7B
100
AcDbEntity
  8
L1
100
AcDbVertex
100
AcDb2dVertex
 10
15.6793249722514
 20
83.49172725099071
 30
0.0
  0
VERTEX
  5
BD6
330
7B
100
AcDbEntity
  8
L1
100
AcDbVertex
100
AcDb2dVertex
 10
15.55348179149441
 20
83.71766026810762
 30
0.0
  0
VERTEX
  5
BD7
330
7B
100
AcDbEntity
  8
L1
100
AcDbVertex
100
AcDb2dVertex
 10
15.44902153939486
 20
83.95424161801853
 30
0.0
  0
VERTEX
  5
BD8
330
7B
100
AcDbEntity
  8
L1
100
AcDbVertex
100
AcDb2dVertex
 10
15.3668353476427
 20
84.19945306762569
 30
0.0
  0
VERTEX
  5
BD9
330
7B
100
AcDbEntity
  8
L1
100
AcDbVertex
100
AcDb2dVertex
 10
15.30762433191105
 20
84.45120276199746
 30
0.0
  0
VERTEX
  5
BDA
330
7B
100
AcDbEntity
  8
L1
100
AcDbVertex
100
AcDb2dVertex
 10
15.27189361076389
 20
84.70734306960762
 30
0.0
  0
VERTEX
  5
BDB
330
7B
100
AcDbEntity
  8
L1
100
AcDbVertex
100
AcDb2dVertex
 10
15.25994799657999
 20
84.96568890339567
 30
0.0
  0
SEQEND
  5
BDC
330
7B
100
AcDbEntity
  8
L1
  0
ARC
  5
8F
330
2
100
AcDbEntity
  8
L1
100
AcDbCircle
 10
22.64434486068207
 20
89.55019238291809
 30
0.0
 40
4.925022672948151
100
AcDbArc
 50
207.0020375494669
 51
242.9979624505536
  0
ARC
  5
90
330
2
100
AcDbEntity
  8
L1
100
AcDbCircle
 10
22.64434486068207
 20
89.55019238291809
 30
0.0
 40
4.70630101413334
100
AcDbArc
 50
172.8778816874932
 51
187.5866542660259
  0
POLYLINE
  5
91
330
2
100
AcDbEntity
  8
L1
100
AcDb2dPolyline
 66
     1
 10
0.0
 20
0.0
 30
0.0
  0
VERTEX
  5
BDD
330
91
100
AcDbEntity
  8
L1
100
AcDbVertex
100
AcDb2dVertex
 10
17.71890972443261
 20
90.02837521344126
 30
0.0
  0
VERTEX
  5
BDE
330
91
100
AcDbEntity
  8
L1
100
AcDbVertex
100
AcDb2dVertex
 10
17.75334751100924
 20
90.03035836989033
 30
0.0
  0
VERTEX
  5
BDF
330
91
100
AcDbEntity
  8
L1
100
AcDbVertex
100
AcDb2dVertex
 10
17.78732977969869
 20
90.03628162083924
 30
0.0
  0
SEQEND
  5
BE0
330
91
100
AcDbEntity
  8
L1
  0
POLYLINE
  5
96
330
2
100
AcDbEntity
  8
L1
100
AcDb2dPolyline
 66
     1
 10
0.0
 20
0.0
 30
0.0
  0
VERTEX
  5
BE1
330
96
100
AcDbEntity
  8
L1
100
AcDbVertex
100
AcDb2dVertex
 10
17.78732977969869
 20
90.03628162083918
 30
0.0
  0
VERTEX
  5
BE2
330
96
100
AcDbEntity
  8
L1
100
AcDbVertex
100
AcDb2dVertex
 10
17.82197715018972
 20
90.04232335994673
 30
0.0
  0
VERTEX
  5
BE3
330
96
100
AcDbEntity
  8
L1
100
AcDbVertex
100
AcDb2dVertex
 10
17.93512411162512
 20
90.09575322869578
 30
0.0
  0
VERTEX
  5
BE4
330
96
100
AcDbEntity
  8
L1
100
AcDbVertex
100
AcDb2dVertex
 10
17.96896336444515
 20
90.1274682015695
 30
0.0
  0
VERTEX
  5
BE5
330
96
100
AcDbEntity
  8
L1
100
AcDbVertex
100
AcDb2dVertex
 10
17.97435696320271
 20
90.13370097156842
 30
0.0
  0
SEQEND
  5
BE6
330
96
100
AcDbEntity
  8
L1
  0
LINE
  5
9D
330
2
100
AcDbEntity
  8
L1
100
AcDbLine
 10
17.71890972443261
 20
90.02837521344121
 30
0.0
 11
17.61052956009214
 21
90.02837521344121
 31
0.0
  0
POLYLINE
  5
9E
330
2
100
AcDbEntity
  8
L1
100
AcDb2dPolyline
 66
     1
 10
0.0
 20
0.0
 30
0.0
  0
VERTEX
  5
BE7
330
9E
100
AcDbEntity
  8
L1
100
AcDbVertex
100
AcDb2dVertex
 10
17.31054098317283
 20
90.32836379036046
 30
0.0
  0
VERTEX
  5
BE8
330
9E
100
AcDbEntity
  8
L1
100
AcDbVertex
100
AcDb2dVertex
 10
17.39840421734927
 20
90.11623844761764
 30
0.0
  0
VERTEX
  5
BE9
330
9E
100
AcDbEntity
  8
L1
100
AcDbVertex
100
AcDb2dVertex
 10
17.61052956009214
 20
90.02837521344121
 30
0.0
  0
SEQEND
  5
BEA
330
9E
100
AcDbEntity
  8
L1
  0
POLYLINE
  5
A3
330
2
100
AcDbEntity
  8
L1
100
AcDb2dPolyline
 66
     1
 10
0.0
 20
0.0
 30
0.0
  0
VERTEX
  5
BEB
330
A3
100
AcDbEntity
  8
L1
100
AcDbVertex
100
AcDb2dVertex
 10
17.61052956009225
 20
89.07200955239499
 30
0.0
  0
VERTEX
  5
BEC
330
A3
100
AcDbEntity
  8
L1
100
AcDbVertex
100
AcDb2dVertex
 10
17.39840421734939
 20
88.98414631821855
 30
0.0
  0
VERTEX
  5
BED
330
A3
100
AcDbEntity
  8
L1
100
AcDbVertex
100
AcDb2dVertex
 10
17.31054098317295
 20
88.77202097547574
 30
0.0
  0
SEQEND
  5
BEE
330
A3
100
AcDbEntity
  8
L1
  0
LINE
  5
A8
330
2
100
AcDbEntity
  8
L1
100
AcDbLine
 10
17.61052956009225
 20
89.07200955239499
 30
0.0
 11
17.69894462725838
 21
89.07200955239499
 31
0.0
  0
LINE
  5
A9
330
2
100
AcDbEntity
  8
L1
100
AcDbLine
 10
17.61052956009225
 20
89.07200955239499
 30
0.0
 11
17.61489299398786
 21
89.06764611849961
 31
0.0
  0
POLYLINE
  5
AA
330
2
100
AcDbEntity
  8
L1
100
AcDb2dPolyline
 66
     1
 10
0.0
 20
0.0
 30
0.0
  0
VERTEX
  5
BEF
330
AA
100
AcDbEntity
  8
L1
100
AcDbVertex
100
AcDb2dVertex
 10
17.97924130221681
 20
88.92884061103147
 30
0.0
  0
VERTEX
  5
BF0
330
AA
100
AcDbEntity
  8
L1
100
AcDbVertex
100
AcDb2dVertex
 10
17.94847506866451
 20
88.97089029181772
 30
0.0
  0
VERTEX
  5
BF1
330
AA
100
AcDbEntity
  8
L1
100
AcDbVertex
100
AcDb2dVertex
 10
17.91440062483743
 20
89.00257552732709
 30
0.0
  0
VERTEX
  5
BF2
330
AA
100
AcDbEntity
  8
L1
100
AcDbVertex
100
AcDb2dVertex
 10
17.80043304090966
 20
89.05590508187474
 30
0.0
  0
VERTEX
  5
BF3
330
AA
100
AcDbEntity
  8
L1
100
AcDbVertex
100
AcDb2dVertex
 10
17.78789175510737
 20
89.05852025896068
 30
0.0
  0
SEQEND
  5
BF4
330
AA
100
AcDbEntity
  8
L1
  0
POLYLINE
  5
B1
330
2
100
AcDbEntity
  8
L1
100
AcDb2dPolyline
 66
     1
 10
0.0
 20
0.0
 30
0.0
  0
VERTEX
  5
BF5
330
B1
100
AcDbEntity
  8
L1
100
AcDbVertex
100
AcDb2dVertex
 10
17.78789175510737
 20
89.05852025896068
 30
0.0
  0
VERTEX
  5
BF6
330
B1
100
AcDbEntity
  8
L1
100
AcDbVertex
100
AcDb2dVertex
 10
17.74392691221683
 20
89.0686180593917
 30
0.0
  0
VERTEX
  5
BF7
330
B1
100
AcDbEntity
  8
L1
100
AcDbVertex
100
AcDb2dVertex
 10
17.69894462725838
 20
89.07200955239504
 30
0.0
  0
SEQEND
  5
BF8
330
B1
100
AcDbEntity
  8
L1
  0
LINE
  5
B6
330
2
100
AcDbEntity
  8
L1
100
AcDbLine
 10
17.69528327148614
 20
89.06764611849961
 30
0.0
 11
17.69894462725838
 21
89.07200955239499
 31
0.0
  0
LINE
  5
B7
330
2
100
AcDbEntity
  8
L1
100
AcDbLine
 10
17.31490441706855
 20
88.76765754158036
 30
0.0
 11
17.31054098317295
 21
88.77202097547574
 31
0.0
  0
LINE
  5
B8
330
2
100
AcDbEntity
  8
L1
100
AcDbLine
 10
17.31054098317295
 20
90.32836379036046
 30
0.0
 11
17.31054098317295
 21
88.77202097547574
 31
0.0
  0
POLYLINE
  5
B9
330
2
100
AcDbEntity
  8
L1
100
AcDb2dPolyline
 66
     1
 10
0.0
 20
0.0
 30
0.0
  0
VERTEX
  5
BF9
330
B9
100
AcDbEntity
  8
L1
100
AcDbVertex
100
AcDb2dVertex
 10
18.25619704352166
 20
87.31412282590428
 30
0.0
  0
VERTEX
  5
BFA
330
B9
100
AcDbEntity
  8
L1
100
AcDbVertex
100
AcDb2dVertex
 10
18.21845948519128
 20
87.57261388671746
 30
0.0
  0
VERTEX
  5
BFB
330
B9
100
AcDbEntity
  8
L1
100
AcDbVertex
100
AcDb2dVertex
 10
18.17993448247207
 20
87.82676634983618
 30
0.0
  0
VERTEX
  5
BFC
330
B9
100
AcDbEntity
  8
L1
100
AcDbVertex
100
AcDb2dVertex
 10
18.14041995922334
 20
88.07789446716183
 30
0.0
  0
VERTEX
  5
BFD
330
B9
100
AcDbEntity
  8
L1
100
AcDbVertex
100
AcDb2dVertex
 10
18.09970225656868
 20
88.32728893762491
 30
0.0
  0
SEQEND
  5
BFE
330
B9
100
AcDbEntity
  8
L1
  0
POLYLINE
  5
C0
330
2
100
AcDbEntity
  8
L1
100
AcDb2dPolyline
 66
     1
 10
0.0
 20
0.0
 30
0.0
  0
VERTEX
  5
BFF
330
C0
100
AcDbEntity
  8
L1
100
AcDbVertex
100
AcDb2dVertex
 10
17.97435696320271
 20
90.13370097156842
 30
0.0
  0
VERTEX
  5
C00
330
C0
100
AcDbEntity
  8
L1
100
AcDbVertex
100
AcDb2dVertex
 10
18.00283288469816
 20
90.18127003768897
 30
0.0
  0
VERTEX
  5
C01
330
C0
100
AcDbEntity
  8
L1
100
AcDbVertex
100
AcDb2dVertex
 10
18.02206916082334
 20
90.23326729775901
 30
0.0
  0
SEQEND
  5
C02
330
C0
100
AcDbEntity
  8
L1
  0
LINE
  5
C5
330
2
100
AcDbEntity
  8
L1
100
AcDbLine
 10
18.0997022565688
 20
88.32728893762469
 30
0.0
 11
17.97924130221681
 21
88.92884061103147
 31
0.0
  0
POLYLINE
  5
C6
330
2
100
AcDbEntity
  8
L1
100
AcDb2dPolyline
 66
     1
 10
0.0
 20
0.0
 30
0.0
  0
VERTEX
  5
C03
330
C6
100
AcDbEntity
  8
L1
100
AcDbVertex
100
AcDb2dVertex
 10
28.37129292427337
 20
84.17711760034745
 30
0.0
  0
VERTEX
  5
C04
330
C6
100
AcDbEntity
  8
L1
100
AcDbVertex
100
AcDb2dVertex
 10
28.79554360975899
 20
84.35284406870032
 30
0.0
  0
VERTEX
  5
C05
330
C6
100
AcDbEntity
  8
L1
100
AcDbVertex
100
AcDb2dVertex
 10
28.97127007811198
 20
84.77709475418588
 30
0.0
  0
SEQEND
  5
C06
330
C6
100
AcDbEntity
  8
L1
  0
POLYLINE
  5
CB
330
2
100
AcDbEntity
  8
L1
100
AcDb2dPolyline
 66
     1
 10
0.0
 20
0.0
 30
0.0
  0
VERTEX
  5
C07
330
CB
100
AcDbEntity
  8
L1
100
AcDbVertex
100
AcDb2dVertex
 10
23.13043409860338
 20
84.69317730193465
 30
0.0
  0
VERTEX
  5
C08
330
CB
100
AcDbEntity
  8
L1
100
AcDbVertex
100
AcDb2dVertex
 10
23.12451084765441
 20
84.65919503324498
 30
0.0
  0
VERTEX
  5
C09
330
CB
100
AcDbEntity
  8
L1
100
AcDbVertex
100
AcDb2dVertex
 10
23.12252769120518
 20
84.62475724666807
 30
0.0
  0
SEQEND
  5
C0A
330
CB
100
AcDbEntity
  8
L1
  0
LINE
  5
D0
330
2
100
AcDbEntity
  8
L1
100
AcDbLine
 10
22.15267273672455
 20
84.6937392773434
 30
0.0
 11
22.16616203015908
 21
84.51637708232508
 31
0.0
  0
LINE
  5
D1
330
2
100
AcDbEntity
  8
L1
100
AcDbLine
 10
23.1225276912053
 20
84.51637708232508
 30
0.0
 11
23.1225276912053
 21
84.62475724666807
 31
0.0
  0
POLYLINE
  5
D2
330
2
100
AcDbEntity
  8
L1
100
AcDb2dPolyline
 66
     1
 10
0.0
 20
0.0
 30
0.0
  0
VERTEX
  5
C0B
330
D2
100
AcDbEntity
  8
L1
100
AcDbVertex
100
AcDb2dVertex
 10
21.86617345323989
 20
84.2163885054059
 30
0.0
  0
VERTEX
  5
C0C
330
D2
100
AcDbEntity
  8
L1
100
AcDbVertex
100
AcDb2dVertex
 10
22.07829879598264
 20
84.30425173958234
 30
0.0
  0
VERTEX
  5
C0D
330
D2
100
AcDbEntity
  8
L1
100
AcDbVertex
100
AcDb2dVertex
 10
22.16616203015908
 20
84.51637708232508
 30
0.0
  0
SEQEND
  5
C0E
330
D2
100
AcDbEntity
  8
L1
  0
LINE
  5
D7
330
2
100
AcDbEntity
  8
L1
100
AcDbLine
 10
21.86617345323989
 20
84.21638850540585
 30
0.0
 11
23.42251626812449
 21
84.21638850540585
 31
0.0
  0
POLYLINE
  5
D8
330
2
100
AcDbEntity
  8
L1
100
AcDb2dPolyline
 66
     1
 10
0.0
 20
0.0
 30
0.0
  0
VERTEX
  5
C0F
330
D8
100
AcDbEntity
  8
L1
100
AcDbVertex
100
AcDb2dVertex
 10
23.1225276912053
 20
84.51637708232508
 30
0.0
  0
VERTEX
  5
C10
330
D8
100
AcDbEntity
  8
L1
100
AcDbVertex
100
AcDb2dVertex
 10
23.21039092538174
 20
84.30425173958234
 30
0.0
  0
VERTEX
  5
C11
330
D8
100
AcDbEntity
  8
L1
100
AcDbVertex
100
AcDb2dVertex
 10
23.42251626812449
 20
84.2163885054059
 30
0.0
  0
SEQEND
  5
C12
330
D8
100
AcDbEntity
  8
L1
  0
ELLIPSE
  5
DD
330
2
100
AcDbEntity
  8
L1
100
AcDbEllipse
 10
28.96514984714226
 20
83.87099736937823
 30
0.0
 11
-0.2121320343489897
 21
0.2121320343629324
 31
0.0
210
0.0
220
0.0
230
-1.0
 40
0.9999238504775656
 41
0.7854362395755267
 42
2.35615641394854
  0
ELLIPSE
  5
DE
330
2
100
AcDbEntity
  8
L1
100
AcDbEllipse
 10
28.58488671859734
 20
81.69368064213578
 30
0.0
 11
-0.2121320343557549
 21
0.2121320343561681
 31
0.0
210
0.0
220
0.0
230
-1.0
 40
0.9999238504775703
 41
0.7854362396074134
 42
2.347505920142613
  0
ELLIPSE
  5
DF
330
2
100
AcDbEntity
  8
L1
100
AcDbEllipse
 10
26.88845348174939
 20
81.99379840655444
 30
0.0
 11
-1.69649782936798
 21
0.0
 31
0.0
210
0.0
220
0.0
230
-1.0
 40
0.0087265354983806
 41
-3.132866339598172
 42
-1.570796326794896
  0
ELLIPSE
  5
E0
330
2
100
AcDbEntity
  8
L1
100
AcDbEllipse
 10
28.96514984714226
 20
82.46578409573521
 30
0.0
 11
-0.2121320343489898
 21
-0.2121320343629324
 31
0.0
210
0.0
220
0.0
230
-1.0
 40
0.9999238504775656
 41
-2.35615641394854
 42
-0.7854362395755268
  0
LINE
  5
E1
330
2
100
AcDbEntity
  8
L1
100
AcDbLine
 10
28.88837733367668
 20
81.2936727613653
 30
0.0
 11
28.88486387374055
 21
81.69627565911451
 31
0.0
  0
LINE
  5
E2
330
2
100
AcDbEntity
  8
L1
100
AcDbLine
 10
28.88837733367691
 20
81.2936727613653
 30
0.0
 11
29.05001642597349
 21
81.45531185366177
 31
0.0
  0
POLYLINE
  5
E3
330
2
100
AcDbEntity
  8
L1
100
AcDb2dPolyline
 66
     1
 10
0.0
 20
0.0
 30
0.0
  0
VERTEX
  5
C13
330
E3
100
AcDbEntity
  8
L1
100
AcDbVertex
100
AcDb2dVertex
 10
29.03522432930369
 20
81.95529281519389
 30
0.0
  0
VERTEX
  5
C14
330
E3
100
AcDbEntity
  8
L1
100
AcDbVertex
100
AcDb2dVertex
 10
28.92596797360934
 20
82.10327105606898
 30
0.0
  0
VERTEX
  5
C15
330
E3
100
AcDbEntity
  8
L1
100
AcDbVertex
100
AcDb2dVertex
 10
28.75088136430829
 20
82.15966386476605
 30
0.0
  0
SEQEND
  5
C16
330
E3
100
AcDbEntity
  8
L1
  0
POLYLINE
  5
E8
330
2
100
AcDbEntity
  8
L1
100
AcDb2dPolyline
 66
     1
 10
0.0
 20
0.0
 30
0.0
  0
VERTEX
  5
C17
330
E8
100
AcDbEntity
  8
L1
100
AcDbVertex
100
AcDb2dVertex
 10
29.05078241016465
 20
81.86219419553866
 30
0.0
  0
VERTEX
  5
C18
330
E8
100
AcDbEntity
  8
L1
100
AcDbVertex
100
AcDb2dVertex
 10
29.03522432930369
 20
81.95529281519389
 30
0.0
  0
SEQEND
  5
C19
330
E8
100
AcDbEntity
  8
L1
  0
POLYLINE
  5
EC
330
2
100
AcDbEntity
  8
L1
100
AcDb2dPolyline
 66
     1
 10
0.0
 20
0.0
 30
0.0
  0
VERTEX
  5
C1A
330
EC
100
AcDbEntity
  8
L1
100
AcDbVertex
100
AcDb2dVertex
 10
29.05001642597349
 20
81.45531185366177
 30
0.0
  0
VERTEX
  5
C1B
330
EC
100
AcDbEntity
  8
L1
100
AcDbVertex
100
AcDb2dVertex
 10
29.0517940626062
 20
81.57162365102401
 30
0.0
  0
VERTEX
  5
C1C
330
EC
100
AcDbEntity
  8
L1
100
AcDbVertex
100
AcDb2dVertex
 10
29.05078241016465
 20
81.86219419553866
 30
0.0
  0
SEQEND
  5
C1D
330
EC
100
AcDbEntity
  8
L1
  0
LINE
  5
F1
330
2
100
AcDbEntity
  8
L1
100
AcDbLine
 10
29.26513842406146
 20
83.87099736937823
 30
0.0
 11
29.26513842406146
 21
82.46578409573521
 31
0.0
  0
POLYLINE
  5
F2
330
2
100
AcDbEntity
  8
L1
100
AcDb2dPolyline
 66
     1
 10
0.0
 20
0.0
 30
0.0
  0
VERTEX
  5
C1E
330
F2
100
AcDbEntity
  8
L1
100
AcDbVertex
100
AcDb2dVertex
 10
25.81162499796451
 20
85.5529012336551
 30
0.0
  0
VERTEX
  5
C1F
330
F2
100
AcDbEntity
  8
L1
100
AcDbVertex
100
AcDb2dVertex
 10
25.49602714327423
 20
85.48195112960392
 30
0.0
  0
VERTEX
  5
C20
330
F2
100
AcDbEntity
  8
L1
100
AcDbVertex
100
AcDb2dVertex
 10
25.18991692050613
 20
85.41118740508913
 30
0.0
  0
VERTEX
  5
C21
330
F2
100
AcDbEntity
  8
L1
100
AcDbVertex
100
AcDb2dVertex
 10
24.89099162463608
 20
85.34008517527011
 30
0.0
  0
VERTEX
  5
C22
330
F2
100
AcDbEntity
  8
L1
100
AcDbVertex
100
AcDb2dVertex
 10
24.59705539354481
 20
85.26811452158954
 30
0.0
  0
SEQEND
  5
C23
330
F2
100
AcDbEntity
  8
L1
  0
ARC
  5
F9
330
2
100
AcDbEntity
  8
L1
100
AcDbCircle
 10
22.64434486068207
 20
89.55019238291809
 30
0.0
 40
4.70630101413334
100
AcDbArc
 50
262.4133457339544
 51
277.1221183125192
  0
POLYLINE
  5
FA
330
2
100
AcDbEntity
  8
L1
100
AcDb2dPolyline
 66
     1
 10
0.0
 20
0.0
 30
0.0
  0
VERTEX
  5
C24
330
FA
100
AcDbEntity
  8
L1
100
AcDbVertex
100
AcDb2dVertex
 10
23.32741977552305
 20
84.92791668305885
 30
0.0
  0
VERTEX
  5
C25
330
FA
100
AcDbEntity
  8
L1
100
AcDbVertex
100
AcDb2dVertex
 10
23.27542251545358
 20
84.90868040693383
 30
0.0
  0
VERTEX
  5
C26
330
FA
100
AcDbEntity
  8
L1
100
AcDbVertex
100
AcDb2dVertex
 10
23.22785344933347
 20
84.88020448543885
 30
0.0
  0
SEQEND
  5
C27
330
FA
100
AcDbEntity
  8
L1
  0
POLYLINE
  5
FF
330
2
100
AcDbEntity
  8
L1
100
AcDb2dPolyline
 66
     1
 10
0.0
 20
0.0
 30
0.0
  0
VERTEX
  5
C28
330
FF
100
AcDbEntity
  8
L1
100
AcDbVertex
100
AcDb2dVertex
 10
23.22785344933347
 20
84.88020448543885
 30
0.0
  0
VERTEX
  5
C29
330
FF
100
AcDbEntity
  8
L1
100
AcDbVertex
100
AcDb2dVertex
 10
23.22162067933347
 20
84.87481088668054
 30
0.0
  0
VERTEX
  5
C2A
330
FF
100
AcDbEntity
  8
L1
100
AcDbVertex
100
AcDb2dVertex
 10
23.18990570645999
 20
84.84097163386051
 30
0.0
  0
VERTEX
  5
C2B
330
FF
100
AcDbEntity
  8
L1
100
AcDbVertex
100
AcDb2dVertex
 10
23.13647583771094
 20
84.72782467242522
 30
0.0
  0
VERTEX
  5
C2C
330
FF
100
AcDbEntity
  8
L1
100
AcDbVertex
100
AcDb2dVertex
 10
23.13043409860338
 20
84.69317730193465
 30
0.0
  0
SEQEND
  5
C2D
330
FF
100
AcDbEntity
  8
L1
  0
LINE
  5
106
330
2
100
AcDbEntity
  8
L1
100
AcDbLine
 10
21.93571965852427
 20
84.91486864894806
 30
0.0
 11
21.42144141539452
 21
85.00554977880318
 31
0.0
  0
POLYLINE
  5
107
330
2
100
AcDbEntity
  8
L1
100
AcDb2dPolyline
 66
     1
 10
0.0
 20
0.0
 30
0.0
  0
VERTEX
  5
C2E
330
107
100
AcDbEntity
  8
L1
100
AcDbVertex
100
AcDb2dVertex
 10
22.15267273672455
 20
84.6937392773434
 30
0.0
  0
VERTEX
  5
C2F
330
107
100
AcDbEntity
  8
L1
100
AcDbVertex
100
AcDb2dVertex
 10
22.15005755963877
 20
84.70628056314517
 30
0.0
  0
VERTEX
  5
C30
330
107
100
AcDbEntity
  8
L1
100
AcDbVertex
100
AcDb2dVertex
 10
22.09672800509113
 20
84.82024814707271
 30
0.0
  0
VERTEX
  5
C31
330
107
100
AcDbEntity
  8
L1
100
AcDbVertex
100
AcDb2dVertex
 10
22.06504276958187
 20
84.85432259089986
 30
0.0
  0
VERTEX
  5
C32
330
107
100
AcDbEntity
  8
L1
100
AcDbVertex
100
AcDb2dVertex
 10
22.02299308879392
 20
84.885088824453
 30
0.0
  0
SEQEND
  5
C33
330
107
100
AcDbEntity
  8
L1
  0
POLYLINE
  5
10E
330
2
100
AcDbEntity
  8
L1
100
AcDb2dPolyline
 66
     1
 10
0.0
 20
0.0
 30
0.0
  0
VERTEX
  5
C34
330
10E
100
AcDbEntity
  8
L1
100
AcDbVertex
100
AcDb2dVertex
 10
22.02299308879392
 20
84.885088824453
 30
0.0
  0
VERTEX
  5
C35
330
10E
100
AcDbEntity
  8
L1
100
AcDbVertex
100
AcDb2dVertex
 10
21.98050763966219
 20
84.90335202884192
 30
0.0
  0
VERTEX
  5
C36
330
10E
100
AcDbEntity
  8
L1
100
AcDbVertex
100
AcDb2dVertex
 10
21.93571965852427
 20
84.91486864894806
 30
0.0
  0
SEQEND
  5
C37
330
10E
100
AcDbEntity
  8
L1
  0
LINE
  5
113
330
2
100
AcDbEntity
  8
L1
100
AcDbLine
 10
24.59705539354436
 20
85.26811452158943
 30
0.0
 11
23.32741977552305
 21
84.92791668305885
 31
0.0
  0
LINE
  5
114
330
2
100
AcDbEntity
  8
L1
100
AcDbLine
 10
28.97127007811187
 20
84.77709475418588
 30
0.0
 11
28.97127007811187
 21
89.07711760034741
 31
0.0
  0
LINE
  5
115
330
2
100
AcDbEntity
  8
L1
100
AcDbLine
 10
22.17127007811191
 20
95.87711760034748
 30
0.0
 11
17.87124723195054
 21
95.87711760034748
 31
0.0
  0
ARC
  5
116
330
2
100
AcDbEntity
  8
L1
100
AcDbCircle
 10
22.64434486068207
 20
89.55019238291809
 30
0.0
 40
5.099999999999999
100
AcDbArc
 50
56.72499799800414
 51
141.6082214206732
  0
ELLIPSE
  5
117
330
2
100
AcDbEntity
  8
L1
100
AcDbEllipse
 10
16.96514984714226
 20
95.87099736937817
 30
0.0
 11
-0.2121320343489897
 21
0.2121320343629324
 31
0.0
210
0.0
220
0.0
230
-1.0
 40
0.9999238504775656
 41
0.7854362395755267
 42
2.35615641394854
  0
ELLIPSE
  5
118
330
2
100
AcDbEntity
  8
L1
100
AcDbEllipse
 10
15.08795088431829
 20
93.79430100398547
 30
0.0
 11
0.0
 21
1.69649782936798
 31
0.0
210
0.0
220
0.0
230
-1.0
 40
0.0087265354983806
 41
-1.570796326794896
 42
-0.0087263139916211
  0
ELLIPSE
  5
119
330
2
100
AcDbEntity
  8
L1
100
AcDbEllipse
 10
15.55993657349906
 20
95.87099736937823
 30
0.0
 11
-0.2121320343557818
 21
-0.2121320343561951
 31
0.0
210
0.0
220
0.0
230
-1.0
 40
0.9999238504775703
 41
0.7854362396093613
 42
2.356156413982379
  0
ELLIPSE
  5
11A
330
2
100
AcDbEntity
  8
L1
100
AcDbEllipse
 10
14.78783311989971
 20
95.49073424089321
 30
0.0
 11
0.2121320343438322
 21
-0.2121320343680905
 31
0.0
210
0.0
220
0.0
230
-1.0
 40
0.9999238504775798
 41
-2.347505920200958
 42
-0.7854362396653705
  0
LINE
  5
11B
330
2
100
AcDbEntity
  8
L1
100
AcDbLine
 10
15.55993657349906
 20
96.17098594629743
 30
0.0
 11
16.96514984714226
 21
96.17098594629743
 31
0.0
  0
LINE
  5
11C
330
2
100
AcDbEntity
  8
L1
100
AcDbLine
 10
14.54946433142563
 20
95.9558639482506
 30
0.0
 11
14.38782523912916
 21
95.79422485597255
 31
0.0
  0
LINE
  5
11D
330
2
100
AcDbEntity
  8
L1
100
AcDbLine
 10
14.38782523912916
 20
95.79422485591276
 30
0.0
 11
14.79042813687786
 21
95.79071139597669
 31
0.0
  0
POLYLINE
  5
11E
330
2
100
AcDbEntity
  8
L1
100
AcDb2dPolyline
 66
     1
 10
0.0
 20
0.0
 30
0.0
  0
VERTEX
  5
C38
330
11E
100
AcDbEntity
  8
L1
100
AcDbVertex
100
AcDb2dVertex
 10
14.95634667330241
 20
95.95662993244143
 30
0.0
  0
VERTEX
  5
C39
330
11E
100
AcDbEntity
  8
L1
100
AcDbVertex
100
AcDb2dVertex
 10
14.66577612878782
 20
95.95764158488304
 30
0.0
  0
VERTEX
  5
C3A
330
11E
100
AcDbEntity
  8
L1
100
AcDbVertex
100
AcDb2dVertex
 10
14.54946433142563
 20
95.95586394825055
 30
0.0
  0
SEQEND
  5
C3B
330
11E
100
AcDbEntity
  8
L1
  0
POLYLINE
  5
123
330
2
100
AcDbEntity
  8
L1
100
AcDb2dPolyline
 66
     1
 10
0.0
 20
0.0
 30
0.0
  0
VERTEX
  5
C3C
330
123
100
AcDbEntity
  8
L1
100
AcDbVertex
100
AcDb2dVertex
 10
15.04944529295781
 20
95.94107185158042
 30
0.0
  0
VERTEX
  5
C3D
330
123
100
AcDbEntity
  8
L1
100
AcDbVertex
100
AcDb2dVertex
 10
14.95634667330241
 20
95.95662993244143
 30
0.0
  0
SEQEND
  5
C3E
330
123
100
AcDbEntity
  8
L1
  0
POLYLINE
  5
127
330
2
100
AcDbEntity
  8
L1
100
AcDb2dPolyline
 66
     1
 10
0.0
 20
0.0
 30
0.0
  0
VERTEX
  5
C3F
330
127
100
AcDbEntity
  8
L1
100
AcDbVertex
100
AcDb2dVertex
 10
15.25381634252997
 20
95.65672888658513
 30
0.0
  0
VERTEX
  5
C40
330
127
100
AcDbEntity
  8
L1
100
AcDbVertex
100
AcDb2dVertex
 10
15.1974235338329
 20
95.83181549588612
 30
0.0
  0
VERTEX
  5
C41
330
127
100
AcDbEntity
  8
L1
100
AcDbVertex
100
AcDb2dVertex
 10
15.04944529295781
 20
95.94107185158042
 30
0.0
  0
SEQEND
  5
C42
330
127
100
AcDbEntity
  8
L1
  0
POLYLINE
  5
12C
330
2
100
AcDbEntity
  8
L1
100
AcDb2dPolyline
 66
     1
 10
0.0
 20
0.0
 30
0.0
  0
VERTEX
  5
C43
330
12C
100
AcDbEntity
  8
L1
100
AcDbVertex
100
AcDb2dVertex
 10
17.87124723195054
 20
95.87711760034755
 30
0.0
  0
VERTEX
  5
C44
330
12C
100
AcDbEntity
  8
L1
100
AcDbVertex
100
AcDb2dVertex
 10
17.44699654646481
 20
95.70139113199461
 30
0.0
  0
VERTEX
  5
C45
330
12C
100
AcDbEntity
  8
L1
100
AcDbVertex
100
AcDb2dVertex
 10
17.27127007811193
 20
95.27714044650899
 30
0.0
  0
SEQEND
  5
C46
330
12C
100
AcDbEntity
  8
L1
  0
POLYLINE
  5
131
330
2
100
AcDbEntity
  8
L1
100
AcDb2dPolyline
 66
     1
 10
0.0
 20
0.0
 30
0.0
  0
VERTEX
  5
C47
330
131
100
AcDbEntity
  8
L1
100
AcDbVertex
100
AcDb2dVertex
 10
18.36226699935494
 20
91.50290291578356
 30
0.0
  0
VERTEX
  5
C48
330
131
100
AcDbEntity
  8
L1
100
AcDbVertex
100
AcDb2dVertex
 10
18.43423765303534
 20
91.7968391468746
 30
0.0
  0
VERTEX
  5
C49
330
131
100
AcDbEntity
  8
L1
100
AcDbVertex
100
AcDb2dVertex
 10
18.50533988285419
 20
92.0957644427442
 30
0.0
  0
VERTEX
  5
C4A
330
131
100
AcDbEntity
  8
L1
100
AcDbVertex
100
AcDb2dVertex
 10
18.57610360736887
 20
92.40187466551178
 30
0.0
  0
VERTEX
  5
C4B
330
131
100
AcDbEntity
  8
L1
100
AcDbVertex
100
AcDb2dVertex
 10
18.64705371141999
 20
92.71747252020155
 30
0.0
  0
SEQEND
  5
C4C
330
131
100
AcDbEntity
  8
L1
  0
ARC
  5
138
330
2
100
AcDbEntity
  8
L1
100
AcDbCircle
 10
22.17127007811191
 20
89.07711760034741
 30
0.0
 40
6.738911925464585
100
AcDbArc
 50
36.11182554311468
 51
53.88817445689193
  0
LINE
  5
139
330
2
100
AcDbEntity
  8
L1
100
AcDbLine
 10
26.14293616584111
 20
94.52127064988143
 30
0.0
 11
25.50979694978857
 21
93.88813143382888
 31
0.0
  0
LINE
  5
13A
330
2
100
AcDbEntity
  8
L1
100
AcDbLine
 10
26.98228391159287
 20
92.41564447202454
 30
0.0
 11
27.61542312764552
 21
93.04878368807719
 31
0.0
  0
ARC
  5
13B
330
2
100
AcDbEntity
  8
L1
100
AcDbCircle
 10
22.64434486068207
 20
89.55019238291809
 30
0.0
 40
5.099999999999999
100
AcDbArc
 50
33.27500200199673
 51
56.72499799800414
  0
LINE
  5
13C
330
2
100
AcDbEntity
  8
L1
100
AcDbLine
 10
22.17127007811191
 20
146.7232671654333
 30
0.0
 11
17.87124723195054
 21
146.7232671654333
 31
0.0
  0
ELLIPSE
  5
13D
330
2
100
AcDbEntity
  8
L1
100
AcDbEllipse
 10
16.96514984714226
 20
146.7293873964026
 30
0.0
 11
-0.2121320343489897
 21
-0.2121320343629324
 31
0.0
210
0.0
220
0.0
230
1.0
 40
0.9999238504775656
 41
0.7854362395755267
 42
2.35615641394854
  0
LINE
  5
13E
330
2
100
AcDbEntity
  8
L1
100
AcDbLine
 10
15.55993657349906
 20
146.4293988194834
 30
0.0
 11
16.96514984714226
 21
146.4293988194834
 31
0.0
  0
ELLIPSE
  5
13F
330
2
100
AcDbEntity
  8
L1
100
AcDbEllipse
 10
15.55993657349906
 20
146.7293873964026
 30
0.0
 11
-0.2121320343557818
 21
0.2121320343561951
 31
0.0
210
0.0
220
0.0
230
1.0
 40
0.9999238504775703
 41
0.7854362396093613
 42
2.356156413982379
  0
ELLIPSE
  5
140
330
2
100
AcDbEntity
  8
L1
100
AcDbEllipse
 10
14.78783311989971
 20
147.1096505248876
 30
0.0
 11
0.2121320343438322
 21
0.2121320343680905
 31
0.0
210
0.0
220
0.0
230
1.0
 40
0.9999238504775798
 41
-2.347505920200959
 42
-0.7854362396653705
  0
LINE
  5
141
330
2
100
AcDbEntity
  8
L1
100
AcDbLine
 10
14.54946433142563
 20
146.6445208175302
 30
0.0
 11
14.38782523912916
 21
146.8061599098082
 31
0.0
  0
LINE
  5
142
330
2
100
AcDbEntity
  8
L1
100
AcDbLine
 10
14.38782523912916
 20
146.806159909868
 30
0.0
 11
14.79042813687786
 21
146.8096733698041
 31
0.0
  0
POLYLINE
  5
143
330
2
100
AcDbEntity
  8
L1
100
AcDb2dPolyline
 66
     1
 10
0.0
 20
0.0
 30
0.0
  0
VERTEX
  5
C4D
330
143
100
AcDbEntity
  8
L1
100
AcDbVertex
100
AcDb2dVertex
 10
14.95634667330241
 20
146.6437548333394
 30
0.0
  0
VERTEX
  5
C4E
330
143
100
AcDbEntity
  8
L1
100
AcDbVertex
100
AcDb2dVertex
 10
14.66577612878782
 20
146.6427431808978
 30
0.0
  0
VERTEX
  5
C4F
330
143
100
AcDbEntity
  8
L1
100
AcDbVertex
100
AcDb2dVertex
 10
14.54946433142563
 20
146.6445208175302
 30
0.0
  0
SEQEND
  5
C50
330
143
100
AcDbEntity
  8
L1
  0
POLYLINE
  5
148
330
2
100
AcDbEntity
  8
L1
100
AcDb2dPolyline
 66
     1
 10
0.0
 20
0.0
 30
0.0
  0
VERTEX
  5
C51
330
148
100
AcDbEntity
  8
L1
100
AcDbVertex
100
AcDb2dVertex
 10
15.04944529295781
 20
146.6593129142004
 30
0.0
  0
VERTEX
  5
C52
330
148
100
AcDbEntity
  8
L1
100
AcDbVertex
100
AcDb2dVertex
 10
14.95634667330241
 20
146.6437548333394
 30
0.0
  0
SEQEND
  5
C53
330
148
100
AcDbEntity
  8
L1
  0
POLYLINE
  5
14C
330
2
100
AcDbEntity
  8
L1
100
AcDb2dPolyline
 66
     1
 10
0.0
 20
0.0
 30
0.0
  0
VERTEX
  5
C54
330
14C
100
AcDbEntity
  8
L1
100
AcDbVertex
100
AcDb2dVertex
 10
15.25381634252997
 20
146.9436558791957
 30
0.0
  0
VERTEX
  5
C55
330
14C
100
AcDbEntity
  8
L1
100
AcDbVertex
100
AcDb2dVertex
 10
15.1974235338329
 20
146.7685692698947
 30
0.0
  0
VERTEX
  5
C56
330
14C
100
AcDbEntity
  8
L1
100
AcDbVertex
100
AcDb2dVertex
 10
15.04944529295781
 20
146.6593129142004
 30
0.0
  0
SEQEND
  5
C57
330
14C
100
AcDbEntity
  8
L1
  0
POLYLINE
  5
151
330
2
100
AcDbEntity
  8
L1
100
AcDb2dPolyline
 66
     1
 10
0.0
 20
0.0
 30
0.0
  0
VERTEX
  5
C58
330
151
100
AcDbEntity
  8
L1
100
AcDbVertex
100
AcDb2dVertex
 10
17.87124723195054
 20
146.7232671654332
 30
0.0
  0
VERTEX
  5
C59
330
151
100
AcDbEntity
  8
L1
100
AcDbVertex
100
AcDb2dVertex
 10
17.44699654646481
 20
146.8989936337862
 30
0.0
  0
VERTEX
  5
C5A
330
151
100
AcDbEntity
  8
L1
100
AcDbVertex
100
AcDb2dVertex
 10
17.27127007811193
 20
147.3232443192718
 30
0.0
  0
SEQEND
  5
C5B
330
151
100
AcDbEntity
  8
L1
  0
LINE
  5
156
330
2
100
AcDbEntity
  8
L1
100
AcDbLine
 10
144.2392253899386
 20
146.6445208175302
 30
0.0
 11
144.4008644822351
 21
146.8061599098082
 31
0.0
  0
LINE
  5
157
330
2
100
AcDbEntity
  8
L1
100
AcDbLine
 10
144.4008644822351
 20
146.806159909868
 30
0.0
 11
143.9982615844864
 21
146.8096733698041
 31
0.0
  0
LINE
  5
158
330
2
100
AcDbEntity
  8
L1
100
AcDbLine
 10
144.4008644822351
 20
95.79422485591276
 30
0.0
 11
143.9982615844864
 21
95.79071139597669
 31
0.0
  0
LINE
  5
159
330
2
100
AcDbEntity
  8
L1
100
AcDbLine
 10
144.2392253899386
 20
95.9558639482506
 30
0.0
 11
144.4008644822351
 21
95.79422485597255
 31
0.0
  0
POLYLINE
  5
15A
330
2
100
AcDbEntity
  8
L1
100
AcDb2dPolyline
 66
     1
 10
0.0
 20
0.0
 30
0.0
  0
VERTEX
  5
C5C
330
15A
100
AcDbEntity
  8
L1
100
AcDbVertex
100
AcDb2dVertex
 10
140.9443448606822
 20
81.25538682630802
 30
0.0
  0
VERTEX
  5
C5D
330
15A
100
AcDbEntity
  8
L1
100
AcDbVertex
100
AcDb2dVertex
 10
141.6159791344445
 20
81.32141156958839
 30
0.0
  0
VERTEX
  5
C5E
330
15A
100
AcDbEntity
  8
L1
100
AcDbVertex
100
AcDb2dVertex
 10
142.2809821597344
 20
81.52273830855579
 30
0.0
  0
VERTEX
  5
C5F
330
15A
100
AcDbEntity
  8
L1
100
AcDbVertex
100
AcDb2dVertex
 10
142.8931072214886
 20
81.85146655893667
 30
0.0
  0
VERTEX
  5
C60
330
15A
100
AcDbEntity
  8
L1
100
AcDbVertex
100
AcDb2dVertex
 10
143.4141008362258
 20
82.2804364073746
 30
0.0
  0
VERTEX
  5
C61
330
15A
100
AcDbEntity
  8
L1
100
AcDbVertex
100
AcDb2dVertex
 10
143.8430706846637
 20
82.80143002211177
 30
0.0
  0
VERTEX
  5
C62
330
15A
100
AcDbEntity
  8
L1
100
AcDbVertex
100
AcDb2dVertex
 10
144.1717989350447
 20
83.41355508386611
 30
0.0
  0
VERTEX
  5
C63
330
15A
100
AcDbEntity
  8
L1
100
AcDbVertex
100
AcDb2dVertex
 10
144.373125674012
 20
84.07855810915593
 30
0.0
  0
VERTEX
  5
C64
330
15A
100
AcDbEntity
  8
L1
100
AcDbVertex
100
AcDb2dVertex
 10
144.4391504172924
 20
84.75019238291819
 30
0.0
  0
SEQEND
  5
C65
330
15A
100
AcDbEntity
  8
L1
  0
LINE
  5
165
330
2
100
AcDbEntity
  8
L1
100
AcDbLine
 10
144.2392253899385
 20
95.95586394815102
 30
0.0
 11
144.2392253899385
 21
146.6445208175715
 31
0.0
  0
LINE
  5
166
330
2
100
AcDbEntity
  8
L1
100
AcDbLine
 10
144.2392253899385
 20
95.95586394815102
 30
0.0
 11
144.2392253899385
 21
146.6445208175715
 31
0.0
  0
ARC
  5
167
330
2
100
AcDbEntity
  8
L1
100
AcDbCircle
 10
136.6174196432524
 20
89.07711760034741
 30
0.0
 40
6.799999999999897
100
AcDbArc
 50
90.0
 51
180.0
  0
ARC
  5
168
330
2
100
AcDbEntity
  8
L1
100
AcDbCircle
 10
136.1443448606822
 20
89.55019238291809
 30
0.0
 40
5.099999999999999
100
AcDbArc
 50
146.7249979980024
 51
231.6082214206872
  0
LINE
  5
169
330
2
100
AcDbEntity
  8
L1
100
AcDbLine
 10
143.5287417247844
 20
84.96568890339567
 30
0.0
 11
143.5287417247844
 21
95.87099736937823
 31
0.0
  0
LINE
  5
16A
330
2
100
AcDbEntity
  8
L1
100
AcDbLine
 10
141.5235512973027
 20
95.87099736937817
 30
0.0
 11
141.5235512973027
 21
85.2683907325567
 31
0.0
  0
LINE
  5
16B
330
2
100
AcDbEntity
  8
L1
100
AcDbLine
 10
143.7155433855769
 20
93.79430100398547
 30
0.0
 11
143.7155433855769
 21
84.77888724260321
 31
0.0
  0
LINE
  5
16C
330
2
100
AcDbEntity
  8
L1
100
AcDbLine
 10
140.7666205605409
 20
90.23326729775901
 30
0.0
 11
140.4264227220093
 21
91.50290291578391
 31
0.0
  0
CIRCLE
  5
16D
330
2
100
AcDbEntity
  8
L1
100
AcDbCircle
 10
136.1443448606822
 20
89.55019238291809
 30
0.0
 40
3.9
  0
ARC
  5
16E
330
2
100
AcDbEntity
  8
L1
100
AcDbCircle
 10
136.1443448606822
 20
89.55019238291809
 30
0.0
 40
4.70630101413334
100
AcDbArc
 50
24.5139055064223
 51
245.4860944936208
  0
CIRCLE
  5
16F
330
2
100
AcDbEntity
  8
L1
100
AcDbCircle
 10
136.1443448606821
 20
89.55019238291804
 30
0.0
 40
2.271817169476896
  0
CIRCLE
  5
170
330
2
100
AcDbEntity
  8
L1
100
AcDbCircle
 10
136.1443448606822
 20
89.55019238291809
 30
0.0
 40
3.360549721400785
  0
LINE
  5
171
330
2
100
AcDbEntity
  8
L6
 48
0.3
100
AcDbLine
 10
136.1443448606822
 20
83.38941074111858
 30
0.0
 11
136.1443448606822
 21
95.37231658218502
 31
0.0
  0
LINE
  5
172
330
2
100
AcDbEntity
  8
L1
100
AcDbLine
 10
136.9225162681244
 20
84.21638850540585
 30
0.0
 11
135.3661734532398
 21
84.21638850540585
 31
0.0
  0
ARC
  5
173
330
2
100
AcDbEntity
  8
L1
100
AcDbCircle
 10
136.1443448606822
 20
89.55019238291809
 30
0.0
 40
4.70630101413334
100
AcDbArc
 50
262.8778816874807
 51
277.5866542660455
  0
LINE
  5
174
330
2
100
AcDbEntity
  8
L1
100
AcDbLine
 10
129.823539874222
 20
82.16579551881595
 30
0.0
 11
140.7288483402047
 21
82.16579551881595
 31
0.0
  0
LINE
  5
175
330
2
100
AcDbEntity
  8
L1
100
AcDbLine
 10
140.9156500009972
 20
81.97899385802349
 30
0.0
 11
131.9002362396149
 21
81.97899385802349
 31
0.0
  0
LINE
  5
176
330
2
100
AcDbEntity
  8
L1
100
AcDbLine
 10
140.4261465110437
 20
84.17098594629742
 30
0.0
 11
129.823539874222
 21
84.17098594629742
 31
0.0
  0
LINE
  5
177
330
2
100
AcDbEntity
  8
L6
 48
0.3
100
AcDbLine
 10
129.1154145329652
 20
89.55019238291809
 30
0.0
 11
143.116775977464
 21
89.55019238291809
 31
0.0
  0
POLYLINE
  5
178
330
2
100
AcDbEntity
  8
L1
100
AcDb2dPolyline
 66
     1
 10
0.0
 20
0.0
 30
0.0
  0
VERTEX
  5
C66
330
178
100
AcDbEntity
  8
L1
100
AcDbVertex
100
AcDb2dVertex
 10
130.4173967970909
 20
84.17711760034745
 30
0.0
  0
VERTEX
  5
C67
330
178
100
AcDbEntity
  8
L1
100
AcDbVertex
100
AcDb2dVertex
 10
129.9931461116053
 20
84.35284406870032
 30
0.0
  0
VERTEX
  5
C68
330
178
100
AcDbEntity
  8
L1
100
AcDbVertex
100
AcDb2dVertex
 10
129.8174196432523
 20
84.77709475418588
 30
0.0
  0
SEQEND
  5
C69
330
178
100
AcDbEntity
  8
L1
  0
POLYLINE
  5
17D
330
2
100
AcDbEntity
  8
L1
100
AcDb2dPolyline
 66
     1
 10
0.0
 20
0.0
 30
0.0
  0
VERTEX
  5
C6A
330
17D
100
AcDbEntity
  8
L1
100
AcDbVertex
100
AcDb2dVertex
 10
135.6582556227609
 20
84.69317730193465
 30
0.0
  0
VERTEX
  5
C6B
330
17D
100
AcDbEntity
  8
L1
100
AcDbVertex
100
AcDb2dVertex
 10
135.6641788737099
 20
84.65919503324498
 30
0.0
  0
VERTEX
  5
C6C
330
17D
100
AcDbEntity
  8
L1
100
AcDbVertex
100
AcDb2dVertex
 10
135.6661620301591
 20
84.62475724666807
 30
0.0
  0
SEQEND
  5
C6D
330
17D
100
AcDbEntity
  8
L1
  0
LINE
  5
182
330
2
100
AcDbEntity
  8
L1
100
AcDbLine
 10
129.5235512973028
 20
83.87099736937823
 30
0.0
 11
129.5235512973028
 21
82.46578409573521
 31
0.0
  0
POLYLINE
  5
183
330
2
100
AcDbEntity
  8
L1
100
AcDb2dPolyline
 66
     1
 10
0.0
 20
0.0
 30
0.0
  0
VERTEX
  5
C6E
330
183
100
AcDbEntity
  8
L1
100
AcDbVertex
100
AcDb2dVertex
 10
129.7386732953908
 20
81.45531185366177
 30
0.0
  0
VERTEX
  5
C6F
330
183
100
AcDbEntity
  8
L1
100
AcDbVertex
100
AcDb2dVertex
 10
129.7368956587581
 20
81.57162365102401
 30
0.0
  0
VERTEX
  5
C70
330
183
100
AcDbEntity
  8
L1
100
AcDbVertex
100
AcDb2dVertex
 10
129.7379073111996
 20
81.86219419553866
 30
0.0
  0
SEQEND
  5
C71
330
183
100
AcDbEntity
  8
L1
  0
POLYLINE
  5
188
330
2
100
AcDbEntity
  8
L1
100
AcDb2dPolyline
 66
     1
 10
0.0
 20
0.0
 30
0.0
  0
VERTEX
  5
C72
330
188
100
AcDbEntity
  8
L1
100
AcDbVertex
100
AcDb2dVertex
 10
129.7379073111996
 20
81.86219419553866
 30
0.0
  0
VERTEX
  5
C73
330
188
100
AcDbEntity
  8
L1
100
AcDbVertex
100
AcDb2dVertex
 10
129.7534653920606
 20
81.95529281519389
 30
0.0
  0
SEQEND
  5
C74
330
188
100
AcDbEntity
  8
L1
  0
POLYLINE
  5
18C
330
2
100
AcDbEntity
  8
L1
100
AcDb2dPolyline
 66
     1
 10
0.0
 20
0.0
 30
0.0
  0
VERTEX
  5
C75
330
18C
100
AcDbEntity
  8
L1
100
AcDbVertex
100
AcDb2dVertex
 10
129.7534653920606
 20
81.95529281519389
 30
0.0
  0
VERTEX
  5
C76
330
18C
100
AcDbEntity
  8
L1
100
AcDbVertex
100
AcDb2dVertex
 10
129.8627217477549
 20
82.10327105606898
 30
0.0
  0
VERTEX
  5
C77
330
18C
100
AcDbEntity
  8
L1
100
AcDbVertex
100
AcDb2dVertex
 10
130.037808357056
 20
82.15966386476605
 30
0.0
  0
SEQEND
  5
C78
330
18C
100
AcDbEntity
  8
L1
  0
LINE
  5
191
330
2
100
AcDbEntity
  8
L1
100
AcDbLine
 10
129.9003123876874
 20
81.2936727613653
 30
0.0
 11
129.7386732953908
 21
81.45531185366177
 31
0.0
  0
LINE
  5
192
330
2
100
AcDbEntity
  8
L1
100
AcDbLine
 10
129.9003123876876
 20
81.2936727613653
 30
0.0
 11
129.9038258476237
 21
81.69627565911451
 31
0.0
  0
ELLIPSE
  5
193
330
2
100
AcDbEntity
  8
L1
100
AcDbEllipse
 10
129.823539874222
 20
82.46578409573521
 30
0.0
 11
0.2121320343489898
 21
-0.2121320343629324
 31
0.0
210
0.0
220
0.0
230
1.0
 40
0.9999238504775656
 41
-2.35615641394854
 42
-0.7854362395755268
  0
ELLIPSE
  5
194
330
2
100
AcDbEntity
  8
L1
100
AcDbEllipse
 10
131.9002362396149
 20
81.99379840655444
 30
0.0
 11
1.69649782936798
 21
0.0
 31
0.0
210
0.0
220
0.0
230
1.0
 40
0.0087265354983806
 41
-3.132866339598172
 42
-1.570796326794896
  0
ELLIPSE
  5
195
330
2
100
AcDbEntity
  8
L1
100
AcDbEllipse
 10
130.2038030027669
 20
81.69368064213578
 30
0.0
 11
0.2121320343557549
 21
0.2121320343561681
 31
0.0
210
0.0
220
0.0
230
1.0
 40
0.9999238504775703
 41
0.7854362396074134
 42
2.347505920142613
  0
ELLIPSE
  5
196
330
2
100
AcDbEntity
  8
L1
100
AcDbEllipse
 10
129.823539874222
 20
83.87099736937823
 30
0.0
 11
0.2121320343489897
 21
0.2121320343629324
 31
0.0
210
0.0
220
0.0
230
1.0
 40
0.9999238504775656
 41
0.7854362395755267
 42
2.35615641394854
  0
POLYLINE
  5
197
330
2
100
AcDbEntity
  8
L1
100
AcDb2dPolyline
 66
     1
 10
0.0
 20
0.0
 30
0.0
  0
VERTEX
  5
C79
330
197
100
AcDbEntity
  8
L1
100
AcDbVertex
100
AcDb2dVertex
 10
135.666162030159
 20
84.51637708232508
 30
0.0
  0
VERTEX
  5
C7A
330
197
100
AcDbEntity
  8
L1
100
AcDbVertex
100
AcDb2dVertex
 10
135.5782987959825
 20
84.30425173958234
 30
0.0
  0
VERTEX
  5
C7B
330
197
100
AcDbEntity
  8
L1
100
AcDbVertex
100
AcDb2dVertex
 10
135.3661734532398
 20
84.2163885054059
 30
0.0
  0
SEQEND
  5
C7C
330
197
100
AcDbEntity
  8
L1
  0
LINE
  5
19C
330
2
100
AcDbEntity
  8
L1
100
AcDbLine
 10
135.666162030159
 20
84.51637708232508
 30
0.0
 11
135.666162030159
 21
84.62475724666807
 31
0.0
  0
LINE
  5
19D
330
2
100
AcDbEntity
  8
L1
100
AcDbLine
 10
129.8174196432524
 20
84.77709475418588
 30
0.0
 11
129.8174196432524
 21
89.07711760034741
 31
0.0
  0
POLYLINE
  5
19E
330
2
100
AcDbEntity
  8
L1
100
AcDb2dPolyline
 66
     1
 10
0.0
 20
0.0
 30
0.0
  0
VERTEX
  5
C7D
330
19E
100
AcDbEntity
  8
L1
100
AcDbVertex
100
AcDb2dVertex
 10
132.9770647233998
 20
85.5529012336551
 30
0.0
  0
VERTEX
  5
C7E
330
19E
100
AcDbEntity
  8
L1
100
AcDbVertex
100
AcDb2dVertex
 10
133.2926625780901
 20
85.48195112960392
 30
0.0
  0
VERTEX
  5
C7F
330
19E
100
AcDbEntity
  8
L1
100
AcDbVertex
100
AcDb2dVertex
 10
133.5987728008582
 20
85.41118740508913
 30
0.0
  0
VERTEX
  5
C80
330
19E
100
AcDbEntity
  8
L1
100
AcDbVertex
100
AcDb2dVertex
 10
133.8976980967282
 20
85.34008517527011
 30
0.0
  0
VERTEX
  5
C81
330
19E
100
AcDbEntity
  8
L1
100
AcDbVertex
100
AcDb2dVertex
 10
134.1916343278195
 20
85.26811452158954
 30
0.0
  0
SEQEND
  5
C82
330
19E
100
AcDbEntity
  8
L1
  0
POLYLINE
  5
1A5
330
2
100
AcDbEntity
  8
L1
100
AcDb2dPolyline
 66
     1
 10
0.0
 20
0.0
 30
0.0
  0
VERTEX
  5
C83
330
1A5
100
AcDbEntity
  8
L1
100
AcDbVertex
100
AcDb2dVertex
 10
135.5608362720308
 20
84.88020448543885
 30
0.0
  0
VERTEX
  5
C84
330
1A5
100
AcDbEntity
  8
L1
100
AcDbVertex
100
AcDb2dVertex
 10
135.5670690420308
 20
84.87481088668054
 30
0.0
  0
VERTEX
  5
C85
330
1A5
100
AcDbEntity
  8
L1
100
AcDbVertex
100
AcDb2dVertex
 10
135.5987840149043
 20
84.84097163386051
 30
0.0
  0
VERTEX
  5
C86
330
1A5
100
AcDbEntity
  8
L1
100
AcDbVertex
100
AcDb2dVertex
 10
135.6522138836533
 20
84.72782467242522
 30
0.0
  0
VERTEX
  5
C87
330
1A5
100
AcDbEntity
  8
L1
100
AcDbVertex
100
AcDb2dVertex
 10
135.6582556227609
 20
84.69317730193465
 30
0.0
  0
SEQEND
  5
C88
330
1A5
100
AcDbEntity
  8
L1
  0
POLYLINE
  5
1AC
330
2
100
AcDbEntity
  8
L1
100
AcDb2dPolyline
 66
     1
 10
0.0
 20
0.0
 30
0.0
  0
VERTEX
  5
C89
330
1AC
100
AcDbEntity
  8
L1
100
AcDbVertex
100
AcDb2dVertex
 10
135.4612699458412
 20
84.92791668305885
 30
0.0
  0
VERTEX
  5
C8A
330
1AC
100
AcDbEntity
  8
L1
100
AcDbVertex
100
AcDb2dVertex
 10
135.5132672059107
 20
84.90868040693383
 30
0.0
  0
VERTEX
  5
C8B
330
1AC
100
AcDbEntity
  8
L1
100
AcDbVertex
100
AcDb2dVertex
 10
135.5608362720308
 20
84.88020448543885
 30
0.0
  0
SEQEND
  5
C8C
330
1AC
100
AcDbEntity
  8
L1
  0
LINE
  5
1B1
330
2
100
AcDbEntity
  8
L1
100
AcDbLine
 10
134.1916343278199
 20
85.26811452158943
 30
0.0
 11
135.4612699458412
 21
84.92791668305885
 31
0.0
  0
LINE
  5
1B2
330
2
100
AcDbEntity
  8
L1
100
AcDbLine
 10
136.6360169846397
 20
84.6937392773434
 30
0.0
 11
136.6225276912052
 21
84.51637708232508
 31
0.0
  0
POLYLINE
  5
1B3
330
2
100
AcDbEntity
  8
L1
100
AcDb2dPolyline
 66
     1
 10
0.0
 20
0.0
 30
0.0
  0
VERTEX
  5
C8D
330
1B3
100
AcDbEntity
  8
L1
100
AcDbVertex
100
AcDb2dVertex
 10
140.7288483402047
 20
82.16579551881606
 30
0.0
  0
VERTEX
  5
C8E
330
1B3
100
AcDbEntity
  8
L1
100
AcDbVertex
100
AcDb2dVertex
 10
140.9871941739928
 20
82.17774113300002
 30
0.0
  0
VERTEX
  5
C8F
330
1B3
100
AcDbEntity
  8
L1
100
AcDbVertex
100
AcDb2dVertex
 10
141.243334481603
 20
82.21347185414719
 30
0.0
  0
VERTEX
  5
C90
330
1B3
100
AcDbEntity
  8
L1
100
AcDbVertex
100
AcDb2dVertex
 10
141.4950841759747
 20
82.27268286987877
 30
0.0
  0
VERTEX
  5
C91
330
1B3
100
AcDbEntity
  8
L1
100
AcDbVertex
100
AcDb2dVertex
 10
141.7402956255818
 20
82.35486906163094
 30
0.0
  0
VERTEX
  5
C92
330
1B3
100
AcDbEntity
  8
L1
100
AcDbVertex
100
AcDb2dVertex
 10
141.9768769754927
 20
82.45932931373049
 30
0.0
  0
VERTEX
  5
C93
330
1B3
100
AcDbEntity
  8
L1
100
AcDbVertex
100
AcDb2dVertex
 10
142.2028099926097
 20
82.58517249448754
 30
0.0
  0
VERTEX
  5
C94
330
1B3
100
AcDbEntity
  8
L1
100
AcDbVertex
100
AcDb2dVertex
 10
142.4161672828535
 20
82.73132505827957
 30
0.0
  0
VERTEX
  5
C95
330
1B3
100
AcDbEntity
  8
L1
100
AcDbVertex
100
AcDb2dVertex
 10
142.6151287334175
 20
82.89654020377723
 30
0.0
  0
VERTEX
  5
C96
330
1B3
100
AcDbEntity
  8
L1
100
AcDbVertex
100
AcDb2dVertex
 10
142.7979970398232
 20
83.07940851018292
 30
0.0
  0
VERTEX
  5
C97
330
1B3
100
AcDbEntity
  8
L1
100
AcDbVertex
100
AcDb2dVertex
 10
142.9632121853208
 20
83.27836996074687
 30
0.0
  0
VERTEX
  5
C98
330
1B3
100
AcDbEntity
  8
L1
100
AcDbVertex
100
AcDb2dVertex
 10
143.1093647491129
 20
83.49172725099071
 30
0.0
  0
VERTEX
  5
C99
330
1B3
100
AcDbEntity
  8
L1
100
AcDbVertex
100
AcDb2dVertex
 10
143.2352079298699
 20
83.71766026810762
 30
0.0
  0
VERTEX
  5
C9A
330
1B3
100
AcDbEntity
  8
L1
100
AcDbVertex
100
AcDb2dVertex
 10
143.3396681819694
 20
83.95424161801853
 30
0.0
  0
VERTEX
  5
C9B
330
1B3
100
AcDbEntity
  8
L1
100
AcDbVertex
100
AcDb2dVertex
 10
143.4218543737216
 20
84.19945306762569
 30
0.0
  0
VERTEX
  5
C9C
330
1B3
100
AcDbEntity
  8
L1
100
AcDbVertex
100
AcDb2dVertex
 10
143.4810653894532
 20
84.45120276199746
 30
0.0
  0
VERTEX
  5
C9D
330
1B3
100
AcDbEntity
  8
L1
100
AcDbVertex
100
AcDb2dVertex
 10
143.5167961106004
 20
84.70734306960762
 30
0.0
  0
VERTEX
  5
C9E
330
1B3
100
AcDbEntity
  8
L1
100
AcDbVertex
100
AcDb2dVertex
 10
143.5287417247843
 20
84.96568890339567
 30
0.0
  0
SEQEND
  5
C9F
330
1B3
100
AcDbEntity
  8
L1
  0
POLYLINE
  5
1C7
330
2
100
AcDbEntity
  8
L1
100
AcDb2dPolyline
 66
     1
 10
0.0
 20
0.0
 30
0.0
  0
VERTEX
  5
CA0
330
1C7
100
AcDbEntity
  8
L1
100
AcDbVertex
100
AcDb2dVertex
 10
143.7155433855769
 20
84.77888724260321
 30
0.0
  0
VERTEX
  5
CA1
330
1C7
100
AcDbEntity
  8
L1
100
AcDbVertex
100
AcDb2dVertex
 10
143.7020635421951
 20
84.50444096055752
 30
0.0
  0
VERTEX
  5
CA2
330
1C7
100
AcDbEntity
  8
L1
100
AcDbVertex
100
AcDb2dVertex
 10
143.6617493395749
 20
84.23263976354865
 30
0.0
  0
VERTEX
  5
CA3
330
1C7
100
AcDbEntity
  8
L1
100
AcDbVertex
100
AcDb2dVertex
 10
143.594988987912
 20
83.96610099209276
 30
0.0
  0
VERTEX
  5
CA4
330
1C7
100
AcDbEntity
  8
L1
100
AcDbVertex
100
AcDb2dVertex
 10
143.5024253636001
 20
83.70739131158119
 30
0.0
  0
VERTEX
  5
CA5
330
1C7
100
AcDbEntity
  8
L1
100
AcDbVertex
100
AcDb2dVertex
 10
143.3849498185789
 20
83.45900199628413
 30
0.0
  0
VERTEX
  5
CA6
330
1C7
100
AcDbEntity
  8
L1
100
AcDbVertex
100
AcDb2dVertex
 10
143.2436935969603
 20
83.22332493934219
 30
0.0
  0
VERTEX
  5
CA7
330
1C7
100
AcDbEntity
  8
L1
100
AcDbVertex
100
AcDb2dVertex
 10
143.0800169415835
 20
83.00262961975937
 30
0.0
  0
VERTEX
  5
CA8
330
1C7
100
AcDbEntity
  8
L1
100
AcDbVertex
100
AcDb2dVertex
 10
142.8954959954032
 20
82.79904124819715
 30
0.0
  0
VERTEX
  5
CA9
330
1C7
100
AcDbEntity
  8
L1
100
AcDbVertex
100
AcDb2dVertex
 10
142.691907623841
 20
82.61452030201683
 30
0.0
  0
VERTEX
  5
CAA
330
1C7
100
AcDbEntity
  8
L1
100
AcDbVertex
100
AcDb2dVertex
 10
142.4712123042582
 20
82.45084364664011
 30
0.0
  0
VERTEX
  5
CAB
330
1C7
100
AcDbEntity
  8
L1
100
AcDbVertex
100
AcDb2dVertex
 10
142.2355352473162
 20
82.30958742502144
 30
0.0
  0
VERTEX
  5
CAC
330
1C7
100
AcDbEntity
  8
L1
100
AcDbVertex
100
AcDb2dVertex
 10
141.9871459320192
 20
82.19211188000029
 30
0.0
  0
VERTEX
  5
CAD
330
1C7
100
AcDbEntity
  8
L1
100
AcDbVertex
100
AcDb2dVertex
 10
141.7284362515076
 20
82.09954825568836
 30
0.0
  0
VERTEX
  5
CAE
330
1C7
100
AcDbEntity
  8
L1
100
AcDbVertex
100
AcDb2dVertex
 10
141.4618974800517
 20
82.03278790402547
 30
0.0
  0
VERTEX
  5
CAF
330
1C7
100
AcDbEntity
  8
L1
100
AcDbVertex
100
AcDb2dVertex
 10
141.1900962830429
 20
81.99247370140527
 30
0.0
  0
VERTEX
  5
CB0
330
1C7
100
AcDbEntity
  8
L1
100
AcDbVertex
100
AcDb2dVertex
 10
140.9156500009972
 20
81.97899385802349
 30
0.0
  0
SEQEND
  5
CB1
330
1C7
100
AcDbEntity
  8
L1
  0
ARC
  5
1DA
330
2
100
AcDbEntity
  8
L1
100
AcDbCircle
 10
140.4261465110437
 20
85.2683907325567
 30
0.0
 40
1.097404786259289
100
AcDbArc
 50
270.0
 51
0.0
  0
ARC
  5
1DB
330
2
100
AcDbEntity
  8
L1
100
AcDbCircle
 10
136.1443448606822
 20
89.55019238291809
 30
0.0
 40
4.70630101413334
100
AcDbArc
 50
285.0607978501849
 51
344.939202149741
  0
POLYLINE
  5
1DC
330
2
100
AcDbEntity
  8
L1
100
AcDb2dPolyline
 66
     1
 10
0.0
 20
0.0
 30
0.0
  0
VERTEX
  5
CB2
330
1DC
100
AcDbEntity
  8
L1
100
AcDbVertex
100
AcDb2dVertex
 10
136.9225162681244
 20
84.2163885054059
 30
0.0
  0
VERTEX
  5
CB3
330
1DC
100
AcDbEntity
  8
L1
100
AcDbVertex
100
AcDb2dVertex
 10
136.7103909253816
 20
84.30425173958234
 30
0.0
  0
VERTEX
  5
CB4
330
1DC
100
AcDbEntity
  8
L1
100
AcDbVertex
100
AcDb2dVertex
 10
136.6225276912052
 20
84.51637708232508
 30
0.0
  0
SEQEND
  5
CB5
330
1DC
100
AcDbEntity
  8
L1
  0
ARC
  5
1E1
330
2
100
AcDbEntity
  8
L1
100
AcDbCircle
 10
136.1443448606822
 20
89.55019238291809
 30
0.0
 40
4.925022672948151
100
AcDbArc
 50
297.0020375494462
 51
332.997962450533
  0
POLYLINE
  5
1E2
330
2
100
AcDbEntity
  8
L1
100
AcDb2dPolyline
 66
     1
 10
0.0
 20
0.0
 30
0.0
  0
VERTEX
  5
CB6
330
1E2
100
AcDbEntity
  8
L1
100
AcDbVertex
100
AcDb2dVertex
 10
136.7656966325704
 20
84.885088824453
 30
0.0
  0
VERTEX
  5
CB7
330
1E2
100
AcDbEntity
  8
L1
100
AcDbVertex
100
AcDb2dVertex
 10
136.8081820817021
 20
84.90335202884192
 30
0.0
  0
VERTEX
  5
CB8
330
1E2
100
AcDbEntity
  8
L1
100
AcDbVertex
100
AcDb2dVertex
 10
136.85297006284
 20
84.91486864894806
 30
0.0
  0
SEQEND
  5
CB9
330
1E2
100
AcDbEntity
  8
L1
  0
POLYLINE
  5
1E7
330
2
100
AcDbEntity
  8
L1
100
AcDb2dPolyline
 66
     1
 10
0.0
 20
0.0
 30
0.0
  0
VERTEX
  5
CBA
330
1E7
100
AcDbEntity
  8
L1
100
AcDbVertex
100
AcDb2dVertex
 10
136.6360169846397
 20
84.6937392773434
 30
0.0
  0
VERTEX
  5
CBB
330
1E7
100
AcDbEntity
  8
L1
100
AcDbVertex
100
AcDb2dVertex
 10
136.6386321617255
 20
84.70628056314517
 30
0.0
  0
VERTEX
  5
CBC
330
1E7
100
AcDbEntity
  8
L1
100
AcDbVertex
100
AcDb2dVertex
 10
136.6919617162732
 20
84.82024814707271
 30
0.0
  0
VERTEX
  5
CBD
330
1E7
100
AcDbEntity
  8
L1
100
AcDbVertex
100
AcDb2dVertex
 10
136.7236469517824
 20
84.85432259089986
 30
0.0
  0
VERTEX
  5
CBE
330
1E7
100
AcDbEntity
  8
L1
100
AcDbVertex
100
AcDb2dVertex
 10
136.7656966325704
 20
84.885088824453
 30
0.0
  0
SEQEND
  5
CBF
330
1E7
100
AcDbEntity
  8
L1
  0
LINE
  5
1EE
330
2
100
AcDbEntity
  8
L1
100
AcDbLine
 10
136.85297006284
 20
84.91486864894806
 30
0.0
 11
137.3672483059698
 21
85.00554977880318
 31
0.0
  0
POLYLINE
  5
1EF
330
2
100
AcDbEntity
  8
L1
100
AcDb2dPolyline
 66
     1
 10
0.0
 20
0.0
 30
0.0
  0
VERTEX
  5
CC0
330
1EF
100
AcDbEntity
  8
L1
100
AcDbVertex
100
AcDb2dVertex
 10
137.3672483059698
 20
85.00554977880323
 30
0.0
  0
VERTEX
  5
CC1
330
1EF
100
AcDbEntity
  8
L1
100
AcDbVertex
100
AcDb2dVertex
 10
137.616642776434
 20
85.04626748145817
 30
0.0
  0
VERTEX
  5
CC2
330
1EF
100
AcDbEntity
  8
L1
100
AcDbVertex
100
AcDb2dVertex
 10
137.8677708937608
 20
85.08578200470696
 30
0.0
  0
VERTEX
  5
CC3
330
1EF
100
AcDbEntity
  8
L1
100
AcDbVertex
100
AcDb2dVertex
 10
138.1219233568803
 20
85.12430700742623
 30
0.0
  0
VERTEX
  5
CC4
330
1EF
100
AcDbEntity
  8
L1
100
AcDbVertex
100
AcDb2dVertex
 10
138.3804144176944
 20
85.16204456575684
 30
0.0
  0
SEQEND
  5
CC5
330
1EF
100
AcDbEntity
  8
L1
  0
LINE
  5
1F6
330
2
100
AcDbEntity
  8
L1
100
AcDbLine
 10
140.6889874647955
 20
88.32728893762469
 30
0.0
 11
140.8094484191475
 21
88.92884061103147
 31
0.0
  0
POLYLINE
  5
1F7
330
2
100
AcDbEntity
  8
L1
100
AcDb2dPolyline
 66
     1
 10
0.0
 20
0.0
 30
0.0
  0
VERTEX
  5
CC6
330
1F7
100
AcDbEntity
  8
L1
100
AcDbVertex
100
AcDb2dVertex
 10
140.8143327581616
 20
90.13370097156842
 30
0.0
  0
VERTEX
  5
CC7
330
1F7
100
AcDbEntity
  8
L1
100
AcDbVertex
100
AcDb2dVertex
 10
140.7858568366661
 20
90.18127003768897
 30
0.0
  0
VERTEX
  5
CC8
330
1F7
100
AcDbEntity
  8
L1
100
AcDbVertex
100
AcDb2dVertex
 10
140.7666205605409
 20
90.23326729775901
 30
0.0
  0
SEQEND
  5
CC9
330
1F7
100
AcDbEntity
  8
L1
  0
POLYLINE
  5
1FC
330
2
100
AcDbEntity
  8
L1
100
AcDb2dPolyline
 66
     1
 10
0.0
 20
0.0
 30
0.0
  0
VERTEX
  5
CCA
330
1FC
100
AcDbEntity
  8
L1
100
AcDbVertex
100
AcDb2dVertex
 10
140.5324926778426
 20
87.31412282590428
 30
0.0
  0
VERTEX
  5
CCB
330
1FC
100
AcDbEntity
  8
L1
100
AcDbVertex
100
AcDb2dVertex
 10
140.570230236173
 20
87.57261388671746
 30
0.0
  0
VERTEX
  5
CCC
330
1FC
100
AcDbEntity
  8
L1
100
AcDbVertex
100
AcDb2dVertex
 10
140.6087552388922
 20
87.82676634983618
 30
0.0
  0
VERTEX
  5
CCD
330
1FC
100
AcDbEntity
  8
L1
100
AcDbVertex
100
AcDb2dVertex
 10
140.6482697621409
 20
88.07789446716183
 30
0.0
  0
VERTEX
  5
CCE
330
1FC
100
AcDbEntity
  8
L1
100
AcDbVertex
100
AcDb2dVertex
 10
140.6889874647956
 20
88.32728893762491
 30
0.0
  0
SEQEND
  5
CCF
330
1FC
100
AcDbEntity
  8
L1
  0
LINE
  5
203
330
2
100
AcDbEntity
  8
L1
100
AcDbLine
 10
141.4781487381913
 20
90.32836379036046
 30
0.0
 11
141.4781487381913
 21
88.77202097547574
 31
0.0
  0
LINE
  5
204
330
2
100
AcDbEntity
  8
L1
100
AcDbLine
 10
141.4737853042957
 20
88.76765754158036
 30
0.0
 11
141.4781487381913
 21
88.77202097547574
 31
0.0
  0
LINE
  5
205
330
2
100
AcDbEntity
  8
L1
100
AcDbLine
 10
141.0934064498782
 20
89.06764611849961
 30
0.0
 11
141.0897450941059
 21
89.07200955239499
 31
0.0
  0
POLYLINE
  5
206
330
2
100
AcDbEntity
  8
L1
100
AcDb2dPolyline
 66
     1
 10
0.0
 20
0.0
 30
0.0
  0
VERTEX
  5
CD0
330
206
100
AcDbEntity
  8
L1
100
AcDbVertex
100
AcDb2dVertex
 10
141.0007979662569
 20
89.05852025896068
 30
0.0
  0
VERTEX
  5
CD1
330
206
100
AcDbEntity
  8
L1
100
AcDbVertex
100
AcDb2dVertex
 10
141.0447628091475
 20
89.0686180593917
 30
0.0
  0
VERTEX
  5
CD2
330
206
100
AcDbEntity
  8
L1
100
AcDbVertex
100
AcDb2dVertex
 10
141.0897450941059
 20
89.07200955239504
 30
0.0
  0
SEQEND
  5
CD3
330
206
100
AcDbEntity
  8
L1
  0
POLYLINE
  5
20B
330
2
100
AcDbEntity
  8
L1
100
AcDb2dPolyline
 66
     1
 10
0.0
 20
0.0
 30
0.0
  0
VERTEX
  5
CD4
330
20B
100
AcDbEntity
  8
L1
100
AcDbVertex
100
AcDb2dVertex
 10
140.8094484191475
 20
88.92884061103147
 30
0.0
  0
VERTEX
  5
CD5
330
20B
100
AcDbEntity
  8
L1
100
AcDbVertex
100
AcDb2dVertex
 10
140.8402146526998
 20
88.97089029181772
 30
0.0
  0
VERTEX
  5
CD6
330
20B
100
AcDbEntity
  8
L1
100
AcDbVertex
100
AcDb2dVertex
 10
140.8742890965269
 20
89.00257552732709
 30
0.0
  0
VERTEX
  5
CD7
330
20B
100
AcDbEntity
  8
L1
100
AcDbVertex
100
AcDb2dVertex
 10
140.9882566804546
 20
89.05590508187474
 30
0.0
  0
VERTEX
  5
CD8
330
20B
100
AcDbEntity
  8
L1
100
AcDbVertex
100
AcDb2dVertex
 10
141.0007979662569
 20
89.05852025896068
 30
0.0
  0
SEQEND
  5
CD9
330
20B
100
AcDbEntity
  8
L1
  0
LINE
  5
212
330
2
100
AcDbEntity
  8
L1
100
AcDbLine
 10
141.178160161272
 20
89.07200955239499
 30
0.0
 11
141.1737967273764
 21
89.06764611849961
 31
0.0
  0
LINE
  5
213
330
2
100
AcDbEntity
  8
L1
100
AcDbLine
 10
141.178160161272
 20
89.07200955239499
 30
0.0
 11
141.0897450941059
 21
89.07200955239499
 31
0.0
  0
POLYLINE
  5
214
330
2
100
AcDbEntity
  8
L1
100
AcDb2dPolyline
 66
     1
 10
0.0
 20
0.0
 30
0.0
  0
VERTEX
  5
CDA
330
214
100
AcDbEntity
  8
L1
100
AcDbVertex
100
AcDb2dVertex
 10
141.178160161272
 20
89.07200955239499
 30
0.0
  0
VERTEX
  5
CDB
330
214
100
AcDbEntity
  8
L1
100
AcDbVertex
100
AcDb2dVertex
 10
141.3902855040149
 20
88.98414631821855
 30
0.0
  0
VERTEX
  5
CDC
330
214
100
AcDbEntity
  8
L1
100
AcDbVertex
100
AcDb2dVertex
 10
141.4781487381913
 20
88.77202097547574
 30
0.0
  0
SEQEND
  5
CDD
330
214
100
AcDbEntity
  8
L1
  0
POLYLINE
  5
219
330
2
100
AcDbEntity
  8
L1
100
AcDb2dPolyline
 66
     1
 10
0.0
 20
0.0
 30
0.0
  0
VERTEX
  5
CDE
330
219
100
AcDbEntity
  8
L1
100
AcDbVertex
100
AcDb2dVertex
 10
141.4781487381914
 20
90.32836379036046
 30
0.0
  0
VERTEX
  5
CDF
330
219
100
AcDbEntity
  8
L1
100
AcDbVertex
100
AcDb2dVertex
 10
141.390285504015
 20
90.11623844761764
 30
0.0
  0
VERTEX
  5
CE0
330
219
100
AcDbEntity
  8
L1
100
AcDbVertex
100
AcDb2dVertex
 10
141.1781601612721
 20
90.02837521344121
 30
0.0
  0
SEQEND
  5
CE1
330
219
100
AcDbEntity
  8
L1
  0
LINE
  5
21E
330
2
100
AcDbEntity
  8
L1
100
AcDbLine
 10
141.0697799969317
 20
90.02837521344121
 30
0.0
 11
141.1781601612721
 21
90.02837521344121
 31
0.0
  0
POLYLINE
  5
21F
330
2
100
AcDbEntity
  8
L1
100
AcDb2dPolyline
 66
     1
 10
0.0
 20
0.0
 30
0.0
  0
VERTEX
  5
CE2
330
21F
100
AcDbEntity
  8
L1
100
AcDbVertex
100
AcDb2dVertex
 10
141.0013599416656
 20
90.03628162083918
 30
0.0
  0
VERTEX
  5
CE3
330
21F
100
AcDbEntity
  8
L1
100
AcDbVertex
100
AcDb2dVertex
 10
140.9667125711746
 20
90.04232335994673
 30
0.0
  0
VERTEX
  5
CE4
330
21F
100
AcDbEntity
  8
L1
100
AcDbVertex
100
AcDb2dVertex
 10
140.8535656097392
 20
90.09575322869578
 30
0.0
  0
VERTEX
  5
CE5
330
21F
100
AcDbEntity
  8
L1
100
AcDbVertex
100
AcDb2dVertex
 10
140.8197263569191
 20
90.1274682015695
 30
0.0
  0
VERTEX
  5
CE6
330
21F
100
AcDbEntity
  8
L1
100
AcDbVertex
100
AcDb2dVertex
 10
140.8143327581616
 20
90.13370097156842
 30
0.0
  0
SEQEND
  5
CE7
330
21F
100
AcDbEntity
  8
L1
  0
POLYLINE
  5
226
330
2
100
AcDbEntity
  8
L1
100
AcDb2dPolyline
 66
     1
 10
0.0
 20
0.0
 30
0.0
  0
VERTEX
  5
CE8
330
226
100
AcDbEntity
  8
L1
100
AcDbVertex
100
AcDb2dVertex
 10
141.0697799969317
 20
90.02837521344126
 30
0.0
  0
VERTEX
  5
CE9
330
226
100
AcDbEntity
  8
L1
100
AcDbVertex
100
AcDb2dVertex
 10
141.035342210355
 20
90.03035836989033
 30
0.0
  0
VERTEX
  5
CEA
330
226
100
AcDbEntity
  8
L1
100
AcDbVertex
100
AcDb2dVertex
 10
141.0013599416656
 20
90.03628162083924
 30
0.0
  0
SEQEND
  5
CEB
330
226
100
AcDbEntity
  8
L1
  0
ARC
  5
22B
330
2
100
AcDbEntity
  8
L1
100
AcDbCircle
 10
136.1443448606822
 20
89.55019238291809
 30
0.0
 40
4.70630101413334
100
AcDbArc
 50
352.4133457339739
 51
7.12211831250669
  0
ARC
  5
22C
330
2
100
AcDbEntity
  8
L1
100
AcDbCircle
 10
136.1443448606822
 20
89.55019238291809
 30
0.0
 40
5.099999999999999
100
AcDbArc
 50
38.39177857932675
 51
123.2750020019958
  0
ARC
  5
22D
330
2
100
AcDbEntity
  8
L1
100
AcDbCircle
 10
136.1443448606822
 20
89.55019238291809
 30
0.0
 40
5.099999999999999
100
AcDbArc
 50
123.2750020019958
 51
146.7249979980032
  0
ARC
  5
22E
330
2
100
AcDbEntity
  8
L1
100
AcDbCircle
 10
136.6174196432524
 20
89.07711760034741
 30
0.0
 40
6.738911925464585
100
AcDbArc
 50
126.111825543108
 51
143.8881744568853
  0
LINE
  5
22F
330
2
100
AcDbEntity
  8
L1
100
AcDbLine
 10
131.8064058097714
 20
92.41564447202454
 30
0.0
 11
131.1732665937188
 21
93.04878368807719
 31
0.0
  0
LINE
  5
230
330
2
100
AcDbEntity
  8
L1
100
AcDbLine
 10
132.6457535555232
 20
94.52127064988143
 30
0.0
 11
133.2788927715757
 21
93.88813143382888
 31
0.0
  0
POLYLINE
  5
231
330
2
100
AcDbEntity
  8
L1
100
AcDb2dPolyline
 66
     1
 10
0.0
 20
0.0
 30
0.0
  0
VERTEX
  5
CEC
330
231
100
AcDbEntity
  8
L1
100
AcDbVertex
100
AcDb2dVertex
 10
140.4264227220093
 20
91.50290291578356
 30
0.0
  0
VERTEX
  5
CED
330
231
100
AcDbEntity
  8
L1
100
AcDbVertex
100
AcDb2dVertex
 10
140.3544520683289
 20
91.7968391468746
 30
0.0
  0
VERTEX
  5
CEE
330
231
100
AcDbEntity
  8
L1
100
AcDbVertex
100
AcDb2dVertex
 10
140.2833498385101
 20
92.0957644427442
 30
0.0
  0
VERTEX
  5
CEF
330
231
100
AcDbEntity
  8
L1
100
AcDbVertex
100
AcDb2dVertex
 10
140.2125861139954
 20
92.40187466551178
 30
0.0
  0
VERTEX
  5
CF0
330
231
100
AcDbEntity
  8
L1
100
AcDbVertex
100
AcDb2dVertex
 10
140.1416360099443
 20
92.71747252020155
 30
0.0
  0
SEQEND
  5
CF1
330
231
100
AcDbEntity
  8
L1
  0
LINE
  5
238
330
2
100
AcDbEntity
  8
L1
100
AcDbLine
 10
136.6174196432524
 20
95.87711760034748
 30
0.0
 11
140.9174424894137
 21
95.87711760034748
 31
0.0
  0
POLYLINE
  5
239
330
2
100
AcDbEntity
  8
L1
100
AcDb2dPolyline
 66
     1
 10
0.0
 20
0.0
 30
0.0
  0
VERTEX
  5
CF2
330
239
100
AcDbEntity
  8
L1
100
AcDbVertex
100
AcDb2dVertex
 10
140.9174424894137
 20
95.87711760034755
 30
0.0
  0
VERTEX
  5
CF3
330
239
100
AcDbEntity
  8
L1
100
AcDbVertex
100
AcDb2dVertex
 10
141.3416931748995
 20
95.70139113199461
 30
0.0
  0
VERTEX
  5
CF4
330
239
100
AcDbEntity
  8
L1
100
AcDbVertex
100
AcDb2dVertex
 10
141.5174196432523
 20
95.27714044650899
 30
0.0
  0
SEQEND
  5
CF5
330
239
100
AcDbEntity
  8
L1
  0
ELLIPSE
  5
23E
330
2
100
AcDbEntity
  8
L1
100
AcDbEllipse
 10
141.823539874222
 20
95.87099736937817
 30
0.0
 11
0.2121320343489897
 21
0.2121320343629324
 31
0.0
210
0.0
220
0.0
230
1.0
 40
0.9999238504775656
 41
0.7854362395755267
 42
2.35615641394854
  0
POLYLINE
  5
23F
330
2
100
AcDbEntity
  8
L1
100
AcDb2dPolyline
 66
     1
 10
0.0
 20
0.0
 30
0.0
  0
VERTEX
  5
CF6
330
23F
100
AcDbEntity
  8
L1
100
AcDbVertex
100
AcDb2dVertex
 10
143.5348733788343
 20
95.65672888658513
 30
0.0
  0
VERTEX
  5
CF7
330
23F
100
AcDbEntity
  8
L1
100
AcDbVertex
100
AcDb2dVertex
 10
143.5912661875314
 20
95.83181549588612
 30
0.0
  0
VERTEX
  5
CF8
330
23F
100
AcDbEntity
  8
L1
100
AcDbVertex
100
AcDb2dVertex
 10
143.7392444284065
 20
95.94107185158042
 30
0.0
  0
SEQEND
  5
CF9
330
23F
100
AcDbEntity
  8
L1
  0
POLYLINE
  5
244
330
2
100
AcDbEntity
  8
L1
100
AcDb2dPolyline
 66
     1
 10
0.0
 20
0.0
 30
0.0
  0
VERTEX
  5
CFA
330
244
100
AcDbEntity
  8
L1
100
AcDbVertex
100
AcDb2dVertex
 10
143.7392444284065
 20
95.94107185158042
 30
0.0
  0
VERTEX
  5
CFB
330
244
100
AcDbEntity
  8
L1
100
AcDbVertex
100
AcDb2dVertex
 10
143.8323430480619
 20
95.95662993244143
 30
0.0
  0
SEQEND
  5
CFC
330
244
100
AcDbEntity
  8
L1
  0
POLYLINE
  5
248
330
2
100
AcDbEntity
  8
L1
100
AcDb2dPolyline
 66
     1
 10
0.0
 20
0.0
 30
0.0
  0
VERTEX
  5
CFD
330
248
100
AcDbEntity
  8
L1
100
AcDbVertex
100
AcDb2dVertex
 10
143.8323430480619
 20
95.95662993244143
 30
0.0
  0
VERTEX
  5
CFE
330
248
100
AcDbEntity
  8
L1
100
AcDbVertex
100
AcDb2dVertex
 10
144.1229135925765
 20
95.95764158488304
 30
0.0
  0
VERTEX
  5
CFF
330
248
100
AcDbEntity
  8
L1
100
AcDbVertex
100
AcDb2dVertex
 10
144.2392253899386
 20
95.95586394825055
 30
0.0
  0
SEQEND
  5
D00
330
248
100
AcDbEntity
  8
L1
  0
ELLIPSE
  5
24D
330
2
100
AcDbEntity
  8
L1
100
AcDbEllipse
 10
144.0008566014646
 20
95.49073424089321
 30
0.0
 11
-0.2121320343438322
 21
-0.2121320343680905
 31
0.0
210
0.0
220
0.0
230
1.0
 40
0.9999238504775798
 41
-2.347505920200958
 42
-0.7854362396653705
  0
ELLIPSE
  5
24E
330
2
100
AcDbEntity
  8
L1
100
AcDbEllipse
 10
143.2287531478652
 20
95.87099736937823
 30
0.0
 11
0.2121320343557818
 21
-0.2121320343561951
 31
0.0
210
0.0
220
0.0
230
1.0
 40
0.9999238504775703
 41
0.7854362396093614
 42
2.356156413982379
  0
ELLIPSE
  5
24F
330
2
100
AcDbEntity
  8
L1
100
AcDbEllipse
 10
143.700738837046
 20
93.79430100398547
 30
0.0
 11
0.0
 21
1.69649782936798
 31
0.0
210
0.0
220
0.0
230
1.0
 40
0.0087265354983806
 41
-1.570796326794896
 42
-0.0087263139916211
  0
LINE
  5
250
330
2
100
AcDbEntity
  8
L1
100
AcDbLine
 10
143.2287531478652
 20
96.17098594629743
 30
0.0
 11
141.823539874222
 21
96.17098594629743
 31
0.0
  0
LINE
  5
251
330
2
100
AcDbEntity
  8
L1
100
AcDbLine
 10
136.6174196432524
 20
146.7232671654333
 30
0.0
 11
140.9174424894137
 21
146.7232671654333
 31
0.0
  0
ELLIPSE
  5
252
330
2
100
AcDbEntity
  8
L1
100
AcDbEllipse
 10
141.823539874222
 20
146.7293873964026
 30
0.0
 11
0.2121320343489897
 21
-0.2121320343629324
 31
0.0
210
0.0
220
0.0
230
-1.0
 40
0.9999238504775656
 41
0.7854362395755267
 42
2.35615641394854
  0
POLYLINE
  5
253
330
2
100
AcDbEntity
  8
L1
100
AcDb2dPolyline
 66
     1
 10
0.0
 20
0.0
 30
0.0
  0
VERTEX
  5
D01
330
253
100
AcDbEntity
  8
L1
100
AcDbVertex
100
AcDb2dVertex
 10
140.9174424894137
 20
146.7232671654332
 30
0.0
  0
VERTEX
  5
D02
330
253
100
AcDbEntity
  8
L1
100
AcDbVertex
100
AcDb2dVertex
 10
141.3416931748995
 20
146.8989936337862
 30
0.0
  0
VERTEX
  5
D03
330
253
100
AcDbEntity
  8
L1
100
AcDbVertex
100
AcDb2dVertex
 10
141.5174196432523
 20
147.3232443192718
 30
0.0
  0
SEQEND
  5
D04
330
253
100
AcDbEntity
  8
L1
  0
ELLIPSE
  5
258
330
2
100
AcDbEntity
  8
L1
100
AcDbEllipse
 10
143.2287531478652
 20
146.7293873964026
 30
0.0
 11
0.2121320343557818
 21
0.2121320343561951
 31
0.0
210
0.0
220
0.0
230
-1.0
 40
0.9999238504775703
 41
0.7854362396093614
 42
2.356156413982379
  0
ELLIPSE
  5
259
330
2
100
AcDbEntity
  8
L1
100
AcDbEllipse
 10
144.0008566014646
 20
147.1096505248876
 30
0.0
 11
-0.2121320343438322
 21
0.2121320343680905
 31
0.0
210
0.0
220
0.0
230
-1.0
 40
0.9999238504775798
 41
-2.347505920200959
 42
-0.7854362396653705
  0
POLYLINE
  5
25A
330
2
100
AcDbEntity
  8
L1
100
AcDb2dPolyline
 66
     1
 10
0.0
 20
0.0
 30
0.0
  0
VERTEX
  5
D05
330
25A
100
AcDbEntity
  8
L1
100
AcDbVertex
100
AcDb2dVertex
 10
143.8323430480619
 20
146.6437548333394
 30
0.0
  0
VERTEX
  5
D06
330
25A
100
AcDbEntity
  8
L1
100
AcDbVertex
100
AcDb2dVertex
 10
144.1229135925765
 20
146.6427431808978
 30
0.0
  0
VERTEX
  5
D07
330
25A
100
AcDbEntity
  8
L1
100
AcDbVertex
100
AcDb2dVertex
 10
144.2392253899386
 20
146.6445208175302
 30
0.0
  0
SEQEND
  5
D08
330
25A
100
AcDbEntity
  8
L1
  0
POLYLINE
  5
25F
330
2
100
AcDbEntity
  8
L1
100
AcDb2dPolyline
 66
     1
 10
0.0
 20
0.0
 30
0.0
  0
VERTEX
  5
D09
330
25F
100
AcDbEntity
  8
L1
100
AcDbVertex
100
AcDb2dVertex
 10
143.7392444284065
 20
146.6593129142004
 30
0.0
  0
VERTEX
  5
D0A
330
25F
100
AcDbEntity
  8
L1
100
AcDbVertex
100
AcDb2dVertex
 10
143.8323430480619
 20
146.6437548333394
 30
0.0
  0
SEQEND
  5
D0B
330
25F
100
AcDbEntity
  8
L1
  0
POLYLINE
  5
263
330
2
100
AcDbEntity
  8
L1
100
AcDb2dPolyline
 66
     1
 10
0.0
 20
0.0
 30
0.0
  0
VERTEX
  5
D0C
330
263
100
AcDbEntity
  8
L1
100
AcDbVertex
100
AcDb2dVertex
 10
143.5348733788343
 20
146.9436558791957
 30
0.0
  0
VERTEX
  5
D0D
330
263
100
AcDbEntity
  8
L1
100
AcDbVertex
100
AcDb2dVertex
 10
143.5912661875314
 20
146.7685692698947
 30
0.0
  0
VERTEX
  5
D0E
330
263
100
AcDbEntity
  8
L1
100
AcDbVertex
100
AcDb2dVertex
 10
143.7392444284065
 20
146.6593129142004
 30
0.0
  0
SEQEND
  5
D0F
330
263
100
AcDbEntity
  8
L1
  0
LINE
  5
268
330
2
100
AcDbEntity
  8
L1
100
AcDbLine
 10
143.2287531478652
 20
146.4293988194834
 30
0.0
 11
141.823539874222
 21
146.4293988194834
 31
0.0
  0
LINE
  5
269
330
2
100
AcDbEntity
  8
L1
100
AcDbLine
 10
199.3063575627614
 20
95.96018930436997
 30
0.0
 11
199.3063575627614
 21
121.3001923828455
 31
0.0
  0
LINE
  5
26A
330
2
100
AcDbEntity
  8
L2
100
AcDbLine
 10
196.3063575627614
 20
98.54124485051713
 30
0.0
 11
196.3063575627615
 21
144.0591608779553
 31
0.0
  0
LINE
  5
26B
330
2
100
AcDbEntity
  8
L1
100
AcDbLine
 10
199.3063575627614
 20
95.95670463621768
 30
0.0
 11
199.3063575627614
 21
146.659312914207
 31
0.0
  0
LINE
  5
26D
330
2
100
AcDbEntity
  8
L1
100
AcDbLine
 10
175.9011667416961
 20
81.2553832039279
 30
0.0
 11
198.8107208305106
 21
81.45531185360615
 31
0.0
  0
LINE
  5
270
330
2
100
AcDbEntity
  8
L1
100
AcDbLine
 10
175.3063575627614
 20
81.85019238286264
 30
0.0
 11
175.9011631193716
 21
81.25538682625244
 31
0.0
  0
LINE
  5
271
330
2
100
AcDbEntity
  8
L1
 62
     9
100
AcDbLine
 10
180.2887154361286
 20
95.79422485583876
 30
0.0
 11
199.3063575627614
 21
95.95670463621768
 31
0.0
  0
LINE
  5
273
330
2
100
AcDbEntity
  8
L1
 62
     9
100
AcDbLine
 10
178.6036253713044
 20
81.97899385794954
 30
0.0
 11
200.0089755234109
 21
82.16579551876057
 31
0.0
  0
LINE
  5
275
330
2
100
AcDbEntity
  8
L1
 62
     9
100
AcDbLine
 10
178.3062433319539
 20
81.2763719893577
 30
0.0
 11
178.306243331954
 21
93.79430100391147
 31
0.0
  0
ARC
  5
27F
330
2
100
AcDbEntity
  8
L1
 62
     9
100
AcDbCircle
 10
178.6062433319539
 20
81.67900528104885
 30
0.0
 40
0.2999999999999936
100
AcDbArc
 50
90.49999999999808
 51
180.0
  0
ELLIPSE
  5
281
330
2
100
AcDbEntity
  8
L1
 62
     9
100
AcDbEllipse
 10
180.3061671780822
 20
93.79430100391147
 30
0.0
 11
0.0
 21
-2.0
 31
0.0
210
0.0
220
0.0
230
1.0
 40
0.9999619230641712
 41
-3.132866339596933
 42
-1.570796326794896
  0
LINE
  5
282
330
2
100
AcDbEntity
  8
L1
100
AcDbLine
 10
200.3063575627614
 20
84.96568890334023
 30
0.0
 11
200.3063575627614
 21
95.87099736932264
 31
0.0
  0
LINE
  5
283
330
2
100
AcDbEntity
  8
L1
100
AcDbLine
 10
200.3063575627614
 20
82.4657840956798
 30
0.0
 11
200.3063575627614
 21
84.96568890334023
 31
0.0
  0
LINE
  5
284
330
2
100
AcDbEntity
  8
L1
100
AcDbLine
 10
200.3063575627614
 20
82.4657840956798
 30
0.0
 11
200.3063575627614
 21
84.96568890334023
 31
0.0
  0
ARC
  5
287
330
2
100
AcDbEntity
  8
L1
100
AcDbCircle
 10
200.0063575627614
 20
82.4657840956798
 30
0.0
 40
0.2999999999999971
100
AcDbArc
 50
270.5000000000008
 51
0.0
  0
ARC
  5
28B
330
2
100
AcDbEntity
  8
L1
100
AcDbCircle
 10
-198.8063575627614
 20
81.95529281513833
 30
0.0
 40
0.5000000000000001
210
0.0
220
0.0
230
-1.0
100
AcDbArc
 50
190.7309420600196
 51
269.4999999999986
  0
ARC
  5
290
330
2
100
AcDbEntity
  8
L1
100
AcDbCircle
 10
200.0063575627614
 20
95.87099736932264
 30
0.0
 40
0.3000000000000007
100
AcDbArc
 50
0.0
 51
89.50000000000192
  0
ARC
  5
291
330
2
100
AcDbEntity
  8
L1
100
AcDbCircle
 10
200.0063575627614
 20
95.87099736932264
 30
0.0
 40
0.3000000000000007
100
AcDbArc
 50
0.0
 51
89.50000000000192
  0
LINE
  5
292
330
2
100
AcDbEntity
  8
L1
100
AcDbLine
 10
200.0089755234109
 20
96.17098594624188
 30
0.0
 11
199.3064215052695
 21
96.17711704227408
 31
0.0
  0
LINE
  5
293
330
2
100
AcDbEntity
  8
L1
100
AcDbLine
 10
200.0089755234109
 20
96.17098594624188
 30
0.0
 11
199.3063575627614
 21
96.17711760029189
 31
0.0
  0
LINE
  5
294
330
2
100
AcDbEntity
  8
L6
 62
     1
100
AcDbLine
 10
202.0788258792505
 20
121.3001923828455
 30
0.0
 11
172.7699663699574
 21
121.3001923828455
 31
0.0
  0
LINE
  5
2A8
330
2
100
AcDbEntity
  8
L1
100
AcDbLine
 10
17.84940241247204
 20
161.3450015617973
 30
0.0
 11
140.9392873088922
 21
161.3450015617973
 31
0.0
  0
LINE
  5
2A9
330
2
100
AcDbEntity
  8
L1
100
AcDbLine
 10
129.7386732953479
 20
161.145072912119
 30
0.0
 11
29.05001642597352
 21
161.145072912119
 31
0.0
  0
LINE
  5
2AA
330
2
100
AcDbEntity
  8
L1
100
AcDbLine
 10
129.7386732953479
 20
161.145072912119
 30
0.0
 11
29.05001642597352
 21
161.145072912119
 31
0.0
  0
LINE
  5
2AB
330
2
100
AcDbEntity
  8
L6
 48
0.3
100
AcDbLine
 10
29.673275188399
 20
153.0501923828628
 30
0.0
 11
15.6719137439002
 21
153.0501923828628
 31
0.0
  0
LINE
  5
2AC
330
2
100
AcDbEntity
  8
L1
100
AcDbLine
 10
29.26513842406146
 20
158.7293873964026
 30
0.0
 11
29.26513842406146
 21
160.1346006700456
 31
0.0
  0
POLYLINE
  5
2AD
330
2
100
AcDbEntity
  8
L1
100
AcDb2dPolyline
 66
     1
 10
0.0
 20
0.0
 30
0.0
  0
VERTEX
  5
D10
330
2AD
100
AcDbEntity
  8
L1
100
AcDbVertex
100
AcDb2dVertex
 10
17.84434486068212
 20
161.3449979394728
 30
0.0
  0
VERTEX
  5
D11
330
2AD
100
AcDbEntity
  8
L1
100
AcDbVertex
100
AcDb2dVertex
 10
17.17271058691974
 20
161.2789731961924
 30
0.0
  0
VERTEX
  5
D12
330
2AD
100
AcDbEntity
  8
L1
100
AcDbVertex
100
AcDb2dVertex
 10
16.50770756162992
 20
161.077646457225
 30
0.0
  0
VERTEX
  5
D13
330
2AD
100
AcDbEntity
  8
L1
100
AcDbVertex
100
AcDb2dVertex
 10
15.89558249987569
 20
160.7489182068441
 30
0.0
  0
VERTEX
  5
D14
330
2AD
100
AcDbEntity
  8
L1
100
AcDbVertex
100
AcDb2dVertex
 10
15.37458888513847
 20
160.3199483584062
 30
0.0
  0
VERTEX
  5
D15
330
2AD
100
AcDbEntity
  8
L1
100
AcDbVertex
100
AcDb2dVertex
 10
14.9456190367006
 20
159.798954743669
 30
0.0
  0
VERTEX
  5
D16
330
2AD
100
AcDbEntity
  8
L1
100
AcDbVertex
100
AcDb2dVertex
 10
14.61689078631959
 20
159.1868296819147
 30
0.0
  0
VERTEX
  5
D17
330
2AD
100
AcDbEntity
  8
L1
100
AcDbVertex
100
AcDb2dVertex
 10
14.41556404735231
 20
158.5218266566249
 30
0.0
  0
VERTEX
  5
D18
330
2AD
100
AcDbEntity
  8
L1
100
AcDbVertex
100
AcDb2dVertex
 10
14.34953930407189
 20
157.8501923828626
 30
0.0
  0
SEQEND
  5
D19
330
2AD
100
AcDbEntity
  8
L1
  0
POLYLINE
  5
2B8
330
2
100
AcDbEntity
  8
L1
100
AcDb2dPolyline
 66
     1
 10
0.0
 20
0.0
 30
0.0
  0
VERTEX
  5
D1A
330
2B8
100
AcDbEntity
  8
L1
100
AcDbVertex
100
AcDb2dVertex
 10
15.07314633578735
 20
157.8214975231776
 30
0.0
  0
VERTEX
  5
D1B
330
2B8
100
AcDbEntity
  8
L1
100
AcDbVertex
100
AcDb2dVertex
 10
15.08662617916914
 20
158.0959438052233
 30
0.0
  0
VERTEX
  5
D1C
330
2B8
100
AcDbEntity
  8
L1
100
AcDbVertex
100
AcDb2dVertex
 10
15.1269403817894
 20
158.3677450022322
 30
0.0
  0
VERTEX
  5
D1D
330
2B8
100
AcDbEntity
  8
L1
100
AcDbVertex
100
AcDb2dVertex
 10
15.19370073345228
 20
158.634283773688
 30
0.0
  0
VERTEX
  5
D1E
330
2B8
100
AcDbEntity
  8
L1
100
AcDbVertex
100
AcDb2dVertex
 10
15.28626435776416
 20
158.8929934541996
 30
0.0
  0
VERTEX
  5
D1F
330
2B8
100
AcDbEntity
  8
L1
100
AcDbVertex
100
AcDb2dVertex
 10
15.40373990278535
 20
159.1413827694967
 30
0.0
  0
VERTEX
  5
D20
330
2B8
100
AcDbEntity
  8
L1
100
AcDbVertex
100
AcDb2dVertex
 10
15.54499612440397
 20
159.3770598264386
 30
0.0
  0
VERTEX
  5
D21
330
2B8
100
AcDbEntity
  8
L1
100
AcDbVertex
100
AcDb2dVertex
 10
15.70867277978075
 20
159.5977551460214
 30
0.0
  0
VERTEX
  5
D22
330
2B8
100
AcDbEntity
  8
L1
100
AcDbVertex
100
AcDb2dVertex
 10
15.89319372596108
 20
159.8013435175836
 30
0.0
  0
VERTEX
  5
D23
330
2B8
100
AcDbEntity
  8
L1
100
AcDbVertex
100
AcDb2dVertex
 10
16.09678209752328
 20
159.985864463764
 30
0.0
  0
VERTEX
  5
D24
330
2B8
100
AcDbEntity
  8
L1
100
AcDbVertex
100
AcDb2dVertex
 10
16.31747741710605
 20
160.1495411191407
 30
0.0
  0
VERTEX
  5
D25
330
2B8
100
AcDbEntity
  8
L1
100
AcDbVertex
100
AcDb2dVertex
 10
16.55315447404805
 20
160.2907973407594
 30
0.0
  0
VERTEX
  5
D26
330
2B8
100
AcDbEntity
  8
L1
100
AcDbVertex
100
AcDb2dVertex
 10
16.80154378934505
 20
160.4082728857805
 30
0.0
  0
VERTEX
  5
D27
330
2B8
100
AcDbEntity
  8
L1
100
AcDbVertex
100
AcDb2dVertex
 10
17.06025346985668
 20
160.5008365100924
 30
0.0
  0
VERTEX
  5
D28
330
2B8
100
AcDbEntity
  8
L1
100
AcDbVertex
100
AcDb2dVertex
 10
17.32679224131257
 20
160.5675968617553
 30
0.0
  0
VERTEX
  5
D29
330
2B8
100
AcDbEntity
  8
L1
100
AcDbVertex
100
AcDb2dVertex
 10
17.59859343832138
 20
160.6079110643755
 30
0.0
  0
VERTEX
  5
D2A
330
2B8
100
AcDbEntity
  8
L1
100
AcDbVertex
100
AcDb2dVertex
 10
17.87303972036707
 20
160.6213909077573
 30
0.0
  0
SEQEND
  5
D2B
330
2B8
100
AcDbEntity
  8
L1
  0
POLYLINE
  5
2CB
330
2
100
AcDbEntity
  8
L1
100
AcDb2dPolyline
 66
     1
 10
0.0
 20
0.0
 30
0.0
  0
VERTEX
  5
D2C
330
2CB
100
AcDbEntity
  8
L1
100
AcDbVertex
100
AcDb2dVertex
 10
18.05984138115959
 20
160.4345892469647
 30
0.0
  0
VERTEX
  5
D2D
330
2CB
100
AcDbEntity
  8
L1
100
AcDbVertex
100
AcDb2dVertex
 10
17.8014955473715
 20
160.4226436327808
 30
0.0
  0
VERTEX
  5
D2E
330
2CB
100
AcDbEntity
  8
L1
100
AcDbVertex
100
AcDb2dVertex
 10
17.54535523976133
 20
160.3869129116336
 30
0.0
  0
VERTEX
  5
D2F
330
2CB
100
AcDbEntity
  8
L1
100
AcDbVertex
100
AcDb2dVertex
 10
17.29360554538962
 20
160.327701895902
 30
0.0
  0
VERTEX
  5
D30
330
2CB
100
AcDbEntity
  8
L1
100
AcDbVertex
100
AcDb2dVertex
 10
17.04839409578246
 20
160.2455157041499
 30
0.0
  0
VERTEX
  5
D31
330
2CB
100
AcDbEntity
  8
L1
100
AcDbVertex
100
AcDb2dVertex
 10
16.81181274587154
 20
160.1410554520503
 30
0.0
  0
VERTEX
  5
D32
330
2CB
100
AcDbEntity
  8
L1
100
AcDbVertex
100
AcDb2dVertex
 10
16.58587972875457
 20
160.0152122712933
 30
0.0
  0
VERTEX
  5
D33
330
2CB
100
AcDbEntity
  8
L1
100
AcDbVertex
100
AcDb2dVertex
 10
16.37252243851073
 20
159.8690597075012
 30
0.0
  0
VERTEX
  5
D34
330
2CB
100
AcDbEntity
  8
L1
100
AcDbVertex
100
AcDb2dVertex
 10
16.17356098794678
 20
159.7038445620036
 30
0.0
  0
VERTEX
  5
D35
330
2CB
100
AcDbEntity
  8
L1
100
AcDbVertex
100
AcDb2dVertex
 10
15.9906926815411
 20
159.5209762555979
 30
0.0
  0
VERTEX
  5
D36
330
2CB
100
AcDbEntity
  8
L1
100
AcDbVertex
100
AcDb2dVertex
 10
15.82547753604344
 20
159.3220148050339
 30
0.0
  0
VERTEX
  5
D37
330
2CB
100
AcDbEntity
  8
L1
100
AcDbVertex
100
AcDb2dVertex
 10
15.6793249722514
 20
159.1086575147901
 30
0.0
  0
VERTEX
  5
D38
330
2CB
100
AcDbEntity
  8
L1
100
AcDbVertex
100
AcDb2dVertex
 10
15.55348179149441
 20
158.8827244976732
 30
0.0
  0
VERTEX
  5
D39
330
2CB
100
AcDbEntity
  8
L1
100
AcDbVertex
100
AcDb2dVertex
 10
15.44902153939486
 20
158.6461431477623
 30
0.0
  0
VERTEX
  5
D3A
330
2CB
100
AcDbEntity
  8
L1
100
AcDbVertex
100
AcDb2dVertex
 10
15.3668353476427
 20
158.4009316981551
 30
0.0
  0
VERTEX
  5
D3B
330
2CB
100
AcDbEntity
  8
L1
100
AcDbVertex
100
AcDb2dVertex
 10
15.30762433191105
 20
158.1491820037833
 30
0.0
  0
VERTEX
  5
D3C
330
2CB
100
AcDbEntity
  8
L1
100
AcDbVertex
100
AcDb2dVertex
 10
15.27189361076389
 20
157.8930416961732
 30
0.0
  0
VERTEX
  5
D3D
330
2CB
100
AcDbEntity
  8
L1
100
AcDbVertex
100
AcDb2dVertex
 10
15.25994799657999
 20
157.6346958623851
 30
0.0
  0
SEQEND
  5
D3E
330
2CB
100
AcDbEntity
  8
L1
  0
ARC
  5
2DF
330
2
100
AcDbEntity
  8
L1
100
AcDbCircle
 10
22.64434486068207
 20
153.0501923828627
 30
0.0
 40
4.70630101413334
100
AcDbArc
 50
105.060797850185
 51
164.9392021497411
  0
POLYLINE
  5
2E0
330
2
100
AcDbEntity
  8
L1
100
AcDb2dPolyline
 66
     1
 10
0.0
 20
0.0
 30
0.0
  0
VERTEX
  5
D3F
330
2E0
100
AcDbEntity
  8
L1
100
AcDbVertex
100
AcDb2dVertex
 10
21.42144141539452
 20
157.5948349869776
 30
0.0
  0
VERTEX
  5
D40
330
2E0
100
AcDbEntity
  8
L1
100
AcDbVertex
100
AcDb2dVertex
 10
21.17204694493025
 20
157.5541172843226
 30
0.0
  0
VERTEX
  5
D41
330
2E0
100
AcDbEntity
  8
L1
100
AcDbVertex
100
AcDb2dVertex
 10
20.92091882760351
 20
157.5146027610738
 30
0.0
  0
VERTEX
  5
D42
330
2E0
100
AcDbEntity
  8
L1
100
AcDbVertex
100
AcDb2dVertex
 10
20.66676636448394
 20
157.4760777583546
 30
0.0
  0
VERTEX
  5
D43
330
2E0
100
AcDbEntity
  8
L1
100
AcDbVertex
100
AcDb2dVertex
 10
20.40827530366985
 20
157.438340200024
 30
0.0
  0
SEQEND
  5
D44
330
2E0
100
AcDbEntity
  8
L1
  0
LINE
  5
2E7
330
2
100
AcDbEntity
  8
L1
100
AcDbLine
 10
18.36254321032063
 20
158.4293988194834
 30
0.0
 11
28.96514984714226
 21
158.4293988194834
 31
0.0
  0
CIRCLE
  5
2E8
330
2
100
AcDbEntity
  8
L1
100
AcDbCircle
 10
22.64434486068219
 20
153.0501923828628
 30
0.0
 40
2.271817169476896
  0
CIRCLE
  5
2E9
330
2
100
AcDbEntity
  8
L1
100
AcDbCircle
 10
22.64434486068207
 20
153.0501923828627
 30
0.0
 40
3.9
  0
CIRCLE
  5
2EA
330
2
100
AcDbEntity
  8
L1
100
AcDbCircle
 10
22.64434486068207
 20
153.0501923828627
 30
0.0
 40
3.360549721400785
  0
POLYLINE
  5
2EB
330
2
100
AcDbEntity
  8
L1
100
AcDb2dPolyline
 66
     1
 10
0.0
 20
0.0
 30
0.0
  0
VERTEX
  5
D45
330
2EB
100
AcDbEntity
  8
L1
100
AcDbVertex
100
AcDb2dVertex
 10
18.25619704352166
 20
155.2862619398765
 30
0.0
  0
VERTEX
  5
D46
330
2EB
100
AcDbEntity
  8
L1
100
AcDbVertex
100
AcDb2dVertex
 10
18.21845948519128
 20
155.0277708790633
 30
0.0
  0
VERTEX
  5
D47
330
2EB
100
AcDbEntity
  8
L1
100
AcDbVertex
100
AcDb2dVertex
 10
18.17993448247207
 20
154.7736184159446
 30
0.0
  0
VERTEX
  5
D48
330
2EB
100
AcDbEntity
  8
L1
100
AcDbVertex
100
AcDb2dVertex
 10
18.14041995922334
 20
154.5224902986189
 30
0.0
  0
VERTEX
  5
D49
330
2EB
100
AcDbEntity
  8
L1
100
AcDbVertex
100
AcDb2dVertex
 10
18.09970225656868
 20
154.2730958281559
 30
0.0
  0
SEQEND
  5
D4A
330
2EB
100
AcDbEntity
  8
L1
  0
LINE
  5
2F2
330
2
100
AcDbEntity
  8
L1
100
AcDbLine
 10
15.07314633578735
 20
148.8060837617953
 30
0.0
 11
15.07314633578735
 21
157.8214975231776
 31
0.0
  0
LINE
  5
2F3
330
2
100
AcDbEntity
  8
L1
100
AcDbLine
 10
17.31490441706855
 20
153.8327272242004
 30
0.0
 11
17.31054098317295
 21
153.8283637903051
 31
0.0
  0
LINE
  5
2F4
330
2
100
AcDbEntity
  8
L1
100
AcDbLine
 10
18.0997022565688
 20
154.2730958281561
 30
0.0
 11
17.97924130221681
 21
153.6715441547493
 31
0.0
  0
POLYLINE
  5
2F5
330
2
100
AcDbEntity
  8
L1
100
AcDb2dPolyline
 66
     1
 10
0.0
 20
0.0
 30
0.0
  0
VERTEX
  5
D4B
330
2F5
100
AcDbEntity
  8
L1
100
AcDbVertex
100
AcDb2dVertex
 10
17.71890972443261
 20
152.5720095523395
 30
0.0
  0
VERTEX
  5
D4C
330
2F5
100
AcDbEntity
  8
L1
100
AcDbVertex
100
AcDb2dVertex
 10
17.75334751100924
 20
152.5700263958905
 30
0.0
  0
VERTEX
  5
D4D
330
2F5
100
AcDbEntity
  8
L1
100
AcDbVertex
100
AcDb2dVertex
 10
17.78732977969869
 20
152.5641031449416
 30
0.0
  0
SEQEND
  5
D4E
330
2F5
100
AcDbEntity
  8
L1
  0
POLYLINE
  5
2FA
330
2
100
AcDbEntity
  8
L1
100
AcDb2dPolyline
 66
     1
 10
0.0
 20
0.0
 30
0.0
  0
VERTEX
  5
D4F
330
2FA
100
AcDbEntity
  8
L1
100
AcDbVertex
100
AcDb2dVertex
 10
17.78732977969869
 20
152.5641031449416
 30
0.0
  0
VERTEX
  5
D50
330
2FA
100
AcDbEntity
  8
L1
100
AcDbVertex
100
AcDb2dVertex
 10
17.82197715018972
 20
152.5580614058341
 30
0.0
  0
VERTEX
  5
D51
330
2FA
100
AcDbEntity
  8
L1
100
AcDbVertex
100
AcDb2dVertex
 10
17.93512411162512
 20
152.504631537085
 30
0.0
  0
VERTEX
  5
D52
330
2FA
100
AcDbEntity
  8
L1
100
AcDbVertex
100
AcDb2dVertex
 10
17.96896336444515
 20
152.4729165642113
 30
0.0
  0
VERTEX
  5
D53
330
2FA
100
AcDbEntity
  8
L1
100
AcDbVertex
100
AcDb2dVertex
 10
17.97435696320271
 20
152.4666837942124
 30
0.0
  0
SEQEND
  5
D54
330
2FA
100
AcDbEntity
  8
L1
  0
LINE
  5
301
330
2
100
AcDbEntity
  8
L1
100
AcDbLine
 10
17.71890972443261
 20
152.5720095523396
 30
0.0
 11
17.61052956009214
 21
152.5720095523396
 31
0.0
  0
POLYLINE
  5
302
330
2
100
AcDbEntity
  8
L1
100
AcDb2dPolyline
 66
     1
 10
0.0
 20
0.0
 30
0.0
  0
VERTEX
  5
D55
330
302
100
AcDbEntity
  8
L1
100
AcDbVertex
100
AcDb2dVertex
 10
17.31054098317283
 20
152.2720209754203
 30
0.0
  0
VERTEX
  5
D56
330
302
100
AcDbEntity
  8
L1
100
AcDbVertex
100
AcDb2dVertex
 10
17.39840421734927
 20
152.4841463181632
 30
0.0
  0
VERTEX
  5
D57
330
302
100
AcDbEntity
  8
L1
100
AcDbVertex
100
AcDb2dVertex
 10
17.61052956009214
 20
152.5720095523396
 30
0.0
  0
SEQEND
  5
D58
330
302
100
AcDbEntity
  8
L1
  0
LINE
  5
307
330
2
100
AcDbEntity
  8
L1
100
AcDbLine
 10
17.61052956009225
 20
153.5283752133858
 30
0.0
 11
17.69894462725838
 21
153.5283752133858
 31
0.0
  0
LINE
  5
308
330
2
100
AcDbEntity
  8
L1
100
AcDbLine
 10
17.61052956009225
 20
153.5283752133858
 30
0.0
 11
17.61489299398786
 21
153.5327386472812
 31
0.0
  0
POLYLINE
  5
309
330
2
100
AcDbEntity
  8
L1
100
AcDb2dPolyline
 66
     1
 10
0.0
 20
0.0
 30
0.0
  0
VERTEX
  5
D59
330
309
100
AcDbEntity
  8
L1
100
AcDbVertex
100
AcDb2dVertex
 10
17.78789175510737
 20
153.5418645068201
 30
0.0
  0
VERTEX
  5
D5A
330
309
100
AcDbEntity
  8
L1
100
AcDbVertex
100
AcDb2dVertex
 10
17.74392691221683
 20
153.5317667063891
 30
0.0
  0
VERTEX
  5
D5B
330
309
100
AcDbEntity
  8
L1
100
AcDbVertex
100
AcDb2dVertex
 10
17.69894462725838
 20
153.5283752133858
 30
0.0
  0
SEQEND
  5
D5C
330
309
100
AcDbEntity
  8
L1
  0
LINE
  5
30E
330
2
100
AcDbEntity
  8
L1
100
AcDbLine
 10
17.69528327148614
 20
153.5327386472812
 30
0.0
 11
17.69894462725838
 21
153.5283752133858
 31
0.0
  0
LINE
  5
30F
330
2
100
AcDbEntity
  8
L1
100
AcDbLine
 10
18.02206916082334
 20
152.3671174680218
 30
0.0
 11
18.36226699935494
 21
151.0974818499969
 31
0.0
  0
POLYLINE
  5
310
330
2
100
AcDbEntity
  8
L1
100
AcDb2dPolyline
 66
     1
 10
0.0
 20
0.0
 30
0.0
  0
VERTEX
  5
D5D
330
310
100
AcDbEntity
  8
L1
100
AcDbVertex
100
AcDb2dVertex
 10
17.97435696320271
 20
152.4666837942124
 30
0.0
  0
VERTEX
  5
D5E
330
310
100
AcDbEntity
  8
L1
100
AcDbVertex
100
AcDb2dVertex
 10
18.00283288469816
 20
152.4191147280918
 30
0.0
  0
VERTEX
  5
D5F
330
310
100
AcDbEntity
  8
L1
100
AcDbVertex
100
AcDb2dVertex
 10
18.02206916082334
 20
152.3671174680218
 30
0.0
  0
SEQEND
  5
D60
330
310
100
AcDbEntity
  8
L1
  0
POLYLINE
  5
315
330
2
100
AcDbEntity
  8
L1
100
AcDb2dPolyline
 66
     1
 10
0.0
 20
0.0
 30
0.0
  0
VERTEX
  5
D61
330
315
100
AcDbEntity
  8
L1
100
AcDbVertex
100
AcDb2dVertex
 10
18.36226699935494
 20
151.0974818499972
 30
0.0
  0
VERTEX
  5
D62
330
315
100
AcDbEntity
  8
L1
100
AcDbVertex
100
AcDb2dVertex
 10
18.43423765303534
 20
150.8035456189062
 30
0.0
  0
VERTEX
  5
D63
330
315
100
AcDbEntity
  8
L1
100
AcDbVertex
100
AcDb2dVertex
 10
18.50533988285419
 20
150.5046203230366
 30
0.0
  0
VERTEX
  5
D64
330
315
100
AcDbEntity
  8
L1
100
AcDbVertex
100
AcDb2dVertex
 10
18.57610360736887
 20
150.198510100269
 30
0.0
  0
VERTEX
  5
D65
330
315
100
AcDbEntity
  8
L1
100
AcDbVertex
100
AcDb2dVertex
 10
18.64705371141999
 20
149.8829122455792
 30
0.0
  0
SEQEND
  5
D66
330
315
100
AcDbEntity
  8
L1
  0
ARC
  5
31C
330
2
100
AcDbEntity
  8
L1
100
AcDbCircle
 10
22.64434486068207
 20
153.0501923828627
 30
0.0
 40
4.70630101413334
100
AcDbArc
 50
172.413345733974
 51
187.1221183125067
  0
POLYLINE
  5
31D
330
2
100
AcDbEntity
  8
L1
100
AcDb2dPolyline
 66
     1
 10
0.0
 20
0.0
 30
0.0
  0
VERTEX
  5
D67
330
31D
100
AcDbEntity
  8
L1
100
AcDbVertex
100
AcDb2dVertex
 10
17.61052956009225
 20
153.5283752133858
 30
0.0
  0
VERTEX
  5
D68
330
31D
100
AcDbEntity
  8
L1
100
AcDbVertex
100
AcDb2dVertex
 10
17.39840421734939
 20
153.6162384475622
 30
0.0
  0
VERTEX
  5
D69
330
31D
100
AcDbEntity
  8
L1
100
AcDbVertex
100
AcDb2dVertex
 10
17.31054098317295
 20
153.8283637903051
 30
0.0
  0
SEQEND
  5
D6A
330
31D
100
AcDbEntity
  8
L1
  0
POLYLINE
  5
322
330
2
100
AcDbEntity
  8
L1
100
AcDb2dPolyline
 66
     1
 10
0.0
 20
0.0
 30
0.0
  0
VERTEX
  5
D6B
330
322
100
AcDbEntity
  8
L1
100
AcDbVertex
100
AcDb2dVertex
 10
17.97924130221681
 20
153.6715441547493
 30
0.0
  0
VERTEX
  5
D6C
330
322
100
AcDbEntity
  8
L1
100
AcDbVertex
100
AcDb2dVertex
 10
17.94847506866451
 20
153.6294944739631
 30
0.0
  0
VERTEX
  5
D6D
330
322
100
AcDbEntity
  8
L1
100
AcDbVertex
100
AcDb2dVertex
 10
17.91440062483743
 20
153.5978092384537
 30
0.0
  0
VERTEX
  5
D6E
330
322
100
AcDbEntity
  8
L1
100
AcDbVertex
100
AcDb2dVertex
 10
17.80043304090966
 20
153.544479683906
 30
0.0
  0
VERTEX
  5
D6F
330
322
100
AcDbEntity
  8
L1
100
AcDbVertex
100
AcDb2dVertex
 10
17.78789175510737
 20
153.5418645068201
 30
0.0
  0
SEQEND
  5
D70
330
322
100
AcDbEntity
  8
L1
  0
LINE
  5
329
330
2
100
AcDbEntity
  8
L1
100
AcDbLine
 10
17.31054098317295
 20
152.2720209754203
 30
0.0
 11
17.31054098317295
 21
153.8283637903051
 31
0.0
  0
ARC
  5
32A
330
2
100
AcDbEntity
  8
L1
100
AcDbCircle
 10
18.36254321032063
 20
157.3319940332241
 30
0.0
 40
1.097404786259289
100
AcDbArc
 50
90.0
 51
180.0
  0
ARC
  5
32B
330
2
100
AcDbEntity
  8
L1
100
AcDbCircle
 10
22.64434486068207
 20
153.0501923828627
 30
0.0
 40
4.925022672948151
100
AcDbArc
 50
117.0020375494462
 51
152.997962450533
  0
LINE
  5
32C
330
2
100
AcDbEntity
  8
L1
100
AcDbLine
 10
28.97127007811187
 20
157.8232900115949
 30
0.0
 11
28.97127007811187
 21
153.5232671654334
 31
0.0
  0
ARC
  5
32D
330
2
100
AcDbEntity
  8
L1
100
AcDbCircle
 10
22.64434486068207
 20
153.0501923828627
 30
0.0
 40
5.099999999999999
100
AcDbArc
 50
326.7249979980023
 51
51.6082214206873
  0
LINE
  5
32E
330
2
100
AcDbEntity
  8
L1
100
AcDbLine
 10
26.98228391159287
 20
150.1847402937563
 30
0.0
 11
27.61542312764552
 21
149.5516010777036
 31
0.0
  0
ARC
  5
32F
330
2
100
AcDbEntity
  8
L1
100
AcDbCircle
 10
22.64434486068207
 20
153.0501923828627
 30
0.0
 40
5.099999999999999
100
AcDbArc
 50
303.2750020019958
 51
326.7249979980032
  0
POLYLINE
  5
330
330
2
100
AcDbEntity
  8
L1
100
AcDb2dPolyline
 66
     1
 10
0.0
 20
0.0
 30
0.0
  0
VERTEX
  5
D71
330
330
100
AcDbEntity
  8
L1
100
AcDbVertex
100
AcDb2dVertex
 10
25.81162499796451
 20
157.0474835321257
 30
0.0
  0
VERTEX
  5
D72
330
330
100
AcDbEntity
  8
L1
100
AcDbVertex
100
AcDb2dVertex
 10
25.49602714327423
 20
157.1184336361769
 30
0.0
  0
VERTEX
  5
D73
330
330
100
AcDbEntity
  8
L1
100
AcDbVertex
100
AcDb2dVertex
 10
25.18991692050613
 20
157.1891973606916
 30
0.0
  0
VERTEX
  5
D74
330
330
100
AcDbEntity
  8
L1
100
AcDbVertex
100
AcDb2dVertex
 10
24.89099162463608
 20
157.2602995905107
 30
0.0
  0
VERTEX
  5
D75
330
330
100
AcDbEntity
  8
L1
100
AcDbVertex
100
AcDb2dVertex
 10
24.59705539354481
 20
157.3322702441913
 30
0.0
  0
SEQEND
  5
D76
330
330
100
AcDbEntity
  8
L1
  0
ARC
  5
337
330
2
100
AcDbEntity
  8
L1
100
AcDbCircle
 10
22.64434486068207
 20
153.0501923828627
 30
0.0
 40
4.70630101413334
100
AcDbArc
 50
82.87788168748074
 51
97.58665426604556
  0
LINE
  5
338
330
2
100
AcDbEntity
  8
L1
100
AcDbLine
 10
23.1225276912053
 20
158.0840076834557
 30
0.0
 11
23.1225276912053
 21
157.9756275191127
 31
0.0
  0
POLYLINE
  5
339
330
2
100
AcDbEntity
  8
L1
100
AcDb2dPolyline
 66
     1
 10
0.0
 20
0.0
 30
0.0
  0
VERTEX
  5
D77
330
339
100
AcDbEntity
  8
L1
100
AcDbVertex
100
AcDb2dVertex
 10
23.32741977552305
 20
157.6724680827219
 30
0.0
  0
VERTEX
  5
D78
330
339
100
AcDbEntity
  8
L1
100
AcDbVertex
100
AcDb2dVertex
 10
23.27542251545358
 20
157.691704358847
 30
0.0
  0
VERTEX
  5
D79
330
339
100
AcDbEntity
  8
L1
100
AcDbVertex
100
AcDb2dVertex
 10
23.22785344933347
 20
157.7201802803419
 30
0.0
  0
SEQEND
  5
D7A
330
339
100
AcDbEntity
  8
L1
  0
POLYLINE
  5
33E
330
2
100
AcDbEntity
  8
L1
100
AcDb2dPolyline
 66
     1
 10
0.0
 20
0.0
 30
0.0
  0
VERTEX
  5
D7B
330
33E
100
AcDbEntity
  8
L1
100
AcDbVertex
100
AcDb2dVertex
 10
23.22785344933347
 20
157.7201802803419
 30
0.0
  0
VERTEX
  5
D7C
330
33E
100
AcDbEntity
  8
L1
100
AcDbVertex
100
AcDb2dVertex
 10
23.22162067933347
 20
157.7255738791002
 30
0.0
  0
VERTEX
  5
D7D
330
33E
100
AcDbEntity
  8
L1
100
AcDbVertex
100
AcDb2dVertex
 10
23.18990570645999
 20
157.7594131319203
 30
0.0
  0
VERTEX
  5
D7E
330
33E
100
AcDbEntity
  8
L1
100
AcDbVertex
100
AcDb2dVertex
 10
23.13647583771094
 20
157.8725600933556
 30
0.0
  0
VERTEX
  5
D7F
330
33E
100
AcDbEntity
  8
L1
100
AcDbVertex
100
AcDb2dVertex
 10
23.13043409860338
 20
157.9072074638461
 30
0.0
  0
SEQEND
  5
D80
330
33E
100
AcDbEntity
  8
L1
  0
POLYLINE
  5
345
330
2
100
AcDbEntity
  8
L1
100
AcDb2dPolyline
 66
     1
 10
0.0
 20
0.0
 30
0.0
  0
VERTEX
  5
D81
330
345
100
AcDbEntity
  8
L1
100
AcDbVertex
100
AcDb2dVertex
 10
23.13043409860338
 20
157.9072074638461
 30
0.0
  0
VERTEX
  5
D82
330
345
100
AcDbEntity
  8
L1
100
AcDbVertex
100
AcDb2dVertex
 10
23.12451084765441
 20
157.9411897325358
 30
0.0
  0
VERTEX
  5
D83
330
345
100
AcDbEntity
  8
L1
100
AcDbVertex
100
AcDb2dVertex
 10
23.12252769120518
 20
157.9756275191127
 30
0.0
  0
SEQEND
  5
D84
330
345
100
AcDbEntity
  8
L1
  0
LINE
  5
34A
330
2
100
AcDbEntity
  8
L1
100
AcDbLine
 10
21.93571965852427
 20
157.6855161168327
 30
0.0
 11
21.42144141539452
 21
157.5948349869776
 31
0.0
  0
POLYLINE
  5
34B
330
2
100
AcDbEntity
  8
L1
100
AcDb2dPolyline
 66
     1
 10
0.0
 20
0.0
 30
0.0
  0
VERTEX
  5
D85
330
34B
100
AcDbEntity
  8
L1
100
AcDbVertex
100
AcDb2dVertex
 10
22.15267273672455
 20
157.9066454884374
 30
0.0
  0
VERTEX
  5
D86
330
34B
100
AcDbEntity
  8
L1
100
AcDbVertex
100
AcDb2dVertex
 10
22.15005755963877
 20
157.8941042026356
 30
0.0
  0
VERTEX
  5
D87
330
34B
100
AcDbEntity
  8
L1
100
AcDbVertex
100
AcDb2dVertex
 10
22.09672800509113
 20
157.7801366187081
 30
0.0
  0
VERTEX
  5
D88
330
34B
100
AcDbEntity
  8
L1
100
AcDbVertex
100
AcDb2dVertex
 10
22.06504276958187
 20
157.7460621748809
 30
0.0
  0
VERTEX
  5
D89
330
34B
100
AcDbEntity
  8
L1
100
AcDbVertex
100
AcDb2dVertex
 10
22.02299308879392
 20
157.7152959413278
 30
0.0
  0
SEQEND
  5
D8A
330
34B
100
AcDbEntity
  8
L1
  0
POLYLINE
  5
352
330
2
100
AcDbEntity
  8
L1
100
AcDb2dPolyline
 66
     1
 10
0.0
 20
0.0
 30
0.0
  0
VERTEX
  5
D8B
330
352
100
AcDbEntity
  8
L1
100
AcDbVertex
100
AcDb2dVertex
 10
22.02299308879392
 20
157.7152959413278
 30
0.0
  0
VERTEX
  5
D8C
330
352
100
AcDbEntity
  8
L1
100
AcDbVertex
100
AcDb2dVertex
 10
21.98050763966219
 20
157.6970327369389
 30
0.0
  0
VERTEX
  5
D8D
330
352
100
AcDbEntity
  8
L1
100
AcDbVertex
100
AcDb2dVertex
 10
21.93571965852427
 20
157.6855161168327
 30
0.0
  0
SEQEND
  5
D8E
330
352
100
AcDbEntity
  8
L1
  0
LINE
  5
357
330
2
100
AcDbEntity
  8
L1
100
AcDbLine
 10
22.15267273672455
 20
157.9066454884374
 30
0.0
 11
22.16616203015908
 21
158.0840076834557
 31
0.0
  0
POLYLINE
  5
358
330
2
100
AcDbEntity
  8
L1
100
AcDb2dPolyline
 66
     1
 10
0.0
 20
0.0
 30
0.0
  0
VERTEX
  5
D8F
330
358
100
AcDbEntity
  8
L1
100
AcDbVertex
100
AcDb2dVertex
 10
21.86617345323989
 20
158.3839962603749
 30
0.0
  0
VERTEX
  5
D90
330
358
100
AcDbEntity
  8
L1
100
AcDbVertex
100
AcDb2dVertex
 10
22.07829879598264
 20
158.2961330261985
 30
0.0
  0
VERTEX
  5
D91
330
358
100
AcDbEntity
  8
L1
100
AcDbVertex
100
AcDb2dVertex
 10
22.16616203015908
 20
158.0840076834557
 30
0.0
  0
SEQEND
  5
D92
330
358
100
AcDbEntity
  8
L1
  0
LINE
  5
35D
330
2
100
AcDbEntity
  8
L1
100
AcDbLine
 10
24.59705539354436
 20
157.3322702441914
 30
0.0
 11
23.32741977552305
 21
157.6724680827219
 31
0.0
  0
LINE
  5
35E
330
2
100
AcDbEntity
  8
L1
100
AcDbLine
 10
21.86617345323989
 20
158.3839962603749
 30
0.0
 11
23.42251626812449
 21
158.3839962603749
 31
0.0
  0
POLYLINE
  5
35F
330
2
100
AcDbEntity
  8
L1
100
AcDb2dPolyline
 66
     1
 10
0.0
 20
0.0
 30
0.0
  0
VERTEX
  5
D93
330
35F
100
AcDbEntity
  8
L1
100
AcDbVertex
100
AcDb2dVertex
 10
23.1225276912053
 20
158.0840076834557
 30
0.0
  0
VERTEX
  5
D94
330
35F
100
AcDbEntity
  8
L1
100
AcDbVertex
100
AcDb2dVertex
 10
23.21039092538174
 20
158.2961330261985
 30
0.0
  0
VERTEX
  5
D95
330
35F
100
AcDbEntity
  8
L1
100
AcDbVertex
100
AcDb2dVertex
 10
23.42251626812449
 20
158.3839962603749
 30
0.0
  0
SEQEND
  5
D96
330
35F
100
AcDbEntity
  8
L1
  0
ELLIPSE
  5
364
330
2
100
AcDbEntity
  8
L1
100
AcDbEllipse
 10
28.96514984714226
 20
158.7293873964026
 30
0.0
 11
-0.2121320343489897
 21
-0.2121320343629324
 31
0.0
210
0.0
220
0.0
230
1.0
 40
0.9999238504775656
 41
0.7854362395755267
 42
2.35615641394854
  0
POLYLINE
  5
365
330
2
100
AcDbEntity
  8
L1
100
AcDb2dPolyline
 66
     1
 10
0.0
 20
0.0
 30
0.0
  0
VERTEX
  5
D97
330
365
100
AcDbEntity
  8
L1
100
AcDbVertex
100
AcDb2dVertex
 10
28.37129292427337
 20
158.4232671654334
 30
0.0
  0
VERTEX
  5
D98
330
365
100
AcDbEntity
  8
L1
100
AcDbVertex
100
AcDb2dVertex
 10
28.79554360975899
 20
158.2475406970805
 30
0.0
  0
VERTEX
  5
D99
330
365
100
AcDbEntity
  8
L1
100
AcDbVertex
100
AcDb2dVertex
 10
28.97127007811198
 20
157.8232900115949
 30
0.0
  0
SEQEND
  5
D9A
330
365
100
AcDbEntity
  8
L1
  0
LINE
  5
36A
330
2
100
AcDbEntity
  8
L1
100
AcDbLine
 10
17.87303972036707
 20
160.6213909077573
 30
0.0
 11
26.88845348174939
 21
160.6213909077573
 31
0.0
  0
LINE
  5
36B
330
2
100
AcDbEntity
  8
L1
100
AcDbLine
 10
28.96514984714226
 20
160.4345892469648
 30
0.0
 11
18.05984138115959
 21
160.4345892469648
 31
0.0
  0
LINE
  5
36C
330
2
100
AcDbEntity
  8
L1
100
AcDbLine
 10
28.88837733367668
 20
161.3067120044155
 30
0.0
 11
28.88486387374055
 21
160.9041091066663
 31
0.0
  0
LINE
  5
36D
330
2
100
AcDbEntity
  8
L1
100
AcDbLine
 10
28.88837733367691
 20
161.3067120044155
 30
0.0
 11
29.05001642597349
 21
161.145072912119
 31
0.0
  0
ELLIPSE
  5
36E
330
2
100
AcDbEntity
  8
L1
100
AcDbEllipse
 10
28.58488671859734
 20
160.906704123645
 30
0.0
 11
-0.2121320343557549
 21
-0.2121320343561681
 31
0.0
210
0.0
220
0.0
230
1.0
 40
0.9999238504775703
 41
0.7854362396074134
 42
2.347505920142613
  0
ELLIPSE
  5
36F
330
2
100
AcDbEntity
  8
L1
100
AcDbEllipse
 10
26.88845348174939
 20
160.6065863592264
 30
0.0
 11
-1.69649782936798
 21
0.0
 31
0.0
210
0.0
220
0.0
230
1.0
 40
0.0087265354983806
 41
-3.132866339598172
 42
-1.570796326794896
  0
ELLIPSE
  5
370
330
2
100
AcDbEntity
  8
L1
100
AcDbEllipse
 10
28.96514984714226
 20
160.1346006700456
 30
0.0
 11
-0.2121320343489898
 21
0.2121320343629324
 31
0.0
210
0.0
220
0.0
230
1.0
 40
0.9999238504775656
 41
-2.35615641394854
 42
-0.7854362395755268
  0
POLYLINE
  5
371
330
2
100
AcDbEntity
  8
L1
100
AcDb2dPolyline
 66
     1
 10
0.0
 20
0.0
 30
0.0
  0
VERTEX
  5
D9B
330
371
100
AcDbEntity
  8
L1
100
AcDbVertex
100
AcDb2dVertex
 10
29.03522432930369
 20
160.6450919505869
 30
0.0
  0
VERTEX
  5
D9C
330
371
100
AcDbEntity
  8
L1
100
AcDbVertex
100
AcDb2dVertex
 10
28.92596797360934
 20
160.4971137097118
 30
0.0
  0
VERTEX
  5
D9D
330
371
100
AcDbEntity
  8
L1
100
AcDbVertex
100
AcDb2dVertex
 10
28.75088136430829
 20
160.4407209010147
 30
0.0
  0
SEQEND
  5
D9E
330
371
100
AcDbEntity
  8
L1
  0
POLYLINE
  5
376
330
2
100
AcDbEntity
  8
L1
100
AcDb2dPolyline
 66
     1
 10
0.0
 20
0.0
 30
0.0
  0
VERTEX
  5
D9F
330
376
100
AcDbEntity
  8
L1
100
AcDbVertex
100
AcDb2dVertex
 10
29.05078241016465
 20
160.7381905702421
 30
0.0
  0
VERTEX
  5
DA0
330
376
100
AcDbEntity
  8
L1
100
AcDbVertex
100
AcDb2dVertex
 10
29.03522432930369
 20
160.6450919505869
 30
0.0
  0
SEQEND
  5
DA1
330
376
100
AcDbEntity
  8
L1
  0
POLYLINE
  5
37A
330
2
100
AcDbEntity
  8
L1
100
AcDb2dPolyline
 66
     1
 10
0.0
 20
0.0
 30
0.0
  0
VERTEX
  5
DA2
330
37A
100
AcDbEntity
  8
L1
100
AcDbVertex
100
AcDb2dVertex
 10
29.05001642597349
 20
161.145072912119
 30
0.0
  0
VERTEX
  5
DA3
330
37A
100
AcDbEntity
  8
L1
100
AcDbVertex
100
AcDb2dVertex
 10
29.0517940626062
 20
161.0287611147568
 30
0.0
  0
VERTEX
  5
DA4
330
37A
100
AcDbEntity
  8
L1
100
AcDbVertex
100
AcDb2dVertex
 10
29.05078241016465
 20
160.7381905702421
 30
0.0
  0
SEQEND
  5
DA5
330
37A
100
AcDbEntity
  8
L1
  0
POLYLINE
  5
37F
330
2
100
AcDbEntity
  8
L1
100
AcDb2dPolyline
 66
     1
 10
0.0
 20
0.0
 30
0.0
  0
VERTEX
  5
DA6
330
37F
100
AcDbEntity
  8
L1
100
AcDbVertex
100
AcDb2dVertex
 10
140.9443448606822
 20
161.3449979394728
 30
0.0
  0
VERTEX
  5
DA7
330
37F
100
AcDbEntity
  8
L1
100
AcDbVertex
100
AcDb2dVertex
 10
141.6159791344445
 20
161.2789731961924
 30
0.0
  0
VERTEX
  5
DA8
330
37F
100
AcDbEntity
  8
L1
100
AcDbVertex
100
AcDb2dVertex
 10
142.2809821597344
 20
161.077646457225
 30
0.0
  0
VERTEX
  5
DA9
330
37F
100
AcDbEntity
  8
L1
100
AcDbVertex
100
AcDb2dVertex
 10
142.8931072214886
 20
160.7489182068441
 30
0.0
  0
VERTEX
  5
DAA
330
37F
100
AcDbEntity
  8
L1
100
AcDbVertex
100
AcDb2dVertex
 10
143.4141008362258
 20
160.3199483584062
 30
0.0
  0
VERTEX
  5
DAB
330
37F
100
AcDbEntity
  8
L1
100
AcDbVertex
100
AcDb2dVertex
 10
143.8430706846637
 20
159.798954743669
 30
0.0
  0
VERTEX
  5
DAC
330
37F
100
AcDbEntity
  8
L1
100
AcDbVertex
100
AcDb2dVertex
 10
144.1717989350447
 20
159.1868296819147
 30
0.0
  0
VERTEX
  5
DAD
330
37F
100
AcDbEntity
  8
L1
100
AcDbVertex
100
AcDb2dVertex
 10
144.373125674012
 20
158.5218266566249
 30
0.0
  0
VERTEX
  5
DAE
330
37F
100
AcDbEntity
  8
L1
100
AcDbVertex
100
AcDb2dVertex
 10
144.4391504172924
 20
157.8501923828626
 30
0.0
  0
SEQEND
  5
DAF
330
37F
100
AcDbEntity
  8
L1
  0
LINE
  5
38A
330
2
100
AcDbEntity
  8
L1
100
AcDbLine
 10
129.5235512973028
 20
158.7293873964026
 30
0.0
 11
129.5235512973028
 21
160.1346006700456
 31
0.0
  0
POLYLINE
  5
38B
330
2
100
AcDbEntity
  8
L1
100
AcDb2dPolyline
 66
     1
 10
0.0
 20
0.0
 30
0.0
  0
VERTEX
  5
DB0
330
38B
100
AcDbEntity
  8
L1
100
AcDbVertex
100
AcDb2dVertex
 10
143.7155433855769
 20
157.8214975231776
 30
0.0
  0
VERTEX
  5
DB1
330
38B
100
AcDbEntity
  8
L1
100
AcDbVertex
100
AcDb2dVertex
 10
143.7020635421951
 20
158.0959438052233
 30
0.0
  0
VERTEX
  5
DB2
330
38B
100
AcDbEntity
  8
L1
100
AcDbVertex
100
AcDb2dVertex
 10
143.6617493395749
 20
158.3677450022322
 30
0.0
  0
VERTEX
  5
DB3
330
38B
100
AcDbEntity
  8
L1
100
AcDbVertex
100
AcDb2dVertex
 10
143.594988987912
 20
158.634283773688
 30
0.0
  0
VERTEX
  5
DB4
330
38B
100
AcDbEntity
  8
L1
100
AcDbVertex
100
AcDb2dVertex
 10
143.5024253636001
 20
158.8929934541996
 30
0.0
  0
VERTEX
  5
DB5
330
38B
100
AcDbEntity
  8
L1
100
AcDbVertex
100
AcDb2dVertex
 10
143.3849498185789
 20
159.1413827694967
 30
0.0
  0
VERTEX
  5
DB6
330
38B
100
AcDbEntity
  8
L1
100
AcDbVertex
100
AcDb2dVertex
 10
143.2436935969603
 20
159.3770598264386
 30
0.0
  0
VERTEX
  5
DB7
330
38B
100
AcDbEntity
  8
L1
100
AcDbVertex
100
AcDb2dVertex
 10
143.0800169415835
 20
159.5977551460214
 30
0.0
  0
VERTEX
  5
DB8
330
38B
100
AcDbEntity
  8
L1
100
AcDbVertex
100
AcDb2dVertex
 10
142.8954959954032
 20
159.8013435175836
 30
0.0
  0
VERTEX
  5
DB9
330
38B
100
AcDbEntity
  8
L1
100
AcDbVertex
100
AcDb2dVertex
 10
142.691907623841
 20
159.985864463764
 30
0.0
  0
VERTEX
  5
DBA
330
38B
100
AcDbEntity
  8
L1
100
AcDbVertex
100
AcDb2dVertex
 10
142.4712123042582
 20
160.1495411191407
 30
0.0
  0
VERTEX
  5
DBB
330
38B
100
AcDbEntity
  8
L1
100
AcDbVertex
100
AcDb2dVertex
 10
142.2355352473162
 20
160.2907973407594
 30
0.0
  0
VERTEX
  5
DBC
330
38B
100
AcDbEntity
  8
L1
100
AcDbVertex
100
AcDb2dVertex
 10
141.9871459320192
 20
160.4082728857805
 30
0.0
  0
VERTEX
  5
DBD
330
38B
100
AcDbEntity
  8
L1
100
AcDbVertex
100
AcDb2dVertex
 10
141.7284362515076
 20
160.5008365100924
 30
0.0
  0
VERTEX
  5
DBE
330
38B
100
AcDbEntity
  8
L1
100
AcDbVertex
100
AcDb2dVertex
 10
141.4618974800517
 20
160.5675968617553
 30
0.0
  0
VERTEX
  5
DBF
330
38B
100
AcDbEntity
  8
L1
100
AcDbVertex
100
AcDb2dVertex
 10
141.1900962830429
 20
160.6079110643755
 30
0.0
  0
VERTEX
  5
DC0
330
38B
100
AcDbEntity
  8
L1
100
AcDbVertex
100
AcDb2dVertex
 10
140.9156500009972
 20
160.6213909077573
 30
0.0
  0
SEQEND
  5
DC1
330
38B
100
AcDbEntity
  8
L1
  0
POLYLINE
  5
39E
330
2
100
AcDbEntity
  8
L1
100
AcDb2dPolyline
 66
     1
 10
0.0
 20
0.0
 30
0.0
  0
VERTEX
  5
DC2
330
39E
100
AcDbEntity
  8
L1
100
AcDbVertex
100
AcDb2dVertex
 10
140.7288483402047
 20
160.4345892469647
 30
0.0
  0
VERTEX
  5
DC3
330
39E
100
AcDbEntity
  8
L1
100
AcDbVertex
100
AcDb2dVertex
 10
140.9871941739928
 20
160.4226436327808
 30
0.0
  0
VERTEX
  5
DC4
330
39E
100
AcDbEntity
  8
L1
100
AcDbVertex
100
AcDb2dVertex
 10
141.243334481603
 20
160.3869129116336
 30
0.0
  0
VERTEX
  5
DC5
330
39E
100
AcDbEntity
  8
L1
100
AcDbVertex
100
AcDb2dVertex
 10
141.4950841759747
 20
160.327701895902
 30
0.0
  0
VERTEX
  5
DC6
330
39E
100
AcDbEntity
  8
L1
100
AcDbVertex
100
AcDb2dVertex
 10
141.7402956255818
 20
160.2455157041499
 30
0.0
  0
VERTEX
  5
DC7
330
39E
100
AcDbEntity
  8
L1
100
AcDbVertex
100
AcDb2dVertex
 10
141.9768769754927
 20
160.1410554520503
 30
0.0
  0
VERTEX
  5
DC8
330
39E
100
AcDbEntity
  8
L1
100
AcDbVertex
100
AcDb2dVertex
 10
142.2028099926097
 20
160.0152122712933
 30
0.0
  0
VERTEX
  5
DC9
330
39E
100
AcDbEntity
  8
L1
100
AcDbVertex
100
AcDb2dVertex
 10
142.4161672828535
 20
159.8690597075012
 30
0.0
  0
VERTEX
  5
DCA
330
39E
100
AcDbEntity
  8
L1
100
AcDbVertex
100
AcDb2dVertex
 10
142.6151287334175
 20
159.7038445620036
 30
0.0
  0
VERTEX
  5
DCB
330
39E
100
AcDbEntity
  8
L1
100
AcDbVertex
100
AcDb2dVertex
 10
142.7979970398232
 20
159.5209762555979
 30
0.0
  0
VERTEX
  5
DCC
330
39E
100
AcDbEntity
  8
L1
100
AcDbVertex
100
AcDb2dVertex
 10
142.9632121853208
 20
159.3220148050339
 30
0.0
  0
VERTEX
  5
DCD
330
39E
100
AcDbEntity
  8
L1
100
AcDbVertex
100
AcDb2dVertex
 10
143.1093647491129
 20
159.1086575147901
 30
0.0
  0
VERTEX
  5
DCE
330
39E
100
AcDbEntity
  8
L1
100
AcDbVertex
100
AcDb2dVertex
 10
143.2352079298699
 20
158.8827244976732
 30
0.0
  0
VERTEX
  5
DCF
330
39E
100
AcDbEntity
  8
L1
100
AcDbVertex
100
AcDb2dVertex
 10
143.3396681819694
 20
158.6461431477623
 30
0.0
  0
VERTEX
  5
DD0
330
39E
100
AcDbEntity
  8
L1
100
AcDbVertex
100
AcDb2dVertex
 10
143.4218543737216
 20
158.4009316981551
 30
0.0
  0
VERTEX
  5
DD1
330
39E
100
AcDbEntity
  8
L1
100
AcDbVertex
100
AcDb2dVertex
 10
143.4810653894532
 20
158.1491820037833
 30
0.0
  0
VERTEX
  5
DD2
330
39E
100
AcDbEntity
  8
L1
100
AcDbVertex
100
AcDb2dVertex
 10
143.5167961106004
 20
157.8930416961732
 30
0.0
  0
VERTEX
  5
DD3
330
39E
100
AcDbEntity
  8
L1
100
AcDbVertex
100
AcDb2dVertex
 10
143.5287417247843
 20
157.6346958623851
 30
0.0
  0
SEQEND
  5
DD4
330
39E
100
AcDbEntity
  8
L1
  0
ARC
  5
3B2
330
2
100
AcDbEntity
  8
L1
100
AcDbCircle
 10
136.1443448606822
 20
153.0501923828627
 30
0.0
 40
4.70630101413334
100
AcDbArc
 50
82.41334573395445
 51
97.12211831251927
  0
LINE
  5
3B3
330
2
100
AcDbEntity
  8
L1
100
AcDbLine
 10
136.9225162681244
 20
158.3839962603749
 30
0.0
 11
135.3661734532398
 21
158.3839962603749
 31
0.0
  0
LINE
  5
3B4
330
2
100
AcDbEntity
  8
L1
100
AcDbLine
 10
140.4261465110437
 20
158.4293988194834
 30
0.0
 11
129.823539874222
 21
158.4293988194834
 31
0.0
  0
CIRCLE
  5
3B5
330
2
100
AcDbEntity
  8
L1
100
AcDbCircle
 10
136.1443448606821
 20
153.0501923828628
 30
0.0
 40
2.271817169476896
  0
CIRCLE
  5
3B6
330
2
100
AcDbEntity
  8
L1
100
AcDbCircle
 10
136.1443448606822
 20
153.0501923828627
 30
0.0
 40
3.9
  0
CIRCLE
  5
3B7
330
2
100
AcDbEntity
  8
L1
100
AcDbCircle
 10
136.1443448606822
 20
153.0501923828627
 30
0.0
 40
3.360549721400785
  0
LINE
  5
3B8
330
2
100
AcDbEntity
  8
L6
 48
0.3
100
AcDbLine
 10
130.3280075980481
 20
153.0501923828628
 30
0.0
 11
141.9890779012671
 21
153.0501923828628
 31
0.0
  0
LINE
  5
3B9
330
2
100
AcDbEntity
  8
L1
100
AcDbLine
 10
129.8174196432524
 20
157.8232900115949
 30
0.0
 11
129.8174196432524
 21
153.5232671654334
 31
0.0
  0
ARC
  5
3BA
330
2
100
AcDbEntity
  8
L1
100
AcDbCircle
 10
136.1443448606822
 20
153.0501923828627
 30
0.0
 40
5.099999999999999
100
AcDbArc
 50
128.3917785793126
 51
213.2750020019975
  0
ARC
  5
3BB
330
2
100
AcDbEntity
  8
L1
100
AcDbCircle
 10
136.1443448606822
 20
153.0501923828627
 30
0.0
 40
5.099999999999999
100
AcDbArc
 50
213.2750020019967
 51
236.7249979980041
  0
LINE
  5
3BC
330
2
100
AcDbEntity
  8
L1
100
AcDbLine
 10
131.8064058097714
 20
150.1847402937563
 30
0.0
 11
131.1732665937188
 21
149.5516010777036
 31
0.0
  0
ELLIPSE
  5
3BD
330
2
100
AcDbEntity
  8
L1
100
AcDbEllipse
 10
129.823539874222
 20
158.7293873964026
 30
0.0
 11
0.2121320343489897
 21
-0.2121320343629324
 31
0.0
210
0.0
220
0.0
230
-1.0
 40
0.9999238504775656
 41
0.7854362395755267
 42
2.35615641394854
  0
POLYLINE
  5
3BE
330
2
100
AcDbEntity
  8
L1
100
AcDb2dPolyline
 66
     1
 10
0.0
 20
0.0
 30
0.0
  0
VERTEX
  5
DD5
330
3BE
100
AcDbEntity
  8
L1
100
AcDbVertex
100
AcDb2dVertex
 10
130.4173967970909
 20
158.4232671654334
 30
0.0
  0
VERTEX
  5
DD6
330
3BE
100
AcDbEntity
  8
L1
100
AcDbVertex
100
AcDb2dVertex
 10
129.9931461116053
 20
158.2475406970805
 30
0.0
  0
VERTEX
  5
DD7
330
3BE
100
AcDbEntity
  8
L1
100
AcDbVertex
100
AcDb2dVertex
 10
129.8174196432523
 20
157.8232900115949
 30
0.0
  0
SEQEND
  5
DD8
330
3BE
100
AcDbEntity
  8
L1
  0
LINE
  5
3C3
330
2
100
AcDbEntity
  8
L1
100
AcDbLine
 10
135.666162030159
 20
158.0840076834557
 30
0.0
 11
135.666162030159
 21
157.9756275191127
 31
0.0
  0
POLYLINE
  5
3C4
330
2
100
AcDbEntity
  8
L1
100
AcDb2dPolyline
 66
     1
 10
0.0
 20
0.0
 30
0.0
  0
VERTEX
  5
DD9
330
3C4
100
AcDbEntity
  8
L1
100
AcDbVertex
100
AcDb2dVertex
 10
135.4612699458412
 20
157.6724680827219
 30
0.0
  0
VERTEX
  5
DDA
330
3C4
100
AcDbEntity
  8
L1
100
AcDbVertex
100
AcDb2dVertex
 10
135.5132672059107
 20
157.691704358847
 30
0.0
  0
VERTEX
  5
DDB
330
3C4
100
AcDbEntity
  8
L1
100
AcDbVertex
100
AcDb2dVertex
 10
135.5608362720308
 20
157.7201802803419
 30
0.0
  0
SEQEND
  5
DDC
330
3C4
100
AcDbEntity
  8
L1
  0
POLYLINE
  5
3C9
330
2
100
AcDbEntity
  8
L1
100
AcDb2dPolyline
 66
     1
 10
0.0
 20
0.0
 30
0.0
  0
VERTEX
  5
DDD
330
3C9
100
AcDbEntity
  8
L1
100
AcDbVertex
100
AcDb2dVertex
 10
135.5608362720308
 20
157.7201802803419
 30
0.0
  0
VERTEX
  5
DDE
330
3C9
100
AcDbEntity
  8
L1
100
AcDbVertex
100
AcDb2dVertex
 10
135.5670690420308
 20
157.7255738791002
 30
0.0
  0
VERTEX
  5
DDF
330
3C9
100
AcDbEntity
  8
L1
100
AcDbVertex
100
AcDb2dVertex
 10
135.5987840149043
 20
157.7594131319203
 30
0.0
  0
VERTEX
  5
DE0
330
3C9
100
AcDbEntity
  8
L1
100
AcDbVertex
100
AcDb2dVertex
 10
135.6522138836533
 20
157.8725600933556
 30
0.0
  0
VERTEX
  5
DE1
330
3C9
100
AcDbEntity
  8
L1
100
AcDbVertex
100
AcDb2dVertex
 10
135.6582556227609
 20
157.9072074638461
 30
0.0
  0
SEQEND
  5
DE2
330
3C9
100
AcDbEntity
  8
L1
  0
POLYLINE
  5
3D0
330
2
100
AcDbEntity
  8
L1
100
AcDb2dPolyline
 66
     1
 10
0.0
 20
0.0
 30
0.0
  0
VERTEX
  5
DE3
330
3D0
100
AcDbEntity
  8
L1
100
AcDbVertex
100
AcDb2dVertex
 10
135.6582556227609
 20
157.9072074638461
 30
0.0
  0
VERTEX
  5
DE4
330
3D0
100
AcDbEntity
  8
L1
100
AcDbVertex
100
AcDb2dVertex
 10
135.6641788737099
 20
157.9411897325358
 30
0.0
  0
VERTEX
  5
DE5
330
3D0
100
AcDbEntity
  8
L1
100
AcDbVertex
100
AcDb2dVertex
 10
135.6661620301591
 20
157.9756275191127
 30
0.0
  0
SEQEND
  5
DE6
330
3D0
100
AcDbEntity
  8
L1
  0
LINE
  5
3D5
330
2
100
AcDbEntity
  8
L1
100
AcDbLine
 10
134.1916343278199
 20
157.3322702441914
 30
0.0
 11
135.4612699458412
 21
157.6724680827219
 31
0.0
  0
POLYLINE
  5
3D6
330
2
100
AcDbEntity
  8
L1
100
AcDb2dPolyline
 66
     1
 10
0.0
 20
0.0
 30
0.0
  0
VERTEX
  5
DE7
330
3D6
100
AcDbEntity
  8
L1
100
AcDbVertex
100
AcDb2dVertex
 10
135.666162030159
 20
158.0840076834557
 30
0.0
  0
VERTEX
  5
DE8
330
3D6
100
AcDbEntity
  8
L1
100
AcDbVertex
100
AcDb2dVertex
 10
135.5782987959825
 20
158.2961330261985
 30
0.0
  0
VERTEX
  5
DE9
330
3D6
100
AcDbEntity
  8
L1
100
AcDbVertex
100
AcDb2dVertex
 10
135.3661734532398
 20
158.3839962603749
 30
0.0
  0
SEQEND
  5
DEA
330
3D6
100
AcDbEntity
  8
L1
  0
POLYLINE
  5
3DB
330
2
100
AcDbEntity
  8
L1
100
AcDb2dPolyline
 66
     1
 10
0.0
 20
0.0
 30
0.0
  0
VERTEX
  5
DEB
330
3DB
100
AcDbEntity
  8
L1
100
AcDbVertex
100
AcDb2dVertex
 10
132.9770647233998
 20
157.0474835321257
 30
0.0
  0
VERTEX
  5
DEC
330
3DB
100
AcDbEntity
  8
L1
100
AcDbVertex
100
AcDb2dVertex
 10
133.2926625780901
 20
157.1184336361769
 30
0.0
  0
VERTEX
  5
DED
330
3DB
100
AcDbEntity
  8
L1
100
AcDbVertex
100
AcDb2dVertex
 10
133.5987728008582
 20
157.1891973606916
 30
0.0
  0
VERTEX
  5
DEE
330
3DB
100
AcDbEntity
  8
L1
100
AcDbVertex
100
AcDb2dVertex
 10
133.8976980967282
 20
157.2602995905107
 30
0.0
  0
VERTEX
  5
DEF
330
3DB
100
AcDbEntity
  8
L1
100
AcDbVertex
100
AcDb2dVertex
 10
134.1916343278195
 20
157.3322702441913
 30
0.0
  0
SEQEND
  5
DF0
330
3DB
100
AcDbEntity
  8
L1
  0
POLYLINE
  5
3E2
330
2
100
AcDbEntity
  8
L1
100
AcDb2dPolyline
 66
     1
 10
0.0
 20
0.0
 30
0.0
  0
VERTEX
  5
DF1
330
3E2
100
AcDbEntity
  8
L1
100
AcDbVertex
100
AcDb2dVertex
 10
140.5324926778426
 20
155.2862619398765
 30
0.0
  0
VERTEX
  5
DF2
330
3E2
100
AcDbEntity
  8
L1
100
AcDbVertex
100
AcDb2dVertex
 10
140.570230236173
 20
155.0277708790633
 30
0.0
  0
VERTEX
  5
DF3
330
3E2
100
AcDbEntity
  8
L1
100
AcDbVertex
100
AcDb2dVertex
 10
140.6087552388922
 20
154.7736184159446
 30
0.0
  0
VERTEX
  5
DF4
330
3E2
100
AcDbEntity
  8
L1
100
AcDbVertex
100
AcDb2dVertex
 10
140.6482697621409
 20
154.5224902986189
 30
0.0
  0
VERTEX
  5
DF5
330
3E2
100
AcDbEntity
  8
L1
100
AcDbVertex
100
AcDb2dVertex
 10
140.6889874647956
 20
154.2730958281559
 30
0.0
  0
SEQEND
  5
DF6
330
3E2
100
AcDbEntity
  8
L1
  0
ARC
  5
3E9
330
2
100
AcDbEntity
  8
L1
100
AcDbCircle
 10
136.1443448606822
 20
153.0501923828627
 30
0.0
 40
4.70630101413334
100
AcDbArc
 50
15.0607978502589
 51
74.939202149815
  0
LINE
  5
3EA
330
2
100
AcDbEntity
  8
L1
100
AcDbLine
 10
143.7155433855769
 20
148.8060837617953
 30
0.0
 11
143.7155433855769
 21
157.8214975231776
 31
0.0
  0
POLYLINE
  5
3EB
330
2
100
AcDbEntity
  8
L1
100
AcDb2dPolyline
 66
     1
 10
0.0
 20
0.0
 30
0.0
  0
VERTEX
  5
DF7
330
3EB
100
AcDbEntity
  8
L1
100
AcDbVertex
100
AcDb2dVertex
 10
140.4264227220093
 20
151.0974818499972
 30
0.0
  0
VERTEX
  5
DF8
330
3EB
100
AcDbEntity
  8
L1
100
AcDbVertex
100
AcDb2dVertex
 10
140.3544520683289
 20
150.8035456189062
 30
0.0
  0
VERTEX
  5
DF9
330
3EB
100
AcDbEntity
  8
L1
100
AcDbVertex
100
AcDb2dVertex
 10
140.2833498385101
 20
150.5046203230366
 30
0.0
  0
VERTEX
  5
DFA
330
3EB
100
AcDbEntity
  8
L1
100
AcDbVertex
100
AcDb2dVertex
 10
140.2125861139954
 20
150.198510100269
 30
0.0
  0
VERTEX
  5
DFB
330
3EB
100
AcDbEntity
  8
L1
100
AcDbVertex
100
AcDb2dVertex
 10
140.1416360099443
 20
149.8829122455792
 30
0.0
  0
SEQEND
  5
DFC
330
3EB
100
AcDbEntity
  8
L1
  0
LINE
  5
3F2
330
2
100
AcDbEntity
  8
L1
100
AcDbLine
 10
140.7666205605409
 20
152.3671174680218
 30
0.0
 11
140.4264227220093
 21
151.0974818499969
 31
0.0
  0
LINE
  5
3F3
330
2
100
AcDbEntity
  8
L1
100
AcDbLine
 10
141.4737853042957
 20
153.8327272242004
 30
0.0
 11
141.4781487381913
 21
153.8283637903051
 31
0.0
  0
LINE
  5
3F4
330
2
100
AcDbEntity
  8
L1
100
AcDbLine
 10
140.6889874647955
 20
154.2730958281561
 30
0.0
 11
140.8094484191475
 21
153.6715441547493
 31
0.0
  0
POLYLINE
  5
3F5
330
2
100
AcDbEntity
  8
L1
100
AcDb2dPolyline
 66
     1
 10
0.0
 20
0.0
 30
0.0
  0
VERTEX
  5
DFD
330
3F5
100
AcDbEntity
  8
L1
100
AcDbVertex
100
AcDb2dVertex
 10
141.0697799969317
 20
152.5720095523395
 30
0.0
  0
VERTEX
  5
DFE
330
3F5
100
AcDbEntity
  8
L1
100
AcDbVertex
100
AcDb2dVertex
 10
141.035342210355
 20
152.5700263958905
 30
0.0
  0
VERTEX
  5
DFF
330
3F5
100
AcDbEntity
  8
L1
100
AcDbVertex
100
AcDb2dVertex
 10
141.0013599416656
 20
152.5641031449416
 30
0.0
  0
SEQEND
  5
E00
330
3F5
100
AcDbEntity
  8
L1
  0
POLYLINE
  5
3FA
330
2
100
AcDbEntity
  8
L1
100
AcDb2dPolyline
 66
     1
 10
0.0
 20
0.0
 30
0.0
  0
VERTEX
  5
E01
330
3FA
100
AcDbEntity
  8
L1
100
AcDbVertex
100
AcDb2dVertex
 10
141.0013599416656
 20
152.5641031449416
 30
0.0
  0
VERTEX
  5
E02
330
3FA
100
AcDbEntity
  8
L1
100
AcDbVertex
100
AcDb2dVertex
 10
140.9667125711746
 20
152.5580614058341
 30
0.0
  0
VERTEX
  5
E03
330
3FA
100
AcDbEntity
  8
L1
100
AcDbVertex
100
AcDb2dVertex
 10
140.8535656097392
 20
152.504631537085
 30
0.0
  0
VERTEX
  5
E04
330
3FA
100
AcDbEntity
  8
L1
100
AcDbVertex
100
AcDb2dVertex
 10
140.8197263569191
 20
152.4729165642113
 30
0.0
  0
VERTEX
  5
E05
330
3FA
100
AcDbEntity
  8
L1
100
AcDbVertex
100
AcDb2dVertex
 10
140.8143327581616
 20
152.4666837942124
 30
0.0
  0
SEQEND
  5
E06
330
3FA
100
AcDbEntity
  8
L1
  0
LINE
  5
401
330
2
100
AcDbEntity
  8
L1
100
AcDbLine
 10
141.0697799969317
 20
152.5720095523396
 30
0.0
 11
141.1781601612721
 21
152.5720095523396
 31
0.0
  0
POLYLINE
  5
402
330
2
100
AcDbEntity
  8
L1
100
AcDb2dPolyline
 66
     1
 10
0.0
 20
0.0
 30
0.0
  0
VERTEX
  5
E07
330
402
100
AcDbEntity
  8
L1
100
AcDbVertex
100
AcDb2dVertex
 10
141.4781487381914
 20
152.2720209754203
 30
0.0
  0
VERTEX
  5
E08
330
402
100
AcDbEntity
  8
L1
100
AcDbVertex
100
AcDb2dVertex
 10
141.390285504015
 20
152.4841463181632
 30
0.0
  0
VERTEX
  5
E09
330
402
100
AcDbEntity
  8
L1
100
AcDbVertex
100
AcDb2dVertex
 10
141.1781601612721
 20
152.5720095523396
 30
0.0
  0
SEQEND
  5
E0A
330
402
100
AcDbEntity
  8
L1
  0
LINE
  5
407
330
2
100
AcDbEntity
  8
L1
100
AcDbLine
 10
141.178160161272
 20
153.5283752133858
 30
0.0
 11
141.0897450941059
 21
153.5283752133858
 31
0.0
  0
LINE
  5
408
330
2
100
AcDbEntity
  8
L1
100
AcDbLine
 10
141.178160161272
 20
153.5283752133858
 30
0.0
 11
141.1737967273764
 21
153.5327386472812
 31
0.0
  0
POLYLINE
  5
409
330
2
100
AcDbEntity
  8
L1
100
AcDb2dPolyline
 66
     1
 10
0.0
 20
0.0
 30
0.0
  0
VERTEX
  5
E0B
330
409
100
AcDbEntity
  8
L1
100
AcDbVertex
100
AcDb2dVertex
 10
141.0007979662569
 20
153.5418645068201
 30
0.0
  0
VERTEX
  5
E0C
330
409
100
AcDbEntity
  8
L1
100
AcDbVertex
100
AcDb2dVertex
 10
141.0447628091475
 20
153.5317667063891
 30
0.0
  0
VERTEX
  5
E0D
330
409
100
AcDbEntity
  8
L1
100
AcDbVertex
100
AcDb2dVertex
 10
141.0897450941059
 20
153.5283752133858
 30
0.0
  0
SEQEND
  5
E0E
330
409
100
AcDbEntity
  8
L1
  0
LINE
  5
40E
330
2
100
AcDbEntity
  8
L1
100
AcDbLine
 10
141.0934064498782
 20
153.5327386472812
 30
0.0
 11
141.0897450941059
 21
153.5283752133858
 31
0.0
  0
POLYLINE
  5
40F
330
2
100
AcDbEntity
  8
L1
100
AcDb2dPolyline
 66
     1
 10
0.0
 20
0.0
 30
0.0
  0
VERTEX
  5
E0F
330
40F
100
AcDbEntity
  8
L1
100
AcDbVertex
100
AcDb2dVertex
 10
140.8143327581616
 20
152.4666837942124
 30
0.0
  0
VERTEX
  5
E10
330
40F
100
AcDbEntity
  8
L1
100
AcDbVertex
100
AcDb2dVertex
 10
140.7858568366661
 20
152.4191147280918
 30
0.0
  0
VERTEX
  5
E11
330
40F
100
AcDbEntity
  8
L1
100
AcDbVertex
100
AcDb2dVertex
 10
140.7666205605409
 20
152.3671174680218
 30
0.0
  0
SEQEND
  5
E12
330
40F
100
AcDbEntity
  8
L1
  0
ARC
  5
414
330
2
100
AcDbEntity
  8
L1
100
AcDbCircle
 10
136.1443448606822
 20
153.0501923828627
 30
0.0
 40
4.70630101413334
100
AcDbArc
 50
352.8778816874932
 51
7.586654266025957
  0
POLYLINE
  5
415
330
2
100
AcDbEntity
  8
L1
100
AcDb2dPolyline
 66
     1
 10
0.0
 20
0.0
 30
0.0
  0
VERTEX
  5
E13
330
415
100
AcDbEntity
  8
L1
100
AcDbVertex
100
AcDb2dVertex
 10
141.178160161272
 20
153.5283752133858
 30
0.0
  0
VERTEX
  5
E14
330
415
100
AcDbEntity
  8
L1
100
AcDbVertex
100
AcDb2dVertex
 10
141.3902855040149
 20
153.6162384475622
 30
0.0
  0
VERTEX
  5
E15
330
415
100
AcDbEntity
  8
L1
100
AcDbVertex
100
AcDb2dVertex
 10
141.4781487381913
 20
153.8283637903051
 30
0.0
  0
SEQEND
  5
E16
330
415
100
AcDbEntity
  8
L1
  0
POLYLINE
  5
41A
330
2
100
AcDbEntity
  8
L1
100
AcDb2dPolyline
 66
     1
 10
0.0
 20
0.0
 30
0.0
  0
VERTEX
  5
E17
330
41A
100
AcDbEntity
  8
L1
100
AcDbVertex
100
AcDb2dVertex
 10
140.8094484191475
 20
153.6715441547493
 30
0.0
  0
VERTEX
  5
E18
330
41A
100
AcDbEntity
  8
L1
100
AcDbVertex
100
AcDb2dVertex
 10
140.8402146526998
 20
153.6294944739631
 30
0.0
  0
VERTEX
  5
E19
330
41A
100
AcDbEntity
  8
L1
100
AcDbVertex
100
AcDb2dVertex
 10
140.8742890965269
 20
153.5978092384537
 30
0.0
  0
VERTEX
  5
E1A
330
41A
100
AcDbEntity
  8
L1
100
AcDbVertex
100
AcDb2dVertex
 10
140.9882566804546
 20
153.544479683906
 30
0.0
  0
VERTEX
  5
E1B
330
41A
100
AcDbEntity
  8
L1
100
AcDbVertex
100
AcDb2dVertex
 10
141.0007979662569
 20
153.5418645068201
 30
0.0
  0
SEQEND
  5
E1C
330
41A
100
AcDbEntity
  8
L1
  0
LINE
  5
421
330
2
100
AcDbEntity
  8
L1
100
AcDbLine
 10
141.4781487381913
 20
152.2720209754203
 30
0.0
 11
141.4781487381913
 21
153.8283637903051
 31
0.0
  0
ARC
  5
422
330
2
100
AcDbEntity
  8
L1
100
AcDbCircle
 10
136.1443448606822
 20
153.0501923828627
 30
0.0
 40
4.925022672948151
100
AcDbArc
 50
27.00203754946696
 51
62.99796245055369
  0
LINE
  5
423
330
2
100
AcDbEntity
  8
L1
100
AcDbLine
 10
136.85297006284
 20
157.6855161168327
 30
0.0
 11
137.3672483059698
 21
157.5948349869776
 31
0.0
  0
POLYLINE
  5
424
330
2
100
AcDbEntity
  8
L1
100
AcDb2dPolyline
 66
     1
 10
0.0
 20
0.0
 30
0.0
  0
VERTEX
  5
E1D
330
424
100
AcDbEntity
  8
L1
100
AcDbVertex
100
AcDb2dVertex
 10
136.6360169846397
 20
157.9066454884374
 30
0.0
  0
VERTEX
  5
E1E
330
424
100
AcDbEntity
  8
L1
100
AcDbVertex
100
AcDb2dVertex
 10
136.6386321617255
 20
157.8941042026356
 30
0.0
  0
VERTEX
  5
E1F
330
424
100
AcDbEntity
  8
L1
100
AcDbVertex
100
AcDb2dVertex
 10
136.6919617162732
 20
157.7801366187081
 30
0.0
  0
VERTEX
  5
E20
330
424
100
AcDbEntity
  8
L1
100
AcDbVertex
100
AcDb2dVertex
 10
136.7236469517824
 20
157.7460621748809
 30
0.0
  0
VERTEX
  5
E21
330
424
100
AcDbEntity
  8
L1
100
AcDbVertex
100
AcDb2dVertex
 10
136.7656966325704
 20
157.7152959413278
 30
0.0
  0
SEQEND
  5
E22
330
424
100
AcDbEntity
  8
L1
  0
POLYLINE
  5
42B
330
2
100
AcDbEntity
  8
L1
100
AcDb2dPolyline
 66
     1
 10
0.0
 20
0.0
 30
0.0
  0
VERTEX
  5
E23
330
42B
100
AcDbEntity
  8
L1
100
AcDbVertex
100
AcDb2dVertex
 10
136.7656966325704
 20
157.7152959413278
 30
0.0
  0
VERTEX
  5
E24
330
42B
100
AcDbEntity
  8
L1
100
AcDbVertex
100
AcDb2dVertex
 10
136.8081820817021
 20
157.6970327369389
 30
0.0
  0
VERTEX
  5
E25
330
42B
100
AcDbEntity
  8
L1
100
AcDbVertex
100
AcDb2dVertex
 10
136.85297006284
 20
157.6855161168327
 30
0.0
  0
SEQEND
  5
E26
330
42B
100
AcDbEntity
  8
L1
  0
LINE
  5
430
330
2
100
AcDbEntity
  8
L1
100
AcDbLine
 10
136.6360169846397
 20
157.9066454884374
 30
0.0
 11
136.6225276912052
 21
158.0840076834557
 31
0.0
  0
POLYLINE
  5
431
330
2
100
AcDbEntity
  8
L1
100
AcDb2dPolyline
 66
     1
 10
0.0
 20
0.0
 30
0.0
  0
VERTEX
  5
E27
330
431
100
AcDbEntity
  8
L1
100
AcDbVertex
100
AcDb2dVertex
 10
136.9225162681244
 20
158.3839962603749
 30
0.0
  0
VERTEX
  5
E28
330
431
100
AcDbEntity
  8
L1
100
AcDbVertex
100
AcDb2dVertex
 10
136.7103909253816
 20
158.2961330261985
 30
0.0
  0
VERTEX
  5
E29
330
431
100
AcDbEntity
  8
L1
100
AcDbVertex
100
AcDb2dVertex
 10
136.6225276912052
 20
158.0840076834557
 30
0.0
  0
SEQEND
  5
E2A
330
431
100
AcDbEntity
  8
L1
  0
POLYLINE
  5
436
330
2
100
AcDbEntity
  8
L1
100
AcDb2dPolyline
 66
     1
 10
0.0
 20
0.0
 30
0.0
  0
VERTEX
  5
E2B
330
436
100
AcDbEntity
  8
L1
100
AcDbVertex
100
AcDb2dVertex
 10
137.3672483059698
 20
157.5948349869776
 30
0.0
  0
VERTEX
  5
E2C
330
436
100
AcDbEntity
  8
L1
100
AcDbVertex
100
AcDb2dVertex
 10
137.616642776434
 20
157.5541172843226
 30
0.0
  0
VERTEX
  5
E2D
330
436
100
AcDbEntity
  8
L1
100
AcDbVertex
100
AcDb2dVertex
 10
137.8677708937608
 20
157.5146027610738
 30
0.0
  0
VERTEX
  5
E2E
330
436
100
AcDbEntity
  8
L1
100
AcDbVertex
100
AcDb2dVertex
 10
138.1219233568803
 20
157.4760777583546
 30
0.0
  0
VERTEX
  5
E2F
330
436
100
AcDbEntity
  8
L1
100
AcDbVertex
100
AcDb2dVertex
 10
138.3804144176944
 20
157.438340200024
 30
0.0
  0
SEQEND
  5
E30
330
436
100
AcDbEntity
  8
L1
  0
ARC
  5
43D
330
2
100
AcDbEntity
  8
L1
100
AcDbCircle
 10
140.4261465110437
 20
157.3319940332241
 30
0.0
 40
1.097404786259289
100
AcDbArc
 50
0.0
 51
90.0
  0
LINE
  5
43E
330
2
100
AcDbEntity
  8
L1
100
AcDbLine
 10
140.9156500009972
 20
160.6213909077573
 30
0.0
 11
131.9002362396149
 21
160.6213909077573
 31
0.0
  0
LINE
  5
43F
330
2
100
AcDbEntity
  8
L1
100
AcDbLine
 10
129.823539874222
 20
160.4345892469648
 30
0.0
 11
140.7288483402047
 21
160.4345892469648
 31
0.0
  0
LINE
  5
440
330
2
100
AcDbEntity
  8
L1
100
AcDbLine
 10
129.9003123876876
 20
161.3067120044155
 30
0.0
 11
129.9038258476237
 21
160.9041091066663
 31
0.0
  0
LINE
  5
441
330
2
100
AcDbEntity
  8
L1
100
AcDbLine
 10
129.9003123876874
 20
161.3067120044155
 30
0.0
 11
129.7386732953908
 21
161.145072912119
 31
0.0
  0
POLYLINE
  5
442
330
2
100
AcDbEntity
  8
L1
100
AcDb2dPolyline
 66
     1
 10
0.0
 20
0.0
 30
0.0
  0
VERTEX
  5
E31
330
442
100
AcDbEntity
  8
L1
100
AcDbVertex
100
AcDb2dVertex
 10
129.7386732953908
 20
161.145072912119
 30
0.0
  0
VERTEX
  5
E32
330
442
100
AcDbEntity
  8
L1
100
AcDbVertex
100
AcDb2dVertex
 10
129.7368956587581
 20
161.0287611147568
 30
0.0
  0
VERTEX
  5
E33
330
442
100
AcDbEntity
  8
L1
100
AcDbVertex
100
AcDb2dVertex
 10
129.7379073111996
 20
160.7381905702421
 30
0.0
  0
SEQEND
  5
E34
330
442
100
AcDbEntity
  8
L1
  0
ELLIPSE
  5
447
330
2
100
AcDbEntity
  8
L1
100
AcDbEllipse
 10
131.9002362396149
 20
160.6065863592264
 30
0.0
 11
1.69649782936798
 21
0.0
 31
0.0
210
0.0
220
0.0
230
-1.0
 40
0.0087265354983806
 41
-3.132866339598172
 42
-1.570796326794896
  0
ELLIPSE
  5
448
330
2
100
AcDbEntity
  8
L1
100
AcDbEllipse
 10
129.823539874222
 20
160.1346006700456
 30
0.0
 11
0.2121320343489898
 21
0.2121320343629324
 31
0.0
210
0.0
220
0.0
230
-1.0
 40
0.9999238504775656
 41
-2.35615641394854
 42
-0.7854362395755268
  0
POLYLINE
  5
449
330
2
100
AcDbEntity
  8
L1
100
AcDb2dPolyline
 66
     1
 10
0.0
 20
0.0
 30
0.0
  0
VERTEX
  5
E35
330
449
100
AcDbEntity
  8
L1
100
AcDbVertex
100
AcDb2dVertex
 10
129.7534653920606
 20
160.6450919505869
 30
0.0
  0
VERTEX
  5
E36
330
449
100
AcDbEntity
  8
L1
100
AcDbVertex
100
AcDb2dVertex
 10
129.8627217477549
 20
160.4971137097118
 30
0.0
  0
VERTEX
  5
E37
330
449
100
AcDbEntity
  8
L1
100
AcDbVertex
100
AcDb2dVertex
 10
130.037808357056
 20
160.4407209010147
 30
0.0
  0
SEQEND
  5
E38
330
449
100
AcDbEntity
  8
L1
  0
ELLIPSE
  5
44E
330
2
100
AcDbEntity
  8
L1
100
AcDbEllipse
 10
130.2038030027669
 20
160.906704123645
 30
0.0
 11
0.2121320343557549
 21
-0.2121320343561681
 31
0.0
210
0.0
220
0.0
230
-1.0
 40
0.9999238504775703
 41
0.7854362396074134
 42
2.347505920142613
  0
POLYLINE
  5
44F
330
2
100
AcDbEntity
  8
L1
100
AcDb2dPolyline
 66
     1
 10
0.0
 20
0.0
 30
0.0
  0
VERTEX
  5
E39
330
44F
100
AcDbEntity
  8
L1
100
AcDbVertex
100
AcDb2dVertex
 10
129.7379073111996
 20
160.7381905702421
 30
0.0
  0
VERTEX
  5
E3A
330
44F
100
AcDbEntity
  8
L1
100
AcDbVertex
100
AcDb2dVertex
 10
129.7534653920606
 20
160.6450919505869
 30
0.0
  0
SEQEND
  5
E3B
330
44F
100
AcDbEntity
  8
L1
  0
POLYLINE
  5
475
330
2
100
AcDbEntity
  8
L6
100
AcDb2dPolyline
 66
     1
 10
0.0
 20
0.0
 30
0.0
  0
VERTEX
  5
E3C
330
475
100
AcDbEntity
  8
L6
100
AcDbVertex
100
AcDb2dVertex
 10
293.5094122692311
 20
163.6006851497578
 30
0.0
  0
VERTEX
  5
E3D
330
475
100
AcDbEntity
  8
L6
100
AcDbVertex
100
AcDb2dVertex
 10
293.5094122692311
 20
79.51246019570374
 30
0.0
  0
SEQEND
  5
E3E
330
475
100
AcDbEntity
  8
L6
  0
LINE
  5
479
330
2
100
AcDbEntity
  8
L1
 62
     7
100
AcDbLine
 10
229.059412269231
 20
157.8501923828627
 30
0.0
 11
229.059412269231
 21
84.75019238286266
 31
0.0
  0
LINE
  5
47A
330
2
100
AcDbEntity
  8
L1
100
AcDbLine
 10
228.4646030902964
 20
84.75524993465249
 30
0.0000000000000018
 11
228.4646030902964
 21
157.8451348310727
 31
0.0000000000000018
  0
LINE
  5
47B
330
2
100
AcDbEntity
  8
L1
 62
     7
100
AcDbLine
 10
357.9594122692311
 20
84.75019238286266
 30
0.0
 11
357.9594122692311
 21
157.8501923828627
 31
0.0
  0
LINE
  5
47C
330
2
100
AcDbEntity
  8
L1
100
AcDbLine
 10
358.5542214481657
 20
157.8451348310728
 30
0.0000000000000036
 11
358.5542214481657
 21
84.75524993465249
 31
0.0000000000000036
  0
LINE
  5
47D
330
2
100
AcDbEntity
  8
L1
100
AcDbLine
 10
230.059412269231
 20
147.1013410661161
 30
0.0
 11
230.059412269231
 21
157.8501923828626
 31
0.0
  0
LINE
  5
47E
330
2
100
AcDbEntity
  8
L1
100
AcDbLine
 10
230.0855928726034
 20
157.8501923828626
 30
0.0
 11
230.0855928726034
 21
147.158649674218
 31
0.0
  0
LINE
  5
47F
330
2
100
AcDbEntity
  8
L6
 48
0.3
100
AcDbLine
 10
236.7594122692311
 20
148.0501923828625
 30
0.0
 11
236.7594122692311
 21
158.0501923828625
 31
0.0
  0
ARC
  5
480
330
2
100
AcDbEntity
  8
L1
100
AcDbCircle
 10
236.7594122692311
 20
153.0501923828625
 30
0.0
 40
8.983264223605935
100
AcDbArc
 50
325.0994163667606
 51
0.0
  0
ARC
  5
481
330
2
100
AcDbEntity
  8
L1
100
AcDbCircle
 10
233.2594122692309
 20
143.4501923828625
 30
0.0
 40
4.85498575767471
100
AcDbArc
 50
83.00000000000006
 51
131.2325076746352
  0
ARC
  5
482
330
2
100
AcDbEntity
  8
L1
100
AcDbCircle
 10
233.2594122692309
 20
143.4501923828625
 30
0.0
 40
4.881166361046988
100
AcDbArc
 50
83.00000000000023
 51
130.5579963961364
  0
ARC
  5
483
330
2
100
AcDbEntity
  8
L1
100
AcDbCircle
 10
236.7594122692311
 20
153.0501923828625
 30
0.0
 40
5.577310141859186
100
AcDbArc
 50
270.0
 51
0.0
  0
ARC
  5
484
330
2
100
AcDbEntity
  8
L1
100
AcDbCircle
 10
236.7594122692311
 20
153.0501923828625
 30
0.0
 40
5.09999999999999
100
AcDbArc
 50
263.0000000000005
 51
6.999999999999818
  0
ARC
  5
485
330
2
100
AcDbEntity
  8
L1
100
AcDbCircle
 10
236.7594122692311
 20
153.0501923828625
 30
0.0
 40
5.073819396627722
100
AcDbArc
 50
263.0000000000003
 51
6.999999999999645
  0
ARC
  5
486
330
2
100
AcDbEntity
  8
L1
100
AcDbCircle
 10
236.7594122692311
 20
153.0501923828625
 30
0.0
 40
8.222788858174052
100
AcDbArc
 50
323.7438067526897
 51
0.0
  0
LINE
  5
487
330
2
100
AcDbEntity
  8
L1
100
AcDbLine
 10
356.959412269231
 20
157.8501923828626
 30
0.0
 11
356.959412269231
 21
147.1013410661161
 31
0.0
  0
LINE
  5
488
330
2
100
AcDbEntity
  8
L1
100
AcDbLine
 10
356.9332316658588
 20
147.1586496742179
 30
0.0
 11
356.9332316658588
 21
157.8501923828626
 31
0.0
  0
LINE
  5
489
330
2
100
AcDbEntity
  8
L6
 48
0.3
100
AcDbLine
 10
350.2594122692311
 20
148.0501923828625
 30
0.0
 11
350.2594122692311
 21
158.0501923828625
 31
0.0
  0
ARC
  5
48A
330
2
100
AcDbEntity
  8
L1
100
AcDbCircle
 10
350.2594122692311
 20
153.0501923828625
 30
0.0
 40
5.099999999999999
100
AcDbArc
 50
172.9999999999995
 51
276.9999999999997
  0
ARC
  5
48B
330
2
100
AcDbEntity
  8
L1
100
AcDbCircle
 10
350.2594122692311
 20
153.0501923828625
 30
0.0
 40
5.073819396627722
100
AcDbArc
 50
173.0000000000003
 51
277.0000000000002
  0
ARC
  5
48C
330
2
100
AcDbEntity
  8
L1
100
AcDbCircle
 10
350.2594122692311
 20
153.0501923828625
 30
0.0
 40
8.222788858174023
100
AcDbArc
 50
180.0
 51
270.0
  0
ARC
  5
48D
330
2
100
AcDbEntity
  8
L1
100
AcDbCircle
 10
350.2594122692311
 20
153.0501923828625
 30
0.0
 40
8.983264223605935
100
AcDbArc
 50
180.0
 51
214.9005836332396
  0
ARC
  5
48E
330
2
100
AcDbEntity
  8
L1
100
AcDbCircle
 10
350.2594122692311
 20
153.0501923828625
 30
0.0
 40
5.577310141859157
100
AcDbArc
 50
180.0
 51
270.0000000000006
  0
ARC
  5
48F
330
2
100
AcDbEntity
  8
L1
100
AcDbCircle
 10
353.7594122692311
 20
143.4501923828626
 30
0.0
 40
4.881166361046982
100
AcDbArc
 50
49.44200360386094
 51
97.00000000000009
  0
ARC
  5
490
330
2
100
AcDbEntity
  8
L1
100
AcDbCircle
 10
353.7594122692311
 20
143.4501923828626
 30
0.0
 40
4.854985757674705
100
AcDbArc
 50
48.76749232536335
 51
96.99999999999995
  0
LINE
  5
496
330
2
100
AcDbEntity
  8
L1
 62
     7
100
AcDbLine
 10
293.5094122692311
 20
81.85019238286269
 30
0.0
 11
355.059412269231
 21
81.85019238286269
 31
0.0
  0
LINE
  5
497
330
2
100
AcDbEntity
  8
L1
100
AcDbLine
 10
355.0543547174412
 20
81.25538320392797
 30
0.0
 11
293.5094122692311
 21
81.25538320392807
 31
0.0
  0
ARC
  5
49D
330
2
100
AcDbEntity
  8
L1
100
AcDbCircle
 10
340.6594122692311
 20
86.05019238286258
 30
0.0
 40
4.022689858140864
100
AcDbArc
 50
270.0
 51
0.0
  0
ARC
  5
49E
330
2
100
AcDbEntity
  8
L1
100
AcDbCircle
 10
340.6594122692311
 20
86.05019238286258
 30
0.0
 40
1.377211141825998
100
AcDbArc
 50
270.0
 51
0.0
  0
POLYLINE
  5
49F
330
2
100
AcDbEntity
  8
L1
100
AcDb2dPolyline
 66
     1
 10
0.0
 20
0.0
 30
0.0
  0
VERTEX
  5
E3F
330
49F
100
AcDbEntity
  8
L1
100
AcDbVertex
100
AcDb2dVertex
 10
340.6761708917866
 20
87.06138258339906
 30
0.0
  0
VERTEX
  5
E40
330
49F
100
AcDbEntity
  8
L1
100
AcDbVertex
100
AcDb2dVertex
 10
340.9761630026999
 20
86.98100238011269
 30
0.0
  0
VERTEX
  5
E41
330
49F
100
AcDbEntity
  8
L1
100
AcDbVertex
100
AcDb2dVertex
 10
341.1957678423387
 20
86.76139754047399
 30
0.0
  0
VERTEX
  5
E42
330
49F
100
AcDbEntity
  8
L1
100
AcDbVertex
100
AcDb2dVertex
 10
341.2761480456251
 20
86.46140542956057
 30
0.0
  0
SEQEND
  5
E43
330
49F
100
AcDbEntity
  8
L1
  0
LINE
  5
4A5
330
2
100
AcDbEntity
  8
L6
 62
     1
100
AcDbLine
 10
226.9335540307628
 20
121.3001923828626
 30
0.0
 11
360.0852705076994
 21
121.3001923828626
 31
0.0
  0
CIRCLE
  5
4A6
330
2
100
AcDbEntity
  8
L1
100
AcDbCircle
 10
338.5094122692313
 20
121.3001923828626
 30
0.0
 40
4.091897474510698
  0
ARC
  5
4A7
330
2
100
AcDbEntity
  8
L1
100
AcDbCircle
 10
350.2594122692311
 20
89.5501923828626
 30
0.0
 40
8.983264223605935
100
AcDbArc
 50
145.0994163667608
 51
180.0
  0
LINE
  5
4F0
330
2
100
AcDbEntity
  8
L1
 62
     7
100
AcDbLine
 10
231.9594122692311
 20
81.85019238286269
 30
0.0
 11
293.5094122692311
 21
81.85019238286256
 31
0.0
  0
LINE
  5
4F1
330
2
100
AcDbEntity
  8
L1
100
AcDbLine
 10
293.5094122692311
 20
81.25538320392784
 30
0.0
 11
231.9644698210209
 21
81.25538320392797
 31
0.0
  0
LINE
  5
4F2
330
2
100
AcDbEntity
  8
L1
100
AcDbLine
 10
246.359412269231
 20
84.6729812410367
 30
0.0
 11
293.5094122692311
 21
84.6729812410366
 31
0.0
  0
LINE
  5
4F3
330
2
100
AcDbEntity
  8
L1
100
AcDbLine
 10
293.5094122692311
 20
82.02750252472172
 30
0.0
 11
246.359412269231
 21
82.02750252472172
 31
0.0
  0
LINE
  5
4F4
330
2
100
AcDbEntity
  8
L1
 62
     7
100
AcDbLine
 10
293.5094122692311
 20
87.0613825833991
 30
0.0
 11
246.3426536466755
 21
87.0613825833991
 31
0.0
  0
LINE
  5
4F5
330
2
100
AcDbEntity
  8
L1
100
AcDbLine
 10
231.8822011274052
 20
143.4501923828626
 30
0.0
 11
231.8822011274052
 21
99.15019238286264
 31
0.0
  0
LINE
  5
4F6
330
2
100
AcDbEntity
  8
L1
100
AcDbLine
 10
229.2367224110902
 20
99.15019238286264
 30
0.0
 11
229.2367224110902
 21
143.4501923828626
 31
0.0
  0
LINE
  5
4F7
330
2
100
AcDbEntity
  8
L1
 62
     7
100
AcDbLine
 10
234.2706024697673
 20
99.13343376030706
 30
0.0
 11
234.2706024697673
 21
143.4669510054181
 31
0.0
  0
LINE
  5
4F8
330
2
100
AcDbEntity
  8
L6
 48
0.3
100
AcDbLine
 10
256.0094122692309
 20
96.30019238286244
 30
0.0
 11
256.0094122692309
 21
106.3001923828624
 31
0.0
  0
CIRCLE
  5
4F9
330
2
100
AcDbEntity
  8
L1
100
AcDbCircle
 10
256.0094122692309
 20
101.3001923828626
 30
0.0
 40
4.091897474510698
  0
CIRCLE
  5
4FA
330
2
100
AcDbEntity
  8
L1
100
AcDbCircle
 10
256.0094122692309
 20
101.3001923828626
 30
0.0
 40
1.6
  0
CIRCLE
  5
4FB
330
2
100
AcDbEntity
  8
L1
100
AcDbCircle
 10
256.0094122692309
 20
101.3001923828626
 30
0.0
 40
1.25
  0
ARC
  5
4FC
330
2
100
AcDbEntity
  8
L1
100
AcDbCircle
 10
236.7594122692311
 20
89.5501923828626
 30
0.0
 40
5.099999999999999
100
AcDbArc
 50
352.9999999999998
 51
96.99999999999981
  0
ARC
  5
4FD
330
2
100
AcDbEntity
  8
L1
100
AcDbCircle
 10
236.7594122692311
 20
89.5501923828626
 30
0.0
 40
5.073819396627722
100
AcDbArc
 50
352.9999999999997
 51
96.99999999999997
  0
ARC
  5
4FE
330
2
100
AcDbEntity
  8
L1
100
AcDbCircle
 10
246.3594122692311
 20
86.05019238286256
 30
0.0
 40
4.022689858140864
100
AcDbArc
 50
180.0
 51
270.0
  0
ARC
  5
4FF
330
2
100
AcDbEntity
  8
L1
100
AcDbCircle
 10
236.7594122692311
 20
89.55019238286256
 30
0.0
 40
8.222788858174023
100
AcDbArc
 50
0.0
 51
90.0
  0
LINE
  5
500
330
2
100
AcDbEntity
  8
L1
100
AcDbLine
 10
242.2636935465836
 20
96.93401089530871
 30
0.0
 11
243.5633792091036
 21
98.02457665537565
 31
0.0
  0
LINE
  5
501
330
2
100
AcDbEntity
  8
L1
100
AcDbLine
 10
242.2724513355241
 20
96.72035248633298
 30
0.0
 11
243.5533628749666
 21
97.79516488664995
 31
0.0
  0
ARC
  5
502
330
2
100
AcDbEntity
  8
L1
100
AcDbCircle
 10
236.7594122692311
 20
89.55019238286256
 30
0.0
 40
5.577310141859157
100
AcDbArc
 50
0.0
 51
90.0
  0
ARC
  5
503
330
2
100
AcDbEntity
  8
L1
100
AcDbCircle
 10
236.7594122692311
 20
89.5501923828626
 30
0.0
 40
8.813962988465215
100
AcDbArc
 50
35.71427464727591
 51
54.28572535272409
  0
CIRCLE
  5
504
330
2
100
AcDbEntity
  8
L1
100
AcDbCircle
 10
236.7594122692311
 20
89.55019238286261
 30
0.0
 40
4.0
  0
LINE
  5
505
330
2
100
AcDbEntity
  8
L1
100
AcDbLine
 10
230.059412269231
 20
84.75019238286256
 30
0.0
 11
230.059412269231
 21
95.49904369960909
 31
0.0
  0
LINE
  5
506
330
2
100
AcDbEntity
  8
L1
100
AcDbLine
 10
230.0855928726034
 20
95.44173509150734
 30
0.0
 11
230.0855928726034
 21
84.75019238286256
 31
0.0
  0
CIRCLE
  5
507
330
2
100
AcDbEntity
  8
L1
100
AcDbCircle
 10
236.7594122692309
 20
89.55019238286284
 30
0.0
 40
2.25
  0
LINE
  5
508
330
2
100
AcDbEntity
  8
L6
 48
0.3
100
AcDbLine
 10
236.7594122692311
 20
84.55019238286254
 30
0.0
 11
236.7594122692311
 21
94.55019238286254
 31
0.0
  0
LINE
  5
509
330
2
100
AcDbEntity
  8
L1
100
AcDbLine
 10
242.7082635859775
 20
82.85019238286258
 30
0.0
 11
231.9594122692311
 21
82.85019238286258
 31
0.0
  0
LINE
  5
50A
330
2
100
AcDbEntity
  8
L1
100
AcDbLine
 10
231.9594122692311
 20
82.87637298623485
 30
0.0
 11
242.6509549778758
 21
82.87637298623485
 31
0.0
  0
LINE
  5
50B
330
2
100
AcDbEntity
  8
L6
 48
0.3
100
AcDbLine
 10
231.7594122692311
 20
89.55019238286254
 30
0.0
 11
241.7594122692311
 21
89.55019238286254
 31
0.0
  0
POLYLINE
  5
50C
330
2
100
AcDbEntity
  8
L1
100
AcDb2dPolyline
 66
     1
 10
0.0
 20
0.0
 30
0.0
  0
VERTEX
  5
E44
330
50C
100
AcDbEntity
  8
L1
100
AcDbVertex
100
AcDb2dVertex
 10
231.9594122692311
 20
81.25538682625238
 30
0.0
  0
VERTEX
  5
E45
330
50C
100
AcDbEntity
  8
L1
100
AcDbVertex
100
AcDb2dVertex
 10
231.2877779954687
 20
81.32141156953279
 30
0.0
  0
VERTEX
  5
E46
330
50C
100
AcDbEntity
  8
L1
100
AcDbVertex
100
AcDb2dVertex
 10
230.9513669602068
 20
81.40525923152573
 30
0.0
  0
VERTEX
  5
E47
330
50C
100
AcDbEntity
  8
L1
100
AcDbVertex
100
AcDb2dVertex
 10
230.6227749701789
 20
81.52273830850022
 30
0.0
  0
VERTEX
  5
E48
330
50C
100
AcDbEntity
  8
L1
100
AcDbVertex
100
AcDb2dVertex
 10
230.3075652176472
 20
81.67245990374025
 30
0.0
  0
VERTEX
  5
E49
330
50C
100
AcDbEntity
  8
L1
100
AcDbVertex
100
AcDb2dVertex
 10
230.0106499084246
 20
81.8514665588812
 30
0.0
  0
VERTEX
  5
E4A
330
50C
100
AcDbEntity
  8
L1
100
AcDbVertex
100
AcDb2dVertex
 10
229.4896562936874
 20
82.28043640731899
 30
0.0
  0
VERTEX
  5
E4B
330
50C
100
AcDbEntity
  8
L1
100
AcDbVertex
100
AcDb2dVertex
 10
229.0606864452496
 20
82.80143002205617
 30
0.0
  0
VERTEX
  5
E4C
330
50C
100
AcDbEntity
  8
L1
100
AcDbVertex
100
AcDb2dVertex
 10
228.8816797901087
 20
83.09834533127881
 30
0.0
  0
VERTEX
  5
E4D
330
50C
100
AcDbEntity
  8
L1
100
AcDbVertex
100
AcDb2dVertex
 10
228.7319581948687
 20
83.41355508381047
 30
0.0
  0
VERTEX
  5
E4E
330
50C
100
AcDbEntity
  8
L1
100
AcDbVertex
100
AcDb2dVertex
 10
228.6144791178942
 20
83.74214707383838
 30
0.0
  0
VERTEX
  5
E4F
330
50C
100
AcDbEntity
  8
L1
100
AcDbVertex
100
AcDb2dVertex
 10
228.5306314559013
 20
84.07855810910028
 30
0.0
  0
VERTEX
  5
E50
330
50C
100
AcDbEntity
  8
L1
100
AcDbVertex
100
AcDb2dVertex
 10
228.4646067126209
 20
84.75019238286261
 30
0.0
  0
SEQEND
  5
E51
330
50C
100
AcDbEntity
  8
L1
  0
ARC
  5
51B
330
2
100
AcDbEntity
  8
L1
100
AcDbCircle
 10
231.9594122692311
 20
84.75019238286261
 30
0.0
 40
2.899999999999996
100
AcDbArc
 50
180.0
 51
270.0000000000005
  0
ARC
  5
51C
330
2
100
AcDbEntity
  8
L1
100
AcDbCircle
 10
231.9594122692311
 20
84.75019238286257
 30
0.0
 40
1.9
100
AcDbArc
 50
180.0000000000008
 51
270.0
  0
ARC
  5
51D
330
2
100
AcDbEntity
  8
L1
100
AcDbCircle
 10
231.9594122692311
 20
84.75019238286257
 30
0.0
 40
1.873819396627723
100
AcDbArc
 50
180.0000000000008
 51
270.0
  0
POLYLINE
  5
51E
330
2
100
AcDbEntity
  8
L1
100
AcDb2dPolyline
 66
     1
 10
0.0
 20
0.0
 30
0.0
  0
VERTEX
  5
E52
330
51E
100
AcDbEntity
  8
L1
100
AcDbVertex
100
AcDb2dVertex
 10
231.9644698210209
 20
81.25538320392784
 30
0.0
  0
VERTEX
  5
E53
330
51E
100
AcDbEntity
  8
L1
100
AcDbVertex
100
AcDb2dVertex
 10
231.9619410522994
 20
81.25538410950911
 30
0.0
  0
VERTEX
  5
E54
330
51E
100
AcDbEntity
  8
L1
100
AcDbVertex
100
AcDb2dVertex
 10
231.9594122692311
 20
81.2553868262524
 30
0.0
  0
SEQEND
  5
E55
330
51E
100
AcDbEntity
  8
L1
  0
POLYLINE
  5
523
330
2
100
AcDbEntity
  8
L1
100
AcDb2dPolyline
 66
     1
 10
0.0
 20
0.0
 30
0.0
  0
VERTEX
  5
E56
330
523
100
AcDbEntity
  8
L1
100
AcDbVertex
100
AcDb2dVertex
 10
228.4646067126209
 20
84.75019238286261
 30
0.0
  0
VERTEX
  5
E57
330
523
100
AcDbEntity
  8
L1
100
AcDbVertex
100
AcDb2dVertex
 10
228.4646039958776
 20
84.75272116593087
 30
0.0
  0
VERTEX
  5
E58
330
523
100
AcDbEntity
  8
L1
100
AcDbVertex
100
AcDb2dVertex
 10
228.4646030902964
 20
84.75524993465244
 30
0.0
  0
SEQEND
  5
E59
330
523
100
AcDbEntity
  8
L1
  0
ARC
  5
528
330
2
100
AcDbEntity
  8
L1
100
AcDbCircle
 10
246.3594122692311
 20
86.05019238286256
 30
0.0
 40
4.881166361047003
100
AcDbArc
 50
172.9999999999995
 51
220.5579963961396
  0
ARC
  5
529
330
2
100
AcDbEntity
  8
L1
100
AcDbCircle
 10
246.3594122692311
 20
86.05019238286256
 30
0.0
 40
4.854985757674727
100
AcDbArc
 50
173.0000000000001
 51
221.2325076746361
  0
POLYLINE
  5
52A
330
2
100
AcDbEntity
  8
L1
100
AcDb2dPolyline
 66
     1
 10
0.0
 20
0.0
 30
0.0
  0
VERTEX
  5
E5A
330
52A
100
AcDbEntity
  8
L1
100
AcDbVertex
100
AcDb2dVertex
 10
242.7082635859775
 20
82.85019238286258
 30
0.0
  0
VERTEX
  5
E5B
330
52A
100
AcDbEntity
  8
L1
100
AcDbVertex
100
AcDb2dVertex
 10
242.6509549778758
 20
82.87637298623485
 30
0.0
  0
SEQEND
  5
E5C
330
52A
100
AcDbEntity
  8
L1
  0
LINE
  5
52E
330
2
100
AcDbEntity
  8
L1
100
AcDbLine
 10
242.3367224110902
 20
86.05019238286256
 30
0.0
 11
242.3367224110902
 21
89.55019238286256
 31
0.0
  0
LINE
  5
52F
330
2
100
AcDbEntity
  8
L1
100
AcDbLine
 10
241.5146293820528
 20
86.64505692233463
 30
0.0
 11
241.795412185477
 21
88.93184934443924
 31
0.0
  0
LINE
  5
530
330
2
100
AcDbEntity
  8
L1
100
AcDbLine
 10
241.8213976426018
 20
88.92865873149633
 30
0.0
 11
241.5406148391776
 21
86.64186630939171
 31
0.0
  0
LINE
  5
531
330
2
100
AcDbEntity
  8
L1
100
AcDbLine
 10
236.1410692308077
 20
94.58619229910853
 30
0.0
 11
233.8542768087031
 21
94.30540949568435
 31
0.0
  0
LINE
  5
532
330
2
100
AcDbEntity
  8
L1
100
AcDbLine
 10
233.8510861957602
 20
94.33139495280913
 30
0.0
 11
236.1378786178649
 21
94.61217775623335
 31
0.0
  0
LINE
  5
533
330
2
100
AcDbEntity
  8
L1
100
AcDbLine
 10
236.7594122692311
 20
95.12750252472171
 30
0.0
 11
233.2594122692311
 21
95.12750252472171
 31
0.0
  0
LINE
  5
534
330
2
100
AcDbEntity
  8
L1
100
AcDbLine
 10
236.7594122692311
 20
98.53345660646851
 30
0.0
 11
233.6706253159289
 21
98.53345660646851
 31
0.0
  0
LINE
  5
535
330
2
100
AcDbEntity
  8
L1
100
AcDbLine
 10
233.2594122692311
 20
97.77298124103662
 30
0.0
 11
236.7594122692311
 21
97.77298124103662
 31
0.0
  0
ARC
  5
536
330
2
100
AcDbEntity
  8
L1
100
AcDbCircle
 10
233.2594122692311
 20
99.15019238286255
 30
0.0
 40
4.022689858140836
100
AcDbArc
 50
180.0
 51
270.0
  0
ARC
  5
537
330
2
100
AcDbEntity
  8
L1
100
AcDbCircle
 10
233.2594122692311
 20
99.15019238286255
 30
0.0
 40
4.881166361046946
100
AcDbArc
 50
229.4420036038593
 51
276.9999999999999
  0
ARC
  5
538
330
2
100
AcDbEntity
  8
L1
100
AcDbCircle
 10
233.2594122692311
 20
99.15019238286255
 30
0.0
 40
4.854985757674669
100
AcDbArc
 50
228.767492325363
 51
276.9999999999999
  0
POLYLINE
  5
539
330
2
100
AcDbEntity
  8
L1
100
AcDb2dPolyline
 66
     1
 10
0.0
 20
0.0
 30
0.0
  0
VERTEX
  5
E5D
330
539
100
AcDbEntity
  8
L1
100
AcDbVertex
100
AcDb2dVertex
 10
230.0855928726033
 20
95.44173509150736
 30
0.0
  0
VERTEX
  5
E5E
330
539
100
AcDbEntity
  8
L1
100
AcDbVertex
100
AcDb2dVertex
 10
230.059412269231
 20
95.49904369960909
 30
0.0
  0
SEQEND
  5
E5F
330
539
100
AcDbEntity
  8
L1
  0
POLYLINE
  5
53D
330
2
100
AcDbEntity
  8
L1
100
AcDb2dPolyline
 66
     1
 10
0.0
 20
0.0
 30
0.0
  0
VERTEX
  5
E60
330
53D
100
AcDbEntity
  8
L1
100
AcDbVertex
100
AcDb2dVertex
 10
234.2706024697674
 20
99.13343376030701
 30
0.0
  0
VERTEX
  5
E61
330
53D
100
AcDbEntity
  8
L1
100
AcDbVertex
100
AcDb2dVertex
 10
234.190222266481
 20
98.83344164939359
 30
0.0
  0
VERTEX
  5
E62
330
53D
100
AcDbEntity
  8
L1
100
AcDbVertex
100
AcDb2dVertex
 10
233.9706174268423
 20
98.61383680975489
 30
0.0
  0
VERTEX
  5
E63
330
53D
100
AcDbEntity
  8
L1
100
AcDbVertex
100
AcDb2dVertex
 10
233.6706253159289
 20
98.53345660646851
 30
0.0
  0
SEQEND
  5
E64
330
53D
100
AcDbEntity
  8
L1
  0
ARC
  5
543
330
2
100
AcDbEntity
  8
L1
100
AcDbCircle
 10
233.2594122692311
 20
99.15019238286255
 30
0.0
 40
1.377211141825969
100
AcDbArc
 50
180.0
 51
270.0000000000012
  0
ARC
  5
544
330
2
100
AcDbEntity
  8
L1
100
AcDbCircle
 10
236.7594122692311
 20
89.5501923828626
 30
0.0
 40
8.983264223605935
100
AcDbArc
 50
55.09941636676114
 51
90.0
  0
POLYLINE
  5
545
330
2
100
AcDbEntity
  8
L1
100
AcDb2dPolyline
 66
     1
 10
0.0
 20
0.0
 30
0.0
  0
VERTEX
  5
E65
330
545
100
AcDbEntity
  8
L1
100
AcDbVertex
100
AcDb2dVertex
 10
242.2724513355241
 20
96.72035248633298
 30
0.0
  0
VERTEX
  5
E66
330
545
100
AcDbEntity
  8
L1
100
AcDbVertex
100
AcDb2dVertex
 10
242.2111065192719
 20
96.68051797042826
 30
0.0
  0
VERTEX
  5
E67
330
545
100
AcDbEntity
  8
L1
100
AcDbVertex
100
AcDb2dVertex
 10
242.1328774894667
 20
96.65493260618148
 30
0.0
  0
VERTEX
  5
E68
330
545
100
AcDbEntity
  8
L1
100
AcDbVertex
100
AcDb2dVertex
 10
242.0583490179037
 20
96.65092296325417
 30
0.0
  0
VERTEX
  5
E69
330
545
100
AcDbEntity
  8
L1
100
AcDbVertex
100
AcDb2dVertex
 10
241.9809264266046
 20
96.66686839403723
 30
0.0
  0
VERTEX
  5
E6A
330
545
100
AcDbEntity
  8
L1
100
AcDbVertex
100
AcDb2dVertex
 10
241.9045060087609
 20
96.70658490797503
 30
0.0
  0
SEQEND
  5
E6B
330
545
100
AcDbEntity
  8
L1
  0
POLYLINE
  5
54D
330
2
100
AcDbEntity
  8
L1
100
AcDb2dPolyline
 66
     1
 10
0.0
 20
0.0
 30
0.0
  0
VERTEX
  5
E6C
330
54D
100
AcDbEntity
  8
L1
100
AcDbVertex
100
AcDb2dVertex
 10
241.8992248737323
 20
96.9177810319206
 30
0.0
  0
VERTEX
  5
E6D
330
54D
100
AcDbEntity
  8
L1
100
AcDbVertex
100
AcDb2dVertex
 10
241.9811577679593
 20
96.87755325245097
 30
0.0
  0
VERTEX
  5
E6E
330
54D
100
AcDbEntity
  8
L1
100
AcDbVertex
100
AcDb2dVertex
 10
242.0542564029337
 20
96.86428625745815
 30
0.0
  0
VERTEX
  5
E6F
330
54D
100
AcDbEntity
  8
L1
100
AcDbVertex
100
AcDb2dVertex
 10
242.1247054528737
 20
96.8686973131024
 30
0.0
  0
VERTEX
  5
E70
330
54D
100
AcDbEntity
  8
L1
100
AcDbVertex
100
AcDb2dVertex
 10
242.2035779190153
 20
96.89477926440845
 30
0.0
  0
VERTEX
  5
E71
330
54D
100
AcDbEntity
  8
L1
100
AcDbVertex
100
AcDb2dVertex
 10
242.2636935465836
 20
96.93401089530871
 30
0.0
  0
SEQEND
  5
E72
330
54D
100
AcDbEntity
  8
L1
  0
LINE
  5
555
330
2
100
AcDbEntity
  8
L6
 48
0.3
100
AcDbLine
 10
251.0094122692308
 20
101.3001923828624
 30
0.0
 11
261.0094122692308
 21
101.3001923828624
 31
0.0
  0
ARC
  5
556
330
2
100
AcDbEntity
  8
L1
100
AcDbCircle
 10
236.7594122692311
 20
89.5501923828626
 30
0.0
 40
8.983264223605935
100
AcDbArc
 50
0.0
 51
34.90058363323927
  0
ARC
  5
557
330
2
100
AcDbEntity
  8
L1
100
AcDbCircle
 10
246.3594122692311
 20
86.05019238286256
 30
0.0
 40
1.377211141825998
100
AcDbArc
 50
180.0
 51
270.0000000000012
  0
LINE
  5
558
330
2
100
AcDbEntity
  8
L1
100
AcDbLine
 10
245.742676492837
 20
86.46140542956054
 30
0.0
 11
245.742676492837
 21
89.5501923828626
 31
0.0
  0
LINE
  5
559
330
2
100
AcDbEntity
  8
L1
100
AcDbLine
 10
244.9822011274051
 20
89.55019238286256
 30
0.0
 11
244.9822011274051
 21
86.05019238286256
 31
0.0
  0
POLYLINE
  5
55A
330
2
100
AcDbEntity
  8
L1
100
AcDb2dPolyline
 66
     1
 10
0.0
 20
0.0
 30
0.0
  0
VERTEX
  5
E73
330
55A
100
AcDbEntity
  8
L1
100
AcDbVertex
100
AcDb2dVertex
 10
245.742676492837
 20
86.46140542956054
 30
0.0
  0
VERTEX
  5
E74
330
55A
100
AcDbEntity
  8
L1
100
AcDbVertex
100
AcDb2dVertex
 10
245.8230566961234
 20
86.76139754047394
 30
0.0
  0
VERTEX
  5
E75
330
55A
100
AcDbEntity
  8
L1
100
AcDbVertex
100
AcDb2dVertex
 10
246.0426615357621
 20
86.98100238011262
 30
0.0
  0
VERTEX
  5
E76
330
55A
100
AcDbEntity
  8
L1
100
AcDbVertex
100
AcDb2dVertex
 10
246.3426536466755
 20
87.06138258339903
 30
0.0
  0
SEQEND
  5
E77
330
55A
100
AcDbEntity
  8
L1
  0
LINE
  5
560
330
2
100
AcDbEntity
  8
L1
100
AcDbLine
 10
245.2337965417441
 20
96.35415932273508
 30
0.0
 11
244.1432307816771
 21
95.0544736602151
 31
0.0
  0
LINE
  5
561
330
2
100
AcDbEntity
  8
L1
100
AcDbLine
 10
245.0043847730184
 20
96.3441429885982
 30
0.0
 11
243.9295723727014
 21
95.06323144915562
 31
0.0
  0
POLYLINE
  5
562
330
2
100
AcDbEntity
  8
L1
100
AcDb2dPolyline
 66
     1
 10
0.0
 20
0.0
 30
0.0
  0
VERTEX
  5
E78
330
562
100
AcDbEntity
  8
L1
100
AcDbVertex
100
AcDb2dVertex
 10
244.1432307816772
 20
95.0544736602151
 30
0.0
  0
VERTEX
  5
E79
330
562
100
AcDbEntity
  8
L1
100
AcDbVertex
100
AcDb2dVertex
 10
244.113857499747
 20
95.012707859808
 30
0.0
  0
VERTEX
  5
E7A
330
562
100
AcDbEntity
  8
L1
100
AcDbVertex
100
AcDb2dVertex
 10
244.0892224400253
 20
94.95882282716509
 30
0.0
  0
VERTEX
  5
E7B
330
562
100
AcDbEntity
  8
L1
100
AcDbVertex
100
AcDb2dVertex
 10
244.0756582385858
 20
94.90114708059836
 30
0.0
  0
VERTEX
  5
E7C
330
562
100
AcDbEntity
  8
L1
100
AcDbVertex
100
AcDb2dVertex
 10
244.0735872125506
 20
94.84363589648369
 30
0.0
  0
VERTEX
  5
E7D
330
562
100
AcDbEntity
  8
L1
100
AcDbVertex
100
AcDb2dVertex
 10
244.08253609625
 20
94.78678746529356
 30
0.0
  0
VERTEX
  5
E7E
330
562
100
AcDbEntity
  8
L1
100
AcDbVertex
100
AcDb2dVertex
 10
244.127000918289
 20
94.69000498736388
 30
0.0
  0
SEQEND
  5
E7F
330
562
100
AcDbEntity
  8
L1
  0
POLYLINE
  5
56B
330
2
100
AcDbEntity
  8
L1
100
AcDb2dPolyline
 66
     1
 10
0.0
 20
0.0
 30
0.0
  0
VERTEX
  5
E80
330
56B
100
AcDbEntity
  8
L1
100
AcDbVertex
100
AcDb2dVertex
 10
243.9158047943435
 20
94.69528612239246
 30
0.0
  0
VERTEX
  5
E81
330
56B
100
AcDbEntity
  8
L1
100
AcDbVertex
100
AcDb2dVertex
 10
243.9040600877974
 20
94.71290183474996
 30
0.0
  0
VERTEX
  5
E82
330
56B
100
AcDbEntity
  8
L1
100
AcDbVertex
100
AcDb2dVertex
 10
243.8793224228902
 20
94.7628723617651
 30
0.0
  0
VERTEX
  5
E83
330
56B
100
AcDbEntity
  8
L1
100
AcDbVertex
100
AcDb2dVertex
 10
243.8642595821079
 20
94.81655767488136
 30
0.0
  0
VERTEX
  5
E84
330
56B
100
AcDbEntity
  8
L1
100
AcDbVertex
100
AcDb2dVertex
 10
243.8594152014708
 20
94.87446489430134
 30
0.0
  0
VERTEX
  5
E85
330
56B
100
AcDbEntity
  8
L1
100
AcDbVertex
100
AcDb2dVertex
 10
243.8658259290674
 20
94.93221968945929
 30
0.0
  0
VERTEX
  5
E86
330
56B
100
AcDbEntity
  8
L1
100
AcDbVertex
100
AcDb2dVertex
 10
243.8836921365405
 20
94.98868678314098
 30
0.0
  0
VERTEX
  5
E87
330
56B
100
AcDbEntity
  8
L1
100
AcDbVertex
100
AcDb2dVertex
 10
243.9123036475138
 20
95.04054350884251
 30
0.0
  0
VERTEX
  5
E88
330
56B
100
AcDbEntity
  8
L1
100
AcDbVertex
100
AcDb2dVertex
 10
243.9295723727015
 20
95.06323144915562
 30
0.0
  0
SEQEND
  5
E89
330
56B
100
AcDbEntity
  8
L1
  0
LINE
  5
576
330
2
100
AcDbEntity
  8
L1
100
AcDbLine
 10
243.9683321064128
 20
98.00689603004556
 30
0.0
 11
245.216115916414
 21
96.75911222004435
 31
0.0
  0
LINE
  5
577
330
2
100
AcDbEntity
  8
L1
100
AcDbLine
 10
243.9583157722759
 20
97.77748426131989
 30
0.0
 11
244.9867041476883
 21
96.74909588590747
 31
0.0
  0
POLYLINE
  5
578
330
2
100
AcDbEntity
  8
L1
100
AcDb2dPolyline
 66
     1
 10
0.0
 20
0.0
 30
0.0
  0
VERTEX
  5
E8A
330
578
100
AcDbEntity
  8
L1
100
AcDbVertex
100
AcDb2dVertex
 10
245.216115916414
 20
96.75911222004437
 30
0.0
  0
VERTEX
  5
E8B
330
578
100
AcDbEntity
  8
L1
100
AcDbVertex
100
AcDb2dVertex
 10
245.3036964626519
 20
96.56007364423237
 30
0.0
  0
VERTEX
  5
E8C
330
578
100
AcDbEntity
  8
L1
100
AcDbVertex
100
AcDb2dVertex
 10
245.2337965417441
 20
96.35415932273508
 30
0.0
  0
SEQEND
  5
E8D
330
578
100
AcDbEntity
  8
L1
  0
POLYLINE
  5
57D
330
2
100
AcDbEntity
  8
L1
100
AcDb2dPolyline
 66
     1
 10
0.0
 20
0.0
 30
0.0
  0
VERTEX
  5
E8E
330
57D
100
AcDbEntity
  8
L1
100
AcDbVertex
100
AcDb2dVertex
 10
244.9867041476883
 20
96.74909588590747
 30
0.0
  0
VERTEX
  5
E8F
330
57D
100
AcDbEntity
  8
L1
100
AcDbVertex
100
AcDb2dVertex
 10
245.0742846939262
 20
96.55005731009545
 30
0.0
  0
VERTEX
  5
E90
330
57D
100
AcDbEntity
  8
L1
100
AcDbVertex
100
AcDb2dVertex
 10
245.0043847730184
 20
96.3441429885982
 30
0.0
  0
SEQEND
  5
E91
330
57D
100
AcDbEntity
  8
L1
  0
POLYLINE
  5
582
330
2
100
AcDbEntity
  8
L1
100
AcDb2dPolyline
 66
     1
 10
0.0
 20
0.0
 30
0.0
  0
VERTEX
  5
E92
330
582
100
AcDbEntity
  8
L1
100
AcDbVertex
100
AcDb2dVertex
 10
243.5633792091035
 20
98.02457665537565
 30
0.0
  0
VERTEX
  5
E93
330
582
100
AcDbEntity
  8
L1
100
AcDbVertex
100
AcDb2dVertex
 10
243.7692935306007
 20
98.09447657628345
 30
0.0
  0
VERTEX
  5
E94
330
582
100
AcDbEntity
  8
L1
100
AcDbVertex
100
AcDb2dVertex
 10
243.9683321064129
 20
98.00689603004558
 30
0.0
  0
SEQEND
  5
E95
330
582
100
AcDbEntity
  8
L1
  0
POLYLINE
  5
587
330
2
100
AcDbEntity
  8
L1
100
AcDb2dPolyline
 66
     1
 10
0.0
 20
0.0
 30
0.0
  0
VERTEX
  5
E96
330
587
100
AcDbEntity
  8
L1
100
AcDbVertex
100
AcDb2dVertex
 10
243.5533628749666
 20
97.79516488664997
 30
0.0
  0
VERTEX
  5
E97
330
587
100
AcDbEntity
  8
L1
100
AcDbVertex
100
AcDb2dVertex
 10
243.7592771964639
 20
97.86506480755777
 30
0.0
  0
VERTEX
  5
E98
330
587
100
AcDbEntity
  8
L1
100
AcDbVertex
100
AcDb2dVertex
 10
243.9583157722759
 20
97.77748426131992
 30
0.0
  0
SEQEND
  5
E99
330
587
100
AcDbEntity
  8
L1
  0
LINE
  5
58C
330
2
100
AcDbEntity
  8
L1
100
AcDbLine
 10
243.5633792091035
 20
144.5758081103495
 30
0.0
 11
242.2636935465835
 21
145.6663738704164
 31
0.0
  0
LINE
  5
58D
330
2
100
AcDbEntity
  8
L1
100
AcDbLine
 10
243.5533628749666
 20
144.8052198790752
 30
0.0
 11
242.2724513355241
 21
145.8800322793921
 31
0.0
  0
ARC
  5
58E
330
2
100
AcDbEntity
  8
L1
100
AcDbCircle
 10
236.7594122692311
 20
153.0501923828625
 30
0.0
 40
8.20882586970884
100
AcDbArc
 50
306.3397989149931
 51
323.6602010850067
  0
LINE
  5
58F
330
2
100
AcDbEntity
  8
L1
100
AcDbLine
 10
233.6706253159289
 20
144.0669281592566
 30
0.0
 11
236.7594122692311
 21
144.0669281592566
 31
0.0
  0
LINE
  5
590
330
2
100
AcDbEntity
  8
L1
100
AcDbLine
 10
236.7594122692311
 20
144.8274035246885
 30
0.0
 11
233.2594122692311
 21
144.8274035246885
 31
0.0
  0
LINE
  5
591
330
2
100
AcDbEntity
  8
L1
100
AcDbLine
 10
233.8542768087029
 20
148.2949752700408
 30
0.0
 11
236.1410692308079
 21
148.0141924666166
 31
0.0
  0
LINE
  5
592
330
2
100
AcDbEntity
  8
L1
100
AcDbLine
 10
236.1378786178649
 20
147.9882070094918
 30
0.0
 11
233.85108619576
 21
148.268989812916
 31
0.0
  0
LINE
  5
593
330
2
100
AcDbEntity
  8
L1
100
AcDbLine
 10
233.2594122692311
 20
147.4728822410033
 30
0.0
 11
236.7594122692311
 21
147.4728822410033
 31
0.0
  0
ARC
  5
594
330
2
100
AcDbEntity
  8
L1
100
AcDbCircle
 10
233.2594122692311
 20
143.4501923828625
 30
0.0
 40
4.022689858140807
100
AcDbArc
 50
89.9999999999992
 51
180.0
  0
POLYLINE
  5
595
330
2
100
AcDbEntity
  8
L1
100
AcDb2dPolyline
 66
     1
 10
0.0
 20
0.0
 30
0.0
  0
VERTEX
  5
E9A
330
595
100
AcDbEntity
  8
L1
100
AcDbVertex
100
AcDb2dVertex
 10
230.059412269231
 20
147.1013410661162
 30
0.0
  0
VERTEX
  5
E9B
330
595
100
AcDbEntity
  8
L1
100
AcDbVertex
100
AcDb2dVertex
 10
230.0855928726033
 20
147.1586496742179
 30
0.0
  0
SEQEND
  5
E9C
330
595
100
AcDbEntity
  8
L1
  0
POLYLINE
  5
599
330
2
100
AcDbEntity
  8
L1
100
AcDb2dPolyline
 66
     1
 10
0.0
 20
0.0
 30
0.0
  0
VERTEX
  5
E9D
330
599
100
AcDbEntity
  8
L1
100
AcDbVertex
100
AcDb2dVertex
 10
233.6706253159289
 20
144.0669281592565
 30
0.0
  0
VERTEX
  5
E9E
330
599
100
AcDbEntity
  8
L1
100
AcDbVertex
100
AcDb2dVertex
 10
233.9706174268423
 20
143.9865479559701
 30
0.0
  0
VERTEX
  5
E9F
330
599
100
AcDbEntity
  8
L1
100
AcDbVertex
100
AcDb2dVertex
 10
234.190222266481
 20
143.7669431163315
 30
0.0
  0
VERTEX
  5
EA0
330
599
100
AcDbEntity
  8
L1
100
AcDbVertex
100
AcDb2dVertex
 10
234.2706024697674
 20
143.4669510054181
 30
0.0
  0
SEQEND
  5
EA1
330
599
100
AcDbEntity
  8
L1
  0
ARC
  5
59F
330
2
100
AcDbEntity
  8
L1
100
AcDbCircle
 10
233.2594122692311
 20
143.4501923828625
 30
0.0
 40
1.377211141825998
100
AcDbArc
 50
90.0
 51
180.0
  0
ARC
  5
5A0
330
2
100
AcDbEntity
  8
L1
100
AcDbCircle
 10
236.7594122692311
 20
153.0501923828625
 30
0.0
 40
8.222788858174052
100
AcDbArc
 50
270.0
 51
306.2561932473097
  0
ARC
  5
5A1
330
2
100
AcDbEntity
  8
L1
100
AcDbCircle
 10
236.7594122692311
 20
153.0501923828625
 30
0.0
 40
8.983264223605935
100
AcDbArc
 50
270.0
 51
304.9005836332385
  0
ARC
  5
5A2
330
2
100
AcDbEntity
  8
L1
100
AcDbCircle
 10
236.7594122692311
 20
153.0501923828625
 30
0.0
 40
8.813962988465215
100
AcDbArc
 50
305.7142746472759
 51
306.9384834509197
  0
POLYLINE
  5
5A3
330
2
100
AcDbEntity
  8
L1
100
AcDb2dPolyline
 66
     1
 10
0.0
 20
0.0
 30
0.0
  0
VERTEX
  5
EA2
330
5A3
100
AcDbEntity
  8
L1
100
AcDbVertex
100
AcDb2dVertex
 10
242.2636935465835
 20
145.6663738704164
 30
0.0
  0
VERTEX
  5
EA3
330
5A3
100
AcDbEntity
  8
L1
100
AcDbVertex
100
AcDb2dVertex
 10
242.2575562297391
 20
145.6713870615139
 30
0.0
  0
VERTEX
  5
EA4
330
5A3
100
AcDbEntity
  8
L1
100
AcDbVertex
100
AcDb2dVertex
 10
242.1695156113668
 20
145.719873750852
 30
0.0
  0
VERTEX
  5
EA5
330
5A3
100
AcDbEntity
  8
L1
100
AcDbVertex
100
AcDb2dVertex
 10
242.0956818654539
 20
145.7355303367181
 30
0.0
  0
VERTEX
  5
EA6
330
5A3
100
AcDbEntity
  8
L1
100
AcDbVertex
100
AcDb2dVertex
 10
242.0264807340262
 20
145.7332570037788
 30
0.0
  0
VERTEX
  5
EA7
330
5A3
100
AcDbEntity
  8
L1
100
AcDbVertex
100
AcDb2dVertex
 10
241.9527989470533
 20
145.7123477695939
 30
0.0
  0
VERTEX
  5
EA8
330
5A3
100
AcDbEntity
  8
L1
100
AcDbVertex
100
AcDb2dVertex
 10
241.8992248737322
 20
145.6826037338045
 30
0.0
  0
SEQEND
  5
EA9
330
5A3
100
AcDbEntity
  8
L1
  0
POLYLINE
  5
5AC
330
2
100
AcDbEntity
  8
L1
100
AcDb2dPolyline
 66
     1
 10
0.0
 20
0.0
 30
0.0
  0
VERTEX
  5
EAA
330
5AC
100
AcDbEntity
  8
L1
100
AcDbVertex
100
AcDb2dVertex
 10
242.1132590182793
 20
145.9483253285067
 30
0.0
  0
VERTEX
  5
EAB
330
5AC
100
AcDbEntity
  8
L1
100
AcDbVertex
100
AcDb2dVertex
 10
242.1920899055519
 20
145.9283364090557
 30
0.0
  0
VERTEX
  5
EAC
330
5AC
100
AcDbEntity
  8
L1
100
AcDbVertex
100
AcDb2dVertex
 10
242.2724513355241
 20
145.8800322793921
 30
0.0
  0
SEQEND
  5
EAD
330
5AC
100
AcDbEntity
  8
L1
  0
POLYLINE
  5
5B1
330
2
100
AcDbEntity
  8
L1
100
AcDb2dPolyline
 66
     1
 10
0.0
 20
0.0
 30
0.0
  0
VERTEX
  5
EAE
330
5B1
100
AcDbEntity
  8
L1
100
AcDbVertex
100
AcDb2dVertex
 10
241.9045060087609
 20
145.8937998577501
 30
0.0
  0
VERTEX
  5
EAF
330
5B1
100
AcDbEntity
  8
L1
100
AcDbVertex
100
AcDb2dVertex
 10
241.9616585963714
 20
145.9260498003911
 30
0.0
  0
VERTEX
  5
EB0
330
5B1
100
AcDbEntity
  8
L1
100
AcDbVertex
100
AcDb2dVertex
 10
242.0389341498343
 20
145.9474448448172
 30
0.0
  0
VERTEX
  5
EB1
330
5B1
100
AcDbEntity
  8
L1
100
AcDbVertex
100
AcDb2dVertex
 10
242.1132442777753
 20
145.9483269914492
 30
0.0
  0
VERTEX
  5
EB2
330
5B1
100
AcDbEntity
  8
L1
100
AcDbVertex
100
AcDb2dVertex
 10
242.1132590182793
 20
145.9483253285067
 30
0.0
  0
SEQEND
  5
EB3
330
5B1
100
AcDbEntity
  8
L1
  0
LINE
  5
5B8
330
2
100
AcDbEntity
  8
L1
100
AcDbLine
 10
241.8224531919866
 20
146.2193845071406
 30
0.0
 11
241.6223434150457
 21
146.4194942840815
 31
0.0
  0
POLYLINE
  5
5B9
330
2
100
AcDbEntity
  8
L1
100
AcDb2dPolyline
 66
     1
 10
0.0
 20
0.0
 30
0.0
  0
VERTEX
  5
EB4
330
5B9
100
AcDbEntity
  8
L1
100
AcDbVertex
100
AcDb2dVertex
 10
241.6223434150457
 20
146.4194942840816
 30
0.0
  0
VERTEX
  5
EB5
330
5B9
100
AcDbEntity
  8
L1
100
AcDbVertex
100
AcDb2dVertex
 10
241.6237396225679
 20
146.4378447242181
 30
0.0
  0
SEQEND
  5
EB6
330
5B9
100
AcDbEntity
  8
L1
  0
POLYLINE
  5
5BD
330
2
100
AcDbEntity
  8
L1
100
AcDb2dPolyline
 66
     1
 10
0.0
 20
0.0
 30
0.0
  0
VERTEX
  5
EB7
330
5BD
100
AcDbEntity
  8
L1
100
AcDbVertex
100
AcDb2dVertex
 10
242.0389247189286
 20
146.006583166668
 30
0.0
  0
VERTEX
  5
EB8
330
5BD
100
AcDbEntity
  8
L1
100
AcDbVertex
100
AcDb2dVertex
 10
242.0340228162941
 20
146.0107812455896
 30
0.0
  0
VERTEX
  5
EB9
330
5BD
100
AcDbEntity
  8
L1
100
AcDbVertex
100
AcDb2dVertex
 10
242.0219610614702
 20
146.0221676602159
 30
0.0
  0
VERTEX
  5
EBA
330
5BD
100
AcDbEntity
  8
L1
100
AcDbVertex
100
AcDb2dVertex
 10
242.0016513357748
 20
146.0418393057936
 30
0.0
  0
VERTEX
  5
EBB
330
5BD
100
AcDbEntity
  8
L1
100
AcDbVertex
100
AcDb2dVertex
 10
241.9749965396038
 20
146.0679310045077
 30
0.0
  0
VERTEX
  5
EBC
330
5BD
100
AcDbEntity
  8
L1
100
AcDbVertex
100
AcDb2dVertex
 10
241.9420894086907
 20
146.1003791876303
 30
0.0
  0
VERTEX
  5
EBD
330
5BD
100
AcDbEntity
  8
L1
100
AcDbVertex
100
AcDb2dVertex
 10
241.9049769710571
 20
146.1371447278246
 30
0.0
  0
VERTEX
  5
EBE
330
5BD
100
AcDbEntity
  8
L1
100
AcDbVertex
100
AcDb2dVertex
 10
241.8644309555137
 20
146.1774826147273
 30
0.0
  0
VERTEX
  5
EBF
330
5BD
100
AcDbEntity
  8
L1
100
AcDbVertex
100
AcDb2dVertex
 10
241.8224531919866
 20
146.2193845071406
 30
0.0
  0
SEQEND
  5
EC0
330
5BD
100
AcDbEntity
  8
L1
  0
POLYLINE
  5
5C8
330
2
100
AcDbEntity
  8
L1
100
AcDb2dPolyline
 66
     1
 10
0.0
 20
0.0
 30
0.0
  0
VERTEX
  5
EC1
330
5C8
100
AcDbEntity
  8
L1
100
AcDbVertex
100
AcDb2dVertex
 10
242.0562268616236
 20
146.0053574851624
 30
0.0
  0
VERTEX
  5
EC2
330
5C8
100
AcDbEntity
  8
L1
100
AcDbVertex
100
AcDb2dVertex
 10
242.0389247189286
 20
146.006583166668
 30
0.0
  0
SEQEND
  5
EC3
330
5C8
100
AcDbEntity
  8
L1
  0
LINE
  5
5CC
330
2
100
AcDbEntity
  8
L1
100
AcDbLine
 10
241.6237396225679
 20
146.4378447242181
 30
0.0
 11
242.0562268616236
 21
146.0053574851625
 31
0.0
  0
CIRCLE
  5
5CD
330
2
100
AcDbEntity
  8
L1
100
AcDbCircle
 10
248.5094122692308
 20
121.3001923828626
 30
0.0
 40
4.091897474510698
  0
LINE
  5
5CE
330
2
100
AcDbEntity
  8
L6
 48
0.3
100
AcDbLine
 10
248.5094122692308
 20
116.3001923828624
 30
0.0
 11
248.5094122692308
 21
126.3001923828624
 31
0.0
  0
LINE
  5
5CF
330
2
100
AcDbEntity
  8
L6
 48
0.3
100
AcDbLine
 10
243.5094122692309
 20
121.3001923828624
 30
0.0
 11
253.5094122692309
 21
121.3001923828624
 31
0.0
  0
CIRCLE
  5
5D0
330
2
100
AcDbEntity
  8
L1
100
AcDbCircle
 10
248.5094122692308
 20
121.3001923828626
 30
0.0
 40
1.6
  0
CIRCLE
  5
5D1
330
2
100
AcDbEntity
  8
L1
100
AcDbCircle
 10
248.5094122692308
 20
121.3001923828626
 30
0.0
 40
1.25
  0
CIRCLE
  5
5D2
330
2
100
AcDbEntity
  8
L1
100
AcDbCircle
 10
256.0094122692309
 20
141.3001923828626
 30
0.0
 40
4.091897474510698
  0
LINE
  5
5D3
330
2
100
AcDbEntity
  8
L6
 48
0.3
100
AcDbLine
 10
251.0094122692308
 20
141.3001923828624
 30
0.0
 11
261.0094122692308
 21
141.3001923828624
 31
0.0
  0
LINE
  5
5D4
330
2
100
AcDbEntity
  8
L6
 48
0.3
100
AcDbLine
 10
256.0094122692309
 20
136.3001923828624
 30
0.0
 11
256.0094122692309
 21
146.3001923828624
 31
0.0
  0
POLYLINE
  5
5D5
330
2
100
AcDbEntity
  8
L1
100
AcDb2dPolyline
 66
     1
 10
0.0
 20
0.0
 30
0.0
  0
VERTEX
  5
EC4
330
5D5
100
AcDbEntity
  8
L1
100
AcDbVertex
100
AcDb2dVertex
 10
245.2337965417441
 20
146.2462254429901
 30
0.0
  0
VERTEX
  5
EC5
330
5D5
100
AcDbEntity
  8
L1
100
AcDbVertex
100
AcDb2dVertex
 10
245.3036964626519
 20
146.0403111214928
 30
0.0
  0
VERTEX
  5
EC6
330
5D5
100
AcDbEntity
  8
L1
100
AcDbVertex
100
AcDb2dVertex
 10
245.216115916414
 20
145.8412725456808
 30
0.0
  0
SEQEND
  5
EC7
330
5D5
100
AcDbEntity
  8
L1
  0
POLYLINE
  5
5DA
330
2
100
AcDbEntity
  8
L1
100
AcDb2dPolyline
 66
     1
 10
0.0
 20
0.0
 30
0.0
  0
VERTEX
  5
EC8
330
5DA
100
AcDbEntity
  8
L1
100
AcDbVertex
100
AcDb2dVertex
 10
245.0043847730184
 20
146.2562417771269
 30
0.0
  0
VERTEX
  5
EC9
330
5DA
100
AcDbEntity
  8
L1
100
AcDbVertex
100
AcDb2dVertex
 10
245.0742846939262
 20
146.0503274556297
 30
0.0
  0
VERTEX
  5
ECA
330
5DA
100
AcDbEntity
  8
L1
100
AcDbVertex
100
AcDb2dVertex
 10
244.9867041476884
 20
145.8512888798177
 30
0.0
  0
SEQEND
  5
ECB
330
5DA
100
AcDbEntity
  8
L1
  0
LINE
  5
5DF
330
2
100
AcDbEntity
  8
L1
100
AcDbLine
 10
245.216115916414
 20
145.8412725456808
 30
0.0
 11
243.9683321064127
 21
144.5934887356796
 31
0.0
  0
LINE
  5
5E0
330
2
100
AcDbEntity
  8
L1
100
AcDbLine
 10
244.9867041476883
 20
145.8512888798177
 30
0.0
 11
243.9583157722759
 21
144.8229005044052
 31
0.0
  0
POLYLINE
  5
5E1
330
2
100
AcDbEntity
  8
L1
100
AcDb2dPolyline
 66
     1
 10
0.0
 20
0.0
 30
0.0
  0
VERTEX
  5
ECC
330
5E1
100
AcDbEntity
  8
L1
100
AcDbVertex
100
AcDb2dVertex
 10
243.5633792091035
 20
144.5758081103496
 30
0.0
  0
VERTEX
  5
ECD
330
5E1
100
AcDbEntity
  8
L1
100
AcDbVertex
100
AcDb2dVertex
 10
243.7692935306007
 20
144.5059081894418
 30
0.0
  0
VERTEX
  5
ECE
330
5E1
100
AcDbEntity
  8
L1
100
AcDbVertex
100
AcDb2dVertex
 10
243.9683321064129
 20
144.5934887356796
 30
0.0
  0
SEQEND
  5
ECF
330
5E1
100
AcDbEntity
  8
L1
  0
POLYLINE
  5
5E6
330
2
100
AcDbEntity
  8
L1
100
AcDb2dPolyline
 66
     1
 10
0.0
 20
0.0
 30
0.0
  0
VERTEX
  5
ED0
330
5E6
100
AcDbEntity
  8
L1
100
AcDbVertex
100
AcDb2dVertex
 10
243.9583157722759
 20
144.8229005044052
 30
0.0
  0
VERTEX
  5
ED1
330
5E6
100
AcDbEntity
  8
L1
100
AcDbVertex
100
AcDb2dVertex
 10
243.7592771964639
 20
144.7353199581673
 30
0.0
  0
VERTEX
  5
ED2
330
5E6
100
AcDbEntity
  8
L1
100
AcDbVertex
100
AcDb2dVertex
 10
243.5533628749666
 20
144.8052198790751
 30
0.0
  0
SEQEND
  5
ED3
330
5E6
100
AcDbEntity
  8
L1
  0
LINE
  5
5EB
330
2
100
AcDbEntity
  8
L1
100
AcDbLine
 10
243.3901103680121
 20
148.187261237048
 30
0.0
 11
243.5902201449529
 21
147.9871514601071
 31
0.0
  0
POLYLINE
  5
5EC
330
2
100
AcDbEntity
  8
L1
100
AcDb2dPolyline
 66
     1
 10
0.0
 20
0.0
 30
0.0
  0
VERTEX
  5
ED4
330
5EC
100
AcDbEntity
  8
L1
100
AcDbVertex
100
AcDb2dVertex
 10
243.3717599278755
 20
148.1858650295257
 30
0.0
  0
VERTEX
  5
ED5
330
5EC
100
AcDbEntity
  8
L1
100
AcDbVertex
100
AcDb2dVertex
 10
243.3901103680121
 20
148.187261237048
 30
0.0
  0
SEQEND
  5
ED6
330
5EC
100
AcDbEntity
  8
L1
  0
LINE
  5
5F0
330
2
100
AcDbEntity
  8
L1
100
AcDbLine
 10
243.8042471669311
 20
147.7533777904701
 30
0.0
 11
243.3717599278755
 21
148.1858650295257
 31
0.0
  0
POLYLINE
  5
5F1
330
2
100
AcDbEntity
  8
L1
100
AcDb2dPolyline
 66
     1
 10
0.0
 20
0.0
 30
0.0
  0
VERTEX
  5
ED7
330
5F1
100
AcDbEntity
  8
L1
100
AcDbVertex
100
AcDb2dVertex
 10
243.8030214854256
 20
147.770679933165
 30
0.0
  0
VERTEX
  5
ED8
330
5F1
100
AcDbEntity
  8
L1
100
AcDbVertex
100
AcDb2dVertex
 10
243.8042471669311
 20
147.7533777904701
 30
0.0
  0
SEQEND
  5
ED9
330
5F1
100
AcDbEntity
  8
L1
  0
POLYLINE
  5
5F5
330
2
100
AcDbEntity
  8
L1
100
AcDb2dPolyline
 66
     1
 10
0.0
 20
0.0
 30
0.0
  0
VERTEX
  5
EDA
330
5F5
100
AcDbEntity
  8
L1
100
AcDbVertex
100
AcDb2dVertex
 10
243.5902201449529
 20
147.9871514601071
 30
0.0
  0
VERTEX
  5
EDB
330
5F5
100
AcDbEntity
  8
L1
100
AcDbVertex
100
AcDb2dVertex
 10
243.6321220373662
 20
147.94517369658
 30
0.0
  0
VERTEX
  5
EDC
330
5F5
100
AcDbEntity
  8
L1
100
AcDbVertex
100
AcDb2dVertex
 10
243.672459924269
 20
147.9046276810366
 30
0.0
  0
VERTEX
  5
EDD
330
5F5
100
AcDbEntity
  8
L1
100
AcDbVertex
100
AcDb2dVertex
 10
243.7092254644633
 20
147.8675152434028
 30
0.0
  0
VERTEX
  5
EDE
330
5F5
100
AcDbEntity
  8
L1
100
AcDbVertex
100
AcDb2dVertex
 10
243.7416736475858
 20
147.8346081124898
 30
0.0
  0
VERTEX
  5
EDF
330
5F5
100
AcDbEntity
  8
L1
100
AcDbVertex
100
AcDb2dVertex
 10
243.7677653463
 20
147.8079533163187
 30
0.0
  0
VERTEX
  5
EE0
330
5F5
100
AcDbEntity
  8
L1
100
AcDbVertex
100
AcDb2dVertex
 10
243.7874369918777
 20
147.7876435906235
 30
0.0
  0
VERTEX
  5
EE1
330
5F5
100
AcDbEntity
  8
L1
100
AcDbVertex
100
AcDb2dVertex
 10
243.798823406504
 20
147.7755818357995
 30
0.0
  0
VERTEX
  5
EE2
330
5F5
100
AcDbEntity
  8
L1
100
AcDbVertex
100
AcDb2dVertex
 10
243.8030214854256
 20
147.7706799331649
 30
0.0
  0
SEQEND
  5
EE3
330
5F5
100
AcDbEntity
  8
L1
  0
ARC
  5
600
330
2
100
AcDbEntity
  8
L1
100
AcDbCircle
 10
236.7594122692311
 20
153.0501923828625
 30
0.0
 40
8.813962988465215
100
AcDbArc
 50
323.0615165490801
 51
324.2857253527238
  0
POLYLINE
  5
601
330
2
100
AcDbEntity
  8
L1
100
AcDb2dPolyline
 66
     1
 10
0.0
 20
0.0
 30
0.0
  0
VERTEX
  5
EE4
330
601
100
AcDbEntity
  8
L1
100
AcDbVertex
100
AcDb2dVertex
 10
244.127000918289
 20
147.9103797783612
 30
0.0
  0
VERTEX
  5
EE5
330
601
100
AcDbEntity
  8
L1
100
AcDbVertex
100
AcDb2dVertex
 10
244.1001492695912
 20
147.8633451290925
 30
0.0
  0
VERTEX
  5
EE6
330
601
100
AcDbEntity
  8
L1
100
AcDbVertex
100
AcDb2dVertex
 10
244.0808821364457
 20
147.8068565638058
 30
0.0
  0
VERTEX
  5
EE7
330
601
100
AcDbEntity
  8
L1
100
AcDbVertex
100
AcDb2dVertex
 10
244.0731790315104
 20
147.7476717768998
 30
0.0
  0
VERTEX
  5
EE8
330
601
100
AcDbEntity
  8
L1
100
AcDbVertex
100
AcDb2dVertex
 10
244.076878978394
 20
147.6909393325873
 30
0.0
  0
VERTEX
  5
EE9
330
601
100
AcDbEntity
  8
L1
100
AcDbVertex
100
AcDb2dVertex
 10
244.091215860727
 20
147.6359237448203
 30
0.0
  0
VERTEX
  5
EEA
330
601
100
AcDbEntity
  8
L1
100
AcDbVertex
100
AcDb2dVertex
 10
244.1432307816772
 20
147.54591110551
 30
0.0
  0
SEQEND
  5
EEB
330
601
100
AcDbEntity
  8
L1
  0
LINE
  5
60A
330
2
100
AcDbEntity
  8
L1
100
AcDbLine
 10
244.1432307816772
 20
147.54591110551
 30
0.0
 11
245.2337965417441
 21
146.2462254429901
 31
0.0
  0
LINE
  5
60B
330
2
100
AcDbEntity
  8
L1
100
AcDbLine
 10
243.9295723727015
 20
147.5371533165695
 30
0.0
 11
245.0043847730184
 21
146.2562417771269
 31
0.0
  0
POLYLINE
  5
60C
330
2
100
AcDbEntity
  8
L1
100
AcDb2dPolyline
 66
     1
 10
0.0
 20
0.0
 30
0.0
  0
VERTEX
  5
EEC
330
60C
100
AcDbEntity
  8
L1
100
AcDbVertex
100
AcDb2dVertex
 10
243.8612793235868
 20
147.6963456338144
 30
0.0
  0
VERTEX
  5
EED
330
60C
100
AcDbEntity
  8
L1
100
AcDbVertex
100
AcDb2dVertex
 10
243.8601916045714
 20
147.7519306368591
 30
0.0
  0
VERTEX
  5
EEE
330
60C
100
AcDbEntity
  8
L1
100
AcDbVertex
100
AcDb2dVertex
 10
243.8703497096903
 20
147.8103352655065
 30
0.0
  0
VERTEX
  5
EEF
330
60C
100
AcDbEntity
  8
L1
100
AcDbVertex
100
AcDb2dVertex
 10
243.8917942831796
 20
147.8656020903844
 30
0.0
  0
VERTEX
  5
EF0
330
60C
100
AcDbEntity
  8
L1
100
AcDbVertex
100
AcDb2dVertex
 10
243.9158047943434
 20
147.9050986433326
 30
0.0
  0
SEQEND
  5
EF1
330
60C
100
AcDbEntity
  8
L1
  0
POLYLINE
  5
613
330
2
100
AcDbEntity
  8
L1
100
AcDb2dPolyline
 66
     1
 10
0.0
 20
0.0
 30
0.0
  0
VERTEX
  5
EF2
330
613
100
AcDbEntity
  8
L1
100
AcDbVertex
100
AcDb2dVertex
 10
243.9295723727015
 20
147.5371533165695
 30
0.0
  0
VERTEX
  5
EF3
330
613
100
AcDbEntity
  8
L1
100
AcDbVertex
100
AcDb2dVertex
 10
243.9255202359437
 20
147.5420881828837
 30
0.0
  0
VERTEX
  5
EF4
330
613
100
AcDbEntity
  8
L1
100
AcDbVertex
100
AcDb2dVertex
 10
243.8735979383466
 20
147.6387472200645
 30
0.0
  0
VERTEX
  5
EF5
330
613
100
AcDbEntity
  8
L1
100
AcDbVertex
100
AcDb2dVertex
 10
243.8612793235868
 20
147.6963456338144
 30
0.0
  0
SEQEND
  5
EF6
330
613
100
AcDbEntity
  8
L1
  0
CIRCLE
  5
619
330
2
100
AcDbEntity
  8
L1
100
AcDbCircle
 10
256.0094122692311
 20
141.3001923828626
 30
0.0
 40
1.6
  0
CIRCLE
  5
61A
330
2
100
AcDbEntity
  8
L1
100
AcDbCircle
 10
256.0094122692311
 20
141.3001923828626
 30
0.0
 40
1.25
  0
ARC
  5
61B
330
2
100
AcDbEntity
  8
L1
100
AcDbCircle
 10
293.5094122692311
 20
101.3001923828626
 30
0.0
 40
4.091897474510698
100
AcDbArc
 50
90.0
 51
270.0
  0
ARC
  5
61C
330
2
100
AcDbEntity
  8
L1
100
AcDbCircle
 10
293.5094122692311
 20
101.3001923828626
 30
0.0
 40
4.091897474510698
100
AcDbArc
 50
270.0
 51
90.0
  0
ARC
  5
61D
330
2
100
AcDbEntity
  8
L1
100
AcDbCircle
 10
293.5094122692311
 20
101.3001923828626
 30
0.0
 40
1.6
100
AcDbArc
 50
270.0
 51
90.0
  0
ARC
  5
61E
330
2
100
AcDbEntity
  8
L1
100
AcDbCircle
 10
293.5094122692311
 20
101.3001923828626
 30
0.0
 40
1.25
100
AcDbArc
 50
270.0
 51
90.0
  0
ARC
  5
61F
330
2
100
AcDbEntity
  8
L1
100
AcDbCircle
 10
293.5094122692311
 20
101.3001923828626
 30
0.0
 40
1.25
100
AcDbArc
 50
90.0
 51
270.0
  0
ARC
  5
620
330
2
100
AcDbEntity
  8
L1
100
AcDbCircle
 10
293.5094122692311
 20
101.3001923828626
 30
0.0
 40
1.6
100
AcDbArc
 50
90.0
 51
270.0
  0
LINE
  5
621
330
2
100
AcDbEntity
  8
L6
 48
0.3
100
AcDbLine
 10
331.0094122692313
 20
96.30019238286244
 30
0.0
 11
331.0094122692313
 21
106.3001923828624
 31
0.0
  0
CIRCLE
  5
622
330
2
100
AcDbEntity
  8
L1
100
AcDbCircle
 10
331.0094122692313
 20
101.3001923828626
 30
0.0
 40
4.091897474510698
  0
CIRCLE
  5
623
330
2
100
AcDbEntity
  8
L1
100
AcDbCircle
 10
331.0094122692313
 20
101.3001923828626
 30
0.0
 40
1.6
  0
CIRCLE
  5
624
330
2
100
AcDbEntity
  8
L1
100
AcDbCircle
 10
331.0094122692313
 20
101.3001923828626
 30
0.0
 40
1.25
  0
LINE
  5
625
330
2
100
AcDbEntity
  8
L1
100
AcDbLine
 10
293.5094122692311
 20
84.6729812410366
 30
0.0
 11
340.6594122692311
 21
84.6729812410367
 31
0.0
  0
LINE
  5
626
330
2
100
AcDbEntity
  8
L1
100
AcDbLine
 10
340.6594122692311
 20
82.02750252472172
 30
0.0
 11
293.5094122692311
 21
82.02750252472172
 31
0.0
  0
LINE
  5
627
330
2
100
AcDbEntity
  8
L1
 62
     7
100
AcDbLine
 10
293.5094122692311
 20
87.0613825833991
 30
0.0
 11
340.6761708917867
 21
87.0613825833991
 31
0.0
  0
LINE
  5
628
330
2
100
AcDbEntity
  8
L6
 48
0.3
100
AcDbLine
 10
288.5094122692311
 20
101.3001923828624
 30
0.0
 11
298.5094122692311
 21
101.3001923828624
 31
0.0
  0
LINE
  5
629
330
2
100
AcDbEntity
  8
L6
 48
0.3
100
AcDbLine
 10
336.0094122692313
 20
101.3001923828624
 30
0.0
 11
326.0094122692313
 21
101.3001923828624
 31
0.0
  0
CIRCLE
  5
62A
330
2
100
AcDbEntity
  8
L1
100
AcDbCircle
 10
-293.5094122692311
 20
121.3001923828626
 30
0.0
 40
1.0
210
0.0
220
0.0
230
-1.0
  0
CIRCLE
  5
62B
330
2
100
AcDbEntity
  8
L1
100
AcDbCircle
 10
-293.5094122692311
 20
121.3001923828626
 30
0.0
 40
1.0
210
0.0
220
0.0
230
-1.0
  0
ARC
  5
62C
330
2
100
AcDbEntity
  8
L1
100
AcDbCircle
 10
293.5094122692311
 20
141.3001923828626
 30
0.0
 40
4.091897474510698
100
AcDbArc
 50
90.0
 51
270.0
  0
LINE
  5
62D
330
2
100
AcDbEntity
  8
L6
 48
0.3
100
AcDbLine
 10
288.5094122692311
 20
141.3001923828624
 30
0.0
 11
298.5094122692311
 21
141.3001923828624
 31
0.0
  0
ARC
  5
62E
330
2
100
AcDbEntity
  8
L1
100
AcDbCircle
 10
293.5094122692311
 20
141.3001923828626
 30
0.0
 40
1.6
100
AcDbArc
 50
90.0
 51
270.0
  0
ARC
  5
62F
330
2
100
AcDbEntity
  8
L1
100
AcDbCircle
 10
293.5094122692311
 20
141.3001923828626
 30
0.0
 40
4.091897474510698
100
AcDbArc
 50
270.0
 51
90.0
  0
ARC
  5
630
330
2
100
AcDbEntity
  8
L1
100
AcDbCircle
 10
293.5094122692311
 20
141.3001923828626
 30
0.0
 40
1.6
100
AcDbArc
 50
270.0
 51
90.0
  0
ARC
  5
631
330
2
100
AcDbEntity
  8
L1
100
AcDbCircle
 10
293.5094122692311
 20
141.3001923828626
 30
0.0
 40
1.25
100
AcDbArc
 50
270.0
 51
90.0
  0
ARC
  5
632
330
2
100
AcDbEntity
  8
L1
100
AcDbCircle
 10
293.5094122692311
 20
141.3001923828626
 30
0.0
 40
1.25
100
AcDbArc
 50
90.0
 51
270.0
  0
LINE
  5
633
330
2
100
AcDbEntity
  8
L6
 48
0.3
100
AcDbLine
 10
338.5094122692313
 20
116.3001923828624
 30
0.0
 11
338.5094122692313
 21
126.3001923828624
 31
0.0
  0
CIRCLE
  5
634
330
2
100
AcDbEntity
  8
L1
100
AcDbCircle
 10
338.5094122692313
 20
121.3001923828626
 30
0.0
 40
1.6
  0
CIRCLE
  5
635
330
2
100
AcDbEntity
  8
L1
100
AcDbCircle
 10
338.5094122692313
 20
121.3001923828626
 30
0.0
 40
1.25
  0
LINE
  5
636
330
2
100
AcDbEntity
  8
L6
 48
0.3
100
AcDbLine
 10
331.0094122692313
 20
136.3001923828624
 30
0.0
 11
331.0094122692313
 21
146.3001923828624
 31
0.0
  0
LINE
  5
637
330
2
100
AcDbEntity
  8
L6
 48
0.3
100
AcDbLine
 10
336.0094122692313
 20
141.3001923828624
 30
0.0
 11
326.0094122692313
 21
141.3001923828624
 31
0.0
  0
CIRCLE
  5
638
330
2
100
AcDbEntity
  8
L1
100
AcDbCircle
 10
331.0094122692313
 20
141.3001923828626
 30
0.0
 40
4.091897474510698
  0
CIRCLE
  5
639
330
2
100
AcDbEntity
  8
L1
100
AcDbCircle
 10
331.0094122692311
 20
141.3001923828626
 30
0.0
 40
1.6
  0
CIRCLE
  5
63A
330
2
100
AcDbEntity
  8
L1
100
AcDbCircle
 10
331.0094122692311
 20
141.3001923828626
 30
0.0
 40
1.25
  0
LINE
  5
685
330
2
100
AcDbEntity
  8
L1
 62
     7
100
AcDbLine
 10
352.7482220686948
 20
99.13343376030706
 30
0.0
 11
352.7482220686948
 21
143.4669510054181
 31
0.0
  0
LINE
  5
686
330
2
100
AcDbEntity
  8
L1
100
AcDbLine
 10
355.136623411057
 20
99.15019238286264
 30
0.0
 11
355.136623411057
 21
143.4501923828626
 31
0.0
  0
LINE
  5
687
330
2
100
AcDbEntity
  8
L1
100
AcDbLine
 10
357.782102127372
 20
143.4501923828626
 30
0.0
 11
357.782102127372
 21
99.15019238286264
 31
0.0
  0
LINE
  5
688
330
2
100
AcDbEntity
  8
L1
100
AcDbLine
 10
351.1594122692311
 20
104.5885414631947
 30
0.0
 11
350.259412269231
 21
101.5501923828626
 31
0.0
  0
LINE
  5
68A
330
2
100
AcDbEntity
  8
L1
100
AcDbLine
 10
351.1594122692311
 20
104.5885414631947
 30
0.0
 11
350.259412269231
 21
101.5501923828626
 31
0.0
  0
LINE
  5
68C
330
2
100
AcDbEntity
  8
L1
100
AcDbLine
 10
350.2594122692311
 20
101.5501923828625
 30
0.0
 11
349.359412269231
 21
104.5885414631947
 31
0.0
  0
LINE
  5
68E
330
2
100
AcDbEntity
  8
L1
100
AcDbLine
 10
350.2594122692311
 20
101.5501923828625
 30
0.0
 11
349.359412269231
 21
104.5885414631947
 31
0.0
  0
POLYLINE
  5
693
330
2
100
AcDbEntity
  8
L1
100
AcDb2dPolyline
 66
     1
 10
0.0
 20
0.0
 30
0.0
  0
VERTEX
  5
EF7
330
693
100
AcDbEntity
  8
L1
100
AcDbVertex
100
AcDb2dVertex
 10
358.5542178258412
 20
84.75019238286263
 30
0.0
  0
VERTEX
  5
EF8
330
693
100
AcDbEntity
  8
L1
100
AcDbVertex
100
AcDb2dVertex
 10
358.4881930825608
 20
84.07855810910028
 30
0.0
  0
VERTEX
  5
EF9
330
693
100
AcDbEntity
  8
L1
100
AcDbVertex
100
AcDb2dVertex
 10
358.4043454205679
 20
83.74214707383835
 30
0.0
  0
VERTEX
  5
EFA
330
693
100
AcDbEntity
  8
L1
100
AcDbVertex
100
AcDb2dVertex
 10
358.2868663435934
 20
83.4135550838104
 30
0.0
  0
VERTEX
  5
EFB
330
693
100
AcDbEntity
  8
L1
100
AcDbVertex
100
AcDb2dVertex
 10
358.1371447483534
 20
83.09834533127876
 30
0.0
  0
VERTEX
  5
EFC
330
693
100
AcDbEntity
  8
L1
100
AcDbVertex
100
AcDb2dVertex
 10
357.9581380932125
 20
82.80143002205615
 30
0.0
  0
VERTEX
  5
EFD
330
693
100
AcDbEntity
  8
L1
100
AcDbVertex
100
AcDb2dVertex
 10
357.5291682447746
 20
82.28043640731895
 30
0.0
  0
VERTEX
  5
EFE
330
693
100
AcDbEntity
  8
L1
100
AcDbVertex
100
AcDb2dVertex
 10
357.0081746300374
 20
81.85146655888114
 30
0.0
  0
VERTEX
  5
EFF
330
693
100
AcDbEntity
  8
L1
100
AcDbVertex
100
AcDb2dVertex
 10
356.7112593208148
 20
81.67245990374023
 30
0.0
  0
VERTEX
  5
F00
330
693
100
AcDbEntity
  8
L1
100
AcDbVertex
100
AcDb2dVertex
 10
356.3960495682832
 20
81.52273830850019
 30
0.0
  0
VERTEX
  5
F01
330
693
100
AcDbEntity
  8
L1
100
AcDbVertex
100
AcDb2dVertex
 10
356.0674575782552
 20
81.40525923152573
 30
0.0
  0
VERTEX
  5
F02
330
693
100
AcDbEntity
  8
L1
100
AcDbVertex
100
AcDb2dVertex
 10
355.7310465429935
 20
81.32141156953286
 30
0.0
  0
VERTEX
  5
F03
330
693
100
AcDbEntity
  8
L1
100
AcDbVertex
100
AcDb2dVertex
 10
355.0594122692311
 20
81.25538682625244
 30
0.0
  0
SEQEND
  5
F04
330
693
100
AcDbEntity
  8
L1
  0
ARC
  5
6A2
330
2
100
AcDbEntity
  8
L1
100
AcDbCircle
 10
355.0594122692311
 20
84.75019238286261
 30
0.0
 40
2.899999999999968
100
AcDbArc
 50
270.0
 51
0.0
  0
ARC
  5
6A3
330
2
100
AcDbEntity
  8
L1
100
AcDbCircle
 10
353.7594122692311
 20
99.15019238286259
 30
0.0
 40
4.022689858140836
100
AcDbArc
 50
270.0
 51
0.0
  0
ARC
  5
6A4
330
2
100
AcDbEntity
  8
L1
100
AcDbCircle
 10
350.2594122692311
 20
89.5501923828626
 30
0.0
 40
5.100000000000015
100
AcDbArc
 50
82.99999999999959
 51
187.0000000000001
  0
ARC
  5
6A5
330
2
100
AcDbEntity
  8
L1
100
AcDbCircle
 10
350.2594122692311
 20
89.5501923828626
 30
0.0
 40
5.073819396627722
100
AcDbArc
 50
83.00000000000036
 51
187.0000000000008
  0
CIRCLE
  5
6A6
330
2
100
AcDbEntity
  8
L1
100
AcDbCircle
 10
350.2594122692311
 20
89.55019238286261
 30
0.0
 40
4.0
  0
CIRCLE
  5
6A7
330
2
100
AcDbEntity
  8
L1
100
AcDbCircle
 10
350.2594122692311
 20
89.55019238286274
 30
0.0
 40
2.25
  0
LINE
  5
6A8
330
2
100
AcDbEntity
  8
L1
100
AcDbLine
 10
356.959412269231
 20
95.49904369960895
 30
0.0
 11
356.959412269231
 21
84.75019238286263
 31
0.0
  0
LINE
  5
6A9
330
2
100
AcDbEntity
  8
L1
100
AcDbLine
 10
356.9332316658588
 20
84.75019238286263
 30
0.0
 11
356.9332316658588
 21
95.44173509150711
 31
0.0
  0
LINE
  5
6AA
330
2
100
AcDbEntity
  8
L6
 48
0.3
100
AcDbLine
 10
350.2594122692311
 20
84.55019238286254
 30
0.0
 11
350.2594122692311
 21
94.55019238286254
 31
0.0
  0
ARC
  5
6AB
330
2
100
AcDbEntity
  8
L1
100
AcDbCircle
 10
350.2594122692311
 20
89.5501923828626
 30
0.0
 40
8.222788858174023
100
AcDbArc
 50
143.7438067526894
 51
180.0
  0
ARC
  5
6AC
330
2
100
AcDbEntity
  8
L1
100
AcDbCircle
 10
350.2594122692311
 20
89.5501923828626
 30
0.0
 40
5.577310141859157
100
AcDbArc
 50
90.0
 51
180.0
  0
LINE
  5
6AD
330
2
100
AcDbEntity
  8
L1
100
AcDbLine
 10
355.0594122692311
 20
82.85019238286263
 30
0.0
 11
344.3105609524845
 21
82.85019238286263
 31
0.0
  0
LINE
  5
6AE
330
2
100
AcDbEntity
  8
L1
100
AcDbLine
 10
344.3678695605864
 20
82.8763729862349
 30
0.0
 11
355.0594122692311
 21
82.8763729862349
 31
0.0
  0
LINE
  5
6AF
330
2
100
AcDbEntity
  8
L6
 48
0.3
100
AcDbLine
 10
345.2594122692311
 20
89.55019238286254
 30
0.0
 11
355.2594122692311
 21
89.55019238286254
 31
0.0
  0
ARC
  5
6B0
330
2
100
AcDbEntity
  8
L1
100
AcDbCircle
 10
340.6594122692311
 20
86.05019238286258
 30
0.0
 40
4.881166361046968
100
AcDbArc
 50
319.4420036038607
 51
6.999999999999768
  0
ARC
  5
6B1
330
2
100
AcDbEntity
  8
L1
100
AcDbCircle
 10
340.6594122692311
 20
86.05019238286258
 30
0.0
 40
4.854985757674691
100
AcDbArc
 50
318.7674923253631
 51
6.999999999999952
  0
POLYLINE
  5
6B2
330
2
100
AcDbEntity
  8
L1
100
AcDb2dPolyline
 66
     1
 10
0.0
 20
0.0
 30
0.0
  0
VERTEX
  5
F05
330
6B2
100
AcDbEntity
  8
L1
100
AcDbVertex
100
AcDb2dVertex
 10
344.3678695605863
 20
82.87637298623486
 30
0.0
  0
VERTEX
  5
F06
330
6B2
100
AcDbEntity
  8
L1
100
AcDbVertex
100
AcDb2dVertex
 10
344.3105609524846
 20
82.8501923828626
 30
0.0
  0
SEQEND
  5
F07
330
6B2
100
AcDbEntity
  8
L1
  0
LINE
  5
6B6
330
2
100
AcDbEntity
  8
L1
100
AcDbLine
 10
345.2234123529851
 20
88.93184934443924
 30
0.0
 11
345.5041951564093
 21
86.64505692233467
 31
0.0
  0
LINE
  5
6B7
330
2
100
AcDbEntity
  8
L1
100
AcDbLine
 10
345.4782096992845
 20
86.64186630939175
 30
0.0
 11
345.1974268958603
 21
88.92865873149633
 31
0.0
  0
LINE
  5
6B8
330
2
100
AcDbEntity
  8
L1
100
AcDbLine
 10
342.036623411057
 20
86.05019238286258
 30
0.0
 11
342.036623411057
 21
89.5501923828626
 31
0.0
  0
LINE
  5
6B9
330
2
100
AcDbEntity
  8
L1
100
AcDbLine
 10
341.2761480456251
 20
89.5501923828626
 30
0.0
 11
341.2761480456251
 21
86.46140542956057
 31
0.0
  0
LINE
  5
6BA
330
2
100
AcDbEntity
  8
L1
100
AcDbLine
 10
344.682102127372
 20
89.5501923828626
 30
0.0
 11
344.682102127372
 21
86.05019238286258
 31
0.0
  0
ARC
  5
6BB
330
2
100
AcDbEntity
  8
L1
100
AcDbCircle
 10
355.0594122692311
 20
84.75019238286263
 30
0.0
 40
1.9
100
AcDbArc
 50
270.0
 51
0.0
  0
ARC
  5
6BC
330
2
100
AcDbEntity
  8
L1
100
AcDbCircle
 10
355.0594122692311
 20
84.75019238286263
 30
0.0
 40
1.873819396627723
100
AcDbArc
 50
270.0
 51
0.0
  0
POLYLINE
  5
6BD
330
2
100
AcDbEntity
  8
L1
100
AcDb2dPolyline
 66
     1
 10
0.0
 20
0.0
 30
0.0
  0
VERTEX
  5
F08
330
6BD
100
AcDbEntity
  8
L1
100
AcDbVertex
100
AcDb2dVertex
 10
355.0594122692311
 20
81.25538682625244
 30
0.0
  0
VERTEX
  5
F09
330
6BD
100
AcDbEntity
  8
L1
100
AcDbVertex
100
AcDb2dVertex
 10
355.0568834861628
 20
81.25538410950914
 30
0.0
  0
VERTEX
  5
F0A
330
6BD
100
AcDbEntity
  8
L1
100
AcDbVertex
100
AcDb2dVertex
 10
355.0543547174412
 20
81.25538320392788
 30
0.0
  0
SEQEND
  5
F0B
330
6BD
100
AcDbEntity
  8
L1
  0
ARC
  5
6C2
330
2
100
AcDbEntity
  8
L1
100
AcDbCircle
 10
350.2594122692311
 20
89.5501923828626
 30
0.0
 40
8.983264223605935
100
AcDbArc
 50
90.0
 51
124.9005836332392
  0
ARC
  5
6C3
330
2
100
AcDbEntity
  8
L1
100
AcDbCircle
 10
350.2594122692311
 20
89.5501923828626
 30
0.0
 40
8.222788858174023
100
AcDbArc
 50
90.0
 51
126.2561932473104
  0
LINE
  5
6C4
330
2
100
AcDbEntity
  8
L1
100
AcDbLine
 10
343.0892521657606
 20
95.06323144915562
 30
0.0
 11
342.0144397654437
 21
96.34414298859816
 31
0.0
  0
LINE
  5
6C5
330
2
100
AcDbEntity
  8
L1
100
AcDbLine
 10
342.875593756785
 20
95.05447366021506
 30
0.0
 11
341.785027996718
 21
96.35415932273504
 31
0.0
  0
LINE
  5
6C6
330
2
100
AcDbEntity
  8
L1
100
AcDbLine
 10
345.3950849158942
 20
96.16254004150697
 30
0.0
 11
344.9625976768386
 21
96.59502728056263
 31
0.0
  0
LINE
  5
6C7
330
2
100
AcDbEntity
  8
L1
100
AcDbLine
 10
345.1963713464755
 20
96.38100025858449
 30
0.0
 11
345.3964811234165
 21
96.18089048164351
 31
0.0
  0
ARC
  5
6C8
330
2
100
AcDbEntity
  8
L1
100
AcDbCircle
 10
350.2594122692311
 20
89.5501923828626
 30
0.0
 40
8.208825869708812
100
AcDbArc
 50
126.3397989149938
 51
143.660201085007
  0
ARC
  5
6C9
330
2
100
AcDbEntity
  8
L1
100
AcDbCircle
 10
350.2594122692311
 20
89.5501923828626
 30
0.0
 40
8.813962988465215
100
AcDbArc
 50
143.0615165490802
 51
144.285725352724
  0
POLYLINE
  5
6CA
330
2
100
AcDbEntity
  8
L1
100
AcDb2dPolyline
 66
     1
 10
0.0
 20
0.0
 30
0.0
  0
VERTEX
  5
F0C
330
6CA
100
AcDbEntity
  8
L1
100
AcDbVertex
100
AcDb2dVertex
 10
343.0892521657606
 20
95.06323144915562
 30
0.0
  0
VERTEX
  5
F0D
330
6CA
100
AcDbEntity
  8
L1
100
AcDbVertex
100
AcDb2dVertex
 10
343.1377430212655
 20
94.98240718608833
 30
0.0
  0
VERTEX
  5
F0E
330
6CA
100
AcDbEntity
  8
L1
100
AcDbVertex
100
AcDb2dVertex
 10
343.1575452148753
 20
94.9040391319107
 30
0.0
  0
SEQEND
  5
F0F
330
6CA
100
AcDbEntity
  8
L1
  0
POLYLINE
  5
6CF
330
2
100
AcDbEntity
  8
L1
100
AcDb2dPolyline
 66
     1
 10
0.0
 20
0.0
 30
0.0
  0
VERTEX
  5
F10
330
6CF
100
AcDbEntity
  8
L1
100
AcDbVertex
100
AcDb2dVertex
 10
343.1575452148753
 20
94.9040391319107
 30
0.0
  0
VERTEX
  5
F11
330
6CF
100
AcDbEntity
  8
L1
100
AcDbVertex
100
AcDb2dVertex
 10
343.1594350910987
 20
94.87146353913722
 30
0.0
  0
VERTEX
  5
F12
330
6CF
100
AcDbEntity
  8
L1
100
AcDbVertex
100
AcDb2dVertex
 10
343.1537703449686
 20
94.81237196788665
 30
0.0
  0
VERTEX
  5
F13
330
6CF
100
AcDbEntity
  8
L1
100
AcDbVertex
100
AcDb2dVertex
 10
343.1365808183386
 20
94.75555272496256
 30
0.0
  0
VERTEX
  5
F14
330
6CF
100
AcDbEntity
  8
L1
100
AcDbVertex
100
AcDb2dVertex
 10
343.1030197441186
 20
94.69528612239246
 30
0.0
  0
SEQEND
  5
F15
330
6CF
100
AcDbEntity
  8
L1
  0
POLYLINE
  5
6D6
330
2
100
AcDbEntity
  8
L1
100
AcDb2dPolyline
 66
     1
 10
0.0
 20
0.0
 30
0.0
  0
VERTEX
  5
F16
330
6D6
100
AcDbEntity
  8
L1
100
AcDbVertex
100
AcDb2dVertex
 10
342.8918236201731
 20
94.69000498736388
 30
0.0
  0
VERTEX
  5
F17
330
6D6
100
AcDbEntity
  8
L1
100
AcDbVertex
100
AcDb2dVertex
 10
342.9315934220401
 20
94.77048933072682
 30
0.0
  0
VERTEX
  5
F18
330
6D6
100
AcDbEntity
  8
L1
100
AcDbVertex
100
AcDb2dVertex
 10
342.943883787337
 20
94.82798352715171
 30
0.0
  0
VERTEX
  5
F19
330
6D6
100
AcDbEntity
  8
L1
100
AcDbVertex
100
AcDb2dVertex
 10
342.9447244381706
 20
94.88677066029366
 30
0.0
  0
VERTEX
  5
F1A
330
6D6
100
AcDbEntity
  8
L1
100
AcDbVertex
100
AcDb2dVertex
 10
342.9348101645404
 20
94.94202075470271
 30
0.0
  0
VERTEX
  5
F1B
330
6D6
100
AcDbEntity
  8
L1
100
AcDbVertex
100
AcDb2dVertex
 10
342.9147766941001
 20
94.99445669712519
 30
0.0
  0
VERTEX
  5
F1C
330
6D6
100
AcDbEntity
  8
L1
100
AcDbVertex
100
AcDb2dVertex
 10
342.875593756785
 20
95.0544736602151
 30
0.0
  0
SEQEND
  5
F1D
330
6D6
100
AcDbEntity
  8
L1
  0
POLYLINE
  5
6DF
330
2
100
AcDbEntity
  8
L1
100
AcDb2dPolyline
 66
     1
 10
0.0
 20
0.0
 30
0.0
  0
VERTEX
  5
F1E
330
6DF
100
AcDbEntity
  8
L1
100
AcDbVertex
100
AcDb2dVertex
 10
343.2158030530366
 20
94.82970483256007
 30
0.0
  0
VERTEX
  5
F1F
330
6DF
100
AcDbEntity
  8
L1
100
AcDbVertex
100
AcDb2dVertex
 10
343.2145773715309
 20
94.84700697525502
 30
0.0
  0
SEQEND
  5
F20
330
6DF
100
AcDbEntity
  8
L1
  0
POLYLINE
  5
6E3
330
2
100
AcDbEntity
  8
L1
100
AcDb2dPolyline
 66
     1
 10
0.0
 20
0.0
 30
0.0
  0
VERTEX
  5
F21
330
6E3
100
AcDbEntity
  8
L1
100
AcDbVertex
100
AcDb2dVertex
 10
343.4286043935092
 20
94.61323330561807
 30
0.0
  0
VERTEX
  5
F22
330
6E3
100
AcDbEntity
  8
L1
100
AcDbVertex
100
AcDb2dVertex
 10
343.3867025010959
 20
94.65521106914513
 30
0.0
  0
VERTEX
  5
F23
330
6E3
100
AcDbEntity
  8
L1
100
AcDbVertex
100
AcDb2dVertex
 10
343.3463646141932
 20
94.69575708468857
 30
0.0
  0
VERTEX
  5
F24
330
6E3
100
AcDbEntity
  8
L1
100
AcDbVertex
100
AcDb2dVertex
 10
343.3095990739989
 20
94.73286952232221
 30
0.0
  0
VERTEX
  5
F25
330
6E3
100
AcDbEntity
  8
L1
100
AcDbVertex
100
AcDb2dVertex
 10
343.2771508908763
 20
94.76577665323523
 30
0.0
  0
VERTEX
  5
F26
330
6E3
100
AcDbEntity
  8
L1
100
AcDbVertex
100
AcDb2dVertex
 10
343.2510591921622
 20
94.79243144940635
 30
0.0
  0
VERTEX
  5
F27
330
6E3
100
AcDbEntity
  8
L1
100
AcDbVertex
100
AcDb2dVertex
 10
343.2313875465844
 20
94.81274117510164
 30
0.0
  0
VERTEX
  5
F28
330
6E3
100
AcDbEntity
  8
L1
100
AcDbVertex
100
AcDb2dVertex
 10
343.2200011319582
 20
94.8248029299256
 30
0.0
  0
VERTEX
  5
F29
330
6E3
100
AcDbEntity
  8
L1
100
AcDbVertex
100
AcDb2dVertex
 10
343.2158030530366
 20
94.82970483256009
 30
0.0
  0
SEQEND
  5
F2A
330
6E3
100
AcDbEntity
  8
L1
  0
LINE
  5
6EE
330
2
100
AcDbEntity
  8
L1
100
AcDbLine
 10
343.6287141704501
 20
94.41312352867704
 30
0.0
 11
343.4286043935091
 21
94.61323330561803
 31
0.0
  0
POLYLINE
  5
6EF
330
2
100
AcDbEntity
  8
L1
100
AcDb2dPolyline
 66
     1
 10
0.0
 20
0.0
 30
0.0
  0
VERTEX
  5
F2B
330
6EF
100
AcDbEntity
  8
L1
100
AcDbVertex
100
AcDb2dVertex
 10
343.6470646105867
 20
94.41451973619932
 30
0.0
  0
VERTEX
  5
F2C
330
6EF
100
AcDbEntity
  8
L1
100
AcDbVertex
100
AcDb2dVertex
 10
343.62871417045
 20
94.41312352867708
 30
0.0
  0
SEQEND
  5
F2D
330
6EF
100
AcDbEntity
  8
L1
  0
LINE
  5
6F3
330
2
100
AcDbEntity
  8
L1
100
AcDbLine
 10
343.214577371531
 20
94.84700697525502
 30
0.0
 11
343.6470646105867
 21
94.41451973619932
 31
0.0
  0
POLYLINE
  5
6F4
330
2
100
AcDbEntity
  8
L1
100
AcDb2dPolyline
 66
     1
 10
0.0
 20
0.0
 30
0.0
  0
VERTEX
  5
F2E
330
6F4
100
AcDbEntity
  8
L1
100
AcDbVertex
100
AcDb2dVertex
 10
345.3964811234165
 20
96.18089048164351
 30
0.0
  0
VERTEX
  5
F2F
330
6F4
100
AcDbEntity
  8
L1
100
AcDbVertex
100
AcDb2dVertex
 10
345.3950849158943
 20
96.16254004150697
 30
0.0
  0
SEQEND
  5
F30
330
6F4
100
AcDbEntity
  8
L1
  0
LINE
  5
6F8
330
2
100
AcDbEntity
  8
L1
100
AcDbLine
 10
342.0321203907738
 20
96.74909588590747
 30
0.0
 11
343.0605087661862
 21
97.77748426131992
 31
0.0
  0
LINE
  5
6F9
330
2
100
AcDbEntity
  8
L1
100
AcDbLine
 10
341.8027086220481
 20
96.75911222004437
 30
0.0
 11
343.0504924320493
 21
98.00689603004558
 31
0.0
  0
LINE
  5
6FA
330
2
100
AcDbEntity
  8
L1
100
AcDbLine
 10
343.4654616634954
 20
97.79516488664995
 30
0.0
 11
344.746373202938
 21
96.72035248633298
 31
0.0
  0
LINE
  5
6FB
330
2
100
AcDbEntity
  8
L1
100
AcDbLine
 10
343.4554453293586
 20
98.02457665537565
 30
0.0
 11
344.7551309918786
 21
96.93401089530871
 31
0.0
  0
POLYLINE
  5
6FC
330
2
100
AcDbEntity
  8
L1
100
AcDb2dPolyline
 66
     1
 10
0.0
 20
0.0
 30
0.0
  0
VERTEX
  5
F31
330
6FC
100
AcDbEntity
  8
L1
100
AcDbVertex
100
AcDb2dVertex
 10
342.0144397654437
 20
96.34414298859816
 30
0.0
  0
VERTEX
  5
F32
330
6FC
100
AcDbEntity
  8
L1
100
AcDbVertex
100
AcDb2dVertex
 10
341.9445398445359
 20
96.55005731009545
 30
0.0
  0
VERTEX
  5
F33
330
6FC
100
AcDbEntity
  8
L1
100
AcDbVertex
100
AcDb2dVertex
 10
342.0321203907738
 20
96.74909588590747
 30
0.0
  0
SEQEND
  5
F34
330
6FC
100
AcDbEntity
  8
L1
  0
POLYLINE
  5
701
330
2
100
AcDbEntity
  8
L1
100
AcDb2dPolyline
 66
     1
 10
0.0
 20
0.0
 30
0.0
  0
VERTEX
  5
F35
330
701
100
AcDbEntity
  8
L1
100
AcDbVertex
100
AcDb2dVertex
 10
341.7850279967181
 20
96.35415932273508
 30
0.0
  0
VERTEX
  5
F36
330
701
100
AcDbEntity
  8
L1
100
AcDbVertex
100
AcDb2dVertex
 10
341.7151280758103
 20
96.56007364423233
 30
0.0
  0
VERTEX
  5
F37
330
701
100
AcDbEntity
  8
L1
100
AcDbVertex
100
AcDb2dVertex
 10
341.8027086220481
 20
96.75911222004435
 30
0.0
  0
SEQEND
  5
F38
330
701
100
AcDbEntity
  8
L1
  0
POLYLINE
  5
706
330
2
100
AcDbEntity
  8
L1
100
AcDb2dPolyline
 66
     1
 10
0.0
 20
0.0
 30
0.0
  0
VERTEX
  5
F39
330
706
100
AcDbEntity
  8
L1
100
AcDbVertex
100
AcDb2dVertex
 10
344.9055655201829
 20
96.65205943721836
 30
0.0
  0
VERTEX
  5
F3A
330
706
100
AcDbEntity
  8
L1
100
AcDbVertex
100
AcDb2dVertex
 10
344.9033951388644
 20
96.65231235054029
 30
0.0
  0
VERTEX
  5
F3B
330
706
100
AcDbEntity
  8
L1
100
AcDbVertex
100
AcDb2dVertex
 10
344.8242737093448
 20
96.67305628982951
 30
0.0
  0
VERTEX
  5
F3C
330
706
100
AcDbEntity
  8
L1
100
AcDbVertex
100
AcDb2dVertex
 10
344.7523117481595
 20
96.71549746599922
 30
0.0
  0
VERTEX
  5
F3D
330
706
100
AcDbEntity
  8
L1
100
AcDbVertex
100
AcDb2dVertex
 10
344.746373202938
 20
96.72035248633299
 30
0.0
  0
SEQEND
  5
F3E
330
706
100
AcDbEntity
  8
L1
  0
POLYLINE
  5
70D
330
2
100
AcDbEntity
  8
L1
100
AcDb2dPolyline
 66
     1
 10
0.0
 20
0.0
 30
0.0
  0
VERTEX
  5
F3F
330
70D
100
AcDbEntity
  8
L1
100
AcDbVertex
100
AcDb2dVertex
 10
344.9625976768386
 20
96.59502728056267
 30
0.0
  0
VERTEX
  5
F40
330
70D
100
AcDbEntity
  8
L1
100
AcDbVertex
100
AcDb2dVertex
 10
344.9798998195335
 20
96.59380159905708
 30
0.0
  0
SEQEND
  5
F41
330
70D
100
AcDbEntity
  8
L1
  0
POLYLINE
  5
711
330
2
100
AcDbEntity
  8
L1
100
AcDb2dPolyline
 66
     1
 10
0.0
 20
0.0
 30
0.0
  0
VERTEX
  5
F42
330
711
100
AcDbEntity
  8
L1
100
AcDbVertex
100
AcDb2dVertex
 10
344.9798998195335
 20
96.59380159905705
 30
0.0
  0
VERTEX
  5
F43
330
711
100
AcDbEntity
  8
L1
100
AcDbVertex
100
AcDb2dVertex
 10
344.984801722168
 20
96.58960352013547
 30
0.0
  0
VERTEX
  5
F44
330
711
100
AcDbEntity
  8
L1
100
AcDbVertex
100
AcDb2dVertex
 10
344.996863476992
 20
96.57821710550924
 30
0.0
  0
VERTEX
  5
F45
330
711
100
AcDbEntity
  8
L1
100
AcDbVertex
100
AcDb2dVertex
 10
345.0171732026872
 20
96.55854545993143
 30
0.0
  0
VERTEX
  5
F46
330
711
100
AcDbEntity
  8
L1
100
AcDbVertex
100
AcDb2dVertex
 10
345.0438279988584
 20
96.53245376121731
 30
0.0
  0
VERTEX
  5
F47
330
711
100
AcDbEntity
  8
L1
100
AcDbVertex
100
AcDb2dVertex
 10
345.0767351297713
 20
96.50000557809477
 30
0.0
  0
VERTEX
  5
F48
330
711
100
AcDbEntity
  8
L1
100
AcDbVertex
100
AcDb2dVertex
 10
345.113847567405
 20
96.46324003790049
 30
0.0
  0
VERTEX
  5
F49
330
711
100
AcDbEntity
  8
L1
100
AcDbVertex
100
AcDb2dVertex
 10
345.1543935829484
 20
96.42290215099777
 30
0.0
  0
VERTEX
  5
F4A
330
711
100
AcDbEntity
  8
L1
100
AcDbVertex
100
AcDb2dVertex
 10
345.1963713464755
 20
96.38100025858445
 30
0.0
  0
SEQEND
  5
F4B
330
711
100
AcDbEntity
  8
L1
  0
ARC
  5
71C
330
2
100
AcDbEntity
  8
L1
100
AcDbCircle
 10
350.2594122692311
 20
89.5501923828626
 30
0.0
 40
8.813962988465215
100
AcDbArc
 50
125.7142746472761
 51
126.9384834509198
  0
POLYLINE
  5
71D
330
2
100
AcDbEntity
  8
L1
100
AcDb2dPolyline
 66
     1
 10
0.0
 20
0.0
 30
0.0
  0
VERTEX
  5
F4C
330
71D
100
AcDbEntity
  8
L1
100
AcDbVertex
100
AcDb2dVertex
 10
345.1143185297012
 20
96.70658490797499
 30
0.0
  0
VERTEX
  5
F4D
330
71D
100
AcDbEntity
  8
L1
100
AcDbVertex
100
AcDb2dVertex
 10
345.0571659420907
 20
96.67433496533391
 30
0.0
  0
VERTEX
  5
F4E
330
71D
100
AcDbEntity
  8
L1
100
AcDbVertex
100
AcDb2dVertex
 10
344.9776956443947
 20
96.65264770414315
 30
0.0
  0
VERTEX
  5
F4F
330
71D
100
AcDbEntity
  8
L1
100
AcDbVertex
100
AcDb2dVertex
 10
344.9055655201829
 20
96.65205943721836
 30
0.0
  0
SEQEND
  5
F50
330
71D
100
AcDbEntity
  8
L1
  0
POLYLINE
  5
723
330
2
100
AcDbEntity
  8
L1
100
AcDb2dPolyline
 66
     1
 10
0.0
 20
0.0
 30
0.0
  0
VERTEX
  5
F51
330
723
100
AcDbEntity
  8
L1
100
AcDbVertex
100
AcDb2dVertex
 10
344.7551309918786
 20
96.93401089530867
 30
0.0
  0
VERTEX
  5
F52
330
723
100
AcDbEntity
  8
L1
100
AcDbVertex
100
AcDb2dVertex
 10
344.7554142854508
 20
96.93377348101769
 30
0.0
  0
VERTEX
  5
F53
330
723
100
AcDbEntity
  8
L1
100
AcDbVertex
100
AcDb2dVertex
 10
344.8444739176871
 20
96.88224121302186
 30
0.0
  0
VERTEX
  5
F54
330
723
100
AcDbEntity
  8
L1
100
AcDbVertex
100
AcDb2dVertex
 10
344.9191640242565
 20
96.86521139533526
 30
0.0
  0
VERTEX
  5
F55
330
723
100
AcDbEntity
  8
L1
100
AcDbVertex
100
AcDb2dVertex
 10
344.9892761328654
 20
96.86668502105492
 30
0.0
  0
VERTEX
  5
F56
330
723
100
AcDbEntity
  8
L1
100
AcDbVertex
100
AcDb2dVertex
 10
345.0659177033255
 20
96.88799083158013
 30
0.0
  0
VERTEX
  5
F57
330
723
100
AcDbEntity
  8
L1
100
AcDbVertex
100
AcDb2dVertex
 10
345.1195996647298
 20
96.91778103192056
 30
0.0
  0
SEQEND
  5
F58
330
723
100
AcDbEntity
  8
L1
  0
POLYLINE
  5
72C
330
2
100
AcDbEntity
  8
L1
100
AcDb2dPolyline
 66
     1
 10
0.0
 20
0.0
 30
0.0
  0
VERTEX
  5
F59
330
72C
100
AcDbEntity
  8
L1
100
AcDbVertex
100
AcDb2dVertex
 10
343.0504924320493
 20
98.00689603004556
 30
0.0
  0
VERTEX
  5
F5A
330
72C
100
AcDbEntity
  8
L1
100
AcDbVertex
100
AcDb2dVertex
 10
343.2495310078613
 20
98.09447657628345
 30
0.0
  0
VERTEX
  5
F5B
330
72C
100
AcDbEntity
  8
L1
100
AcDbVertex
100
AcDb2dVertex
 10
343.4554453293586
 20
98.02457665537566
 30
0.0
  0
SEQEND
  5
F5C
330
72C
100
AcDbEntity
  8
L1
  0
POLYLINE
  5
731
330
2
100
AcDbEntity
  8
L1
100
AcDb2dPolyline
 66
     1
 10
0.0
 20
0.0
 30
0.0
  0
VERTEX
  5
F5D
330
731
100
AcDbEntity
  8
L1
100
AcDbVertex
100
AcDb2dVertex
 10
343.0605087661863
 20
97.77748426131992
 30
0.0
  0
VERTEX
  5
F5E
330
731
100
AcDbEntity
  8
L1
100
AcDbVertex
100
AcDb2dVertex
 10
343.2595473419982
 20
97.86506480755777
 30
0.0
  0
VERTEX
  5
F5F
330
731
100
AcDbEntity
  8
L1
100
AcDbVertex
100
AcDb2dVertex
 10
343.4654616634955
 20
97.79516488664997
 30
0.0
  0
SEQEND
  5
F60
330
731
100
AcDbEntity
  8
L1
  0
LINE
  5
736
330
2
100
AcDbEntity
  8
L1
100
AcDbLine
 10
353.7594122692311
 20
95.12750252472169
 30
0.0
 11
350.2594122692311
 21
95.12750252472169
 31
0.0
  0
ARC
  5
737
330
2
100
AcDbEntity
  8
L1
100
AcDbCircle
 10
353.7594122692313
 20
99.15019238286259
 30
0.0
 40
4.854985757674694
100
AcDbArc
 50
263.0
 51
311.2325076746349
  0
ARC
  5
738
330
2
100
AcDbEntity
  8
L1
100
AcDbCircle
 10
353.7594122692313
 20
99.15019238286259
 30
0.0
 40
4.881166361046971
100
AcDbArc
 50
262.9999999999999
 51
310.5579963961364
  0
LINE
  5
739
330
2
100
AcDbEntity
  8
L1
100
AcDbLine
 10
353.1645477297592
 20
94.30540949568431
 30
0.0
 11
350.8777553076544
 21
94.58619229910853
 31
0.0
  0
LINE
  5
73A
330
2
100
AcDbEntity
  8
L1
100
AcDbLine
 10
350.8809459205973
 20
94.61217775623332
 30
0.0
 11
353.1677383427021
 21
94.33139495280908
 31
0.0
  0
POLYLINE
  5
73B
330
2
100
AcDbEntity
  8
L1
100
AcDb2dPolyline
 66
     1
 10
0.0
 20
0.0
 30
0.0
  0
VERTEX
  5
F61
330
73B
100
AcDbEntity
  8
L1
100
AcDbVertex
100
AcDb2dVertex
 10
356.959412269231
 20
95.49904369960877
 30
0.0
  0
VERTEX
  5
F62
330
73B
100
AcDbEntity
  8
L1
100
AcDbVertex
100
AcDb2dVertex
 10
356.9332316658588
 20
95.44173509150708
 30
0.0
  0
SEQEND
  5
F63
330
73B
100
AcDbEntity
  8
L1
  0
LINE
  5
73F
330
2
100
AcDbEntity
  8
L1
100
AcDbLine
 10
350.2594122692311
 20
97.77298124103662
 30
0.0
 11
353.7594122692311
 21
97.77298124103662
 31
0.0
  0
LINE
  5
740
330
2
100
AcDbEntity
  8
L1
100
AcDbLine
 10
353.3481992225332
 20
98.53345660646851
 30
0.0
 11
350.2594122692311
 21
98.53345660646851
 31
0.0
  0
LINE
  5
741
330
2
100
AcDbEntity
  8
L1
100
AcDbLine
 10
350.2594122692311
 20
101.5501923828626
 30
0.0
 11
350.2594122692311
 21
101.8551144301861
 31
0.0
  0
POLYLINE
  5
743
330
2
100
AcDbEntity
  8
L1
100
AcDb2dPolyline
 66
     1
 10
0.0
 20
0.0
 30
0.0
  0
VERTEX
  5
F64
330
743
100
AcDbEntity
  8
L1
100
AcDbVertex
100
AcDb2dVertex
 10
353.3481992225332
 20
98.53345660646853
 30
0.0
  0
VERTEX
  5
F65
330
743
100
AcDbEntity
  8
L1
100
AcDbVertex
100
AcDb2dVertex
 10
353.0482071116198
 20
98.61383680975492
 30
0.0
  0
VERTEX
  5
F66
330
743
100
AcDbEntity
  8
L1
100
AcDbVertex
100
AcDb2dVertex
 10
352.8286022719811
 20
98.8334416493936
 30
0.0
  0
VERTEX
  5
F67
330
743
100
AcDbEntity
  8
L1
100
AcDbVertex
100
AcDb2dVertex
 10
352.7482220686947
 20
99.13343376030702
 30
0.0
  0
SEQEND
  5
F68
330
743
100
AcDbEntity
  8
L1
  0
ARC
  5
749
330
2
100
AcDbEntity
  8
L1
100
AcDbCircle
 10
353.7594122692311
 20
99.15019238286259
 30
0.0
 40
1.377211141825969
100
AcDbArc
 50
270.0
 51
0.0
  0
POLYLINE
  5
74A
330
2
100
AcDbEntity
  8
L1
100
AcDb2dPolyline
 66
     1
 10
0.0
 20
0.0
 30
0.0
  0
VERTEX
  5
F69
330
74A
100
AcDbEntity
  8
L1
100
AcDbVertex
100
AcDb2dVertex
 10
358.5542214481658
 20
84.75524993465249
 30
0.0
  0
VERTEX
  5
F6A
330
74A
100
AcDbEntity
  8
L1
100
AcDbVertex
100
AcDb2dVertex
 10
358.5542205425846
 20
84.75272116593091
 30
0.0
  0
VERTEX
  5
F6B
330
74A
100
AcDbEntity
  8
L1
100
AcDbVertex
100
AcDb2dVertex
 10
358.5542178258412
 20
84.75019238286263
 30
0.0
  0
SEQEND
  5
F6C
330
74A
100
AcDbEntity
  8
L1
  0
LINE
  5
762
330
2
100
AcDbEntity
  8
L1
100
AcDbLine
 10
349.9594122692311
 20
104.5885414631947
 30
0.0
 11
349.9594122692311
 21
114.5885414631947
 31
0.0
  0
LINE
  5
763
330
2
100
AcDbEntity
  8
L1
100
AcDbLine
 10
350.5594122692311
 20
114.5885414631947
 30
0.0
 11
350.5594122692311
 21
104.5885414631947
 31
0.0
  0
LINE
  5
766
330
2
100
AcDbEntity
  8
L1
100
AcDbLine
 10
349.9594122692311
 20
104.5885414631947
 30
0.0
 11
349.9594122692311
 21
114.5885414631947
 31
0.0
  0
LINE
  5
767
330
2
100
AcDbEntity
  8
L1
100
AcDbLine
 10
350.5594122692311
 20
114.5885414631947
 30
0.0
 11
350.5594122692311
 21
104.5885414631947
 31
0.0
  0
LINE
  5
76A
330
2
100
AcDbEntity
  8
L1
100
AcDbLine
 10
349.359412269231
 20
104.5885414631947
 30
0.0
 11
349.9594122692311
 21
104.5885414631947
 31
0.0
  0
LINE
  5
76C
330
2
100
AcDbEntity
  8
L1
100
AcDbLine
 10
349.359412269231
 20
104.5885414631947
 30
0.0
 11
349.9594122692311
 21
104.5885414631947
 31
0.0
  0
LINE
  5
76E
330
2
100
AcDbEntity
  8
L1
100
AcDbLine
 10
350.5594122692311
 20
104.5885414631947
 30
0.0
 11
351.1594122692311
 21
104.5885414631947
 31
0.0
  0
LINE
  5
770
330
2
100
AcDbEntity
  8
L1
100
AcDbLine
 10
350.5594122692311
 20
104.5885414631947
 30
0.0
 11
351.1594122692311
 21
104.5885414631947
 31
0.0
  0
LINE
  5
77A
330
2
100
AcDbEntity
  8
L1
100
AcDbLine
 10
349.9594122692311
 20
114.5885414631947
 30
0.0
 11
350.5594122692311
 21
114.5885414631947
 31
0.0
  0
LINE
  5
77C
330
2
100
AcDbEntity
  8
L1
100
AcDbLine
 10
349.9594122692311
 20
114.5885414631947
 30
0.0
 11
350.5594122692311
 21
114.5885414631947
 31
0.0
  0
ARC
  5
782
330
2
100
AcDbEntity
  8
L1
100
AcDbCircle
 10
353.7594122692311
 20
143.4501923828626
 30
0.0
 40
4.022689858140807
100
AcDbArc
 50
0.0
 51
90.0
  0
ARC
  5
783
330
2
100
AcDbEntity
  8
L1
100
AcDbCircle
 10
353.7594122692311
 20
143.4501923828626
 30
0.0
 40
4.022689858140864
100
AcDbArc
 50
0.0
 51
90.0
  0
LINE
  5
784
330
2
100
AcDbEntity
  8
L1
100
AcDbLine
 10
350.559412269231
 20
138.0118433025305
 30
0.0
 11
350.559412269231
 21
128.0118433025305
 31
0.0
  0
LINE
  5
785
330
2
100
AcDbEntity
  8
L1
100
AcDbLine
 10
349.959412269231
 20
128.0118433025305
 30
0.0
 11
349.959412269231
 21
138.0118433025305
 31
0.0
  0
LINE
  5
788
330
2
100
AcDbEntity
  8
L1
100
AcDbLine
 10
350.559412269231
 20
138.0118433025305
 30
0.0
 11
350.559412269231
 21
128.0118433025305
 31
0.0
  0
LINE
  5
789
330
2
100
AcDbEntity
  8
L1
100
AcDbLine
 10
349.959412269231
 20
128.0118433025305
 30
0.0
 11
349.959412269231
 21
138.0118433025305
 31
0.0
  0
LINE
  5
78C
330
2
100
AcDbEntity
  8
L1
100
AcDbLine
 10
350.559412269231
 20
128.0118433025305
 30
0.0
 11
349.9594122692311
 21
128.0118433025305
 31
0.0
  0
LINE
  5
78E
330
2
100
AcDbEntity
  8
L1
100
AcDbLine
 10
350.559412269231
 20
128.0118433025305
 30
0.0
 11
349.9594122692311
 21
128.0118433025305
 31
0.0
  0
LINE
  5
794
330
2
100
AcDbEntity
  8
L1
100
AcDbLine
 10
349.9594122692311
 20
138.0118433025305
 30
0.0
 11
349.359412269231
 21
138.0118433025305
 31
0.0
  0
LINE
  5
795
330
2
100
AcDbEntity
  8
L1
100
AcDbLine
 10
349.359412269231
 20
138.0118433025305
 30
0.0
 11
350.2594122692311
 21
141.0501923828625
 31
0.0
  0
LINE
  5
797
330
2
100
AcDbEntity
  8
L1
100
AcDbLine
 10
349.9594122692311
 20
138.0118433025305
 30
0.0
 11
349.359412269231
 21
138.0118433025305
 31
0.0
  0
LINE
  5
798
330
2
100
AcDbEntity
  8
L1
100
AcDbLine
 10
349.359412269231
 20
138.0118433025305
 30
0.0
 11
350.2594122692311
 21
141.0501923828625
 31
0.0
  0
ARC
  5
79A
330
2
100
AcDbEntity
  8
L1
100
AcDbCircle
 10
350.2594122692311
 20
153.0501923828625
 30
0.0
 40
8.983264223605935
100
AcDbArc
 50
235.0994163667606
 51
270.0
  0
ARC
  5
79B
330
2
100
AcDbEntity
  8
L1
100
AcDbCircle
 10
350.2594122692311
 20
153.0501923828625
 30
0.0
 40
8.813962988465215
100
AcDbArc
 50
215.7142746472757
 51
234.2857253527239
  0
POLYLINE
  5
79C
330
2
100
AcDbEntity
  8
L1
100
AcDb2dPolyline
 66
     1
 10
0.0
 20
0.0
 30
0.0
  0
VERTEX
  5
F6D
330
79C
100
AcDbEntity
  8
L1
100
AcDbVertex
100
AcDb2dVertex
 10
341.8027086220481
 20
145.8412725456809
 30
0.0
  0
VERTEX
  5
F6E
330
79C
100
AcDbEntity
  8
L1
100
AcDbVertex
100
AcDb2dVertex
 10
341.7151280758103
 20
146.0403111214928
 30
0.0
  0
VERTEX
  5
F6F
330
79C
100
AcDbEntity
  8
L1
100
AcDbVertex
100
AcDb2dVertex
 10
341.7850279967181
 20
146.2462254429901
 30
0.0
  0
SEQEND
  5
F70
330
79C
100
AcDbEntity
  8
L1
  0
POLYLINE
  5
7A1
330
2
100
AcDbEntity
  8
L1
100
AcDb2dPolyline
 66
     1
 10
0.0
 20
0.0
 30
0.0
  0
VERTEX
  5
F71
330
7A1
100
AcDbEntity
  8
L1
100
AcDbVertex
100
AcDb2dVertex
 10
342.0321203907738
 20
145.8512888798177
 30
0.0
  0
VERTEX
  5
F72
330
7A1
100
AcDbEntity
  8
L1
100
AcDbVertex
100
AcDb2dVertex
 10
341.9445398445359
 20
146.0503274556297
 30
0.0
  0
VERTEX
  5
F73
330
7A1
100
AcDbEntity
  8
L1
100
AcDbVertex
100
AcDb2dVertex
 10
342.0144397654437
 20
146.256241777127
 30
0.0
  0
SEQEND
  5
F74
330
7A1
100
AcDbEntity
  8
L1
  0
POLYLINE
  5
7A6
330
2
100
AcDbEntity
  8
L1
100
AcDb2dPolyline
 66
     1
 10
0.0
 20
0.0
 30
0.0
  0
VERTEX
  5
F75
330
7A6
100
AcDbEntity
  8
L1
100
AcDbVertex
100
AcDb2dVertex
 10
343.0504924320493
 20
144.5934887356796
 30
0.0
  0
VERTEX
  5
F76
330
7A6
100
AcDbEntity
  8
L1
100
AcDbVertex
100
AcDb2dVertex
 10
343.2495310078613
 20
144.5059081894418
 30
0.0
  0
VERTEX
  5
F77
330
7A6
100
AcDbEntity
  8
L1
100
AcDbVertex
100
AcDb2dVertex
 10
343.4554453293586
 20
144.5758081103495
 30
0.0
  0
SEQEND
  5
F78
330
7A6
100
AcDbEntity
  8
L1
  0
POLYLINE
  5
7AB
330
2
100
AcDbEntity
  8
L1
100
AcDb2dPolyline
 66
     1
 10
0.0
 20
0.0
 30
0.0
  0
VERTEX
  5
F79
330
7AB
100
AcDbEntity
  8
L1
100
AcDbVertex
100
AcDb2dVertex
 10
343.4654616634956
 20
144.8052198790752
 30
0.0
  0
VERTEX
  5
F7A
330
7AB
100
AcDbEntity
  8
L1
100
AcDbVertex
100
AcDb2dVertex
 10
343.2595473419983
 20
144.7353199581673
 30
0.0
  0
VERTEX
  5
F7B
330
7AB
100
AcDbEntity
  8
L1
100
AcDbVertex
100
AcDb2dVertex
 10
343.0605087661863
 20
144.8229005044052
 30
0.0
  0
SEQEND
  5
F7C
330
7AB
100
AcDbEntity
  8
L1
  0
LINE
  5
7B0
330
2
100
AcDbEntity
  8
L1
100
AcDbLine
 10
343.0504924320493
 20
144.5934887356796
 30
0.0
 11
341.8027086220481
 21
145.8412725456808
 31
0.0
  0
LINE
  5
7B1
330
2
100
AcDbEntity
  8
L1
100
AcDbLine
 10
343.0605087661863
 20
144.8229005044052
 30
0.0
 11
342.0321203907738
 21
145.8512888798177
 31
0.0
  0
LINE
  5
7B2
330
2
100
AcDbEntity
  8
L1
100
AcDbLine
 10
344.7551309918786
 20
145.6663738704165
 30
0.0
 11
343.4554453293586
 21
144.5758081103496
 31
0.0
  0
LINE
  5
7B3
330
2
100
AcDbEntity
  8
L1
100
AcDbLine
 10
344.746373202938
 20
145.8800322793921
 30
0.0
 11
343.4654616634955
 21
144.8052198790752
 31
0.0
  0
POLYLINE
  5
7B4
330
2
100
AcDbEntity
  8
L1
100
AcDb2dPolyline
 66
     1
 10
0.0
 20
0.0
 30
0.0
  0
VERTEX
  5
F7D
330
7B4
100
AcDbEntity
  8
L1
100
AcDbVertex
100
AcDb2dVertex
 10
345.1195996647298
 20
145.6826037338046
 30
0.0
  0
VERTEX
  5
F7E
330
7B4
100
AcDbEntity
  8
L1
100
AcDbVertex
100
AcDb2dVertex
 10
345.0367823635906
 20
145.7231071694133
 30
0.0
  0
VERTEX
  5
F7F
330
7B4
100
AcDbEntity
  8
L1
100
AcDbVertex
100
AcDb2dVertex
 10
344.9640607716871
 20
145.736126210658
 30
0.0
  0
VERTEX
  5
F80
330
7B4
100
AcDbEntity
  8
L1
100
AcDbVertex
100
AcDb2dVertex
 10
344.8939379810065
 20
145.7316543541869
 30
0.0
  0
VERTEX
  5
F81
330
7B4
100
AcDbEntity
  8
L1
100
AcDbVertex
100
AcDb2dVertex
 10
344.8152555432428
 20
145.7056099032321
 30
0.0
  0
VERTEX
  5
F82
330
7B4
100
AcDbEntity
  8
L1
100
AcDbVertex
100
AcDb2dVertex
 10
344.7551309918786
 20
145.6663738704165
 30
0.0
  0
SEQEND
  5
F83
330
7B4
100
AcDbEntity
  8
L1
  0
POLYLINE
  5
7BC
330
2
100
AcDbEntity
  8
L1
100
AcDb2dPolyline
 66
     1
 10
0.0
 20
0.0
 30
0.0
  0
VERTEX
  5
F84
330
7BC
100
AcDbEntity
  8
L1
100
AcDbVertex
100
AcDb2dVertex
 10
344.746373202938
 20
145.8800322793921
 30
0.0
  0
VERTEX
  5
F85
330
7BC
100
AcDbEntity
  8
L1
100
AcDbVertex
100
AcDb2dVertex
 10
344.8077180191903
 20
145.9198667952969
 30
0.0
  0
VERTEX
  5
F86
330
7BC
100
AcDbEntity
  8
L1
100
AcDbVertex
100
AcDb2dVertex
 10
344.8888372393188
 20
145.9459589443753
 30
0.0
  0
VERTEX
  5
F87
330
7BC
100
AcDbEntity
  8
L1
100
AcDbVertex
100
AcDb2dVertex
 10
344.9632912129426
 20
145.9492482956464
 30
0.0
  0
VERTEX
  5
F88
330
7BC
100
AcDbEntity
  8
L1
100
AcDbVertex
100
AcDb2dVertex
 10
345.0410173568572
 20
145.9324102924674
 30
0.0
  0
VERTEX
  5
F89
330
7BC
100
AcDbEntity
  8
L1
100
AcDbVertex
100
AcDb2dVertex
 10
345.1143185297012
 20
145.8937998577501
 30
0.0
  0
SEQEND
  5
F8A
330
7BC
100
AcDbEntity
  8
L1
  0
POLYLINE
  5
7C4
330
2
100
AcDbEntity
  8
L1
100
AcDb2dPolyline
 66
     1
 10
0.0
 20
0.0
 30
0.0
  0
VERTEX
  5
F8B
330
7C4
100
AcDbEntity
  8
L1
100
AcDbVertex
100
AcDb2dVertex
 10
343.1030197441186
 20
147.9050986433327
 30
0.0
  0
VERTEX
  5
F8C
330
7C4
100
AcDbEntity
  8
L1
100
AcDbVertex
100
AcDb2dVertex
 10
343.1147644506647
 20
147.8874829309753
 30
0.0
  0
VERTEX
  5
F8D
330
7C4
100
AcDbEntity
  8
L1
100
AcDbVertex
100
AcDb2dVertex
 10
343.139502115572
 20
147.8375124039598
 30
0.0
  0
VERTEX
  5
F8E
330
7C4
100
AcDbEntity
  8
L1
100
AcDbVertex
100
AcDb2dVertex
 10
343.1545649563542
 20
147.7838270908438
 30
0.0
  0
VERTEX
  5
F8F
330
7C4
100
AcDbEntity
  8
L1
100
AcDbVertex
100
AcDb2dVertex
 10
343.1594093369913
 20
147.7259198714239
 30
0.0
  0
VERTEX
  5
F90
330
7C4
100
AcDbEntity
  8
L1
100
AcDbVertex
100
AcDb2dVertex
 10
343.1529986093948
 20
147.668165076266
 30
0.0
  0
VERTEX
  5
F91
330
7C4
100
AcDbEntity
  8
L1
100
AcDbVertex
100
AcDb2dVertex
 10
343.1351324019217
 20
147.6116979825844
 30
0.0
  0
VERTEX
  5
F92
330
7C4
100
AcDbEntity
  8
L1
100
AcDbVertex
100
AcDb2dVertex
 10
343.1065208909485
 20
147.5598412568828
 30
0.0
  0
VERTEX
  5
F93
330
7C4
100
AcDbEntity
  8
L1
100
AcDbVertex
100
AcDb2dVertex
 10
343.0892521657606
 20
147.5371533165695
 30
0.0
  0
SEQEND
  5
F94
330
7C4
100
AcDbEntity
  8
L1
  0
POLYLINE
  5
7CF
330
2
100
AcDbEntity
  8
L1
100
AcDb2dPolyline
 66
     1
 10
0.0
 20
0.0
 30
0.0
  0
VERTEX
  5
F95
330
7CF
100
AcDbEntity
  8
L1
100
AcDbVertex
100
AcDb2dVertex
 10
342.875593756785
 20
147.5459111055101
 30
0.0
  0
VERTEX
  5
F96
330
7CF
100
AcDbEntity
  8
L1
100
AcDbVertex
100
AcDb2dVertex
 10
342.8958888076419
 20
147.5730796592411
 30
0.0
  0
VERTEX
  5
F97
330
7CF
100
AcDbEntity
  8
L1
100
AcDbVertex
100
AcDb2dVertex
 10
342.9235571438746
 20
147.6254340205265
 30
0.0
  0
VERTEX
  5
F98
330
7CF
100
AcDbEntity
  8
L1
100
AcDbVertex
100
AcDb2dVertex
 10
342.9404027276669
 20
147.682203185275
 30
0.0
  0
VERTEX
  5
F99
330
7CF
100
AcDbEntity
  8
L1
100
AcDbVertex
100
AcDb2dVertex
 10
342.9457761648877
 20
147.7398952982259
 30
0.0
  0
VERTEX
  5
F9A
330
7CF
100
AcDbEntity
  8
L1
100
AcDbVertex
100
AcDb2dVertex
 10
342.9399584215712
 20
147.7975443065839
 30
0.0
  0
VERTEX
  5
F9B
330
7CF
100
AcDbEntity
  8
L1
100
AcDbVertex
100
AcDb2dVertex
 10
342.8987788342814
 20
147.8999522814783
 30
0.0
  0
VERTEX
  5
F9C
330
7CF
100
AcDbEntity
  8
L1
100
AcDbVertex
100
AcDb2dVertex
 10
342.8918236201731
 20
147.9103797783613
 30
0.0
  0
SEQEND
  5
F9D
330
7CF
100
AcDbEntity
  8
L1
  0
LINE
  5
7D9
330
2
100
AcDbEntity
  8
L1
100
AcDbLine
 10
341.7850279967181
 20
146.2462254429901
 30
0.0
 11
342.875593756785
 21
147.5459111055101
 31
0.0
  0
LINE
  5
7DA
330
2
100
AcDbEntity
  8
L1
100
AcDbLine
 10
342.0144397654437
 20
146.256241777127
 30
0.0
 11
343.0892521657606
 21
147.5371533165695
 31
0.0
  0
LINE
  5
7DB
330
2
100
AcDbEntity
  8
L1
100
AcDbLine
 10
350.2594122692311
 20
141.0501923828625
 30
0.0
 11
351.1594122692311
 21
138.0118433025305
 31
0.0
  0
LINE
  5
7DD
330
2
100
AcDbEntity
  8
L1
100
AcDbLine
 10
350.2594122692311
 20
141.0501923828625
 30
0.0
 11
351.1594122692311
 21
138.0118433025305
 31
0.0
  0
LINE
  5
7DF
330
2
100
AcDbEntity
  8
L1
100
AcDbLine
 10
351.1594122692311
 20
138.0118433025305
 30
0.0
 11
350.559412269231
 21
138.0118433025305
 31
0.0
  0
LINE
  5
7E1
330
2
100
AcDbEntity
  8
L1
100
AcDbLine
 10
351.1594122692311
 20
138.0118433025305
 30
0.0
 11
350.559412269231
 21
138.0118433025305
 31
0.0
  0
LINE
  5
7EF
330
2
100
AcDbEntity
  8
L1
100
AcDbLine
 10
350.2594122692311
 20
147.4728822410034
 30
0.0
 11
353.7594122692311
 21
147.4728822410034
 31
0.0
  0
LINE
  5
7F0
330
2
100
AcDbEntity
  8
L1
100
AcDbLine
 10
353.7594122692311
 20
144.8274035246885
 30
0.0
 11
350.2594122692311
 21
144.8274035246885
 31
0.0
  0
LINE
  5
7F1
330
2
100
AcDbEntity
  8
L1
100
AcDbLine
 10
350.2594122692311
 20
144.0669281592566
 30
0.0
 11
353.3481992225332
 21
144.0669281592566
 31
0.0
  0
POLYLINE
  5
7F2
330
2
100
AcDbEntity
  8
L1
100
AcDb2dPolyline
 66
     1
 10
0.0
 20
0.0
 30
0.0
  0
VERTEX
  5
F9E
330
7F2
100
AcDbEntity
  8
L1
100
AcDbVertex
100
AcDb2dVertex
 10
352.7482220686946
 20
143.4669510054181
 30
0.0
  0
VERTEX
  5
F9F
330
7F2
100
AcDbEntity
  8
L1
100
AcDbVertex
100
AcDb2dVertex
 10
352.8286022719811
 20
143.7669431163315
 30
0.0
  0
VERTEX
  5
FA0
330
7F2
100
AcDbEntity
  8
L1
100
AcDbVertex
100
AcDb2dVertex
 10
353.0482071116198
 20
143.9865479559701
 30
0.0
  0
VERTEX
  5
FA1
330
7F2
100
AcDbEntity
  8
L1
100
AcDbVertex
100
AcDb2dVertex
 10
353.3481992225332
 20
144.0669281592565
 30
0.0
  0
SEQEND
  5
FA2
330
7F2
100
AcDbEntity
  8
L1
  0
POLYLINE
  5
7F8
330
2
100
AcDbEntity
  8
L1
 62
     7
100
AcDb2dPolyline
 66
     1
 10
0.0
 20
0.0
 30
0.0
  0
VERTEX
  5
FA3
330
7F8
100
AcDbEntity
  8
L1
 62
     7
100
AcDbVertex
100
AcDb2dVertex
 10
353.3481992225334
 20
144.0669281592565
 30
0.0
  0
VERTEX
  5
FA4
330
7F8
100
AcDbEntity
  8
L1
 62
     7
100
AcDbVertex
100
AcDb2dVertex
 10
353.0482071116199
 20
143.9865479559703
 30
0.0
  0
VERTEX
  5
FA5
330
7F8
100
AcDbEntity
  8
L1
 62
     7
100
AcDbVertex
100
AcDb2dVertex
 10
352.8286022719813
 20
143.7669431163315
 30
0.0
  0
VERTEX
  5
FA6
330
7F8
100
AcDbEntity
  8
L1
 62
     7
100
AcDbVertex
100
AcDb2dVertex
 10
352.7482220686948
 20
143.4669510054181
 30
0.0
  0
SEQEND
  5
FA7
330
7F8
100
AcDbEntity
  8
L1
 62
     7
  0
LINE
  5
7FE
330
2
100
AcDbEntity
  8
L1
100
AcDbLine
 10
350.8777553076544
 20
148.0141924666166
 30
0.0
 11
353.164547729759
 21
148.2949752700408
 31
0.0
  0
LINE
  5
7FF
330
2
100
AcDbEntity
  8
L1
100
AcDbLine
 10
353.167738342702
 20
148.268989812916
 30
0.0
 11
350.8809459205973
 21
147.9882070094918
 31
0.0
  0
ARC
  5
800
330
2
100
AcDbEntity
  8
L1
100
AcDbCircle
 10
353.7594122692311
 20
143.4501923828626
 30
0.0
 40
1.377211141825941
100
AcDbArc
 50
0.0
 51
90.0
  0
ARC
  5
801
330
2
100
AcDbEntity
  8
L1
100
AcDbCircle
 10
353.7594122692311
 20
143.4501923828626
 30
0.0
 40
1.377211141825998
100
AcDbArc
 50
0.0
 51
90.0
  0
POLYLINE
  5
802
330
2
100
AcDbEntity
  8
L1
100
AcDb2dPolyline
 66
     1
 10
0.0
 20
0.0
 30
0.0
  0
VERTEX
  5
FA8
330
802
100
AcDbEntity
  8
L1
100
AcDbVertex
100
AcDb2dVertex
 10
356.9332316658588
 20
147.1586496742179
 30
0.0
  0
VERTEX
  5
FA9
330
802
100
AcDbEntity
  8
L1
100
AcDbVertex
100
AcDb2dVertex
 10
356.9594122692311
 20
147.1013410661162
 30
0.0
  0
SEQEND
  5
FAA
330
802
100
AcDbEntity
  8
L1
  0
LINE
  5
83D
330
2
100
AcDbEntity
  8
L2
100
AcDbLine
 10
245.7504936862722
 20
200.9952202269359
 30
0.0
 11
341.2827298182305
 21
200.9952202269359
 31
0.0
  0
LINE
  5
83E
330
2
100
AcDbEntity
  8
L1
100
AcDbLine
 10
293.5094122692311
 20
161.3450015617974
 30
0.0
 11
355.0543547174412
 21
161.3450015617974
 31
0.0
  0
LINE
  5
83F
330
2
100
AcDbEntity
  8
L1
 62
     7
100
AcDbLine
 10
355.059412269231
 20
160.7501923828626
 30
0.0
 11
293.5094122692311
 21
160.7501923828626
 31
0.0
  0
LINE
  5
841
330
2
100
AcDbEntity
  8
L1
100
AcDbLine
 10
229.0594122692311
 20
221.995220226936
 30
0.0
 11
357.9750466561017
 21
221.9952202269359
 31
0.0
  0
LINE
  5
843
330
2
100
AcDbEntity
  8
L1
100
AcDbLine
 10
358.5698558350366
 20
221.4004110480012
 30
0.0
 11
228.4646030902964
 21
221.4004110480012
 31
0.0
  0
LINE
  5
844
330
2
100
AcDbEntity
  8
L1
100
AcDbLine
 10
243.1659261247625
 20
197.995220226936
 30
0.0
 11
343.8685328005705
 21
197.995220226936
 31
0.0
  0
ARC
  5
845
330
2
100
AcDbEntity
  8
L1
100
AcDbCircle
 10
340.6594122692311
 20
156.5501923828626
 30
0.0
 40
4.022689858140807
100
AcDbArc
 50
0.0
 51
90.0
  0
ARC
  5
846
330
2
100
AcDbEntity
  8
L1
100
AcDbCircle
 10
340.6594122692311
 20
156.5501923828626
 30
0.0
 40
1.377211141825941
100
AcDbArc
 50
0.0
 51
90.0
  0
POLYLINE
  5
847
330
2
100
AcDbEntity
  8
L1
100
AcDb2dPolyline
 66
     1
 10
0.0
 20
0.0
 30
0.0
  0
VERTEX
  5
FAB
330
847
100
AcDbEntity
  8
L1
100
AcDbVertex
100
AcDb2dVertex
 10
341.2761480456252
 20
156.1389793361647
 30
0.0
  0
VERTEX
  5
FAC
330
847
100
AcDbEntity
  8
L1
100
AcDbVertex
100
AcDb2dVertex
 10
341.1957678423387
 20
155.8389872252513
 30
0.0
  0
VERTEX
  5
FAD
330
847
100
AcDbEntity
  8
L1
100
AcDbVertex
100
AcDb2dVertex
 10
340.9761630027001
 20
155.6193823856126
 30
0.0
  0
VERTEX
  5
FAE
330
847
100
AcDbEntity
  8
L1
100
AcDbVertex
100
AcDb2dVertex
 10
340.6761708917867
 20
155.5390021823263
 30
0.0
  0
SEQEND
  5
FAF
330
847
100
AcDbEntity
  8
L1
  0
LINE
  5
84D
330
2
100
AcDbEntity
  8
L1
100
AcDbLine
 10
231.9644698210209
 20
161.3450015617974
 30
0.0
 11
293.5094122692311
 21
161.3450015617972
 31
0.0
  0
LINE
  5
84E
330
2
100
AcDbEntity
  8
L1
 62
     7
100
AcDbLine
 10
293.5094122692311
 20
160.7501923828627
 30
0.0
 11
231.9594122692311
 21
160.7501923828626
 31
0.0
  0
LINE
  5
84F
330
2
100
AcDbEntity
  8
L1
100
AcDbLine
 10
293.5094122692311
 20
157.9274035246884
 30
0.0
 11
246.359412269231
 21
157.9274035246885
 31
0.0
  0
LINE
  5
850
330
2
100
AcDbEntity
  8
L1
 62
     7
100
AcDbLine
 10
246.3426536466755
 20
155.5390021823263
 30
0.0
 11
293.5094122692311
 21
155.5390021823263
 31
0.0
  0
LINE
  5
851
330
2
100
AcDbEntity
  8
L1
100
AcDbLine
 10
246.359412269231
 20
160.5728822410035
 30
0.0
 11
293.5094122692311
 21
160.5728822410034
 31
0.0
  0
ARC
  5
852
330
2
100
AcDbEntity
  8
L1
100
AcDbCircle
 10
246.3594122692311
 20
156.5501923828626
 30
0.0
 40
4.022689858140864
100
AcDbArc
 50
89.9999999999992
 51
180.0
  0
POLYLINE
  5
853
330
2
100
AcDbEntity
  8
L1
100
AcDb2dPolyline
 66
     1
 10
0.0
 20
0.0
 30
0.0
  0
VERTEX
  5
FB0
330
853
100
AcDbEntity
  8
L1
100
AcDbVertex
100
AcDb2dVertex
 10
228.4646067126209
 20
157.8501923828626
 30
0.0
  0
VERTEX
  5
FB1
330
853
100
AcDbEntity
  8
L1
100
AcDbVertex
100
AcDb2dVertex
 10
228.5306314559013
 20
158.521826656625
 30
0.0
  0
VERTEX
  5
FB2
330
853
100
AcDbEntity
  8
L1
100
AcDbVertex
100
AcDb2dVertex
 10
228.6144791178942
 20
158.8582376918869
 30
0.0
  0
VERTEX
  5
FB3
330
853
100
AcDbEntity
  8
L1
100
AcDbVertex
100
AcDb2dVertex
 10
228.7319581948687
 20
159.1868296819148
 30
0.0
  0
VERTEX
  5
FB4
330
853
100
AcDbEntity
  8
L1
100
AcDbVertex
100
AcDb2dVertex
 10
228.8816797901087
 20
159.5020394344464
 30
0.0
  0
VERTEX
  5
FB5
330
853
100
AcDbEntity
  8
L1
100
AcDbVertex
100
AcDb2dVertex
 10
229.0606864452497
 20
159.798954743669
 30
0.0
  0
VERTEX
  5
FB6
330
853
100
AcDbEntity
  8
L1
100
AcDbVertex
100
AcDb2dVertex
 10
229.4896562936875
 20
160.3199483584063
 30
0.0
  0
VERTEX
  5
FB7
330
853
100
AcDbEntity
  8
L1
100
AcDbVertex
100
AcDb2dVertex
 10
230.0106499084248
 20
160.7489182068441
 30
0.0
  0
VERTEX
  5
FB8
330
853
100
AcDbEntity
  8
L1
100
AcDbVertex
100
AcDb2dVertex
 10
230.3075652176474
 20
160.927924861985
 30
0.0
  0
VERTEX
  5
FB9
330
853
100
AcDbEntity
  8
L1
100
AcDbVertex
100
AcDb2dVertex
 10
230.622774970179
 20
161.077646457225
 30
0.0
  0
VERTEX
  5
FBA
330
853
100
AcDbEntity
  8
L1
100
AcDbVertex
100
AcDb2dVertex
 10
230.951366960207
 20
161.1951255341995
 30
0.0
  0
VERTEX
  5
FBB
330
853
100
AcDbEntity
  8
L1
100
AcDbVertex
100
AcDb2dVertex
 10
231.2877779954689
 20
161.2789731961924
 30
0.0
  0
VERTEX
  5
FBC
330
853
100
AcDbEntity
  8
L1
100
AcDbVertex
100
AcDb2dVertex
 10
231.9594122692311
 20
161.3449979394727
 30
0.0
  0
SEQEND
  5
FBD
330
853
100
AcDbEntity
  8
L1
  0
ARC
  5
862
330
2
100
AcDbEntity
  8
L1
100
AcDbCircle
 10
231.9594122692311
 20
157.8501923828626
 30
0.0
 40
2.900000000000025
100
AcDbArc
 50
90.0
 51
180.0
  0
ARC
  5
863
330
2
100
AcDbEntity
  8
L1
100
AcDbCircle
 10
231.9594122692311
 20
157.8501923828626
 30
0.0
 40
1.9
100
AcDbArc
 50
89.99999999999912
 51
180.0
  0
ARC
  5
864
330
2
100
AcDbEntity
  8
L1
100
AcDbCircle
 10
231.9594122692311
 20
157.8501923828626
 30
0.0
 40
1.873819396627723
100
AcDbArc
 50
90.0
 51
180.0
  0
CIRCLE
  5
865
330
2
100
AcDbEntity
  8
L1
100
AcDbCircle
 10
236.7594122692311
 20
153.0501923828625
 30
0.0
 40
4.0
  0
CIRCLE
  5
866
330
2
100
AcDbEntity
  8
L1
100
AcDbCircle
 10
236.759412269231
 20
153.0501923828628
 30
0.0
 40
2.25
  0
LINE
  5
867
330
2
100
AcDbEntity
  8
L6
 48
0.3
100
AcDbLine
 10
231.7594122692311
 20
153.0501923828625
 30
0.0
 11
241.7594122692311
 21
153.0501923828625
 31
0.0
  0
LINE
  5
868
330
2
100
AcDbEntity
  8
L1
100
AcDbLine
 10
231.9594122692311
 20
159.7501923828626
 30
0.0
 11
242.7082635859776
 21
159.7501923828626
 31
0.0
  0
LINE
  5
869
330
2
100
AcDbEntity
  8
L1
100
AcDbLine
 10
242.6509549778758
 20
159.7240117794903
 30
0.0
 11
231.9594122692311
 21
159.7240117794903
 31
0.0
  0
POLYLINE
  5
86A
330
2
100
AcDbEntity
  8
L1
100
AcDb2dPolyline
 66
     1
 10
0.0
 20
0.0
 30
0.0
  0
VERTEX
  5
FBE
330
86A
100
AcDbEntity
  8
L1
100
AcDbVertex
100
AcDb2dVertex
 10
228.4646030902964
 20
157.8451348310727
 30
0.0
  0
VERTEX
  5
FBF
330
86A
100
AcDbEntity
  8
L1
100
AcDbVertex
100
AcDb2dVertex
 10
228.4646039958776
 20
157.8476635997943
 30
0.0
  0
VERTEX
  5
FC0
330
86A
100
AcDbEntity
  8
L1
100
AcDbVertex
100
AcDb2dVertex
 10
228.4646067126209
 20
157.8501923828626
 30
0.0
  0
SEQEND
  5
FC1
330
86A
100
AcDbEntity
  8
L1
  0
LINE
  5
86F
330
2
100
AcDbEntity
  8
L1
100
AcDbLine
 10
242.3367224110902
 20
153.0501923828625
 30
0.0
 11
242.3367224110902
 21
156.5501923828626
 31
0.0
  0
LINE
  5
870
330
2
100
AcDbEntity
  8
L1
100
AcDbLine
 10
241.7954121854771
 20
153.6685354212858
 30
0.0
 11
241.5146293820528
 21
155.9553278433905
 31
0.0
  0
LINE
  5
871
330
2
100
AcDbEntity
  8
L1
100
AcDbLine
 10
241.5406148391776
 20
155.9585184563334
 30
0.0
 11
241.8213976426018
 21
153.6717260342288
 31
0.0
  0
ARC
  5
872
330
2
100
AcDbEntity
  8
L1
100
AcDbCircle
 10
246.3594122692311
 20
156.5501923828626
 30
0.0
 40
4.881166361046975
100
AcDbArc
 50
139.4420036038592
 51
187.0000000000001
  0
POLYLINE
  5
873
330
2
100
AcDbEntity
  8
L1
100
AcDb2dPolyline
 66
     1
 10
0.0
 20
0.0
 30
0.0
  0
VERTEX
  5
FC2
330
873
100
AcDbEntity
  8
L1
100
AcDbVertex
100
AcDb2dVertex
 10
242.6509549778758
 20
159.7240117794903
 30
0.0
  0
VERTEX
  5
FC3
330
873
100
AcDbEntity
  8
L1
100
AcDbVertex
100
AcDb2dVertex
 10
242.7082635859775
 20
159.7501923828625
 30
0.0
  0
SEQEND
  5
FC4
330
873
100
AcDbEntity
  8
L1
  0
ARC
  5
877
330
2
100
AcDbEntity
  8
L1
100
AcDbCircle
 10
246.3594122692311
 20
156.5501923828626
 30
0.0
 40
4.854985757674699
100
AcDbArc
 50
138.7674923253626
 51
187.0000000000006
  0
POLYLINE
  5
878
330
2
100
AcDbEntity
  8
L1
100
AcDb2dPolyline
 66
     1
 10
0.0
 20
0.0
 30
0.0
  0
VERTEX
  5
FC5
330
878
100
AcDbEntity
  8
L1
100
AcDbVertex
100
AcDb2dVertex
 10
231.9594122692311
 20
161.3449979394727
 30
0.0
  0
VERTEX
  5
FC6
330
878
100
AcDbEntity
  8
L1
100
AcDbVertex
100
AcDb2dVertex
 10
231.9619410522994
 20
161.3450006562161
 30
0.0
  0
VERTEX
  5
FC7
330
878
100
AcDbEntity
  8
L1
100
AcDbVertex
100
AcDb2dVertex
 10
231.9644698210209
 20
161.3450015617973
 30
0.0
  0
SEQEND
  5
FC8
330
878
100
AcDbEntity
  8
L1
  0
LINE
  5
87D
330
2
100
AcDbEntity
  8
L1
100
AcDbLine
 10
251.7977613495631
 20
153.3501923828625
 30
0.0
 11
271.7977613495631
 21
153.3501923828625
 31
0.0
  0
LINE
  5
87E
330
2
100
AcDbEntity
  8
L1
100
AcDbLine
 10
271.7977613495631
 20
152.7501923828624
 30
0.0
 11
251.7977613495631
 21
152.7501923828624
 31
0.0
  0
LINE
  5
881
330
2
100
AcDbEntity
  8
L1
100
AcDbLine
 10
251.7977613495631
 20
153.3501923828625
 30
0.0
 11
271.7977613495631
 21
153.3501923828625
 31
0.0
  0
LINE
  5
882
330
2
100
AcDbEntity
  8
L1
100
AcDbLine
 10
271.7977613495631
 20
152.7501923828624
 30
0.0
 11
251.7977613495631
 21
152.7501923828624
 31
0.0
  0
LINE
  5
885
330
2
100
AcDbEntity
  8
L1
100
AcDbLine
 10
248.7594122692311
 20
153.0501923828625
 30
0.0
 11
251.7977613495632
 21
153.9501923828625
 31
0.0
  0
LINE
  5
887
330
2
100
AcDbEntity
  8
L1
100
AcDbLine
 10
248.7594122692311
 20
153.0501923828625
 30
0.0
 11
251.7977613495632
 21
153.9501923828625
 31
0.0
  0
LINE
  5
889
330
2
100
AcDbEntity
  8
L1
100
AcDbLine
 10
251.7977613495631
 20
152.1501923828625
 30
0.0
 11
248.7594122692311
 21
153.0501923828625
 31
0.0
  0
LINE
  5
88B
330
2
100
AcDbEntity
  8
L1
100
AcDbLine
 10
251.7977613495631
 20
152.1501923828625
 30
0.0
 11
248.7594122692311
 21
153.0501923828625
 31
0.0
  0
LINE
  5
88D
330
2
100
AcDbEntity
  8
L1
100
AcDbLine
 10
245.742676492837
 20
153.0501923828625
 30
0.0
 11
245.742676492837
 21
156.1389793361647
 31
0.0
  0
LINE
  5
88E
330
2
100
AcDbEntity
  8
L1
100
AcDbLine
 10
244.9822011274051
 20
156.5501923828626
 30
0.0
 11
244.9822011274051
 21
153.0501923828625
 31
0.0
  0
POLYLINE
  5
891
330
2
100
AcDbEntity
  8
L1
100
AcDb2dPolyline
 66
     1
 10
0.0
 20
0.0
 30
0.0
  0
VERTEX
  5
FC9
330
891
100
AcDbEntity
  8
L1
100
AcDbVertex
100
AcDb2dVertex
 10
246.3426536466755
 20
155.5390021823262
 30
0.0
  0
VERTEX
  5
FCA
330
891
100
AcDbEntity
  8
L1
100
AcDbVertex
100
AcDb2dVertex
 10
246.0426615357621
 20
155.6193823856126
 30
0.0
  0
VERTEX
  5
FCB
330
891
100
AcDbEntity
  8
L1
100
AcDbVertex
100
AcDb2dVertex
 10
245.8230566961234
 20
155.8389872252513
 30
0.0
  0
VERTEX
  5
FCC
330
891
100
AcDbEntity
  8
L1
100
AcDbVertex
100
AcDb2dVertex
 10
245.742676492837
 20
156.1389793361647
 30
0.0
  0
SEQEND
  5
FCD
330
891
100
AcDbEntity
  8
L1
  0
ARC
  5
897
330
2
100
AcDbEntity
  8
L1
100
AcDbCircle
 10
246.3594122692311
 20
156.5501923828626
 30
0.0
 40
1.377211141825941
100
AcDbArc
 50
90.0
 51
180.0
  0
LINE
  5
898
330
2
100
AcDbEntity
  8
L1
100
AcDbLine
 10
251.7977613495631
 20
153.9501923828625
 30
0.0
 11
251.7977613495631
 21
153.3501923828625
 31
0.0
  0
LINE
  5
89A
330
2
100
AcDbEntity
  8
L1
100
AcDbLine
 10
251.7977613495631
 20
153.9501923828625
 30
0.0
 11
251.7977613495631
 21
153.3501923828625
 31
0.0
  0
LINE
  5
89C
330
2
100
AcDbEntity
  8
L1
100
AcDbLine
 10
251.7977613495631
 20
152.7501923828625
 30
0.0
 11
251.7977613495631
 21
152.1501923828625
 31
0.0
  0
LINE
  5
8A1
330
2
100
AcDbEntity
  8
L1
100
AcDbLine
 10
251.7977613495631
 20
152.7501923828625
 30
0.0
 11
251.7977613495631
 21
152.1501923828625
 31
0.0
  0
ELLIPSE
  5
8B9
330
2
100
AcDbEntity
  8
L1
 62
     9
100
AcDbEllipse
 10
241.0035208902983
 20
216.9954106116151
 30
0.0
 11
1.999999999999999
 21
0.0
 31
0.0
210
0.0
220
0.0
230
-1.0
 40
0.9999619230641712
 41
-1.570796326794896
 42
-0.0087263139928879
  0
ELLIPSE
  5
8BA
330
2
100
AcDbEntity
  8
L1
 62
     9
100
AcDbEllipse
 10
241.0035208902983
 20
216.9989240715409
 30
0.0
 11
1.996486406287232
 21
0.0
 31
0.0
210
0.0
220
0.0
230
1.0
 40
0.9999619230641712
 41
0.0087263139928945
 42
1.570796326794896
  0
ELLIPSE
  5
8BB
330
2
100
AcDbEntity
  8
L1
 62
     9
100
AcDbEllipse
 10
241.0035208902983
 20
216.9954106116151
 30
0.0
 11
1.999999999999999
 21
0.0
 31
0.0
210
0.0
220
0.0
230
-1.0
 40
0.9999619230641712
 41
-1.570796326794896
 42
-0.0087263139928879
  0
ELLIPSE
  5
8BC
330
2
100
AcDbEntity
  8
L1
 62
     9
100
AcDbEllipse
 10
241.0035208902983
 20
216.9989240715409
 30
0.0
 11
1.996486406287232
 21
0.0
 31
0.0
210
0.0
220
0.0
230
1.0
 40
0.9999619230641712
 41
0.0087263139928945
 42
1.570796326794896
  0
LINE
  5
8C2
330
2
100
AcDbEntity
  8
L1
100
AcDbLine
 10
228.6645317399747
 20
198.4908569591867
 30
0.0
 11
228.4646030902964
 21
221.4004110480012
 31
0.0
  0
LINE
  5
8C3
330
2
100
AcDbEntity
  8
L1
100
AcDbLine
 10
229.1882137443366
 20
218.697952418393
 30
0.0
 11
229.3750154051291
 21
197.2926022662865
 31
0.0
  0
LINE
  5
8CC
330
2
100
AcDbEntity
  8
L1
100
AcDbLine
 10
229.6750039820483
 20
196.9952202269359
 30
0.0
 11
243.0802172556913
 21
196.9952202269359
 31
0.0
  0
ELLIPSE
  5
8CE
330
2
100
AcDbEntity
  8
L1
100
AcDbEllipse
 10
229.1645127015068
 20
198.495220226936
 30
0.0
 11
-0.3566118803365731
 21
0.350468210830617
 31
0.0
210
0.0
220
0.0
230
1.0
 40
0.9999999999999998
 41
0.7854362396012928
 42
2.160215649348274
  0
ELLIPSE
  5
8CF
330
2
100
AcDbEntity
  8
L1
100
AcDbEllipse
 10
229.1645127015068
 20
198.495220226936
 30
0.0
 11
-0.3566118803365731
 21
0.350468210830617
 31
0.0
210
0.0
220
0.0
230
1.0
 40
0.9999999999999998
 41
0.7854362396012928
 42
2.160215649348274
  0
SPLINE
  5
8D0
330
2
100
AcDbEntity
  8
L1
100
AcDbSpline
210
0.0
220
0.0
230
1.0
 70
     8
 71
     3
 72
     8
 73
     4
 74
     0
 42
0.0000000001
 43
0.0000000001
 40
0.3622600280806911
 40
0.3622600280806911
 40
0.3622600280806911
 40
0.3622600280806911
 40
0.4545504850115948
 40
0.4545504850115948
 40
0.4545504850115948
 40
0.4545504850115948
 10
229.1645127015068
 20
197.995220226936
 30
0.0
 10
229.1338675331597
 20
197.995220226936
 30
0.0
 10
229.1017161432785
 20
197.998221449799
 30
0.0
 10
229.0714140818516
 20
198.003964034081
 30
0.0
  0
SPLINE
  5
8D1
330
2
100
AcDbEntity
  8
L1
100
AcDbSpline
210
0.0
220
0.0
230
1.0
 70
     8
 71
     3
 72
     8
 73
     4
 74
     0
 42
0.0000000001
 43
0.0000000001
 40
0.3622600280806911
 40
0.3622600280806911
 40
0.3622600280806911
 40
0.3622600280806911
 40
0.4545504850115948
 40
0.4545504850115948
 40
0.4545504850115948
 40
0.4545504850115948
 10
229.1645127015068
 20
197.995220226936
 30
0.0
 10
229.1338675331597
 20
197.995220226936
 30
0.0
 10
229.1017161432785
 20
197.998221449799
 30
0.0
 10
229.0714140818516
 20
198.003964034081
 30
0.0
  0
LINE
  5
8D2
330
2
100
AcDbEntity
  8
L1
100
AcDbLine
 10
229.3686877116338
 20
197.995220226936
 30
0.0
 11
229.1645127015068
 21
197.995220226936
 31
0.0
  0
ARC
  5
8D3
330
2
100
AcDbEntity
  8
L1
100
AcDbCircle
 10
229.6750039820483
 20
197.295220226936
 30
0.0
 40
0.2999999999999959
100
AcDbArc
 50
180.4999999999981
 51
270.0
  0
LINE
  5
8D4
330
2
100
AcDbEntity
  8
L1
100
AcDbLine
 10
229.3686877116338
 20
197.995220226936
 30
0.0
 11
229.1645127015068
 21
197.995220226936
 31
0.0
  0
ARC
  5
8D5
330
2
100
AcDbEntity
  8
L1
100
AcDbCircle
 10
229.6750039820483
 20
197.295220226936
 30
0.0
 40
0.2999999999999959
100
AcDbArc
 50
180.4999999999981
 51
270.0
  0
LINE
  5
8F7
330
2
100
AcDbEntity
  8
L1
 62
     9
100
AcDbLine
 10
241.0035208902983
 20
218.9953344577434
 30
0.0
 11
228.4855918757262
 21
218.9953344577434
 31
0.0
  0
ARC
  5
8F9
330
2
100
AcDbEntity
  8
L1
100
AcDbCircle
 10
-228.8882251674174
 20
218.6953344577435
 30
0.0
 40
0.2999999999999936
210
0.0
220
0.0
230
-1.0
100
AcDbArc
 50
90.0
 51
179.4999999999992
  0
ARC
  5
8FA
330
2
100
AcDbEntity
  8
L1
100
AcDbCircle
 10
-228.8882251674174
 20
218.6953344577435
 30
0.0
 40
0.2999999999999936
210
0.0
220
0.0
230
-1.0
100
AcDbArc
 50
90.0
 51
179.4999999999992
  0
LINE
  5
904
330
2
100
AcDbEntity
  8
L1
100
AcDbLine
 10
229.0594122692311
 20
221.995220226936
 30
0.0
 11
228.4646030902962
 21
221.4004110480012
 31
0.0
  0
LINE
  5
91D
330
2
100
AcDbEntity
  8
L2
100
AcDbLine
 10
245.5698246764071
 20
221.6978381875855
 30
0.0
 11
245.7504936862723
 21
200.995220226936
 31
0.0
1001
ACAD
1000
ASC_BOUNDS
1002
{
1070
    19
1002
}
  0
LINE
  5
91E
330
2
100
AcDbEntity
  8
L1
 62
     9
100
AcDbLine
 10
243.1659261247625
 20
197.995220226936
 30
0.0
 11
242.9999312822896
 21
217.0163451543293
 31
0.0
  0
ARC
  5
922
330
2
100
AcDbEntity
  8
L1
100
AcDbCircle
 10
-243.0802172556913
 20
197.295220226936
 30
0.0
 40
0.3000000000000007
210
0.0
220
0.0
230
-1.0
100
AcDbArc
 50
180.4999999999981
 51
270.0
  0
ARC
  5
923
330
2
100
AcDbEntity
  8
L1
100
AcDbCircle
 10
-243.0802172556913
 20
197.295220226936
 30
0.0
 40
0.3000000000000007
210
0.0
220
0.0
230
-1.0
100
AcDbArc
 50
180.4999999999981
 51
270.0
  0
ELLIPSE
  5
924
330
2
100
AcDbEntity
  8
L1
100
AcDbEllipse
 10
243.0802172556913
 20
197.2952202269359
 30
0.0
 11
0.2999885769192453
 21
-0.0026179606495102
 31
0.0
210
0.0
220
0.0
230
-1.0
 40
0.0087262032439377
 41
-0.0000000000031118
 42
0.2548353383903704
  0
ELLIPSE
  5
925
330
2
100
AcDbEntity
  8
L1
100
AcDbEllipse
 10
243.0802172556913
 20
197.2952202269359
 30
0.0
 11
0.2999885769192453
 21
-0.0026179606495102
 31
0.0
210
0.0
220
0.0
230
-1.0
 40
0.0087262032439377
 41
-0.0000000000031118
 42
0.2548353383903704
  0
LINE
  5
926
330
2
100
AcDbEntity
  8
L1
100
AcDbLine
 10
243.3802058326106
 20
197.2926022662865
 30
0.0
 11
243.3863374866606
 21
197.995220226936
 31
0.0
  0
LINE
  5
927
330
2
100
AcDbEntity
  8
L1
100
AcDbLine
 10
243.3802058326106
 20
197.2926022662865
 30
0.0
 11
243.3863374866606
 21
197.995220226936
 31
0.0
  0
LINE
  5
932
330
2
100
AcDbEntity
  8
L2
100
AcDbLine
 10
245.6012604588721
 20
218.0952202269361
 30
0.0
 11
245.5974570230992
 21
218.0952202269361
 31
0.0
  0
LINE
  5
933
330
2
100
AcDbEntity
  8
L1
 62
     9
100
AcDbLine
 10
243.0034447422256
 20
217.0128623535688
 30
0.0
 11
242.9999312822896
 21
217.0163451543293
 31
0.0
  0
LINE
  5
934
330
2
100
AcDbEntity
  8
L1
 62
     9
100
AcDbLine
 10
243.0034447422256
 20
217.0128623535688
 30
0.0
 11
242.9999312822896
 21
217.0163451543293
 31
0.0
  0
ARC
  5
935
330
2
100
AcDbEntity
  8
L2
100
AcDbCircle
 10
245.2698360994878
 20
221.6952202269361
 30
0.0
 40
0.2999999999999971
100
AcDbArc
 50
0.4999999999999992
 51
90.0
1001
ACAD
1000
ASC_BOUNDS
1002
{
1070
    19
1002
}
  0
LINE
  5
93A
330
2
100
AcDbEntity
  8
L1
 62
     7
100
AcDbLine
 10
340.6761708917867
 20
155.5390021823263
 30
0.0
 11
293.5094122692311
 21
155.5390021823263
 31
0.0
  0
LINE
  5
93B
330
2
100
AcDbEntity
  8
L1
100
AcDbLine
 10
340.6594122692311
 20
157.9274035246886
 30
0.0
 11
293.5094122692311
 21
157.9274035246886
 31
0.0
  0
LINE
  5
93C
330
2
100
AcDbEntity
  8
L1
100
AcDbLine
 10
293.5094122692311
 20
160.5728822410035
 30
0.0
 11
340.6594122692311
 21
160.5728822410035
 31
0.0
  0
LINE
  5
93D
330
2
100
AcDbEntity
  8
L1
100
AcDbLine
 10
335.2210631888989
 20
152.7501923828625
 30
0.0
 11
315.2210631888989
 21
152.7501923828625
 31
0.0
  0
LINE
  5
93E
330
2
100
AcDbEntity
  8
L1
100
AcDbLine
 10
315.221063188899
 20
153.3501923828625
 30
0.0
 11
335.2210631888989
 21
153.3501923828625
 31
0.0
  0
LINE
  5
941
330
2
100
AcDbEntity
  8
L1
100
AcDbLine
 10
335.2210631888989
 20
152.7501923828625
 30
0.0
 11
315.2210631888989
 21
152.7501923828625
 31
0.0
  0
LINE
  5
942
330
2
100
AcDbEntity
  8
L1
100
AcDbLine
 10
315.221063188899
 20
153.3501923828625
 30
0.0
 11
335.2210631888989
 21
153.3501923828625
 31
0.0
  0
LINE
  5
949
330
2
100
AcDbEntity
  8
L1
100
AcDbLine
 10
335.2210631888989
 20
153.9501923828625
 30
0.0
 11
338.2594122692311
 21
153.0501923828625
 31
0.0
  0
LINE
  5
94A
330
2
100
AcDbEntity
  8
L1
100
AcDbLine
 10
335.2210631888989
 20
153.9501923828625
 30
0.0
 11
338.2594122692311
 21
153.0501923828625
 31
0.0
  0
LINE
  5
94B
330
2
100
AcDbEntity
  8
L1
100
AcDbLine
 10
338.2594122692311
 20
153.0501923828625
 30
0.0
 11
335.2210631888989
 21
152.1501923828625
 31
0.0
  0
LINE
  5
94C
330
2
100
AcDbEntity
  8
L1
100
AcDbLine
 10
338.2594122692311
 20
153.0501923828625
 30
0.0
 11
335.2210631888989
 21
152.1501923828625
 31
0.0
  0
LINE
  5
94D
330
2
100
AcDbEntity
  8
L1
100
AcDbLine
 10
335.2210631888989
 20
153.3501923828625
 30
0.0
 11
335.2210631888989
 21
153.9501923828626
 31
0.0
  0
LINE
  5
94F
330
2
100
AcDbEntity
  8
L1
100
AcDbLine
 10
335.2210631888989
 20
153.3501923828625
 30
0.0
 11
335.2210631888989
 21
153.9501923828626
 31
0.0
  0
LINE
  5
951
330
2
100
AcDbEntity
  8
L1
100
AcDbLine
 10
335.2210631888989
 20
152.1501923828625
 30
0.0
 11
335.2210631888989
 21
152.7501923828625
 31
0.0
  0
LINE
  5
956
330
2
100
AcDbEntity
  8
L1
100
AcDbLine
 10
335.2210631888989
 20
152.1501923828625
 30
0.0
 11
335.2210631888989
 21
152.7501923828625
 31
0.0
  0
LINE
  5
960
330
2
100
AcDbEntity
  8
L6
100
AcDbLine
 10
293.5172294626664
 20
193.1628003584591
 30
0.0
 11
293.5172294626664
 21
229.5688023854085
 31
0.0
  0
LINE
  5
961
330
2
100
AcDbEntity
  8
L2
100
AcDbLine
 10
295.1172294626664
 20
205.495220226936
 30
0.0
 11
291.9172294626664
 21
205.495220226936
 31
0.0
  0
LINE
  5
962
330
2
100
AcDbEntity
  8
L2
100
AcDbLine
 10
290.4591269371771
 20
200.995220226936
 30
0.0
 11
290.5667634026169
 21
205.1056910062591
 31
0.0
  0
LINE
  5
963
330
2
100
AcDbEntity
  8
L2
100
AcDbLine
 10
290.9666263326071
 20
205.495220226936
 30
0.0
 11
291.9172294626665
 21
205.495220226936
 31
0.0
  0
ARC
  5
964
330
2
100
AcDbEntity
  8
L2
100
AcDbCircle
 10
290.9666263326071
 20
205.095220226936
 30
0.0
 40
0.4
100
AcDbArc
 50
90.0
 51
178.4999999999999
  0
LINE
  5
965
330
2
100
AcDbEntity
  8
L2
100
AcDbLine
 10
296.4676955227159
 20
205.1056910062591
 30
0.0
 11
296.5753319881557
 21
200.995220226936
 31
0.0
  0
ARC
  5
966
330
2
100
AcDbEntity
  8
L2
100
AcDbCircle
 10
296.0678325927257
 20
205.095220226936
 30
0.0
 40
0.4
100
AcDbArc
 50
1.499999999999016
 51
90.0
  0
LINE
  5
967
330
2
100
AcDbEntity
  8
L2
100
AcDbLine
 10
295.1172294626664
 20
205.495220226936
 30
0.0
 11
296.0678325927257
 21
205.495220226936
 31
0.0
  0
POLYLINE
  5
977
330
2
100
AcDbEntity
  8
L1
100
AcDb2dPolyline
 66
     1
 10
0.0
 20
0.0
 30
0.0
  0
VERTEX
  5
FCE
330
977
100
AcDbEntity
  8
L1
100
AcDbVertex
100
AcDb2dVertex
 10
355.0594122692311
 20
161.3449979394728
 30
0.0
  0
VERTEX
  5
FCF
330
977
100
AcDbEntity
  8
L1
100
AcDbVertex
100
AcDb2dVertex
 10
355.7310465429935
 20
161.2789731961923
 30
0.0
  0
VERTEX
  5
FD0
330
977
100
AcDbEntity
  8
L1
100
AcDbVertex
100
AcDb2dVertex
 10
356.0674575782554
 20
161.1951255341995
 30
0.0
  0
VERTEX
  5
FD1
330
977
100
AcDbEntity
  8
L1
100
AcDbVertex
100
AcDb2dVertex
 10
356.3960495682833
 20
161.0776464572251
 30
0.0
  0
VERTEX
  5
FD2
330
977
100
AcDbEntity
  8
L1
100
AcDbVertex
100
AcDb2dVertex
 10
356.7112593208149
 20
160.927924861985
 30
0.0
  0
VERTEX
  5
FD3
330
977
100
AcDbEntity
  8
L1
100
AcDbVertex
100
AcDb2dVertex
 10
357.0081746300375
 20
160.748918206844
 30
0.0
  0
VERTEX
  5
FD4
330
977
100
AcDbEntity
  8
L1
100
AcDbVertex
100
AcDb2dVertex
 10
357.5291682447748
 20
160.3199483584063
 30
0.0
  0
VERTEX
  5
FD5
330
977
100
AcDbEntity
  8
L1
100
AcDbVertex
100
AcDb2dVertex
 10
357.9581380932125
 20
159.798954743669
 30
0.0
  0
VERTEX
  5
FD6
330
977
100
AcDbEntity
  8
L1
100
AcDbVertex
100
AcDb2dVertex
 10
358.1371447483535
 20
159.5020394344463
 30
0.0
  0
VERTEX
  5
FD7
330
977
100
AcDbEntity
  8
L1
100
AcDbVertex
100
AcDb2dVertex
 10
358.2868663435935
 20
159.1868296819147
 30
0.0
  0
VERTEX
  5
FD8
330
977
100
AcDbEntity
  8
L1
100
AcDbVertex
100
AcDb2dVertex
 10
358.404345420568
 20
158.8582376918868
 30
0.0
  0
VERTEX
  5
FD9
330
977
100
AcDbEntity
  8
L1
100
AcDbVertex
100
AcDb2dVertex
 10
358.4881930825608
 20
158.5218266566249
 30
0.0
  0
VERTEX
  5
FDA
330
977
100
AcDbEntity
  8
L1
100
AcDbVertex
100
AcDb2dVertex
 10
358.5542178258412
 20
157.8501923828626
 30
0.0
  0
SEQEND
  5
FDB
330
977
100
AcDbEntity
  8
L1
  0
ARC
  5
986
330
2
100
AcDbEntity
  8
L1
100
AcDbCircle
 10
355.0594122692311
 20
157.8501923828626
 30
0.0
 40
2.899999999999968
100
AcDbArc
 50
0.0
 51
90.0
  0
ARC
  5
987
330
2
100
AcDbEntity
  8
L1
100
AcDbCircle
 10
355.0594122692311
 20
157.8501923828626
 30
0.0
 40
1.9
100
AcDbArc
 50
0.0
 51
90.0
  0
ARC
  5
988
330
2
100
AcDbEntity
  8
L1
100
AcDbCircle
 10
355.0594122692311
 20
157.8501923828626
 30
0.0
 40
1.873819396627723
100
AcDbArc
 50
0.0
 51
90.0
  0
CIRCLE
  5
989
330
2
100
AcDbEntity
  8
L1
100
AcDbCircle
 10
350.2594122692311
 20
153.0501923828627
 30
0.0
 40
2.25
  0
CIRCLE
  5
98A
330
2
100
AcDbEntity
  8
L1
100
AcDbCircle
 10
350.2594122692311
 20
153.0501923828626
 30
0.0
 40
4.0
  0
LINE
  5
98B
330
2
100
AcDbEntity
  8
L6
 48
0.3
100
AcDbLine
 10
345.2594122692311
 20
153.0501923828625
 30
0.0
 11
355.2594122692311
 21
153.0501923828625
 31
0.0
  0
LINE
  5
98C
330
2
100
AcDbEntity
  8
L1
100
AcDbLine
 10
344.3105609524847
 20
159.7501923828626
 30
0.0
 11
355.0594122692311
 21
159.7501923828626
 31
0.0
  0
LINE
  5
98D
330
2
100
AcDbEntity
  8
L1
100
AcDbLine
 10
355.0594122692311
 20
159.7240117794903
 30
0.0
 11
344.3678695605866
 21
159.7240117794903
 31
0.0
  0
LINE
  5
98E
330
2
100
AcDbEntity
  8
L1
100
AcDbLine
 10
342.036623411057
 20
153.0501923828625
 30
0.0
 11
342.036623411057
 21
156.5501923828626
 31
0.0
  0
LINE
  5
98F
330
2
100
AcDbEntity
  8
L1
100
AcDbLine
 10
341.2761480456251
 20
156.1389793361647
 30
0.0
 11
341.2761480456251
 21
153.0501923828625
 31
0.0
  0
LINE
  5
990
330
2
100
AcDbEntity
  8
L1
100
AcDbLine
 10
344.682102127372
 20
156.5501923828626
 30
0.0
 11
344.682102127372
 21
153.0501923828625
 31
0.0
  0
LINE
  5
991
330
2
100
AcDbEntity
  8
L1
100
AcDbLine
 10
345.5041951564093
 20
155.9553278433907
 30
0.0
 11
345.2234123529851
 21
153.6685354212858
 31
0.0
  0
LINE
  5
992
330
2
100
AcDbEntity
  8
L1
100
AcDbLine
 10
345.1974268958603
 20
153.6717260342288
 30
0.0
 11
345.4782096992845
 21
155.9585184563336
 31
0.0
  0
ARC
  5
993
330
2
100
AcDbEntity
  8
L1
100
AcDbCircle
 10
340.6594122692311
 20
156.5501923828628
 30
0.0
 40
4.854985757674737
100
AcDbArc
 50
353.0000000000001
 51
41.23250767463432
  0
ARC
  5
994
330
2
100
AcDbEntity
  8
L1
100
AcDbCircle
 10
340.6594122692311
 20
156.5501923828628
 30
0.0
 40
4.881166361047013
100
AcDbArc
 50
352.9999999999999
 51
40.55799639613675
  0
POLYLINE
  5
995
330
2
100
AcDbEntity
  8
L1
100
AcDb2dPolyline
 66
     1
 10
0.0
 20
0.0
 30
0.0
  0
VERTEX
  5
FDC
330
995
100
AcDbEntity
  8
L1
100
AcDbVertex
100
AcDb2dVertex
 10
344.3105609524849
 20
159.7501923828626
 30
0.0
  0
VERTEX
  5
FDD
330
995
100
AcDbEntity
  8
L1
100
AcDbVertex
100
AcDb2dVertex
 10
344.3678695605866
 20
159.7240117794903
 30
0.0
  0
SEQEND
  5
FDE
330
995
100
AcDbEntity
  8
L1
  0
POLYLINE
  5
999
330
2
100
AcDbEntity
  8
L1
100
AcDb2dPolyline
 66
     1
 10
0.0
 20
0.0
 30
0.0
  0
VERTEX
  5
FDF
330
999
100
AcDbEntity
  8
L1
100
AcDbVertex
100
AcDb2dVertex
 10
355.0543547174412
 20
161.3450015617974
 30
0.0
  0
VERTEX
  5
FE0
330
999
100
AcDbEntity
  8
L1
100
AcDbVertex
100
AcDb2dVertex
 10
355.0568834861628
 20
161.3450006562161
 30
0.0
  0
VERTEX
  5
FE1
330
999
100
AcDbEntity
  8
L1
100
AcDbVertex
100
AcDb2dVertex
 10
355.0594122692311
 20
161.3449979394728
 30
0.0
  0
SEQEND
  5
FE2
330
999
100
AcDbEntity
  8
L1
  0
POLYLINE
  5
99E
330
2
100
AcDbEntity
  8
L1
100
AcDb2dPolyline
 66
     1
 10
0.0
 20
0.0
 30
0.0
  0
VERTEX
  5
FE3
330
99E
100
AcDbEntity
  8
L1
100
AcDbVertex
100
AcDb2dVertex
 10
358.5542178258412
 20
157.8501923828626
 30
0.0
  0
VERTEX
  5
FE4
330
99E
100
AcDbEntity
  8
L1
100
AcDbVertex
100
AcDb2dVertex
 10
358.5542205425846
 20
157.8476635997943
 30
0.0
  0
VERTEX
  5
FE5
330
99E
100
AcDbEntity
  8
L1
100
AcDbVertex
100
AcDb2dVertex
 10
358.5542214481658
 20
157.8451348310728
 30
0.0
  0
SEQEND
  5
FE6
330
99E
100
AcDbEntity
  8
L1
  0
LINE
  5
A14
330
2
100
AcDbEntity
  8
L1
100
AcDbLine
 10
271.7977613495631
 20
153.3501923828625
 30
0.0
 11
271.7977613495631
 21
152.7501923828624
 31
0.0
  0
LINE
  5
A15
330
2
100
AcDbEntity
  8
L1
100
AcDbLine
 10
315.221063188899
 20
153.3501923828625
 30
0.0
 11
315.2210631888989
 21
152.7501923828625
 31
0.0
  0
LINE
  5
A49
330
2
100
AcDbEntity
  8
L2
100
AcDbLine
 10
196.3063575627614
 20
124.3583053897255
 30
0.0
 11
192.1958867834382
 21
124.2506689242857
 31
0.0
  0
LINE
  5
A4A
330
2
100
AcDbEntity
  8
L2
100
AcDbLine
 10
191.8063575627614
 20
123.8508059942955
 30
0.0
 11
191.8063575627614
 21
118.7495997341769
 31
0.0
  0
ARC
  5
A4B
330
2
100
AcDbEntity
  8
L2
100
AcDbCircle
 10
192.2063575627614
 20
123.8508059942955
 30
0.0
 40
0.4
100
AcDbArc
 50
91.50000000000003
 51
180.0
  0
LINE
  5
A4C
330
2
100
AcDbEntity
  8
L2
100
AcDbLine
 10
192.1958867834382
 20
118.3497368041867
 30
0.0
 11
196.3063575627614
 21
118.2421003387469
 31
0.0
  0
ARC
  5
A4D
330
2
100
AcDbEntity
  8
L2
100
AcDbCircle
 10
192.2063575627614
 20
118.7495997341769
 30
0.0
 40
0.4
100
AcDbArc
 50
180.0
 51
268.500000000001
  0
LINE
  5
A73
330
2
100
AcDbEntity
  8
L2
100
AcDbLine
 10
175.3063575627614
 20
98.35798062691122
 30
0.0
 11
196.3063575627614
 21
98.54124485051713
 31
0.0
1001
ACAD
1000
ASC_BOUNDS
1002
{
1070
    19
1002
}
  0
LINE
  5
A7A
330
2
100
AcDbEntity
  8
L1
100
AcDbLine
 10
357.3594549432846
 20
196.9952202269359
 30
0.0
 11
343.9542416696415
 21
196.9952202269359
 31
0.0
  0
ELLIPSE
  5
A7B
330
2
100
AcDbEntity
  8
L1
 62
     9
100
AcDbEllipse
 10
346.0309380350345
 20
216.9989240715409
 30
0.0
 11
-1.996486406287232
 21
0.0
 31
0.0
210
0.0
220
0.0
230
-1.0
 40
0.9999619230641712
 41
0.0087263139928946
 42
1.570796326794896
  0
ELLIPSE
  5
A7C
330
2
100
AcDbEntity
  8
L1
 62
     9
100
AcDbEllipse
 10
346.0309380350345
 20
216.9954106116151
 30
0.0
 11
-1.999999999999999
 21
0.0
 31
0.0
210
0.0
220
0.0
230
1.0
 40
0.9999619230641712
 41
-1.570796326794896
 42
-0.0087263139928878
  0
ELLIPSE
  5
A7D
330
2
100
AcDbEntity
  8
L1
 62
     9
100
AcDbEllipse
 10
346.0309380350345
 20
216.9989240715409
 30
0.0
 11
-1.996486406287232
 21
0.0
 31
0.0
210
0.0
220
0.0
230
-1.0
 40
0.9999619230641712
 41
0.0087263139928946
 42
1.570796326794896
  0
ELLIPSE
  5
A7E
330
2
100
AcDbEntity
  8
L1
 62
     9
100
AcDbEllipse
 10
346.0309380350345
 20
216.9954106116151
 30
0.0
 11
-1.999999999999999
 21
0.0
 31
0.0
210
0.0
220
0.0
230
1.0
 40
0.9999619230641712
 41
-1.570796326794896
 42
-0.0087263139928878
  0
LINE
  5
A7F
330
2
100
AcDbEntity
  8
L1
100
AcDbLine
 10
358.3699271853582
 20
198.4908569591867
 30
0.0
 11
358.5698558350364
 21
221.4004110480012
 31
0.0
  0
LINE
  5
A80
330
2
100
AcDbEntity
  8
L1
100
AcDbLine
 10
357.8462451809963
 20
218.697952418393
 30
0.0
 11
357.6594435202038
 21
197.2926022662865
 31
0.0
  0
ARC
  5
A81
330
2
100
AcDbEntity
  8
L1
100
AcDbCircle
 10
357.3594549432846
 20
197.295220226936
 30
0.0
 40
0.2999999999999959
100
AcDbArc
 50
270.0
 51
359.5000000000019
  0
LINE
  5
A82
330
2
100
AcDbEntity
  8
L1
100
AcDbLine
 10
357.6657712136991
 20
197.995220226936
 30
0.0
 11
357.8699462238261
 21
197.995220226936
 31
0.0
  0
ARC
  5
A83
330
2
100
AcDbEntity
  8
L1
100
AcDbCircle
 10
357.3594549432846
 20
197.295220226936
 30
0.0
 40
0.2999999999999959
100
AcDbArc
 50
270.0
 51
359.5000000000019
  0
LINE
  5
A84
330
2
100
AcDbEntity
  8
L1
100
AcDbLine
 10
357.6657712136991
 20
197.995220226936
 30
0.0
 11
357.8699462238261
 21
197.995220226936
 31
0.0
  0
SPLINE
  5
A85
330
2
100
AcDbEntity
  8
L1
100
AcDbSpline
210
0.0
220
0.0
230
1.0
 70
     8
 71
     3
 72
     8
 73
     4
 74
     0
 42
0.0000000001
 43
0.0000000001
 40
0.3622600280806911
 40
0.3622600280806911
 40
0.3622600280806911
 40
0.3622600280806911
 40
0.4545504850115948
 40
0.4545504850115948
 40
0.4545504850115948
 40
0.4545504850115948
 10
357.8699462238261
 20
197.995220226936
 30
0.0
 10
357.9005913921732
 20
197.995220226936
 30
0.0
 10
357.9327427820544
 20
197.998221449799
 30
0.0
 10
357.9630448434812
 20
198.003964034081
 30
0.0
  0
SPLINE
  5
A86
330
2
100
AcDbEntity
  8
L1
100
AcDbSpline
210
0.0
220
0.0
230
1.0
 70
     8
 71
     3
 72
     8
 73
     4
 74
     0
 42
0.0000000001
 43
0.0000000001
 40
0.3622600280806911
 40
0.3622600280806911
 40
0.3622600280806911
 40
0.3622600280806911
 40
0.4545504850115948
 40
0.4545504850115948
 40
0.4545504850115948
 40
0.4545504850115948
 10
357.8699462238261
 20
197.995220226936
 30
0.0
 10
357.9005913921732
 20
197.995220226936
 30
0.0
 10
357.9327427820544
 20
197.998221449799
 30
0.0
 10
357.9630448434812
 20
198.003964034081
 30
0.0
  0
ELLIPSE
  5
A87
330
2
100
AcDbEntity
  8
L1
100
AcDbEllipse
 10
357.8699462238261
 20
198.495220226936
 30
0.0
 11
0.3566118803365731
 21
0.350468210830617
 31
0.0
210
0.0
220
0.0
230
-1.0
 40
0.9999999999999998
 41
0.7854362396012923
 42
2.160215649348274
  0
ELLIPSE
  5
A88
330
2
100
AcDbEntity
  8
L1
100
AcDbEllipse
 10
357.8699462238261
 20
198.495220226936
 30
0.0
 11
0.3566118803365731
 21
0.350468210830617
 31
0.0
210
0.0
220
0.0
230
-1.0
 40
0.9999999999999998
 41
0.7854362396012923
 42
2.160215649348274
  0
LINE
  5
A89
330
2
100
AcDbEntity
  8
L1
 62
     9
100
AcDbLine
 10
346.0309380350345
 20
218.9953344577434
 30
0.0
 11
358.5488670496067
 21
218.9953344577434
 31
0.0
  0
ARC
  5
A8A
330
2
100
AcDbEntity
  8
L1
100
AcDbCircle
 10
-358.1462337579155
 20
218.6953344577435
 30
0.0
 40
0.2999999999999936
210
0.0
220
0.0
230
-1.0
100
AcDbArc
 50
0.5000000000007832
 51
90.0
  0
ARC
  5
A8B
330
2
100
AcDbEntity
  8
L1
100
AcDbCircle
 10
-358.1462337579155
 20
218.6953344577435
 30
0.0
 40
0.2999999999999936
210
0.0
220
0.0
230
-1.0
100
AcDbArc
 50
0.5000000000007832
 51
90.0
  0
LINE
  5
A8C
330
2
100
AcDbEntity
  8
L1
100
AcDbLine
 10
357.9750466561018
 20
221.995220226936
 30
0.0
 11
358.5698558350366
 21
221.4004110480012
 31
0.0
  0
LINE
  5
A8D
330
2
100
AcDbEntity
  8
L1
 62
     9
100
AcDbLine
 10
343.8685328005704
 20
197.995220226936
 30
0.0
 11
344.0345276430433
 21
217.0163451543293
 31
0.0
  0
LINE
  5
A8E
330
2
100
AcDbEntity
  8
L2
100
AcDbLine
 10
341.4646342489258
 20
221.6978381875855
 30
0.0
 11
341.2839652390606
 21
200.995220226936
 31
0.0
1001
ACAD
1000
ASC_BOUNDS
1002
{
1070
    19
1002
}
  0
LINE
  5
A8F
330
2
100
AcDbEntity
  8
L1
100
AcDbLine
 10
343.6542530927223
 20
197.2926022662865
 30
0.0
 11
343.6481214386723
 21
197.995220226936
 31
0.0
  0
LINE
  5
A90
330
2
100
AcDbEntity
  8
L1
100
AcDbLine
 10
343.6542530927223
 20
197.2926022662865
 30
0.0
 11
343.6481214386723
 21
197.995220226936
 31
0.0
  0
ELLIPSE
  5
A91
330
2
100
AcDbEntity
  8
L1
100
AcDbEllipse
 10
343.9542416696416
 20
197.2952202269359
 30
0.0
 11
-0.2999885769192453
 21
-0.0026179606495102
 31
0.0
210
0.0
220
0.0
230
1.0
 40
0.0087262032439377
 41
-0.0000000000031118
 42
0.2548353383805582
  0
ELLIPSE
  5
A92
330
2
100
AcDbEntity
  8
L1
100
AcDbEllipse
 10
343.9542416696416
 20
197.2952202269359
 30
0.0
 11
-0.2999885769192453
 21
-0.0026179606495102
 31
0.0
210
0.0
220
0.0
230
1.0
 40
0.0087262032439377
 41
-0.0000000000031118
 42
0.2548353383805582
  0
ARC
  5
A93
330
2
100
AcDbEntity
  8
L1
100
AcDbCircle
 10
-343.9542416696415
 20
197.295220226936
 30
0.0
 40
0.3000000000000007
210
0.0
220
0.0
230
-1.0
100
AcDbArc
 50
270.0
 51
359.5000000000019
  0
ARC
  5
A94
330
2
100
AcDbEntity
  8
L1
100
AcDbCircle
 10
-343.9542416696415
 20
197.295220226936
 30
0.0
 40
0.3000000000000007
210
0.0
220
0.0
230
-1.0
100
AcDbArc
 50
270.0
 51
359.5000000000019
  0
LINE
  5
A95
330
2
100
AcDbEntity
  8
L1
 62
     9
100
AcDbLine
 10
344.0310141831072
 20
217.0128623535688
 30
0.0
 11
344.0345276430433
 21
217.0163451543293
 31
0.0
  0
LINE
  5
A96
330
2
100
AcDbEntity
  8
L1
 62
     9
100
AcDbLine
 10
344.0310141831072
 20
217.0128623535688
 30
0.0
 11
344.0345276430433
 21
217.0163451543293
 31
0.0
  0
LINE
  5
A97
330
2
100
AcDbEntity
  8
L2
100
AcDbLine
 10
341.4331984664607
 20
218.0952202269361
 30
0.0
 11
341.4370019022336
 21
218.0952202269361
 31
0.0
  0
ARC
  5
A98
330
2
100
AcDbEntity
  8
L2
100
AcDbCircle
 10
341.7646228258451
 20
221.6952202269361
 30
0.0
 40
0.2999999999999971
100
AcDbArc
 50
90.0
 51
179.4999999999999
1001
ACAD
1000
ASC_BOUNDS
1002
{
1070
    19
1002
}
  0
LINE
  5
AE3
330
2
100
AcDbEntity
  8
L1
100
AcDbLine
 10
199.2976137556163
 20
81.86219419548306
 30
0.0
 11
199.2976137556163
 21
82.15958755866099
 31
0.0
  0
LINE
  5
AE4
330
2
100
AcDbEntity
  8
L1
100
AcDbLine
 10
199.2976137556163
 20
81.86219419548306
 30
0.0
 11
199.2976137556163
 21
82.15958755866099
 31
0.0
  0
LINE
  5
B05
330
2
100
AcDbEntity
  8
L1
100
AcDbLine
 10
175.9011667416961
 20
161.3450015617631
 30
0.0
 11
198.8107208305106
 21
161.1450729120849
 31
0.0
  0
LINE
  5
B06
330
2
100
AcDbEntity
  8
L2
100
AcDbLine
 10
175.3063575627614
 20
144.2424041387798
 30
0.0
 11
196.3063575627614
 21
144.0591399151739
 31
0.0
1001
ACAD
1000
ASC_BOUNDS
1002
{
1070
    19
1002
}
  0
LINE
  5
B07
330
2
100
AcDbEntity
  8
L1
100
AcDbLine
 10
175.3063575627614
 20
160.7501923828284
 30
0.0
 11
175.9011631193716
 21
161.3449979394385
 31
0.0
  0
LINE
  5
B08
330
2
100
AcDbEntity
  8
L1
 62
     9
100
AcDbLine
 10
180.2887154361286
 20
146.8061599098522
 30
0.0
 11
199.3063575627614
 21
146.6436801294733
 31
0.0
  0
LINE
  5
B09
330
2
100
AcDbEntity
  8
L1
 62
     9
100
AcDbLine
 10
178.6036253713044
 20
160.6213909077415
 30
0.0
 11
200.0089755234109
 21
160.4345892469305
 31
0.0
  0
LINE
  5
B0A
330
2
100
AcDbEntity
  8
L1
 62
     9
100
AcDbLine
 10
178.3062433319539
 20
161.3240127763333
 30
0.0
 11
178.306243331954
 21
148.8060837617795
 31
0.0
  0
ARC
  5
B0B
330
2
100
AcDbEntity
  8
L1
 62
     9
100
AcDbCircle
 10
178.6062433319539
 20
160.9213794846422
 30
0.0
 40
0.2999999999999936
100
AcDbArc
 50
180.0
 51
269.5000000000019
  0
ELLIPSE
  5
B0C
330
2
100
AcDbEntity
  8
L1
 62
     9
100
AcDbEllipse
 10
180.3061671780822
 20
148.8060837617795
 30
0.0
 11
0.0
 21
2.0
 31
0.0
210
0.0
220
0.0
230
-1.0
 40
0.9999619230641712
 41
-3.132866339596933
 42
-1.570796326794896
  0
LINE
  5
B0D
330
2
100
AcDbEntity
  8
L1
100
AcDbLine
 10
200.3063575627614
 20
157.6346958623508
 30
0.0
 11
200.3063575627614
 21
146.7293873963684
 31
0.0
  0
LINE
  5
B0E
330
2
100
AcDbEntity
  8
L1
100
AcDbLine
 10
200.3063575627614
 20
160.1346006700112
 30
0.0
 11
200.3063575627614
 21
157.6346958623508
 31
0.0
  0
LINE
  5
B0F
330
2
100
AcDbEntity
  8
L1
100
AcDbLine
 10
200.3063575627614
 20
160.1346006700112
 30
0.0
 11
200.3063575627614
 21
157.6346958623508
 31
0.0
  0
LINE
  5
B10
330
2
100
AcDbEntity
  8
L1
100
AcDbLine
 10
199.2976137556163
 20
160.7381905702079
 30
0.0
 11
199.2976137556163
 21
160.44079720703
 31
0.0
  0
LINE
  5
B11
330
2
100
AcDbEntity
  8
L1
100
AcDbLine
 10
199.2976137556163
 20
160.7381905702079
 30
0.0
 11
199.2976137556163
 21
160.44079720703
 31
0.0
  0
ARC
  5
B12
330
2
100
AcDbEntity
  8
L1
100
AcDbCircle
 10
-198.8063575627614
 20
160.6450919505527
 30
0.0
 40
0.5000000000000001
210
0.0
220
0.0
230
-1.0
100
AcDbArc
 50
90.5000000000013
 51
169.2690579399803
  0
ARC
  5
B13
330
2
100
AcDbEntity
  8
L1
100
AcDbCircle
 10
200.0063575627614
 20
160.1346006700112
 30
0.0
 40
0.2999999999999971
100
AcDbArc
 50
0.0
 51
89.49999999999922
  0
LINE
  5
B14
330
2
100
AcDbEntity
  8
L1
100
AcDbLine
 10
200.0089755234109
 20
146.4293988194491
 30
0.0
 11
199.3063575627614
 21
146.4232671653991
 31
0.0
  0
LINE
  5
B15
330
2
100
AcDbEntity
  8
L1
100
AcDbLine
 10
200.0089755234109
 20
146.4293988194491
 30
0.0
 11
199.3064215052695
 21
146.4232677234169
 31
0.0
  0
ARC
  5
B16
330
2
100
AcDbEntity
  8
L1
100
AcDbCircle
 10
200.0063575627614
 20
146.7293873963684
 30
0.0
 40
0.3000000000000007
100
AcDbArc
 50
270.499999999998
 51
0.0
  0
ARC
  5
B17
330
2
100
AcDbEntity
  8
L1
100
AcDbCircle
 10
200.0063575627614
 20
146.7293873963684
 30
0.0
 40
0.3000000000000007
100
AcDbArc
 50
270.499999999998
 51
0.0
  0
LINE
  5
B18
330
2
100
AcDbEntity
  8
L1
100
AcDbLine
 10
411.7124669757008
 20
81.85019238286258
 30
0.0
 11
411.7124669757008
 21
160.7501923828284
 31
0.0
  0
LINE
  5
B19
330
2
100
AcDbEntity
  8
L1
100
AcDbLine
 10
386.7124669757007
 20
157.6346958623508
 30
0.0
 11
386.7124669757007
 21
146.7293873963684
 31
0.0
  0
ELLIPSE
  5
B1A
330
2
100
AcDbEntity
  8
L1
 62
     9
100
AcDbEllipse
 10
406.71265736038
 20
148.8060837617795
 30
0.0
 11
0.0
 21
2.0
 31
0.0
210
0.0
220
0.0
230
1.0
 40
0.9999619230641712
 41
-3.132866339596933
 42
-1.570796326794896
  0
SPLINE
  5
B1B
330
2
100
AcDbEntity
  8
L1
 62
     9
100
AcDbSpline
210
0.0
220
0.0
230
1.0
 70
     8
 71
     3
 72
    22
 73
    18
 74
     0
 42
0.0000000001
 43
0.0000000001
 40
0.0
 40
0.0
 40
0.0
 40
0.0
 40
0.6579131854116439
 40
0.6579131854116439
 40
1.315826370823287
 40
1.315826370823287
 40
1.973739556234931
 40
1.973739556234931
 40
2.631652741646575
 40
2.631652741646575
 40
3.289565927058184
 40
3.289565927058184
 40
3.947479112469793
 40
3.947479112469793
 40
4.605392297881402
 40
4.605392297881402
 40
5.263305483293011
 40
5.263305483293011
 40
5.263305483293011
 40
5.263305483293011
 10
411.1176614190908
 20
161.3449979394569
 30
0.0
 10
411.1179755574689
 20
84.53088843770739
 30
0.0
 10
411.1182682899004
 20
84.30410912029335
 30
0.0
 10
411.1187817289932
 20
83.85300709790723
 30
0.0
 10
411.1190025125535
 20
83.62868070135819
 30
0.0
 10
411.1193560055371
 20
83.19842946626263
 30
0.0
 10
411.1194890246363
 20
82.99216304852526
 30
0.0
 10
411.1196633265397
 20
82.61069699558705
 30
0.0
 10
411.119704579335
 20
82.43550803226451
 30
0.0
 10
411.119704579335
 20
82.12536478237344
 30
0.0
 10
411.1196633265397
 20
81.97979803080771
 30
0.0
 10
411.1194890246363
 20
81.72313508695458
 30
0.0
 10
411.1193560055371
 20
81.61202303389227
 30
0.0
 10
411.1190025125535
 20
81.43345358310812
 30
0.0
 10
411.1187817289931
 20
81.36585440828282
 30
0.0
 10
411.1182682899004
 20
81.27696873078289
 30
0.0
 10
411.1179755574688
 20
81.25570096463071
 30
0.0
 10
411.1176614190906
 20
81.25538682625244
 30
0.0
  0
LINE
  5
B1C
330
2
100
AcDbEntity
  8
L1
100
AcDbLine
 10
387.7124669757008
 20
95.95670463621768
 30
0.0
 11
387.7124669757008
 21
146.659312914207
 31
0.0
  0
LINE
  5
B1D
330
2
100
AcDbEntity
  8
L2
100
AcDbLine
 10
390.7124669757008
 20
98.54124485051713
 30
0.0
 11
390.7124669757006
 21
144.0591608779553
 31
0.0
  0
LINE
  5
B1E
330
2
100
AcDbEntity
  8
L1
100
AcDbLine
 10
387.7124669757008
 20
95.96018930436997
 30
0.0
 11
387.7124669757008
 21
121.3001923828455
 31
0.0
  0
LINE
  5
B1F
330
2
100
AcDbEntity
  8
L1
100
AcDbLine
 10
411.1176577967659
 20
81.2553832039279
 30
0.0
 11
388.2081037079516
 21
81.45531185360615
 31
0.0
  0
LINE
  5
B20
330
2
100
AcDbEntity
  8
L2
100
AcDbLine
 10
411.7124669757008
 20
98.35798062691122
 30
0.0
 11
390.7124669757008
 21
98.54124485051713
 31
0.0
1001
ACAD
1000
ASC_BOUNDS
1002
{
1070
    19
1002
}
  0
LINE
  5
B21
330
2
100
AcDbEntity
  8
L1
100
AcDbLine
 10
411.7124669757008
 20
81.85019238286264
 30
0.0
 11
411.1176614190906
 21
81.25538682625244
 31
0.0
  0
LINE
  5
B22
330
2
100
AcDbEntity
  8
L1
 62
     9
100
AcDbLine
 10
406.7301091023336
 20
95.79422485583876
 30
0.0
 11
387.7124669757008
 21
95.95670463621768
 31
0.0
  0
LINE
  5
B23
330
2
100
AcDbEntity
  8
L1
 62
     9
100
AcDbLine
 10
408.4151991671578
 20
81.97899385794954
 30
0.0
 11
387.0098490150512
 21
82.16579551876057
 31
0.0
  0
LINE
  5
B24
330
2
100
AcDbEntity
  8
L1
 62
     9
100
AcDbLine
 10
408.7125812065083
 20
81.2763719893577
 30
0.0
 11
408.7125812065082
 21
93.79430100391147
 31
0.0
  0
ARC
  5
B25
330
2
100
AcDbEntity
  8
L1
 62
     9
100
AcDbCircle
 10
408.4125812065082
 20
81.67900528104885
 30
0.0
 40
0.2999999999999936
100
AcDbArc
 50
0.0
 51
89.50000000000192
  0
ELLIPSE
  5
B26
330
2
100
AcDbEntity
  8
L1
 62
     9
100
AcDbEllipse
 10
406.71265736038
 20
93.79430100391147
 30
0.0
 11
0.0
 21
-2.0
 31
0.0
210
0.0
220
0.0
230
-1.0
 40
0.9999619230641712
 41
-3.132866339596933
 42
-1.570796326794896
  0
LINE
  5
B27
330
2
100
AcDbEntity
  8
L1
100
AcDbLine
 10
386.7124669757007
 20
84.96568890334023
 30
0.0
 11
386.7124669757007
 21
95.87099736932264
 31
0.0
  0
LINE
  5
B28
330
2
100
AcDbEntity
  8
L1
100
AcDbLine
 10
386.7124669757007
 20
82.4657840956798
 30
0.0
 11
386.7124669757007
 21
84.96568890334023
 31
0.0
  0
LINE
  5
B29
330
2
100
AcDbEntity
  8
L1
100
AcDbLine
 10
386.7124669757007
 20
82.4657840956798
 30
0.0
 11
386.7124669757007
 21
84.96568890334023
 31
0.0
  0
LINE
  5
B2A
330
2
100
AcDbEntity
  8
L1
100
AcDbLine
 10
387.7212107828459
 20
81.86219419548306
 30
0.0
 11
387.7212107828459
 21
82.15958755866099
 31
0.0
  0
LINE
  5
B2B
330
2
100
AcDbEntity
  8
L1
100
AcDbLine
 10
387.7212107828459
 20
81.86219419548306
 30
0.0
 11
387.7212107828459
 21
82.15958755866099
 31
0.0
  0
ARC
  5
B2C
330
2
100
AcDbEntity
  8
L1
100
AcDbCircle
 10
-388.2124669757008
 20
81.95529281513833
 30
0.0
 40
0.5000000000000001
210
0.0
220
0.0
230
-1.0
100
AcDbArc
 50
270.5000000000012
 51
349.2690579399803
  0
ARC
  5
B2D
330
2
100
AcDbEntity
  8
L1
100
AcDbCircle
 10
387.0124669757008
 20
82.4657840956798
 30
0.0
 40
0.2999999999999971
100
AcDbArc
 50
180.0
 51
269.4999999999992
  0
LINE
  5
B2E
330
2
100
AcDbEntity
  8
L1
100
AcDbLine
 10
387.0098490150513
 20
96.17098594624188
 30
0.0
 11
387.7124669757008
 21
96.17711760029189
 31
0.0
  0
LINE
  5
B2F
330
2
100
AcDbEntity
  8
L1
100
AcDbLine
 10
387.0098490150513
 20
96.17098594624188
 30
0.0
 11
387.7124030331927
 21
96.17711704227408
 31
0.0
  0
ARC
  5
B30
330
2
100
AcDbEntity
  8
L1
100
AcDbCircle
 10
387.0124669757008
 20
95.87099736932264
 30
0.0
 40
0.3000000000000007
100
AcDbArc
 50
90.49999999999805
 51
180.0
  0
ARC
  5
B31
330
2
100
AcDbEntity
  8
L1
100
AcDbCircle
 10
387.0124669757008
 20
95.87099736932264
 30
0.0
 40
0.3000000000000007
100
AcDbArc
 50
90.49999999999805
 51
180.0
  0
LINE
  5
B32
330
2
100
AcDbEntity
  8
L2
100
AcDbLine
 10
411.7124669757008
 20
144.2424041387798
 30
0.0
 11
390.7124669757008
 21
144.0591399151739
 31
0.0
1001
ACAD
1000
ASC_BOUNDS
1002
{
1070
    19
1002
}
  0
LINE
  5
B33
330
2
100
AcDbEntity
  8
L6
 62
     1
100
AcDbLine
 10
384.9399986592117
 20
121.3001923828455
 30
0.0
 11
414.2488581685047
 21
121.3001923828455
 31
0.0
  0
LINE
  5
B34
330
2
100
AcDbEntity
  8
L2
100
AcDbLine
 10
394.8229377550239
 20
118.3497368041867
 30
0.0
 11
390.7124669757008
 21
118.2421003387469
 31
0.0
  0
LINE
  5
B35
330
2
100
AcDbEntity
  8
L2
100
AcDbLine
 10
390.7124669757008
 20
124.3583053897255
 30
0.0
 11
394.8229377550239
 21
124.2506689242857
 31
0.0
  0
LINE
  5
B36
330
2
100
AcDbEntity
  8
L2
100
AcDbLine
 10
395.2124669757007
 20
123.8508059942955
 30
0.0
 11
395.2124669757007
 21
118.7495997341769
 31
0.0
  0
ARC
  5
B37
330
2
100
AcDbEntity
  8
L2
100
AcDbCircle
 10
394.8124669757007
 20
118.7495997341769
 30
0.0
 40
0.4
100
AcDbArc
 50
271.4999999999989
 51
0.0
  0
ARC
  5
B38
330
2
100
AcDbEntity
  8
L2
100
AcDbCircle
 10
394.8124669757007
 20
123.8508059942955
 30
0.0
 40
0.4
100
AcDbArc
 50
0.0
 51
88.49999999999997
  0
LINE
  5
B39
330
2
100
AcDbEntity
  8
L1
 62
     9
100
AcDbLine
 10
406.7301091023336
 20
146.8061599098522
 30
0.0
 11
387.7124669757008
 21
146.6436801294733
 31
0.0
  0
ARC
  5
B3A
330
2
100
AcDbEntity
  8
L1
100
AcDbCircle
 10
387.0124669757008
 20
146.7293873963684
 30
0.0
 40
0.3000000000000007
100
AcDbArc
 50
180.0
 51
269.5000000000019
  0
ARC
  5
B3B
330
2
100
AcDbEntity
  8
L1
100
AcDbCircle
 10
387.0124669757008
 20
146.7293873963684
 30
0.0
 40
0.3000000000000007
100
AcDbArc
 50
180.0
 51
269.5000000000019
  0
LINE
  5
B3C
330
2
100
AcDbEntity
  8
L1
100
AcDbLine
 10
387.0098490150513
 20
146.4293988194491
 30
0.0
 11
387.7124030331927
 21
146.4232677234169
 31
0.0
  0
LINE
  5
B3D
330
2
100
AcDbEntity
  8
L1
100
AcDbLine
 10
387.0098490150513
 20
146.4293988194491
 30
0.0
 11
387.7124669757008
 21
146.4232671653991
 31
0.0
  0
LINE
  5
B3E
330
2
100
AcDbEntity
  8
L1
100
AcDbLine
 10
411.1176577967659
 20
161.3450015617631
 30
0.0
 11
388.2081037079516
 21
161.1450729120849
 31
0.0
  0
LINE
  5
B3F
330
2
100
AcDbEntity
  8
L1
100
AcDbLine
 10
411.7124669757008
 20
160.7501923828284
 30
0.0
 11
411.1176614190906
 21
161.3449979394385
 31
0.0
  0
LINE
  5
B40
330
2
100
AcDbEntity
  8
L1
 62
     9
100
AcDbLine
 10
408.4151991671578
 20
160.6213909077415
 30
0.0
 11
387.0098490150512
 21
160.4345892469305
 31
0.0
  0
LINE
  5
B41
330
2
100
AcDbEntity
  8
L1
 62
     9
100
AcDbLine
 10
408.7125812065083
 20
161.3240127763333
 30
0.0
 11
408.7125812065082
 21
148.8060837617795
 31
0.0
  0
ARC
  5
B42
330
2
100
AcDbEntity
  8
L1
 62
     9
100
AcDbCircle
 10
408.4125812065082
 20
160.9213794846422
 30
0.0
 40
0.2999999999999936
100
AcDbArc
 50
270.499999999998
 51
0.0
  0
LINE
  5
B43
330
2
100
AcDbEntity
  8
L1
100
AcDbLine
 10
386.7124669757007
 20
160.1346006700112
 30
0.0
 11
386.7124669757007
 21
157.6346958623508
 31
0.0
  0
LINE
  5
B44
330
2
100
AcDbEntity
  8
L1
100
AcDbLine
 10
386.7124669757007
 20
160.1346006700112
 30
0.0
 11
386.7124669757007
 21
157.6346958623508
 31
0.0
  0
ARC
  5
B45
330
2
100
AcDbEntity
  8
L1
100
AcDbCircle
 10
387.0124669757008
 20
160.1346006700112
 30
0.0
 40
0.2999999999999971
100
AcDbArc
 50
90.50000000000078
 51
180.0
  0
ARC
  5
B46
330
2
100
AcDbEntity
  8
L1
100
AcDbCircle
 10
-388.2124669757008
 20
160.6450919505527
 30
0.0
 40
0.5000000000000001
210
0.0
220
0.0
230
-1.0
100
AcDbArc
 50
10.73094206001969
 51
89.49999999999871
  0
LINE
  5
B47
330
2
100
AcDbEntity
  8
L1
100
AcDbLine
 10
387.7212107828459
 20
160.7381905702079
 30
0.0
 11
387.7212107828459
 21
160.44079720703
 31
0.0
  0
LINE
  5
B48
330
2
100
AcDbEntity
  8
L1
100
AcDbLine
 10
387.7212107828459
 20
160.7381905702079
 30
0.0
 11
387.7212107828459
 21
160.44079720703
 31
0.0
  0
LINE
  5
B4B
330
2
100
AcDbEntity
  8
L2
100
AcDbLine
 10
245.7504936862722
 20
41.60516453878924
 30
0.0
 11
341.2827298182305
 21
41.60516453878924
 31
0.0
  0
LINE
  5
B4C
330
2
100
AcDbEntity
  8
L1
100
AcDbLine
 10
243.1659261247625
 20
44.60516453878921
 30
0.0
 11
343.8685328005705
 21
44.60516453878921
 31
0.0
  0
LINE
  5
B4D
330
2
100
AcDbEntity
  8
L1
100
AcDbLine
 10
358.5698558350366
 20
21.19997371772396
 30
0.0
 11
228.4646030902964
 21
21.19997371772399
 31
0.0
  0
LINE
  5
B4E
330
2
100
AcDbEntity
  8
L1
100
AcDbLine
 10
229.0594122692311
 20
20.60516453878918
 30
0.0
 11
357.9750466561017
 21
20.60516453878926
 31
0.0
  0
ELLIPSE
  5
B4F
330
2
100
AcDbEntity
  8
L1
 62
     9
100
AcDbEllipse
 10
241.0035208902983
 20
25.60497415411009
 30
0.0
 11
1.999999999999999
 21
0.0
 31
0.0
210
0.0
220
0.0
230
1.0
 40
0.9999619230641712
 41
-1.570796326794896
 42
-0.0087263139928879
  0
ELLIPSE
  5
B50
330
2
100
AcDbEntity
  8
L1
 62
     9
100
AcDbEllipse
 10
241.0035208902983
 20
25.60146069418419
 30
0.0
 11
1.996486406287232
 21
0.0
 31
0.0
210
0.0
220
0.0
230
-1.0
 40
0.9999619230641712
 41
0.0087263139928945
 42
1.570796326794896
  0
ELLIPSE
  5
B51
330
2
100
AcDbEntity
  8
L1
 62
     9
100
AcDbEllipse
 10
241.0035208902983
 20
25.60497415411009
 30
0.0
 11
1.999999999999999
 21
0.0
 31
0.0
210
0.0
220
0.0
230
1.0
 40
0.9999619230641712
 41
-1.570796326794896
 42
-0.0087263139928879
  0
ELLIPSE
  5
B52
330
2
100
AcDbEntity
  8
L1
 62
     9
100
AcDbEllipse
 10
241.0035208902983
 20
25.60146069418419
 30
0.0
 11
1.996486406287232
 21
0.0
 31
0.0
210
0.0
220
0.0
230
-1.0
 40
0.9999619230641712
 41
0.0087263139928945
 42
1.570796326794896
  0
LINE
  5
B53
330
2
100
AcDbEntity
  8
L1
100
AcDbLine
 10
229.6750039820483
 20
45.6051645387892
 30
0.0
 11
243.0802172556913
 21
45.6051645387892
 31
0.0
  0
LINE
  5
B54
330
2
100
AcDbEntity
  8
L1
100
AcDbLine
 10
229.1882137443366
 20
23.90243234733219
 30
0.0
 11
229.3750154051291
 21
45.3077824994387
 31
0.0
  0
LINE
  5
B55
330
2
100
AcDbEntity
  8
L1
100
AcDbLine
 10
228.6645317399747
 20
44.10952780653843
 30
0.0
 11
228.4646030902964
 21
21.19997371772399
 31
0.0
  0
ELLIPSE
  5
B56
330
2
100
AcDbEntity
  8
L1
100
AcDbEllipse
 10
229.1645127015068
 20
44.10516453878921
 30
0.0
 11
-0.3566118803365731
 21
-0.350468210830617
 31
0.0
210
0.0
220
0.0
230
-1.0
 40
0.9999999999999998
 41
0.7854362396012928
 42
2.160215649348274
  0
ELLIPSE
  5
B57
330
2
100
AcDbEntity
  8
L1
100
AcDbEllipse
 10
229.1645127015068
 20
44.10516453878921
 30
0.0
 11
-0.3566118803365731
 21
-0.350468210830617
 31
0.0
210
0.0
220
0.0
230
-1.0
 40
0.9999999999999998
 41
0.7854362396012928
 42
2.160215649348274
  0
SPLINE
  5
B58
330
2
100
AcDbEntity
  8
L1
100
AcDbSpline
210
0.0
220
0.0
230
1.0
 70
     8
 71
     3
 72
     8
 73
     4
 74
     0
 42
0.0000000001
 43
0.0000000001
 40
0.3622600280806911
 40
0.3622600280806911
 40
0.3622600280806911
 40
0.3622600280806911
 40
0.4545504850115948
 40
0.4545504850115948
 40
0.4545504850115948
 40
0.4545504850115948
 10
229.1645127015068
 20
44.60516453878921
 30
0.0
 10
229.1338675331597
 20
44.60516453878921
 30
0.0
 10
229.1017161432785
 20
44.60216331592619
 30
0.0
 10
229.0714140818516
 20
44.59642073164414
 30
0.0
  0
SPLINE
  5
B59
330
2
100
AcDbEntity
  8
L1
100
AcDbSpline
210
0.0
220
0.0
230
1.0
 70
     8
 71
     3
 72
     8
 73
     4
 74
     0
 42
0.0000000001
 43
0.0000000001
 40
0.3622600280806911
 40
0.3622600280806911
 40
0.3622600280806911
 40
0.3622600280806911
 40
0.4545504850115948
 40
0.4545504850115948
 40
0.4545504850115948
 40
0.4545504850115948
 10
229.1645127015068
 20
44.60516453878921
 30
0.0
 10
229.1338675331597
 20
44.60516453878921
 30
0.0
 10
229.1017161432785
 20
44.60216331592619
 30
0.0
 10
229.0714140818516
 20
44.59642073164414
 30
0.0
  0
LINE
  5
B5A
330
2
100
AcDbEntity
  8
L1
100
AcDbLine
 10
229.3686877116338
 20
44.60516453878921
 30
0.0
 11
229.1645127015068
 21
44.60516453878921
 31
0.0
  0
ARC
  5
B5B
330
2
100
AcDbEntity
  8
L1
100
AcDbCircle
 10
229.6750039820483
 20
45.30516453878919
 30
0.0
 40
0.2999999999999959
100
AcDbArc
 50
90.0
 51
179.5000000000019
  0
LINE
  5
B5C
330
2
100
AcDbEntity
  8
L1
100
AcDbLine
 10
229.3686877116338
 20
44.60516453878921
 30
0.0
 11
229.1645127015068
 21
44.60516453878921
 31
0.0
  0
ARC
  5
B5D
330
2
100
AcDbEntity
  8
L1
100
AcDbCircle
 10
229.6750039820483
 20
45.30516453878919
 30
0.0
 40
0.2999999999999959
100
AcDbArc
 50
90.0
 51
179.5000000000019
  0
LINE
  5
B5E
330
2
100
AcDbEntity
  8
L1
 62
     9
100
AcDbLine
 10
241.0035208902983
 20
23.60505030798174
 30
0.0
 11
228.4855918757262
 21
23.60505030798174
 31
0.0
  0
LINE
  5
B5F
330
2
100
AcDbEntity
  8
L1
100
AcDbLine
 10
229.0594122692311
 20
20.60516453878921
 30
0.0
 11
228.4646030902962
 21
21.19997371772399
 31
0.0
  0
ARC
  5
B60
330
2
100
AcDbEntity
  8
L1
100
AcDbCircle
 10
-228.8882251674174
 20
23.90505030798169
 30
0.0
 40
0.2999999999999936
210
0.0
220
0.0
230
-1.0
100
AcDbArc
 50
180.5000000000007
 51
270.0
  0
ARC
  5
B61
330
2
100
AcDbEntity
  8
L1
100
AcDbCircle
 10
-228.8882251674174
 20
23.90505030798169
 30
0.0
 40
0.2999999999999936
210
0.0
220
0.0
230
-1.0
100
AcDbArc
 50
180.5000000000007
 51
270.0
  0
LINE
  5
B62
330
2
100
AcDbEntity
  8
L2
100
AcDbLine
 10
245.5698246764071
 20
20.90254657813963
 30
0.0
 11
245.7504936862723
 21
41.60516453878912
 31
0.0
1001
ACAD
1000
ASC_BOUNDS
1002
{
1070
    19
1002
}
  0
LINE
  5
B63
330
2
100
AcDbEntity
  8
L1
 62
     9
100
AcDbLine
 10
243.1659261247625
 20
44.60516453878921
 30
0.0
 11
242.9999312822896
 21
25.58403961139584
 31
0.0
  0
ARC
  5
B64
330
2
100
AcDbEntity
  8
L1
100
AcDbCircle
 10
-243.0802172556913
 20
45.30516453878919
 30
0.0
 40
0.3000000000000007
210
0.0
220
0.0
230
-1.0
100
AcDbArc
 50
90.0
 51
179.5000000000019
  0
ARC
  5
B65
330
2
100
AcDbEntity
  8
L1
100
AcDbCircle
 10
-243.0802172556913
 20
45.30516453878919
 30
0.0
 40
0.3000000000000007
210
0.0
220
0.0
230
-1.0
100
AcDbArc
 50
90.0
 51
179.5000000000019
  0
ELLIPSE
  5
B66
330
2
100
AcDbEntity
  8
L1
100
AcDbEllipse
 10
243.0802172556913
 20
45.30516453878923
 30
0.0
 11
0.2999885769192453
 21
0.0026179606495102
 31
0.0
210
0.0
220
0.0
230
1.0
 40
0.0087262032439377
 41
-0.0000000000031118
 42
0.2548353383805582
  0
ELLIPSE
  5
B67
330
2
100
AcDbEntity
  8
L1
100
AcDbEllipse
 10
243.0802172556913
 20
45.30516453878923
 30
0.0
 11
0.2999885769192453
 21
0.0026179606495102
 31
0.0
210
0.0
220
0.0
230
1.0
 40
0.0087262032439377
 41
-0.0000000000031118
 42
0.2548353383805582
  0
LINE
  5
B68
330
2
100
AcDbEntity
  8
L1
100
AcDbLine
 10
243.3802058326106
 20
45.3077824994387
 30
0.0
 11
243.3863374866606
 21
44.60516453878921
 31
0.0
  0
LINE
  5
B69
330
2
100
AcDbEntity
  8
L1
100
AcDbLine
 10
243.3802058326106
 20
45.3077824994387
 30
0.0
 11
243.3863374866606
 21
44.60516453878921
 31
0.0
  0
LINE
  5
B6A
330
2
100
AcDbEntity
  8
L2
100
AcDbLine
 10
245.6012604588721
 20
24.5051645387891
 30
0.0
 11
245.5974570230992
 21
24.5051645387891
 31
0.0
  0
LINE
  5
B6B
330
2
100
AcDbEntity
  8
L1
 62
     9
100
AcDbLine
 10
243.0034447422256
 20
25.58752241215637
 30
0.0
 11
242.9999312822896
 21
25.58403961139584
 31
0.0
  0
LINE
  5
B6C
330
2
100
AcDbEntity
  8
L1
 62
     9
100
AcDbLine
 10
243.0034447422256
 20
25.58752241215637
 30
0.0
 11
242.9999312822896
 21
25.58403961139584
 31
0.0
  0
ARC
  5
B6D
330
2
100
AcDbEntity
  8
L2
100
AcDbCircle
 10
245.2698360994878
 20
20.90516453878908
 30
0.0
 40
0.2999999999999971
100
AcDbArc
 50
270.0
 51
359.5
1001
ACAD
1000
ASC_BOUNDS
1002
{
1070
    19
1002
}
  0
LINE
  5
B6E
330
2
100
AcDbEntity
  8
L6
100
AcDbLine
 10
293.5172294626664
 20
49.43758440726611
 30
0.0
 11
293.5172294626664
 21
13.0315823803167
 31
0.0
  0
LINE
  5
B6F
330
2
100
AcDbEntity
  8
L2
100
AcDbLine
 10
295.1172294626664
 20
37.10516453878921
 30
0.0
 11
291.9172294626664
 21
37.10516453878921
 31
0.0
  0
LINE
  5
B70
330
2
100
AcDbEntity
  8
L2
100
AcDbLine
 10
290.9666263326071
 20
37.10516453878921
 30
0.0
 11
291.9172294626665
 21
37.10516453878921
 31
0.0
  0
ARC
  5
B71
330
2
100
AcDbEntity
  8
L2
100
AcDbCircle
 10
290.9666263326071
 20
37.50516453878919
 30
0.0
 40
0.4
100
AcDbArc
 50
181.5
 51
270.0
  0
LINE
  5
B72
330
2
100
AcDbEntity
  8
L2
100
AcDbLine
 10
290.4591269371771
 20
41.60516453878918
 30
0.0
 11
290.5667634026169
 21
37.49469375946603
 31
0.0
  0
ARC
  5
B73
330
2
100
AcDbEntity
  8
L2
100
AcDbCircle
 10
296.0678325927257
 20
37.50516453878919
 30
0.0
 40
0.4
100
AcDbArc
 50
270.0
 51
358.500000000001
  0
LINE
  5
B74
330
2
100
AcDbEntity
  8
L2
100
AcDbLine
 10
295.1172294626664
 20
37.10516453878921
 30
0.0
 11
296.0678325927257
 21
37.10516453878921
 31
0.0
  0
LINE
  5
B75
330
2
100
AcDbEntity
  8
L2
100
AcDbLine
 10
296.4676955227159
 20
37.49469375946603
 30
0.0
 11
296.5753319881557
 21
41.60516453878918
 31
0.0
  0
ELLIPSE
  5
B76
330
2
100
AcDbEntity
  8
L1
 62
     9
100
AcDbEllipse
 10
346.0309380350345
 20
25.60146069418419
 30
0.0
 11
-1.996486406287232
 21
0.0
 31
0.0
210
0.0
220
0.0
230
1.0
 40
0.9999619230641712
 41
0.0087263139928946
 42
1.570796326794896
  0
ELLIPSE
  5
B77
330
2
100
AcDbEntity
  8
L1
 62
     9
100
AcDbEllipse
 10
346.0309380350345
 20
25.60497415411009
 30
0.0
 11
-1.999999999999999
 21
0.0
 31
0.0
210
0.0
220
0.0
230
-1.0
 40
0.9999619230641712
 41
-1.570796326794896
 42
-0.008726313992888
  0
ELLIPSE
  5
B78
330
2
100
AcDbEntity
  8
L1
 62
     9
100
AcDbEllipse
 10
346.0309380350345
 20
25.60146069418419
 30
0.0
 11
-1.996486406287232
 21
0.0
 31
0.0
210
0.0
220
0.0
230
1.0
 40
0.9999619230641712
 41
0.0087263139928946
 42
1.570796326794896
  0
ELLIPSE
  5
B79
330
2
100
AcDbEntity
  8
L1
 62
     9
100
AcDbEllipse
 10
346.0309380350345
 20
25.60497415411009
 30
0.0
 11
-1.999999999999999
 21
0.0
 31
0.0
210
0.0
220
0.0
230
-1.0
 40
0.9999619230641712
 41
-1.570796326794896
 42
-0.008726313992888
  0
LINE
  5
B7A
330
2
100
AcDbEntity
  8
L1
100
AcDbLine
 10
358.3699271853582
 20
44.10952780653843
 30
0.0
 11
358.5698558350364
 21
21.19997371772399
 31
0.0
  0
LINE
  5
B7B
330
2
100
AcDbEntity
  8
L1
100
AcDbLine
 10
357.8462451809963
 20
23.90243234733219
 30
0.0
 11
357.6594435202038
 21
45.3077824994387
 31
0.0
  0
LINE
  5
B7C
330
2
100
AcDbEntity
  8
L2
100
AcDbLine
 10
341.4646342489258
 20
20.90254657813963
 30
0.0
 11
341.2839652390606
 21
41.60516453878912
 31
0.0
1001
ACAD
1000
ASC_BOUNDS
1002
{
1070
    19
1002
}
  0
ARC
  5
B7D
330
2
100
AcDbEntity
  8
L1
100
AcDbCircle
 10
357.3594549432846
 20
45.30516453878919
 30
0.0
 40
0.2999999999999959
100
AcDbArc
 50
0.4999999999980861
 51
90.0
  0
ARC
  5
B7E
330
2
100
AcDbEntity
  8
L1
100
AcDbCircle
 10
357.3594549432846
 20
45.30516453878919
 30
0.0
 40
0.2999999999999959
100
AcDbArc
 50
0.4999999999980861
 51
90.0
  0
LINE
  5
B7F
330
2
100
AcDbEntity
  8
L1
 62
     9
100
AcDbLine
 10
343.8685328005704
 20
44.60516453878921
 30
0.0
 11
344.0345276430433
 21
25.58403961139584
 31
0.0
  0
LINE
  5
B80
330
2
100
AcDbEntity
  8
L1
100
AcDbLine
 10
357.3594549432846
 20
45.6051645387892
 30
0.0
 11
343.9542416696415
 21
45.6051645387892
 31
0.0
  0
LINE
  5
B81
330
2
100
AcDbEntity
  8
L1
100
AcDbLine
 10
343.6542530927223
 20
45.3077824994387
 30
0.0
 11
343.6481214386723
 21
44.60516453878921
 31
0.0
  0
LINE
  5
B82
330
2
100
AcDbEntity
  8
L1
100
AcDbLine
 10
343.6542530927223
 20
45.3077824994387
 30
0.0
 11
343.6481214386723
 21
44.60516453878921
 31
0.0
  0
ELLIPSE
  5
B83
330
2
100
AcDbEntity
  8
L1
100
AcDbEllipse
 10
343.9542416696416
 20
45.30516453878923
 30
0.0
 11
-0.2999885769192453
 21
0.0026179606495102
 31
0.0
210
0.0
220
0.0
230
-1.0
 40
0.0087262032439377
 41
-0.0000000000031118
 42
0.254835338388059
  0
ELLIPSE
  5
B84
330
2
100
AcDbEntity
  8
L1
100
AcDbEllipse
 10
343.9542416696416
 20
45.30516453878923
 30
0.0
 11
-0.2999885769192453
 21
0.0026179606495102
 31
0.0
210
0.0
220
0.0
230
-1.0
 40
0.0087262032439377
 41
-0.0000000000031118
 42
0.254835338388059
  0
ARC
  5
B85
330
2
100
AcDbEntity
  8
L1
100
AcDbCircle
 10
-343.9542416696415
 20
45.30516453878919
 30
0.0
 40
0.3000000000000007
210
0.0
220
0.0
230
-1.0
100
AcDbArc
 50
0.4999999999980861
 51
90.0
  0
ARC
  5
B86
330
2
100
AcDbEntity
  8
L1
100
AcDbCircle
 10
-343.9542416696415
 20
45.30516453878919
 30
0.0
 40
0.3000000000000007
210
0.0
220
0.0
230
-1.0
100
AcDbArc
 50
0.4999999999980861
 51
90.0
  0
LINE
  5
B87
330
2
100
AcDbEntity
  8
L1
 62
     9
100
AcDbLine
 10
344.0310141831072
 20
25.58752241215637
 30
0.0
 11
344.0345276430433
 21
25.58403961139584
 31
0.0
  0
LINE
  5
B88
330
2
100
AcDbEntity
  8
L1
 62
     9
100
AcDbLine
 10
344.0310141831072
 20
25.58752241215637
 30
0.0
 11
344.0345276430433
 21
25.58403961139584
 31
0.0
  0
LINE
  5
B89
330
2
100
AcDbEntity
  8
L2
100
AcDbLine
 10
341.4331984664607
 20
24.5051645387891
 30
0.0
 11
341.4370019022336
 21
24.5051645387891
 31
0.0
  0
LINE
  5
B8A
330
2
100
AcDbEntity
  8
L1
100
AcDbLine
 10
357.6657712136991
 20
44.60516453878921
 30
0.0
 11
357.8699462238261
 21
44.60516453878921
 31
0.0
  0
LINE
  5
B8B
330
2
100
AcDbEntity
  8
L1
100
AcDbLine
 10
357.6657712136991
 20
44.60516453878921
 30
0.0
 11
357.8699462238261
 21
44.60516453878921
 31
0.0
  0
SPLINE
  5
B8C
330
2
100
AcDbEntity
  8
L1
100
AcDbSpline
210
0.0
220
0.0
230
1.0
 70
     8
 71
     3
 72
     8
 73
     4
 74
     0
 42
0.0000000001
 43
0.0000000001
 40
0.3622600280806911
 40
0.3622600280806911
 40
0.3622600280806911
 40
0.3622600280806911
 40
0.4545504850115948
 40
0.4545504850115948
 40
0.4545504850115948
 40
0.4545504850115948
 10
357.8699462238261
 20
44.60516453878921
 30
0.0
 10
357.9005913921732
 20
44.60516453878921
 30
0.0
 10
357.9327427820544
 20
44.60216331592619
 30
0.0
 10
357.9630448434812
 20
44.59642073164414
 30
0.0
  0
SPLINE
  5
B8D
330
2
100
AcDbEntity
  8
L1
100
AcDbSpline
210
0.0
220
0.0
230
1.0
 70
     8
 71
     3
 72
     8
 73
     4
 74
     0
 42
0.0000000001
 43
0.0000000001
 40
0.3622600280806911
 40
0.3622600280806911
 40
0.3622600280806911
 40
0.3622600280806911
 40
0.4545504850115948
 40
0.4545504850115948
 40
0.4545504850115948
 40
0.4545504850115948
 10
357.8699462238261
 20
44.60516453878921
 30
0.0
 10
357.9005913921732
 20
44.60516453878921
 30
0.0
 10
357.9327427820544
 20
44.60216331592619
 30
0.0
 10
357.9630448434812
 20
44.59642073164414
 30
0.0
  0
ELLIPSE
  5
B8E
330
2
100
AcDbEntity
  8
L1
100
AcDbEllipse
 10
357.8699462238261
 20
44.10516453878921
 30
0.0
 11
0.3566118803365731
 21
-0.350468210830617
 31
0.0
210
0.0
220
0.0
230
1.0
 40
0.9999999999999998
 41
0.7854362396012923
 42
2.160215649348274
  0
ELLIPSE
  5
B8F
330
2
100
AcDbEntity
  8
L1
100
AcDbEllipse
 10
357.8699462238261
 20
44.10516453878921
 30
0.0
 11
0.3566118803365731
 21
-0.350468210830617
 31
0.0
210
0.0
220
0.0
230
1.0
 40
0.9999999999999998
 41
0.7854362396012923
 42
2.160215649348274
  0
LINE
  5
B90
330
2
100
AcDbEntity
  8
L1
 62
     9
100
AcDbLine
 10
346.0309380350345
 20
23.60505030798174
 30
0.0
 11
358.5488670496067
 21
23.60505030798174
 31
0.0
  0
ARC
  5
B91
330
2
100
AcDbEntity
  8
L2
100
AcDbCircle
 10
341.7646228258451
 20
20.90516453878908
 30
0.0
 40
0.2999999999999971
100
AcDbArc
 50
180.4999999999999
 51
270.0
1001
ACAD
1000
ASC_BOUNDS
1002
{
1070
    19
1002
}
  0
LINE
  5
B92
330
2
100
AcDbEntity
  8
L1
100
AcDbLine
 10
357.9750466561018
 20
20.60516453878921
 30
0.0
 11
358.5698558350366
 21
21.19997371772399
 31
0.0
  0
ARC
  5
B93
330
2
100
AcDbEntity
  8
L1
100
AcDbCircle
 10
-358.1462337579155
 20
23.90505030798169
 30
0.0
 40
0.2999999999999936
210
0.0
220
0.0
230
-1.0
100
AcDbArc
 50
270.0
 51
359.4999999999992
  0
ARC
  5
B94
330
2
100
AcDbEntity
  8
L1
100
AcDbCircle
 10
-358.1462337579155
 20
23.90505030798169
 30
0.0
 40
0.2999999999999936
210
0.0
220
0.0
230
-1.0
100
AcDbArc
 50
270.0
 51
359.4999999999992
  0
ENDSEC
  0
SECTION
  2
OBJECTS
  0
DICTIONARY
  5
1A
330
0
100
AcDbDictionary
  3
ACAD_GROUP
350
18
  3
ACAD_LAYOUT
350
B99
  3
ACAD_MLINESTYLE
350
19
  3
ACAD_PLOTSETTINGS
350
B9A
1001
ACAD
1000
TREAT_AS_HARD
1070
     0
  0
DICTIONARY
  5
BA4
330
2
100
AcDbDictionary
  3
ACAD_LAYOUTSELFREF
350
BA5
  0
DICTIONARY
  5
BA6
330
8
100
AcDbDictionary
  3
ACAD_LAYOUTSELFREF
350
BA7
  0
DICTIONARY
  5
18
102
{ACAD_REACTORS
330
1A
102
}
330
1A
100
AcDbDictionary
1001
ACAD
1000
TREAT_AS_HARD
1070
     0
  0
DICTIONARY
  5
B99
102
{ACAD_REACTORS
330
1A
102
}
330
1A
100
AcDbDictionary
1001
ACAD
1000
TREAT_AS_HARD
1070
     0
  0
DICTIONARY
  5
19
102
{ACAD_REACTORS
330
1A
102
}
330
1A
100
AcDbDictionary
  3
STANDARD
350
1E
1001
ACAD
1000
TREAT_AS_HARD
1070
     0
  0
DICTIONARY
  5
B9A
102
{ACAD_REACTORS
330
1A
102
}
330
1A
100
AcDbDictionary
1001
ACAD
1000
TREAT_AS_HARD
1070
     0
  0
XRECORD
  5
BA5
102
{ACAD_REACTORS
330
BA4
102
}
330
BA4
100
AcDbXrecord
340
2
  0
XRECORD
  5
BA7
102
{ACAD_REACTORS
330
BA6
102
}
330
BA6
100
AcDbXrecord
340
8
  0
MLINESTYLE
  5
1E
102
{ACAD_REACTORS
330
19
102
}
330
19
100
AcDbMlineStyle
  2
STANDARD
 70
     0
  3

 62
     0
 51
90.0
 52
90.0
 71
     2
 49
0.5
 62
   256
  6
BYLAYER
 49
-0.5
 62
   256
  6
BYLAYER
  0
ENDSEC
  0
EOF
