  0
SECTION
  2
HEADER
  9
$ACADVER
  1
AC1009
  9
$INSBASE
 10
0.0
 20
0.0
 30
0.0
  9
$EXTMIN
 10
-0.9544237241575501
 20
4.8878622320949603
 30
0.0
  9
$EXTMAX
 10
529.73518406741414
 20
312.5768434539807
 30
0.0
  9
$LIMMIN
 10
0.0
 20
0.0
  9
$LIMMAX
 10
534.27686058821382
 20
316.61240074808029
  9
$ORTHOMODE
 70
     1
  9
$REGENMODE
 70
     1
  9
$FILLMODE
 70
     1
  9
$QTEXTMODE
 70
     0
  9
$MIRRTEXT
 70
     1
  9
$DRAGMODE
 70
     2
  9
$LTSCALE
 40
10.0
  9
$OSMODE
 70
     5
  9
$ATTMODE
 70
     1
  9
$TEXTSIZE
 40
2.5
  9
$TRACEWID
 40
1.0
  9
$TEXTSTYLE
  7
SIMPLEX
  9
$CLAYER
  8
L1
  9
$CELTYPE
  6
BYLAYER
  9
$CECOLOR
 62
   256
  9
$DIMSCALE
 40
1.0
  9
$DIMASZ
 40
3.5
  9
$DIMEXO
 40
0.1
  9
$DIMDLI
 40
0.38
  9
$DIMRND
 40
0.0
  9
$DIMDLE
 40
0.0
  9
$DIMEXE
 40
0.18
  9
$DIMTP
 40
0.0
  9
$DIMTM
 40
0.0
  9
$DIMTXT
 40
3.5
  9
$DIMCEN
 40
1.0
  9
$DIMTSZ
 40
0.0
  9
$DIMTOL
 70
     0
  9
$DIMLIM
 70
     0
  9
$DIMTIH
 70
     0
  9
$DIMTOH
 70
     0
  9
$DIMSE1
 70
     0
  9
$DIMSE2
 70
     0
  9
$DIMTAD
 70
     1
  9
$DIMZIN
 70
     8
  9
$DIMBLK
  1

  9
$DIMASO
 70
     1
  9
$DIMSHO
 70
     1
  9
$DIMPOST
  1

  9
$DIMAPOST
  1

  9
$DIMALT
 70
     0
  9
$DIMALTD
 70
     2
  9
$DIMALTF
 40
25.399999999999999
  9
$DIMLFAC
 40
1.0
  9
$DIMTOFL
 70
     1
  9
$DIMTVP
 40
0.0
  9
$DIMTIX
 70
     0
  9
$DIMSOXD
 70
     0
  9
$DIMSAH
 70
     0
  9
$DIMBLK1
  1

  9
$DIMBLK2
  1

  9
$DIMSTYLE
  2
FIBOX
  9
$DIMCLRD
 70
     1
  9
$DIMCLRE
 70
     1
  9
$DIMCLRT
 70
     3
  9
$DIMTFAC
 40
1.0
  9
$DIMGAP
 40
1.0
  9
$LUNITS
 70
     2
  9
$LUPREC
 70
     4
  9
$SKETCHINC
 40
1.0
  9
$FILLETRAD
 40
0.0
  9
$AUNITS
 70
     0
  9
$AUPREC
 70
     0
  9
$MENU
  1
.
  9
$ELEVATION
 40
0.0
  9
$PELEVATION
 40
0.0
  9
$THICKNESS
 40
0.0
  9
$LIMCHECK
 70
     0
  9
$BLIPMODE
 70
     0
  9
$CHAMFERA
 40
10.0
  9
$CHAMFERB
 40
10.0
  9
$SKPOLY
 70
     0
  9
$TDCREATE
 40
2450519.5748858559
  9
$TDUPDATE
 40
2452502.5272795479
  9
$TDINDWG
 40
0.8457642708000001
  9
$TDUSRTIMER
 40
0.8457642708000001
  9
$USRTIMER
 70
     1
  9
$ANGBASE
 50
0.0
  9
$ANGDIR
 70
     0
  9
$PDMODE
 70
     0
  9
$PDSIZE
 40
0.0
  9
$PLINEWID
 40
0.0
  9
$COORDS
 70
     2
  9
$SPLFRAME
 70
     0
  9
$SPLINETYPE
 70
     6
  9
$SPLINESEGS
 70
     8
  9
$ATTDIA
 70
     0
  9
$ATTREQ
 70
     1
  9
$HANDLING
 70
 22529
  9
$HANDSEED
  5
3A31
  9
$SURFTAB1
 70
     6
  9
$SURFTAB2
 70
     6
  9
$SURFTYPE
 70
     6
  9
$SURFU
 70
     6
  9
$SURFV
 70
     6
  9
$UCSNAME
  2

  9
$UCSORG
 10
0.0
 20
0.0
 30
0.0
  9
$UCSXDIR
 10
1.0
 20
0.0
 30
0.0
  9
$UCSYDIR
 10
0.0
 20
1.0
 30
0.0
  9
$PUCSNAME
  2

  9
$PUCSORG
 10
0.0
 20
0.0
 30
0.0
  9
$PUCSXDIR
 10
1.0
 20
0.0
 30
0.0
  9
$PUCSYDIR
 10
0.0
 20
1.0
 30
0.0
  9
$USERI1
 70
     0
  9
$USERI2
 70
     0
  9
$USERI3
 70
     0
  9
$USERI4
 70
     0
  9
$USERI5
 70
     0
  9
$USERR1
 40
0.0
  9
$USERR2
 40
0.0
  9
$USERR3
 40
0.0
  9
$USERR4
 40
0.0
  9
$USERR5
 40
0.0
  9
$WORLDVIEW
 70
     1
  9
$SHADEDGE
 70
     3
  9
$SHADEDIF
 70
    70
  9
$TILEMODE
 70
     1
  9
$MAXACTVP
 70
    16
  9
$PLIMCHECK
 70
     0
  9
$PEXTMIN
 10
-713.17818562869934
 20
47.884823385623768
 30
0.0
  9
$PEXTMAX
 10
126.8218143713006
 20
641.8848233856238
 30
0.0
  9
$PLIMMIN
 10
0.0
 20
0.0
  9
$PLIMMAX
 10
420.0
 20
297.0
  9
$UNITMODE
 70
     0
  9
$VISRETAIN
 70
     0
  9
$PLINEGEN
 70
     0
  9
$PSLTSCALE
 70
     1
  0
ENDSEC
  0
SECTION
  2
TABLES
  0
TABLE
  2
VPORT
 70
     2
  0
VPORT
  2
*ACTIVE
 70
     0
 10
0.0
 20
0.0
 11
1.0
 21
1.0
 12
84.264652504703434
 22
87.535736310484566
 13
0.0
 23
0.0
 14
10.0
 24
10.0
 15
10.0
 25
10.0
 16
0.0
 26
0.0
 36
1.0
 17
180.12199435328739
 27
71.193187962007144
 37
152.2153894999073
 40
350.76324064541978
 41
1.5205479452054791
 42
50.0
 43
0.0
 44
0.0
 50
0.0
 51
0.0
 71
     0
 72
   500
 73
     1
 74
     0
 75
     0
 76
     0
 77
     0
 78
     0
  0
ENDTAB
  0
TABLE
  2
LTYPE
 70
     3
  0
LTYPE
  2
CONTINUOUS
 70
     0
  3
Solid line
 72
    65
 73
     0
 40
0.0
  0
LTYPE
  2
HIDDEN
 70
     0
  3
__ __ __ __ __ __ __ __ __ __ __ __ __ __ __ __
 72
    65
 73
     2
 40
0.375
 49
0.25
 49
-0.125
  0
LTYPE
  2
CENTER
 70
     0
  3
____ _ ____ _ ____ _ ____ _ ____ _ ____ _ ____ 
 72
    65
 73
     4
 40
2.0
 49
1.25
 49
-0.25
 49
0.25
 49
-0.25
  0
ENDTAB
  0
TABLE
  2
LAYER
 70
     4
  0
LAYER
  2
0
 70
     0
 62
     7
  6
CONTINUOUS
  0
LAYER
  2
L2
 70
     0
 62
     1
  6
HIDDEN
  0
LAYER
  2
L1
 70
     0
 62
     7
  6
CONTINUOUS
  0
LAYER
  2
L6
 70
     0
 62
     1
  6
CENTER
  0
ENDTAB
  0
TABLE
  2
STYLE
 70
     2
  0
STYLE
  2
STANDARD
 70
     0
 40
0.0
 41
1.0
 50
0.0
 71
     0
 42
2.5
  3
ISOCP
  4

  0
STYLE
  2
SIMPLEX
 70
     0
 40
0.0
 41
0.8
 50
0.0
 71
     0
 42
2.5
  3
SIMPLEX.SHX
  4

  0
ENDTAB
  0
TABLE
  2
VIEW
 70
     0
  0
ENDTAB
  0
TABLE
  2
UCS
 70
     0
  0
ENDTAB
  0
TABLE
  2
APPID
 70
     6
  0
APPID
  2
ACAD
 70
     0
  0
APPID
  2
MCAD_NO_VIS
 70
     0
  0
APPID
  2
AD_DRAW
 70
     0
  0
APPID
  2
DESIGNERASSEMBLIES
 70
     0
  0
APPID
  2
ASURF_PCURVE_APPNAME
 70
     0
  0
APPID
  2
CONTENTBLOCKICON
 70
     0
  0
ENDTAB
  0
TABLE
  2
DIMSTYLE
 70
     1
  0
DIMSTYLE
  2
FIBOX
 70
     0
  3

  4

  5

  6

  7

 40
1.0
 41
3.5
 42
0.1
 43
0.38
 44
0.18
 45
0.0
 46
0.0
 47
0.0
 48
0.0
140
3.5
141
1.0
142
0.0
143
25.399999999999999
144
1.0
145
0.0
146
1.0
147
1.0
 71
     0
 72
     0
 73
     0
 74
     0
 75
     0
 76
     0
 77
     1
 78
     8
170
     0
171
     2
172
     1
173
     0
174
     0
175
     0
176
     1
177
     1
178
     3
  0
ENDTAB
  0
ENDSEC
  0
SECTION
  2
BLOCKS
  0
BLOCK
  8
0
  2
$MODEL_SPACE
 70
     0
 10
0.0
 20
0.0
 30
0.0
  3
$MODEL_SPACE
  1

  0
ENDBLK
  5
7
  8
0
  0
BLOCK
 67
     1
  8
0
  2
$PAPER_SPACE
 70
     0
 10
0.0
 20
0.0
 30
0.0
  3
$PAPER_SPACE
  1

  0
ENDBLK
  5
A
 67
     1
  8
0
  0
BLOCK
  8
0
  2
A$C1E
 70
     0
 10
0.0
 20
0.0
 30
0.0
  3
A$C1E
  1

  0
POLYLINE
  5
28FD
  8
L1
 66
     1
 10
0.0
 20
0.0
 30
-152.2153894999073
  0
VERTEX
  5
33D0
  8
L1
 10
2.031545205247653
 20
0.3026011263067403
 30
-152.2153894999073
  0
VERTEX
  5
33D1
  8
L1
 10
3.1479208101501959
 20
0.3024246313113963
 30
-152.2153894999073
  0
VERTEX
  5
33D2
  8
L1
 10
3.7625908269544648
 20
0.3027779703216993
 30
-152.2153894999073
  0
VERTEX
  5
33D3
  8
L1
 10
4.2181341762811817
 20
0.3033311706719814
 30
-152.2153894999073
  0
VERTEX
  5
33D4
  8
L1
 10
4.9170589749233491
 20
0.3041283050714583
 30
-152.2153894999073
  0
VERTEX
  5
33D5
  8
L1
 10
5.5079177537617161
 20
0.3033990229210985
 30
-152.2153894999073
  0
VERTEX
  5
33D6
  8
L1
 10
5.9228835545241054
 20
0.301663274031398
 30
-152.2153894999073
  0
VERTEX
  5
33D7
  8
L1
 10
6.5504954119502372
 20
0.2995609149729716
 30
-152.2153894999073
  0
SEQEND
  5
33D8
  8
L1
  0
POLYLINE
  5
2907
  8
L1
 66
     1
 10
0.0
 20
0.0
 30
-152.2153894999073
  0
VERTEX
  5
33D9
  8
L1
 10
1.670096959408454
 20
0.333440062084378
 30
-152.2153894999073
  0
VERTEX
  5
33DA
  8
L1
 10
1.7544294723690541
 20
0.3206555312112869
 30
-152.2153894999073
  0
VERTEX
  5
33DB
  8
L1
 10
1.869503325795562
 20
0.308766825986936
 30
-152.2153894999073
  0
VERTEX
  5
33DC
  8
L1
 10
1.9663360125967979
 20
0.3036132646158194
 30
-152.2153894999073
  0
VERTEX
  5
33DD
  8
L1
 10
2.0096239915736751
 20
0.3027218714738638
 30
-152.2153894999073
  0
VERTEX
  5
33DE
  8
L1
 10
2.031545205247653
 20
0.3026011263067403
 30
-152.2153894999073
  0
SEQEND
  5
33DF
  8
L1
  0
POLYLINE
  5
290F
  8
L1
 66
     1
 10
0.0
 20
0.0
 30
-152.2153894999073
  0
VERTEX
  5
33E0
  8
L1
 10
0.1768708776081667
 20
0.1735464808616598
 30
-152.2153894999073
  0
VERTEX
  5
33E1
  8
L1
 10
0.2428827474946615
 20
0.2274129847177164
 30
-152.2153894999073
  0
VERTEX
  5
33E2
  8
L1
 10
0.6653086080813752
 20
0.3791243203835393
 30
-152.2153894999073
  0
VERTEX
  5
33E3
  8
L1
 10
0.9506623572252692
 20
0.4006349408128927
 30
-152.2153894999073
  0
VERTEX
  5
33E4
  8
L1
 10
1.270648357569768
 20
0.3869925892735182
 30
-152.2153894999073
  0
VERTEX
  5
33E5
  8
L1
 10
1.670096959408454
 20
0.333440062084378
 30
-152.2153894999073
  0
SEQEND
  5
33E6
  8
L1
  0
POLYLINE
  5
2917
  8
L1
 66
     1
 10
0.0
 20
0.0
 30
-152.2153894999073
  0
VERTEX
  5
33E7
  8
L1
 10
6.5504954119502372
 20
0.2995609149729716
 30
-152.2153894999073
  0
VERTEX
  5
33E8
  8
L1
 10
6.5906336030171238
 20
0.2995418151094782
 30
-152.2153894999073
  0
VERTEX
  5
33E9
  8
L1
 10
6.7816338711819517
 20
0.2973221332584899
 30
-152.2153894999073
  0
VERTEX
  5
33EA
  8
L1
 10
7.2150605388275721
 20
0.281097883822099
 30
-152.2153894999073
  0
VERTEX
  5
33EB
  8
L1
 10
7.6753127906533791
 20
0.2549784191362505
 30
-152.2153894999073
  0
VERTEX
  5
33EC
  8
L1
 10
8.2689899732728236
 20
0.2226593757010278
 30
-152.2153894999073
  0
VERTEX
  5
33ED
  8
L1
 10
9.1997350767974222
 20
0.1806944034692606
 30
-152.2153894999073
  0
VERTEX
  5
33EE
  8
L1
 10
10.08705562947244
 20
0.1471538844348288
 30
-152.2153894999073
  0
VERTEX
  5
33EF
  8
L1
 10
10.717424357788779
 20
0.1284421618446458
 30
-152.2153894999073
  0
VERTEX
  5
33F0
  8
L1
 10
11.30913471595238
 20
0.1173787513089337
 30
-152.2153894999073
  0
VERTEX
  5
33F1
  8
L1
 10
12.34694126580427
 20
0.1145553561558472
 30
-152.2153894999073
  0
VERTEX
  5
33F2
  8
L1
 10
13.097338721753539
 20
0.1330231069018737
 30
-152.2153894999073
  0
VERTEX
  5
33F3
  8
L1
 10
13.52462297757927
 20
0.1621564675278932
 30
-152.2153894999073
  0
VERTEX
  5
33F4
  8
L1
 10
13.8434911215379
 20
0.2011886650036558
 30
-152.2153894999073
  0
VERTEX
  5
33F5
  8
L1
 10
14.011677825391979
 20
0.238323251606289
 30
-152.2153894999073
  0
VERTEX
  5
33F6
  8
L1
 10
14.09616402874803
 20
0.2720647427138374
 30
-152.2153894999073
  0
VERTEX
  5
33F7
  8
L1
 10
14.12498652126976
 20
0.2894554270465051
 30
-152.2153894999073
  0
VERTEX
  5
33F8
  8
L1
 10
14.138390510101599
 20
0.2987119588514133
 30
-152.2153894999073
  0
VERTEX
  5
33F9
  8
L1
 10
14.140096294656241
 20
0.2999542593116757
 30
-152.2153894999073
  0
SEQEND
  5
33FA
  8
L1
  0
POLYLINE
  5
292C
  8
L1
 66
     1
 10
0.0
 20
0.0
 30
-152.2153894999073
  0
VERTEX
  5
33FB
  8
L1
 10
2.1369010973854752
 20
2.033545709120971
 30
-152.2153894999073
  0
VERTEX
  5
33FC
  8
L1
 10
0.0593707521068154
 20
0.0620430251763082
 30
-152.2153894999073
  0
VERTEX
  5
33FD
  8
L1
 10
0.0197063870206193
 20
0.0244029481483494
 30
-152.2153894999073
  0
SEQEND
  5
33FE
  8
L1
  0
ENDBLK
  5
2932
  8
0
  0
BLOCK
  8
0
  2
B
 70
     0
 10
0.0
 20
0.0
 30
0.0
  3
B
  1

  0
LINE
  5
2A59
  8
L6
 10
0.0
 20
47.302834530585869
 30
0.0
 11
0.0
 21
-47.302834530585869
 31
0.0
  0
LINE
  5
2A5A
  8
L1
 10
-61.61106351371177
 20
22.011166316219231
 30
0.0
 11
-61.61106351371177
 21
-22.011166316219061
 31
0.0
  0
LINE
  5
2A5B
  8
L1
 10
-62.25
 20
-22.650102802507291
 30
0.0
 11
-62.25
 21
22.650102802507341
 31
0.0
  0
LINE
  5
2A5C
  8
L1
 10
61.61106351371177
 20
-22.011166316219061
 30
0.0
 11
61.61106351371177
 21
22.011166316219231
 31
0.0
  0
LINE
  5
2A5D
  8
L1
 10
62.25
 20
22.650102802507341
 30
0.0
 11
62.25
 21
-22.650102802507291
 31
0.0
  0
LINE
  5
2A5E
  8
L1
 10
65.012304130909286
 20
36.517100759268232
 30
0.0
 11
65.012304130909286
 21
-36.517100759268111
 31
0.0
  0
LINE
  5
2A5F
  8
L1
 10
-64.293024100224784
 20
36.557000000000038
 30
0.0
 11
-64.293024100224784
 21
-36.556999999999931
 31
0.0
  0
LINE
  5
2A60
  8
L1
 10
-65.012304130909115
 20
-36.517100759268061
 30
0.0
 11
-65.012304130909115
 21
36.517100759268232
 31
0.0
  0
LINE
  5
2A61
  8
L1
 10
64.293024100224713
 20
-36.556999999999931
 30
0.0
 11
64.293024100224713
 21
36.556999999999988
 31
0.0
  0
LINE
  5
2A62
  8
L1
 10
62.450000000000038
 20
-22.149999999999942
 30
0.0
 11
62.450000000000038
 21
22.150000000000059
 31
0.0
  0
LINE
  5
2A63
  8
L1
 10
63.449999999999982
 20
22.150000000000059
 30
0.0
 11
63.449999999999982
 21
-22.149999999999942
 31
0.0
  0
LINE
  5
2A64
  8
L1
 10
-62.449999999999932
 20
22.150000000000059
 30
0.0
 11
-62.449999999999932
 21
-22.149999999999999
 31
0.0
  0
LINE
  5
2A65
  8
L1
 10
-63.449999999999932
 20
-22.149999999999942
 30
0.0
 11
-63.449999999999932
 21
22.150000000000059
 31
0.0
  0
LINE
  5
2A66
  8
L1
 10
-47.011166316219139
 20
-36.611063513711791
 30
0.0
 11
47.011166316219139
 21
-36.611063513711791
 31
0.0
  0
LINE
  5
2A67
  8
L1
 10
-61.556999999999903
 20
-39.293024100224578
 30
0.0
 11
61.557000000000023
 21
-39.293024100224578
 31
0.0
  0
LINE
  5
2A68
  8
L1
 10
61.51710075926826
 20
-40.012304130909143
 30
0.0
 11
-61.517100759268139
 21
-40.012304130909079
 31
0.0
  0
LINE
  5
2A69
  8
L1
 10
47.149999999999977
 20
-38.44999999999996
 30
0.0
 11
-47.149999999999977
 21
-38.44999999999996
 31
0.0
  0
LINE
  5
2A6A
  8
L1
 10
-47.149999999999977
 20
-37.44999999999996
 30
0.0
 11
47.149999999999977
 21
-37.44999999999996
 31
0.0
  0
LINE
  5
2A6B
  8
L1
 10
47.650102802507369
 20
-37.249999999999908
 30
0.0
 11
-47.650102802507263
 21
-37.249999999999908
 31
0.0
  0
LINE
  5
2A6C
  8
L1
 10
-56.75
 20
-22.31106351371178
 30
0.0
 11
-52.711063513711792
 21
-22.31106351371178
 31
0.0
  0
ARC
  5
2A6D
  8
L1
 10
-56.75
 20
-31.749999999999972
 30
0.0
 40
6.3999999999999941
 50
0.0
 51
90.0
  0
ARC
  5
2A6E
  8
L1
 10
-56.75
 20
-31.749999999999972
 30
0.0
 40
4.9551339946734032
 50
357.4687382067072
 51
92.531261793292728
  0
ARC
  5
2A6F
  8
L1
 10
-56.75
 20
-31.749999999999972
 30
0.0
 40
7.3999999999999604
 50
0.0
 51
90.0
  0
ARC
  5
2A70
  8
L1
 10
-56.75
 20
-31.749999999999972
 30
0.0
 40
9.4389364862881635
 50
53.310709947557022
 51
90.0
  0
ARC
  5
2A71
  8
L1
 10
-56.75
 20
-31.749999999999972
 30
0.0
 40
8.8000000000000007
 50
52.885137544926863
 51
90.0
  0
LINE
  5
2A72
  8
L1
 10
-60.64999999999997
 20
-38.249999999999908
 30
0.0
 11
-49.377091896450331
 21
-38.249999999999908
 31
0.0
  0
LINE
  5
2A73
  8
L1
 10
-51.799700862313209
 20
-31.968840929871281
 30
0.0
 11
-56.531159070128638
 21
-36.700299137686699
 31
0.0
  0
ARC
  5
2A74
  8
L1
 10
-60.25
 20
-22.149999999999942
 30
0.0
 40
3.2000000000000282
 50
219.51794668407319
 51
270.0
  0
LINE
  5
2A75
  8
L1
 10
-63.25
 20
-24.377091896450018
 30
0.0
 11
-63.25
 21
-35.649999999999999
 31
0.0
  0
LINE
  5
2A76
  8
L1
 10
-59.376706762295051
 20
-36.901529179287792
 30
0.0
 11
-60.724120848982011
 21
-38.248943265974702
 31
0.0
  0
ARC
  5
2A77
  8
L1
 10
-61.557000000000023
 20
-36.556999999999931
 30
0.0
 40
2.7360241002247041
 50
180.0
 51
270.0
  0
POLYLINE
  5
2A78
  8
L1
 66
     1
 10
0.0
 20
0.0
 30
0.0
  0
VERTEX
  5
3400
  8
L1
 10
-65.012088437774196
 20
-36.556999999999931
 30
0.0
  0
VERTEX
  5
3401
  8
L1
 10
-64.941714390114484
 20
-37.218787602445239
 30
0.0
  0
VERTEX
  5
3402
  8
L1
 10
-64.739585002002514
 20
-37.873772386240972
 30
0.0
  0
VERTEX
  5
3403
  8
L1
 10
-64.413440750186282
 20
-38.476619230896027
 30
0.0
  0
VERTEX
  5
3404
  8
L1
 10
-63.989929119073743
 20
-38.989929119073651
 30
0.0
  0
VERTEX
  5
3405
  8
L1
 10
-63.476619230896169
 20
-39.413440750186084
 30
0.0
  0
VERTEX
  5
3406
  8
L1
 10
-62.873772386241058
 20
-39.739585002002478
 30
0.0
  0
VERTEX
  5
3407
  8
L1
 10
-62.218787602445332
 20
-39.941714390114349
 30
0.0
  0
VERTEX
  5
3408
  8
L1
 10
-61.557000000000023
 20
-40.012088437774111
 30
0.0
  0
SEQEND
  5
3409
  8
L1
  0
ARC
  5
2A79
  8
L1
 10
-60.64999999999997
 20
-35.649999999999949
 30
0.0
 40
2.6000000000000001
 50
180.0
 51
270.0
  0
ARC
  5
2A7A
  8
L1
 10
-60.64999999999997
 20
-35.649999999999892
 30
0.0
 40
2.3853190523473331
 50
180.00000000000159
 51
270.0
  0
POLYLINE
  5
2A7B
  8
L1
 66
     1
 10
0.0
 20
0.0
 30
0.0
  0
VERTEX
  5
340A
  8
L1
 10
-61.557000000000023
 20
-40.012088437774111
 30
0.0
  0
VERTEX
  5
340B
  8
L1
 10
-61.537048032038342
 20
-40.012250207188828
 30
0.0
  0
VERTEX
  5
340C
  8
L1
 10
-61.51710075926826
 20
-40.012304130909143
 30
0.0
  0
SEQEND
  5
340D
  8
L1
  0
LINE
  5
2A7C
  8
L1
 10
-60.510496635354571
 20
-38.035319052347262
 30
0.0
 11
-60.64999999999997
 21
-38.035319052347198
 31
0.0
  0
LINE
  5
2A7D
  8
L1
 10
-61.70029913768667
 20
-31.531159070128549
 30
0.0
 11
-56.968840929871362
 21
-26.799700862313351
 31
0.0
  0
ARC
  5
2A7E
  8
L1
 10
-56.75
 20
-31.749999999999972
 30
0.0
 40
5.7825462644184809
 50
207.0165228096393
 51
242.98347719035991
  0
ARC
  5
2A7F
  8
L1
 10
-56.75
 20
-31.749999999999972
 30
0.0
 40
4.9551339946734032
 50
177.4687382067072
 51
203.01361607239039
  0
LINE
  5
2A80
  8
L1
 10
-63.03531905234729
 20
-35.649999999999999
 30
0.0
 11
-63.03531905234717
 21
-35.510496635354542
 31
0.0
  0
POLYLINE
  5
2A81
  8
L1
 66
     1
 10
0.0
 20
0.0
 30
0.0
  0
VERTEX
  5
340E
  8
L1
 10
-61.88309964175221
 20
-34.263214172935108
 30
0.0
  0
VERTEX
  5
340F
  8
L1
 10
-61.867206662007902
 20
-34.245965950157789
 30
0.0
  0
VERTEX
  5
3410
  8
L1
 10
-61.820028179014678
 20
-34.197587405171902
 30
0.0
  0
VERTEX
  5
3411
  8
L1
 10
-61.747342135618972
 20
-34.124081047125649
 30
0.0
  0
VERTEX
  5
3412
  8
L1
 10
-61.659302189691509
 20
-34.035746534404922
 30
0.0
  0
SEQEND
  5
3413
  8
L1
  0
LINE
  5
2A82
  8
L1
 10
-61.659302189691509
 20
-34.035746534404922
 30
0.0
 11
-61.31076465179126
 21
-33.687208996504722
 31
0.0
  0
POLYLINE
  5
2A83
  8
L1
 66
     1
 10
0.0
 20
0.0
 30
0.0
  0
VERTEX
  5
3414
  8
L1
 10
-61.901529179287763
 20
-34.376706762295072
 30
0.0
  0
VERTEX
  5
3415
  8
L1
 10
-61.883099641752317
 20
-34.263214172935051
 30
0.0
  0
SEQEND
  5
3416
  8
L1
  0
LINE
  5
2A84
  8
L1
 10
-63.248943265974731
 20
-35.724120848982032
 30
0.0
 11
-61.901529179287763
 21
-34.376706762295072
 31
0.0
  0
POLYLINE
  5
2A85
  8
L1
 66
     1
 10
0.0
 20
0.0
 30
0.0
  0
VERTEX
  5
3417
  8
L1
 10
-65.012304130909342
 20
-36.517100759268168
 30
0.0
  0
VERTEX
  5
3418
  8
L1
 10
-65.012250207188913
 20
-36.5370480320382
 30
0.0
  0
VERTEX
  5
3419
  8
L1
 10
-65.01208843777431
 20
-36.556999999999931
 30
0.0
  0
SEQEND
  5
341A
  8
L1
  0
ARC
  5
2A86
  8
L1
 10
-56.75
 20
-31.749999999999972
 30
0.0
 40
4.9551339946734032
 50
246.9863839276081
 51
272.53126179329098
  0
LINE
  5
2A87
  8
L1
 10
-58.687208996504751
 20
-36.310764651791288
 30
0.0
 11
-59.035746534405
 21
-36.659302189691431
 31
0.0
  0
POLYLINE
  5
2A88
  8
L1
 66
     1
 10
0.0
 20
0.0
 30
0.0
  0
VERTEX
  5
341B
  8
L1
 10
-59.035746534405
 20
-36.659302189691431
 30
0.0
  0
VERTEX
  5
341C
  8
L1
 10
-59.124081047125628
 20
-36.747342135618879
 30
0.0
  0
VERTEX
  5
341D
  8
L1
 10
-59.19758740517193
 20
-36.820028179014649
 30
0.0
  0
VERTEX
  5
341E
  8
L1
 10
-59.245965950157817
 20
-36.867206662007867
 30
0.0
  0
VERTEX
  5
341F
  8
L1
 10
-59.263214172935143
 20
-36.883099641752231
 30
0.0
  0
SEQEND
  5
3420
  8
L1
  0
POLYLINE
  5
2A89
  8
L1
 66
     1
 10
0.0
 20
0.0
 30
0.0
  0
VERTEX
  5
3421
  8
L1
 10
-59.26321417293525
 20
-36.883099641752118
 30
0.0
  0
VERTEX
  5
3422
  8
L1
 10
-59.37670676229515
 20
-36.901529179287728
 30
0.0
  0
SEQEND
  5
3423
  8
L1
  0
LINE
  5
2A8A
  8
L1
 10
-59.863042131491511
 20
-25.691415971345322
 30
0.0
 11
-62.619202064108322
 21
-28.447575903962068
 31
0.0
  0
POLYLINE
  5
2A8B
  8
L1
 66
     1
 10
0.0
 20
0.0
 30
0.0
  0
VERTEX
  5
3424
  8
L1
 10
-62.833921234867148
 20
-28.535452416031291
 30
0.0
  0
VERTEX
  5
3425
  8
L1
 10
-62.717729786776431
 20
-28.513110116762761
 30
0.0
  0
VERTEX
  5
3426
  8
L1
 10
-62.619202064108322
 20
-28.447575903962068
 30
0.0
  0
SEQEND
  5
3427
  8
L1
  0
POLYLINE
  5
2A8C
  8
L1
 66
     1
 10
0.0
 20
0.0
 30
0.0
  0
VERTEX
  5
3428
  8
L1
 10
-62.833921234867148
 20
-28.535452416031291
 30
0.0
  0
VERTEX
  5
3429
  8
L1
 10
-63.045125652203978
 20
-28.448519035107349
 30
0.0
  0
VERTEX
  5
342A
  8
L1
 10
-63.133909811786452
 20
-28.24171734715415
 30
0.0
  0
SEQEND
  5
342B
  8
L1
  0
LINE
  5
2A8D
  8
L1
 10
-60.25
 20
-25.34999999999993
 30
0.0
 11
-59.549999999999947
 21
-25.34999999999993
 31
0.0
  0
LINE
  5
2A8E
  8
L1
 10
-59.549999999999947
 20
-25.34999999999993
 30
0.0
 11
-56.75
 21
-25.34999999999993
 31
0.0
  0
POLYLINE
  5
2A8F
  8
L1
 66
     1
 10
0.0
 20
0.0
 30
0.0
  0
VERTEX
  5
342C
  8
L1
 10
-59.863042131491511
 20
-25.691415971345371
 30
0.0
  0
VERTEX
  5
342D
  8
L1
 10
-59.809747036442673
 20
-25.595661658921379
 30
0.0
  0
VERTEX
  5
342E
  8
L1
 10
-59.814914676135118
 20
-25.48619877707435
 30
0.0
  0
VERTEX
  5
342F
  8
L1
 10
-59.876993618817551
 20
-25.39589033495659
 30
0.0
  0
VERTEX
  5
3430
  8
L1
 10
-59.977346488722667
 20
-25.351848784842069
 30
0.0
  0
SEQEND
  5
3431
  8
L1
  0
LINE
  5
2A90
  8
L1
 10
-56.75
 20
-22.31106351371178
 30
0.0
 11
-61.311166316219207
 21
-22.31106351371178
 31
0.0
  0
LINE
  5
2A91
  8
L1
 10
-61.950102802507331
 20
-22.94999999999995
 30
0.0
 11
-56.75
 21
-22.94999999999995
 31
0.0
  0
ARC
  5
2A92
  8
L1
 10
-60.25
 20
-22.149999999999942
 30
0.0
 40
2.2000000000000619
 50
180.0
 51
270.0
  0
POLYLINE
  5
2A93
  8
L1
 66
     1
 10
0.0
 20
0.0
 30
0.0
  0
VERTEX
  5
3432
  8
L1
 10
-61.311166316219101
 20
-22.31106351371173
 30
0.0
  0
VERTEX
  5
3433
  8
L1
 10
-61.31132036617668
 20
-22.31106343464781
 30
0.0
  0
VERTEX
  5
3434
  8
L1
 10
-61.311474337029487
 20
-22.311063197455979
 30
0.0
  0
SEQEND
  5
3435
  8
L1
  0
POLYLINE
  5
2A94
  8
L1
 66
     1
 10
0.0
 20
0.0
 30
0.0
  0
VERTEX
  5
3436
  8
L1
 10
-61.611063197455913
 20
-22.011474337029451
 30
0.0
  0
VERTEX
  5
3437
  8
L1
 10
-61.52311073177259
 20
-22.22311073177266
 30
0.0
  0
VERTEX
  5
3438
  8
L1
 10
-61.311474337029381
 20
-22.311063197455919
 30
0.0
  0
SEQEND
  5
3439
  8
L1
  0
POLYLINE
  5
2A95
  8
L1
 66
     1
 10
0.0
 20
0.0
 30
0.0
  0
VERTEX
  5
343A
  8
L1
 10
-61.611063197456133
 20
-22.011474337029739
 30
0.0
  0
VERTEX
  5
343B
  8
L1
 10
-61.61106343464791
 20
-22.011320366176701
 30
0.0
  0
VERTEX
  5
343C
  8
L1
 10
-61.61106351371177
 20
-22.011166316219171
 30
0.0
  0
SEQEND
  5
343D
  8
L1
  0
POLYLINE
  5
2A96
  8
L1
 66
     1
 10
0.0
 20
0.0
 30
0.0
  0
VERTEX
  5
343E
  8
L1
 10
-62.25
 20
-22.650102802507291
 30
0.0
  0
VERTEX
  5
343F
  8
L1
 10
-62.162174606235787
 20
-22.862174606235641
 30
0.0
  0
VERTEX
  5
3440
  8
L1
 10
-61.950102802507331
 20
-22.94999999999995
 30
0.0
  0
SEQEND
  5
3441
  8
L1
  0
POLYLINE
  5
2A97
  8
L1
 66
     1
 10
0.0
 20
0.0
 30
0.0
  0
VERTEX
  5
3442
  8
L1
 10
-62.718560984214271
 20
-24.186223628979722
 30
0.0
  0
VERTEX
  5
3443
  8
L1
 10
-62.728328363554283
 20
-24.1749642287966
 30
0.0
  0
VERTEX
  5
3444
  8
L1
 10
-62.816397581964111
 20
-24.108500430629839
 30
0.0
  0
VERTEX
  5
3445
  8
L1
 10
-62.894770114985249
 20
-24.082233380302881
 30
0.0
  0
VERTEX
  5
3446
  8
L1
 10
-62.969342954089143
 20
-24.077725977076192
 30
0.0
  0
VERTEX
  5
3447
  8
L1
 10
-63.046544182151479
 20
-24.093056538991931
 30
0.0
  0
VERTEX
  5
3448
  8
L1
 10
-63.134927642499292
 20
-24.140868754507629
 30
0.0
  0
VERTEX
  5
3449
  8
L1
 10
-63.211827010205177
 20
-24.230643189592879
 30
0.0
  0
VERTEX
  5
344A
  8
L1
 10
-63.247225979339639
 20
-24.336387854965182
 30
0.0
  0
VERTEX
  5
344B
  8
L1
 10
-63.25
 20
-24.377091896450018
 30
0.0
  0
SEQEND
  5
344C
  8
L1
  0
ARC
  5
2A98
  8
L1
 10
-60.25
 20
-22.149999999999942
 30
0.0
 40
3.2000000000000282
 50
180.0
 51
219.51794668407319
  0
LINE
  5
2A99
  8
L1
 10
-56.75
 20
-24.349999999999991
 30
0.0
 11
-60.25
 21
-24.349999999999991
 31
0.0
  0
LINE
  5
2A9A
  8
L1
 10
-49.170238538838703
 20
-25.73838855154829
 30
0.0
 11
-48.508163384265799
 21
-24.949358107518691
 31
0.0
  0
LINE
  5
2A9B
  8
L1
 10
-49.723178268028278
 20
-26.06608751409297
 30
0.0
 11
-48.796695169241502
 21
-24.961947952636049
 31
0.0
  0
ARC
  5
2A9C
  8
L1
 10
-52.711063513711792
 20
-27.711063513711821
 30
0.0
 40
5.3999999999999986
 50
359.99999999999829
 51
90.0
  0
ARC
  5
2A9D
  8
L1
 10
-47.149999999999977
 20
-35.249999999999908
 30
0.0
 40
2.2000000000000619
 50
180.0
 51
270.0
  0
ARC
  5
2A9E
  8
L1
 10
-47.149999999999977
 20
-35.249999999999908
 30
0.0
 40
3.2000000000000282
 50
180.0
 51
230.4820533159272
  0
LINE
  5
2A9F
  8
L1
 10
-53.447575903962047
 20
-37.619202064108229
 30
0.0
 11
-50.69141597134535
 21
-34.863042131491589
 31
0.0
  0
POLYLINE
  5
2AA0
  8
L1
 66
     1
 10
0.0
 20
0.0
 30
0.0
  0
VERTEX
  5
344D
  8
L1
 10
-53.241717347154243
 20
-38.133909811786367
 30
0.0
  0
VERTEX
  5
344E
  8
L1
 10
-53.448519035107331
 20
-38.045125652203893
 30
0.0
  0
VERTEX
  5
344F
  8
L1
 10
-53.535452416031262
 20
-37.833921234867169
 30
0.0
  0
SEQEND
  5
3450
  8
L1
  0
POLYLINE
  5
2AA1
  8
L1
 66
     1
 10
0.0
 20
0.0
 30
0.0
  0
VERTEX
  5
3451
  8
L1
 10
-53.447575903962047
 20
-37.619202064108229
 30
0.0
  0
VERTEX
  5
3452
  8
L1
 10
-53.513110116762839
 20
-37.717729786776339
 30
0.0
  0
VERTEX
  5
3453
  8
L1
 10
-53.535452416031369
 20
-37.833921234867169
 30
0.0
  0
SEQEND
  5
3454
  8
L1
  0
ARC
  5
2AA2
  8
L1
 10
-47.149999999999977
 20
-35.249999999999908
 30
0.0
 40
3.2000000000000282
 50
230.4820533159272
 51
270.0
  0
POLYLINE
  5
2AA3
  8
L1
 66
     1
 10
0.0
 20
0.0
 30
0.0
  0
VERTEX
  5
3455
  8
L1
 10
-49.377091896450331
 20
-38.249999999999908
 30
0.0
  0
VERTEX
  5
3456
  8
L1
 10
-49.329326939881298
 20
-38.246173334726933
 30
0.0
  0
VERTEX
  5
3457
  8
L1
 10
-49.248597032242742
 20
-38.221089717646542
 30
0.0
  0
VERTEX
  5
3458
  8
L1
 10
-49.156156936080599
 20
-38.152947646735548
 30
0.0
  0
VERTEX
  5
3459
  8
L1
 10
-49.098202734683021
 20
-38.060535919167897
 30
0.0
  0
VERTEX
  5
345A
  8
L1
 10
-49.077103407217457
 20
-37.949414895274877
 30
0.0
  0
VERTEX
  5
345B
  8
L1
 10
-49.100632485334927
 20
-37.833547508367097
 30
0.0
  0
VERTEX
  5
345C
  8
L1
 10
-49.16256111542998
 20
-37.740310602227083
 30
0.0
  0
VERTEX
  5
345D
  8
L1
 10
-49.186223628979739
 20
-37.718560984214122
 30
0.0
  0
SEQEND
  5
345E
  8
L1
  0
ARC
  5
2AA4
  8
L1
 10
-56.75
 20
-31.749999999999972
 30
0.0
 40
9.4389364862881635
 50
0.0
 51
36.689290052443639
  0
LINE
  5
2AA5
  8
L1
 10
-47.311063513711808
 20
-27.711063513711821
 30
0.0
 11
-47.311063513711808
 21
-31.749999999999972
 31
0.0
  0
ARC
  5
2AA6
  8
L1
 10
-56.75
 20
-31.749999999999972
 30
0.0
 40
8.8000000000000007
 50
0.0
 51
37.114862455072981
  0
LINE
  5
2AA7
  8
L1
 10
-50.349999999999909
 20
-34.549999999999869
 30
0.0
 11
-50.349999999999909
 21
-35.249999999999908
 31
0.0
  0
LINE
  5
2AA8
  8
L1
 10
-50.349999999999909
 20
-31.749999999999911
 30
0.0
 11
-50.349999999999909
 21
-34.549999999999812
 31
0.0
  0
POLYLINE
  5
2AA9
  8
L1
 66
     1
 10
0.0
 20
0.0
 30
0.0
  0
VERTEX
  5
345F
  8
L1
 10
-50.350000000000023
 20
-35.00447964281468
 30
0.0
  0
VERTEX
  5
3460
  8
L1
 10
-50.383705019846502
 20
-34.893358717371058
 30
0.0
  0
VERTEX
  5
3461
  8
L1
 10
-50.473459795757663
 20
-34.819691121901798
 30
0.0
  0
VERTEX
  5
3462
  8
L1
 10
-50.589012462699202
 20
-34.808306534080451
 30
0.0
  0
VERTEX
  5
3463
  8
L1
 10
-50.69141597134535
 20
-34.863042131491589
 30
0.0
  0
SEQEND
  5
3464
  8
L1
  0
LINE
  5
2AAA
  8
L1
 10
-49.350000000000023
 20
-35.249999999999908
 30
0.0
 11
-49.350000000000023
 21
-31.749999999999911
 31
0.0
  0
POLYLINE
  5
2AAB
  8
L1
 66
     1
 10
0.0
 20
0.0
 30
0.0
  0
VERTEX
  5
3465
  8
L1
 10
-47.011166316219139
 20
-36.611063513711791
 30
0.0
  0
VERTEX
  5
3466
  8
L1
 10
-47.011320366176733
 20
-36.611063434647889
 30
0.0
  0
VERTEX
  5
3467
  8
L1
 10
-47.011474337029647
 20
-36.611063197456041
 30
0.0
  0
SEQEND
  5
3468
  8
L1
  0
POLYLINE
  5
2AAC
  8
L1
 66
     1
 10
0.0
 20
0.0
 30
0.0
  0
VERTEX
  5
3469
  8
L1
 10
-47.311063197456058
 20
-36.311474337029523
 30
0.0
  0
VERTEX
  5
346A
  8
L1
 10
-47.223110731772749
 20
-36.523110731772732
 30
0.0
  0
VERTEX
  5
346B
  8
L1
 10
-47.01147433702954
 20
-36.611063197455991
 30
0.0
  0
SEQEND
  5
346C
  8
L1
  0
POLYLINE
  5
2AAD
  8
L1
 66
     1
 10
0.0
 20
0.0
 30
0.0
  0
VERTEX
  5
346D
  8
L1
 10
-47.311063197456058
 20
-36.31147433702963
 30
0.0
  0
VERTEX
  5
346E
  8
L1
 10
-47.311063434647849
 20
-36.311320366176659
 30
0.0
  0
VERTEX
  5
346F
  8
L1
 10
-47.311063513711808
 20
-36.311166316219129
 30
0.0
  0
SEQEND
  5
3470
  8
L1
  0
POLYLINE
  5
2AAE
  8
L1
 66
     1
 10
0.0
 20
0.0
 30
0.0
  0
VERTEX
  5
3471
  8
L1
 10
-47.950000000000038
 20
-36.950102802507239
 30
0.0
  0
VERTEX
  5
3472
  8
L1
 10
-47.862174606235719
 20
-37.162174606235588
 30
0.0
  0
VERTEX
  5
3473
  8
L1
 10
-47.650102802507369
 20
-37.249999999999908
 30
0.0
  0
SEQEND
  5
3474
  8
L1
  0
LINE
  5
2AAF
  8
L1
 10
-47.950000000000038
 20
-31.749999999999911
 30
0.0
 11
-47.950000000000038
 21
-36.950102802507239
 31
0.0
  0
LINE
  5
2AB0
  8
L1
 10
-47.311063513711808
 20
-36.311166316219129
 30
0.0
 11
-47.311063513711808
 21
-31.749999999999911
 31
0.0
  0
POLYLINE
  5
2AB1
  8
L1
 66
     1
 10
0.0
 20
0.0
 30
0.0
  0
VERTEX
  5
3475
  8
L1
 10
-49.181036322656162
 20
-26.11046891636979
 30
0.0
  0
VERTEX
  5
3476
  8
L1
 10
-49.221532253349658
 20
-26.03611497606013
 30
0.0
  0
VERTEX
  5
3477
  8
L1
 10
-49.240236551743692
 20
-25.91991626639102
 30
0.0
  0
VERTEX
  5
3478
  8
L1
 10
-49.21497510694644
 20
-25.810286871908119
 30
0.0
  0
VERTEX
  5
3479
  8
L1
 10
-49.170238538838703
 20
-25.73838855154829
 30
0.0
  0
SEQEND
  5
347A
  8
L1
  0
POLYLINE
  5
2AB2
  8
L1
 66
     1
 10
0.0
 20
0.0
 30
0.0
  0
VERTEX
  5
347B
  8
L1
 10
-49.723178268028278
 20
-26.06608751409297
 30
0.0
  0
VERTEX
  5
347C
  8
L1
 10
-49.730113646120799
 20
-26.074668220648871
 30
0.0
  0
VERTEX
  5
347D
  8
L1
 10
-49.780604914290507
 20
-26.172320771318791
 30
0.0
  0
VERTEX
  5
347E
  8
L1
 10
-49.792176433550928
 20
-26.285943643077719
 30
0.0
  0
VERTEX
  5
347F
  8
L1
 10
-49.758682176200182
 20
-26.39903212904667
 30
0.0
  0
VERTEX
  5
3480
  8
L1
 10
-49.732638610900267
 20
-26.439949234256488
 30
0.0
  0
SEQEND
  5
3481
  8
L1
  0
LINE
  5
2AB3
  8
L1
 10
-49.949358107518719
 20
-23.508163384265771
 30
0.0
 11
-50.738388551548383
 21
-24.170238538838671
 31
0.0
  0
LINE
  5
2AB4
  8
L1
 10
-49.961947952636137
 20
-23.796695169241531
 30
0.0
 11
-51.066087514093049
 21
-24.723178268028249
 31
0.0
  0
POLYLINE
  5
2AB5
  8
L1
 66
     1
 10
0.0
 20
0.0
 30
0.0
  0
VERTEX
  5
3482
  8
L1
 10
-50.738388551548383
 20
-24.170238538838731
 30
0.0
  0
VERTEX
  5
3483
  8
L1
 10
-50.740114986458373
 20
-24.17167621435911
 30
0.0
  0
VERTEX
  5
3484
  8
L1
 10
-50.829096643909672
 20
-24.22251593656361
 30
0.0
  0
VERTEX
  5
3485
  8
L1
 10
-50.904906570862629
 20
-24.239290622920318
 30
0.0
  0
VERTEX
  5
3486
  8
L1
 10
-50.976091252715378
 20
-24.237084613486239
 30
0.0
  0
VERTEX
  5
3487
  8
L1
 10
-51.051522375905961
 20
-24.215292371792678
 30
0.0
  0
VERTEX
  5
3488
  8
L1
 10
-51.110468916369882
 20
-24.18103632265607
 30
0.0
  0
SEQEND
  5
3489
  8
L1
  0
POLYLINE
  5
2AB6
  8
L1
 66
     1
 10
0.0
 20
0.0
 30
0.0
  0
VERTEX
  5
348A
  8
L1
 10
-51.439949234256567
 20
-24.732638610900288
 30
0.0
  0
VERTEX
  5
348B
  8
L1
 10
-51.379236183845819
 20
-24.76822571539909
 30
0.0
  0
VERTEX
  5
348C
  8
L1
 10
-51.301831308674757
 20
-24.790313818738841
 30
0.0
  0
VERTEX
  5
348D
  8
L1
 10
-51.228206690632078
 20
-24.791809597496549
 30
0.0
  0
VERTEX
  5
348E
  8
L1
 10
-51.149713592345051
 20
-24.772789027529338
 30
0.0
  0
VERTEX
  5
348F
  8
L1
 10
-51.066087514093049
 20
-24.723178268028249
 30
0.0
  0
SEQEND
  5
3490
  8
L1
  0
ARC
  5
2AB7
  8
L1
 10
-48.737976717201491
 20
-24.75652182461274
 30
0.0
 40
0.3
 50
319.99999999999977
 51
45.0
  0
LINE
  5
2AB8
  8
L1
 10
-48.525844682845438
 20
-24.544389790256758
 30
0.0
 11
-49.54438979025678
 21
-23.52584468284547
 31
0.0
  0
ARC
  5
2AB9
  8
L1
 10
-49.756521824612719
 20
-23.737976717201459
 30
0.0
 40
0.3
 50
45.0
 51
130.00000000000071
  0
POLYLINE
  5
2ABA
  8
L1
 66
     1
 10
0.0
 20
0.0
 30
0.0
  0
VERTEX
  5
3491
  8
L1
 10
-48.796695169241502
 20
-24.961947952636098
 30
0.0
  0
VERTEX
  5
3492
  8
L1
 10
-48.726795248333701
 20
-24.75603363113887
 30
0.0
  0
VERTEX
  5
3493
  8
L1
 10
-48.814375794571561
 20
-24.55699505532683
 30
0.0
  0
SEQEND
  5
3494
  8
L1
  0
LINE
  5
2ABB
  8
L1
 10
-48.814375794571561
 20
-24.55699505532683
 30
0.0
 11
-49.556995055326858
 21
-23.814375794571589
 31
0.0
  0
POLYLINE
  5
2ABC
  8
L1
 66
     1
 10
0.0
 20
0.0
 30
0.0
  0
VERTEX
  5
3495
  8
L1
 10
-49.556995055326979
 20
-23.814375794571589
 30
0.0
  0
VERTEX
  5
3496
  8
L1
 10
-49.756033631138962
 20
-23.726795248333719
 30
0.0
  0
VERTEX
  5
3497
  8
L1
 10
-49.961947952636137
 20
-23.796695169241531
 30
0.0
  0
SEQEND
  5
3498
  8
L1
  0
LINE
  5
2ABD
  8
L1
 10
63.25
 20
-24.377091896450018
 30
0.0
 11
63.25
 21
-35.649999999999999
 31
0.0
  0
ARC
  5
2ABE
  8
L1
 10
56.75
 20
-31.749999999999972
 30
0.0
 40
6.3999999999999941
 50
90.0
 51
180.0
  0
ARC
  5
2ABF
  8
L1
 10
60.25
 20
-22.149999999999942
 30
0.0
 40
3.2000000000000282
 50
270.0
 51
320.48205331592669
  0
ARC
  5
2AC0
  8
L1
 10
52.711063513711792
 20
-27.711063513711821
 30
0.0
 40
5.3999999999999986
 50
90.0
 51
180.00000000000159
  0
LINE
  5
2AC1
  8
L1
 10
49.170238538838703
 20
-25.73838855154829
 30
0.0
 11
48.508163384265799
 21
-24.949358107518691
 31
0.0
  0
LINE
  5
2AC2
  8
L1
 10
49.723178268028278
 20
-26.06608751409297
 30
0.0
 11
48.796695169241502
 21
-24.961947952636049
 31
0.0
  0
ARC
  5
2AC3
  8
L1
 10
56.75
 20
-31.749999999999972
 30
0.0
 40
7.3999999999999604
 50
90.0
 51
180.0
  0
ARC
  5
2AC4
  8
L1
 10
56.75
 20
-31.749999999999972
 30
0.0
 40
9.4389364862881635
 50
143.31070994755629
 51
180.0
  0
ARC
  5
2AC5
  8
L1
 10
47.149999999999977
 20
-35.249999999999908
 30
0.0
 40
3.2000000000000282
 50
270.0
 51
309.51794668407268
  0
ARC
  5
2AC6
  8
L1
 10
47.149999999999977
 20
-35.249999999999908
 30
0.0
 40
2.2000000000000619
 50
270.0
 51
0.0
  0
ARC
  5
2AC7
  8
L1
 10
56.75
 20
-31.749999999999972
 30
0.0
 40
8.8000000000000007
 50
142.8851375449257
 51
180.0
  0
LINE
  5
2AC8
  8
L1
 10
47.311063513711808
 20
-27.711063513711821
 30
0.0
 11
47.311063513711808
 21
-31.749999999999972
 31
0.0
  0
POLYLINE
  5
2AC9
  8
L1
 66
     1
 10
0.0
 20
0.0
 30
0.0
  0
VERTEX
  5
3499
  8
L1
 10
47.950000000000038
 20
-36.950102802507239
 30
0.0
  0
VERTEX
  5
349A
  8
L1
 10
47.862174606235719
 20
-37.162174606235588
 30
0.0
  0
VERTEX
  5
349B
  8
L1
 10
47.650102802507369
 20
-37.249999999999908
 30
0.0
  0
SEQEND
  5
349C
  8
L1
  0
POLYLINE
  5
2ACA
  8
L1
 66
     1
 10
0.0
 20
0.0
 30
0.0
  0
VERTEX
  5
349D
  8
L1
 10
47.311063197456058
 20
-36.31147433702963
 30
0.0
  0
VERTEX
  5
349E
  8
L1
 10
47.311063434647849
 20
-36.311320366176659
 30
0.0
  0
VERTEX
  5
349F
  8
L1
 10
47.311063513711808
 20
-36.311166316219129
 30
0.0
  0
SEQEND
  5
34A0
  8
L1
  0
POLYLINE
  5
2ACB
  8
L1
 66
     1
 10
0.0
 20
0.0
 30
0.0
  0
VERTEX
  5
34A1
  8
L1
 10
47.311063197456058
 20
-36.311474337029523
 30
0.0
  0
VERTEX
  5
34A2
  8
L1
 10
47.223110731772749
 20
-36.523110731772732
 30
0.0
  0
VERTEX
  5
34A3
  8
L1
 10
47.01147433702954
 20
-36.611063197455991
 30
0.0
  0
SEQEND
  5
34A4
  8
L1
  0
POLYLINE
  5
2ACC
  8
L1
 66
     1
 10
0.0
 20
0.0
 30
0.0
  0
VERTEX
  5
34A5
  8
L1
 10
47.011166316219139
 20
-36.611063513711791
 30
0.0
  0
VERTEX
  5
34A6
  8
L1
 10
47.011320366176733
 20
-36.611063434647889
 30
0.0
  0
VERTEX
  5
34A7
  8
L1
 10
47.011474337029647
 20
-36.611063197456041
 30
0.0
  0
SEQEND
  5
34A8
  8
L1
  0
LINE
  5
2ACD
  8
L1
 10
47.311063513711808
 20
-36.311166316219129
 30
0.0
 11
47.311063513711808
 21
-31.749999999999911
 31
0.0
  0
LINE
  5
2ACE
  8
L1
 10
47.950000000000038
 20
-31.749999999999911
 30
0.0
 11
47.950000000000038
 21
-36.950102802507239
 31
0.0
  0
LINE
  5
2ACF
  8
L1
 10
59.376706762295051
 20
-36.901529179287792
 30
0.0
 11
60.724120848982011
 21
-38.248943265974702
 31
0.0
  0
ARC
  5
2AD0
  8
L1
 10
60.64999999999997
 20
-35.649999999999892
 30
0.0
 40
2.3853190523473331
 50
270.0
 51
359.99999999999829
  0
LINE
  5
2AD1
  8
L1
 10
53.447575903962047
 20
-37.619202064108229
 30
0.0
 11
50.69141597134535
 21
-34.863042131491589
 31
0.0
  0
ARC
  5
2AD2
  8
L1
 10
60.64999999999997
 20
-35.649999999999949
 30
0.0
 40
2.6000000000000001
 50
270.0
 51
0.0
  0
POLYLINE
  5
2AD3
  8
L1
 66
     1
 10
0.0
 20
0.0
 30
0.0
  0
VERTEX
  5
34A9
  8
L1
 10
65.012088437774196
 20
-36.556999999999931
 30
0.0
  0
VERTEX
  5
34AA
  8
L1
 10
64.941714390114484
 20
-37.218787602445239
 30
0.0
  0
VERTEX
  5
34AB
  8
L1
 10
64.73958500200257
 20
-37.873772386240972
 30
0.0
  0
VERTEX
  5
34AC
  8
L1
 10
64.413440750186226
 20
-38.476619230896027
 30
0.0
  0
VERTEX
  5
34AD
  8
L1
 10
63.989929119073743
 20
-38.989929119073651
 30
0.0
  0
VERTEX
  5
34AE
  8
L1
 10
63.476619230896169
 20
-39.413440750186084
 30
0.0
  0
VERTEX
  5
34AF
  8
L1
 10
62.873772386241058
 20
-39.739585002002478
 30
0.0
  0
VERTEX
  5
34B0
  8
L1
 10
62.218787602445332
 20
-39.941714390114349
 30
0.0
  0
VERTEX
  5
34B1
  8
L1
 10
61.557000000000023
 20
-40.012088437774111
 30
0.0
  0
SEQEND
  5
34B2
  8
L1
  0
ARC
  5
2AD4
  8
L1
 10
61.557000000000023
 20
-36.556999999999931
 30
0.0
 40
2.7360241002247041
 50
270.0
 51
0.0
  0
ARC
  5
2AD5
  8
L1
 10
47.149999999999977
 20
-35.249999999999908
 30
0.0
 40
3.2000000000000282
 50
309.51794668407268
 51
0.0
  0
LINE
  5
2AD6
  8
L1
 10
60.64999999999997
 20
-38.249999999999908
 30
0.0
 11
49.377091896450331
 21
-38.249999999999908
 31
0.0
  0
POLYLINE
  5
2AD7
  8
L1
 66
     1
 10
0.0
 20
0.0
 30
0.0
  0
VERTEX
  5
34B3
  8
L1
 10
53.447575903962047
 20
-37.619202064108229
 30
0.0
  0
VERTEX
  5
34B4
  8
L1
 10
53.513110116762839
 20
-37.717729786776339
 30
0.0
  0
VERTEX
  5
34B5
  8
L1
 10
53.535452416031369
 20
-37.833921234867169
 30
0.0
  0
SEQEND
  5
34B6
  8
L1
  0
POLYLINE
  5
2AD8
  8
L1
 66
     1
 10
0.0
 20
0.0
 30
0.0
  0
VERTEX
  5
34B7
  8
L1
 10
53.241717347154243
 20
-38.133909811786367
 30
0.0
  0
VERTEX
  5
34B8
  8
L1
 10
53.448519035107331
 20
-38.045125652203893
 30
0.0
  0
VERTEX
  5
34B9
  8
L1
 10
53.535452416031262
 20
-37.833921234867169
 30
0.0
  0
SEQEND
  5
34BA
  8
L1
  0
POLYLINE
  5
2AD9
  8
L1
 66
     1
 10
0.0
 20
0.0
 30
0.0
  0
VERTEX
  5
34BB
  8
L1
 10
49.377091896450331
 20
-38.249999999999908
 30
0.0
  0
VERTEX
  5
34BC
  8
L1
 10
49.329326939881298
 20
-38.246173334726933
 30
0.0
  0
VERTEX
  5
34BD
  8
L1
 10
49.248597032242742
 20
-38.221089717646542
 30
0.0
  0
VERTEX
  5
34BE
  8
L1
 10
49.156156936080599
 20
-38.152947646735548
 30
0.0
  0
VERTEX
  5
34BF
  8
L1
 10
49.098202734683021
 20
-38.060535919167897
 30
0.0
  0
VERTEX
  5
34C0
  8
L1
 10
49.077103407217457
 20
-37.949414895274877
 30
0.0
  0
VERTEX
  5
34C1
  8
L1
 10
49.100632485334927
 20
-37.833547508367097
 30
0.0
  0
VERTEX
  5
34C2
  8
L1
 10
49.16256111542998
 20
-37.740310602227083
 30
0.0
  0
VERTEX
  5
34C3
  8
L1
 10
49.186223628979739
 20
-37.718560984214122
 30
0.0
  0
SEQEND
  5
34C4
  8
L1
  0
LINE
  5
2ADA
  8
L1
 10
60.510496635354571
 20
-38.035319052347262
 30
0.0
 11
60.64999999999997
 21
-38.035319052347198
 31
0.0
  0
POLYLINE
  5
2ADB
  8
L1
 66
     1
 10
0.0
 20
0.0
 30
0.0
  0
VERTEX
  5
34C5
  8
L1
 10
61.557000000000023
 20
-40.012088437774111
 30
0.0
  0
VERTEX
  5
34C6
  8
L1
 10
61.537048032038342
 20
-40.012250207188828
 30
0.0
  0
VERTEX
  5
34C7
  8
L1
 10
61.51710075926826
 20
-40.012304130909143
 30
0.0
  0
SEQEND
  5
34C8
  8
L1
  0
ARC
  5
2ADC
  8
L1
 10
56.75
 20
-31.749999999999972
 30
0.0
 40
5.7825462644184809
 50
297.01652280963992
 51
332.9834771903607
  0
LINE
  5
2ADD
  8
L1
 10
61.70029913768667
 20
-31.531159070128549
 30
0.0
 11
56.968840929871362
 21
-26.799700862313351
 31
0.0
  0
LINE
  5
2ADE
  8
L1
 10
59.549999999999947
 20
-25.34999999999993
 30
0.0
 11
56.75
 21
-25.34999999999993
 31
0.0
  0
ARC
  5
2ADF
  8
L1
 10
56.75
 20
-31.749999999999972
 30
0.0
 40
4.9551339946734032
 50
87.468738206707286
 51
182.53126179329271
  0
LINE
  5
2AE0
  8
L1
 10
51.799700862313209
 20
-31.968840929871281
 30
0.0
 11
56.531159070128638
 21
-36.700299137686699
 31
0.0
  0
POLYLINE
  5
2AE1
  8
L1
 66
     1
 10
0.0
 20
0.0
 30
0.0
  0
VERTEX
  5
34C9
  8
L1
 10
50.350000000000023
 20
-35.00447964281468
 30
0.0
  0
VERTEX
  5
34CA
  8
L1
 10
50.383705019846502
 20
-34.893358717371058
 30
0.0
  0
VERTEX
  5
34CB
  8
L1
 10
50.473459795757663
 20
-34.819691121901798
 30
0.0
  0
VERTEX
  5
34CC
  8
L1
 10
50.589012462699202
 20
-34.808306534080451
 30
0.0
  0
VERTEX
  5
34CD
  8
L1
 10
50.69141597134535
 20
-34.863042131491589
 30
0.0
  0
SEQEND
  5
34CE
  8
L1
  0
LINE
  5
2AE2
  8
L1
 10
50.349999999999909
 20
-31.749999999999911
 30
0.0
 11
50.349999999999909
 21
-34.549999999999812
 31
0.0
  0
LINE
  5
2AE3
  8
L1
 10
50.349999999999909
 20
-34.549999999999869
 30
0.0
 11
50.349999999999909
 21
-35.249999999999908
 31
0.0
  0
LINE
  5
2AE4
  8
L1
 10
49.350000000000023
 20
-35.249999999999908
 30
0.0
 11
49.350000000000023
 21
-31.749999999999911
 31
0.0
  0
POLYLINE
  5
2AE5
  8
L1
 66
     1
 10
0.0
 20
0.0
 30
0.0
  0
VERTEX
  5
34CF
  8
L1
 10
59.26321417293525
 20
-36.883099641752118
 30
0.0
  0
VERTEX
  5
34D0
  8
L1
 10
59.37670676229515
 20
-36.901529179287728
 30
0.0
  0
SEQEND
  5
34D1
  8
L1
  0
POLYLINE
  5
2AE6
  8
L1
 66
     1
 10
0.0
 20
0.0
 30
0.0
  0
VERTEX
  5
34D2
  8
L1
 10
59.035746534405
 20
-36.659302189691431
 30
0.0
  0
VERTEX
  5
34D3
  8
L1
 10
59.124081047125628
 20
-36.747342135618879
 30
0.0
  0
VERTEX
  5
34D4
  8
L1
 10
59.19758740517193
 20
-36.820028179014649
 30
0.0
  0
VERTEX
  5
34D5
  8
L1
 10
59.245965950157817
 20
-36.867206662007867
 30
0.0
  0
VERTEX
  5
34D6
  8
L1
 10
59.263214172935143
 20
-36.883099641752231
 30
0.0
  0
SEQEND
  5
34D7
  8
L1
  0
LINE
  5
2AE7
  8
L1
 10
58.687208996504751
 20
-36.310764651791288
 30
0.0
 11
59.035746534405
 21
-36.659302189691431
 31
0.0
  0
ARC
  5
2AE8
  8
L1
 10
56.75
 20
-31.749999999999972
 30
0.0
 40
4.9551339946734032
 50
267.46873820670891
 51
293.01361607239193
  0
POLYLINE
  5
2AE9
  8
L1
 66
     1
 10
0.0
 20
0.0
 30
0.0
  0
VERTEX
  5
34D8
  8
L1
 10
49.181036322656162
 20
-26.11046891636979
 30
0.0
  0
VERTEX
  5
34D9
  8
L1
 10
49.221532253349658
 20
-26.03611497606013
 30
0.0
  0
VERTEX
  5
34DA
  8
L1
 10
49.240236551743692
 20
-25.91991626639102
 30
0.0
  0
VERTEX
  5
34DB
  8
L1
 10
49.21497510694644
 20
-25.810286871908119
 30
0.0
  0
VERTEX
  5
34DC
  8
L1
 10
49.170238538838703
 20
-25.73838855154829
 30
0.0
  0
SEQEND
  5
34DD
  8
L1
  0
POLYLINE
  5
2AEA
  8
L1
 66
     1
 10
0.0
 20
0.0
 30
0.0
  0
VERTEX
  5
34DE
  8
L1
 10
49.723178268028278
 20
-26.06608751409297
 30
0.0
  0
VERTEX
  5
34DF
  8
L1
 10
49.730113646120799
 20
-26.074668220648871
 30
0.0
  0
VERTEX
  5
34E0
  8
L1
 10
49.780604914290507
 20
-26.172320771318791
 30
0.0
  0
VERTEX
  5
34E1
  8
L1
 10
49.792176433550928
 20
-26.285943643077719
 30
0.0
  0
VERTEX
  5
34E2
  8
L1
 10
49.758682176200182
 20
-26.39903212904667
 30
0.0
  0
VERTEX
  5
34E3
  8
L1
 10
49.732638610900267
 20
-26.439949234256488
 30
0.0
  0
SEQEND
  5
34E4
  8
L1
  0
POLYLINE
  5
2AEB
  8
L1
 66
     1
 10
0.0
 20
0.0
 30
0.0
  0
VERTEX
  5
34E5
  8
L1
 10
61.901529179287763
 20
-34.376706762295072
 30
0.0
  0
VERTEX
  5
34E6
  8
L1
 10
61.883099641752317
 20
-34.263214172935051
 30
0.0
  0
SEQEND
  5
34E7
  8
L1
  0
LINE
  5
2AEC
  8
L1
 10
63.248943265974731
 20
-35.724120848982032
 30
0.0
 11
61.901529179287763
 21
-34.376706762295072
 31
0.0
  0
LINE
  5
2AED
  8
L1
 10
61.659302189691509
 20
-34.035746534404922
 30
0.0
 11
61.31076465179126
 21
-33.687208996504722
 31
0.0
  0
POLYLINE
  5
2AEE
  8
L1
 66
     1
 10
0.0
 20
0.0
 30
0.0
  0
VERTEX
  5
34E8
  8
L1
 10
61.88309964175221
 20
-34.263214172935108
 30
0.0
  0
VERTEX
  5
34E9
  8
L1
 10
61.867206662007902
 20
-34.245965950157789
 30
0.0
  0
VERTEX
  5
34EA
  8
L1
 10
61.820028179014678
 20
-34.197587405171902
 30
0.0
  0
VERTEX
  5
34EB
  8
L1
 10
61.747342135618972
 20
-34.124081047125649
 30
0.0
  0
VERTEX
  5
34EC
  8
L1
 10
61.659302189691509
 20
-34.035746534404922
 30
0.0
  0
SEQEND
  5
34ED
  8
L1
  0
LINE
  5
2AEF
  8
L1
 10
63.03531905234729
 20
-35.649999999999999
 30
0.0
 11
63.035319052347241
 21
-35.510496635354542
 31
0.0
  0
ARC
  5
2AF0
  8
L1
 10
56.75
 20
-31.749999999999972
 30
0.0
 40
4.9551339946734032
 50
336.98638392760779
 51
2.531261793292745
  0
POLYLINE
  5
2AF1
  8
L1
 66
     1
 10
0.0
 20
0.0
 30
0.0
  0
VERTEX
  5
34EE
  8
L1
 10
65.012304130909286
 20
-36.517100759268168
 30
0.0
  0
VERTEX
  5
34EF
  8
L1
 10
65.012250207188913
 20
-36.5370480320382
 30
0.0
  0
VERTEX
  5
34F0
  8
L1
 10
65.012088437774253
 20
-36.556999999999931
 30
0.0
  0
SEQEND
  5
34F1
  8
L1
  0
POLYLINE
  5
2AF2
  8
L1
 66
     1
 10
0.0
 20
0.0
 30
0.0
  0
VERTEX
  5
34F2
  8
L1
 10
62.833921234867198
 20
-28.535452416031291
 30
0.0
  0
VERTEX
  5
34F3
  8
L1
 10
63.045125652203978
 20
-28.448519035107349
 30
0.0
  0
VERTEX
  5
34F4
  8
L1
 10
63.133909811786452
 20
-28.24171734715415
 30
0.0
  0
SEQEND
  5
34F5
  8
L1
  0
POLYLINE
  5
2AF3
  8
L1
 66
     1
 10
0.0
 20
0.0
 30
0.0
  0
VERTEX
  5
34F6
  8
L1
 10
62.833921234867198
 20
-28.535452416031291
 30
0.0
  0
VERTEX
  5
34F7
  8
L1
 10
62.717729786776431
 20
-28.513110116762761
 30
0.0
  0
VERTEX
  5
34F8
  8
L1
 10
62.619202064108322
 20
-28.447575903962068
 30
0.0
  0
SEQEND
  5
34F9
  8
L1
  0
LINE
  5
2AF4
  8
L1
 10
59.863042131491511
 20
-25.691415971345322
 30
0.0
 11
62.619202064108322
 21
-28.447575903962068
 31
0.0
  0
POLYLINE
  5
2AF5
  8
L1
 66
     1
 10
0.0
 20
0.0
 30
0.0
  0
VERTEX
  5
34FA
  8
L1
 10
59.863042131491511
 20
-25.691415971345371
 30
0.0
  0
VERTEX
  5
34FB
  8
L1
 10
59.809747036442673
 20
-25.595661658921379
 30
0.0
  0
VERTEX
  5
34FC
  8
L1
 10
59.814914676135118
 20
-25.48619877707435
 30
0.0
  0
VERTEX
  5
34FD
  8
L1
 10
59.876993618817551
 20
-25.39589033495659
 30
0.0
  0
VERTEX
  5
34FE
  8
L1
 10
59.977346488722667
 20
-25.351848784842069
 30
0.0
  0
SEQEND
  5
34FF
  8
L1
  0
LINE
  5
2AF6
  8
L1
 10
60.25
 20
-25.34999999999993
 30
0.0
 11
59.549999999999947
 21
-25.34999999999993
 31
0.0
  0
LINE
  5
2AF7
  8
L1
 10
48.525844682845438
 20
-24.544389790256758
 30
0.0
 11
49.54438979025678
 21
-23.52584468284547
 31
0.0
  0
LINE
  5
2AF8
  8
L1
 10
48.814375794571561
 20
-24.55699505532683
 30
0.0
 11
49.556995055326858
 21
-23.814375794571589
 31
0.0
  0
ARC
  5
2AF9
  8
L1
 10
48.737976717201491
 20
-24.75652182461274
 30
0.0
 40
0.3
 50
135.0
 51
220.00000000000011
  0
POLYLINE
  5
2AFA
  8
L1
 66
     1
 10
0.0
 20
0.0
 30
0.0
  0
VERTEX
  5
3500
  8
L1
 10
48.796695169241502
 20
-24.961947952636098
 30
0.0
  0
VERTEX
  5
3501
  8
L1
 10
48.726795248333701
 20
-24.75603363113887
 30
0.0
  0
VERTEX
  5
3502
  8
L1
 10
48.814375794571561
 20
-24.55699505532683
 30
0.0
  0
SEQEND
  5
3503
  8
L1
  0
LINE
  5
2AFB
  8
L1
 10
56.75
 20
-22.31106351371178
 30
0.0
 11
61.311166316219207
 21
-22.31106351371178
 31
0.0
  0
LINE
  5
2AFC
  8
L1
 10
61.950102802507331
 20
-22.94999999999995
 30
0.0
 11
56.75
 21
-22.94999999999995
 31
0.0
  0
LINE
  5
2AFD
  8
L1
 10
56.75
 20
-24.349999999999991
 30
0.0
 11
60.25
 21
-24.349999999999991
 31
0.0
  0
LINE
  5
2AFE
  8
L1
 10
56.75
 20
-22.31106351371178
 30
0.0
 11
52.711063513711792
 21
-22.31106351371178
 31
0.0
  0
ARC
  5
2AFF
  8
L1
 10
56.75
 20
-31.749999999999972
 30
0.0
 40
9.4389364862881635
 50
90.0
 51
126.689290052443
  0
ARC
  5
2B00
  8
L1
 10
56.75
 20
-31.749999999999972
 30
0.0
 40
8.8000000000000007
 50
90.0
 51
127.11486245507309
  0
ARC
  5
2B01
  8
L1
 10
49.756521824612719
 20
-23.737976717201459
 30
0.0
 40
0.3
 50
49.999999999999282
 51
135.0
  0
LINE
  5
2B02
  8
L1
 10
49.949358107518719
 20
-23.508163384265771
 30
0.0
 11
50.738388551548383
 21
-24.170238538838671
 31
0.0
  0
POLYLINE
  5
2B03
  8
L1
 66
     1
 10
0.0
 20
0.0
 30
0.0
  0
VERTEX
  5
3504
  8
L1
 10
50.738388551548383
 20
-24.170238538838731
 30
0.0
  0
VERTEX
  5
3505
  8
L1
 10
50.740114986458373
 20
-24.17167621435911
 30
0.0
  0
VERTEX
  5
3506
  8
L1
 10
50.829096643909672
 20
-24.22251593656361
 30
0.0
  0
VERTEX
  5
3507
  8
L1
 10
50.904906570862629
 20
-24.239290622920318
 30
0.0
  0
VERTEX
  5
3508
  8
L1
 10
50.976091252715378
 20
-24.237084613486239
 30
0.0
  0
VERTEX
  5
3509
  8
L1
 10
51.051522375905961
 20
-24.215292371792678
 30
0.0
  0
VERTEX
  5
350A
  8
L1
 10
51.110468916369882
 20
-24.18103632265607
 30
0.0
  0
SEQEND
  5
350B
  8
L1
  0
POLYLINE
  5
2B04
  8
L1
 66
     1
 10
0.0
 20
0.0
 30
0.0
  0
VERTEX
  5
350C
  8
L1
 10
49.556995055326979
 20
-23.814375794571589
 30
0.0
  0
VERTEX
  5
350D
  8
L1
 10
49.756033631138962
 20
-23.726795248333719
 30
0.0
  0
VERTEX
  5
350E
  8
L1
 10
49.961947952636137
 20
-23.796695169241531
 30
0.0
  0
SEQEND
  5
350F
  8
L1
  0
POLYLINE
  5
2B05
  8
L1
 66
     1
 10
0.0
 20
0.0
 30
0.0
  0
VERTEX
  5
3510
  8
L1
 10
51.439949234256567
 20
-24.732638610900288
 30
0.0
  0
VERTEX
  5
3511
  8
L1
 10
51.379236183845819
 20
-24.76822571539909
 30
0.0
  0
VERTEX
  5
3512
  8
L1
 10
51.301831308674757
 20
-24.790313818738841
 30
0.0
  0
VERTEX
  5
3513
  8
L1
 10
51.228206690632078
 20
-24.791809597496549
 30
0.0
  0
VERTEX
  5
3514
  8
L1
 10
51.149713592345051
 20
-24.772789027529338
 30
0.0
  0
VERTEX
  5
3515
  8
L1
 10
51.066087514093049
 20
-24.723178268028249
 30
0.0
  0
SEQEND
  5
3516
  8
L1
  0
LINE
  5
2B06
  8
L1
 10
49.961947952636137
 20
-23.796695169241531
 30
0.0
 11
51.066087514093049
 21
-24.723178268028249
 31
0.0
  0
POLYLINE
  5
2B07
  8
L1
 66
     1
 10
0.0
 20
0.0
 30
0.0
  0
VERTEX
  5
3517
  8
L1
 10
62.7185609842142
 20
-24.186223628979722
 30
0.0
  0
VERTEX
  5
3518
  8
L1
 10
62.728328363554283
 20
-24.1749642287966
 30
0.0
  0
VERTEX
  5
3519
  8
L1
 10
62.816397581964111
 20
-24.108500430629839
 30
0.0
  0
VERTEX
  5
351A
  8
L1
 10
62.894770114985299
 20
-24.082233380302881
 30
0.0
  0
VERTEX
  5
351B
  8
L1
 10
62.969342954089093
 20
-24.077725977076192
 30
0.0
  0
VERTEX
  5
351C
  8
L1
 10
63.046544182151479
 20
-24.093056538991931
 30
0.0
  0
VERTEX
  5
351D
  8
L1
 10
63.134927642499292
 20
-24.140868754507629
 30
0.0
  0
VERTEX
  5
351E
  8
L1
 10
63.211827010205177
 20
-24.230643189592879
 30
0.0
  0
VERTEX
  5
351F
  8
L1
 10
63.247225979339639
 20
-24.336387854965182
 30
0.0
  0
VERTEX
  5
3520
  8
L1
 10
63.25
 20
-24.377091896450018
 30
0.0
  0
SEQEND
  5
3521
  8
L1
  0
POLYLINE
  5
2B08
  8
L1
 66
     1
 10
0.0
 20
0.0
 30
0.0
  0
VERTEX
  5
3522
  8
L1
 10
61.611063197456133
 20
-22.011474337029739
 30
0.0
  0
VERTEX
  5
3523
  8
L1
 10
61.61106343464791
 20
-22.011320366176701
 30
0.0
  0
VERTEX
  5
3524
  8
L1
 10
61.61106351371177
 20
-22.011166316219171
 30
0.0
  0
SEQEND
  5
3525
  8
L1
  0
POLYLINE
  5
2B09
  8
L1
 66
     1
 10
0.0
 20
0.0
 30
0.0
  0
VERTEX
  5
3526
  8
L1
 10
62.25
 20
-22.650102802507291
 30
0.0
  0
VERTEX
  5
3527
  8
L1
 10
62.162174606235787
 20
-22.862174606235641
 30
0.0
  0
VERTEX
  5
3528
  8
L1
 10
61.950102802507331
 20
-22.94999999999995
 30
0.0
  0
SEQEND
  5
3529
  8
L1
  0
POLYLINE
  5
2B0A
  8
L1
 66
     1
 10
0.0
 20
0.0
 30
0.0
  0
VERTEX
  5
352A
  8
L1
 10
61.611063197455913
 20
-22.011474337029451
 30
0.0
  0
VERTEX
  5
352B
  8
L1
 10
61.52311073177259
 20
-22.22311073177266
 30
0.0
  0
VERTEX
  5
352C
  8
L1
 10
61.311474337029381
 20
-22.311063197455919
 30
0.0
  0
SEQEND
  5
352D
  8
L1
  0
POLYLINE
  5
2B0B
  8
L1
 66
     1
 10
0.0
 20
0.0
 30
0.0
  0
VERTEX
  5
352E
  8
L1
 10
61.311166316219101
 20
-22.31106351371173
 30
0.0
  0
VERTEX
  5
352F
  8
L1
 10
61.31132036617668
 20
-22.31106343464781
 30
0.0
  0
VERTEX
  5
3530
  8
L1
 10
61.311474337029487
 20
-22.311063197455979
 30
0.0
  0
SEQEND
  5
3531
  8
L1
  0
ARC
  5
2B0C
  8
L1
 10
60.25
 20
-22.149999999999942
 30
0.0
 40
3.2000000000000282
 50
320.48205331592669
 51
0.0
  0
ARC
  5
2B0D
  8
L1
 10
60.25
 20
-22.149999999999942
 30
0.0
 40
2.2000000000000619
 50
270.0
 51
0.0
  0
LINE
  5
2B0E
  8
L6
 10
-72.302834530585869
 20
0.0
 30
0.0
 11
72.302834530585869
 21
0.0
 31
0.0
  0
LINE
  5
2B0F
  8
L1
 10
47.011166316219139
 20
36.611063513711848
 30
0.0
 11
-47.011166316219139
 21
36.611063513711848
 31
0.0
  0
LINE
  5
2B10
  8
L1
 10
-61.517100759268139
 20
40.0123041309092
 30
0.0
 11
61.51710075926826
 21
40.0123041309092
 31
0.0
  0
LINE
  5
2B11
  8
L1
 10
61.557000000000023
 20
39.293024100224748
 30
0.0
 11
-61.557000000000023
 21
39.293024100224748
 31
0.0
  0
LINE
  5
2B12
  8
L1
 10
-47.149999999999977
 20
38.450000000000131
 30
0.0
 11
47.149999999999977
 21
38.450000000000131
 31
0.0
  0
LINE
  5
2B13
  8
L1
 10
47.149999999999977
 20
37.450000000000067
 30
0.0
 11
-47.149999999999977
 21
37.450000000000131
 31
0.0
  0
LINE
  5
2B14
  8
L1
 10
-47.650102802507369
 20
37.250000000000078
 30
0.0
 11
47.650102802507369
 21
37.250000000000078
 31
0.0
  0
LINE
  5
2B15
  8
L1
 10
-51.799700862313209
 20
31.96884092987133
 30
0.0
 11
-56.531159070128638
 21
36.700299137686748
 31
0.0
  0
LINE
  5
2B16
  8
L1
 10
-60.64999999999997
 20
38.249999999999972
 30
0.0
 11
-49.377091896450331
 21
38.249999999999972
 31
0.0
  0
LINE
  5
2B17
  8
L1
 10
-56.75
 20
22.31106351371184
 30
0.0
 11
-52.711063513711792
 21
22.31106351371184
 31
0.0
  0
ARC
  5
2B18
  8
L1
 10
-56.75
 20
31.750000000000021
 30
0.0
 40
8.8000000000000007
 50
270.0
 51
307.11486245507308
  0
ARC
  5
2B19
  8
L1
 10
-56.75
 20
31.750000000000021
 30
0.0
 40
9.4389364862881635
 50
270.0
 51
306.68929005244291
  0
ARC
  5
2B1A
  8
L1
 10
-56.75
 20
31.750000000000021
 30
0.0
 40
7.3999999999999604
 50
270.0
 51
0.0
  0
ARC
  5
2B1B
  8
L1
 10
-56.75
 20
31.750000000000021
 30
0.0
 40
4.9551339946734032
 50
267.46873820670731
 51
2.531261793292745
  0
ARC
  5
2B1C
  8
L1
 10
-56.75
 20
31.750000000000021
 30
0.0
 40
6.3999999999999941
 50
270.0
 51
0.0
  0
ARC
  5
2B1D
  8
L1
 10
-60.25
 20
22.149999999999999
 30
0.0
 40
2.2000000000000619
 50
90.0
 51
180.0
  0
POLYLINE
  5
2B1E
  8
L1
 66
     1
 10
0.0
 20
0.0
 30
0.0
  0
VERTEX
  5
3532
  8
L1
 10
-62.718560984214271
 20
24.186223628979771
 30
0.0
  0
VERTEX
  5
3533
  8
L1
 10
-62.728328363554283
 20
24.17496422879665
 30
0.0
  0
VERTEX
  5
3534
  8
L1
 10
-62.816397581964111
 20
24.108500430629899
 30
0.0
  0
VERTEX
  5
3535
  8
L1
 10
-62.894770114985249
 20
24.082233380302931
 30
0.0
  0
VERTEX
  5
3536
  8
L1
 10
-62.969342954089143
 20
24.077725977076248
 30
0.0
  0
VERTEX
  5
3537
  8
L1
 10
-63.046544182151479
 20
24.093056538991991
 30
0.0
  0
VERTEX
  5
3538
  8
L1
 10
-63.134927642499292
 20
24.140868754507689
 30
0.0
  0
VERTEX
  5
3539
  8
L1
 10
-63.211827010205177
 20
24.230643189592939
 30
0.0
  0
VERTEX
  5
353A
  8
L1
 10
-63.247225979339639
 20
24.336387854965238
 30
0.0
  0
VERTEX
  5
353B
  8
L1
 10
-63.25
 20
24.377091896450079
 30
0.0
  0
SEQEND
  5
353C
  8
L1
  0
ARC
  5
2B1F
  8
L1
 10
-60.25
 20
22.149999999999999
 30
0.0
 40
3.2000000000000282
 50
90.0
 51
140.48205331592669
  0
LINE
  5
2B20
  8
L1
 10
-61.950102802507331
 20
22.95000000000001
 30
0.0
 11
-56.75
 21
22.95000000000001
 31
0.0
  0
LINE
  5
2B21
  8
L1
 10
-56.75
 20
22.31106351371184
 30
0.0
 11
-61.311166316219207
 21
22.31106351371184
 31
0.0
  0
POLYLINE
  5
2B22
  8
L1
 66
     1
 10
0.0
 20
0.0
 30
0.0
  0
VERTEX
  5
353D
  8
L1
 10
-62.25
 20
22.650102802507341
 30
0.0
  0
VERTEX
  5
353E
  8
L1
 10
-62.162174606235787
 20
22.862174606235691
 30
0.0
  0
VERTEX
  5
353F
  8
L1
 10
-61.950102802507331
 20
22.95000000000001
 30
0.0
  0
SEQEND
  5
3540
  8
L1
  0
POLYLINE
  5
2B23
  8
L1
 66
     1
 10
0.0
 20
0.0
 30
0.0
  0
VERTEX
  5
3541
  8
L1
 10
-61.611063197456133
 20
22.011474337029789
 30
0.0
  0
VERTEX
  5
3542
  8
L1
 10
-61.61106343464791
 20
22.011320366176761
 30
0.0
  0
VERTEX
  5
3543
  8
L1
 10
-61.61106351371177
 20
22.011166316219231
 30
0.0
  0
SEQEND
  5
3544
  8
L1
  0
POLYLINE
  5
2B24
  8
L1
 66
     1
 10
0.0
 20
0.0
 30
0.0
  0
VERTEX
  5
3545
  8
L1
 10
-61.611063197455913
 20
22.011474337029512
 30
0.0
  0
VERTEX
  5
3546
  8
L1
 10
-61.52311073177259
 20
22.223110731772721
 30
0.0
  0
VERTEX
  5
3547
  8
L1
 10
-61.311474337029381
 20
22.311063197455979
 30
0.0
  0
SEQEND
  5
3548
  8
L1
  0
POLYLINE
  5
2B25
  8
L1
 66
     1
 10
0.0
 20
0.0
 30
0.0
  0
VERTEX
  5
3549
  8
L1
 10
-61.311166316219101
 20
22.31106351371178
 30
0.0
  0
VERTEX
  5
354A
  8
L1
 10
-61.31132036617668
 20
22.31106343464787
 30
0.0
  0
VERTEX
  5
354B
  8
L1
 10
-61.311474337029487
 20
22.311063197456029
 30
0.0
  0
SEQEND
  5
354C
  8
L1
  0
ARC
  5
2B26
  8
L1
 10
-60.25
 20
22.149999999999999
 30
0.0
 40
3.2000000000000282
 50
140.48205331592669
 51
180.0
  0
ARC
  5
2B27
  8
L1
 10
-56.75
 20
31.750000000000021
 30
0.0
 40
5.7825462644184809
 50
117.01652280963989
 51
152.98347719036059
  0
POLYLINE
  5
2B28
  8
L1
 66
     1
 10
0.0
 20
0.0
 30
0.0
  0
VERTEX
  5
354D
  8
L1
 10
-59.035746534405
 20
36.659302189691481
 30
0.0
  0
VERTEX
  5
354E
  8
L1
 10
-59.124081047125628
 20
36.747342135618929
 30
0.0
  0
VERTEX
  5
354F
  8
L1
 10
-59.19758740517193
 20
36.820028179014713
 30
0.0
  0
VERTEX
  5
3550
  8
L1
 10
-59.245965950157817
 20
36.867206662007931
 30
0.0
  0
VERTEX
  5
3551
  8
L1
 10
-59.263214172935143
 20
36.883099641752288
 30
0.0
  0
SEQEND
  5
3552
  8
L1
  0
ARC
  5
2B29
  8
L1
 10
-56.75
 20
31.750000000000021
 30
0.0
 40
4.9551339946734032
 50
87.46873820670892
 51
113.0136160723919
  0
ARC
  5
2B2A
  8
L1
 10
-60.64999999999997
 20
35.649999999999949
 30
0.0
 40
2.3853190523473331
 50
90.0
 51
179.99999999999829
  0
ARC
  5
2B2B
  8
L1
 10
-60.64999999999997
 20
35.649999999999999
 30
0.0
 40
2.6000000000000001
 50
90.0
 51
180.0
  0
POLYLINE
  5
2B2C
  8
L1
 66
     1
 10
0.0
 20
0.0
 30
0.0
  0
VERTEX
  5
3553
  8
L1
 10
-65.012088437774196
 20
36.556999999999988
 30
0.0
  0
VERTEX
  5
3554
  8
L1
 10
-64.941714390114484
 20
37.218787602445303
 30
0.0
  0
VERTEX
  5
3555
  8
L1
 10
-64.739585002002514
 20
37.873772386241022
 30
0.0
  0
VERTEX
  5
3556
  8
L1
 10
-64.413440750186282
 20
38.476619230896091
 30
0.0
  0
VERTEX
  5
3557
  8
L1
 10
-63.989929119073743
 20
38.9899291190737
 30
0.0
  0
VERTEX
  5
3558
  8
L1
 10
-63.476619230896169
 20
39.41344075018614
 30
0.0
  0
VERTEX
  5
3559
  8
L1
 10
-62.873772386241058
 20
39.739585002002542
 30
0.0
  0
VERTEX
  5
355A
  8
L1
 10
-62.218787602445332
 20
39.941714390114413
 30
0.0
  0
VERTEX
  5
355B
  8
L1
 10
-61.557000000000023
 20
40.01208843777416
 30
0.0
  0
SEQEND
  5
355C
  8
L1
  0
ARC
  5
2B2D
  8
L1
 10
-61.557000000000023
 20
36.556999999999988
 30
0.0
 40
2.7360241002247041
 50
90.0
 51
180.0
  0
LINE
  5
2B2E
  8
L1
 10
-61.70029913768667
 20
31.531159070128599
 30
0.0
 11
-56.968840929871362
 21
26.799700862313411
 31
0.0
  0
LINE
  5
2B2F
  8
L1
 10
-63.25
 20
24.377091896450079
 30
0.0
 11
-63.25
 21
35.650000000000063
 31
0.0
  0
LINE
  5
2B30
  8
L1
 10
-59.863042131491511
 20
25.691415971345371
 30
0.0
 11
-62.619202064108322
 21
28.447575903962129
 31
0.0
  0
POLYLINE
  5
2B31
  8
L1
 66
     1
 10
0.0
 20
0.0
 30
0.0
  0
VERTEX
  5
355D
  8
L1
 10
-62.833921234867148
 20
28.53545241603134
 30
0.0
  0
VERTEX
  5
355E
  8
L1
 10
-63.045125652203978
 20
28.44851903510741
 30
0.0
  0
VERTEX
  5
355F
  8
L1
 10
-63.133909811786452
 20
28.2417173471542
 30
0.0
  0
SEQEND
  5
3560
  8
L1
  0
POLYLINE
  5
2B32
  8
L1
 66
     1
 10
0.0
 20
0.0
 30
0.0
  0
VERTEX
  5
3561
  8
L1
 10
-62.833921234867148
 20
28.53545241603134
 30
0.0
  0
VERTEX
  5
3562
  8
L1
 10
-62.717729786776431
 20
28.513110116762821
 30
0.0
  0
VERTEX
  5
3563
  8
L1
 10
-62.619202064108322
 20
28.447575903962129
 30
0.0
  0
SEQEND
  5
3564
  8
L1
  0
POLYLINE
  5
2B33
  8
L1
 66
     1
 10
0.0
 20
0.0
 30
0.0
  0
VERTEX
  5
3565
  8
L1
 10
-59.863042131491511
 20
25.691415971345432
 30
0.0
  0
VERTEX
  5
3566
  8
L1
 10
-59.809747036442673
 20
25.59566165892144
 30
0.0
  0
VERTEX
  5
3567
  8
L1
 10
-59.814914676135118
 20
25.486198777074399
 30
0.0
  0
VERTEX
  5
3568
  8
L1
 10
-59.876993618817551
 20
25.39589033495664
 30
0.0
  0
VERTEX
  5
3569
  8
L1
 10
-59.977346488722667
 20
25.351848784842129
 30
0.0
  0
SEQEND
  5
356A
  8
L1
  0
LINE
  5
2B34
  8
L1
 10
-59.549999999999947
 20
25.349999999999991
 30
0.0
 11
-56.75
 21
25.349999999999991
 31
0.0
  0
LINE
  5
2B35
  8
L1
 10
-60.25
 20
25.349999999999991
 30
0.0
 11
-59.549999999999947
 21
25.349999999999991
 31
0.0
  0
LINE
  5
2B36
  8
L1
 10
-56.75
 20
24.350000000000051
 30
0.0
 11
-60.25
 21
24.350000000000051
 31
0.0
  0
POLYLINE
  5
2B37
  8
L1
 66
     1
 10
0.0
 20
0.0
 30
0.0
  0
VERTEX
  5
356B
  8
L1
 10
-65.012304130909342
 20
36.517100759268232
 30
0.0
  0
VERTEX
  5
356C
  8
L1
 10
-65.012250207188913
 20
36.53704803203825
 30
0.0
  0
VERTEX
  5
356D
  8
L1
 10
-65.01208843777431
 20
36.556999999999988
 30
0.0
  0
SEQEND
  5
356E
  8
L1
  0
LINE
  5
2B38
  8
L1
 10
-63.248943265974731
 20
35.724120848982089
 30
0.0
 11
-61.901529179287763
 21
34.376706762295129
 31
0.0
  0
POLYLINE
  5
2B39
  8
L1
 66
     1
 10
0.0
 20
0.0
 30
0.0
  0
VERTEX
  5
356F
  8
L1
 10
-61.901529179287763
 20
34.376706762295129
 30
0.0
  0
VERTEX
  5
3570
  8
L1
 10
-61.883099641752317
 20
34.263214172935108
 30
0.0
  0
SEQEND
  5
3571
  8
L1
  0
LINE
  5
2B3A
  8
L1
 10
-61.659302189691509
 20
34.035746534404979
 30
0.0
 11
-61.31076465179126
 21
33.687208996504779
 31
0.0
  0
POLYLINE
  5
2B3B
  8
L1
 66
     1
 10
0.0
 20
0.0
 30
0.0
  0
VERTEX
  5
3572
  8
L1
 10
-61.88309964175221
 20
34.263214172935157
 30
0.0
  0
VERTEX
  5
3573
  8
L1
 10
-61.867206662007902
 20
34.245965950157853
 30
0.0
  0
VERTEX
  5
3574
  8
L1
 10
-61.820028179014678
 20
34.197587405171952
 30
0.0
  0
VERTEX
  5
3575
  8
L1
 10
-61.747342135618972
 20
34.124081047125713
 30
0.0
  0
VERTEX
  5
3576
  8
L1
 10
-61.659302189691509
 20
34.035746534404979
 30
0.0
  0
SEQEND
  5
3577
  8
L1
  0
LINE
  5
2B3C
  8
L1
 10
-63.03531905234729
 20
35.650000000000063
 30
0.0
 11
-63.03531905234717
 21
35.510496635354599
 31
0.0
  0
ARC
  5
2B3D
  8
L1
 10
-56.75
 20
31.750000000000021
 30
0.0
 40
4.9551339946734032
 50
156.9863839276095
 51
182.53126179329271
  0
LINE
  5
2B3E
  8
L1
 10
-58.687208996504751
 20
36.310764651791338
 30
0.0
 11
-59.035746534405
 21
36.659302189691481
 31
0.0
  0
POLYLINE
  5
2B3F
  8
L1
 66
     1
 10
0.0
 20
0.0
 30
0.0
  0
VERTEX
  5
3578
  8
L1
 10
-61.557000000000023
 20
40.01208843777416
 30
0.0
  0
VERTEX
  5
3579
  8
L1
 10
-61.537048032038342
 20
40.012250207188877
 30
0.0
  0
VERTEX
  5
357A
  8
L1
 10
-61.51710075926826
 20
40.0123041309092
 30
0.0
  0
SEQEND
  5
357B
  8
L1
  0
LINE
  5
2B40
  8
L1
 10
-59.376706762295051
 20
36.901529179287841
 30
0.0
 11
-60.724120848982011
 21
38.248943265974759
 31
0.0
  0
LINE
  5
2B41
  8
L1
 10
-60.510496635354571
 20
38.035319052347319
 30
0.0
 11
-60.64999999999997
 21
38.035319052347262
 31
0.0
  0
POLYLINE
  5
2B42
  8
L1
 66
     1
 10
0.0
 20
0.0
 30
0.0
  0
VERTEX
  5
357C
  8
L1
 10
-59.26321417293525
 20
36.883099641752182
 30
0.0
  0
VERTEX
  5
357D
  8
L1
 10
-59.37670676229515
 20
36.901529179287792
 30
0.0
  0
SEQEND
  5
357E
  8
L1
  0
LINE
  5
2B43
  8
L1
 10
-49.961947952636137
 20
23.79669516924158
 30
0.0
 11
-51.066087514093049
 21
24.723178268028299
 31
0.0
  0
LINE
  5
2B44
  8
L1
 10
-48.814375794571561
 20
24.55699505532689
 30
0.0
 11
-49.556995055326858
 21
23.814375794571639
 31
0.0
  0
LINE
  5
2B45
  8
L1
 10
-48.525844682845438
 20
24.544389790256808
 30
0.0
 11
-49.54438979025678
 21
23.525844682845531
 31
0.0
  0
ARC
  5
2B46
  8
L1
 10
-52.711063513711792
 20
27.711063513711871
 30
0.0
 40
5.3999999999999986
 50
270.0
 51
0.0000000000016284
  0
LINE
  5
2B47
  8
L1
 10
-49.949358107518719
 20
23.508163384265821
 30
0.0
 11
-50.738388551548383
 21
24.170238538838731
 31
0.0
  0
POLYLINE
  5
2B48
  8
L1
 66
     1
 10
0.0
 20
0.0
 30
0.0
  0
VERTEX
  5
357F
  8
L1
 10
-50.738388551548383
 20
24.170238538838792
 30
0.0
  0
VERTEX
  5
3580
  8
L1
 10
-50.740114986458373
 20
24.17167621435917
 30
0.0
  0
VERTEX
  5
3581
  8
L1
 10
-50.829096643909672
 20
24.22251593656366
 30
0.0
  0
VERTEX
  5
3582
  8
L1
 10
-50.904906570862629
 20
24.239290622920372
 30
0.0
  0
VERTEX
  5
3583
  8
L1
 10
-50.976091252715378
 20
24.237084613486299
 30
0.0
  0
VERTEX
  5
3584
  8
L1
 10
-51.051522375905961
 20
24.215292371792739
 30
0.0
  0
VERTEX
  5
3585
  8
L1
 10
-51.110468916369882
 20
24.181036322656119
 30
0.0
  0
SEQEND
  5
3586
  8
L1
  0
POLYLINE
  5
2B49
  8
L1
 66
     1
 10
0.0
 20
0.0
 30
0.0
  0
VERTEX
  5
3587
  8
L1
 10
-49.556995055326979
 20
23.814375794571639
 30
0.0
  0
VERTEX
  5
3588
  8
L1
 10
-49.756033631138962
 20
23.726795248333779
 30
0.0
  0
VERTEX
  5
3589
  8
L1
 10
-49.961947952636137
 20
23.79669516924158
 30
0.0
  0
SEQEND
  5
358A
  8
L1
  0
ARC
  5
2B4A
  8
L1
 10
-49.756521824612719
 20
23.737976717201519
 30
0.0
 40
0.3
 50
229.99999999999929
 51
315.0
  0
ARC
  5
2B4B
  8
L1
 10
-47.149999999999977
 20
35.249999999999972
 30
0.0
 40
3.2000000000000282
 50
129.51794668407271
 51
180.0
  0
ARC
  5
2B4C
  8
L1
 10
-47.149999999999977
 20
35.249999999999972
 30
0.0
 40
2.2000000000000619
 50
90.0
 51
180.0
  0
LINE
  5
2B4D
  8
L1
 10
-47.950000000000038
 20
31.749999999999972
 30
0.0
 11
-47.950000000000038
 21
36.950102802507303
 31
0.0
  0
LINE
  5
2B4E
  8
L1
 10
-53.447575903962047
 20
37.619202064108293
 30
0.0
 11
-50.69141597134535
 21
34.863042131491653
 31
0.0
  0
LINE
  5
2B4F
  8
L1
 10
-47.311063513711808
 20
27.711063513711871
 30
0.0
 11
-47.311063513711808
 21
31.750000000000021
 31
0.0
  0
ARC
  5
2B50
  8
L1
 10
-56.75
 20
31.750000000000021
 30
0.0
 40
8.8000000000000007
 50
322.88513754492698
 51
0.0
  0
ARC
  5
2B51
  8
L1
 10
-56.75
 20
31.750000000000021
 30
0.0
 40
9.4389364862881635
 50
323.31070994755629
 51
0.0
  0
POLYLINE
  5
2B52
  8
L1
 66
     1
 10
0.0
 20
0.0
 30
0.0
  0
VERTEX
  5
358B
  8
L1
 10
-51.439949234256567
 20
24.732638610900349
 30
0.0
  0
VERTEX
  5
358C
  8
L1
 10
-51.379236183845819
 20
24.768225715399151
 30
0.0
  0
VERTEX
  5
358D
  8
L1
 10
-51.301831308674757
 20
24.790313818738891
 30
0.0
  0
VERTEX
  5
358E
  8
L1
 10
-51.228206690632078
 20
24.791809597496609
 30
0.0
  0
VERTEX
  5
358F
  8
L1
 10
-51.149713592345051
 20
24.772789027529399
 30
0.0
  0
VERTEX
  5
3590
  8
L1
 10
-51.066087514093049
 20
24.723178268028299
 30
0.0
  0
SEQEND
  5
3591
  8
L1
  0
POLYLINE
  5
2B53
  8
L1
 66
     1
 10
0.0
 20
0.0
 30
0.0
  0
VERTEX
  5
3592
  8
L1
 10
-48.796695169241502
 20
24.961947952636159
 30
0.0
  0
VERTEX
  5
3593
  8
L1
 10
-48.726795248333701
 20
24.75603363113893
 30
0.0
  0
VERTEX
  5
3594
  8
L1
 10
-48.814375794571561
 20
24.55699505532689
 30
0.0
  0
SEQEND
  5
3595
  8
L1
  0
LINE
  5
2B54
  8
L1
 10
-49.723178268028278
 20
26.06608751409302
 30
0.0
 11
-48.796695169241502
 21
24.961947952636098
 31
0.0
  0
POLYLINE
  5
2B55
  8
L1
 66
     1
 10
0.0
 20
0.0
 30
0.0
  0
VERTEX
  5
3596
  8
L1
 10
-49.723178268028278
 20
26.06608751409302
 30
0.0
  0
VERTEX
  5
3597
  8
L1
 10
-49.730113646120799
 20
26.074668220648931
 30
0.0
  0
VERTEX
  5
3598
  8
L1
 10
-49.780604914290507
 20
26.172320771318851
 30
0.0
  0
VERTEX
  5
3599
  8
L1
 10
-49.792176433550928
 20
26.285943643077779
 30
0.0
  0
VERTEX
  5
359A
  8
L1
 10
-49.758682176200182
 20
26.399032129046731
 30
0.0
  0
VERTEX
  5
359B
  8
L1
 10
-49.732638610900267
 20
26.439949234256542
 30
0.0
  0
SEQEND
  5
359C
  8
L1
  0
ARC
  5
2B56
  8
L1
 10
-48.737976717201491
 20
24.7565218246128
 30
0.0
 40
0.3
 50
315.0
 51
40.000000000000092
  0
LINE
  5
2B57
  8
L1
 10
-49.170238538838703
 20
25.738388551548351
 30
0.0
 11
-48.508163384265799
 21
24.949358107518741
 31
0.0
  0
POLYLINE
  5
2B58
  8
L1
 66
     1
 10
0.0
 20
0.0
 30
0.0
  0
VERTEX
  5
359D
  8
L1
 10
-49.181036322656162
 20
26.11046891636985
 30
0.0
  0
VERTEX
  5
359E
  8
L1
 10
-49.221532253349658
 20
26.03611497606019
 30
0.0
  0
VERTEX
  5
359F
  8
L1
 10
-49.240236551743692
 20
25.91991626639108
 30
0.0
  0
VERTEX
  5
35A0
  8
L1
 10
-49.21497510694644
 20
25.810286871908168
 30
0.0
  0
VERTEX
  5
35A1
  8
L1
 10
-49.170238538838703
 20
25.738388551548351
 30
0.0
  0
SEQEND
  5
35A2
  8
L1
  0
POLYLINE
  5
2B59
  8
L1
 66
     1
 10
0.0
 20
0.0
 30
0.0
  0
VERTEX
  5
35A3
  8
L1
 10
-50.350000000000023
 20
35.004479642814736
 30
0.0
  0
VERTEX
  5
35A4
  8
L1
 10
-50.383705019846502
 20
34.893358717371108
 30
0.0
  0
VERTEX
  5
35A5
  8
L1
 10
-50.473459795757663
 20
34.819691121901847
 30
0.0
  0
VERTEX
  5
35A6
  8
L1
 10
-50.589012462699202
 20
34.808306534080508
 30
0.0
  0
VERTEX
  5
35A7
  8
L1
 10
-50.69141597134535
 20
34.863042131491653
 30
0.0
  0
SEQEND
  5
35A8
  8
L1
  0
LINE
  5
2B5A
  8
L1
 10
-50.349999999999909
 20
31.749999999999972
 30
0.0
 11
-50.349999999999909
 21
34.549999999999869
 31
0.0
  0
LINE
  5
2B5B
  8
L1
 10
-50.349999999999909
 20
34.549999999999919
 30
0.0
 11
-50.349999999999909
 21
35.249999999999972
 31
0.0
  0
LINE
  5
2B5C
  8
L1
 10
-47.311063513711808
 20
36.311166316219179
 30
0.0
 11
-47.311063513711808
 21
31.749999999999972
 31
0.0
  0
POLYLINE
  5
2B5D
  8
L1
 66
     1
 10
0.0
 20
0.0
 30
0.0
  0
VERTEX
  5
35A9
  8
L1
 10
-47.311063197456058
 20
36.311474337029694
 30
0.0
  0
VERTEX
  5
35AA
  8
L1
 10
-47.311063434647849
 20
36.311320366176709
 30
0.0
  0
VERTEX
  5
35AB
  8
L1
 10
-47.311063513711808
 20
36.311166316219179
 30
0.0
  0
SEQEND
  5
35AC
  8
L1
  0
POLYLINE
  5
2B5E
  8
L1
 66
     1
 10
0.0
 20
0.0
 30
0.0
  0
VERTEX
  5
35AD
  8
L1
 10
-47.311063197456058
 20
36.31147433702958
 30
0.0
  0
VERTEX
  5
35AE
  8
L1
 10
-47.223110731772749
 20
36.523110731772782
 30
0.0
  0
VERTEX
  5
35AF
  8
L1
 10
-47.01147433702954
 20
36.611063197456041
 30
0.0
  0
SEQEND
  5
35B0
  8
L1
  0
POLYLINE
  5
2B5F
  8
L1
 66
     1
 10
0.0
 20
0.0
 30
0.0
  0
VERTEX
  5
35B1
  8
L1
 10
-47.011166316219139
 20
36.611063513711848
 30
0.0
  0
VERTEX
  5
35B2
  8
L1
 10
-47.011320366176733
 20
36.611063434647939
 30
0.0
  0
VERTEX
  5
35B3
  8
L1
 10
-47.011474337029647
 20
36.611063197456097
 30
0.0
  0
SEQEND
  5
35B4
  8
L1
  0
LINE
  5
2B60
  8
L1
 10
-49.350000000000023
 20
35.249999999999972
 30
0.0
 11
-49.350000000000023
 21
31.749999999999972
 31
0.0
  0
POLYLINE
  5
2B61
  8
L1
 66
     1
 10
0.0
 20
0.0
 30
0.0
  0
VERTEX
  5
35B5
  8
L1
 10
-53.447575903962047
 20
37.619202064108293
 30
0.0
  0
VERTEX
  5
35B6
  8
L1
 10
-53.513110116762839
 20
37.717729786776403
 30
0.0
  0
VERTEX
  5
35B7
  8
L1
 10
-53.535452416031369
 20
37.833921234867233
 30
0.0
  0
SEQEND
  5
35B8
  8
L1
  0
POLYLINE
  5
2B62
  8
L1
 66
     1
 10
0.0
 20
0.0
 30
0.0
  0
VERTEX
  5
35B9
  8
L1
 10
-53.241717347154243
 20
38.133909811786417
 30
0.0
  0
VERTEX
  5
35BA
  8
L1
 10
-53.448519035107331
 20
38.04512565220395
 30
0.0
  0
VERTEX
  5
35BB
  8
L1
 10
-53.535452416031262
 20
37.833921234867233
 30
0.0
  0
SEQEND
  5
35BC
  8
L1
  0
POLYLINE
  5
2B63
  8
L1
 66
     1
 10
0.0
 20
0.0
 30
0.0
  0
VERTEX
  5
35BD
  8
L1
 10
-49.377091896450331
 20
38.249999999999972
 30
0.0
  0
VERTEX
  5
35BE
  8
L1
 10
-49.329326939881298
 20
38.24617333472699
 30
0.0
  0
VERTEX
  5
35BF
  8
L1
 10
-49.248597032242742
 20
38.221089717646599
 30
0.0
  0
VERTEX
  5
35C0
  8
L1
 10
-49.156156936080599
 20
38.152947646735612
 30
0.0
  0
VERTEX
  5
35C1
  8
L1
 10
-49.098202734683021
 20
38.060535919167961
 30
0.0
  0
VERTEX
  5
35C2
  8
L1
 10
-49.077103407217457
 20
37.949414895274941
 30
0.0
  0
VERTEX
  5
35C3
  8
L1
 10
-49.100632485334927
 20
37.833547508367161
 30
0.0
  0
VERTEX
  5
35C4
  8
L1
 10
-49.16256111542998
 20
37.74031060222714
 30
0.0
  0
VERTEX
  5
35C5
  8
L1
 10
-49.186223628979739
 20
37.718560984214179
 30
0.0
  0
SEQEND
  5
35C6
  8
L1
  0
POLYLINE
  5
2B64
  8
L1
 66
     1
 10
0.0
 20
0.0
 30
0.0
  0
VERTEX
  5
35C7
  8
L1
 10
-47.950000000000038
 20
36.950102802507303
 30
0.0
  0
VERTEX
  5
35C8
  8
L1
 10
-47.862174606235719
 20
37.162174606235652
 30
0.0
  0
VERTEX
  5
35C9
  8
L1
 10
-47.650102802507369
 20
37.249999999999972
 30
0.0
  0
SEQEND
  5
35CA
  8
L1
  0
ARC
  5
2B65
  8
L1
 10
-47.149999999999977
 20
35.249999999999972
 30
0.0
 40
3.2000000000000282
 50
90.0
 51
129.51794668407271
  0
ARC
  5
2B66
  8
L1
 10
60.25
 20
22.149999999999999
 30
0.0
 40
3.2000000000000282
 50
39.517946684073252
 51
90.0
  0
POLYLINE
  5
2B67
  8
L1
 66
     1
 10
0.0
 20
0.0
 30
0.0
  0
VERTEX
  5
35CB
  8
L1
 10
62.7185609842142
 20
24.186223628979771
 30
0.0
  0
VERTEX
  5
35CC
  8
L1
 10
62.728328363554283
 20
24.17496422879665
 30
0.0
  0
VERTEX
  5
35CD
  8
L1
 10
62.816397581964111
 20
24.108500430629899
 30
0.0
  0
VERTEX
  5
35CE
  8
L1
 10
62.894770114985299
 20
24.082233380302931
 30
0.0
  0
VERTEX
  5
35CF
  8
L1
 10
62.969342954089093
 20
24.077725977076248
 30
0.0
  0
VERTEX
  5
35D0
  8
L1
 10
63.046544182151479
 20
24.093056538991991
 30
0.0
  0
VERTEX
  5
35D1
  8
L1
 10
63.134927642499292
 20
24.140868754507689
 30
0.0
  0
VERTEX
  5
35D2
  8
L1
 10
63.211827010205177
 20
24.230643189592939
 30
0.0
  0
VERTEX
  5
35D3
  8
L1
 10
63.247225979339639
 20
24.336387854965238
 30
0.0
  0
VERTEX
  5
35D4
  8
L1
 10
63.25
 20
24.377091896450079
 30
0.0
  0
SEQEND
  5
35D5
  8
L1
  0
LINE
  5
2B68
  8
L1
 10
48.525844682845438
 20
24.544389790256808
 30
0.0
 11
49.54438979025678
 21
23.525844682845531
 31
0.0
  0
LINE
  5
2B69
  8
L1
 10
48.814375794571561
 20
24.55699505532689
 30
0.0
 11
49.556995055326858
 21
23.814375794571639
 31
0.0
  0
LINE
  5
2B6A
  8
L1
 10
49.961947952636137
 20
23.79669516924158
 30
0.0
 11
51.066087514093049
 21
24.723178268028299
 31
0.0
  0
ARC
  5
2B6B
  8
L1
 10
56.75
 20
31.750000000000021
 30
0.0
 40
6.3999999999999941
 50
180.0
 51
270.0
  0
ARC
  5
2B6C
  8
L1
 10
60.25
 20
22.149999999999999
 30
0.0
 40
2.2000000000000619
 50
0.0
 51
90.0
  0
ARC
  5
2B6D
  8
L1
 10
56.75
 20
31.750000000000021
 30
0.0
 40
7.3999999999999604
 50
180.0
 51
270.0
  0
ARC
  5
2B6E
  8
L1
 10
52.711063513711792
 20
27.711063513711871
 30
0.0
 40
5.3999999999999986
 50
179.99999999999829
 51
270.0
  0
ARC
  5
2B6F
  8
L1
 10
56.75
 20
31.750000000000021
 30
0.0
 40
8.8000000000000007
 50
232.88513754492681
 51
270.0
  0
LINE
  5
2B70
  8
L1
 10
56.75
 20
22.31106351371184
 30
0.0
 11
61.311166316219207
 21
22.31106351371184
 31
0.0
  0
LINE
  5
2B71
  8
L1
 10
61.950102802507331
 20
22.95000000000001
 30
0.0
 11
56.75
 21
22.95000000000001
 31
0.0
  0
LINE
  5
2B72
  8
L1
 10
56.75
 20
22.31106351371184
 30
0.0
 11
52.711063513711792
 21
22.31106351371184
 31
0.0
  0
ARC
  5
2B73
  8
L1
 10
56.75
 20
31.750000000000021
 30
0.0
 40
9.4389364862881635
 50
233.31070994755689
 51
270.0
  0
POLYLINE
  5
2B74
  8
L1
 66
     1
 10
0.0
 20
0.0
 30
0.0
  0
VERTEX
  5
35D6
  8
L1
 10
50.738388551548383
 20
24.170238538838792
 30
0.0
  0
VERTEX
  5
35D7
  8
L1
 10
50.740114986458373
 20
24.17167621435917
 30
0.0
  0
VERTEX
  5
35D8
  8
L1
 10
50.829096643909672
 20
24.22251593656366
 30
0.0
  0
VERTEX
  5
35D9
  8
L1
 10
50.904906570862629
 20
24.239290622920372
 30
0.0
  0
VERTEX
  5
35DA
  8
L1
 10
50.976091252715378
 20
24.237084613486299
 30
0.0
  0
VERTEX
  5
35DB
  8
L1
 10
51.051522375905961
 20
24.215292371792739
 30
0.0
  0
VERTEX
  5
35DC
  8
L1
 10
51.110468916369882
 20
24.181036322656119
 30
0.0
  0
SEQEND
  5
35DD
  8
L1
  0
LINE
  5
2B75
  8
L1
 10
49.949358107518719
 20
23.508163384265821
 30
0.0
 11
50.738388551548383
 21
24.170238538838731
 31
0.0
  0
ARC
  5
2B76
  8
L1
 10
49.756521824612719
 20
23.737976717201519
 30
0.0
 40
0.3
 50
225.0
 51
310.00000000000068
  0
POLYLINE
  5
2B77
  8
L1
 66
     1
 10
0.0
 20
0.0
 30
0.0
  0
VERTEX
  5
35DE
  8
L1
 10
49.556995055326979
 20
23.814375794571639
 30
0.0
  0
VERTEX
  5
35DF
  8
L1
 10
49.756033631138962
 20
23.726795248333779
 30
0.0
  0
VERTEX
  5
35E0
  8
L1
 10
49.961947952636137
 20
23.79669516924158
 30
0.0
  0
SEQEND
  5
35E1
  8
L1
  0
POLYLINE
  5
2B78
  8
L1
 66
     1
 10
0.0
 20
0.0
 30
0.0
  0
VERTEX
  5
35E2
  8
L1
 10
61.311166316219101
 20
22.31106351371178
 30
0.0
  0
VERTEX
  5
35E3
  8
L1
 10
61.31132036617668
 20
22.31106343464787
 30
0.0
  0
VERTEX
  5
35E4
  8
L1
 10
61.311474337029487
 20
22.311063197456029
 30
0.0
  0
SEQEND
  5
35E5
  8
L1
  0
POLYLINE
  5
2B79
  8
L1
 66
     1
 10
0.0
 20
0.0
 30
0.0
  0
VERTEX
  5
35E6
  8
L1
 10
61.611063197455913
 20
22.011474337029512
 30
0.0
  0
VERTEX
  5
35E7
  8
L1
 10
61.52311073177259
 20
22.223110731772721
 30
0.0
  0
VERTEX
  5
35E8
  8
L1
 10
61.311474337029381
 20
22.311063197455979
 30
0.0
  0
SEQEND
  5
35E9
  8
L1
  0
POLYLINE
  5
2B7A
  8
L1
 66
     1
 10
0.0
 20
0.0
 30
0.0
  0
VERTEX
  5
35EA
  8
L1
 10
61.611063197456133
 20
22.011474337029789
 30
0.0
  0
VERTEX
  5
35EB
  8
L1
 10
61.61106343464791
 20
22.011320366176761
 30
0.0
  0
VERTEX
  5
35EC
  8
L1
 10
61.61106351371177
 20
22.011166316219231
 30
0.0
  0
SEQEND
  5
35ED
  8
L1
  0
POLYLINE
  5
2B7B
  8
L1
 66
     1
 10
0.0
 20
0.0
 30
0.0
  0
VERTEX
  5
35EE
  8
L1
 10
62.25
 20
22.650102802507341
 30
0.0
  0
VERTEX
  5
35EF
  8
L1
 10
62.162174606235787
 20
22.862174606235691
 30
0.0
  0
VERTEX
  5
35F0
  8
L1
 10
61.950102802507331
 20
22.95000000000001
 30
0.0
  0
SEQEND
  5
35F1
  8
L1
  0
ARC
  5
2B7C
  8
L1
 10
60.25
 20
22.149999999999999
 30
0.0
 40
3.2000000000000282
 50
0.0
 51
39.517946684073252
  0
ARC
  5
2B7D
  8
L1
 10
56.75
 20
31.750000000000021
 30
0.0
 40
9.4389364862881635
 50
180.0
 51
216.6892900524436
  0
LINE
  5
2B7E
  8
L1
 10
49.170238538838703
 20
25.738388551548351
 30
0.0
 11
48.508163384265799
 21
24.949358107518741
 31
0.0
  0
ARC
  5
2B7F
  8
L1
 10
56.75
 20
31.750000000000021
 30
0.0
 40
8.8000000000000007
 50
180.0
 51
217.11486245507291
  0
LINE
  5
2B80
  8
L1
 10
49.723178268028278
 20
26.06608751409302
 30
0.0
 11
48.796695169241502
 21
24.961947952636098
 31
0.0
  0
ARC
  5
2B81
  8
L1
 10
47.149999999999977
 20
35.249999999999972
 30
0.0
 40
3.2000000000000282
 50
50.48205331592726
 51
90.0
  0
ARC
  5
2B82
  8
L1
 10
47.149999999999977
 20
35.249999999999972
 30
0.0
 40
2.2000000000000619
 50
0.0
 51
90.0
  0
LINE
  5
2B83
  8
L1
 10
47.950000000000038
 20
31.749999999999972
 30
0.0
 11
47.950000000000038
 21
36.950102802507303
 31
0.0
  0
LINE
  5
2B84
  8
L1
 10
47.311063513711808
 20
27.711063513711871
 30
0.0
 11
47.311063513711808
 21
31.750000000000021
 31
0.0
  0
ARC
  5
2B85
  8
L1
 10
48.737976717201491
 20
24.7565218246128
 30
0.0
 40
0.3
 50
139.9999999999998
 51
225.0
  0
POLYLINE
  5
2B86
  8
L1
 66
     1
 10
0.0
 20
0.0
 30
0.0
  0
VERTEX
  5
35F2
  8
L1
 10
48.796695169241502
 20
24.961947952636159
 30
0.0
  0
VERTEX
  5
35F3
  8
L1
 10
48.726795248333701
 20
24.75603363113893
 30
0.0
  0
VERTEX
  5
35F4
  8
L1
 10
48.814375794571561
 20
24.55699505532689
 30
0.0
  0
SEQEND
  5
35F5
  8
L1
  0
POLYLINE
  5
2B87
  8
L1
 66
     1
 10
0.0
 20
0.0
 30
0.0
  0
VERTEX
  5
35F6
  8
L1
 10
47.011166316219139
 20
36.611063513711848
 30
0.0
  0
VERTEX
  5
35F7
  8
L1
 10
47.011320366176733
 20
36.611063434647939
 30
0.0
  0
VERTEX
  5
35F8
  8
L1
 10
47.011474337029647
 20
36.611063197456097
 30
0.0
  0
SEQEND
  5
35F9
  8
L1
  0
POLYLINE
  5
2B88
  8
L1
 66
     1
 10
0.0
 20
0.0
 30
0.0
  0
VERTEX
  5
35FA
  8
L1
 10
47.311063197456058
 20
36.31147433702958
 30
0.0
  0
VERTEX
  5
35FB
  8
L1
 10
47.223110731772749
 20
36.523110731772782
 30
0.0
  0
VERTEX
  5
35FC
  8
L1
 10
47.01147433702954
 20
36.611063197456041
 30
0.0
  0
SEQEND
  5
35FD
  8
L1
  0
POLYLINE
  5
2B89
  8
L1
 66
     1
 10
0.0
 20
0.0
 30
0.0
  0
VERTEX
  5
35FE
  8
L1
 10
47.311063197456058
 20
36.311474337029694
 30
0.0
  0
VERTEX
  5
35FF
  8
L1
 10
47.311063434647849
 20
36.311320366176709
 30
0.0
  0
VERTEX
  5
3600
  8
L1
 10
47.311063513711808
 20
36.311166316219179
 30
0.0
  0
SEQEND
  5
3601
  8
L1
  0
LINE
  5
2B8A
  8
L1
 10
47.311063513711808
 20
36.311166316219179
 30
0.0
 11
47.311063513711808
 21
31.749999999999972
 31
0.0
  0
POLYLINE
  5
2B8B
  8
L1
 66
     1
 10
0.0
 20
0.0
 30
0.0
  0
VERTEX
  5
3602
  8
L1
 10
47.950000000000038
 20
36.950102802507303
 30
0.0
  0
VERTEX
  5
3603
  8
L1
 10
47.862174606235719
 20
37.162174606235652
 30
0.0
  0
VERTEX
  5
3604
  8
L1
 10
47.650102802507369
 20
37.249999999999972
 30
0.0
  0
SEQEND
  5
3605
  8
L1
  0
ARC
  5
2B8C
  8
L1
 10
56.75
 20
31.750000000000021
 30
0.0
 40
4.9551339946734032
 50
66.986383927608088
 51
92.531261793291065
  0
POLYLINE
  5
2B8D
  8
L1
 66
     1
 10
0.0
 20
0.0
 30
0.0
  0
VERTEX
  5
3606
  8
L1
 10
59.035746534405
 20
36.659302189691481
 30
0.0
  0
VERTEX
  5
3607
  8
L1
 10
59.124081047125628
 20
36.747342135618929
 30
0.0
  0
VERTEX
  5
3608
  8
L1
 10
59.19758740517193
 20
36.820028179014713
 30
0.0
  0
VERTEX
  5
3609
  8
L1
 10
59.245965950157817
 20
36.867206662007931
 30
0.0
  0
VERTEX
  5
360A
  8
L1
 10
59.263214172935143
 20
36.883099641752288
 30
0.0
  0
SEQEND
  5
360B
  8
L1
  0
ARC
  5
2B8E
  8
L1
 10
61.557000000000023
 20
36.556999999999988
 30
0.0
 40
2.7360241002247041
 50
0.0
 51
90.0
  0
POLYLINE
  5
2B8F
  8
L1
 66
     1
 10
0.0
 20
0.0
 30
0.0
  0
VERTEX
  5
360C
  8
L1
 10
65.012088437774196
 20
36.556999999999988
 30
0.0
  0
VERTEX
  5
360D
  8
L1
 10
64.941714390114484
 20
37.218787602445303
 30
0.0
  0
VERTEX
  5
360E
  8
L1
 10
64.73958500200257
 20
37.873772386241022
 30
0.0
  0
VERTEX
  5
360F
  8
L1
 10
64.413440750186226
 20
38.476619230896091
 30
0.0
  0
VERTEX
  5
3610
  8
L1
 10
63.989929119073743
 20
38.9899291190737
 30
0.0
  0
VERTEX
  5
3611
  8
L1
 10
63.476619230896169
 20
39.41344075018614
 30
0.0
  0
VERTEX
  5
3612
  8
L1
 10
62.873772386241058
 20
39.739585002002542
 30
0.0
  0
VERTEX
  5
3613
  8
L1
 10
62.218787602445332
 20
39.941714390114413
 30
0.0
  0
VERTEX
  5
3614
  8
L1
 10
61.557000000000023
 20
40.01208843777416
 30
0.0
  0
SEQEND
  5
3615
  8
L1
  0
ARC
  5
2B90
  8
L1
 10
47.149999999999977
 20
35.249999999999972
 30
0.0
 40
3.2000000000000282
 50
0.0
 51
50.48205331592726
  0
ARC
  5
2B91
  8
L1
 10
60.64999999999997
 20
35.649999999999999
 30
0.0
 40
2.6000000000000001
 50
0.0
 51
90.0
  0
LINE
  5
2B92
  8
L1
 10
53.447575903962047
 20
37.619202064108293
 30
0.0
 11
50.69141597134535
 21
34.863042131491653
 31
0.0
  0
LINE
  5
2B93
  8
L1
 10
51.799700862313209
 20
31.96884092987133
 30
0.0
 11
56.531159070128638
 21
36.700299137686748
 31
0.0
  0
ARC
  5
2B94
  8
L1
 10
60.64999999999997
 20
35.649999999999949
 30
0.0
 40
2.3853190523473331
 50
0.0000000000016284
 51
90.0
  0
ARC
  5
2B95
  8
L1
 10
56.75
 20
31.750000000000021
 30
0.0
 40
5.7825462644184809
 50
27.01652280963927
 51
62.983477190359999
  0
LINE
  5
2B96
  8
L1
 10
56.75
 20
24.350000000000051
 30
0.0
 11
60.25
 21
24.350000000000051
 31
0.0
  0
LINE
  5
2B97
  8
L1
 10
59.549999999999947
 20
25.349999999999991
 30
0.0
 11
56.75
 21
25.349999999999991
 31
0.0
  0
LINE
  5
2B98
  8
L1
 10
61.70029913768667
 20
31.531159070128599
 30
0.0
 11
56.968840929871362
 21
26.799700862313411
 31
0.0
  0
ARC
  5
2B99
  8
L1
 10
56.75
 20
31.750000000000021
 30
0.0
 40
4.9551339946734032
 50
177.4687382067072
 51
272.53126179329257
  0
POLYLINE
  5
2B9A
  8
L1
 66
     1
 10
0.0
 20
0.0
 30
0.0
  0
VERTEX
  5
3616
  8
L1
 10
49.181036322656162
 20
26.11046891636985
 30
0.0
  0
VERTEX
  5
3617
  8
L1
 10
49.221532253349658
 20
26.03611497606019
 30
0.0
  0
VERTEX
  5
3618
  8
L1
 10
49.240236551743692
 20
25.91991626639108
 30
0.0
  0
VERTEX
  5
3619
  8
L1
 10
49.21497510694644
 20
25.810286871908168
 30
0.0
  0
VERTEX
  5
361A
  8
L1
 10
49.170238538838703
 20
25.738388551548351
 30
0.0
  0
SEQEND
  5
361B
  8
L1
  0
POLYLINE
  5
2B9B
  8
L1
 66
     1
 10
0.0
 20
0.0
 30
0.0
  0
VERTEX
  5
361C
  8
L1
 10
49.723178268028278
 20
26.06608751409302
 30
0.0
  0
VERTEX
  5
361D
  8
L1
 10
49.730113646120799
 20
26.074668220648931
 30
0.0
  0
VERTEX
  5
361E
  8
L1
 10
49.780604914290507
 20
26.172320771318851
 30
0.0
  0
VERTEX
  5
361F
  8
L1
 10
49.792176433550928
 20
26.285943643077779
 30
0.0
  0
VERTEX
  5
3620
  8
L1
 10
49.758682176200182
 20
26.399032129046731
 30
0.0
  0
VERTEX
  5
3621
  8
L1
 10
49.732638610900267
 20
26.439949234256542
 30
0.0
  0
SEQEND
  5
3622
  8
L1
  0
POLYLINE
  5
2B9C
  8
L1
 66
     1
 10
0.0
 20
0.0
 30
0.0
  0
VERTEX
  5
3623
  8
L1
 10
51.439949234256567
 20
24.732638610900349
 30
0.0
  0
VERTEX
  5
3624
  8
L1
 10
51.379236183845819
 20
24.768225715399151
 30
0.0
  0
VERTEX
  5
3625
  8
L1
 10
51.301831308674757
 20
24.790313818738891
 30
0.0
  0
VERTEX
  5
3626
  8
L1
 10
51.228206690632078
 20
24.791809597496609
 30
0.0
  0
VERTEX
  5
3627
  8
L1
 10
51.149713592345051
 20
24.772789027529399
 30
0.0
  0
VERTEX
  5
3628
  8
L1
 10
51.066087514093049
 20
24.723178268028299
 30
0.0
  0
SEQEND
  5
3629
  8
L1
  0
LINE
  5
2B9D
  8
L1
 10
49.350000000000023
 20
35.249999999999972
 30
0.0
 11
49.350000000000023
 21
31.749999999999972
 31
0.0
  0
LINE
  5
2B9E
  8
L1
 10
50.349999999999909
 20
34.549999999999919
 30
0.0
 11
50.349999999999909
 21
35.249999999999972
 31
0.0
  0
LINE
  5
2B9F
  8
L1
 10
50.349999999999909
 20
31.749999999999972
 30
0.0
 11
50.349999999999909
 21
34.549999999999869
 31
0.0
  0
POLYLINE
  5
2BA0
  8
L1
 66
     1
 10
0.0
 20
0.0
 30
0.0
  0
VERTEX
  5
362A
  8
L1
 10
50.350000000000023
 20
35.004479642814736
 30
0.0
  0
VERTEX
  5
362B
  8
L1
 10
50.383705019846502
 20
34.893358717371108
 30
0.0
  0
VERTEX
  5
362C
  8
L1
 10
50.473459795757663
 20
34.819691121901847
 30
0.0
  0
VERTEX
  5
362D
  8
L1
 10
50.589012462699202
 20
34.808306534080508
 30
0.0
  0
VERTEX
  5
362E
  8
L1
 10
50.69141597134535
 20
34.863042131491653
 30
0.0
  0
SEQEND
  5
362F
  8
L1
  0
LINE
  5
2BA1
  8
L1
 10
58.687208996504751
 20
36.310764651791338
 30
0.0
 11
59.035746534405
 21
36.659302189691481
 31
0.0
  0
LINE
  5
2BA2
  8
L1
 10
63.25
 20
24.377091896450079
 30
0.0
 11
63.25
 21
35.650000000000063
 31
0.0
  0
LINE
  5
2BA3
  8
L1
 10
60.25
 20
25.349999999999991
 30
0.0
 11
59.549999999999947
 21
25.349999999999991
 31
0.0
  0
POLYLINE
  5
2BA4
  8
L1
 66
     1
 10
0.0
 20
0.0
 30
0.0
  0
VERTEX
  5
3630
  8
L1
 10
59.863042131491511
 20
25.691415971345432
 30
0.0
  0
VERTEX
  5
3631
  8
L1
 10
59.809747036442673
 20
25.59566165892144
 30
0.0
  0
VERTEX
  5
3632
  8
L1
 10
59.814914676135118
 20
25.486198777074399
 30
0.0
  0
VERTEX
  5
3633
  8
L1
 10
59.876993618817551
 20
25.39589033495664
 30
0.0
  0
VERTEX
  5
3634
  8
L1
 10
59.977346488722667
 20
25.351848784842129
 30
0.0
  0
SEQEND
  5
3635
  8
L1
  0
LINE
  5
2BA5
  8
L1
 10
59.863042131491511
 20
25.691415971345371
 30
0.0
 11
62.619202064108322
 21
28.447575903962129
 31
0.0
  0
POLYLINE
  5
2BA6
  8
L1
 66
     1
 10
0.0
 20
0.0
 30
0.0
  0
VERTEX
  5
3636
  8
L1
 10
62.833921234867198
 20
28.53545241603134
 30
0.0
  0
VERTEX
  5
3637
  8
L1
 10
62.717729786776431
 20
28.513110116762821
 30
0.0
  0
VERTEX
  5
3638
  8
L1
 10
62.619202064108322
 20
28.447575903962129
 30
0.0
  0
SEQEND
  5
3639
  8
L1
  0
POLYLINE
  5
2BA7
  8
L1
 66
     1
 10
0.0
 20
0.0
 30
0.0
  0
VERTEX
  5
363A
  8
L1
 10
62.833921234867198
 20
28.53545241603134
 30
0.0
  0
VERTEX
  5
363B
  8
L1
 10
63.045125652203978
 20
28.44851903510741
 30
0.0
  0
VERTEX
  5
363C
  8
L1
 10
63.133909811786452
 20
28.2417173471542
 30
0.0
  0
SEQEND
  5
363D
  8
L1
  0
ARC
  5
2BA8
  8
L1
 10
56.75
 20
31.750000000000021
 30
0.0
 40
4.9551339946734032
 50
357.4687382067072
 51
23.013616072390409
  0
LINE
  5
2BA9
  8
L1
 10
63.03531905234729
 20
35.650000000000063
 30
0.0
 11
63.035319052347241
 21
35.510496635354599
 31
0.0
  0
POLYLINE
  5
2BAA
  8
L1
 66
     1
 10
0.0
 20
0.0
 30
0.0
  0
VERTEX
  5
363E
  8
L1
 10
61.88309964175221
 20
34.263214172935157
 30
0.0
  0
VERTEX
  5
363F
  8
L1
 10
61.867206662007902
 20
34.245965950157853
 30
0.0
  0
VERTEX
  5
3640
  8
L1
 10
61.820028179014678
 20
34.197587405171952
 30
0.0
  0
VERTEX
  5
3641
  8
L1
 10
61.747342135618972
 20
34.124081047125713
 30
0.0
  0
VERTEX
  5
3642
  8
L1
 10
61.659302189691509
 20
34.035746534404979
 30
0.0
  0
SEQEND
  5
3643
  8
L1
  0
LINE
  5
2BAB
  8
L1
 10
61.659302189691509
 20
34.035746534404979
 30
0.0
 11
61.31076465179126
 21
33.687208996504779
 31
0.0
  0
POLYLINE
  5
2BAC
  8
L1
 66
     1
 10
0.0
 20
0.0
 30
0.0
  0
VERTEX
  5
3644
  8
L1
 10
61.901529179287763
 20
34.376706762295129
 30
0.0
  0
VERTEX
  5
3645
  8
L1
 10
61.883099641752317
 20
34.263214172935108
 30
0.0
  0
SEQEND
  5
3646
  8
L1
  0
LINE
  5
2BAD
  8
L1
 10
63.248943265974731
 20
35.724120848982089
 30
0.0
 11
61.901529179287763
 21
34.376706762295129
 31
0.0
  0
POLYLINE
  5
2BAE
  8
L1
 66
     1
 10
0.0
 20
0.0
 30
0.0
  0
VERTEX
  5
3647
  8
L1
 10
65.012304130909286
 20
36.517100759268232
 30
0.0
  0
VERTEX
  5
3648
  8
L1
 10
65.012250207188913
 20
36.53704803203825
 30
0.0
  0
VERTEX
  5
3649
  8
L1
 10
65.012088437774253
 20
36.556999999999988
 30
0.0
  0
SEQEND
  5
364A
  8
L1
  0
LINE
  5
2BAF
  8
L1
 10
59.376706762295051
 20
36.901529179287841
 30
0.0
 11
60.724120848982011
 21
38.248943265974759
 31
0.0
  0
LINE
  5
2BB0
  8
L1
 10
60.64999999999997
 20
38.249999999999972
 30
0.0
 11
49.377091896450331
 21
38.249999999999972
 31
0.0
  0
POLYLINE
  5
2BB1
  8
L1
 66
     1
 10
0.0
 20
0.0
 30
0.0
  0
VERTEX
  5
364B
  8
L1
 10
53.241717347154243
 20
38.133909811786417
 30
0.0
  0
VERTEX
  5
364C
  8
L1
 10
53.448519035107331
 20
38.04512565220395
 30
0.0
  0
VERTEX
  5
364D
  8
L1
 10
53.535452416031262
 20
37.833921234867233
 30
0.0
  0
SEQEND
  5
364E
  8
L1
  0
POLYLINE
  5
2BB2
  8
L1
 66
     1
 10
0.0
 20
0.0
 30
0.0
  0
VERTEX
  5
364F
  8
L1
 10
53.447575903962047
 20
37.619202064108293
 30
0.0
  0
VERTEX
  5
3650
  8
L1
 10
53.513110116762839
 20
37.717729786776403
 30
0.0
  0
VERTEX
  5
3651
  8
L1
 10
53.535452416031369
 20
37.833921234867233
 30
0.0
  0
SEQEND
  5
3652
  8
L1
  0
POLYLINE
  5
2BB3
  8
L1
 66
     1
 10
0.0
 20
0.0
 30
0.0
  0
VERTEX
  5
3653
  8
L1
 10
49.377091896450331
 20
38.249999999999972
 30
0.0
  0
VERTEX
  5
3654
  8
L1
 10
49.329326939881298
 20
38.24617333472699
 30
0.0
  0
VERTEX
  5
3655
  8
L1
 10
49.248597032242742
 20
38.221089717646599
 30
0.0
  0
VERTEX
  5
3656
  8
L1
 10
49.156156936080599
 20
38.152947646735612
 30
0.0
  0
VERTEX
  5
3657
  8
L1
 10
49.098202734683021
 20
38.060535919167961
 30
0.0
  0
VERTEX
  5
3658
  8
L1
 10
49.077103407217457
 20
37.949414895274941
 30
0.0
  0
VERTEX
  5
3659
  8
L1
 10
49.100632485334927
 20
37.833547508367161
 30
0.0
  0
VERTEX
  5
365A
  8
L1
 10
49.16256111542998
 20
37.74031060222714
 30
0.0
  0
VERTEX
  5
365B
  8
L1
 10
49.186223628979739
 20
37.718560984214179
 30
0.0
  0
SEQEND
  5
365C
  8
L1
  0
POLYLINE
  5
2BB4
  8
L1
 66
     1
 10
0.0
 20
0.0
 30
0.0
  0
VERTEX
  5
365D
  8
L1
 10
59.26321417293525
 20
36.883099641752182
 30
0.0
  0
VERTEX
  5
365E
  8
L1
 10
59.37670676229515
 20
36.901529179287792
 30
0.0
  0
SEQEND
  5
365F
  8
L1
  0
POLYLINE
  5
2BB5
  8
L1
 66
     1
 10
0.0
 20
0.0
 30
0.0
  0
VERTEX
  5
3660
  8
L1
 10
61.557000000000023
 20
40.01208843777416
 30
0.0
  0
VERTEX
  5
3661
  8
L1
 10
61.537048032038342
 20
40.012250207188877
 30
0.0
  0
VERTEX
  5
3662
  8
L1
 10
61.51710075926826
 20
40.0123041309092
 30
0.0
  0
SEQEND
  5
3663
  8
L1
  0
LINE
  5
2BB6
  8
L1
 10
60.510496635354571
 20
38.035319052347319
 30
0.0
 11
60.64999999999997
 21
38.035319052347262
 31
0.0
  0
ENDBLK
  5
2A58
  8
0
  0
BLOCK
  8
0
  2
S1
 70
     0
 10
0.0
 20
0.0
 30
0.0
  3
S1
  1

  0
LINE
  5
2BBB
  8
L2
 10
3.3015386844070909
 20
20.012304130909222
 30
0.0
 11
3.3015386844071202
 21
-18.267227699487389
 31
0.0
  0
LINE
  5
2BBC
  8
L1
 10
4.8104657522446814
 20
35.541074510419151
 30
0.0
 11
4.8104657522446814
 21
-35.541074510419151
 31
0.0
  0
LINE
  5
2BBD
  8
L1
 10
78.682258653722656
 20
-40.012304130909051
 30
0.0
 11
78.682258653722656
 21
40.012304130909342
 31
0.0
  0
LINE
  5
2BBE
  8
L1
 10
2.8015386844070909
 20
33.424107093193101
 30
0.0
 11
2.8015386844070629
 21
-19.454014550839929
 31
0.0
  0
LINE
  5
2BBF
  8
L1
 10
2.8015386844070909
 20
-33.424107093193108
 30
0.0
 11
2.8015386844070629
 21
19.454014550839929
 31
0.0
  0
LINE
  5
2BC0
  8
L1
 10
52.801538684407063
 20
-38.466160157728012
 30
0.0
 11
52.801538684407063
 21
24.139792913343079
 31
0.0
  0
LINE
  5
2BC1
  8
L2
 10
5.0015386844071079
 20
18.267227699487499
 30
0.0
 11
5.0015386844071079
 21
-18.267227699487389
 31
0.0
  0
LINE
  5
2BC2
  8
L1
 10
79.401538684407413
 20
39.293024100224549
 30
0.0
 11
79.401538684407086
 21
-39.293024100224642
 31
0.0
  0
LINE
  5
2BC3
  8
L1
 10
80.472173143411226
 20
-37.950215693134929
 30
0.0
 11
80.472173143411226
 21
37.950215693134879
 31
0.0
  0
LINE
  5
2BC4
  8
L1
 10
4.8104657522446814
 20
-21.435121439348109
 30
0.0
 11
52.611790182520622
 21
-23.940282699527021
 31
0.0
  0
LINE
  5
2BC5
  8
L1
 10
4.8104657522446814
 20
-35.541074510419151
 30
0.0
 11
52.611790182520501
 21
-38.046235770598109
 31
0.0
  0
LINE
  5
2BC6
  8
L2
 10
6.4230347500426603
 20
-19.76517200161922
 30
0.0
 11
55.001538684407109
 21
-22.311063513711751
 31
0.0
  0
LINE
  5
2BC7
  8
L1
 10
2.8015386844070909
 20
-33.424107093193108
 30
0.0
 11
4.8104657522446814
 21
-35.541074510419151
 31
0.0
  0
LINE
  5
2BC8
  8
L1
 10
4.8104657522446814
 20
-19.43786236983896
 30
0.0
 11
4.8104657522446814
 21
-15.195244272795151
 31
0.0
  0
ARC
  5
2BC9
  8
L2
 10
6.5015386844071079
 20
-18.267227699487389
 30
0.0
 40
1.5
 50
180.0
 51
266.9999999999992
  0
LINE
  5
2BCA
  8
L1
 10
2.8015386844070909
 20
-19.318154022122059
 30
0.0
 11
4.8104657522446814
 21
-21.435121439348109
 31
0.0
  0
LINE
  5
2BCB
  8
L2
 10
2.8015386844071202
 20
-20.012304130909222
 30
0.0
 11
3.3015386844071202
 21
-20.012304130909339
 31
0.0
  0
LINE
  5
2BCC
  8
L2
 10
79.401538684407086
 20
-22.949999999999928
 30
0.0
 11
55.001538684407109
 21
-22.311063513711751
 31
0.0
  0
LINE
  5
2BCD
  8
L1
 10
78.682258653722641
 20
-40.012304130909079
 30
0.0
 11
52.991071493158501
 21
-38.665886064678908
 31
0.0
  0
ARC
  5
2BCE
  8
L1
 10
52.601538684407039
 20
-38.245972981547283
 30
0.0
 40
0.2
 50
0.0000000000081422
 51
86.999999999999304
  0
ARC
  5
2BCF
  8
L1
 10
53.001538684407109
 20
-38.466160157728012
 30
0.0
 40
0.2
 50
180.0
 51
267.00000000000091
  0
POLYLINE
  5
2BD0
  8
L1
 66
     1
 10
0.0
 20
0.0
 30
0.0
  0
VERTEX
  5
3665
  8
L1
 10
52.801538684407063
 20
-24.11163079700534
 30
0.0
  0
VERTEX
  5
3666
  8
L1
 10
52.801538684407063
 20
-24.13274109790634
 30
0.0
  0
VERTEX
  5
3667
  8
L1
 10
52.801538684407063
 20
-24.139792913343111
 30
0.0
  0
SEQEND
  5
3668
  8
L1
  0
ARC
  5
2BD1
  8
L1
 10
52.601538684407132
 20
-24.139792913342848
 30
0.0
 40
0.2
 50
0.0
 51
87.000000000000909
  0
POLYLINE
  5
2BD2
  8
L1
 66
     1
 10
0.0
 20
0.0
 30
0.0
  0
VERTEX
  5
3669
  8
L1
 10
52.801538684407063
 20
-24.11163079700512
 30
0.0
  0
VERTEX
  5
366A
  8
L1
 10
52.801538684407063
 20
-24.13274109790612
 30
0.0
  0
VERTEX
  5
366B
  8
L1
 10
52.801538684407063
 20
-24.139792913342891
 30
0.0
  0
SEQEND
  5
366C
  8
L1
  0
LINE
  5
2BD3
  8
L2
 10
79.401322991272025
 20
-37.450215693134929
 30
0.0
 11
80.165720444378564
 21
-37.58499958810242
 31
0.0
  0
ARC
  5
2BD4
  8
L1
 10
80.101322991271985
 20
-37.950215693134929
 30
0.0
 40
0.3708501521392529
 50
280.00000000000011
 51
0.0
  0
LINE
  5
2BD5
  8
L1
 10
80.165720444378479
 20
-38.315431798167452
 30
0.0
 11
79.404512967836951
 21
-38.449653214198719
 31
0.0
  0
ARC
  5
2BD6
  8
L2
 10
80.10132299127207
 20
-37.950215693134929
 30
0.0
 40
0.3708501521392529
 50
0.0
 51
79.999999999999801
  0
LINE
  5
2BD7
  8
L1
 10
79.401538684407086
 20
-39.293024100224642
 30
0.0
 11
78.682258653722641
 21
-40.012304130909051
 31
0.0
  0
LINE
  5
2BD8
  8
L1
 10
4.8104657522446814
 20
21.43512143934807
 30
0.0
 11
52.611790182520622
 21
23.940282699527021
 31
0.0
  0
LINE
  5
2BD9
  8
L1
 10
4.8104657522446814
 20
35.541074510419151
 30
0.0
 11
52.612005875655619
 21
38.046247074596373
 31
0.0
  0
LINE
  5
2BDA
  8
L6
 10
0.0
 20
0.0
 30
0.0
 11
84.048690364178583
 21
-0.0000000000000284
 31
0.0
  0
LINE
  5
2BDB
  8
L2
 10
55.001538684407109
 20
22.311063513711868
 30
0.0
 11
6.4230347500426603
 21
19.76517200161933
 31
0.0
  0
LINE
  5
2BDC
  8
L1
 10
2.8015386844070909
 20
19.31815402212203
 30
0.0
 11
4.8104657522446814
 21
21.43512143934807
 31
0.0
  0
LINE
  5
2BDD
  8
L2
 10
2.8015386844070909
 20
20.012304130909339
 30
0.0
 11
3.3015386844070909
 21
20.012304130909222
 31
0.0
  0
ARC
  5
2BDE
  8
L2
 10
6.5015386844071079
 20
18.267227699487499
 30
0.0
 40
1.5
 50
93.000000000000711
 51
180.0
  0
LINE
  5
2BDF
  8
L1
 10
2.8015386844070909
 20
33.424107093193101
 30
0.0
 11
4.8104657522446814
 21
35.541074510419151
 31
0.0
  0
LINE
  5
2BE0
  8
L2
 10
79.401538684407086
 20
22.950000000000149
 30
0.0
 11
55.001538684407109
 21
22.311063513711979
 31
0.0
  0
LINE
  5
2BE1
  8
L1
 10
78.682258653722641
 20
40.012304130909307
 30
0.0
 11
52.991071493158501
 21
38.665886064679142
 31
0.0
  0
LINE
  5
2BE2
  8
L1
 10
52.801538684407063
 20
38.466160157728233
 30
0.0
 11
52.80153868440518
 21
24.139792913343051
 31
0.0
  0
ARC
  5
2BE3
  8
L1
 10
52.601538684407132
 20
24.139792913343079
 30
0.0
 40
0.2
 50
272.99999999999909
 51
0.0
  0
POLYLINE
  5
2BE4
  8
L1
 66
     1
 10
0.0
 20
0.0
 30
0.0
  0
VERTEX
  5
366D
  8
L1
 10
52.801538684407063
 20
24.11163079700534
 30
0.0
  0
VERTEX
  5
366E
  8
L1
 10
52.801538684407063
 20
24.13274109790634
 30
0.0
  0
VERTEX
  5
366F
  8
L1
 10
52.801538684407063
 20
24.139792913343111
 30
0.0
  0
SEQEND
  5
3670
  8
L1
  0
ARC
  5
2BE5
  8
L1
 10
53.001538684407024
 20
38.245972981547219
 30
0.0
 40
0.2
 50
179.99999999999179
 51
179.99999999999179
  0
ARC
  5
2BE6
  8
L1
 10
52.601538684407039
 20
38.245972981547283
 30
0.0
 40
0.2
 50
273.00000000000068
 51
359.99999999999181
  0
ARC
  5
2BE7
  8
L1
 10
53.001538684407109
 20
38.466160157728233
 30
0.0
 40
0.2
 50
92.999999999999105
 51
180.0
  0
LINE
  5
2BE8
  8
L1
 10
80.165720444378479
 20
38.315431798167388
 30
0.0
 11
79.404512967836951
 21
38.449653214198662
 31
0.0
  0
ARC
  5
2BE9
  8
L1
 10
80.101322991271985
 20
37.950215693134879
 30
0.0
 40
0.3708501521392529
 50
0.0
 51
79.999999999999801
  0
ARC
  5
2BEA
  8
L2
 10
80.10132299127207
 20
37.950215693134879
 30
0.0
 40
0.3708501521392529
 50
280.00000000000011
 51
0.0
  0
LINE
  5
2BEB
  8
L2
 10
79.401322991272025
 20
37.450215693134879
 30
0.0
 11
80.165720444378564
 21
37.584999588102363
 31
0.0
  0
LINE
  5
2BEC
  8
L1
 10
79.401538684407086
 20
39.293024100224862
 30
0.0
 11
78.682258653722641
 21
40.012304130909293
 31
0.0
  0
ENDBLK
  5
2BBA
  8
0
  0
BLOCK
  8
0
  2
T
 70
     0
 10
0.0
 20
0.0
 30
0.0
  3
T
  1

  0
LINE
  5
2BF1
  8
L6
 10
0.0
 20
47.302834530585869
 30
0.0
 11
0.0
 21
-47.302834530585869
 31
0.0
  0
LINE
  5
2BF2
  8
L1
 10
-45.012304130943448
 20
-18.012304130909222
 30
0.0
 11
-45.012304130943448
 21
18.012304130909111
 31
0.0
  0
LINE
  5
2BF3
  8
L1
 10
45.012304130874902
 20
18.012304130909168
 30
0.0
 11
45.012304130874902
 21
-18.012304130909168
 31
0.0
  0
LINE
  5
2BF4
  8
L1
 10
-58.423664106953311
 20
-18.07515233175917
 30
0.0
 11
-58.423664106953311
 21
18.07519131347658
 31
0.0
  0
LINE
  5
2BF5
  8
L1
 10
58.423664106884758
 20
18.07515233174081
 30
0.0
 11
58.423664106884758
 21
-18.075191313587901
 31
0.0
  0
LINE
  5
2BF6
  8
L1
 10
-60.540858817318501
 20
19.437646676703991
 30
0.0
 11
-60.540858817318501
 21
-19.437646676703991
 31
0.0
  0
LINE
  5
2BF7
  8
L1
 10
60.540858817249898
 20
-19.437646676703931
 30
0.0
 11
60.540858817249898
 21
19.437646676703991
 31
0.0
  0
LINE
  5
2BF8
  8
L1
 10
63.046020077428857
 20
21.942807936882922
 30
0.0
 11
63.046020077428857
 21
-21.9428079368829
 31
0.0
  0
LINE
  5
2BF9
  8
L1
 10
-63.046020077497417
 20
-21.94280793688295
 30
0.0
 11
-63.046020077497467
 21
21.942807936882922
 31
0.0
  0
LINE
  5
2BFA
  8
L1
 10
63.665886064644717
 20
-35.170682693038032
 30
0.0
 11
63.665886064644717
 21
35.170682693038032
 31
0.0
  0
LINE
  5
2BFB
  8
L1
 10
-63.665886064713327
 20
35.170682693037968
 30
0.0
 11
-63.665886064713327
 21
-35.17068269303806
 31
0.0
  0
LINE
  5
2BFC
  8
L1
 10
65.012304130874952
 20
-36.517100759268168
 30
0.0
 11
65.012304130874952
 21
36.517100759268168
 31
0.0
  0
LINE
  5
2BFD
  8
L1
 10
-65.012304130943505
 20
36.517100759268111
 30
0.0
 11
-65.012304130943505
 21
-36.517100759268203
 31
0.0
  0
LINE
  5
2BFE
  8
L1
 10
43.012304130874888
 20
-20.0123041309092
 30
0.0
 11
-43.012304130943512
 21
-20.01230413090925
 31
0.0
  0
LINE
  5
2BFF
  8
L1
 10
43.075152331706533
 20
-33.423664106918999
 30
0.0
 11
-43.075191313635791
 21
-33.423664106919063
 31
0.0
  0
LINE
  5
2C00
  8
L1
 10
-44.437646676738318
 20
-35.540858817284231
 30
0.0
 11
44.437646676669651
 21
-35.540858817284168
 31
0.0
  0
LINE
  5
2C01
  8
L1
 10
46.942807936848617
 20
-38.04602007746314
 30
0.0
 11
-46.942807936917227
 21
-38.046020077463197
 31
0.0
  0
LINE
  5
2C02
  8
L1
 10
-60.170682693072301
 20
-38.665886064679029
 30
0.0
 11
60.170682693003698
 21
-38.665886064679029
 31
0.0
  0
LINE
  5
2C03
  8
L1
 10
-61.51710075930248
 20
-40.012304130909172
 30
0.0
 11
61.517100759233927
 21
-40.012304130909172
 31
0.0
  0
POLYLINE
  5
2C04
  8
L1
 66
     1
 10
0.0
 20
0.0
 30
0.0
  0
VERTEX
  5
3672
  8
L1
 10
-56.529651470561127
 20
-23.940067006392152
 30
0.0
  0
VERTEX
  5
3673
  8
L1
 10
-56.144916159040918
 20
-23.949827868377291
 30
0.0
  0
VERTEX
  5
3674
  8
L1
 10
-55.761216937116728
 20
-23.97903016572954
 30
0.0
  0
VERTEX
  5
3675
  8
L1
 10
-55.379535323925673
 20
-24.02759919771443
 30
0.0
  0
VERTEX
  5
3676
  8
L1
 10
-55.000847677475058
 20
-24.09541072265608
 30
0.0
  0
VERTEX
  5
3677
  8
L1
 10
-54.626122697076312
 20
-24.182291275752728
 30
0.0
  0
VERTEX
  5
3678
  8
L1
 10
-54.256318945370253
 20
-24.288018612807232
 30
0.0
  0
VERTEX
  5
3679
  8
L1
 10
-53.892382396282763
 20
-24.41232227873726
 30
0.0
  0
VERTEX
  5
367A
  8
L1
 10
-53.535244015182798
 20
-24.5548842994111
 30
0.0
  0
VERTEX
  5
367B
  8
L1
 10
-53.18581737743272
 20
-24.71533999503907
 30
0.0
  0
VERTEX
  5
367C
  8
L1
 10
-52.84499633142326
 20
-24.893278913040231
 30
0.0
  0
VERTEX
  5
367D
  8
L1
 10
-52.513652712070673
 20
-25.088245877997728
 30
0.0
  0
VERTEX
  5
367E
  8
L1
 10
-52.192634110625647
 20
-25.299742156017171
 30
0.0
  0
VERTEX
  5
367F
  8
L1
 10
-51.882761706498457
 20
-25.52722673050928
 30
0.0
  0
VERTEX
  5
3680
  8
L1
 10
-51.584828166646332
 20
-25.770117686133769
 30
0.0
  0
VERTEX
  5
3681
  8
L1
 10
-51.29959561789758
 20
-26.027793697363759
 30
0.0
  0
VERTEX
  5
3682
  8
L1
 10
-51.02779369739801
 20
-26.299595617863329
 30
0.0
  0
VERTEX
  5
3683
  8
L1
 10
-50.770117686167957
 20
-26.584828166612109
 30
0.0
  0
VERTEX
  5
3684
  8
L1
 10
-50.527226730543532
 20
-26.882761706464208
 30
0.0
  0
VERTEX
  5
3685
  8
L1
 10
-50.299742156051423
 20
-27.19263411059142
 30
0.0
  0
VERTEX
  5
3686
  8
L1
 10
-50.088245878032012
 20
-27.513652712036421
 30
0.0
  0
VERTEX
  5
3687
  8
L1
 10
-49.893278913074482
 20
-27.844996331389009
 30
0.0
  0
VERTEX
  5
3688
  8
L1
 10
-49.715339995073293
 20
-28.185817377398511
 30
0.0
  0
VERTEX
  5
3689
  8
L1
 10
-49.554884299445341
 20
-28.535244015148571
 30
0.0
  0
VERTEX
  5
368A
  8
L1
 10
-49.412322278771512
 20
-28.8923823962485
 30
0.0
  0
VERTEX
  5
368B
  8
L1
 10
-49.288018612841483
 20
-29.25631894533598
 30
0.0
  0
VERTEX
  5
368C
  8
L1
 10
-49.182291275786952
 20
-29.626122697042032
 30
0.0
  0
VERTEX
  5
368D
  8
L1
 10
-49.095410722690303
 20
-30.000847677440809
 30
0.0
  0
VERTEX
  5
368E
  8
L1
 10
-49.02759919774865
 20
-30.379535323891378
 30
0.0
  0
VERTEX
  5
368F
  8
L1
 10
-48.979030165763781
 20
-30.76121693708242
 30
0.0
  0
VERTEX
  5
3690
  8
L1
 10
-48.949827868411489
 20
-31.144916159006701
 30
0.0
  0
VERTEX
  5
3691
  8
L1
 10
-48.940067006426382
 20
-31.529651470526911
 30
0.0
  0
SEQEND
  5
3692
  8
L1
  0
POLYLINE
  5
2C05
  8
L1
 66
     1
 10
0.0
 20
0.0
 30
0.0
  0
VERTEX
  5
3693
  8
L1
 10
-46.420485328254131
 20
-29.01006979235467
 30
0.0
  0
VERTEX
  5
3694
  8
L1
 10
-46.420592184052097
 20
-28.969931601290419
 30
0.0
  0
VERTEX
  5
3695
  8
L1
 10
-46.424117337549887
 20
-28.77893133312676
 30
0.0
  0
VERTEX
  5
3696
  8
L1
 10
-46.450616464034283
 20
-28.345504665492061
 30
0.0
  0
VERTEX
  5
3697
  8
L1
 10
-46.506736010602417
 20
-27.8852524136725
 30
0.0
  0
VERTEX
  5
3698
  8
L1
 10
-46.62214139923929
 20
-27.291575231118649
 30
0.0
  0
VERTEX
  5
3699
  8
L1
 10
-46.90552626675094
 20
-26.360830127576001
 30
0.0
  0
VERTEX
  5
369A
  8
L1
 10
-47.305575376551872
 20
-25.473509574882431
 30
0.0
  0
VERTEX
  5
369B
  8
L1
 10
-47.679708170321298
 20
-24.84314084655389
 30
0.0
  0
VERTEX
  5
369C
  8
L1
 10
-48.112656330340428
 20
-24.25143048837878
 30
0.0
  0
VERTEX
  5
369D
  8
L1
 10
-49.129276580203047
 20
-23.21362393852359
 30
0.0
  0
VERTEX
  5
369E
  8
L1
 10
-50.191580607674837
 20
-22.463226482567048
 30
0.0
  0
VERTEX
  5
369F
  8
L1
 10
-51.037658829524439
 20
-22.035942226716141
 30
0.0
  0
VERTEX
  5
36A0
  8
L1
 10
-51.930142620326819
 20
-21.717074082744801
 30
0.0
  0
VERTEX
  5
36A1
  8
L1
 10
-52.638456638820571
 20
-21.548887378894669
 30
0.0
  0
VERTEX
  5
36A2
  8
L1
 10
-53.208698420489718
 20
-21.4644011755482
 30
0.0
  0
VERTEX
  5
36A3
  8
L1
 10
-53.540044974376769
 20
-21.435578683004731
 30
0.0
  0
VERTEX
  5
36A4
  8
L1
 10
-53.851898993123029
 20
-21.42217469419958
 30
0.0
  0
VERTEX
  5
36A5
  8
L1
 10
-54.010049063797453
 20
-21.420464599628438
 30
0.0
  0
SEQEND
  5
36A6
  8
L1
  0
POLYLINE
  5
2C06
  8
L1
 66
     1
 10
0.0
 20
0.0
 30
0.0
  0
VERTEX
  5
36A7
  8
L1
 10
-57.100290394830779
 20
-19.454040957735959
 30
0.0
  0
VERTEX
  5
36A8
  8
L1
 10
-55.12958310587333
 20
-19.453896341578961
 30
0.0
  0
VERTEX
  5
36A9
  8
L1
 10
-54.198899509893181
 20
-19.45381853642672
 30
0.0
  0
VERTEX
  5
36AA
  8
L1
 10
-53.34825156458038
 20
-19.45374329891203
 30
0.0
  0
VERTEX
  5
36AB
  8
L1
 10
-52.610330983686133
 20
-19.453675303300031
 30
0.0
  0
VERTEX
  5
36AC
  8
L1
 10
-52.017829480961723
 20
-19.453619223855721
 30
0.0
  0
VERTEX
  5
36AD
  8
L1
 10
-51.603438770158327
 20
-19.453579734844251
 30
0.0
  0
VERTEX
  5
36AE
  8
L1
 10
-51.399850565027293
 20
-19.453561510530559
 30
0.0
  0
VERTEX
  5
36AF
  8
L1
 10
-48.865195297500463
 20
-19.460091736170192
 30
0.0
  0
VERTEX
  5
36B0
  8
L1
 10
-48.241901190176122
 20
-19.468094893257721
 30
0.0
  0
VERTEX
  5
36B1
  8
L1
 10
-47.788729892109806
 20
-19.47574710961652
 30
0.0
  0
VERTEX
  5
36B2
  8
L1
 10
-47.441584518809911
 20
-19.47917526347544
 30
0.0
  0
VERTEX
  5
36B3
  8
L1
 10
-47.186483483429022
 20
-19.480080126626909
 30
0.0
  0
VERTEX
  5
36B4
  8
L1
 10
-46.793065960883212
 20
-19.485148469008319
 30
0.0
  0
VERTEX
  5
36B5
  8
L1
 10
-46.256899934762203
 20
-19.529598540970792
 30
0.0
  0
VERTEX
  5
36B6
  8
L1
 10
-45.82605721776104
 20
-19.641635904883909
 30
0.0
  0
VERTEX
  5
36B7
  8
L1
 10
-45.475698902463989
 20
-19.818546972954859
 30
0.0
  0
VERTEX
  5
36B8
  8
L1
 10
-45.17875858101791
 20
-20.04519192345623
 30
0.0
  0
VERTEX
  5
36B9
  8
L1
 10
-44.869780946986623
 20
-20.400177662988931
 30
0.0
  0
VERTEX
  5
36BA
  8
L1
 10
-44.712219408015073
 20
-20.672025835002181
 30
0.0
  0
VERTEX
  5
36BB
  8
L1
 10
-44.519404587445528
 20
-21.375897861847982
 30
0.0
  0
VERTEX
  5
36BC
  8
L1
 10
-44.486115986806617
 20
-21.964669316996371
 30
0.0
  0
VERTEX
  5
36BD
  8
L1
 10
-44.483813889028333
 20
-22.326694823543558
 30
0.0
  0
VERTEX
  5
36BE
  8
L1
 10
-44.479788883581357
 20
-22.803691474778809
 30
0.0
  0
VERTEX
  5
36BF
  8
L1
 10
-44.470405628096437
 20
-23.324251987246271
 30
0.0
  0
VERTEX
  5
36C0
  8
L1
 10
-44.465112038323412
 20
-23.650234162324459
 30
0.0
  0
VERTEX
  5
36C1
  8
L1
 10
-44.460447215597178
 20
-24.067263443519892
 30
0.0
  0
VERTEX
  5
36C2
  8
L1
 10
-44.455314964927709
 20
-24.95524915281197
 30
0.0
  0
VERTEX
  5
36C3
  8
L1
 10
-44.454035986378692
 20
-25.53075138234362
 30
0.0
  0
VERTEX
  5
36C4
  8
L1
 10
-44.453397941333428
 20
-26.273153188240592
 30
0.0
  0
VERTEX
  5
36C5
  8
L1
 10
-44.453237956527232
 20
-27.241874565334079
 30
0.0
  0
VERTEX
  5
36C6
  8
L1
 10
-44.453286338818423
 20
-27.829673841464398
 30
0.0
  0
VERTEX
  5
36C7
  8
L1
 10
-44.453393158695057
 20
-28.49633550845547
 30
0.0
  0
VERTEX
  5
36C8
  8
L1
 10
-44.453538056998873
 20
-29.249287065661459
 30
0.0
  0
VERTEX
  5
36C9
  8
L1
 10
-44.453700674571849
 20
-30.095956012436059
 30
0.0
  0
VERTEX
  5
36CA
  8
L1
 10
-44.453860652255912
 20
-31.043769848133248
 30
0.0
  0
VERTEX
  5
36CB
  8
L1
 10
-44.4539976308929
 20
-32.100156072106948
 30
0.0
  0
SEQEND
  5
36CC
  8
L1
  0
POLYLINE
  5
2C07
  8
L1
 66
     1
 10
0.0
 20
0.0
 30
0.0
  0
VERTEX
  5
36CD
  8
L1
 10
-59.263214172969533
 20
-36.883099641752288
 30
0.0
  0
VERTEX
  5
36CE
  8
L1
 10
-59.245965950192158
 20
-36.867206662007959
 30
0.0
  0
VERTEX
  5
36CF
  8
L1
 10
-59.197587405206257
 20
-36.820028179014741
 30
0.0
  0
VERTEX
  5
36D0
  8
L1
 10
-59.124081047160068
 20
-36.747342135619022
 30
0.0
  0
VERTEX
  5
36D1
  8
L1
 10
-59.03574653443934
 20
-36.659302189691537
 30
0.0
  0
SEQEND
  5
36D2
  8
L1
  0
LINE
  5
2C08
  8
L1
 10
-56.968840929905582
 20
-26.799700862313269
 30
0.0
 11
-61.70029913772111
 21
-31.531159070128801
 31
0.0
  0
CIRCLE
  5
2C09
  8
L1
 10
-56.750000000034333
 20
-31.750000000000082
 30
0.0
 40
6.097393363178492
  0
CIRCLE
  5
2C0A
  8
L1
 10
-56.750000000034333
 20
-31.750000000000082
 30
0.0
 40
5.797404786259249
  0
POLYLINE
  5
2C0B
  8
L1
 66
     1
 10
0.0
 20
0.0
 30
0.0
  0
VERTEX
  5
36D3
  8
L1
 10
-61.557000000034293
 20
-40.01208843777416
 30
0.0
  0
VERTEX
  5
36D4
  8
L1
 10
-62.218787602479601
 20
-39.94171439011447
 30
0.0
  0
VERTEX
  5
36D5
  8
L1
 10
-62.87377238627527
 20
-39.739585002002507
 30
0.0
  0
VERTEX
  5
36D6
  8
L1
 10
-63.476619230930389
 20
-39.41344075018619
 30
0.0
  0
VERTEX
  5
36D7
  8
L1
 10
-63.989929119107948
 20
-38.989929119073793
 30
0.0
  0
VERTEX
  5
36D8
  8
L1
 10
-64.413440750220389
 20
-38.476619230896198
 30
0.0
  0
VERTEX
  5
36D9
  8
L1
 10
-64.73958500203679
 20
-37.873772386241143
 30
0.0
  0
VERTEX
  5
36DA
  8
L1
 10
-64.941714390148718
 20
-37.218787602445389
 30
0.0
  0
VERTEX
  5
36DB
  8
L1
 10
-65.012088437808416
 20
-36.557000000000073
 30
0.0
  0
SEQEND
  5
36DC
  8
L1
  0
POLYLINE
  5
2C0C
  8
L1
 66
     1
 10
0.0
 20
0.0
 30
0.0
  0
VERTEX
  5
36DD
  8
L1
 10
-60.170682693072301
 20
-38.665886064679107
 30
0.0
  0
VERTEX
  5
36DE
  8
L1
 10
-60.44511618632248
 20
-38.65507839092956
 30
0.0
  0
VERTEX
  5
36DF
  8
L1
 10
-60.717807988590941
 20
-38.622807465084371
 30
0.0
  0
VERTEX
  5
36E0
  8
L1
 10
-60.987082719390003
 20
-38.569271555221377
 30
0.0
  0
VERTEX
  5
36E1
  8
L1
 10
-61.251285992243758
 20
-38.494799578521189
 30
0.0
  0
VERTEX
  5
36E2
  8
L1
 10
-61.508794579008047
 20
-38.39984908044579
 30
0.0
  0
VERTEX
  5
36E3
  8
L1
 10
-61.758026382758537
 20
-38.285003423642763
 30
0.0
  0
VERTEX
  5
36E4
  8
L1
 10
-61.997450157974072
 20
-38.150968203846617
 30
0.0
  0
VERTEX
  5
36E5
  8
L1
 10
-62.225594918295769
 20
-37.998566914796463
 30
0.0
  0
VERTEX
  5
36E6
  8
L1
 10
-62.441058974062969
 20
-37.828735888805483
 30
0.0
  0
VERTEX
  5
36E7
  8
L1
 10
-62.642518544099289
 20
-37.642518544065013
 30
0.0
  0
VERTEX
  5
36E8
  8
L1
 10
-62.828735888839731
 20
-37.441058974028721
 30
0.0
  0
VERTEX
  5
36E9
  8
L1
 10
-62.99856691483069
 20
-37.225594918261493
 30
0.0
  0
VERTEX
  5
36EA
  8
L1
 10
-63.150968203880844
 20
-36.997450157939817
 30
0.0
  0
VERTEX
  5
36EB
  8
L1
 10
-63.285003423676983
 20
-36.758026382724317
 30
0.0
  0
VERTEX
  5
36EC
  8
L1
 10
-63.39984908048001
 20
-36.508794578973827
 30
0.0
  0
VERTEX
  5
36ED
  8
L1
 10
-63.494799578555437
 20
-36.251285992209517
 30
0.0
  0
VERTEX
  5
36EE
  8
L1
 10
-63.569271555255618
 20
-35.987082719355747
 30
0.0
  0
VERTEX
  5
36EF
  8
L1
 10
-63.622807465118633
 20
-35.717807988556643
 30
0.0
  0
VERTEX
  5
36F0
  8
L1
 10
-63.655078390963801
 20
-35.445116186288232
 30
0.0
  0
VERTEX
  5
36F1
  8
L1
 10
-63.665886064713327
 20
-35.170682693038088
 30
0.0
  0
SEQEND
  5
36F2
  8
L1
  0
POLYLINE
  5
2C0D
  8
L1
 66
     1
 10
0.0
 20
0.0
 30
0.0
  0
VERTEX
  5
36F3
  8
L1
 10
-61.51710075930248
 20
-40.01230413090925
 30
0.0
  0
VERTEX
  5
36F4
  8
L1
 10
-61.537048032072562
 20
-40.012250207188927
 30
0.0
  0
VERTEX
  5
36F5
  8
L1
 10
-61.557000000034293
 20
-40.01208843777416
 30
0.0
  0
SEQEND
  5
36F6
  8
L1
  0
POLYLINE
  5
2C0E
  8
L1
 66
     1
 10
0.0
 20
0.0
 30
0.0
  0
VERTEX
  5
36F7
  8
L1
 10
-65.012088437808416
 20
-36.557000000000073
 30
0.0
  0
VERTEX
  5
36F8
  8
L1
 10
-65.012250207223246
 20
-36.537048032038278
 30
0.0
  0
VERTEX
  5
36F9
  8
L1
 10
-65.012304130943562
 20
-36.517100759268232
 30
0.0
  0
SEQEND
  5
36FA
  8
L1
  0
POLYLINE
  5
2C0F
  8
L1
 66
     1
 10
0.0
 20
0.0
 30
0.0
  0
VERTEX
  5
36FB
  8
L1
 10
-59.37670676232937
 20
-36.901529179287841
 30
0.0
  0
VERTEX
  5
36FC
  8
L1
 10
-59.263214172969462
 20
-36.883099641752267
 30
0.0
  0
SEQEND
  5
36FD
  8
L1
  0
ARC
  5
2C10
  8
L1
 10
-56.750000000034333
 20
-31.75000000000006
 30
0.0
 40
4.9551339946734032
 50
177.46873820670879
 51
203.01361607239249
  0
LINE
  5
2C11
  8
L1
 10
-61.310764651825593
 20
-33.687208996504857
 30
0.0
 11
-61.65930218972585
 21
-34.035746534405092
 31
0.0
  0
POLYLINE
  5
2C12
  8
L1
 66
     1
 10
0.0
 20
0.0
 30
0.0
  0
VERTEX
  5
36FE
  8
L1
 10
-61.65930218972585
 20
-34.035746534405057
 30
0.0
  0
VERTEX
  5
36FF
  8
L1
 10
-61.747342135653291
 20
-34.124081047125799
 30
0.0
  0
VERTEX
  5
3700
  8
L1
 10
-61.820028179049011
 20
-34.197587405172008
 30
0.0
  0
VERTEX
  5
3701
  8
L1
 10
-61.867206662042229
 20
-34.245965950157881
 30
0.0
  0
VERTEX
  5
3702
  8
L1
 10
-61.883099641786544
 20
-34.263214172935221
 30
0.0
  0
SEQEND
  5
3703
  8
L1
  0
POLYLINE
  5
2C13
  8
L1
 66
     1
 10
0.0
 20
0.0
 30
0.0
  0
VERTEX
  5
3704
  8
L1
 10
-61.883099641786544
 20
-34.263214172935193
 30
0.0
  0
VERTEX
  5
3705
  8
L1
 10
-61.901529179322146
 20
-34.376706762295129
 30
0.0
  0
SEQEND
  5
3706
  8
L1
  0
ARC
  5
2C14
  8
L1
 10
-56.750000000034333
 20
-31.750000000000082
 30
0.0
 40
5.7825462644184809
 50
207.0165228096393
 51
242.98347719036059
  0
POLYLINE
  5
2C15
  8
L1
 66
     1
 10
0.0
 20
0.0
 30
0.0
  0
VERTEX
  5
3707
  8
L1
 10
-48.940067006426382
 20
-36.048761007954141
 30
0.0
  0
VERTEX
  5
3708
  8
L1
 10
-48.788308917379823
 20
-36.813659416146997
 30
0.0
  0
VERTEX
  5
3709
  8
L1
 10
-48.35564096294479
 20
-37.461594033981662
 30
0.0
  0
VERTEX
  5
370A
  8
L1
 10
-47.707706345110068
 20
-37.894261988416673
 30
0.0
  0
VERTEX
  5
370B
  8
L1
 10
-46.942807936917227
 20
-38.046020077463282
 30
0.0
  0
SEQEND
  5
370C
  8
L1
  0
ARC
  5
2C16
  8
L1
 10
-56.750000000034333
 20
-31.75000000000006
 30
0.0
 40
4.9551339946734032
 50
357.46873820670879
 51
92.531261793291065
  0
LINE
  5
2C17
  8
L1
 10
-56.53115907016285
 20
-36.700299137686748
 30
0.0
 11
-51.799700862347493
 21
-31.968840929871391
 31
0.0
  0
LINE
  5
2C18
  8
L1
 10
-59.03574653443934
 20
-36.659302189691573
 30
0.0
 11
-58.687208996539141
 21
-36.310764651791338
 31
0.0
  0
ARC
  5
2C19
  8
L1
 10
-56.750000000034333
 20
-31.75000000000006
 30
0.0
 40
4.9551339946734032
 50
246.9863839276081
 51
272.53126179329098
  0
LINE
  5
2C1A
  8
L1
 10
-48.940067006426382
 20
-31.529651470526911
 30
0.0
 11
-48.940067006426382
 21
-36.048761007954141
 31
0.0
  0
POLYLINE
  5
2C1B
  8
L1
 66
     1
 10
0.0
 20
0.0
 30
0.0
  0
VERTEX
  5
370D
  8
L1
 10
-46.420325997529567
 20
-33.529019999057368
 30
0.0
  0
VERTEX
  5
370E
  8
L1
 10
-46.420335247240359
 20
-32.412644394154768
 30
0.0
  0
VERTEX
  5
370F
  8
L1
 10
-46.420316729527478
 20
-31.79797437735294
 30
0.0
  0
VERTEX
  5
3710
  8
L1
 10
-46.420287737525648
 20
-31.34243102802327
 30
0.0
  0
VERTEX
  5
3711
  8
L1
 10
-46.420245961481953
 20
-30.643506229381611
 30
0.0
  0
VERTEX
  5
3712
  8
L1
 10
-46.420284181539948
 20
-30.052647450542668
 30
0.0
  0
VERTEX
  5
3713
  8
L1
 10
-46.420375148284613
 20
-29.63768164978017
 30
0.0
  0
VERTEX
  5
3714
  8
L1
 10
-46.420485328254131
 20
-29.01006979235467
 30
0.0
  0
SEQEND
  5
3715
  8
L1
  0
POLYLINE
  5
2C1C
  8
L1
 66
     1
 10
0.0
 20
0.0
 30
0.0
  0
VERTEX
  5
3716
  8
L1
 10
-44.4539976308929
 20
-32.100156072106948
 30
0.0
  0
VERTEX
  5
3717
  8
L1
 10
-44.391855197871848
 20
-32.559095770959857
 30
0.0
  0
VERTEX
  5
3718
  8
L1
 10
-44.216260323726658
 20
-32.922716035269218
 30
0.0
  0
VERTEX
  5
3719
  8
L1
 10
-43.895990596507367
 20
-33.21848808463718
 30
0.0
  0
VERTEX
  5
371A
  8
L1
 10
-43.530079043727092
 20
-33.370100048988768
 30
0.0
  0
VERTEX
  5
371B
  8
L1
 10
-43.099524093906197
 20
-33.423529428565899
 30
0.0
  0
VERTEX
  5
371C
  8
L1
 10
-43.075152331624331
 20
-33.423664106919119
 30
0.0
  0
SEQEND
  5
371D
  8
L1
  0
POLYLINE
  5
2C1D
  8
L1
 66
     1
 10
0.0
 20
0.0
 30
0.0
  0
VERTEX
  5
371E
  8
L1
 10
-45.188304356210828
 20
-35.383694326696848
 30
0.0
  0
VERTEX
  5
371F
  8
L1
 10
-44.82229039860988
 20
-35.501194452198199
 30
0.0
  0
VERTEX
  5
3720
  8
L1
 10
-44.437646676738318
 20
-35.540858817284366
 30
0.0
  0
SEQEND
  5
3721
  8
L1
  0
POLYLINE
  5
2C1E
  8
L1
 66
     1
 10
0.0
 20
0.0
 30
0.0
  0
VERTEX
  5
3722
  8
L1
 10
-46.38550908271656
 20
-33.890468244896589
 30
0.0
  0
VERTEX
  5
3723
  8
L1
 10
-46.399975157314032
 20
-33.80613573193542
 30
0.0
  0
VERTEX
  5
3724
  8
L1
 10
-46.413408931154713
 20
-33.691061878509451
 30
0.0
  0
VERTEX
  5
3725
  8
L1
 10
-46.418208459260427
 20
-33.618791314356088
 30
0.0
  0
VERTEX
  5
3726
  8
L1
 10
-46.419990640412152
 20
-33.564750672259549
 30
0.0
  0
VERTEX
  5
3727
  8
L1
 10
-46.420325467301893
 20
-33.53039911148835
 30
0.0
  0
VERTEX
  5
3728
  8
L1
 10
-46.420325997529567
 20
-33.529019999057368
 30
0.0
  0
SEQEND
  5
3729
  8
L1
  0
POLYLINE
  5
2C1F
  8
L1
 66
     1
 10
0.0
 20
0.0
 30
0.0
  0
VERTEX
  5
372A
  8
L1
 10
-45.188304356210828
 20
-35.383694326696848
 30
0.0
  0
VERTEX
  5
372B
  8
L1
 10
-45.324276473463499
 20
-35.317682456810473
 30
0.0
  0
VERTEX
  5
372C
  8
L1
 10
-45.87278753061463
 20
-34.895256596223838
 30
0.0
  0
VERTEX
  5
372D
  8
L1
 10
-46.094602294704593
 20
-34.609902847080058
 30
0.0
  0
VERTEX
  5
372E
  8
L1
 10
-46.263734026064697
 20
-34.289916846735558
 30
0.0
  0
VERTEX
  5
372F
  8
L1
 10
-46.38550908271656
 20
-33.890468244896589
 30
0.0
  0
SEQEND
  5
3730
  8
L1
  0
LINE
  5
2C20
  8
L1
 10
-61.048761007988332
 20
-23.940067006392152
 30
0.0
 11
-56.529651470561191
 21
-23.940067006392152
 31
0.0
  0
POLYLINE
  5
2C21
  8
L1
 66
     1
 10
0.0
 20
0.0
 30
0.0
  0
VERTEX
  5
3731
  8
L1
 10
-58.890382429733499
 20
-21.385512807530969
 30
0.0
  0
VERTEX
  5
3732
  8
L1
 10
-59.00805516154162
 20
-21.358875913250671
 30
0.0
  0
VERTEX
  5
3733
  8
L1
 10
-59.645719806666818
 20
-21.07090291241445
 30
0.0
  0
VERTEX
  5
3734
  8
L1
 10
-60.15049663849566
 20
-20.588426333293391
 30
0.0
  0
VERTEX
  5
3735
  8
L1
 10
-60.383625228886501
 20
-20.188461081673939
 30
0.0
  0
SEQEND
  5
3736
  8
L1
  0
POLYLINE
  5
2C22
  8
L1
 66
     1
 10
0.0
 20
0.0
 30
0.0
  0
VERTEX
  5
3737
  8
L1
 10
-60.540858817318501
 20
-19.437646676704102
 30
0.0
  0
VERTEX
  5
3738
  8
L1
 10
-60.501176846354383
 20
-19.822374479034149
 30
0.0
  0
VERTEX
  5
3739
  8
L1
 10
-60.383625228886501
 20
-20.188461081673939
 30
0.0
  0
SEQEND
  5
373A
  8
L1
  0
POLYLINE
  5
2C23
  8
L1
 66
     1
 10
0.0
 20
0.0
 30
0.0
  0
VERTEX
  5
373B
  8
L1
 10
-63.046020077497467
 20
-21.942807936883039
 30
0.0
  0
VERTEX
  5
373C
  8
L1
 10
-62.894261988450808
 20
-22.707706345075898
 30
0.0
  0
VERTEX
  5
373D
  8
L1
 10
-62.461594034015889
 20
-23.35564096291057
 30
0.0
  0
VERTEX
  5
373E
  8
L1
 10
-61.813659416181167
 20
-23.788308917345571
 30
0.0
  0
VERTEX
  5
373F
  8
L1
 10
-61.048761007988332
 20
-23.94006700639218
 30
0.0
  0
SEQEND
  5
3740
  8
L1
  0
POLYLINE
  5
2C24
  8
L1
 66
     1
 10
0.0
 20
0.0
 30
0.0
  0
VERTEX
  5
3741
  8
L1
 10
-58.423664106953368
 20
-18.07519131347669
 30
0.0
  0
VERTEX
  5
3742
  8
L1
 10
-58.422823394368827
 20
-18.135795432182562
 30
0.0
  0
VERTEX
  5
3743
  8
L1
 10
-58.332332524254689
 20
-18.655026941792212
 30
0.0
  0
VERTEX
  5
3744
  8
L1
 10
-58.13826013198355
 20
-19.010747122470001
 30
0.0
  0
VERTEX
  5
3745
  8
L1
 10
-57.803066324930448
 20
-19.29156775988838
 30
0.0
  0
VERTEX
  5
3746
  8
L1
 10
-57.457853840930113
 20
-19.417700814003229
 30
0.0
  0
VERTEX
  5
3747
  8
L1
 10
-57.100290394830779
 20
-19.454040957735959
 30
0.0
  0
SEQEND
  5
3748
  8
L1
  0
POLYLINE
  5
2C25
  8
L1
 66
     1
 10
0.0
 20
0.0
 30
0.0
  0
VERTEX
  5
3749
  8
L1
 10
-54.010049063797453
 20
-21.420464599628438
 30
0.0
  0
VERTEX
  5
374A
  8
L1
 10
-54.654487043359381
 20
-21.420351105562581
 30
0.0
  0
VERTEX
  5
374B
  8
L1
 10
-55.06508686908716
 20
-21.420262806217568
 30
0.0
  0
VERTEX
  5
374C
  8
L1
 10
-55.396785856331682
 20
-21.420221284052161
 30
0.0
  0
VERTEX
  5
374D
  8
L1
 10
-55.971434955241591
 20
-21.420233945030901
 30
0.0
  0
VERTEX
  5
374E
  8
L1
 10
-56.674341619830898
 20
-21.420299836040321
 30
0.0
  0
VERTEX
  5
374F
  8
L1
 10
-57.166362564174513
 20
-21.42032485141339
 30
0.0
  0
VERTEX
  5
3750
  8
L1
 10
-57.80141312984108
 20
-21.420329704622269
 30
0.0
  0
VERTEX
  5
3751
  8
L1
 10
-58.52900902132842
 20
-21.420315019732321
 30
0.0
  0
SEQEND
  5
3752
  8
L1
  0
POLYLINE
  5
2C26
  8
L1
 66
     1
 10
0.0
 20
0.0
 30
0.0
  0
VERTEX
  5
3753
  8
L1
 10
-58.52900902132842
 20
-21.420315019732321
 30
0.0
  0
VERTEX
  5
3754
  8
L1
 10
-58.54198837439742
 20
-21.42027057904237
 30
0.0
  0
VERTEX
  5
3755
  8
L1
 10
-58.580267883906679
 20
-21.419624943063749
 30
0.0
  0
VERTEX
  5
3756
  8
L1
 10
-58.653295793448017
 20
-21.416251614604391
 30
0.0
  0
VERTEX
  5
3757
  8
L1
 10
-58.807659551105651
 20
-21.399736103854359
 30
0.0
  0
VERTEX
  5
3758
  8
L1
 10
-58.890382429733499
 20
-21.385512807530969
 30
0.0
  0
SEQEND
  5
3759
  8
L1
  0
ARC
  5
2C27
  8
L1
 10
-43.012304130943562
 20
-18.012304130909222
 30
0.0
 40
2.0
 50
180.0
 51
270.0
  0
ARC
  5
2C28
  8
L1
 10
43.012304130874888
 20
-18.012304130909222
 30
0.0
 40
2.0
 50
270.0
 51
0.0
  0
POLYLINE
  5
2C29
  8
L1
 66
     1
 10
0.0
 20
0.0
 30
0.0
  0
VERTEX
  5
375A
  8
L1
 10
45.188304356142169
 20
-35.383694326696848
 30
0.0
  0
VERTEX
  5
375B
  8
L1
 10
45.324276473394832
 20
-35.317682456810473
 30
0.0
  0
VERTEX
  5
375C
  8
L1
 10
45.872787530545963
 20
-34.895256596223838
 30
0.0
  0
VERTEX
  5
375D
  8
L1
 10
46.094602294635934
 20
-34.609902847080058
 30
0.0
  0
VERTEX
  5
375E
  8
L1
 10
46.26373402599603
 20
-34.289916846735558
 30
0.0
  0
VERTEX
  5
375F
  8
L1
 10
46.385509082647893
 20
-33.890468244896589
 30
0.0
  0
SEQEND
  5
3760
  8
L1
  0
POLYLINE
  5
2C2A
  8
L1
 66
     1
 10
0.0
 20
0.0
 30
0.0
  0
VERTEX
  5
3761
  8
L1
 10
57.100290394762112
 20
-19.454040957735959
 30
0.0
  0
VERTEX
  5
3762
  8
L1
 10
55.12958310580467
 20
-19.453896341578961
 30
0.0
  0
VERTEX
  5
3763
  8
L1
 10
54.198899509824507
 20
-19.45381853642672
 30
0.0
  0
VERTEX
  5
3764
  8
L1
 10
53.348251564511713
 20
-19.45374329891203
 30
0.0
  0
VERTEX
  5
3765
  8
L1
 10
52.610330983617473
 20
-19.453675303300031
 30
0.0
  0
VERTEX
  5
3766
  8
L1
 10
52.017829480893063
 20
-19.453619223855721
 30
0.0
  0
VERTEX
  5
3767
  8
L1
 10
51.60343877008966
 20
-19.453579734844251
 30
0.0
  0
VERTEX
  5
3768
  8
L1
 10
51.399850564958633
 20
-19.453561510530559
 30
0.0
  0
VERTEX
  5
3769
  8
L1
 10
48.865195297431789
 20
-19.460091736170192
 30
0.0
  0
VERTEX
  5
376A
  8
L1
 10
48.241901190107448
 20
-19.468094893257721
 30
0.0
  0
VERTEX
  5
376B
  8
L1
 10
47.78872989204114
 20
-19.47574710961652
 30
0.0
  0
VERTEX
  5
376C
  8
L1
 10
47.441584518741251
 20
-19.47917526347544
 30
0.0
  0
VERTEX
  5
376D
  8
L1
 10
47.186483483360341
 20
-19.480080126626909
 30
0.0
  0
VERTEX
  5
376E
  8
L1
 10
46.793065960814538
 20
-19.485148469008319
 30
0.0
  0
VERTEX
  5
376F
  8
L1
 10
46.256899934693529
 20
-19.529598540970792
 30
0.0
  0
VERTEX
  5
3770
  8
L1
 10
45.82605721769238
 20
-19.641635904883909
 30
0.0
  0
VERTEX
  5
3771
  8
L1
 10
45.475698902395322
 20
-19.818546972954859
 30
0.0
  0
VERTEX
  5
3772
  8
L1
 10
45.178758580949243
 20
-20.04519192345623
 30
0.0
  0
VERTEX
  5
3773
  8
L1
 10
44.869780946917949
 20
-20.400177662988931
 30
0.0
  0
VERTEX
  5
3774
  8
L1
 10
44.712219407946407
 20
-20.672025835002181
 30
0.0
  0
VERTEX
  5
3775
  8
L1
 10
44.519404587376869
 20
-21.375897861847982
 30
0.0
  0
VERTEX
  5
3776
  8
L1
 10
44.48611598673795
 20
-21.964669316996371
 30
0.0
  0
VERTEX
  5
3777
  8
L1
 10
44.483813888959673
 20
-22.326694823543558
 30
0.0
  0
VERTEX
  5
3778
  8
L1
 10
44.47978888351269
 20
-22.803691474778809
 30
0.0
  0
VERTEX
  5
3779
  8
L1
 10
44.470405628027777
 20
-23.324251987246271
 30
0.0
  0
VERTEX
  5
377A
  8
L1
 10
44.465112038254738
 20
-23.650234162324459
 30
0.0
  0
VERTEX
  5
377B
  8
L1
 10
44.460447215528511
 20
-24.067263443519892
 30
0.0
  0
VERTEX
  5
377C
  8
L1
 10
44.455314964859042
 20
-24.95524915281197
 30
0.0
  0
VERTEX
  5
377D
  8
L1
 10
44.454035986310032
 20
-25.53075138234362
 30
0.0
  0
VERTEX
  5
377E
  8
L1
 10
44.453397941264768
 20
-26.273153188240592
 30
0.0
  0
VERTEX
  5
377F
  8
L1
 10
44.453237956458558
 20
-27.241874565334079
 30
0.0
  0
VERTEX
  5
3780
  8
L1
 10
44.453286338749763
 20
-27.829673841464398
 30
0.0
  0
VERTEX
  5
3781
  8
L1
 10
44.45339315862639
 20
-28.49633550845547
 30
0.0
  0
VERTEX
  5
3782
  8
L1
 10
44.453538056930192
 20
-29.249287065661459
 30
0.0
  0
VERTEX
  5
3783
  8
L1
 10
44.453700674503182
 20
-30.095956012436059
 30
0.0
  0
VERTEX
  5
3784
  8
L1
 10
44.453860652187238
 20
-31.043769848133248
 30
0.0
  0
VERTEX
  5
3785
  8
L1
 10
44.453997630824233
 20
-32.100156072106948
 30
0.0
  0
SEQEND
  5
3786
  8
L1
  0
POLYLINE
  5
2C2B
  8
L1
 66
     1
 10
0.0
 20
0.0
 30
0.0
  0
VERTEX
  5
3787
  8
L1
 10
44.453997630824233
 20
-32.100156072106948
 30
0.0
  0
VERTEX
  5
3788
  8
L1
 10
44.391855197803181
 20
-32.559095770959857
 30
0.0
  0
VERTEX
  5
3789
  8
L1
 10
44.216260323657991
 20
-32.922716035269218
 30
0.0
  0
VERTEX
  5
378A
  8
L1
 10
43.8959905964387
 20
-33.21848808463718
 30
0.0
  0
VERTEX
  5
378B
  8
L1
 10
43.530079043658411
 20
-33.370100048988768
 30
0.0
  0
VERTEX
  5
378C
  8
L1
 10
43.099524093837537
 20
-33.423529428565899
 30
0.0
  0
VERTEX
  5
378D
  8
L1
 10
43.075152331555671
 20
-33.423664106919119
 30
0.0
  0
SEQEND
  5
378E
  8
L1
  0
POLYLINE
  5
2C2C
  8
L1
 66
     1
 10
0.0
 20
0.0
 30
0.0
  0
VERTEX
  5
378F
  8
L1
 10
45.188304356142169
 20
-35.383694326696848
 30
0.0
  0
VERTEX
  5
3790
  8
L1
 10
44.822290398541213
 20
-35.501194452198199
 30
0.0
  0
VERTEX
  5
3791
  8
L1
 10
44.437646676669651
 20
-35.540858817284366
 30
0.0
  0
SEQEND
  5
3792
  8
L1
  0
POLYLINE
  5
2C2D
  8
L1
 66
     1
 10
0.0
 20
0.0
 30
0.0
  0
VERTEX
  5
3793
  8
L1
 10
46.420485328185457
 20
-29.01006979235467
 30
0.0
  0
VERTEX
  5
3794
  8
L1
 10
46.420592183983437
 20
-28.969931601290419
 30
0.0
  0
VERTEX
  5
3795
  8
L1
 10
46.424117337481213
 20
-28.77893133312676
 30
0.0
  0
VERTEX
  5
3796
  8
L1
 10
46.450616463965623
 20
-28.345504665492061
 30
0.0
  0
VERTEX
  5
3797
  8
L1
 10
46.506736010533757
 20
-27.8852524136725
 30
0.0
  0
VERTEX
  5
3798
  8
L1
 10
46.62214139917063
 20
-27.291575231118649
 30
0.0
  0
VERTEX
  5
3799
  8
L1
 10
46.905526266682273
 20
-26.360830127576001
 30
0.0
  0
VERTEX
  5
379A
  8
L1
 10
47.305575376483198
 20
-25.473509574882431
 30
0.0
  0
VERTEX
  5
379B
  8
L1
 10
47.679708170252638
 20
-24.84314084655389
 30
0.0
  0
VERTEX
  5
379C
  8
L1
 10
48.112656330271761
 20
-24.25143048837878
 30
0.0
  0
VERTEX
  5
379D
  8
L1
 10
49.129276580134388
 20
-23.21362393852359
 30
0.0
  0
VERTEX
  5
379E
  8
L1
 10
50.191580607606163
 20
-22.463226482567048
 30
0.0
  0
VERTEX
  5
379F
  8
L1
 10
51.037658829455779
 20
-22.035942226716141
 30
0.0
  0
VERTEX
  5
37A0
  8
L1
 10
51.930142620258152
 20
-21.717074082744801
 30
0.0
  0
VERTEX
  5
37A1
  8
L1
 10
52.638456638751911
 20
-21.548887378894669
 30
0.0
  0
VERTEX
  5
37A2
  8
L1
 10
53.208698420421058
 20
-21.4644011755482
 30
0.0
  0
VERTEX
  5
37A3
  8
L1
 10
53.540044974308103
 20
-21.435578683004731
 30
0.0
  0
VERTEX
  5
37A4
  8
L1
 10
53.851898993054363
 20
-21.42217469419958
 30
0.0
  0
VERTEX
  5
37A5
  8
L1
 10
54.010049063728793
 20
-21.420464599628438
 30
0.0
  0
SEQEND
  5
37A6
  8
L1
  0
POLYLINE
  5
2C2E
  8
L1
 66
     1
 10
0.0
 20
0.0
 30
0.0
  0
VERTEX
  5
37A7
  8
L1
 10
56.529651470492468
 20
-23.940067006392152
 30
0.0
  0
VERTEX
  5
37A8
  8
L1
 10
56.144916158972251
 20
-23.949827868377291
 30
0.0
  0
VERTEX
  5
37A9
  8
L1
 10
55.761216937048061
 20
-23.97903016572954
 30
0.0
  0
VERTEX
  5
37AA
  8
L1
 10
55.379535323856992
 20
-24.02759919771443
 30
0.0
  0
VERTEX
  5
37AB
  8
L1
 10
55.000847677406398
 20
-24.09541072265608
 30
0.0
  0
VERTEX
  5
37AC
  8
L1
 10
54.626122697007638
 20
-24.182291275752728
 30
0.0
  0
VERTEX
  5
37AD
  8
L1
 10
54.256318945301587
 20
-24.288018612807232
 30
0.0
  0
VERTEX
  5
37AE
  8
L1
 10
53.892382396214089
 20
-24.41232227873726
 30
0.0
  0
VERTEX
  5
37AF
  8
L1
 10
53.535244015114131
 20
-24.5548842994111
 30
0.0
  0
VERTEX
  5
37B0
  8
L1
 10
53.18581737736406
 20
-24.71533999503907
 30
0.0
  0
VERTEX
  5
37B1
  8
L1
 10
52.844996331354587
 20
-24.893278913040231
 30
0.0
  0
VERTEX
  5
37B2
  8
L1
 10
52.513652712001992
 20
-25.088245877997728
 30
0.0
  0
VERTEX
  5
37B3
  8
L1
 10
52.19263411055698
 20
-25.299742156017171
 30
0.0
  0
VERTEX
  5
37B4
  8
L1
 10
51.882761706429783
 20
-25.52722673050928
 30
0.0
  0
VERTEX
  5
37B5
  8
L1
 10
51.584828166577658
 20
-25.770117686133769
 30
0.0
  0
VERTEX
  5
37B6
  8
L1
 10
51.299595617828913
 20
-26.027793697363759
 30
0.0
  0
VERTEX
  5
37B7
  8
L1
 10
51.027793697329336
 20
-26.299595617863329
 30
0.0
  0
VERTEX
  5
37B8
  8
L1
 10
50.770117686099297
 20
-26.584828166612109
 30
0.0
  0
VERTEX
  5
37B9
  8
L1
 10
50.527226730474872
 20
-26.882761706464208
 30
0.0
  0
VERTEX
  5
37BA
  8
L1
 10
50.299742155982763
 20
-27.19263411059142
 30
0.0
  0
VERTEX
  5
37BB
  8
L1
 10
50.088245877963338
 20
-27.513652712036421
 30
0.0
  0
VERTEX
  5
37BC
  8
L1
 10
49.893278913005823
 20
-27.844996331389009
 30
0.0
  0
VERTEX
  5
37BD
  8
L1
 10
49.715339995004619
 20
-28.185817377398511
 30
0.0
  0
VERTEX
  5
37BE
  8
L1
 10
49.554884299376681
 20
-28.535244015148571
 30
0.0
  0
VERTEX
  5
37BF
  8
L1
 10
49.412322278702838
 20
-28.8923823962485
 30
0.0
  0
VERTEX
  5
37C0
  8
L1
 10
49.288018612772817
 20
-29.25631894533598
 30
0.0
  0
VERTEX
  5
37C1
  8
L1
 10
49.182291275718278
 20
-29.626122697042032
 30
0.0
  0
VERTEX
  5
37C2
  8
L1
 10
49.095410722621637
 20
-30.000847677440809
 30
0.0
  0
VERTEX
  5
37C3
  8
L1
 10
49.02759919767999
 20
-30.379535323891378
 30
0.0
  0
VERTEX
  5
37C4
  8
L1
 10
48.979030165695121
 20
-30.76121693708242
 30
0.0
  0
VERTEX
  5
37C5
  8
L1
 10
48.949827868342823
 20
-31.144916159006701
 30
0.0
  0
VERTEX
  5
37C6
  8
L1
 10
48.940067006357701
 20
-31.529651470526911
 30
0.0
  0
SEQEND
  5
37C7
  8
L1
  0
POLYLINE
  5
2C2F
  8
L1
 66
     1
 10
0.0
 20
0.0
 30
0.0
  0
VERTEX
  5
37C8
  8
L1
 10
60.170682693003641
 20
-38.665886064679107
 30
0.0
  0
VERTEX
  5
37C9
  8
L1
 10
60.445116186253813
 20
-38.65507839092956
 30
0.0
  0
VERTEX
  5
37CA
  8
L1
 10
60.717807988522281
 20
-38.622807465084371
 30
0.0
  0
VERTEX
  5
37CB
  8
L1
 10
60.987082719321329
 20
-38.569271555221377
 30
0.0
  0
VERTEX
  5
37CC
  8
L1
 10
61.251285992175099
 20
-38.494799578521189
 30
0.0
  0
VERTEX
  5
37CD
  8
L1
 10
61.508794578939387
 20
-38.39984908044579
 30
0.0
  0
VERTEX
  5
37CE
  8
L1
 10
61.75802638268987
 20
-38.285003423642763
 30
0.0
  0
VERTEX
  5
37CF
  8
L1
 10
61.997450157905398
 20
-38.150968203846617
 30
0.0
  0
VERTEX
  5
37D0
  8
L1
 10
62.225594918227102
 20
-37.998566914796463
 30
0.0
  0
VERTEX
  5
37D1
  8
L1
 10
62.441058973994302
 20
-37.828735888805483
 30
0.0
  0
VERTEX
  5
37D2
  8
L1
 10
62.642518544030622
 20
-37.642518544065013
 30
0.0
  0
VERTEX
  5
37D3
  8
L1
 10
62.828735888771057
 20
-37.441058974028721
 30
0.0
  0
VERTEX
  5
37D4
  8
L1
 10
62.998566914762023
 20
-37.225594918261493
 30
0.0
  0
VERTEX
  5
37D5
  8
L1
 10
63.15096820381217
 20
-36.997450157939817
 30
0.0
  0
VERTEX
  5
37D6
  8
L1
 10
63.285003423608323
 20
-36.758026382724317
 30
0.0
  0
VERTEX
  5
37D7
  8
L1
 10
63.39984908041135
 20
-36.508794578973827
 30
0.0
  0
VERTEX
  5
37D8
  8
L1
 10
63.494799578486777
 20
-36.251285992209517
 30
0.0
  0
VERTEX
  5
37D9
  8
L1
 10
63.569271555186958
 20
-35.987082719355747
 30
0.0
  0
VERTEX
  5
37DA
  8
L1
 10
63.622807465049959
 20
-35.717807988556643
 30
0.0
  0
VERTEX
  5
37DB
  8
L1
 10
63.655078390895142
 20
-35.445116186288232
 30
0.0
  0
VERTEX
  5
37DC
  8
L1
 10
63.665886064644667
 20
-35.170682693038088
 30
0.0
  0
SEQEND
  5
37DD
  8
L1
  0
POLYLINE
  5
2C30
  8
L1
 66
     1
 10
0.0
 20
0.0
 30
0.0
  0
VERTEX
  5
37DE
  8
L1
 10
61.556999999965633
 20
-40.01208843777416
 30
0.0
  0
VERTEX
  5
37DF
  8
L1
 10
62.218787602410941
 20
-39.94171439011447
 30
0.0
  0
VERTEX
  5
37E0
  8
L1
 10
62.87377238620661
 20
-39.739585002002507
 30
0.0
  0
VERTEX
  5
37E1
  8
L1
 10
63.476619230861729
 20
-39.41344075018619
 30
0.0
  0
VERTEX
  5
37E2
  8
L1
 10
63.989929119039289
 20
-38.989929119073793
 30
0.0
  0
VERTEX
  5
37E3
  8
L1
 10
64.413440750151722
 20
-38.476619230896198
 30
0.0
  0
VERTEX
  5
37E4
  8
L1
 10
64.739585001968123
 20
-37.873772386241143
 30
0.0
  0
VERTEX
  5
37E5
  8
L1
 10
64.941714390080051
 20
-37.218787602445389
 30
0.0
  0
VERTEX
  5
37E6
  8
L1
 10
65.012088437739749
 20
-36.557000000000073
 30
0.0
  0
SEQEND
  5
37E7
  8
L1
  0
POLYLINE
  5
2C31
  8
L1
 66
     1
 10
0.0
 20
0.0
 30
0.0
  0
VERTEX
  5
37E8
  8
L1
 10
48.940067006357701
 20
-36.048761007954141
 30
0.0
  0
VERTEX
  5
37E9
  8
L1
 10
48.788308917311163
 20
-36.813659416146997
 30
0.0
  0
VERTEX
  5
37EA
  8
L1
 10
48.355640962876123
 20
-37.461594033981662
 30
0.0
  0
VERTEX
  5
37EB
  8
L1
 10
47.707706345041402
 20
-37.894261988416673
 30
0.0
  0
VERTEX
  5
37EC
  8
L1
 10
46.94280793684856
 20
-38.046020077463282
 30
0.0
  0
SEQEND
  5
37ED
  8
L1
  0
CIRCLE
  5
2C32
  8
L1
 10
56.749999999965667
 20
-31.750000000000082
 30
0.0
 40
5.797404786259249
  0
CIRCLE
  5
2C33
  8
L1
 10
56.749999999965667
 20
-31.750000000000082
 30
0.0
 40
6.097393363178492
  0
POLYLINE
  5
2C34
  8
L1
 66
     1
 10
0.0
 20
0.0
 30
0.0
  0
VERTEX
  5
37EE
  8
L1
 10
61.517100759233813
 20
-40.01230413090925
 30
0.0
  0
VERTEX
  5
37EF
  8
L1
 10
61.537048032003902
 20
-40.012250207188927
 30
0.0
  0
VERTEX
  5
37F0
  8
L1
 10
61.556999999965633
 20
-40.01208843777416
 30
0.0
  0
SEQEND
  5
37F1
  8
L1
  0
LINE
  5
2C35
  8
L1
 10
56.531159070094191
 20
-36.700299137686748
 30
0.0
 11
51.799700862278819
 21
-31.968840929871391
 31
0.0
  0
ARC
  5
2C36
  8
L1
 10
56.749999999965667
 20
-31.75000000000006
 30
0.0
 40
4.9551339946734032
 50
87.46873820670892
 51
182.53126179329109
  0
POLYLINE
  5
2C37
  8
L1
 66
     1
 10
0.0
 20
0.0
 30
0.0
  0
VERTEX
  5
37F2
  8
L1
 10
46.4203259974609
 20
-33.529019999057368
 30
0.0
  0
VERTEX
  5
37F3
  8
L1
 10
46.420335247171693
 20
-32.412644394154768
 30
0.0
  0
VERTEX
  5
37F4
  8
L1
 10
46.420316729458818
 20
-31.79797437735294
 30
0.0
  0
VERTEX
  5
37F5
  8
L1
 10
46.420287737456988
 20
-31.34243102802327
 30
0.0
  0
VERTEX
  5
37F6
  8
L1
 10
46.420245961413279
 20
-30.643506229381611
 30
0.0
  0
VERTEX
  5
37F7
  8
L1
 10
46.420284181471288
 20
-30.052647450542668
 30
0.0
  0
VERTEX
  5
37F8
  8
L1
 10
46.420375148215953
 20
-29.63768164978017
 30
0.0
  0
VERTEX
  5
37F9
  8
L1
 10
46.420485328185457
 20
-29.01006979235467
 30
0.0
  0
SEQEND
  5
37FA
  8
L1
  0
POLYLINE
  5
2C38
  8
L1
 66
     1
 10
0.0
 20
0.0
 30
0.0
  0
VERTEX
  5
37FB
  8
L1
 10
46.385509082647893
 20
-33.890468244896589
 30
0.0
  0
VERTEX
  5
37FC
  8
L1
 10
46.399975157245372
 20
-33.80613573193542
 30
0.0
  0
VERTEX
  5
37FD
  8
L1
 10
46.413408931086053
 20
-33.691061878509451
 30
0.0
  0
VERTEX
  5
37FE
  8
L1
 10
46.41820845919176
 20
-33.618791314356088
 30
0.0
  0
VERTEX
  5
37FF
  8
L1
 10
46.419990640343478
 20
-33.564750672259549
 30
0.0
  0
VERTEX
  5
3800
  8
L1
 10
46.420325467233219
 20
-33.53039911148835
 30
0.0
  0
VERTEX
  5
3801
  8
L1
 10
46.4203259974609
 20
-33.529019999057368
 30
0.0
  0
SEQEND
  5
3802
  8
L1
  0
LINE
  5
2C39
  8
L1
 10
48.940067006357701
 20
-31.529651470526911
 30
0.0
 11
48.940067006357701
 21
-36.048761007954141
 31
0.0
  0
LINE
  5
2C3A
  8
L1
 10
56.968840929836908
 20
-26.799700862313269
 30
0.0
 11
61.700299137652451
 21
-31.531159070128801
 31
0.0
  0
ARC
  5
2C3B
  8
L1
 10
56.749999999965667
 20
-31.750000000000082
 30
0.0
 40
5.7825462644184809
 50
297.0165228096393
 51
332.9834771903607
  0
POLYLINE
  5
2C3C
  8
L1
 66
     1
 10
0.0
 20
0.0
 30
0.0
  0
VERTEX
  5
3803
  8
L1
 10
59.37670676226071
 20
-36.901529179287841
 30
0.0
  0
VERTEX
  5
3804
  8
L1
 10
59.263214172900803
 20
-36.883099641752267
 30
0.0
  0
SEQEND
  5
3805
  8
L1
  0
LINE
  5
2C3D
  8
L1
 10
59.035746534370674
 20
-36.659302189691573
 30
0.0
 11
58.687208996470481
 21
-36.310764651791338
 31
0.0
  0
POLYLINE
  5
2C3E
  8
L1
 66
     1
 10
0.0
 20
0.0
 30
0.0
  0
VERTEX
  5
3806
  8
L1
 10
59.263214172900859
 20
-36.883099641752288
 30
0.0
  0
VERTEX
  5
3807
  8
L1
 10
59.245965950123491
 20
-36.867206662007959
 30
0.0
  0
VERTEX
  5
3808
  8
L1
 10
59.197587405137597
 20
-36.820028179014741
 30
0.0
  0
VERTEX
  5
3809
  8
L1
 10
59.124081047091408
 20
-36.747342135619022
 30
0.0
  0
VERTEX
  5
380A
  8
L1
 10
59.035746534370674
 20
-36.659302189691537
 30
0.0
  0
SEQEND
  5
380B
  8
L1
  0
ARC
  5
2C3F
  8
L1
 10
56.749999999965667
 20
-31.75000000000006
 30
0.0
 40
4.9551339946734032
 50
267.46873820670891
 51
293.01361607239193
  0
POLYLINE
  5
2C40
  8
L1
 66
     1
 10
0.0
 20
0.0
 30
0.0
  0
VERTEX
  5
380C
  8
L1
 10
61.883099641717877
 20
-34.263214172935193
 30
0.0
  0
VERTEX
  5
380D
  8
L1
 10
61.901529179253487
 20
-34.376706762295129
 30
0.0
  0
SEQEND
  5
380E
  8
L1
  0
POLYLINE
  5
2C41
  8
L1
 66
     1
 10
0.0
 20
0.0
 30
0.0
  0
VERTEX
  5
380F
  8
L1
 10
61.659302189657183
 20
-34.035746534405057
 30
0.0
  0
VERTEX
  5
3810
  8
L1
 10
61.747342135584631
 20
-34.124081047125799
 30
0.0
  0
VERTEX
  5
3811
  8
L1
 10
61.820028178980351
 20
-34.197587405172008
 30
0.0
  0
VERTEX
  5
3812
  8
L1
 10
61.867206661973569
 20
-34.245965950157881
 30
0.0
  0
VERTEX
  5
3813
  8
L1
 10
61.883099641717877
 20
-34.263214172935221
 30
0.0
  0
SEQEND
  5
3814
  8
L1
  0
LINE
  5
2C42
  8
L1
 10
61.310764651756919
 20
-33.687208996504857
 30
0.0
 11
61.659302189657183
 21
-34.035746534405092
 31
0.0
  0
ARC
  5
2C43
  8
L1
 10
56.749999999965667
 20
-31.75000000000006
 30
0.0
 40
4.9551339946734032
 50
336.98638392760893
 51
2.5312617932911539
  0
POLYLINE
  5
2C44
  8
L1
 66
     1
 10
0.0
 20
0.0
 30
0.0
  0
VERTEX
  5
3815
  8
L1
 10
65.012088437739749
 20
-36.557000000000073
 30
0.0
  0
VERTEX
  5
3816
  8
L1
 10
65.01225020715458
 20
-36.537048032038278
 30
0.0
  0
VERTEX
  5
3817
  8
L1
 10
65.012304130874895
 20
-36.517100759268232
 30
0.0
  0
SEQEND
  5
3818
  8
L1
  0
POLYLINE
  5
2C45
  8
L1
 66
     1
 10
0.0
 20
0.0
 30
0.0
  0
VERTEX
  5
3819
  8
L1
 10
54.010049063728793
 20
-21.420464599628438
 30
0.0
  0
VERTEX
  5
381A
  8
L1
 10
54.654487043290708
 20
-21.420351105562581
 30
0.0
  0
VERTEX
  5
381B
  8
L1
 10
55.065086869018501
 20
-21.420262806217568
 30
0.0
  0
VERTEX
  5
381C
  8
L1
 10
55.396785856263023
 20
-21.420221284052161
 30
0.0
  0
VERTEX
  5
381D
  8
L1
 10
55.971434955172917
 20
-21.420233945030901
 30
0.0
  0
VERTEX
  5
381E
  8
L1
 10
56.674341619762231
 20
-21.420299836040321
 30
0.0
  0
VERTEX
  5
381F
  8
L1
 10
57.166362564105839
 20
-21.42032485141339
 30
0.0
  0
VERTEX
  5
3820
  8
L1
 10
57.801413129772413
 20
-21.420329704622269
 30
0.0
  0
VERTEX
  5
3821
  8
L1
 10
58.529009021259753
 20
-21.420315019732321
 30
0.0
  0
SEQEND
  5
3822
  8
L1
  0
POLYLINE
  5
2C46
  8
L1
 66
     1
 10
0.0
 20
0.0
 30
0.0
  0
VERTEX
  5
3823
  8
L1
 10
58.423664106884701
 20
-18.07519131347669
 30
0.0
  0
VERTEX
  5
3824
  8
L1
 10
58.422823394300167
 20
-18.135795432182562
 30
0.0
  0
VERTEX
  5
3825
  8
L1
 10
58.332332524186029
 20
-18.655026941792212
 30
0.0
  0
VERTEX
  5
3826
  8
L1
 10
58.138260131914869
 20
-19.010747122470001
 30
0.0
  0
VERTEX
  5
3827
  8
L1
 10
57.803066324861788
 20
-19.29156775988838
 30
0.0
  0
VERTEX
  5
3828
  8
L1
 10
57.457853840861439
 20
-19.417700814003229
 30
0.0
  0
VERTEX
  5
3829
  8
L1
 10
57.100290394762112
 20
-19.454040957735959
 30
0.0
  0
SEQEND
  5
382A
  8
L1
  0
LINE
  5
2C47
  8
L1
 10
61.048761007919659
 20
-23.940067006392152
 30
0.0
 11
56.529651470492517
 21
-23.940067006392152
 31
0.0
  0
POLYLINE
  5
2C48
  8
L1
 66
     1
 10
0.0
 20
0.0
 30
0.0
  0
VERTEX
  5
382B
  8
L1
 10
58.529009021259753
 20
-21.420315019732321
 30
0.0
  0
VERTEX
  5
382C
  8
L1
 10
58.541988374328753
 20
-21.42027057904237
 30
0.0
  0
VERTEX
  5
382D
  8
L1
 10
58.580267883838019
 20
-21.419624943063749
 30
0.0
  0
VERTEX
  5
382E
  8
L1
 10
58.65329579337935
 20
-21.416251614604391
 30
0.0
  0
VERTEX
  5
382F
  8
L1
 10
58.80765955103697
 20
-21.399736103854359
 30
0.0
  0
VERTEX
  5
3830
  8
L1
 10
58.890382429664839
 20
-21.385512807530969
 30
0.0
  0
SEQEND
  5
3831
  8
L1
  0
POLYLINE
  5
2C49
  8
L1
 66
     1
 10
0.0
 20
0.0
 30
0.0
  0
VERTEX
  5
3832
  8
L1
 10
58.890382429664839
 20
-21.385512807530969
 30
0.0
  0
VERTEX
  5
3833
  8
L1
 10
59.008055161472953
 20
-21.358875913250671
 30
0.0
  0
VERTEX
  5
3834
  8
L1
 10
59.645719806598152
 20
-21.07090291241445
 30
0.0
  0
VERTEX
  5
3835
  8
L1
 10
60.150496638427001
 20
-20.588426333293391
 30
0.0
  0
VERTEX
  5
3836
  8
L1
 10
60.383625228817827
 20
-20.188461081673939
 30
0.0
  0
SEQEND
  5
3837
  8
L1
  0
POLYLINE
  5
2C4A
  8
L1
 66
     1
 10
0.0
 20
0.0
 30
0.0
  0
VERTEX
  5
3838
  8
L1
 10
60.540858817249841
 20
-19.437646676704102
 30
0.0
  0
VERTEX
  5
3839
  8
L1
 10
60.501176846285709
 20
-19.822374479034149
 30
0.0
  0
VERTEX
  5
383A
  8
L1
 10
60.383625228817827
 20
-20.188461081673939
 30
0.0
  0
SEQEND
  5
383B
  8
L1
  0
POLYLINE
  5
2C4B
  8
L1
 66
     1
 10
0.0
 20
0.0
 30
0.0
  0
VERTEX
  5
383C
  8
L1
 10
63.046020077428807
 20
-21.942807936883039
 30
0.0
  0
VERTEX
  5
383D
  8
L1
 10
62.894261988382141
 20
-22.707706345075898
 30
0.0
  0
VERTEX
  5
383E
  8
L1
 10
62.461594033947222
 20
-23.35564096291057
 30
0.0
  0
VERTEX
  5
383F
  8
L1
 10
61.8136594161125
 20
-23.788308917345571
 30
0.0
  0
VERTEX
  5
3840
  8
L1
 10
61.048761007919659
 20
-23.94006700639218
 30
0.0
  0
SEQEND
  5
3841
  8
L1
  0
LINE
  5
2C4C
  8
L6
 10
-68.314188390159188
 20
0.0
 30
0.0
 11
67.802405436393201
 21
0.0
 31
0.0
  0
LINE
  5
2C4D
  8
L1
 10
-43.012304130943562
 20
20.01230413090914
 30
0.0
 11
43.012304130874888
 21
20.0123041309092
 31
0.0
  0
LINE
  5
2C4E
  8
L1
 10
-43.075152331624331
 20
33.423664106918999
 30
0.0
 11
43.075191313553553
 21
33.423664106919027
 31
0.0
  0
LINE
  5
2C4F
  8
L1
 10
44.437646676669601
 20
35.540858817284231
 30
0.0
 11
-44.437646676738318
 21
35.540858817284203
 31
0.0
  0
LINE
  5
2C50
  8
L1
 10
-46.942807936917227
 20
38.046020077463112
 30
0.0
 11
46.94280793684856
 21
38.04602007746314
 31
0.0
  0
LINE
  5
2C51
  8
L1
 10
60.170682693003748
 20
38.665886064679029
 30
0.0
 11
-60.170682693072301
 21
38.665886064679
 31
0.0
  0
LINE
  5
2C52
  8
L1
 10
61.517100759233927
 20
40.0123041309092
 30
0.0
 11
-61.51710075930248
 21
40.012304130909143
 31
0.0
  0
POLYLINE
  5
2C53
  8
L1
 66
     1
 10
0.0
 20
0.0
 30
0.0
  0
VERTEX
  5
3842
  8
L1
 10
-57.100290394830779
 20
19.454040957735849
 30
0.0
  0
VERTEX
  5
3843
  8
L1
 10
-55.12958310587333
 20
19.453896341578851
 30
0.0
  0
VERTEX
  5
3844
  8
L1
 10
-54.198899509893181
 20
19.453818536426599
 30
0.0
  0
VERTEX
  5
3845
  8
L1
 10
-53.34825156458038
 20
19.45374329891191
 30
0.0
  0
VERTEX
  5
3846
  8
L1
 10
-52.610330983686133
 20
19.45367530329991
 30
0.0
  0
VERTEX
  5
3847
  8
L1
 10
-52.017829480961723
 20
19.453619223855611
 30
0.0
  0
VERTEX
  5
3848
  8
L1
 10
-51.603438770158327
 20
19.453579734844141
 30
0.0
  0
VERTEX
  5
3849
  8
L1
 10
-51.399850565027293
 20
19.453561510530449
 30
0.0
  0
VERTEX
  5
384A
  8
L1
 10
-48.865195297500463
 20
19.460091736170082
 30
0.0
  0
VERTEX
  5
384B
  8
L1
 10
-48.241901190176122
 20
19.468094893257611
 30
0.0
  0
VERTEX
  5
384C
  8
L1
 10
-47.788729892109806
 20
19.4757471096164
 30
0.0
  0
VERTEX
  5
384D
  8
L1
 10
-47.441584518809911
 20
19.479175263475319
 30
0.0
  0
VERTEX
  5
384E
  8
L1
 10
-47.186483483429022
 20
19.480080126626799
 30
0.0
  0
VERTEX
  5
384F
  8
L1
 10
-46.793065960883212
 20
19.485148469008202
 30
0.0
  0
VERTEX
  5
3850
  8
L1
 10
-46.256899934762203
 20
19.529598540970682
 30
0.0
  0
VERTEX
  5
3851
  8
L1
 10
-45.82605721776104
 20
19.641635904883799
 30
0.0
  0
VERTEX
  5
3852
  8
L1
 10
-45.475698902463989
 20
19.818546972954739
 30
0.0
  0
VERTEX
  5
3853
  8
L1
 10
-45.17875858101791
 20
20.045191923456109
 30
0.0
  0
VERTEX
  5
3854
  8
L1
 10
-44.869780946986623
 20
20.400177662988821
 30
0.0
  0
VERTEX
  5
3855
  8
L1
 10
-44.712219408015073
 20
20.672025835002071
 30
0.0
  0
VERTEX
  5
3856
  8
L1
 10
-44.519404587445528
 20
21.375897861847871
 30
0.0
  0
VERTEX
  5
3857
  8
L1
 10
-44.486115986806617
 20
21.964669316996261
 30
0.0
  0
VERTEX
  5
3858
  8
L1
 10
-44.483813889028333
 20
22.326694823543441
 30
0.0
  0
VERTEX
  5
3859
  8
L1
 10
-44.479788883581357
 20
22.803691474778699
 30
0.0
  0
VERTEX
  5
385A
  8
L1
 10
-44.470405628096437
 20
23.32425198724615
 30
0.0
  0
VERTEX
  5
385B
  8
L1
 10
-44.465112038323412
 20
23.650234162324349
 30
0.0
  0
VERTEX
  5
385C
  8
L1
 10
-44.460447215597178
 20
24.067263443519771
 30
0.0
  0
VERTEX
  5
385D
  8
L1
 10
-44.455314964927709
 20
24.955249152811859
 30
0.0
  0
VERTEX
  5
385E
  8
L1
 10
-44.454035986378692
 20
25.53075138234351
 30
0.0
  0
VERTEX
  5
385F
  8
L1
 10
-44.453397941333428
 20
26.273153188240482
 30
0.0
  0
VERTEX
  5
3860
  8
L1
 10
-44.453237956527232
 20
27.241874565333969
 30
0.0
  0
VERTEX
  5
3861
  8
L1
 10
-44.453286338818423
 20
27.829673841464281
 30
0.0
  0
VERTEX
  5
3862
  8
L1
 10
-44.453393158695057
 20
28.49633550845536
 30
0.0
  0
VERTEX
  5
3863
  8
L1
 10
-44.453538056998873
 20
29.249287065661338
 30
0.0
  0
VERTEX
  5
3864
  8
L1
 10
-44.453700674571849
 20
30.095956012435941
 30
0.0
  0
VERTEX
  5
3865
  8
L1
 10
-44.453860652255912
 20
31.043769848133131
 30
0.0
  0
VERTEX
  5
3866
  8
L1
 10
-44.4539976308929
 20
32.100156072106842
 30
0.0
  0
SEQEND
  5
3867
  8
L1
  0
POLYLINE
  5
2C54
  8
L1
 66
     1
 10
0.0
 20
0.0
 30
0.0
  0
VERTEX
  5
3868
  8
L1
 10
-46.420485328254131
 20
29.01006979235456
 30
0.0
  0
VERTEX
  5
3869
  8
L1
 10
-46.420592184052097
 20
28.969931601290309
 30
0.0
  0
VERTEX
  5
386A
  8
L1
 10
-46.424117337549887
 20
28.77893133312665
 30
0.0
  0
VERTEX
  5
386B
  8
L1
 10
-46.450616464034283
 20
28.345504665491941
 30
0.0
  0
VERTEX
  5
386C
  8
L1
 10
-46.506736010602417
 20
27.88525241367239
 30
0.0
  0
VERTEX
  5
386D
  8
L1
 10
-46.62214139923929
 20
27.291575231118539
 30
0.0
  0
VERTEX
  5
386E
  8
L1
 10
-46.90552626675094
 20
26.360830127575891
 30
0.0
  0
VERTEX
  5
386F
  8
L1
 10
-47.305575376551872
 20
25.473509574882311
 30
0.0
  0
VERTEX
  5
3870
  8
L1
 10
-47.679708170321298
 20
24.84314084655378
 30
0.0
  0
VERTEX
  5
3871
  8
L1
 10
-48.112656330340428
 20
24.25143048837867
 30
0.0
  0
VERTEX
  5
3872
  8
L1
 10
-49.129276580203047
 20
23.213623938523479
 30
0.0
  0
VERTEX
  5
3873
  8
L1
 10
-50.191580607674837
 20
22.463226482566931
 30
0.0
  0
VERTEX
  5
3874
  8
L1
 10
-51.037658829524439
 20
22.035942226716031
 30
0.0
  0
VERTEX
  5
3875
  8
L1
 10
-51.930142620326819
 20
21.717074082744681
 30
0.0
  0
VERTEX
  5
3876
  8
L1
 10
-52.638456638820571
 20
21.548887378894559
 30
0.0
  0
VERTEX
  5
3877
  8
L1
 10
-53.208698420489718
 20
21.46440117554809
 30
0.0
  0
VERTEX
  5
3878
  8
L1
 10
-53.540044974376769
 20
21.435578683004621
 30
0.0
  0
VERTEX
  5
3879
  8
L1
 10
-53.851898993123029
 20
21.422174694199459
 30
0.0
  0
VERTEX
  5
387A
  8
L1
 10
-54.010049063797453
 20
21.420464599628328
 30
0.0
  0
SEQEND
  5
387B
  8
L1
  0
POLYLINE
  5
2C55
  8
L1
 66
     1
 10
0.0
 20
0.0
 30
0.0
  0
VERTEX
  5
387C
  8
L1
 10
-56.529651470561127
 20
23.940067006392042
 30
0.0
  0
VERTEX
  5
387D
  8
L1
 10
-56.144916159040918
 20
23.949827868377181
 30
0.0
  0
VERTEX
  5
387E
  8
L1
 10
-55.761216937116728
 20
23.979030165729419
 30
0.0
  0
VERTEX
  5
387F
  8
L1
 10
-55.379535323925673
 20
24.02759919771432
 30
0.0
  0
VERTEX
  5
3880
  8
L1
 10
-55.000847677475058
 20
24.095410722655959
 30
0.0
  0
VERTEX
  5
3881
  8
L1
 10
-54.626122697076312
 20
24.182291275752618
 30
0.0
  0
VERTEX
  5
3882
  8
L1
 10
-54.256318945370253
 20
24.288018612807122
 30
0.0
  0
VERTEX
  5
3883
  8
L1
 10
-53.892382396282763
 20
24.41232227873715
 30
0.0
  0
VERTEX
  5
3884
  8
L1
 10
-53.535244015182798
 20
24.554884299410979
 30
0.0
  0
VERTEX
  5
3885
  8
L1
 10
-53.18581737743272
 20
24.71533999503896
 30
0.0
  0
VERTEX
  5
3886
  8
L1
 10
-52.84499633142326
 20
24.89327891304012
 30
0.0
  0
VERTEX
  5
3887
  8
L1
 10
-52.513652712070673
 20
25.088245877997618
 30
0.0
  0
VERTEX
  5
3888
  8
L1
 10
-52.192634110625647
 20
25.299742156017061
 30
0.0
  0
VERTEX
  5
3889
  8
L1
 10
-51.882761706498457
 20
25.52722673050917
 30
0.0
  0
VERTEX
  5
388A
  8
L1
 10
-51.584828166646332
 20
25.770117686133659
 30
0.0
  0
VERTEX
  5
388B
  8
L1
 10
-51.29959561789758
 20
26.027793697363649
 30
0.0
  0
VERTEX
  5
388C
  8
L1
 10
-51.02779369739801
 20
26.299595617863211
 30
0.0
  0
VERTEX
  5
388D
  8
L1
 10
-50.770117686167957
 20
26.584828166611999
 30
0.0
  0
VERTEX
  5
388E
  8
L1
 10
-50.527226730543532
 20
26.882761706464091
 30
0.0
  0
VERTEX
  5
388F
  8
L1
 10
-50.299742156051423
 20
27.19263411059131
 30
0.0
  0
VERTEX
  5
3890
  8
L1
 10
-50.088245878032012
 20
27.513652712036301
 30
0.0
  0
VERTEX
  5
3891
  8
L1
 10
-49.893278913074482
 20
27.844996331388899
 30
0.0
  0
VERTEX
  5
3892
  8
L1
 10
-49.715339995073293
 20
28.18581737739839
 30
0.0
  0
VERTEX
  5
3893
  8
L1
 10
-49.554884299445341
 20
28.535244015148461
 30
0.0
  0
VERTEX
  5
3894
  8
L1
 10
-49.412322278771512
 20
28.89238239624839
 30
0.0
  0
VERTEX
  5
3895
  8
L1
 10
-49.288018612841483
 20
29.25631894533586
 30
0.0
  0
VERTEX
  5
3896
  8
L1
 10
-49.182291275786952
 20
29.626122697041922
 30
0.0
  0
VERTEX
  5
3897
  8
L1
 10
-49.095410722690303
 20
30.000847677440699
 30
0.0
  0
VERTEX
  5
3898
  8
L1
 10
-49.02759919774865
 20
30.379535323891272
 30
0.0
  0
VERTEX
  5
3899
  8
L1
 10
-48.979030165763781
 20
30.761216937082299
 30
0.0
  0
VERTEX
  5
389A
  8
L1
 10
-48.949827868411489
 20
31.144916159006581
 30
0.0
  0
VERTEX
  5
389B
  8
L1
 10
-48.940067006426382
 20
31.529651470526801
 30
0.0
  0
SEQEND
  5
389C
  8
L1
  0
POLYLINE
  5
2C56
  8
L1
 66
     1
 10
0.0
 20
0.0
 30
0.0
  0
VERTEX
  5
389D
  8
L1
 10
-58.890382429733499
 20
21.385512807530851
 30
0.0
  0
VERTEX
  5
389E
  8
L1
 10
-59.00805516154162
 20
21.35887591325055
 30
0.0
  0
VERTEX
  5
389F
  8
L1
 10
-59.645719806666818
 20
21.070902912414329
 30
0.0
  0
VERTEX
  5
38A0
  8
L1
 10
-60.15049663849566
 20
20.588426333293281
 30
0.0
  0
VERTEX
  5
38A1
  8
L1
 10
-60.383625228886501
 20
20.188461081673829
 30
0.0
  0
SEQEND
  5
38A2
  8
L1
  0
LINE
  5
2C57
  8
L1
 10
-61.048761007988332
 20
23.940067006392042
 30
0.0
 11
-56.529651470561191
 21
23.940067006392042
 31
0.0
  0
POLYLINE
  5
2C58
  8
L1
 66
     1
 10
0.0
 20
0.0
 30
0.0
  0
VERTEX
  5
38A3
  8
L1
 10
-60.540858817318501
 20
19.437646676703991
 30
0.0
  0
VERTEX
  5
38A4
  8
L1
 10
-60.501176846354383
 20
19.822374479034028
 30
0.0
  0
VERTEX
  5
38A5
  8
L1
 10
-60.383625228886501
 20
20.188461081673829
 30
0.0
  0
SEQEND
  5
38A6
  8
L1
  0
POLYLINE
  5
2C59
  8
L1
 66
     1
 10
0.0
 20
0.0
 30
0.0
  0
VERTEX
  5
38A7
  8
L1
 10
-63.046020077497467
 20
21.942807936882922
 30
0.0
  0
VERTEX
  5
38A8
  8
L1
 10
-62.894261988450808
 20
22.707706345075788
 30
0.0
  0
VERTEX
  5
38A9
  8
L1
 10
-62.461594034015889
 20
23.355640962910449
 30
0.0
  0
VERTEX
  5
38AA
  8
L1
 10
-61.813659416181167
 20
23.78830891734545
 30
0.0
  0
VERTEX
  5
38AB
  8
L1
 10
-61.048761007988332
 20
23.94006700639207
 30
0.0
  0
SEQEND
  5
38AC
  8
L1
  0
POLYLINE
  5
2C5A
  8
L1
 66
     1
 10
0.0
 20
0.0
 30
0.0
  0
VERTEX
  5
38AD
  8
L1
 10
-58.423664106953368
 20
18.07519131347658
 30
0.0
  0
VERTEX
  5
38AE
  8
L1
 10
-58.422823394368827
 20
18.135795432182441
 30
0.0
  0
VERTEX
  5
38AF
  8
L1
 10
-58.332332524254689
 20
18.655026941792102
 30
0.0
  0
VERTEX
  5
38B0
  8
L1
 10
-58.13826013198355
 20
19.010747122469891
 30
0.0
  0
VERTEX
  5
38B1
  8
L1
 10
-57.803066324930448
 20
19.29156775988826
 30
0.0
  0
VERTEX
  5
38B2
  8
L1
 10
-57.457853840930113
 20
19.417700814003119
 30
0.0
  0
VERTEX
  5
38B3
  8
L1
 10
-57.100290394830779
 20
19.454040957735849
 30
0.0
  0
SEQEND
  5
38B4
  8
L1
  0
POLYLINE
  5
2C5B
  8
L1
 66
     1
 10
0.0
 20
0.0
 30
0.0
  0
VERTEX
  5
38B5
  8
L1
 10
-54.010049063797453
 20
21.420464599628328
 30
0.0
  0
VERTEX
  5
38B6
  8
L1
 10
-54.654487043359381
 20
21.420351105562471
 30
0.0
  0
VERTEX
  5
38B7
  8
L1
 10
-55.06508686908716
 20
21.420262806217458
 30
0.0
  0
VERTEX
  5
38B8
  8
L1
 10
-55.396785856331682
 20
21.420221284052051
 30
0.0
  0
VERTEX
  5
38B9
  8
L1
 10
-55.971434955241591
 20
21.42023394503078
 30
0.0
  0
VERTEX
  5
38BA
  8
L1
 10
-56.674341619830898
 20
21.420299836040211
 30
0.0
  0
VERTEX
  5
38BB
  8
L1
 10
-57.166362564174513
 20
21.42032485141328
 30
0.0
  0
VERTEX
  5
38BC
  8
L1
 10
-57.80141312984108
 20
21.420329704622159
 30
0.0
  0
VERTEX
  5
38BD
  8
L1
 10
-58.52900902132842
 20
21.420315019732211
 30
0.0
  0
SEQEND
  5
38BE
  8
L1
  0
POLYLINE
  5
2C5C
  8
L1
 66
     1
 10
0.0
 20
0.0
 30
0.0
  0
VERTEX
  5
38BF
  8
L1
 10
-58.52900902132842
 20
21.420315019732211
 30
0.0
  0
VERTEX
  5
38C0
  8
L1
 10
-58.54198837439742
 20
21.42027057904226
 30
0.0
  0
VERTEX
  5
38C1
  8
L1
 10
-58.580267883906679
 20
21.419624943063631
 30
0.0
  0
VERTEX
  5
38C2
  8
L1
 10
-58.653295793448017
 20
21.416251614604281
 30
0.0
  0
VERTEX
  5
38C3
  8
L1
 10
-58.807659551105651
 20
21.399736103854249
 30
0.0
  0
VERTEX
  5
38C4
  8
L1
 10
-58.890382429733499
 20
21.385512807530851
 30
0.0
  0
SEQEND
  5
38C5
  8
L1
  0
ARC
  5
2C5D
  8
L1
 10
-43.012304130943562
 20
18.012304130909111
 30
0.0
 40
2.0
 50
90.0
 51
180.0
  0
POLYLINE
  5
2C5E
  8
L1
 66
     1
 10
0.0
 20
0.0
 30
0.0
  0
VERTEX
  5
38C6
  8
L1
 10
-59.263214172969533
 20
36.883099641752182
 30
0.0
  0
VERTEX
  5
38C7
  8
L1
 10
-59.245965950192158
 20
36.867206662007838
 30
0.0
  0
VERTEX
  5
38C8
  8
L1
 10
-59.197587405206257
 20
36.820028179014621
 30
0.0
  0
VERTEX
  5
38C9
  8
L1
 10
-59.124081047160068
 20
36.747342135618901
 30
0.0
  0
VERTEX
  5
38CA
  8
L1
 10
-59.03574653443934
 20
36.659302189691431
 30
0.0
  0
SEQEND
  5
38CB
  8
L1
  0
LINE
  5
2C5F
  8
L1
 10
-56.968840929905582
 20
26.799700862313159
 30
0.0
 11
-61.70029913772111
 21
31.531159070128691
 31
0.0
  0
CIRCLE
  5
2C60
  8
L1
 10
-56.750000000034333
 20
31.749999999999972
 30
0.0
 40
5.797404786259249
  0
CIRCLE
  5
2C61
  8
L1
 10
-56.750000000034333
 20
31.749999999999972
 30
0.0
 40
6.097393363178492
  0
ARC
  5
2C62
  8
L1
 10
-56.750000000034333
 20
31.749999999999972
 30
0.0
 40
5.7825462644184809
 50
117.0165228096392
 51
152.98347719036059
  0
POLYLINE
  5
2C63
  8
L1
 66
     1
 10
0.0
 20
0.0
 30
0.0
  0
VERTEX
  5
38CC
  8
L1
 10
-60.170682693072301
 20
38.665886064679
 30
0.0
  0
VERTEX
  5
38CD
  8
L1
 10
-60.44511618632248
 20
38.655078390929447
 30
0.0
  0
VERTEX
  5
38CE
  8
L1
 10
-60.717807988590941
 20
38.622807465084257
 30
0.0
  0
VERTEX
  5
38CF
  8
L1
 10
-60.987082719390003
 20
38.569271555221263
 30
0.0
  0
VERTEX
  5
38D0
  8
L1
 10
-61.251285992243758
 20
38.494799578521082
 30
0.0
  0
VERTEX
  5
38D1
  8
L1
 10
-61.508794579008047
 20
38.399849080445669
 30
0.0
  0
VERTEX
  5
38D2
  8
L1
 10
-61.758026382758537
 20
38.285003423642642
 30
0.0
  0
VERTEX
  5
38D3
  8
L1
 10
-61.997450157974072
 20
38.150968203846503
 30
0.0
  0
VERTEX
  5
38D4
  8
L1
 10
-62.225594918295769
 20
37.998566914796349
 30
0.0
  0
VERTEX
  5
38D5
  8
L1
 10
-62.441058974062969
 20
37.828735888805369
 30
0.0
  0
VERTEX
  5
38D6
  8
L1
 10
-62.642518544099289
 20
37.642518544064899
 30
0.0
  0
VERTEX
  5
38D7
  8
L1
 10
-62.828735888839731
 20
37.4410589740286
 30
0.0
  0
VERTEX
  5
38D8
  8
L1
 10
-62.99856691483069
 20
37.225594918261372
 30
0.0
  0
VERTEX
  5
38D9
  8
L1
 10
-63.150968203880844
 20
36.99745015793971
 30
0.0
  0
VERTEX
  5
38DA
  8
L1
 10
-63.285003423676983
 20
36.758026382724211
 30
0.0
  0
VERTEX
  5
38DB
  8
L1
 10
-63.39984908048001
 20
36.50879457897372
 30
0.0
  0
VERTEX
  5
38DC
  8
L1
 10
-63.494799578555437
 20
36.251285992209397
 30
0.0
  0
VERTEX
  5
38DD
  8
L1
 10
-63.569271555255618
 20
35.987082719355641
 30
0.0
  0
VERTEX
  5
38DE
  8
L1
 10
-63.622807465118633
 20
35.71780798855653
 30
0.0
  0
VERTEX
  5
38DF
  8
L1
 10
-63.655078390963801
 20
35.445116186288118
 30
0.0
  0
VERTEX
  5
38E0
  8
L1
 10
-63.665886064713327
 20
35.170682693037968
 30
0.0
  0
SEQEND
  5
38E1
  8
L1
  0
POLYLINE
  5
2C64
  8
L1
 66
     1
 10
0.0
 20
0.0
 30
0.0
  0
VERTEX
  5
38E2
  8
L1
 10
-61.557000000034293
 20
40.012088437774047
 30
0.0
  0
VERTEX
  5
38E3
  8
L1
 10
-62.218787602479601
 20
39.941714390114349
 30
0.0
  0
VERTEX
  5
38E4
  8
L1
 10
-62.87377238627527
 20
39.739585002002393
 30
0.0
  0
VERTEX
  5
38E5
  8
L1
 10
-63.476619230930389
 20
39.413440750186084
 30
0.0
  0
VERTEX
  5
38E6
  8
L1
 10
-63.989929119107948
 20
38.989929119073679
 30
0.0
  0
VERTEX
  5
38E7
  8
L1
 10
-64.413440750220389
 20
38.476619230896091
 30
0.0
  0
VERTEX
  5
38E8
  8
L1
 10
-64.73958500203679
 20
37.873772386241022
 30
0.0
  0
VERTEX
  5
38E9
  8
L1
 10
-64.941714390148718
 20
37.218787602445268
 30
0.0
  0
VERTEX
  5
38EA
  8
L1
 10
-65.012088437808416
 20
36.556999999999952
 30
0.0
  0
SEQEND
  5
38EB
  8
L1
  0
POLYLINE
  5
2C65
  8
L1
 66
     1
 10
0.0
 20
0.0
 30
0.0
  0
VERTEX
  5
38EC
  8
L1
 10
-65.012088437808416
 20
36.556999999999952
 30
0.0
  0
VERTEX
  5
38ED
  8
L1
 10
-65.012250207223246
 20
36.537048032038172
 30
0.0
  0
VERTEX
  5
38EE
  8
L1
 10
-65.012304130943562
 20
36.517100759268111
 30
0.0
  0
SEQEND
  5
38EF
  8
L1
  0
POLYLINE
  5
2C66
  8
L1
 66
     1
 10
0.0
 20
0.0
 30
0.0
  0
VERTEX
  5
38F0
  8
L1
 10
-61.883099641786544
 20
34.263214172935072
 30
0.0
  0
VERTEX
  5
38F1
  8
L1
 10
-61.901529179322146
 20
34.376706762295008
 30
0.0
  0
SEQEND
  5
38F2
  8
L1
  0
POLYLINE
  5
2C67
  8
L1
 66
     1
 10
0.0
 20
0.0
 30
0.0
  0
VERTEX
  5
38F3
  8
L1
 10
-61.65930218972585
 20
34.03574653440495
 30
0.0
  0
VERTEX
  5
38F4
  8
L1
 10
-61.747342135653291
 20
34.124081047125678
 30
0.0
  0
VERTEX
  5
38F5
  8
L1
 10
-61.820028179049011
 20
34.197587405171902
 30
0.0
  0
VERTEX
  5
38F6
  8
L1
 10
-61.867206662042229
 20
34.24596595015776
 30
0.0
  0
VERTEX
  5
38F7
  8
L1
 10
-61.883099641786544
 20
34.263214172935108
 30
0.0
  0
SEQEND
  5
38F8
  8
L1
  0
LINE
  5
2C68
  8
L1
 10
-61.310764651825593
 20
33.687208996504751
 30
0.0
 11
-61.65930218972585
 21
34.035746534404979
 31
0.0
  0
ARC
  5
2C69
  8
L1
 10
-56.750000000034333
 20
31.74999999999994
 30
0.0
 40
4.9551339946734032
 50
156.98638392760739
 51
182.53126179329109
  0
POLYLINE
  5
2C6A
  8
L1
 66
     1
 10
0.0
 20
0.0
 30
0.0
  0
VERTEX
  5
38F9
  8
L1
 10
-59.37670676232937
 20
36.901529179287728
 30
0.0
  0
VERTEX
  5
38FA
  8
L1
 10
-59.263214172969462
 20
36.883099641752153
 30
0.0
  0
SEQEND
  5
38FB
  8
L1
  0
POLYLINE
  5
2C6B
  8
L1
 66
     1
 10
0.0
 20
0.0
 30
0.0
  0
VERTEX
  5
38FC
  8
L1
 10
-61.51710075930248
 20
40.012304130909143
 30
0.0
  0
VERTEX
  5
38FD
  8
L1
 10
-61.537048032072562
 20
40.012250207188828
 30
0.0
  0
VERTEX
  5
38FE
  8
L1
 10
-61.557000000034293
 20
40.012088437774047
 30
0.0
  0
SEQEND
  5
38FF
  8
L1
  0
ARC
  5
2C6C
  8
L1
 10
-56.750000000034333
 20
31.74999999999994
 30
0.0
 40
4.9551339946734032
 50
87.46873820670892
 51
113.0136160723919
  0
LINE
  5
2C6D
  8
L1
 10
-56.53115907016285
 20
36.700299137686642
 30
0.0
 11
-51.799700862347493
 21
31.968840929871281
 31
0.0
  0
POLYLINE
  5
2C6E
  8
L1
 66
     1
 10
0.0
 20
0.0
 30
0.0
  0
VERTEX
  5
3900
  8
L1
 10
-48.940067006426382
 20
36.048761007954027
 30
0.0
  0
VERTEX
  5
3901
  8
L1
 10
-48.788308917379823
 20
36.813659416146891
 30
0.0
  0
VERTEX
  5
3902
  8
L1
 10
-48.35564096294479
 20
37.461594033981548
 30
0.0
  0
VERTEX
  5
3903
  8
L1
 10
-47.707706345110068
 20
37.894261988416559
 30
0.0
  0
VERTEX
  5
3904
  8
L1
 10
-46.942807936917227
 20
38.046020077463162
 30
0.0
  0
SEQEND
  5
3905
  8
L1
  0
ARC
  5
2C6F
  8
L1
 10
-56.750000000034333
 20
31.74999999999994
 30
0.0
 40
4.9551339946734032
 50
267.46873820670891
 51
2.5312617932911539
  0
LINE
  5
2C70
  8
L1
 10
-59.03574653443934
 20
36.659302189691459
 30
0.0
 11
-58.687208996539141
 21
36.310764651791231
 31
0.0
  0
LINE
  5
2C71
  8
L1
 10
-48.940067006426382
 20
31.529651470526801
 30
0.0
 11
-48.940067006426382
 21
36.048761007954027
 31
0.0
  0
POLYLINE
  5
2C72
  8
L1
 66
     1
 10
0.0
 20
0.0
 30
0.0
  0
VERTEX
  5
3906
  8
L1
 10
-46.420325997529567
 20
33.529019999057248
 30
0.0
  0
VERTEX
  5
3907
  8
L1
 10
-46.420335247240359
 20
32.412644394154647
 30
0.0
  0
VERTEX
  5
3908
  8
L1
 10
-46.420316729527478
 20
31.79797437735283
 30
0.0
  0
VERTEX
  5
3909
  8
L1
 10
-46.420287737525648
 20
31.34243102802315
 30
0.0
  0
VERTEX
  5
390A
  8
L1
 10
-46.420245961481953
 20
30.643506229381501
 30
0.0
  0
VERTEX
  5
390B
  8
L1
 10
-46.420284181539948
 20
30.052647450542558
 30
0.0
  0
VERTEX
  5
390C
  8
L1
 10
-46.420375148284613
 20
29.63768164978006
 30
0.0
  0
VERTEX
  5
390D
  8
L1
 10
-46.420485328254131
 20
29.01006979235456
 30
0.0
  0
SEQEND
  5
390E
  8
L1
  0
POLYLINE
  5
2C73
  8
L1
 66
     1
 10
0.0
 20
0.0
 30
0.0
  0
VERTEX
  5
390F
  8
L1
 10
-44.4539976308929
 20
32.100156072106842
 30
0.0
  0
VERTEX
  5
3910
  8
L1
 10
-44.391855197871848
 20
32.559095770959743
 30
0.0
  0
VERTEX
  5
3911
  8
L1
 10
-44.216260323726658
 20
32.922716035269097
 30
0.0
  0
VERTEX
  5
3912
  8
L1
 10
-43.895990596507367
 20
33.218488084637073
 30
0.0
  0
VERTEX
  5
3913
  8
L1
 10
-43.530079043727092
 20
33.370100048988661
 30
0.0
  0
VERTEX
  5
3914
  8
L1
 10
-43.099524093906197
 20
33.423529428565779
 30
0.0
  0
VERTEX
  5
3915
  8
L1
 10
-43.075152331624331
 20
33.423664106918999
 30
0.0
  0
SEQEND
  5
3916
  8
L1
  0
POLYLINE
  5
2C74
  8
L1
 66
     1
 10
0.0
 20
0.0
 30
0.0
  0
VERTEX
  5
3917
  8
L1
 10
-45.188304356210828
 20
35.383694326696741
 30
0.0
  0
VERTEX
  5
3918
  8
L1
 10
-45.324276473463499
 20
35.317682456810353
 30
0.0
  0
VERTEX
  5
3919
  8
L1
 10
-45.87278753061463
 20
34.895256596223732
 30
0.0
  0
VERTEX
  5
391A
  8
L1
 10
-46.094602294704593
 20
34.609902847079951
 30
0.0
  0
VERTEX
  5
391B
  8
L1
 10
-46.263734026064697
 20
34.289916846735451
 30
0.0
  0
VERTEX
  5
391C
  8
L1
 10
-46.38550908271656
 20
33.890468244896482
 30
0.0
  0
SEQEND
  5
391D
  8
L1
  0
POLYLINE
  5
2C75
  8
L1
 66
     1
 10
0.0
 20
0.0
 30
0.0
  0
VERTEX
  5
391E
  8
L1
 10
-46.38550908271656
 20
33.890468244896482
 30
0.0
  0
VERTEX
  5
391F
  8
L1
 10
-46.399975157314032
 20
33.806135731935314
 30
0.0
  0
VERTEX
  5
3920
  8
L1
 10
-46.413408931154713
 20
33.691061878509338
 30
0.0
  0
VERTEX
  5
3921
  8
L1
 10
-46.418208459260427
 20
33.618791314355967
 30
0.0
  0
VERTEX
  5
3922
  8
L1
 10
-46.419990640412152
 20
33.564750672259429
 30
0.0
  0
VERTEX
  5
3923
  8
L1
 10
-46.420325467301893
 20
33.530399111488229
 30
0.0
  0
VERTEX
  5
3924
  8
L1
 10
-46.420325997529567
 20
33.529019999057248
 30
0.0
  0
SEQEND
  5
3925
  8
L1
  0
POLYLINE
  5
2C76
  8
L1
 66
     1
 10
0.0
 20
0.0
 30
0.0
  0
VERTEX
  5
3926
  8
L1
 10
-45.188304356210828
 20
35.383694326696741
 30
0.0
  0
VERTEX
  5
3927
  8
L1
 10
-44.82229039860988
 20
35.501194452198092
 30
0.0
  0
VERTEX
  5
3928
  8
L1
 10
-44.437646676738318
 20
35.540858817284253
 30
0.0
  0
SEQEND
  5
3929
  8
L1
  0
POLYLINE
  5
2C77
  8
L1
 66
     1
 10
0.0
 20
0.0
 30
0.0
  0
VERTEX
  5
392A
  8
L1
 10
45.188304356142169
 20
35.383694326696741
 30
0.0
  0
VERTEX
  5
392B
  8
L1
 10
45.324276473394832
 20
35.317682456810353
 30
0.0
  0
VERTEX
  5
392C
  8
L1
 10
45.872787530545963
 20
34.895256596223732
 30
0.0
  0
VERTEX
  5
392D
  8
L1
 10
46.094602294635934
 20
34.609902847079951
 30
0.0
  0
VERTEX
  5
392E
  8
L1
 10
46.26373402599603
 20
34.289916846735451
 30
0.0
  0
VERTEX
  5
392F
  8
L1
 10
46.385509082647893
 20
33.890468244896482
 30
0.0
  0
SEQEND
  5
3930
  8
L1
  0
ARC
  5
2C78
  8
L1
 10
43.012304130874888
 20
18.012304130909111
 30
0.0
 40
2.0
 50
0.0
 51
90.0
  0
POLYLINE
  5
2C79
  8
L1
 66
     1
 10
0.0
 20
0.0
 30
0.0
  0
VERTEX
  5
3931
  8
L1
 10
57.100290394762112
 20
19.454040957735849
 30
0.0
  0
VERTEX
  5
3932
  8
L1
 10
55.12958310580467
 20
19.453896341578851
 30
0.0
  0
VERTEX
  5
3933
  8
L1
 10
54.198899509824507
 20
19.453818536426599
 30
0.0
  0
VERTEX
  5
3934
  8
L1
 10
53.348251564511713
 20
19.45374329891191
 30
0.0
  0
VERTEX
  5
3935
  8
L1
 10
52.610330983617473
 20
19.45367530329991
 30
0.0
  0
VERTEX
  5
3936
  8
L1
 10
52.017829480893063
 20
19.453619223855611
 30
0.0
  0
VERTEX
  5
3937
  8
L1
 10
51.60343877008966
 20
19.453579734844141
 30
0.0
  0
VERTEX
  5
3938
  8
L1
 10
51.399850564958633
 20
19.453561510530449
 30
0.0
  0
VERTEX
  5
3939
  8
L1
 10
48.865195297431789
 20
19.460091736170082
 30
0.0
  0
VERTEX
  5
393A
  8
L1
 10
48.241901190107448
 20
19.468094893257611
 30
0.0
  0
VERTEX
  5
393B
  8
L1
 10
47.78872989204114
 20
19.4757471096164
 30
0.0
  0
VERTEX
  5
393C
  8
L1
 10
47.441584518741251
 20
19.479175263475319
 30
0.0
  0
VERTEX
  5
393D
  8
L1
 10
47.186483483360341
 20
19.480080126626799
 30
0.0
  0
VERTEX
  5
393E
  8
L1
 10
46.793065960814538
 20
19.485148469008202
 30
0.0
  0
VERTEX
  5
393F
  8
L1
 10
46.256899934693529
 20
19.529598540970682
 30
0.0
  0
VERTEX
  5
3940
  8
L1
 10
45.82605721769238
 20
19.641635904883799
 30
0.0
  0
VERTEX
  5
3941
  8
L1
 10
45.475698902395322
 20
19.818546972954739
 30
0.0
  0
VERTEX
  5
3942
  8
L1
 10
45.178758580949243
 20
20.045191923456109
 30
0.0
  0
VERTEX
  5
3943
  8
L1
 10
44.869780946917949
 20
20.400177662988821
 30
0.0
  0
VERTEX
  5
3944
  8
L1
 10
44.712219407946407
 20
20.672025835002071
 30
0.0
  0
VERTEX
  5
3945
  8
L1
 10
44.519404587376869
 20
21.375897861847871
 30
0.0
  0
VERTEX
  5
3946
  8
L1
 10
44.48611598673795
 20
21.964669316996261
 30
0.0
  0
VERTEX
  5
3947
  8
L1
 10
44.483813888959673
 20
22.326694823543441
 30
0.0
  0
VERTEX
  5
3948
  8
L1
 10
44.47978888351269
 20
22.803691474778699
 30
0.0
  0
VERTEX
  5
3949
  8
L1
 10
44.470405628027777
 20
23.32425198724615
 30
0.0
  0
VERTEX
  5
394A
  8
L1
 10
44.465112038254738
 20
23.650234162324349
 30
0.0
  0
VERTEX
  5
394B
  8
L1
 10
44.460447215528511
 20
24.067263443519771
 30
0.0
  0
VERTEX
  5
394C
  8
L1
 10
44.455314964859042
 20
24.955249152811859
 30
0.0
  0
VERTEX
  5
394D
  8
L1
 10
44.454035986310032
 20
25.53075138234351
 30
0.0
  0
VERTEX
  5
394E
  8
L1
 10
44.453397941264768
 20
26.273153188240482
 30
0.0
  0
VERTEX
  5
394F
  8
L1
 10
44.453237956458558
 20
27.241874565333969
 30
0.0
  0
VERTEX
  5
3950
  8
L1
 10
44.453286338749763
 20
27.829673841464281
 30
0.0
  0
VERTEX
  5
3951
  8
L1
 10
44.45339315862639
 20
28.49633550845536
 30
0.0
  0
VERTEX
  5
3952
  8
L1
 10
44.453538056930192
 20
29.249287065661338
 30
0.0
  0
VERTEX
  5
3953
  8
L1
 10
44.453700674503182
 20
30.095956012435941
 30
0.0
  0
VERTEX
  5
3954
  8
L1
 10
44.453860652187238
 20
31.043769848133131
 30
0.0
  0
VERTEX
  5
3955
  8
L1
 10
44.453997630824233
 20
32.100156072106842
 30
0.0
  0
SEQEND
  5
3956
  8
L1
  0
POLYLINE
  5
2C7A
  8
L1
 66
     1
 10
0.0
 20
0.0
 30
0.0
  0
VERTEX
  5
3957
  8
L1
 10
45.188304356142169
 20
35.383694326696741
 30
0.0
  0
VERTEX
  5
3958
  8
L1
 10
44.822290398541213
 20
35.501194452198092
 30
0.0
  0
VERTEX
  5
3959
  8
L1
 10
44.437646676669651
 20
35.540858817284253
 30
0.0
  0
SEQEND
  5
395A
  8
L1
  0
POLYLINE
  5
2C7B
  8
L1
 66
     1
 10
0.0
 20
0.0
 30
0.0
  0
VERTEX
  5
395B
  8
L1
 10
44.453997630824233
 20
32.100156072106842
 30
0.0
  0
VERTEX
  5
395C
  8
L1
 10
44.391855197803181
 20
32.559095770959743
 30
0.0
  0
VERTEX
  5
395D
  8
L1
 10
44.216260323657991
 20
32.922716035269097
 30
0.0
  0
VERTEX
  5
395E
  8
L1
 10
43.8959905964387
 20
33.218488084637073
 30
0.0
  0
VERTEX
  5
395F
  8
L1
 10
43.530079043658411
 20
33.370100048988661
 30
0.0
  0
VERTEX
  5
3960
  8
L1
 10
43.099524093837537
 20
33.423529428565779
 30
0.0
  0
VERTEX
  5
3961
  8
L1
 10
43.075152331555671
 20
33.423664106918999
 30
0.0
  0
SEQEND
  5
3962
  8
L1
  0
POLYLINE
  5
2C7C
  8
L1
 66
     1
 10
0.0
 20
0.0
 30
0.0
  0
VERTEX
  5
3963
  8
L1
 10
56.529651470492468
 20
23.940067006392042
 30
0.0
  0
VERTEX
  5
3964
  8
L1
 10
56.144916158972251
 20
23.949827868377181
 30
0.0
  0
VERTEX
  5
3965
  8
L1
 10
55.761216937048061
 20
23.979030165729419
 30
0.0
  0
VERTEX
  5
3966
  8
L1
 10
55.379535323856992
 20
24.02759919771432
 30
0.0
  0
VERTEX
  5
3967
  8
L1
 10
55.000847677406398
 20
24.095410722655959
 30
0.0
  0
VERTEX
  5
3968
  8
L1
 10
54.626122697007638
 20
24.182291275752618
 30
0.0
  0
VERTEX
  5
3969
  8
L1
 10
54.256318945301587
 20
24.288018612807122
 30
0.0
  0
VERTEX
  5
396A
  8
L1
 10
53.892382396214089
 20
24.41232227873715
 30
0.0
  0
VERTEX
  5
396B
  8
L1
 10
53.535244015114131
 20
24.554884299410979
 30
0.0
  0
VERTEX
  5
396C
  8
L1
 10
53.18581737736406
 20
24.71533999503896
 30
0.0
  0
VERTEX
  5
396D
  8
L1
 10
52.844996331354587
 20
24.89327891304012
 30
0.0
  0
VERTEX
  5
396E
  8
L1
 10
52.513652712001992
 20
25.088245877997618
 30
0.0
  0
VERTEX
  5
396F
  8
L1
 10
52.19263411055698
 20
25.299742156017061
 30
0.0
  0
VERTEX
  5
3970
  8
L1
 10
51.882761706429783
 20
25.52722673050917
 30
0.0
  0
VERTEX
  5
3971
  8
L1
 10
51.584828166577658
 20
25.770117686133659
 30
0.0
  0
VERTEX
  5
3972
  8
L1
 10
51.299595617828913
 20
26.027793697363649
 30
0.0
  0
VERTEX
  5
3973
  8
L1
 10
51.027793697329336
 20
26.299595617863211
 30
0.0
  0
VERTEX
  5
3974
  8
L1
 10
50.770117686099297
 20
26.584828166611999
 30
0.0
  0
VERTEX
  5
3975
  8
L1
 10
50.527226730474872
 20
26.882761706464091
 30
0.0
  0
VERTEX
  5
3976
  8
L1
 10
50.299742155982763
 20
27.19263411059131
 30
0.0
  0
VERTEX
  5
3977
  8
L1
 10
50.088245877963338
 20
27.513652712036301
 30
0.0
  0
VERTEX
  5
3978
  8
L1
 10
49.893278913005823
 20
27.844996331388899
 30
0.0
  0
VERTEX
  5
3979
  8
L1
 10
49.715339995004619
 20
28.18581737739839
 30
0.0
  0
VERTEX
  5
397A
  8
L1
 10
49.554884299376681
 20
28.535244015148461
 30
0.0
  0
VERTEX
  5
397B
  8
L1
 10
49.412322278702838
 20
28.89238239624839
 30
0.0
  0
VERTEX
  5
397C
  8
L1
 10
49.288018612772817
 20
29.25631894533586
 30
0.0
  0
VERTEX
  5
397D
  8
L1
 10
49.182291275718278
 20
29.626122697041922
 30
0.0
  0
VERTEX
  5
397E
  8
L1
 10
49.095410722621637
 20
30.000847677440699
 30
0.0
  0
VERTEX
  5
397F
  8
L1
 10
49.02759919767999
 20
30.379535323891272
 30
0.0
  0
VERTEX
  5
3980
  8
L1
 10
48.979030165695121
 20
30.761216937082299
 30
0.0
  0
VERTEX
  5
3981
  8
L1
 10
48.949827868342823
 20
31.144916159006581
 30
0.0
  0
VERTEX
  5
3982
  8
L1
 10
48.940067006357701
 20
31.529651470526801
 30
0.0
  0
SEQEND
  5
3983
  8
L1
  0
POLYLINE
  5
2C7D
  8
L1
 66
     1
 10
0.0
 20
0.0
 30
0.0
  0
VERTEX
  5
3984
  8
L1
 10
46.420485328185457
 20
29.01006979235456
 30
0.0
  0
VERTEX
  5
3985
  8
L1
 10
46.420592183983437
 20
28.969931601290309
 30
0.0
  0
VERTEX
  5
3986
  8
L1
 10
46.424117337481213
 20
28.77893133312665
 30
0.0
  0
VERTEX
  5
3987
  8
L1
 10
46.450616463965623
 20
28.345504665491941
 30
0.0
  0
VERTEX
  5
3988
  8
L1
 10
46.506736010533757
 20
27.88525241367239
 30
0.0
  0
VERTEX
  5
3989
  8
L1
 10
46.62214139917063
 20
27.291575231118539
 30
0.0
  0
VERTEX
  5
398A
  8
L1
 10
46.905526266682273
 20
26.360830127575891
 30
0.0
  0
VERTEX
  5
398B
  8
L1
 10
47.305575376483198
 20
25.473509574882311
 30
0.0
  0
VERTEX
  5
398C
  8
L1
 10
47.679708170252638
 20
24.84314084655378
 30
0.0
  0
VERTEX
  5
398D
  8
L1
 10
48.112656330271761
 20
24.25143048837867
 30
0.0
  0
VERTEX
  5
398E
  8
L1
 10
49.129276580134388
 20
23.213623938523479
 30
0.0
  0
VERTEX
  5
398F
  8
L1
 10
50.191580607606163
 20
22.463226482566931
 30
0.0
  0
VERTEX
  5
3990
  8
L1
 10
51.037658829455779
 20
22.035942226716031
 30
0.0
  0
VERTEX
  5
3991
  8
L1
 10
51.930142620258152
 20
21.717074082744681
 30
0.0
  0
VERTEX
  5
3992
  8
L1
 10
52.638456638751911
 20
21.548887378894559
 30
0.0
  0
VERTEX
  5
3993
  8
L1
 10
53.208698420421058
 20
21.46440117554809
 30
0.0
  0
VERTEX
  5
3994
  8
L1
 10
53.540044974308103
 20
21.435578683004621
 30
0.0
  0
VERTEX
  5
3995
  8
L1
 10
53.851898993054363
 20
21.422174694199459
 30
0.0
  0
VERTEX
  5
3996
  8
L1
 10
54.010049063728793
 20
21.420464599628328
 30
0.0
  0
SEQEND
  5
3997
  8
L1
  0
POLYLINE
  5
2C7E
  8
L1
 66
     1
 10
0.0
 20
0.0
 30
0.0
  0
VERTEX
  5
3998
  8
L1
 10
54.010049063728793
 20
21.420464599628328
 30
0.0
  0
VERTEX
  5
3999
  8
L1
 10
54.654487043290708
 20
21.420351105562471
 30
0.0
  0
VERTEX
  5
399A
  8
L1
 10
55.065086869018501
 20
21.420262806217458
 30
0.0
  0
VERTEX
  5
399B
  8
L1
 10
55.396785856263023
 20
21.420221284052051
 30
0.0
  0
VERTEX
  5
399C
  8
L1
 10
55.971434955172917
 20
21.42023394503078
 30
0.0
  0
VERTEX
  5
399D
  8
L1
 10
56.674341619762231
 20
21.420299836040211
 30
0.0
  0
VERTEX
  5
399E
  8
L1
 10
57.166362564105839
 20
21.42032485141328
 30
0.0
  0
VERTEX
  5
399F
  8
L1
 10
57.801413129772413
 20
21.420329704622159
 30
0.0
  0
VERTEX
  5
39A0
  8
L1
 10
58.529009021259753
 20
21.420315019732211
 30
0.0
  0
SEQEND
  5
39A1
  8
L1
  0
POLYLINE
  5
2C7F
  8
L1
 66
     1
 10
0.0
 20
0.0
 30
0.0
  0
VERTEX
  5
39A2
  8
L1
 10
58.423664106884701
 20
18.07519131347658
 30
0.0
  0
VERTEX
  5
39A3
  8
L1
 10
58.422823394300167
 20
18.135795432182441
 30
0.0
  0
VERTEX
  5
39A4
  8
L1
 10
58.332332524186029
 20
18.655026941792102
 30
0.0
  0
VERTEX
  5
39A5
  8
L1
 10
58.138260131914869
 20
19.010747122469891
 30
0.0
  0
VERTEX
  5
39A6
  8
L1
 10
57.803066324861788
 20
19.29156775988826
 30
0.0
  0
VERTEX
  5
39A7
  8
L1
 10
57.457853840861439
 20
19.417700814003119
 30
0.0
  0
VERTEX
  5
39A8
  8
L1
 10
57.100290394762112
 20
19.454040957735849
 30
0.0
  0
SEQEND
  5
39A9
  8
L1
  0
LINE
  5
2C80
  8
L1
 10
61.048761007919659
 20
23.940067006392042
 30
0.0
 11
56.529651470492517
 21
23.940067006392042
 31
0.0
  0
POLYLINE
  5
2C81
  8
L1
 66
     1
 10
0.0
 20
0.0
 30
0.0
  0
VERTEX
  5
39AA
  8
L1
 10
60.540858817249841
 20
19.437646676703991
 30
0.0
  0
VERTEX
  5
39AB
  8
L1
 10
60.501176846285709
 20
19.822374479034028
 30
0.0
  0
VERTEX
  5
39AC
  8
L1
 10
60.383625228817827
 20
20.188461081673829
 30
0.0
  0
SEQEND
  5
39AD
  8
L1
  0
POLYLINE
  5
2C82
  8
L1
 66
     1
 10
0.0
 20
0.0
 30
0.0
  0
VERTEX
  5
39AE
  8
L1
 10
58.890382429664839
 20
21.385512807530851
 30
0.0
  0
VERTEX
  5
39AF
  8
L1
 10
59.008055161472953
 20
21.35887591325055
 30
0.0
  0
VERTEX
  5
39B0
  8
L1
 10
59.645719806598152
 20
21.070902912414329
 30
0.0
  0
VERTEX
  5
39B1
  8
L1
 10
60.150496638427001
 20
20.588426333293281
 30
0.0
  0
VERTEX
  5
39B2
  8
L1
 10
60.383625228817827
 20
20.188461081673829
 30
0.0
  0
SEQEND
  5
39B3
  8
L1
  0
POLYLINE
  5
2C83
  8
L1
 66
     1
 10
0.0
 20
0.0
 30
0.0
  0
VERTEX
  5
39B4
  8
L1
 10
58.529009021259753
 20
21.420315019732211
 30
0.0
  0
VERTEX
  5
39B5
  8
L1
 10
58.541988374328753
 20
21.42027057904226
 30
0.0
  0
VERTEX
  5
39B6
  8
L1
 10
58.580267883838019
 20
21.419624943063631
 30
0.0
  0
VERTEX
  5
39B7
  8
L1
 10
58.65329579337935
 20
21.416251614604281
 30
0.0
  0
VERTEX
  5
39B8
  8
L1
 10
58.80765955103697
 20
21.399736103854249
 30
0.0
  0
VERTEX
  5
39B9
  8
L1
 10
58.890382429664839
 20
21.385512807530851
 30
0.0
  0
SEQEND
  5
39BA
  8
L1
  0
POLYLINE
  5
2C84
  8
L1
 66
     1
 10
0.0
 20
0.0
 30
0.0
  0
VERTEX
  5
39BB
  8
L1
 10
63.046020077428807
 20
21.942807936882922
 30
0.0
  0
VERTEX
  5
39BC
  8
L1
 10
62.894261988382141
 20
22.707706345075788
 30
0.0
  0
VERTEX
  5
39BD
  8
L1
 10
62.461594033947222
 20
23.355640962910449
 30
0.0
  0
VERTEX
  5
39BE
  8
L1
 10
61.8136594161125
 20
23.78830891734545
 30
0.0
  0
VERTEX
  5
39BF
  8
L1
 10
61.048761007919659
 20
23.94006700639207
 30
0.0
  0
SEQEND
  5
39C0
  8
L1
  0
POLYLINE
  5
2C85
  8
L1
 66
     1
 10
0.0
 20
0.0
 30
0.0
  0
VERTEX
  5
39C1
  8
L1
 10
61.556999999965633
 20
40.012088437774047
 30
0.0
  0
VERTEX
  5
39C2
  8
L1
 10
62.218787602410941
 20
39.941714390114349
 30
0.0
  0
VERTEX
  5
39C3
  8
L1
 10
62.87377238620661
 20
39.739585002002393
 30
0.0
  0
VERTEX
  5
39C4
  8
L1
 10
63.476619230861729
 20
39.413440750186084
 30
0.0
  0
VERTEX
  5
39C5
  8
L1
 10
63.989929119039289
 20
38.989929119073679
 30
0.0
  0
VERTEX
  5
39C6
  8
L1
 10
64.413440750151722
 20
38.476619230896091
 30
0.0
  0
VERTEX
  5
39C7
  8
L1
 10
64.739585001968123
 20
37.873772386241022
 30
0.0
  0
VERTEX
  5
39C8
  8
L1
 10
64.941714390080051
 20
37.218787602445268
 30
0.0
  0
VERTEX
  5
39C9
  8
L1
 10
65.012088437739749
 20
36.556999999999952
 30
0.0
  0
SEQEND
  5
39CA
  8
L1
  0
POLYLINE
  5
2C86
  8
L1
 66
     1
 10
0.0
 20
0.0
 30
0.0
  0
VERTEX
  5
39CB
  8
L1
 10
60.170682693003641
 20
38.665886064679
 30
0.0
  0
VERTEX
  5
39CC
  8
L1
 10
60.445116186253813
 20
38.655078390929447
 30
0.0
  0
VERTEX
  5
39CD
  8
L1
 10
60.717807988522281
 20
38.622807465084257
 30
0.0
  0
VERTEX
  5
39CE
  8
L1
 10
60.987082719321329
 20
38.569271555221263
 30
0.0
  0
VERTEX
  5
39CF
  8
L1
 10
61.251285992175099
 20
38.494799578521082
 30
0.0
  0
VERTEX
  5
39D0
  8
L1
 10
61.508794578939387
 20
38.399849080445669
 30
0.0
  0
VERTEX
  5
39D1
  8
L1
 10
61.75802638268987
 20
38.285003423642642
 30
0.0
  0
VERTEX
  5
39D2
  8
L1
 10
61.997450157905398
 20
38.150968203846503
 30
0.0
  0
VERTEX
  5
39D3
  8
L1
 10
62.225594918227102
 20
37.998566914796349
 30
0.0
  0
VERTEX
  5
39D4
  8
L1
 10
62.441058973994302
 20
37.828735888805369
 30
0.0
  0
VERTEX
  5
39D5
  8
L1
 10
62.642518544030622
 20
37.642518544064899
 30
0.0
  0
VERTEX
  5
39D6
  8
L1
 10
62.828735888771057
 20
37.4410589740286
 30
0.0
  0
VERTEX
  5
39D7
  8
L1
 10
62.998566914762023
 20
37.225594918261372
 30
0.0
  0
VERTEX
  5
39D8
  8
L1
 10
63.15096820381217
 20
36.99745015793971
 30
0.0
  0
VERTEX
  5
39D9
  8
L1
 10
63.285003423608323
 20
36.758026382724211
 30
0.0
  0
VERTEX
  5
39DA
  8
L1
 10
63.39984908041135
 20
36.50879457897372
 30
0.0
  0
VERTEX
  5
39DB
  8
L1
 10
63.494799578486777
 20
36.251285992209397
 30
0.0
  0
VERTEX
  5
39DC
  8
L1
 10
63.569271555186958
 20
35.987082719355641
 30
0.0
  0
VERTEX
  5
39DD
  8
L1
 10
63.622807465049959
 20
35.71780798855653
 30
0.0
  0
VERTEX
  5
39DE
  8
L1
 10
63.655078390895142
 20
35.445116186288118
 30
0.0
  0
VERTEX
  5
39DF
  8
L1
 10
63.665886064644667
 20
35.170682693037968
 30
0.0
  0
SEQEND
  5
39E0
  8
L1
  0
POLYLINE
  5
2C87
  8
L1
 66
     1
 10
0.0
 20
0.0
 30
0.0
  0
VERTEX
  5
39E1
  8
L1
 10
59.263214172900859
 20
36.883099641752182
 30
0.0
  0
VERTEX
  5
39E2
  8
L1
 10
59.245965950123491
 20
36.867206662007838
 30
0.0
  0
VERTEX
  5
39E3
  8
L1
 10
59.197587405137597
 20
36.820028179014621
 30
0.0
  0
VERTEX
  5
39E4
  8
L1
 10
59.124081047091408
 20
36.747342135618901
 30
0.0
  0
VERTEX
  5
39E5
  8
L1
 10
59.035746534370674
 20
36.659302189691431
 30
0.0
  0
SEQEND
  5
39E6
  8
L1
  0
ARC
  5
2C88
  8
L1
 10
56.749999999965667
 20
31.74999999999994
 30
0.0
 40
4.9551339946734032
 50
66.986383927608088
 51
92.531261793291065
  0
CIRCLE
  5
2C89
  8
L1
 10
56.749999999965667
 20
31.749999999999972
 30
0.0
 40
6.097393363178492
  0
CIRCLE
  5
2C8A
  8
L1
 10
56.749999999965667
 20
31.749999999999972
 30
0.0
 40
5.797404786259249
  0
LINE
  5
2C8B
  8
L1
 10
56.531159070094191
 20
36.700299137686642
 30
0.0
 11
51.799700862278819
 21
31.968840929871281
 31
0.0
  0
ARC
  5
2C8C
  8
L1
 10
56.749999999965667
 20
31.749999999999972
 30
0.0
 40
5.7825462644184809
 50
27.01652280963927
 51
62.98347719036073
  0
POLYLINE
  5
2C8D
  8
L1
 66
     1
 10
0.0
 20
0.0
 30
0.0
  0
VERTEX
  5
39E7
  8
L1
 10
48.940067006357701
 20
36.048761007954027
 30
0.0
  0
VERTEX
  5
39E8
  8
L1
 10
48.788308917311163
 20
36.813659416146891
 30
0.0
  0
VERTEX
  5
39E9
  8
L1
 10
48.355640962876123
 20
37.461594033981548
 30
0.0
  0
VERTEX
  5
39EA
  8
L1
 10
47.707706345041402
 20
37.894261988416559
 30
0.0
  0
VERTEX
  5
39EB
  8
L1
 10
46.94280793684856
 20
38.046020077463162
 30
0.0
  0
SEQEND
  5
39EC
  8
L1
  0
ARC
  5
2C8E
  8
L1
 10
56.749999999965667
 20
31.74999999999994
 30
0.0
 40
4.9551339946734032
 50
177.46873820670879
 51
272.53126179329098
  0
POLYLINE
  5
2C8F
  8
L1
 66
     1
 10
0.0
 20
0.0
 30
0.0
  0
VERTEX
  5
39ED
  8
L1
 10
46.4203259974609
 20
33.529019999057248
 30
0.0
  0
VERTEX
  5
39EE
  8
L1
 10
46.420335247171693
 20
32.412644394154647
 30
0.0
  0
VERTEX
  5
39EF
  8
L1
 10
46.420316729458818
 20
31.79797437735283
 30
0.0
  0
VERTEX
  5
39F0
  8
L1
 10
46.420287737456988
 20
31.34243102802315
 30
0.0
  0
VERTEX
  5
39F1
  8
L1
 10
46.420245961413279
 20
30.643506229381501
 30
0.0
  0
VERTEX
  5
39F2
  8
L1
 10
46.420284181471288
 20
30.052647450542558
 30
0.0
  0
VERTEX
  5
39F3
  8
L1
 10
46.420375148215953
 20
29.63768164978006
 30
0.0
  0
VERTEX
  5
39F4
  8
L1
 10
46.420485328185457
 20
29.01006979235456
 30
0.0
  0
SEQEND
  5
39F5
  8
L1
  0
POLYLINE
  5
2C90
  8
L1
 66
     1
 10
0.0
 20
0.0
 30
0.0
  0
VERTEX
  5
39F6
  8
L1
 10
46.385509082647893
 20
33.890468244896482
 30
0.0
  0
VERTEX
  5
39F7
  8
L1
 10
46.399975157245372
 20
33.806135731935314
 30
0.0
  0
VERTEX
  5
39F8
  8
L1
 10
46.413408931086053
 20
33.691061878509338
 30
0.0
  0
VERTEX
  5
39F9
  8
L1
 10
46.41820845919176
 20
33.618791314355967
 30
0.0
  0
VERTEX
  5
39FA
  8
L1
 10
46.419990640343478
 20
33.564750672259429
 30
0.0
  0
VERTEX
  5
39FB
  8
L1
 10
46.420325467233219
 20
33.530399111488229
 30
0.0
  0
VERTEX
  5
39FC
  8
L1
 10
46.4203259974609
 20
33.529019999057248
 30
0.0
  0
SEQEND
  5
39FD
  8
L1
  0
LINE
  5
2C91
  8
L1
 10
48.940067006357701
 20
31.529651470526801
 30
0.0
 11
48.940067006357701
 21
36.048761007954027
 31
0.0
  0
LINE
  5
2C92
  8
L1
 10
56.968840929836908
 20
26.799700862313159
 30
0.0
 11
61.700299137652451
 21
31.531159070128691
 31
0.0
  0
LINE
  5
2C93
  8
L1
 10
59.035746534370674
 20
36.659302189691459
 30
0.0
 11
58.687208996470481
 21
36.310764651791231
 31
0.0
  0
POLYLINE
  5
2C94
  8
L1
 66
     1
 10
0.0
 20
0.0
 30
0.0
  0
VERTEX
  5
39FE
  8
L1
 10
65.012088437739749
 20
36.556999999999952
 30
0.0
  0
VERTEX
  5
39FF
  8
L1
 10
65.01225020715458
 20
36.537048032038172
 30
0.0
  0
VERTEX
  5
3A00
  8
L1
 10
65.012304130874895
 20
36.517100759268111
 30
0.0
  0
SEQEND
  5
3A01
  8
L1
  0
ARC
  5
2C95
  8
L1
 10
56.749999999965667
 20
31.74999999999994
 30
0.0
 40
4.9551339946734032
 50
357.46873820670879
 51
23.013616072392541
  0
LINE
  5
2C96
  8
L1
 10
61.310764651756919
 20
33.687208996504751
 30
0.0
 11
61.659302189657183
 21
34.035746534404979
 31
0.0
  0
POLYLINE
  5
2C97
  8
L1
 66
     1
 10
0.0
 20
0.0
 30
0.0
  0
VERTEX
  5
3A02
  8
L1
 10
61.659302189657183
 20
34.03574653440495
 30
0.0
  0
VERTEX
  5
3A03
  8
L1
 10
61.747342135584631
 20
34.124081047125678
 30
0.0
  0
VERTEX
  5
3A04
  8
L1
 10
61.820028178980351
 20
34.197587405171902
 30
0.0
  0
VERTEX
  5
3A05
  8
L1
 10
61.867206661973569
 20
34.24596595015776
 30
0.0
  0
VERTEX
  5
3A06
  8
L1
 10
61.883099641717877
 20
34.263214172935108
 30
0.0
  0
SEQEND
  5
3A07
  8
L1
  0
POLYLINE
  5
2C98
  8
L1
 66
     1
 10
0.0
 20
0.0
 30
0.0
  0
VERTEX
  5
3A08
  8
L1
 10
61.883099641717877
 20
34.263214172935072
 30
0.0
  0
VERTEX
  5
3A09
  8
L1
 10
61.901529179253487
 20
34.376706762295008
 30
0.0
  0
SEQEND
  5
3A0A
  8
L1
  0
POLYLINE
  5
2C99
  8
L1
 66
     1
 10
0.0
 20
0.0
 30
0.0
  0
VERTEX
  5
3A0B
  8
L1
 10
59.37670676226071
 20
36.901529179287728
 30
0.0
  0
VERTEX
  5
3A0C
  8
L1
 10
59.263214172900803
 20
36.883099641752153
 30
0.0
  0
SEQEND
  5
3A0D
  8
L1
  0
POLYLINE
  5
2C9A
  8
L1
 66
     1
 10
0.0
 20
0.0
 30
0.0
  0
VERTEX
  5
3A0E
  8
L1
 10
61.517100759233813
 20
40.012304130909143
 30
0.0
  0
VERTEX
  5
3A0F
  8
L1
 10
61.537048032003902
 20
40.012250207188828
 30
0.0
  0
VERTEX
  5
3A10
  8
L1
 10
61.556999999965633
 20
40.012088437774047
 30
0.0
  0
SEQEND
  5
3A11
  8
L1
  0
ENDBLK
  5
2BF0
  8
0
  0
BLOCK
  8
0
  2
S2
 70
     0
 10
0.0
 20
0.0
 30
0.0
  3
S2
  1

  0
LINE
  5
2C9F
  8
L1
 10
-63.665886064713327
 20
-30.69868021777463
 30
0.0
 11
-65.012304130943505
 21
-5.0074930572104668
 31
0.0
  0
LINE
  5
2CA0
  8
L1
 10
63.665886064644667
 20
-30.69868021777463
 30
0.0
 11
65.012304130874824
 21
-5.0074930572104668
 31
0.0
  0
LINE
  5
2CA1
  8
L6
 10
0.0
 20
-84.025992826309917
 30
0.0
 11
0.0
 21
0.0
 31
0.0
  0
LINE
  5
2CA2
  8
L2
 10
-44.764956308518599
 20
-77.266501267755373
 30
0.0
 11
-47.310847820611109
 21
-28.687997333390928
 31
0.0
  0
LINE
  5
2CA3
  8
L2
 10
44.764956308518599
 20
-77.266501267755373
 30
0.0
 11
47.310847820611109
 21
-28.687997333390928
 31
0.0
  0
LINE
  5
2CA4
  8
L1
 10
-63.466160157762431
 20
-30.88821302652596
 30
0.0
 11
63.245745984379759
 21
-30.88821302652596
 31
0.0
  0
LINE
  5
2CA5
  8
L1
 10
58.423664106884758
 20
-80.888213026526074
 30
0.0
 11
-58.423664106953368
 21
-80.888213026525946
 31
0.0
  0
LINE
  5
2CA6
  8
L2
 10
43.267012006386778
 20
-78.687997333390939
 30
0.0
 11
-43.267012006386778
 21
-78.687997333390939
 31
0.0
  0
LINE
  5
2CA7
  8
L1
 10
-60.540858817318501
 20
-78.879070265553338
 30
0.0
 11
60.540858817249841
 21
-78.879070265553338
 31
0.0
  0
LINE
  5
2CA8
  8
L2
 10
45.012088437808302
 20
-80.387997333390985
 30
0.0
 11
-45.012088437808643
 21
-80.387997333390928
 31
0.0
  0
LINE
  5
2CA9
  8
L1
 10
-46.434905746247459
 20
-78.879070265553395
 30
0.0
 11
-44.317711035882319
 21
-80.888213026526017
 31
0.0
  0
LINE
  5
2CAA
  8
L1
 10
-60.540858817318501
 20
-78.879070265553338
 30
0.0
 11
-58.423664106953368
 21
-80.888213026525946
 31
0.0
  0
LINE
  5
2CAB
  8
L2
 10
-45.012088437808579
 20
-80.887997333390913
 30
0.0
 11
-45.012088437808643
 21
-80.387997333390928
 31
0.0
  0
LINE
  5
2CAC
  8
L1
 10
-60.540858817318501
 20
-78.879070265553338
 30
0.0
 11
-63.046020077497467
 21
-31.077745835277511
 31
0.0
  0
LINE
  5
2CAD
  8
L1
 10
-46.434905746247459
 20
-78.879070265553395
 30
0.0
 11
-48.940067006426382
 21
-31.077745835277391
 31
0.0
  0
ARC
  5
2CAE
  8
L2
 10
-43.267012006386722
 20
-77.187997333390939
 30
0.0
 40
1.5
 50
182.99999999999989
 51
270.0
  0
ARC
  5
2CAF
  8
L1
 10
-63.466160157762431
 20
-30.688213026526029
 30
0.0
 40
0.1999999999999879
 50
183.00000000000071
 51
270.0
  0
ARC
  5
2CB0
  8
L1
 10
-63.24574598444832
 20
-31.088213026525999
 30
0.0
 40
0.1999999999999993
 50
3.0000000000007159
 51
90.0
  0
ARC
  5
2CB1
  8
L1
 10
-49.139792913377278
 20
-31.088213026525999
 30
0.0
 40
0.1999999999999957
 50
2.9999999999999032
 51
90.0
  0
LINE
  5
2CB2
  8
L1
 10
60.540858817249841
 20
-78.879070265553338
 30
0.0
 11
58.423664106884758
 21
-80.888213026526074
 31
0.0
  0
LINE
  5
2CB3
  8
L1
 10
46.434905746178849
 20
-78.879070265553395
 30
0.0
 11
44.317711035813772
 21
-80.888213026526131
 31
0.0
  0
LINE
  5
2CB4
  8
L2
 10
45.012088437808409
 20
-80.887997333390985
 30
0.0
 11
45.012088437808302
 21
-80.387997333390985
 31
0.0
  0
ARC
  5
2CB5
  8
L2
 10
43.267012006386722
 20
-77.187997333390996
 30
0.0
 40
1.5
 50
270.0
 51
357.0
  0
LINE
  5
2CB6
  8
L1
 10
60.540858817249841
 20
-78.879070265553338
 30
0.0
 11
63.046020077428807
 21
-31.077745835277511
 31
0.0
  0
LINE
  5
2CB7
  8
L1
 10
46.434905746178849
 20
-78.879070265553395
 30
0.0
 11
48.940067006357701
 21
-31.077745835277391
 31
0.0
  0
ARC
  5
2CB8
  8
L1
 10
49.139792913308611
 20
-31.088213026525999
 30
0.0
 40
0.1999999999999957
 50
90.0
 51
177.0
  0
ARC
  5
2CB9
  8
L1
 10
63.245745984379653
 20
-31.088213026525999
 30
0.0
 40
0.1999999999999993
 50
90.0
 51
176.9999999999992
  0
ARC
  5
2CBA
  8
L1
 10
63.466160157693757
 20
-30.688213026526029
 30
0.0
 40
0.1999999999999879
 50
270.0
 51
356.9999999999992
  0
LINE
  5
2CBB
  8
L1
 10
-62.950000000034258
 20
-3.2173628743867648
 30
0.0
 11
62.949999999965478
 21
-3.2173628743867648
 31
0.0
  0
LINE
  5
2CBC
  8
L1
 10
-65.012304130943505
 20
-5.0074930572104668
 30
0.0
 11
65.012304130874952
 21
-5.0074930572105814
 31
0.0
  0
LINE
  5
2CBD
  8
L1
 10
-64.293024100259061
 20
-4.2882130265260221
 30
0.0
 11
64.293024100190394
 21
-4.2882130265260221
 31
0.0
  0
LINE
  5
2CBE
  8
L2
 10
-47.949784306899339
 20
-4.2879973333909334
 30
0.0
 11
-47.310847820611109
 21
-28.687997333390928
 31
0.0
  0
LINE
  5
2CBF
  8
L1
 10
-65.012088437808416
 20
-5.007277364075378
 30
0.0
 11
-64.293024100259061
 21
-4.2882130265260221
 31
0.0
  0
POLYLINE
  5
2CC0
  8
L1
 66
     1
 10
0.0
 20
0.0
 30
0.0
  0
VERTEX
  5
3A13
  8
L1
 10
-65.012304130943505
 20
-5.0074930572104668
 30
0.0
  0
VERTEX
  5
3A14
  8
L1
 10
-65.01225020722319
 20
-5.007439133490152
 30
0.0
  0
VERTEX
  5
3A15
  8
L1
 10
-65.012088437808416
 20
-5.007277364075378
 30
0.0
  0
SEQEND
  5
3A16
  8
L1
  0
ARC
  5
2CC1
  8
L1
 10
-62.950000000034258
 20
-3.5882130265260339
 30
0.0
 40
0.3708501521392529
 50
90.0
 51
169.99999999999969
  0
LINE
  5
2CC2
  8
L1
 10
-63.315216105066781
 20
-3.5238155734195402
 30
0.0
 11
-63.449437521098048
 21
-4.285023049961068
 31
0.0
  0
LINE
  5
2CC3
  8
L1
 10
65.012088437739749
 20
-5.007277364075378
 30
0.0
 11
64.293024100190394
 21
-4.2882130265260221
 31
0.0
  0
LINE
  5
2CC4
  8
L2
 10
47.949784306899339
 20
-4.2879973333909334
 30
0.0
 11
47.310847820611109
 21
-28.687997333390928
 31
0.0
  0
POLYLINE
  5
2CC5
  8
L1
 66
     1
 10
0.0
 20
0.0
 30
0.0
  0
VERTEX
  5
3A17
  8
L1
 10
65.012304130874824
 20
-5.0074930572104668
 30
0.0
  0
VERTEX
  5
3A18
  8
L1
 10
65.012250207154523
 20
-5.007439133490152
 30
0.0
  0
VERTEX
  5
3A19
  8
L1
 10
65.012088437739749
 20
-5.007277364075378
 30
0.0
  0
SEQEND
  5
3A1A
  8
L1
  0
ARC
  5
2CC6
  8
L1
 10
62.949999999965598
 20
-3.5882130265260339
 30
0.0
 40
0.3708501521392529
 50
10.00000000000021
 51
90.0
  0
LINE
  5
2CC7
  8
L1
 10
63.315216104998107
 20
-3.5238155734195402
 30
0.0
 11
63.449437521029381
 21
-4.285023049961068
 31
0.0
  0
ENDBLK
  5
2C9E
  8
0
  0
BLOCK
  8
0
  2
S3
 70
     0
 10
0.0
 20
0.0
 30
0.0
  3
S3
  1

  0
LINE
  5
2CCC
  8
L1
 10
3.5765172207672999
 20
-37.950215693134901
 30
0.0
 11
3.5765172207672999
 21
37.950215693134901
 31
0.0
  0
LINE
  5
2CCD
  8
L1
 10
4.6471516797711274
 20
39.293024100224578
 30
0.0
 11
4.6471516797714676
 21
-39.293024100224613
 31
0.0
  0
LINE
  5
2CCE
  8
L2
 10
79.047151679771446
 20
18.267227699487531
 30
0.0
 11
79.047151679771446
 21
-18.267227699487361
 31
0.0
  0
LINE
  5
2CCF
  8
L1
 10
31.247151679771491
 20
-38.466160157727977
 30
0.0
 11
31.247151679771491
 21
24.139792913343111
 31
0.0
  0
LINE
  5
2CD0
  8
L1
 10
81.247151679771477
 20
-33.424107093193079
 30
0.0
 11
81.247151679771477
 21
19.45401455083995
 31
0.0
  0
LINE
  5
2CD1
  8
L1
 10
81.247151679771477
 20
33.424107093193129
 30
0.0
 11
81.247151679771477
 21
-19.454014550839901
 31
0.0
  0
LINE
  5
2CD2
  8
L1
 10
5.3664317104559132
 20
-40.01230413090903
 30
0.0
 11
5.3664317104559132
 21
40.012304130909371
 31
0.0
  0
LINE
  5
2CD3
  8
L1
 10
79.238224611933902
 20
35.541074510419179
 30
0.0
 11
79.238224611933902
 21
-35.541074510419122
 31
0.0
  0
LINE
  5
2CD4
  8
L2
 10
80.747151679771491
 20
20.01230413090925
 30
0.0
 11
80.747151679771363
 21
-18.267227699487361
 31
0.0
  0
LINE
  5
2CD5
  8
L2
 10
77.625655614135894
 20
-19.765172001619192
 30
0.0
 11
29.047151679771439
 21
-22.31106351371173
 31
0.0
  0
LINE
  5
2CD6
  8
L1
 10
79.238224611933902
 20
-35.541074510419122
 30
0.0
 11
31.436900181658071
 21
-38.046235770598088
 31
0.0
  0
LINE
  5
2CD7
  8
L1
 10
79.238224611933902
 20
-21.43512143934807
 30
0.0
 11
31.436900181657961
 21
-23.940282699526978
 31
0.0
  0
LINE
  5
2CD8
  8
L1
 10
5.3664317104559132
 20
-40.012304130909051
 30
0.0
 11
31.05761887102005
 21
-38.665886064678887
 31
0.0
  0
LINE
  5
2CD9
  8
L2
 10
4.6473673729065013
 20
-37.450215693134901
 30
0.0
 11
3.8829699197999612
 21
-37.584999588102391
 31
0.0
  0
LINE
  5
2CDA
  8
L1
 10
3.8829699198000749
 20
-38.315431798167417
 30
0.0
 11
4.6441773963416031
 21
-38.44965321419869
 31
0.0
  0
ARC
  5
2CDB
  8
L2
 10
3.9473673729064549
 20
-37.950215693134901
 30
0.0
 40
0.3708501521392529
 50
100.00000000000171
 51
180.0
  0
ARC
  5
2CDC
  8
L1
 10
3.947367372906569
 20
-37.950215693134901
 30
0.0
 40
0.3708501521392529
 50
180.0
 51
259.99999999999812
  0
LINE
  5
2CDD
  8
L1
 10
4.6471516797714676
 20
-39.293024100224613
 30
0.0
 11
5.3664317104559132
 21
-40.01230413090903
 31
0.0
  0
LINE
  5
2CDE
  8
L2
 10
4.6471516797714676
 20
-22.9499999999999
 30
0.0
 11
29.047151679771439
 21
-22.31106351371173
 31
0.0
  0
ARC
  5
2CDF
  8
L1
 10
31.047151679771439
 20
-38.466160157727977
 30
0.0
 40
0.2
 50
272.99999999999909
 51
0.0
  0
ARC
  5
2CE0
  8
L1
 10
31.44715167977153
 20
-38.245972981547247
 30
0.0
 40
0.2
 50
92.999999999999105
 51
179.99999999999179
  0
POLYLINE
  5
2CE1
  8
L1
 66
     1
 10
0.0
 20
0.0
 30
0.0
  0
VERTEX
  5
3A1C
  8
L1
 10
31.247151679771491
 20
-24.111630797005091
 30
0.0
  0
VERTEX
  5
3A1D
  8
L1
 10
31.247151679771491
 20
-24.132741097906091
 30
0.0
  0
VERTEX
  5
3A1E
  8
L1
 10
31.247151679771491
 20
-24.139792913342848
 30
0.0
  0
SEQEND
  5
3A1F
  8
L1
  0
ARC
  5
2CE2
  8
L1
 10
31.447151679771419
 20
-24.139792913342831
 30
0.0
 40
0.2
 50
92.999999999999105
 51
180.0
  0
POLYLINE
  5
2CE3
  8
L1
 66
     1
 10
0.0
 20
0.0
 30
0.0
  0
VERTEX
  5
3A20
  8
L1
 10
31.247151679771491
 20
-24.111630797005319
 30
0.0
  0
VERTEX
  5
3A21
  8
L1
 10
31.247151679771491
 20
-24.132741097906319
 30
0.0
  0
VERTEX
  5
3A22
  8
L1
 10
31.247151679771491
 20
-24.139792913343079
 30
0.0
  0
SEQEND
  5
3A23
  8
L1
  0
LINE
  5
2CE4
  8
L1
 10
81.247151679771477
 20
-33.424107093193079
 30
0.0
 11
79.238224611933902
 21
-35.541074510419122
 31
0.0
  0
ARC
  5
2CE5
  8
L2
 10
77.547151679771446
 20
-18.267227699487361
 30
0.0
 40
1.5
 50
272.99999999999909
 51
0.0
  0
LINE
  5
2CE6
  8
L1
 10
79.238224611933902
 20
-19.437862369838939
 30
0.0
 11
79.238224611933902
 21
-15.19524427279512
 31
0.0
  0
LINE
  5
2CE7
  8
L2
 10
81.247151679771378
 20
-20.0123041309092
 30
0.0
 11
80.747151679771363
 21
-20.01230413090931
 31
0.0
  0
LINE
  5
2CE8
  8
L1
 10
81.247151679771477
 20
-19.31815402212203
 30
0.0
 11
79.238224611933902
 21
-21.43512143934807
 31
0.0
  0
LINE
  5
2CE9
  8
L2
 10
29.047151679771439
 20
22.31106351371189
 30
0.0
 11
77.625655614135894
 21
19.765172001619359
 31
0.0
  0
LINE
  5
2CEA
  8
L6
 10
84.048690364178583
 20
0.0000000000000284
 30
0.0
 11
0.0
 21
0.0
 31
0.0
  0
LINE
  5
2CEB
  8
L1
 10
79.238224611933902
 20
35.541074510419179
 30
0.0
 11
31.436684488522928
 21
38.046247074596408
 31
0.0
  0
LINE
  5
2CEC
  8
L1
 10
79.238224611933902
 20
21.435121439348109
 30
0.0
 11
31.436900181657961
 21
23.940282699527039
 31
0.0
  0
LINE
  5
2CED
  8
L1
 10
5.3664317104559132
 20
40.012304130909342
 30
0.0
 11
31.05761887102005
 21
38.665886064679171
 31
0.0
  0
LINE
  5
2CEE
  8
L2
 10
4.6471516797714676
 20
22.950000000000191
 30
0.0
 11
29.047151679771439
 21
22.311063513712011
 31
0.0
  0
LINE
  5
2CEF
  8
L2
 10
4.6473673729065013
 20
37.450215693134901
 30
0.0
 11
3.8829699197999612
 21
37.584999588102391
 31
0.0
  0
LINE
  5
2CF0
  8
L1
 10
3.8829699198000749
 20
38.315431798167417
 30
0.0
 11
4.6441773963416031
 21
38.44965321419869
 31
0.0
  0
ARC
  5
2CF1
  8
L2
 10
3.9473673729064549
 20
37.950215693134901
 30
0.0
 40
0.3708501521392529
 50
180.0
 51
259.99999999999812
  0
ARC
  5
2CF2
  8
L1
 10
3.947367372906569
 20
37.950215693134901
 30
0.0
 40
0.3708501521392529
 50
100.00000000000171
 51
180.0
  0
LINE
  5
2CF3
  8
L1
 10
4.6471516797714676
 20
39.293024100224898
 30
0.0
 11
5.3664317104559132
 21
40.012304130909307
 31
0.0
  0
LINE
  5
2CF4
  8
L1
 10
31.247151679771491
 20
38.466160157728268
 30
0.0
 11
31.247151679773371
 21
24.139792913343079
 31
0.0
  0
POLYLINE
  5
2CF5
  8
L1
 66
     1
 10
0.0
 20
0.0
 30
0.0
  0
VERTEX
  5
3A24
  8
L1
 10
31.247151679771491
 20
24.111630797005368
 30
0.0
  0
VERTEX
  5
3A25
  8
L1
 10
31.247151679771491
 20
24.132741097906369
 30
0.0
  0
VERTEX
  5
3A26
  8
L1
 10
31.247151679771491
 20
24.13979291334314
 30
0.0
  0
SEQEND
  5
3A27
  8
L1
  0
ARC
  5
2CF6
  8
L1
 10
31.447151679771419
 20
24.139792913343111
 30
0.0
 40
0.2
 50
180.0
 51
267.00000000000091
  0
ARC
  5
2CF7
  8
L1
 10
31.047151679771439
 20
38.466160157728268
 30
0.0
 40
0.2
 50
0.0
 51
87.000000000000909
  0
ARC
  5
2CF8
  8
L1
 10
31.44715167977153
 20
38.245972981547311
 30
0.0
 40
0.2
 50
180.0000000000081
 51
267.00000000000091
  0
ARC
  5
2CF9
  8
L1
 10
31.047151679771559
 20
38.245972981547247
 30
0.0
 40
0.2
 50
0.0000000000081422
 51
0.0000000000081422
  0
ARC
  5
2CFA
  8
L2
 10
77.547151679771446
 20
18.267227699487531
 30
0.0
 40
1.5
 50
0.0
 51
87.000000000000909
  0
LINE
  5
2CFB
  8
L2
 10
81.247151679771477
 20
20.012304130909371
 30
0.0
 11
80.747151679771491
 21
20.01230413090925
 31
0.0
  0
LINE
  5
2CFC
  8
L1
 10
81.247151679771477
 20
19.318154022122059
 30
0.0
 11
79.238224611933902
 21
21.435121439348109
 31
0.0
  0
LINE
  5
2CFD
  8
L1
 10
81.247151679771477
 20
33.424107093193129
 30
0.0
 11
79.238224611933902
 21
35.541074510419179
 31
0.0
  0
ENDBLK
  5
2CCB
  8
0
  0
BLOCK
  8
0
  2
S4
 70
     0
 10
0.0
 20
0.0
 30
0.0
  3
S4
  1

  0
LINE
  5
2D02
  8
L2
 10
44.764956308518599
 20
77.266501267755373
 30
0.0
 11
47.310847820611109
 21
28.687997333390928
 31
0.0
  0
LINE
  5
2D03
  8
L2
 10
-44.764956308518599
 20
77.266501267755373
 30
0.0
 11
-47.310847820611109
 21
28.687997333390928
 31
0.0
  0
LINE
  5
2D04
  8
L6
 10
0.0
 20
84.025992826309917
 30
0.0
 11
0.0
 21
0.0
 31
0.0
  0
LINE
  5
2D05
  8
L1
 10
63.665886064644667
 20
30.69868021777463
 30
0.0
 11
65.012304130874824
 21
5.0074930572104668
 31
0.0
  0
LINE
  5
2D06
  8
L1
 10
-63.665886064713327
 20
30.69868021777463
 30
0.0
 11
-65.012304130943505
 21
5.0074930572104668
 31
0.0
  0
LINE
  5
2D07
  8
L1
 10
-64.293024100259061
 20
4.2882130265260221
 30
0.0
 11
64.293024100190394
 21
4.2882130265260221
 31
0.0
  0
LINE
  5
2D08
  8
L1
 10
-65.012304130943505
 20
5.0074930572104668
 30
0.0
 11
65.012304130874952
 21
5.0074930572105814
 31
0.0
  0
LINE
  5
2D09
  8
L1
 10
-62.950000000034258
 20
3.2173628743867648
 30
0.0
 11
62.949999999965478
 21
3.2173628743867648
 31
0.0
  0
LINE
  5
2D0A
  8
L1
 10
-63.315216105066781
 20
3.5238155734195402
 30
0.0
 11
-63.449437521098048
 21
4.285023049961068
 31
0.0
  0
ARC
  5
2D0B
  8
L1
 10
-62.950000000034258
 20
3.5882130265260339
 30
0.0
 40
0.3708501521392529
 50
190.0000000000002
 51
270.0
  0
LINE
  5
2D0C
  8
L1
 10
-65.012088437808416
 20
5.007277364075378
 30
0.0
 11
-64.293024100259061
 21
4.2882130265260221
 31
0.0
  0
POLYLINE
  5
2D0D
  8
L1
 66
     1
 10
0.0
 20
0.0
 30
0.0
  0
VERTEX
  5
3A29
  8
L1
 10
-65.012304130943505
 20
5.0074930572104668
 30
0.0
  0
VERTEX
  5
3A2A
  8
L1
 10
-65.01225020722319
 20
5.007439133490152
 30
0.0
  0
VERTEX
  5
3A2B
  8
L1
 10
-65.012088437808416
 20
5.007277364075378
 30
0.0
  0
SEQEND
  5
3A2C
  8
L1
  0
LINE
  5
2D0E
  8
L2
 10
-47.949784306899339
 20
4.2879973333909334
 30
0.0
 11
-47.310847820611109
 21
28.687997333390928
 31
0.0
  0
LINE
  5
2D0F
  8
L1
 10
63.315216104998107
 20
3.5238155734195402
 30
0.0
 11
63.449437521029381
 21
4.285023049961068
 31
0.0
  0
ARC
  5
2D10
  8
L1
 10
62.949999999965598
 20
3.5882130265260339
 30
0.0
 40
0.3708501521392529
 50
270.0
 51
349.99999999999977
  0
LINE
  5
2D11
  8
L2
 10
47.949784306899339
 20
4.2879973333909334
 30
0.0
 11
47.310847820611109
 21
28.687997333390928
 31
0.0
  0
LINE
  5
2D12
  8
L1
 10
65.012088437739749
 20
5.007277364075378
 30
0.0
 11
64.293024100190394
 21
4.2882130265260221
 31
0.0
  0
POLYLINE
  5
2D13
  8
L1
 66
     1
 10
0.0
 20
0.0
 30
0.0
  0
VERTEX
  5
3A2D
  8
L1
 10
65.012304130874824
 20
5.0074930572104668
 30
0.0
  0
VERTEX
  5
3A2E
  8
L1
 10
65.012250207154523
 20
5.007439133490152
 30
0.0
  0
VERTEX
  5
3A2F
  8
L1
 10
65.012088437739749
 20
5.007277364075378
 30
0.0
  0
SEQEND
  5
3A30
  8
L1
  0
LINE
  5
2D14
  8
L2
 10
45.012088437808302
 20
80.387997333390985
 30
0.0
 11
-45.012088437808643
 21
80.387997333390928
 31
0.0
  0
LINE
  5
2D15
  8
L1
 10
-60.540858817318501
 20
78.879070265553338
 30
0.0
 11
60.540858817249841
 21
78.879070265553338
 31
0.0
  0
LINE
  5
2D16
  8
L2
 10
43.267012006386778
 20
78.687997333390939
 30
0.0
 11
-43.267012006386778
 21
78.687997333390939
 31
0.0
  0
LINE
  5
2D17
  8
L1
 10
58.423664106884758
 20
80.888213026526074
 30
0.0
 11
-58.423664106953368
 21
80.888213026525946
 31
0.0
  0
LINE
  5
2D18
  8
L1
 10
-63.466160157762431
 20
30.88821302652596
 30
0.0
 11
63.245745984379759
 21
30.88821302652596
 31
0.0
  0
ARC
  5
2D19
  8
L2
 10
-43.267012006386722
 20
77.187997333390939
 30
0.0
 40
1.5
 50
90.0
 51
176.9999999999992
  0
LINE
  5
2D1A
  8
L1
 10
-46.434905746247459
 20
78.879070265553395
 30
0.0
 11
-48.940067006426382
 21
31.077745835277391
 31
0.0
  0
LINE
  5
2D1B
  8
L1
 10
-60.540858817318501
 20
78.879070265553338
 30
0.0
 11
-63.046020077497467
 21
31.077745835277511
 31
0.0
  0
ARC
  5
2D1C
  8
L1
 10
-63.24574598444832
 20
31.088213026525999
 30
0.0
 40
0.1999999999999993
 50
270.0
 51
356.9999999999992
  0
ARC
  5
2D1D
  8
L1
 10
-63.466160157762431
 20
30.688213026526029
 30
0.0
 40
0.1999999999999879
 50
90.0
 51
176.9999999999992
  0
ARC
  5
2D1E
  8
L1
 10
-49.139792913377278
 20
31.088213026525999
 30
0.0
 40
0.1999999999999957
 50
270.0
 51
357.00000000000091
  0
LINE
  5
2D1F
  8
L1
 10
-60.540858817318501
 20
78.879070265553338
 30
0.0
 11
-58.423664106953368
 21
80.888213026525946
 31
0.0
  0
LINE
  5
2D20
  8
L2
 10
-45.012088437808579
 20
80.887997333390913
 30
0.0
 11
-45.012088437808643
 21
80.387997333390928
 31
0.0
  0
LINE
  5
2D21
  8
L1
 10
-46.434905746247459
 20
78.879070265553395
 30
0.0
 11
-44.317711035882319
 21
80.888213026526017
 31
0.0
  0
ARC
  5
2D22
  8
L2
 10
43.267012006386722
 20
77.187997333390996
 30
0.0
 40
1.5
 50
3.0000000000007159
 51
90.0
  0
LINE
  5
2D23
  8
L1
 10
46.434905746178849
 20
78.879070265553395
 30
0.0
 11
48.940067006357701
 21
31.077745835277391
 31
0.0
  0
LINE
  5
2D24
  8
L1
 10
60.540858817249841
 20
78.879070265553338
 30
0.0
 11
63.046020077428807
 21
31.077745835277511
 31
0.0
  0
ARC
  5
2D25
  8
L1
 10
49.139792913308611
 20
31.088213026525999
 30
0.0
 40
0.1999999999999957
 50
182.99999999999909
 51
270.0
  0
ARC
  5
2D26
  8
L1
 10
63.466160157693757
 20
30.688213026526029
 30
0.0
 40
0.1999999999999879
 50
3.0000000000007159
 51
90.0
  0
ARC
  5
2D27
  8
L1
 10
63.245745984379653
 20
31.088213026525999
 30
0.0
 40
0.1999999999999993
 50
183.00000000000071
 51
270.0
  0
LINE
  5
2D28
  8
L1
 10
46.434905746178849
 20
78.879070265553395
 30
0.0
 11
44.317711035813772
 21
80.888213026526131
 31
0.0
  0
LINE
  5
2D29
  8
L2
 10
45.012088437808409
 20
80.887997333390985
 30
0.0
 11
45.012088437808302
 21
80.387997333390985
 31
0.0
  0
LINE
  5
2D2A
  8
L1
 10
60.540858817249841
 20
78.879070265553338
 30
0.0
 11
58.423664106884758
 21
80.888213026526074
 31
0.0
  0
ENDBLK
  5
2D01
  8
0
  0
ENDSEC
  0
SECTION
  2
ENTITIES
  0
INSERT
  5
2BB7
  8
L1
  2
B
 10
71.348410806428319
 20
158.7323528430378
 30
0.0
  0
INSERT
  5
2BED
  8
L1
  2
S1
 10
163.909183788066
 20
158.7323528430378
 30
0.0
  0
INSERT
  5
2C9B
  8
L1
  2
T
 10
346.82218392774001
 20
158.73235284303789
 30
0.0
  0
INSERT
  5
2CC8
  8
L1
  2
S2
 10
346.82218392774001
 20
88.913855058404891
 30
0.0
  0
INSERT
  5
2CFE
  8
L1
  2
S3
 10
445.68649370323561
 20
158.7323528430378
 30
0.0
  0
INSERT
  5
2D2B
  8
L1
  2
S4
 10
346.82218392774001
 20
228.55085062767071
 30
0.0
  0
ENDSEC
  0
EOF
