  0
SECTION
  2
HEADER
  9
$ACADVER
  1
AC1009
  9
$INSBASE
 10
0.0
 20
0.0
 30
0.0
  9
$EXTMIN
 10
111.36582090991141
 20
1.2430351773631401
 30
-0.0000000000112498
  9
$EXTMAX
 10
467.85336697135631
 20
282.84646254869841
 30
0.0000000000002956
  9
$LIMMIN
 10
0.0
 20
0.0
  9
$LIMMAX
 10
571.84598788675544
 20
282.45921431323222
  9
$ORTHOMODE
 70
     1
  9
$REGENMODE
 70
     1
  9
$FILLMODE
 70
     1
  9
$QTEXTMODE
 70
     0
  9
$MIRRTEXT
 70
     1
  9
$DRAGMODE
 70
     2
  9
$LTSCALE
 40
15.0
  9
$OSMODE
 70
     5
  9
$ATTMODE
 70
     1
  9
$TEXTSIZE
 40
3.5
  9
$TRACEWID
 40
1.0
  9
$TEXTSTYLE
  7
SIMPLEX
  9
$CLAYER
  8
L1
  9
$CELTYPE
  6
BYLAYER
  9
$CECOLOR
 62
   256
  9
$DIMSCALE
 40
1.0
  9
$DIMASZ
 40
3.5
  9
$DIMEXO
 40
0.0625
  9
$DIMDLI
 40
0.38
  9
$DIMRND
 40
0.0
  9
$DIMDLE
 40
0.0
  9
$DIMEXE
 40
0.18
  9
$DIMTP
 40
0.0
  9
$DIMTM
 40
0.0
  9
$DIMTXT
 40
3.5
  9
$DIMCEN
 40
1.0
  9
$DIMTSZ
 40
0.0
  9
$DIMTOL
 70
     0
  9
$DIMLIM
 70
     0
  9
$DIMTIH
 70
     0
  9
$DIMTOH
 70
     0
  9
$DIMSE1
 70
     0
  9
$DIMSE2
 70
     0
  9
$DIMTAD
 70
     1
  9
$DIMZIN
 70
     8
  9
$DIMBLK
  1

  9
$DIMASO
 70
     1
  9
$DIMSHO
 70
     1
  9
$DIMPOST
  1

  9
$DIMAPOST
  1

  9
$DIMALT
 70
     0
  9
$DIMALTD
 70
     2
  9
$DIMALTF
 40
25.399999999999999
  9
$DIMLFAC
 40
1.0
  9
$DIMTOFL
 70
     0
  9
$DIMTVP
 40
0.0
  9
$DIMTIX
 70
     0
  9
$DIMSOXD
 70
     0
  9
$DIMSAH
 70
     0
  9
$DIMBLK1
  1

  9
$DIMBLK2
  1

  9
$DIMSTYLE
  2
FIBOX
  9
$DIMCLRD
 70
     1
  9
$DIMCLRE
 70
     1
  9
$DIMCLRT
 70
     3
  9
$DIMTFAC
 40
1.0
  9
$DIMGAP
 40
0.8
  9
$LUNITS
 70
     2
  9
$LUPREC
 70
     4
  9
$SKETCHINC
 40
1.0
  9
$FILLETRAD
 40
0.0
  9
$AUNITS
 70
     0
  9
$AUPREC
 70
     0
  9
$MENU
  1
.
  9
$ELEVATION
 40
0.0
  9
$PELEVATION
 40
0.0
  9
$THICKNESS
 40
0.0
  9
$LIMCHECK
 70
     0
  9
$BLIPMODE
 70
     0
  9
$CHAMFERA
 40
10.0
  9
$CHAMFERB
 40
10.0
  9
$SKPOLY
 70
     0
  9
$TDCREATE
 40
2450458.5830949759
  9
$TDUPDATE
 40
2452502.526870972
  9
$TDINDWG
 40
0.6834179282
  9
$TDUSRTIMER
 40
0.6834179282
  9
$USRTIMER
 70
     1
  9
$ANGBASE
 50
0.0
  9
$ANGDIR
 70
     0
  9
$PDMODE
 70
     0
  9
$PDSIZE
 40
0.0
  9
$PLINEWID
 40
0.0
  9
$COORDS
 70
     2
  9
$SPLFRAME
 70
     0
  9
$SPLINETYPE
 70
     6
  9
$SPLINESEGS
 70
     8
  9
$ATTDIA
 70
     0
  9
$ATTREQ
 70
     1
  9
$HANDLING
 70
 22529
  9
$HANDSEED
  5
22FA
  9
$SURFTAB1
 70
     6
  9
$SURFTAB2
 70
     6
  9
$SURFTYPE
 70
     6
  9
$SURFU
 70
     6
  9
$SURFV
 70
     6
  9
$UCSNAME
  2

  9
$UCSORG
 10
0.0
 20
0.0
 30
0.0
  9
$UCSXDIR
 10
1.0
 20
0.0
 30
0.0
  9
$UCSYDIR
 10
0.0
 20
1.0
 30
0.0
  9
$PUCSNAME
  2

  9
$PUCSORG
 10
0.0
 20
0.0
 30
0.0
  9
$PUCSXDIR
 10
1.0
 20
0.0
 30
0.0
  9
$PUCSYDIR
 10
0.0
 20
1.0
 30
0.0
  9
$USERI1
 70
     0
  9
$USERI2
 70
     0
  9
$USERI3
 70
     0
  9
$USERI4
 70
     0
  9
$USERI5
 70
     0
  9
$USERR1
 40
0.0
  9
$USERR2
 40
0.0
  9
$USERR3
 40
0.0
  9
$USERR4
 40
0.0
  9
$USERR5
 40
0.0
  9
$WORLDVIEW
 70
     1
  9
$SHADEDGE
 70
     3
  9
$SHADEDIF
 70
    70
  9
$TILEMODE
 70
     1
  9
$MAXACTVP
 70
    16
  9
$PLIMCHECK
 70
     0
  9
$PEXTMIN
 10
-563.59530269305765
 20
-0.2105770487715972
 30
0.0
  9
$PEXTMAX
 10
30.404697306942349
 20
419.7894229512284
 30
0.0
  9
$PLIMMIN
 10
0.0
 20
0.0
  9
$PLIMMAX
 10
420.0
 20
297.0
  9
$UNITMODE
 70
     0
  9
$VISRETAIN
 70
     0
  9
$PLINEGEN
 70
     0
  9
$PSLTSCALE
 70
     1
  0
ENDSEC
  0
SECTION
  2
TABLES
  0
TABLE
  2
VPORT
 70
     3
  0
VPORT
  2
*ACTIVE
 70
     0
 10
0.0
 20
0.0
 11
1.0
 21
1.0
 12
530.81132583859119
 22
-29.45562683679071
 13
0.0
 23
0.0
 14
10.0
 24
10.0
 15
10.0
 25
10.0
 16
0.0
 26
0.0
 36
1.0
 17
-241.20173189795719
 27
171.50037569982149
 37
-221.07012254811389
 40
283.70494548604671
 41
1.5205479452054791
 42
50.0
 43
0.0
 44
0.0
 50
0.0
 51
0.0
 71
     0
 72
   500
 73
     1
 74
     1
 75
     0
 76
     0
 77
     0
 78
     0
  0
ENDTAB
  0
TABLE
  2
LTYPE
 70
     3
  0
LTYPE
  2
CONTINUOUS
 70
     0
  3
Solid line
 72
    65
 73
     0
 40
0.0
  0
LTYPE
  2
HIDDEN
 70
     0
  3
__ __ __ __ __ __ __ __ __ __ __ __ __ __ __ __
 72
    65
 73
     2
 40
0.375
 49
0.25
 49
-0.125
  0
LTYPE
  2
CENTER
 70
     0
  3
____ _ ____ _ ____ _ ____ _ ____ _ ____ _ ____ 
 72
    65
 73
     4
 40
2.0
 49
1.25
 49
-0.25
 49
0.25
 49
-0.25
  0
ENDTAB
  0
TABLE
  2
LAYER
 70
     4
  0
LAYER
  2
0
 70
     0
 62
     7
  6
CONTINUOUS
  0
LAYER
  2
L2
 70
     0
 62
     1
  6
HIDDEN
  0
LAYER
  2
L1
 70
     0
 62
     7
  6
CONTINUOUS
  0
LAYER
  2
L6
 70
     0
 62
     1
  6
CENTER
  0
ENDTAB
  0
TABLE
  2
STYLE
 70
     2
  0
STYLE
  2
STANDARD
 70
     0
 40
0.0
 41
1.0
 50
0.0
 71
     0
 42
2.5
  3
ISOCP
  4

  0
STYLE
  2
SIMPLEX
 70
     0
 40
0.0
 41
0.8
 50
0.0
 71
     0
 42
3.5
  3
simplex.shx
  4

  0
ENDTAB
  0
TABLE
  2
VIEW
 70
     0
  0
ENDTAB
  0
TABLE
  2
UCS
 70
     0
  0
ENDTAB
  0
TABLE
  2
APPID
 70
     2
  0
APPID
  2
ACAD
 70
     0
  0
APPID
  2
CONTENTBLOCKICON
 70
     0
  0
ENDTAB
  0
TABLE
  2
DIMSTYLE
 70
     1
  0
DIMSTYLE
  2
FIBOX
 70
     0
  3

  4

  5

  6

  7

 40
1.0
 41
3.5
 42
0.0625
 43
0.38
 44
0.18
 45
0.0
 46
0.0
 47
0.0
 48
0.0
140
3.5
141
1.0
142
0.0
143
25.399999999999999
144
1.0
145
0.0
146
1.0
147
0.8
 71
     0
 72
     0
 73
     0
 74
     0
 75
     0
 76
     0
 77
     1
 78
     8
170
     0
171
     2
172
     0
173
     0
174
     0
175
     0
176
     1
177
     1
178
     3
  0
ENDTAB
  0
ENDSEC
  0
SECTION
  2
BLOCKS
  0
BLOCK
  8
0
  2
$MODEL_SPACE
 70
     0
 10
0.0
 20
0.0
 30
0.0
  3
$MODEL_SPACE
  1

  0
ENDBLK
  5
6
  8
0
  0
BLOCK
 67
     1
  8
0
  2
$PAPER_SPACE
 70
     0
 10
0.0
 20
0.0
 30
0.0
  3
$PAPER_SPACE
  1

  0
ENDBLK
  5
9
 67
     1
  8
0
  0
BLOCK
  8
0
  2
B
 70
     0
 10
0.0
 20
0.0
 30
0.0
  3
B
  1

  0
LINE
  5
1286
  8
L1
 10
38.510161617719177
 20
47.149999999999999
 30
0.0
 11
38.510161617719064
 21
-47.150000000000063
 31
0.0
  0
LINE
  5
1287
  8
L1
 10
37.210161617719109
 20
46.450514012536672
 30
0.0
 11
37.210161617719109
 21
-46.450514012536608
 31
0.0
  0
LINE
  5
1288
  8
L1
 10
39.25
 20
-61.498000000000019
 30
0.0
 11
39.25
 21
61.497999999999962
 31
0.0
  0
LINE
  5
1289
  8
L1
 10
40.01016161771917
 20
61.497999999999962
 30
0.0
 11
40.01016161771917
 21
-61.498000000000019
 31
0.0
  0
LINE
  5
128A
  8
L1
 10
-37.210161617719109
 20
46.450514012536672
 30
0.0
 11
-37.210161617719109
 21
-46.450514012536608
 31
0.0
  0
LINE
  5
128B
  8
L1
 10
-38.510161617719177
 20
47.149999999999999
 30
0.0
 11
-38.510161617719064
 21
-47.150000000000063
 31
0.0
  0
LINE
  5
128C
  8
L1
 10
-40.01016161771917
 20
61.497999999999962
 30
0.0
 11
-40.01016161771917
 21
-61.498000000000019
 31
0.0
  0
LINE
  5
128D
  8
L1
 10
-39.25
 20
-61.498000000000019
 30
0.0
 11
-39.25
 21
61.497999999999962
 31
0.0
  0
LINE
  5
128E
  8
L6
 10
0.0
 20
69.137434451255046
 30
0.0
 11
0.0
 21
-71.650370450405546
 31
0.0
  0
ARC
  5
128F
  8
L1
 10
35.210161617719223
 20
-47.149999999999949
 30
0.0
 40
3.2999999999999439
 50
270.0
 51
318.59010301923558
  0
POLYLINE
  5
1290
  8
L1
 66
     1
 10
0.0
 20
0.0
 30
0.0
  0
VERTEX
  5
1E14
  8
L1
 10
35.710675630255757
 20
-47.949999999999903
 30
0.0
  0
VERTEX
  5
1E15
  8
L1
 10
35.891456580594081
 20
-47.93906909359967
 30
0.0
  0
VERTEX
  5
1E16
  8
L1
 10
36.06958865385559
 20
-47.906435632759226
 30
0.0
  0
VERTEX
  5
1E17
  8
L1
 10
36.242476546331318
 20
-47.852575072237613
 30
0.0
  0
VERTEX
  5
1E18
  8
L1
 10
36.40760135965342
 20
-47.778272136031617
 30
0.0
  0
VERTEX
  5
1E19
  8
L1
 10
36.562557300005089
 20
-47.684609384302433
 30
0.0
  0
VERTEX
  5
1E1A
  8
L1
 10
36.705086729447309
 20
-47.572951440963458
 30
0.0
  0
VERTEX
  5
1E1B
  8
L1
 10
36.833113058682777
 20
-47.444925111728097
 30
0.0
  0
VERTEX
  5
1E1C
  8
L1
 10
36.944771002021518
 20
-47.302395682285891
 30
0.0
  0
VERTEX
  5
1E1D
  8
L1
 10
37.038433753750951
 20
-47.147439741934221
 30
0.0
  0
VERTEX
  5
1E1E
  8
L1
 10
37.112736689956819
 20
-46.982314928612048
 30
0.0
  0
VERTEX
  5
1E1F
  8
L1
 10
37.166597250478389
 20
-46.809427036136377
 30
0.0
  0
VERTEX
  5
1E20
  8
L1
 10
37.199230711318933
 20
-46.631294962874883
 30
0.0
  0
VERTEX
  5
1E21
  8
L1
 10
37.210161617719223
 20
-46.450514012536608
 30
0.0
  0
SEQEND
  5
1E22
  8
L1
  0
LINE
  5
1291
  8
L1
 10
31.999627077466808
 20
-51.73001193232605
 30
0.0
 11
36.769988067673921
 21
-56.500372922533217
 31
0.0
  0
ARC
  5
1292
  8
L1
 10
35.6101616177192
 20
-60.599999999999881
 30
0.0
 40
2.6000000000000001
 50
270.0
 51
0.0
  0
ARC
  5
1293
  8
L1
 10
31.75
 20
-56.749999999999908
 30
0.0
 40
5.0261806033722758
 50
267.26858442957263
 51
2.7314155704273748
  0
LINE
  5
1294
  8
L1
 10
36.548000000000002
 20
-64.199999999999903
 30
0.0
 11
-36.547999999999938
 21
-64.199999999999861
 31
0.0
  0
LINE
  5
1295
  8
L1
 10
-36.50327056558092
 20
-64.999999999999915
 30
0.0
 11
36.50327056558092
 21
-64.999999999999915
 31
0.0
  0
LINE
  5
1296
  8
L1
 10
-21.450514012536701
 20
-62.199999999999903
 30
0.0
 11
21.450514012536701
 21
-62.199999999999839
 31
0.0
  0
LINE
  5
1297
  8
L1
 10
-22.14999999999997
 20
-63.499999999999858
 30
0.0
 11
22.14999999999997
 21
-63.499999999999908
 31
0.0
  0
ARC
  5
1298
  8
L1
 10
-31.75
 20
-56.749999999999972
 30
0.0
 40
8.8000000000000114
 50
52.714526099403258
 51
90.0
  0
ARC
  5
1299
  8
L1
 10
-31.75
 20
-56.749999999999908
 30
0.0
 40
5.0261806033722758
 50
357.26858442957263
 51
92.731415570428993
  0
ARC
  5
129A
  8
L1
 10
-31.75
 20
-56.749999999999908
 30
0.0
 40
6.3000000000000487
 50
0.0
 51
90.0
  0
LINE
  5
129B
  8
L1
 10
-24.531163227339441
 20
-63.199999999999903
 30
0.0
 11
-35.6101616177192
 21
-63.199999999999903
 31
0.0
  0
LINE
  5
129C
  8
L1
 10
-31.500372922533298
 20
-61.769988067673779
 30
0.0
 11
-26.730011932326072
 21
-56.99962707746667
 31
0.0
  0
LINE
  5
129D
  8
L1
 10
-31.999627077466808
 20
-51.73001193232605
 30
0.0
 11
-36.769988067673921
 21
-56.500372922533217
 31
0.0
  0
LINE
  5
129E
  8
L1
 10
-38.210161617719223
 20
-60.599999999999881
 30
0.0
 11
-38.210161617719223
 21
-49.531163227339249
 31
0.0
  0
ARC
  5
129F
  8
L1
 10
-35.6101616177192
 20
-60.599999999999881
 30
0.0
 40
2.6000000000000001
 50
180.0
 51
270.0
  0
ARC
  5
12A0
  8
L1
 10
-31.75
 20
-56.749999999999908
 30
0.0
 40
5.0261806033722758
 50
177.2685844295726
 51
272.73141557042732
  0
ARC
  5
12A1
  8
L1
 10
-36.548000000000002
 20
-61.497999999999912
 30
0.0
 40
2.7019999999999542
 50
180.0
 51
270.00000000000159
  0
POLYLINE
  5
12A2
  8
L1
 66
     1
 10
0.0
 20
0.0
 30
0.0
  0
VERTEX
  5
1E23
  8
L1
 10
-36.548000000000002
 20
-64.999715144036799
 30
0.0
  0
VERTEX
  5
1E24
  8
L1
 10
-36.713403957788273
 20
-64.993676363898743
 30
0.0
  0
VERTEX
  5
1E25
  8
L1
 10
-36.880719508775421
 20
-64.979607624391946
 30
0.0
  0
VERTEX
  5
1E26
  8
L1
 10
-37.049131804196463
 20
-64.95730889066553
 30
0.0
  0
VERTEX
  5
1E27
  8
L1
 10
-37.217825995286603
 20
-64.926580127868959
 30
0.0
  0
VERTEX
  5
1E28
  8
L1
 10
-37.385999809509478
 20
-64.8872818835857
 30
0.0
  0
VERTEX
  5
1E29
  8
L1
 10
-37.552898436480739
 20
-64.839503332309064
 30
0.0
  0
VERTEX
  5
1E2A
  8
L1
 10
-37.71777822066133
 20
-64.783387379553659
 30
0.0
  0
VERTEX
  5
1E2B
  8
L1
 10
-37.87989550651286
 20
-64.719076930833779
 30
0.0
  0
VERTEX
  5
1E2C
  8
L1
 10
-38.038590392530288
 20
-64.646736529245999
 30
0.0
  0
VERTEX
  5
1E2D
  8
L1
 10
-38.193285629800812
 20
-64.566724944746255
 30
0.0
  0
VERTEX
  5
1E2E
  8
L1
 10
-38.343361541673062
 20
-64.479476423138436
 30
0.0
  0
VERTEX
  5
1E2F
  8
L1
 10
-38.488198451496139
 20
-64.385425210226202
 30
0.0
  0
VERTEX
  5
1E30
  8
L1
 10
-38.62720770388875
 20
-64.285050833458371
 30
0.0
  0
VERTEX
  5
1E31
  8
L1
 10
-38.759932841409068
 20
-64.179025778373131
 30
0.0
  0
VERTEX
  5
1E32
  8
L1
 10
-38.885952484315112
 20
-64.068073727908398
 30
0.0
  0
VERTEX
  5
1E33
  8
L1
 10
-39.004845252864243
 20
-63.952918365002382
 30
0.0
  0
VERTEX
  5
1E34
  8
L1
 10
-39.117348491510249
 20
-63.833084364057271
 30
0.0
  0
VERTEX
  5
1E35
  8
L1
 10
-39.22561627522532
 20
-63.706259846189788
 30
0.0
  0
VERTEX
  5
1E36
  8
L1
 10
-39.328933325002822
 20
-63.572871025228352
 30
0.0
  0
VERTEX
  5
1E37
  8
L1
 10
-39.426584361836149
 20
-63.43334411500134
 30
0.0
  0
VERTEX
  5
1E38
  8
L1
 10
-39.51790526578111
 20
-63.288139300247423
 30
0.0
  0
VERTEX
  5
1E39
  8
L1
 10
-39.60242529635115
 20
-63.137845170575453
 30
0.0
  0
VERTEX
  5
1E3A
  8
L1
 10
-39.67971924372511
 20
-62.983080547119101
 30
0.0
  0
VERTEX
  5
1E3B
  8
L1
 10
-39.749361898082149
 20
-62.824464251012188
 30
0.0
  0
VERTEX
  5
1E3C
  8
L1
 10
-39.811002404391729
 20
-62.662572087863822
 30
0.0
  0
VERTEX
  5
1E3D
  8
L1
 10
-39.864484322952421
 20
-62.498059544443521
 30
0.0
  0
VERTEX
  5
1E3E
  8
L1
 10
-39.909674066936532
 20
-62.331664963625002
 30
0.0
  0
VERTEX
  5
1E3F
  8
L1
 10
-39.946438049516019
 20
-62.16412668828238
 30
0.0
  0
VERTEX
  5
1E40
  8
L1
 10
-39.97462285845063
 20
-61.996708164626483
 30
0.0
  0
VERTEX
  5
1E41
  8
L1
 10
-39.994500932087362
 20
-61.829682713096041
 30
0.0
  0
VERTEX
  5
1E42
  8
L1
 10
-40.00627844929749
 20
-61.663847577088148
 30
0.0
  0
VERTEX
  5
1E43
  8
L1
 10
-40.010161588952201
 20
-61.499999999999908
 30
0.0
  0
SEQEND
  5
1E44
  8
L1
  0
POLYLINE
  5
12A3
  8
L1
 66
     1
 10
0.0
 20
0.0
 30
0.0
  0
VERTEX
  5
1E45
  8
L1
 10
-40.010161588952201
 20
-61.499999999999908
 30
0.0
  0
VERTEX
  5
1E46
  8
L1
 10
-40.01016161771917
 20
-61.497999999999912
 30
0.0
  0
SEQEND
  5
1E47
  8
L1
  0
POLYLINE
  5
12A4
  8
L1
 66
     1
 10
0.0
 20
0.0
 30
0.0
  0
VERTEX
  5
1E48
  8
L1
 10
-36.50327056558092
 20
-64.999999999999915
 30
0.0
  0
VERTEX
  5
1E49
  8
L1
 10
-36.525632005575062
 20
-64.999928785284652
 30
0.0
  0
VERTEX
  5
1E4A
  8
L1
 10
-36.548000000000002
 20
-64.999715144036799
 30
0.0
  0
SEQEND
  5
1E4B
  8
L1
  0
LINE
  5
12A5
  8
L1
 10
-31.510481685588839
 20
-61.770470339995683
 30
0.0
 11
-31.500372922533298
 21
-61.769988067673779
 31
0.0
  0
LINE
  5
12A6
  8
L1
 10
-36.769988067673921
 20
-56.500372922533153
 30
0.0
 11
-36.770470339995882
 21
-56.510481685588701
 31
0.0
  0
ARC
  5
12A7
  8
L1
 10
-35.210161617719223
 20
-47.149999999999949
 30
0.0
 40
3.2999999999999439
 50
221.40989698076439
 51
270.0
  0
LINE
  5
12A8
  8
L1
 10
-31.989518314411271
 20
-51.729529660004147
 30
0.0
 11
-31.999627077466808
 21
-51.73001193232605
 31
0.0
  0
LINE
  5
12A9
  8
L1
 10
-34.25
 20
-50.44999999999991
 30
0.0
 11
-35.210161617719223
 21
-50.44999999999991
 31
0.0
  0
LINE
  5
12AA
  8
L1
 10
-31.75
 20
-50.44999999999991
 30
0.0
 11
-34.25
 21
-50.44999999999991
 31
0.0
  0
POLYLINE
  5
12AB
  8
L1
 66
     1
 10
0.0
 20
0.0
 30
0.0
  0
VERTEX
  5
1E4C
  8
L1
 10
-35.710675630255757
 20
-47.949999999999903
 30
0.0
  0
VERTEX
  5
1E4D
  8
L1
 10
-35.891456580594081
 20
-47.93906909359967
 30
0.0
  0
VERTEX
  5
1E4E
  8
L1
 10
-36.06958865385559
 20
-47.906435632759226
 30
0.0
  0
VERTEX
  5
1E4F
  8
L1
 10
-36.242476546331318
 20
-47.852575072237613
 30
0.0
  0
VERTEX
  5
1E50
  8
L1
 10
-36.40760135965342
 20
-47.778272136031617
 30
0.0
  0
VERTEX
  5
1E51
  8
L1
 10
-36.562557300005089
 20
-47.684609384302433
 30
0.0
  0
VERTEX
  5
1E52
  8
L1
 10
-36.705086729447309
 20
-47.572951440963458
 30
0.0
  0
VERTEX
  5
1E53
  8
L1
 10
-36.833113058682777
 20
-47.444925111728097
 30
0.0
  0
VERTEX
  5
1E54
  8
L1
 10
-36.944771002021518
 20
-47.302395682285891
 30
0.0
  0
VERTEX
  5
1E55
  8
L1
 10
-37.038433753750951
 20
-47.147439741934221
 30
0.0
  0
VERTEX
  5
1E56
  8
L1
 10
-37.112736689956819
 20
-46.982314928612048
 30
0.0
  0
VERTEX
  5
1E57
  8
L1
 10
-37.166597250478389
 20
-46.809427036136377
 30
0.0
  0
VERTEX
  5
1E58
  8
L1
 10
-37.199230711318933
 20
-46.631294962874883
 30
0.0
  0
VERTEX
  5
1E59
  8
L1
 10
-37.210161617719223
 20
-46.450514012536608
 30
0.0
  0
SEQEND
  5
1E5A
  8
L1
  0
ARC
  5
12AC
  8
L1
 10
-35.210161617719223
 20
-47.149999999999949
 30
0.0
 40
3.2999999999999439
 50
180.0
 51
221.40989698076439
  0
POLYLINE
  5
12AD
  8
L1
 66
     1
 10
0.0
 20
0.0
 30
0.0
  0
VERTEX
  5
1E5B
  8
L1
 10
-38.210161617719223
 20
-49.531163227339299
 30
0.0
  0
VERTEX
  5
1E5C
  8
L1
 10
-38.210089995522708
 20
-49.524608024967129
 30
0.0
  0
VERTEX
  5
1E5D
  8
L1
 10
-38.20796721712702
 20
-49.494943700917219
 30
0.0
  0
VERTEX
  5
1E5E
  8
L1
 10
-38.202933526161807
 20
-49.465705594967773
 30
0.0
  0
VERTEX
  5
1E5F
  8
L1
 10
-38.195036682033439
 20
-49.437107633780528
 30
0.0
  0
VERTEX
  5
1E60
  8
L1
 10
-38.18432444414691
 20
-49.409363744017668
 30
0.0
  0
VERTEX
  5
1E61
  8
L1
 10
-38.1709463480762
 20
-49.38286737808906
 30
0.0
  0
VERTEX
  5
1E62
  8
L1
 10
-38.155056592502767
 20
-49.357881288412017
 30
0.0
  0
VERTEX
  5
1E63
  8
L1
 10
-38.136781028829311
 20
-49.334583388280997
 30
0.0
  0
VERTEX
  5
1E64
  8
L1
 10
-38.116245508459087
 20
-49.313151590990707
 30
0.0
  0
VERTEX
  5
1E65
  8
L1
 10
-38.096091385393493
 20
-49.29572899690649
 30
0.0
  0
VERTEX
  5
1E66
  8
L1
 10
-38.074514404170479
 20
-49.280191700037868
 30
0.0
  0
VERTEX
  5
1E67
  8
L1
 10
-38.051646393947742
 20
-49.266626005987263
 30
0.0
  0
VERTEX
  5
1E68
  8
L1
 10
-38.027619183882273
 20
-49.255118220357389
 30
0.0
  0
VERTEX
  5
1E69
  8
L1
 10
-38.006136602312829
 20
-49.246935856045717
 30
0.0
  0
VERTEX
  5
1E6A
  8
L1
 10
-37.98412296155481
 20
-49.240430781374442
 30
0.0
  0
VERTEX
  5
1E6B
  8
L1
 10
-37.961676375062211
 20
-49.235627922194197
 30
0.0
  0
VERTEX
  5
1E6C
  8
L1
 10
-37.938894956288323
 20
-49.232552204355812
 30
0.0
  0
VERTEX
  5
1E6D
  8
L1
 10
-37.917536036300362
 20
-49.231264746138983
 30
0.0
  0
VERTEX
  5
1E6E
  8
L1
 10
-37.896166649272793
 20
-49.231501741233821
 30
0.0
  0
VERTEX
  5
1E6F
  8
L1
 10
-37.874868340417379
 20
-49.233259350328098
 30
0.0
  0
VERTEX
  5
1E70
  8
L1
 10
-37.853722654946182
 20
-49.236533734109649
 30
0.0
  0
VERTEX
  5
1E71
  8
L1
 10
-37.830266886782049
 20
-49.242012144038512
 30
0.0
  0
VERTEX
  5
1E72
  8
L1
 10
-37.807362270439853
 20
-49.249341305652791
 30
0.0
  0
VERTEX
  5
1E73
  8
L1
 10
-37.785118186757011
 20
-49.258481285121519
 30
0.0
  0
VERTEX
  5
1E74
  8
L1
 10
-37.763644016570993
 20
-49.269392148613768
 30
0.0
  0
VERTEX
  5
1E75
  8
L1
 10
-37.742041844173968
 20
-49.282712677022317
 30
0.0
  0
VERTEX
  5
1E76
  8
L1
 10
-37.721690194407522
 20
-49.297772735277562
 30
0.0
  0
VERTEX
  5
1E77
  8
L1
 10
-37.702692238121017
 20
-49.314483639347287
 30
0.0
  0
VERTEX
  5
1E78
  8
L1
 10
-37.6851511461632
 20
-49.332756705199223
 30
0.0
  0
SEQEND
  5
1E79
  8
L1
  0
LINE
  5
12AE
  8
L1
 10
-31.75
 20
-47.94999999999996
 30
0.0
 11
-35.710675630255757
 21
-47.94999999999996
 31
0.0
  0
ARC
  5
12AF
  8
L1
 10
-31.75
 20
-56.749999999999972
 30
0.0
 40
8.8000000000000114
 50
0.0
 51
37.285473900598028
  0
POLYLINE
  5
12B0
  8
L1
 66
     1
 10
0.0
 20
0.0
 30
0.0
  0
VERTEX
  5
1E7A
  8
L1
 10
-21.450514012536701
 20
-62.199999999999903
 30
0.0
  0
VERTEX
  5
1E7B
  8
L1
 10
-21.63129496287501
 20
-62.18906909359962
 30
0.0
  0
VERTEX
  5
1E7C
  8
L1
 10
-21.809427036136409
 20
-62.156435632759177
 30
0.0
  0
VERTEX
  5
1E7D
  8
L1
 10
-21.982314928612141
 20
-62.10257507223762
 30
0.0
  0
VERTEX
  5
1E7E
  8
L1
 10
-22.14743974193436
 20
-62.028272136031632
 30
0.0
  0
VERTEX
  5
1E7F
  8
L1
 10
-22.302395682286029
 20
-61.934609384302377
 30
0.0
  0
VERTEX
  5
1E80
  8
L1
 10
-22.444925111728249
 20
-61.822951440963472
 30
0.0
  0
VERTEX
  5
1E81
  8
L1
 10
-22.5729514409636
 20
-61.694925111728111
 30
0.0
  0
VERTEX
  5
1E82
  8
L1
 10
-22.684609384302568
 20
-61.552395682285841
 30
0.0
  0
VERTEX
  5
1E83
  8
L1
 10
-22.77827213603177
 20
-61.397439741934221
 30
0.0
  0
VERTEX
  5
1E84
  8
L1
 10
-22.852575072237752
 20
-61.232314928611999
 30
0.0
  0
VERTEX
  5
1E85
  8
L1
 10
-22.906435632759429
 20
-61.05942703613632
 30
0.0
  0
VERTEX
  5
1E86
  8
L1
 10
-22.939069093599748
 20
-60.881294962874868
 30
0.0
  0
VERTEX
  5
1E87
  8
L1
 10
-22.950000000000038
 20
-60.700514012536559
 30
0.0
  0
SEQEND
  5
1E88
  8
L1
  0
ARC
  5
12B1
  8
L1
 10
-22.14999999999997
 20
-60.199999999999847
 30
0.0
 40
3.3000000000000149
 50
180.0
 51
228.59010301923439
  0
POLYLINE
  5
12B2
  8
L1
 66
     1
 10
0.0
 20
0.0
 30
0.0
  0
VERTEX
  5
1E89
  8
L1
 10
-24.332756705199358
 20
-62.674989528443831
 30
0.0
  0
VERTEX
  5
1E8A
  8
L1
 10
-24.31290801793989
 20
-62.694189008892323
 30
0.0
  0
VERTEX
  5
1E8B
  8
L1
 10
-24.29494351738856
 20
-62.715087315775087
 30
0.0
  0
VERTEX
  5
1E8C
  8
L1
 10
-24.27897160274437
 20
-62.73754641439163
 30
0.0
  0
VERTEX
  5
1E8D
  8
L1
 10
-24.265100673205211
 20
-62.761428270041542
 30
0.0
  0
VERTEX
  5
1E8E
  8
L1
 10
-24.253165764745969
 20
-62.787267227734588
 30
0.0
  0
VERTEX
  5
1E8F
  8
L1
 10
-24.243751047688079
 20
-62.81406030456705
 30
0.0
  0
VERTEX
  5
1E90
  8
L1
 10
-24.236911616768332
 20
-62.841623450579469
 30
0.0
  0
VERTEX
  5
1E91
  8
L1
 10
-24.23270256672367
 20
-62.869772615812309
 30
0.0
  0
VERTEX
  5
1E92
  8
L1
 10
-24.231175782790611
 20
-62.899137626282908
 30
0.0
  0
VERTEX
  5
1E93
  8
L1
 10
-24.232524436680588
 20
-62.928441732404927
 30
0.0
  0
VERTEX
  5
1E94
  8
L1
 10
-24.236728518055539
 20
-62.957474023445201
 30
0.0
  0
VERTEX
  5
1E95
  8
L1
 10
-24.243768016577182
 20
-62.98602358867052
 30
0.0
  0
VERTEX
  5
1E96
  8
L1
 10
-24.253680455433031
 20
-63.014018801729172
 30
0.0
  0
VERTEX
  5
1E97
  8
L1
 10
-24.26627878561521
 20
-63.040833340294711
 30
0.0
  0
VERTEX
  5
1E98
  8
L1
 10
-24.281460571765471
 20
-63.0662744513821
 30
0.0
  0
VERTEX
  5
1E99
  8
L1
 10
-24.29912337852533
 20
-63.090149382006388
 30
0.0
  0
VERTEX
  5
1E9A
  8
L1
 10
-24.318552896418851
 20
-63.111652012439009
 30
0.0
  0
VERTEX
  5
1E9B
  8
L1
 10
-24.339915298851899
 20
-63.13113686732683
 30
0.0
  0
VERTEX
  5
1E9C
  8
L1
 10
-24.363054299494589
 20
-63.148474653913439
 30
0.0
  0
VERTEX
  5
1E9D
  8
L1
 10
-24.387813612017109
 20
-63.163536079442757
 30
0.0
  0
VERTEX
  5
1E9E
  8
L1
 10
-24.409289720460041
 20
-63.174129911467361
 30
0.0
  0
VERTEX
  5
1E9F
  8
L1
 10
-24.43150675205208
 20
-63.182964442916578
 30
0.0
  0
VERTEX
  5
1EA0
  8
L1
 10
-24.454356762597961
 20
-63.190001691987419
 30
0.0
  0
VERTEX
  5
1EA1
  8
L1
 10
-24.477731807902732
 20
-63.195203676876837
 30
0.0
  0
VERTEX
  5
1EA2
  8
L1
 10
-24.504354065604389
 20
-63.198799775395941
 30
0.0
  0
VERTEX
  5
1EA3
  8
L1
 10
-24.531163227339441
 20
-63.199999999999903
 30
0.0
  0
SEQEND
  5
1EA4
  8
L1
  0
ARC
  5
12B3
  8
L1
 10
-22.14999999999997
 20
-60.199999999999847
 30
0.0
 40
3.3000000000000149
 50
228.59010301923439
 51
270.0
  0
LINE
  5
12B4
  8
L1
 10
-26.730011932326072
 20
-56.99962707746667
 30
0.0
 11
-26.729529660004228
 21
-56.989518314411072
 31
0.0
  0
LINE
  5
12B5
  8
L1
 10
-25.450000000000038
 20
-60.199999999999903
 30
0.0
 11
-25.450000000000038
 21
-59.249999999999908
 31
0.0
  0
LINE
  5
12B6
  8
L1
 10
-25.450000000000038
 20
-59.249999999999908
 30
0.0
 11
-25.450000000000038
 21
-56.749999999999972
 31
0.0
  0
LINE
  5
12B7
  8
L1
 10
-22.950000000000038
 20
-60.700514012536559
 30
0.0
 11
-22.950000000000038
 21
-56.749999999999908
 31
0.0
  0
LINE
  5
12B8
  8
L1
 10
-24.739561147081869
 20
-51.044503922224827
 30
0.0
 11
-23.826695169241699
 21
-49.95659261357676
 31
0.0
  0
POLYLINE
  5
12B9
  8
L1
 66
     1
 10
0.0
 20
0.0
 30
0.0
  0
VERTEX
  5
1EA5
  8
L1
 10
-24.748481603828619
 20
-51.419076989106507
 30
0.0
  0
VERTEX
  5
1EA6
  8
L1
 10
-24.761427287836678
 20
-51.400681907275128
 30
0.0
  0
VERTEX
  5
1EA7
  8
L1
 10
-24.772982882875219
 20
-51.381322380204693
 30
0.0
  0
VERTEX
  5
1EA8
  8
L1
 10
-24.785418390325049
 20
-51.355785225535527
 30
0.0
  0
VERTEX
  5
1EA9
  8
L1
 10
-24.795362895322342
 20
-51.329246063272898
 30
0.0
  0
VERTEX
  5
1EAA
  8
L1
 10
-24.802758019352488
 20
-51.301886706224508
 30
0.0
  0
VERTEX
  5
1EAB
  8
L1
 10
-24.807545383901129
 20
-51.273888967197848
 30
0.0
  0
VERTEX
  5
1EAC
  8
L1
 10
-24.809686953125489
 20
-51.2446260863791
 30
0.0
  0
VERTEX
  5
1EAD
  8
L1
 10
-24.808964466996368
 20
-51.215362965292201
 30
0.0
  0
VERTEX
  5
1EAE
  8
L1
 10
-24.805393629604389
 20
-51.186309456928228
 30
0.0
  0
VERTEX
  5
1EAF
  8
L1
 10
-24.798990145040079
 20
-51.157675414278032
 30
0.0
  0
VERTEX
  5
1EB0
  8
L1
 10
-24.789686243146878
 20
-51.129454794596789
 30
0.0
  0
VERTEX
  5
1EB1
  8
L1
 10
-24.777669211395729
 20
-51.102356670615357
 30
0.0
  0
VERTEX
  5
1EB2
  8
L1
 10
-24.76303762275824
 20
-51.076576074860178
 30
0.0
  0
VERTEX
  5
1EB3
  8
L1
 10
-24.745890050206409
 20
-51.052308039857706
 30
0.0
  0
VERTEX
  5
1EB4
  8
L1
 10
-24.739561147081869
 20
-51.044503922224827
 30
0.0
  0
SEQEND
  5
1EB5
  8
L1
  0
LINE
  5
12BA
  8
L1
 10
-24.956592613576959
 20
-48.826695169241503
 30
0.0
 11
-26.044503922224969
 21
-49.739561147081673
 31
0.0
  0
POLYLINE
  5
12BB
  8
L1
 66
     1
 10
0.0
 20
0.0
 30
0.0
  0
VERTEX
  5
1EB6
  8
L1
 10
-26.044503922224969
 20
-49.739561147081623
 30
0.0
  0
VERTEX
  5
1EB7
  8
L1
 10
-26.075897730198221
 20
-49.762605782574802
 30
0.0
  0
VERTEX
  5
1EB8
  8
L1
 10
-26.11007103375891
 20
-49.781419816776491
 30
0.0
  0
VERTEX
  5
1EB9
  8
L1
 10
-26.131560569867698
 20
-49.79048911309664
 30
0.0
  0
VERTEX
  5
1EBA
  8
L1
 10
-26.1536560408457
 20
-49.797852195035802
 30
0.0
  0
VERTEX
  5
1EBB
  8
L1
 10
-26.176255982269929
 20
-49.803479427581209
 30
0.0
  0
VERTEX
  5
1EBC
  8
L1
 10
-26.19925892971775
 20
-49.807341175719984
 30
0.0
  0
VERTEX
  5
1EBD
  8
L1
 10
-26.220985353849301
 20
-49.80932547117979
 30
0.0
  0
VERTEX
  5
1EBE
  8
L1
 10
-26.242769869206079
 20
-49.80972603091422
 30
0.0
  0
VERTEX
  5
1EBF
  8
L1
 10
-26.264525972385279
 20
-49.808544307857773
 30
0.0
  0
VERTEX
  5
1EC0
  8
L1
 10
-26.286167159984181
 20
-49.805781754944938
 30
0.0
  0
VERTEX
  5
1EC1
  8
L1
 10
-26.309418519663151
 20
-49.800997583255572
 30
0.0
  0
VERTEX
  5
1EC2
  8
L1
 10
-26.332183662871099
 20
-49.794401186491449
 30
0.0
  0
VERTEX
  5
1EC3
  8
L1
 10
-26.354356816383749
 20
-49.786027735510828
 30
0.0
  0
VERTEX
  5
1EC4
  8
L1
 10
-26.3758322069774
 20
-49.775912401171837
 30
0.0
  0
VERTEX
  5
1EC5
  8
L1
 10
-26.39806642368319
 20
-49.76310576385967
 30
0.0
  0
VERTEX
  5
1EC6
  8
L1
 10
-26.41907698910677
 20
-49.748481603828367
 30
0.0
  0
SEQEND
  5
1EC7
  8
L1
  0
POLYLINE
  5
12BC
  8
L1
 66
     1
 10
0.0
 20
0.0
 30
0.0
  0
VERTEX
  5
1EC8
  8
L1
 10
-23.844375794571761
 20
-49.551639716267431
 30
0.0
  0
VERTEX
  5
1EC9
  8
L1
 10
-23.791624533629602
 20
-49.622928273943529
 30
0.0
  0
VERTEX
  5
1ECA
  8
L1
 10
-23.762021390926972
 20
-49.706523474714658
 30
0.0
  0
VERTEX
  5
1ECB
  8
L1
 10
-23.758153157973311
 20
-49.795120575372913
 30
0.0
  0
VERTEX
  5
1ECC
  8
L1
 10
-23.78035784996711
 20
-49.880977755056868
 30
0.0
  0
VERTEX
  5
1ECD
  8
L1
 10
-23.826695169241699
 20
-49.956592613576703
 30
0.0
  0
SEQEND
  5
1ECE
  8
L1
  0
POLYLINE
  5
12BD
  8
L1
 66
     1
 10
0.0
 20
0.0
 30
0.0
  0
VERTEX
  5
1ECF
  8
L1
 10
-24.956592613576959
 20
-48.826695169241447
 30
0.0
  0
VERTEX
  5
1ED0
  8
L1
 10
-24.880977755057071
 20
-48.780357849966862
 30
0.0
  0
VERTEX
  5
1ED1
  8
L1
 10
-24.795120575373168
 20
-48.758153157972941
 30
0.0
  0
VERTEX
  5
1ED2
  8
L1
 10
-24.70652347471491
 20
-48.762021390926719
 30
0.0
  0
VERTEX
  5
1ED3
  8
L1
 10
-24.622928273943781
 20
-48.791624533629339
 30
0.0
  0
VERTEX
  5
1ED4
  8
L1
 10
-24.55163971626769
 20
-48.844375794571498
 30
0.0
  0
SEQEND
  5
1ED5
  8
L1
  0
LINE
  5
12BE
  8
L1
 10
-23.844375794571761
 20
-49.551639716267431
 30
0.0
 11
-24.551639716267569
 21
-48.844375794571498
 31
0.0
  0
ARC
  5
12BF
  8
L1
 10
31.75
 20
-56.749999999999972
 30
0.0
 40
8.8000000000000114
 50
142.71452609940189
 51
180.0
  0
ARC
  5
12C0
  8
L1
 10
31.75
 20
-56.749999999999908
 30
0.0
 40
5.0261806033722758
 50
87.268584429571007
 51
182.7314155704272
  0
ARC
  5
12C1
  8
L1
 10
31.75
 20
-56.749999999999908
 30
0.0
 40
6.3000000000000487
 50
90.0
 51
180.0
  0
ARC
  5
12C2
  8
L1
 10
22.14999999999997
 20
-60.199999999999847
 30
0.0
 40
3.3000000000000149
 50
311.40989698076561
 51
0.0
  0
LINE
  5
12C3
  8
L1
 10
24.531163227339441
 20
-63.199999999999903
 30
0.0
 11
35.6101616177192
 21
-63.199999999999903
 31
0.0
  0
POLYLINE
  5
12C4
  8
L1
 66
     1
 10
0.0
 20
0.0
 30
0.0
  0
VERTEX
  5
1ED6
  8
L1
 10
21.450514012536701
 20
-62.199999999999903
 30
0.0
  0
VERTEX
  5
1ED7
  8
L1
 10
21.63129496287501
 20
-62.18906909359962
 30
0.0
  0
VERTEX
  5
1ED8
  8
L1
 10
21.809427036136409
 20
-62.156435632759177
 30
0.0
  0
VERTEX
  5
1ED9
  8
L1
 10
21.982314928612141
 20
-62.10257507223762
 30
0.0
  0
VERTEX
  5
1EDA
  8
L1
 10
22.14743974193436
 20
-62.028272136031632
 30
0.0
  0
VERTEX
  5
1EDB
  8
L1
 10
22.302395682286029
 20
-61.934609384302377
 30
0.0
  0
VERTEX
  5
1EDC
  8
L1
 10
22.444925111728249
 20
-61.822951440963472
 30
0.0
  0
VERTEX
  5
1EDD
  8
L1
 10
22.5729514409636
 20
-61.694925111728111
 30
0.0
  0
VERTEX
  5
1EDE
  8
L1
 10
22.684609384302568
 20
-61.552395682285841
 30
0.0
  0
VERTEX
  5
1EDF
  8
L1
 10
22.77827213603177
 20
-61.397439741934221
 30
0.0
  0
VERTEX
  5
1EE0
  8
L1
 10
22.852575072237752
 20
-61.232314928611999
 30
0.0
  0
VERTEX
  5
1EE1
  8
L1
 10
22.906435632759429
 20
-61.05942703613632
 30
0.0
  0
VERTEX
  5
1EE2
  8
L1
 10
22.939069093599748
 20
-60.881294962874868
 30
0.0
  0
VERTEX
  5
1EE3
  8
L1
 10
22.950000000000038
 20
-60.700514012536559
 30
0.0
  0
SEQEND
  5
1EE4
  8
L1
  0
ARC
  5
12C5
  8
L1
 10
22.14999999999997
 20
-60.199999999999847
 30
0.0
 40
3.3000000000000149
 50
270.0
 51
311.40989698076561
  0
POLYLINE
  5
12C6
  8
L1
 66
     1
 10
0.0
 20
0.0
 30
0.0
  0
VERTEX
  5
1EE5
  8
L1
 10
24.332756705199358
 20
-62.674989528443831
 30
0.0
  0
VERTEX
  5
1EE6
  8
L1
 10
24.31290801793989
 20
-62.694189008892323
 30
0.0
  0
VERTEX
  5
1EE7
  8
L1
 10
24.29494351738856
 20
-62.715087315775087
 30
0.0
  0
VERTEX
  5
1EE8
  8
L1
 10
24.27897160274437
 20
-62.73754641439163
 30
0.0
  0
VERTEX
  5
1EE9
  8
L1
 10
24.265100673205211
 20
-62.761428270041542
 30
0.0
  0
VERTEX
  5
1EEA
  8
L1
 10
24.253165764745969
 20
-62.787267227734588
 30
0.0
  0
VERTEX
  5
1EEB
  8
L1
 10
24.243751047688079
 20
-62.81406030456705
 30
0.0
  0
VERTEX
  5
1EEC
  8
L1
 10
24.236911616768332
 20
-62.841623450579469
 30
0.0
  0
VERTEX
  5
1EED
  8
L1
 10
24.23270256672367
 20
-62.869772615812309
 30
0.0
  0
VERTEX
  5
1EEE
  8
L1
 10
24.231175782790611
 20
-62.899137626282908
 30
0.0
  0
VERTEX
  5
1EEF
  8
L1
 10
24.232524436680588
 20
-62.928441732404927
 30
0.0
  0
VERTEX
  5
1EF0
  8
L1
 10
24.236728518055539
 20
-62.957474023445201
 30
0.0
  0
VERTEX
  5
1EF1
  8
L1
 10
24.243768016577182
 20
-62.98602358867052
 30
0.0
  0
VERTEX
  5
1EF2
  8
L1
 10
24.253680455433031
 20
-63.014018801729172
 30
0.0
  0
VERTEX
  5
1EF3
  8
L1
 10
24.26627878561521
 20
-63.040833340294711
 30
0.0
  0
VERTEX
  5
1EF4
  8
L1
 10
24.281460571765471
 20
-63.0662744513821
 30
0.0
  0
VERTEX
  5
1EF5
  8
L1
 10
24.29912337852533
 20
-63.090149382006388
 30
0.0
  0
VERTEX
  5
1EF6
  8
L1
 10
24.318552896418851
 20
-63.111652012439009
 30
0.0
  0
VERTEX
  5
1EF7
  8
L1
 10
24.339915298851899
 20
-63.13113686732683
 30
0.0
  0
VERTEX
  5
1EF8
  8
L1
 10
24.363054299494589
 20
-63.148474653913439
 30
0.0
  0
VERTEX
  5
1EF9
  8
L1
 10
24.387813612017109
 20
-63.163536079442757
 30
0.0
  0
VERTEX
  5
1EFA
  8
L1
 10
24.409289720460041
 20
-63.174129911467361
 30
0.0
  0
VERTEX
  5
1EFB
  8
L1
 10
24.43150675205208
 20
-63.182964442916578
 30
0.0
  0
VERTEX
  5
1EFC
  8
L1
 10
24.454356762597961
 20
-63.190001691987419
 30
0.0
  0
VERTEX
  5
1EFD
  8
L1
 10
24.477731807902732
 20
-63.195203676876837
 30
0.0
  0
VERTEX
  5
1EFE
  8
L1
 10
24.504354065604389
 20
-63.198799775395941
 30
0.0
  0
VERTEX
  5
1EFF
  8
L1
 10
24.531163227339441
 20
-63.199999999999903
 30
0.0
  0
SEQEND
  5
1F00
  8
L1
  0
LINE
  5
12C7
  8
L1
 10
22.950000000000038
 20
-60.700514012536559
 30
0.0
 11
22.950000000000038
 21
-56.749999999999908
 31
0.0
  0
LINE
  5
12C8
  8
L1
 10
31.500372922533298
 20
-61.769988067673779
 30
0.0
 11
26.730011932326072
 21
-56.99962707746667
 31
0.0
  0
LINE
  5
12C9
  8
L1
 10
31.510481685588839
 20
-61.770470339995683
 30
0.0
 11
31.500372922533298
 21
-61.769988067673779
 31
0.0
  0
LINE
  5
12CA
  8
L1
 10
26.730011932326072
 20
-56.99962707746667
 30
0.0
 11
26.729529660004228
 21
-56.989518314411072
 31
0.0
  0
LINE
  5
12CB
  8
L1
 10
25.450000000000038
 20
-60.199999999999903
 30
0.0
 11
25.450000000000038
 21
-59.249999999999908
 31
0.0
  0
LINE
  5
12CC
  8
L1
 10
25.450000000000038
 20
-59.249999999999908
 30
0.0
 11
25.450000000000038
 21
-56.749999999999972
 31
0.0
  0
LINE
  5
12CD
  8
L1
 10
24.956592613576959
 20
-48.826695169241503
 30
0.0
 11
26.044503922224969
 21
-49.739561147081673
 31
0.0
  0
LINE
  5
12CE
  8
L1
 10
24.739561147081869
 20
-51.044503922224827
 30
0.0
 11
23.826695169241699
 21
-49.95659261357676
 31
0.0
  0
POLYLINE
  5
12CF
  8
L1
 66
     1
 10
0.0
 20
0.0
 30
0.0
  0
VERTEX
  5
1F01
  8
L1
 10
24.748481603828619
 20
-51.419076989106507
 30
0.0
  0
VERTEX
  5
1F02
  8
L1
 10
24.761427287836678
 20
-51.400681907275128
 30
0.0
  0
VERTEX
  5
1F03
  8
L1
 10
24.772982882875219
 20
-51.381322380204693
 30
0.0
  0
VERTEX
  5
1F04
  8
L1
 10
24.785418390325049
 20
-51.355785225535527
 30
0.0
  0
VERTEX
  5
1F05
  8
L1
 10
24.795362895322342
 20
-51.329246063272898
 30
0.0
  0
VERTEX
  5
1F06
  8
L1
 10
24.802758019352488
 20
-51.301886706224508
 30
0.0
  0
VERTEX
  5
1F07
  8
L1
 10
24.807545383901129
 20
-51.273888967197848
 30
0.0
  0
VERTEX
  5
1F08
  8
L1
 10
24.809686953125489
 20
-51.2446260863791
 30
0.0
  0
VERTEX
  5
1F09
  8
L1
 10
24.808964466996368
 20
-51.215362965292201
 30
0.0
  0
VERTEX
  5
1F0A
  8
L1
 10
24.805393629604389
 20
-51.186309456928228
 30
0.0
  0
VERTEX
  5
1F0B
  8
L1
 10
24.798990145040079
 20
-51.157675414278032
 30
0.0
  0
VERTEX
  5
1F0C
  8
L1
 10
24.789686243146878
 20
-51.129454794596789
 30
0.0
  0
VERTEX
  5
1F0D
  8
L1
 10
24.777669211395729
 20
-51.102356670615357
 30
0.0
  0
VERTEX
  5
1F0E
  8
L1
 10
24.76303762275824
 20
-51.076576074860178
 30
0.0
  0
VERTEX
  5
1F0F
  8
L1
 10
24.745890050206409
 20
-51.052308039857706
 30
0.0
  0
VERTEX
  5
1F10
  8
L1
 10
24.739561147081869
 20
-51.044503922224827
 30
0.0
  0
SEQEND
  5
1F11
  8
L1
  0
POLYLINE
  5
12D0
  8
L1
 66
     1
 10
0.0
 20
0.0
 30
0.0
  0
VERTEX
  5
1F12
  8
L1
 10
24.956592613576959
 20
-48.826695169241447
 30
0.0
  0
VERTEX
  5
1F13
  8
L1
 10
24.880977755057071
 20
-48.780357849966862
 30
0.0
  0
VERTEX
  5
1F14
  8
L1
 10
24.795120575373168
 20
-48.758153157972941
 30
0.0
  0
VERTEX
  5
1F15
  8
L1
 10
24.70652347471491
 20
-48.762021390926719
 30
0.0
  0
VERTEX
  5
1F16
  8
L1
 10
24.622928273943781
 20
-48.791624533629339
 30
0.0
  0
VERTEX
  5
1F17
  8
L1
 10
24.55163971626769
 20
-48.844375794571498
 30
0.0
  0
SEQEND
  5
1F18
  8
L1
  0
LINE
  5
12D1
  8
L1
 10
23.844375794571761
 20
-49.551639716267431
 30
0.0
 11
24.551639716267569
 21
-48.844375794571498
 31
0.0
  0
POLYLINE
  5
12D2
  8
L1
 66
     1
 10
0.0
 20
0.0
 30
0.0
  0
VERTEX
  5
1F19
  8
L1
 10
23.844375794571761
 20
-49.551639716267431
 30
0.0
  0
VERTEX
  5
1F1A
  8
L1
 10
23.791624533629602
 20
-49.622928273943529
 30
0.0
  0
VERTEX
  5
1F1B
  8
L1
 10
23.762021390926972
 20
-49.706523474714658
 30
0.0
  0
VERTEX
  5
1F1C
  8
L1
 10
23.758153157973311
 20
-49.795120575372913
 30
0.0
  0
VERTEX
  5
1F1D
  8
L1
 10
23.78035784996711
 20
-49.880977755056868
 30
0.0
  0
VERTEX
  5
1F1E
  8
L1
 10
23.826695169241699
 20
-49.956592613576703
 30
0.0
  0
SEQEND
  5
1F1F
  8
L1
  0
LINE
  5
12D3
  8
L1
 10
34.25
 20
-50.44999999999991
 30
0.0
 11
35.210161617719223
 21
-50.44999999999991
 31
0.0
  0
LINE
  5
12D4
  8
L1
 10
31.75
 20
-50.44999999999991
 30
0.0
 11
34.25
 21
-50.44999999999991
 31
0.0
  0
LINE
  5
12D5
  8
L1
 10
31.989518314411271
 20
-51.729529660004147
 30
0.0
 11
31.999627077466808
 21
-51.73001193232605
 31
0.0
  0
ARC
  5
12D6
  8
L1
 10
31.75
 20
-56.749999999999972
 30
0.0
 40
8.8000000000000114
 50
90.0
 51
127.2854739005967
  0
POLYLINE
  5
12D7
  8
L1
 66
     1
 10
0.0
 20
0.0
 30
0.0
  0
VERTEX
  5
1F20
  8
L1
 10
26.044503922224969
 20
-49.739561147081623
 30
0.0
  0
VERTEX
  5
1F21
  8
L1
 10
26.075897730198221
 20
-49.762605782574802
 30
0.0
  0
VERTEX
  5
1F22
  8
L1
 10
26.11007103375891
 20
-49.781419816776491
 30
0.0
  0
VERTEX
  5
1F23
  8
L1
 10
26.131560569867698
 20
-49.79048911309664
 30
0.0
  0
VERTEX
  5
1F24
  8
L1
 10
26.1536560408457
 20
-49.797852195035802
 30
0.0
  0
VERTEX
  5
1F25
  8
L1
 10
26.176255982269929
 20
-49.803479427581209
 30
0.0
  0
VERTEX
  5
1F26
  8
L1
 10
26.19925892971775
 20
-49.807341175719984
 30
0.0
  0
VERTEX
  5
1F27
  8
L1
 10
26.220985353849301
 20
-49.80932547117979
 30
0.0
  0
VERTEX
  5
1F28
  8
L1
 10
26.242769869206079
 20
-49.80972603091422
 30
0.0
  0
VERTEX
  5
1F29
  8
L1
 10
26.264525972385279
 20
-49.808544307857773
 30
0.0
  0
VERTEX
  5
1F2A
  8
L1
 10
26.286167159984181
 20
-49.805781754944938
 30
0.0
  0
VERTEX
  5
1F2B
  8
L1
 10
26.309418519663151
 20
-49.800997583255572
 30
0.0
  0
VERTEX
  5
1F2C
  8
L1
 10
26.332183662871099
 20
-49.794401186491449
 30
0.0
  0
VERTEX
  5
1F2D
  8
L1
 10
26.354356816383749
 20
-49.786027735510828
 30
0.0
  0
VERTEX
  5
1F2E
  8
L1
 10
26.3758322069774
 20
-49.775912401171837
 30
0.0
  0
VERTEX
  5
1F2F
  8
L1
 10
26.39806642368319
 20
-49.76310576385967
 30
0.0
  0
VERTEX
  5
1F30
  8
L1
 10
26.41907698910677
 20
-49.748481603828367
 30
0.0
  0
SEQEND
  5
1F31
  8
L1
  0
LINE
  5
12D8
  8
L1
 10
31.75
 20
-47.94999999999996
 30
0.0
 11
35.710675630255757
 21
-47.94999999999996
 31
0.0
  0
LINE
  5
12D9
  8
L1
 10
38.210161617719223
 20
-60.599999999999881
 30
0.0
 11
38.210161617719223
 21
-49.531163227339249
 31
0.0
  0
POLYLINE
  5
12DA
  8
L1
 66
     1
 10
0.0
 20
0.0
 30
0.0
  0
VERTEX
  5
1F32
  8
L1
 10
36.548000000000002
 20
-64.999715144036799
 30
0.0
  0
VERTEX
  5
1F33
  8
L1
 10
36.713403957788273
 20
-64.993676363898743
 30
0.0
  0
VERTEX
  5
1F34
  8
L1
 10
36.880719508775421
 20
-64.979607624391946
 30
0.0
  0
VERTEX
  5
1F35
  8
L1
 10
37.049131804196463
 20
-64.95730889066553
 30
0.0
  0
VERTEX
  5
1F36
  8
L1
 10
37.217825995286603
 20
-64.926580127868959
 30
0.0
  0
VERTEX
  5
1F37
  8
L1
 10
37.385999809509478
 20
-64.8872818835857
 30
0.0
  0
VERTEX
  5
1F38
  8
L1
 10
37.552898436480739
 20
-64.839503332309064
 30
0.0
  0
VERTEX
  5
1F39
  8
L1
 10
37.71777822066133
 20
-64.783387379553659
 30
0.0
  0
VERTEX
  5
1F3A
  8
L1
 10
37.87989550651286
 20
-64.719076930833779
 30
0.0
  0
VERTEX
  5
1F3B
  8
L1
 10
38.038590392530288
 20
-64.646736529245999
 30
0.0
  0
VERTEX
  5
1F3C
  8
L1
 10
38.193285629800812
 20
-64.566724944746255
 30
0.0
  0
VERTEX
  5
1F3D
  8
L1
 10
38.343361541673062
 20
-64.479476423138436
 30
0.0
  0
VERTEX
  5
1F3E
  8
L1
 10
38.488198451496139
 20
-64.385425210226202
 30
0.0
  0
VERTEX
  5
1F3F
  8
L1
 10
38.62720770388875
 20
-64.285050833458371
 30
0.0
  0
VERTEX
  5
1F40
  8
L1
 10
38.759932841409068
 20
-64.179025778373131
 30
0.0
  0
VERTEX
  5
1F41
  8
L1
 10
38.885952484315112
 20
-64.068073727908398
 30
0.0
  0
VERTEX
  5
1F42
  8
L1
 10
39.004845252864243
 20
-63.952918365002382
 30
0.0
  0
VERTEX
  5
1F43
  8
L1
 10
39.117348491510249
 20
-63.833084364057271
 30
0.0
  0
VERTEX
  5
1F44
  8
L1
 10
39.22561627522532
 20
-63.706259846189788
 30
0.0
  0
VERTEX
  5
1F45
  8
L1
 10
39.328933325002822
 20
-63.572871025228352
 30
0.0
  0
VERTEX
  5
1F46
  8
L1
 10
39.426584361836149
 20
-63.43334411500134
 30
0.0
  0
VERTEX
  5
1F47
  8
L1
 10
39.51790526578111
 20
-63.288139300247423
 30
0.0
  0
VERTEX
  5
1F48
  8
L1
 10
39.60242529635115
 20
-63.137845170575453
 30
0.0
  0
VERTEX
  5
1F49
  8
L1
 10
39.67971924372511
 20
-62.983080547119101
 30
0.0
  0
VERTEX
  5
1F4A
  8
L1
 10
39.749361898082149
 20
-62.824464251012188
 30
0.0
  0
VERTEX
  5
1F4B
  8
L1
 10
39.811002404391729
 20
-62.662572087863822
 30
0.0
  0
VERTEX
  5
1F4C
  8
L1
 10
39.864484322952421
 20
-62.498059544443521
 30
0.0
  0
VERTEX
  5
1F4D
  8
L1
 10
39.909674066936532
 20
-62.331664963625002
 30
0.0
  0
VERTEX
  5
1F4E
  8
L1
 10
39.946438049516019
 20
-62.16412668828238
 30
0.0
  0
VERTEX
  5
1F4F
  8
L1
 10
39.97462285845063
 20
-61.996708164626483
 30
0.0
  0
VERTEX
  5
1F50
  8
L1
 10
39.994500932087362
 20
-61.829682713096041
 30
0.0
  0
VERTEX
  5
1F51
  8
L1
 10
40.00627844929749
 20
-61.663847577088148
 30
0.0
  0
VERTEX
  5
1F52
  8
L1
 10
40.010161588952201
 20
-61.499999999999908
 30
0.0
  0
SEQEND
  5
1F53
  8
L1
  0
POLYLINE
  5
12DB
  8
L1
 66
     1
 10
0.0
 20
0.0
 30
0.0
  0
VERTEX
  5
1F54
  8
L1
 10
40.010161588952201
 20
-61.499999999999908
 30
0.0
  0
VERTEX
  5
1F55
  8
L1
 10
40.01016161771917
 20
-61.497999999999912
 30
0.0
  0
SEQEND
  5
1F56
  8
L1
  0
ARC
  5
12DC
  8
L1
 10
36.548000000000002
 20
-61.497999999999912
 30
0.0
 40
2.7019999999999542
 50
269.99999999999829
 51
0.0
  0
POLYLINE
  5
12DD
  8
L1
 66
     1
 10
0.0
 20
0.0
 30
0.0
  0
VERTEX
  5
1F57
  8
L1
 10
36.50327056558092
 20
-64.999999999999915
 30
0.0
  0
VERTEX
  5
1F58
  8
L1
 10
36.525632005575062
 20
-64.999928785284652
 30
0.0
  0
VERTEX
  5
1F59
  8
L1
 10
36.548000000000002
 20
-64.999715144036799
 30
0.0
  0
SEQEND
  5
1F5A
  8
L1
  0
LINE
  5
12DE
  8
L1
 10
36.769988067673921
 20
-56.500372922533153
 30
0.0
 11
36.770470339995882
 21
-56.510481685588701
 31
0.0
  0
ARC
  5
12DF
  8
L1
 10
35.210161617719223
 20
-47.149999999999949
 30
0.0
 40
3.2999999999999439
 50
318.59010301923558
 51
0.0
  0
POLYLINE
  5
12E0
  8
L1
 66
     1
 10
0.0
 20
0.0
 30
0.0
  0
VERTEX
  5
1F5B
  8
L1
 10
38.210161617719223
 20
-49.531163227339299
 30
0.0
  0
VERTEX
  5
1F5C
  8
L1
 10
38.210089995522708
 20
-49.524608024967129
 30
0.0
  0
VERTEX
  5
1F5D
  8
L1
 10
38.20796721712702
 20
-49.494943700917219
 30
0.0
  0
VERTEX
  5
1F5E
  8
L1
 10
38.202933526161807
 20
-49.465705594967773
 30
0.0
  0
VERTEX
  5
1F5F
  8
L1
 10
38.195036682033439
 20
-49.437107633780528
 30
0.0
  0
VERTEX
  5
1F60
  8
L1
 10
38.18432444414691
 20
-49.409363744017668
 30
0.0
  0
VERTEX
  5
1F61
  8
L1
 10
38.1709463480762
 20
-49.38286737808906
 30
0.0
  0
VERTEX
  5
1F62
  8
L1
 10
38.155056592502767
 20
-49.357881288412017
 30
0.0
  0
VERTEX
  5
1F63
  8
L1
 10
38.136781028829311
 20
-49.334583388280997
 30
0.0
  0
VERTEX
  5
1F64
  8
L1
 10
38.116245508459087
 20
-49.313151590990707
 30
0.0
  0
VERTEX
  5
1F65
  8
L1
 10
38.096091385393493
 20
-49.29572899690649
 30
0.0
  0
VERTEX
  5
1F66
  8
L1
 10
38.074514404170479
 20
-49.280191700037868
 30
0.0
  0
VERTEX
  5
1F67
  8
L1
 10
38.051646393947742
 20
-49.266626005987263
 30
0.0
  0
VERTEX
  5
1F68
  8
L1
 10
38.027619183882273
 20
-49.255118220357389
 30
0.0
  0
VERTEX
  5
1F69
  8
L1
 10
38.006136602312829
 20
-49.246935856045717
 30
0.0
  0
VERTEX
  5
1F6A
  8
L1
 10
37.98412296155481
 20
-49.240430781374442
 30
0.0
  0
VERTEX
  5
1F6B
  8
L1
 10
37.961676375062211
 20
-49.235627922194197
 30
0.0
  0
VERTEX
  5
1F6C
  8
L1
 10
37.938894956288323
 20
-49.232552204355812
 30
0.0
  0
VERTEX
  5
1F6D
  8
L1
 10
37.917536036300362
 20
-49.231264746138983
 30
0.0
  0
VERTEX
  5
1F6E
  8
L1
 10
37.896166649272793
 20
-49.231501741233821
 30
0.0
  0
VERTEX
  5
1F6F
  8
L1
 10
37.874868340417379
 20
-49.233259350328098
 30
0.0
  0
VERTEX
  5
1F70
  8
L1
 10
37.853722654946182
 20
-49.236533734109649
 30
0.0
  0
VERTEX
  5
1F71
  8
L1
 10
37.830266886782049
 20
-49.242012144038512
 30
0.0
  0
VERTEX
  5
1F72
  8
L1
 10
37.807362270439853
 20
-49.249341305652791
 30
0.0
  0
VERTEX
  5
1F73
  8
L1
 10
37.785118186757011
 20
-49.258481285121519
 30
0.0
  0
VERTEX
  5
1F74
  8
L1
 10
37.763644016570993
 20
-49.269392148613768
 30
0.0
  0
VERTEX
  5
1F75
  8
L1
 10
37.742041844173968
 20
-49.282712677022317
 30
0.0
  0
VERTEX
  5
1F76
  8
L1
 10
37.721690194407522
 20
-49.297772735277562
 30
0.0
  0
VERTEX
  5
1F77
  8
L1
 10
37.702692238121017
 20
-49.314483639347287
 30
0.0
  0
VERTEX
  5
1F78
  8
L1
 10
37.6851511461632
 20
-49.332756705199223
 30
0.0
  0
SEQEND
  5
1F79
  8
L1
  0
ARC
  5
12E1
  8
L1
 10
31.75
 20
56.749999999999972
 30
0.0
 40
5.0261806033722758
 50
357.26858442957263
 51
92.731415570427373
  0
LINE
  5
12E2
  8
L1
 10
31.999627077466808
 20
51.730011932326107
 30
0.0
 11
36.769988067673921
 21
56.500372922533273
 31
0.0
  0
ARC
  5
12E3
  8
L1
 10
35.6101616177192
 20
60.599999999999937
 30
0.0
 40
2.6000000000000001
 50
0.0
 51
90.0
  0
ARC
  5
12E4
  8
L1
 10
35.210161617719223
 20
47.149999999999999
 30
0.0
 40
3.2999999999999439
 50
41.409896980764401
 51
90.0
  0
POLYLINE
  5
12E5
  8
L1
 66
     1
 10
0.0
 20
0.0
 30
0.0
  0
VERTEX
  5
1F7A
  8
L1
 10
35.710675630255757
 20
47.94999999999996
 30
0.0
  0
VERTEX
  5
1F7B
  8
L1
 10
35.891456580594081
 20
47.93906909359972
 30
0.0
  0
VERTEX
  5
1F7C
  8
L1
 10
36.06958865385559
 20
47.906435632759298
 30
0.0
  0
VERTEX
  5
1F7D
  8
L1
 10
36.242476546331318
 20
47.85257507223767
 30
0.0
  0
VERTEX
  5
1F7E
  8
L1
 10
36.40760135965342
 20
47.778272136031688
 30
0.0
  0
VERTEX
  5
1F7F
  8
L1
 10
36.562557300005089
 20
47.68460938430249
 30
0.0
  0
VERTEX
  5
1F80
  8
L1
 10
36.705086729447309
 20
47.572951440963521
 30
0.0
  0
VERTEX
  5
1F81
  8
L1
 10
36.833113058682777
 20
47.444925111728168
 30
0.0
  0
VERTEX
  5
1F82
  8
L1
 10
36.944771002021518
 20
47.30239568228594
 30
0.0
  0
VERTEX
  5
1F83
  8
L1
 10
37.038433753750951
 20
47.147439741934271
 30
0.0
  0
VERTEX
  5
1F84
  8
L1
 10
37.112736689956819
 20
46.982314928612112
 30
0.0
  0
VERTEX
  5
1F85
  8
L1
 10
37.166597250478389
 20
46.809427036136441
 30
0.0
  0
VERTEX
  5
1F86
  8
L1
 10
37.199230711318933
 20
46.631294962874932
 30
0.0
  0
VERTEX
  5
1F87
  8
L1
 10
37.210161617719223
 20
46.450514012536672
 30
0.0
  0
SEQEND
  5
1F88
  8
L1
  0
LINE
  5
12E6
  8
L1
 10
-36.548000000000002
 20
64.999715144036855
 30
0.0
 11
36.50327056558092
 21
64.999999999999972
 31
0.0
  0
LINE
  5
12E7
  8
L1
 10
36.548000000000002
 20
64.19999999999996
 30
0.0
 11
-36.547999999999938
 21
64.199999999999903
 31
0.0
  0
LINE
  5
12E8
  8
L6
 10
-48.978883627668857
 20
0.0
 30
0.0
 11
45.681310884495161
 21
0.0
 31
0.0
  0
LINE
  5
12E9
  8
L1
 10
-22.14999999999997
 20
63.499999999999908
 30
0.0
 11
22.14999999999997
 21
63.499999999999972
 31
0.0
  0
LINE
  5
12EA
  8
L1
 10
-21.450514012536701
 20
62.19999999999996
 30
0.0
 11
21.450514012536701
 21
62.199999999999903
 31
0.0
  0
LINE
  5
12EB
  8
L1
 10
-24.531163227339441
 20
63.19999999999996
 30
0.0
 11
-35.6101616177192
 21
63.19999999999996
 31
0.0
  0
ARC
  5
12EC
  8
L1
 10
-31.75
 20
56.750000000000028
 30
0.0
 40
8.8000000000000114
 50
270.0
 51
307.28547390059668
  0
ARC
  5
12ED
  8
L1
 10
-31.75
 20
56.749999999999972
 30
0.0
 40
5.0261806033722758
 50
267.26858442957098
 51
2.7314155704272971
  0
ARC
  5
12EE
  8
L1
 10
-31.75
 20
56.749999999999972
 30
0.0
 40
6.3000000000000487
 50
270.0
 51
0.0
  0
LINE
  5
12EF
  8
L1
 10
-31.500372922533298
 20
61.769988067673829
 30
0.0
 11
-26.730011932326072
 21
56.999627077466727
 31
0.0
  0
LINE
  5
12F0
  8
L1
 10
-38.210161617719223
 20
60.599999999999937
 30
0.0
 11
-38.210161617719223
 21
49.531163227339299
 31
0.0
  0
LINE
  5
12F1
  8
L1
 10
-31.999627077466808
 20
51.730011932326107
 30
0.0
 11
-36.769988067673921
 21
56.500372922533273
 31
0.0
  0
ARC
  5
12F2
  8
L1
 10
-35.210161617719223
 20
47.149999999999999
 30
0.0
 40
3.2999999999999439
 50
138.5901030192355
 51
180.0
  0
POLYLINE
  5
12F3
  8
L1
 66
     1
 10
0.0
 20
0.0
 30
0.0
  0
VERTEX
  5
1F89
  8
L1
 10
-35.710675630255757
 20
47.94999999999996
 30
0.0
  0
VERTEX
  5
1F8A
  8
L1
 10
-35.891456580594081
 20
47.93906909359972
 30
0.0
  0
VERTEX
  5
1F8B
  8
L1
 10
-36.06958865385559
 20
47.906435632759298
 30
0.0
  0
VERTEX
  5
1F8C
  8
L1
 10
-36.242476546331318
 20
47.85257507223767
 30
0.0
  0
VERTEX
  5
1F8D
  8
L1
 10
-36.40760135965342
 20
47.778272136031688
 30
0.0
  0
VERTEX
  5
1F8E
  8
L1
 10
-36.562557300005089
 20
47.68460938430249
 30
0.0
  0
VERTEX
  5
1F8F
  8
L1
 10
-36.705086729447309
 20
47.572951440963521
 30
0.0
  0
VERTEX
  5
1F90
  8
L1
 10
-36.833113058682777
 20
47.444925111728168
 30
0.0
  0
VERTEX
  5
1F91
  8
L1
 10
-36.944771002021518
 20
47.30239568228594
 30
0.0
  0
VERTEX
  5
1F92
  8
L1
 10
-37.038433753750951
 20
47.147439741934271
 30
0.0
  0
VERTEX
  5
1F93
  8
L1
 10
-37.112736689956819
 20
46.982314928612112
 30
0.0
  0
VERTEX
  5
1F94
  8
L1
 10
-37.166597250478389
 20
46.809427036136441
 30
0.0
  0
VERTEX
  5
1F95
  8
L1
 10
-37.199230711318933
 20
46.631294962874932
 30
0.0
  0
VERTEX
  5
1F96
  8
L1
 10
-37.210161617719223
 20
46.450514012536672
 30
0.0
  0
SEQEND
  5
1F97
  8
L1
  0
LINE
  5
12F4
  8
L1
 10
-31.75
 20
47.95000000000001
 30
0.0
 11
-35.710675630255757
 21
47.95000000000001
 31
0.0
  0
ARC
  5
12F5
  8
L1
 10
-35.210161617719223
 20
47.149999999999999
 30
0.0
 40
3.2999999999999439
 50
90.0
 51
138.5901030192355
  0
POLYLINE
  5
12F6
  8
L1
 66
     1
 10
0.0
 20
0.0
 30
0.0
  0
VERTEX
  5
1F98
  8
L1
 10
-38.210161617719223
 20
49.531163227339363
 30
0.0
  0
VERTEX
  5
1F99
  8
L1
 10
-38.210089995522708
 20
49.5246080249672
 30
0.0
  0
VERTEX
  5
1F9A
  8
L1
 10
-38.20796721712702
 20
49.494943700917268
 30
0.0
  0
VERTEX
  5
1F9B
  8
L1
 10
-38.202933526161807
 20
49.465705594967829
 30
0.0
  0
VERTEX
  5
1F9C
  8
L1
 10
-38.195036682033439
 20
49.437107633780577
 30
0.0
  0
VERTEX
  5
1F9D
  8
L1
 10
-38.18432444414691
 20
49.409363744017718
 30
0.0
  0
VERTEX
  5
1F9E
  8
L1
 10
-38.1709463480762
 20
49.382867378089117
 30
0.0
  0
VERTEX
  5
1F9F
  8
L1
 10
-38.155056592502767
 20
49.357881288412067
 30
0.0
  0
VERTEX
  5
1FA0
  8
L1
 10
-38.136781028829311
 20
49.334583388281061
 30
0.0
  0
VERTEX
  5
1FA1
  8
L1
 10
-38.116245508459087
 20
49.313151590990771
 30
0.0
  0
VERTEX
  5
1FA2
  8
L1
 10
-38.096091385393493
 20
49.29572899690654
 30
0.0
  0
VERTEX
  5
1FA3
  8
L1
 10
-38.074514404170479
 20
49.280191700037932
 30
0.0
  0
VERTEX
  5
1FA4
  8
L1
 10
-38.051646393947742
 20
49.266626005987312
 30
0.0
  0
VERTEX
  5
1FA5
  8
L1
 10
-38.027619183882273
 20
49.255118220357438
 30
0.0
  0
VERTEX
  5
1FA6
  8
L1
 10
-38.006136602312829
 20
49.246935856045781
 30
0.0
  0
VERTEX
  5
1FA7
  8
L1
 10
-37.98412296155481
 20
49.240430781374499
 30
0.0
  0
VERTEX
  5
1FA8
  8
L1
 10
-37.961676375062211
 20
49.235627922194247
 30
0.0
  0
VERTEX
  5
1FA9
  8
L1
 10
-37.938894956288323
 20
49.232552204355869
 30
0.0
  0
VERTEX
  5
1FAA
  8
L1
 10
-37.917536036300362
 20
49.231264746139033
 30
0.0
  0
VERTEX
  5
1FAB
  8
L1
 10
-37.896166649272793
 20
49.23150174123387
 30
0.0
  0
VERTEX
  5
1FAC
  8
L1
 10
-37.874868340417379
 20
49.233259350328147
 30
0.0
  0
VERTEX
  5
1FAD
  8
L1
 10
-37.853722654946182
 20
49.236533734109713
 30
0.0
  0
VERTEX
  5
1FAE
  8
L1
 10
-37.830266886782049
 20
49.242012144038569
 30
0.0
  0
VERTEX
  5
1FAF
  8
L1
 10
-37.807362270439853
 20
49.249341305652848
 30
0.0
  0
VERTEX
  5
1FB0
  8
L1
 10
-37.785118186757011
 20
49.258481285121569
 30
0.0
  0
VERTEX
  5
1FB1
  8
L1
 10
-37.763644016570993
 20
49.269392148613832
 30
0.0
  0
VERTEX
  5
1FB2
  8
L1
 10
-37.742041844173968
 20
49.282712677022367
 30
0.0
  0
VERTEX
  5
1FB3
  8
L1
 10
-37.721690194407522
 20
49.297772735277611
 30
0.0
  0
VERTEX
  5
1FB4
  8
L1
 10
-37.702692238121017
 20
49.314483639347337
 30
0.0
  0
VERTEX
  5
1FB5
  8
L1
 10
-37.6851511461632
 20
49.332756705199273
 30
0.0
  0
SEQEND
  5
1FB6
  8
L1
  0
LINE
  5
12F7
  8
L1
 10
-31.989518314411271
 20
51.729529660004197
 30
0.0
 11
-31.999627077466808
 21
51.730011932326107
 31
0.0
  0
LINE
  5
12F8
  8
L1
 10
-34.25
 20
50.44999999999996
 30
0.0
 11
-35.210161617719223
 21
50.44999999999996
 31
0.0
  0
LINE
  5
12F9
  8
L1
 10
-31.75
 20
50.44999999999996
 30
0.0
 11
-34.25
 21
50.44999999999996
 31
0.0
  0
ARC
  5
12FA
  8
L1
 10
-31.75
 20
56.749999999999972
 30
0.0
 40
5.0261806033722758
 50
87.268584429572627
 51
182.73141557042729
  0
LINE
  5
12FB
  8
L1
 10
-36.769988067673921
 20
56.500372922533217
 30
0.0
 11
-36.770470339995882
 21
56.510481685588758
 31
0.0
  0
ARC
  5
12FC
  8
L1
 10
-35.6101616177192
 20
60.599999999999937
 30
0.0
 40
2.6000000000000001
 50
90.0
 51
180.0
  0
POLYLINE
  5
12FD
  8
L1
 66
     1
 10
0.0
 20
0.0
 30
0.0
  0
VERTEX
  5
1FB7
  8
L1
 10
-36.548000000000002
 20
64.999715144036855
 30
0.0
  0
VERTEX
  5
1FB8
  8
L1
 10
-36.713403957788273
 20
64.9936763638988
 30
0.0
  0
VERTEX
  5
1FB9
  8
L1
 10
-36.880719508775421
 20
64.979607624392003
 30
0.0
  0
VERTEX
  5
1FBA
  8
L1
 10
-37.049131804196463
 20
64.957308890665587
 30
0.0
  0
VERTEX
  5
1FBB
  8
L1
 10
-37.217825995286603
 20
64.926580127869016
 30
0.0
  0
VERTEX
  5
1FBC
  8
L1
 10
-37.385999809509478
 20
64.887281883585743
 30
0.0
  0
VERTEX
  5
1FBD
  8
L1
 10
-37.552898436480739
 20
64.839503332309135
 30
0.0
  0
VERTEX
  5
1FBE
  8
L1
 10
-37.71777822066133
 20
64.783387379553716
 30
0.0
  0
VERTEX
  5
1FBF
  8
L1
 10
-37.87989550651286
 20
64.719076930833836
 30
0.0
  0
VERTEX
  5
1FC0
  8
L1
 10
-38.038590392530288
 20
64.646736529246056
 30
0.0
  0
VERTEX
  5
1FC1
  8
L1
 10
-38.193285629800812
 20
64.566724944746312
 30
0.0
  0
VERTEX
  5
1FC2
  8
L1
 10
-38.343361541673062
 20
64.479476423138493
 30
0.0
  0
VERTEX
  5
1FC3
  8
L1
 10
-38.488198451496139
 20
64.385425210226245
 30
0.0
  0
VERTEX
  5
1FC4
  8
L1
 10
-38.62720770388875
 20
64.285050833458428
 30
0.0
  0
VERTEX
  5
1FC5
  8
L1
 10
-38.759932841409068
 20
64.179025778373187
 30
0.0
  0
VERTEX
  5
1FC6
  8
L1
 10
-38.885952484315112
 20
64.068073727908455
 30
0.0
  0
VERTEX
  5
1FC7
  8
L1
 10
-39.004845252864243
 20
63.952918365002432
 30
0.0
  0
VERTEX
  5
1FC8
  8
L1
 10
-39.117348491510249
 20
63.833084364057328
 30
0.0
  0
VERTEX
  5
1FC9
  8
L1
 10
-39.22561627522532
 20
63.706259846189852
 30
0.0
  0
VERTEX
  5
1FCA
  8
L1
 10
-39.328933325002822
 20
63.572871025228409
 30
0.0
  0
VERTEX
  5
1FCB
  8
L1
 10
-39.426584361836149
 20
63.433344115001411
 30
0.0
  0
VERTEX
  5
1FCC
  8
L1
 10
-39.51790526578111
 20
63.288139300247479
 30
0.0
  0
VERTEX
  5
1FCD
  8
L1
 10
-39.60242529635115
 20
63.137845170575503
 30
0.0
  0
VERTEX
  5
1FCE
  8
L1
 10
-39.67971924372511
 20
62.983080547119158
 30
0.0
  0
VERTEX
  5
1FCF
  8
L1
 10
-39.749361898082149
 20
62.824464251012238
 30
0.0
  0
VERTEX
  5
1FD0
  8
L1
 10
-39.811002404391729
 20
62.662572087863879
 30
0.0
  0
VERTEX
  5
1FD1
  8
L1
 10
-39.864484322952421
 20
62.498059544443578
 30
0.0
  0
VERTEX
  5
1FD2
  8
L1
 10
-39.909674066936532
 20
62.331664963625059
 30
0.0
  0
VERTEX
  5
1FD3
  8
L1
 10
-39.946438049516019
 20
62.164126688282437
 30
0.0
  0
VERTEX
  5
1FD4
  8
L1
 10
-39.97462285845063
 20
61.99670816462654
 30
0.0
  0
VERTEX
  5
1FD5
  8
L1
 10
-39.994500932087362
 20
61.829682713096112
 30
0.0
  0
VERTEX
  5
1FD6
  8
L1
 10
-40.00627844929749
 20
61.663847577088198
 30
0.0
  0
VERTEX
  5
1FD7
  8
L1
 10
-40.010161588952201
 20
61.499999999999972
 30
0.0
  0
SEQEND
  5
1FD8
  8
L1
  0
POLYLINE
  5
12FE
  8
L1
 66
     1
 10
0.0
 20
0.0
 30
0.0
  0
VERTEX
  5
1FD9
  8
L1
 10
-40.010161588952201
 20
61.499999999999972
 30
0.0
  0
VERTEX
  5
1FDA
  8
L1
 10
-40.01016161771917
 20
61.497999999999962
 30
0.0
  0
SEQEND
  5
1FDB
  8
L1
  0
ARC
  5
12FF
  8
L1
 10
-36.548000000000002
 20
61.497999999999962
 30
0.0
 40
2.7019999999999542
 50
89.999999999998366
 51
180.0
  0
POLYLINE
  5
1300
  8
L1
 66
     1
 10
0.0
 20
0.0
 30
0.0
  0
VERTEX
  5
1FDC
  8
L1
 10
-36.50327056558092
 20
64.999999999999972
 30
0.0
  0
VERTEX
  5
1FDD
  8
L1
 10
-36.525632005575062
 20
64.999928785284709
 30
0.0
  0
VERTEX
  5
1FDE
  8
L1
 10
-36.548000000000002
 20
64.999715144036855
 30
0.0
  0
SEQEND
  5
1FDF
  8
L1
  0
LINE
  5
1301
  8
L1
 10
-31.510481685588839
 20
61.77047033999574
 30
0.0
 11
-31.500372922533298
 21
61.769988067673829
 31
0.0
  0
ARC
  5
1302
  8
L1
 10
-31.75
 20
56.750000000000028
 30
0.0
 40
8.8000000000000114
 50
322.71452609940189
 51
0.0
  0
LINE
  5
1303
  8
L1
 10
-24.956592613576959
 20
48.82669516924156
 30
0.0
 11
-26.044503922224969
 21
49.73956114708173
 31
0.0
  0
LINE
  5
1304
  8
L1
 10
-23.844375794571761
 20
49.551639716267488
 30
0.0
 11
-24.551639716267569
 21
48.844375794571562
 31
0.0
  0
POLYLINE
  5
1305
  8
L1
 66
     1
 10
0.0
 20
0.0
 30
0.0
  0
VERTEX
  5
1FE0
  8
L1
 10
-24.956592613576959
 20
48.826695169241503
 30
0.0
  0
VERTEX
  5
1FE1
  8
L1
 10
-24.880977755057071
 20
48.780357849966919
 30
0.0
  0
VERTEX
  5
1FE2
  8
L1
 10
-24.795120575373168
 20
48.758153157972998
 30
0.0
  0
VERTEX
  5
1FE3
  8
L1
 10
-24.70652347471491
 20
48.762021390926769
 30
0.0
  0
VERTEX
  5
1FE4
  8
L1
 10
-24.622928273943781
 20
48.791624533629403
 30
0.0
  0
VERTEX
  5
1FE5
  8
L1
 10
-24.55163971626769
 20
48.844375794571562
 30
0.0
  0
SEQEND
  5
1FE6
  8
L1
  0
POLYLINE
  5
1306
  8
L1
 66
     1
 10
0.0
 20
0.0
 30
0.0
  0
VERTEX
  5
1FE7
  8
L1
 10
-26.044503922224969
 20
49.739561147081673
 30
0.0
  0
VERTEX
  5
1FE8
  8
L1
 10
-26.075897730198221
 20
49.762605782574873
 30
0.0
  0
VERTEX
  5
1FE9
  8
L1
 10
-26.11007103375891
 20
49.781419816776548
 30
0.0
  0
VERTEX
  5
1FEA
  8
L1
 10
-26.131560569867698
 20
49.790489113096697
 30
0.0
  0
VERTEX
  5
1FEB
  8
L1
 10
-26.1536560408457
 20
49.797852195035858
 30
0.0
  0
VERTEX
  5
1FEC
  8
L1
 10
-26.176255982269929
 20
49.803479427581259
 30
0.0
  0
VERTEX
  5
1FED
  8
L1
 10
-26.19925892971775
 20
49.80734117572004
 30
0.0
  0
VERTEX
  5
1FEE
  8
L1
 10
-26.220985353849301
 20
49.809325471179839
 30
0.0
  0
VERTEX
  5
1FEF
  8
L1
 10
-26.242769869206079
 20
49.80972603091427
 30
0.0
  0
VERTEX
  5
1FF0
  8
L1
 10
-26.264525972385279
 20
49.808544307857822
 30
0.0
  0
VERTEX
  5
1FF1
  8
L1
 10
-26.286167159984181
 20
49.805781754945002
 30
0.0
  0
VERTEX
  5
1FF2
  8
L1
 10
-26.309418519663151
 20
49.800997583255622
 30
0.0
  0
VERTEX
  5
1FF3
  8
L1
 10
-26.332183662871099
 20
49.794401186491513
 30
0.0
  0
VERTEX
  5
1FF4
  8
L1
 10
-26.354356816383749
 20
49.786027735510878
 30
0.0
  0
VERTEX
  5
1FF5
  8
L1
 10
-26.3758322069774
 20
49.775912401171887
 30
0.0
  0
VERTEX
  5
1FF6
  8
L1
 10
-26.39806642368319
 20
49.763105763859727
 30
0.0
  0
VERTEX
  5
1FF7
  8
L1
 10
-26.41907698910677
 20
49.748481603828417
 30
0.0
  0
SEQEND
  5
1FF8
  8
L1
  0
POLYLINE
  5
1307
  8
L1
 66
     1
 10
0.0
 20
0.0
 30
0.0
  0
VERTEX
  5
1FF9
  8
L1
 10
-23.844375794571761
 20
49.551639716267488
 30
0.0
  0
VERTEX
  5
1FFA
  8
L1
 10
-23.791624533629602
 20
49.622928273943579
 30
0.0
  0
VERTEX
  5
1FFB
  8
L1
 10
-23.762021390926972
 20
49.706523474714707
 30
0.0
  0
VERTEX
  5
1FFC
  8
L1
 10
-23.758153157973311
 20
49.795120575372977
 30
0.0
  0
VERTEX
  5
1FFD
  8
L1
 10
-23.78035784996711
 20
49.880977755056932
 30
0.0
  0
VERTEX
  5
1FFE
  8
L1
 10
-23.826695169241699
 20
49.95659261357676
 30
0.0
  0
SEQEND
  5
1FFF
  8
L1
  0
POLYLINE
  5
1308
  8
L1
 66
     1
 10
0.0
 20
0.0
 30
0.0
  0
VERTEX
  5
2000
  8
L1
 10
-24.748481603828619
 20
51.419076989106571
 30
0.0
  0
VERTEX
  5
2001
  8
L1
 10
-24.761427287836678
 20
51.400681907275178
 30
0.0
  0
VERTEX
  5
2002
  8
L1
 10
-24.772982882875219
 20
51.38132238020475
 30
0.0
  0
VERTEX
  5
2003
  8
L1
 10
-24.785418390325049
 20
51.355785225535577
 30
0.0
  0
VERTEX
  5
2004
  8
L1
 10
-24.795362895322342
 20
51.329246063272961
 30
0.0
  0
VERTEX
  5
2005
  8
L1
 10
-24.802758019352488
 20
51.301886706224558
 30
0.0
  0
VERTEX
  5
2006
  8
L1
 10
-24.807545383901129
 20
51.273888967197898
 30
0.0
  0
VERTEX
  5
2007
  8
L1
 10
-24.809686953125489
 20
51.244626086379157
 30
0.0
  0
VERTEX
  5
2008
  8
L1
 10
-24.808964466996368
 20
51.21536296529225
 30
0.0
  0
VERTEX
  5
2009
  8
L1
 10
-24.805393629604389
 20
51.186309456928278
 30
0.0
  0
VERTEX
  5
200A
  8
L1
 10
-24.798990145040079
 20
51.157675414278089
 30
0.0
  0
VERTEX
  5
200B
  8
L1
 10
-24.789686243146878
 20
51.12945479459686
 30
0.0
  0
VERTEX
  5
200C
  8
L1
 10
-24.777669211395729
 20
51.102356670615421
 30
0.0
  0
VERTEX
  5
200D
  8
L1
 10
-24.76303762275824
 20
51.076576074860242
 30
0.0
  0
VERTEX
  5
200E
  8
L1
 10
-24.745890050206409
 20
51.052308039857763
 30
0.0
  0
VERTEX
  5
200F
  8
L1
 10
-24.739561147081869
 20
51.044503922224891
 30
0.0
  0
SEQEND
  5
2010
  8
L1
  0
LINE
  5
1309
  8
L1
 10
-24.739561147081869
 20
51.044503922224891
 30
0.0
 11
-23.826695169241699
 21
49.956592613576817
 31
0.0
  0
LINE
  5
130A
  8
L1
 10
-22.950000000000038
 20
60.700514012536608
 30
0.0
 11
-22.950000000000038
 21
56.749999999999972
 31
0.0
  0
LINE
  5
130B
  8
L1
 10
-25.450000000000038
 20
60.19999999999996
 30
0.0
 11
-25.450000000000038
 21
59.249999999999972
 31
0.0
  0
LINE
  5
130C
  8
L1
 10
-25.450000000000038
 20
59.249999999999972
 30
0.0
 11
-25.450000000000038
 21
56.750000000000028
 31
0.0
  0
LINE
  5
130D
  8
L1
 10
-26.730011932326072
 20
56.999627077466727
 30
0.0
 11
-26.729529660004228
 21
56.989518314411129
 31
0.0
  0
ARC
  5
130E
  8
L1
 10
-22.14999999999997
 20
60.199999999999903
 30
0.0
 40
3.3000000000000149
 50
131.40989698076561
 51
180.0
  0
POLYLINE
  5
130F
  8
L1
 66
     1
 10
0.0
 20
0.0
 30
0.0
  0
VERTEX
  5
2011
  8
L1
 10
-21.450514012536701
 20
62.19999999999996
 30
0.0
  0
VERTEX
  5
2012
  8
L1
 10
-21.63129496287501
 20
62.18906909359967
 30
0.0
  0
VERTEX
  5
2013
  8
L1
 10
-21.809427036136409
 20
62.156435632759241
 30
0.0
  0
VERTEX
  5
2014
  8
L1
 10
-21.982314928612141
 20
62.10257507223767
 30
0.0
  0
VERTEX
  5
2015
  8
L1
 10
-22.14743974193436
 20
62.028272136031688
 30
0.0
  0
VERTEX
  5
2016
  8
L1
 10
-22.302395682286029
 20
61.934609384302433
 30
0.0
  0
VERTEX
  5
2017
  8
L1
 10
-22.444925111728249
 20
61.822951440963521
 30
0.0
  0
VERTEX
  5
2018
  8
L1
 10
-22.5729514409636
 20
61.694925111728161
 30
0.0
  0
VERTEX
  5
2019
  8
L1
 10
-22.684609384302568
 20
61.552395682285891
 30
0.0
  0
VERTEX
  5
201A
  8
L1
 10
-22.77827213603177
 20
61.397439741934278
 30
0.0
  0
VERTEX
  5
201B
  8
L1
 10
-22.852575072237752
 20
61.232314928612048
 30
0.0
  0
VERTEX
  5
201C
  8
L1
 10
-22.906435632759429
 20
61.059427036136391
 30
0.0
  0
VERTEX
  5
201D
  8
L1
 10
-22.939069093599748
 20
60.881294962874932
 30
0.0
  0
VERTEX
  5
201E
  8
L1
 10
-22.950000000000038
 20
60.700514012536608
 30
0.0
  0
SEQEND
  5
201F
  8
L1
  0
POLYLINE
  5
1310
  8
L1
 66
     1
 10
0.0
 20
0.0
 30
0.0
  0
VERTEX
  5
2020
  8
L1
 10
-24.332756705199358
 20
62.674989528443881
 30
0.0
  0
VERTEX
  5
2021
  8
L1
 10
-24.31290801793989
 20
62.69418900889238
 30
0.0
  0
VERTEX
  5
2022
  8
L1
 10
-24.29494351738856
 20
62.715087315775151
 30
0.0
  0
VERTEX
  5
2023
  8
L1
 10
-24.27897160274437
 20
62.73754641439168
 30
0.0
  0
VERTEX
  5
2024
  8
L1
 10
-24.265100673205211
 20
62.761428270041591
 30
0.0
  0
VERTEX
  5
2025
  8
L1
 10
-24.253165764745969
 20
62.787267227734638
 30
0.0
  0
VERTEX
  5
2026
  8
L1
 10
-24.243751047688079
 20
62.814060304567107
 30
0.0
  0
VERTEX
  5
2027
  8
L1
 10
-24.236911616768332
 20
62.84162345057954
 30
0.0
  0
VERTEX
  5
2028
  8
L1
 10
-24.23270256672367
 20
62.869772615812359
 30
0.0
  0
VERTEX
  5
2029
  8
L1
 10
-24.231175782790611
 20
62.899137626282958
 30
0.0
  0
VERTEX
  5
202A
  8
L1
 10
-24.232524436680588
 20
62.928441732404991
 30
0.0
  0
VERTEX
  5
202B
  8
L1
 10
-24.236728518055539
 20
62.957474023445258
 30
0.0
  0
VERTEX
  5
202C
  8
L1
 10
-24.243768016577182
 20
62.986023588670569
 30
0.0
  0
VERTEX
  5
202D
  8
L1
 10
-24.253680455433031
 20
63.014018801729243
 30
0.0
  0
VERTEX
  5
202E
  8
L1
 10
-24.26627878561521
 20
63.040833340294768
 30
0.0
  0
VERTEX
  5
202F
  8
L1
 10
-24.281460571765471
 20
63.066274451382149
 30
0.0
  0
VERTEX
  5
2030
  8
L1
 10
-24.29912337852533
 20
63.090149382006437
 30
0.0
  0
VERTEX
  5
2031
  8
L1
 10
-24.318552896418851
 20
63.111652012439059
 30
0.0
  0
VERTEX
  5
2032
  8
L1
 10
-24.339915298851899
 20
63.13113686732688
 30
0.0
  0
VERTEX
  5
2033
  8
L1
 10
-24.363054299494589
 20
63.148474653913489
 30
0.0
  0
VERTEX
  5
2034
  8
L1
 10
-24.387813612017109
 20
63.163536079442821
 30
0.0
  0
VERTEX
  5
2035
  8
L1
 10
-24.409289720460041
 20
63.174129911467418
 30
0.0
  0
VERTEX
  5
2036
  8
L1
 10
-24.43150675205208
 20
63.182964442916642
 30
0.0
  0
VERTEX
  5
2037
  8
L1
 10
-24.454356762597961
 20
63.190001691987483
 30
0.0
  0
VERTEX
  5
2038
  8
L1
 10
-24.477731807902732
 20
63.195203676876901
 30
0.0
  0
VERTEX
  5
2039
  8
L1
 10
-24.504354065604389
 20
63.19879977539599
 30
0.0
  0
VERTEX
  5
203A
  8
L1
 10
-24.531163227339441
 20
63.19999999999996
 30
0.0
  0
SEQEND
  5
203B
  8
L1
  0
ARC
  5
1311
  8
L1
 10
-22.14999999999997
 20
60.199999999999903
 30
0.0
 40
3.3000000000000149
 50
90.0
 51
131.40989698076561
  0
ARC
  5
1312
  8
L1
 10
31.75
 20
56.749999999999972
 30
0.0
 40
6.3000000000000487
 50
180.0
 51
270.0
  0
ARC
  5
1313
  8
L1
 10
31.75
 20
56.749999999999972
 30
0.0
 40
5.0261806033722758
 50
177.26858442957271
 51
272.73141557042891
  0
ARC
  5
1314
  8
L1
 10
31.75
 20
56.750000000000028
 30
0.0
 40
8.8000000000000114
 50
180.0
 51
217.28547390059799
  0
LINE
  5
1315
  8
L1
 10
24.956592613576959
 20
48.82669516924156
 30
0.0
 11
26.044503922224969
 21
49.73956114708173
 31
0.0
  0
LINE
  5
1316
  8
L1
 10
23.844375794571761
 20
49.551639716267488
 30
0.0
 11
24.551639716267569
 21
48.844375794571562
 31
0.0
  0
POLYLINE
  5
1317
  8
L1
 66
     1
 10
0.0
 20
0.0
 30
0.0
  0
VERTEX
  5
203C
  8
L1
 10
24.956592613576959
 20
48.826695169241503
 30
0.0
  0
VERTEX
  5
203D
  8
L1
 10
24.880977755057071
 20
48.780357849966919
 30
0.0
  0
VERTEX
  5
203E
  8
L1
 10
24.795120575373168
 20
48.758153157972998
 30
0.0
  0
VERTEX
  5
203F
  8
L1
 10
24.70652347471491
 20
48.762021390926769
 30
0.0
  0
VERTEX
  5
2040
  8
L1
 10
24.622928273943781
 20
48.791624533629403
 30
0.0
  0
VERTEX
  5
2041
  8
L1
 10
24.55163971626769
 20
48.844375794571562
 30
0.0
  0
SEQEND
  5
2042
  8
L1
  0
POLYLINE
  5
1318
  8
L1
 66
     1
 10
0.0
 20
0.0
 30
0.0
  0
VERTEX
  5
2043
  8
L1
 10
24.748481603828619
 20
51.419076989106571
 30
0.0
  0
VERTEX
  5
2044
  8
L1
 10
24.761427287836678
 20
51.400681907275178
 30
0.0
  0
VERTEX
  5
2045
  8
L1
 10
24.772982882875219
 20
51.38132238020475
 30
0.0
  0
VERTEX
  5
2046
  8
L1
 10
24.785418390325049
 20
51.355785225535577
 30
0.0
  0
VERTEX
  5
2047
  8
L1
 10
24.795362895322342
 20
51.329246063272961
 30
0.0
  0
VERTEX
  5
2048
  8
L1
 10
24.802758019352488
 20
51.301886706224558
 30
0.0
  0
VERTEX
  5
2049
  8
L1
 10
24.807545383901129
 20
51.273888967197898
 30
0.0
  0
VERTEX
  5
204A
  8
L1
 10
24.809686953125489
 20
51.244626086379157
 30
0.0
  0
VERTEX
  5
204B
  8
L1
 10
24.808964466996368
 20
51.21536296529225
 30
0.0
  0
VERTEX
  5
204C
  8
L1
 10
24.805393629604389
 20
51.186309456928278
 30
0.0
  0
VERTEX
  5
204D
  8
L1
 10
24.798990145040079
 20
51.157675414278089
 30
0.0
  0
VERTEX
  5
204E
  8
L1
 10
24.789686243146878
 20
51.12945479459686
 30
0.0
  0
VERTEX
  5
204F
  8
L1
 10
24.777669211395729
 20
51.102356670615421
 30
0.0
  0
VERTEX
  5
2050
  8
L1
 10
24.76303762275824
 20
51.076576074860242
 30
0.0
  0
VERTEX
  5
2051
  8
L1
 10
24.745890050206409
 20
51.052308039857763
 30
0.0
  0
VERTEX
  5
2052
  8
L1
 10
24.739561147081869
 20
51.044503922224891
 30
0.0
  0
SEQEND
  5
2053
  8
L1
  0
POLYLINE
  5
1319
  8
L1
 66
     1
 10
0.0
 20
0.0
 30
0.0
  0
VERTEX
  5
2054
  8
L1
 10
23.844375794571761
 20
49.551639716267488
 30
0.0
  0
VERTEX
  5
2055
  8
L1
 10
23.791624533629602
 20
49.622928273943579
 30
0.0
  0
VERTEX
  5
2056
  8
L1
 10
23.762021390926972
 20
49.706523474714707
 30
0.0
  0
VERTEX
  5
2057
  8
L1
 10
23.758153157973311
 20
49.795120575372977
 30
0.0
  0
VERTEX
  5
2058
  8
L1
 10
23.78035784996711
 20
49.880977755056932
 30
0.0
  0
VERTEX
  5
2059
  8
L1
 10
23.826695169241699
 20
49.95659261357676
 30
0.0
  0
SEQEND
  5
205A
  8
L1
  0
LINE
  5
131A
  8
L1
 10
24.739561147081869
 20
51.044503922224891
 30
0.0
 11
23.826695169241699
 21
49.956592613576817
 31
0.0
  0
ARC
  5
131B
  8
L1
 10
31.75
 20
56.750000000000028
 30
0.0
 40
8.8000000000000114
 50
232.7145260994032
 51
270.0
  0
LINE
  5
131C
  8
L1
 10
31.75
 20
47.95000000000001
 30
0.0
 11
35.710675630255757
 21
47.95000000000001
 31
0.0
  0
POLYLINE
  5
131D
  8
L1
 66
     1
 10
0.0
 20
0.0
 30
0.0
  0
VERTEX
  5
205B
  8
L1
 10
26.044503922224969
 20
49.739561147081673
 30
0.0
  0
VERTEX
  5
205C
  8
L1
 10
26.075897730198221
 20
49.762605782574873
 30
0.0
  0
VERTEX
  5
205D
  8
L1
 10
26.11007103375891
 20
49.781419816776548
 30
0.0
  0
VERTEX
  5
205E
  8
L1
 10
26.131560569867698
 20
49.790489113096697
 30
0.0
  0
VERTEX
  5
205F
  8
L1
 10
26.1536560408457
 20
49.797852195035858
 30
0.0
  0
VERTEX
  5
2060
  8
L1
 10
26.176255982269929
 20
49.803479427581259
 30
0.0
  0
VERTEX
  5
2061
  8
L1
 10
26.19925892971775
 20
49.80734117572004
 30
0.0
  0
VERTEX
  5
2062
  8
L1
 10
26.220985353849301
 20
49.809325471179839
 30
0.0
  0
VERTEX
  5
2063
  8
L1
 10
26.242769869206079
 20
49.80972603091427
 30
0.0
  0
VERTEX
  5
2064
  8
L1
 10
26.264525972385279
 20
49.808544307857822
 30
0.0
  0
VERTEX
  5
2065
  8
L1
 10
26.286167159984181
 20
49.805781754945002
 30
0.0
  0
VERTEX
  5
2066
  8
L1
 10
26.309418519663151
 20
49.800997583255622
 30
0.0
  0
VERTEX
  5
2067
  8
L1
 10
26.332183662871099
 20
49.794401186491513
 30
0.0
  0
VERTEX
  5
2068
  8
L1
 10
26.354356816383749
 20
49.786027735510878
 30
0.0
  0
VERTEX
  5
2069
  8
L1
 10
26.3758322069774
 20
49.775912401171887
 30
0.0
  0
VERTEX
  5
206A
  8
L1
 10
26.39806642368319
 20
49.763105763859727
 30
0.0
  0
VERTEX
  5
206B
  8
L1
 10
26.41907698910677
 20
49.748481603828417
 30
0.0
  0
SEQEND
  5
206C
  8
L1
  0
LINE
  5
131E
  8
L1
 10
31.75
 20
50.44999999999996
 30
0.0
 11
34.25
 21
50.44999999999996
 31
0.0
  0
LINE
  5
131F
  8
L1
 10
31.989518314411271
 20
51.729529660004197
 30
0.0
 11
31.999627077466808
 21
51.730011932326107
 31
0.0
  0
LINE
  5
1320
  8
L1
 10
34.25
 20
50.44999999999996
 30
0.0
 11
35.210161617719223
 21
50.44999999999996
 31
0.0
  0
LINE
  5
1321
  8
L1
 10
24.531163227339441
 20
63.19999999999996
 30
0.0
 11
35.6101616177192
 21
63.19999999999996
 31
0.0
  0
ARC
  5
1322
  8
L1
 10
22.14999999999997
 20
60.199999999999903
 30
0.0
 40
3.3000000000000149
 50
0.0
 51
48.59010301923437
  0
LINE
  5
1323
  8
L1
 10
22.950000000000038
 20
60.700514012536608
 30
0.0
 11
22.950000000000038
 21
56.749999999999972
 31
0.0
  0
POLYLINE
  5
1324
  8
L1
 66
     1
 10
0.0
 20
0.0
 30
0.0
  0
VERTEX
  5
206D
  8
L1
 10
24.332756705199358
 20
62.674989528443881
 30
0.0
  0
VERTEX
  5
206E
  8
L1
 10
24.31290801793989
 20
62.69418900889238
 30
0.0
  0
VERTEX
  5
206F
  8
L1
 10
24.29494351738856
 20
62.715087315775151
 30
0.0
  0
VERTEX
  5
2070
  8
L1
 10
24.27897160274437
 20
62.73754641439168
 30
0.0
  0
VERTEX
  5
2071
  8
L1
 10
24.265100673205211
 20
62.761428270041591
 30
0.0
  0
VERTEX
  5
2072
  8
L1
 10
24.253165764745969
 20
62.787267227734638
 30
0.0
  0
VERTEX
  5
2073
  8
L1
 10
24.243751047688079
 20
62.814060304567107
 30
0.0
  0
VERTEX
  5
2074
  8
L1
 10
24.236911616768332
 20
62.84162345057954
 30
0.0
  0
VERTEX
  5
2075
  8
L1
 10
24.23270256672367
 20
62.869772615812359
 30
0.0
  0
VERTEX
  5
2076
  8
L1
 10
24.231175782790611
 20
62.899137626282958
 30
0.0
  0
VERTEX
  5
2077
  8
L1
 10
24.232524436680588
 20
62.928441732404991
 30
0.0
  0
VERTEX
  5
2078
  8
L1
 10
24.236728518055539
 20
62.957474023445258
 30
0.0
  0
VERTEX
  5
2079
  8
L1
 10
24.243768016577182
 20
62.986023588670569
 30
0.0
  0
VERTEX
  5
207A
  8
L1
 10
24.253680455433031
 20
63.014018801729243
 30
0.0
  0
VERTEX
  5
207B
  8
L1
 10
24.26627878561521
 20
63.040833340294768
 30
0.0
  0
VERTEX
  5
207C
  8
L1
 10
24.281460571765471
 20
63.066274451382149
 30
0.0
  0
VERTEX
  5
207D
  8
L1
 10
24.29912337852533
 20
63.090149382006437
 30
0.0
  0
VERTEX
  5
207E
  8
L1
 10
24.318552896418851
 20
63.111652012439059
 30
0.0
  0
VERTEX
  5
207F
  8
L1
 10
24.339915298851899
 20
63.13113686732688
 30
0.0
  0
VERTEX
  5
2080
  8
L1
 10
24.363054299494589
 20
63.148474653913489
 30
0.0
  0
VERTEX
  5
2081
  8
L1
 10
24.387813612017109
 20
63.163536079442821
 30
0.0
  0
VERTEX
  5
2082
  8
L1
 10
24.409289720460041
 20
63.174129911467418
 30
0.0
  0
VERTEX
  5
2083
  8
L1
 10
24.43150675205208
 20
63.182964442916642
 30
0.0
  0
VERTEX
  5
2084
  8
L1
 10
24.454356762597961
 20
63.190001691987483
 30
0.0
  0
VERTEX
  5
2085
  8
L1
 10
24.477731807902732
 20
63.195203676876901
 30
0.0
  0
VERTEX
  5
2086
  8
L1
 10
24.504354065604389
 20
63.19879977539599
 30
0.0
  0
VERTEX
  5
2087
  8
L1
 10
24.531163227339441
 20
63.19999999999996
 30
0.0
  0
SEQEND
  5
2088
  8
L1
  0
ARC
  5
1325
  8
L1
 10
22.14999999999997
 20
60.199999999999903
 30
0.0
 40
3.3000000000000149
 50
48.59010301923437
 51
90.0
  0
POLYLINE
  5
1326
  8
L1
 66
     1
 10
0.0
 20
0.0
 30
0.0
  0
VERTEX
  5
2089
  8
L1
 10
21.450514012536701
 20
62.19999999999996
 30
0.0
  0
VERTEX
  5
208A
  8
L1
 10
21.63129496287501
 20
62.18906909359967
 30
0.0
  0
VERTEX
  5
208B
  8
L1
 10
21.809427036136409
 20
62.156435632759241
 30
0.0
  0
VERTEX
  5
208C
  8
L1
 10
21.982314928612141
 20
62.10257507223767
 30
0.0
  0
VERTEX
  5
208D
  8
L1
 10
22.14743974193436
 20
62.028272136031688
 30
0.0
  0
VERTEX
  5
208E
  8
L1
 10
22.302395682286029
 20
61.934609384302433
 30
0.0
  0
VERTEX
  5
208F
  8
L1
 10
22.444925111728249
 20
61.822951440963521
 30
0.0
  0
VERTEX
  5
2090
  8
L1
 10
22.5729514409636
 20
61.694925111728161
 30
0.0
  0
VERTEX
  5
2091
  8
L1
 10
22.684609384302568
 20
61.552395682285891
 30
0.0
  0
VERTEX
  5
2092
  8
L1
 10
22.77827213603177
 20
61.397439741934278
 30
0.0
  0
VERTEX
  5
2093
  8
L1
 10
22.852575072237752
 20
61.232314928612048
 30
0.0
  0
VERTEX
  5
2094
  8
L1
 10
22.906435632759429
 20
61.059427036136391
 30
0.0
  0
VERTEX
  5
2095
  8
L1
 10
22.939069093599748
 20
60.881294962874932
 30
0.0
  0
VERTEX
  5
2096
  8
L1
 10
22.950000000000038
 20
60.700514012536608
 30
0.0
  0
SEQEND
  5
2097
  8
L1
  0
LINE
  5
1327
  8
L1
 10
25.450000000000038
 20
60.19999999999996
 30
0.0
 11
25.450000000000038
 21
59.249999999999972
 31
0.0
  0
LINE
  5
1328
  8
L1
 10
31.500372922533298
 20
61.769988067673829
 30
0.0
 11
26.730011932326072
 21
56.999627077466727
 31
0.0
  0
LINE
  5
1329
  8
L1
 10
25.450000000000038
 20
59.249999999999972
 30
0.0
 11
25.450000000000038
 21
56.750000000000028
 31
0.0
  0
LINE
  5
132A
  8
L1
 10
26.730011932326072
 20
56.999627077466727
 30
0.0
 11
26.729529660004228
 21
56.989518314411129
 31
0.0
  0
LINE
  5
132B
  8
L1
 10
31.510481685588839
 20
61.77047033999574
 30
0.0
 11
31.500372922533298
 21
61.769988067673829
 31
0.0
  0
LINE
  5
132C
  8
L1
 10
38.210161617719223
 20
60.599999999999937
 30
0.0
 11
38.210161617719223
 21
49.531163227339299
 31
0.0
  0
ARC
  5
132D
  8
L1
 10
35.210161617719223
 20
47.149999999999999
 30
0.0
 40
3.2999999999999439
 50
0.0
 51
41.409896980764401
  0
POLYLINE
  5
132E
  8
L1
 66
     1
 10
0.0
 20
0.0
 30
0.0
  0
VERTEX
  5
2098
  8
L1
 10
38.210161617719223
 20
49.531163227339363
 30
0.0
  0
VERTEX
  5
2099
  8
L1
 10
38.210089995522708
 20
49.5246080249672
 30
0.0
  0
VERTEX
  5
209A
  8
L1
 10
38.20796721712702
 20
49.494943700917268
 30
0.0
  0
VERTEX
  5
209B
  8
L1
 10
38.202933526161807
 20
49.465705594967829
 30
0.0
  0
VERTEX
  5
209C
  8
L1
 10
38.195036682033439
 20
49.437107633780577
 30
0.0
  0
VERTEX
  5
209D
  8
L1
 10
38.18432444414691
 20
49.409363744017718
 30
0.0
  0
VERTEX
  5
209E
  8
L1
 10
38.1709463480762
 20
49.382867378089117
 30
0.0
  0
VERTEX
  5
209F
  8
L1
 10
38.155056592502767
 20
49.357881288412067
 30
0.0
  0
VERTEX
  5
20A0
  8
L1
 10
38.136781028829311
 20
49.334583388281061
 30
0.0
  0
VERTEX
  5
20A1
  8
L1
 10
38.116245508459087
 20
49.313151590990771
 30
0.0
  0
VERTEX
  5
20A2
  8
L1
 10
38.096091385393493
 20
49.29572899690654
 30
0.0
  0
VERTEX
  5
20A3
  8
L1
 10
38.074514404170479
 20
49.280191700037932
 30
0.0
  0
VERTEX
  5
20A4
  8
L1
 10
38.051646393947742
 20
49.266626005987312
 30
0.0
  0
VERTEX
  5
20A5
  8
L1
 10
38.027619183882273
 20
49.255118220357438
 30
0.0
  0
VERTEX
  5
20A6
  8
L1
 10
38.006136602312829
 20
49.246935856045781
 30
0.0
  0
VERTEX
  5
20A7
  8
L1
 10
37.98412296155481
 20
49.240430781374499
 30
0.0
  0
VERTEX
  5
20A8
  8
L1
 10
37.961676375062211
 20
49.235627922194247
 30
0.0
  0
VERTEX
  5
20A9
  8
L1
 10
37.938894956288323
 20
49.232552204355869
 30
0.0
  0
VERTEX
  5
20AA
  8
L1
 10
37.917536036300362
 20
49.231264746139033
 30
0.0
  0
VERTEX
  5
20AB
  8
L1
 10
37.896166649272793
 20
49.23150174123387
 30
0.0
  0
VERTEX
  5
20AC
  8
L1
 10
37.874868340417379
 20
49.233259350328147
 30
0.0
  0
VERTEX
  5
20AD
  8
L1
 10
37.853722654946182
 20
49.236533734109713
 30
0.0
  0
VERTEX
  5
20AE
  8
L1
 10
37.830266886782049
 20
49.242012144038569
 30
0.0
  0
VERTEX
  5
20AF
  8
L1
 10
37.807362270439853
 20
49.249341305652848
 30
0.0
  0
VERTEX
  5
20B0
  8
L1
 10
37.785118186757011
 20
49.258481285121569
 30
0.0
  0
VERTEX
  5
20B1
  8
L1
 10
37.763644016570993
 20
49.269392148613832
 30
0.0
  0
VERTEX
  5
20B2
  8
L1
 10
37.742041844173968
 20
49.282712677022367
 30
0.0
  0
VERTEX
  5
20B3
  8
L1
 10
37.721690194407522
 20
49.297772735277611
 30
0.0
  0
VERTEX
  5
20B4
  8
L1
 10
37.702692238121017
 20
49.314483639347337
 30
0.0
  0
VERTEX
  5
20B5
  8
L1
 10
37.6851511461632
 20
49.332756705199273
 30
0.0
  0
SEQEND
  5
20B6
  8
L1
  0
LINE
  5
132F
  8
L1
 10
36.769988067673921
 20
56.500372922533217
 30
0.0
 11
36.770470339995882
 21
56.510481685588758
 31
0.0
  0
POLYLINE
  5
1330
  8
L1
 66
     1
 10
0.0
 20
0.0
 30
0.0
  0
VERTEX
  5
20B7
  8
L1
 10
36.50327056558092
 20
64.999999999999972
 30
0.0
  0
VERTEX
  5
20B8
  8
L1
 10
36.525632005575062
 20
64.999928785284709
 30
0.0
  0
VERTEX
  5
20B9
  8
L1
 10
36.548000000000002
 20
64.999715144036855
 30
0.0
  0
SEQEND
  5
20BA
  8
L1
  0
ARC
  5
1331
  8
L1
 10
36.548000000000002
 20
61.497999999999962
 30
0.0
 40
2.7019999999999542
 50
0.0
 51
90.000000000001606
  0
POLYLINE
  5
1332
  8
L1
 66
     1
 10
0.0
 20
0.0
 30
0.0
  0
VERTEX
  5
20BB
  8
L1
 10
40.010161588952201
 20
61.499999999999972
 30
0.0
  0
VERTEX
  5
20BC
  8
L1
 10
40.01016161771917
 20
61.497999999999962
 30
0.0
  0
SEQEND
  5
20BD
  8
L1
  0
POLYLINE
  5
1333
  8
L1
 66
     1
 10
0.0
 20
0.0
 30
0.0
  0
VERTEX
  5
20BE
  8
L1
 10
36.548000000000002
 20
64.999715144036855
 30
0.0
  0
VERTEX
  5
20BF
  8
L1
 10
36.713403957788273
 20
64.9936763638988
 30
0.0
  0
VERTEX
  5
20C0
  8
L1
 10
36.880719508775421
 20
64.979607624392003
 30
0.0
  0
VERTEX
  5
20C1
  8
L1
 10
37.049131804196463
 20
64.957308890665587
 30
0.0
  0
VERTEX
  5
20C2
  8
L1
 10
37.217825995286603
 20
64.926580127869016
 30
0.0
  0
VERTEX
  5
20C3
  8
L1
 10
37.385999809509478
 20
64.887281883585743
 30
0.0
  0
VERTEX
  5
20C4
  8
L1
 10
37.552898436480739
 20
64.839503332309135
 30
0.0
  0
VERTEX
  5
20C5
  8
L1
 10
37.71777822066133
 20
64.783387379553716
 30
0.0
  0
VERTEX
  5
20C6
  8
L1
 10
37.87989550651286
 20
64.719076930833836
 30
0.0
  0
VERTEX
  5
20C7
  8
L1
 10
38.038590392530288
 20
64.646736529246056
 30
0.0
  0
VERTEX
  5
20C8
  8
L1
 10
38.193285629800812
 20
64.566724944746312
 30
0.0
  0
VERTEX
  5
20C9
  8
L1
 10
38.343361541673062
 20
64.479476423138493
 30
0.0
  0
VERTEX
  5
20CA
  8
L1
 10
38.488198451496139
 20
64.385425210226245
 30
0.0
  0
VERTEX
  5
20CB
  8
L1
 10
38.62720770388875
 20
64.285050833458428
 30
0.0
  0
VERTEX
  5
20CC
  8
L1
 10
38.759932841409068
 20
64.179025778373187
 30
0.0
  0
VERTEX
  5
20CD
  8
L1
 10
38.885952484315112
 20
64.068073727908455
 30
0.0
  0
VERTEX
  5
20CE
  8
L1
 10
39.004845252864243
 20
63.952918365002432
 30
0.0
  0
VERTEX
  5
20CF
  8
L1
 10
39.117348491510249
 20
63.833084364057328
 30
0.0
  0
VERTEX
  5
20D0
  8
L1
 10
39.22561627522532
 20
63.706259846189852
 30
0.0
  0
VERTEX
  5
20D1
  8
L1
 10
39.328933325002822
 20
63.572871025228409
 30
0.0
  0
VERTEX
  5
20D2
  8
L1
 10
39.426584361836149
 20
63.433344115001411
 30
0.0
  0
VERTEX
  5
20D3
  8
L1
 10
39.51790526578111
 20
63.288139300247479
 30
0.0
  0
VERTEX
  5
20D4
  8
L1
 10
39.60242529635115
 20
63.137845170575503
 30
0.0
  0
VERTEX
  5
20D5
  8
L1
 10
39.67971924372511
 20
62.983080547119158
 30
0.0
  0
VERTEX
  5
20D6
  8
L1
 10
39.749361898082149
 20
62.824464251012238
 30
0.0
  0
VERTEX
  5
20D7
  8
L1
 10
39.811002404391729
 20
62.662572087863879
 30
0.0
  0
VERTEX
  5
20D8
  8
L1
 10
39.864484322952421
 20
62.498059544443578
 30
0.0
  0
VERTEX
  5
20D9
  8
L1
 10
39.909674066936532
 20
62.331664963625059
 30
0.0
  0
VERTEX
  5
20DA
  8
L1
 10
39.946438049516019
 20
62.164126688282437
 30
0.0
  0
VERTEX
  5
20DB
  8
L1
 10
39.97462285845063
 20
61.99670816462654
 30
0.0
  0
VERTEX
  5
20DC
  8
L1
 10
39.994500932087362
 20
61.829682713096112
 30
0.0
  0
VERTEX
  5
20DD
  8
L1
 10
40.00627844929749
 20
61.663847577088198
 30
0.0
  0
VERTEX
  5
20DE
  8
L1
 10
40.010161588952201
 20
61.499999999999972
 30
0.0
  0
SEQEND
  5
20DF
  8
L1
  0
ENDBLK
  5
1285
  8
0
  0
BLOCK
  8
0
  2
S1
 70
     0
 10
0.0
 20
0.0
 30
0.0
  3
S1
  1

  0
LINE
  5
1338
  8
L1
 10
33.799999999999947
 20
-64.99791218762148
 30
0.0
 11
33.800000000000061
 21
64.997912187621395
 31
0.0
  0
LINE
  5
1339
  8
L1
 10
8.0000000000001137
 20
-63.045791482119071
 30
0.0
 11
8.0
 21
63.04579148211883
 31
0.0
  0
LINE
  5
133A
  8
L1
 10
8.6000000000000227
 20
60.1437914821189
 30
0.0
 11
8.6000000000000227
 21
-63.64579148211898
 31
0.0
  0
LINE
  5
133B
  8
L1
 10
35.769330927440592
 20
-62.900000028767202
 30
0.0
 11
35.769330927440592
 21
62.90000002876706
 31
0.0
  0
LINE
  5
133C
  8
L1
 10
34.600000000000023
 20
64.239838411047799
 30
0.0
 11
34.600000000000023
 21
-64.239838411047927
 31
0.0
  0
LINE
  5
133D
  8
L2
 10
10.50000000000005
 20
-46.813823489298791
 30
0.0
 11
10.50000000000005
 21
46.813823489298642
 31
0.0
  0
LINE
  5
133E
  8
L2
 10
8.5000000000000568
 20
-49.000000000000071
 30
0.0
 11
8.5000000000000568
 21
48.999999999999972
 31
0.0
  0
LINE
  5
133F
  8
L1
 10
8.6331843514793718
 20
-63.67897526785687
 30
0.0
 11
33.83983783337419
 21
-65.000000000000071
 31
0.0
  0
LINE
  5
1340
  8
L2
 10
34.600000000000023
 20
-47.939838411047909
 30
0.0
 11
10.986911525846089
 21
-47.31365215178657
 31
0.0
  0
LINE
  5
1341
  8
L1
 10
8.0
 20
-63.045791482119007
 30
0.0
 11
8.6331837544488508
 21
-63.678975236567751
 31
0.0
  0
LINE
  5
1342
  8
L2
 10
8.5000000000000568
 20
-49.000000000000071
 30
0.0
 11
8.0000000000000568
 21
-49.000000000000071
 31
0.0
  0
ARC
  5
1343
  8
L2
 10
11.00000000000005
 20
-46.813823489298791
 30
0.0
 40
0.5
 50
180.0
 51
268.49999999999892
  0
LINE
  5
1344
  8
L1
 10
35.38149846027283
 20
-63.362200764838867
 30
0.0
 11
34.603156115677841
 21
-63.499443520418893
 31
0.0
  0
LINE
  5
1345
  8
L1
 10
34.600000000000023
 20
-64.23983841104787
 30
0.0
 11
33.839838382280838
 21
-65.000000028767047
 31
0.0
  0
ARC
  5
1346
  8
L1
 10
35.300000000000061
 20
-62.900000028767202
 30
0.0
 40
0.4693309274404737
 50
280.00000000000182
 51
0.0
  0
LINE
  5
1347
  8
L6
 10
0.0
 20
0.0
 30
0.0
 11
43.769330927440478
 21
0.0
 31
0.0
  0
LINE
  5
1348
  8
L1
 10
8.6331843514793718
 20
63.678975267856799
 30
0.0
 11
33.83983783337419
 21
65.0
 31
0.0
  0
LINE
  5
1349
  8
L2
 10
34.600000000000023
 20
47.939838411047837
 30
0.0
 11
10.986911525846089
 21
47.313652151786407
 31
0.0
  0
LINE
  5
134A
  8
L2
 10
8.5000000000000568
 20
48.999999999999972
 30
0.0
 11
7.9999999999999432
 21
49.0
 31
0.0
  0
ARC
  5
134B
  8
L2
 10
11.00000000000005
 20
46.813823489298642
 30
0.0
 40
0.5
 50
91.500000000001094
 51
180.0
  0
POLYLINE
  5
134C
  8
L1
 66
     1
 10
0.0
 20
0.0
 30
0.0
  0
VERTEX
  5
20E1
  8
L1
 10
8.6001171717734906
 20
60.172439079408491
 30
0.0
  0
VERTEX
  5
20E2
  8
L1
 10
8.6014368445590872
 20
60.332423808873152
 30
0.0
  0
VERTEX
  5
20E3
  8
L1
 10
8.6027933997038417
 20
60.494204889452583
 30
0.0
  0
VERTEX
  5
20E4
  8
L1
 10
8.6041812825037596
 20
60.657063267460899
 30
0.0
  0
VERTEX
  5
20E5
  8
L1
 10
8.605594938254967
 20
60.82027988921152
 30
0.0
  0
VERTEX
  5
20E6
  8
L1
 10
8.6070937303161372
 20
60.990480560158062
 30
0.0
  0
VERTEX
  5
20E7
  8
L1
 10
8.6086069273374051
 20
61.159533033631412
 30
0.0
  0
VERTEX
  5
20E8
  8
L1
 10
8.6101268175634686
 20
61.326681886983579
 30
0.0
  0
VERTEX
  5
20E9
  8
L1
 10
8.6116456892390261
 20
61.491171697566529
 30
0.0
  0
VERTEX
  5
20EA
  8
L1
 10
8.6131562682087406
 20
61.652331968365729
 30
0.0
  0
VERTEX
  5
20EB
  8
L1
 10
8.6146509867062377
 20
61.809572316523713
 30
0.0
  0
VERTEX
  5
20EC
  8
L1
 10
8.6161216925588633
 20
61.96225749062944
 30
0.0
  0
VERTEX
  5
20ED
  8
L1
 10
8.617560233594304
 20
62.10975223927187
 30
0.0
  0
VERTEX
  5
20EE
  8
L1
 10
8.6189584805856612
 20
62.251451938285982
 30
0.0
  0
VERTEX
  5
20EF
  8
L1
 10
8.6203090809086689
 20
62.386882705824519
 30
0.0
  0
VERTEX
  5
20F0
  8
L1
 10
8.6216050472943362
 20
62.515605403952463
 30
0.0
  0
VERTEX
  5
20F1
  8
L1
 10
8.622839392474134
 20
62.637180894735032
 30
0.0
  0
VERTEX
  5
20F2
  8
L1
 10
8.6240304917690764
 20
62.753637013816963
 30
0.0
  0
VERTEX
  5
20F3
  8
L1
 10
8.6251839673299173
 20
62.865727539423801
 30
0.0
  0
VERTEX
  5
20F4
  8
L1
 10
8.6262901067186704
 20
62.972711773028429
 30
0.0
  0
VERTEX
  5
20F5
  8
L1
 10
8.6273391974978022
 20
63.073849016103509
 30
0.0
  0
VERTEX
  5
20F6
  8
L1
 10
8.6283218782633622
 20
63.168451236849592
 30
0.0
  0
VERTEX
  5
20F7
  8
L1
 10
8.6292307513514288
 20
63.25602880583881
 30
0.0
  0
VERTEX
  5
20F8
  8
L1
 10
8.6300590499339478
 20
63.336138628100791
 30
0.0
  0
VERTEX
  5
20F9
  8
L1
 10
8.6308000071826427
 20
63.408337608665192
 30
0.0
  0
VERTEX
  5
20FA
  8
L1
 10
8.6314476951213237
 20
63.472260094145099
 30
0.0
  0
VERTEX
  5
20FB
  8
L1
 10
8.6319988945375599
 20
63.527739872602858
 30
0.0
  0
VERTEX
  5
20FC
  8
L1
 10
8.6324509017493938
 20
63.574633011242547
 30
0.0
  0
VERTEX
  5
20FD
  8
L1
 10
8.6328010130747543
 20
63.61279557726823
 30
0.0
  0
VERTEX
  5
20FE
  8
L1
 10
8.6330467413613405
 20
63.642064036379573
 30
0.0
  0
VERTEX
  5
20FF
  8
L1
 10
8.6331908679042044
 20
63.662711936526307
 30
0.0
  0
VERTEX
  5
2100
  8
L1
 10
8.6332359016334976
 20
63.674946579691209
 30
0.0
  0
VERTEX
  5
2101
  8
L1
 10
8.6331843514792581
 20
63.678975267856799
 30
0.0
  0
SEQEND
  5
2102
  8
L1
  0
LINE
  5
134D
  8
L1
 10
8.0
 20
63.045791482118943
 30
0.0
 11
8.6331837544488508
 21
63.67897523656768
 31
0.0
  0
LINE
  5
134E
  8
L1
 10
35.38149846027283
 20
63.362200764838803
 30
0.0
 11
34.603156115677841
 21
63.499443520418822
 31
0.0
  0
LINE
  5
134F
  8
L1
 10
34.600000000000023
 20
64.239838411047799
 30
0.0
 11
33.839838382280838
 21
65.000000028766976
 31
0.0
  0
ARC
  5
1350
  8
L1
 10
35.300000000000061
 20
62.900000028767039
 30
0.0
 40
0.4693309274404737
 50
0.0
 51
79.999999999998195
  0
ENDBLK
  5
1337
  8
0
  0
BLOCK
  8
0
  2
T
 70
     0
 10
0.0
 20
0.0
 30
0.0
  3
T
  1

  0
LINE
  5
1355
  8
L1
 10
38.055961617719163
 20
-61.498000000000033
 30
0.0
 11
38.055961617719163
 21
61.49799999999999
 31
0.0
  0
LINE
  5
1356
  8
L1
 10
23.99999999999994
 20
47.0
 30
0.0
 11
23.99999999999994
 21
-47.0
 31
0.0
  0
LINE
  5
1357
  8
L1
 10
40.01016161771917
 20
-61.498000000000033
 30
0.0
 11
40.01016161771917
 21
61.49799999999999
 31
0.0
  0
LINE
  5
1358
  8
L1
 10
-23.99999999999994
 20
47.0
 30
0.0
 11
-23.99999999999994
 21
-47.0
 31
0.0
  0
LINE
  5
1359
  8
L1
 10
-40.01016161771917
 20
-61.498000000000033
 30
0.0
 11
-40.01016161771917
 21
61.49799999999999
 31
0.0
  0
LINE
  5
135A
  8
L1
 10
-38.055953071071201
 20
-61.497999999999998
 30
0.0
 11
-38.055953071071201
 21
61.49799999999999
 31
0.0
  0
LINE
  5
135B
  8
L6
 10
0.0
 20
70.904644215221623
 30
0.0
 11
0.0
 21
-81.170505648737304
 31
0.0
  0
LINE
  5
135C
  8
L1
 10
-36.476701058746812
 20
-63.04681624727445
 30
0.0
 11
36.476701058746812
 21
-63.04681624727445
 31
0.0
  0
ARC
  5
135D
  8
L1
 10
31.75
 20
-56.750000000000057
 30
0.0
 40
5.0
 50
87.268584429571007
 51
182.73141557042891
  0
CIRCLE
  5
135E
  8
L1
 10
31.75
 20
-56.750000000000057
 30
0.0
 40
5.7982698575061704
  0
CIRCLE
  5
135F
  8
L1
 10
31.75
 20
-56.750000000000057
 30
0.0
 40
5.9982622421189946
  0
LINE
  5
1360
  8
L1
 10
26.755680519490959
 20
-56.988270700271471
 30
0.0
 11
31.511729299728529
 21
-61.744319480509091
 31
0.0
  0
LINE
  5
1361
  8
L1
 10
-35.153953071071037
 20
-65.000000000000057
 30
0.0
 11
36.548000000000059
 21
-64.999715144036941
 31
0.0
  0
LINE
  5
1362
  8
L1
 10
-22.0
 20
-49.00000000000005
 30
0.0
 11
22.0
 21
-49.00000000000005
 31
0.0
  0
ARC
  5
1363
  8
L1
 10
-31.75
 20
-56.750000000000057
 30
0.0
 40
5.0
 50
357.26858442957092
 51
92.731415570428993
  0
LINE
  5
1364
  8
L1
 10
-36.744319480509027
 20
-56.511729299728643
 30
0.0
 11
-31.988270700271411
 21
-51.755680519491051
 31
0.0
  0
CIRCLE
  5
1365
  8
L1
 10
-31.75
 20
-56.750000000000057
 30
0.0
 40
5.9982622421189946
  0
CIRCLE
  5
1366
  8
L1
 10
-31.75
 20
-56.750000000000057
 30
0.0
 40
5.7982698575061704
  0
LINE
  5
1367
  8
L1
 10
-26.755680519490959
 20
-56.988270700271471
 30
0.0
 11
-31.511729299728529
 21
-61.744319480509091
 31
0.0
  0
ARC
  5
1368
  8
L1
 10
-31.75
 20
-56.750000000000057
 30
0.0
 40
5.0
 50
177.2685844295726
 51
272.73141557042891
  0
POLYLINE
  5
1369
  8
L1
 66
     1
 10
0.0
 20
0.0
 30
0.0
  0
VERTEX
  5
2104
  8
L1
 10
-38.056510171621653
 20
-61.453699032815067
 30
0.0
  0
VERTEX
  5
2105
  8
L1
 10
-38.053720056271231
 20
-61.571426871784631
 30
0.0
  0
VERTEX
  5
2106
  8
L1
 10
-38.048502921278377
 20
-61.644887540589082
 30
0.0
  0
VERTEX
  5
2107
  8
L1
 10
-38.039699010514482
 20
-61.718862373233861
 30
0.0
  0
VERTEX
  5
2108
  8
L1
 10
-38.027342300363443
 20
-61.792261564106852
 30
0.0
  0
VERTEX
  5
2109
  8
L1
 10
-38.011190240375583
 20
-61.865868613281933
 30
0.0
  0
VERTEX
  5
210A
  8
L1
 10
-37.9911798114777
 20
-61.939549644305991
 30
0.0
  0
VERTEX
  5
210B
  8
L1
 10
-37.967494774316087
 20
-62.012405776047849
 30
0.0
  0
VERTEX
  5
210C
  8
L1
 10
-37.940423026572311
 20
-62.083506811143756
 30
0.0
  0
VERTEX
  5
210D
  8
L1
 10
-37.909829470847797
 20
-62.15318589702261
 30
0.0
  0
VERTEX
  5
210E
  8
L1
 10
-37.875574669849918
 20
-62.221773820891443
 30
0.0
  0
VERTEX
  5
210F
  8
L1
 10
-37.838104307648109
 20
-62.288403889972358
 30
0.0
  0
VERTEX
  5
2110
  8
L1
 10
-37.797956144561958
 20
-62.352241481715218
 30
0.0
  0
VERTEX
  5
2111
  8
L1
 10
-37.755011814773518
 20
-62.413601707284407
 30
0.0
  0
VERTEX
  5
2112
  8
L1
 10
-37.709137818553472
 20
-62.472827926788092
 30
0.0
  0
VERTEX
  5
2113
  8
L1
 10
-37.661038090704658
 20
-62.529171786287669
 30
0.0
  0
VERTEX
  5
2114
  8
L1
 10
-37.611905491356929
 20
-62.581505888199082
 30
0.0
  0
VERTEX
  5
2115
  8
L1
 10
-37.559729975640487
 20
-62.632041261548167
 30
0.0
  0
VERTEX
  5
2116
  8
L1
 10
-37.503688585398379
 20
-62.681382039024442
 30
0.0
  0
VERTEX
  5
2117
  8
L1
 10
-37.444659313435182
 20
-62.728536496186571
 30
0.0
  0
VERTEX
  5
2118
  8
L1
 10
-37.383380432256381
 20
-62.772784122883962
 30
0.0
  0
VERTEX
  5
2119
  8
L1
 10
-37.319510188727122
 20
-62.814258867686689
 30
0.0
  0
VERTEX
  5
211A
  8
L1
 10
-37.252737086269292
 20
-62.85307825182322
 30
0.0
  0
VERTEX
  5
211B
  8
L1
 10
-37.183891516556677
 20
-62.888686608070572
 30
0.0
  0
VERTEX
  5
211C
  8
L1
 10
-37.113837586654313
 20
-62.920620399694933
 30
0.0
  0
VERTEX
  5
211D
  8
L1
 10
-37.04225246563032
 20
-62.9490175643189
 30
0.0
  0
VERTEX
  5
211E
  8
L1
 10
-36.96881257469721
 20
-62.974012438435487
 30
0.0
  0
VERTEX
  5
211F
  8
L1
 10
-36.894451018127199
 20
-62.995300135692659
 30
0.0
  0
VERTEX
  5
2120
  8
L1
 10
-36.820144215858299
 20
-63.012663878561654
 30
0.0
  0
VERTEX
  5
2121
  8
L1
 10
-36.74559498204377
 20
-63.026243514634189
 30
0.0
  0
VERTEX
  5
2122
  8
L1
 10
-36.670474888767501
 20
-63.036189836862491
 30
0.0
  0
VERTEX
  5
2123
  8
L1
 10
-36.595817862418073
 20
-63.042467378010763
 30
0.0
  0
VERTEX
  5
2124
  8
L1
 10
-36.476701058746812
 20
-63.04681624727445
 30
0.0
  0
SEQEND
  5
2125
  8
L1
  0
POLYLINE
  5
136A
  8
L1
 66
     1
 10
0.0
 20
0.0
 30
0.0
  0
VERTEX
  5
2126
  8
L1
 10
-35.153953071071157
 20
-65.000000000000057
 30
0.0
  0
VERTEX
  5
2127
  8
L1
 10
-35.182600668360628
 20
-65.000000000000057
 30
0.0
  0
SEQEND
  5
2128
  8
L1
  0
POLYLINE
  5
136B
  8
L1
 66
     1
 10
0.0
 20
0.0
 30
0.0
  0
VERTEX
  5
2129
  8
L1
 10
-40.010161588952201
 20
-61.50000000000005
 30
0.0
  0
VERTEX
  5
212A
  8
L1
 10
-40.00627844929749
 20
-61.663847577088347
 30
0.0
  0
VERTEX
  5
212B
  8
L1
 10
-39.994500932087412
 20
-61.829682713096247
 30
0.0
  0
VERTEX
  5
212C
  8
L1
 10
-39.974622858450687
 20
-61.996708164626739
 30
0.0
  0
VERTEX
  5
212D
  8
L1
 10
-39.946438049515898
 20
-62.164126688282579
 30
0.0
  0
VERTEX
  5
212E
  8
L1
 10
-39.909674066936411
 20
-62.331664963625201
 30
0.0
  0
VERTEX
  5
212F
  8
L1
 10
-39.864484322952357
 20
-62.498059544443663
 30
0.0
  0
VERTEX
  5
2130
  8
L1
 10
-39.811002404391672
 20
-62.662572087864021
 30
0.0
  0
VERTEX
  5
2131
  8
L1
 10
-39.749361898082093
 20
-62.82446425101233
 30
0.0
  0
VERTEX
  5
2132
  8
L1
 10
-39.679719243725167
 20
-62.9830805471193
 30
0.0
  0
VERTEX
  5
2133
  8
L1
 10
-39.602425296351207
 20
-63.137845170575638
 30
0.0
  0
VERTEX
  5
2134
  8
L1
 10
-39.517905265781053
 20
-63.288139300247501
 30
0.0
  0
VERTEX
  5
2135
  8
L1
 10
-39.426584361836028
 20
-63.433344115001489
 30
0.0
  0
VERTEX
  5
2136
  8
L1
 10
-39.328933325002822
 20
-63.57287102522843
 30
0.0
  0
VERTEX
  5
2137
  8
L1
 10
-39.22561627522537
 20
-63.706259846190051
 30
0.0
  0
VERTEX
  5
2138
  8
L1
 10
-39.117348491510199
 20
-63.83308436405747
 30
0.0
  0
VERTEX
  5
2139
  8
L1
 10
-39.004845252864072
 20
-63.952918365002567
 30
0.0
  0
VERTEX
  5
213A
  8
L1
 10
-38.885952484314878
 20
-64.068073727908654
 30
0.0
  0
VERTEX
  5
213B
  8
L1
 10
-38.759932841409118
 20
-64.17902577837333
 30
0.0
  0
VERTEX
  5
213C
  8
L1
 10
-38.627207703888807
 20
-64.28505083345857
 30
0.0
  0
VERTEX
  5
213D
  8
L1
 10
-38.488198451496203
 20
-64.385425210226401
 30
0.0
  0
VERTEX
  5
213E
  8
L1
 10
-38.343361541673119
 20
-64.479476423138635
 30
0.0
  0
VERTEX
  5
213F
  8
L1
 10
-38.193285629800748
 20
-64.566724944746454
 30
0.0
  0
VERTEX
  5
2140
  8
L1
 10
-38.038590392530352
 20
-64.646736529246198
 30
0.0
  0
VERTEX
  5
2141
  8
L1
 10
-37.879895506512689
 20
-64.719076930833978
 30
0.0
  0
VERTEX
  5
2142
  8
L1
 10
-37.717778220661273
 20
-64.783387379553801
 30
0.0
  0
VERTEX
  5
2143
  8
L1
 10
-37.552898436480568
 20
-64.839503332309221
 30
0.0
  0
VERTEX
  5
2144
  8
L1
 10
-37.385999809509599
 20
-64.887281883585899
 30
0.0
  0
VERTEX
  5
2145
  8
L1
 10
-37.217825995286539
 20
-64.926580127869101
 30
0.0
  0
VERTEX
  5
2146
  8
L1
 10
-37.04913180419652
 20
-64.957308890665672
 30
0.0
  0
VERTEX
  5
2147
  8
L1
 10
-36.880719508775478
 20
-64.979607624392031
 30
0.0
  0
VERTEX
  5
2148
  8
L1
 10
-36.713403957788273
 20
-64.993676363898885
 30
0.0
  0
VERTEX
  5
2149
  8
L1
 10
-36.548000000000059
 20
-64.999715144036941
 30
0.0
  0
SEQEND
  5
214A
  8
L1
  0
POLYLINE
  5
136C
  8
L1
 66
     1
 10
0.0
 20
0.0
 30
0.0
  0
VERTEX
  5
214B
  8
L1
 10
-40.01016161771912
 20
-61.49799999999999
 30
0.0
  0
VERTEX
  5
214C
  8
L1
 10
-40.010161588952201
 20
-61.50000000000005
 30
0.0
  0
SEQEND
  5
214D
  8
L1
  0
POLYLINE
  5
136D
  8
L1
 66
     1
 10
0.0
 20
0.0
 30
0.0
  0
VERTEX
  5
214E
  8
L1
 10
-36.548000000000059
 20
-64.999715144036941
 30
0.0
  0
VERTEX
  5
214F
  8
L1
 10
-36.525632005574998
 20
-64.999928785284723
 30
0.0
  0
VERTEX
  5
2150
  8
L1
 10
-36.503270565580863
 20
-65.000000000000057
 30
0.0
  0
SEQEND
  5
2151
  8
L1
  0
LINE
  5
136E
  8
L1
 10
-36.503270565580863
 20
-65.000000000000057
 30
0.0
 11
-35.182600668360628
 21
-65.000000000000057
 31
0.0
  0
ARC
  5
136F
  8
L1
 10
-22.0
 20
-47.00000000000005
 30
0.0
 40
1.9999999999999989
 50
180.0
 51
270.0
  0
ARC
  5
1370
  8
L1
 10
22.0
 20
-47.00000000000005
 30
0.0
 40
1.9999999999999989
 50
270.0
 51
0.0
  0
LINE
  5
1371
  8
L1
 10
36.744319480509027
 20
-56.511729299728643
 30
0.0
 11
31.988270700271411
 21
-51.755680519491051
 31
0.0
  0
POLYLINE
  5
1372
  8
L1
 66
     1
 10
0.0
 20
0.0
 30
0.0
  0
VERTEX
  5
2152
  8
L1
 10
40.010161588952201
 20
-61.50000000000005
 30
0.0
  0
VERTEX
  5
2153
  8
L1
 10
40.00627844929749
 20
-61.663847577088347
 30
0.0
  0
VERTEX
  5
2154
  8
L1
 10
39.994500932087412
 20
-61.829682713096247
 30
0.0
  0
VERTEX
  5
2155
  8
L1
 10
39.974622858450687
 20
-61.996708164626739
 30
0.0
  0
VERTEX
  5
2156
  8
L1
 10
39.946438049515898
 20
-62.164126688282579
 30
0.0
  0
VERTEX
  5
2157
  8
L1
 10
39.909674066936411
 20
-62.331664963625201
 30
0.0
  0
VERTEX
  5
2158
  8
L1
 10
39.864484322952357
 20
-62.498059544443663
 30
0.0
  0
VERTEX
  5
2159
  8
L1
 10
39.811002404391672
 20
-62.662572087864021
 30
0.0
  0
VERTEX
  5
215A
  8
L1
 10
39.749361898082093
 20
-62.82446425101233
 30
0.0
  0
VERTEX
  5
215B
  8
L1
 10
39.679719243725167
 20
-62.9830805471193
 30
0.0
  0
VERTEX
  5
215C
  8
L1
 10
39.602425296351207
 20
-63.137845170575638
 30
0.0
  0
VERTEX
  5
215D
  8
L1
 10
39.517905265781053
 20
-63.288139300247501
 30
0.0
  0
VERTEX
  5
215E
  8
L1
 10
39.426584361836028
 20
-63.433344115001489
 30
0.0
  0
VERTEX
  5
215F
  8
L1
 10
39.328933325002822
 20
-63.57287102522843
 30
0.0
  0
VERTEX
  5
2160
  8
L1
 10
39.22561627522537
 20
-63.706259846190051
 30
0.0
  0
VERTEX
  5
2161
  8
L1
 10
39.117348491510199
 20
-63.83308436405747
 30
0.0
  0
VERTEX
  5
2162
  8
L1
 10
39.004845252864072
 20
-63.952918365002567
 30
0.0
  0
VERTEX
  5
2163
  8
L1
 10
38.885952484314878
 20
-64.068073727908654
 30
0.0
  0
VERTEX
  5
2164
  8
L1
 10
38.759932841409118
 20
-64.17902577837333
 30
0.0
  0
VERTEX
  5
2165
  8
L1
 10
38.627207703888807
 20
-64.28505083345857
 30
0.0
  0
VERTEX
  5
2166
  8
L1
 10
38.488198451496203
 20
-64.385425210226401
 30
0.0
  0
VERTEX
  5
2167
  8
L1
 10
38.343361541673119
 20
-64.479476423138635
 30
0.0
  0
VERTEX
  5
2168
  8
L1
 10
38.193285629800748
 20
-64.566724944746454
 30
0.0
  0
VERTEX
  5
2169
  8
L1
 10
38.038590392530352
 20
-64.646736529246198
 30
0.0
  0
VERTEX
  5
216A
  8
L1
 10
37.879895506512689
 20
-64.719076930833978
 30
0.0
  0
VERTEX
  5
216B
  8
L1
 10
37.717778220661273
 20
-64.783387379553801
 30
0.0
  0
VERTEX
  5
216C
  8
L1
 10
37.552898436480568
 20
-64.839503332309221
 30
0.0
  0
VERTEX
  5
216D
  8
L1
 10
37.385999809509599
 20
-64.887281883585899
 30
0.0
  0
VERTEX
  5
216E
  8
L1
 10
37.217825995286539
 20
-64.926580127869101
 30
0.0
  0
VERTEX
  5
216F
  8
L1
 10
37.04913180419652
 20
-64.957308890665672
 30
0.0
  0
VERTEX
  5
2170
  8
L1
 10
36.880719508775478
 20
-64.979607624392031
 30
0.0
  0
VERTEX
  5
2171
  8
L1
 10
36.713403957788273
 20
-64.993676363898885
 30
0.0
  0
VERTEX
  5
2172
  8
L1
 10
36.548000000000059
 20
-64.999715144036941
 30
0.0
  0
SEQEND
  5
2173
  8
L1
  0
ARC
  5
1373
  8
L1
 10
31.75
 20
-56.750000000000057
 30
0.0
 40
5.0
 50
267.26858442957098
 51
2.7314155704273748
  0
POLYLINE
  5
1374
  8
L1
 66
     1
 10
0.0
 20
0.0
 30
0.0
  0
VERTEX
  5
2174
  8
L1
 10
38.056510171621653
 20
-61.453699032815067
 30
0.0
  0
VERTEX
  5
2175
  8
L1
 10
38.053720056271231
 20
-61.571426871784631
 30
0.0
  0
VERTEX
  5
2176
  8
L1
 10
38.048502921278377
 20
-61.644887540589082
 30
0.0
  0
VERTEX
  5
2177
  8
L1
 10
38.039699010514482
 20
-61.718862373233861
 30
0.0
  0
VERTEX
  5
2178
  8
L1
 10
38.027342300363443
 20
-61.792261564106852
 30
0.0
  0
VERTEX
  5
2179
  8
L1
 10
38.011190240375583
 20
-61.865868613281933
 30
0.0
  0
VERTEX
  5
217A
  8
L1
 10
37.9911798114777
 20
-61.939549644305991
 30
0.0
  0
VERTEX
  5
217B
  8
L1
 10
37.967494774316087
 20
-62.012405776047849
 30
0.0
  0
VERTEX
  5
217C
  8
L1
 10
37.940423026572311
 20
-62.083506811143756
 30
0.0
  0
VERTEX
  5
217D
  8
L1
 10
37.909829470847797
 20
-62.15318589702261
 30
0.0
  0
VERTEX
  5
217E
  8
L1
 10
37.875574669849918
 20
-62.221773820891443
 30
0.0
  0
VERTEX
  5
217F
  8
L1
 10
37.838104307648109
 20
-62.288403889972358
 30
0.0
  0
VERTEX
  5
2180
  8
L1
 10
37.797956144561958
 20
-62.352241481715218
 30
0.0
  0
VERTEX
  5
2181
  8
L1
 10
37.755011814773518
 20
-62.413601707284407
 30
0.0
  0
VERTEX
  5
2182
  8
L1
 10
37.709137818553472
 20
-62.472827926788092
 30
0.0
  0
VERTEX
  5
2183
  8
L1
 10
37.661038090704658
 20
-62.529171786287669
 30
0.0
  0
VERTEX
  5
2184
  8
L1
 10
37.611905491356929
 20
-62.581505888199082
 30
0.0
  0
VERTEX
  5
2185
  8
L1
 10
37.559729975640487
 20
-62.632041261548167
 30
0.0
  0
VERTEX
  5
2186
  8
L1
 10
37.503688585398379
 20
-62.681382039024442
 30
0.0
  0
VERTEX
  5
2187
  8
L1
 10
37.444659313435182
 20
-62.728536496186571
 30
0.0
  0
VERTEX
  5
2188
  8
L1
 10
37.383380432256381
 20
-62.772784122883962
 30
0.0
  0
VERTEX
  5
2189
  8
L1
 10
37.319510188727122
 20
-62.814258867686689
 30
0.0
  0
VERTEX
  5
218A
  8
L1
 10
37.252737086269292
 20
-62.85307825182322
 30
0.0
  0
VERTEX
  5
218B
  8
L1
 10
37.183891516556677
 20
-62.888686608070572
 30
0.0
  0
VERTEX
  5
218C
  8
L1
 10
37.113837586654313
 20
-62.920620399694933
 30
0.0
  0
VERTEX
  5
218D
  8
L1
 10
37.04225246563032
 20
-62.9490175643189
 30
0.0
  0
VERTEX
  5
218E
  8
L1
 10
36.96881257469721
 20
-62.974012438435487
 30
0.0
  0
VERTEX
  5
218F
  8
L1
 10
36.894451018127199
 20
-62.995300135692659
 30
0.0
  0
VERTEX
  5
2190
  8
L1
 10
36.820144215858299
 20
-63.012663878561654
 30
0.0
  0
VERTEX
  5
2191
  8
L1
 10
36.74559498204377
 20
-63.026243514634189
 30
0.0
  0
VERTEX
  5
2192
  8
L1
 10
36.670474888767501
 20
-63.036189836862491
 30
0.0
  0
VERTEX
  5
2193
  8
L1
 10
36.595817862418073
 20
-63.042467378010763
 30
0.0
  0
VERTEX
  5
2194
  8
L1
 10
36.476701058746812
 20
-63.04681624727445
 30
0.0
  0
SEQEND
  5
2195
  8
L1
  0
POLYLINE
  5
1375
  8
L1
 66
     1
 10
0.0
 20
0.0
 30
0.0
  0
VERTEX
  5
2196
  8
L1
 10
40.01016161771912
 20
-61.49799999999999
 30
0.0
  0
VERTEX
  5
2197
  8
L1
 10
40.010161588952201
 20
-61.50000000000005
 30
0.0
  0
SEQEND
  5
2198
  8
L1
  0
LINE
  5
1376
  8
L1
 10
-36.476701058746812
 20
63.046816247274393
 30
0.0
 11
36.476701058746812
 21
63.046816247274393
 31
0.0
  0
ARC
  5
1377
  8
L1
 10
31.75
 20
56.75
 30
0.0
 40
5.0
 50
177.26858442957101
 51
272.73141557042891
  0
CIRCLE
  5
1378
  8
L1
 10
31.75
 20
56.75
 30
0.0
 40
5.9982622421189946
  0
CIRCLE
  5
1379
  8
L1
 10
31.75
 20
56.75
 30
0.0
 40
5.7982698575061704
  0
LINE
  5
137A
  8
L1
 10
26.755680519490959
 20
56.988270700271407
 30
0.0
 11
31.511729299728529
 21
61.744319480509027
 31
0.0
  0
LINE
  5
137B
  8
L1
 10
-35.153953071071037
 20
65.0
 30
0.0
 11
36.503270565580863
 21
65.0
 31
0.0
  0
LINE
  5
137C
  8
L6
 10
-45.888073697633672
 20
0.0
 30
0.0
 11
53.133696597277542
 21
0.0
 31
0.0
  0
LINE
  5
137D
  8
L1
 10
-22.0
 20
49.0
 30
0.0
 11
22.0
 21
49.0
 31
0.0
  0
ARC
  5
137E
  8
L1
 10
-31.75
 20
56.75
 30
0.0
 40
5.0
 50
267.26858442957098
 51
2.731415570429002
  0
CIRCLE
  5
137F
  8
L1
 10
-31.75
 20
56.75
 30
0.0
 40
5.7982698575061704
  0
CIRCLE
  5
1380
  8
L1
 10
-31.75
 20
56.75
 30
0.0
 40
5.9982622421189946
  0
LINE
  5
1381
  8
L1
 10
-36.744319480509027
 20
56.511729299728579
 30
0.0
 11
-31.988270700271411
 21
51.755680519490987
 31
0.0
  0
ARC
  5
1382
  8
L1
 10
-22.0
 20
47.0
 30
0.0
 40
1.9999999999999989
 50
90.0
 51
180.0
  0
LINE
  5
1383
  8
L1
 10
-26.755680519490959
 20
56.988270700271407
 30
0.0
 11
-31.511729299728529
 21
61.744319480509027
 31
0.0
  0
ARC
  5
1384
  8
L1
 10
-31.75
 20
56.75
 30
0.0
 40
5.0
 50
87.268584429571007
 51
182.73141557042729
  0
POLYLINE
  5
1385
  8
L1
 66
     1
 10
0.0
 20
0.0
 30
0.0
  0
VERTEX
  5
2199
  8
L1
 10
-38.056510171621653
 20
61.453699032815017
 30
0.0
  0
VERTEX
  5
219A
  8
L1
 10
-38.053720056271231
 20
61.57142687178461
 30
0.0
  0
VERTEX
  5
219B
  8
L1
 10
-38.048502921278377
 20
61.644887540588968
 30
0.0
  0
VERTEX
  5
219C
  8
L1
 10
-38.039699010514482
 20
61.718862373233769
 30
0.0
  0
VERTEX
  5
219D
  8
L1
 10
-38.027342300363443
 20
61.792261564106781
 30
0.0
  0
VERTEX
  5
219E
  8
L1
 10
-38.011190240375583
 20
61.865868613281997
 30
0.0
  0
VERTEX
  5
219F
  8
L1
 10
-37.9911798114777
 20
61.939549644305941
 30
0.0
  0
VERTEX
  5
21A0
  8
L1
 10
-37.967494774316151
 20
62.012405776047608
 30
0.0
  0
VERTEX
  5
21A1
  8
L1
 10
-37.940423026572311
 20
62.083506811143707
 30
0.0
  0
VERTEX
  5
21A2
  8
L1
 10
-37.909829470847683
 20
62.15318589702278
 30
0.0
  0
VERTEX
  5
21A3
  8
L1
 10
-37.875574669849918
 20
62.2217738208914
 30
0.0
  0
VERTEX
  5
21A4
  8
L1
 10
-37.838104307648159
 20
62.288403889972187
 30
0.0
  0
VERTEX
  5
21A5
  8
L1
 10
-37.797956144561958
 20
62.352241481715168
 30
0.0
  0
VERTEX
  5
21A6
  8
L1
 10
-37.755011814773518
 20
62.413601707284357
 30
0.0
  0
VERTEX
  5
21A7
  8
L1
 10
-37.709137818553579
 20
62.472827926787879
 30
0.0
  0
VERTEX
  5
21A8
  8
L1
 10
-37.661038090704551
 20
62.529171786287741
 30
0.0
  0
VERTEX
  5
21A9
  8
L1
 10
-37.611905491357099
 20
62.581505888198869
 30
0.0
  0
VERTEX
  5
21AA
  8
L1
 10
-37.559729975640323
 20
62.632041261548267
 30
0.0
  0
VERTEX
  5
21AB
  8
L1
 10
-37.503688585398379
 20
62.681382039024378
 30
0.0
  0
VERTEX
  5
21AC
  8
L1
 10
-37.444659313435352
 20
62.728536496186393
 30
0.0
  0
VERTEX
  5
21AD
  8
L1
 10
-37.38338043225599
 20
62.77278412288419
 30
0.0
  0
VERTEX
  5
21AE
  8
L1
 10
-37.319510188727122
 20
62.814258867686647
 30
0.0
  0
VERTEX
  5
21AF
  8
L1
 10
-37.252737086269292
 20
62.853078251823177
 30
0.0
  0
VERTEX
  5
21B0
  8
L1
 10
-37.183891516557132
 20
62.888686608070287
 30
0.0
  0
VERTEX
  5
21B1
  8
L1
 10
-37.113837586654313
 20
62.920620399694847
 30
0.0
  0
VERTEX
  5
21B2
  8
L1
 10
-37.042252465629808
 20
62.949017564319043
 30
0.0
  0
VERTEX
  5
21B3
  8
L1
 10
-36.96881257469721
 20
62.974012438435459
 30
0.0
  0
VERTEX
  5
21B4
  8
L1
 10
-36.894451018127477
 20
62.995300135692531
 30
0.0
  0
VERTEX
  5
21B5
  8
L1
 10
-36.820144215858591
 20
63.01266387856154
 30
0.0
  0
VERTEX
  5
21B6
  8
L1
 10
-36.74559498204377
 20
63.02624351463411
 30
0.0
  0
VERTEX
  5
21B7
  8
L1
 10
-36.670474888767501
 20
63.036189836862427
 30
0.0
  0
VERTEX
  5
21B8
  8
L1
 10
-36.595817862417782
 20
63.042467378010713
 30
0.0
  0
VERTEX
  5
21B9
  8
L1
 10
-36.476701058746812
 20
63.046816247274393
 30
0.0
  0
SEQEND
  5
21BA
  8
L1
  0
POLYLINE
  5
1386
  8
L1
 66
     1
 10
0.0
 20
0.0
 30
0.0
  0
VERTEX
  5
21BB
  8
L1
 10
-35.153953071071157
 20
65.0
 30
0.0
  0
VERTEX
  5
21BC
  8
L1
 10
-35.182600668360628
 20
65.0
 30
0.0
  0
SEQEND
  5
21BD
  8
L1
  0
POLYLINE
  5
1387
  8
L1
 66
     1
 10
0.0
 20
0.0
 30
0.0
  0
VERTEX
  5
21BE
  8
L1
 10
-40.01016161771912
 20
61.497999999999927
 30
0.0
  0
VERTEX
  5
21BF
  8
L1
 10
-40.010161588952201
 20
61.5
 30
0.0
  0
SEQEND
  5
21C0
  8
L1
  0
POLYLINE
  5
1388
  8
L1
 66
     1
 10
0.0
 20
0.0
 30
0.0
  0
VERTEX
  5
21C1
  8
L1
 10
-40.010161588952201
 20
61.5
 30
0.0
  0
VERTEX
  5
21C2
  8
L1
 10
-40.00627844929749
 20
61.663847577088291
 30
0.0
  0
VERTEX
  5
21C3
  8
L1
 10
-39.994500932087412
 20
61.82968271309619
 30
0.0
  0
VERTEX
  5
21C4
  8
L1
 10
-39.974622858450687
 20
61.996708164626682
 30
0.0
  0
VERTEX
  5
21C5
  8
L1
 10
-39.946438049515898
 20
62.164126688282522
 30
0.0
  0
VERTEX
  5
21C6
  8
L1
 10
-39.909674066936411
 20
62.331664963625137
 30
0.0
  0
VERTEX
  5
21C7
  8
L1
 10
-39.864484322952357
 20
62.498059544443613
 30
0.0
  0
VERTEX
  5
21C8
  8
L1
 10
-39.811002404391672
 20
62.662572087863957
 30
0.0
  0
VERTEX
  5
21C9
  8
L1
 10
-39.749361898082093
 20
62.824464251012273
 30
0.0
  0
VERTEX
  5
21CA
  8
L1
 10
-39.679719243725167
 20
62.983080547119243
 30
0.0
  0
VERTEX
  5
21CB
  8
L1
 10
-39.602425296351207
 20
63.137845170575588
 30
0.0
  0
VERTEX
  5
21CC
  8
L1
 10
-39.517905265781053
 20
63.288139300247451
 30
0.0
  0
VERTEX
  5
21CD
  8
L1
 10
-39.426584361836028
 20
63.433344115001432
 30
0.0
  0
VERTEX
  5
21CE
  8
L1
 10
-39.328933325002822
 20
63.57287102522838
 30
0.0
  0
VERTEX
  5
21CF
  8
L1
 10
-39.22561627522537
 20
63.706259846190001
 30
0.0
  0
VERTEX
  5
21D0
  8
L1
 10
-39.117348491510199
 20
63.833084364057413
 30
0.0
  0
VERTEX
  5
21D1
  8
L1
 10
-39.004845252864072
 20
63.952918365002517
 30
0.0
  0
VERTEX
  5
21D2
  8
L1
 10
-38.885952484314878
 20
64.068073727908597
 30
0.0
  0
VERTEX
  5
21D3
  8
L1
 10
-38.759932841409118
 20
64.179025778373273
 30
0.0
  0
VERTEX
  5
21D4
  8
L1
 10
-38.627207703888807
 20
64.285050833458513
 30
0.0
  0
VERTEX
  5
21D5
  8
L1
 10
-38.488198451496203
 20
64.385425210226344
 30
0.0
  0
VERTEX
  5
21D6
  8
L1
 10
-38.343361541673119
 20
64.479476423138578
 30
0.0
  0
VERTEX
  5
21D7
  8
L1
 10
-38.193285629800748
 20
64.566724944746397
 30
0.0
  0
VERTEX
  5
21D8
  8
L1
 10
-38.038590392530352
 20
64.646736529246141
 30
0.0
  0
VERTEX
  5
21D9
  8
L1
 10
-37.879895506512689
 20
64.719076930833921
 30
0.0
  0
VERTEX
  5
21DA
  8
L1
 10
-37.717778220661273
 20
64.783387379553744
 30
0.0
  0
VERTEX
  5
21DB
  8
L1
 10
-37.552898436480568
 20
64.839503332309164
 30
0.0
  0
VERTEX
  5
21DC
  8
L1
 10
-37.385999809509599
 20
64.887281883585842
 30
0.0
  0
VERTEX
  5
21DD
  8
L1
 10
-37.217825995286539
 20
64.926580127869045
 30
0.0
  0
VERTEX
  5
21DE
  8
L1
 10
-37.04913180419652
 20
64.957308890665615
 30
0.0
  0
VERTEX
  5
21DF
  8
L1
 10
-36.880719508775478
 20
64.979607624391974
 30
0.0
  0
VERTEX
  5
21E0
  8
L1
 10
-36.713403957788273
 20
64.993676363898828
 30
0.0
  0
VERTEX
  5
21E1
  8
L1
 10
-36.548000000000059
 20
64.999715144036884
 30
0.0
  0
SEQEND
  5
21E2
  8
L1
  0
POLYLINE
  5
1389
  8
L1
 66
     1
 10
0.0
 20
0.0
 30
0.0
  0
VERTEX
  5
21E3
  8
L1
 10
-36.548000000000059
 20
64.999715144036884
 30
0.0
  0
VERTEX
  5
21E4
  8
L1
 10
-36.525632005574998
 20
64.999928785284681
 30
0.0
  0
VERTEX
  5
21E5
  8
L1
 10
-36.503270565580863
 20
65.0
 30
0.0
  0
SEQEND
  5
21E6
  8
L1
  0
LINE
  5
138A
  8
L1
 10
-36.503270565580863
 20
65.0
 30
0.0
 11
-35.182600668360628
 21
65.0
 31
0.0
  0
ARC
  5
138B
  8
L1
 10
22.0
 20
47.0
 30
0.0
 40
1.9999999999999989
 50
0.0
 51
90.0
  0
LINE
  5
138C
  8
L1
 10
36.744319480509027
 20
56.511729299728579
 30
0.0
 11
31.988270700271411
 21
51.755680519490987
 31
0.0
  0
POLYLINE
  5
138D
  8
L1
 66
     1
 10
0.0
 20
0.0
 30
0.0
  0
VERTEX
  5
21E7
  8
L1
 10
40.010161588952201
 20
61.5
 30
0.0
  0
VERTEX
  5
21E8
  8
L1
 10
40.00627844929749
 20
61.663847577088291
 30
0.0
  0
VERTEX
  5
21E9
  8
L1
 10
39.994500932087412
 20
61.82968271309619
 30
0.0
  0
VERTEX
  5
21EA
  8
L1
 10
39.974622858450687
 20
61.996708164626682
 30
0.0
  0
VERTEX
  5
21EB
  8
L1
 10
39.946438049515898
 20
62.164126688282522
 30
0.0
  0
VERTEX
  5
21EC
  8
L1
 10
39.909674066936411
 20
62.331664963625137
 30
0.0
  0
VERTEX
  5
21ED
  8
L1
 10
39.864484322952357
 20
62.498059544443613
 30
0.0
  0
VERTEX
  5
21EE
  8
L1
 10
39.811002404391672
 20
62.662572087863957
 30
0.0
  0
VERTEX
  5
21EF
  8
L1
 10
39.749361898082093
 20
62.824464251012273
 30
0.0
  0
VERTEX
  5
21F0
  8
L1
 10
39.679719243725167
 20
62.983080547119243
 30
0.0
  0
VERTEX
  5
21F1
  8
L1
 10
39.602425296351207
 20
63.137845170575588
 30
0.0
  0
VERTEX
  5
21F2
  8
L1
 10
39.517905265781053
 20
63.288139300247451
 30
0.0
  0
VERTEX
  5
21F3
  8
L1
 10
39.426584361836028
 20
63.433344115001432
 30
0.0
  0
VERTEX
  5
21F4
  8
L1
 10
39.328933325002822
 20
63.57287102522838
 30
0.0
  0
VERTEX
  5
21F5
  8
L1
 10
39.22561627522537
 20
63.706259846190001
 30
0.0
  0
VERTEX
  5
21F6
  8
L1
 10
39.117348491510199
 20
63.833084364057413
 30
0.0
  0
VERTEX
  5
21F7
  8
L1
 10
39.004845252864072
 20
63.952918365002517
 30
0.0
  0
VERTEX
  5
21F8
  8
L1
 10
38.885952484314878
 20
64.068073727908597
 30
0.0
  0
VERTEX
  5
21F9
  8
L1
 10
38.759932841409118
 20
64.179025778373273
 30
0.0
  0
VERTEX
  5
21FA
  8
L1
 10
38.627207703888807
 20
64.285050833458513
 30
0.0
  0
VERTEX
  5
21FB
  8
L1
 10
38.488198451496203
 20
64.385425210226344
 30
0.0
  0
VERTEX
  5
21FC
  8
L1
 10
38.343361541673119
 20
64.479476423138578
 30
0.0
  0
VERTEX
  5
21FD
  8
L1
 10
38.193285629800748
 20
64.566724944746397
 30
0.0
  0
VERTEX
  5
21FE
  8
L1
 10
38.038590392530352
 20
64.646736529246141
 30
0.0
  0
VERTEX
  5
21FF
  8
L1
 10
37.879895506512689
 20
64.719076930833921
 30
0.0
  0
VERTEX
  5
2200
  8
L1
 10
37.717778220661273
 20
64.783387379553744
 30
0.0
  0
VERTEX
  5
2201
  8
L1
 10
37.552898436480568
 20
64.839503332309164
 30
0.0
  0
VERTEX
  5
2202
  8
L1
 10
37.385999809509599
 20
64.887281883585842
 30
0.0
  0
VERTEX
  5
2203
  8
L1
 10
37.217825995286539
 20
64.926580127869045
 30
0.0
  0
VERTEX
  5
2204
  8
L1
 10
37.04913180419652
 20
64.957308890665615
 30
0.0
  0
VERTEX
  5
2205
  8
L1
 10
36.880719508775478
 20
64.979607624391974
 30
0.0
  0
VERTEX
  5
2206
  8
L1
 10
36.713403957788273
 20
64.993676363898828
 30
0.0
  0
VERTEX
  5
2207
  8
L1
 10
36.548000000000059
 20
64.999715144036884
 30
0.0
  0
SEQEND
  5
2208
  8
L1
  0
ARC
  5
138E
  8
L1
 10
31.75
 20
56.75
 30
0.0
 40
5.0
 50
357.26858442957263
 51
92.731415570428993
  0
POLYLINE
  5
138F
  8
L1
 66
     1
 10
0.0
 20
0.0
 30
0.0
  0
VERTEX
  5
2209
  8
L1
 10
38.056510171621653
 20
61.453699032815017
 30
0.0
  0
VERTEX
  5
220A
  8
L1
 10
38.053720056271231
 20
61.57142687178461
 30
0.0
  0
VERTEX
  5
220B
  8
L1
 10
38.048502921278377
 20
61.644887540588968
 30
0.0
  0
VERTEX
  5
220C
  8
L1
 10
38.039699010514482
 20
61.718862373233769
 30
0.0
  0
VERTEX
  5
220D
  8
L1
 10
38.027342300363443
 20
61.792261564106781
 30
0.0
  0
VERTEX
  5
220E
  8
L1
 10
38.011190240375583
 20
61.865868613281997
 30
0.0
  0
VERTEX
  5
220F
  8
L1
 10
37.9911798114777
 20
61.939549644305941
 30
0.0
  0
VERTEX
  5
2210
  8
L1
 10
37.967494774316151
 20
62.012405776047608
 30
0.0
  0
VERTEX
  5
2211
  8
L1
 10
37.940423026572311
 20
62.083506811143707
 30
0.0
  0
VERTEX
  5
2212
  8
L1
 10
37.909829470847683
 20
62.15318589702278
 30
0.0
  0
VERTEX
  5
2213
  8
L1
 10
37.875574669849918
 20
62.2217738208914
 30
0.0
  0
VERTEX
  5
2214
  8
L1
 10
37.838104307648159
 20
62.288403889972187
 30
0.0
  0
VERTEX
  5
2215
  8
L1
 10
37.797956144561958
 20
62.352241481715168
 30
0.0
  0
VERTEX
  5
2216
  8
L1
 10
37.755011814773518
 20
62.413601707284357
 30
0.0
  0
VERTEX
  5
2217
  8
L1
 10
37.709137818553579
 20
62.472827926787879
 30
0.0
  0
VERTEX
  5
2218
  8
L1
 10
37.661038090704551
 20
62.529171786287741
 30
0.0
  0
VERTEX
  5
2219
  8
L1
 10
37.611905491357099
 20
62.581505888198869
 30
0.0
  0
VERTEX
  5
221A
  8
L1
 10
37.559729975640323
 20
62.632041261548267
 30
0.0
  0
VERTEX
  5
221B
  8
L1
 10
37.503688585398379
 20
62.681382039024378
 30
0.0
  0
VERTEX
  5
221C
  8
L1
 10
37.444659313435352
 20
62.728536496186393
 30
0.0
  0
VERTEX
  5
221D
  8
L1
 10
37.38338043225599
 20
62.77278412288419
 30
0.0
  0
VERTEX
  5
221E
  8
L1
 10
37.319510188727122
 20
62.814258867686647
 30
0.0
  0
VERTEX
  5
221F
  8
L1
 10
37.252737086269292
 20
62.853078251823177
 30
0.0
  0
VERTEX
  5
2220
  8
L1
 10
37.183891516557132
 20
62.888686608070287
 30
0.0
  0
VERTEX
  5
2221
  8
L1
 10
37.113837586654313
 20
62.920620399694847
 30
0.0
  0
VERTEX
  5
2222
  8
L1
 10
37.042252465629808
 20
62.949017564319043
 30
0.0
  0
VERTEX
  5
2223
  8
L1
 10
36.96881257469721
 20
62.974012438435459
 30
0.0
  0
VERTEX
  5
2224
  8
L1
 10
36.894451018127477
 20
62.995300135692531
 30
0.0
  0
VERTEX
  5
2225
  8
L1
 10
36.820144215858591
 20
63.01266387856154
 30
0.0
  0
VERTEX
  5
2226
  8
L1
 10
36.74559498204377
 20
63.02624351463411
 30
0.0
  0
VERTEX
  5
2227
  8
L1
 10
36.670474888767501
 20
63.036189836862427
 30
0.0
  0
VERTEX
  5
2228
  8
L1
 10
36.595817862417782
 20
63.042467378010713
 30
0.0
  0
VERTEX
  5
2229
  8
L1
 10
36.476701058746812
 20
63.046816247274393
 30
0.0
  0
SEQEND
  5
222A
  8
L1
  0
POLYLINE
  5
1390
  8
L1
 66
     1
 10
0.0
 20
0.0
 30
0.0
  0
VERTEX
  5
222B
  8
L1
 10
35.153953071071157
 20
65.0
 30
0.0
  0
VERTEX
  5
222C
  8
L1
 10
35.182600668360628
 20
65.0
 30
0.0
  0
SEQEND
  5
222D
  8
L1
  0
POLYLINE
  5
1391
  8
L1
 66
     1
 10
0.0
 20
0.0
 30
0.0
  0
VERTEX
  5
222E
  8
L1
 10
36.548000000000059
 20
64.999715144036884
 30
0.0
  0
VERTEX
  5
222F
  8
L1
 10
36.525632005574998
 20
64.999928785284681
 30
0.0
  0
VERTEX
  5
2230
  8
L1
 10
36.503270565580863
 20
65.0
 30
0.0
  0
SEQEND
  5
2231
  8
L1
  0
LINE
  5
1392
  8
L1
 10
36.503270565580863
 20
65.0
 30
0.0
 11
35.182600668360628
 21
65.0
 31
0.0
  0
POLYLINE
  5
1393
  8
L1
 66
     1
 10
0.0
 20
0.0
 30
0.0
  0
VERTEX
  5
2232
  8
L1
 10
40.01016161771912
 20
61.497999999999927
 30
0.0
  0
VERTEX
  5
2233
  8
L1
 10
40.010161588952201
 20
61.5
 30
0.0
  0
SEQEND
  5
2234
  8
L1
  0
ENDBLK
  5
1354
  8
0
  0
BLOCK
  8
0
  2
S2
 70
     0
 10
0.0
 20
0.0
 30
0.0
  3
S2
  1

  0
LINE
  5
1398
  8
L2
 10
35.269330927440421
 20
-49.000000000000071
 30
0.0
 11
35.269330927440421
 21
48.999999999999972
 31
0.0
  0
LINE
  5
1399
  8
L2
 10
33.269330927440421
 20
-46.813823489298791
 30
0.0
 11
33.269330927440421
 21
46.813823489298642
 31
0.0
  0
LINE
  5
139A
  8
L1
 10
9.1693309274404555
 20
64.239838411047799
 30
0.0
 11
9.1693309274404555
 21
-64.239838411047927
 31
0.0
  0
LINE
  5
139B
  8
L1
 10
7.9999999999998863
 20
-62.900000028767202
 30
0.0
 11
7.9999999999998863
 21
62.90000002876706
 31
0.0
  0
LINE
  5
139C
  8
L1
 10
35.169330927440448
 20
60.1437914821189
 30
0.0
 11
35.169330927440448
 21
-63.64579148211898
 31
0.0
  0
LINE
  5
139D
  8
L1
 10
35.769330927440357
 20
-63.045791482119071
 30
0.0
 11
35.769330927440471
 21
63.04579148211883
 31
0.0
  0
LINE
  5
139E
  8
L1
 10
9.9693309274405237
 20
-64.99791218762148
 30
0.0
 11
9.9693309274404101
 21
64.997912187621395
 31
0.0
  0
LINE
  5
139F
  8
L2
 10
9.1693309274404555
 20
-47.939838411047909
 30
0.0
 11
32.782419401594382
 21
-47.31365215178657
 31
0.0
  0
LINE
  5
13A0
  8
L1
 10
35.136146575961099
 20
-63.67897526785687
 30
0.0
 11
9.9294930940662862
 21
-65.000000000000071
 31
0.0
  0
ARC
  5
13A1
  8
L1
 10
8.4693309274404101
 20
-62.900000028767202
 30
0.0
 40
0.4693309274404737
 50
180.0
 51
259.99999999999812
  0
LINE
  5
13A2
  8
L1
 10
8.3878324671676392
 20
-63.362200764838867
 30
0.0
 11
9.1661748117626303
 21
-63.499443520418893
 31
0.0
  0
LINE
  5
13A3
  8
L1
 10
9.1693309274404555
 20
-64.23983841104787
 30
0.0
 11
9.9294925451596328
 21
-65.000000028767047
 31
0.0
  0
LINE
  5
13A4
  8
L1
 10
35.769330927440471
 20
-63.045791482119007
 30
0.0
 11
35.13614717299162
 21
-63.678975236567751
 31
0.0
  0
ARC
  5
13A5
  8
L2
 10
32.769330927440421
 20
-46.813823489298791
 30
0.0
 40
0.5
 50
271.50000000000267
 51
0.0
  0
LINE
  5
13A6
  8
L2
 10
35.269330927440421
 20
-49.000000000000071
 30
0.0
 11
35.769330927440421
 21
-49.000000000000071
 31
0.0
  0
LINE
  5
13A7
  8
L6
 10
43.769330927440478
 20
0.0
 30
0.0
 11
0.0
 21
0.0
 31
0.0
  0
LINE
  5
13A8
  8
L2
 10
9.1693309274404555
 20
47.939838411047837
 30
0.0
 11
32.782419401594382
 21
47.313652151786407
 31
0.0
  0
LINE
  5
13A9
  8
L1
 10
35.136146575961099
 20
63.678975267856799
 30
0.0
 11
9.9294930940662862
 21
65.0
 31
0.0
  0
ARC
  5
13AA
  8
L1
 10
8.4693309274404101
 20
62.900000028767039
 30
0.0
 40
0.4693309274404737
 50
100.00000000000171
 51
180.0
  0
LINE
  5
13AB
  8
L1
 10
8.3878324671676392
 20
63.362200764838803
 30
0.0
 11
9.1661748117626303
 21
63.499443520418822
 31
0.0
  0
LINE
  5
13AC
  8
L1
 10
9.1693309274404555
 20
64.239838411047799
 30
0.0
 11
9.9294925451596328
 21
65.000000028766976
 31
0.0
  0
ARC
  5
13AD
  8
L2
 10
32.769330927440421
 20
46.813823489298642
 30
0.0
 40
0.5
 50
0.0
 51
88.499999999997272
  0
LINE
  5
13AE
  8
L2
 10
35.269330927440421
 20
48.999999999999972
 30
0.0
 11
35.769330927440528
 21
49.0
 31
0.0
  0
LINE
  5
13AF
  8
L1
 10
35.769330927440471
 20
63.045791482118943
 30
0.0
 11
35.13614717299162
 21
63.67897523656768
 31
0.0
  0
POLYLINE
  5
13B0
  8
L1
 66
     1
 10
0.0
 20
0.0
 30
0.0
  0
VERTEX
  5
2236
  8
L1
 10
35.169213755666988
 20
60.172439079408491
 30
0.0
  0
VERTEX
  5
2237
  8
L1
 10
35.167894082881389
 20
60.332423808873152
 30
0.0
  0
VERTEX
  5
2238
  8
L1
 10
35.166537527736629
 20
60.494204889452583
 30
0.0
  0
VERTEX
  5
2239
  8
L1
 10
35.165149644936712
 20
60.657063267460899
 30
0.0
  0
VERTEX
  5
223A
  8
L1
 10
35.163735989185511
 20
60.82027988921152
 30
0.0
  0
VERTEX
  5
223B
  8
L1
 10
35.162237197124341
 20
60.990480560158062
 30
0.0
  0
VERTEX
  5
223C
  8
L1
 10
35.160724000103073
 20
61.159533033631412
 30
0.0
  0
VERTEX
  5
223D
  8
L1
 10
35.15920410987701
 20
61.326681886983579
 30
0.0
  0
VERTEX
  5
223E
  8
L1
 10
35.157685238201452
 20
61.491171697566529
 30
0.0
  0
VERTEX
  5
223F
  8
L1
 10
35.156174659231738
 20
61.652331968365729
 30
0.0
  0
VERTEX
  5
2240
  8
L1
 10
35.154679940734241
 20
61.809572316523713
 30
0.0
  0
VERTEX
  5
2241
  8
L1
 10
35.153209234881608
 20
61.96225749062944
 30
0.0
  0
VERTEX
  5
2242
  8
L1
 10
35.151770693846167
 20
62.10975223927187
 30
0.0
  0
VERTEX
  5
2243
  8
L1
 10
35.150372446854817
 20
62.251451938285982
 30
0.0
  0
VERTEX
  5
2244
  8
L1
 10
35.149021846531802
 20
62.386882705824519
 30
0.0
  0
VERTEX
  5
2245
  8
L1
 10
35.14772588014614
 20
62.515605403952463
 30
0.0
  0
VERTEX
  5
2246
  8
L1
 10
35.146491534966337
 20
62.637180894735032
 30
0.0
  0
VERTEX
  5
2247
  8
L1
 10
35.145300435671402
 20
62.753637013816963
 30
0.0
  0
VERTEX
  5
2248
  8
L1
 10
35.144146960110561
 20
62.865727539423801
 30
0.0
  0
VERTEX
  5
2249
  8
L1
 10
35.143040820721808
 20
62.972711773028429
 30
0.0
  0
VERTEX
  5
224A
  8
L1
 10
35.141991729942667
 20
63.073849016103509
 30
0.0
  0
VERTEX
  5
224B
  8
L1
 10
35.141009049177107
 20
63.168451236849592
 30
0.0
  0
VERTEX
  5
224C
  8
L1
 10
35.140100176089049
 20
63.25602880583881
 30
0.0
  0
VERTEX
  5
224D
  8
L1
 10
35.13927187750653
 20
63.336138628100791
 30
0.0
  0
VERTEX
  5
224E
  8
L1
 10
35.138530920257828
 20
63.408337608665192
 30
0.0
  0
VERTEX
  5
224F
  8
L1
 10
35.137883232319147
 20
63.472260094145099
 30
0.0
  0
VERTEX
  5
2250
  8
L1
 10
35.137332032902911
 20
63.527739872602858
 30
0.0
  0
VERTEX
  5
2251
  8
L1
 10
35.136880025691077
 20
63.574633011242547
 30
0.0
  0
VERTEX
  5
2252
  8
L1
 10
35.136529914365717
 20
63.61279557726823
 30
0.0
  0
VERTEX
  5
2253
  8
L1
 10
35.136284186079131
 20
63.642064036379573
 30
0.0
  0
VERTEX
  5
2254
  8
L1
 10
35.136140059536267
 20
63.662711936526307
 30
0.0
  0
VERTEX
  5
2255
  8
L1
 10
35.136095025806981
 20
63.674946579691209
 30
0.0
  0
VERTEX
  5
2256
  8
L1
 10
35.13614657596122
 20
63.678975267856799
 30
0.0
  0
SEQEND
  5
2257
  8
L1
  0
ENDBLK
  5
1397
  8
0
  0
BLOCK
  8
0
  2
S3
 70
     0
 10
0.0
 20
0.0
 30
0.0
  3
S3
  1

  0
LINE
  5
13B5
  8
L1
 10
35.182600668360749
 20
-8.6001171717734906
 30
0.0
 11
-35.153953071071101
 21
-8.6000000000000227
 31
0.0
  0
LINE
  5
13B6
  8
L1
 10
-38.05595307107108
 20
-8.0
 30
0.0
 11
38.055953071070967
 21
-8.0
 31
0.0
  0
LINE
  5
13B7
  8
L1
 10
-40.00807377657366
 20
-33.800000000000011
 30
0.0
 11
40.00807377657366
 21
-33.800000000000011
 31
0.0
  0
LINE
  5
13B8
  8
L1
 10
39.25
 20
-34.600000000000023
 30
0.0
 11
-39.249999999999943
 21
-34.600000000000023
 31
0.0
  0
LINE
  5
13B9
  8
L1
 10
-37.910161617719211
 20
-35.769330927440507
 30
0.0
 11
37.910161617719211
 21
-35.769330927440528
 31
0.0
  0
LINE
  5
13BA
  8
L6
 10
0.0
 20
0.0
 30
0.0
 11
0.0
 21
-43.76933092744045
 31
0.0
  0
LINE
  5
13BB
  8
L1
 10
-38.689136856808943
 20
-8.6331843514793132
 30
0.0
 11
-40.010161588952201
 21
-33.839837833374133
 31
0.0
  0
LINE
  5
13BC
  8
L2
 10
-21.823985078250921
 20
-10.50000000000005
 30
0.0
 11
21.823985078250921
 21
-10.50000000000005
 31
0.0
  0
LINE
  5
13BD
  8
L2
 10
-22.949999999999989
 20
-34.600000000000023
 30
0.0
 11
-22.323813740738721
 21
-10.986911525846089
 31
0.0
  0
ARC
  5
13BE
  8
L1
 10
-37.910161617719211
 20
-35.300000000000011
 30
0.0
 40
0.4693309274404737
 50
190.00000000000179
 51
270.0
  0
ARC
  5
13BF
  8
L2
 10
-37.910161617719211
 20
-35.300000000000011
 30
0.0
 40
0.4693309274404737
 50
270.0
 51
350.00000000000131
  0
LINE
  5
13C0
  8
L1
 10
-38.372362353791061
 20
-35.381498460272802
 30
0.0
 11
-38.50960510937108
 21
-34.603156115677791
 31
0.0
  0
LINE
  5
13C1
  8
L2
 10
-37.310161617719181
 20
-34.600000000000023
 30
0.0
 11
-37.447960881647361
 21
-35.38149846027278
 31
0.0
  0
POLYLINE
  5
13C2
  8
L1
 66
     1
 10
0.0
 20
0.0
 30
0.0
  0
VERTEX
  5
2259
  8
L1
 10
-40.010161588952137
 20
-33.839837833374041
 30
0.0
  0
VERTEX
  5
225A
  8
L1
 10
-40.01016161771912
 20
-33.839838382280867
 30
0.0
  0
SEQEND
  5
225B
  8
L1
  0
POLYLINE
  5
13C3
  8
L1
 66
     1
 10
0.0
 20
0.0
 30
0.0
  0
VERTEX
  5
225C
  8
L1
 10
-40.01016161771912
 20
-33.839838382280867
 30
0.0
  0
VERTEX
  5
225D
  8
L1
 10
-40.010161588952137
 20
-33.839837833374041
 30
0.0
  0
SEQEND
  5
225E
  8
L1
  0
LINE
  5
13C4
  8
L1
 10
-39.25
 20
-34.600000000000023
 30
0.0
 11
-40.01016161771912
 21
-33.839838382280867
 31
0.0
  0
ARC
  5
13C5
  8
L2
 10
-21.823985078250921
 20
-11.00000000000005
 30
0.0
 40
0.5
 50
90.0
 51
178.49999999999719
  0
LINE
  5
13C6
  8
L2
 10
22.949999999999989
 20
-34.600000000000023
 30
0.0
 11
22.323813740738721
 21
-10.986911525846089
 31
0.0
  0
ARC
  5
13C7
  8
L2
 10
21.823985078250921
 20
-11.00000000000005
 30
0.0
 40
0.5
 50
1.5000000000027369
 51
90.0
  0
LINE
  5
13C8
  8
L2
 10
-24.00000000000005
 20
-8.5
 30
0.0
 11
24.0
 21
-8.5000000000000568
 31
0.0
  0
LINE
  5
13C9
  8
L1
 10
-38.05595307107108
 20
-8.0
 30
0.0
 11
-38.689136825519938
 21
-8.6331837544488508
 31
0.0
  0
POLYLINE
  5
13CA
  8
L1
 66
     1
 10
0.0
 20
0.0
 30
0.0
  0
VERTEX
  5
225F
  8
L1
 10
-35.182600668360749
 20
-8.6001171717734906
 30
0.0
  0
VERTEX
  5
2260
  8
L1
 10
-35.342585397825303
 20
-8.6014368445590321
 30
0.0
  0
VERTEX
  5
2261
  8
L1
 10
-35.50436647840484
 20
-8.6027933997037849
 30
0.0
  0
VERTEX
  5
2262
  8
L1
 10
-35.6672248564131
 20
-8.6041812825037596
 30
0.0
  0
VERTEX
  5
2263
  8
L1
 10
-35.830441478163657
 20
-8.605594938254967
 30
0.0
  0
VERTEX
  5
2264
  8
L1
 10
-36.00064214911032
 20
-8.6070937303161372
 30
0.0
  0
VERTEX
  5
2265
  8
L1
 10
-36.16969462258367
 20
-8.6086069273374051
 30
0.0
  0
VERTEX
  5
2266
  8
L1
 10
-36.33684347593578
 20
-8.6101268175634686
 30
0.0
  0
VERTEX
  5
2267
  8
L1
 10
-36.501333286518779
 20
-8.6116456892389692
 30
0.0
  0
VERTEX
  5
2268
  8
L1
 10
-36.662493557317873
 20
-8.6131562682087406
 30
0.0
  0
VERTEX
  5
2269
  8
L1
 10
-36.81973390547585
 20
-8.6146509867061791
 30
0.0
  0
VERTEX
  5
226A
  8
L1
 10
-36.972419079581577
 20
-8.6161216925588633
 30
0.0
  0
VERTEX
  5
226B
  8
L1
 10
-37.119913828224007
 20
-8.617560233594304
 30
0.0
  0
VERTEX
  5
226C
  8
L1
 10
-37.261613527238183
 20
-8.6189584805856612
 30
0.0
  0
VERTEX
  5
226D
  8
L1
 10
-37.39704429477672
 20
-8.6203090809086689
 30
0.0
  0
VERTEX
  5
226E
  8
L1
 10
-37.525766992904657
 20
-8.6216050472943362
 30
0.0
  0
VERTEX
  5
226F
  8
L1
 10
-37.647342483687282
 20
-8.622839392474134
 30
0.0
  0
VERTEX
  5
2270
  8
L1
 10
-37.763798602769207
 20
-8.6240304917690764
 30
0.0
  0
VERTEX
  5
2271
  8
L1
 10
-37.875889128376052
 20
-8.6251839673298605
 30
0.0
  0
VERTEX
  5
2272
  8
L1
 10
-37.98287336198058
 20
-8.6262901067186704
 30
0.0
  0
VERTEX
  5
2273
  8
L1
 10
-38.084010605055653
 20
-8.6273391974978022
 30
0.0
  0
VERTEX
  5
2274
  8
L1
 10
-38.178612825801849
 20
-8.6283218782633622
 30
0.0
  0
VERTEX
  5
2275
  8
L1
 10
-38.26619039479101
 20
-8.6292307513514288
 30
0.0
  0
VERTEX
  5
2276
  8
L1
 10
-38.346300217052992
 20
-8.6300590499338892
 30
0.0
  0
VERTEX
  5
2277
  8
L1
 10
-38.41849919761745
 20
-8.6308000071826427
 30
0.0
  0
VERTEX
  5
2278
  8
L1
 10
-38.48242168309735
 20
-8.6314476951213237
 30
0.0
  0
VERTEX
  5
2279
  8
L1
 10
-38.537901461555059
 20
-8.6319988945375599
 30
0.0
  0
VERTEX
  5
227A
  8
L1
 10
-38.584794600194748
 20
-8.6324509017493938
 30
0.0
  0
VERTEX
  5
227B
  8
L1
 10
-38.622957166220431
 20
-8.6328010130746975
 30
0.0
  0
VERTEX
  5
227C
  8
L1
 10
-38.652225625331759
 20
-8.6330467413613405
 30
0.0
  0
VERTEX
  5
227D
  8
L1
 10
-38.672873525478558
 20
-8.6331908679042044
 30
0.0
  0
VERTEX
  5
227E
  8
L1
 10
-38.685108168643467
 20
-8.6332359016334976
 30
0.0
  0
VERTEX
  5
227F
  8
L1
 10
-38.689136856808943
 20
-8.6331843514792581
 30
0.0
  0
SEQEND
  5
2280
  8
L1
  0
LINE
  5
13CB
  8
L2
 10
-24.0
 20
-8.0033877550429224
 30
0.0
 11
-24.0
 21
-8.3000000000000682
 31
0.0
  0
LINE
  5
13CC
  8
L2
 10
-24.0
 20
-8.0
 30
0.0
 11
-24.0
 21
-8.0033877550429224
 31
0.0
  0
LINE
  5
13CD
  8
L2
 10
24.0
 20
-8.0
 30
0.0
 11
24.0
 21
-8.0033877550429224
 31
0.0
  0
LINE
  5
13CE
  8
L2
 10
24.0
 20
-8.0033877550429224
 30
0.0
 11
24.0
 21
-8.3000000000000682
 31
0.0
  0
LINE
  5
13CF
  8
L1
 10
38.689136856808943
 20
-8.6331843514793132
 30
0.0
 11
40.010161588952201
 21
-33.839837833374133
 31
0.0
  0
ARC
  5
13D0
  8
L1
 10
37.910161617719211
 20
-35.300000000000011
 30
0.0
 40
0.4693309274404737
 50
270.0
 51
349.99999999999812
  0
LINE
  5
13D1
  8
L2
 10
37.310161617719181
 20
-34.600000000000023
 30
0.0
 11
37.447960881647361
 21
-35.38149846027278
 31
0.0
  0
ARC
  5
13D2
  8
L2
 10
37.910161617719211
 20
-35.300000000000011
 30
0.0
 40
0.4693309274404737
 50
189.99999999999861
 51
270.0
  0
LINE
  5
13D3
  8
L1
 10
38.372362353791061
 20
-35.381498460272802
 30
0.0
 11
38.50960510937108
 21
-34.603156115677791
 31
0.0
  0
LINE
  5
13D4
  8
L1
 10
39.25
 20
-34.600000000000023
 30
0.0
 11
40.01016161771912
 21
-33.839838382280867
 31
0.0
  0
POLYLINE
  5
13D5
  8
L1
 66
     1
 10
0.0
 20
0.0
 30
0.0
  0
VERTEX
  5
2281
  8
L1
 10
40.01016161771912
 20
-33.839838382280867
 30
0.0
  0
VERTEX
  5
2282
  8
L1
 10
40.010161588952137
 20
-33.839837833374041
 30
0.0
  0
SEQEND
  5
2283
  8
L1
  0
POLYLINE
  5
13D6
  8
L1
 66
     1
 10
0.0
 20
0.0
 30
0.0
  0
VERTEX
  5
2284
  8
L1
 10
40.010161588952137
 20
-33.839837833374041
 30
0.0
  0
VERTEX
  5
2285
  8
L1
 10
40.01016161771912
 20
-33.839838382280867
 30
0.0
  0
SEQEND
  5
2286
  8
L1
  0
LINE
  5
13D7
  8
L1
 10
38.05595307107108
 20
-8.0
 30
0.0
 11
38.689136825519938
 21
-8.6331837544488508
 31
0.0
  0
POLYLINE
  5
13D8
  8
L1
 66
     1
 10
0.0
 20
0.0
 30
0.0
  0
VERTEX
  5
2287
  8
L1
 10
35.182600668360749
 20
-8.6001171717734906
 30
0.0
  0
VERTEX
  5
2288
  8
L1
 10
35.342585397825303
 20
-8.6014368445590321
 30
0.0
  0
VERTEX
  5
2289
  8
L1
 10
35.50436647840484
 20
-8.6027933997037849
 30
0.0
  0
VERTEX
  5
228A
  8
L1
 10
35.6672248564131
 20
-8.6041812825037596
 30
0.0
  0
VERTEX
  5
228B
  8
L1
 10
35.830441478163657
 20
-8.605594938254967
 30
0.0
  0
VERTEX
  5
228C
  8
L1
 10
36.00064214911032
 20
-8.6070937303161372
 30
0.0
  0
VERTEX
  5
228D
  8
L1
 10
36.16969462258367
 20
-8.6086069273374051
 30
0.0
  0
VERTEX
  5
228E
  8
L1
 10
36.33684347593578
 20
-8.6101268175634686
 30
0.0
  0
VERTEX
  5
228F
  8
L1
 10
36.501333286518779
 20
-8.6116456892389692
 30
0.0
  0
VERTEX
  5
2290
  8
L1
 10
36.662493557317873
 20
-8.6131562682087406
 30
0.0
  0
VERTEX
  5
2291
  8
L1
 10
36.81973390547585
 20
-8.6146509867061791
 30
0.0
  0
VERTEX
  5
2292
  8
L1
 10
36.972419079581577
 20
-8.6161216925588633
 30
0.0
  0
VERTEX
  5
2293
  8
L1
 10
37.119913828224007
 20
-8.617560233594304
 30
0.0
  0
VERTEX
  5
2294
  8
L1
 10
37.261613527238183
 20
-8.6189584805856612
 30
0.0
  0
VERTEX
  5
2295
  8
L1
 10
37.39704429477672
 20
-8.6203090809086689
 30
0.0
  0
VERTEX
  5
2296
  8
L1
 10
37.525766992904657
 20
-8.6216050472943362
 30
0.0
  0
VERTEX
  5
2297
  8
L1
 10
37.647342483687282
 20
-8.622839392474134
 30
0.0
  0
VERTEX
  5
2298
  8
L1
 10
37.763798602769207
 20
-8.6240304917690764
 30
0.0
  0
VERTEX
  5
2299
  8
L1
 10
37.875889128376052
 20
-8.6251839673298605
 30
0.0
  0
VERTEX
  5
229A
  8
L1
 10
37.98287336198058
 20
-8.6262901067186704
 30
0.0
  0
VERTEX
  5
229B
  8
L1
 10
38.084010605055653
 20
-8.6273391974978022
 30
0.0
  0
VERTEX
  5
229C
  8
L1
 10
38.178612825801849
 20
-8.6283218782633622
 30
0.0
  0
VERTEX
  5
229D
  8
L1
 10
38.26619039479101
 20
-8.6292307513514288
 30
0.0
  0
VERTEX
  5
229E
  8
L1
 10
38.346300217052992
 20
-8.6300590499338892
 30
0.0
  0
VERTEX
  5
229F
  8
L1
 10
38.41849919761745
 20
-8.6308000071826427
 30
0.0
  0
VERTEX
  5
22A0
  8
L1
 10
38.48242168309735
 20
-8.6314476951213237
 30
0.0
  0
VERTEX
  5
22A1
  8
L1
 10
38.537901461555059
 20
-8.6319988945375599
 30
0.0
  0
VERTEX
  5
22A2
  8
L1
 10
38.584794600194748
 20
-8.6324509017493938
 30
0.0
  0
VERTEX
  5
22A3
  8
L1
 10
38.622957166220431
 20
-8.6328010130746975
 30
0.0
  0
VERTEX
  5
22A4
  8
L1
 10
38.652225625331759
 20
-8.6330467413613405
 30
0.0
  0
VERTEX
  5
22A5
  8
L1
 10
38.672873525478558
 20
-8.6331908679042044
 30
0.0
  0
VERTEX
  5
22A6
  8
L1
 10
38.685108168643467
 20
-8.6332359016334976
 30
0.0
  0
VERTEX
  5
22A7
  8
L1
 10
38.689136856808943
 20
-8.6331843514792581
 30
0.0
  0
SEQEND
  5
22A8
  8
L1
  0
ENDBLK
  5
13B4
  8
0
  0
BLOCK
  8
0
  2
S4
 70
     0
 10
0.0
 20
0.0
 30
0.0
  3
S4
  1

  0
LINE
  5
13DD
  8
L1
 10
-37.910161617719211
 20
-7.9999999999999432
 30
0.0
 11
37.910161617719211
 21
-7.9999999999999138
 31
0.0
  0
LINE
  5
13DE
  8
L1
 10
39.25
 20
-9.1693309274404271
 30
0.0
 11
-39.249999999999943
 21
-9.1693309274404271
 31
0.0
  0
LINE
  5
13DF
  8
L1
 10
-40.00807377657366
 20
-9.9693309274404385
 30
0.0
 11
40.00807377657366
 21
-9.9693309274404385
 31
0.0
  0
LINE
  5
13E0
  8
L1
 10
-38.05595307107108
 20
-35.76933092744045
 30
0.0
 11
38.055953071070967
 21
-35.76933092744045
 31
0.0
  0
LINE
  5
13E1
  8
L1
 10
35.182600668360749
 20
-35.169213755666952
 30
0.0
 11
-35.153953071071101
 21
-35.16933092744042
 31
0.0
  0
LINE
  5
13E2
  8
L6
 10
0.0
 20
-43.76933092744045
 30
0.0
 11
0.0
 21
0.0
 31
0.0
  0
LINE
  5
13E3
  8
L2
 10
-24.00000000000005
 20
-35.269330927440443
 30
0.0
 11
24.0
 21
-35.269330927440393
 31
0.0
  0
LINE
  5
13E4
  8
L2
 10
-21.823985078250921
 20
-33.269330927440393
 30
0.0
 11
21.823985078250921
 21
-33.269330927440393
 31
0.0
  0
LINE
  5
13E5
  8
L2
 10
-22.949999999999989
 20
-9.1693309274404271
 30
0.0
 11
-22.323813740738721
 21
-32.782419401594353
 31
0.0
  0
LINE
  5
13E6
  8
L1
 10
-38.689136856808943
 20
-35.136146575961128
 30
0.0
 11
-40.010161588952201
 21
-9.9294930940663164
 31
0.0
  0
POLYLINE
  5
13E7
  8
L1
 66
     1
 10
0.0
 20
0.0
 30
0.0
  0
VERTEX
  5
22AA
  8
L1
 10
-35.182600668360749
 20
-35.169213755666952
 30
0.0
  0
VERTEX
  5
22AB
  8
L1
 10
-35.342585397825303
 20
-35.167894082881418
 30
0.0
  0
VERTEX
  5
22AC
  8
L1
 10
-35.50436647840484
 20
-35.166537527736658
 30
0.0
  0
VERTEX
  5
22AD
  8
L1
 10
-35.6672248564131
 20
-35.16514964493669
 30
0.0
  0
VERTEX
  5
22AE
  8
L1
 10
-35.830441478163657
 20
-35.163735989185483
 30
0.0
  0
VERTEX
  5
22AF
  8
L1
 10
-36.00064214911032
 20
-35.162237197124313
 30
0.0
  0
VERTEX
  5
22B0
  8
L1
 10
-36.16969462258367
 20
-35.160724000103038
 30
0.0
  0
VERTEX
  5
22B1
  8
L1
 10
-36.33684347593578
 20
-35.159204109876981
 30
0.0
  0
VERTEX
  5
22B2
  8
L1
 10
-36.501333286518779
 20
-35.157685238201481
 30
0.0
  0
VERTEX
  5
22B3
  8
L1
 10
-36.662493557317873
 20
-35.156174659231702
 30
0.0
  0
VERTEX
  5
22B4
  8
L1
 10
-36.81973390547585
 20
-35.154679940734269
 30
0.0
  0
VERTEX
  5
22B5
  8
L1
 10
-36.972419079581577
 20
-35.153209234881579
 30
0.0
  0
VERTEX
  5
22B6
  8
L1
 10
-37.119913828224007
 20
-35.151770693846139
 30
0.0
  0
VERTEX
  5
22B7
  8
L1
 10
-37.261613527238183
 20
-35.150372446854782
 30
0.0
  0
VERTEX
  5
22B8
  8
L1
 10
-37.39704429477672
 20
-35.149021846531781
 30
0.0
  0
VERTEX
  5
22B9
  8
L1
 10
-37.525766992904657
 20
-35.147725880146112
 30
0.0
  0
VERTEX
  5
22BA
  8
L1
 10
-37.647342483687282
 20
-35.146491534966309
 30
0.0
  0
VERTEX
  5
22BB
  8
L1
 10
-37.763798602769207
 20
-35.145300435671373
 30
0.0
  0
VERTEX
  5
22BC
  8
L1
 10
-37.875889128376052
 20
-35.144146960110582
 30
0.0
  0
VERTEX
  5
22BD
  8
L1
 10
-37.98287336198058
 20
-35.143040820721779
 30
0.0
  0
VERTEX
  5
22BE
  8
L1
 10
-38.084010605055653
 20
-35.141991729942639
 30
0.0
  0
VERTEX
  5
22BF
  8
L1
 10
-38.178612825801849
 20
-35.141009049177079
 30
0.0
  0
VERTEX
  5
22C0
  8
L1
 10
-38.26619039479101
 20
-35.140100176089021
 30
0.0
  0
VERTEX
  5
22C1
  8
L1
 10
-38.346300217052992
 20
-35.139271877506559
 30
0.0
  0
VERTEX
  5
22C2
  8
L1
 10
-38.41849919761745
 20
-35.1385309202578
 30
0.0
  0
VERTEX
  5
22C3
  8
L1
 10
-38.48242168309735
 20
-35.137883232319119
 30
0.0
  0
VERTEX
  5
22C4
  8
L1
 10
-38.537901461555059
 20
-35.13733203290289
 30
0.0
  0
VERTEX
  5
22C5
  8
L1
 10
-38.584794600194748
 20
-35.136880025691049
 30
0.0
  0
VERTEX
  5
22C6
  8
L1
 10
-38.622957166220431
 20
-35.136529914365752
 30
0.0
  0
VERTEX
  5
22C7
  8
L1
 10
-38.652225625331759
 20
-35.136284186079109
 30
0.0
  0
VERTEX
  5
22C8
  8
L1
 10
-38.672873525478558
 20
-35.136140059536238
 30
0.0
  0
VERTEX
  5
22C9
  8
L1
 10
-38.685108168643467
 20
-35.136095025806952
 30
0.0
  0
VERTEX
  5
22CA
  8
L1
 10
-38.689136856808943
 20
-35.136146575961192
 30
0.0
  0
SEQEND
  5
22CB
  8
L1
  0
LINE
  5
13E8
  8
L1
 10
-38.05595307107108
 20
-35.76933092744045
 30
0.0
 11
-38.689136825519938
 21
-35.136147172991599
 31
0.0
  0
LINE
  5
13E9
  8
L2
 10
-24.0
 20
-35.76933092744045
 30
0.0
 11
-24.0
 21
-35.76594317239752
 31
0.0
  0
LINE
  5
13EA
  8
L2
 10
-24.0
 20
-35.76594317239752
 30
0.0
 11
-24.0
 21
-35.469330927440382
 31
0.0
  0
ARC
  5
13EB
  8
L2
 10
-21.823985078250921
 20
-32.769330927440393
 30
0.0
 40
0.5
 50
181.50000000000111
 51
270.0
  0
LINE
  5
13EC
  8
L2
 10
-37.310161617719181
 20
-9.1693309274404271
 30
0.0
 11
-37.447960881647361
 21
-8.3878324671676694
 31
0.0
  0
LINE
  5
13ED
  8
L1
 10
-38.372362353791061
 20
-8.3878324671676392
 30
0.0
 11
-38.50960510937108
 21
-9.1661748117626587
 31
0.0
  0
LINE
  5
13EE
  8
L1
 10
-39.25
 20
-9.1693309274404271
 30
0.0
 11
-40.01016161771912
 21
-9.9294925451595741
 31
0.0
  0
POLYLINE
  5
13EF
  8
L1
 66
     1
 10
0.0
 20
0.0
 30
0.0
  0
VERTEX
  5
22CC
  8
L1
 10
-40.01016161771912
 20
-9.9294925451595741
 30
0.0
  0
VERTEX
  5
22CD
  8
L1
 10
-40.010161588952137
 20
-9.9294930940664017
 30
0.0
  0
SEQEND
  5
22CE
  8
L1
  0
POLYLINE
  5
13F0
  8
L1
 66
     1
 10
0.0
 20
0.0
 30
0.0
  0
VERTEX
  5
22CF
  8
L1
 10
-40.010161588952137
 20
-9.9294930940664017
 30
0.0
  0
VERTEX
  5
22D0
  8
L1
 10
-40.01016161771912
 20
-9.9294925451595741
 30
0.0
  0
SEQEND
  5
22D1
  8
L1
  0
ARC
  5
13F1
  8
L2
 10
-37.910161617719211
 20
-8.4693309274404385
 30
0.0
 40
0.4693309274404737
 50
9.9999999999982059
 51
90.0
  0
ARC
  5
13F2
  8
L1
 10
-37.910161617719211
 20
-8.4693309274404385
 30
0.0
 40
0.4693309274404737
 50
90.0
 51
169.99999999999849
  0
LINE
  5
13F3
  8
L2
 10
22.949999999999989
 20
-9.1693309274404271
 30
0.0
 11
22.323813740738721
 21
-32.782419401594353
 31
0.0
  0
LINE
  5
13F4
  8
L2
 10
24.0
 20
-35.76594317239752
 30
0.0
 11
24.0
 21
-35.469330927440382
 31
0.0
  0
LINE
  5
13F5
  8
L2
 10
24.0
 20
-35.76933092744045
 30
0.0
 11
24.0
 21
-35.76594317239752
 31
0.0
  0
ARC
  5
13F6
  8
L2
 10
21.823985078250921
 20
-32.769330927440393
 30
0.0
 40
0.5
 50
270.0
 51
358.49999999999881
  0
LINE
  5
13F7
  8
L1
 10
38.689136856808943
 20
-35.136146575961128
 30
0.0
 11
40.010161588952201
 21
-9.9294930940663164
 31
0.0
  0
POLYLINE
  5
13F8
  8
L1
 66
     1
 10
0.0
 20
0.0
 30
0.0
  0
VERTEX
  5
22D2
  8
L1
 10
35.182600668360749
 20
-35.169213755666952
 30
0.0
  0
VERTEX
  5
22D3
  8
L1
 10
35.342585397825303
 20
-35.167894082881418
 30
0.0
  0
VERTEX
  5
22D4
  8
L1
 10
35.50436647840484
 20
-35.166537527736658
 30
0.0
  0
VERTEX
  5
22D5
  8
L1
 10
35.6672248564131
 20
-35.16514964493669
 30
0.0
  0
VERTEX
  5
22D6
  8
L1
 10
35.830441478163657
 20
-35.163735989185483
 30
0.0
  0
VERTEX
  5
22D7
  8
L1
 10
36.00064214911032
 20
-35.162237197124313
 30
0.0
  0
VERTEX
  5
22D8
  8
L1
 10
36.16969462258367
 20
-35.160724000103038
 30
0.0
  0
VERTEX
  5
22D9
  8
L1
 10
36.33684347593578
 20
-35.159204109876981
 30
0.0
  0
VERTEX
  5
22DA
  8
L1
 10
36.501333286518779
 20
-35.157685238201481
 30
0.0
  0
VERTEX
  5
22DB
  8
L1
 10
36.662493557317873
 20
-35.156174659231702
 30
0.0
  0
VERTEX
  5
22DC
  8
L1
 10
36.81973390547585
 20
-35.154679940734269
 30
0.0
  0
VERTEX
  5
22DD
  8
L1
 10
36.972419079581577
 20
-35.153209234881579
 30
0.0
  0
VERTEX
  5
22DE
  8
L1
 10
37.119913828224007
 20
-35.151770693846139
 30
0.0
  0
VERTEX
  5
22DF
  8
L1
 10
37.261613527238183
 20
-35.150372446854782
 30
0.0
  0
VERTEX
  5
22E0
  8
L1
 10
37.39704429477672
 20
-35.149021846531781
 30
0.0
  0
VERTEX
  5
22E1
  8
L1
 10
37.525766992904657
 20
-35.147725880146112
 30
0.0
  0
VERTEX
  5
22E2
  8
L1
 10
37.647342483687282
 20
-35.146491534966309
 30
0.0
  0
VERTEX
  5
22E3
  8
L1
 10
37.763798602769207
 20
-35.145300435671373
 30
0.0
  0
VERTEX
  5
22E4
  8
L1
 10
37.875889128376052
 20
-35.144146960110582
 30
0.0
  0
VERTEX
  5
22E5
  8
L1
 10
37.98287336198058
 20
-35.143040820721779
 30
0.0
  0
VERTEX
  5
22E6
  8
L1
 10
38.084010605055653
 20
-35.141991729942639
 30
0.0
  0
VERTEX
  5
22E7
  8
L1
 10
38.178612825801849
 20
-35.141009049177079
 30
0.0
  0
VERTEX
  5
22E8
  8
L1
 10
38.26619039479101
 20
-35.140100176089021
 30
0.0
  0
VERTEX
  5
22E9
  8
L1
 10
38.346300217052992
 20
-35.139271877506559
 30
0.0
  0
VERTEX
  5
22EA
  8
L1
 10
38.41849919761745
 20
-35.1385309202578
 30
0.0
  0
VERTEX
  5
22EB
  8
L1
 10
38.48242168309735
 20
-35.137883232319119
 30
0.0
  0
VERTEX
  5
22EC
  8
L1
 10
38.537901461555059
 20
-35.13733203290289
 30
0.0
  0
VERTEX
  5
22ED
  8
L1
 10
38.584794600194748
 20
-35.136880025691049
 30
0.0
  0
VERTEX
  5
22EE
  8
L1
 10
38.622957166220431
 20
-35.136529914365752
 30
0.0
  0
VERTEX
  5
22EF
  8
L1
 10
38.652225625331759
 20
-35.136284186079109
 30
0.0
  0
VERTEX
  5
22F0
  8
L1
 10
38.672873525478558
 20
-35.136140059536238
 30
0.0
  0
VERTEX
  5
22F1
  8
L1
 10
38.685108168643467
 20
-35.136095025806952
 30
0.0
  0
VERTEX
  5
22F2
  8
L1
 10
38.689136856808943
 20
-35.136146575961192
 30
0.0
  0
SEQEND
  5
22F3
  8
L1
  0
LINE
  5
13F9
  8
L1
 10
38.05595307107108
 20
-35.76933092744045
 30
0.0
 11
38.689136825519938
 21
-35.136147172991599
 31
0.0
  0
ARC
  5
13FA
  8
L1
 10
37.910161617719211
 20
-8.4693309274404385
 30
0.0
 40
0.4693309274404737
 50
10.00000000000141
 51
90.0
  0
LINE
  5
13FB
  8
L2
 10
37.310161617719181
 20
-9.1693309274404271
 30
0.0
 11
37.447960881647361
 21
-8.3878324671676694
 31
0.0
  0
ARC
  5
13FC
  8
L2
 10
37.910161617719211
 20
-8.4693309274404385
 30
0.0
 40
0.4693309274404737
 50
90.0
 51
170.00000000000171
  0
LINE
  5
13FD
  8
L1
 10
38.372362353791061
 20
-8.3878324671676392
 30
0.0
 11
38.50960510937108
 21
-9.1661748117626587
 31
0.0
  0
POLYLINE
  5
13FE
  8
L1
 66
     1
 10
0.0
 20
0.0
 30
0.0
  0
VERTEX
  5
22F4
  8
L1
 10
40.010161588952137
 20
-9.9294930940664017
 30
0.0
  0
VERTEX
  5
22F5
  8
L1
 10
40.01016161771912
 20
-9.9294925451595741
 30
0.0
  0
SEQEND
  5
22F6
  8
L1
  0
POLYLINE
  5
13FF
  8
L1
 66
     1
 10
0.0
 20
0.0
 30
0.0
  0
VERTEX
  5
22F7
  8
L1
 10
40.01016161771912
 20
-9.9294925451595741
 30
0.0
  0
VERTEX
  5
22F8
  8
L1
 10
40.010161588952137
 20
-9.9294930940664017
 30
0.0
  0
SEQEND
  5
22F9
  8
L1
  0
LINE
  5
1400
  8
L1
 10
39.25
 20
-9.1693309274404271
 30
0.0
 11
40.01016161771912
 21
-9.9294925451595741
 31
0.0
  0
ENDBLK
  5
13DC
  8
0
  0
ENDSEC
  0
SECTION
  2
ENTITIES
  0
INSERT
  5
1334
  8
L1
  2
B
 10
160.36270253766901
 20
142.04427252916349
 30
0.0
  0
INSERT
  5
1351
  8
L1
  2
S1
 10
228.84688962742001
 20
142.04427252916349
 30
0.0
  0
INSERT
  5
1394
  8
L1
  2
T
 10
348.3379040886266
 20
142.04427252916349
 30
0.0
  0
INSERT
  5
13B1
  8
L1
  2
S2
 10
424.0595876223926
 20
142.04427252916349
 30
0.0
  0
INSERT
  5
13D9
  8
L1
  2
S3
 10
348.3379040886266
 20
282.84214527125772
 30
0.0
  0
INSERT
  5
1401
  8
L1
  2
S4
 10
348.3379040886266
 20
45.015730714509708
 30
0.0
  0
ENDSEC
  0
EOF
