  0
SECTION
  2
HEADER
  9
$ACADVER
  1
AC1009
  9
$INSBASE
 10
0.0
 20
0.0
 30
0.0
  9
$EXTMIN
 10
3.739884139355496
 20
0.7654745734593577
 30
-0.0000000000000009
  9
$EXTMAX
 10
379.29716555749098
 20
189.7182733835333
 30
0.0000000000000009
  9
$LIMMIN
 10
0.0
 20
0.0
  9
$LIMMAX
 10
420.0
 20
297.0
  9
$ORTHOMODE
 70
     0
  9
$REGENMODE
 70
     1
  9
$FILLMODE
 70
     1
  9
$QTEXTMODE
 70
     0
  9
$MIRRTEXT
 70
     1
  9
$DRAGMODE
 70
     2
  9
$LTSCALE
 40
10.0
  9
$OSMODE
 70
     5
  9
$ATTMODE
 70
     1
  9
$TEXTSIZE
 40
2.5
  9
$TRACEWID
 40
1.0
  9
$TEXTSTYLE
  7
SIMPLEX
  9
$CLAYER
  8
L1
  9
$CELTYPE
  6
BYLAYER
  9
$CECOLOR
 62
   256
  9
$DIMSCALE
 40
1.0
  9
$DIMASZ
 40
3.5
  9
$DIMEXO
 40
0.1
  9
$DIMDLI
 40
0.38
  9
$DIMRND
 40
0.0
  9
$DIMDLE
 40
0.0
  9
$DIMEXE
 40
0.18
  9
$DIMTP
 40
0.0
  9
$DIMTM
 40
0.0
  9
$DIMTXT
 40
3.5
  9
$DIMCEN
 40
1.0
  9
$DIMTSZ
 40
0.0
  9
$DIMTOL
 70
     0
  9
$DIMLIM
 70
     0
  9
$DIMTIH
 70
     0
  9
$DIMTOH
 70
     0
  9
$DIMSE1
 70
     0
  9
$DIMSE2
 70
     0
  9
$DIMTAD
 70
     1
  9
$DIMZIN
 70
     8
  9
$DIMBLK
  1

  9
$DIMASO
 70
     1
  9
$DIMSHO
 70
     1
  9
$DIMPOST
  1

  9
$DIMAPOST
  1

  9
$DIMALT
 70
     0
  9
$DIMALTD
 70
     2
  9
$DIMALTF
 40
25.399999999999999
  9
$DIMLFAC
 40
1.0
  9
$DIMTOFL
 70
     1
  9
$DIMTVP
 40
0.0
  9
$DIMTIX
 70
     0
  9
$DIMSOXD
 70
     0
  9
$DIMSAH
 70
     0
  9
$DIMBLK1
  1

  9
$DIMBLK2
  1

  9
$DIMSTYLE
  2
FIBOX
  9
$DIMCLRD
 70
     1
  9
$DIMCLRE
 70
     1
  9
$DIMCLRT
 70
     3
  9
$DIMTFAC
 40
1.0
  9
$DIMGAP
 40
1.0
  9
$LUNITS
 70
     2
  9
$LUPREC
 70
     4
  9
$SKETCHINC
 40
1.0
  9
$FILLETRAD
 40
2.0
  9
$AUNITS
 70
     0
  9
$AUPREC
 70
     0
  9
$MENU
  1
.
  9
$ELEVATION
 40
0.0
  9
$PELEVATION
 40
0.0
  9
$THICKNESS
 40
0.0
  9
$LIMCHECK
 70
     0
  9
$BLIPMODE
 70
     0
  9
$CHAMFERA
 40
10.0
  9
$CHAMFERB
 40
10.0
  9
$SKPOLY
 70
     0
  9
$TDCREATE
 40
2450519.5748858559
  9
$TDUPDATE
 40
2452502.5260532522
  9
$TDINDWG
 40
0.7767441088
  9
$TDUSRTIMER
 40
0.7767441088
  9
$USRTIMER
 70
     1
  9
$ANGBASE
 50
0.0
  9
$ANGDIR
 70
     0
  9
$PDMODE
 70
     0
  9
$PDSIZE
 40
0.0
  9
$PLINEWID
 40
0.0
  9
$COORDS
 70
     2
  9
$SPLFRAME
 70
     0
  9
$SPLINETYPE
 70
     6
  9
$SPLINESEGS
 70
     8
  9
$ATTDIA
 70
     0
  9
$ATTREQ
 70
     1
  9
$HANDLING
 70
 22529
  9
$HANDSEED
  5
1062
  9
$SURFTAB1
 70
     6
  9
$SURFTAB2
 70
     6
  9
$SURFTYPE
 70
     6
  9
$SURFU
 70
     6
  9
$SURFV
 70
     6
  9
$UCSNAME
  2

  9
$UCSORG
 10
0.0
 20
0.0
 30
0.0
  9
$UCSXDIR
 10
1.0
 20
0.0
 30
0.0
  9
$UCSYDIR
 10
0.0
 20
1.0
 30
0.0
  9
$PUCSNAME
  2

  9
$PUCSORG
 10
0.0
 20
0.0
 30
0.0
  9
$PUCSXDIR
 10
1.0
 20
0.0
 30
0.0
  9
$PUCSYDIR
 10
0.0
 20
1.0
 30
0.0
  9
$USERI1
 70
     0
  9
$USERI2
 70
     0
  9
$USERI3
 70
     0
  9
$USERI4
 70
     0
  9
$USERI5
 70
     0
  9
$USERR1
 40
0.0
  9
$USERR2
 40
0.0
  9
$USERR3
 40
0.0
  9
$USERR4
 40
0.0
  9
$USERR5
 40
0.0
  9
$WORLDVIEW
 70
     1
  9
$SHADEDGE
 70
     3
  9
$SHADEDIF
 70
    70
  9
$TILEMODE
 70
     1
  9
$MAXACTVP
 70
    16
  9
$PLIMCHECK
 70
     0
  9
$PEXTMIN
 10
-774.10312634584443
 20
-14.62650078370908
 30
0.0
  9
$PEXTMAX
 10
65.896873654155556
 20
579.37349921629095
 30
0.0
  9
$PLIMMIN
 10
0.0
 20
0.0
  9
$PLIMMAX
 10
420.0
 20
297.0
  9
$UNITMODE
 70
     0
  9
$VISRETAIN
 70
     0
  9
$PLINEGEN
 70
     0
  9
$PSLTSCALE
 70
     1
  0
ENDSEC
  0
SECTION
  2
TABLES
  0
TABLE
  2
VPORT
 70
     2
  0
VPORT
  2
*ACTIVE
 70
     0
 10
0.0
 20
0.0
 11
1.0
 21
1.0
 12
376.89666587872591
 22
-18.389449272645599
 13
0.0
 23
0.0
 14
1.0
 24
1.0
 15
10.0
 25
10.0
 16
0.0
 26
0.0
 36
1.0
 17
-185.36971790085821
 27
113.64009077130279
 37
-48.894079632653657
 40
248.21622633881921
 41
1.5205479452054791
 42
50.0
 43
0.0
 44
0.0
 50
0.0
 51
0.0
 71
     0
 72
   500
 73
     1
 74
     0
 75
     0
 76
     0
 77
     0
 78
     0
  0
ENDTAB
  0
TABLE
  2
LTYPE
 70
     3
  0
LTYPE
  2
CONTINUOUS
 70
     0
  3
Solid line
 72
    65
 73
     0
 40
0.0
  0
LTYPE
  2
HIDDEN
 70
     0
  3
__ __ __ __ __ __ __ __ __ __ __ __ __ __ __ __
 72
    65
 73
     2
 40
0.375
 49
0.25
 49
-0.125
  0
LTYPE
  2
CENTER
 70
     0
  3
____ _ ____ _ ____ _ ____ _ ____ _ ____ _ ____ 
 72
    65
 73
     4
 40
2.0
 49
1.25
 49
-0.25
 49
0.25
 49
-0.25
  0
ENDTAB
  0
TABLE
  2
LAYER
 70
     4
  0
LAYER
  2
0
 70
     0
 62
     7
  6
CONTINUOUS
  0
LAYER
  2
L2
 70
     0
 62
     1
  6
HIDDEN
  0
LAYER
  2
L1
 70
     0
 62
     7
  6
CONTINUOUS
  0
LAYER
  2
L6
 70
     0
 62
     1
  6
CENTER
  0
ENDTAB
  0
TABLE
  2
STYLE
 70
     2
  0
STYLE
  2
STANDARD
 70
     0
 40
0.0
 41
1.0
 50
0.0
 71
     0
 42
2.5
  3
ISOCP
  4

  0
STYLE
  2
SIMPLEX
 70
     0
 40
0.0
 41
0.8
 50
0.0
 71
     0
 42
2.5
  3
SIMPLEX.SHX
  4

  0
ENDTAB
  0
TABLE
  2
VIEW
 70
     0
  0
ENDTAB
  0
TABLE
  2
UCS
 70
     0
  0
ENDTAB
  0
TABLE
  2
APPID
 70
     2
  0
APPID
  2
ACAD
 70
     0
  0
APPID
  2
CONTENTBLOCKICON
 70
     0
  0
ENDTAB
  0
TABLE
  2
DIMSTYLE
 70
     1
  0
DIMSTYLE
  2
FIBOX
 70
     0
  3

  4

  5

  6

  7

 40
1.0
 41
3.5
 42
0.1
 43
0.38
 44
0.18
 45
0.0
 46
0.0
 47
0.0
 48
0.0
140
3.5
141
1.0
142
0.0
143
25.399999999999999
144
1.0
145
0.0
146
1.0
147
1.0
 71
     0
 72
     0
 73
     0
 74
     0
 75
     0
 76
     0
 77
     1
 78
     8
170
     0
171
     2
172
     1
173
     0
174
     0
175
     0
176
     1
177
     1
178
     3
  0
ENDTAB
  0
ENDSEC
  0
SECTION
  2
BLOCKS
  0
BLOCK
  8
0
  2
$MODEL_SPACE
 70
     0
 10
0.0
 20
0.0
 30
0.0
  3
$MODEL_SPACE
  1

  0
ENDBLK
  5
6
  8
0
  0
BLOCK
 67
     1
  8
0
  2
$PAPER_SPACE
 70
     0
 10
0.0
 20
0.0
 30
0.0
  3
$PAPER_SPACE
  1

  0
ENDBLK
  5
9
 67
     1
  8
0
  0
BLOCK
  8
0
  2
B
 70
     0
 10
0.0
 20
0.0
 30
0.0
  3
B
  1

  0
LINE
  5
7C6
  8
L1
 10
47.566545883703263
 20
37.450000000000209
 30
0.0
 11
-46.733454116296791
 21
37.450000000000209
 31
0.0
  0
LINE
  5
7C7
  8
L1
 10
-47.233556918804076
 20
37.250000000000107
 30
0.0
 11
48.066648686210669
 21
37.25000000000005
 31
0.0
  0
LINE
  5
7C8
  8
L1
 10
-46.733454116296791
 20
38.450000000000209
 30
0.0
 11
47.566545883703263
 21
38.450000000000209
 31
0.0
  0
LINE
  5
7C9
  8
L1
 10
-46.733454116296791
 20
-37.450000000000159
 30
0.0
 11
47.566545883703213
 21
-37.450000000000159
 31
0.0
  0
LINE
  5
7CA
  8
L1
 10
48.066648686210549
 20
-37.249999999999943
 30
0.0
 11
-47.233556918804076
 21
-37.249999999999943
 31
0.0
  0
LINE
  5
7CB
  8
L1
 10
47.566545883703213
 20
-38.450000000000159
 30
-0.0000000000000009
 11
-46.733454116296791
 21
-38.450000000000159
 31
-0.0000000000000009
  0
LINE
  5
7CC
  8
L1
 10
61.933646642971269
 20
-40.012304130909222
 30
0.0
 11
-61.100554875564967
 21
-40.012304130909222
 31
0.0
  0
LINE
  5
7CD
  8
L1
 10
-61.100554875564967
 20
40.012304130909172
 30
0.0
 11
61.933646642971318
 21
40.012304130909172
 31
0.0
  0
LINE
  5
7CE
  8
L1
 10
61.973545883703203
 20
39.293024100224841
 30
0.0
 11
-61.140454116296723
 21
39.293024100224841
 31
0.0
  0
LINE
  5
7CF
  8
L1
 10
-61.140454116296837
 20
-39.293024100224841
 30
0.0
 11
61.973545883703139
 21
-39.293024100224841
 31
0.0
  0
LINE
  5
7D0
  8
L6
 10
68.793729430821287
 20
0.0
 30
0.0
 11
-68.459845974139142
 21
0.0
 31
0.0
  0
POLYLINE
  5
7D1
  8
L1
 66
     1
 10
0.0
 20
0.0
 30
0.0
  0
VERTEX
  5
D7F
  8
L1
 10
-61.140454116296837
 20
-40.012088437774082
 30
0.0
  0
VERTEX
  5
D80
  8
L1
 10
-61.802241718742152
 20
-39.941714390114377
 30
0.0
  0
VERTEX
  5
D81
  8
L1
 10
-62.457226502537878
 20
-39.739585002002393
 30
0.0
  0
VERTEX
  5
D82
  8
L1
 10
-63.060073347192883
 20
-39.413440750186048
 30
0.0
  0
VERTEX
  5
D83
  8
L1
 10
-63.573383235370557
 20
-38.989929119073558
 30
0.0
  0
VERTEX
  5
D84
  8
L1
 10
-63.996894866482982
 20
-38.476619230895999
 30
0.0
  0
VERTEX
  5
D85
  8
L1
 10
-64.323039118299221
 20
-37.87377238624088
 30
0.0
  0
VERTEX
  5
D86
  8
L1
 10
-64.525168506411205
 20
-37.218787602445211
 30
0.0
  0
VERTEX
  5
D87
  8
L1
 10
-64.595542554070903
 20
-36.557000000000009
 30
0.0
  0
SEQEND
  5
D88
  8
L1
  0
ARC
  5
7D2
  8
L1
 10
-61.140454116296723
 20
-36.557000000000009
 30
0.0
 40
2.7360241002247649
 50
180.0
 51
269.9999999999992
  0
LINE
  5
7D3
  8
L6
 10
0.0
 20
44.750312969960419
 30
0.0
 11
0.0
 21
-43.937187047623063
 31
0.0
  0
POLYLINE
  5
7D4
  8
L1
 66
     1
 10
0.0
 20
0.0
 30
0.0
  0
VERTEX
  5
D89
  8
L1
 10
-61.100554875564967
 20
-40.012304130909172
 30
0.0
  0
VERTEX
  5
D8A
  8
L1
 10
-61.120502148335049
 20
-40.012250207188792
 30
0.0
  0
VERTEX
  5
D8B
  8
L1
 10
-61.140454116296837
 20
-40.012088437774082
 30
0.0
  0
SEQEND
  5
D8C
  8
L1
  0
POLYLINE
  5
7D5
  8
L1
 66
     1
 10
0.0
 20
0.0
 30
0.0
  0
VERTEX
  5
D8D
  8
L1
 10
-58.818537556254462
 20
36.968447512879543
 30
0.0
  0
VERTEX
  5
D8E
  8
L1
 10
-58.841089067222008
 20
36.95873469798363
 30
0.0
  0
VERTEX
  5
D8F
  8
L1
 10
-58.902964907373068
 20
36.929433388861469
 30
0.0
  0
VERTEX
  5
D90
  8
L1
 10
-58.994872335298737
 20
36.88345623753105
 30
0.0
  0
VERTEX
  5
D91
  8
L1
 10
-59.100707631331481
 20
36.827415601628438
 30
0.0
  0
VERTEX
  5
D92
  8
L1
 10
-59.101384569821668
 20
36.827046612410577
 30
0.0
  0
SEQEND
  5
D93
  8
L1
  0
ARC
  5
7D6
  8
L1
 10
-61.03345411629698
 20
36.450000000000273
 30
0.0
 40
2.0
 50
44.999999999998273
 51
225.0000000000006
  0
LINE
  5
7D7
  8
L1
 10
-59.619240553923873
 20
37.864213562373322
 30
0.0
 11
-58.1596109031276
 21
36.404583911577049
 31
0.0
  0
LINE
  5
7D8
  8
L1
 10
-59.833454116296821
 20
25.35000000000019
 30
0.0
 11
-57.728785996874421
 21
25.35000000000019
 31
0.0
  0
LINE
  5
7D9
  8
L1
 10
-59.833454116296821
 20
25.367453735581702
 30
0.0
 11
-57.728785996874421
 21
25.367453735581702
 31
0.0
  0
LINE
  5
7DA
  8
L1
 10
-61.302094209809638
 20
31.523074877092711
 30
0.0
 11
-56.560379239204167
 21
26.781359906487179
 31
0.0
  0
LINE
  5
7DB
  8
L1
 10
-57.5289956173051
 20
25.849790379569409
 30
0.0
 11
-62.376687836952208
 21
30.697482599216471
 31
0.0
  0
LINE
  5
7DC
  8
L1
 10
-56.571724816568228
 20
26.755680519491019
 30
0.0
 11
-61.327773596805848
 21
31.511729299728639
 31
0.0
  0
LINE
  5
7DD
  8
L1
 10
-62.364346182165491
 20
30.709824254003252
 30
0.0
 11
-57.516653962518369
 21
25.86213203435614
 31
0.0
  0
LINE
  5
7DE
  8
L1
 10
-56.333454116296821
 20
24.350000000000129
 30
0.0
 11
-59.833454116296821
 21
24.350000000000129
 31
0.0
  0
LINE
  5
7DF
  8
L1
 10
-61.533556918804152
 20
22.950000000000038
 30
0.0
 11
-56.333454116296821
 21
22.950000000000038
 31
0.0
  0
LINE
  5
7E0
  8
L1
 10
-57.728785996874301
 20
-25.350000000000019
 30
-0.0000000000000009
 11
-59.833454116296821
 21
-25.350000000000019
 31
-0.0000000000000009
  0
LINE
  5
7E1
  8
L1
 10
-57.728785996874301
 20
-25.367453735581531
 30
0.0
 11
-59.833454116296821
 21
-25.367453735581531
 31
0.0
  0
LINE
  5
7E2
  8
L1
 10
-56.333454116296821
 20
-22.949999999999928
 30
0.0
 11
-61.533556918804152
 21
-22.949999999999928
 31
0.0
  0
LINE
  5
7E3
  8
L1
 10
-56.560379239204167
 20
-26.781359906487118
 30
0.0
 11
-61.302094209809638
 21
-31.523074877092601
 31
0.0
  0
LINE
  5
7E4
  8
L1
 10
-61.327773596805848
 20
-31.511729299728529
 30
0.0
 11
-56.571724816568228
 21
-26.755680519490902
 31
0.0
  0
LINE
  5
7E5
  8
L1
 10
-57.516653962518369
 20
-25.862132034355959
 30
0.0
 11
-62.364346182165491
 21
-30.709824254003131
 31
0.0
  0
LINE
  5
7E6
  8
L1
 10
-62.376687836952208
 20
-30.697482599216411
 30
0.0
 11
-57.528995617304979
 21
-25.849790379569239
 31
0.0
  0
POLYLINE
  5
7E7
  8
L1
 66
     1
 10
0.0
 20
0.0
 30
0.0
  0
VERTEX
  5
D94
  8
L1
 10
-59.101384569821668
 20
-36.82704661241052
 30
0.0
  0
VERTEX
  5
D95
  8
L1
 10
-59.100707631331481
 20
-36.827415601628267
 30
0.0
  0
VERTEX
  5
D96
  8
L1
 10
-58.994872335298737
 20
-36.883456237530993
 30
0.0
  0
VERTEX
  5
D97
  8
L1
 10
-58.902964907373189
 20
-36.929433388861348
 30
0.0
  0
VERTEX
  5
D98
  8
L1
 10
-58.841089067221901
 20
-36.958734697983509
 30
0.0
  0
VERTEX
  5
D99
  8
L1
 10
-58.818537556254341
 20
-36.968447512879379
 30
0.0
  0
SEQEND
  5
D9A
  8
L1
  0
LINE
  5
7E8
  8
L1
 10
-58.159610903127479
 20
-36.404583911576928
 30
0.0
 11
-59.619240553923873
 21
-37.864213562373259
 31
0.0
  0
ARC
  5
7E9
  8
L1
 10
-61.03345411629698
 20
-36.450000000000159
 30
0.0
 40
1.999999999999996
 50
134.99999999999881
 51
314.99999999999937
  0
LINE
  5
7EA
  8
L1
 10
-64.595758247206049
 20
-36.517100759268139
 30
0.0
 11
-64.595758247206049
 21
36.517100759268203
 31
0.0
  0
LINE
  5
7EB
  8
L1
 10
-62.033454116296873
 20
22.150000000000031
 30
0.0
 11
-62.033454116296873
 21
-22.14999999999992
 31
0.0
  0
LINE
  5
7EC
  8
L1
 10
-61.833454116296821
 20
-22.65010280250732
 30
0.0
 11
-61.833454116296821
 21
22.65010280250743
 31
0.0
  0
LINE
  5
7ED
  8
L1
 10
-63.876478216521491
 20
36.557000000000009
 30
0.0
 11
-63.876478216521491
 21
-36.557000000000009
 31
0.0
  0
LINE
  5
7EE
  8
L1
 10
-63.03345411629698
 20
-22.14999999999992
 30
0.0
 11
-63.03345411629698
 21
22.150000000000031
 31
0.0
  0
LINE
  5
7EF
  8
L1
 10
-62.806663274195436
 20
-23.51077810845339
 30
0.0
 11
-62.806663274195436
 21
-28.09352916361297
 31
0.0
  0
LINE
  5
7F0
  8
L1
 10
-62.413712801312393
 20
-28.256294578822001
 30
0.0
 11
-59.958342903002738
 21
-25.80092468051236
 31
0.0
  0
LINE
  5
7F1
  8
L1
 10
-62.876478216521491
 20
-30.497692219647199
 30
0.0
 11
-62.876478216521491
 21
-23.139951678342118
 31
0.0
  0
LINE
  5
7F2
  8
L1
 10
-60.957383532571839
 20
-33.582527255889033
 30
0.0
 11
-61.314832346847879
 21
-33.93997607016518
 31
0.0
  0
LINE
  5
7F3
  8
L1
 10
-62.447667678670093
 20
-35.035786437627053
 30
0.0
 11
-60.988038027873813
 21
-33.576156786830779
 31
0.0
  0
POLYLINE
  5
7F4
  8
L1
 66
     1
 10
0.0
 20
0.0
 30
0.0
  0
VERTEX
  5
D9B
  8
L1
 10
-64.595542554070903
 20
-36.557000000000009
 30
0.0
  0
VERTEX
  5
D9C
  8
L1
 10
-64.59570432348562
 20
-36.537048032038221
 30
0.0
  0
VERTEX
  5
D9D
  8
L1
 10
-64.595758247205936
 20
-36.517100759268139
 30
0.0
  0
SEQEND
  5
D9E
  8
L1
  0
POLYLINE
  5
7F5
  8
L1
 66
     1
 10
0.0
 20
0.0
 30
0.0
  0
VERTEX
  5
D9F
  8
L1
 10
-61.314832346847993
 20
-33.939976070165073
 30
0.0
  0
VERTEX
  5
DA0
  8
L1
 10
-61.40382150416167
 20
-34.029261489383543
 30
0.0
  0
VERTEX
  5
DA1
  8
L1
 10
-61.477066346190213
 20
-34.10332893140253
 30
0.0
  0
VERTEX
  5
DA2
  8
L1
 10
-61.524465977122311
 20
-34.15192841743265
 30
0.0
  0
VERTEX
  5
DA3
  8
L1
 10
-61.540401498291658
 20
-34.169215408078287
 30
0.0
  0
SEQEND
  5
DA4
  8
L1
  0
POLYLINE
  5
7F6
  8
L1
 66
     1
 10
0.0
 20
0.0
 30
0.0
  0
VERTEX
  5
DA5
  8
L1
 10
-61.540401498291658
 20
-34.169215408078287
 30
0.0
  0
VERTEX
  5
DA6
  8
L1
 10
-61.5519016291762
 20
-34.235083439957521
 30
0.0
  0
SEQEND
  5
DA7
  8
L1
  0
POLYLINE
  5
7F7
  8
L1
 66
     1
 10
0.0
 20
0.0
 30
0.0
  0
VERTEX
  5
DA8
  8
L1
 10
-61.5519016291762
 20
-34.235083439957521
 30
0.0
  0
VERTEX
  5
DA9
  8
L1
 10
-61.54218881428028
 20
-34.257634950925187
 30
0.0
  0
VERTEX
  5
DAA
  8
L1
 10
-61.512887505158233
 20
-34.319510791076247
 30
0.0
  0
VERTEX
  5
DAB
  8
L1
 10
-61.466910353827757
 20
-34.411418219001973
 30
0.0
  0
VERTEX
  5
DAC
  8
L1
 10
-61.410869717925152
 20
-34.517253515034781
 30
0.0
  0
VERTEX
  5
DAD
  8
L1
 10
-61.410500728707348
 20
-34.517930453524912
 30
0.0
  0
SEQEND
  5
DAE
  8
L1
  0
ARC
  5
7F8
  8
L1
 10
-56.333454116296821
 20
-31.74999999999994
 30
0.0
 40
5.7825462644184809
 50
208.5985626837556
 51
241.40143731624511
  0
ARC
  5
7F9
  8
L1
 10
-62.576478216521529
 20
-28.09352916361297
 30
0.0
 40
0.2301850576723765
 50
180.0
 51
315.0
  0
ARC
  5
7FA
  8
L1
 10
-62.576478216521529
 20
-28.09352916361297
 30
0.0
 40
0.2825462644169292
 50
180.0
 51
315.0
  0
POLYLINE
  5
7FB
  8
L1
 66
     1
 10
0.0
 20
0.0
 30
0.0
  0
VERTEX
  5
DAF
  8
L1
 10
-61.327773596805848
 20
-31.511729299728529
 30
0.0
  0
VERTEX
  5
DB0
  8
L1
 10
-61.302094209809638
 20
-31.52307487709254
 30
0.0
  0
SEQEND
  5
DB1
  8
L1
  0
ARC
  5
7FC
  8
L1
 10
-56.333454116296821
 20
-31.74999999999994
 30
0.0
 40
4.9738193966277091
 50
177.38503438687391
 51
201.6191085516991
  0
POLYLINE
  5
7FD
  8
L1
 66
     1
 10
0.0
 20
0.0
 30
0.0
  0
VERTEX
  5
DB2
  8
L1
 10
-60.988038027873813
 20
-33.576156786830779
 30
0.0
  0
VERTEX
  5
DB3
  8
L1
 10
-60.957383532571839
 20
-33.582527255888969
 30
0.0
  0
SEQEND
  5
DB4
  8
L1
  0
ARC
  5
7FE
  8
L1
 10
-56.333454116296821
 20
-31.74999999999994
 30
0.0
 40
4.9999999999999849
 50
177.2685844295718
 51
201.42182152179819
  0
ARC
  5
7FF
  8
L1
 10
-62.576478216521529
 20
-30.497692219647199
 30
0.0
 40
0.2999999999999944
 50
180.0
 51
315.00000000000739
  0
ARC
  5
800
  8
L1
 10
-62.576478216521529
 20
-30.497692219647199
 30
0.0
 40
0.2825462644184768
 50
180.0
 51
315.00000000000858
  0
LINE
  5
801
  8
L1
 10
-62.859024480939979
 20
-28.09352916361297
 30
0.0
 11
-62.859024480939979
 21
-30.497692219647199
 31
0.0
  0
ARC
  5
802
  8
L1
 10
-59.833454116296821
 20
-22.14999999999992
 30
0.0
 40
2.2000000000000619
 50
180.0
 51
270.00000000000159
  0
ARC
  5
803
  8
L1
 10
-59.833454116296821
 20
-22.14999999999992
 30
0.0
 40
3.200000000000141
 50
180.0
 51
198.0206593051573
  0
ARC
  5
804
  8
L1
 10
-59.833454116296821
 20
-22.14999999999992
 30
0.0
 40
3.200000000000141
 50
198.0206593051573
 51
270.0000000000008
  0
POLYLINE
  5
805
  8
L1
 66
     1
 10
0.0
 20
0.0
 30
0.0
  0
VERTEX
  5
DB5
  8
L1
 10
-61.533556918804152
 20
-22.949999999999989
 30
0.0
  0
VERTEX
  5
DB6
  8
L1
 10
-61.745628722532608
 20
-22.862174606235719
 30
0.0
  0
VERTEX
  5
DB7
  8
L1
 10
-61.833454116296821
 20
-22.65010280250732
 30
0.0
  0
SEQEND
  5
DB8
  8
L1
  0
POLYLINE
  5
806
  8
L1
 66
     1
 10
0.0
 20
0.0
 30
0.0
  0
VERTEX
  5
DB9
  8
L1
 10
-62.859024480939979
 20
-23.244501032069419
 30
0.0
  0
VERTEX
  5
DBA
  8
L1
 10
-62.846998919878729
 20
-23.31107030116538
 30
0.0
  0
VERTEX
  5
DBB
  8
L1
 10
-62.834263531734223
 20
-23.377639570261351
 30
0.0
  0
VERTEX
  5
DBC
  8
L1
 10
-62.820818316506568
 20
-23.444208839357369
 30
0.0
  0
VERTEX
  5
DBD
  8
L1
 10
-62.806663274195436
 20
-23.51077810845339
 30
0.0
  0
SEQEND
  5
DBE
  8
L1
  0
POLYLINE
  5
807
  8
L1
 66
     1
 10
0.0
 20
0.0
 30
0.0
  0
VERTEX
  5
DBF
  8
L1
 10
-62.876478216521491
 20
-23.139951678342118
 30
0.0
  0
VERTEX
  5
DC0
  8
L1
 10
-62.859024480939979
 20
-23.244501032069419
 30
0.0
  0
SEQEND
  5
DC1
  8
L1
  0
ARC
  5
808
  8
L1
 10
-59.833454116296821
 20
-22.14999999999992
 30
0.0
 40
3.2174537355816111
 50
265.285719206213
 51
270.0
  0
ARC
  5
809
  8
L1
 10
-59.833454116296821
 20
-22.14999999999992
 30
0.0
 40
3.269814942326057
 50
204.5926182177767
 51
265.285719206213
  0
ARC
  5
80A
  8
L1
 10
-60.121108318211782
 20
-25.638159265303269
 30
0.0
 40
0.2301850576739457
 50
314.99999999999022
 51
85.285719206212264
  0
ARC
  5
80B
  8
L1
 10
-60.121108318211782
 20
-25.638159265303269
 30
0.0
 40
0.2825462644184985
 50
315.00000000000801
 51
85.285719206210587
  0
LINE
  5
80C
  8
L1
 10
-62.859024480939979
 20
30.497692219647259
 30
0.0
 11
-62.859024480939979
 21
28.093529163613081
 31
0.0
  0
LINE
  5
80D
  8
L1
 10
-62.876478216521491
 20
23.139951678342239
 30
0.0
 11
-62.876478216521491
 21
30.497692219647259
 31
0.0
  0
ARC
  5
80E
  8
L1
 10
-59.833454116296821
 20
22.150000000000031
 30
0.0
 40
2.2000000000000899
 50
90.0
 51
180.0
  0
ARC
  5
80F
  8
L1
 10
-59.833454116296821
 20
22.150000000000031
 30
0.0
 40
3.200000000000113
 50
90.0
 51
161.97934069484259
  0
ARC
  5
810
  8
L1
 10
-59.833454116296821
 20
22.150000000000031
 30
0.0
 40
3.2698149423261
 50
94.714280793786116
 51
155.40738178222151
  0
LINE
  5
811
  8
L1
 10
-62.806663274195436
 20
28.093529163613081
 30
0.0
 11
-62.806663274195436
 21
23.510778108453621
 31
0.0
  0
POLYLINE
  5
812
  8
L1
 66
     1
 10
0.0
 20
0.0
 30
0.0
  0
VERTEX
  5
DC2
  8
L1
 10
-61.833454116296821
 20
22.65010280250743
 30
0.0
  0
VERTEX
  5
DC3
  8
L1
 10
-61.745628722532501
 20
22.862174606235829
 30
0.0
  0
VERTEX
  5
DC4
  8
L1
 10
-61.533556918804152
 20
22.950000000000099
 30
0.0
  0
SEQEND
  5
DC5
  8
L1
  0
ARC
  5
813
  8
L1
 10
-59.833454116296821
 20
22.150000000000031
 30
0.0
 40
3.200000000000113
 50
161.97934069484191
 51
180.0
  0
POLYLINE
  5
814
  8
L1
 66
     1
 10
0.0
 20
0.0
 30
0.0
  0
VERTEX
  5
DC6
  8
L1
 10
-62.876478216521491
 20
23.139951678342239
 30
0.0
  0
VERTEX
  5
DC7
  8
L1
 10
-62.859024480939979
 20
23.244501032069131
 30
0.0
  0
SEQEND
  5
DC8
  8
L1
  0
POLYLINE
  5
815
  8
L1
 66
     1
 10
0.0
 20
0.0
 30
0.0
  0
VERTEX
  5
DC9
  8
L1
 10
-62.859024480939979
 20
23.244501032069131
 30
0.0
  0
VERTEX
  5
DCA
  8
L1
 10
-62.846998919878729
 20
23.31107030116533
 30
0.0
  0
VERTEX
  5
DCB
  8
L1
 10
-62.834263531734223
 20
23.377639570261461
 30
0.0
  0
VERTEX
  5
DCC
  8
L1
 10
-62.820818316506461
 20
23.44420883935754
 30
0.0
  0
VERTEX
  5
DCD
  8
L1
 10
-62.806663274195436
 20
23.510778108453621
 30
0.0
  0
SEQEND
  5
DCE
  8
L1
  0
ARC
  5
816
  8
L1
 10
-59.833454116296821
 20
22.150000000000031
 30
0.0
 40
3.217453735581477
 50
90.0
 51
94.714280793786116
  0
ARC
  5
817
  8
L1
 10
-62.576478216521529
 20
28.093529163613081
 30
0.0
 40
0.230185057673884
 50
45.00000000000518
 51
180.0
  0
ARC
  5
818
  8
L1
 10
-62.576478216521529
 20
28.093529163613081
 30
0.0
 40
0.2825462644184369
 50
45.000000000004043
 51
180.0
  0
LINE
  5
819
  8
L1
 10
-59.958342903002738
 20
25.80092468051236
 30
0.0
 11
-62.413712801312499
 21
28.256294578822061
 31
0.0
  0
LINE
  5
81A
  8
L1
 10
-62.376687836952208
 20
28.293319543182339
 30
0.0
 11
-59.921317938642567
 21
25.837949644872591
 31
0.0
  0
ARC
  5
81B
  8
L1
 10
-60.121108318211782
 20
25.638159265303329
 30
0.0
 40
0.2301850576739125
 50
274.714280793782
 51
45.000000000014957
  0
ARC
  5
81C
  8
L1
 10
-60.121108318211782
 20
25.638159265303329
 30
0.0
 40
0.2825462644184653
 50
274.7142807937837
 51
45.000000000008058
  0
ARC
  5
81D
  8
L1
 10
-56.333454116296821
 20
31.75000000000006
 30
0.0
 40
5.7825462644184809
 50
118.59856268375491
 51
151.40143731624511
  0
POLYLINE
  5
81E
  8
L1
 66
     1
 10
0.0
 20
0.0
 30
0.0
  0
VERTEX
  5
DCF
  8
L1
 10
-61.551901629176093
 20
34.235083439957691
 30
0.0
  0
VERTEX
  5
DD0
  8
L1
 10
-61.540401498291658
 20
34.16921540807845
 30
0.0
  0
SEQEND
  5
DD1
  8
L1
  0
POLYLINE
  5
81F
  8
L1
 66
     1
 10
0.0
 20
0.0
 30
0.0
  0
VERTEX
  5
DD2
  8
L1
 10
-61.540401498291658
 20
34.16921540807845
 30
0.0
  0
VERTEX
  5
DD3
  8
L1
 10
-61.524465977122311
 20
34.151928417432771
 30
0.0
  0
VERTEX
  5
DD4
  8
L1
 10
-61.477066346190213
 20
34.103328931402643
 30
0.0
  0
VERTEX
  5
DD5
  8
L1
 10
-61.40382150416167
 20
34.02926148938365
 30
0.0
  0
VERTEX
  5
DD6
  8
L1
 10
-61.314832346847993
 20
33.939976070165301
 30
0.0
  0
SEQEND
  5
DD7
  8
L1
  0
LINE
  5
820
  8
L1
 10
-61.314832346847879
 20
33.939976070165301
 30
0.0
 11
-60.957383532571839
 21
33.582527255889197
 31
0.0
  0
POLYLINE
  5
821
  8
L1
 66
     1
 10
0.0
 20
0.0
 30
0.0
  0
VERTEX
  5
DD8
  8
L1
 10
-60.957383532571839
 20
33.58252725588914
 30
0.0
  0
VERTEX
  5
DD9
  8
L1
 10
-60.988038027873813
 20
33.57615678683095
 30
0.0
  0
SEQEND
  5
DDA
  8
L1
  0
POLYLINE
  5
822
  8
L1
 66
     1
 10
0.0
 20
0.0
 30
0.0
  0
VERTEX
  5
DDB
  8
L1
 10
-61.410500728707348
 20
34.517930453524968
 30
0.0
  0
VERTEX
  5
DDC
  8
L1
 10
-61.410869717925152
 20
34.517253515034888
 30
0.0
  0
VERTEX
  5
DDD
  8
L1
 10
-61.466910353827757
 20
34.41141821900208
 30
0.0
  0
VERTEX
  5
DDE
  8
L1
 10
-61.512887505158233
 20
34.319510791076418
 30
0.0
  0
VERTEX
  5
DDF
  8
L1
 10
-61.54218881428028
 20
34.257634950925301
 30
0.0
  0
VERTEX
  5
DE0
  8
L1
 10
-61.551901629176093
 20
34.235083439957691
 30
0.0
  0
SEQEND
  5
DE1
  8
L1
  0
LINE
  5
823
  8
L1
 10
-60.988038027873813
 20
33.57615678683095
 30
0.0
 11
-62.447667678670093
 21
35.035786437627159
 31
0.0
  0
POLYLINE
  5
824
  8
L1
 66
     1
 10
0.0
 20
0.0
 30
0.0
  0
VERTEX
  5
DE2
  8
L1
 10
-61.327773596805848
 20
31.511729299728639
 30
0.0
  0
VERTEX
  5
DE3
  8
L1
 10
-61.302094209809638
 20
31.52307487709265
 30
0.0
  0
SEQEND
  5
DE4
  8
L1
  0
ARC
  5
825
  8
L1
 10
-62.576478216521529
 20
30.497692219647259
 30
0.0
 40
0.2825462644184653
 50
44.999999999995971
 51
180.0
  0
ARC
  5
826
  8
L1
 10
-62.576478216521529
 20
30.497692219647259
 30
0.0
 40
0.2999999999999829
 50
44.999999999995971
 51
180.0
  0
ARC
  5
827
  8
L1
 10
-56.333454116296821
 20
31.75000000000006
 30
0.0
 40
4.9738193966277233
 50
158.38089144830079
 51
182.614965613126
  0
ARC
  5
828
  8
L1
 10
-56.333454116296821
 20
31.75000000000006
 30
0.0
 40
5.0
 50
158.57817847820061
 51
182.73141557042729
  0
POLYLINE
  5
829
  8
L1
 66
     1
 10
0.0
 20
0.0
 30
0.0
  0
VERTEX
  5
DE5
  8
L1
 10
-64.595542554070903
 20
36.557000000000009
 30
0.0
  0
VERTEX
  5
DE6
  8
L1
 10
-64.525168506411092
 20
37.218787602445389
 30
0.0
  0
VERTEX
  5
DE7
  8
L1
 10
-64.323039118299221
 20
37.873772386241058
 30
0.0
  0
VERTEX
  5
DE8
  8
L1
 10
-63.996894866482883
 20
38.476619230896119
 30
0.0
  0
VERTEX
  5
DE9
  8
L1
 10
-63.573383235370443
 20
38.989929119073679
 30
0.0
  0
VERTEX
  5
DEA
  8
L1
 10
-63.060073347192883
 20
39.413440750186169
 30
0.0
  0
VERTEX
  5
DEB
  8
L1
 10
-62.457226502537878
 20
39.73958500200245
 30
0.0
  0
VERTEX
  5
DEC
  8
L1
 10
-61.802241718742152
 20
39.941714390114377
 30
0.0
  0
VERTEX
  5
DED
  8
L1
 10
-61.140454116296723
 20
40.012088437774139
 30
0.0
  0
SEQEND
  5
DEE
  8
L1
  0
ARC
  5
82A
  8
L1
 10
-61.140454116296723
 20
36.557000000000009
 30
0.0
 40
2.7360241002247649
 50
90.0
 51
180.0
  0
POLYLINE
  5
82B
  8
L1
 66
     1
 10
0.0
 20
0.0
 30
0.0
  0
VERTEX
  5
DEF
  8
L1
 10
-64.595758247205936
 20
36.517100759268203
 30
0.0
  0
VERTEX
  5
DF0
  8
L1
 10
-64.59570432348562
 20
36.537048032038278
 30
0.0
  0
VERTEX
  5
DF1
  8
L1
 10
-64.595542554070903
 20
36.557000000000009
 30
0.0
  0
SEQEND
  5
DF2
  8
L1
  0
POLYLINE
  5
82C
  8
L1
 66
     1
 10
0.0
 20
0.0
 30
0.0
  0
VERTEX
  5
DF3
  8
L1
 10
-61.140454116296723
 20
40.012088437774139
 30
0.0
  0
VERTEX
  5
DF4
  8
L1
 10
-61.120502148335049
 20
40.012250207188849
 30
0.0
  0
VERTEX
  5
DF5
  8
L1
 10
-61.100554875564967
 20
40.012304130909172
 30
0.0
  0
SEQEND
  5
DF6
  8
L1
  0
ARC
  5
82D
  8
L1
 10
-56.333454116296821
 20
-31.74999999999994
 30
0.0
 40
8.8000000000000007
 50
0.0
 51
37.114862455073641
  0
ARC
  5
82E
  8
L1
 10
-56.333454116296707
 20
-31.74999999999994
 30
0.0
 40
7.3999999999999311
 50
0.0
 51
90.0
  0
ARC
  5
82F
  8
L1
 10
-56.333454116296821
 20
-31.74999999999994
 30
0.0
 40
4.9738193966277091
 50
357.38503438687388
 51
92.614965613126088
  0
ARC
  5
830
  8
L1
 10
-56.333454116296821
 20
-31.74999999999994
 30
0.0
 40
4.9999999999999849
 50
357.26858442957263
 51
92.731415570427316
  0
ARC
  5
831
  8
L1
 10
-56.333454116296707
 20
-31.74999999999994
 30
0.0
 40
6.399999999999908
 50
0.0
 51
90.0
  0
LINE
  5
832
  8
L1
 10
-50.43324449586612
 20
-32.945541501008158
 30
0.0
 11
-55.280936715513349
 21
-37.793233720655387
 31
0.0
  0
LINE
  5
833
  8
L1
 10
-55.293278370300072
 20
-37.78089206586872
 30
0.0
 11
-50.445586150652836
 21
-32.933199846221491
 31
0.0
  0
LINE
  5
834
  8
L1
 10
-47.723405794638659
 20
-38.29302410022467
 30
0.0
 11
-55.08114633594414
 21
-38.29302410022467
 31
0.0
  0
LINE
  5
835
  8
L1
 10
-52.676983279909912
 20
-38.223209157898623
 30
0.0
 11
-48.094232224750151
 21
-38.223209157898623
 31
0.0
  0
LINE
  5
836
  8
L1
 10
-50.384378796809067
 20
-35.37488878670581
 30
0.0
 11
-52.839748695118942
 21
-37.830258685015671
 31
0.0
  0
LINE
  5
837
  8
L1
 10
-52.876773659479113
 20
-37.793233720655451
 30
0.0
 11
-50.421403761169252
 21
-35.337863822345582
 31
0.0
  0
LINE
  5
838
  8
L1
 10
-56.106528993389482
 20
-36.718640093512811
 30
0.0
 11
-51.364814022784003
 21
-31.976925122907279
 31
0.0
  0
LINE
  5
839
  8
L1
 10
-51.339134635787779
 20
-31.98827070027135
 30
0.0
 11
-56.095183416025407
 21
-36.744319480508977
 31
0.0
  0
LINE
  5
83A
  8
L1
 10
-55.08114633594414
 20
-38.275570364643102
 30
0.0
 11
-52.676983279909912
 21
-38.275570364643102
 31
0.0
  0
POLYLINE
  5
83B
  8
L1
 66
     1
 10
0.0
 20
0.0
 30
0.0
  0
VERTEX
  5
DF7
  8
L1
 10
-56.095183416025407
 20
-36.744319480508977
 30
0.0
  0
VERTEX
  5
DF8
  8
L1
 10
-56.106528993389482
 20
-36.718640093512811
 30
0.0
  0
SEQEND
  5
DF9
  8
L1
  0
ARC
  5
83C
  8
L1
 10
-55.08114633594414
 20
-37.993024100224602
 30
0.0
 40
0.2825462644185506
 50
135.00000000000401
 51
270.0
  0
ARC
  5
83D
  8
L1
 10
-55.08114633594414
 20
-37.993024100224602
 30
0.0
 40
0.3000000000000682
 50
135.00000000000401
 51
270.0
  0
POLYLINE
  5
83E
  8
L1
 66
     1
 10
0.0
 20
0.0
 30
0.0
  0
VERTEX
  5
DFA
  8
L1
 10
-58.818537556254341
 20
-36.968447512879379
 30
0.0
  0
VERTEX
  5
DFB
  8
L1
 10
-58.752669524375051
 20
-36.956947381994887
 30
0.0
  0
SEQEND
  5
DFC
  8
L1
  0
POLYLINE
  5
83F
  8
L1
 66
     1
 10
0.0
 20
0.0
 30
0.0
  0
VERTEX
  5
DFD
  8
L1
 10
-58.752669524375051
 20
-36.95694738199483
 30
0.0
  0
VERTEX
  5
DFE
  8
L1
 10
-58.735382533729307
 20
-36.94101186082554
 30
0.0
  0
VERTEX
  5
DFF
  8
L1
 10
-58.68678304769935
 20
-36.893612229893328
 30
0.0
  0
VERTEX
  5
E00
  8
L1
 10
-58.612715605680357
 20
-36.820367387864792
 30
0.0
  0
VERTEX
  5
E01
  8
L1
 10
-58.523430186461837
 20
-36.731378230551108
 30
0.0
  0
SEQEND
  5
E02
  8
L1
  0
LINE
  5
840
  8
L1
 10
-58.523430186461837
 20
-36.731378230551172
 30
0.0
 11
-58.165981372185684
 21
-36.373929416275011
 31
0.0
  0
POLYLINE
  5
841
  8
L1
 66
     1
 10
0.0
 20
0.0
 30
0.0
  0
VERTEX
  5
E03
  8
L1
 10
-58.165981372185797
 20
-36.373929416275011
 30
0.0
  0
VERTEX
  5
E04
  8
L1
 10
-58.1596109031276
 20
-36.404583911576928
 30
0.0
  0
SEQEND
  5
E05
  8
L1
  0
ARC
  5
842
  8
L1
 10
-56.333454116296821
 20
-31.74999999999994
 30
0.0
 40
4.9738193966277091
 50
248.38089144830229
 51
272.61496561312532
  0
ARC
  5
843
  8
L1
 10
-56.333454116296821
 20
-31.74999999999994
 30
0.0
 40
4.9999999999999849
 50
248.5781784782024
 51
272.73141557042732
  0
ARC
  5
844
  8
L1
 10
-52.676983279909912
 20
-37.993024100224659
 30
0.0
 40
0.2301850576739239
 50
135.0
 51
270.0
  0
ARC
  5
845
  8
L1
 10
-52.676983279909912
 20
-37.993024100224659
 30
0.0
 40
0.2825462644184768
 50
135.00000000000401
 51
270.0
  0
POLYLINE
  5
846
  8
L1
 66
     1
 10
0.0
 20
0.0
 30
0.0
  0
VERTEX
  5
E06
  8
L1
 10
-51.339134635787779
 20
-31.98827070027135
 30
0.0
  0
VERTEX
  5
E07
  8
L1
 10
-51.364814022783889
 20
-31.976925122907339
 30
0.0
  0
SEQEND
  5
E08
  8
L1
  0
LINE
  5
847
  8
L1
 10
-48.933454116296851
 20
-31.74999999999994
 30
0.0
 11
-48.933454116296851
 21
-35.249999999999943
 31
0.0
  0
LINE
  5
848
  8
L1
 10
-49.933454116296843
 20
-35.249999999999943
 30
0.0
 11
-49.933454116296843
 21
-33.14533188057743
 31
0.0
  0
LINE
  5
849
  8
L1
 10
-49.950907851878348
 20
-35.249999999999943
 30
0.0
 11
-49.950907851878348
 21
-33.14533188057743
 31
0.0
  0
LINE
  5
84A
  8
L1
 10
-47.533454116296873
 20
-36.950102802507267
 30
0.0
 11
-47.533454116296873
 21
-31.74999999999994
 31
0.0
  0
ARC
  5
84B
  8
L1
 10
-46.733454116296791
 20
-35.249999999999943
 30
0.0
 40
3.2000000000000282
 50
251.97934069484779
 51
270.0
  0
ARC
  5
84C
  8
L1
 10
-46.733454116296791
 20
-35.249999999999943
 30
0.0
 40
2.2000000000000619
 50
180.0
 51
270.0000000000008
  0
ARC
  5
84D
  8
L1
 10
-46.733454116296791
 20
-35.249999999999943
 30
0.0
 40
3.217453735581449
 50
180.0
 51
184.71428079378521
  0
ARC
  5
84E
  8
L1
 10
-50.221613381600029
 20
-35.537654201914847
 30
0.0
 40
0.2301850576739641
 50
4.714280793794293
 51
134.99999999999471
  0
ARC
  5
84F
  8
L1
 10
-50.221613381600029
 20
-35.537654201914847
 30
0.0
 40
0.2825462644185169
 50
4.7142807937894249
 51
134.99999999999591
  0
POLYLINE
  5
850
  8
L1
 66
     1
 10
0.0
 20
0.0
 30
0.0
  0
VERTEX
  5
E09
  8
L1
 10
-47.233556918804076
 20
-37.249999999999943
 30
0.0
  0
VERTEX
  5
E0A
  8
L1
 10
-47.44562872253254
 20
-37.162174606235681
 30
0.0
  0
VERTEX
  5
E0B
  8
L1
 10
-47.533454116296753
 20
-36.950102802507267
 30
0.0
  0
SEQEND
  5
E0C
  8
L1
  0
POLYLINE
  5
851
  8
L1
 66
     1
 10
0.0
 20
0.0
 30
0.0
  0
VERTEX
  5
E0D
  8
L1
 10
-47.723405794638659
 20
-38.293024100224613
 30
0.0
  0
VERTEX
  5
E0E
  8
L1
 10
-47.827955148365731
 20
-38.275570364643102
 30
0.0
  0
SEQEND
  5
E0F
  8
L1
  0
POLYLINE
  5
852
  8
L1
 66
     1
 10
0.0
 20
0.0
 30
0.0
  0
VERTEX
  5
E10
  8
L1
 10
-47.827955148365731
 20
-38.275570364643102
 30
0.0
  0
VERTEX
  5
E11
  8
L1
 10
-47.89452441746198
 20
-38.263544803581901
 30
0.0
  0
VERTEX
  5
E12
  8
L1
 10
-47.961093686558002
 20
-38.250809415437452
 30
0.0
  0
VERTEX
  5
E13
  8
L1
 10
-48.027662955654137
 20
-38.23736420020969
 30
0.0
  0
VERTEX
  5
E14
  8
L1
 10
-48.094232224750151
 20
-38.22320915789868
 30
0.0
  0
SEQEND
  5
E15
  8
L1
  0
ARC
  5
853
  8
L1
 10
-46.733454116296791
 20
-35.249999999999943
 30
0.0
 40
3.2000000000000282
 50
180.0
 51
251.97934069484779
  0
ARC
  5
854
  8
L1
 10
-46.733454116296791
 20
-35.249999999999943
 30
0.0
 40
3.2698149423260441
 50
184.71428079378441
 51
245.40738178222699
  0
ARC
  5
855
  8
L1
 10
-50.233454116296912
 20
-33.14533188057743
 30
0.0
 40
0.2825462644184768
 50
0.0
 51
134.99999999998789
  0
LINE
  5
856
  8
L1
 10
-49.933454116296843
 20
-33.14533188057743
 30
0.0
 11
-49.933454116296843
 21
-31.74999999999994
 31
0.0
  0
ARC
  5
857
  8
L1
 10
-50.233454116296912
 20
-33.14533188057743
 30
0.0
 40
0.2999999999999944
 50
0.0
 51
134.9999999999925
  0
POLYLINE
  5
858
  8
L1
 66
     1
 10
0.0
 20
0.0
 30
0.0
  0
VERTEX
  5
E16
  8
L1
 10
-50.649541630389763
 20
-24.723178268028221
 30
0.0
  0
VERTEX
  5
E17
  8
L1
 10
-50.713061379687133
 20
-24.764068066100769
 30
0.0
  0
VERTEX
  5
E18
  8
L1
 10
-50.791139034026848
 20
-24.78897475159232
 30
0.0
  0
VERTEX
  5
E19
  8
L1
 10
-50.864921782361648
 20
-24.792546761273851
 30
0.0
  0
VERTEX
  5
E1A
  8
L1
 10
-50.942440146526337
 20
-24.776226323949171
 30
0.0
  0
VERTEX
  5
E1B
  8
L1
 10
-51.023403350553281
 20
-24.73263861090027
 30
0.0
  0
SEQEND
  5
E1C
  8
L1
  0
ARC
  5
859
  8
L1
 10
-56.333454116296821
 20
-31.74999999999994
 30
0.0
 40
8.8000000000000007
 50
52.885137544926373
 51
90.0
  0
POLYLINE
  5
85A
  8
L1
 66
     1
 10
0.0
 20
0.0
 30
0.0
  0
VERTEX
  5
E1D
  8
L1
 10
-56.571724816568121
 20
-26.755680519490902
 30
0.0
  0
VERTEX
  5
E1E
  8
L1
 10
-56.560379239204167
 20
-26.781359906487069
 30
0.0
  0
SEQEND
  5
E1F
  8
L1
  0
ARC
  5
85B
  8
L1
 10
-57.728785996874301
 20
-25.650000000000031
 30
0.0
 40
0.2999999999999545
 50
315.00000000000398
 51
90.0
  0
LINE
  5
85C
  8
L1
 10
-56.333454116296707
 20
-25.350000000000019
 30
-0.0000000000000009
 11
-57.728785996874301
 21
-25.350000000000019
 31
-0.0000000000000009
  0
ARC
  5
85D
  8
L1
 10
-57.728785996874301
 20
-25.650000000000031
 30
0.0
 40
0.2825462644184369
 50
315.0
 51
90.0
  0
LINE
  5
85E
  8
L1
 10
-49.545402068932951
 20
-23.796695169241499
 30
0.0
 11
-50.649541630389869
 21
-24.723178268028221
 31
0.0
  0
POLYLINE
  5
85F
  8
L1
 66
     1
 10
0.0
 20
0.0
 30
0.0
  0
VERTEX
  5
E20
  8
L1
 10
-49.545402068932951
 20
-23.796695169241499
 30
0.0
  0
VERTEX
  5
E21
  8
L1
 10
-49.339487747435669
 20
-23.726795248333701
 30
0.0
  0
VERTEX
  5
E22
  8
L1
 10
-49.140449171623679
 20
-23.814375794571561
 30
0.0
  0
SEQEND
  5
E23
  8
L1
  0
LINE
  5
860
  8
L1
 10
-48.397829910868381
 20
-24.556995055326809
 30
0.0
 11
-49.140449171623679
 21
-23.814375794571561
 31
0.0
  0
POLYLINE
  5
861
  8
L1
 66
     1
 10
0.0
 20
0.0
 30
0.0
  0
VERTEX
  5
E24
  8
L1
 10
-48.397829910868381
 20
-24.556995055326809
 30
0.0
  0
VERTEX
  5
E25
  8
L1
 10
-48.310249364630522
 20
-24.756033631138791
 30
0.0
  0
VERTEX
  5
E26
  8
L1
 10
-48.380149285538323
 20
-24.961947952636081
 30
0.0
  0
SEQEND
  5
E27
  8
L1
  0
LINE
  5
862
  8
L1
 10
-49.306632384325098
 20
-26.066087514092999
 30
0.0
 11
-48.380149285538323
 21
-24.961947952636081
 31
0.0
  0
POLYLINE
  5
863
  8
L1
 66
     1
 10
0.0
 20
0.0
 30
0.0
  0
VERTEX
  5
E28
  8
L1
 10
-49.316092727197081
 20
-26.43994923425646
 30
0.0
  0
VERTEX
  5
E29
  8
L1
 10
-49.329103752618721
 20
-26.421329159157551
 30
0.0
  0
VERTEX
  5
E2A
  8
L1
 10
-49.370836874755469
 20
-26.318710447682459
 30
0.0
  0
VERTEX
  5
E2B
  8
L1
 10
-49.371640541563231
 20
-26.203332312310241
 30
0.0
  0
VERTEX
  5
E2C
  8
L1
 10
-49.32741987050133
 20
-26.093999877697339
 30
0.0
  0
VERTEX
  5
E2D
  8
L1
 10
-49.306632384325098
 20
-26.066087514092999
 30
0.0
  0
SEQEND
  5
E2E
  8
L1
  0
ARC
  5
864
  8
L1
 10
-56.333454116296821
 20
31.75000000000006
 30
0.0
 40
8.8000000000000007
 50
322.88513754492629
 51
0.0
  0
ARC
  5
865
  8
L1
 10
-56.333454116296821
 20
31.75000000000006
 30
0.0
 40
7.3999999999999604
 50
270.0
 51
0.0
  0
ARC
  5
866
  8
L1
 10
-56.333454116296821
 20
31.75000000000006
 30
0.0
 40
4.9738193966277233
 50
267.38503438687388
 51
2.614965613126095
  0
ARC
  5
867
  8
L1
 10
-56.333454116296821
 20
31.75000000000006
 30
0.0
 40
5.0
 50
267.26858442957177
 51
2.7314155704273362
  0
ARC
  5
868
  8
L1
 10
-56.333454116296821
 20
31.75000000000006
 30
0.0
 40
6.3999999999998796
 50
270.0
 51
0.0
  0
POLYLINE
  5
869
  8
L1
 66
     1
 10
0.0
 20
0.0
 30
0.0
  0
VERTEX
  5
E2F
  8
L1
 10
-51.023403350553281
 20
24.732638610900381
 30
0.0
  0
VERTEX
  5
E30
  8
L1
 10
-50.96269030014264
 20
24.768225715399179
 30
0.0
  0
VERTEX
  5
E31
  8
L1
 10
-50.885285424971698
 20
24.79031381873898
 30
0.0
  0
VERTEX
  5
E32
  8
L1
 10
-50.810982466120549
 20
24.791738881459018
 30
0.0
  0
VERTEX
  5
E33
  8
L1
 10
-50.732407028751361
 20
24.772490402688959
 30
0.0
  0
VERTEX
  5
E34
  8
L1
 10
-50.649541630389763
 20
24.723178268028271
 30
0.0
  0
SEQEND
  5
E35
  8
L1
  0
ARC
  5
86A
  8
L1
 10
-56.333454116296821
 20
31.75000000000006
 30
0.0
 40
8.8000000000000007
 50
270.0
 51
307.11486245507359
  0
POLYLINE
  5
86B
  8
L1
 66
     1
 10
0.0
 20
0.0
 30
0.0
  0
VERTEX
  5
E36
  8
L1
 10
-56.571724816568228
 20
26.755680519491019
 30
0.0
  0
VERTEX
  5
E37
  8
L1
 10
-56.560379239204167
 20
26.781359906487179
 30
0.0
  0
SEQEND
  5
E38
  8
L1
  0
ARC
  5
86C
  8
L1
 10
-57.728785996874421
 20
25.650000000000201
 30
0.0
 40
0.2825462644184566
 50
270.0
 51
45.0
  0
LINE
  5
86D
  8
L1
 10
-57.728785996874421
 20
25.35000000000019
 30
0.0
 11
-56.333454116296821
 21
25.35000000000019
 31
0.0
  0
ARC
  5
86E
  8
L1
 10
-57.728785996874421
 20
25.650000000000201
 30
0.0
 40
0.2999999999999743
 50
270.0
 51
44.999999999995971
  0
LINE
  5
86F
  8
L1
 10
-48.397829910868381
 20
24.556995055326858
 30
0.0
 11
-49.140449171623679
 21
23.814375794571671
 31
0.0
  0
LINE
  5
870
  8
L1
 10
-49.545402068932951
 20
23.796695169241609
 30
0.0
 11
-50.649541630389869
 21
24.723178268028271
 31
0.0
  0
POLYLINE
  5
871
  8
L1
 66
     1
 10
0.0
 20
0.0
 30
0.0
  0
VERTEX
  5
E39
  8
L1
 10
-49.140449171623679
 20
23.81437579457161
 30
0.0
  0
VERTEX
  5
E3A
  8
L1
 10
-49.339487747435669
 20
23.726795248333762
 30
0.0
  0
VERTEX
  5
E3B
  8
L1
 10
-49.545402068932951
 20
23.796695169241559
 30
0.0
  0
SEQEND
  5
E3C
  8
L1
  0
LINE
  5
872
  8
L1
 10
-49.306632384325098
 20
26.066087514093109
 30
0.0
 11
-48.38014928553843
 21
24.961947952636191
 31
0.0
  0
POLYLINE
  5
873
  8
L1
 66
     1
 10
0.0
 20
0.0
 30
0.0
  0
VERTEX
  5
E3D
  8
L1
 10
-49.306632384325098
 20
26.066087514093049
 30
0.0
  0
VERTEX
  5
E3E
  8
L1
 10
-49.357665869157699
 20
26.15342449194668
 30
0.0
  0
VERTEX
  5
E3F
  8
L1
 10
-49.376781497488082
 20
26.2651702522408
 30
0.0
  0
VERTEX
  5
E40
  8
L1
 10
-49.350983196929967
 20
26.380815395114269
 30
0.0
  0
VERTEX
  5
E41
  8
L1
 10
-49.316092727197201
 20
26.43994923425651
 30
0.0
  0
SEQEND
  5
E42
  8
L1
  0
POLYLINE
  5
874
  8
L1
 66
     1
 10
0.0
 20
0.0
 30
0.0
  0
VERTEX
  5
E43
  8
L1
 10
-48.380149285538323
 20
24.961947952636191
 30
0.0
  0
VERTEX
  5
E44
  8
L1
 10
-48.310249364630522
 20
24.756033631138902
 30
0.0
  0
VERTEX
  5
E45
  8
L1
 10
-48.397829910868381
 20
24.556995055326919
 30
0.0
  0
SEQEND
  5
E46
  8
L1
  0
LINE
  5
875
  8
L1
 10
-50.445586150652836
 20
32.933199846221548
 30
0.0
 11
-55.293278370300072
 21
37.78089206586872
 31
0.0
  0
LINE
  5
876
  8
L1
 10
-55.08114633594402
 20
38.29302410022467
 30
0.0
 11
-47.723405794639348
 21
38.29302410022467
 31
0.0
  0
LINE
  5
877
  8
L1
 10
-55.280936715513242
 20
37.793233720655387
 30
0.0
 11
-50.43324449586612
 21
32.945541501008272
 31
0.0
  0
LINE
  5
878
  8
L1
 10
-48.094232224750947
 20
38.223209157898559
 30
0.0
 11
-52.67698327990967
 21
38.223209157898559
 31
0.0
  0
LINE
  5
879
  8
L1
 10
-52.839748695118828
 20
37.830258685015622
 30
0.0
 11
-50.384378796809187
 21
35.374888786705981
 31
0.0
  0
LINE
  5
87A
  8
L1
 10
-51.364814022783889
 20
31.97692512290746
 30
0.0
 11
-56.106528993389361
 21
36.718640093512988
 31
0.0
  0
LINE
  5
87B
  8
L1
 10
-56.095183416025293
 20
36.744319480509141
 30
0.0
 11
-51.339134635787673
 21
31.988270700271531
 31
0.0
  0
POLYLINE
  5
87C
  8
L1
 66
     1
 10
0.0
 20
0.0
 30
0.0
  0
VERTEX
  5
E47
  8
L1
 10
-51.339134635787779
 20
31.988270700271471
 30
0.0
  0
VERTEX
  5
E48
  8
L1
 10
-51.364814022783889
 20
31.97692512290746
 30
0.0
  0
SEQEND
  5
E49
  8
L1
  0
LINE
  5
87D
  8
L1
 10
-52.676983279909791
 20
38.275570364643208
 30
0.0
 11
-55.08114633594402
 21
38.275570364643208
 31
0.0
  0
POLYLINE
  5
87E
  8
L1
 66
     1
 10
0.0
 20
0.0
 30
0.0
  0
VERTEX
  5
E4A
  8
L1
 10
-56.095183416025407
 20
36.744319480509091
 30
0.0
  0
VERTEX
  5
E4B
  8
L1
 10
-56.106528993389482
 20
36.718640093512931
 30
0.0
  0
SEQEND
  5
E4C
  8
L1
  0
ARC
  5
87F
  8
L1
 10
-55.08114633594402
 20
37.993024100224709
 30
0.0
 40
0.3000000000000145
 50
90.0
 51
225.00000000000401
  0
ARC
  5
880
  8
L1
 10
-55.08114633594402
 20
37.993024100224709
 30
0.0
 40
0.2825462644184968
 50
90.0
 51
225.00000000000799
  0
POLYLINE
  5
881
  8
L1
 66
     1
 10
0.0
 20
0.0
 30
0.0
  0
VERTEX
  5
E4D
  8
L1
 10
-58.1596109031276
 20
36.404583911577099
 30
0.0
  0
VERTEX
  5
E4E
  8
L1
 10
-58.165981372185797
 20
36.373929416275068
 30
0.0
  0
SEQEND
  5
E4F
  8
L1
  0
LINE
  5
882
  8
L1
 10
-58.165981372185797
 20
36.373929416275132
 30
0.0
 11
-58.523430186461951
 21
36.731378230551229
 31
0.0
  0
POLYLINE
  5
883
  8
L1
 66
     1
 10
0.0
 20
0.0
 30
0.0
  0
VERTEX
  5
E50
  8
L1
 10
-58.523430186461951
 20
36.731378230551229
 30
0.0
  0
VERTEX
  5
E51
  8
L1
 10
-58.612715605680357
 20
36.820367387864898
 30
0.0
  0
VERTEX
  5
E52
  8
L1
 10
-58.68678304769935
 20
36.893612229893563
 30
0.0
  0
VERTEX
  5
E53
  8
L1
 10
-58.735382533729421
 20
36.94101186082554
 30
0.0
  0
VERTEX
  5
E54
  8
L1
 10
-58.752669524375172
 20
36.956947381995008
 30
0.0
  0
SEQEND
  5
E55
  8
L1
  0
POLYLINE
  5
884
  8
L1
 66
     1
 10
0.0
 20
0.0
 30
0.0
  0
VERTEX
  5
E56
  8
L1
 10
-58.752669524375051
 20
36.956947381994951
 30
0.0
  0
VERTEX
  5
E57
  8
L1
 10
-58.818537556254462
 20
36.968447512879543
 30
0.0
  0
SEQEND
  5
E58
  8
L1
  0
ARC
  5
885
  8
L1
 10
-56.333454116296821
 20
31.75000000000006
 30
0.0
 40
4.9738193966277233
 50
87.385034386874707
 51
111.6191085516984
  0
ARC
  5
886
  8
L1
 10
-56.333454116296821
 20
31.75000000000006
 30
0.0
 40
5.0
 50
87.26858442957267
 51
111.42182152179819
  0
ARC
  5
887
  8
L1
 10
-52.676983279909791
 20
37.993024100224659
 30
0.0
 40
0.230185057673944
 50
89.999999999992653
 51
224.9999999999948
  0
ARC
  5
888
  8
L1
 10
-52.676983279909791
 20
37.993024100224659
 30
0.0
 40
0.2825462644184968
 50
89.999999999994287
 51
224.99999999999599
  0
ARC
  5
889
  8
L1
 10
-46.733454116296791
 20
35.250000000000171
 30
0.0
 40
2.2000000000000619
 50
90.0
 51
180.0
  0
ARC
  5
88A
  8
L1
 10
-46.733454116296791
 20
35.250000000000171
 30
0.0
 40
3.200000000000085
 50
108.0206593051642
 51
180.0
  0
ARC
  5
88B
  8
L1
 10
-46.733454116296791
 20
35.250000000000171
 30
0.0
 40
3.269814942326128
 50
114.59261821778939
 51
175.2857192062155
  0
LINE
  5
88C
  8
L1
 10
-47.533454116296753
 20
31.75000000000006
 30
0.0
 11
-47.533454116296753
 21
36.950102802507381
 31
0.0
  0
LINE
  5
88D
  8
L1
 10
-49.933454116296843
 20
33.145331880577537
 30
0.0
 11
-49.933454116296843
 21
35.250000000000171
 31
0.0
  0
ARC
  5
88E
  8
L1
 10
-50.233454116296912
 20
33.145331880577537
 30
0.0
 40
0.2999999999999829
 50
224.99999999999599
 51
0.0
  0
ARC
  5
88F
  8
L1
 10
-46.733454116296791
 20
35.250000000000171
 30
0.0
 40
3.2174537355815578
 50
175.28571920621391
 51
180.0000000000008
  0
LINE
  5
890
  8
L1
 10
-49.950907851878348
 20
33.145331880577537
 30
0.0
 11
-49.950907851878348
 21
35.250000000000107
 31
0.0
  0
ARC
  5
891
  8
L1
 10
-50.233454116296912
 20
33.145331880577537
 30
0.0
 40
0.2825462644184653
 50
224.99999999999599
 51
0.0
  0
ARC
  5
892
  8
L1
 10
-50.22161338160015
 20
35.537654201915068
 30
0.0
 40
0.230185057673944
 50
225.00000000000981
 51
355.28571920620573
  0
ARC
  5
893
  8
L1
 10
-50.22161338160015
 20
35.537654201915068
 30
0.0
 40
0.2825462644184968
 50
225.00000000000401
 51
355.2857192062105
  0
LINE
  5
894
  8
L1
 10
-48.933454116296851
 20
35.250000000000171
 30
0.0
 11
-48.933454116296851
 21
31.75000000000006
 31
0.0
  0
LINE
  5
895
  8
L1
 10
-49.933454116296843
 20
31.75000000000006
 30
0.0
 11
-49.933454116296843
 21
33.145331880577537
 31
0.0
  0
ARC
  5
896
  8
L1
 10
-46.733454116296791
 20
35.250000000000171
 30
0.0
 40
3.200000000000085
 50
90.0
 51
108.020659305165
  0
POLYLINE
  5
897
  8
L1
 66
     1
 10
0.0
 20
0.0
 30
0.0
  0
VERTEX
  5
E59
  8
L1
 10
-47.533454116296753
 20
36.950102802507381
 30
0.0
  0
VERTEX
  5
E5A
  8
L1
 10
-47.44562872253254
 20
37.162174606235787
 30
0.0
  0
VERTEX
  5
E5B
  8
L1
 10
-47.233556918804076
 20
37.25000000000005
 30
0.0
  0
SEQEND
  5
E5C
  8
L1
  0
POLYLINE
  5
898
  8
L1
 66
     1
 10
0.0
 20
0.0
 30
0.0
  0
VERTEX
  5
E5D
  8
L1
 10
-47.82795514836652
 20
38.275570364643158
 30
0.0
  0
VERTEX
  5
E5E
  8
L1
 10
-47.894524417462769
 20
38.263544803581958
 30
0.0
  0
VERTEX
  5
E5F
  8
L1
 10
-47.961093686558911
 20
38.250809415437452
 30
0.0
  0
VERTEX
  5
E60
  8
L1
 10
-48.027662955654932
 20
38.23736420020969
 30
0.0
  0
VERTEX
  5
E61
  8
L1
 10
-48.094232224750947
 20
38.223209157898559
 30
0.0
  0
SEQEND
  5
E62
  8
L1
  0
POLYLINE
  5
899
  8
L1
 66
     1
 10
0.0
 20
0.0
 30
0.0
  0
VERTEX
  5
E63
  8
L1
 10
-47.723405794639348
 20
38.29302410022467
 30
0.0
  0
VERTEX
  5
E64
  8
L1
 10
-47.82795514836652
 20
38.275570364643158
 30
0.0
  0
SEQEND
  5
E65
  8
L1
  0
POLYLINE
  5
89A
  8
L1
 66
     1
 10
0.0
 20
0.0
 30
0.0
  0
VERTEX
  5
E66
  8
L1
 10
65.428634321477205
 20
-36.557000000000009
 30
0.0
  0
VERTEX
  5
E67
  8
L1
 10
65.358260273817507
 20
-37.218787602445268
 30
0.0
  0
VERTEX
  5
E68
  8
L1
 10
65.156130885705579
 20
-37.873772386240937
 30
0.0
  0
VERTEX
  5
E69
  8
L1
 10
64.829986633889234
 20
-38.476619230896119
 30
0.0
  0
VERTEX
  5
E6A
  8
L1
 10
64.406475002776858
 20
-38.989929119073558
 30
0.0
  0
VERTEX
  5
E6B
  8
L1
 10
63.893165114599348
 20
-39.413440750186048
 30
0.0
  0
VERTEX
  5
E6C
  8
L1
 10
63.290318269944287
 20
-39.739585002002393
 30
0.0
  0
VERTEX
  5
E6D
  8
L1
 10
62.635333486148561
 20
-39.941714390114377
 30
0.0
  0
VERTEX
  5
E6E
  8
L1
 10
61.973545883703203
 20
-40.012088437774139
 30
0.0
  0
SEQEND
  5
E6F
  8
L1
  0
ARC
  5
89B
  8
L1
 10
61.973545883703203
 20
-36.557000000000009
 30
0.0
 40
2.7360241002248218
 50
269.9999999999992
 51
0.0
  0
POLYLINE
  5
89C
  8
L1
 66
     1
 10
0.0
 20
0.0
 30
0.0
  0
VERTEX
  5
E70
  8
L1
 10
61.973545883703203
 20
-40.012088437774139
 30
0.0
  0
VERTEX
  5
E71
  8
L1
 10
61.953593915741401
 20
-40.012250207188849
 30
0.0
  0
VERTEX
  5
E72
  8
L1
 10
61.933646642971269
 20
-40.012304130909222
 30
0.0
  0
SEQEND
  5
E73
  8
L1
  0
LINE
  5
89D
  8
L1
 10
65.428850014612351
 20
36.517100759268203
 30
0.0
 11
65.428850014612351
 21
-36.517100759268203
 31
0.0
  0
LINE
  5
89E
  8
L1
 10
62.866545883703452
 20
-22.14999999999992
 30
0.0
 11
62.866545883703452
 21
22.150000000000031
 31
0.0
  0
LINE
  5
89F
  8
L1
 10
62.666545883703179
 20
22.65010280250743
 30
0.0
 11
62.666545883703179
 21
-22.65010280250732
 31
0.0
  0
LINE
  5
8A0
  8
L1
 10
64.70956998392802
 20
-36.557000000000009
 30
0.0
 11
64.70956998392802
 21
36.556999999999952
 31
0.0
  0
LINE
  5
8A1
  8
L1
 10
63.866545883703452
 20
22.150000000000031
 30
0.0
 11
63.866545883703452
 21
-22.14999999999992
 31
0.0
  0
LINE
  5
8A2
  8
L1
 10
53.51007504731632
 20
-38.275570364643102
 30
0.0
 11
55.914238103350499
 21
-38.275570364643102
 31
0.0
  0
LINE
  5
8A3
  8
L1
 10
55.914238103350499
 20
-38.29302410022467
 30
0.0
 11
48.556497562045926
 21
-38.29302410022467
 31
0.0
  0
LINE
  5
8A4
  8
L1
 10
51.278677918059373
 20
-32.933199846221669
 30
0.0
 11
56.126370137706431
 21
-37.78089206586872
 31
0.0
  0
LINE
  5
8A5
  8
L1
 10
56.114028482919771
 20
-37.793233720655387
 30
0.0
 11
51.266336263272699
 21
-32.945541501008329
 31
0.0
  0
ARC
  5
8A6
  8
L1
 10
57.166545883703243
 20
-31.74999999999994
 30
0.0
 40
7.3999999999998449
 50
89.999999999999204
 51
180.0
  0
ARC
  5
8A7
  8
L1
 10
57.166545883703243
 20
-31.74999999999994
 30
0.0
 40
8.8000000000000007
 50
90.0
 51
127.11486245507361
  0
LINE
  5
8A8
  8
L1
 10
52.197905790190418
 20
-31.976925122907339
 30
0.0
 11
56.939620760795833
 21
-36.718640093512761
 31
0.0
  0
ARC
  5
8A9
  8
L1
 10
57.166545883703243
 20
-31.74999999999994
 30
0.0
 40
4.9738193966277091
 50
87.385034386873912
 51
182.614965613126
  0
ARC
  5
8AA
  8
L1
 10
57.166545883703243
 20
-31.74999999999994
 30
0.0
 40
4.9999999999999849
 50
87.268584429571845
 51
182.73141557042729
  0
LINE
  5
8AB
  8
L1
 10
56.928275183431879
 20
-36.744319480508977
 30
0.0
 11
52.172226403194259
 21
-31.98827070027135
 31
0.0
  0
ARC
  5
8AC
  8
L1
 10
57.166545883703243
 20
-31.74999999999994
 30
0.0
 40
6.3999999999997659
 50
90.0
 51
180.0
  0
ARC
  5
8AD
  8
L1
 10
57.166545883703243
 20
-31.74999999999994
 30
0.0
 40
8.8000000000000007
 50
142.88513754492629
 51
180.0
  0
LINE
  5
8AE
  8
L1
 10
50.766545883703493
 20
-33.145331880577537
 30
0.0
 11
50.766545883703493
 21
-35.249999999999943
 31
0.0
  0
LINE
  5
8AF
  8
L1
 10
50.783999619284998
 20
-33.145331880577537
 30
0.0
 11
50.783999619284998
 21
-35.249999999999943
 31
0.0
  0
LINE
  5
8B0
  8
L1
 10
49.766545883703429
 20
-35.249999999999943
 30
0.0
 11
49.766545883703429
 21
-31.74999999999994
 31
0.0
  0
LINE
  5
8B1
  8
L1
 10
48.366545883703218
 20
-31.74999999999994
 30
0.0
 11
48.366545883703218
 21
-36.950102802507267
 31
0.0
  0
LINE
  5
8B2
  8
L1
 10
48.927323992156452
 20
-38.223209157898623
 30
0.0
 11
53.51007504731632
 21
-38.223209157898623
 31
0.0
  0
LINE
  5
8B3
  8
L1
 10
53.67284046252535
 20
-37.830258685015622
 30
0.0
 11
51.21747056421566
 21
-35.374888786705917
 31
0.0
  0
ARC
  5
8B4
  8
L1
 10
47.566545883703213
 20
-35.249999999999943
 30
0.0
 40
3.2174537355816111
 50
355.28571920621221
 51
0.0
  0
ARC
  5
8B5
  8
L1
 10
51.054705149006622
 20
-35.537654201915011
 30
0.0
 40
0.2301850576738936
 50
45.000000000009791
 51
175.28571920620411
  0
ARC
  5
8B6
  8
L1
 10
51.054705149006622
 20
-35.537654201915011
 30
0.0
 40
0.2825462644184464
 50
45.000000000008058
 51
175.28571920620971
  0
POLYLINE
  5
8B7
  8
L1
 66
     1
 10
0.0
 20
0.0
 30
0.0
  0
VERTEX
  5
E74
  8
L1
 10
48.366545883703218
 20
-36.950102802507267
 30
0.0
  0
VERTEX
  5
E75
  8
L1
 10
48.278720489938962
 20
-37.162174606235681
 30
0.0
  0
VERTEX
  5
E76
  8
L1
 10
48.066648686210549
 20
-37.249999999999943
 30
0.0
  0
SEQEND
  5
E77
  8
L1
  0
ARC
  5
8B8
  8
L1
 10
47.566545883703213
 20
-35.249999999999943
 30
0.0
 40
3.2000000000001991
 50
270.0
 51
288.02065930516568
  0
POLYLINE
  5
8B9
  8
L1
 66
     1
 10
0.0
 20
0.0
 30
0.0
  0
VERTEX
  5
E78
  8
L1
 10
48.661046915772602
 20
-38.275570364643102
 30
0.0
  0
VERTEX
  5
E79
  8
L1
 10
48.727616184868559
 20
-38.263544803581958
 30
0.0
  0
VERTEX
  5
E7A
  8
L1
 10
48.794185453964531
 20
-38.250809415437452
 30
0.0
  0
VERTEX
  5
E7B
  8
L1
 10
48.860754723060552
 20
-38.237364200209811
 30
0.0
  0
VERTEX
  5
E7C
  8
L1
 10
48.927323992156452
 20
-38.22320915789868
 30
0.0
  0
SEQEND
  5
E7D
  8
L1
  0
POLYLINE
  5
8BA
  8
L1
 66
     1
 10
0.0
 20
0.0
 30
0.0
  0
VERTEX
  5
E7E
  8
L1
 10
48.556497562045926
 20
-38.293024100224613
 30
0.0
  0
VERTEX
  5
E7F
  8
L1
 10
48.661046915772602
 20
-38.275570364643102
 30
0.0
  0
SEQEND
  5
E80
  8
L1
  0
ARC
  5
8BB
  8
L1
 10
47.566545883703213
 20
-35.249999999999943
 30
0.0
 40
2.200000000000232
 50
270.0
 51
0.0
  0
ARC
  5
8BC
  8
L1
 10
47.566545883703213
 20
-35.249999999999943
 30
0.0
 40
3.2000000000001991
 50
288.02065930516568
 51
0.0
  0
ARC
  5
8BD
  8
L1
 10
47.566545883703213
 20
-35.249999999999943
 30
0.0
 40
3.2698149423260392
 50
294.59261821777221
 51
355.28571920621221
  0
ARC
  5
8BE
  8
L1
 10
53.51007504731632
 20
-37.993024100224659
 30
0.0
 40
0.2301850576739239
 50
270.0
 51
45.0
  0
ARC
  5
8BF
  8
L1
 10
53.51007504731632
 20
-37.993024100224659
 30
0.0
 40
0.2825462644184768
 50
270.0
 51
45.0
  0
ARC
  5
8C0
  8
L1
 10
51.066545883703498
 20
-33.145331880577537
 30
0.0
 40
0.2999999999999999
 50
45.0
 51
180.0
  0
LINE
  5
8C1
  8
L1
 10
50.766545883703493
 20
-31.74999999999994
 30
0.0
 11
50.766545883703493
 21
-33.145331880577537
 31
0.0
  0
ARC
  5
8C2
  8
L1
 10
51.066545883703498
 20
-33.145331880577537
 30
0.0
 40
0.2825462644184823
 50
45.0
 51
180.0
  0
POLYLINE
  5
8C3
  8
L1
 66
     1
 10
0.0
 20
0.0
 30
0.0
  0
VERTEX
  5
E81
  8
L1
 10
52.172226403194202
 20
-31.98827070027135
 30
0.0
  0
VERTEX
  5
E82
  8
L1
 10
52.197905790190418
 20
-31.976925122907339
 30
0.0
  0
SEQEND
  5
E83
  8
L1
  0
POLYLINE
  5
8C4
  8
L1
 66
     1
 10
0.0
 20
0.0
 30
0.0
  0
VERTEX
  5
E84
  8
L1
 10
51.856495117959689
 20
-24.73263861090027
 30
0.0
  0
VERTEX
  5
E85
  8
L1
 10
51.795782067548998
 20
-24.768225715398948
 30
0.0
  0
VERTEX
  5
E86
  8
L1
 10
51.718377192377943
 20
-24.790313818738859
 30
0.0
  0
VERTEX
  5
E87
  8
L1
 10
51.644074233526908
 20
-24.791738881458969
 30
0.0
  0
VERTEX
  5
E88
  8
L1
 10
51.565498796157733
 20
-24.772490402688899
 30
0.0
  0
VERTEX
  5
E89
  8
L1
 10
51.482633397796242
 20
-24.72317826802816
 30
0.0
  0
SEQEND
  5
E8A
  8
L1
  0
LINE
  5
8C5
  8
L1
 10
50.378493836339374
 20
-23.796695169241438
 30
0.0
 11
51.482633397796242
 21
-24.72317826802816
 31
0.0
  0
POLYLINE
  5
8C6
  8
L1
 66
     1
 10
0.0
 20
0.0
 30
0.0
  0
VERTEX
  5
E8B
  8
L1
 10
50.1397241517314
 20
-26.066087514092882
 30
0.0
  0
VERTEX
  5
E8C
  8
L1
 10
50.190757636564172
 20
-26.15342449194668
 30
0.0
  0
VERTEX
  5
E8D
  8
L1
 10
50.209873264894441
 20
-26.2651702522408
 30
0.0
  0
VERTEX
  5
E8E
  8
L1
 10
50.184074964336283
 20
-26.380815395114212
 30
0.0
  0
VERTEX
  5
E8F
  8
L1
 10
50.14918449460356
 20
-26.4399492342564
 30
0.0
  0
SEQEND
  5
E90
  8
L1
  0
POLYLINE
  5
8C7
  8
L1
 66
     1
 10
0.0
 20
0.0
 30
0.0
  0
VERTEX
  5
E91
  8
L1
 10
49.213241052944802
 20
-24.96194795263602
 30
0.0
  0
VERTEX
  5
E92
  8
L1
 10
49.143341132036987
 20
-24.756033631138791
 30
0.0
  0
VERTEX
  5
E93
  8
L1
 10
49.230921678274854
 20
-24.556995055326809
 30
0.0
  0
SEQEND
  5
E94
  8
L1
  0
LINE
  5
8C8
  8
L1
 10
49.230921678274854
 20
-24.556995055326809
 30
0.0
 11
49.973540939030102
 21
-23.814375794571561
 31
0.0
  0
LINE
  5
8C9
  8
L1
 10
50.139724151731457
 20
-26.066087514092821
 30
0.0
 11
49.213241052944802
 21
-24.961947952636081
 31
0.0
  0
POLYLINE
  5
8CA
  8
L1
 66
     1
 10
0.0
 20
0.0
 30
0.0
  0
VERTEX
  5
E95
  8
L1
 10
49.973540939030102
 20
-23.8143757945715
 30
0.0
  0
VERTEX
  5
E96
  8
L1
 10
50.172579514842077
 20
-23.726795248333641
 30
0.0
  0
VERTEX
  5
E97
  8
L1
 10
50.378493836339374
 20
-23.796695169241438
 30
0.0
  0
SEQEND
  5
E98
  8
L1
  0
LINE
  5
8CB
  8
L1
 10
63.639755041601688
 20
-28.0935291636128
 30
0.0
 11
63.639755041601688
 21
-23.510778108454069
 31
0.0
  0
LINE
  5
8CC
  8
L1
 10
60.79143467040911
 20
-25.80092468051242
 30
0.0
 11
63.24680456871863
 21
-28.256294578821951
 31
0.0
  0
LINE
  5
8CD
  8
L1
 10
63.20977960435858
 20
-28.293319543182012
 30
0.0
 11
60.754409706049053
 21
-25.837949644872481
 31
0.0
  0
LINE
  5
8CE
  8
L1
 10
62.135185977216061
 20
-31.523074877092601
 30
0.0
 11
57.393471006610582
 21
-26.781359906487118
 31
0.0
  0
LINE
  5
8CF
  8
L1
 10
58.362087384711629
 20
-25.84979037956947
 30
0.0
 11
63.209779604358509
 21
-30.69748259921635
 31
0.0
  0
LINE
  5
8D0
  8
L1
 10
57.4048165839747
 20
-26.755680519490848
 30
0.0
 11
62.160865364212327
 21
-31.511729299728469
 31
0.0
  0
LINE
  5
8D1
  8
L1
 10
63.197437949571899
 20
-30.709824254002971
 30
0.0
 11
58.349745729925019
 21
-25.86213203435608
 31
0.0
  0
LINE
  5
8D2
  8
L1
 10
63.709569983927743
 20
-23.13995167834269
 30
0.0
 11
63.709569983927743
 21
-30.497692219647089
 31
0.0
  0
ARC
  5
8D3
  8
L1
 10
61.866545883703452
 20
-36.450000000000159
 30
0.0
 40
2.0000000000000151
 50
225.0
 51
45.0
  0
LINE
  5
8D4
  8
L1
 10
62.147924114254351
 20
-33.939976070165073
 30
0.0
 11
61.790475299978247
 21
-33.58252725588892
 31
0.0
  0
LINE
  5
8D5
  8
L1
 10
61.821129795280278
 20
-33.576156786830722
 30
0.0
 11
63.280759446076608
 21
-35.035786437626989
 31
0.0
  0
POLYLINE
  5
8D6
  8
L1
 66
     1
 10
0.0
 20
0.0
 30
0.0
  0
VERTEX
  5
E99
  8
L1
 10
59.651629323660757
 20
-36.968447512879322
 30
0.0
  0
VERTEX
  5
E9A
  8
L1
 10
59.674180834628373
 20
-36.958734697983402
 30
0.0
  0
VERTEX
  5
E9B
  8
L1
 10
59.73605667477954
 20
-36.929433388861291
 30
0.0
  0
VERTEX
  5
E9C
  8
L1
 10
59.827964102705209
 20
-36.883456237530879
 30
0.0
  0
VERTEX
  5
E9D
  8
L1
 10
59.93379939873801
 20
-36.827415601628267
 30
0.0
  0
VERTEX
  5
E9E
  8
L1
 10
59.934476337228197
 20
-36.82704661241052
 30
0.0
  0
SEQEND
  5
E9F
  8
L1
  0
LINE
  5
8D7
  8
L1
 10
60.452332321330353
 20
-37.864213562373209
 30
0.0
 11
58.992702670534129
 21
-36.404583911576992
 31
0.0
  0
POLYLINE
  5
8D8
  8
L1
 66
     1
 10
0.0
 20
0.0
 30
0.0
  0
VERTEX
  5
EA0
  8
L1
 10
56.928275183431822
 20
-36.744319480508977
 30
0.0
  0
VERTEX
  5
EA1
  8
L1
 10
56.939620760795833
 20
-36.718640093512761
 30
0.0
  0
SEQEND
  5
EA2
  8
L1
  0
ARC
  5
8D9
  8
L1
 10
57.166545883703243
 20
-31.74999999999994
 30
0.0
 40
4.9738193966277091
 50
267.38503438687388
 51
291.61910855169839
  0
POLYLINE
  5
8DA
  8
L1
 66
     1
 10
0.0
 20
0.0
 30
0.0
  0
VERTEX
  5
EA3
  8
L1
 10
58.992702670534129
 20
-36.404583911576992
 30
0.0
  0
VERTEX
  5
EA4
  8
L1
 10
58.999073139592213
 20
-36.373929416274962
 30
0.0
  0
SEQEND
  5
EA5
  8
L1
  0
LINE
  5
8DB
  8
L1
 10
58.999073139592319
 20
-36.373929416275011
 30
0.0
 11
59.356521953868423
 21
-36.731378230551108
 31
0.0
  0
POLYLINE
  5
8DC
  8
L1
 66
     1
 10
0.0
 20
0.0
 30
0.0
  0
VERTEX
  5
EA6
  8
L1
 10
59.356521953868359
 20
-36.731378230551108
 30
0.0
  0
VERTEX
  5
EA7
  8
L1
 10
59.44580737308678
 20
-36.820367387864792
 30
0.0
  0
VERTEX
  5
EA8
  8
L1
 10
59.519874815105823
 20
-36.893612229893328
 30
0.0
  0
VERTEX
  5
EA9
  8
L1
 10
59.568474301135893
 20
-36.941011860825483
 30
0.0
  0
VERTEX
  5
EAA
  8
L1
 10
59.585761291781523
 20
-36.95694738199483
 30
0.0
  0
SEQEND
  5
EAB
  8
L1
  0
POLYLINE
  5
8DD
  8
L1
 66
     1
 10
0.0
 20
0.0
 30
0.0
  0
VERTEX
  5
EAC
  8
L1
 10
59.58576129178158
 20
-36.956947381994887
 30
0.0
  0
VERTEX
  5
EAD
  8
L1
 10
59.651629323660757
 20
-36.968447512879322
 30
0.0
  0
SEQEND
  5
EAE
  8
L1
  0
ARC
  5
8DE
  8
L1
 10
57.166545883703243
 20
-31.74999999999994
 30
0.0
 40
4.9999999999999849
 50
267.26858442957263
 51
291.42182152179902
  0
ARC
  5
8DF
  8
L1
 10
55.914238103350499
 20
-37.993024100224602
 30
0.0
 40
0.2999999999999944
 50
270.0
 51
44.999999999992518
  0
ARC
  5
8E0
  8
L1
 10
55.914238103350499
 20
-37.993024100224602
 30
0.0
 40
0.2825462644184768
 50
270.0
 51
44.999999999991942
  0
POLYLINE
  5
8E1
  8
L1
 66
     1
 10
0.0
 20
0.0
 30
0.0
  0
VERTEX
  5
EAF
  8
L1
 10
62.384993396582729
 20
-34.235083439957577
 30
0.0
  0
VERTEX
  5
EB0
  8
L1
 10
62.37349326569813
 20
-34.169215408078287
 30
0.0
  0
SEQEND
  5
EB1
  8
L1
  0
POLYLINE
  5
8E2
  8
L1
 66
     1
 10
0.0
 20
0.0
 30
0.0
  0
VERTEX
  5
EB2
  8
L1
 10
62.37349326569813
 20
-34.169215408078287
 30
0.0
  0
VERTEX
  5
EB3
  8
L1
 10
62.357557744528663
 20
-34.151928417432543
 30
0.0
  0
VERTEX
  5
EB4
  8
L1
 10
62.310158113596678
 20
-34.103328931402473
 30
0.0
  0
VERTEX
  5
EB5
  8
L1
 10
62.236913271568028
 20
-34.029261489383543
 30
0.0
  0
VERTEX
  5
EB6
  8
L1
 10
62.147924114254351
 20
-33.939976070165073
 30
0.0
  0
SEQEND
  5
EB7
  8
L1
  0
POLYLINE
  5
8E3
  8
L1
 66
     1
 10
0.0
 20
0.0
 30
0.0
  0
VERTEX
  5
EB8
  8
L1
 10
62.243592496113763
 20
-34.517930453524848
 30
0.0
  0
VERTEX
  5
EB9
  8
L1
 10
62.243961485331631
 20
-34.51725351503466
 30
0.0
  0
VERTEX
  5
EBA
  8
L1
 10
62.300002121234172
 20
-34.41141821900186
 30
0.0
  0
VERTEX
  5
EBB
  8
L1
 10
62.345979272564591
 20
-34.319510791076311
 30
0.0
  0
VERTEX
  5
EBC
  8
L1
 10
62.375280581686809
 20
-34.257634950925187
 30
0.0
  0
VERTEX
  5
EBD
  8
L1
 10
62.384993396582729
 20
-34.235083439957577
 30
0.0
  0
SEQEND
  5
EBE
  8
L1
  0
ARC
  5
8E4
  8
L1
 10
57.166545883703243
 20
-31.74999999999994
 30
0.0
 40
5.7825462644184809
 50
298.59856268375557
 51
331.40143731624499
  0
ARC
  5
8E5
  8
L1
 10
63.409569983927781
 20
-28.0935291636128
 30
0.0
 40
0.230185057673884
 50
225.0
 51
0.0
  0
ARC
  5
8E6
  8
L1
 10
63.409569983927781
 20
-28.0935291636128
 30
0.0
 40
0.2825462644184369
 50
225.0
 51
0.0
  0
ARC
  5
8E7
  8
L1
 10
57.166545883703243
 20
-31.74999999999994
 30
0.0
 40
4.9738193966277091
 50
338.3808914483015
 51
2.614965613126095
  0
POLYLINE
  5
8E8
  8
L1
 66
     1
 10
0.0
 20
0.0
 30
0.0
  0
VERTEX
  5
EBF
  8
L1
 10
62.16086536421227
 20
-31.511729299728529
 30
0.0
  0
VERTEX
  5
EC0
  8
L1
 10
62.135185977216111
 20
-31.52307487709254
 30
0.0
  0
SEQEND
  5
EC1
  8
L1
  0
POLYLINE
  5
8E9
  8
L1
 66
     1
 10
0.0
 20
0.0
 30
0.0
  0
VERTEX
  5
EC2
  8
L1
 10
61.790475299978247
 20
-33.58252725588892
 30
0.0
  0
VERTEX
  5
EC3
  8
L1
 10
61.821129795280228
 20
-33.576156786830779
 30
0.0
  0
SEQEND
  5
EC4
  8
L1
  0
ARC
  5
8EA
  8
L1
 10
57.166545883703243
 20
-31.74999999999994
 30
0.0
 40
4.9999999999999849
 50
338.57817847820172
 51
2.7314155704273362
  0
ARC
  5
8EB
  8
L1
 10
63.409569983927781
 20
-30.497692219647089
 30
0.0
 40
0.2825462644184369
 50
225.0
 51
0.0
  0
ARC
  5
8EC
  8
L1
 10
63.409569983927781
 20
-30.497692219647089
 30
0.0
 40
0.2999999999999545
 50
225.0
 51
0.0
  0
LINE
  5
8ED
  8
L1
 10
63.692116248346281
 20
-30.497692219647089
 30
0.0
 11
63.692116248346281
 21
-28.0935291636128
 31
0.0
  0
POLYLINE
  5
8EE
  8
L1
 66
     1
 10
0.0
 20
0.0
 30
0.0
  0
VERTEX
  5
EC5
  8
L1
 10
65.428850014612237
 20
-36.517100759268203
 30
0.0
  0
VERTEX
  5
EC6
  8
L1
 10
65.428796090891865
 20
-36.537048032038278
 30
0.0
  0
VERTEX
  5
EC7
  8
L1
 10
65.428634321477205
 20
-36.557000000000009
 30
0.0
  0
SEQEND
  5
EC8
  8
L1
  0
ARC
  5
8EF
  8
L1
 10
60.666545883703229
 20
-22.14999999999992
 30
0.0
 40
3.2000000000001991
 50
270.0
 51
341.97934069483227
  0
ARC
  5
8F0
  8
L1
 10
60.666545883703229
 20
-22.14999999999992
 30
0.0
 40
3.2000000000001991
 50
341.97934069483227
 51
0.0
  0
ARC
  5
8F1
  8
L1
 10
60.666545883703229
 20
-22.14999999999992
 30
0.0
 40
2.200000000000232
 50
270.0
 51
0.0
  0
LINE
  5
8F2
  8
L1
 10
57.166545883703243
 20
-24.350000000000129
 30
0.0
 11
60.666545883703229
 21
-24.350000000000129
 31
0.0
  0
LINE
  5
8F3
  8
L1
 10
62.366648686210567
 20
-22.949999999999928
 30
0.0
 11
57.166545883703243
 21
-22.949999999999928
 31
0.0
  0
LINE
  5
8F4
  8
L1
 10
60.666545883703229
 20
-25.35000000000019
 30
0.0
 11
58.561877764280901
 21
-25.35000000000019
 31
0.0
  0
LINE
  5
8F5
  8
L1
 10
60.666545883703229
 20
-25.367453735581648
 30
0.0
 11
58.561877764280901
 21
-25.367453735581648
 31
0.0
  0
POLYLINE
  5
8F6
  8
L1
 66
     1
 10
0.0
 20
0.0
 30
0.0
  0
VERTEX
  5
EC9
  8
L1
 10
57.40481658397465
 20
-26.755680519490902
 30
0.0
  0
VERTEX
  5
ECA
  8
L1
 10
57.393471006610632
 20
-26.781359906487069
 30
0.0
  0
SEQEND
  5
ECB
  8
L1
  0
ARC
  5
8F7
  8
L1
 10
58.561877764280901
 20
-25.650000000000201
 30
0.0
 40
0.2825462644184768
 50
90.0
 51
225.0
  0
LINE
  5
8F8
  8
L1
 10
58.561877764280901
 20
-25.35000000000019
 30
0.0
 11
57.166545883703243
 21
-25.35000000000019
 31
0.0
  0
ARC
  5
8F9
  8
L1
 10
58.561877764280901
 20
-25.650000000000201
 30
0.0
 40
0.2999999999999944
 50
90.0
 51
225.00000000000739
  0
POLYLINE
  5
8FA
  8
L1
 66
     1
 10
0.0
 20
0.0
 30
0.0
  0
VERTEX
  5
ECC
  8
L1
 10
63.709569983927793
 20
-23.13995167834269
 30
0.0
  0
VERTEX
  5
ECD
  8
L1
 10
63.692116248346281
 20
-23.244501032069309
 30
0.0
  0
SEQEND
  5
ECE
  8
L1
  0
POLYLINE
  5
8FB
  8
L1
 66
     1
 10
0.0
 20
0.0
 30
0.0
  0
VERTEX
  5
ECF
  8
L1
 10
63.692116248346281
 20
-23.244501032069309
 30
0.0
  0
VERTEX
  5
ED0
  8
L1
 10
63.680090687285151
 20
-23.311070301165731
 30
0.0
  0
VERTEX
  5
ED1
  8
L1
 10
63.667355299140517
 20
-23.377639570261799
 30
0.0
  0
VERTEX
  5
ED2
  8
L1
 10
63.65391008391282
 20
-23.444208839358112
 30
0.0
  0
VERTEX
  5
ED3
  8
L1
 10
63.639755041601688
 20
-23.510778108454069
 30
0.0
  0
SEQEND
  5
ED4
  8
L1
  0
POLYLINE
  5
8FC
  8
L1
 66
     1
 10
0.0
 20
0.0
 30
0.0
  0
VERTEX
  5
ED5
  8
L1
 10
62.666545883703229
 20
-22.65010280250732
 30
0.0
  0
VERTEX
  5
ED6
  8
L1
 10
62.578720489938974
 20
-22.862174606235719
 30
0.0
  0
VERTEX
  5
ED7
  8
L1
 10
62.366648686210567
 20
-22.949999999999989
 30
0.0
  0
SEQEND
  5
ED8
  8
L1
  0
ARC
  5
8FD
  8
L1
 10
60.666545883703229
 20
-22.14999999999992
 30
0.0
 40
3.2174537355815058
 50
270.0
 51
274.71428079378688
  0
ARC
  5
8FE
  8
L1
 10
60.954200085618247
 20
-25.638159265303269
 30
0.0
 40
0.2301850576738837
 50
94.714280793795922
 51
225.0
  0
ARC
  5
8FF
  8
L1
 10
60.954200085618247
 20
-25.638159265303269
 30
0.0
 40
0.2825462644184365
 50
94.714280793790223
 51
225.0
  0
ARC
  5
900
  8
L1
 10
60.666545883703229
 20
-22.14999999999992
 30
0.0
 40
3.2698149423261298
 50
274.71428079378609
 51
335.4073817822109
  0
LINE
  5
901
  8
L1
 10
63.692116248346281
 20
28.09352916361286
 30
0.0
 11
63.692116248346281
 21
30.497692219647199
 31
0.0
  0
LINE
  5
902
  8
L1
 10
57.393471006610632
 20
26.781359906487179
 30
0.0
 11
62.135185977216111
 21
31.52307487709265
 31
0.0
  0
LINE
  5
903
  8
L1
 10
62.160865364212327
 20
31.511729299728639
 30
0.0
 11
57.4048165839747
 21
26.755680519491019
 31
0.0
  0
LINE
  5
904
  8
L1
 10
58.349745729924848
 20
25.86213203435619
 30
0.0
 11
63.197437949571849
 21
30.709824254003191
 31
0.0
  0
LINE
  5
905
  8
L1
 10
63.20977960435863
 20
30.697482599216471
 30
0.0
 11
58.362087384711629
 21
25.84979037956947
 31
0.0
  0
LINE
  5
906
  8
L1
 10
63.709569983927743
 20
30.497692219647199
 30
0.0
 11
63.709569983927743
 21
23.139951678342921
 31
0.0
  0
ARC
  5
907
  8
L1
 10
57.166545883703243
 20
31.74999999999994
 30
0.0
 40
8.8000000000000007
 50
180.0
 51
217.11486245507359
  0
ARC
  5
908
  8
L1
 10
57.166545883703243
 20
31.75000000000011
 30
0.0
 40
7.3999999999999027
 50
180.0
 51
270.0
  0
ARC
  5
909
  8
L1
 10
57.166545883703243
 20
31.75000000000006
 30
0.0
 40
4.9738193966277091
 50
177.38503438687391
 51
272.61496561312612
  0
ARC
  5
90A
  8
L1
 10
57.166545883703243
 20
31.75000000000006
 30
0.0
 40
4.9999999999999849
 50
177.2685844295718
 51
272.73141557042732
  0
ARC
  5
90B
  8
L1
 10
57.166545883703243
 20
31.75000000000011
 30
0.0
 40
6.3999999999998227
 50
180.0
 51
270.0000000000008
  0
ARC
  5
90C
  8
L1
 10
57.166545883703243
 20
31.74999999999994
 30
0.0
 40
8.8000000000000007
 50
232.8851375449257
 51
270.0
  0
LINE
  5
90D
  8
L1
 10
50.378493836339374
 20
23.796695169241669
 30
0.0
 11
51.482633397796121
 21
24.723178268028271
 31
0.0
  0
LINE
  5
90E
  8
L1
 10
49.230921678274854
 20
24.556995055326979
 30
0.0
 11
49.973540939030102
 21
23.814375794571731
 31
0.0
  0
POLYLINE
  5
90F
  8
L1
 66
     1
 10
0.0
 20
0.0
 30
0.0
  0
VERTEX
  5
ED9
  8
L1
 10
50.37849383633943
 20
23.796695169241669
 30
0.0
  0
VERTEX
  5
EDA
  8
L1
 10
50.172579514842077
 20
23.726795248333811
 30
0.0
  0
VERTEX
  5
EDB
  8
L1
 10
49.973540939030102
 20
23.814375794571671
 30
0.0
  0
SEQEND
  5
EDC
  8
L1
  0
POLYLINE
  5
910
  8
L1
 66
     1
 10
0.0
 20
0.0
 30
0.0
  0
VERTEX
  5
EDD
  8
L1
 10
51.482633397796121
 20
24.723178268028271
 30
0.0
  0
VERTEX
  5
EDE
  8
L1
 10
51.546153147093491
 20
24.76406806610089
 30
0.0
  0
VERTEX
  5
EDF
  8
L1
 10
51.62700923379532
 20
24.789443415457239
 30
0.0
  0
VERTEX
  5
EE0
  8
L1
 10
51.70140184427612
 20
24.792272633352979
 30
0.0
  0
VERTEX
  5
EE1
  8
L1
 10
51.779293450140472
 20
24.774867625930199
 30
0.0
  0
VERTEX
  5
EE2
  8
L1
 10
51.856495117959639
 20
24.73263861090032
 30
0.0
  0
SEQEND
  5
EE3
  8
L1
  0
POLYLINE
  5
911
  8
L1
 66
     1
 10
0.0
 20
0.0
 30
0.0
  0
VERTEX
  5
EE4
  8
L1
 10
50.149184494603503
 20
26.43994923425651
 30
0.0
  0
VERTEX
  5
EE5
  8
L1
 10
50.162195520024852
 20
26.421329159157889
 30
0.0
  0
VERTEX
  5
EE6
  8
L1
 10
50.203928642161713
 20
26.318710447682921
 30
0.0
  0
VERTEX
  5
EE7
  8
L1
 10
50.204732308969596
 20
26.203332312310689
 30
0.0
  0
VERTEX
  5
EE8
  8
L1
 10
50.16051163790803
 20
26.09399987769774
 30
0.0
  0
VERTEX
  5
EE9
  8
L1
 10
50.139724151731457
 20
26.066087514092999
 30
0.0
  0
SEQEND
  5
EEA
  8
L1
  0
LINE
  5
912
  8
L1
 10
50.139724151731457
 20
26.066087514092999
 30
0.0
 11
49.213241052944802
 21
24.961947952636191
 31
0.0
  0
POLYLINE
  5
913
  8
L1
 66
     1
 10
0.0
 20
0.0
 30
0.0
  0
VERTEX
  5
EEB
  8
L1
 10
49.230921678274797
 20
24.556995055326979
 30
0.0
  0
VERTEX
  5
EEC
  8
L1
 10
49.14334113203693
 20
24.756033631138958
 30
0.0
  0
VERTEX
  5
EED
  8
L1
 10
49.213241052944731
 20
24.961947952636191
 30
0.0
  0
SEQEND
  5
EEE
  8
L1
  0
ARC
  5
914
  8
L1
 10
60.666545883703229
 20
22.150000000000031
 30
0.0
 40
3.2000000000002551
 50
18.020659305169129
 51
90.0
  0
ARC
  5
915
  8
L1
 10
60.666545883703229
 20
22.150000000000031
 30
0.0
 40
2.200000000000176
 50
0.0
 51
90.0
  0
LINE
  5
916
  8
L1
 10
63.639755041601688
 20
23.510778108454179
 30
0.0
 11
63.639755041601688
 21
28.09352916361286
 31
0.0
  0
ARC
  5
917
  8
L1
 10
60.666545883703229
 20
22.150000000000031
 30
0.0
 40
3.2698149423261289
 50
24.59261821778907
 51
85.285719206211368
  0
LINE
  5
918
  8
L1
 10
57.166545883703243
 20
22.950000000000038
 30
0.0
 11
62.366648686210617
 21
22.950000000000038
 31
0.0
  0
ARC
  5
919
  8
L1
 10
60.666545883703229
 20
22.150000000000031
 30
0.0
 40
3.2000000000002551
 50
0.0
 51
18.020659305169129
  0
POLYLINE
  5
91A
  8
L1
 66
     1
 10
0.0
 20
0.0
 30
0.0
  0
VERTEX
  5
EEF
  8
L1
 10
63.692116248346281
 20
23.24450103206987
 30
0.0
  0
VERTEX
  5
EF0
  8
L1
 10
63.68009068728508
 20
23.311070301166009
 30
0.0
  0
VERTEX
  5
EF1
  8
L1
 10
63.667355299140468
 20
23.37763957026214
 30
0.0
  0
VERTEX
  5
EF2
  8
L1
 10
63.653910083912763
 20
23.444208839358161
 30
0.0
  0
VERTEX
  5
EF3
  8
L1
 10
63.639755041601688
 20
23.510778108454179
 30
0.0
  0
SEQEND
  5
EF4
  8
L1
  0
POLYLINE
  5
91B
  8
L1
 66
     1
 10
0.0
 20
0.0
 30
0.0
  0
VERTEX
  5
EF5
  8
L1
 10
63.709569983927793
 20
23.139951678342921
 30
0.0
  0
VERTEX
  5
EF6
  8
L1
 10
63.692116248346281
 20
23.24450103206987
 30
0.0
  0
SEQEND
  5
EF7
  8
L1
  0
POLYLINE
  5
91C
  8
L1
 66
     1
 10
0.0
 20
0.0
 30
0.0
  0
VERTEX
  5
EF8
  8
L1
 10
62.366648686210617
 20
22.950000000000099
 30
0.0
  0
VERTEX
  5
EF9
  8
L1
 10
62.57872048993903
 20
22.862174606235829
 30
0.0
  0
VERTEX
  5
EFA
  8
L1
 10
62.666545883703293
 20
22.65010280250743
 30
0.0
  0
SEQEND
  5
EFB
  8
L1
  0
LINE
  5
91D
  8
L1
 10
58.56187776428078
 20
25.35000000000025
 30
0.0
 11
60.666545883703229
 21
25.35000000000025
 31
0.0
  0
LINE
  5
91E
  8
L1
 10
58.56187776428078
 20
25.367453735581758
 30
0.0
 11
60.666545883703229
 21
25.367453735581758
 31
0.0
  0
LINE
  5
91F
  8
L1
 10
60.666545883703229
 20
24.35000000000025
 30
0.0
 11
57.166545883703243
 21
24.35000000000025
 31
0.0
  0
POLYLINE
  5
920
  8
L1
 66
     1
 10
0.0
 20
0.0
 30
0.0
  0
VERTEX
  5
EFC
  8
L1
 10
57.40481658397465
 20
26.755680519491019
 30
0.0
  0
VERTEX
  5
EFD
  8
L1
 10
57.393471006610632
 20
26.781359906487179
 30
0.0
  0
SEQEND
  5
EFE
  8
L1
  0
ARC
  5
921
  8
L1
 10
58.56187776428078
 20
25.650000000000261
 30
0.0
 40
0.3000000000000001
 50
135.0
 51
270.0
  0
LINE
  5
922
  8
L1
 10
57.166545883703243
 20
25.35000000000025
 30
0.0
 11
58.56187776428078
 21
25.35000000000025
 31
0.0
  0
ARC
  5
923
  8
L1
 10
58.56187776428078
 20
25.650000000000261
 30
0.0
 40
0.2825462644184824
 50
135.0
 51
270.0
  0
ARC
  5
924
  8
L1
 10
60.666545883703229
 20
22.150000000000031
 30
0.0
 40
3.2174537355816302
 50
85.285719206211368
 51
90.0
  0
ARC
  5
925
  8
L1
 10
60.954200085618368
 20
25.6381592653035
 30
0.0
 40
0.2301850576739503
 50
135.0
 51
265.28571920620573
  0
ARC
  5
926
  8
L1
 10
60.954200085618368
 20
25.6381592653035
 30
0.0
 40
0.2825462644185031
 50
135.0
 51
265.2857192062105
  0
LINE
  5
927
  8
L1
 10
63.246804568718687
 20
28.25629457882189
 30
0.0
 11
60.79143467040933
 21
25.80092468051253
 31
0.0
  0
ARC
  5
928
  8
L1
 10
63.409569983927732
 20
28.09352916361286
 30
0.0
 40
0.2301850576739239
 50
0.0
 51
135.0
  0
ARC
  5
929
  8
L1
 10
63.409569983927732
 20
28.09352916361286
 30
0.0
 40
0.2825462644184768
 50
0.0
 51
135.0
  0
LINE
  5
92A
  8
L1
 10
56.126370137706431
 20
37.78089206586872
 30
0.0
 11
51.278677918059323
 21
32.933199846221612
 31
0.0
  0
LINE
  5
92B
  8
L1
 10
55.914238103350442
 20
38.275570364643158
 30
0.0
 11
53.51007504731615
 21
38.275570364643158
 31
0.0
  0
LINE
  5
92C
  8
L1
 10
51.266336263272649
 20
32.945541501008272
 30
0.0
 11
56.114028482919771
 21
37.793233720655387
 31
0.0
  0
LINE
  5
92D
  8
L1
 10
48.55649756204582
 20
38.29302410022467
 30
0.0
 11
55.914238103350442
 21
38.29302410022467
 31
0.0
  0
LINE
  5
92E
  8
L1
 10
56.939620760795833
 20
36.718640093512867
 30
0.0
 11
52.197905790190362
 21
31.976925122907399
 31
0.0
  0
LINE
  5
92F
  8
L1
 10
52.172226403194259
 20
31.988270700271471
 30
0.0
 11
56.928275183431822
 21
36.744319480509091
 31
0.0
  0
LINE
  5
930
  8
L1
 10
51.217470564215724
 20
35.374888786705981
 30
0.0
 11
53.672840462525251
 21
37.830258685015501
 31
0.0
  0
LINE
  5
931
  8
L1
 10
53.709865426885358
 20
37.793233720655387
 30
0.0
 11
51.254495528575831
 21
35.337863822345859
 31
0.0
  0
ARC
  5
932
  8
L1
 10
47.566545883703263
 20
35.250000000000107
 30
0.0
 40
2.2000000000000899
 50
0.0
 51
90.0
  0
ARC
  5
933
  8
L1
 10
47.566545883703263
 20
35.250000000000107
 30
0.0
 40
3.200000000000113
 50
0.0
 51
71.979340694836793
  0
ARC
  5
934
  8
L1
 10
47.566545883703263
 20
35.250000000000107
 30
0.0
 40
3.2698149423261298
 50
4.714280793786112
 51
65.407381782212397
  0
LINE
  5
935
  8
L1
 10
48.366545883703218
 20
36.950102802507381
 30
0.0
 11
48.366545883703218
 21
31.74999999999994
 31
0.0
  0
ARC
  5
936
  8
L1
 10
51.066545883703377
 20
33.145331880577601
 30
0.0
 40
0.2999999999999944
 50
180.0
 51
314.99999999999238
  0
LINE
  5
937
  8
L1
 10
50.766545883703373
 20
35.250000000000107
 30
0.0
 11
50.766545883703373
 21
33.145331880577601
 31
0.0
  0
ARC
  5
938
  8
L1
 10
51.066545883703377
 20
33.145331880577601
 30
0.0
 40
0.2825462644184768
 50
180.0
 51
314.99999999999193
  0
LINE
  5
939
  8
L1
 10
50.783999619284877
 20
35.250000000000107
 30
0.0
 11
50.783999619284877
 21
33.145331880577601
 31
0.0
  0
ARC
  5
93A
  8
L1
 10
47.566545883703263
 20
35.250000000000107
 30
0.0
 40
3.217453735581449
 50
0.0
 51
4.7142807937869229
  0
ARC
  5
93B
  8
L1
 10
51.054705149006622
 20
35.537654201915132
 30
0.0
 40
0.2301850576738837
 50
184.71428079379589
 51
314.99999999999022
  0
ARC
  5
93C
  8
L1
 10
51.054705149006622
 20
35.537654201915132
 30
0.0
 40
0.2825462644184365
 50
184.71428079379021
 51
314.99999999999193
  0
LINE
  5
93D
  8
L1
 10
49.766545883703373
 20
31.75000000000011
 30
0.0
 11
49.766545883703373
 21
35.250000000000107
 31
0.0
  0
LINE
  5
93E
  8
L1
 10
50.766545883703373
 20
33.145331880577601
 30
0.0
 11
50.766545883703373
 21
31.75000000000011
 31
0.0
  0
POLYLINE
  5
93F
  8
L1
 66
     1
 10
0.0
 20
0.0
 30
0.0
  0
VERTEX
  5
EFF
  8
L1
 10
52.172226403194202
 20
31.988270700271471
 30
0.0
  0
VERTEX
  5
F00
  8
L1
 10
52.197905790190362
 20
31.97692512290746
 30
0.0
  0
SEQEND
  5
F01
  8
L1
  0
LINE
  5
940
  8
L1
 10
53.51007504731615
 20
38.223209157898559
 30
0.0
 11
48.927323992157369
 21
38.223209157898559
 31
0.0
  0
POLYLINE
  5
941
  8
L1
 66
     1
 10
0.0
 20
0.0
 30
0.0
  0
VERTEX
  5
F02
  8
L1
 10
48.066648686210613
 20
37.25000000000005
 30
0.0
  0
VERTEX
  5
F03
  8
L1
 10
48.278720489939019
 20
37.162174606235851
 30
0.0
  0
VERTEX
  5
F04
  8
L1
 10
48.366545883703282
 20
36.950102802507381
 30
0.0
  0
SEQEND
  5
F05
  8
L1
  0
ARC
  5
942
  8
L1
 10
47.566545883703263
 20
35.250000000000107
 30
0.0
 40
3.200000000000113
 50
71.979340694836793
 51
90.0
  0
POLYLINE
  5
943
  8
L1
 66
     1
 10
0.0
 20
0.0
 30
0.0
  0
VERTEX
  5
F06
  8
L1
 10
48.661046915772602
 20
38.275570364643158
 30
0.0
  0
VERTEX
  5
F07
  8
L1
 10
48.727616184868957
 20
38.263544803581958
 30
0.0
  0
VERTEX
  5
F08
  8
L1
 10
48.794185453965149
 20
38.250809415437452
 30
0.0
  0
VERTEX
  5
F09
  8
L1
 10
48.860754723061397
 20
38.23736420020964
 30
0.0
  0
VERTEX
  5
F0A
  8
L1
 10
48.927323992157369
 20
38.223209157898559
 30
0.0
  0
SEQEND
  5
F0B
  8
L1
  0
POLYLINE
  5
944
  8
L1
 66
     1
 10
0.0
 20
0.0
 30
0.0
  0
VERTEX
  5
F0C
  8
L1
 10
48.55649756204582
 20
38.29302410022467
 30
0.0
  0
VERTEX
  5
F0D
  8
L1
 10
48.661046915772602
 20
38.275570364643158
 30
0.0
  0
SEQEND
  5
F0E
  8
L1
  0
ARC
  5
945
  8
L1
 10
53.51007504731615
 20
37.993024100224659
 30
0.0
 40
0.2301850576739125
 50
314.99999999999483
 51
90.0
  0
ARC
  5
946
  8
L1
 10
53.51007504731615
 20
37.993024100224659
 30
0.0
 40
0.2825462644184653
 50
314.99999999999193
 51
90.0
  0
POLYLINE
  5
947
  8
L1
 66
     1
 10
0.0
 20
0.0
 30
0.0
  0
VERTEX
  5
F0F
  8
L1
 10
61.973545883703203
 20
40.012088437774139
 30
0.0
  0
VERTEX
  5
F10
  8
L1
 10
62.635333486148561
 20
39.941714390114377
 30
0.0
  0
VERTEX
  5
F11
  8
L1
 10
63.29031826994423
 20
39.73958500200245
 30
0.0
  0
VERTEX
  5
F12
  8
L1
 10
63.893165114599348
 20
39.413440750186112
 30
0.0
  0
VERTEX
  5
F13
  8
L1
 10
64.406475002776801
 20
38.989929119073622
 30
0.0
  0
VERTEX
  5
F14
  8
L1
 10
64.829986633889405
 20
38.476619230896063
 30
0.0
  0
VERTEX
  5
F15
  8
L1
 10
65.156130885705636
 20
37.873772386241001
 30
0.0
  0
VERTEX
  5
F16
  8
L1
 10
65.358260273817564
 20
37.218787602445332
 30
0.0
  0
VERTEX
  5
F17
  8
L1
 10
65.428634321477261
 20
36.556999999999952
 30
0.0
  0
SEQEND
  5
F18
  8
L1
  0
ARC
  5
948
  8
L1
 10
61.866545883703452
 20
36.450000000000209
 30
0.0
 40
2.0000000000000151
 50
315.0
 51
134.9999999999994
  0
ARC
  5
949
  8
L1
 10
61.973545883703203
 20
36.556999999999952
 30
0.0
 40
2.7360241002247929
 50
0.0
 51
90.0
  0
ARC
  5
94A
  8
L1
 10
57.166545883703243
 20
31.75000000000006
 30
0.0
 40
5.7825462644184809
 50
28.598562683753791
 51
61.40143731624439
  0
POLYLINE
  5
94B
  8
L1
 66
     1
 10
0.0
 20
0.0
 30
0.0
  0
VERTEX
  5
F19
  8
L1
 10
61.821129795280228
 20
33.576156786830893
 30
0.0
  0
VERTEX
  5
F1A
  8
L1
 10
61.790475299978311
 20
33.58252725588909
 30
0.0
  0
SEQEND
  5
F1B
  8
L1
  0
LINE
  5
94C
  8
L1
 10
61.790475299978311
 20
33.582527255889033
 30
0.0
 11
62.147924114254408
 21
33.93997607016513
 31
0.0
  0
POLYLINE
  5
94D
  8
L1
 66
     1
 10
0.0
 20
0.0
 30
0.0
  0
VERTEX
  5
F1C
  8
L1
 10
62.147924114254408
 20
33.93997607016513
 30
0.0
  0
VERTEX
  5
F1D
  8
L1
 10
62.236913271568078
 20
34.0292614893836
 30
0.0
  0
VERTEX
  5
F1E
  8
L1
 10
62.310158113596678
 20
34.10332893140253
 30
0.0
  0
VERTEX
  5
F1F
  8
L1
 10
62.357557744528769
 20
34.1519284174326
 30
0.0
  0
VERTEX
  5
F20
  8
L1
 10
62.37349326569813
 20
34.169215408078337
 30
0.0
  0
SEQEND
  5
F21
  8
L1
  0
POLYLINE
  5
94E
  8
L1
 66
     1
 10
0.0
 20
0.0
 30
0.0
  0
VERTEX
  5
F22
  8
L1
 10
62.37349326569813
 20
34.169215408078337
 30
0.0
  0
VERTEX
  5
F23
  8
L1
 10
62.384993396582729
 20
34.235083439957577
 30
0.0
  0
SEQEND
  5
F24
  8
L1
  0
POLYLINE
  5
94F
  8
L1
 66
     1
 10
0.0
 20
0.0
 30
0.0
  0
VERTEX
  5
F25
  8
L1
 10
62.384993396582729
 20
34.235083439957577
 30
0.0
  0
VERTEX
  5
F26
  8
L1
 10
62.375280581686752
 20
34.257634950925187
 30
0.0
  0
VERTEX
  5
F27
  8
L1
 10
62.345979272564591
 20
34.319510791076368
 30
0.0
  0
VERTEX
  5
F28
  8
L1
 10
62.300002121234229
 20
34.411418219001973
 30
0.0
  0
VERTEX
  5
F29
  8
L1
 10
62.24396148533156
 20
34.517253515034781
 30
0.0
  0
VERTEX
  5
F2A
  8
L1
 10
62.243592496113877
 20
34.517930453524968
 30
0.0
  0
SEQEND
  5
F2B
  8
L1
  0
LINE
  5
950
  8
L1
 10
63.280759446076608
 20
35.035786437627053
 30
0.0
 11
61.821129795280278
 21
33.576156786830722
 31
0.0
  0
POLYLINE
  5
951
  8
L1
 66
     1
 10
0.0
 20
0.0
 30
0.0
  0
VERTEX
  5
F2C
  8
L1
 10
62.16086536421227
 20
31.511729299728639
 30
0.0
  0
VERTEX
  5
F2D
  8
L1
 10
62.135185977216111
 20
31.52307487709265
 30
0.0
  0
SEQEND
  5
F2E
  8
L1
  0
ARC
  5
952
  8
L1
 10
63.409569983927781
 20
30.497692219647199
 30
0.0
 40
0.3000000000000145
 50
0.0
 51
134.9999999999925
  0
ARC
  5
953
  8
L1
 10
63.409569983927781
 20
30.497692219647199
 30
0.0
 40
0.2825462644184969
 50
0.0
 51
134.99999999998329
  0
ARC
  5
954
  8
L1
 10
57.166545883703243
 20
31.75000000000006
 30
0.0
 40
4.9738193966277091
 50
357.38503438687388
 51
21.619108551697661
  0
ARC
  5
955
  8
L1
 10
57.166545883703243
 20
31.75000000000006
 30
0.0
 40
4.9999999999999849
 50
357.26858442957263
 51
21.421821521796769
  0
POLYLINE
  5
956
  8
L1
 66
     1
 10
0.0
 20
0.0
 30
0.0
  0
VERTEX
  5
F2F
  8
L1
 10
59.934476337228197
 20
36.827046612410577
 30
0.0
  0
VERTEX
  5
F30
  8
L1
 10
59.933799398738081
 20
36.827415601628381
 30
0.0
  0
VERTEX
  5
F31
  8
L1
 10
59.827964102705209
 20
36.88345623753105
 30
0.0
  0
VERTEX
  5
F32
  8
L1
 10
59.736056674779661
 20
36.929433388861412
 30
0.0
  0
VERTEX
  5
F33
  8
L1
 10
59.674180834628537
 20
36.958734697983573
 30
0.0
  0
VERTEX
  5
F34
  8
L1
 10
59.651629323660813
 20
36.968447512879429
 30
0.0
  0
SEQEND
  5
F35
  8
L1
  0
LINE
  5
957
  8
L1
 10
58.992702670534179
 20
36.404583911577049
 30
0.0
 11
60.452332321330459
 21
37.864213562373322
 31
0.0
  0
ARC
  5
958
  8
L1
 10
57.166545883703243
 20
31.75000000000006
 30
0.0
 40
4.9738193966277091
 50
68.380891448300829
 51
92.614965613126088
  0
POLYLINE
  5
959
  8
L1
 66
     1
 10
0.0
 20
0.0
 30
0.0
  0
VERTEX
  5
F36
  8
L1
 10
56.928275183431822
 20
36.744319480509091
 30
0.0
  0
VERTEX
  5
F37
  8
L1
 10
56.939620760795833
 20
36.718640093512867
 30
0.0
  0
SEQEND
  5
F38
  8
L1
  0
POLYLINE
  5
95A
  8
L1
 66
     1
 10
0.0
 20
0.0
 30
0.0
  0
VERTEX
  5
F39
  8
L1
 10
59.651629323660813
 20
36.968447512879429
 30
0.0
  0
VERTEX
  5
F3A
  8
L1
 10
59.585761291781637
 20
36.956947381994887
 30
0.0
  0
SEQEND
  5
F3B
  8
L1
  0
POLYLINE
  5
95B
  8
L1
 66
     1
 10
0.0
 20
0.0
 30
0.0
  0
VERTEX
  5
F3C
  8
L1
 10
59.585761291781637
 20
36.956947381994951
 30
0.0
  0
VERTEX
  5
F3D
  8
L1
 10
59.56847430113595
 20
36.941011860825647
 30
0.0
  0
VERTEX
  5
F3E
  8
L1
 10
59.519874815105823
 20
36.893612229893499
 30
0.0
  0
VERTEX
  5
F3F
  8
L1
 10
59.44580737308695
 20
36.820367387864842
 30
0.0
  0
VERTEX
  5
F40
  8
L1
 10
59.35652195386848
 20
36.731378230551229
 30
0.0
  0
SEQEND
  5
F41
  8
L1
  0
LINE
  5
95C
  8
L1
 10
59.35652195386848
 20
36.731378230551229
 30
0.0
 11
58.999073139592319
 21
36.373929416275068
 31
0.0
  0
POLYLINE
  5
95D
  8
L1
 66
     1
 10
0.0
 20
0.0
 30
0.0
  0
VERTEX
  5
F42
  8
L1
 10
58.999073139592269
 20
36.373929416275068
 30
0.0
  0
VERTEX
  5
F43
  8
L1
 10
58.992702670534129
 20
36.404583911577099
 30
0.0
  0
SEQEND
  5
F44
  8
L1
  0
ARC
  5
95E
  8
L1
 10
57.166545883703243
 20
31.75000000000006
 30
0.0
 40
4.9999999999999849
 50
68.578178478200954
 51
92.731415570427316
  0
ARC
  5
95F
  8
L1
 10
55.914238103350442
 20
37.993024100224659
 30
0.0
 40
0.3000000000000114
 50
315.00000000000739
 51
90.0
  0
ARC
  5
960
  8
L1
 10
55.914238103350442
 20
37.993024100224659
 30
0.0
 40
0.2825462644184937
 50
315.00000000000858
 51
90.0
  0
POLYLINE
  5
961
  8
L1
 66
     1
 10
0.0
 20
0.0
 30
0.0
  0
VERTEX
  5
F45
  8
L1
 10
61.933646642971318
 20
40.012304130909172
 30
0.0
  0
VERTEX
  5
F46
  8
L1
 10
61.953593915741401
 20
40.012250207188849
 30
0.0
  0
VERTEX
  5
F47
  8
L1
 10
61.973545883703203
 20
40.012088437774139
 30
0.0
  0
SEQEND
  5
F48
  8
L1
  0
POLYLINE
  5
962
  8
L1
 66
     1
 10
0.0
 20
0.0
 30
0.0
  0
VERTEX
  5
F49
  8
L1
 10
65.428634321477318
 20
36.556999999999952
 30
0.0
  0
VERTEX
  5
F4A
  8
L1
 10
65.428796090892035
 20
36.537048032038221
 30
0.0
  0
VERTEX
  5
F4B
  8
L1
 10
65.428850014612394
 20
36.517100759268203
 30
0.0
  0
SEQEND
  5
F4C
  8
L1
  0
LINE
  5
963
  8
L1
 10
-59.8334541162967
 20
-24.350000000000019
 30
0.0000000000000009
 11
-56.333454116296707
 21
-24.350000000000019
 31
0.0000000000000009
  0
ENDBLK
  5
7C5
  8
0
  0
BLOCK
  8
0
  2
S1
 70
     0
 10
0.0
 20
0.0
 30
0.0
  3
S1
  1

  0
LINE
  5
968
  8
L1
 10
17.280719969315552
 20
40.012304130909051
 30
0.0
 11
17.280719969315609
 21
-40.012304130909499
 31
0.0
  0
LINE
  5
969
  8
L1
 10
9.1091642695101882
 20
39.58405104339473
 30
0.0
 11
9.1091642695101882
 21
-39.584051043394851
 31
0.0
  0
LINE
  5
96A
  8
L1
 10
17.280719969315609
 20
-40.012304130909371
 30
0.0
 11
18.0
 21
-39.293024100224983
 31
0.0
  0
LINE
  5
96B
  8
L1
 10
17.280719969315609
 20
-40.012304130909371
 30
0.0
 11
18.0
 21
-39.293024100224983
 31
0.0
  0
LINE
  5
96C
  8
L1
 10
8.0
 20
-38.474886773884599
 30
0.0
 11
9.109164269510245
 21
-39.584051043394851
 31
0.0
  0
LINE
  5
96D
  8
L1
 10
9.1091642695101882
 20
-39.584051043394851
 30
0.0
 11
17.280719969315609
 21
-40.012304130909371
 31
0.0
  0
LINE
  5
96E
  8
L2
 10
10.201869123239071
 20
-22.48693896321447
 30
0.0
 11
10.201869123239071
 21
22.486938963214321
 31
0.0
  0
LINE
  5
96F
  8
L1
 10
18.0
 20
-39.293024100224983
 30
0.0
 11
18.0
 21
39.293024100224862
 31
0.0
  0
LINE
  5
970
  8
L1
 10
19.070850152139251
 20
37.95000000000001
 30
0.0
 11
19.070850152139251
 21
-37.950000000000131
 31
0.0
  0
LINE
  5
971
  8
L2
 10
8.5
 20
-24.545636566104601
 30
0.0
 11
8.5
 21
24.545636566104658
 31
0.0
  0
LINE
  5
972
  8
L1
 10
8.0
 20
-38.474886773884457
 30
0.0
 11
8.0
 21
38.474886773884492
 31
0.0
  0
LINE
  5
973
  8
L6
 10
27.070850152139251
 20
0.0
 30
0.0
 11
0.0
 21
0.0
 31
0.0
  0
LINE
  5
974
  8
L2
 10
18.0
 20
-37.450000000000358
 30
0.0
 11
18.764397453106479
 21
-37.584783894967899
 31
0.0
  0
LINE
  5
975
  8
L1
 10
18.764397453106479
 20
-38.315216105032817
 30
0.0
 11
18.0
 21
-38.450000000000358
 31
0.0
  0
LINE
  5
976
  8
L1
 10
18.0
 20
-39.293024100224983
 30
0.0
 11
18.0
 21
-38.450000000000301
 31
0.0
  0
ARC
  5
977
  8
L2
 10
18.699999999999989
 20
-37.950000000000351
 30
0.0
 40
0.3708501521392529
 50
0.0
 51
79.999999999999801
  0
ARC
  5
978
  8
L1
 10
18.699999999999989
 20
-37.950000000000351
 30
0.0
 40
0.3708501521392529
 50
280.00000000000011
 51
0.0
  0
LINE
  5
979
  8
L2
 10
18.0
 20
-22.95000000000007
 30
0.0
 11
10.492146915507639
 21
-22.75339994797659
 31
0.0
  0
ARC
  5
97A
  8
L2
 10
10.5
 20
-22.453502750483921
 30
0.0
 40
0.3000000000000007
 50
186.39914152960921
 51
268.49999999999892
  0
LINE
  5
97B
  8
L2
 10
8.5
 20
-24.545636566104768
 30
0.0
 11
8.0
 21
-24.55000000000015
 31
0.0
  0
LINE
  5
97C
  8
L2
 10
18.0
 20
22.94999999999995
 30
0.0
 11
10.492146915507639
 21
22.753399947976469
 31
0.0
  0
ARC
  5
97D
  8
L2
 10
10.5
 20
22.4535027504838
 30
0.0
 40
0.3000000000000007
 50
91.500000000001094
 51
173.6008584703907
  0
LINE
  5
97E
  8
L2
 10
8.5
 20
24.545636566104658
 30
0.0
 11
8.0
 21
24.55000000000004
 31
0.0
  0
LINE
  5
97F
  8
L1
 10
9.1091642695101882
 20
39.58405104339473
 30
0.0
 11
17.280719969315609
 21
40.01230413090925
 31
0.0
  0
LINE
  5
980
  8
L1
 10
8.0
 20
38.474886773884492
 30
0.0
 11
9.109164269510245
 21
39.58405104339473
 31
0.0
  0
LINE
  5
981
  8
L1
 10
18.764397453106479
 20
38.315216105032697
 30
0.0
 11
18.0
 21
38.450000000000237
 31
0.0
  0
ARC
  5
982
  8
L1
 10
18.699999999999989
 20
37.950000000000237
 30
0.0
 40
0.3708501521392529
 50
0.0
 51
79.999999999999801
  0
LINE
  5
983
  8
L1
 10
17.280719969315609
 20
40.01230413090925
 30
0.0
 11
18.0
 21
39.293024100224862
 31
0.0
  0
LINE
  5
984
  8
L1
 10
18.0
 20
39.293024100224862
 30
0.0
 11
18.0
 21
38.45000000000018
 31
0.0
  0
LINE
  5
985
  8
L1
 10
18.764397453106479
 20
38.315216105032697
 30
0.0
 11
18.0
 21
38.450000000000237
 31
0.0
  0
LINE
  5
986
  8
L2
 10
18.0
 20
37.450000000000237
 30
0.0
 11
18.764397453106479
 21
37.584783894967778
 31
0.0
  0
ARC
  5
987
  8
L1
 10
18.699999999999989
 20
37.950000000000237
 30
0.0
 40
0.3708501521392529
 50
0.0
 51
79.999999999999801
  0
ARC
  5
988
  8
L2
 10
18.699999999999989
 20
37.950000000000237
 30
0.0
 40
0.3708501521392529
 50
280.00000000000011
 51
0.0
  0
ENDBLK
  5
967
  8
0
  0
BLOCK
  8
0
  2
T
 70
     0
 10
0.0
 20
0.0
 30
0.0
  3
T
  1

  0
ARC
  5
98D
  8
L1
 10
-56.75
 20
31.749999999999972
 30
0.0
 40
4.9738193966277091
 50
87.385034386873912
 51
111.6191085516968
  0
LINE
  5
98E
  8
L1
 10
-56.976925122907353
 20
26.78135990648715
 30
0.0
 11
-61.718640093512811
 21
31.523074877092618
 31
0.0
  0
CIRCLE
  5
98F
  8
L1
 10
-56.75
 20
31.749999999999972
 30
0.0
 40
5.797404786259249
  0
CIRCLE
  5
990
  8
L1
 10
-56.75
 20
31.749999999999972
 30
0.0
 40
6.097393363178492
  0
LINE
  5
991
  8
L1
 10
61.517100759268089
 20
40.01230413090925
 30
0.0
 11
-61.517100759268139
 21
40.01230413090925
 31
0.0
  0
LINE
  5
992
  8
L1
 10
61.032922207169513
 20
38.474886773884492
 30
0.0
 11
-61.032922207169577
 21
38.474886773884492
 31
0.0
  0
LINE
  5
993
  8
L6
 10
67.1588868673756
 20
0.0
 30
0.0
 11
-69.474244605558141
 21
0.0
 31
0.0
  0
ARC
  5
994
  8
L1
 10
-56.75
 20
-31.750000000000021
 30
0.0
 40
4.9738193966277233
 50
248.38089144829999
 51
272.61496561312612
  0
CIRCLE
  5
995
  8
L1
 10
-56.75
 20
-31.750000000000021
 30
0.0
 40
6.097393363178492
  0
CIRCLE
  5
996
  8
L1
 10
-56.75
 20
-31.750000000000021
 30
0.0
 40
5.797404786259249
  0
LINE
  5
997
  8
L1
 10
-61.718640093512811
 20
-31.523074877092679
 30
0.0
 11
-56.976925122907353
 21
-26.78135990648715
 31
0.0
  0
LINE
  5
998
  8
L1
 10
-61.517100759268139
 20
-40.012304130909172
 30
0.0
 11
61.517100759268139
 21
-40.012304130909172
 31
0.0
  0
LINE
  5
999
  8
L1
 10
-61.032922207169626
 20
-38.474886773884428
 30
0.0
 11
61.032922207169577
 21
-38.4748867738844
 31
0.0
  0
POLYLINE
  5
99A
  8
L1
 66
     1
 10
0.0
 20
0.0
 30
0.0
  0
VERTEX
  5
F4F
  8
L1
 10
-65.012088437774082
 20
-36.556999999999988
 30
0.0
  0
VERTEX
  5
F50
  8
L1
 10
-64.941714390114328
 20
-37.21878760244536
 30
0.0
  0
VERTEX
  5
F51
  8
L1
 10
-64.739585002002386
 20
-37.873772386241022
 30
0.0
  0
VERTEX
  5
F52
  8
L1
 10
-64.413440750186055
 20
-38.476619230896091
 30
0.0
  0
VERTEX
  5
F53
  8
L1
 10
-63.989929119073622
 20
-38.989929119073651
 30
0.0
  0
VERTEX
  5
F54
  8
L1
 10
-63.476619230896063
 20
-39.41344075018614
 30
0.0
  0
VERTEX
  5
F55
  8
L1
 10
-62.873772386241001
 20
-39.739585002002428
 30
0.0
  0
VERTEX
  5
F56
  8
L1
 10
-62.218787602445282
 20
-39.941714390114349
 30
0.0
  0
VERTEX
  5
F57
  8
L1
 10
-61.556999999999952
 20
-40.012088437774111
 30
0.0
  0
SEQEND
  5
F58
  8
L1
  0
POLYLINE
  5
99B
  8
L1
 66
     1
 10
0.0
 20
0.0
 30
0.0
  0
VERTEX
  5
F59
  8
L1
 10
-61.556999999999952
 20
-40.012088437774111
 30
0.0
  0
VERTEX
  5
F5A
  8
L1
 10
-61.537048032038221
 20
-40.012250207188849
 30
0.0
  0
VERTEX
  5
F5B
  8
L1
 10
-61.517100759268139
 20
-40.012304130909172
 30
0.0
  0
SEQEND
  5
F5C
  8
L1
  0
LINE
  5
99C
  8
L1
 10
-65.012304130909172
 20
36.517100759268168
 30
0.0
 11
-65.012304130909172
 21
-36.517100759268168
 31
0.0
  0
LINE
  5
99D
  8
L1
 10
-63.474886773884457
 20
36.032922207169598
 30
0.0
 11
-63.474886773884457
 21
-36.032922207169598
 31
0.0
  0
LINE
  5
99E
  8
L1
 10
-61.731378230551108
 20
-33.939976070165272
 30
0.0
 11
-61.373929416275018
 21
-33.582527255889168
 31
0.0
  0
ARC
  5
99F
  8
L1
 10
-61.032922207169577
 20
-36.032922207169598
 30
0.0
 40
2.4419645667148311
 50
180.0
 51
270.0
  0
POLYLINE
  5
9A0
  8
L1
 66
     1
 10
0.0
 20
0.0
 30
0.0
  0
VERTEX
  5
F5D
  8
L1
 10
-65.012304130909115
 20
-36.517100759268168
 30
0.0
  0
VERTEX
  5
F5E
  8
L1
 10
-65.012250207188799
 20
-36.53704803203825
 30
0.0
  0
VERTEX
  5
F5F
  8
L1
 10
-65.012088437774082
 20
-36.556999999999988
 30
0.0
  0
SEQEND
  5
F60
  8
L1
  0
POLYLINE
  5
9A1
  8
L1
 66
     1
 10
0.0
 20
0.0
 30
0.0
  0
VERTEX
  5
F61
  8
L1
 10
-61.968447512879258
 20
-34.235083439957663
 30
0.0
  0
VERTEX
  5
F62
  8
L1
 10
-61.956947381994837
 20
-34.169215408078429
 30
0.0
  0
SEQEND
  5
F63
  8
L1
  0
POLYLINE
  5
9A2
  8
L1
 66
     1
 10
0.0
 20
0.0
 30
0.0
  0
VERTEX
  5
F64
  8
L1
 10
-61.956947381994837
 20
-34.169215408078429
 30
0.0
  0
VERTEX
  5
F65
  8
L1
 10
-61.941011860825483
 20
-34.151928417432742
 30
0.0
  0
VERTEX
  5
F66
  8
L1
 10
-61.893612229893392
 20
-34.103328931402608
 30
0.0
  0
VERTEX
  5
F67
  8
L1
 10
-61.820367387864849
 20
-34.029261489383622
 30
0.0
  0
VERTEX
  5
F68
  8
L1
 10
-61.731378230551172
 20
-33.939976070165272
 30
0.0
  0
SEQEND
  5
F69
  8
L1
  0
POLYLINE
  5
9A3
  8
L1
 66
     1
 10
0.0
 20
0.0
 30
0.0
  0
VERTEX
  5
F6A
  8
L1
 10
-61.827046612410527
 20
-34.51793045352494
 30
0.0
  0
VERTEX
  5
F6B
  8
L1
 10
-61.827415601628331
 20
-34.517253515034859
 30
0.0
  0
VERTEX
  5
F6C
  8
L1
 10
-61.883456237530929
 20
-34.411418219002059
 30
0.0
  0
VERTEX
  5
F6D
  8
L1
 10
-61.929433388861348
 20
-34.319510791076389
 30
0.0
  0
VERTEX
  5
F6E
  8
L1
 10
-61.958734697983459
 20
-34.257634950925279
 30
0.0
  0
VERTEX
  5
F6F
  8
L1
 10
-61.968447512879258
 20
-34.235083439957663
 30
0.0
  0
SEQEND
  5
F70
  8
L1
  0
POLYLINE
  5
9A4
  8
L1
 66
     1
 10
0.0
 20
0.0
 30
0.0
  0
VERTEX
  5
F71
  8
L1
 10
-58.93997607016513
 20
-36.731378230551229
 30
0.0
  0
VERTEX
  5
F72
  8
L1
 10
-59.029261489383543
 20
-36.820367387864877
 30
0.0
  0
VERTEX
  5
F73
  8
L1
 10
-59.10332893140253
 20
-36.893612229893499
 30
0.0
  0
VERTEX
  5
F74
  8
L1
 10
-59.1519284174326
 20
-36.94101186082554
 30
0.0
  0
VERTEX
  5
F75
  8
L1
 10
-59.169215408078337
 20
-36.956947381994951
 30
0.0
  0
SEQEND
  5
F76
  8
L1
  0
POLYLINE
  5
9A5
  8
L1
 66
     1
 10
0.0
 20
0.0
 30
0.0
  0
VERTEX
  5
F77
  8
L1
 10
-59.169215408078287
 20
-36.956947381994922
 30
0.0
  0
VERTEX
  5
F78
  8
L1
 10
-59.235083439957627
 20
-36.968447512879521
 30
0.0
  0
SEQEND
  5
F79
  8
L1
  0
POLYLINE
  5
9A6
  8
L1
 66
     1
 10
0.0
 20
0.0
 30
0.0
  0
VERTEX
  5
F7A
  8
L1
 10
-59.235083439957627
 20
-36.968447512879521
 30
0.0
  0
VERTEX
  5
F7B
  8
L1
 10
-59.257634950925187
 20
-36.958734697983601
 30
0.0
  0
VERTEX
  5
F7C
  8
L1
 10
-59.319510791076247
 20
-36.929433388861412
 30
0.0
  0
VERTEX
  5
F7D
  8
L1
 10
-59.411418219001924
 20
-36.883456237531021
 30
0.0
  0
VERTEX
  5
F7E
  8
L1
 10
-59.51725351503466
 20
-36.82741560162841
 30
0.0
  0
VERTEX
  5
F7F
  8
L1
 10
-59.517930453524848
 20
-36.827046612410577
 30
0.0
  0
SEQEND
  5
F80
  8
L1
  0
ARC
  5
9A7
  8
L1
 10
-56.75
 20
-31.750000000000021
 30
0.0
 40
5.7825462644184809
 50
208.59856268375481
 51
241.4014373162465
  0
LINE
  5
9A8
  8
L1
 10
-58.582527255889033
 20
-36.373929416275097
 30
0.0
 11
-58.93997607016513
 21
-36.731378230551229
 31
0.0
  0
ARC
  5
9A9
  8
L1
 10
-56.75
 20
-31.750000000000021
 30
0.0
 40
4.9738193966277233
 50
177.385034386874
 51
201.6191085516997
  0
ARC
  5
9AA
  8
L1
 10
-56.75
 20
31.749999999999972
 30
0.0
 40
5.7825462644184809
 50
118.5985626837534
 51
151.4014373162444
  0
LINE
  5
9AB
  8
L1
 10
-61.373929416274962
 20
33.582527255889062
 30
0.0
 11
-61.731378230551059
 21
33.939976070165208
 31
0.0
  0
POLYLINE
  5
9AC
  8
L1
 66
     1
 10
0.0
 20
0.0
 30
0.0
  0
VERTEX
  5
F81
  8
L1
 10
-61.731378230551172
 20
33.939976070165102
 30
0.0
  0
VERTEX
  5
F82
  8
L1
 10
-61.820367387864792
 20
34.029261489383572
 30
0.0
  0
VERTEX
  5
F83
  8
L1
 10
-61.893612229893392
 20
34.103328931402551
 30
0.0
  0
VERTEX
  5
F84
  8
L1
 10
-61.941011860825483
 20
34.151928417432678
 30
0.0
  0
VERTEX
  5
F85
  8
L1
 10
-61.956947381994837
 20
34.169215408078308
 30
0.0
  0
SEQEND
  5
F86
  8
L1
  0
POLYLINE
  5
9AD
  8
L1
 66
     1
 10
0.0
 20
0.0
 30
0.0
  0
VERTEX
  5
F87
  8
L1
 10
-61.956947381994837
 20
34.169215408078308
 30
0.0
  0
VERTEX
  5
F88
  8
L1
 10
-61.968447512879322
 20
34.235083439957542
 30
0.0
  0
SEQEND
  5
F89
  8
L1
  0
POLYLINE
  5
9AE
  8
L1
 66
     1
 10
0.0
 20
0.0
 30
0.0
  0
VERTEX
  5
F8A
  8
L1
 10
-61.968447512879322
 20
34.235083439957542
 30
0.0
  0
VERTEX
  5
F8B
  8
L1
 10
-61.958734697983509
 20
34.257634950925222
 30
0.0
  0
VERTEX
  5
F8C
  8
L1
 10
-61.929433388861348
 20
34.319510791076283
 30
0.0
  0
VERTEX
  5
F8D
  8
L1
 10
-61.883456237530929
 20
34.411418219002002
 30
0.0
  0
VERTEX
  5
F8E
  8
L1
 10
-61.827415601628331
 20
34.51725351503481
 30
0.0
  0
VERTEX
  5
F8F
  8
L1
 10
-61.827046612410527
 20
34.51793045352494
 30
0.0
  0
SEQEND
  5
F90
  8
L1
  0
ARC
  5
9AF
  8
L1
 10
-56.75
 20
31.749999999999972
 30
0.0
 40
4.9738193966277091
 50
158.38089144830019
 51
182.614965613126
  0
POLYLINE
  5
9B0
  8
L1
 66
     1
 10
0.0
 20
0.0
 30
0.0
  0
VERTEX
  5
F91
  8
L1
 10
-61.557000000000023
 20
40.012088437774111
 30
0.0
  0
VERTEX
  5
F92
  8
L1
 10
-62.218787602445332
 20
39.941714390114413
 30
0.0
  0
VERTEX
  5
F93
  8
L1
 10
-62.873772386241001
 20
39.739585002002428
 30
0.0
  0
VERTEX
  5
F94
  8
L1
 10
-63.476619230896063
 20
39.413440750186084
 30
0.0
  0
VERTEX
  5
F95
  8
L1
 10
-63.989929119073679
 20
38.989929119073587
 30
0.0
  0
VERTEX
  5
F96
  8
L1
 10
-64.413440750186226
 20
38.476619230896027
 30
0.0
  0
VERTEX
  5
F97
  8
L1
 10
-64.739585002002457
 20
37.873772386240908
 30
0.0
  0
VERTEX
  5
F98
  8
L1
 10
-64.941714390114385
 20
37.218787602445239
 30
0.0
  0
VERTEX
  5
F99
  8
L1
 10
-65.012088437774082
 20
36.557000000000038
 30
0.0
  0
SEQEND
  5
F9A
  8
L1
  0
ARC
  5
9B1
  8
L1
 10
-61.032922207169577
 20
36.032922207169598
 30
0.0
 40
2.4419645667148879
 50
90.0
 51
180.0
  0
POLYLINE
  5
9B2
  8
L1
 66
     1
 10
0.0
 20
0.0
 30
0.0
  0
VERTEX
  5
F9B
  8
L1
 10
-65.012088437774082
 20
36.557000000000038
 30
0.0
  0
VERTEX
  5
F9C
  8
L1
 10
-65.012250207188799
 20
36.53704803203825
 30
0.0
  0
VERTEX
  5
F9D
  8
L1
 10
-65.012304130909115
 20
36.517100759268168
 30
0.0
  0
SEQEND
  5
F9E
  8
L1
  0
POLYLINE
  5
9B3
  8
L1
 66
     1
 10
0.0
 20
0.0
 30
0.0
  0
VERTEX
  5
F9F
  8
L1
 10
-61.517100759268139
 20
40.0123041309092
 30
0.0
  0
VERTEX
  5
FA0
  8
L1
 10
-61.537048032038221
 20
40.012250207188828
 30
0.0
  0
VERTEX
  5
FA1
  8
L1
 10
-61.557000000000023
 20
40.012088437774111
 30
0.0
  0
SEQEND
  5
FA2
  8
L1
  0
POLYLINE
  5
9B4
  8
L1
 66
     1
 10
0.0
 20
0.0
 30
0.0
  0
VERTEX
  5
FA3
  8
L1
 10
-59.235083439957457
 20
36.968447512879401
 30
0.0
  0
VERTEX
  5
FA4
  8
L1
 10
-59.16921540807823
 20
36.956947381994922
 30
0.0
  0
SEQEND
  5
FA5
  8
L1
  0
POLYLINE
  5
9B5
  8
L1
 66
     1
 10
0.0
 20
0.0
 30
0.0
  0
VERTEX
  5
FA6
  8
L1
 10
-59.16921540807823
 20
36.956947381994858
 30
0.0
  0
VERTEX
  5
FA7
  8
L1
 10
-59.151928417432543
 20
36.941011860825569
 30
0.0
  0
VERTEX
  5
FA8
  8
L1
 10
-59.10332893140253
 20
36.893612229893357
 30
0.0
  0
VERTEX
  5
FA9
  8
L1
 10
-59.029261489383543
 20
36.82036738786482
 30
0.0
  0
VERTEX
  5
FAA
  8
L1
 10
-58.939976070165073
 20
36.731378230551137
 30
0.0
  0
SEQEND
  5
FAB
  8
L1
  0
POLYLINE
  5
9B6
  8
L1
 66
     1
 10
0.0
 20
0.0
 30
0.0
  0
VERTEX
  5
FAC
  8
L1
 10
-59.517930453524848
 20
36.827046612410548
 30
0.0
  0
VERTEX
  5
FAD
  8
L1
 10
-59.51725351503466
 20
36.827415601628303
 30
0.0
  0
VERTEX
  5
FAE
  8
L1
 10
-59.411418219001924
 20
36.883456237531021
 30
0.0
  0
VERTEX
  5
FAF
  8
L1
 10
-59.319510791076311
 20
36.929433388861383
 30
0.0
  0
VERTEX
  5
FB0
  8
L1
 10
-59.257634950925137
 20
36.958734697983537
 30
0.0
  0
VERTEX
  5
FB1
  8
L1
 10
-59.235083439957457
 20
36.968447512879401
 30
0.0
  0
SEQEND
  5
FB2
  8
L1
  0
LINE
  5
9B7
  8
L1
 10
-58.93997607016501
 20
36.731378230551201
 30
0.0
 11
-58.582527255888863
 21
36.373929416275047
 31
0.0
  0
POLYLINE
  5
9B8
  8
L1
 66
     1
 10
0.0
 20
0.0
 30
0.0
  0
VERTEX
  5
FB3
  8
L1
 10
61.557000000000023
 20
-40.012088437774111
 30
0.0
  0
VERTEX
  5
FB4
  8
L1
 10
62.218787602445389
 20
-39.941714390114349
 30
0.0
  0
VERTEX
  5
FB5
  8
L1
 10
62.873772386241058
 20
-39.739585002002428
 30
0.0
  0
VERTEX
  5
FB6
  8
L1
 10
63.476619230896169
 20
-39.413440750186112
 30
0.0
  0
VERTEX
  5
FB7
  8
L1
 10
63.989929119073622
 20
-38.989929119073587
 30
0.0
  0
VERTEX
  5
FB8
  8
L1
 10
64.413440750186226
 20
-38.476619230896027
 30
0.0
  0
VERTEX
  5
FB9
  8
L1
 10
64.739585002002457
 20
-37.873772386240972
 30
0.0
  0
VERTEX
  5
FBA
  8
L1
 10
64.941714390114385
 20
-37.218787602445303
 30
0.0
  0
VERTEX
  5
FBB
  8
L1
 10
65.012088437774082
 20
-36.556999999999931
 30
0.0
  0
SEQEND
  5
FBC
  8
L1
  0
LINE
  5
9B9
  8
L6
 10
0.0
 20
42.380387065953983
 30
0.0
 11
0.0
 21
-43.834956331357247
 31
0.0
  0
POLYLINE
  5
9BA
  8
L1
 66
     1
 10
0.0
 20
0.0
 30
0.0
  0
VERTEX
  5
FBD
  8
L1
 10
61.517100759268139
 20
-40.012304130909172
 30
0.0
  0
VERTEX
  5
FBE
  8
L1
 10
61.537048032038221
 20
-40.012250207188849
 30
0.0
  0
VERTEX
  5
FBF
  8
L1
 10
61.557000000000023
 20
-40.012088437774111
 30
0.0
  0
SEQEND
  5
FC0
  8
L1
  0
LINE
  5
9BB
  8
L1
 10
47.549999999999947
 20
24.545636566104658
 30
0.0
 11
-47.549999999999947
 21
24.545636566104658
 31
0.0
  0
LINE
  5
9BC
  8
L1
 10
-47.550000000000011
 20
-24.545636566104601
 30
0.0
 11
47.549999999999947
 21
-24.545636566104601
 31
0.0
  0
LINE
  5
9BD
  8
L1
 10
-49.545636566104641
 20
22.550000000000029
 30
0.0
 11
-49.545636566104641
 21
-22.550000000000029
 31
0.0
  0
ARC
  5
9BE
  8
L1
 10
-56.75
 20
-31.750000000000021
 30
0.0
 40
4.9738193966277233
 50
357.38503438687388
 51
92.614965613126088
  0
LINE
  5
9BF
  8
L1
 10
-51.781359906487069
 20
-31.976925122907431
 30
0.0
 11
-56.52307487709254
 21
-36.718640093512931
 31
0.0
  0
ARC
  5
9C0
  8
L1
 10
-47.550000000000011
 20
-22.550000000000029
 30
0.0
 40
1.99563656610462
 50
180.0
 51
270.0
  0
LINE
  5
9C1
  8
L1
 10
-49.550000000000011
 20
-22.550000000000029
 30
0.0
 11
-49.545636566104641
 21
-22.550000000000029
 31
0.0
  0
LINE
  5
9C2
  8
L1
 10
-47.550000000000011
 20
-24.55000000000004
 30
0.0
 11
-47.550000000000011
 21
-24.545636566104601
 31
0.0
  0
ARC
  5
9C3
  8
L1
 10
-47.550000000000011
 20
-22.550000000000029
 30
0.0
 40
2.0
 50
180.0
 51
270.0
  0
ARC
  5
9C4
  8
L1
 10
-56.75
 20
31.749999999999972
 30
0.0
 40
4.9738193966277091
 50
267.38503438687388
 51
2.6149656131260208
  0
ARC
  5
9C5
  8
L1
 10
-47.549999999999947
 20
22.550000000000029
 30
0.0
 40
1.99563656610462
 50
90.0
 51
180.0
  0
ARC
  5
9C6
  8
L1
 10
-47.549999999999947
 20
22.550000000000029
 30
0.0
 40
2.0
 50
90.0
 51
180.0
  0
LINE
  5
9C7
  8
L1
 10
-49.549999999999947
 20
22.550000000000029
 30
0.0
 11
-49.545636566104641
 21
22.550000000000029
 31
0.0
  0
LINE
  5
9C8
  8
L1
 10
-47.549999999999947
 20
24.55000000000004
 30
0.0
 11
-47.549999999999947
 21
24.545636566104658
 31
0.0
  0
LINE
  5
9C9
  8
L1
 10
-56.523074877092647
 20
36.718640093512839
 30
0.0
 11
-51.781359906487182
 21
31.976925122907321
 31
0.0
  0
LINE
  5
9CA
  8
L1
 10
49.545636566104569
 20
-22.549999999999979
 30
0.0
 11
49.545636566104569
 21
22.550000000000029
 31
0.0
  0
LINE
  5
9CB
  8
L1
 10
65.012304130909172
 20
-36.517100759268168
 30
0.0
 11
65.012304130909172
 21
36.517100759268232
 31
0.0
  0
LINE
  5
9CC
  8
L1
 10
63.474886773884521
 20
-36.032922207169548
 30
0.0
 11
63.474886773884521
 21
36.032922207169598
 31
0.0
  0
ARC
  5
9CD
  8
L1
 10
56.750000000000057
 20
-31.750000000000021
 30
0.0
 40
4.9738193966277091
 50
87.385034386873912
 51
182.614965613126
  0
ARC
  5
9CE
  8
L1
 10
56.750000000000057
 20
-31.750000000000021
 30
0.0
 40
4.9738193966277091
 50
267.38503438687388
 51
291.61910855169992
  0
CIRCLE
  5
9CF
  8
L1
 10
56.750000000000057
 20
-31.750000000000021
 30
0.0
 40
6.097393363178492
  0
CIRCLE
  5
9D0
  8
L1
 10
56.750000000000057
 20
-31.750000000000021
 30
0.0
 40
5.7974047862592784
  0
LINE
  5
9D1
  8
L1
 10
56.523074877092647
 20
-36.718640093512867
 30
0.0
 11
51.781359906487182
 21
-31.976925122907431
 31
0.0
  0
ARC
  5
9D2
  8
L1
 10
47.549999999999947
 20
-22.549999999999979
 30
0.0
 40
2.0
 50
270.0
 51
0.0
  0
LINE
  5
9D3
  8
L1
 10
47.549999999999947
 20
-24.549999999999979
 30
0.0
 11
47.549999999999947
 21
-24.545636566104601
 31
0.0
  0
LINE
  5
9D4
  8
L1
 10
49.549999999999947
 20
-22.549999999999979
 30
0.0
 11
49.545636566104569
 21
-22.549999999999979
 31
0.0
  0
LINE
  5
9D5
  8
L1
 10
56.97692512290746
 20
-26.78135990648715
 30
0.0
 11
61.718640093512931
 21
-31.523074877092618
 31
0.0
  0
LINE
  5
9D6
  8
L1
 10
61.373929416275132
 20
-33.582527255888998
 30
0.0
 11
61.731378230551229
 21
-33.939976070165102
 31
0.0
  0
ARC
  5
9D7
  8
L1
 10
56.750000000000057
 20
-31.750000000000021
 30
0.0
 40
5.7825462644184809
 50
298.5985626837562
 51
331.40143731624579
  0
POLYLINE
  5
9D8
  8
L1
 66
     1
 10
0.0
 20
0.0
 30
0.0
  0
VERTEX
  5
FC1
  8
L1
 10
59.235083439957627
 20
-36.968447512879379
 30
0.0
  0
VERTEX
  5
FC2
  8
L1
 10
59.16921540807845
 20
-36.95694738199483
 30
0.0
  0
SEQEND
  5
FC3
  8
L1
  0
POLYLINE
  5
9D9
  8
L1
 66
     1
 10
0.0
 20
0.0
 30
0.0
  0
VERTEX
  5
FC4
  8
L1
 10
59.16921540807845
 20
-36.956947381994922
 30
0.0
  0
VERTEX
  5
FC5
  8
L1
 10
59.151928417432771
 20
-36.94101186082559
 30
0.0
  0
VERTEX
  5
FC6
  8
L1
 10
59.103328931402643
 20
-36.893612229893471
 30
0.0
  0
VERTEX
  5
FC7
  8
L1
 10
59.029261489383771
 20
-36.82036738786482
 30
0.0
  0
VERTEX
  5
FC8
  8
L1
 10
58.939976070165301
 20
-36.731378230551201
 30
0.0
  0
SEQEND
  5
FC9
  8
L1
  0
LINE
  5
9DA
  8
L1
 10
58.939976070165301
 20
-36.731378230551172
 30
0.0
 11
58.582527255889147
 21
-36.373929416275047
 31
0.0
  0
POLYLINE
  5
9DB
  8
L1
 66
     1
 10
0.0
 20
0.0
 30
0.0
  0
VERTEX
  5
FCA
  8
L1
 10
59.517930453525018
 20
-36.827046612410548
 30
0.0
  0
VERTEX
  5
FCB
  8
L1
 10
59.517253515034902
 20
-36.827415601628331
 30
0.0
  0
VERTEX
  5
FCC
  8
L1
 10
59.41141821900203
 20
-36.883456237531021
 30
0.0
  0
VERTEX
  5
FCD
  8
L1
 10
59.319510791076482
 20
-36.929433388861383
 30
0.0
  0
VERTEX
  5
FCE
  8
L1
 10
59.257634950925357
 20
-36.958734697983537
 30
0.0
  0
VERTEX
  5
FCF
  8
L1
 10
59.235083439957627
 20
-36.968447512879379
 30
0.0
  0
SEQEND
  5
FD0
  8
L1
  0
POLYLINE
  5
9DC
  8
L1
 66
     1
 10
0.0
 20
0.0
 30
0.0
  0
VERTEX
  5
FD1
  8
L1
 10
61.731378230551229
 20
-33.939976070165102
 30
0.0
  0
VERTEX
  5
FD2
  8
L1
 10
61.820367387864898
 20
-34.029261489383572
 30
0.0
  0
VERTEX
  5
FD3
  8
L1
 10
61.893612229893513
 20
-34.103328931402501
 30
0.0
  0
VERTEX
  5
FD4
  8
L1
 10
61.94101186082559
 20
-34.151928417432572
 30
0.0
  0
VERTEX
  5
FD5
  8
L1
 10
61.956947381994951
 20
-34.169215408078308
 30
0.0
  0
SEQEND
  5
FD6
  8
L1
  0
POLYLINE
  5
9DD
  8
L1
 66
     1
 10
0.0
 20
0.0
 30
0.0
  0
VERTEX
  5
FD7
  8
L1
 10
61.956947381994951
 20
-34.169215408078308
 30
0.0
  0
VERTEX
  5
FD8
  8
L1
 10
61.968447512879543
 20
-34.235083439957542
 30
0.0
  0
SEQEND
  5
FD9
  8
L1
  0
POLYLINE
  5
9DE
  8
L1
 66
     1
 10
0.0
 20
0.0
 30
0.0
  0
VERTEX
  5
FDA
  8
L1
 10
61.968447512879543
 20
-34.235083439957542
 30
0.0
  0
VERTEX
  5
FDB
  8
L1
 10
61.958734697983573
 20
-34.257634950925159
 30
0.0
  0
VERTEX
  5
FDC
  8
L1
 10
61.929433388861412
 20
-34.319510791076333
 30
0.0
  0
VERTEX
  5
FDD
  8
L1
 10
61.88345623753105
 20
-34.411418219001938
 30
0.0
  0
VERTEX
  5
FDE
  8
L1
 10
61.827415601628381
 20
-34.517253515034753
 30
0.0
  0
VERTEX
  5
FDF
  8
L1
 10
61.827046612410697
 20
-34.51793045352494
 30
0.0
  0
SEQEND
  5
FE0
  8
L1
  0
ARC
  5
9DF
  8
L1
 10
61.032922207169577
 20
-36.032922207169548
 30
0.0
 40
2.44196456671486
 50
270.0
 51
0.0
  0
ARC
  5
9E0
  8
L1
 10
56.750000000000057
 20
-31.750000000000021
 30
0.0
 40
4.9738193966277091
 50
338.38089144830292
 51
2.6149656131260208
  0
POLYLINE
  5
9E1
  8
L1
 66
     1
 10
0.0
 20
0.0
 30
0.0
  0
VERTEX
  5
FE1
  8
L1
 10
65.012088437774139
 20
-36.556999999999931
 30
0.0
  0
VERTEX
  5
FE2
  8
L1
 10
65.012250207188856
 20
-36.5370480320382
 30
0.0
  0
VERTEX
  5
FE3
  8
L1
 10
65.012304130909214
 20
-36.517100759268168
 30
0.0
  0
SEQEND
  5
FE4
  8
L1
  0
LINE
  5
9E2
  8
L1
 10
61.718640093512867
 20
31.523074877092618
 30
0.0
 11
56.976925122907403
 21
26.78135990648715
 31
0.0
  0
ARC
  5
9E3
  8
L1
 10
56.750000000000057
 20
31.749999999999972
 30
0.0
 40
4.9738193966277091
 50
177.385034386874
 51
272.61496561312612
  0
CIRCLE
  5
9E4
  8
L1
 10
56.750000000000057
 20
31.749999999999972
 30
0.0
 40
5.7974047862592784
  0
CIRCLE
  5
9E5
  8
L1
 10
56.750000000000057
 20
31.749999999999972
 30
0.0
 40
6.097393363178492
  0
ARC
  5
9E6
  8
L1
 10
47.549999999999947
 20
22.550000000000029
 30
0.0
 40
1.99563656610462
 50
0.0
 51
90.0
  0
ARC
  5
9E7
  8
L1
 10
47.549999999999947
 20
22.550000000000029
 30
0.0
 40
2.0
 50
0.0
 51
90.0
  0
LINE
  5
9E8
  8
L1
 10
47.549999999999947
 20
24.55000000000004
 30
0.0
 11
47.549999999999947
 21
24.545636566104658
 31
0.0
  0
LINE
  5
9E9
  8
L1
 10
49.549999999999947
 20
22.550000000000029
 30
0.0
 11
49.545636566104569
 21
22.550000000000029
 31
0.0
  0
ARC
  5
9EA
  8
L1
 10
56.750000000000057
 20
31.749999999999972
 30
0.0
 40
4.9738193966277091
 50
68.380891448300062
 51
92.614965613126088
  0
LINE
  5
9EB
  8
L1
 10
51.781359906487239
 20
31.976925122907371
 30
0.0
 11
56.523074877092647
 21
36.718640093512789
 31
0.0
  0
POLYLINE
  5
9EC
  8
L1
 66
     1
 10
0.0
 20
0.0
 30
0.0
  0
VERTEX
  5
FE5
  8
L1
 10
65.012088437774025
 20
36.557000000000038
 30
0.0
  0
VERTEX
  5
FE6
  8
L1
 10
64.941714390114328
 20
37.218787602445303
 30
0.0
  0
VERTEX
  5
FE7
  8
L1
 10
64.739585002002386
 20
37.873772386240972
 30
0.0
  0
VERTEX
  5
FE8
  8
L1
 10
64.413440750186055
 20
38.476619230896141
 30
0.0
  0
VERTEX
  5
FE9
  8
L1
 10
63.989929119073679
 20
38.989929119073587
 30
0.0
  0
VERTEX
  5
FEA
  8
L1
 10
63.476619230896169
 20
39.413440750186084
 30
0.0
  0
VERTEX
  5
FEB
  8
L1
 10
62.873772386241107
 20
39.739585002002428
 30
0.0
  0
VERTEX
  5
FEC
  8
L1
 10
62.218787602445389
 20
39.941714390114413
 30
0.0
  0
VERTEX
  5
FED
  8
L1
 10
61.557000000000023
 20
40.01208843777416
 30
0.0
  0
SEQEND
  5
FEE
  8
L1
  0
ARC
  5
9ED
  8
L1
 10
56.750000000000057
 20
31.749999999999972
 30
0.0
 40
5.7825462644184809
 50
28.598562683754889
 51
61.40143731624368
  0
POLYLINE
  5
9EE
  8
L1
 66
     1
 10
0.0
 20
0.0
 30
0.0
  0
VERTEX
  5
FEF
  8
L1
 10
61.968447512879543
 20
34.235083439957599
 30
0.0
  0
VERTEX
  5
FF0
  8
L1
 10
61.956947381994951
 20
34.169215408078308
 30
0.0
  0
SEQEND
  5
FF1
  8
L1
  0
POLYLINE
  5
9EF
  8
L1
 66
     1
 10
0.0
 20
0.0
 30
0.0
  0
VERTEX
  5
FF2
  8
L1
 10
61.956947381994951
 20
34.169215408078308
 30
0.0
  0
VERTEX
  5
FF3
  8
L1
 10
61.941011860825483
 20
34.151928417432572
 30
0.0
  0
VERTEX
  5
FF4
  8
L1
 10
61.893612229893513
 20
34.103328931402501
 30
0.0
  0
VERTEX
  5
FF5
  8
L1
 10
61.820367387864849
 20
34.029261489383572
 30
0.0
  0
VERTEX
  5
FF6
  8
L1
 10
61.731378230551172
 20
33.939976070165102
 30
0.0
  0
SEQEND
  5
FF7
  8
L1
  0
LINE
  5
9F0
  8
L1
 10
61.731378230551172
 20
33.939976070165102
 30
0.0
 11
61.373929416275068
 21
33.582527255888941
 31
0.0
  0
POLYLINE
  5
9F1
  8
L1
 66
     1
 10
0.0
 20
0.0
 30
0.0
  0
VERTEX
  5
FF8
  8
L1
 10
61.827046612410577
 20
34.517930453524883
 30
0.0
  0
VERTEX
  5
FF9
  8
L1
 10
61.827415601628452
 20
34.517253515034689
 30
0.0
  0
VERTEX
  5
FFA
  8
L1
 10
61.883456237530993
 20
34.411418219001881
 30
0.0
  0
VERTEX
  5
FFB
  8
L1
 10
61.929433388861412
 20
34.319510791076333
 30
0.0
  0
VERTEX
  5
FFC
  8
L1
 10
61.95873469798363
 20
34.257634950925222
 30
0.0
  0
VERTEX
  5
FFD
  8
L1
 10
61.968447512879543
 20
34.235083439957599
 30
0.0
  0
SEQEND
  5
FFE
  8
L1
  0
ARC
  5
9F2
  8
L1
 10
56.750000000000057
 20
31.749999999999972
 30
0.0
 40
4.9738193966277091
 50
357.38503438687388
 51
21.619108551697821
  0
LINE
  5
9F3
  8
L1
 10
58.582527255889147
 20
36.373929416275047
 30
0.0
 11
58.939976070165237
 21
36.731378230551137
 31
0.0
  0
POLYLINE
  5
9F4
  8
L1
 66
     1
 10
0.0
 20
0.0
 30
0.0
  0
VERTEX
  5
FFF
  8
L1
 10
58.939976070165187
 20
36.731378230551137
 30
0.0
  0
VERTEX
  5
1000
  8
L1
 10
59.0292614893836
 20
36.82036738786482
 30
0.0
  0
VERTEX
  5
1001
  8
L1
 10
59.103328931402643
 20
36.893612229893357
 30
0.0
  0
VERTEX
  5
1002
  8
L1
 10
59.151928417432707
 20
36.941011860825512
 30
0.0
  0
VERTEX
  5
1003
  8
L1
 10
59.169215408078337
 20
36.956947381994858
 30
0.0
  0
SEQEND
  5
1004
  8
L1
  0
POLYLINE
  5
9F5
  8
L1
 66
     1
 10
0.0
 20
0.0
 30
0.0
  0
VERTEX
  5
1005
  8
L1
 10
59.169215408078401
 20
36.956947381994922
 30
0.0
  0
VERTEX
  5
1006
  8
L1
 10
59.235083439957577
 20
36.968447512879351
 30
0.0
  0
SEQEND
  5
1007
  8
L1
  0
POLYLINE
  5
9F6
  8
L1
 66
     1
 10
0.0
 20
0.0
 30
0.0
  0
VERTEX
  5
1008
  8
L1
 10
59.235083439957577
 20
36.968447512879351
 30
0.0
  0
VERTEX
  5
1009
  8
L1
 10
59.257634950925187
 20
36.958734697983431
 30
0.0
  0
VERTEX
  5
100A
  8
L1
 10
59.319510791076368
 20
36.929433388861327
 30
0.0
  0
VERTEX
  5
100B
  8
L1
 10
59.41141821900203
 20
36.883456237530901
 30
0.0
  0
VERTEX
  5
100C
  8
L1
 10
59.517253515034831
 20
36.827415601628303
 30
0.0
  0
VERTEX
  5
100D
  8
L1
 10
59.517930453525018
 20
36.827046612410548
 30
0.0
  0
SEQEND
  5
100E
  8
L1
  0
POLYLINE
  5
9F7
  8
L1
 66
     1
 10
0.0
 20
0.0
 30
0.0
  0
VERTEX
  5
100F
  8
L1
 10
61.557000000000023
 20
40.01208843777416
 30
0.0
  0
VERTEX
  5
1010
  8
L1
 10
61.537048032038221
 20
40.012250207188877
 30
0.0
  0
VERTEX
  5
1011
  8
L1
 10
61.517100759268089
 20
40.01230413090925
 30
0.0
  0
SEQEND
  5
1012
  8
L1
  0
ARC
  5
9F8
  8
L1
 10
61.032922207169577
 20
36.032922207169598
 30
0.0
 40
2.4419645667148879
 50
0.0
 51
90.0
  0
POLYLINE
  5
9F9
  8
L1
 66
     1
 10
0.0
 20
0.0
 30
0.0
  0
VERTEX
  5
1013
  8
L1
 10
65.012304130909044
 20
36.517100759268232
 30
0.0
  0
VERTEX
  5
1014
  8
L1
 10
65.012250207188686
 20
36.537048032038307
 30
0.0
  0
VERTEX
  5
1015
  8
L1
 10
65.012088437774025
 20
36.557000000000038
 30
0.0
  0
SEQEND
  5
1016
  8
L1
  0
ENDBLK
  5
98C
  8
0
  0
BLOCK
  8
0
  2
S2
 70
     0
 10
0.0
 20
0.0
 30
0.0
  3
S2
  1

  0
LINE
  5
9FE
  8
L1
 10
9.7901301828236456
 20
-40.012304130909371
 30
0.0
 11
9.0708501521392577
 21
-39.293024100224983
 31
0.0
  0
LINE
  5
9FF
  8
L1
 10
9.7901301828236456
 20
40.0123041309092
 30
0.0
 11
9.7901301828237024
 21
-40.012304130909357
 31
0.0
  0
LINE
  5
A00
  8
L1
 10
9.7901301828236456
 20
-40.012304130909371
 30
0.0
 11
9.0708501521392577
 21
-39.293024100224983
 31
0.0
  0
LINE
  5
A01
  8
L1
 10
19.070850152139251
 20
-38.474886773884599
 30
0.0
 11
17.961685882629009
 21
-39.584051043394851
 31
0.0
  0
LINE
  5
A02
  8
L1
 10
17.961685882629009
 20
39.58405104339473
 30
0.0
 11
17.961685882629009
 21
-39.584051043394851
 31
0.0
  0
LINE
  5
A03
  8
L1
 10
17.96168588262907
 20
-39.584051043394851
 30
0.0
 11
9.7901301828236456
 21
-40.012304130909371
 31
0.0
  0
LINE
  5
A04
  8
L2
 10
16.86898102890018
 20
-22.48693896321447
 30
0.0
 11
16.86898102890018
 21
22.486938963214321
 31
0.0
  0
LINE
  5
A05
  8
L1
 10
8.0
 20
37.95000000000001
 30
0.0
 11
8.0
 21
-37.950000000000131
 31
0.0
  0
LINE
  5
A06
  8
L1
 10
19.070850152139251
 20
-38.474886773884457
 30
0.0
 11
19.070850152139251
 21
38.474886773884492
 31
0.0
  0
LINE
  5
A07
  8
L1
 10
9.0708501521392577
 20
-39.293024100224983
 30
0.0
 11
9.0708501521392577
 21
39.293024100224862
 31
0.0
  0
LINE
  5
A08
  8
L6
 10
0.0
 20
0.0
 30
0.0
 11
27.070850152139251
 21
0.0
 31
0.0
  0
ARC
  5
A09
  8
L1
 10
8.3708501521392691
 20
-37.950000000000351
 30
0.0
 40
0.3708501521392529
 50
180.0
 51
259.99999999999812
  0
LINE
  5
A0A
  8
L1
 10
8.3064526990327732
 20
-38.315216105032817
 30
0.0
 11
9.0708501521392577
 21
-38.450000000000358
 31
0.0
  0
LINE
  5
A0B
  8
L2
 10
9.0708501521392577
 20
-22.95000000000007
 30
0.0
 11
16.578703236631611
 21
-22.75339994797659
 31
0.0
  0
ARC
  5
A0C
  8
L2
 10
16.570850152139251
 20
-22.453502750483921
 30
0.0
 40
0.3000000000000007
 50
271.49999999999937
 51
353.6008584703909
  0
LINE
  5
A0D
  8
L2
 10
9.0708501521392577
 20
22.94999999999995
 30
0.0
 11
16.578703236631611
 21
22.753399947976469
 31
0.0
  0
ARC
  5
A0E
  8
L2
 10
16.570850152139251
 20
22.4535027504838
 30
0.0
 40
0.3000000000000007
 50
6.3991415296090439
 51
88.50000000000054
  0
LINE
  5
A0F
  8
L1
 10
17.96168588262907
 20
39.58405104339473
 30
0.0
 11
9.7901301828236456
 21
40.01230413090925
 31
0.0
  0
LINE
  5
A10
  8
L1
 10
9.7901301828236456
 20
40.01230413090925
 30
0.0
 11
9.0708501521392577
 21
39.293024100224862
 31
0.0
  0
ARC
  5
A11
  8
L1
 10
8.3708501521392691
 20
37.950000000000237
 30
0.0
 40
0.3708501521392529
 50
99.999999999998607
 51
180.0
  0
LINE
  5
A12
  8
L1
 10
8.3064526990327732
 20
38.315216105032697
 30
0.0
 11
9.0708501521392577
 21
38.450000000000237
 31
0.0
  0
LINE
  5
A13
  8
L1
 10
19.070850152139251
 20
38.474886773884492
 30
0.0
 11
17.961685882629009
 21
39.58405104339473
 31
0.0
  0
ENDBLK
  5
9FD
  8
0
  0
BLOCK
  8
0
  2
L1
 70
     0
 10
0.0
 20
0.0
 30
0.0
  3
L1
  1

  0
LINE
  5
A18
  8
L1
 10
-62.949999999999932
 20
-19.070850152139279
 30
0.0
 11
62.950000000000273
 21
-19.070850152139251
 31
0.0
  0
LINE
  5
A19
  8
L1
 10
-61.517100759268139
 20
-17.280719969315552
 30
0.0
 11
61.517100759268139
 21
-17.280719969315552
 31
0.0
  0
LINE
  5
A1A
  8
L1
 10
61.557000000000023
 20
-18.0
 30
0.0
 11
-61.556999999999952
 21
-18.0
 31
0.0
  0
LINE
  5
A1B
  8
L1
 10
64.58407541844997
 20
-9.1096293732707068
 30
0.0
 11
-64.584075418449913
 21
-9.1096293732707068
 31
0.0
  0
LINE
  5
A1C
  8
L1
 10
-63.474886773884577
 20
-8.0
 30
0.0
 11
63.474886773884521
 21
-8.0
 31
0.0
  0
LINE
  5
A1D
  8
L1
 10
-63.315216105032391
 20
-18.764397453106419
 30
0.0
 11
-63.449437521063771
 21
-18.003189976564268
 31
0.0
  0
ARC
  5
A1E
  8
L1
 10
-62.949999999999932
 20
-18.699999999999989
 30
0.0
 40
0.3708501521392529
 50
189.99999999999531
 51
270.0
  0
LINE
  5
A1F
  8
L1
 10
-64.584075418449913
 20
-9.1096293732707068
 30
0.0
 11
-65.012304130909172
 21
-17.280719969315552
 31
0.0
  0
POLYLINE
  5
A20
  8
L1
 66
     1
 10
0.0
 20
0.0
 30
0.0
  0
VERTEX
  5
1019
  8
L1
 10
-65.012088437774082
 20
-17.280935662450581
 30
0.0
  0
VERTEX
  5
101A
  8
L1
 10
-64.941714390114328
 20
-17.287219331410249
 30
0.0
  0
VERTEX
  5
101B
  8
L1
 10
-64.739585002002386
 20
-17.291791702122389
 30
0.0
  0
VERTEX
  5
101C
  8
L1
 10
-64.413440750186055
 20
-17.29448494587097
 30
0.0
  0
VERTEX
  5
101D
  8
L1
 10
-63.989929119073622
 20
-17.295342743738381
 30
0.0
  0
VERTEX
  5
101E
  8
L1
 10
-63.476619230896063
 20
-17.29448494587097
 30
0.0
  0
VERTEX
  5
101F
  8
L1
 10
-62.873772386241001
 20
-17.291791702122449
 30
0.0
  0
VERTEX
  5
1020
  8
L1
 10
-62.218787602445282
 20
-17.287219331410249
 30
0.0
  0
VERTEX
  5
1021
  8
L1
 10
-61.556999999999952
 20
-17.280935662450581
 30
0.0
  0
SEQEND
  5
1022
  8
L1
  0
LINE
  5
A21
  8
L1
 10
-61.556999999999952
 20
-18.0
 30
0.0
 11
-64.293024100224713
 21
-18.0
 31
0.0
  0
POLYLINE
  5
A22
  8
L1
 66
     1
 10
0.0
 20
0.0
 30
0.0
  0
VERTEX
  5
1023
  8
L1
 10
-65.012304130909115
 20
-17.280719969315609
 30
0.0
  0
VERTEX
  5
1024
  8
L1
 10
-65.012250207188799
 20
-17.280773893035921
 30
0.0
  0
VERTEX
  5
1025
  8
L1
 10
-65.012088437774082
 20
-17.280935662450641
 30
0.0
  0
SEQEND
  5
1026
  8
L1
  0
LINE
  5
A23
  8
L1
 10
-65.012088437774082
 20
-17.280935662450581
 30
0.0
 11
-64.29302410022467
 21
-18.0
 31
0.0
  0
POLYLINE
  5
A24
  8
L1
 66
     1
 10
0.0
 20
0.0
 30
0.0
  0
VERTEX
  5
1027
  8
L1
 10
-61.556999999999952
 20
-17.280935662450641
 30
0.0
  0
VERTEX
  5
1028
  8
L1
 10
-61.537048032038221
 20
-17.280773893035921
 30
0.0
  0
VERTEX
  5
1029
  8
L1
 10
-61.517100759268139
 20
-17.280719969315552
 30
0.0
  0
SEQEND
  5
102A
  8
L1
  0
LINE
  5
A25
  8
L1
 10
-63.474886773884577
 20
-8.0
 30
0.0
 11
-64.584051043394652
 21
-9.1091642695100745
 31
0.0
  0
LINE
  5
A26
  8
L2
 10
-47.41634922241942
 20
-10.20836848533372
 30
0.0
 11
47.416349222367273
 21
-10.20836848533372
 31
0.0
  0
LINE
  5
A27
  8
L2
 10
-47.879410259205031
 20
-18.00649936209464
 30
0.0
 11
-47.682810207181547
 21
-10.49864627760229
 31
0.0
  0
ARC
  5
A28
  8
L2
 10
-47.382913009688878
 20
-10.50649936209464
 30
0.0
 40
0.3000000000000007
 50
96.399141529609238
 51
178.49999999999889
  0
LINE
  5
A29
  8
L6
 10
0.0
 20
0.0
 30
0.0
 11
0.0
 21
-27.070850152139251
 31
0.0
  0
LINE
  5
A2A
  8
L1
 10
63.315216105032732
 20
-18.764397453106479
 30
0.0
 11
63.449437655826728
 21
-18.003189212287559
 31
0.0
  0
ARC
  5
A2B
  8
L1
 10
62.950000000000273
 20
-18.699999999999989
 30
0.0
 40
0.3708501521392529
 50
269.99999999999022
 51
350.00000000000131
  0
LINE
  5
A2C
  8
L2
 10
47.879410259205031
 20
-18.00649936209464
 30
0.0
 11
47.682810207181547
 21
-10.49864627760229
 31
0.0
  0
ARC
  5
A2D
  8
L2
 10
47.382913009688878
 20
-10.50649936209464
 30
0.0
 40
0.3000000000000007
 50
1.5000000000011089
 51
83.600858470390776
  0
LINE
  5
A2E
  8
L1
 10
65.012088437774082
 20
-17.280935662450531
 30
0.0
 11
64.293024100224613
 21
-18.0
 31
0.0
  0
LINE
  5
A2F
  8
L1
 10
65.012304130909172
 20
-17.280719969315658
 30
0.0
 11
64.58407541844997
 21
-9.1096293732707068
 31
0.0
  0
POLYLINE
  5
A30
  8
L1
 66
     1
 10
0.0
 20
0.0
 30
0.0
  0
VERTEX
  5
102B
  8
L1
 10
61.557000000000023
 20
-17.280935662450531
 30
0.0
  0
VERTEX
  5
102C
  8
L1
 10
62.218787602445389
 20
-17.287219331410189
 30
0.0
  0
VERTEX
  5
102D
  8
L1
 10
62.873772386241058
 20
-17.291791702122389
 30
0.0
  0
VERTEX
  5
102E
  8
L1
 10
63.476619230896169
 20
-17.29448494587097
 30
0.0
  0
VERTEX
  5
102F
  8
L1
 10
63.989929119073622
 20
-17.295342743738381
 30
0.0
  0
VERTEX
  5
1030
  8
L1
 10
64.413440750186226
 20
-17.29448494587097
 30
0.0
  0
VERTEX
  5
1031
  8
L1
 10
64.739585002002457
 20
-17.291791702122449
 30
0.0
  0
VERTEX
  5
1032
  8
L1
 10
64.941714390114385
 20
-17.28721933141037
 30
0.0
  0
VERTEX
  5
1033
  8
L1
 10
65.012088437774082
 20
-17.280935662450531
 30
0.0
  0
SEQEND
  5
1034
  8
L1
  0
POLYLINE
  5
A31
  8
L1
 66
     1
 10
0.0
 20
0.0
 30
0.0
  0
VERTEX
  5
1035
  8
L1
 10
61.517100759268139
 20
-17.280719969315552
 30
0.0
  0
VERTEX
  5
1036
  8
L1
 10
61.537048032038221
 20
-17.280773893035871
 30
0.0
  0
VERTEX
  5
1037
  8
L1
 10
61.557000000000023
 20
-17.280935662450641
 30
0.0
  0
SEQEND
  5
1038
  8
L1
  0
LINE
  5
A32
  8
L1
 10
64.293024100224784
 20
-18.0
 30
0.0
 11
61.557000000000023
 21
-18.0
 31
0.0
  0
LINE
  5
A33
  8
L1
 10
63.474886773884521
 20
-8.0
 30
0.0
 11
64.584051043394709
 21
-9.1091642695101882
 31
0.0
  0
POLYLINE
  5
A34
  8
L1
 66
     1
 10
0.0
 20
0.0
 30
0.0
  0
VERTEX
  5
1039
  8
L1
 10
65.012088437774139
 20
-17.280935662450759
 30
0.0
  0
VERTEX
  5
103A
  8
L1
 10
65.012250207188856
 20
-17.280773893036041
 30
0.0
  0
VERTEX
  5
103B
  8
L1
 10
65.012304130909214
 20
-17.280719969315658
 30
0.0
  0
SEQEND
  5
103C
  8
L1
  0
ENDBLK
  5
A17
  8
0
  0
BLOCK
  8
0
  2
L2
 70
     0
 10
0.0
 20
0.0
 30
0.0
  3
L2
  1

  0
LINE
  5
A39
  8
L1
 10
-61.517100759268139
 20
-9.7901301828237024
 30
0.0
 11
61.517100759268139
 21
-9.7901301828237024
 31
0.0
  0
LINE
  5
A3A
  8
L1
 10
61.557000000000023
 20
-9.0708501521392577
 30
0.0
 11
-61.556999999999952
 21
-9.0708501521392577
 31
0.0
  0
LINE
  5
A3B
  8
L1
 10
-62.949999999999932
 20
-7.9999999999999707
 30
0.0
 11
62.950000000000273
 21
-8.0
 31
0.0
  0
LINE
  5
A3C
  8
L1
 10
64.584051043394709
 20
-17.96168588262907
 30
0.0
 11
-64.584051043394652
 21
-17.96168588262918
 31
0.0
  0
LINE
  5
A3D
  8
L1
 10
-63.474886773884577
 20
-19.070850152139251
 30
0.0
 11
63.474886773884521
 21
-19.070850152139251
 31
0.0
  0
LINE
  5
A3E
  8
L1
 10
-63.474886773884577
 20
-19.070850152139251
 30
0.0
 11
-64.584051043394652
 21
-17.96168588262918
 31
0.0
  0
LINE
  5
A3F
  8
L1
 10
-64.584075418449913
 20
-17.961220778868551
 30
0.0
 11
-65.012304130909172
 21
-9.7901301828237024
 31
0.0
  0
POLYLINE
  5
A40
  8
L1
 66
     1
 10
0.0
 20
0.0
 30
0.0
  0
VERTEX
  5
103E
  8
L1
 10
-65.012088437774082
 20
-9.7899144896886696
 30
0.0
  0
VERTEX
  5
103F
  8
L1
 10
-64.941714390114328
 20
-9.7836308207290017
 30
0.0
  0
VERTEX
  5
1040
  8
L1
 10
-64.739585002002386
 20
-9.779058450016862
 30
0.0
  0
VERTEX
  5
1041
  8
L1
 10
-64.413440750186055
 20
-9.7763652062682809
 30
0.0
  0
VERTEX
  5
1042
  8
L1
 10
-63.989929119073622
 20
-9.7755074084008697
 30
0.0
  0
VERTEX
  5
1043
  8
L1
 10
-63.476619230896063
 20
-9.7763652062682809
 30
0.0
  0
VERTEX
  5
1044
  8
L1
 10
-62.873772386241001
 20
-9.7790584500168052
 30
0.0
  0
VERTEX
  5
1045
  8
L1
 10
-62.218787602445282
 20
-9.7836308207290017
 30
0.0
  0
VERTEX
  5
1046
  8
L1
 10
-61.556999999999952
 20
-9.7899144896886696
 30
0.0
  0
SEQEND
  5
1047
  8
L1
  0
LINE
  5
A41
  8
L1
 10
-61.556999999999952
 20
-9.0708501521392577
 30
0.0
 11
-64.293024100224713
 21
-9.0708501521392577
 31
0.0
  0
POLYLINE
  5
A42
  8
L1
 66
     1
 10
0.0
 20
0.0
 30
0.0
  0
VERTEX
  5
1048
  8
L1
 10
-65.012304130909115
 20
-9.7901301828236456
 30
0.0
  0
VERTEX
  5
1049
  8
L1
 10
-65.012250207188799
 20
-9.7900762591033281
 30
0.0
  0
VERTEX
  5
104A
  8
L1
 10
-65.012088437774082
 20
-9.7899144896886128
 30
0.0
  0
SEQEND
  5
104B
  8
L1
  0
LINE
  5
A43
  8
L1
 10
-65.012088437774082
 20
-9.7899144896886696
 30
0.0
 11
-64.29302410022467
 21
-9.0708501521392577
 31
0.0
  0
ARC
  5
A44
  8
L1
 10
-62.949999999999932
 20
-8.3708501521392691
 30
0.0
 40
0.3708501521392529
 50
90.0
 51
170.00000000000401
  0
LINE
  5
A45
  8
L1
 10
-63.315216105032391
 20
-8.3064526990328318
 30
0.0
 11
-63.449437521063771
 21
-9.0676601755749857
 31
0.0
  0
POLYLINE
  5
A46
  8
L1
 66
     1
 10
0.0
 20
0.0
 30
0.0
  0
VERTEX
  5
104C
  8
L1
 10
-61.556999999999952
 20
-9.7899144896886128
 30
0.0
  0
VERTEX
  5
104D
  8
L1
 10
-61.537048032038221
 20
-9.7900762591033281
 30
0.0
  0
VERTEX
  5
104E
  8
L1
 10
-61.517100759268139
 20
-9.7901301828237024
 30
0.0
  0
SEQEND
  5
104F
  8
L1
  0
LINE
  5
A47
  8
L2
 10
-47.41634922241942
 20
-16.862481666805529
 30
0.0
 11
47.416349222367273
 21
-16.862481666805529
 31
0.0
  0
LINE
  5
A48
  8
L6
 10
0.0
 20
-27.070850152139251
 30
0.0
 11
0.0
 21
0.0
 31
0.0
  0
LINE
  5
A49
  8
L2
 10
-47.879410259205031
 20
-9.0643507900446139
 30
0.0
 11
-47.682810207181547
 21
-16.57220387453696
 31
0.0
  0
ARC
  5
A4A
  8
L2
 10
-47.382913009688878
 20
-16.56435079004461
 30
0.0
 40
0.3000000000000007
 50
181.5000000000004
 51
263.60085847039079
  0
LINE
  5
A4B
  8
L1
 10
63.474886773884521
 20
-19.070850152139251
 30
0.0
 11
64.584051043394709
 21
-17.96168588262907
 31
0.0
  0
LINE
  5
A4C
  8
L2
 10
47.879410259205031
 20
-9.0643507900446139
 30
0.0
 11
47.682810207181547
 21
-16.57220387453696
 31
0.0
  0
ARC
  5
A4D
  8
L2
 10
47.382913009688878
 20
-16.56435079004461
 30
0.0
 40
0.3000000000000007
 50
276.3991415296091
 51
358.49999999999949
  0
LINE
  5
A4E
  8
L1
 10
65.012088437774082
 20
-9.7899144896887265
 30
0.0
 11
64.293024100224613
 21
-9.0708501521392577
 31
0.0
  0
POLYLINE
  5
A4F
  8
L1
 66
     1
 10
0.0
 20
0.0
 30
0.0
  0
VERTEX
  5
1050
  8
L1
 10
61.557000000000023
 20
-9.7899144896887265
 30
0.0
  0
VERTEX
  5
1051
  8
L1
 10
62.218787602445389
 20
-9.7836308207290585
 30
0.0
  0
VERTEX
  5
1052
  8
L1
 10
62.873772386241058
 20
-9.779058450016862
 30
0.0
  0
VERTEX
  5
1053
  8
L1
 10
63.476619230896169
 20
-9.7763652062682809
 30
0.0
  0
VERTEX
  5
1054
  8
L1
 10
63.989929119073622
 20
-9.7755074084008697
 30
0.0
  0
VERTEX
  5
1055
  8
L1
 10
64.413440750186226
 20
-9.7763652062682809
 30
0.0
  0
VERTEX
  5
1056
  8
L1
 10
64.739585002002457
 20
-9.7790584500168052
 30
0.0
  0
VERTEX
  5
1057
  8
L1
 10
64.941714390114385
 20
-9.783630820728888
 30
0.0
  0
VERTEX
  5
1058
  8
L1
 10
65.012088437774082
 20
-9.7899144896887265
 30
0.0
  0
SEQEND
  5
1059
  8
L1
  0
LINE
  5
A50
  8
L1
 10
65.012304130909172
 20
-9.7901301828235887
 30
0.0
 11
64.58407541844997
 21
-17.961220778868551
 31
0.0
  0
ARC
  5
A51
  8
L1
 10
62.950000000000273
 20
-8.3708501521392691
 30
0.0
 40
0.3708501521392529
 50
9.9999999999988081
 51
90.000000000009777
  0
LINE
  5
A52
  8
L1
 10
63.315216105032732
 20
-8.3064526990327732
 30
0.0
 11
63.449437655826728
 21
-9.0676609398516916
 31
0.0
  0
POLYLINE
  5
A53
  8
L1
 66
     1
 10
0.0
 20
0.0
 30
0.0
  0
VERTEX
  5
105A
  8
L1
 10
61.517100759268139
 20
-9.7901301828237024
 30
0.0
  0
VERTEX
  5
105B
  8
L1
 10
61.537048032038221
 20
-9.7900762591033867
 30
0.0
  0
VERTEX
  5
105C
  8
L1
 10
61.557000000000023
 20
-9.7899144896886128
 30
0.0
  0
SEQEND
  5
105D
  8
L1
  0
LINE
  5
A54
  8
L1
 10
64.293024100224784
 20
-9.0708501521392577
 30
0.0
 11
61.557000000000023
 21
-9.0708501521392577
 31
0.0
  0
POLYLINE
  5
A55
  8
L1
 66
     1
 10
0.0
 20
0.0
 30
0.0
  0
VERTEX
  5
105E
  8
L1
 10
65.012088437774139
 20
-9.7899144896884991
 30
0.0
  0
VERTEX
  5
105F
  8
L1
 10
65.012250207188856
 20
-9.7900762591032162
 30
0.0
  0
VERTEX
  5
1060
  8
L1
 10
65.012304130909214
 20
-9.7901301828235887
 30
0.0
  0
SEQEND
  5
1061
  8
L1
  0
ENDBLK
  5
A38
  8
0
  0
ENDSEC
  0
SECTION
  2
ENTITIES
  0
INSERT
  5
964
  8
L1
  2
B
 10
72.199730113494638
 20
95.241873978496344
 30
0.0
  0
INSERT
  5
989
  8
L1
  2
S1
 10
157.2201997970175
 20
95.241873978496344
 30
0.0
  0
INSERT
  5
9FA
  8
L1
  2
T
 10
268.25868267725428
 20
95.241873978496344
 30
0.0
  0
INSERT
  5
A14
  8
L1
  2
S2
 10
352.22631540535178
 20
95.241873978496344
 30
0.0
  0
INSERT
  5
A35
  8
L1
  2
L1
 10
268.25868267725428
 20
189.7182733835333
 30
0.0
  0
INSERT
  5
A56
  8
L1
  2
L2
 10
268.25868267725428
 20
27.836324725598612
 30
0.0
  0
ENDSEC
  0
EOF
