  0
SECTION
  2
HEADER
  9
$ACADVER
  1
AC1009
  9
$INSBASE
 10
0.0
 20
0.0
 30
0.0
  9
$EXTMIN
 10
-255.0
 20
98.0
 30
0.0
  9
$EXTMAX
 10
347.0
 20
485.475221
 30
0.0
  9
$LIMMIN
 10
0.0
 20
0.0
  9
$LIMMAX
 10
420.0
 20
297.0
  9
$ORTHOMODE
 70
     0
  9
$REGENMODE
 70
     1
  9
$FILLMODE
 70
     1
  9
$QTEXTMODE
 70
     0
  9
$MIRRTEXT
 70
     1
  9
$DRAGMODE
 70
     2
  9
$LTSCALE
 40
7.0
  9
$OSMODE
 70
     0
  9
$ATTMODE
 70
     1
  9
$TEXTSIZE
 40
3.5
  9
$TRACEWID
 40
0.05
  9
$TEXTSTYLE
  7
STANDARD
  9
$CLAYER
  8
L1
  9
$CELTYPE
  6
BYLAYER
  9
$CECOLOR
 62
   256
  9
$DIMSCALE
 40
1.0
  9
$DIMASZ
 40
3.5
  9
$DIMEXO
 40
0.0
  9
$DIMDLI
 40
10.0
  9
$DIMRND
 40
0.0
  9
$DIMDLE
 40
0.0
  9
$DIMEXE
 40
2.0
  9
$DIMTP
 40
0.0
  9
$DIMTM
 40
0.0
  9
$DIMTXT
 40
3.5
  9
$DIMCEN
 40
2.5
  9
$DIMTSZ
 40
0.0
  9
$DIMTOL
 70
     0
  9
$DIMLIM
 70
     0
  9
$DIMTIH
 70
     0
  9
$DIMTOH
 70
     0
  9
$DIMSE1
 70
     0
  9
$DIMSE2
 70
     0
  9
$DIMTAD
 70
     1
  9
$DIMZIN
 70
     8
  9
$DIMBLK
  1

  9
$DIMASO
 70
     1
  9
$DIMSHO
 70
     1
  9
$DIMPOST
  1

  9
$DIMAPOST
  1

  9
$DIMALT
 70
     0
  9
$DIMALTD
 70
     2
  9
$DIMALTF
 40
25.4
  9
$DIMLFAC
 40
1.0
  9
$DIMTOFL
 70
     1
  9
$DIMTVP
 40
0.0
  9
$DIMTIX
 70
     0
  9
$DIMSOXD
 70
     0
  9
$DIMSAH
 70
     0
  9
$DIMBLK1
  1

  9
$DIMBLK2
  1

  9
$DIMSTYLE
  2
*UNNAMED
  9
$DIMCLRD
 70
   256
  9
$DIMCLRE
 70
   256
  9
$DIMCLRT
 70
     3
  9
$DIMTFAC
 40
1.0
  9
$DIMGAP
 40
2.0
  9
$LUNITS
 70
     2
  9
$LUPREC
 70
     2
  9
$SKETCHINC
 40
1.0
  9
$FILLETRAD
 40
0.0
  9
$AUNITS
 70
     0
  9
$AUPREC
 70
     2
  9
$MENU
  1
CAESAR
  9
$ELEVATION
 40
0.0
  9
$PELEVATION
 40
0.0
  9
$THICKNESS
 40
0.0
  9
$LIMCHECK
 70
     0
  9
$BLIPMODE
 70
     1
  9
$CHAMFERA
 40
5.0
  9
$CHAMFERB
 40
5.0
  9
$SKPOLY
 70
     0
  9
$TDCREATE
 40
2449682.497793403
  9
$TDUPDATE
 40
2449682.497793403
  9
$TDINDWG
 40
0.0000000000
  9
$TDUSRTIMER
 40
0.0000000000
  9
$USRTIMER
 70
     1
  9
$ANGBASE
 50
0.0
  9
$ANGDIR
 70
     0
  9
$PDMODE
 70
     0
  9
$PDSIZE
 40
0.0
  9
$PLINEWID
 40
0.0
  9
$COORDS
 70
     2
  9
$SPLFRAME
 70
     0
  9
$SPLINETYPE
 70
     6
  9
$SPLINESEGS
 70
     8
  9
$ATTDIA
 70
     0
  9
$ATTREQ
 70
     1
  9
$HANDLING
 70
     1
  9
$HANDSEED
  5
A038
  9
$SURFTAB1
 70
     6
  9
$SURFTAB2
 70
     6
  9
$SURFTYPE
 70
     6
  9
$SURFU
 70
     6
  9
$SURFV
 70
     6
  9
$UCSNAME
  2

  9
$UCSORG
 10
0.0
 20
0.0
 30
0.0
  9
$UCSXDIR
 10
1.0
 20
0.0
 30
0.0
  9
$UCSYDIR
 10
0.0
 20
1.0
 30
0.0
  9
$PUCSNAME
  2

  9
$PUCSORG
 10
0.0
 20
0.0
 30
0.0
  9
$PUCSXDIR
 10
1.0
 20
0.0
 30
0.0
  9
$PUCSYDIR
 10
0.0
 20
1.0
 30
0.0
  9
$USERI1
 70
     0
  9
$USERI2
 70
     0
  9
$USERI3
 70
     0
  9
$USERI4
 70
     0
  9
$USERI5
 70
     0
  9
$USERR1
 40
1.0
  9
$USERR2
 40
0.0
  9
$USERR3
 40
3.5
  9
$USERR4
 40
0.0
  9
$USERR5
 40
0.0
  9
$WORLDVIEW
 70
     1
  9
$SHADEDGE
 70
     3
  9
$SHADEDIF
 70
    70
  9
$TILEMODE
 70
     1
  9
$MAXACTVP
 70
    16
  9
$PINSBASE
 10
0.0
 20
0.0
 30
0.0
  9
$PLIMCHECK
 70
     0
  9
$PEXTMIN
 10
1.000000E+20
 20
1.000000E+20
 30
1.000000E+20
  9
$PEXTMAX
 10
-1.000000E+20
 20
-1.000000E+20
 30
-1.000000E+20
  9
$PLIMMIN
 10
0.0
 20
0.0
  9
$PLIMMAX
 10
420.0
 20
297.0
  9
$UNITMODE
 70
     0
  9
$VISRETAIN
 70
     0
  9
$PLINEGEN
 70
     0
  9
$PSLTSCALE
 70
     0
  9
$TREEDEPTH
 70
  3020
  9
$DWGCODEPAGE
  3
dos850
  0
ENDSEC
  0
SECTION
  2
TABLES
  0
TABLE
  2
VPORT
 70
     2
  0
VPORT
  2
*ACTIVE
 70
     0
 10
0.0
 20
0.0
 11
1.0
 21
1.0
 12
287.564723
 22
225.231556
 13
0.0
 23
0.0
 14
1.0
 24
1.0
 15
10.0
 25
10.0
 16
0.0
 26
0.0
 36
1.0
 17
0.0
 27
0.0
 37
0.0
 40
456.463112
 41
1.273114
 42
50.0
 43
0.0
 44
0.0
 50
0.0
 51
0.0
 71
     0
 72
  1000
 73
     1
 74
     1
 75
     1
 76
     0
 77
     0
 78
     0
  0
ENDTAB
  0
TABLE
  2
LTYPE
 70
    10
  0
LTYPE
  2
CONTINUOUS
 70
    64
  3
Solid line
 72
    65
 73
     0
 40
0.0
  0
LTYPE
  2
BORDER
 70
     0
  3
__ __ . __ __ . __ __ . __ __ . __ __ . __ __ .
 72
    65
 73
     6
 40
1.75
 49
0.5
 49
-0.25
 49
0.5
 49
-0.25
 49
0.0
 49
-0.25
  0
LTYPE
  2
CENTER
 70
    64
  3
____ _ ____ _ ____ _ ____ _ ____ _ ____ _ ____ 
 72
    65
 73
     4
 40
2.0
 49
1.25
 49
-0.25
 49
0.25
 49
-0.25
  0
LTYPE
  2
DASHDOT
 70
     0
  3
__ . __ . __ . __ . __ . __ . __ . __ . __ . __
 72
    65
 73
     4
 40
1.0
 49
0.5
 49
-0.25
 49
0.0
 49
-0.25
  0
LTYPE
  2
DASHED
 70
    64
  3
__ __ __ __ __ __ __ __ __ __ __ __ __ __ __ __
 72
    65
 73
     2
 40
0.75
 49
0.5
 49
-0.25
  0
LTYPE
  2
DIVIDE
 70
     0
  3
____ . . ____ . . ____ . . ____ . . ____ . . __
 72
    65
 73
     6
 40
1.25
 49
0.5
 49
-0.25
 49
0.0
 49
-0.25
 49
0.0
 49
-0.25
  0
LTYPE
  2
DOT
 70
     0
  3
. . . . . . . . . . . . . . . . . . . . . . . .
 72
    65
 73
     2
 40
0.25
 49
0.0
 49
-0.25
  0
LTYPE
  2
HIDDEN
 70
    64
  3
__ __ __ __ __ __ __ __ __ __ __ __ __ __ __ __
 72
    65
 73
     2
 40
0.375
 49
0.25
 49
-0.125
  0
LTYPE
  2
PHANTOM
 70
    64
  3
______  __  __  ______  __  __  ______  __  __ 
 72
    65
 73
     6
 40
2.5
 49
1.25
 49
-0.25
 49
0.25
 49
-0.25
 49
0.25
 49
-0.25
  0
LTYPE
  2
DOTX2
 70
    64
  3
.  .  .  .  .  .  .  .  .  .  .  .  .  .  .  . 
 72
    65
 73
     2
 40
0.5
 49
0.0
 49
-0.5
  0
ENDTAB
  0
TABLE
  2
LAYER
 70
    75
  0
LAYER
  2
0
 70
    64
 62
     7
  6
CONTINUOUS
  0
LAYER
  2
L1
 70
     0
 62
     3
  6
CONTINUOUS
  0
LAYER
  2
L2
 70
     0
 62
     1
  6
CONTINUOUS
  0
LAYER
  2
L3
 70
     0
 62
     7
  6
DASHED
  0
LAYER
  2
L4
 70
     0
 62
     1
  6
DASHED
  0
LAYER
  2
L5
 70
     0
 62
     6
  6
CENTER
  0
LAYER
  2
L6
 70
     0
 62
     1
  6
CENTER
  0
LAYER
  2
L7
 70
     0
 62
     1
  6
PHANTOM
  0
LAYER
  2
VPORT
 70
     0
 62
     7
  6
CONTINUOUS
  0
LAYER
  2
L8
 70
     0
 62
     1
  6
CONTINUOUS
  0
LAYER
  2
L20
 70
     0
 62
     3
  6
CONTINUOUS
  0
LAYER
  2
L21
 70
     0
 62
     1
  6
CONTINUOUS
  0
LAYER
  2
L22
 70
     0
 62
     1
  6
CONTINUOUS
  0
LAYER
  2
L23
 70
     0
 62
     1
  6
CONTINUOUS
  0
LAYER
  2
L30
 70
     0
 62
     3
  6
CONTINUOUS
  0
LAYER
  2
L31
 70
     0
 62
     1
  6
CONTINUOUS
  0
LAYER
  2
L32
 70
     0
 62
     3
  6
CONTINUOUS
  0
LAYER
  2
L33
 70
     0
 62
     1
  6
CONTINUOUS
  0
LAYER
  2
L34
 70
     0
 62
     3
  6
CONTINUOUS
  0
LAYER
  2
L35
 70
     0
 62
     1
  6
CONTINUOUS
  0
LAYER
  2
L40
 70
     0
 62
     7
  6
CONTINUOUS
  0
LAYER
  2
L41
 70
     0
 62
     1
  6
CONTINUOUS
  0
LAYER
  2
L42
 70
     0
 62
     1
  6
CONTINUOUS
  0
LAYER
  2
L43
 70
     0
 62
     7
  6
CONTINUOUS
  0
LAYER
  2
L44
 70
     0
 62
     1
  6
CONTINUOUS
  0
LAYER
  2
L45
 70
     0
 62
     1
  6
CONTINUOUS
  0
LAYER
  2
L46
 70
     0
 62
     3
  6
CONTINUOUS
  0
LAYER
  2
L50
 70
     0
 62
     7
  6
CONTINUOUS
  0
LAYER
  2
L51
 70
     0
 62
     1
  6
CONTINUOUS
  0
LAYER
  2
L52
 70
     0
 62
     7
  6
CONTINUOUS
  0
LAYER
  2
L53
 70
     0
 62
     1
  6
CONTINUOUS
  0
LAYER
  2
L54
 70
     0
 62
     3
  6
CONTINUOUS
  0
LAYER
  2
L55
 70
     0
 62
     3
  6
CONTINUOUS
  0
LAYER
  2
L56
 70
     0
 62
     3
  6
CONTINUOUS
  0
LAYER
  2
L57
 70
     0
 62
     1
  6
CONTINUOUS
  0
LAYER
  2
L9
 70
     0
 62
     7
  6
HIDDEN
  0
LAYER
  2
L15
 70
     0
 62
     2
  6
CONTINUOUS
  0
LAYER
  2
L16
 70
     0
 62
     5
  6
DOTX2
  0
LAYER
  2
L24
 70
     0
 62
     1
  6
CONTINUOUS
  0
LAYER
  2
A2
 70
     0
 62
     7
  6
CONTINUOUS
  0
LAYER
  2
RA2
 70
     0
 62
     5
  6
CONTINUOUS
  0
LAYER
  2
RA4
 70
    64
 62
     1
  6
DASHED
  0
LAYER
  2
DEFPOINTS
 70
     0
 62
     7
  6
CONTINUOUS
  0
LAYER
  2
TITEL
 70
     0
 62
     7
  6
CONTINUOUS
  0
LAYER
  2
1
 70
     0
 62
     7
  6
CONTINUOUS
  0
LAYER
  2
11
 70
    64
 62
     7
  6
CONTINUOUS
  0
LAYER
  2
12
 70
     0
 62
     1
  6
CONTINUOUS
  0
LAYER
  2
13
 70
    64
 62
     1
  6
CENTER
  0
LAYER
  2
14
 70
     0
 62
     1
  6
DASHED
  0
LAYER
  2
15
 70
     0
 62
     2
  6
DASHED
  0
LAYER
  2
21
 70
    64
 62
     7
  6
CONTINUOUS
  0
LAYER
  2
22
 70
     0
 62
     1
  6
CONTINUOUS
  0
LAYER
  2
23
 70
    64
 62
     1
  6
CENTER
  0
LAYER
  2
24
 70
     0
 62
     1
  6
DASHED
  0
LAYER
  2
25
 70
     0
 62
     2
  6
DASHED
  0
LAYER
  2
31
 70
    64
 62
     7
  6
CONTINUOUS
  0
LAYER
  2
32
 70
     0
 62
     1
  6
CONTINUOUS
  0
LAYER
  2
33
 70
    64
 62
     1
  6
CENTER
  0
LAYER
  2
34
 70
     0
 62
     1
  6
DASHED
  0
LAYER
  2
35
 70
     0
 62
     2
  6
DASHED
  0
LAYER
  2
41
 70
    64
 62
     7
  6
CONTINUOUS
  0
LAYER
  2
42
 70
     0
 62
     1
  6
CONTINUOUS
  0
LAYER
  2
43
 70
    64
 62
     1
  6
CENTER
  0
LAYER
  2
44
 70
     0
 62
     1
  6
DASHED
  0
LAYER
  2
45
 70
     0
 62
     2
  6
DASHED
  0
LAYER
  2
51
 70
    64
 62
     7
  6
CONTINUOUS
  0
LAYER
  2
52
 70
    64
 62
     1
  6
CONTINUOUS
  0
LAYER
  2
53
 70
    64
 62
     1
  6
CENTER
  0
LAYER
  2
54
 70
     0
 62
     1
  6
DASHED
  0
LAYER
  2
55
 70
     0
 62
     2
  6
DASHED
  0
LAYER
  2
61
 70
    64
 62
     7
  6
CONTINUOUS
  0
LAYER
  2
62
 70
     0
 62
     1
  6
CONTINUOUS
  0
LAYER
  2
63
 70
    64
 62
     1
  6
CENTER
  0
LAYER
  2
64
 70
     0
 62
     1
  6
DASHED
  0
LAYER
  2
65
 70
     0
 62
     2
  6
DASHED
  0
ENDTAB
  0
TABLE
  2
STYLE
 70
     3
  0
STYLE
  2
STANDARD
 70
     0
 40
0.0
 41
1.0
 50
0.0
 71
     0
 42
3.5
  3
CAEISO
  4

  0
STYLE
  2
SIMPLEX
 70
    64
 40
0.0
 41
1.0
 50
0.0
 71
     0
 42
20.0
  3
C:\ACAD\FONTS\SIMPLEX.SHX
  4

  0
STYLE
  2
COMPLEX
 70
    64
 40
5.0
 41
1.0
 50
0.0
 71
     0
 42
5.0
  3
C:\ACAD\FONTS\COMPLEX
  4

  0
ENDTAB
  0
TABLE
  2
VIEW
 70
     0
  0
ENDTAB
  0
TABLE
  2
UCS
 70
     0
  0
ENDTAB
  0
TABLE
  2
APPID
 70
     1
  0
APPID
  2
ACAD
 70
    64
  0
ENDTAB
  0
TABLE
  2
DIMSTYLE
 70
     6
  0
DIMSTYLE
  2
ACADUS
 70
     0
  3

  4

  5

  6

  7

 40
1.0
 41
0.18
 42
0.0625
 43
0.38
 44
0.18
 45
0.0
 46
0.0
 47
0.0
 48
0.0
140
0.18
141
0.09
142
0.0
143
25.4
144
1.0
145
0.0
146
1.0
147
0.09
 71
     0
 72
     0
 73
     1
 74
     1
 75
     0
 76
     0
 77
     0
 78
     0
170
     0
171
     2
172
     0
173
     0
174
     0
175
     0
176
     0
177
     0
178
     0
  0
DIMSTYLE
  2
NORDIC
 70
     0
  3

  4

  5

  6

  7

 40
1.0
 41
3.5
 42
1.0
 43
10.0
 44
2.0
 45
0.0
 46
0.0
 47
0.0
 48
0.0
140
3.5
141
2.5
142
0.0
143
25.4
144
1.0
145
0.0
146
1.0
147
2.0
 71
     0
 72
     0
 73
     0
 74
     0
 75
     0
 76
     0
 77
     1
 78
     8
170
     0
171
     2
172
     1
173
     0
174
     0
175
     0
176
     0
177
     0
178
     0
  0
DIMSTYLE
  2
RADIAL
 70
     0
  3

  4

  5

  6

  7

 40
1.0
 41
3.5
 42
1.0
 43
10.0
 44
2.0
 45
0.0
 46
0.0
 47
0.0
 48
0.0
140
3.5
141
2.5
142
0.0
143
25.4
144
1.0
145
0.0
146
1.0
147
2.0
 71
     0
 72
     0
 73
     0
 74
     1
 75
     0
 76
     0
 77
     1
 78
     8
170
     0
171
     2
172
     0
173
     0
174
     0
175
     0
176
     0
177
     0
178
     0
  0
DIMSTYLE
  2
NORTOL
 70
     0
  3

  4

  5

  6

  7

 40
1.0
 41
3.5
 42
1.0
 43
10.0
 44
2.0
 45
0.0
 46
0.0
 47
0.2
 48
0.1
140
3.5
141
2.5
142
0.0
143
25.4
144
1.0
145
0.7
146
0.71
147
2.0
 71
     1
 72
     0
 73
     0
 74
     0
 75
     0
 76
     0
 77
     0
 78
     8
170
     0
171
     2
172
     1
173
     0
174
     0
175
     0
176
     0
177
     0
178
     0
  0
DIMSTYLE
  2
RADTOL
 70
     0
  3

  4

  5

  6

  7

 40
1.0
 41
3.5
 42
1.0
 43
10.0
 44
2.0
 45
0.0
 46
0.0
 47
0.2
 48
0.1
140
3.5
141
2.5
142
0.0
143
25.4
144
1.0
145
0.7
146
0.7
147
2.0
 71
     1
 72
     0
 73
     0
 74
     1
 75
     0
 76
     0
 77
     0
 78
     8
170
     0
171
     2
172
     0
173
     0
174
     0
175
     0
176
     0
177
     0
178
     0
  0
DIMSTYLE
  2
HANSU
 70
     0
  3

  4

  5

  6

  7

 40
1.0
 41
3.5
 42
0.0
 43
10.0
 44
2.0
 45
0.0
 46
0.0
 47
0.0
 48
0.0
140
3.5
141
2.5
142
0.0
143
25.4
144
0.8
145
0.0
146
1.0
147
2.0
 71
     0
 72
     0
 73
     0
 74
     0
 75
     0
 76
     0
 77
     1
 78
     8
170
     0
171
     2
172
     1
173
     0
174
     0
175
     0
176
   256
177
   256
178
     3
  0
ENDTAB
  0
ENDSEC
  0
SECTION
  2
BLOCKS
  0
BLOCK
  8
0
  5
2329
  2
AME_NIL
 70
     0
 10
0.0
 20
0.0
 30
0.0
  1
AME_NIL
  3
AME_NIL
  0
ENDBLK
  8
0
  5
232A
  0
BLOCK
  8
0
  5
232C
  2
AME_SOL
 70
     0
 10
0.0
 20
0.0
 30
0.0
  1
AME_SOL
  3
AME_SOL
  0
ENDBLK
  8
0
  5
232D
  0
BLOCK
  8
0
  5
233F
  2
SOLAXES
 70
     0
 10
0.0
 20
0.0
 30
0.0
  1
SOLAXES
  3
SOLAXES
  0
LINE
  8
0
 62
     0
  5
2340
 10
0.0
 20
0.0
 30
0.0
 11
63.851158
 21
0.0
 31
0.0
  0
LINE
  8
0
 62
     0
  5
2341
 10
0.0
 20
0.0
 30
0.0
 11
0.0
 21
63.851158
 31
0.0
  0
LINE
  8
0
 62
     0
  5
2342
 10
0.0
 20
0.0
 30
0.0
 11
0.0
 21
0.0
 31
63.851158
  0
CIRCLE
  8
0
 62
     0
  5
2343
 10
0.0
 20
0.0
 30
57.466042
 40
3.192558
210
1.0
220
0.0
230
0.0
  0
LINE
  8
0
 62
     0
  5
2344
 10
57.466042
 20
3.192558
 30
0.0
 11
63.851158
 21
0.0
 31
0.0
  0
LINE
  8
0
 62
     0
  5
2345
 10
57.466042
 20
0.0
 30
3.192558
 11
63.851158
 21
0.0
 31
0.0
  0
LINE
  8
0
 62
     0
  5
2346
 10
57.466042
 20
-3.192558
 30
0.0
 11
63.851158
 21
0.0
 31
0.0
  0
LINE
  8
0
 62
     0
  5
2347
 10
57.466042
 20
0.0
 30
-3.192558
 11
63.851158
 21
0.0
 31
0.0
  0
CIRCLE
  8
0
 62
     0
  5
2348
 10
0.0
 20
0.0
 30
57.466042
 40
3.192558
210
0.0
220
1.0
230
0.0
  0
LINE
  8
0
 62
     0
  5
2349
 10
3.192558
 20
57.466042
 30
0.0
 11
0.0
 21
63.851158
 31
0.0
  0
LINE
  8
0
 62
     0
  5
234A
 10
0.0
 20
57.466042
 30
3.192558
 11
0.0
 21
63.851158
 31
0.0
  0
LINE
  8
0
 62
     0
  5
234B
 10
-3.192558
 20
57.466042
 30
0.0
 11
0.0
 21
63.851158
 31
0.0
  0
LINE
  8
0
 62
     0
  5
234C
 10
0.0
 20
57.466042
 30
-3.192558
 11
0.0
 21
63.851158
 31
0.0
  0
CIRCLE
  8
0
 62
     0
  5
234D
 10
0.0
 20
0.0
 30
51.080927
 40
3.192558
210
0.0
220
1.0
230
0.0
  0
LINE
  8
0
 62
     0
  5
234E
 10
3.192558
 20
51.080927
 30
0.0
 11
0.0
 21
57.466042
 31
0.0
  0
LINE
  8
0
 62
     0
  5
234F
 10
0.0
 20
51.080927
 30
3.192558
 11
0.0
 21
57.466042
 31
0.0
  0
LINE
  8
0
 62
     0
  5
2350
 10
-3.192558
 20
51.080927
 30
0.0
 11
0.0
 21
57.466042
 31
0.0
  0
LINE
  8
0
 62
     0
  5
2351
 10
0.0
 20
51.080927
 30
-3.192558
 11
0.0
 21
57.466042
 31
0.0
  0
CIRCLE
  8
0
 62
     0
  5
2352
 10
0.0
 20
0.0
 30
57.466042
 40
3.192558
  0
LINE
  8
0
 62
     0
  5
2353
 10
3.192558
 20
0.0
 30
57.466042
 11
0.0
 21
0.0
 31
63.851158
  0
LINE
  8
0
 62
     0
  5
2354
 10
0.0
 20
3.192558
 30
57.466042
 11
0.0
 21
0.0
 31
63.851158
  0
LINE
  8
0
 62
     0
  5
2355
 10
-3.192558
 20
0.0
 30
57.466042
 11
0.0
 21
0.0
 31
63.851158
  0
LINE
  8
0
 62
     0
  5
2356
 10
0.0
 20
-3.192558
 30
57.466042
 11
0.0
 21
0.0
 31
63.851158
  0
CIRCLE
  8
0
 62
     0
  5
2357
 10
0.0
 20
0.0
 30
51.080927
 40
3.192558
  0
LINE
  8
0
 62
     0
  5
2358
 10
3.192558
 20
0.0
 30
51.080927
 11
0.0
 21
0.0
 31
57.466042
  0
LINE
  8
0
 62
     0
  5
2359
 10
0.0
 20
3.192558
 30
51.080927
 11
0.0
 21
0.0
 31
57.466042
  0
LINE
  8
0
 62
     0
  5
235A
 10
-3.192558
 20
0.0
 30
51.080927
 11
0.0
 21
0.0
 31
57.466042
  0
LINE
  8
0
 62
     0
  5
235B
 10
0.0
 20
-3.192558
 30
51.080927
 11
0.0
 21
0.0
 31
57.466042
  0
CIRCLE
  8
0
 62
     0
  5
235C
 10
0.0
 20
0.0
 30
44.695811
 40
3.192558
  0
LINE
  8
0
 62
     0
  5
235D
 10
3.192558
 20
0.0
 30
44.695811
 11
0.0
 21
0.0
 31
51.080927
  0
LINE
  8
0
 62
     0
  5
235E
 10
0.0
 20
3.192558
 30
44.695811
 11
0.0
 21
0.0
 31
51.080927
  0
LINE
  8
0
 62
     0
  5
235F
 10
-3.192558
 20
0.0
 30
44.695811
 11
0.0
 21
0.0
 31
51.080927
  0
LINE
  8
0
 62
     0
  5
2360
 10
0.0
 20
-3.192558
 30
44.695811
 11
0.0
 21
0.0
 31
51.080927
  0
ENDBLK
  8
0
  5
2361
  0
BLOCK
  8
0
  5
2460
  2
AME_MAT
 70
     0
 10
0.0
 20
0.0
 30
0.0
  1
AME_MAT
  3
AME_MAT
  0
ENDBLK
  8
0
  5
2461
  0
BLOCK
  8
0
  5
2465
  2
MI17575C
 70
    64
 10
0.0
 20
0.0
 30
0.0
  3
MI17575C
  0
LINE
  8
61
  5
494B
 10
66.211172
 20
294.242137
 30
0.0
 11
66.211172
 21
378.742137
 31
0.0
  0
LINE
  8
61
  5
494C
 10
68.711172
 20
381.242137
 30
0.0
 11
153.211172
 21
381.242137
 31
0.0
  0
LINE
  8
63
  6
DASHDOT
  5
494D
 10
63.211172
 20
294.242137
 30
0.0
 11
153.211172
 21
294.242137
 31
0.0
  0
LINE
  8
63
  6
DASHDOT
  5
494E
 10
153.211172
 20
294.242137
 30
0.0
 11
153.211172
 21
386.242137
 31
0.0
  0
ARC
  8
61
  5
494F
 10
68.711172
 20
378.742137
 30
0.0
 40
2.5
 50
90.0
 51
180.0
  0
CIRCLE
  8
61
  5
4950
 10
74.711172
 20
372.742137
 30
0.0
 40
4.5
  0
LINE
  8
31
  5
5236
 10
275.876805
 20
377.86172
 30
0.0
 11
340.046537
 21
376.36819
 31
0.0
  0
LINE
  8
31
  5
5239
 10
273.5
 20
366.242137
 30
0.0
 11
340.046537
 21
364.693288
 31
0.0
  0
LINE
  8
31
  5
523A
 10
267.0
 20
381.242137
 30
0.0
 11
267.0
 21
379.742137
 31
0.0
  0
LINE
  8
31
  5
523C
 10
273.5
 20
380.474536
 30
0.0
 11
273.5
 21
377.242137
 31
0.0
  0
ARC
  8
31
  5
523F
 10
275.923342
 20
379.861179
 30
0.0
 40
2.0
 50
195.0
 51
268.6667
  0
LINE
  8
31
  5
5241
 10
267.0
 20
381.242137
 30
0.0
 11
271.97718
 21
381.198701
 31
0.0
  0
ARC
  8
31
  5
5245
 10
271.959727
 20
379.198778
 30
0.0
 40
2.0
 50
15.0
 51
39.633855
  0
LINE
  8
31
  5
5247
 10
273.891579
 20
379.716416
 30
0.0
 11
273.99149
 21
379.343541
 31
0.0
  0
LINE
  8
31
  5
5248
 10
342.0
 20
374.368732
 30
0.0
 11
342.0
 21
362.693829
 31
0.0
  0
LINE
  8
31
  5
524A
 10
342.0
 20
362.693829
 30
0.0
 11
342.0
 21
294.242137
 31
0.0
  0
ARC
  8
31
  5
524C
 10
340.0
 20
362.693829
 30
0.0
 40
2.0
 50
0.0
 51
88.6667
  0
ARC
  8
31
  5
524D
 10
340.0
 20
374.368732
 30
0.0
 40
2.0
 50
0.0
 51
88.6667
  0
LINE
  8
61
  5
524F
 10
153.211172
 20
376.36819
 30
0.0
 11
85.693341
 21
376.36819
 31
0.0
  0
LINE
  8
61
  5
525F
 10
71.085118
 20
294.242137
 30
0.0
 11
71.085118
 21
361.759967
 31
0.0
  0
ARC
  8
61
  5
52D2
 10
74.711172
 20
372.742137
 30
0.0
 40
8.0
 50
266.737306
 51
3.262694
  0
ARC
  8
61
  5
52D3
 10
74.085118
 20
361.759967
 30
0.0
 40
3.0
 50
86.737306
 51
180.0
  0
ARC
  8
61
  5
52D5
 10
85.693341
 20
373.36819
 30
0.0
 40
3.0
 50
90.0
 51
183.262694
  0
LINE
  8
61
  5
52DB
 10
153.211172
 20
212.116083
 30
0.0
 11
85.693341
 21
212.116083
 31
0.0
  0
LINE
  8
61
  5
52DC
 10
68.711172
 20
207.242137
 30
0.0
 11
153.211172
 21
207.242137
 31
0.0
  0
LINE
  8
61
  5
52DD
 10
71.085118
 20
294.242137
 30
0.0
 11
71.085118
 21
226.724307
 31
0.0
  0
LINE
  8
61
  5
52DF
 10
66.211172
 20
294.242137
 30
0.0
 11
66.211172
 21
209.742137
 31
0.0
  0
ARC
  8
61
  5
52E1
 10
74.085118
 20
226.724307
 30
0.0
 40
3.0
 50
180.0
 51
273.262694
  0
CIRCLE
  8
61
  5
52E2
 10
74.711172
 20
215.742137
 30
0.0
 40
4.5
  0
ARC
  8
61
  5
52E3
 10
68.711172
 20
209.742137
 30
0.0
 40
2.5
 50
180.0
 51
270.0
  0
ARC
  8
61
  5
52E5
 10
74.711172
 20
215.742137
 30
0.0
 40
8.0
 50
356.737306
 51
93.262694
  0
ARC
  8
61
  5
52E7
 10
85.693341
 20
215.116083
 30
0.0
 40
3.0
 50
176.737306
 51
270.0
  0
LINE
  8
63
  6
DASHDOT
  5
52E8
 10
153.211172
 20
294.242137
 30
0.0
 11
153.211172
 21
200.415443
 31
0.0
  0
LINE
  8
61
  5
52EA
 10
153.211172
 20
376.36819
 30
0.0
 11
220.729002
 21
376.36819
 31
0.0
  0
LINE
  8
61
  5
52EB
 10
237.711172
 20
381.242137
 30
0.0
 11
153.211172
 21
381.242137
 31
0.0
  0
LINE
  8
61
  5
52EC
 10
235.337225
 20
294.242137
 30
0.0
 11
235.337225
 21
361.759967
 31
0.0
  0
LINE
  8
61
  5
52EE
 10
240.211172
 20
294.242137
 30
0.0
 11
240.211172
 21
378.742137
 31
0.0
  0
ARC
  8
61
  5
52F0
 10
232.337225
 20
361.759967
 30
0.0
 40
3.0
 50
0.0
 51
93.262694
  0
CIRCLE
  8
61
  5
52F1
 10
231.711172
 20
372.742137
 30
0.0
 40
4.5
  0
ARC
  8
61
  5
52F2
 10
237.711172
 20
378.742137
 30
0.0
 40
2.5
 50
0.0
 51
90.0
  0
ARC
  8
61
  5
52F4
 10
231.711172
 20
372.742137
 30
0.0
 40
8.0
 50
176.737306
 51
273.262694
  0
ARC
  8
61
  5
52F6
 10
220.729002
 20
373.36819
 30
0.0
 40
3.0
 50
356.737306
 51
90.0
  0
LINE
  8
61
  5
52F7
 10
237.711172
 20
207.242137
 30
0.0
 11
153.211172
 21
207.242137
 31
0.0
  0
LINE
  8
61
  5
52F8
 10
153.211172
 20
212.116083
 30
0.0
 11
220.729002
 21
212.116083
 31
0.0
  0
LINE
  8
63
  6
DASHDOT
  5
52FA
 10
243.211172
 20
294.242137
 30
0.0
 11
153.211172
 21
294.242137
 31
0.0
  0
LINE
  8
61
  5
52FB
 10
240.211172
 20
294.242137
 30
0.0
 11
240.211172
 21
209.742137
 31
0.0
  0
LINE
  8
61
  5
52FD
 10
235.337225
 20
294.242137
 30
0.0
 11
235.337225
 21
226.724307
 31
0.0
  0
CIRCLE
  8
61
  5
52FE
 10
231.711172
 20
215.742137
 30
0.0
 40
4.5
  0
ARC
  8
61
  5
52FF
 10
232.337225
 20
226.724307
 30
0.0
 40
3.0
 50
266.737306
 51
0.0
  0
ARC
  8
61
  5
5301
 10
237.711172
 20
209.742137
 30
0.0
 40
2.5
 50
270.0
 51
0.0
  0
ARC
  8
61
  5
5302
 10
231.711172
 20
215.742137
 30
0.0
 40
8.0
 50
86.737306
 51
183.262694
  0
ARC
  8
61
  5
5304
 10
220.729002
 20
215.116083
 30
0.0
 40
3.0
 50
270.0
 51
3.262694
  0
LINE
  8
33
  6
DASHDOT
  5
5312
 10
265.0
 20
294.242137
 30
0.0
 11
347.0
 21
294.242137
 31
0.0
  0
LINE
  8
51
  5
5322
 10
-249.5
 20
381.242137
 30
0.0
 11
-165.0
 21
381.242137
 31
0.0
  0
LINE
  8
53
  6
DASHDOT
  5
5323
 10
-255.0
 20
294.242137
 30
0.0
 11
-165.0
 21
294.242137
 31
0.0
  0
LINE
  8
51
  5
5326
 10
-252.0
 20
294.242137
 30
0.0
 11
-252.0
 21
378.742137
 31
0.0
  0
CIRCLE
  8
52
  5
532A
 10
-243.5
 20
372.742137
 30
0.0
 40
4.5
  0
ARC
  8
51
  5
532B
 10
-249.5
 20
378.742137
 30
0.0
 40
2.5
 50
90.0
 51
180.0
  0
LINE
  8
53
  6
DASHDOT
  5
5331
 10
-165.0
 20
294.242137
 30
0.0
 11
-165.0
 21
386.242137
 31
0.0
  0
LINE
  8
52
  5
5332
 10
-249.5
 20
379.742137
 30
0.0
 11
-165.0
 21
379.742137
 31
0.0
  0
LINE
  8
52
  5
5333
 10
-250.5
 20
294.242137
 30
0.0
 11
-250.5
 21
378.742137
 31
0.0
  0
LINE
  8
52
  5
5334
 10
-248.5
 20
294.242137
 30
0.0
 11
-248.5
 21
376.242137
 31
0.0
  0
LINE
  8
52
  5
5335
 10
-247.0
 20
377.742137
 30
0.0
 11
-165.0
 21
377.742137
 31
0.0
  0
ARC
  8
52
  5
5336
 10
-249.5
 20
378.742137
 30
0.0
 40
1.0
 50
90.0
 51
180.0
  0
ARC
  8
52
  5
5338
 10
-247.0
 20
376.242137
 30
0.0
 40
1.5
 50
90.0
 51
180.0
  0
LINE
  8
51
  5
534B
 10
-165.0
 20
376.321315
 30
0.0
 11
-233.9
 21
376.321315
 31
0.0
  0
ARC
  8
51
  5
549D
 10
-243.5
 20
372.742137
 30
0.0
 40
8.1
 50
270.0
 51
0.0
  0
LINE
  8
51
  5
549E
 10
-235.4
 20
372.742137
 30
0.0
 11
-235.4
 21
374.821315
 31
0.0
  0
LINE
  8
51
  5
549F
 10
-243.5
 20
364.642137
 30
0.0
 11
-245.579178
 21
364.642137
 31
0.0
  0
LINE
  8
51
  5
54A4
 10
-247.079178
 20
294.242137
 30
0.0
 11
-247.079178
 21
363.142137
 31
0.0
  0
ARC
  8
51
  5
54A5
 10
-233.9
 20
374.821315
 30
0.0
 40
1.5
 50
90.0
 51
180.0
  0
ARC
  8
51
  5
54A6
 10
-245.579178
 20
363.142137
 30
0.0
 40
1.5
 50
90.0
 51
180.0
  0
LINE
  8
53
  6
DASHDOT
  5
5618
 10
-165.0
 20
294.242137
 30
0.0
 11
-165.0
 21
202.242137
 31
0.0
  0
LINE
  8
51
  5
5619
 10
-247.079178
 20
294.242137
 30
0.0
 11
-247.079178
 21
225.342137
 31
0.0
  0
LINE
  8
52
  5
561B
 10
-248.5
 20
294.242137
 30
0.0
 11
-248.5
 21
212.242137
 31
0.0
  0
LINE
  8
52
  5
561C
 10
-250.5
 20
294.242137
 30
0.0
 11
-250.5
 21
209.742137
 31
0.0
  0
LINE
  8
51
  5
561D
 10
-252.0
 20
294.242137
 30
0.0
 11
-252.0
 21
209.742137
 31
0.0
  0
LINE
  8
51
  5
561F
 10
-165.0
 20
212.162958
 30
0.0
 11
-233.9
 21
212.162958
 31
0.0
  0
LINE
  8
52
  5
5620
 10
-247.0
 20
210.742137
 30
0.0
 11
-165.0
 21
210.742137
 31
0.0
  0
LINE
  8
52
  5
5621
 10
-249.5
 20
208.742137
 30
0.0
 11
-165.0
 21
208.742137
 31
0.0
  0
LINE
  8
51
  5
5622
 10
-249.5
 20
207.242137
 30
0.0
 11
-165.0
 21
207.242137
 31
0.0
  0
ARC
  8
51
  5
5624
 10
-243.5
 20
215.742137
 30
0.0
 40
8.1
 50
0.0
 51
90.0
  0
ARC
  8
51
  5
5625
 10
-245.579178
 20
225.342137
 30
0.0
 40
1.5
 50
180.0
 51
270.0
  0
LINE
  8
51
  5
5627
 10
-243.5
 20
223.842137
 30
0.0
 11
-245.579178
 21
223.842137
 31
0.0
  0
CIRCLE
  8
52
  5
5628
 10
-243.5
 20
215.742137
 30
0.0
 40
4.5
  0
ARC
  8
52
  5
562B
 10
-247.0
 20
212.242137
 30
0.0
 40
1.5
 50
180.0
 51
270.0
  0
ARC
  8
52
  5
562C
 10
-249.5
 20
209.742137
 30
0.0
 40
1.0
 50
180.0
 51
270.0
  0
ARC
  8
51
  5
562D
 10
-249.5
 20
209.742137
 30
0.0
 40
2.5
 50
180.0
 51
270.0
  0
LINE
  8
51
  5
562F
 10
-235.4
 20
215.742137
 30
0.0
 11
-235.4
 21
213.662958
 31
0.0
  0
ARC
  8
51
  5
5630
 10
-233.9
 20
213.662958
 30
0.0
 40
1.5
 50
180.0
 51
270.0
  0
LINE
  8
53
  6
DASHDOT
  5
5631
 10
-75.0
 20
294.242137
 30
0.0
 11
-165.0
 21
294.242137
 31
0.0
  0
LINE
  8
51
  5
5632
 10
-78.0
 20
294.242137
 30
0.0
 11
-78.0
 21
209.742137
 31
0.0
  0
LINE
  8
52
  5
5633
 10
-79.5
 20
294.242137
 30
0.0
 11
-79.5
 21
209.742137
 31
0.0
  0
LINE
  8
52
  5
5634
 10
-81.5
 20
294.242137
 30
0.0
 11
-81.5
 21
212.242137
 31
0.0
  0
LINE
  8
51
  5
5636
 10
-82.920822
 20
294.242137
 30
0.0
 11
-82.920822
 21
225.342137
 31
0.0
  0
LINE
  8
51
  5
5637
 10
-80.5
 20
207.242137
 30
0.0
 11
-165.0
 21
207.242137
 31
0.0
  0
LINE
  8
52
  5
5638
 10
-80.5
 20
208.742137
 30
0.0
 11
-165.0
 21
208.742137
 31
0.0
  0
LINE
  8
52
  5
5639
 10
-83.0
 20
210.742137
 30
0.0
 11
-165.0
 21
210.742137
 31
0.0
  0
LINE
  8
51
  5
563A
 10
-165.0
 20
212.162958
 30
0.0
 11
-96.1
 21
212.162958
 31
0.0
  0
CIRCLE
  8
52
  5
563D
 10
-86.5
 20
215.742137
 30
0.0
 40
4.5
  0
ARC
  8
51
  5
563E
 10
-86.5
 20
215.742137
 30
0.0
 40
8.1
 50
90.0
 51
180.0
  0
ARC
  8
51
  5
5641
 10
-80.5
 20
209.742137
 30
0.0
 40
2.5
 50
270.0
 51
0.0
  0
ARC
  8
52
  5
5642
 10
-83.0
 20
212.242137
 30
0.0
 40
1.5
 50
270.0
 51
0.0
  0
ARC
  8
52
  5
5643
 10
-80.5
 20
209.742137
 30
0.0
 40
1.0
 50
270.0
 51
0.0
  0
ARC
  8
51
  5
5644
 10
-96.1
 20
213.662958
 30
0.0
 40
1.5
 50
270.0
 51
0.0
  0
LINE
  8
51
  5
5645
 10
-94.6
 20
215.742137
 30
0.0
 11
-94.6
 21
213.662958
 31
0.0
  0
ARC
  8
51
  5
5647
 10
-84.420822
 20
225.342137
 30
0.0
 40
1.5
 50
270.0
 51
0.0
  0
LINE
  8
51
  5
5648
 10
-86.5
 20
223.842137
 30
0.0
 11
-84.420822
 21
223.842137
 31
0.0
  0
LINE
  8
51
  5
564A
 10
-82.920822
 20
294.242137
 30
0.0
 11
-82.920822
 21
363.142137
 31
0.0
  0
LINE
  8
52
  5
564C
 10
-81.5
 20
294.242137
 30
0.0
 11
-81.5
 21
376.242137
 31
0.0
  0
LINE
  8
52
  5
564D
 10
-79.5
 20
294.242137
 30
0.0
 11
-79.5
 21
378.742137
 31
0.0
  0
LINE
  8
51
  5
564E
 10
-78.0
 20
294.242137
 30
0.0
 11
-78.0
 21
378.742137
 31
0.0
  0
LINE
  8
51
  5
5650
 10
-165.0
 20
376.321315
 30
0.0
 11
-96.1
 21
376.321315
 31
0.0
  0
LINE
  8
52
  5
5651
 10
-83.0
 20
377.742137
 30
0.0
 11
-165.0
 21
377.742137
 31
0.0
  0
LINE
  8
52
  5
5652
 10
-80.5
 20
379.742137
 30
0.0
 11
-165.0
 21
379.742137
 31
0.0
  0
LINE
  8
51
  5
5653
 10
-80.5
 20
381.242137
 30
0.0
 11
-165.0
 21
381.242137
 31
0.0
  0
ARC
  8
51
  5
5655
 10
-86.5
 20
372.742137
 30
0.0
 40
8.1
 50
180.0
 51
270.0
  0
ARC
  8
51
  5
5656
 10
-84.420822
 20
363.142137
 30
0.0
 40
1.5
 50
0.0
 51
90.0
  0
LINE
  8
51
  5
5658
 10
-86.5
 20
364.642137
 30
0.0
 11
-84.420822
 21
364.642137
 31
0.0
  0
CIRCLE
  8
52
  5
5659
 10
-86.5
 20
372.742137
 30
0.0
 40
4.5
  0
ARC
  8
52
  5
565C
 10
-83.0
 20
376.242137
 30
0.0
 40
1.5
 50
0.0
 51
90.0
  0
ARC
  8
52
  5
565D
 10
-80.5
 20
378.742137
 30
0.0
 40
1.0
 50
0.0
 51
90.0
  0
ARC
  8
51
  5
565E
 10
-80.5
 20
378.742137
 30
0.0
 40
2.5
 50
0.0
 51
90.0
  0
LINE
  8
51
  5
5660
 10
-94.6
 20
372.742137
 30
0.0
 11
-94.6
 21
374.821315
 31
0.0
  0
ARC
  8
51
  5
5661
 10
-96.1
 20
374.821315
 30
0.0
 40
1.5
 50
0.0
 51
90.0
  0
LINE
  8
11
  5
5674
 10
240.211172
 20
178.0
 30
0.0
 11
153.211172
 21
178.0
 31
0.0
  0
LINE
  8
11
  5
5675
 10
233.337767
 20
103.0
 30
0.0
 11
221.662864
 21
103.0
 31
0.0
  0
LINE
  8
13
  6
DASHDOT
  5
5678
 10
153.211172
 20
180.0
 30
0.0
 11
153.211172
 21
98.0
 31
0.0
  0
LINE
  8
11
  5
5679
 10
221.662864
 20
103.0
 30
0.0
 11
153.211172
 21
103.0
 31
0.0
  0
LINE
  8
11
  5
567A
 10
236.830755
 20
169.123195
 30
0.0
 11
235.337225
 21
104.953463
 31
0.0
  0
LINE
  8
11
  5
567C
 10
240.211172
 20
178.0
 30
0.0
 11
240.167736
 21
173.02282
 31
0.0
  0
ARC
  8
11
  5
5680
 10
238.830214
 20
169.076658
 30
0.0
 40
2.0
 50
105.0
 51
178.6667
  0
ARC
  8
11
  5
5681
 10
238.167812
 20
173.040273
 30
0.0
 40
2.0
 50
285.0
 51
359.5
  0
LINE
  8
11
  5
5683
 10
238.685451
 20
171.108421
 30
0.0
 11
238.312575
 21
171.00851
 31
0.0
  0
ARC
  8
11
  5
5685
 10
233.337767
 20
105.0
 30
0.0
 40
2.0
 50
270.0
 51
358.6667
  0
LINE
  8
11
  5
5686
 10
225.211172
 20
171.5
 30
0.0
 11
223.662322
 21
104.953463
 31
0.0
  0
ARC
  8
11
  5
5687
 10
221.662864
 20
105.0
 30
0.0
 40
2.0
 50
270.0
 51
358.6667
  0
LINE
  8
11
  5
5777
 10
239.443571
 20
171.5
 30
0.0
 11
153.211172
 21
171.5
 31
0.0
  0
LINE
  8
11
  5
5779
 10
81.211172
 20
171.5
 30
0.0
 11
82.760021
 21
104.953463
 31
0.0
  0
LINE
  8
11
  5
577A
 10
69.591588
 20
169.123195
 30
0.0
 11
71.085118
 21
104.953463
 31
0.0
  0
LINE
  8
11
  5
577B
 10
84.759479
 20
103.0
 30
0.0
 11
153.211172
 21
103.0
 31
0.0
  0
LINE
  8
11
  5
577C
 10
73.084576
 20
103.0
 30
0.0
 11
84.759479
 21
103.0
 31
0.0
  0
ARC
  8
11
  5
577D
 10
84.759479
 20
105.0
 30
0.0
 40
2.0
 50
181.3333
 51
270.0
  0
ARC
  8
11
  5
577E
 10
73.084576
 20
105.0
 30
0.0
 40
2.0
 50
181.3333
 51
270.0
  0
LINE
  8
11
  5
5780
 10
66.978772
 20
171.5
 30
0.0
 11
153.211172
 21
171.5
 31
0.0
  0
LINE
  8
11
  5
5781
 10
66.211172
 20
178.0
 30
0.0
 11
153.211172
 21
178.0
 31
0.0
  0
ARC
  8
11
  5
5782
 10
68.254531
 20
173.040273
 30
0.0
 40
2.0
 50
180.5
 51
255.0
  0
ARC
  8
11
  5
5783
 10
67.59213
 20
169.076658
 30
0.0
 40
2.0
 50
1.3333
 51
75.0
  0
LINE
  8
11
  5
5784
 10
67.736892
 20
171.108421
 30
0.0
 11
68.109768
 21
171.00851
 31
0.0
  0
LINE
  8
11
  5
5785
 10
66.211172
 20
178.0
 30
0.0
 11
66.254607
 21
173.02282
 31
0.0
  0
LINE
  8
31
  5
59F8
 10
273.5
 20
377.242137
 30
0.0
 11
273.5
 21
294.242137
 31
0.0
  0
LINE
  8
31
  5
59FA
 10
267.0
 20
379.742137
 30
0.0
 11
267.0
 21
294.242137
 31
0.0
  0
ARC
  8
31
  5
59FB
 10
271.959727
 20
379.198778
 30
0.0
 40
2.0
 50
39.633855
 51
89.5
  0
LINE
  8
31
  5
5A05
 10
273.5
 20
368.242137
 30
0.0
 11
273.5
 21
366.242137
 31
0.0
  0
LINE
  8
34
  5
9731
 10
267.0
 20
364.39288
 30
0.0
 11
338.723268
 21
362.723545
 31
0.0
  0
LINE
  8
34
  5
9732
 10
339.7
 20
361.723815
 30
0.0
 11
339.7
 21
294.242137
 31
0.0
  0
ARC
  8
34
  5
9733
 10
338.7
 20
361.723815
 30
0.0
 40
1.0
 50
0.0
 51
88.6667
  0
LINE
  8
34
  5
9FCF
 10
267.0
 20
224.091393
 30
0.0
 11
338.723268
 21
225.760729
 31
0.0
  0
LINE
  8
31
  5
9FD0
 10
273.5
 20
222.242137
 30
0.0
 11
340.046537
 21
223.790986
 31
0.0
  0
LINE
  8
31
  5
9FD1
 10
275.876805
 20
210.622553
 30
0.0
 11
340.046537
 21
212.116083
 31
0.0
  0
LINE
  8
31
  5
9FD2
 10
273.5
 20
211.242137
 30
0.0
 11
273.5
 21
294.242137
 31
0.0
  0
LINE
  8
31
  5
9FD3
 10
267.0
 20
208.742137
 30
0.0
 11
267.0
 21
294.242137
 31
0.0
  0
ARC
  8
31
  5
9FD4
 10
275.923342
 20
208.623095
 30
0.0
 40
2.0
 50
91.3333
 51
165.0
  0
LINE
  8
31
  5
9FD5
 10
273.5
 20
208.009737
 30
0.0
 11
273.5
 21
211.242137
 31
0.0
  0
LINE
  8
31
  5
9FD6
 10
273.5
 20
220.242137
 30
0.0
 11
273.5
 21
222.242137
 31
0.0
  0
LINE
  8
31
  5
9FD7
 10
267.0
 20
207.242137
 30
0.0
 11
271.97718
 21
207.285572
 31
0.0
  0
LINE
  8
31
  5
9FD8
 10
267.0
 20
207.242137
 30
0.0
 11
267.0
 21
208.742137
 31
0.0
  0
ARC
  8
31
  5
9FD9
 10
271.959727
 20
209.285496
 30
0.0
 40
2.0
 50
270.5
 51
320.366145
  0
LINE
  8
31
  5
9FDA
 10
273.891579
 20
208.767858
 30
0.0
 11
273.99149
 21
209.140733
 31
0.0
  0
ARC
  8
31
  5
9FDB
 10
271.959727
 20
209.285496
 30
0.0
 40
2.0
 50
320.366145
 51
345.0
  0
LINE
  8
34
  5
9FDC
 10
339.7
 20
226.760458
 30
0.0
 11
339.7
 21
294.242137
 31
0.0
  0
LINE
  8
31
  5
9FDD
 10
342.0
 20
225.790444
 30
0.0
 11
342.0
 21
294.242137
 31
0.0
  0
ARC
  8
34
  5
9FDE
 10
338.7
 20
226.760458
 30
0.0
 40
1.0
 50
271.3333
 51
0.0
  0
LINE
  8
31
  5
9FDF
 10
342.0
 20
214.115541
 30
0.0
 11
342.0
 21
225.790444
 31
0.0
  0
ARC
  8
31
  5
9FE0
 10
340.0
 20
225.790444
 30
0.0
 40
2.0
 50
271.3333
 51
0.0
  0
ARC
  8
31
  5
9FE1
 10
340.0
 20
214.115541
 30
0.0
 40
2.0
 50
271.3333
 51
0.0
  0
ARC
  8
14
  5
9FE2
 10
85.729493
 20
106.3
 30
0.0
 40
1.0
 50
181.3333
 51
270.0
  0
LINE
  8
14
  5
9FE3
 10
85.729493
 20
105.3
 30
0.0
 11
153.211172
 21
105.3
 31
0.0
  0
LINE
  8
14
  5
9FE4
 10
83.060428
 20
178.0
 30
0.0
 11
84.729764
 21
106.276732
 31
0.0
  0
LINE
  8
14
  5
9FE5
 10
220.69285
 20
105.3
 30
0.0
 11
153.211172
 21
105.3
 31
0.0
  0
LINE
  8
14
  5
9FE6
 10
223.361915
 20
178.0
 30
0.0
 11
221.692579
 21
106.276732
 31
0.0
  0
ARC
  8
14
  5
9FE7
 10
220.69285
 20
106.3
 30
0.0
 40
1.0
 50
270.0
 51
358.6667
  0
LINE
  8
41
  5
9FE8
 10
30.545538
 20
377.86172
 30
0.0
 11
-33.624194
 21
376.36819
 31
0.0
  0
LINE
  8
41
  5
9FE9
 10
32.922343
 20
366.242137
 30
0.0
 11
-33.624194
 21
364.693288
 31
0.0
  0
LINE
  8
44
  5
9FEA
 10
39.422343
 20
364.39288
 30
0.0
 11
-32.300925
 21
362.723545
 31
0.0
  0
LINE
  8
44
  5
9FEB
 10
39.422343
 20
224.091393
 30
0.0
 11
-32.300925
 21
225.760729
 31
0.0
  0
LINE
  8
43
  6
DASHDOT
  5
9FEC
 10
41.422343
 20
294.242137
 30
0.0
 11
-40.577657
 21
294.242137
 31
0.0
  0
LINE
  8
41
  5
9FED
 10
32.922343
 20
222.242137
 30
0.0
 11
-33.624194
 21
223.790986
 31
0.0
  0
LINE
  8
41
  5
9FEE
 10
30.545538
 20
210.622553
 30
0.0
 11
-33.624194
 21
212.116083
 31
0.0
  0
LINE
  8
41
  5
9FEF
 10
39.422343
 20
379.742137
 30
0.0
 11
39.422343
 21
294.242137
 31
0.0
  0
LINE
  8
41
  5
9FF0
 10
32.922343
 20
377.242137
 30
0.0
 11
32.922343
 21
294.242137
 31
0.0
  0
ARC
  8
41
  5
9FF1
 10
30.499001
 20
379.861179
 30
0.0
 40
2.0
 50
271.3333
 51
345.0
  0
LINE
  8
41
  5
9FF2
 10
39.422343
 20
381.242137
 30
0.0
 11
34.445163
 21
381.198701
 31
0.0
  0
LINE
  8
41
  5
9FF3
 10
39.422343
 20
381.242137
 30
0.0
 11
39.422343
 21
379.742137
 31
0.0
  0
ARC
  8
41
  5
9FF4
 10
34.462616
 20
379.198778
 30
0.0
 40
2.0
 50
140.366145
 51
165.0
  0
LINE
  8
41
  5
9FF5
 10
32.530764
 20
379.716416
 30
0.0
 11
32.430853
 21
379.343541
 31
0.0
  0
ARC
  8
41
  5
9FF6
 10
34.462616
 20
379.198778
 30
0.0
 40
2.0
 50
90.5
 51
140.366145
  0
LINE
  8
41
  5
9FF7
 10
32.922343
 20
380.474536
 30
0.0
 11
32.922343
 21
377.242137
 31
0.0
  0
LINE
  8
41
  5
9FF8
 10
32.922343
 20
211.242137
 30
0.0
 11
32.922343
 21
294.242137
 31
0.0
  0
LINE
  8
41
  5
9FF9
 10
39.422343
 20
208.742137
 30
0.0
 11
39.422343
 21
294.242137
 31
0.0
  0
LINE
  8
41
  5
9FFA
 10
32.922343
 20
368.242137
 30
0.0
 11
32.922343
 21
366.242137
 31
0.0
  0
ARC
  8
41
  5
9FFB
 10
30.499001
 20
208.623095
 30
0.0
 40
2.0
 50
15.0
 51
88.6667
  0
LINE
  8
41
  5
9FFC
 10
32.922343
 20
208.009737
 30
0.0
 11
32.922343
 21
211.242137
 31
0.0
  0
LINE
  8
41
  5
9FFD
 10
32.922343
 20
220.242137
 30
0.0
 11
32.922343
 21
222.242137
 31
0.0
  0
LINE
  8
41
  5
9FFE
 10
39.422343
 20
207.242137
 30
0.0
 11
34.445163
 21
207.285572
 31
0.0
  0
LINE
  8
41
  5
9FFF
 10
39.422343
 20
207.242137
 30
0.0
 11
39.422343
 21
208.742137
 31
0.0
  0
ARC
  8
41
  5
A000
 10
34.462616
 20
209.285496
 30
0.0
 40
2.0
 50
219.633855
 51
269.5
  0
LINE
  8
41
  5
A001
 10
32.530764
 20
208.767858
 30
0.0
 11
32.430853
 21
209.140733
 31
0.0
  0
ARC
  8
41
  5
A002
 10
34.462616
 20
209.285496
 30
0.0
 40
2.0
 50
195.0
 51
219.633855
  0
ARC
  8
41
  5
A003
 10
-33.577657
 20
374.368732
 30
0.0
 40
2.0
 50
91.3333
 51
180.0
  0
LINE
  8
44
  5
A004
 10
-33.277657
 20
226.760458
 30
0.0
 11
-33.277657
 21
294.242137
 31
0.0
  0
LINE
  8
41
  5
A005
 10
-35.577657
 20
225.790444
 30
0.0
 11
-35.577657
 21
294.242137
 31
0.0
  0
LINE
  8
41
  5
A006
 10
-35.577657
 20
362.693829
 30
0.0
 11
-35.577657
 21
294.242137
 31
0.0
  0
LINE
  8
44
  5
A007
 10
-33.277657
 20
361.723815
 30
0.0
 11
-33.277657
 21
294.242137
 31
0.0
  0
LINE
  8
41
  5
A008
 10
-35.577657
 20
374.368732
 30
0.0
 11
-35.577657
 21
362.693829
 31
0.0
  0
ARC
  8
44
  5
A009
 10
-32.277657
 20
361.723815
 30
0.0
 40
1.0
 50
91.3333
 51
180.0
  0
ARC
  8
41
  5
A00A
 10
-33.577657
 20
362.693829
 30
0.0
 40
2.0
 50
91.3333
 51
180.0
  0
ARC
  8
44
  5
A00B
 10
-32.277657
 20
226.760458
 30
0.0
 40
1.0
 50
180.0
 51
268.6667
  0
LINE
  8
41
  5
A00C
 10
-35.577657
 20
214.115541
 30
0.0
 11
-35.577657
 21
225.790444
 31
0.0
  0
ARC
  8
41
  5
A00D
 10
-33.577657
 20
225.790444
 30
0.0
 40
2.0
 50
180.0
 51
268.6667
  0
ARC
  8
41
  5
A00E
 10
-33.577657
 20
214.115541
 30
0.0
 40
2.0
 50
180.0
 51
268.6667
  0
LINE
  8
21
  5
A00F
 10
221.662864
 20
480.475221
 30
0.0
 11
153.211172
 21
480.475221
 31
0.0
  0
LINE
  8
21
  5
A010
 10
239.443571
 20
411.975221
 30
0.0
 11
153.211172
 21
411.975221
 31
0.0
  0
LINE
  8
21
  5
A011
 10
240.211172
 20
405.475221
 30
0.0
 11
153.211172
 21
405.475221
 31
0.0
  0
LINE
  8
24
  5
A012
 10
220.69285
 20
478.175221
 30
0.0
 11
153.211172
 21
478.175221
 31
0.0
  0
LINE
  8
21
  5
A013
 10
225.211172
 20
411.975221
 30
0.0
 11
223.662322
 21
478.521757
 31
0.0
  0
LINE
  8
21
  5
A014
 10
236.830755
 20
414.352026
 30
0.0
 11
235.337225
 21
478.521757
 31
0.0
  0
LINE
  8
24
  5
A015
 10
223.361915
 20
405.475221
 30
0.0
 11
221.692579
 21
477.198489
 31
0.0
  0
LINE
  8
21
  5
A016
 10
233.337767
 20
480.475221
 30
0.0
 11
221.662864
 21
480.475221
 31
0.0
  0
ARC
  8
21
  5
A017
 10
221.662864
 20
478.475221
 30
0.0
 40
2.0
 50
1.3333
 51
90.0
  0
ARC
  8
21
  5
A018
 10
233.337767
 20
478.475221
 30
0.0
 40
2.0
 50
1.3333
 51
90.0
  0
ARC
  8
24
  5
A019
 10
220.69285
 20
477.175221
 30
0.0
 40
1.0
 50
1.3333
 51
90.0
  0
ARC
  8
21
  5
A01A
 10
238.167812
 20
410.434948
 30
0.0
 40
2.0
 50
0.5
 51
75.0
  0
ARC
  8
21
  5
A01B
 10
238.830214
 20
414.398563
 30
0.0
 40
2.0
 50
181.3333
 51
255.0
  0
LINE
  8
21
  5
A01C
 10
238.685451
 20
412.366799
 30
0.0
 11
238.312575
 21
412.466711
 31
0.0
  0
LINE
  8
21
  5
A01D
 10
240.211172
 20
405.475221
 30
0.0
 11
240.167736
 21
410.452401
 31
0.0
  0
LINE
  8
21
  5
A01E
 10
66.211172
 20
405.475221
 30
0.0
 11
153.211172
 21
405.475221
 31
0.0
  0
LINE
  8
21
  5
A01F
 10
66.978772
 20
411.975221
 30
0.0
 11
153.211172
 21
411.975221
 31
0.0
  0
LINE
  8
21
  5
A020
 10
84.759479
 20
480.475221
 30
0.0
 11
153.211172
 21
480.475221
 31
0.0
  0
LINE
  8
24
  5
A021
 10
85.729493
 20
478.175221
 30
0.0
 11
153.211172
 21
478.175221
 31
0.0
  0
LINE
  8
23
  6
DASHDOT
  5
A022
 10
153.211172
 20
403.475221
 30
0.0
 11
153.211172
 21
485.475221
 31
0.0
  0
LINE
  8
21
  5
A023
 10
69.591588
 20
414.352026
 30
0.0
 11
71.085118
 21
478.521757
 31
0.0
  0
LINE
  8
21
  5
A024
 10
81.211172
 20
411.975221
 30
0.0
 11
82.760021
 21
478.521757
 31
0.0
  0
LINE
  8
24
  5
A025
 10
83.060428
 20
405.475221
 30
0.0
 11
84.729764
 21
477.198489
 31
0.0
  0
LINE
  8
21
  5
A026
 10
73.084576
 20
480.475221
 30
0.0
 11
84.759479
 21
480.475221
 31
0.0
  0
ARC
  8
21
  5
A027
 10
84.759479
 20
478.475221
 30
0.0
 40
2.0
 50
90.0
 51
178.6667
  0
ARC
  8
24
  5
A028
 10
85.729493
 20
477.175221
 30
0.0
 40
1.0
 50
90.0
 51
178.6667
  0
ARC
  8
21
  5
A029
 10
73.084576
 20
478.475221
 30
0.0
 40
2.0
 50
90.0
 51
178.6667
  0
ARC
  8
21
  5
A02A
 10
67.59213
 20
414.398563
 30
0.0
 40
2.0
 50
285.0
 51
358.6667
  0
ARC
  8
21
  5
A02B
 10
68.254531
 20
410.434948
 30
0.0
 40
2.0
 50
105.0
 51
179.5
  0
LINE
  8
21
  5
A02C
 10
67.736892
 20
412.366799
 30
0.0
 11
68.109768
 21
412.466711
 31
0.0
  0
LINE
  8
21
  5
A02D
 10
66.211172
 20
405.475221
 30
0.0
 11
66.254607
 21
410.452401
 31
0.0
  0
TEXT
  8
L20
  5
A02E
 10
-225.358163
 20
438.856216
 30
0.0
 40
10.5
  1
FIBOX MINI 175x175x75 COVER
  0
ENDBLK
  8
0
  5
A036
  0
ENDSEC
  0
SECTION
  2
ENTITIES
  0
VIEWPORT
  8
0
  5
1
 67
     1
 68
     1
 10
210.0
 20
152.094241
 30
0.0
 40
420.0
 41
304.188482
 69
     1
1001
ACAD
1000
MVIEW
1002
{
1070
    16
1010
0.0
1020
0.0
1030
0.0
1010
0.0
1020
0.0
1030
1.0
1040
0.0
1040
304.188482
1040
210.0
1040
152.094241
1040
50.0
1040
0.0
1040
0.0
1070
     0
1070
   100
1070
     1
1070
     1
1070
     1
1070
     0
1070
     0
1070
     0
1040
0.0
1040
0.0
1040
0.0
1040
1.0
1040
1.0
1040
0.0
1040
0.0
1070
     0
1002
{
1002
}
1002
}
  0
INSERT
  8
L1
  5
A037
  2
MI17575C
 10
0.0
 20
0.0
 30
0.0
  0
ENDSEC
  0
EOF
