  0
SECTION
  2
HEADER
  9
$ACADVER
  1
AC1014
  9
$ACADMAINTVER
 70
     9
  9
$DWGCODEPAGE
  3
ANSI_1252
  9
$INSBASE
 10
0.0
 20
0.0
 30
0.0
  9
$EXTMIN
 10
0.0
 20
0.0
 30
0.0
  9
$EXTMAX
 10
2100.0
 20
1485.0
 30
0.0
  9
$LIMMIN
 10
0.0
 20
0.0
  9
$LIMMAX
 10
2100.0
 20
1485.0
  9
$ORTHOMODE
 70
     0
  9
$REGENMODE
 70
     1
  9
$FILLMODE
 70
     1
  9
$QTEXTMODE
 70
     0
  9
$MIRRTEXT
 70
     1
  9
$DRAGMODE
 70
     2
  9
$LTSCALE
 40
5.0
  9
$OSMODE
 70
    37
  9
$ATTMODE
 70
     1
  9
$TEXTSIZE
 40
17.5
  9
$TRACEWID
 40
1.0
  9
$TEXTSTYLE
  7
STANDARD
  9
$CLAYER
  8
0
  9
$CELTYPE
  6
BYLAYER
  9
$CECOLOR
 62
   256
  9
$CELTSCALE
 40
1.0
  9
$DELOBJ
 70
     1
  9
$DISPSILH
 70
     0
  9
$DIMSCALE
 40
1.0
  9
$DIMASZ
 40
30.0
  9
$DIMEXO
 40
5.0
  9
$DIMDLI
 40
3.75
  9
$DIMRND
 40
0.0
  9
$DIMDLE
 40
0.0
  9
$DIMEXE
 40
5.0
  9
$DIMTP
 40
0.0
  9
$DIMTM
 40
0.0
  9
$DIMTXT
 40
17.5
  9
$DIMCEN
 40
2.5
  9
$DIMTSZ
 40
0.0
  9
$DIMTOL
 70
     0
  9
$DIMLIM
 70
     0
  9
$DIMTIH
 70
     1
  9
$DIMTOH
 70
     1
  9
$DIMSE1
 70
     0
  9
$DIMSE2
 70
     0
  9
$DIMTAD
 70
     1
  9
$DIMZIN
 70
     0
  9
$DIMBLK
  1

  9
$DIMASO
 70
     1
  9
$DIMSHO
 70
     1
  9
$DIMPOST
  1

  9
$DIMAPOST
  1

  9
$DIMALT
 70
     0
  9
$DIMALTD
 70
     3
  9
$DIMALTF
 40
0.0393700787
  9
$DIMLFAC
 40
1.0
  9
$DIMTOFL
 70
     1
  9
$DIMTVP
 40
0.0
  9
$DIMTIX
 70
     0
  9
$DIMSOXD
 70
     0
  9
$DIMSAH
 70
     0
  9
$DIMBLK1
  1

  9
$DIMBLK2
  1

  9
$DIMSTYLE
  2
ISO-25
  9
$DIMCLRD
 70
     0
  9
$DIMCLRE
 70
     0
  9
$DIMCLRT
 70
     0
  9
$DIMTFAC
 40
1.0
  9
$DIMGAP
 40
7.62
  9
$DIMJUST
 70
     0
  9
$DIMSD1
 70
     0
  9
$DIMSD2
 70
     0
  9
$DIMTOLJ
 70
     0
  9
$DIMTZIN
 70
     0
  9
$DIMALTZ
 70
     0
  9
$DIMALTTZ
 70
     0
  9
$DIMFIT
 70
     3
  9
$DIMUPT
 70
     0
  9
$DIMUNIT
 70
     2
  9
$DIMDEC
 70
     2
  9
$DIMTDEC
 70
     2
  9
$DIMALTU
 70
     2
  9
$DIMALTTD
 70
     3
  9
$DIMTXSTY
  7
STANDARD
  9
$DIMAUNIT
 70
     0
  9
$LUNITS
 70
     2
  9
$LUPREC
 70
     2
  9
$SKETCHINC
 40
1.0
  9
$FILLETRAD
 40
10.0
  9
$AUNITS
 70
     0
  9
$AUPREC
 70
     2
  9
$MENU
  1
.
  9
$ELEVATION
 40
0.0
  9
$PELEVATION
 40
0.0
  9
$THICKNESS
 40
0.0
  9
$LIMCHECK
 70
     0
  9
$CHAMFERA
 40
10.0
  9
$CHAMFERB
 40
10.0
  9
$CHAMFERC
 40
20.0
  9
$CHAMFERD
 40
0.0
  9
$SKPOLY
 70
     0
  9
$TDCREATE
 40
2456582.491838681
  9
$TDUPDATE
 40
2456582.491839305
  9
$TDINDWG
 40
0.0000000116
  9
$TDUSRTIMER
 40
0.0000000116
  9
$USRTIMER
 70
     1
  9
$ANGBASE
 50
0.0
  9
$ANGDIR
 70
     0
  9
$PDMODE
 70
     0
  9
$PDSIZE
 40
-1.0
  9
$PLINEWID
 40
0.0
  9
$COORDS
 70
     1
  9
$SPLFRAME
 70
     0
  9
$SPLINETYPE
 70
     6
  9
$SPLINESEGS
 70
     8
  9
$ATTDIA
 70
     0
  9
$ATTREQ
 70
     1
  9
$HANDLING
 70
     1
  9
$HANDSEED
  5
55E
  9
$SURFTAB1
 70
     6
  9
$SURFTAB2
 70
     6
  9
$SURFTYPE
 70
     6
  9
$SURFU
 70
     6
  9
$SURFV
 70
     6
  9
$UCSNAME
  2

  9
$UCSORG
 10
0.0
 20
0.0
 30
0.0
  9
$UCSXDIR
 10
1.0
 20
0.0
 30
0.0
  9
$UCSYDIR
 10
0.0
 20
1.0
 30
0.0
  9
$PUCSNAME
  2

  9
$PUCSORG
 10
0.0
 20
0.0
 30
0.0
  9
$PUCSXDIR
 10
1.0
 20
0.0
 30
0.0
  9
$PUCSYDIR
 10
0.0
 20
1.0
 30
0.0
  9
$USERI1
 70
     0
  9
$USERI2
 70
     0
  9
$USERI3
 70
     0
  9
$USERI4
 70
     0
  9
$USERI5
 70
     0
  9
$USERR1
 40
0.0
  9
$USERR2
 40
0.0
  9
$USERR3
 40
0.0
  9
$USERR4
 40
0.0
  9
$USERR5
 40
0.0
  9
$WORLDVIEW
 70
     1
  9
$SHADEDGE
 70
     3
  9
$SHADEDIF
 70
    70
  9
$TILEMODE
 70
     1
  9
$MAXACTVP
 70
    64
  9
$PINSBASE
 10
0.0
 20
0.0
 30
0.0
  9
$PLIMCHECK
 70
     0
  9
$PEXTMIN
 10
1.0000000000E+20
 20
1.0000000000E+20
 30
1.0000000000E+20
  9
$PEXTMAX
 10
-1.0000000000E+20
 20
-1.0000000000E+20
 30
-1.0000000000E+20
  9
$PLIMMIN
 10
0.0
 20
0.0
  9
$PLIMMAX
 10
420.0
 20
297.0
  9
$UNITMODE
 70
     0
  9
$VISRETAIN
 70
     1
  9
$PLINEGEN
 70
     0
  9
$PSLTSCALE
 70
     1
  9
$TREEDEPTH
 70
  3020
  9
$PICKSTYLE
 70
     1
  9
$CMLSTYLE
  2
STANDARD
  9
$CMLJUST
 70
     0
  9
$CMLSCALE
 40
20.0
  9
$PROXYGRAPHICS
 70
     1
  9
$MEASUREMENT
 70
     1
  0
ENDSEC
  0
SECTION
  2
CLASSES
  0
CLASS
  1
ACDBDICTIONARYWDFLT
  2
AcDbDictionaryWithDefault
  3
ObjectDBX Classes
 90
        0
280
     0
281
     0
  0
CLASS
  1
VISUALSTYLE
  2
AcDbVisualStyle
  3
ObjectDBX Classes
 90
     4095
280
     0
281
     0
  0
CLASS
  1
MATERIAL
  2
AcDbMaterial
  3
ObjectDBX Classes
 90
     1153
280
     0
281
     0
  0
CLASS
  1
XRECORD
  2
AcDbXrecord
  3
AutoCAD 2000
 90
        0
280
     0
281
     0
  0
CLASS
  1
LWPOLYLINE
  2
AcDbPolyline
  3
AutoCAD 2000
 90
        0
280
     0
281
     1
  0
CLASS
  1
HATCH
  2
AcDbHatch
  3
AutoCAD 2000
 90
        0
280
     0
281
     1
  0
ENDSEC
  0
SECTION
  2
TABLES
  0
TABLE
  2
VPORT
  5
8
330
0
100
AcDbSymbolTable
 70
     1
  0
VPORT
  5
29
330
8
100
AcDbSymbolTableRecord
100
AcDbViewportTableRecord
  2
*ACTIVE
 70
     0
 10
0.0
 20
0.0
 11
1.0
 21
1.0
 12
1050.0
 22
742.5
 13
0.0
 23
0.0
 14
10.0
 24
10.0
 15
10.0
 25
10.0
 16
0.0
 26
0.0
 36
1.0
 17
0.0
 27
0.0
 37
0.0
 40
1485.0
 41
1.4141414141
 42
50.0
 43
0.0
 44
0.0
 50
0.0
 51
0.0
 71
     0
 72
  2000
 73
     1
 74
     3
 75
     0
 76
     0
 77
     0
 78
     0
  0
ENDTAB
  0
TABLE
  2
LTYPE
  5
5
330
0
100
AcDbSymbolTable
 70
     6
  0
LTYPE
  5
14
330
5
100
AcDbSymbolTableRecord
100
AcDbLinetypeTableRecord
  2
BYBLOCK
 70
     0
  3

 72
    65
 73
     0
 40
0.0
  0
LTYPE
  5
15
330
5
100
AcDbSymbolTableRecord
100
AcDbLinetypeTableRecord
  2
BYLAYER
 70
     0
  3

 72
    65
 73
     0
 40
0.0
  0
LTYPE
  5
16
330
5
100
AcDbSymbolTableRecord
100
AcDbLinetypeTableRecord
  2
CONTINUOUS
 70
     0
  3
Solid line
 72
    65
 73
     0
 40
0.0
  0
LTYPE
  5
3F
330
5
100
AcDbSymbolTableRecord
100
AcDbLinetypeTableRecord
  2
HIDDEN
 70
     0
  3
Hidden __ __ __ __ __ __ __ __ __ __ __ __ __ __
 72
    65
 73
     2
 40
1.905
 49
1.27
 74
     0
 49
-0.635
 74
     0
  0
LTYPE
  5
40
330
5
100
AcDbSymbolTableRecord
100
AcDbLinetypeTableRecord
  2
PHANTOM
 70
     0
  3
Phantom ______  __  __  ______  __  __  ______
 72
    65
 73
     6
 40
12.7
 49
6.35
 74
     0
 49
-1.27
 74
     0
 49
1.27
 74
     0
 49
-1.27
 74
     0
 49
1.27
 74
     0
 49
-1.27
 74
     0
  0
LTYPE
  5
41
330
5
100
AcDbSymbolTableRecord
100
AcDbLinetypeTableRecord
  2
CENTER
 70
     0
  3
Center ____ _ ____ _ ____ _ ____ _ ____ _ ____
 72
    65
 73
     4
 40
10.16
 49
6.35
 74
     0
 49
-1.27
 74
     0
 49
1.27
 74
     0
 49
-1.27
 74
     0
  0
LTYPE
  5
42
330
5
100
AcDbSymbolTableRecord
100
AcDbLinetypeTableRecord
  2
CENTERX2
 70
     0
  3
Center (2x) ________  __  ________  __  _____
 72
    65
 73
     4
 40
20.32
 49
12.7
 74
     0
 49
-2.54
 74
     0
 49
2.54
 74
     0
 49
-2.54
 74
     0
  0
LTYPE
  5
43
330
5
100
AcDbSymbolTableRecord
100
AcDbLinetypeTableRecord
  2
DOT2
 70
     0
  3
Dot (.5x) ........................................
 72
    65
 73
     2
 40
0.635
 49
0.0
 74
     0
 49
-0.635
 74
     0
  0
ENDTAB
  0
TABLE
  2
LAYER
  5
2
330
0
100
AcDbSymbolTable
 70
     1
  0
LAYER
  5
10
330
2
100
AcDbSymbolTableRecord
100
AcDbLayerTableRecord
  2
0
 70
     0
 62
     7
  6
CONTINUOUS
  0
ENDTAB
  0
TABLE
  2
STYLE
  5
3
330
0
100
AcDbSymbolTable
 70
     1
  0
STYLE
  5
11
330
3
100
AcDbSymbolTableRecord
100
AcDbTextStyleTableRecord
  2
STANDARD
 70
     0
 40
0.0
 41
1.0
 50
0.0
 71
     0
 42
17.5
  3
txt
  4

  0
ENDTAB
  0
TABLE
  2
VIEW
  5
6
330
0
100
AcDbSymbolTable
 70
     0
  0
ENDTAB
  0
TABLE
  2
UCS
  5
7
330
0
100
AcDbSymbolTable
 70
     0
  0
ENDTAB
  0
TABLE
  2
APPID
  5
9
330
0
100
AcDbSymbolTable
 70
     1
  0
APPID
  5
12
330
9
100
AcDbSymbolTableRecord
100
AcDbRegAppTableRecord
  2
ACAD
 70
     0
  0
ENDTAB
  0
TABLE
  2
DIMSTYLE
  5
A
330
0
100
AcDbSymbolTable
 70
     1
  0
DIMSTYLE
105
27
330
A
100
AcDbSymbolTableRecord
100
AcDbDimStyleTableRecord
  2
ISO-25
 70
     0
  3

  4

  5

  6

  7

 40
1.0
 41
2.5
 42
0.625
 43
3.75
 44
1.25
 45
0.0
 46
0.0
 47
0.0
 48
0.0
140
2.5
141
2.5
142
0.0
143
0.0393700787
144
1.0
145
0.0
146
1.0
147
0.625
 71
     0
 72
     0
 73
     0
 74
     0
 75
     0
 76
     0
 77
     1
 78
     8
170
     0
171
     3
172
     1
173
     0
174
     0
175
     0
176
     0
177
     0
178
     0
270
     2
271
     2
272
     2
273
     2
274
     3
340
11
275
     0
280
     0
281
     0
282
     0
283
     0
284
     8
285
     0
286
     0
287
     3
288
     0
  0
ENDTAB
  0
TABLE
  2
BLOCK_RECORD
  5
1
330
0
100
AcDbSymbolTable
 70
     1
  0
BLOCK_RECORD
  5
1F
330
1
100
AcDbSymbolTableRecord
100
AcDbBlockTableRecord
  2
*MODEL_SPACE
  0
BLOCK_RECORD
  5
1B
330
1
100
AcDbSymbolTableRecord
100
AcDbBlockTableRecord
  2
*PAPER_SPACE
  0
BLOCK_RECORD
  5
23
330
1
100
AcDbSymbolTableRecord
100
AcDbBlockTableRecord
  2
*PAPER_SPACE0
  0
ENDTAB
  0
ENDSEC
  0
SECTION
  2
BLOCKS
  0
BLOCK
  5
20
330
1F
100
AcDbEntity
  8
0
100
AcDbBlockBegin
  2
*MODEL_SPACE
 70
     0
 10
0.0
 20
0.0
 30
0.0
  3
*MODEL_SPACE
  1

  0
ENDBLK
  5
21
330
1F
100
AcDbEntity
  8
0
100
AcDbBlockEnd
  0
BLOCK
  5
1C
330
1B
100
AcDbEntity
 67
     1
  8
0
100
AcDbBlockBegin
  2
*PAPER_SPACE
 70
     0
 10
0.0
 20
0.0
 30
0.0
  3
*PAPER_SPACE
  1

  0
ENDBLK
  5
1D
330
1B
100
AcDbEntity
 67
     1
  8
0
100
AcDbBlockEnd
  0
BLOCK
  5
24
330
23
100
AcDbEntity
  8
0
100
AcDbBlockBegin
  2
*PAPER_SPACE0
 70
     0
 10
0.0
 20
0.0
 30
0.0
  3
*PAPER_SPACE0
  1

  0
ENDBLK
  5
25
330
23
100
AcDbEntity
  8
0
100
AcDbBlockEnd
  0
ENDSEC
  0
SECTION
  2
ENTITIES
  0
CIRCLE
  5
44
330
1F
100
AcDbEntity
  8
0
  6
CONTINUOUS
 62
     7
100
AcDbCircle
 10
1004.0053951368
 20
777.2719484882
 30
0.0
 40
6.599999999999956
  0
CIRCLE
  5
45
330
1F
100
AcDbEntity
  8
0
  6
CONTINUOUS
 62
     7
100
AcDbCircle
 10
1004.0053951368
 20
777.2719484882
 30
0.0
 40
6.850000000000064
  0
LINE
  5
46
330
1F
100
AcDbEntity
  8
0
  6
CONTINUOUS
 62
     7
100
AcDbLine
 10
1006.1999164447
 20
778.3927418886
 30
0.0
 11
1005.8611981496
 21
778.3910779644
 31
0.0
  0
ARC
  5
47
330
1F
100
AcDbEntity
  8
0
  6
CONTINUOUS
 62
     7
100
AcDbCircle
 10
1003.4054023756
 20
777.2690011897
 30
0.0
 40
2.699999999999845
100
AcDbArc
 50
24.5560996043
 51
156.0067952152
  0
LINE
  5
48
330
1F
100
AcDbEntity
  8
0
  6
CONTINUOUS
 62
     7
100
AcDbLine
 10
1000.9387038574
 20
778.3668975707
 30
0.0
 11
999.5499901399
 21
778.3600759821
 31
0.0
  0
LINE
  5
49
330
1F
100
AcDbEntity
  8
0
  6
CONTINUOUS
 62
     7
100
AcDbLine
 10
999.5499901399
 20
778.3600759821
 30
0.0
 11
999.5608977899
 21
776.1401027337
 31
0.0
  0
LINE
  5
4A
330
1F
100
AcDbEntity
  8
0
  6
CONTINUOUS
 62
     7
100
AcDbLine
 10
999.5608977899
 20
776.1401027337
 30
0.0
 11
1000.9496115074
 21
776.1469243223
 31
0.0
  0
ARC
  5
4B
330
1F
100
AcDbEntity
  8
0
  6
CONTINUOUS
 62
     7
100
AcDbCircle
 10
1003.4054023756
 20
777.2690011897
 30
0.0
 40
2.699999999999807
100
AcDbArc
 50
204.5560996043
 51
336.0067952152
  0
LINE
  5
4C
330
1F
100
AcDbEntity
  8
0
  6
CONTINUOUS
 62
     7
100
AcDbLine
 10
1005.8721057996
 20
776.1711048324
 30
0.0
 11
1006.2108240947
 21
776.1727686401
 31
0.0
  0
LINE
  5
4D
330
1F
100
AcDbEntity
  8
0
  6
CONTINUOUS
 62
     7
100
AcDbLine
 10
1006.2108240947
 20
776.1727686401
 30
0.0
 11
1006.1999164447
 21
778.3927418886
 31
0.0
  0
LWPOLYLINE
  5
4E
330
1F
100
AcDbEntity
  8
0
  6
CONTINUOUS
 62
     7
100
AcDbPolyline
 90
        5
 70
   128
 43
0.0
 10
1005.8611981496
 20
778.3910779644
 10
1004.2513959035
 20
778.3831703372
 10
1003.1775884256
 20
778.377895559
 10
1002.2704653367
 20
778.3734395297
 10
1000.9387038574
 20
778.3668975707
  0
LWPOLYLINE
  5
4F
330
1F
100
AcDbEntity
  8
0
  6
CONTINUOUS
 62
     7
100
AcDbPolyline
 90
        5
 70
   128
 43
0.0
 10
1000.9496115074
 20
776.1469243223
 10
1002.5593988523
 20
776.1548320658
 10
1003.6332063302
 20
776.1601068441
 10
1004.5403294191
 20
776.1645628734
 10
1005.8721057996
 20
776.1711048324
  0
LWPOLYLINE
  5
50
330
1F
100
AcDbEntity
  8
0
  6
CONTINUOUS
 62
     7
100
AcDbPolyline
 90
        4
 70
   128
 43
0.0
 10
1000.4103235826
 20
777.0042857109
 10
1000.5770675764
 20
777.0051047218
 10
1000.7249914035
 20
777.0058314153
 10
1000.7653735504
 20
777.0060297871
  0
LWPOLYLINE
  5
51
330
1F
100
AcDbEntity
  8
0
  6
CONTINUOUS
 62
     7
100
AcDbPolyline
 90
        4
 70
   128
 43
0.0
 10
1000.9305082187
 20
778.2068553742
 10
1000.7761172876
 20
778.2060970448
 10
1000.5976013765
 20
778.2052201464
 10
1000.5532853231
 20
778.2050023915
  0
LINE
  5
52
330
1F
100
AcDbEntity
  8
0
  6
CONTINUOUS
 62
     7
100
AcDbLine
 10
999.83166679
 20
777.0014432271
 30
0.0
 11
999.8257808313
 21
778.2014287322
 31
0.0
  0
LINE
  5
53
330
1F
100
AcDbEntity
  8
0
  6
CONTINUOUS
 62
     7
100
AcDbLine
 10
1000.4103235826
 20
777.0042857109
 30
0.0
 11
999.83166679
 21
777.0014432271
 31
0.0
  0
LINE
  5
54
330
1F
100
AcDbEntity
  8
0
  6
CONTINUOUS
 62
     7
100
AcDbLine
 10
1000.5532853231
 20
778.2050023915
 30
0.0
 11
999.8257808313
 21
778.2014287322
 31
0.0
  0
ARC
  5
55
330
1F
100
AcDbEntity
  8
0
  6
CONTINUOUS
 62
     7
100
AcDbCircle
 10
1001.241868275
 20
776.2083679179
 30
0.0
 40
0.7999928354457431
100
AcDbArc
 50
7.461749551
 51
90.2817699592
  0
LWPOLYLINE
  5
56
330
1F
100
AcDbEntity
  8
0
  6
CONTINUOUS
 62
     7
100
AcDbPolyline
 90
        3
 70
   128
 43
0.0
 10
1003.1413488016
 20
776.3176926191
 10
1002.7415655479
 20
776.315728809
 10
1002.0350865945
 20
776.3122584101
  0
ARC
  5
57
330
1F
100
AcDbEntity
  8
0
  6
CONTINUOUS
 62
     7
100
AcDbCircle
 10
1003.935557848
 20
776.2215870641
 30
0.0
 40
0.8000026795166654
100
AcDbArc
 50
7.4625897392
 51
173.1003057341
  0
LWPOLYLINE
  5
58
330
1F
100
AcDbEntity
  8
0
  6
CONTINUOUS
 62
     7
100
AcDbPolyline
 90
        3
 70
   128
 43
0.0
 10
1005.5350415334
 20
776.3294509741
 10
1005.0621233806
 20
776.3271279645
 10
1004.7287844047
 20
776.3254904666
  0
LWPOLYLINE
  5
59
330
1F
100
AcDbEntity
  8
0
  6
CONTINUOUS
 62
     7
100
AcDbPolyline
 90
        4
 70
   128
 43
0.0
 10
1005.5257134065
 20
778.2294280723
 10
1005.5301688537
 20
777.3217258681
 10
1005.5344603881
 20
776.4470405772
 10
1005.5350415334
 20
776.3294509741
  0
LWPOLYLINE
  5
5A
330
1F
100
AcDbEntity
  8
0
  6
CONTINUOUS
 62
     7
100
AcDbPolyline
 90
        3
 70
   128
 43
0.0
 10
1003.6032251939
 20
778.2199844032
 10
1004.1928641424
 20
778.2228808746
 10
1005.5257134065
 20
778.2294280723
  0
ARC
  5
5B
330
1F
100
AcDbEntity
  8
0
  6
CONTINUOUS
 62
     7
100
AcDbCircle
 10
1002.7247581069
 20
778.4156668279
 30
0.0
 40
0.8999977968426371
100
AcDbArc
 50
193.1207559497
 51
347.4421379374
  0
LWPOLYLINE
  5
5C
330
1F
100
AcDbEntity
  8
0
  6
CONTINUOUS
 62
     7
100
AcDbPolyline
 90
        3
 70
   128
 43
0.0
 10
1001.2379340753
 20
777.0083510795
 10
1000.9764186963
 20
777.0070664364
 10
1000.7653735504
 20
777.0060297871
  0
LWPOLYLINE
  5
5D
330
1F
100
AcDbEntity
  8
0
  6
CONTINUOUS
 62
     7
100
AcDbPolyline
 90
        3
 70
   128
 43
0.0
 10
1000.9305082187
 20
778.2068553742
 10
1001.4714948759
 20
778.209512845
 10
1001.8482558355
 20
778.2113636157
  0
CIRCLE
  5
5E
330
1F
100
AcDbEntity
  8
0
  6
CONTINUOUS
 62
     7
100
AcDbCircle
 10
1004.0053951368
 20
777.2719484882
 30
0.0
 40
8.999999999999975
  0
CIRCLE
  5
5F
330
1F
100
AcDbEntity
  8
0
  6
CONTINUOUS
 62
     7
100
AcDbCircle
 10
1004.0053951368
 20
777.2719484882
 30
0.0
 40
11.00000000000006
  0
CIRCLE
  5
60
330
1F
100
AcDbEntity
  8
0
  6
CONTINUOUS
 62
     7
100
AcDbCircle
 10
1004.0053951368
 20
777.2719484882
 30
0.0
 40
7.000000000000052
  0
LINE
  5
61
330
1F
100
AcDbEntity
  8
0
  6
CONTINUOUS
 62
     7
100
AcDbLine
 10
1006.3730679378
 20
783.8593714068
 30
0.0
 11
1006.3738576993
 21
783.6994609924
 31
0.0
  0
LINE
  5
62
330
1F
100
AcDbEntity
  8
0
  6
CONTINUOUS
 62
     7
100
AcDbLine
 10
997.6014546976
 20
774.8404619878
 30
0.0
 11
997.4415503368
 21
774.8396764172
 31
0.0
  0
CIRCLE
  5
63
330
1F
100
AcDbEntity
  8
0
  6
CONTINUOUS
 62
     7
100
AcDbCircle
 10
641.0053951368
 20
495.7719484882
 30
0.0
 40
3.690000000000029
  0
LINE
  5
64
330
1F
100
AcDbEntity
  8
0
  6
CONTINUOUS
 62
     7
100
AcDbLine
 10
630.5991165265
 20
1078.7719410973
 30
0.0
 11
1022.7982900962
 21
1078.7719410973
 31
0.0
  0
ARC
  5
65
330
1F
100
AcDbEntity
  8
0
  6
CONTINUOUS
 62
     7
100
AcDbCircle
 10
1032.471885555
 20
1074.7406694617
 30
0.0
 40
10.47996183672338
100
AcDbArc
 50
157.3770724532
 51
177.0941162588
  0
LINE
  5
66
330
1F
100
AcDbEntity
  8
0
  6
CONTINUOUS
 62
     7
100
AcDbLine
 10
1022.0053993091
 20
1075.2719563561
 30
0.0
 11
624.5053909645
 21
1075.2719563561
 31
0.0
  0
ARC
  5
67
330
1F
100
AcDbEntity
  8
0
  6
CONTINUOUS
 62
     7
100
AcDbCircle
 10
616.0086482228
 20
1075.1868975435
 30
0.0
 40
8.49716848242478
100
AcDbArc
 50
0.5735548698
 51
24.9552564182
  0
LINE
  5
68
330
1F
100
AcDbEntity
  8
0
  6
CONTINUOUS
 62
     7
100
AcDbLine
 10
623.7125001773
 20
1078.7719410973
 30
0.0
 11
629.4116727933
 21
1078.7719410973
 31
0.0
  0
LINE
  5
69
330
1F
100
AcDbEntity
  8
0
  6
CONTINUOUS
 62
     7
100
AcDbLine
 10
630.5991165265
 20
1078.7719410973
 30
0.0
 11
629.4116727933
 21
1078.7719410973
 31
0.0
  0
LINE
  5
6A
330
1F
100
AcDbEntity
  8
0
  6
CONTINUOUS
 62
     7
100
AcDbLine
 10
1022.7982900962
 20
1078.7719410973
 30
0.0
 11
1022.7982900962
 21
1076.7719370441
 31
0.0
  0
ARC
  5
6B
330
1F
100
AcDbEntity
  8
0
  6
CONTINUOUS
 62
     7
100
AcDbCircle
 10
1024.9517067051
 20
1074.6740879535
 30
0.0
 40
3.006355584128219
100
AcDbArc
 50
135.7488600343
 51
168.5292200978
  0
ARC
  5
6C
330
1F
100
AcDbEntity
  8
0
  6
CONTINUOUS
 62
     7
100
AcDbCircle
 10
1021.920357186
 20
1083.7686928023
 30
0.0
 40
8.497162020286128
100
AcDbArc
 50
270.5734427647
 51
294.9552633957
  0
LWPOLYLINE
  5
6D
330
1F
100
AcDbEntity
  8
0
  6
CONTINUOUS
 62
     7
100
AcDbPolyline
 90
        6
 70
   128
 43
0.0
 10
1022.0053993091
 20
1075.2719563561
 10
1022.5284747705
 20
1075.451753767
 10
1022.9858957157
 20
1075.631551178
 10
1023.3201138601
 20
1075.8112889843
 10
1023.4893910512
 20
1075.9910267906
 10
1023.5053948984
 20
1076.0648471432
  0
LINE
  5
6E
330
1F
100
AcDbEntity
  8
0
  6
CONTINUOUS
 62
     7
100
AcDbLine
 10
1025.5053989515
 20
1076.0648471432
 30
0.0
 11
1023.5053948984
 21
1076.0648471432
 31
0.0
  0
LINE
  5
6F
330
1F
100
AcDbEntity
  8
0
  6
CONTINUOUS
 62
     7
100
AcDbLine
 10
1025.5053989515
 20
478.4790498333
 30
0.0
 11
1025.5053989515
 21
1076.0648471432
 31
0.0
  0
ARC
  5
70
330
1F
100
AcDbEntity
  8
0
  6
CONTINUOUS
 62
     7
100
AcDbCircle
 10
1021.4739594672
 20
468.8047034678
 30
0.0
 40
10.48071953232986
100
AcDbArc
 50
67.3778045289
 51
87.0934893107
  0
LINE
  5
71
330
1F
100
AcDbEntity
  8
0
  6
CONTINUOUS
 62
     7
100
AcDbLine
 10
1022.0053993091
 20
479.2719406204
 30
0.0
 11
1022.0053993091
 21
1075.2719563561
 31
0.0
  0
LINE
  5
72
330
1F
100
AcDbEntity
  8
0
  6
CONTINUOUS
 62
     7
100
AcDbLine
 10
624.5053909645
 20
1075.2719563561
 30
0.0
 11
624.5053909645
 21
479.2719406204
 31
0.0
  0
LINE
  5
73
330
1F
100
AcDbEntity
  8
0
  6
CONTINUOUS
 62
     7
100
AcDbLine
 10
624.5053909645
 20
479.2719406204
 30
0.0
 11
1022.0053993091
 21
479.2719406204
 31
0.0
  0
CIRCLE
  5
74
330
1F
100
AcDbEntity
  8
0
  6
CONTINUOUS
 62
     7
100
AcDbCircle
 10
641.0053951368
 20
495.7719484882
 30
0.0
 40
3.000000000000114
  0
LWPOLYLINE
  5
75
330
1F
100
AcDbEntity
  8
0
  6
CONTINUOUS
 62
     7
100
AcDbPolyline
 90
        6
 70
   128
 43
0.0
 10
624.5053909645
 20
1075.2719563561
 10
624.3255935535
 20
1075.7950467186
 10
624.1457812414
 20
1076.2524527626
 10
623.966043435
 20
1076.5866858082
 10
623.7863056287
 20
1076.755933197
 10
623.7125001773
 20
1076.7719370441
  0
LINE
  5
76
330
1F
100
AcDbEntity
  8
0
  6
CONTINUOUS
 62
     7
100
AcDbLine
 10
623.7125001773
 20
1078.7719410973
 30
0.0
 11
623.7125001773
 21
1076.7719370441
 31
0.0
  0
ARC
  5
77
330
1F
100
AcDbEntity
  8
0
  6
CONTINUOUS
 62
     7
100
AcDbCircle
 10
625.0368308063
 20
1085.7391935087
 30
0.0
 40
10.48071953232699
100
AcDbArc
 50
247.3778045289
 51
267.0934893107
  0
LINE
  5
78
330
1F
100
AcDbEntity
  8
0
  6
CONTINUOUS
 62
     7
100
AcDbLine
 10
621.0053913221
 20
1076.0648471432
 30
0.0
 11
623.0053953752
 21
1076.0648471432
 31
0.0
  0
ARC
  5
79
330
1F
100
AcDbEntity
  8
0
  6
CONTINUOUS
 62
     7
100
AcDbCircle
 10
625.1031373172
 20
1078.2180722836
 30
0.0
 40
3.006143669325751
100
AcDbArc
 50
225.7477763394
 51
258.5307741185
  0
ARC
  5
7A
330
1F
100
AcDbEntity
  8
0
  6
CONTINUOUS
 62
     7
100
AcDbCircle
 10
624.5904330875
 20
470.7752041742
 30
0.0
 40
8.49716202028499
100
AcDbArc
 50
90.5734427647
 51
114.9552633957
  0
LINE
  5
7B
330
1F
100
AcDbEntity
  8
0
  6
CONTINUOUS
 62
     7
100
AcDbLine
 10
621.0053913221
 20
1076.0648471432
 30
0.0
 11
621.0053913221
 21
478.4790498333
 31
0.0
  0
LINE
  5
7C
330
1F
100
AcDbEntity
  8
0
  6
CONTINUOUS
 62
     7
100
AcDbLine
 10
1025.5053989515
 20
478.4790498333
 30
0.0
 11
1023.5053948984
 21
478.4790498333
 31
0.0
  0
ARC
  5
7D
330
1F
100
AcDbEntity
  8
0
  6
CONTINUOUS
 62
     7
100
AcDbCircle
 10
1021.4076529563
 20
476.3258246929
 30
0.0
 40
3.006143669326797
100
AcDbArc
 50
45.7477763394
 51
78.5307741185
  0
LINE
  5
7E
330
1F
100
AcDbEntity
  8
0
  6
CONTINUOUS
 62
     7
100
AcDbLine
 10
623.7125001773
 20
475.7719558792
 30
0.0
 11
629.4116727933
 21
475.7719558792
 31
0.0
  0
ARC
  5
7F
330
1F
100
AcDbEntity
  8
0
  6
CONTINUOUS
 62
     7
100
AcDbCircle
 10
614.0389047186
 20
479.8032275148
 30
0.0
 40
10.47996183672465
100
AcDbArc
 50
337.3770724532
 51
357.0941162588
  0
ARC
  5
80
330
1F
100
AcDbEntity
  8
0
  6
CONTINUOUS
 62
     7
100
AcDbCircle
 10
1030.5021420507
 20
479.3569994329
 30
0.0
 40
8.49716848242954
100
AcDbArc
 50
180.5735548698
 51
204.9552564182
  0
LINE
  5
81
330
1F
100
AcDbEntity
  8
0
  6
CONTINUOUS
 62
     7
100
AcDbLine
 10
630.5991165265
 20
475.7719558792
 30
0.0
 11
1022.7982900962
 21
475.7719558792
 31
0.0
  0
LINE
  5
82
330
1F
100
AcDbEntity
  8
0
  6
CONTINUOUS
 62
     7
100
AcDbLine
 10
630.5991165265
 20
475.7719558792
 30
0.0
 11
629.4116727933
 21
475.7719558792
 31
0.0
  0
LWPOLYLINE
  5
83
330
1F
100
AcDbEntity
  8
0
  6
CONTINUOUS
 62
     7
100
AcDbPolyline
 90
        6
 70
   128
 43
0.0
 10
1022.0053993091
 20
479.2719406204
 10
1022.1851967201
 20
478.7488502579
 10
1022.3650090322
 20
478.2914442139
 10
1022.5447468385
 20
477.9572111683
 10
1022.7244846448
 20
477.7879637795
 10
1022.7982900962
 20
477.7719599323
  0
LINE
  5
84
330
1F
100
AcDbEntity
  8
0
  6
CONTINUOUS
 62
     7
100
AcDbLine
 10
1022.7982900962
 20
475.7719558792
 30
0.0
 11
1022.7982900962
 21
477.7719599323
 31
0.0
  0
LWPOLYLINE
  5
85
330
1F
100
AcDbEntity
  8
0
  6
CONTINUOUS
 62
     7
100
AcDbPolyline
 90
        6
 70
   128
 43
0.0
 10
624.5053909645
 20
479.2719406204
 10
623.9823155031
 20
479.0921432095
 10
623.5248945579
 20
478.9123457985
 10
623.1906764135
 20
478.7326079922
 10
623.0213992223
 20
478.5528701859
 10
623.0053953752
 20
478.4790498333
  0
LINE
  5
86
330
1F
100
AcDbEntity
  8
0
  6
CONTINUOUS
 62
     7
100
AcDbLine
 10
621.0053913221
 20
478.4790498333
 30
0.0
 11
623.0053953752
 21
478.4790498333
 31
0.0
  0
LINE
  5
87
330
1F
100
AcDbEntity
  8
0
  6
CONTINUOUS
 62
     7
100
AcDbLine
 10
623.7125001773
 20
475.7719558792
 30
0.0
 11
623.7125001773
 21
477.7719599323
 31
0.0
  0
ARC
  5
88
330
1F
100
AcDbEntity
  8
0
  6
CONTINUOUS
 62
     7
100
AcDbCircle
 10
621.5590835685
 20
479.869809023
 30
0.0
 40
3.00635558412705
100
AcDbArc
 50
315.7488600343
 51
348.5292200979
  0
LINE
  5
89
330
1F
100
AcDbEntity
  8
0
  6
CONTINUOUS
 62
     7
100
AcDbLine
 10
599.0054957494
 20
481.0118598061
 30
0.0
 11
619.005297862
 21
481.0118598061
 31
0.0
  0
LINE
  5
8A
330
1F
100
AcDbEntity
  8
0
  6
CONTINUOUS
 62
     7
100
AcDbLine
 10
619.005297862
 20
481.0118598061
 30
0.0
 11
619.005297862
 21
481.0218435841
 31
0.0
  0
LINE
  5
8B
330
1F
100
AcDbEntity
  8
0
  6
CONTINUOUS
 62
     7
100
AcDbLine
 10
599.0054957494
 20
481.0218435841
 30
0.0
 11
619.005297862
 21
481.0218435841
 31
0.0
  0
LINE
  5
8C
330
1F
100
AcDbEntity
  8
0
  6
CONTINUOUS
 62
     7
100
AcDbLine
 10
599.0054957494
 20
481.0118598061
 30
0.0
 11
599.0054957494
 21
481.0218435841
 31
0.0
  0
LINE
  5
8D
330
1F
100
AcDbEntity
  8
0
  6
CONTINUOUS
 62
     7
100
AcDbLine
 10
619.005297862
 20
1073.5320371704
 30
0.0
 11
619.005297862
 21
1073.5220533924
 31
0.0
  0
LINE
  5
8E
330
1F
100
AcDbEntity
  8
0
  6
CONTINUOUS
 62
     7
100
AcDbLine
 10
599.0054957494
 20
1073.5320371704
 30
0.0
 11
619.005297862
 21
1073.5320371704
 31
0.0
  0
LINE
  5
8F
330
1F
100
AcDbEntity
  8
0
  6
CONTINUOUS
 62
     7
100
AcDbLine
 10
599.0054957494
 20
1073.5320371704
 30
0.0
 11
599.0054957494
 21
1073.5220533924
 31
0.0
  0
LINE
  5
90
330
1F
100
AcDbEntity
  8
0
  6
CONTINUOUS
 62
     7
100
AcDbLine
 10
599.0054957494
 20
1073.5220533924
 30
0.0
 11
619.005297862
 21
1073.5220533924
 31
0.0
  0
LINE
  5
91
330
1F
100
AcDbEntity
  8
0
  6
CONTINUOUS
 62
     7
100
AcDbLine
 10
1027.5054924116
 20
481.0118598061
 30
0.0
 11
1027.5054924116
 21
481.0218435841
 31
0.0
  0
LINE
  5
92
330
1F
100
AcDbEntity
  8
0
  6
CONTINUOUS
 62
     7
100
AcDbLine
 10
1047.5052945241
 20
481.0118598061
 30
0.0
 11
1027.5054924116
 21
481.0118598061
 31
0.0
  0
LINE
  5
93
330
1F
100
AcDbEntity
  8
0
  6
CONTINUOUS
 62
     7
100
AcDbLine
 10
1047.5052945241
 20
481.0118598061
 30
0.0
 11
1047.5052945241
 21
481.0218435841
 31
0.0
  0
LINE
  5
94
330
1F
100
AcDbEntity
  8
0
  6
CONTINUOUS
 62
     7
100
AcDbLine
 10
1047.5052945241
 20
481.0218435841
 30
0.0
 11
1027.5054924116
 21
481.0218435841
 31
0.0
  0
LINE
  5
95
330
1F
100
AcDbEntity
  8
0
  6
CONTINUOUS
 62
     7
100
AcDbLine
 10
1027.5053881034
 20
1073.5219341831
 30
0.0
 11
1027.5053881034
 21
1076.521955164
 31
0.0
  0
ARC
  5
96
330
1F
100
AcDbEntity
  8
0
  6
CONTINUOUS
 62
     7
100
AcDbCircle
 10
1022.5053951368
 20
1076.5219484882
 30
0.0
 40
5.0
100
AcDbArc
 50
0.0
 51
90.0
  0
LINE
  5
97
330
1F
100
AcDbEntity
  8
0
  6
CONTINUOUS
 62
     7
100
AcDbLine
 10
1022.5053928718
 20
1081.5219503956
 30
0.0
 11
1021.5053908452
 21
1081.5219503956
 31
0.0
  0
LINE
  5
98
330
1F
100
AcDbEntity
  8
0
  6
CONTINUOUS
 62
     7
100
AcDbLine
 10
1021.5053908452
 20
1081.5219503956
 30
0.0
 11
1021.5053908452
 21
1086.0219520645
 31
0.0
  0
LINE
  5
99
330
1F
100
AcDbEntity
  8
0
  6
CONTINUOUS
 62
     7
100
AcDbLine
 10
1021.5053908452
 20
1086.0219520645
 30
0.0
 11
1020.5053888187
 21
1086.0219520645
 31
0.0
  0
LINE
  5
9A
330
1F
100
AcDbEntity
  8
0
  6
CONTINUOUS
 62
     7
100
AcDbLine
 10
1020.5053888187
 20
1086.0219520645
 30
0.0
 11
1020.5053888187
 21
1085.0219351368
 31
0.0
  0
LINE
  5
9B
330
1F
100
AcDbEntity
  8
0
  6
CONTINUOUS
 62
     7
100
AcDbLine
 10
626.0054014549
 20
1085.0219351368
 30
0.0
 11
1020.5053888187
 21
1085.0219351368
 31
0.0
  0
LINE
  5
9C
330
1F
100
AcDbEntity
  8
0
  6
CONTINUOUS
 62
     7
100
AcDbLine
 10
626.0054014549
 20
1085.0219351368
 30
0.0
 11
626.0054014549
 21
1086.0219520645
 31
0.0
  0
LINE
  5
9D
330
1F
100
AcDbEntity
  8
0
  6
CONTINUOUS
 62
     7
100
AcDbLine
 10
626.0054014549
 20
1086.0219520645
 30
0.0
 11
625.0053994283
 21
1086.0219520645
 31
0.0
  0
LINE
  5
9E
330
1F
100
AcDbEntity
  8
0
  6
CONTINUOUS
 62
     7
100
AcDbLine
 10
625.0053994283
 20
1086.0219520645
 30
0.0
 11
625.0053994283
 21
1081.5219503956
 31
0.0
  0
LINE
  5
9F
330
1F
100
AcDbEntity
  8
0
  6
CONTINUOUS
 62
     7
100
AcDbLine
 10
625.0053994283
 20
1081.5219503956
 30
0.0
 11
624.0053974018
 21
1081.5219503956
 31
0.0
  0
ARC
  5
A0
330
1F
100
AcDbEntity
  8
0
  6
CONTINUOUS
 62
     7
100
AcDbCircle
 10
624.0053951368
 20
1076.5219484882
 30
0.0
 40
5.0
100
AcDbArc
 50
90.0
 51
180.0
  0
LINE
  5
A1
330
1F
100
AcDbEntity
  8
0
  6
CONTINUOUS
 62
     7
100
AcDbLine
 10
619.0054021701
 20
1076.521955164
 30
0.0
 11
619.0054021701
 21
1073.5219341831
 31
0.0
  0
LINE
  5
A2
330
1F
100
AcDbEntity
  8
0
  6
CONTINUOUS
 62
     7
100
AcDbLine
 10
619.0054021701
 20
1073.5219341831
 30
0.0
 11
615.5054025278
 21
1073.5219341831
 31
0.0
  0
LINE
  5
A3
330
1F
100
AcDbEntity
  8
0
  6
CONTINUOUS
 62
     7
100
AcDbLine
 10
615.5054025278
 20
481.0219627934
 30
0.0
 11
615.5054025278
 21
1073.5219341831
 31
0.0
  0
LINE
  5
A4
330
1F
100
AcDbEntity
  8
0
  6
CONTINUOUS
 62
     7
100
AcDbLine
 10
615.5054025278
 20
481.0219627934
 30
0.0
 11
619.0054021701
 21
481.0219627934
 31
0.0
  0
LINE
  5
A5
330
1F
100
AcDbEntity
  8
0
  6
CONTINUOUS
 62
     7
100
AcDbLine
 10
619.0054021701
 20
481.0219627934
 30
0.0
 11
619.0054021701
 21
478.0219418125
 31
0.0
  0
ARC
  5
A6
330
1F
100
AcDbEntity
  8
0
  6
CONTINUOUS
 62
     7
100
AcDbCircle
 10
624.0053951368
 20
478.0219484882
 30
0.0
 40
5.000000000000114
100
AcDbArc
 50
180.0
 51
270.0
  0
LINE
  5
A7
330
1F
100
AcDbEntity
  8
0
  6
CONTINUOUS
 62
     7
100
AcDbLine
 10
624.0053974018
 20
473.0219465809
 30
0.0
 11
625.0053994283
 21
473.0219465809
 31
0.0
  0
LINE
  5
A8
330
1F
100
AcDbEntity
  8
0
  6
CONTINUOUS
 62
     7
100
AcDbLine
 10
625.0053994283
 20
473.0219465809
 30
0.0
 11
625.0053994283
 21
468.521944912
 31
0.0
  0
LINE
  5
A9
330
1F
100
AcDbEntity
  8
0
  6
CONTINUOUS
 62
     7
100
AcDbLine
 10
625.0053994283
 20
468.521944912
 30
0.0
 11
626.0054014549
 21
468.521944912
 31
0.0
  0
LINE
  5
AA
330
1F
100
AcDbEntity
  8
0
  6
CONTINUOUS
 62
     7
100
AcDbLine
 10
626.0054014549
 20
468.521944912
 30
0.0
 11
626.0054014549
 21
469.5219618397
 31
0.0
  0
LINE
  5
AB
330
1F
100
AcDbEntity
  8
0
  6
CONTINUOUS
 62
     7
100
AcDbLine
 10
1020.5053888187
 20
469.5219618397
 30
0.0
 11
626.0054014549
 21
469.5219618397
 31
0.0
  0
LINE
  5
AC
330
1F
100
AcDbEntity
  8
0
  6
CONTINUOUS
 62
     7
100
AcDbLine
 10
1020.5053888187
 20
469.5219618397
 30
0.0
 11
1020.5053888187
 21
468.521944912
 31
0.0
  0
LINE
  5
AD
330
1F
100
AcDbEntity
  8
0
  6
CONTINUOUS
 62
     7
100
AcDbLine
 10
1020.5053888187
 20
468.521944912
 30
0.0
 11
1021.5053908452
 21
468.521944912
 31
0.0
  0
LINE
  5
AE
330
1F
100
AcDbEntity
  8
0
  6
CONTINUOUS
 62
     7
100
AcDbLine
 10
1021.5053908452
 20
468.521944912
 30
0.0
 11
1021.5053908452
 21
473.0219465809
 31
0.0
  0
LINE
  5
AF
330
1F
100
AcDbEntity
  8
0
  6
CONTINUOUS
 62
     7
100
AcDbLine
 10
1021.5053908452
 20
473.0219465809
 30
0.0
 11
1022.5053928718
 21
473.0219465809
 31
0.0
  0
ARC
  5
B0
330
1F
100
AcDbEntity
  8
0
  6
CONTINUOUS
 62
     7
100
AcDbCircle
 10
1022.5053951368
 20
478.0219484882
 30
0.0
 40
5.0
100
AcDbArc
 50
270.0
 51
0.0
  0
LINE
  5
B1
330
1F
100
AcDbEntity
  8
0
  6
CONTINUOUS
 62
     7
100
AcDbLine
 10
1027.5053881034
 20
478.0219418125
 30
0.0
 11
1027.5053881034
 21
481.0219627934
 31
0.0
  0
LINE
  5
B2
330
1F
100
AcDbEntity
  8
0
  6
CONTINUOUS
 62
     7
100
AcDbLine
 10
1027.5053881034
 20
481.0219627934
 30
0.0
 11
1031.0053877458
 21
481.0219627934
 31
0.0
  0
LINE
  5
B3
330
1F
100
AcDbEntity
  8
0
  6
CONTINUOUS
 62
     7
100
AcDbLine
 10
1031.0053877458
 20
1073.5219341831
 30
0.0
 11
1031.0053877458
 21
481.0219627934
 31
0.0
  0
LINE
  5
B4
330
1F
100
AcDbEntity
  8
0
  6
CONTINUOUS
 62
     7
100
AcDbLine
 10
1031.0053877458
 20
1073.5219341831
 30
0.0
 11
1027.5053881034
 21
1073.5219341831
 31
0.0
  0
LINE
  5
B5
330
1F
100
AcDbEntity
  8
0
  6
CONTINUOUS
 62
     7
100
AcDbLine
 10
622.3338149414
 20
1100.3503722267
 30
0.0
 11
600.1769654378
 21
1078.193507822
 31
0.0
  0
ARC
  5
B6
330
1F
100
AcDbEntity
  8
0
  6
CONTINUOUS
 62
     7
100
AcDbCircle
 10
625.1622493863
 20
1097.5219484882
 30
0.0
 40
4.0
100
AcDbArc
 50
90.0
 51
135.0
  0
LINE
  5
B7
330
1F
100
AcDbEntity
  8
0
  6
CONTINUOUS
 62
     7
100
AcDbLine
 10
1021.3485412225
 20
1101.5219611244
 30
0.0
 11
625.162249051
 21
1101.5219611244
 31
0.0
  0
ARC
  5
B8
330
1F
100
AcDbEntity
  8
0
  6
CONTINUOUS
 62
     7
100
AcDbCircle
 10
1021.3485408872
 20
1097.5219484882
 30
0.0
 40
4.0
100
AcDbArc
 50
45.0
 51
90.0
  0
LINE
  5
B9
330
1F
100
AcDbEntity
  8
0
  6
CONTINUOUS
 62
     7
100
AcDbLine
 10
1046.3338248357
 20
1078.193507822
 30
0.0
 11
1024.1769753322
 21
1100.3503722267
 31
0.0
  0
ARC
  5
BA
330
1F
100
AcDbEntity
  8
0
  6
CONTINUOUS
 62
     7
100
AcDbCircle
 10
1043.5053951368
 20
1075.3650942387
 30
0.0
 40
4.0
100
AcDbArc
 50
0.0
 51
45.0
  0
LINE
  5
BB
330
1F
100
AcDbEntity
  8
0
  6
CONTINUOUS
 62
     7
100
AcDbLine
 10
1047.5053988323
 20
1031.5219384747
 30
0.0
 11
1047.5053988323
 21
1075.3650886135
 31
0.0
  0
LINE
  5
BC
330
1F
100
AcDbEntity
  8
0
  6
CONTINUOUS
 62
     7
100
AcDbLine
 10
1044.0053991899
 20
1031.5219384747
 30
0.0
 11
1047.5053988323
 21
1031.5219384747
 31
0.0
  0
LINE
  5
BD
330
1F
100
AcDbEntity
  8
0
  6
CONTINUOUS
 62
     7
100
AcDbLine
 10
1044.0053991899
 20
1031.021944912
 30
0.0
 11
1044.0053991899
 21
1031.5219384747
 31
0.0
  0
LINE
  5
BE
330
1F
100
AcDbEntity
  8
0
  6
CONTINUOUS
 62
     7
100
AcDbLine
 10
1044.0053991899
 20
1008.0219430046
 30
0.0
 11
1044.0053991899
 21
1031.021944912
 31
0.0
  0
LINE
  5
BF
330
1F
100
AcDbEntity
  8
0
  6
CONTINUOUS
 62
     7
100
AcDbLine
 10
1044.0053991899
 20
1007.5219494419
 30
0.0
 11
1044.0053991899
 21
1008.0219430046
 31
0.0
  0
LINE
  5
C0
330
1F
100
AcDbEntity
  8
0
  6
CONTINUOUS
 62
     7
100
AcDbLine
 10
1047.5053988323
 20
1007.5219494419
 30
0.0
 11
1044.0053991899
 21
1007.5219494419
 31
0.0
  0
LINE
  5
C1
330
1F
100
AcDbEntity
  8
0
  6
CONTINUOUS
 62
     7
100
AcDbLine
 10
1047.5053988323
 20
547.0219475346
 30
0.0
 11
1047.5053988323
 21
1007.5219494419
 31
0.0
  0
LINE
  5
C2
330
1F
100
AcDbEntity
  8
0
  6
CONTINUOUS
 62
     7
100
AcDbLine
 10
1044.0053991899
 20
547.0219475346
 30
0.0
 11
1047.5053988323
 21
547.0219475346
 31
0.0
  0
LINE
  5
C3
330
1F
100
AcDbEntity
  8
0
  6
CONTINUOUS
 62
     7
100
AcDbLine
 10
1044.0053991899
 20
546.5219539719
 30
0.0
 11
1044.0053991899
 21
547.0219475346
 31
0.0
  0
LINE
  5
C4
330
1F
100
AcDbEntity
  8
0
  6
CONTINUOUS
 62
     7
100
AcDbLine
 10
1044.0053991899
 20
523.5219520645
 30
0.0
 11
1044.0053991899
 21
546.5219539719
 31
0.0
  0
LINE
  5
C5
330
1F
100
AcDbEntity
  8
0
  6
CONTINUOUS
 62
     7
100
AcDbLine
 10
1044.0053991899
 20
523.0219585018
 30
0.0
 11
1044.0053991899
 21
523.5219520645
 31
0.0
  0
LINE
  5
C6
330
1F
100
AcDbEntity
  8
0
  6
CONTINUOUS
 62
     7
100
AcDbLine
 10
1047.5053988323
 20
523.0219585018
 30
0.0
 11
1044.0053991899
 21
523.0219585018
 31
0.0
  0
LINE
  5
C7
330
1F
100
AcDbEntity
  8
0
  6
CONTINUOUS
 62
     7
100
AcDbLine
 10
1047.5053988323
 20
479.178808363
 30
0.0
 11
1047.5053988323
 21
523.0219585018
 31
0.0
  0
ARC
  5
C8
330
1F
100
AcDbEntity
  8
0
  6
CONTINUOUS
 62
     7
100
AcDbCircle
 10
1043.5053951368
 20
479.1788027378
 30
0.0
 40
4.0
100
AcDbArc
 50
315.0
 51
0.0
  0
LINE
  5
C9
330
1F
100
AcDbEntity
  8
0
  6
CONTINUOUS
 62
     7
100
AcDbLine
 10
1024.1769753322
 20
454.1935247498
 30
0.0
 11
1046.3338248357
 21
476.3503891544
 31
0.0
  0
ARC
  5
CA
330
1F
100
AcDbEntity
  8
0
  6
CONTINUOUS
 62
     7
100
AcDbCircle
 10
1021.3485408872
 20
457.0219484882
 30
0.0
 40
4.000000000000032
100
AcDbArc
 50
270.0
 51
315.0
  0
LINE
  5
CB
330
1F
100
AcDbEntity
  8
0
  6
CONTINUOUS
 62
     7
100
AcDbLine
 10
625.162249051
 20
453.0219358521
 30
0.0
 11
1021.3485412225
 21
453.0219358521
 31
0.0
  0
ARC
  5
CC
330
1F
100
AcDbEntity
  8
0
  6
CONTINUOUS
 62
     7
100
AcDbCircle
 10
625.1622493863
 20
457.0219484882
 30
0.0
 40
4.000000000000073
100
AcDbArc
 50
225.0000000001
 51
270.0
  0
LINE
  5
CD
330
1F
100
AcDbEntity
  8
0
  6
CONTINUOUS
 62
     7
100
AcDbLine
 10
600.1769654378
 20
476.3503891544
 30
0.0
 11
622.3338149414
 21
454.1935247498
 31
0.0
  0
ARC
  5
CE
330
1F
100
AcDbEntity
  8
0
  6
CONTINUOUS
 62
     7
100
AcDbCircle
 10
603.0053951368
 20
479.1788027377
 30
0.0
 40
3.999999999999952
100
AcDbArc
 50
180.0
 51
225.0000000001
  0
LINE
  5
CF
330
1F
100
AcDbEntity
  8
0
  6
CONTINUOUS
 62
     7
100
AcDbLine
 10
599.0053914413
 20
523.0219585018
 30
0.0
 11
599.0053914413
 21
479.178808363
 31
0.0
  0
LINE
  5
D0
330
1F
100
AcDbEntity
  8
0
  6
CONTINUOUS
 62
     7
100
AcDbLine
 10
602.5053910837
 20
523.0219585018
 30
0.0
 11
599.0053914413
 21
523.0219585018
 31
0.0
  0
LINE
  5
D1
330
1F
100
AcDbEntity
  8
0
  6
CONTINUOUS
 62
     7
100
AcDbLine
 10
602.5053910837
 20
523.5219520645
 30
0.0
 11
602.5053910837
 21
523.0219585018
 31
0.0
  0
LINE
  5
D2
330
1F
100
AcDbEntity
  8
0
  6
CONTINUOUS
 62
     7
100
AcDbLine
 10
602.5053910837
 20
546.5219539719
 30
0.0
 11
602.5053910837
 21
523.5219520645
 31
0.0
  0
LINE
  5
D3
330
1F
100
AcDbEntity
  8
0
  6
CONTINUOUS
 62
     7
100
AcDbLine
 10
602.5053910837
 20
547.0219475346
 30
0.0
 11
602.5053910837
 21
546.5219539719
 31
0.0
  0
LINE
  5
D4
330
1F
100
AcDbEntity
  8
0
  6
CONTINUOUS
 62
     7
100
AcDbLine
 10
599.0053914413
 20
547.0219475346
 30
0.0
 11
602.5053910837
 21
547.0219475346
 31
0.0
  0
LINE
  5
D5
330
1F
100
AcDbEntity
  8
0
  6
CONTINUOUS
 62
     7
100
AcDbLine
 10
599.0053914413
 20
1007.5219494419
 30
0.0
 11
599.0053914413
 21
547.0219475346
 31
0.0
  0
LINE
  5
D6
330
1F
100
AcDbEntity
  8
0
  6
CONTINUOUS
 62
     7
100
AcDbLine
 10
602.5053910837
 20
1007.5219494419
 30
0.0
 11
599.0053914413
 21
1007.5219494419
 31
0.0
  0
LINE
  5
D7
330
1F
100
AcDbEntity
  8
0
  6
CONTINUOUS
 62
     7
100
AcDbLine
 10
602.5053910837
 20
1008.0219430046
 30
0.0
 11
602.5053910837
 21
1007.5219494419
 31
0.0
  0
LINE
  5
D8
330
1F
100
AcDbEntity
  8
0
  6
CONTINUOUS
 62
     7
100
AcDbLine
 10
602.5053910837
 20
1031.021944912
 30
0.0
 11
602.5053910837
 21
1008.0219430046
 31
0.0
  0
LINE
  5
D9
330
1F
100
AcDbEntity
  8
0
  6
CONTINUOUS
 62
     7
100
AcDbLine
 10
602.5053910837
 20
1031.5219384747
 30
0.0
 11
602.5053910837
 21
1031.021944912
 31
0.0
  0
LINE
  5
DA
330
1F
100
AcDbEntity
  8
0
  6
CONTINUOUS
 62
     7
100
AcDbLine
 10
599.0053914413
 20
1031.5219384747
 30
0.0
 11
602.5053910837
 21
1031.5219384747
 31
0.0
  0
LINE
  5
DB
330
1F
100
AcDbEntity
  8
0
  6
CONTINUOUS
 62
     7
100
AcDbLine
 10
599.0053914413
 20
1075.3650886135
 30
0.0
 11
599.0053914413
 21
1031.5219384747
 31
0.0
  0
ARC
  5
DC
330
1F
100
AcDbEntity
  8
0
  6
CONTINUOUS
 62
     7
100
AcDbCircle
 10
603.0053951368
 20
1075.3650942387
 30
0.0
 40
3.999999999999952
100
AcDbArc
 50
135.0
 51
180.0
  0
LINE
  5
DD
330
1F
100
AcDbEntity
  8
0
  6
CONTINUOUS
 62
     7
100
AcDbLine
 10
1047.5052945241
 20
1073.5320371704
 30
0.0
 11
1027.5054924116
 21
1073.5320371704
 31
0.0
  0
LINE
  5
DE
330
1F
100
AcDbEntity
  8
0
  6
CONTINUOUS
 62
     7
100
AcDbLine
 10
1027.5054924116
 20
1073.5320371704
 30
0.0
 11
1027.5054924116
 21
1073.5220533924
 31
0.0
  0
LINE
  5
DF
330
1F
100
AcDbEntity
  8
0
  6
CONTINUOUS
 62
     7
100
AcDbLine
 10
1047.5052945241
 20
1073.5220533924
 30
0.0
 11
1027.5054924116
 21
1073.5220533924
 31
0.0
  0
LINE
  5
E0
330
1F
100
AcDbEntity
  8
0
  6
CONTINUOUS
 62
     7
100
AcDbLine
 10
1047.5052945241
 20
1073.5320371704
 30
0.0
 11
1047.5052945241
 21
1073.5220533924
 31
0.0
  0
LINE
  5
E1
330
1F
100
AcDbEntity
  8
0
  6
CONTINUOUS
 62
     7
100
AcDbLine
 10
1044.0053991899
 20
1031.021944912
 30
0.0
 11
1047.5053988323
 21
1031.021944912
 31
0.0
  0
LINE
  5
E2
330
1F
100
AcDbEntity
  8
0
  6
CONTINUOUS
 62
     7
100
AcDbLine
 10
1047.5053988323
 20
1008.0219430046
 30
0.0
 11
1047.5053988323
 21
1031.021944912
 31
0.0
  0
LINE
  5
E3
330
1F
100
AcDbEntity
  8
0
  6
CONTINUOUS
 62
     7
100
AcDbLine
 10
1047.5053988323
 20
1008.0219430046
 30
0.0
 11
1044.0053991899
 21
1008.0219430046
 31
0.0
  0
LINE
  5
E4
330
1F
100
AcDbEntity
  8
0
  6
CONTINUOUS
 62
     7
100
AcDbLine
 10
602.5053910837
 20
1008.0219430046
 30
0.0
 11
599.0053914413
 21
1008.0219430046
 31
0.0
  0
LINE
  5
E5
330
1F
100
AcDbEntity
  8
0
  6
CONTINUOUS
 62
     7
100
AcDbLine
 10
599.0053914413
 20
1031.021944912
 30
0.0
 11
599.0053914413
 21
1008.0219430046
 31
0.0
  0
LINE
  5
E6
330
1F
100
AcDbEntity
  8
0
  6
CONTINUOUS
 62
     7
100
AcDbLine
 10
599.0053914413
 20
1031.021944912
 30
0.0
 11
602.5053910837
 21
1031.021944912
 31
0.0
  0
LINE
  5
E7
330
1F
100
AcDbEntity
  8
0
  6
CONTINUOUS
 62
     7
100
AcDbLine
 10
602.5053910837
 20
523.5219520645
 30
0.0
 11
599.0053914413
 21
523.5219520645
 31
0.0
  0
LINE
  5
E8
330
1F
100
AcDbEntity
  8
0
  6
CONTINUOUS
 62
     7
100
AcDbLine
 10
599.0053914413
 20
546.5219539719
 30
0.0
 11
599.0053914413
 21
523.5219520645
 31
0.0
  0
LINE
  5
E9
330
1F
100
AcDbEntity
  8
0
  6
CONTINUOUS
 62
     7
100
AcDbLine
 10
599.0053914413
 20
546.5219539719
 30
0.0
 11
602.5053910837
 21
546.5219539719
 31
0.0
  0
LINE
  5
EA
330
1F
100
AcDbEntity
  8
0
  6
CONTINUOUS
 62
     7
100
AcDbLine
 10
1044.0053991899
 20
546.5219539719
 30
0.0
 11
1047.5053988323
 21
546.5219539719
 31
0.0
  0
LINE
  5
EB
330
1F
100
AcDbEntity
  8
0
  6
CONTINUOUS
 62
     7
100
AcDbLine
 10
1047.5053988323
 20
523.5219520645
 30
0.0
 11
1047.5053988323
 21
546.5219539719
 31
0.0
  0
LINE
  5
EC
330
1F
100
AcDbEntity
  8
0
  6
CONTINUOUS
 62
     7
100
AcDbLine
 10
1047.5053988323
 20
523.5219520645
 30
0.0
 11
1044.0053991899
 21
523.5219520645
 31
0.0
  0
LINE
  5
ED
330
1F
100
AcDbEntity
  8
0
  6
CONTINUOUS
 62
     7
100
AcDbLine
 10
1020.5053888187
 20
1085.0219351368
 30
0.0
 11
1020.5053888187
 21
1081.5219503956
 31
0.0
  0
LINE
  5
EE
330
1F
100
AcDbEntity
  8
0
  6
CONTINUOUS
 62
     7
100
AcDbLine
 10
626.0054014549
 20
1081.5219503956
 30
0.0
 11
1020.5053888187
 21
1081.5219503956
 31
0.0
  0
LINE
  5
EF
330
1F
100
AcDbEntity
  8
0
  6
CONTINUOUS
 62
     7
100
AcDbLine
 10
626.0054014549
 20
1081.5219503956
 30
0.0
 11
626.0054014549
 21
1085.0219351368
 31
0.0
  0
LINE
  5
F0
330
1F
100
AcDbEntity
  8
0
  6
CONTINUOUS
 62
     7
100
AcDbLine
 10
1027.5053881034
 20
1073.5219341831
 30
0.0
 11
1027.5053881034
 21
481.0219627934
 31
0.0
  0
LINE
  5
F1
330
1F
100
AcDbEntity
  8
0
  6
CONTINUOUS
 62
     7
100
AcDbLine
 10
619.0054021701
 20
481.0219627934
 30
0.0
 11
619.0054021701
 21
1073.5219341831
 31
0.0
  0
LINE
  5
F2
330
1F
100
AcDbEntity
  8
0
  6
CONTINUOUS
 62
     7
100
AcDbLine
 10
626.0054014549
 20
469.5219618397
 30
0.0
 11
626.0054014549
 21
473.0219465809
 31
0.0
  0
LINE
  5
F3
330
1F
100
AcDbEntity
  8
0
  6
CONTINUOUS
 62
     7
100
AcDbLine
 10
1020.5053888187
 20
473.0219465809
 30
0.0
 11
626.0054014549
 21
473.0219465809
 31
0.0
  0
LINE
  5
F4
330
1F
100
AcDbEntity
  8
0
  6
CONTINUOUS
 62
     7
100
AcDbLine
 10
1020.5053888187
 20
473.0219465809
 30
0.0
 11
1020.5053888187
 21
469.5219618397
 31
0.0
  0
LINE
  5
F5
330
1F
100
AcDbEntity
  8
0
  6
CONTINUOUS
 62
     7
100
AcDbLine
 10
1026.0053925142
 20
493.0219573097
 30
0.0
 11
1027.5053881034
 21
493.0219573097
 31
0.0
  0
LINE
  5
F6
330
1F
100
AcDbEntity
  8
0
  6
CONTINUOUS
 62
     7
100
AcDbLine
 10
1026.0053925142
 20
1061.5219396668
 30
0.0
 11
1026.0053925142
 21
493.0219573097
 31
0.0
  0
LINE
  5
F7
330
1F
100
AcDbEntity
  8
0
  6
CONTINUOUS
 62
     7
100
AcDbLine
 10
1027.5053881034
 20
1061.5219396668
 30
0.0
 11
1026.0053925142
 21
1061.5219396668
 31
0.0
  0
LINE
  5
F8
330
1F
100
AcDbEntity
  8
0
  6
CONTINUOUS
 62
     7
100
AcDbLine
 10
638.0053959712
 20
474.5219570713
 30
0.0
 11
638.0053959712
 21
473.0219465809
 31
0.0
  0
LINE
  5
F9
330
1F
100
AcDbEntity
  8
0
  6
CONTINUOUS
 62
     7
100
AcDbLine
 10
1008.5053943023
 20
474.5219570713
 30
0.0
 11
638.0053959712
 21
474.5219570713
 31
0.0
  0
LINE
  5
FA
330
1F
100
AcDbEntity
  8
0
  6
CONTINUOUS
 62
     7
100
AcDbLine
 10
1008.5053943023
 20
473.0219465809
 30
0.0
 11
1008.5053943023
 21
474.5219570713
 31
0.0
  0
LINE
  5
FB
330
1F
100
AcDbEntity
  8
0
  6
CONTINUOUS
 62
     7
100
AcDbLine
 10
1025.5053989515
 20
1061.5219396668
 30
0.0
 11
1026.0053925142
 21
1061.5219396668
 31
0.0
  0
LINE
  5
FC
330
1F
100
AcDbEntity
  8
0
  6
CONTINUOUS
 62
     7
100
AcDbLine
 10
1026.0053925142
 20
493.0219573097
 30
0.0
 11
1025.5053989515
 21
493.0219573097
 31
0.0
  0
LINE
  5
FD
330
1F
100
AcDbEntity
  8
0
  6
CONTINUOUS
 62
     7
100
AcDbLine
 10
638.0053959712
 20
474.5219570713
 30
0.0
 11
638.0053959712
 21
475.021950634
 31
0.0
  0
LWPOLYLINE
  5
FE
330
1F
100
AcDbEntity
  8
0
  6
CONTINUOUS
 62
     7
100
AcDbPolyline
 90
        3
 70
   128
 43
0.0
 10
638.1006590948
 20
475.7719558792
 10
638.0630336627
 20
475.6072086411
 10
638.0053959712
 20
475.021950634
  0
LINE
  5
FF
330
1F
100
AcDbEntity
  8
0
  6
CONTINUOUS
 62
     7
100
AcDbLine
 10
1008.5053943023
 20
475.021950634
 30
0.0
 11
1008.5053943023
 21
474.5219570713
 31
0.0
  0
LWPOLYLINE
  5
100
330
1F
100
AcDbEntity
  8
0
  6
CONTINUOUS
 62
     7
100
AcDbPolyline
 90
        3
 70
   128
 43
0.0
 10
1008.5053943023
 20
475.021950634
 10
1008.4477566108
 20
475.6072086411
 10
1008.4101311788
 20
475.7719558792
  0
LINE
  5
101
330
1F
100
AcDbEntity
  8
0
  6
CONTINUOUS
 62
     7
100
AcDbLine
 10
1048.5499553308
 20
1027.0219517069
 30
0.0
 11
1047.5053988323
 21
1027.0219517069
 31
0.0
  0
LINE
  5
102
330
1F
100
AcDbEntity
  8
0
  6
CONTINUOUS
 62
     7
100
AcDbLine
 10
1048.5499553308
 20
1012.0219511108
 30
0.0
 11
1048.5499553308
 21
1027.0219517069
 31
0.0
  0
LINE
  5
103
330
1F
100
AcDbEntity
  8
0
  6
CONTINUOUS
 62
     7
100
AcDbLine
 10
1047.5053988323
 20
1012.0219511108
 30
0.0
 11
1048.5499553308
 21
1012.0219511108
 31
0.0
  0
LINE
  5
104
330
1F
100
AcDbEntity
  8
0
  6
CONTINUOUS
 62
     7
100
AcDbLine
 10
1048.5499553308
 20
1012.0219511108
 30
0.0
 11
1050.4818163738
 21
1012.0219511108
 31
0.0
  0
LINE
  5
105
330
1F
100
AcDbEntity
  8
0
  6
CONTINUOUS
 62
     7
100
AcDbLine
 10
1048.5499553308
 20
1027.0219517069
 30
0.0
 11
1050.4818163738
 21
1027.0219517069
 31
0.0
  0
LINE
  5
106
330
1F
100
AcDbEntity
  8
0
  6
CONTINUOUS
 62
     7
100
AcDbLine
 10
1050.4818163738
 20
1012.0219511108
 30
0.0
 11
1050.4818163738
 21
1027.0219517069
 31
0.0
  0
LINE
  5
107
330
1F
100
AcDbEntity
  8
0
  6
CONTINUOUS
 62
     7
100
AcDbLine
 10
597.9608349428
 20
1027.0219517069
 30
0.0
 11
596.0289738998
 21
1027.0219517069
 31
0.0
  0
LINE
  5
108
330
1F
100
AcDbEntity
  8
0
  6
CONTINUOUS
 62
     7
100
AcDbLine
 10
597.9608349428
 20
1012.0219511108
 30
0.0
 11
597.9608349428
 21
1027.0219517069
 31
0.0
  0
LINE
  5
109
330
1F
100
AcDbEntity
  8
0
  6
CONTINUOUS
 62
     7
100
AcDbLine
 10
597.9608349428
 20
1012.0219511108
 30
0.0
 11
596.0289738998
 21
1012.0219511108
 31
0.0
  0
LINE
  5
10A
330
1F
100
AcDbEntity
  8
0
  6
CONTINUOUS
 62
     7
100
AcDbLine
 10
596.0289738998
 20
1012.0219511108
 30
0.0
 11
596.0289738998
 21
1027.0219517069
 31
0.0
  0
LINE
  5
10B
330
1F
100
AcDbEntity
  8
0
  6
CONTINUOUS
 62
     7
100
AcDbLine
 10
599.0053914413
 20
1012.0219511108
 30
0.0
 11
597.9608349428
 21
1012.0219511108
 31
0.0
  0
LINE
  5
10C
330
1F
100
AcDbEntity
  8
0
  6
CONTINUOUS
 62
     7
100
AcDbLine
 10
597.9608349428
 20
1027.0219517069
 30
0.0
 11
599.0053914413
 21
1027.0219517069
 31
0.0
  0
LINE
  5
10D
330
1F
100
AcDbEntity
  8
0
  6
CONTINUOUS
 62
     7
100
AcDbLine
 10
597.9608349428
 20
527.5219452696
 30
0.0
 11
599.0053914413
 21
527.5219452696
 31
0.0
  0
LINE
  5
10E
330
1F
100
AcDbEntity
  8
0
  6
CONTINUOUS
 62
     7
100
AcDbLine
 10
597.9608349428
 20
542.5219458656
 30
0.0
 11
597.9608349428
 21
527.5219452696
 31
0.0
  0
LINE
  5
10F
330
1F
100
AcDbEntity
  8
0
  6
CONTINUOUS
 62
     7
100
AcDbLine
 10
599.0053914413
 20
542.5219458656
 30
0.0
 11
597.9608349428
 21
542.5219458656
 31
0.0
  0
LINE
  5
110
330
1F
100
AcDbEntity
  8
0
  6
CONTINUOUS
 62
     7
100
AcDbLine
 10
597.9608349428
 20
527.5219452696
 30
0.0
 11
596.0289738998
 21
527.5219452696
 31
0.0
  0
LINE
  5
111
330
1F
100
AcDbEntity
  8
0
  6
CONTINUOUS
 62
     7
100
AcDbLine
 10
596.0289738998
 20
542.5219458656
 30
0.0
 11
596.0289738998
 21
527.5219452696
 31
0.0
  0
LINE
  5
112
330
1F
100
AcDbEntity
  8
0
  6
CONTINUOUS
 62
     7
100
AcDbLine
 10
597.9608349428
 20
542.5219458656
 30
0.0
 11
596.0289738998
 21
542.5219458656
 31
0.0
  0
LINE
  5
113
330
1F
100
AcDbEntity
  8
0
  6
CONTINUOUS
 62
     7
100
AcDbLine
 10
1048.5499553308
 20
527.5219452696
 30
0.0
 11
1050.4818163738
 21
527.5219452696
 31
0.0
  0
LINE
  5
114
330
1F
100
AcDbEntity
  8
0
  6
CONTINUOUS
 62
     7
100
AcDbLine
 10
1048.5499553308
 20
542.5219458656
 30
0.0
 11
1048.5499553308
 21
527.5219452696
 31
0.0
  0
LINE
  5
115
330
1F
100
AcDbEntity
  8
0
  6
CONTINUOUS
 62
     7
100
AcDbLine
 10
1048.5499553308
 20
542.5219458656
 30
0.0
 11
1050.4818163738
 21
542.5219458656
 31
0.0
  0
LINE
  5
116
330
1F
100
AcDbEntity
  8
0
  6
CONTINUOUS
 62
     7
100
AcDbLine
 10
1050.4818163738
 20
542.5219458656
 30
0.0
 11
1050.4818163738
 21
527.5219452696
 31
0.0
  0
LINE
  5
117
330
1F
100
AcDbEntity
  8
0
  6
CONTINUOUS
 62
     7
100
AcDbLine
 10
1048.5499553308
 20
527.5219452696
 30
0.0
 11
1047.5053988323
 21
527.5219452696
 31
0.0
  0
LINE
  5
118
330
1F
100
AcDbEntity
  8
0
  6
CONTINUOUS
 62
     7
100
AcDbLine
 10
1047.5053988323
 20
542.5219458656
 30
0.0
 11
1048.5499553308
 21
542.5219458656
 31
0.0
  0
LINE
  5
119
330
1F
100
AcDbEntity
  8
0
  6
CONTINUOUS
 62
     7
100
AcDbLine
 10
614.0053920373
 20
481.0218435841
 30
0.0
 11
614.0053920373
 21
481.0118598061
 31
0.0
  0
LINE
  5
11A
330
1F
100
AcDbEntity
  8
0
  6
CONTINUOUS
 62
     7
100
AcDbLine
 10
1032.5053982362
 20
481.0118598061
 30
0.0
 11
1032.5053982362
 21
481.0218435841
 31
0.0
  0
LINE
  5
11B
330
1F
100
AcDbEntity
  8
0
  6
CONTINUOUS
 62
     7
100
AcDbLine
 10
1032.5053982362
 20
1073.5220533924
 30
0.0
 11
1032.5053982362
 21
1073.5320371704
 31
0.0
  0
LINE
  5
11C
330
1F
100
AcDbEntity
  8
0
  6
CONTINUOUS
 62
     7
100
AcDbLine
 10
614.0053920373
 20
1073.5320371704
 30
0.0
 11
614.0053920373
 21
1073.5220533924
 31
0.0
  0
LINE
  5
11D
330
1F
100
AcDbEntity
  8
0
  6
CONTINUOUS
 62
     8
100
AcDbLine
 10
1000.4103235826
 20
777.0042857109
 30
0.0
 11
1000.6240360364
 21
776.145325125
 31
0.0
  0
LWPOLYLINE
  5
11E
330
1F
100
AcDbEntity
  8
0
  6
CONTINUOUS
 62
     8
100
AcDbPolyline
 90
        3
 70
   128
 43
0.0
 10
1005.997677885
 20
776.1717216007
 10
1006.1921231374
 20
776.9248378417
 10
1006.2063686475
 20
777.0796079084
  0
LWPOLYLINE
  5
11F
330
1F
100
AcDbEntity
  8
0
  6
CONTINUOUS
 62
     8
100
AcDbPolyline
 90
        3
 70
   128
 43
0.0
 10
1006.2043718919
 20
777.4859025912
 10
1006.1235628948
 20
777.9821479007
 10
1005.986770235
 20
778.3916948492
  0
LINE
  5
120
330
1F
100
AcDbEntity
  8
0
  6
CONTINUOUS
 62
     8
100
AcDbLine
 10
1000.6131283864
 20
778.3652983734
 30
0.0
 11
1000.5532853231
 21
778.2050484338
 31
0.0
  0
LINE
  5
121
330
1F
100
AcDbEntity
  8
0
  6
CONTINUOUS
 62
     8
100
AcDbLine
 10
1000.7653735504
 20
777.0060297871
 30
0.0
 11
1001.0146848783
 21
776.140138706
 31
0.0
  0
ARC
  5
122
330
1F
100
AcDbEntity
  8
0
  6
CONTINUOUS
 62
     8
100
AcDbCircle
 10
1003.3054035821
 20
777.2685099733
 30
0.0
 40
2.553553390593079
100
AcDbArc
 50
333.9714961241
 51
26.4275781187
  0
LINE
  5
123
330
1F
100
AcDbEntity
  8
0
  6
CONTINUOUS
 62
     8
100
AcDbLine
 10
1002.383267127
 20
777.5829778065
 30
0.0
 11
1002.3894958124
 21
776.3139994012
 31
0.0
  0
LINE
  5
124
330
1F
100
AcDbEntity
  8
0
  6
CONTINUOUS
 62
     8
100
AcDbLine
 10
1004.0772013292
 20
778.2223126514
 30
0.0
 11
1004.0831617937
 21
777.0078566054
 31
0.0
  0
LINE
  5
125
330
1F
100
AcDbEntity
  8
0
  6
CONTINUOUS
 62
     7
100
AcDbLine
 10
381.8529311078
 20
771.1219486909
 30
0.0
 11
382.5529317813
 21
771.1219486909
 31
0.0
  0
LINE
  5
126
330
1F
100
AcDbEntity
  8
0
  6
CONTINUOUS
 62
     7
100
AcDbLine
 10
363.2529315049
 20
784.1219484935
 30
0.0
 11
363.2029315898
 21
784.1219484935
 31
0.0
  0
LINE
  5
127
330
1F
100
AcDbEntity
  8
0
  6
CONTINUOUS
 62
     7
100
AcDbLine
 10
363.2029315898
 20
770.421948483
 30
0.0
 11
363.2529315049
 21
770.421948483
 31
0.0
  0
ARC
  5
128
330
1F
100
AcDbEntity
  8
0
  6
CONTINUOUS
 62
     7
100
AcDbCircle
 10
363.202931531
 20
783.8719484882
 30
0.0
 40
0.2500000000000568
100
AcDbArc
 50
90.0
 51
180.0
  0
ARC
  5
129
330
1F
100
AcDbEntity
  8
0
  6
CONTINUOUS
 62
     7
100
AcDbCircle
 10
363.202931531
 20
770.6719484882
 30
0.0
 40
0.25
100
AcDbArc
 50
180.0
 51
270.0
  0
LINE
  5
12A
330
1F
100
AcDbEntity
  8
0
  6
CONTINUOUS
 62
     7
100
AcDbLine
 10
382.7529314415
 20
773.7719483802
 30
0.0
 11
383.7529316055
 21
773.7719483802
 31
0.0
  0
LINE
  5
12B
330
1F
100
AcDbEntity
  8
0
  6
CONTINUOUS
 62
     7
100
AcDbLine
 10
383.7529316055
 20
780.7719485963
 30
0.0
 11
382.7529314415
 21
780.7719485963
 31
0.0
  0
LINE
  5
12C
330
1F
100
AcDbEntity
  8
0
  6
CONTINUOUS
 62
     7
100
AcDbLine
 10
381.7529312776
 20
774.2719484622
 30
0.0
 11
381.8529311078
 21
774.2719484622
 31
0.0
  0
LINE
  5
12D
330
1F
100
AcDbEntity
  8
0
  6
CONTINUOUS
 62
     7
100
AcDbLine
 10
382.5529317813
 20
774.2719484622
 30
0.0
 11
382.7529314415
 21
774.2719484622
 31
0.0
  0
LINE
  5
12E
330
1F
100
AcDbEntity
  8
0
  6
CONTINUOUS
 62
     7
100
AcDbLine
 10
382.7529314415
 20
780.2719485143
 30
0.0
 11
381.7529312776
 21
780.2719485143
 31
0.0
  0
LINE
  5
12F
330
1F
100
AcDbEntity
  8
0
  6
CONTINUOUS
 62
     7
100
AcDbLine
 10
365.2529314835
 20
788.2719484286
 30
0.0
 11
363.2529315049
 21
786.2719481008
 31
0.0
  0
LINE
  5
130
330
1F
100
AcDbEntity
  8
0
  6
CONTINUOUS
 62
     7
100
AcDbLine
 10
363.2529315049
 20
768.2719488757
 30
0.0
 11
365.2529314835
 21
766.2719485478
 31
0.0
  0
LINE
  5
131
330
1F
100
AcDbEntity
  8
0
  6
CONTINUOUS
 62
     7
100
AcDbLine
 10
365.2529314835
 20
766.2719485478
 30
0.0
 11
366.252931531
 21
766.2719485478
 31
0.0
  0
LINE
  5
132
330
1F
100
AcDbEntity
  8
0
  6
CONTINUOUS
 62
     7
100
AcDbLine
 10
366.252931531
 20
788.2719484286
 30
0.0
 11
365.2529314835
 21
788.2719484286
 31
0.0
  0
LINE
  5
133
330
1F
100
AcDbEntity
  8
0
  6
CONTINUOUS
 62
     7
100
AcDbLine
 10
377.7529315533
 20
492.8854626732
 30
0.0
 11
377.8894317778
 21
493.0219573097
 31
0.0
  0
LINE
  5
134
330
1F
100
AcDbEntity
  8
0
  6
CONTINUOUS
 62
     7
100
AcDbLine
 10
382.5529317813
 20
771.1219486909
 30
0.0
 11
382.5529317813
 21
780.2571511956
 31
0.0
  0
LINE
  5
135
330
1F
100
AcDbEntity
  8
0
  6
CONTINUOUS
 62
     7
100
AcDbLine
 10
381.8529311078
 20
771.1219486909
 30
0.0
 11
381.8529311078
 21
780.2571511956
 31
0.0
  0
LINE
  5
136
330
1F
100
AcDbEntity
  8
0
  6
CONTINUOUS
 62
     7
100
AcDbLine
 10
382.5529317813
 20
780.2571511956
 30
0.0
 11
381.8529311078
 21
780.2571511956
 31
0.0
  0
LINE
  5
137
330
1F
100
AcDbEntity
  8
0
  6
CONTINUOUS
 62
     7
100
AcDbLine
 10
381.7529312776
 20
770.8855128976
 30
0.0
 11
379.7529318811
 21
770.8855128976
 31
0.0
  0
LINE
  5
138
330
1F
100
AcDbEntity
  8
0
  6
CONTINUOUS
 62
     7
100
AcDbLine
 10
379.7529318811
 20
770.8855128976
 30
0.0
 11
379.7529318811
 21
783.8853557723
 31
0.0
  0
LINE
  5
139
330
1F
100
AcDbEntity
  8
0
  6
CONTINUOUS
 62
     7
100
AcDbLine
 10
381.7529312776
 20
783.8853557723
 30
0.0
 11
379.7529318811
 21
783.8853557723
 31
0.0
  0
LINE
  5
13A
330
1F
100
AcDbEntity
  8
0
  6
CONTINUOUS
 62
     7
100
AcDbLine
 10
381.7529312776
 20
770.8855128976
 30
0.0
 11
381.7529312776
 21
783.8853557723
 31
0.0
  0
LINE
  5
13B
330
1F
100
AcDbEntity
  8
0
  6
CONTINUOUS
 62
     7
100
AcDbLine
 10
381.7529312776
 20
770.7720270509
 30
0.0
 11
379.7529318811
 21
770.7720270509
 31
0.0
  0
LINE
  5
13C
330
1F
100
AcDbEntity
  8
0
  6
CONTINUOUS
 62
     7
100
AcDbLine
 10
379.7529318811
 20
770.8799389319
 30
0.0
 11
379.7529318811
 21
770.8855128976
 31
0.0
  0
LINE
  5
13D
330
1F
100
AcDbEntity
  8
0
  6
CONTINUOUS
 62
     7
100
AcDbLine
 10
381.7529312776
 20
770.7720270509
 30
0.0
 11
381.7529312776
 21
770.8855128976
 31
0.0
  0
LINE
  5
13E
330
1F
100
AcDbEntity
  8
0
  6
CONTINUOUS
 62
     7
100
AcDbLine
 10
362.9529315488
 20
777.3043687729
 30
0.0
 11
362.9529315488
 21
770.671948524
 31
0.0
  0
LINE
  5
13F
330
1F
100
AcDbEntity
  8
0
  6
CONTINUOUS
 62
     7
100
AcDbLine
 10
362.9529315488
 20
783.8719484525
 30
0.0
 11
362.9529315488
 21
777.3043687729
 31
0.0
  0
LINE
  5
140
330
1F
100
AcDbEntity
  8
0
  6
CONTINUOUS
 62
     7
100
AcDbLine
 10
382.7529314415
 20
773.7719483802
 30
0.0
 11
382.7529314415
 21
780.7719485963
 31
0.0
  0
LINE
  5
141
330
1F
100
AcDbEntity
  8
0
  6
CONTINUOUS
 62
     7
100
AcDbLine
 10
383.7529316055
 20
777.2891410631
 30
0.0
 11
383.7529316055
 21
780.7719485963
 31
0.0
  0
LINE
  5
142
330
1F
100
AcDbEntity
  8
0
  6
CONTINUOUS
 62
     7
100
AcDbLine
 10
383.7529316055
 20
773.7719483802
 30
0.0
 11
383.7529316055
 21
777.2891410631
 31
0.0
  0
LINE
  5
143
330
1F
100
AcDbEntity
  8
0
  6
CONTINUOUS
 62
     7
100
AcDbLine
 10
363.2529315049
 20
783.667093342
 30
0.0
 11
363.2529315049
 21
786.2719481008
 31
0.0
  0
LINE
  5
144
330
1F
100
AcDbEntity
  8
0
  6
CONTINUOUS
 62
     7
100
AcDbLine
 10
363.2529315049
 20
768.2719488757
 30
0.0
 11
363.2529315049
 21
783.667093342
 31
0.0
  0
LINE
  5
145
330
1F
100
AcDbEntity
  8
0
  6
CONTINUOUS
 62
     7
100
AcDbLine
 10
365.2529314835
 20
766.2719485478
 30
0.0
 11
365.2529314835
 21
788.2719484286
 31
0.0
  0
LINE
  5
146
330
1F
100
AcDbEntity
  8
0
  6
CONTINUOUS
 62
     7
100
AcDbLine
 10
370.2529317209
 20
1076.0648471432
 30
0.0
 11
377.7529315533
 21
1076.0648471432
 31
0.0
  0
LINE
  5
147
330
1F
100
AcDbEntity
  8
0
  6
CONTINUOUS
 62
     7
100
AcDbLine
 10
377.7529315533
 20
1076.0648471432
 30
0.0
 11
377.7529315533
 21
1071.5219599323
 31
0.0
  0
LINE
  5
148
330
1F
100
AcDbEntity
  8
0
  6
CONTINUOUS
 62
     7
100
AcDbLine
 10
377.7529315533
 20
1062.5219565945
 30
0.0
 11
377.7529315533
 21
1061.5219396668
 31
0.0
  0
LINE
  5
149
330
1F
100
AcDbEntity
  8
0
  6
CONTINUOUS
 62
     7
100
AcDbLine
 10
377.7529315533
 20
493.0219573097
 30
0.0
 11
377.7529315533
 21
492.021940382
 31
0.0
  0
LINE
  5
14A
330
1F
100
AcDbEntity
  8
0
  6
CONTINUOUS
 62
     7
100
AcDbLine
 10
377.7529315533
 20
483.0219370441
 30
0.0
 11
377.7529315533
 21
478.4790498333
 31
0.0
  0
LINE
  5
14B
330
1F
100
AcDbEntity
  8
0
  6
CONTINUOUS
 62
     7
100
AcDbLine
 10
370.2529317209
 20
478.4790498333
 30
0.0
 11
377.7529315533
 21
478.4790498333
 31
0.0
  0
LINE
  5
14C
330
1F
100
AcDbEntity
  8
0
  6
CONTINUOUS
 62
     7
100
AcDbLine
 10
370.2529317209
 20
475.7719558792
 30
0.0
 11
377.7529315533
 21
475.7719558792
 31
0.0
  0
LINE
  5
14D
330
1F
100
AcDbEntity
  8
0
  6
CONTINUOUS
 62
     7
100
AcDbLine
 10
370.2529317209
 20
477.7719599323
 30
0.0
 11
377.7529315533
 21
477.7719599323
 31
0.0
  0
LINE
  5
14E
330
1F
100
AcDbEntity
  8
0
  6
CONTINUOUS
 62
     7
100
AcDbLine
 10
377.7529315533
 20
477.7719599323
 30
0.0
 11
377.7529315533
 21
475.7719558792
 31
0.0
  0
LINE
  5
14F
330
1F
100
AcDbEntity
  8
0
  6
CONTINUOUS
 62
     7
100
AcDbLine
 10
377.7529315533
 20
1078.7719410973
 30
0.0
 11
370.2529317209
 21
1078.7719410973
 31
0.0
  0
LINE
  5
150
330
1F
100
AcDbEntity
  8
0
  6
CONTINUOUS
 62
     7
100
AcDbLine
 10
377.7529315533
 20
1076.7719370441
 30
0.0
 11
377.7529315533
 21
1078.7719410973
 31
0.0
  0
LINE
  5
151
330
1F
100
AcDbEntity
  8
0
  6
CONTINUOUS
 62
     7
100
AcDbLine
 10
370.2529317209
 20
1076.7719370441
 30
0.0
 11
377.7529315533
 21
1076.7719370441
 31
0.0
  0
LINE
  5
152
330
1F
100
AcDbEntity
  8
0
  6
CONTINUOUS
 62
     7
100
AcDbLine
 10
379.5131321507
 20
542.5219458656
 30
0.0
 11
379.5131321507
 21
527.5219452696
 31
0.0
  0
LINE
  5
153
330
1F
100
AcDbEntity
  8
0
  6
CONTINUOUS
 62
     7
100
AcDbLine
 10
390.4941126214
 20
542.5219458656
 30
0.0
 11
379.5131321507
 21
542.5219458656
 31
0.0
  0
LINE
  5
154
330
1F
100
AcDbEntity
  8
0
  6
CONTINUOUS
 62
     7
100
AcDbLine
 10
390.4941126214
 20
542.5219458656
 30
0.0
 11
390.4941126214
 21
527.5219452696
 31
0.0
  0
LINE
  5
155
330
1F
100
AcDbEntity
  8
0
  6
CONTINUOUS
 62
     7
100
AcDbLine
 10
379.5131321507
 20
527.5219452696
 30
0.0
 11
390.4941126214
 21
527.5219452696
 31
0.0
  0
LINE
  5
156
330
1F
100
AcDbEntity
  8
0
  6
CONTINUOUS
 62
     7
100
AcDbLine
 10
378.9954937505
 20
542.5219458656
 30
0.0
 11
378.9954937505
 21
527.5219452696
 31
0.0
  0
LINE
  5
157
330
1F
100
AcDbEntity
  8
0
  6
CONTINUOUS
 62
     7
100
AcDbLine
 10
378.9954937505
 20
542.5219458656
 30
0.0
 11
379.5131321507
 21
542.5219458656
 31
0.0
  0
LINE
  5
158
330
1F
100
AcDbEntity
  8
0
  6
CONTINUOUS
 62
     7
100
AcDbLine
 10
378.9954937505
 20
527.5219452696
 30
0.0
 11
379.5131321507
 21
527.5219452696
 31
0.0
  0
LINE
  5
159
330
1F
100
AcDbEntity
  8
0
  6
CONTINUOUS
 62
     7
100
AcDbLine
 10
379.5131321507
 20
1012.0219511108
 30
0.0
 11
379.5131321507
 21
1027.0219517069
 31
0.0
  0
LINE
  5
15A
330
1F
100
AcDbEntity
  8
0
  6
CONTINUOUS
 62
     7
100
AcDbLine
 10
379.5131321507
 20
1027.0219517069
 30
0.0
 11
390.4941126214
 21
1027.0219517069
 31
0.0
  0
LINE
  5
15B
330
1F
100
AcDbEntity
  8
0
  6
CONTINUOUS
 62
     7
100
AcDbLine
 10
390.4941126214
 20
1027.0219517069
 30
0.0
 11
390.4941126214
 21
1012.0219511108
 31
0.0
  0
LINE
  5
15C
330
1F
100
AcDbEntity
  8
0
  6
CONTINUOUS
 62
     7
100
AcDbLine
 10
390.4941126214
 20
1012.0219511108
 30
0.0
 11
379.5131321507
 21
1012.0219511108
 31
0.0
  0
LINE
  5
15D
330
1F
100
AcDbEntity
  8
0
  6
CONTINUOUS
 62
     7
100
AcDbLine
 10
378.9954937505
 20
1012.0219511108
 30
0.0
 11
378.9954937505
 21
1027.0219517069
 31
0.0
  0
LINE
  5
15E
330
1F
100
AcDbEntity
  8
0
  6
CONTINUOUS
 62
     7
100
AcDbLine
 10
378.9954937505
 20
1027.0219517069
 30
0.0
 11
379.5131321507
 21
1027.0219517069
 31
0.0
  0
LINE
  5
15F
330
1F
100
AcDbEntity
  8
0
  6
CONTINUOUS
 62
     7
100
AcDbLine
 10
378.9954937505
 20
1012.0219511108
 30
0.0
 11
379.5131321507
 21
1012.0219511108
 31
0.0
  0
LINE
  5
160
330
1F
100
AcDbEntity
  8
0
  6
CONTINUOUS
 62
     7
100
AcDbLine
 10
390.7529308902
 20
542.5219458656
 30
0.0
 11
390.4941126214
 21
542.5219458656
 31
0.0
  0
LINE
  5
161
330
1F
100
AcDbEntity
  8
0
  6
CONTINUOUS
 62
     7
100
AcDbLine
 10
390.7529308902
 20
527.5219452696
 30
0.0
 11
390.7529308902
 21
542.5219458656
 31
0.0
  0
LINE
  5
162
330
1F
100
AcDbEntity
  8
0
  6
CONTINUOUS
 62
     7
100
AcDbLine
 10
390.4941126214
 20
527.5219452696
 30
0.0
 11
390.7529308902
 21
527.5219452696
 31
0.0
  0
LINE
  5
163
330
1F
100
AcDbEntity
  8
0
  6
CONTINUOUS
 62
     7
100
AcDbLine
 10
390.7529308902
 20
1027.0219517069
 30
0.0
 11
390.4941126214
 21
1027.0219517069
 31
0.0
  0
LINE
  5
164
330
1F
100
AcDbEntity
  8
0
  6
CONTINUOUS
 62
     7
100
AcDbLine
 10
390.7529308902
 20
1012.0219511108
 30
0.0
 11
390.7529308902
 21
1027.0219517069
 31
0.0
  0
LINE
  5
165
330
1F
100
AcDbEntity
  8
0
  6
CONTINUOUS
 62
     7
100
AcDbLine
 10
390.4941126214
 20
1012.0219511108
 30
0.0
 11
390.7529308902
 21
1012.0219511108
 31
0.0
  0
LINE
  5
166
330
1F
100
AcDbEntity
  8
0
  6
CONTINUOUS
 62
     7
100
AcDbLine
 10
390.7529308902
 20
527.5219452696
 30
0.0
 11
390.7529308902
 21
527.0219368057
 31
0.0
  0
LINE
  5
167
330
1F
100
AcDbEntity
  8
0
  6
CONTINUOUS
 62
     7
100
AcDbLine
 10
390.7529308902
 20
543.0219543295
 30
0.0
 11
390.7529308902
 21
542.5219458656
 31
0.0
  0
LINE
  5
168
330
1F
100
AcDbEntity
  8
0
  6
CONTINUOUS
 62
     7
100
AcDbLine
 10
378.2529316353
 20
543.0219543295
 30
0.0
 11
390.7529308902
 21
543.0219543295
 31
0.0
  0
LINE
  5
169
330
1F
100
AcDbEntity
  8
0
  6
CONTINUOUS
 62
     7
100
AcDbLine
 10
378.2529316353
 20
527.0219368057
 30
0.0
 11
378.2529316353
 21
543.0219543295
 31
0.0
  0
LINE
  5
16A
330
1F
100
AcDbEntity
  8
0
  6
CONTINUOUS
 62
     7
100
AcDbLine
 10
390.7529308902
 20
527.0219368057
 30
0.0
 11
378.2529316353
 21
527.0219368057
 31
0.0
  0
LINE
  5
16B
330
1F
100
AcDbEntity
  8
0
  6
CONTINUOUS
 62
     7
100
AcDbLine
 10
369.752931639
 20
523.5219520645
 30
0.0
 11
369.752931639
 21
546.5219539719
 31
0.0
  0
LINE
  5
16C
330
1F
100
AcDbEntity
  8
0
  6
CONTINUOUS
 62
     7
100
AcDbLine
 10
369.752931639
 20
546.5219539719
 30
0.0
 11
391.7529310541
 21
546.5219539719
 31
0.0
  0
ARC
  5
16D
330
1F
100
AcDbEntity
  8
0
  6
CONTINUOUS
 62
     7
100
AcDbCircle
 10
391.752931531
 20
543.5219484882
 30
0.0
 40
3.0
100
AcDbArc
 50
0.0
 51
90.0
  0
LINE
  5
16E
330
1F
100
AcDbEntity
  8
0
  6
CONTINUOUS
 62
     7
100
AcDbLine
 10
394.7529315459
 20
543.5219478922
 30
0.0
 11
394.7529315459
 21
526.521943243
 31
0.0
  0
ARC
  5
16F
330
1F
100
AcDbEntity
  8
0
  6
CONTINUOUS
 62
     7
100
AcDbCircle
 10
391.752931531
 20
526.5219484882
 30
0.0
 40
3.000000000000114
100
AcDbArc
 50
270.0
 51
0.0
  0
LINE
  5
170
330
1F
100
AcDbEntity
  8
0
  6
CONTINUOUS
 62
     7
100
AcDbLine
 10
391.7529310541
 20
523.5219520645
 30
0.0
 11
369.752931639
 21
523.5219520645
 31
0.0
  0
LINE
  5
171
330
1F
100
AcDbEntity
  8
0
  6
CONTINUOUS
 62
     7
100
AcDbLine
 10
369.752931639
 20
1008.0219430046
 30
0.0
 11
369.752931639
 21
1031.021944912
 31
0.0
  0
LINE
  5
172
330
1F
100
AcDbEntity
  8
0
  6
CONTINUOUS
 62
     7
100
AcDbLine
 10
391.7529310541
 20
1031.021944912
 30
0.0
 11
369.752931639
 21
1031.021944912
 31
0.0
  0
ARC
  5
173
330
1F
100
AcDbEntity
  8
0
  6
CONTINUOUS
 62
     7
100
AcDbCircle
 10
391.752931531
 20
1028.0219484882
 30
0.0
 40
3.0
100
AcDbArc
 50
0.0
 51
90.0
  0
LINE
  5
174
330
1F
100
AcDbEntity
  8
0
  6
CONTINUOUS
 62
     7
100
AcDbLine
 10
394.7529315459
 20
1011.0219490843
 30
0.0
 11
394.7529315459
 21
1028.0219537335
 31
0.0
  0
ARC
  5
175
330
1F
100
AcDbEntity
  8
0
  6
CONTINUOUS
 62
     7
100
AcDbCircle
 10
391.752931531
 20
1011.0219484882
 30
0.0
 40
3.0
100
AcDbArc
 50
270.0
 51
0.0
  0
LINE
  5
176
330
1F
100
AcDbEntity
  8
0
  6
CONTINUOUS
 62
     7
100
AcDbLine
 10
369.752931639
 20
1008.0219430046
 30
0.0
 11
391.7529310541
 21
1008.0219430046
 31
0.0
  0
LINE
  5
177
330
1F
100
AcDbEntity
  8
0
  6
CONTINUOUS
 62
     7
100
AcDbLine
 10
378.2529316353
 20
1011.521942647
 30
0.0
 11
390.7529308902
 21
1011.521942647
 31
0.0
  0
LINE
  5
178
330
1F
100
AcDbEntity
  8
0
  6
CONTINUOUS
 62
     7
100
AcDbLine
 10
390.7529308902
 20
1011.521942647
 30
0.0
 11
390.7529308902
 21
1012.0219511108
 31
0.0
  0
LINE
  5
179
330
1F
100
AcDbEntity
  8
0
  6
CONTINUOUS
 62
     7
100
AcDbLine
 10
390.7529308902
 20
1027.0219517069
 30
0.0
 11
390.7529308902
 21
1027.5219601708
 31
0.0
  0
LINE
  5
17A
330
1F
100
AcDbEntity
  8
0
  6
CONTINUOUS
 62
     7
100
AcDbLine
 10
390.7529308902
 20
1027.5219601708
 30
0.0
 11
378.2529316353
 21
1027.5219601708
 31
0.0
  0
LINE
  5
17B
330
1F
100
AcDbEntity
  8
0
  6
CONTINUOUS
 62
     7
100
AcDbLine
 10
378.2529316353
 20
1027.5219601708
 30
0.0
 11
378.2529316353
 21
1011.521942647
 31
0.0
  0
LINE
  5
17C
330
1F
100
AcDbEntity
  8
0
  6
CONTINUOUS
 62
     7
100
AcDbLine
 10
366.252931531
 20
546.5219539719
 30
0.0
 11
369.752931639
 21
546.5219539719
 31
0.0
  0
LINE
  5
17D
330
1F
100
AcDbEntity
  8
0
  6
CONTINUOUS
 62
     7
100
AcDbLine
 10
366.252931531
 20
523.5219520645
 30
0.0
 11
366.252931531
 21
546.5219539719
 31
0.0
  0
LINE
  5
17E
330
1F
100
AcDbEntity
  8
0
  6
CONTINUOUS
 62
     7
100
AcDbLine
 10
369.752931639
 20
523.5219520645
 30
0.0
 11
366.252931531
 21
523.5219520645
 31
0.0
  0
LINE
  5
17F
330
1F
100
AcDbEntity
  8
0
  6
CONTINUOUS
 62
     7
100
AcDbLine
 10
366.252931531
 20
1031.021944912
 30
0.0
 11
369.752931639
 21
1031.021944912
 31
0.0
  0
LINE
  5
180
330
1F
100
AcDbEntity
  8
0
  6
CONTINUOUS
 62
     7
100
AcDbLine
 10
369.752931639
 20
1008.0219430046
 30
0.0
 11
366.252931531
 21
1008.0219430046
 31
0.0
  0
LINE
  5
181
330
1F
100
AcDbEntity
  8
0
  6
CONTINUOUS
 62
     7
100
AcDbLine
 10
366.252931531
 20
1008.0219430046
 30
0.0
 11
366.252931531
 21
1031.021944912
 31
0.0
  0
LINE
  5
182
330
1F
100
AcDbEntity
  8
0
  6
CONTINUOUS
 62
     7
100
AcDbLine
 10
368.2529316259
 20
479.178808363
 30
0.0
 11
366.252931531
 21
479.178808363
 31
0.0
  0
LINE
  5
183
330
1F
100
AcDbEntity
  8
0
  6
CONTINUOUS
 62
     7
100
AcDbLine
 10
368.2529316259
 20
476.3503891544
 30
0.0
 11
366.252931531
 21
476.3503891544
 31
0.0
  0
LINE
  5
184
330
1F
100
AcDbEntity
  8
0
  6
CONTINUOUS
 62
     7
100
AcDbLine
 10
368.2529316259
 20
476.3503891544
 30
0.0
 11
368.2529316259
 21
479.178808363
 31
0.0
  0
LINE
  5
185
330
1F
100
AcDbEntity
  8
0
  6
CONTINUOUS
 62
     7
100
AcDbLine
 10
366.252931531
 20
476.3503891544
 30
0.0
 11
366.252931531
 21
479.178808363
 31
0.0
  0
LINE
  5
186
330
1F
100
AcDbEntity
  8
0
  6
CONTINUOUS
 62
     7
100
AcDbLine
 10
368.2529316259
 20
523.0219585018
 30
0.0
 11
366.252931531
 21
523.0219585018
 31
0.0
  0
LINE
  5
187
330
1F
100
AcDbEntity
  8
0
  6
CONTINUOUS
 62
     7
100
AcDbLine
 10
368.2529316259
 20
479.178808363
 30
0.0
 11
368.2529316259
 21
523.0219585018
 31
0.0
  0
LINE
  5
188
330
1F
100
AcDbEntity
  8
0
  6
CONTINUOUS
 62
     7
100
AcDbLine
 10
366.252931531
 20
479.178808363
 30
0.0
 11
366.252931531
 21
523.0219585018
 31
0.0
  0
LINE
  5
189
330
1F
100
AcDbEntity
  8
0
  6
CONTINUOUS
 62
     7
100
AcDbLine
 10
368.2529316259
 20
1007.5219494419
 30
0.0
 11
366.252931531
 21
1007.5219494419
 31
0.0
  0
LINE
  5
18A
330
1F
100
AcDbEntity
  8
0
  6
CONTINUOUS
 62
     7
100
AcDbLine
 10
368.2529316259
 20
547.0219475346
 30
0.0
 11
366.252931531
 21
547.0219475346
 31
0.0
  0
LINE
  5
18B
330
1F
100
AcDbEntity
  8
0
  6
CONTINUOUS
 62
     7
100
AcDbLine
 10
368.2529316259
 20
547.0219475346
 30
0.0
 11
368.2529316259
 21
1007.5219494419
 31
0.0
  0
LINE
  5
18C
330
1F
100
AcDbEntity
  8
0
  6
CONTINUOUS
 62
     7
100
AcDbLine
 10
366.252931531
 20
547.0219475346
 30
0.0
 11
366.252931531
 21
1007.5219494419
 31
0.0
  0
LINE
  5
18D
330
1F
100
AcDbEntity
  8
0
  6
CONTINUOUS
 62
     7
100
AcDbLine
 10
368.2529316259
 20
1075.3650886135
 30
0.0
 11
366.252931531
 21
1075.3650886135
 31
0.0
  0
LINE
  5
18E
330
1F
100
AcDbEntity
  8
0
  6
CONTINUOUS
 62
     7
100
AcDbLine
 10
368.2529316259
 20
1031.5219384747
 30
0.0
 11
366.252931531
 21
1031.5219384747
 31
0.0
  0
LINE
  5
18F
330
1F
100
AcDbEntity
  8
0
  6
CONTINUOUS
 62
     7
100
AcDbLine
 10
368.2529316259
 20
1031.5219384747
 30
0.0
 11
368.2529316259
 21
1075.3650886135
 31
0.0
  0
LINE
  5
190
330
1F
100
AcDbEntity
  8
0
  6
CONTINUOUS
 62
     7
100
AcDbLine
 10
366.252931531
 20
1031.5219384747
 30
0.0
 11
366.252931531
 21
1075.3650886135
 31
0.0
  0
LINE
  5
191
330
1F
100
AcDbEntity
  8
0
  6
CONTINUOUS
 62
     7
100
AcDbLine
 10
368.2529316259
 20
1078.193507822
 30
0.0
 11
366.252931531
 21
1078.193507822
 31
0.0
  0
LINE
  5
192
330
1F
100
AcDbEntity
  8
0
  6
CONTINUOUS
 62
     7
100
AcDbLine
 10
368.2529316259
 20
1075.3650886135
 30
0.0
 11
368.2529316259
 21
1078.193507822
 31
0.0
  0
LINE
  5
193
330
1F
100
AcDbEntity
  8
0
  6
CONTINUOUS
 62
     7
100
AcDbLine
 10
366.252931531
 20
1075.3650886135
 30
0.0
 11
366.252931531
 21
1078.193507822
 31
0.0
  0
LINE
  5
194
330
1F
100
AcDbEntity
  8
0
  6
CONTINUOUS
 62
     7
100
AcDbLine
 10
368.2529316259
 20
454.1935247498
 30
0.0
 11
366.252931531
 21
454.1935247498
 31
0.0
  0
LINE
  5
195
330
1F
100
AcDbEntity
  8
0
  6
CONTINUOUS
 62
     7
100
AcDbLine
 10
368.2529316259
 20
454.1935247498
 30
0.0
 11
368.2529316259
 21
476.3503891544
 31
0.0
  0
LINE
  5
196
330
1F
100
AcDbEntity
  8
0
  6
CONTINUOUS
 62
     7
100
AcDbLine
 10
366.252931531
 20
454.1935247498
 30
0.0
 11
366.252931531
 21
476.3503891544
 31
0.0
  0
LINE
  5
197
330
1F
100
AcDbEntity
  8
0
  6
CONTINUOUS
 62
     7
100
AcDbLine
 10
368.2529316259
 20
1100.3503722267
 30
0.0
 11
366.252931531
 21
1100.3503722267
 31
0.0
  0
LINE
  5
198
330
1F
100
AcDbEntity
  8
0
  6
CONTINUOUS
 62
     7
100
AcDbLine
 10
368.2529316259
 20
1078.193507822
 30
0.0
 11
368.2529316259
 21
1100.3503722267
 31
0.0
  0
LINE
  5
199
330
1F
100
AcDbEntity
  8
0
  6
CONTINUOUS
 62
     7
100
AcDbLine
 10
366.252931531
 20
1078.193507822
 30
0.0
 11
366.252931531
 21
1100.3503722267
 31
0.0
  0
LINE
  5
19A
330
1F
100
AcDbEntity
  8
0
  6
CONTINUOUS
 62
     7
100
AcDbLine
 10
368.2529316259
 20
523.0219585018
 30
0.0
 11
368.2529316259
 21
523.5219520645
 31
0.0
  0
LINE
  5
19B
330
1F
100
AcDbEntity
  8
0
  6
CONTINUOUS
 62
     7
100
AcDbLine
 10
366.252931531
 20
523.0219585018
 30
0.0
 11
366.252931531
 21
523.5219520645
 31
0.0
  0
LINE
  5
19C
330
1F
100
AcDbEntity
  8
0
  6
CONTINUOUS
 62
     7
100
AcDbLine
 10
368.2529316259
 20
546.5219539719
 30
0.0
 11
368.2529316259
 21
547.0219475346
 31
0.0
  0
LINE
  5
19D
330
1F
100
AcDbEntity
  8
0
  6
CONTINUOUS
 62
     7
100
AcDbLine
 10
366.252931531
 20
546.5219539719
 30
0.0
 11
366.252931531
 21
547.0219475346
 31
0.0
  0
LINE
  5
19E
330
1F
100
AcDbEntity
  8
0
  6
CONTINUOUS
 62
     7
100
AcDbLine
 10
368.2529316259
 20
1007.5219494419
 30
0.0
 11
368.2529316259
 21
1008.0219430046
 31
0.0
  0
LINE
  5
19F
330
1F
100
AcDbEntity
  8
0
  6
CONTINUOUS
 62
     7
100
AcDbLine
 10
366.252931531
 20
1007.5219494419
 30
0.0
 11
366.252931531
 21
1008.0219430046
 31
0.0
  0
LINE
  5
1A0
330
1F
100
AcDbEntity
  8
0
  6
CONTINUOUS
 62
     7
100
AcDbLine
 10
368.2529316259
 20
1031.021944912
 30
0.0
 11
368.2529316259
 21
1031.5219384747
 31
0.0
  0
LINE
  5
1A1
330
1F
100
AcDbEntity
  8
0
  6
CONTINUOUS
 62
     7
100
AcDbLine
 10
366.252931531
 20
1031.021944912
 30
0.0
 11
366.252931531
 21
1031.5219384747
 31
0.0
  0
LINE
  5
1A2
330
1F
100
AcDbEntity
  8
0
  6
CONTINUOUS
 62
     7
100
AcDbLine
 10
375.7529312255
 20
481.0219627934
 30
0.0
 11
377.7529315533
 21
483.0219370441
 31
0.0
  0
LINE
  5
1A3
330
1F
100
AcDbEntity
  8
0
  6
CONTINUOUS
 62
     7
100
AcDbLine
 10
370.2529317209
 20
481.0219627934
 30
0.0
 11
375.7529312255
 21
481.0219627934
 31
0.0
  0
LINE
  5
1A4
330
1F
100
AcDbEntity
  8
0
  6
CONTINUOUS
 62
     7
100
AcDbLine
 10
375.7529312255
 20
1073.5219341831
 30
0.0
 11
370.2529317209
 21
1073.5219341831
 31
0.0
  0
LINE
  5
1A5
330
1F
100
AcDbEntity
  8
0
  6
CONTINUOUS
 62
     7
100
AcDbLine
 10
377.7529315533
 20
1071.5219599323
 30
0.0
 11
375.7529312255
 21
1073.5219341831
 31
0.0
  0
LINE
  5
1A6
330
1F
100
AcDbEntity
  8
0
  6
CONTINUOUS
 62
     7
100
AcDbLine
 10
377.7529315533
 20
1062.5219565945
 30
0.0
 11
377.7529315533
 21
1071.5219599323
 31
0.0
  0
LINE
  5
1A7
330
1F
100
AcDbEntity
  8
0
  6
CONTINUOUS
 62
     7
100
AcDbLine
 10
375.2529311435
 20
1062.5219565945
 30
0.0
 11
377.7529315533
 21
1062.5219565945
 31
0.0
  0
ARC
  5
1A8
330
1F
100
AcDbEntity
  8
0
  6
CONTINUOUS
 62
     7
100
AcDbCircle
 10
375.252931531
 20
1062.0219484882
 30
0.0
 40
0.5
100
AcDbArc
 50
90.0
 51
270.0
  0
LINE
  5
1A9
330
1F
100
AcDbEntity
  8
0
  6
CONTINUOUS
 62
     7
100
AcDbLine
 10
376.2529313074
 20
1061.5219396668
 30
0.0
 11
375.2529311435
 21
1061.5219396668
 31
0.0
  0
LINE
  5
1AA
330
1F
100
AcDbEntity
  8
0
  6
CONTINUOUS
 62
     7
100
AcDbLine
 10
375.2529311435
 20
493.0219573097
 30
0.0
 11
376.2529313074
 21
493.0219573097
 31
0.0
  0
ARC
  5
1AB
330
1F
100
AcDbEntity
  8
0
  6
CONTINUOUS
 62
     7
100
AcDbCircle
 10
375.252931531
 20
492.5219484882
 30
0.0
 40
0.5000000000000568
100
AcDbArc
 50
90.0
 51
270.0
  0
LINE
  5
1AC
330
1F
100
AcDbEntity
  8
0
  6
CONTINUOUS
 62
     7
100
AcDbLine
 10
377.7529315533
 20
492.021940382
 30
0.0
 11
375.2529311435
 21
492.021940382
 31
0.0
  0
LINE
  5
1AD
330
1F
100
AcDbEntity
  8
0
  6
CONTINUOUS
 62
     7
100
AcDbLine
 10
377.7529315533
 20
483.0219370441
 30
0.0
 11
377.7529315533
 21
492.021940382
 31
0.0
  0
LINE
  5
1AE
330
1F
100
AcDbEntity
  8
0
  6
CONTINUOUS
 62
     7
100
AcDbLine
 10
376.2529313074
 20
1061.5219396668
 30
0.0
 11
379.7529318811
 21
1061.5219396668
 31
0.0
  0
LINE
  5
1AF
330
1F
100
AcDbEntity
  8
0
  6
CONTINUOUS
 62
     7
100
AcDbLine
 10
379.7529318811
 20
493.0219573097
 30
0.0
 11
379.7529318811
 21
523.5219520645
 31
0.0
  0
LINE
  5
1B0
330
1F
100
AcDbEntity
  8
0
  6
CONTINUOUS
 62
     7
100
AcDbLine
 10
379.7529318811
 20
527.0219368057
 30
0.0
 11
379.7529318811
 21
527.5219452696
 31
0.0
  0
LINE
  5
1B1
330
1F
100
AcDbEntity
  8
0
  6
CONTINUOUS
 62
     7
100
AcDbLine
 10
379.7529318811
 20
542.5219458656
 30
0.0
 11
379.7529318811
 21
543.0219543295
 31
0.0
  0
LINE
  5
1B2
330
1F
100
AcDbEntity
  8
0
  6
CONTINUOUS
 62
     7
100
AcDbLine
 10
379.7529318811
 20
546.5219539719
 30
0.0
 11
379.7529318811
 21
770.8799389319
 31
0.0
  0
LINE
  5
1B3
330
1F
100
AcDbEntity
  8
0
  6
CONTINUOUS
 62
     7
100
AcDbLine
 10
379.7529318811
 20
783.8853557723
 30
0.0
 11
379.7529318811
 21
1008.0219430046
 31
0.0
  0
LINE
  5
1B4
330
1F
100
AcDbEntity
  8
0
  6
CONTINUOUS
 62
     7
100
AcDbLine
 10
379.7529318811
 20
1011.521942647
 30
0.0
 11
379.7529318811
 21
1012.0219511108
 31
0.0
  0
LINE
  5
1B5
330
1F
100
AcDbEntity
  8
0
  6
CONTINUOUS
 62
     7
100
AcDbLine
 10
379.7529318811
 20
1027.0219517069
 30
0.0
 11
379.7529318811
 21
1027.5219601708
 31
0.0
  0
LINE
  5
1B6
330
1F
100
AcDbEntity
  8
0
  6
CONTINUOUS
 62
     7
100
AcDbLine
 10
379.7529318811
 20
1031.021944912
 30
0.0
 11
379.7529318811
 21
1061.5219396668
 31
0.0
  0
LINE
  5
1B7
330
1F
100
AcDbEntity
  8
0
  6
CONTINUOUS
 62
     7
100
AcDbLine
 10
379.7529318811
 20
493.0219573097
 30
0.0
 11
376.2529313074
 21
493.0219573097
 31
0.0
  0
LINE
  5
1B8
330
1F
100
AcDbEntity
  8
0
  6
CONTINUOUS
 62
     7
100
AcDbLine
 10
368.2529316259
 20
453.0219358521
 30
0.0
 11
366.252931531
 21
453.0219358521
 31
0.0
  0
LINE
  5
1B9
330
1F
100
AcDbEntity
  8
0
  6
CONTINUOUS
 62
     7
100
AcDbLine
 10
368.2529316259
 20
453.0219358521
 30
0.0
 11
368.2529316259
 21
454.1935247498
 31
0.0
  0
LINE
  5
1BA
330
1F
100
AcDbEntity
  8
0
  6
CONTINUOUS
 62
     7
100
AcDbLine
 10
366.252931531
 20
453.0219358521
 30
0.0
 11
366.252931531
 21
454.1935247498
 31
0.0
  0
LINE
  5
1BB
330
1F
100
AcDbEntity
  8
0
  6
CONTINUOUS
 62
     7
100
AcDbLine
 10
368.2529316259
 20
1101.5219611244
 30
0.0
 11
366.252931531
 21
1101.5219611244
 31
0.0
  0
LINE
  5
1BC
330
1F
100
AcDbEntity
  8
0
  6
CONTINUOUS
 62
     7
100
AcDbLine
 10
368.2529316259
 20
1100.3503722267
 30
0.0
 11
368.2529316259
 21
1101.5219611244
 31
0.0
  0
LINE
  5
1BD
330
1F
100
AcDbEntity
  8
0
  6
CONTINUOUS
 62
     7
100
AcDbLine
 10
366.252931531
 20
1100.3503722267
 30
0.0
 11
366.252931531
 21
1101.5219611244
 31
0.0
  0
LINE
  5
1BE
330
1F
100
AcDbEntity
  8
0
  6
CONTINUOUS
 62
     7
100
AcDbLine
 10
377.7529315533
 20
473.0219465809
 30
0.0
 11
377.7529315533
 21
471.0219425278
 31
0.0
  0
LINE
  5
1BF
330
1F
100
AcDbEntity
  8
0
  6
CONTINUOUS
 62
     7
100
AcDbLine
 10
375.7529312255
 20
471.0219425278
 30
0.0
 11
375.7529312255
 21
473.0219465809
 31
0.0
  0
LINE
  5
1C0
330
1F
100
AcDbEntity
  8
0
  6
CONTINUOUS
 62
     7
100
AcDbLine
 10
377.7529315533
 20
471.0219425278
 30
0.0
 11
375.7529312255
 21
471.0219425278
 31
0.0
  0
LINE
  5
1C1
330
1F
100
AcDbEntity
  8
0
  6
CONTINUOUS
 62
     7
100
AcDbLine
 10
375.7529312255
 20
473.0219465809
 30
0.0
 11
377.7529315533
 21
473.0219465809
 31
0.0
  0
LINE
  5
1C2
330
1F
100
AcDbEntity
  8
0
  6
CONTINUOUS
 62
     7
100
AcDbLine
 10
375.7529312255
 20
471.0219425278
 30
0.0
 11
370.2529317209
 21
471.0219425278
 31
0.0
  0
LINE
  5
1C3
330
1F
100
AcDbEntity
  8
0
  6
CONTINUOUS
 62
     7
100
AcDbLine
 10
375.7529312255
 20
473.0219465809
 30
0.0
 11
370.2529317209
 21
473.0219465809
 31
0.0
  0
LINE
  5
1C4
330
1F
100
AcDbEntity
  8
0
  6
CONTINUOUS
 62
     7
100
AcDbLine
 10
375.7529312255
 20
1081.5219503956
 30
0.0
 11
375.7529312255
 21
1083.5219544487
 31
0.0
  0
LINE
  5
1C5
330
1F
100
AcDbEntity
  8
0
  6
CONTINUOUS
 62
     7
100
AcDbLine
 10
375.7529312255
 20
1083.5219544487
 30
0.0
 11
377.7529315533
 21
1083.5219544487
 31
0.0
  0
LINE
  5
1C6
330
1F
100
AcDbEntity
  8
0
  6
CONTINUOUS
 62
     7
100
AcDbLine
 10
377.7529315533
 20
1083.5219544487
 30
0.0
 11
377.7529315533
 21
1081.5219503956
 31
0.0
  0
LINE
  5
1C7
330
1F
100
AcDbEntity
  8
0
  6
CONTINUOUS
 62
     7
100
AcDbLine
 10
377.7529315533
 20
1081.5219503956
 30
0.0
 11
375.7529312255
 21
1081.5219503956
 31
0.0
  0
LINE
  5
1C8
330
1F
100
AcDbEntity
  8
0
  6
CONTINUOUS
 62
     7
100
AcDbLine
 10
375.7529312255
 20
1083.5219544487
 30
0.0
 11
370.2529317209
 21
1083.5219544487
 31
0.0
  0
LINE
  5
1C9
330
1F
100
AcDbEntity
  8
0
  6
CONTINUOUS
 62
     7
100
AcDbLine
 10
375.7529312255
 20
1081.5219503956
 30
0.0
 11
370.2529317209
 21
1081.5219503956
 31
0.0
  0
LINE
  5
1CA
330
1F
100
AcDbEntity
  8
0
  6
CONTINUOUS
 62
     7
100
AcDbLine
 10
379.7529318811
 20
475.021950634
 30
0.0
 11
377.7529315533
 21
475.021950634
 31
0.0
  0
LINE
  5
1CB
330
1F
100
AcDbEntity
  8
0
  6
CONTINUOUS
 62
     7
100
AcDbLine
 10
377.7529315533
 20
475.021950634
 30
0.0
 11
377.7529315533
 21
475.7719558792
 31
0.0
  0
LINE
  5
1CC
330
1F
100
AcDbEntity
  8
0
  6
CONTINUOUS
 62
     7
100
AcDbLine
 10
377.7529315533
 20
477.7719599323
 30
0.0
 11
377.7529315533
 21
478.0219418125
 31
0.0
  0
LINE
  5
1CD
330
1F
100
AcDbEntity
  8
0
  6
CONTINUOUS
 62
     7
100
AcDbLine
 10
377.7529315533
 20
478.0219418125
 30
0.0
 11
379.7529318811
 21
478.0219418125
 31
0.0
  0
LINE
  5
1CE
330
1F
100
AcDbEntity
  8
0
  6
CONTINUOUS
 62
     7
100
AcDbLine
 10
379.7529318811
 20
478.0219418125
 30
0.0
 11
379.7529318811
 21
475.021950634
 31
0.0
  0
LINE
  5
1CF
330
1F
100
AcDbEntity
  8
0
  6
CONTINUOUS
 62
     7
100
AcDbLine
 10
377.7529315533
 20
474.5219570713
 30
0.0
 11
379.7529318811
 21
474.5219570713
 31
0.0
  0
LINE
  5
1D0
330
1F
100
AcDbEntity
  8
0
  6
CONTINUOUS
 62
     7
100
AcDbLine
 10
377.7529315533
 20
475.021950634
 30
0.0
 11
377.7529315533
 21
474.5219570713
 31
0.0
  0
LINE
  5
1D1
330
1F
100
AcDbEntity
  8
0
  6
CONTINUOUS
 62
     7
100
AcDbLine
 10
379.7529318811
 20
475.021950634
 30
0.0
 11
379.7529318811
 21
474.5219570713
 31
0.0
  0
ARC
  5
1D2
330
1F
100
AcDbEntity
  8
0
  6
CONTINUOUS
 62
     7
100
AcDbCircle
 10
376.252931531
 20
474.5219484882
 30
0.0
 40
1.500000000000057
100
AcDbArc
 50
270.0
 51
0.0
  0
ARC
  5
1D3
330
1F
100
AcDbEntity
  8
0
  6
CONTINUOUS
 62
     7
100
AcDbCircle
 10
376.252931531
 20
474.5219484882
 30
0.0
 40
3.500000000000097
100
AcDbArc
 50
295.3769335252
 51
0.0
  0
LINE
  5
1D4
330
1F
100
AcDbEntity
  8
0
  6
CONTINUOUS
 62
     7
100
AcDbLine
 10
370.2529317209
 20
479.178808363
 30
0.0
 11
368.2529316259
 21
479.178808363
 31
0.0
  0
LINE
  5
1D5
330
1F
100
AcDbEntity
  8
0
  6
CONTINUOUS
 62
     7
100
AcDbLine
 10
370.2529317209
 20
476.3503891544
 30
0.0
 11
368.2529316259
 21
476.3503891544
 31
0.0
  0
LINE
  5
1D6
330
1F
100
AcDbEntity
  8
0
  6
CONTINUOUS
 62
     7
100
AcDbLine
 10
370.2529317209
 20
479.178808363
 30
0.0
 11
370.2529317209
 21
476.3503891544
 31
0.0
  0
LINE
  5
1D7
330
1F
100
AcDbEntity
  8
0
  6
CONTINUOUS
 62
     7
100
AcDbLine
 10
370.2529317209
 20
493.0219573097
 30
0.0
 11
368.2529316259
 21
493.0219573097
 31
0.0
  0
LINE
  5
1D8
330
1F
100
AcDbEntity
  8
0
  6
CONTINUOUS
 62
     7
100
AcDbLine
 10
368.2529316259
 20
493.0219573097
 30
0.0
 11
368.2529316259
 21
479.178808363
 31
0.0
  0
LINE
  5
1D9
330
1F
100
AcDbEntity
  8
0
  6
CONTINUOUS
 62
     7
100
AcDbLine
 10
370.2529317209
 20
493.0219573097
 30
0.0
 11
370.2529317209
 21
479.178808363
 31
0.0
  0
LINE
  5
1DA
330
1F
100
AcDbEntity
  8
0
  6
CONTINUOUS
 62
     7
100
AcDbLine
 10
370.2529317209
 20
454.1935247498
 30
0.0
 11
368.2529316259
 21
454.1935247498
 31
0.0
  0
LINE
  5
1DB
330
1F
100
AcDbEntity
  8
0
  6
CONTINUOUS
 62
     7
100
AcDbLine
 10
370.2529317209
 20
476.3503891544
 30
0.0
 11
370.2529317209
 21
454.1935247498
 31
0.0
  0
LINE
  5
1DC
330
1F
100
AcDbEntity
  8
0
  6
CONTINUOUS
 62
     7
100
AcDbLine
 10
370.2529317209
 20
453.0219358521
 30
0.0
 11
368.2529316259
 21
453.0219358521
 31
0.0
  0
LINE
  5
1DD
330
1F
100
AcDbEntity
  8
0
  6
CONTINUOUS
 62
     7
100
AcDbLine
 10
370.2529317209
 20
454.1935247498
 30
0.0
 11
370.2529317209
 21
453.0219358521
 31
0.0
  0
LINE
  5
1DE
330
1F
100
AcDbEntity
  8
0
  6
CONTINUOUS
 62
     7
100
AcDbLine
 10
370.2529317209
 20
1075.3650886135
 30
0.0
 11
368.2529316259
 21
1075.3650886135
 31
0.0
  0
LINE
  5
1DF
330
1F
100
AcDbEntity
  8
0
  6
CONTINUOUS
 62
     7
100
AcDbLine
 10
370.2529317209
 20
1061.5219396668
 30
0.0
 11
368.2529316259
 21
1061.5219396668
 31
0.0
  0
LINE
  5
1E0
330
1F
100
AcDbEntity
  8
0
  6
CONTINUOUS
 62
     7
100
AcDbLine
 10
368.2529316259
 20
1075.3650886135
 30
0.0
 11
368.2529316259
 21
1061.5219396668
 31
0.0
  0
LINE
  5
1E1
330
1F
100
AcDbEntity
  8
0
  6
CONTINUOUS
 62
     7
100
AcDbLine
 10
370.2529317209
 20
1075.3650886135
 30
0.0
 11
370.2529317209
 21
1061.5219396668
 31
0.0
  0
LINE
  5
1E2
330
1F
100
AcDbEntity
  8
0
  6
CONTINUOUS
 62
     7
100
AcDbLine
 10
370.2529317209
 20
1078.193507822
 30
0.0
 11
368.2529316259
 21
1078.193507822
 31
0.0
  0
LINE
  5
1E3
330
1F
100
AcDbEntity
  8
0
  6
CONTINUOUS
 62
     7
100
AcDbLine
 10
370.2529317209
 20
1078.193507822
 30
0.0
 11
370.2529317209
 21
1075.3650886135
 31
0.0
  0
LINE
  5
1E4
330
1F
100
AcDbEntity
  8
0
  6
CONTINUOUS
 62
     7
100
AcDbLine
 10
370.2529317209
 20
1100.3503722267
 30
0.0
 11
368.2529316259
 21
1100.3503722267
 31
0.0
  0
LINE
  5
1E5
330
1F
100
AcDbEntity
  8
0
  6
CONTINUOUS
 62
     7
100
AcDbLine
 10
370.2529317209
 20
1100.3503722267
 30
0.0
 11
370.2529317209
 21
1078.193507822
 31
0.0
  0
LINE
  5
1E6
330
1F
100
AcDbEntity
  8
0
  6
CONTINUOUS
 62
     7
100
AcDbLine
 10
370.2529317209
 20
1101.5219611244
 30
0.0
 11
368.2529316259
 21
1101.5219611244
 31
0.0
  0
LINE
  5
1E7
330
1F
100
AcDbEntity
  8
0
  6
CONTINUOUS
 62
     7
100
AcDbLine
 10
370.2529317209
 20
1101.5219611244
 30
0.0
 11
370.2529317209
 21
1100.3503722267
 31
0.0
  0
LINE
  5
1E8
330
1F
100
AcDbEntity
  8
0
  6
CONTINUOUS
 62
     8
100
AcDbLine
 10
363.2029315898
 20
777.3055968127
 30
0.0
 11
363.2029315898
 21
784.1219484935
 31
0.0
  0
LINE
  5
1E9
330
1F
100
AcDbEntity
  8
0
  6
CONTINUOUS
 62
     8
100
AcDbLine
 10
363.2029315898
 20
770.421948483
 30
0.0
 11
363.2029315898
 21
777.3055968127
 31
0.0
  0
LINE
  5
1EA
330
1F
100
AcDbEntity
  8
0
  6
CONTINUOUS
 62
     8
100
AcDbLine
 10
369.752931639
 20
493.0219573097
 30
0.0
 11
369.752931639
 21
523.5219520645
 31
0.0
  0
LINE
  5
1EB
330
1F
100
AcDbEntity
  8
0
  6
CONTINUOUS
 62
     8
100
AcDbLine
 10
369.752931639
 20
546.5219539719
 30
0.0
 11
369.752931639
 21
1008.0219430046
 31
0.0
  0
LINE
  5
1EC
330
1F
100
AcDbEntity
  8
0
  6
CONTINUOUS
 62
     8
100
AcDbLine
 10
369.752931639
 20
1031.021944912
 30
0.0
 11
369.752931639
 21
1061.5219396668
 31
0.0
  0
LINE
  5
1ED
330
1F
100
AcDbEntity
  8
0
  6
CONTINUOUS
 62
     8
100
AcDbLine
 10
376.2529313074
 20
493.0219573097
 30
0.0
 11
376.2529313074
 21
523.5219520645
 31
0.0
  0
LINE
  5
1EE
330
1F
100
AcDbEntity
  8
0
  6
CONTINUOUS
 62
     8
100
AcDbLine
 10
376.2529313074
 20
546.5219539719
 30
0.0
 11
376.2529313074
 21
1008.0219430046
 31
0.0
  0
LINE
  5
1EF
330
1F
100
AcDbEntity
  8
0
  6
CONTINUOUS
 62
     8
100
AcDbLine
 10
376.2529313074
 20
1031.021944912
 30
0.0
 11
376.2529313074
 21
1061.5219396668
 31
0.0
  0
LINE
  5
1F0
330
1F
100
AcDbEntity
  8
0
  6
CONTINUOUS
 62
     7
100
AcDbLine
 10
997.8554002866
 20
1255.9906499193
 30
0.0
 11
997.8554002866
 21
1255.2906492457
 31
0.0
  0
LINE
  5
1F1
330
1F
100
AcDbEntity
  8
0
  6
CONTINUOUS
 62
     7
100
AcDbLine
 10
1010.1553998813
 20
1255.2906492457
 30
0.0
 11
1010.1553998813
 21
1255.9906499193
 31
0.0
  0
LINE
  5
1F2
330
1F
100
AcDbEntity
  8
0
  6
CONTINUOUS
 62
     7
100
AcDbLine
 10
997.5054018125
 20
1258.0906491459
 30
0.0
 11
997.5054018125
 21
1256.0906497494
 31
0.0
  0
LINE
  5
1F3
330
1F
100
AcDbEntity
  8
0
  6
CONTINUOUS
 62
     7
100
AcDbLine
 10
1028.0053965673
 20
1256.0906497494
 30
0.0
 11
1028.0053965673
 21
1258.0906491459
 31
0.0
  0
ARC
  5
1F4
330
1F
100
AcDbEntity
  8
0
  6
CONTINUOUS
 62
     7
100
AcDbCircle
 10
1010.6053951368
 20
1274.6406494961
 30
0.0
 40
0.25
100
AcDbArc
 50
0.0
 51
90.0
  0
ARC
  5
1F5
330
1F
100
AcDbEntity
  8
0
  6
CONTINUOUS
 62
     7
100
AcDbCircle
 10
997.4053951368
 20
1274.6406494961
 30
0.0
 40
0.2500000000001137
100
AcDbArc
 50
90.0
 51
180.0
  0
LINE
  5
1F6
330
1F
100
AcDbEntity
  8
0
  6
CONTINUOUS
 62
     7
100
AcDbLine
 10
1010.8553968295
 20
1274.5906495222
 30
0.0
 11
1010.8553968295
 21
1274.6406494372
 31
0.0
  0
LINE
  5
1F7
330
1F
100
AcDbEntity
  8
0
  6
CONTINUOUS
 62
     7
100
AcDbLine
 10
997.1553884372
 20
1274.6406494372
 30
0.0
 11
997.1553884372
 21
1274.5906495222
 31
0.0
  0
LINE
  5
1F8
330
1F
100
AcDbEntity
  8
0
  6
CONTINUOUS
 62
     7
100
AcDbLine
 10
1000.505392991
 20
1255.0906495855
 30
0.0
 11
1000.505392991
 21
1254.0906494216
 31
0.0
  0
LINE
  5
1F9
330
1F
100
AcDbEntity
  8
0
  6
CONTINUOUS
 62
     7
100
AcDbLine
 10
1007.5053922758
 20
1254.0906494216
 30
0.0
 11
1007.5053922758
 21
1255.0906495855
 31
0.0
  0
LINE
  5
1FA
330
1F
100
AcDbEntity
  8
0
  6
CONTINUOUS
 62
     7
100
AcDbLine
 10
1001.0054014549
 20
1256.0906497494
 30
0.0
 11
1001.0054014549
 21
1255.9906499193
 31
0.0
  0
LINE
  5
1FB
330
1F
100
AcDbEntity
  8
0
  6
CONTINUOUS
 62
     7
100
AcDbLine
 10
1001.0054014549
 20
1255.2906492457
 30
0.0
 11
1001.0054014549
 21
1255.0906495855
 31
0.0
  0
LINE
  5
1FC
330
1F
100
AcDbEntity
  8
0
  6
CONTINUOUS
 62
     7
100
AcDbLine
 10
1007.0053987131
 20
1255.0906495855
 30
0.0
 11
1007.0053987131
 21
1255.2906492457
 31
0.0
  0
LINE
  5
1FD
330
1F
100
AcDbEntity
  8
0
  6
CONTINUOUS
 62
     7
100
AcDbLine
 10
1007.0053987131
 20
1255.9906499193
 30
0.0
 11
1007.0053987131
 21
1256.0906497494
 31
0.0
  0
LINE
  5
1FE
330
1F
100
AcDbEntity
  8
0
  6
CONTINUOUS
 62
     7
100
AcDbLine
 10
1015.0054000244
 20
1272.5906495436
 30
0.0
 11
1013.0053959712
 21
1274.5906495222
 31
0.0
  0
LINE
  5
1FF
330
1F
100
AcDbEntity
  8
0
  6
CONTINUOUS
 62
     7
100
AcDbLine
 10
995.0053892955
 20
1274.5906495222
 30
0.0
 11
993.0054001436
 21
1272.5906495436
 31
0.0
  0
LINE
  5
200
330
1F
100
AcDbEntity
  8
0
  6
CONTINUOUS
 62
     7
100
AcDbLine
 10
993.0054001436
 20
1272.5906495436
 30
0.0
 11
993.0054001436
 21
1271.5906494961
 31
0.0
  0
LINE
  5
201
330
1F
100
AcDbEntity
  8
0
  6
CONTINUOUS
 62
     7
100
AcDbLine
 10
1015.0054000244
 20
1271.5906494961
 30
0.0
 11
1015.0054000244
 21
1272.5906495436
 31
0.0
  0
LINE
  5
202
330
1F
100
AcDbEntity
  8
0
  6
CONTINUOUS
 62
     7
100
AcDbLine
 10
1011.0053919181
 20
1258.5906492279
 30
0.0
 11
1011.0053919181
 21
1260.0906494737
 31
0.0
  0
ARC
  5
203
330
1F
100
AcDbEntity
  8
0
  6
CONTINUOUS
 62
     7
100
AcDbCircle
 10
1010.5053951368
 20
1258.5906494961
 30
0.0
 40
0.5000000000002386
100
AcDbArc
 50
269.9999878213
 51
0.0
  0
LINE
  5
204
330
1F
100
AcDbEntity
  8
0
  6
CONTINUOUS
 62
     7
100
AcDbLine
 10
997.8554002866
 20
1255.2906492457
 30
0.0
 11
1010.1553998813
 21
1255.2906492457
 31
0.0
  0
LINE
  5
205
330
1F
100
AcDbEntity
  8
0
  6
CONTINUOUS
 62
     7
100
AcDbLine
 10
997.8554002866
 20
1255.9906499193
 30
0.0
 11
1010.1553998813
 21
1255.9906499193
 31
0.0
  0
LINE
  5
206
330
1F
100
AcDbEntity
  8
0
  6
CONTINUOUS
 62
     7
100
AcDbLine
 10
997.5054018125
 20
1256.0906497494
 30
0.0
 11
1004.0373258218
 21
1256.0906497494
 31
0.0
  0
LINE
  5
207
330
1F
100
AcDbEntity
  8
0
  6
CONTINUOUS
 62
     7
100
AcDbLine
 10
1004.0373258218
 20
1256.0906497494
 30
0.0
 11
1004.0373258218
 21
1258.0906491459
 31
0.0
  0
LINE
  5
208
330
1F
100
AcDbEntity
  8
0
  6
CONTINUOUS
 62
     7
100
AcDbLine
 10
1027.1400712356
 20
1256.0906497494
 30
0.0
 11
1027.1400712356
 21
1258.0906491459
 31
0.0
  0
LINE
  5
209
330
1F
100
AcDbEntity
  8
0
  6
CONTINUOUS
 62
     7
100
AcDbLine
 10
1004.0373258218
 20
1256.0906497494
 30
0.0
 11
1027.1400712356
 21
1256.0906497494
 31
0.0
  0
LINE
  5
20A
330
1F
100
AcDbEntity
  8
0
  6
CONTINUOUS
 62
     7
100
AcDbLine
 10
1008.5053943023
 20
1258.0906491459
 30
0.0
 11
1022.5053928718
 21
1258.0906491459
 31
0.0
  0
LINE
  5
20B
330
1F
100
AcDbEntity
  8
0
  6
CONTINUOUS
 62
     7
100
AcDbLine
 10
1026.0053925142
 20
1258.0906491459
 30
0.0
 11
1027.1400712356
 21
1258.0906491459
 31
0.0
  0
LINE
  5
20C
330
1F
100
AcDbEntity
  8
0
  6
CONTINUOUS
 62
     7
100
AcDbLine
 10
1027.1400712356
 20
1256.0906497494
 30
0.0
 11
1028.0053965673
 21
1256.0906497494
 31
0.0
  0
LINE
  5
20D
330
1F
100
AcDbEntity
  8
0
  6
CONTINUOUS
 62
     7
100
AcDbLine
 10
1027.1400712356
 20
1258.0906491459
 30
0.0
 11
1028.0053965673
 21
1258.0906491459
 31
0.0
  0
LINE
  5
20E
330
1F
100
AcDbEntity
  8
0
  6
CONTINUOUS
 62
     7
100
AcDbLine
 10
1010.6053106412
 20
1274.8906494782
 30
0.0
 11
997.4054001197
 21
1274.8906494782
 31
0.0
  0
LINE
  5
20F
330
1F
100
AcDbEntity
  8
0
  6
CONTINUOUS
 62
     7
100
AcDbLine
 10
1000.505392991
 20
1254.0906494216
 30
0.0
 11
1007.5053475723
 21
1254.0906494216
 31
0.0
  0
LINE
  5
210
330
1F
100
AcDbEntity
  8
0
  6
CONTINUOUS
 62
     7
100
AcDbLine
 10
1000.5054376945
 20
1255.0906495855
 30
0.0
 11
1007.5053922758
 21
1255.0906495855
 31
0.0
  0
LINE
  5
211
330
1F
100
AcDbEntity
  8
0
  6
CONTINUOUS
 62
     7
100
AcDbLine
 10
995.0053892955
 20
1274.5906495222
 30
0.0
 11
1013.0053959712
 21
1274.5906495222
 31
0.0
  0
LINE
  5
212
330
1F
100
AcDbEntity
  8
0
  6
CONTINUOUS
 62
     7
100
AcDbLine
 10
996.265520893
 20
1272.5906495436
 30
0.0
 11
1015.0054000244
 21
1272.5906495436
 31
0.0
  0
LINE
  5
213
330
1F
100
AcDbEntity
  8
0
  6
CONTINUOUS
 62
     7
100
AcDbLine
 10
993.0054001436
 20
1272.5906495436
 30
0.0
 11
996.265520893
 21
1272.5906495436
 31
0.0
  0
LINE
  5
214
330
1F
100
AcDbEntity
  8
0
  6
CONTINUOUS
 62
     7
100
AcDbLine
 10
1022.7982900962
 20
1267.5906493061
 30
0.0
 11
1022.7982900962
 21
1260.0906494737
 31
0.0
  0
LINE
  5
215
330
1F
100
AcDbEntity
  8
0
  6
CONTINUOUS
 62
     7
100
AcDbLine
 10
1022.7982900962
 20
1260.0906494737
 30
0.0
 11
1018.5053996667
 21
1260.0906494737
 31
0.0
  0
LINE
  5
216
330
1F
100
AcDbEntity
  8
0
  6
CONTINUOUS
 62
     7
100
AcDbLine
 10
1009.5053963289
 20
1260.0906494737
 30
0.0
 11
1008.5053943023
 21
1260.0906494737
 31
0.0
  0
LINE
  5
217
330
1F
100
AcDbEntity
  8
0
  6
CONTINUOUS
 62
     7
100
AcDbLine
 10
638.0053959712
 20
1260.0906494737
 30
0.0
 11
637.0053939447
 21
1260.0906494737
 31
0.0
  0
LINE
  5
218
330
1F
100
AcDbEntity
  8
0
  6
CONTINUOUS
 62
     7
100
AcDbLine
 10
628.0053906068
 20
1260.0906494737
 30
0.0
 11
623.7125001773
 21
1260.0906494737
 31
0.0
  0
LINE
  5
219
330
1F
100
AcDbEntity
  8
0
  6
CONTINUOUS
 62
     7
100
AcDbLine
 10
623.7125001773
 20
1267.5906493061
 30
0.0
 11
623.7125001773
 21
1260.0906494737
 31
0.0
  0
LINE
  5
21A
330
1F
100
AcDbEntity
  8
0
  6
CONTINUOUS
 62
     7
100
AcDbLine
 10
623.0053953752
 20
1267.5906493061
 30
0.0
 11
623.0053953752
 21
1260.0906494737
 31
0.0
  0
LINE
  5
21B
330
1F
100
AcDbEntity
  8
0
  6
CONTINUOUS
 62
     7
100
AcDbLine
 10
623.0053953752
 20
1260.0906494737
 30
0.0
 11
621.0053913221
 21
1260.0906494737
 31
0.0
  0
LINE
  5
21C
330
1F
100
AcDbEntity
  8
0
  6
CONTINUOUS
 62
     7
100
AcDbLine
 10
621.0053913221
 20
1267.5906493061
 30
0.0
 11
621.0053913221
 21
1260.0906494737
 31
0.0
  0
LINE
  5
21D
330
1F
100
AcDbEntity
  8
0
  6
CONTINUOUS
 62
     7
100
AcDbLine
 10
1025.5053989515
 20
1267.5906493061
 30
0.0
 11
1025.5053989515
 21
1260.0906494737
 31
0.0
  0
LINE
  5
21E
330
1F
100
AcDbEntity
  8
0
  6
CONTINUOUS
 62
     7
100
AcDbLine
 10
1023.5053948984
 20
1260.0906494737
 30
0.0
 11
1025.5053989515
 21
1260.0906494737
 31
0.0
  0
LINE
  5
21F
330
1F
100
AcDbEntity
  8
0
  6
CONTINUOUS
 62
     7
100
AcDbLine
 10
1023.5053948984
 20
1267.5906493061
 30
0.0
 11
1023.5053948984
 21
1260.0906494737
 31
0.0
  0
LINE
  5
220
330
1F
100
AcDbEntity
  8
0
  6
CONTINUOUS
 62
     7
100
AcDbLine
 10
625.162249051
 20
1269.5906494011
 30
0.0
 11
625.162249051
 21
1271.5906494961
 31
0.0
  0
LINE
  5
221
330
1F
100
AcDbEntity
  8
0
  6
CONTINUOUS
 62
     7
100
AcDbLine
 10
622.3338149414
 20
1269.5906494011
 30
0.0
 11
622.3338149414
 21
1271.5906494961
 31
0.0
  0
LINE
  5
222
330
1F
100
AcDbEntity
  8
0
  6
CONTINUOUS
 62
     7
100
AcDbLine
 10
622.3338149414
 20
1269.5906494011
 30
0.0
 11
625.162249051
 21
1269.5906494011
 31
0.0
  0
LINE
  5
223
330
1F
100
AcDbEntity
  8
0
  6
CONTINUOUS
 62
     7
100
AcDbLine
 10
622.3338149414
 20
1271.5906494961
 30
0.0
 11
625.162249051
 21
1271.5906494961
 31
0.0
  0
LINE
  5
224
330
1F
100
AcDbEntity
  8
0
  6
CONTINUOUS
 62
     7
100
AcDbLine
 10
1021.3485412225
 20
1269.5906494011
 30
0.0
 11
1021.3485412225
 21
1271.5906494961
 31
0.0
  0
LINE
  5
225
330
1F
100
AcDbEntity
  8
0
  6
CONTINUOUS
 62
     7
100
AcDbLine
 10
625.162249051
 20
1269.5906494011
 30
0.0
 11
1021.3485412225
 21
1269.5906494011
 31
0.0
  0
LINE
  5
226
330
1F
100
AcDbEntity
  8
0
  6
CONTINUOUS
 62
     7
100
AcDbLine
 10
625.162249051
 20
1271.5906494961
 30
0.0
 11
1021.3485412225
 21
1271.5906494961
 31
0.0
  0
LINE
  5
227
330
1F
100
AcDbEntity
  8
0
  6
CONTINUOUS
 62
     7
100
AcDbLine
 10
1024.1769753322
 20
1269.5906494011
 30
0.0
 11
1024.1769753322
 21
1271.5906494961
 31
0.0
  0
LINE
  5
228
330
1F
100
AcDbEntity
  8
0
  6
CONTINUOUS
 62
     7
100
AcDbLine
 10
1021.3485412225
 20
1269.5906494011
 30
0.0
 11
1024.1769753322
 21
1269.5906494011
 31
0.0
  0
LINE
  5
229
330
1F
100
AcDbEntity
  8
0
  6
CONTINUOUS
 62
     7
100
AcDbLine
 10
1021.3485412225
 20
1271.5906494961
 30
0.0
 11
1024.1769753322
 21
1271.5906494961
 31
0.0
  0
LINE
  5
22A
330
1F
100
AcDbEntity
  8
0
  6
CONTINUOUS
 62
     7
100
AcDbLine
 10
600.1769654378
 20
1269.5906494011
 30
0.0
 11
600.1769654378
 21
1271.5906494961
 31
0.0
  0
LINE
  5
22B
330
1F
100
AcDbEntity
  8
0
  6
CONTINUOUS
 62
     7
100
AcDbLine
 10
600.1769654378
 20
1269.5906494011
 30
0.0
 11
622.3338149414
 21
1269.5906494011
 31
0.0
  0
LINE
  5
22C
330
1F
100
AcDbEntity
  8
0
  6
CONTINUOUS
 62
     7
100
AcDbLine
 10
600.1769654378
 20
1271.5906494961
 30
0.0
 11
622.3338149414
 21
1271.5906494961
 31
0.0
  0
LINE
  5
22D
330
1F
100
AcDbEntity
  8
0
  6
CONTINUOUS
 62
     7
100
AcDbLine
 10
1046.3338248357
 20
1269.5906494011
 30
0.0
 11
1046.3338248357
 21
1271.5906494961
 31
0.0
  0
LINE
  5
22E
330
1F
100
AcDbEntity
  8
0
  6
CONTINUOUS
 62
     7
100
AcDbLine
 10
1024.1769753322
 20
1269.5906494011
 30
0.0
 11
1046.3338248357
 21
1269.5906494011
 31
0.0
  0
LINE
  5
22F
330
1F
100
AcDbEntity
  8
0
  6
CONTINUOUS
 62
     7
100
AcDbLine
 10
1024.1769753322
 20
1271.5906494961
 30
0.0
 11
1046.3338248357
 21
1271.5906494961
 31
0.0
  0
LINE
  5
230
330
1F
100
AcDbEntity
  8
0
  6
CONTINUOUS
 62
     7
100
AcDbLine
 10
626.0054014549
 20
1262.0906498016
 30
0.0
 11
628.0053906068
 21
1260.0906494737
 31
0.0
  0
LINE
  5
231
330
1F
100
AcDbEntity
  8
0
  6
CONTINUOUS
 62
     7
100
AcDbLine
 10
626.0054014549
 20
1267.5906493061
 30
0.0
 11
626.0054014549
 21
1262.0906498016
 31
0.0
  0
LINE
  5
232
330
1F
100
AcDbEntity
  8
0
  6
CONTINUOUS
 62
     7
100
AcDbLine
 10
1020.5053888187
 20
1262.0906498016
 30
0.0
 11
1020.5053888187
 21
1267.5906493061
 31
0.0
  0
LINE
  5
233
330
1F
100
AcDbEntity
  8
0
  6
CONTINUOUS
 62
     7
100
AcDbLine
 10
1018.5053996667
 20
1260.0906494737
 30
0.0
 11
1020.5053888187
 21
1262.0906498016
 31
0.0
  0
LINE
  5
234
330
1F
100
AcDbEntity
  8
0
  6
CONTINUOUS
 62
     7
100
AcDbLine
 10
1009.5053963289
 20
1260.0906494737
 30
0.0
 11
1018.5053996667
 21
1260.0906494737
 31
0.0
  0
LINE
  5
235
330
1F
100
AcDbEntity
  8
0
  6
CONTINUOUS
 62
     7
100
AcDbLine
 10
1009.5053963289
 20
1262.5906498835
 30
0.0
 11
1009.5053963289
 21
1260.0906494737
 31
0.0
  0
ARC
  5
236
330
1F
100
AcDbEntity
  8
0
  6
CONTINUOUS
 62
     7
100
AcDbCircle
 10
1009.0053951368
 20
1262.5906494961
 30
0.0
 40
0.5000000000001137
100
AcDbArc
 50
0.0
 51
180.0
  0
LINE
  5
237
330
1F
100
AcDbEntity
  8
0
  6
CONTINUOUS
 62
     7
100
AcDbLine
 10
1008.5053943023
 20
1261.5906497196
 30
0.0
 11
1008.5053943023
 21
1262.5906498835
 31
0.0
  0
LINE
  5
238
330
1F
100
AcDbEntity
  8
0
  6
CONTINUOUS
 62
     7
100
AcDbLine
 10
638.0053959712
 20
1261.5906497196
 30
0.0
 11
1008.5053943023
 21
1261.5906497196
 31
0.0
  0
LINE
  5
239
330
1F
100
AcDbEntity
  8
0
  6
CONTINUOUS
 62
     7
100
AcDbLine
 10
638.0053959712
 20
1262.5906498835
 30
0.0
 11
638.0053959712
 21
1261.5906497196
 31
0.0
  0
ARC
  5
23A
330
1F
100
AcDbEntity
  8
0
  6
CONTINUOUS
 62
     7
100
AcDbCircle
 10
637.5053951368
 20
1262.5906494961
 30
0.0
 40
0.5000000000001137
100
AcDbArc
 50
0.0
 51
180.0
  0
LINE
  5
23B
330
1F
100
AcDbEntity
  8
0
  6
CONTINUOUS
 62
     7
100
AcDbLine
 10
637.0053939447
 20
1260.0906494737
 30
0.0
 11
637.0053939447
 21
1262.5906498835
 31
0.0
  0
LINE
  5
23C
330
1F
100
AcDbEntity
  8
0
  6
CONTINUOUS
 62
     7
100
AcDbLine
 10
628.0053906068
 20
1260.0906494737
 30
0.0
 11
637.0053939447
 21
1260.0906494737
 31
0.0
  0
CIRCLE
  5
23D
330
1F
100
AcDbEntity
  8
0
  6
CONTINUOUS
 62
     7
100
AcDbCircle
 10
630.0053951368
 20
1264.5906494961
 30
0.0
 40
2.699999999999818
  0
LINE
  5
23E
330
1F
100
AcDbEntity
  8
0
  6
CONTINUOUS
 62
     7
100
AcDbLine
 10
1008.5053943023
 20
1261.5906497196
 30
0.0
 11
1008.5053943023
 21
1258.0906491459
 31
0.0
  0
LINE
  5
23F
330
1F
100
AcDbEntity
  8
0
  6
CONTINUOUS
 62
     7
100
AcDbLine
 10
638.0053959712
 20
1258.0906491459
 30
0.0
 11
1008.5053943023
 21
1258.0906491459
 31
0.0
  0
LINE
  5
240
330
1F
100
AcDbEntity
  8
0
  6
CONTINUOUS
 62
     7
100
AcDbLine
 10
638.0053959712
 20
1258.0906491459
 30
0.0
 11
638.0053959712
 21
1261.5906497196
 31
0.0
  0
LINE
  5
241
330
1F
100
AcDbEntity
  8
0
  6
CONTINUOUS
 62
     7
100
AcDbLine
 10
599.0053914413
 20
1269.5906494011
 30
0.0
 11
599.0053914413
 21
1271.5906494961
 31
0.0
  0
LINE
  5
242
330
1F
100
AcDbEntity
  8
0
  6
CONTINUOUS
 62
     7
100
AcDbLine
 10
599.0053914413
 20
1269.5906494011
 30
0.0
 11
600.1769654378
 21
1269.5906494011
 31
0.0
  0
LINE
  5
243
330
1F
100
AcDbEntity
  8
0
  6
CONTINUOUS
 62
     7
100
AcDbLine
 10
599.0053914413
 20
1271.5906494961
 30
0.0
 11
600.1769654378
 21
1271.5906494961
 31
0.0
  0
LINE
  5
244
330
1F
100
AcDbEntity
  8
0
  6
CONTINUOUS
 62
     7
100
AcDbLine
 10
1047.5053988323
 20
1269.5906494011
 30
0.0
 11
1047.5053988323
 21
1271.5906494961
 31
0.0
  0
LINE
  5
245
330
1F
100
AcDbEntity
  8
0
  6
CONTINUOUS
 62
     7
100
AcDbLine
 10
1046.3338248357
 20
1269.5906494011
 30
0.0
 11
1047.5053988323
 21
1269.5906494011
 31
0.0
  0
LINE
  5
246
330
1F
100
AcDbEntity
  8
0
  6
CONTINUOUS
 62
     7
100
AcDbLine
 10
1046.3338248357
 20
1271.5906494961
 30
0.0
 11
1047.5053988323
 21
1271.5906494961
 31
0.0
  0
LINE
  5
247
330
1F
100
AcDbEntity
  8
0
  6
CONTINUOUS
 62
     7
100
AcDbLine
 10
619.0054021701
 20
1267.5906493061
 30
0.0
 11
619.0054021701
 21
1262.0906498016
 31
0.0
  0
LINE
  5
248
330
1F
100
AcDbEntity
  8
0
  6
CONTINUOUS
 62
     7
100
AcDbLine
 10
617.005398117
 20
1262.0906498016
 30
0.0
 11
619.0054021701
 21
1262.0906498016
 31
0.0
  0
LINE
  5
249
330
1F
100
AcDbEntity
  8
0
  6
CONTINUOUS
 62
     7
100
AcDbLine
 10
617.005398117
 20
1267.5906493061
 30
0.0
 11
617.005398117
 21
1262.0906498016
 31
0.0
  0
LINE
  5
24A
330
1F
100
AcDbEntity
  8
0
  6
CONTINUOUS
 62
     7
100
AcDbLine
 10
619.0054021701
 20
1260.0906494737
 30
0.0
 11
617.005398117
 21
1260.0906494737
 31
0.0
  0
LINE
  5
24B
330
1F
100
AcDbEntity
  8
0
  6
CONTINUOUS
 62
     7
100
AcDbLine
 10
619.0054021701
 20
1262.0906498016
 30
0.0
 11
619.0054021701
 21
1260.0906494737
 31
0.0
  0
LINE
  5
24C
330
1F
100
AcDbEntity
  8
0
  6
CONTINUOUS
 62
     7
100
AcDbLine
 10
617.005398117
 20
1260.0906494737
 30
0.0
 11
617.005398117
 21
1262.0906498016
 31
0.0
  0
LINE
  5
24D
330
1F
100
AcDbEntity
  8
0
  6
CONTINUOUS
 62
     7
100
AcDbLine
 10
1029.5053921565
 20
1267.5906493061
 30
0.0
 11
1029.5053921565
 21
1262.0906498016
 31
0.0
  0
LINE
  5
24E
330
1F
100
AcDbEntity
  8
0
  6
CONTINUOUS
 62
     7
100
AcDbLine
 10
1027.5053881034
 20
1262.0906498016
 30
0.0
 11
1029.5053921565
 21
1262.0906498016
 31
0.0
  0
LINE
  5
24F
330
1F
100
AcDbEntity
  8
0
  6
CONTINUOUS
 62
     7
100
AcDbLine
 10
1027.5053881034
 20
1267.5906493061
 30
0.0
 11
1027.5053881034
 21
1262.0906498016
 31
0.0
  0
LINE
  5
250
330
1F
100
AcDbEntity
  8
0
  6
CONTINUOUS
 62
     7
100
AcDbLine
 10
1029.5053921565
 20
1260.0906494737
 30
0.0
 11
1027.5053881034
 21
1260.0906494737
 31
0.0
  0
LINE
  5
251
330
1F
100
AcDbEntity
  8
0
  6
CONTINUOUS
 62
     7
100
AcDbLine
 10
1027.5053881034
 20
1260.0906494737
 30
0.0
 11
1027.5053881034
 21
1262.0906498016
 31
0.0
  0
LINE
  5
252
330
1F
100
AcDbEntity
  8
0
  6
CONTINUOUS
 62
     7
100
AcDbLine
 10
1029.5053921565
 20
1262.0906498016
 30
0.0
 11
1029.5053921565
 21
1260.0906494737
 31
0.0
  0
LINE
  5
253
330
1F
100
AcDbEntity
  8
0
  6
CONTINUOUS
 62
     7
100
AcDbLine
 10
1022.5053928718
 20
1258.0906491459
 30
0.0
 11
1022.5053928718
 21
1260.0906494737
 31
0.0
  0
LINE
  5
254
330
1F
100
AcDbEntity
  8
0
  6
CONTINUOUS
 62
     7
100
AcDbLine
 10
1025.5053989515
 20
1260.0906494737
 30
0.0
 11
1025.5053989515
 21
1258.0906491459
 31
0.0
  0
LINE
  5
255
330
1F
100
AcDbEntity
  8
0
  6
CONTINUOUS
 62
     7
100
AcDbLine
 10
1025.5053989515
 20
1258.0906491459
 30
0.0
 11
1022.5053928718
 21
1258.0906491459
 31
0.0
  0
LINE
  5
256
330
1F
100
AcDbEntity
  8
0
  6
CONTINUOUS
 62
     7
100
AcDbLine
 10
1022.7982900962
 20
1260.0906494737
 30
0.0
 11
1023.5053948984
 21
1260.0906494737
 31
0.0
  0
ARC
  5
257
330
1F
100
AcDbEntity
  8
0
  6
CONTINUOUS
 62
     7
100
AcDbCircle
 10
1026.0053951368
 20
1261.5906494961
 30
0.0
 40
3.5
100
AcDbArc
 50
270.0
 51
334.6230664749
  0
LINE
  5
258
330
1F
100
AcDbEntity
  8
0
  6
CONTINUOUS
 62
     7
100
AcDbLine
 10
1026.0053925142
 20
1260.0906494737
 30
0.0
 11
1026.0053925142
 21
1258.0906491459
 31
0.0
  0
ARC
  5
259
330
1F
100
AcDbEntity
  8
0
  6
CONTINUOUS
 62
     7
100
AcDbCircle
 10
1026.0053951368
 20
1261.5906494961
 30
0.0
 40
1.5
100
AcDbArc
 50
270.0
 51
0.0
  0
LINE
  5
25A
330
1F
100
AcDbEntity
  8
0
  6
CONTINUOUS
 62
     7
100
AcDbLine
 10
1026.0053925142
 20
1258.0906491459
 30
0.0
 11
1025.5053989515
 21
1258.0906491459
 31
0.0
  0
LINE
  5
25B
330
1F
100
AcDbEntity
  8
0
  6
CONTINUOUS
 62
     7
100
AcDbLine
 10
1026.0053925142
 20
1260.0906494737
 30
0.0
 11
1025.5053989515
 21
1260.0906494737
 31
0.0
  0
LINE
  5
25C
330
1F
100
AcDbEntity
  8
0
  6
CONTINUOUS
 62
     7
100
AcDbLine
 10
599.0053914413
 20
1246.0906499729
 30
0.0
 11
601.0053954944
 21
1246.0906499729
 31
0.0
  0
LINE
  5
25D
330
1F
100
AcDbEntity
  8
0
  6
CONTINUOUS
 62
     7
100
AcDbLine
 10
601.0053954944
 20
1246.0906499729
 30
0.0
 11
601.0053954944
 21
1267.5906493061
 31
0.0
  0
LINE
  5
25E
330
1F
100
AcDbEntity
  8
0
  6
CONTINUOUS
 62
     7
100
AcDbLine
 10
599.0053914413
 20
1246.0906499729
 30
0.0
 11
599.0053914413
 21
1267.5906493061
 31
0.0
  0
LINE
  5
25F
330
1F
100
AcDbEntity
  8
0
  6
CONTINUOUS
 62
     7
100
AcDbLine
 10
601.0053954944
 20
1243.0906494812
 30
0.0
 11
599.0053914413
 21
1243.0906494812
 31
0.0
  0
LINE
  5
260
330
1F
100
AcDbEntity
  8
0
  6
CONTINUOUS
 62
     7
100
AcDbLine
 10
601.0053954944
 20
1246.0906499729
 30
0.0
 11
601.0053954944
 21
1243.0906494812
 31
0.0
  0
LINE
  5
261
330
1F
100
AcDbEntity
  8
0
  6
CONTINUOUS
 62
     7
100
AcDbLine
 10
599.0053914413
 20
1243.0906494812
 30
0.0
 11
599.0053914413
 21
1246.0906499729
 31
0.0
  0
LINE
  5
262
330
1F
100
AcDbEntity
  8
0
  6
CONTINUOUS
 62
     7
100
AcDbLine
 10
1047.5053988323
 20
1246.0906499729
 30
0.0
 11
1047.5053988323
 21
1267.5906493061
 31
0.0
  0
LINE
  5
263
330
1F
100
AcDbEntity
  8
0
  6
CONTINUOUS
 62
     7
100
AcDbLine
 10
1045.5053947792
 20
1246.0906499729
 30
0.0
 11
1047.5053988323
 21
1246.0906499729
 31
0.0
  0
LINE
  5
264
330
1F
100
AcDbEntity
  8
0
  6
CONTINUOUS
 62
     7
100
AcDbLine
 10
1045.5053947792
 20
1246.0906499729
 30
0.0
 11
1045.5053947792
 21
1267.5906493061
 31
0.0
  0
LINE
  5
265
330
1F
100
AcDbEntity
  8
0
  6
CONTINUOUS
 62
     7
100
AcDbLine
 10
1047.5053988323
 20
1243.0906494812
 30
0.0
 11
1045.5053947792
 21
1243.0906494812
 31
0.0
  0
LINE
  5
266
330
1F
100
AcDbEntity
  8
0
  6
CONTINUOUS
 62
     7
100
AcDbLine
 10
1047.5053988323
 20
1246.0906499729
 30
0.0
 11
1047.5053988323
 21
1243.0906494812
 31
0.0
  0
LINE
  5
267
330
1F
100
AcDbEntity
  8
0
  6
CONTINUOUS
 62
     7
100
AcDbLine
 10
1045.5053947792
 20
1243.0906494812
 30
0.0
 11
1045.5053947792
 21
1246.0906499729
 31
0.0
  0
ARC
  5
268
330
1F
100
AcDbEntity
  8
0
  6
CONTINUOUS
 62
     7
100
AcDbCircle
 10
598.0053951368
 20
1247.0906494961
 30
0.0
 40
1.0
100
AcDbArc
 50
0.0
 51
15.0
  0
ARC
  5
269
330
1F
100
AcDbEntity
  8
0
  6
CONTINUOUS
 62
     7
100
AcDbCircle
 10
1048.5053951368
 20
1247.0906494961
 30
0.0
 40
1.000000000000001
100
AcDbArc
 50
165.0
 51
180.0
  0
LINE
  5
26A
330
1F
100
AcDbEntity
  8
0
  6
CONTINUOUS
 62
     7
100
AcDbLine
 10
597.9608349428
 20
1258.8480872766
 30
0.0
 11
596.0289738998
 21
1258.3304488764
 31
0.0
  0
LINE
  5
26B
330
1F
100
AcDbEntity
  8
0
  6
CONTINUOUS
 62
     7
100
AcDbLine
 10
597.9608349428
 20
1258.8480872766
 30
0.0
 11
599.0053914413
 21
1254.949708815
 31
0.0
  0
LINE
  5
26C
330
1F
100
AcDbEntity
  8
0
  6
CONTINUOUS
 62
     7
100
AcDbLine
 10
596.0289738998
 20
1258.3304488764
 30
0.0
 11
598.9713273868
 21
1247.3494684056
 31
0.0
  0
LINE
  5
26D
330
1F
100
AcDbEntity
  8
0
  6
CONTINUOUS
 62
     7
100
AcDbLine
 10
1048.5499553308
 20
1258.8480872766
 30
0.0
 11
1050.4818163738
 21
1258.3304488764
 31
0.0
  0
LINE
  5
26E
330
1F
100
AcDbEntity
  8
0
  6
CONTINUOUS
 62
     7
100
AcDbLine
 10
1050.4818163738
 20
1258.3304488764
 30
0.0
 11
1047.5394628868
 21
1247.3494684056
 31
0.0
  0
LINE
  5
26F
330
1F
100
AcDbEntity
  8
0
  6
CONTINUOUS
 62
     7
100
AcDbLine
 10
1048.5499553308
 20
1258.8480872766
 30
0.0
 11
1047.5053988323
 21
1254.949708815
 31
0.0
  0
LINE
  5
270
330
1F
100
AcDbEntity
  8
0
  6
CONTINUOUS
 62
     7
100
AcDbLine
 10
625.162249051
 20
1267.5906493061
 30
0.0
 11
625.162249051
 21
1269.5906494011
 31
0.0
  0
LINE
  5
271
330
1F
100
AcDbEntity
  8
0
  6
CONTINUOUS
 62
     7
100
AcDbLine
 10
622.3338149414
 20
1267.5906493061
 30
0.0
 11
622.3338149414
 21
1269.5906494011
 31
0.0
  0
LINE
  5
272
330
1F
100
AcDbEntity
  8
0
  6
CONTINUOUS
 62
     7
100
AcDbLine
 10
625.162249051
 20
1267.5906493061
 30
0.0
 11
622.3338149414
 21
1267.5906493061
 31
0.0
  0
LINE
  5
273
330
1F
100
AcDbEntity
  8
0
  6
CONTINUOUS
 62
     7
100
AcDbLine
 10
639.0053979978
 20
1267.5906493061
 30
0.0
 11
639.0053979978
 21
1269.5906494011
 31
0.0
  0
LINE
  5
274
330
1F
100
AcDbEntity
  8
0
  6
CONTINUOUS
 62
     7
100
AcDbLine
 10
639.0053979978
 20
1267.5906493061
 30
0.0
 11
625.162249051
 21
1267.5906493061
 31
0.0
  0
LINE
  5
275
330
1F
100
AcDbEntity
  8
0
  6
CONTINUOUS
 62
     7
100
AcDbLine
 10
639.0053979978
 20
1269.5906494011
 30
0.0
 11
625.162249051
 21
1269.5906494011
 31
0.0
  0
LINE
  5
276
330
1F
100
AcDbEntity
  8
0
  6
CONTINUOUS
 62
     7
100
AcDbLine
 10
600.1769654378
 20
1267.5906493061
 30
0.0
 11
600.1769654378
 21
1269.5906494011
 31
0.0
  0
LINE
  5
277
330
1F
100
AcDbEntity
  8
0
  6
CONTINUOUS
 62
     7
100
AcDbLine
 10
622.3338149414
 20
1267.5906493061
 30
0.0
 11
600.1769654378
 21
1267.5906493061
 31
0.0
  0
LINE
  5
278
330
1F
100
AcDbEntity
  8
0
  6
CONTINUOUS
 62
     7
100
AcDbLine
 10
599.0053914413
 20
1267.5906493061
 30
0.0
 11
599.0053914413
 21
1269.5906494011
 31
0.0
  0
LINE
  5
279
330
1F
100
AcDbEntity
  8
0
  6
CONTINUOUS
 62
     7
100
AcDbLine
 10
600.1769654378
 20
1267.5906493061
 30
0.0
 11
599.0053914413
 21
1267.5906493061
 31
0.0
  0
LINE
  5
27A
330
1F
100
AcDbEntity
  8
0
  6
CONTINUOUS
 62
     7
100
AcDbLine
 10
1021.3485412225
 20
1267.5906493061
 30
0.0
 11
1021.3485412225
 21
1269.5906494011
 31
0.0
  0
LINE
  5
27B
330
1F
100
AcDbEntity
  8
0
  6
CONTINUOUS
 62
     7
100
AcDbLine
 10
1007.5053922758
 20
1267.5906493061
 30
0.0
 11
1007.5053922758
 21
1269.5906494011
 31
0.0
  0
LINE
  5
27C
330
1F
100
AcDbEntity
  8
0
  6
CONTINUOUS
 62
     7
100
AcDbLine
 10
1021.3485412225
 20
1269.5906494011
 30
0.0
 11
1007.5053922758
 21
1269.5906494011
 31
0.0
  0
LINE
  5
27D
330
1F
100
AcDbEntity
  8
0
  6
CONTINUOUS
 62
     7
100
AcDbLine
 10
1021.3485412225
 20
1267.5906493061
 30
0.0
 11
1007.5053922758
 21
1267.5906493061
 31
0.0
  0
LINE
  5
27E
330
1F
100
AcDbEntity
  8
0
  6
CONTINUOUS
 62
     7
100
AcDbLine
 10
1024.1769753322
 20
1267.5906493061
 30
0.0
 11
1024.1769753322
 21
1269.5906494011
 31
0.0
  0
LINE
  5
27F
330
1F
100
AcDbEntity
  8
0
  6
CONTINUOUS
 62
     7
100
AcDbLine
 10
1024.1769753322
 20
1267.5906493061
 30
0.0
 11
1021.3485412225
 21
1267.5906493061
 31
0.0
  0
LINE
  5
280
330
1F
100
AcDbEntity
  8
0
  6
CONTINUOUS
 62
     7
100
AcDbLine
 10
1046.3338248357
 20
1267.5906493061
 30
0.0
 11
1046.3338248357
 21
1269.5906494011
 31
0.0
  0
LINE
  5
281
330
1F
100
AcDbEntity
  8
0
  6
CONTINUOUS
 62
     7
100
AcDbLine
 10
1046.3338248357
 20
1267.5906493061
 30
0.0
 11
1024.1769753322
 21
1267.5906493061
 31
0.0
  0
LINE
  5
282
330
1F
100
AcDbEntity
  8
0
  6
CONTINUOUS
 62
     7
100
AcDbLine
 10
1047.5053988323
 20
1267.5906493061
 30
0.0
 11
1047.5053988323
 21
1269.5906494011
 31
0.0
  0
LINE
  5
283
330
1F
100
AcDbEntity
  8
0
  6
CONTINUOUS
 62
     7
100
AcDbLine
 10
1047.5053988323
 20
1267.5906493061
 30
0.0
 11
1046.3338248357
 21
1267.5906493061
 31
0.0
  0
LINE
  5
284
330
1F
100
AcDbEntity
  8
0
  6
CONTINUOUS
 62
     8
100
AcDbLine
 10
997.1553884372
 20
1274.6406494372
 30
0.0
 11
1010.8553074226
 21
1274.6406494372
 31
0.0
  0
LINE
  5
285
330
1F
100
AcDbEntity
  8
0
  6
CONTINUOUS
 62
     8
100
AcDbLine
 10
1011.0053919181
 20
1258.5906492279
 30
0.0
 11
1008.5053943023
 21
1258.5906492279
 31
0.0
  0
LINE
  5
286
330
1F
100
AcDbEntity
  8
0
  6
CONTINUOUS
 62
     8
100
AcDbLine
 10
639.0053979978
 20
1268.090649388
 30
0.0
 11
1007.5053922758
 21
1268.090649388
 31
0.0
  0
LINE
  5
287
330
1F
100
AcDbEntity
  8
0
  6
CONTINUOUS
 62
     8
100
AcDbLine
 10
598.9713273868
 20
1247.3494684056
 30
0.0
 11
599.0053914413
 21
1247.3585990921
 31
0.0
  0
LINE
  5
288
330
1F
100
AcDbEntity
  8
0
  6
CONTINUOUS
 62
     8
100
AcDbLine
 10
1047.5394628868
 20
1247.3494684056
 30
0.0
 11
1047.5053988323
 21
1247.3585990921
 31
0.0
  0
LINE
  5
289
330
1F
100
AcDbEntity
  8
0
  6
CONTINUOUS
 62
     7
100
AcDbLine
 10
1010.1553998813
 20
337.5656770684
 30
0.0
 11
1010.1553998813
 21
338.2656777419
 31
0.0
  0
LINE
  5
28A
330
1F
100
AcDbEntity
  8
0
  6
CONTINUOUS
 62
     7
100
AcDbLine
 10
997.8554002866
 20
338.2656777419
 30
0.0
 11
997.8554002866
 21
337.5656770684
 31
0.0
  0
LINE
  5
28B
330
1F
100
AcDbEntity
  8
0
  6
CONTINUOUS
 62
     7
100
AcDbLine
 10
1028.0053965673
 20
335.4656778418
 30
0.0
 11
1028.0053965673
 21
337.4656772383
 31
0.0
  0
LINE
  5
28C
330
1F
100
AcDbEntity
  8
0
  6
CONTINUOUS
 62
     7
100
AcDbLine
 10
997.5054018125
 20
337.4656772383
 30
0.0
 11
997.5054018125
 21
335.4656778418
 31
0.0
  0
LINE
  5
28D
330
1F
100
AcDbEntity
  8
0
  6
CONTINUOUS
 62
     7
100
AcDbLine
 10
997.1553884372
 20
318.9656774655
 30
0.0
 11
997.1553884372
 21
318.9156775505
 31
0.0
  0
LINE
  5
28E
330
1F
100
AcDbEntity
  8
0
  6
CONTINUOUS
 62
     7
100
AcDbLine
 10
1010.8553968295
 20
318.9156775505
 30
0.0
 11
1010.8553968295
 21
318.9656774655
 31
0.0
  0
ARC
  5
28F
330
1F
100
AcDbEntity
  8
0
  6
CONTINUOUS
 62
     7
100
AcDbCircle
 10
997.4053951368
 20
318.9156774916
 30
0.0
 40
0.2500000000001137
100
AcDbArc
 50
180.0
 51
270.0
  0
ARC
  5
290
330
1F
100
AcDbEntity
  8
0
  6
CONTINUOUS
 62
     7
100
AcDbCircle
 10
1010.6053951368
 20
318.9156774916
 30
0.0
 40
0.2500000000000568
100
AcDbArc
 50
270.0
 51
0.0
  0
LINE
  5
291
330
1F
100
AcDbEntity
  8
0
  6
CONTINUOUS
 62
     7
100
AcDbLine
 10
1007.5053922758
 20
338.4656774022
 30
0.0
 11
1007.5053922758
 21
339.4656775661
 31
0.0
  0
LINE
  5
292
330
1F
100
AcDbEntity
  8
0
  6
CONTINUOUS
 62
     7
100
AcDbLine
 10
1000.505392991
 20
339.4656775661
 30
0.0
 11
1000.505392991
 21
338.4656774022
 31
0.0
  0
LINE
  5
293
330
1F
100
AcDbEntity
  8
0
  6
CONTINUOUS
 62
     7
100
AcDbLine
 10
1007.0053987131
 20
337.4656772383
 30
0.0
 11
1007.0053987131
 21
337.5656770684
 31
0.0
  0
LINE
  5
294
330
1F
100
AcDbEntity
  8
0
  6
CONTINUOUS
 62
     7
100
AcDbLine
 10
1007.0053987131
 20
338.2656777419
 30
0.0
 11
1007.0053987131
 21
338.4656774022
 31
0.0
  0
LINE
  5
295
330
1F
100
AcDbEntity
  8
0
  6
CONTINUOUS
 62
     7
100
AcDbLine
 10
1001.0054014549
 20
338.4656774022
 30
0.0
 11
1001.0054014549
 21
338.2656777419
 31
0.0
  0
LINE
  5
296
330
1F
100
AcDbEntity
  8
0
  6
CONTINUOUS
 62
     7
100
AcDbLine
 10
1001.0054014549
 20
337.5656770684
 30
0.0
 11
1001.0054014549
 21
337.4656772383
 31
0.0
  0
LINE
  5
297
330
1F
100
AcDbEntity
  8
0
  6
CONTINUOUS
 62
     7
100
AcDbLine
 10
1015.0054000244
 20
320.9656774441
 30
0.0
 11
1015.0054000244
 21
321.9656774916
 31
0.0
  0
LINE
  5
298
330
1F
100
AcDbEntity
  8
0
  6
CONTINUOUS
 62
     7
100
AcDbLine
 10
993.0054001436
 20
321.9656774916
 30
0.0
 11
993.0054001436
 21
320.9656774441
 31
0.0
  0
LINE
  5
299
330
1F
100
AcDbEntity
  8
0
  6
CONTINUOUS
 62
     7
100
AcDbLine
 10
993.0054001436
 20
320.9656774441
 30
0.0
 11
995.0053892955
 21
318.9656774655
 31
0.0
  0
LINE
  5
29A
330
1F
100
AcDbEntity
  8
0
  6
CONTINUOUS
 62
     7
100
AcDbLine
 10
1013.0053959712
 20
318.9656774655
 30
0.0
 11
1015.0054000244
 21
320.9656774441
 31
0.0
  0
ARC
  5
29B
330
1F
100
AcDbEntity
  8
0
  6
CONTINUOUS
 62
     7
100
AcDbCircle
 10
1010.5053951368
 20
334.9656774916
 30
0.0
 40
0.5000000000001137
100
AcDbArc
 50
0.0
 51
90.0000121787
  0
ARC
  5
29C
330
1F
100
AcDbEntity
  8
0
  6
CONTINUOUS
 62
     7
100
AcDbCircle
 10
997.5053951368
 20
334.9656774916
 30
0.0
 40
0.5000000000001137
100
AcDbArc
 50
89.9999878213
 51
180.0
  0
LINE
  5
29D
330
1F
100
AcDbEntity
  8
0
  6
CONTINUOUS
 62
     7
100
AcDbLine
 10
1011.0053919181
 20
333.465677514
 30
0.0
 11
1011.0053919181
 21
334.9656777598
 31
0.0
  0
LINE
  5
29E
330
1F
100
AcDbEntity
  8
0
  6
CONTINUOUS
 62
     7
100
AcDbLine
 10
997.0053933486
 20
334.9656777598
 30
0.0
 11
997.0053933486
 21
333.465677514
 31
0.0
  0
LINE
  5
29F
330
1F
100
AcDbEntity
  8
0
  6
CONTINUOUS
 62
     7
100
AcDbLine
 10
643.8918910846
 20
333.465677514
 30
0.0
 11
643.3918975219
 21
333.9656775959
 31
0.0
  0
LINE
  5
2A0
330
1F
100
AcDbEntity
  8
0
  6
CONTINUOUS
 62
     7
100
AcDbLine
 10
638.6188916788
 20
333.9656775959
 30
0.0
 11
638.1188981161
 21
333.465677514
 31
0.0
  0
LINE
  5
2A1
330
1F
100
AcDbEntity
  8
0
  6
CONTINUOUS
 62
     7
100
AcDbLine
 10
998.5994301662
 20
338.2656777419
 30
0.0
 11
998.5994301662
 21
337.5656770684
 31
0.0
  0
LINE
  5
2A2
330
1F
100
AcDbEntity
  8
0
  6
CONTINUOUS
 62
     7
100
AcDbLine
 10
998.5994301662
 20
337.5656770684
 30
0.0
 11
997.8554002866
 21
337.5656770684
 31
0.0
  0
LINE
  5
2A3
330
1F
100
AcDbEntity
  8
0
  6
CONTINUOUS
 62
     7
100
AcDbLine
 10
1010.1553998813
 20
337.5656770684
 30
0.0
 11
1009.3822978362
 21
337.5656770684
 31
0.0
  0
LINE
  5
2A4
330
1F
100
AcDbEntity
  8
0
  6
CONTINUOUS
 62
     7
100
AcDbLine
 10
1009.3822978362
 20
338.2656777419
 30
0.0
 11
1009.3822978362
 21
337.5656770684
 31
0.0
  0
LINE
  5
2A5
330
1F
100
AcDbEntity
  8
0
  6
CONTINUOUS
 62
     7
100
AcDbLine
 10
998.5994301662
 20
338.2656777419
 30
0.0
 11
997.8554002866
 21
338.2656777419
 31
0.0
  0
LINE
  5
2A6
330
1F
100
AcDbEntity
  8
0
  6
CONTINUOUS
 62
     7
100
AcDbLine
 10
1010.1553998813
 20
338.2656777419
 30
0.0
 11
1009.3822978362
 21
338.2656777419
 31
0.0
  0
LINE
  5
2A7
330
1F
100
AcDbEntity
  8
0
  6
CONTINUOUS
 62
     7
100
AcDbLine
 10
1006.6282801256
 20
338.2656777419
 30
0.0
 11
1006.6282801256
 21
337.5656770684
 31
0.0
  0
LINE
  5
2A8
330
1F
100
AcDbEntity
  8
0
  6
CONTINUOUS
 62
     7
100
AcDbLine
 10
1009.3822978362
 20
337.5656770684
 30
0.0
 11
1006.6282801256
 21
337.5656770684
 31
0.0
  0
LINE
  5
2A9
330
1F
100
AcDbEntity
  8
0
  6
CONTINUOUS
 62
     7
100
AcDbLine
 10
1009.3822978362
 20
338.2656777419
 30
0.0
 11
1006.6282801256
 21
338.2656777419
 31
0.0
  0
LINE
  5
2AA
330
1F
100
AcDbEntity
  8
0
  6
CONTINUOUS
 62
     7
100
AcDbLine
 10
1001.3683341369
 20
338.2656777419
 30
0.0
 11
1001.3683341369
 21
337.5656770684
 31
0.0
  0
LINE
  5
2AB
330
1F
100
AcDbEntity
  8
0
  6
CONTINUOUS
 62
     7
100
AcDbLine
 10
1001.3683341369
 20
337.5656770684
 30
0.0
 11
998.5994301662
 21
337.5656770684
 31
0.0
  0
LINE
  5
2AC
330
1F
100
AcDbEntity
  8
0
  6
CONTINUOUS
 62
     7
100
AcDbLine
 10
1001.3683341369
 20
338.2656777419
 30
0.0
 11
998.5994301662
 21
338.2656777419
 31
0.0
  0
LINE
  5
2AD
330
1F
100
AcDbEntity
  8
0
  6
CONTINUOUS
 62
     7
100
AcDbLine
 10
1028.0053965673
 20
335.4656778418
 30
0.0
 11
1027.0762197599
 21
335.4656778418
 31
0.0
  0
LINE
  5
2AE
330
1F
100
AcDbEntity
  8
0
  6
CONTINUOUS
 62
     7
100
AcDbLine
 10
1027.0762197599
 20
337.4656772383
 30
0.0
 11
1027.0762197599
 21
335.4656778418
 31
0.0
  0
LINE
  5
2AF
330
1F
100
AcDbEntity
  8
0
  6
CONTINUOUS
 62
     7
100
AcDbLine
 10
1028.0053965673
 20
337.4656772383
 30
0.0
 11
1027.0762197599
 21
337.4656772383
 31
0.0
  0
LINE
  5
2B0
330
1F
100
AcDbEntity
  8
0
  6
CONTINUOUS
 62
     7
100
AcDbLine
 10
1003.9734594449
 20
337.4656772383
 30
0.0
 11
1003.9734594449
 21
335.4656778418
 31
0.0
  0
LINE
  5
2B1
330
1F
100
AcDbEntity
  8
0
  6
CONTINUOUS
 62
     7
100
AcDbLine
 10
1027.0762197599
 20
335.4656778418
 30
0.0
 11
1026.0053925142
 21
335.4656778418
 31
0.0
  0
LINE
  5
2B2
330
1F
100
AcDbEntity
  8
0
  6
CONTINUOUS
 62
     7
100
AcDbLine
 10
1022.5053928718
 20
335.4656778418
 30
0.0
 11
1003.9734594449
 21
335.4656778418
 31
0.0
  0
LINE
  5
2B3
330
1F
100
AcDbEntity
  8
0
  6
CONTINUOUS
 62
     7
100
AcDbLine
 10
1027.0762197599
 20
337.4656772383
 30
0.0
 11
1003.9734594449
 21
337.4656772383
 31
0.0
  0
LINE
  5
2B4
330
1F
100
AcDbEntity
  8
0
  6
CONTINUOUS
 62
     7
100
AcDbLine
 10
1003.9734594449
 20
335.4656778418
 30
0.0
 11
997.5054018125
 21
335.4656778418
 31
0.0
  0
LINE
  5
2B5
330
1F
100
AcDbEntity
  8
0
  6
CONTINUOUS
 62
     7
100
AcDbLine
 10
1003.9734594449
 20
337.4656772383
 30
0.0
 11
997.5054018125
 21
337.4656772383
 31
0.0
  0
LINE
  5
2B6
330
1F
100
AcDbEntity
  8
0
  6
CONTINUOUS
 62
     7
100
AcDbLine
 10
997.4054001197
 20
318.6656775095
 30
0.0
 11
1010.6053106412
 21
318.6656775095
 31
0.0
  0
LINE
  5
2B7
330
1F
100
AcDbEntity
  8
0
  6
CONTINUOUS
 62
     7
100
AcDbLine
 10
1007.5053922758
 20
338.4656774022
 30
0.0
 11
1000.5054376945
 21
338.4656774022
 31
0.0
  0
LINE
  5
2B8
330
1F
100
AcDbEntity
  8
0
  6
CONTINUOUS
 62
     7
100
AcDbLine
 10
1007.5053475723
 20
339.4656775661
 30
0.0
 11
1000.505392991
 21
339.4656775661
 31
0.0
  0
LINE
  5
2B9
330
1F
100
AcDbEntity
  8
0
  6
CONTINUOUS
 62
     7
100
AcDbLine
 10
1015.0054000244
 20
320.9656774441
 30
0.0
 11
993.0054001436
 21
320.9656774441
 31
0.0
  0
LINE
  5
2BA
330
1F
100
AcDbEntity
  8
0
  6
CONTINUOUS
 62
     7
100
AcDbLine
 10
1010.3380136117
 20
318.9656774655
 30
0.0
 11
995.0053892955
 21
318.9656774655
 31
0.0
  0
LINE
  5
2BB
330
1F
100
AcDbEntity
  8
0
  6
CONTINUOUS
 62
     7
100
AcDbLine
 10
1013.0053959712
 20
318.9656774655
 30
0.0
 11
1010.3380136117
 21
318.9656774655
 31
0.0
  0
LINE
  5
2BC
330
1F
100
AcDbEntity
  8
0
  6
CONTINUOUS
 62
     7
100
AcDbLine
 10
643.3918975219
 20
333.9656775959
 30
0.0
 11
638.6188916788
 21
333.9656775959
 31
0.0
  0
LINE
  5
2BD
330
1F
100
AcDbEntity
  8
0
  6
CONTINUOUS
 62
     7
100
AcDbLine
 10
623.7125001773
 20
333.465677514
 30
0.0
 11
623.7125001773
 21
325.9656776816
 31
0.0
  0
LINE
  5
2BE
330
1F
100
AcDbEntity
  8
0
  6
CONTINUOUS
 62
     7
100
AcDbLine
 10
623.7125001773
 20
333.465677514
 30
0.0
 11
628.0053906068
 21
333.465677514
 31
0.0
  0
LINE
  5
2BF
330
1F
100
AcDbEntity
  8
0
  6
CONTINUOUS
 62
     7
100
AcDbLine
 10
1018.5053996667
 20
333.465677514
 30
0.0
 11
1022.7982900962
 21
333.465677514
 31
0.0
  0
LINE
  5
2C0
330
1F
100
AcDbEntity
  8
0
  6
CONTINUOUS
 62
     7
100
AcDbLine
 10
1022.7982900962
 20
333.465677514
 30
0.0
 11
1022.7982900962
 21
325.9656776816
 31
0.0
  0
LINE
  5
2C1
330
1F
100
AcDbEntity
  8
0
  6
CONTINUOUS
 62
     7
100
AcDbLine
 10
1025.5053989515
 20
325.9656776816
 30
0.0
 11
1025.5053989515
 21
333.465677514
 31
0.0
  0
LINE
  5
2C2
330
1F
100
AcDbEntity
  8
0
  6
CONTINUOUS
 62
     7
100
AcDbLine
 10
1023.5053948984
 20
325.9656776816
 30
0.0
 11
1023.5053948984
 21
333.465677514
 31
0.0
  0
LINE
  5
2C3
330
1F
100
AcDbEntity
  8
0
  6
CONTINUOUS
 62
     7
100
AcDbLine
 10
1023.5053948984
 20
333.465677514
 30
0.0
 11
1025.5053989515
 21
333.465677514
 31
0.0
  0
LINE
  5
2C4
330
1F
100
AcDbEntity
  8
0
  6
CONTINUOUS
 62
     7
100
AcDbLine
 10
621.0053913221
 20
325.9656776816
 30
0.0
 11
621.0053913221
 21
333.465677514
 31
0.0
  0
LINE
  5
2C5
330
1F
100
AcDbEntity
  8
0
  6
CONTINUOUS
 62
     7
100
AcDbLine
 10
623.0053953752
 20
333.465677514
 30
0.0
 11
621.0053913221
 21
333.465677514
 31
0.0
  0
LINE
  5
2C6
330
1F
100
AcDbEntity
  8
0
  6
CONTINUOUS
 62
     7
100
AcDbLine
 10
623.0053953752
 20
325.9656776816
 30
0.0
 11
623.0053953752
 21
333.465677514
 31
0.0
  0
LINE
  5
2C7
330
1F
100
AcDbEntity
  8
0
  6
CONTINUOUS
 62
     7
100
AcDbLine
 10
1021.3485412225
 20
323.9656775866
 30
0.0
 11
1021.3485412225
 21
321.9656774916
 31
0.0
  0
LINE
  5
2C8
330
1F
100
AcDbEntity
  8
0
  6
CONTINUOUS
 62
     7
100
AcDbLine
 10
1024.1769753322
 20
323.9656775866
 30
0.0
 11
1024.1769753322
 21
321.9656774916
 31
0.0
  0
LINE
  5
2C9
330
1F
100
AcDbEntity
  8
0
  6
CONTINUOUS
 62
     7
100
AcDbLine
 10
1024.1769753322
 20
323.9656775866
 30
0.0
 11
1021.3485412225
 21
323.9656775866
 31
0.0
  0
LINE
  5
2CA
330
1F
100
AcDbEntity
  8
0
  6
CONTINUOUS
 62
     7
100
AcDbLine
 10
1024.1769753322
 20
321.9656774916
 30
0.0
 11
1021.3485412225
 21
321.9656774916
 31
0.0
  0
LINE
  5
2CB
330
1F
100
AcDbEntity
  8
0
  6
CONTINUOUS
 62
     7
100
AcDbLine
 10
625.162249051
 20
323.9656775866
 30
0.0
 11
625.162249051
 21
321.9656774916
 31
0.0
  0
LINE
  5
2CC
330
1F
100
AcDbEntity
  8
0
  6
CONTINUOUS
 62
     7
100
AcDbLine
 10
1021.3485412225
 20
323.9656775866
 30
0.0
 11
625.162249051
 21
323.9656775866
 31
0.0
  0
LINE
  5
2CD
330
1F
100
AcDbEntity
  8
0
  6
CONTINUOUS
 62
     7
100
AcDbLine
 10
1021.3485412225
 20
321.9656774916
 30
0.0
 11
625.162249051
 21
321.9656774916
 31
0.0
  0
LINE
  5
2CE
330
1F
100
AcDbEntity
  8
0
  6
CONTINUOUS
 62
     7
100
AcDbLine
 10
622.3338149414
 20
323.9656775866
 30
0.0
 11
622.3338149414
 21
321.9656774916
 31
0.0
  0
LINE
  5
2CF
330
1F
100
AcDbEntity
  8
0
  6
CONTINUOUS
 62
     7
100
AcDbLine
 10
625.162249051
 20
323.9656775866
 30
0.0
 11
622.3338149414
 21
323.9656775866
 31
0.0
  0
LINE
  5
2D0
330
1F
100
AcDbEntity
  8
0
  6
CONTINUOUS
 62
     7
100
AcDbLine
 10
625.162249051
 20
321.9656774916
 30
0.0
 11
622.3338149414
 21
321.9656774916
 31
0.0
  0
LINE
  5
2D1
330
1F
100
AcDbEntity
  8
0
  6
CONTINUOUS
 62
     7
100
AcDbLine
 10
1046.3338248357
 20
323.9656775866
 30
0.0
 11
1046.3338248357
 21
321.9656774916
 31
0.0
  0
LINE
  5
2D2
330
1F
100
AcDbEntity
  8
0
  6
CONTINUOUS
 62
     7
100
AcDbLine
 10
1046.3338248357
 20
323.9656775866
 30
0.0
 11
1024.1769753322
 21
323.9656775866
 31
0.0
  0
LINE
  5
2D3
330
1F
100
AcDbEntity
  8
0
  6
CONTINUOUS
 62
     7
100
AcDbLine
 10
1046.3338248357
 20
321.9656774916
 30
0.0
 11
1024.1769753322
 21
321.9656774916
 31
0.0
  0
LINE
  5
2D4
330
1F
100
AcDbEntity
  8
0
  6
CONTINUOUS
 62
     7
100
AcDbLine
 10
600.1769654378
 20
323.9656775866
 30
0.0
 11
600.1769654378
 21
321.9656774916
 31
0.0
  0
LINE
  5
2D5
330
1F
100
AcDbEntity
  8
0
  6
CONTINUOUS
 62
     7
100
AcDbLine
 10
622.3338149414
 20
323.9656775866
 30
0.0
 11
600.1769654378
 21
323.9656775866
 31
0.0
  0
LINE
  5
2D6
330
1F
100
AcDbEntity
  8
0
  6
CONTINUOUS
 62
     7
100
AcDbLine
 10
622.3338149414
 20
321.9656774916
 30
0.0
 11
600.1769654378
 21
321.9656774916
 31
0.0
  0
LINE
  5
2D7
330
1F
100
AcDbEntity
  8
0
  6
CONTINUOUS
 62
     7
100
AcDbLine
 10
626.0054014549
 20
325.9656776816
 30
0.0
 11
626.0054014549
 21
331.4656771861
 31
0.0
  0
LINE
  5
2D8
330
1F
100
AcDbEntity
  8
0
  6
CONTINUOUS
 62
     7
100
AcDbLine
 10
628.0053906068
 20
333.465677514
 30
0.0
 11
626.0054014549
 21
331.4656771861
 31
0.0
  0
LINE
  5
2D9
330
1F
100
AcDbEntity
  8
0
  6
CONTINUOUS
 62
     7
100
AcDbLine
 10
628.0053906068
 20
333.465677514
 30
0.0
 11
1018.5053996667
 21
333.465677514
 31
0.0
  0
LINE
  5
2DA
330
1F
100
AcDbEntity
  8
0
  6
CONTINUOUS
 62
     7
100
AcDbLine
 10
1020.5053888187
 20
331.4656771861
 30
0.0
 11
1018.5053996667
 21
333.465677514
 31
0.0
  0
CIRCLE
  5
2DB
330
1F
100
AcDbEntity
  8
0
  6
CONTINUOUS
 62
     7
100
AcDbCircle
 10
630.0053951368
 20
328.9656774916
 30
0.0
 40
2.699999999999989
  0
LINE
  5
2DC
330
1F
100
AcDbEntity
  8
0
  6
CONTINUOUS
 62
     7
100
AcDbLine
 10
1020.5053888187
 20
331.4656771861
 30
0.0
 11
1020.5053888187
 21
325.9656776816
 31
0.0
  0
LINE
  5
2DD
330
1F
100
AcDbEntity
  8
0
  6
CONTINUOUS
 62
     7
100
AcDbLine
 10
599.0053914413
 20
323.9656775866
 30
0.0
 11
599.0053914413
 21
321.9656774916
 31
0.0
  0
LINE
  5
2DE
330
1F
100
AcDbEntity
  8
0
  6
CONTINUOUS
 62
     7
100
AcDbLine
 10
600.1769654378
 20
323.9656775866
 30
0.0
 11
599.0053914413
 21
323.9656775866
 31
0.0
  0
LINE
  5
2DF
330
1F
100
AcDbEntity
  8
0
  6
CONTINUOUS
 62
     7
100
AcDbLine
 10
600.1769654378
 20
321.9656774916
 30
0.0
 11
599.0053914413
 21
321.9656774916
 31
0.0
  0
LINE
  5
2E0
330
1F
100
AcDbEntity
  8
0
  6
CONTINUOUS
 62
     7
100
AcDbLine
 10
1047.5053988323
 20
323.9656775866
 30
0.0
 11
1047.5053988323
 21
321.9656774916
 31
0.0
  0
LINE
  5
2E1
330
1F
100
AcDbEntity
  8
0
  6
CONTINUOUS
 62
     7
100
AcDbLine
 10
1047.5053988323
 20
323.9656775866
 30
0.0
 11
1046.3338248357
 21
323.9656775866
 31
0.0
  0
LINE
  5
2E2
330
1F
100
AcDbEntity
  8
0
  6
CONTINUOUS
 62
     7
100
AcDbLine
 10
1047.5053988323
 20
321.9656774916
 30
0.0
 11
1046.3338248357
 21
321.9656774916
 31
0.0
  0
LINE
  5
2E3
330
1F
100
AcDbEntity
  8
0
  6
CONTINUOUS
 62
     7
100
AcDbLine
 10
1029.5053921565
 20
331.4656771861
 30
0.0
 11
1027.5053881034
 21
331.4656771861
 31
0.0
  0
LINE
  5
2E4
330
1F
100
AcDbEntity
  8
0
  6
CONTINUOUS
 62
     7
100
AcDbLine
 10
1027.5053881034
 20
331.4656771861
 30
0.0
 11
1027.5053881034
 21
325.9656776816
 31
0.0
  0
LINE
  5
2E5
330
1F
100
AcDbEntity
  8
0
  6
CONTINUOUS
 62
     7
100
AcDbLine
 10
1029.5053921565
 20
331.4656771861
 30
0.0
 11
1029.5053921565
 21
325.9656776816
 31
0.0
  0
LINE
  5
2E6
330
1F
100
AcDbEntity
  8
0
  6
CONTINUOUS
 62
     7
100
AcDbLine
 10
1027.5053881034
 20
333.465677514
 30
0.0
 11
1029.5053921565
 21
333.465677514
 31
0.0
  0
LINE
  5
2E7
330
1F
100
AcDbEntity
  8
0
  6
CONTINUOUS
 62
     7
100
AcDbLine
 10
1027.5053881034
 20
331.4656771861
 30
0.0
 11
1027.5053881034
 21
333.465677514
 31
0.0
  0
LINE
  5
2E8
330
1F
100
AcDbEntity
  8
0
  6
CONTINUOUS
 62
     7
100
AcDbLine
 10
1029.5053921565
 20
333.465677514
 30
0.0
 11
1029.5053921565
 21
331.4656771861
 31
0.0
  0
LINE
  5
2E9
330
1F
100
AcDbEntity
  8
0
  6
CONTINUOUS
 62
     7
100
AcDbLine
 10
619.0054021701
 20
331.4656771861
 30
0.0
 11
617.005398117
 21
331.4656771861
 31
0.0
  0
LINE
  5
2EA
330
1F
100
AcDbEntity
  8
0
  6
CONTINUOUS
 62
     7
100
AcDbLine
 10
617.005398117
 20
333.465677514
 30
0.0
 11
619.0054021701
 21
333.465677514
 31
0.0
  0
LINE
  5
2EB
330
1F
100
AcDbEntity
  8
0
  6
CONTINUOUS
 62
     7
100
AcDbLine
 10
617.005398117
 20
331.4656771861
 30
0.0
 11
617.005398117
 21
333.465677514
 31
0.0
  0
LINE
  5
2EC
330
1F
100
AcDbEntity
  8
0
  6
CONTINUOUS
 62
     7
100
AcDbLine
 10
619.0054021701
 20
333.465677514
 30
0.0
 11
619.0054021701
 21
331.4656771861
 31
0.0
  0
LINE
  5
2ED
330
1F
100
AcDbEntity
  8
0
  6
CONTINUOUS
 62
     7
100
AcDbLine
 10
617.005398117
 20
331.4656771861
 30
0.0
 11
617.005398117
 21
325.9656776816
 31
0.0
  0
LINE
  5
2EE
330
1F
100
AcDbEntity
  8
0
  6
CONTINUOUS
 62
     7
100
AcDbLine
 10
619.0054021701
 20
331.4656771861
 30
0.0
 11
619.0054021701
 21
325.9656776816
 31
0.0
  0
LINE
  5
2EF
330
1F
100
AcDbEntity
  8
0
  6
CONTINUOUS
 62
     7
100
AcDbLine
 10
1026.0053925142
 20
333.465677514
 30
0.0
 11
1026.0053925142
 21
335.4656778418
 31
0.0
  0
LINE
  5
2F0
330
1F
100
AcDbEntity
  8
0
  6
CONTINUOUS
 62
     7
100
AcDbLine
 10
1025.5053989515
 20
333.465677514
 30
0.0
 11
1026.0053925142
 21
333.465677514
 31
0.0
  0
LINE
  5
2F1
330
1F
100
AcDbEntity
  8
0
  6
CONTINUOUS
 62
     7
100
AcDbLine
 10
1025.5053989515
 20
335.4656778418
 30
0.0
 11
1025.5053989515
 21
333.465677514
 31
0.0
  0
LINE
  5
2F2
330
1F
100
AcDbEntity
  8
0
  6
CONTINUOUS
 62
     7
100
AcDbLine
 10
1025.5053989515
 20
335.4656778418
 30
0.0
 11
1026.0053925142
 21
335.4656778418
 31
0.0
  0
ARC
  5
2F3
330
1F
100
AcDbEntity
  8
0
  6
CONTINUOUS
 62
     7
100
AcDbCircle
 10
1026.0053951368
 20
331.9656774916
 30
0.0
 40
1.500000000000114
100
AcDbArc
 50
0.0
 51
90.0
  0
ARC
  5
2F4
330
1F
100
AcDbEntity
  8
0
  6
CONTINUOUS
 62
     7
100
AcDbCircle
 10
1026.0053951368
 20
331.9656774916
 30
0.0
 40
3.500000000000114
100
AcDbArc
 50
25.3769335252
 51
90.0
  0
LINE
  5
2F5
330
1F
100
AcDbEntity
  8
0
  6
CONTINUOUS
 62
     7
100
AcDbLine
 10
1023.5053948984
 20
333.465677514
 30
0.0
 11
1022.7982900962
 21
333.465677514
 31
0.0
  0
LINE
  5
2F6
330
1F
100
AcDbEntity
  8
0
  6
CONTINUOUS
 62
     7
100
AcDbLine
 10
1022.5053928718
 20
333.465677514
 30
0.0
 11
1022.5053928718
 21
335.4656778418
 31
0.0
  0
LINE
  5
2F7
330
1F
100
AcDbEntity
  8
0
  6
CONTINUOUS
 62
     7
100
AcDbLine
 10
1022.5053928718
 20
335.4656778418
 30
0.0
 11
1025.5053989515
 21
335.4656778418
 31
0.0
  0
LINE
  5
2F8
330
1F
100
AcDbEntity
  8
0
  6
CONTINUOUS
 62
     7
100
AcDbLine
 10
1047.5053988323
 20
347.4656770148
 30
0.0
 11
1045.5053947792
 21
347.4656770148
 31
0.0
  0
LINE
  5
2F9
330
1F
100
AcDbEntity
  8
0
  6
CONTINUOUS
 62
     7
100
AcDbLine
 10
1045.5053947792
 20
347.4656770148
 30
0.0
 11
1045.5053947792
 21
350.4656775065
 31
0.0
  0
LINE
  5
2FA
330
1F
100
AcDbEntity
  8
0
  6
CONTINUOUS
 62
     7
100
AcDbLine
 10
1045.5053947792
 20
350.4656775065
 30
0.0
 11
1047.5053988323
 21
350.4656775065
 31
0.0
  0
LINE
  5
2FB
330
1F
100
AcDbEntity
  8
0
  6
CONTINUOUS
 62
     7
100
AcDbLine
 10
1047.5053988323
 20
350.4656775065
 30
0.0
 11
1047.5053988323
 21
347.4656770148
 31
0.0
  0
LINE
  5
2FC
330
1F
100
AcDbEntity
  8
0
  6
CONTINUOUS
 62
     7
100
AcDbLine
 10
1045.5053947792
 20
347.4656770148
 30
0.0
 11
1045.5053947792
 21
325.9656776816
 31
0.0
  0
LINE
  5
2FD
330
1F
100
AcDbEntity
  8
0
  6
CONTINUOUS
 62
     7
100
AcDbLine
 10
1047.5053988323
 20
347.4656770148
 30
0.0
 11
1047.5053988323
 21
325.9656776816
 31
0.0
  0
LINE
  5
2FE
330
1F
100
AcDbEntity
  8
0
  6
CONTINUOUS
 62
     7
100
AcDbLine
 10
599.0053914413
 20
350.4656775065
 30
0.0
 11
601.0053954944
 21
350.4656775065
 31
0.0
  0
LINE
  5
2FF
330
1F
100
AcDbEntity
  8
0
  6
CONTINUOUS
 62
     7
100
AcDbLine
 10
601.0053954944
 20
347.4656770148
 30
0.0
 11
599.0053914413
 21
347.4656770148
 31
0.0
  0
LINE
  5
300
330
1F
100
AcDbEntity
  8
0
  6
CONTINUOUS
 62
     7
100
AcDbLine
 10
599.0053914413
 20
347.4656770148
 30
0.0
 11
599.0053914413
 21
350.4656775065
 31
0.0
  0
LINE
  5
301
330
1F
100
AcDbEntity
  8
0
  6
CONTINUOUS
 62
     7
100
AcDbLine
 10
601.0053954944
 20
350.4656775065
 30
0.0
 11
601.0053954944
 21
347.4656770148
 31
0.0
  0
LINE
  5
302
330
1F
100
AcDbEntity
  8
0
  6
CONTINUOUS
 62
     7
100
AcDbLine
 10
599.0053914413
 20
347.4656770148
 30
0.0
 11
599.0053914413
 21
325.9656776816
 31
0.0
  0
LINE
  5
303
330
1F
100
AcDbEntity
  8
0
  6
CONTINUOUS
 62
     7
100
AcDbLine
 10
601.0053954944
 20
347.4656770148
 30
0.0
 11
601.0053954944
 21
325.9656776816
 31
0.0
  0
ARC
  5
304
330
1F
100
AcDbEntity
  8
0
  6
CONTINUOUS
 62
     7
100
AcDbCircle
 10
1048.5053951368
 20
346.4656774916
 30
0.0
 40
1.000000000000016
100
AcDbArc
 50
180.0
 51
195.0
  0
ARC
  5
305
330
1F
100
AcDbEntity
  8
0
  6
CONTINUOUS
 62
     7
100
AcDbCircle
 10
598.0053951368
 20
346.4656774916
 30
0.0
 40
0.999999999999906
100
AcDbArc
 50
345.0
 51
0.0
  0
LINE
  5
306
330
1F
100
AcDbEntity
  8
0
  6
CONTINUOUS
 62
     7
100
AcDbLine
 10
1050.4818163738
 20
335.2258781113
 30
0.0
 11
1047.5394628868
 21
346.2068585821
 31
0.0
  0
LINE
  5
307
330
1F
100
AcDbEntity
  8
0
  6
CONTINUOUS
 62
     7
100
AcDbLine
 10
1048.5499553308
 20
334.7082397111
 30
0.0
 11
1050.4818163738
 21
335.2258781113
 31
0.0
  0
LINE
  5
308
330
1F
100
AcDbEntity
  8
0
  6
CONTINUOUS
 62
     7
100
AcDbLine
 10
1048.5499553308
 20
334.7082397111
 30
0.0
 11
1047.5053988323
 21
338.6066181727
 31
0.0
  0
LINE
  5
309
330
1F
100
AcDbEntity
  8
0
  6
CONTINUOUS
 62
     7
100
AcDbLine
 10
597.9608349428
 20
334.7082397111
 30
0.0
 11
596.0289738998
 21
335.2258781113
 31
0.0
  0
LINE
  5
30A
330
1F
100
AcDbEntity
  8
0
  6
CONTINUOUS
 62
     7
100
AcDbLine
 10
597.9608349428
 20
334.7082397111
 30
0.0
 11
599.0053914413
 21
338.6066181727
 31
0.0
  0
LINE
  5
30B
330
1F
100
AcDbEntity
  8
0
  6
CONTINUOUS
 62
     7
100
AcDbLine
 10
596.0289738998
 20
335.2258781113
 30
0.0
 11
598.9713273868
 21
346.2068585821
 31
0.0
  0
LINE
  5
30C
330
1F
100
AcDbEntity
  8
0
  6
CONTINUOUS
 62
     7
100
AcDbLine
 10
641.0054020509
 20
335.4656778418
 30
0.0
 11
997.5054018125
 21
335.4656778418
 31
0.0
  0
LINE
  5
30D
330
1F
100
AcDbEntity
  8
0
  6
CONTINUOUS
 62
     7
100
AcDbLine
 10
638.0053959712
 20
333.465677514
 30
0.0
 11
638.0053959712
 21
335.4656778418
 31
0.0
  0
LINE
  5
30E
330
1F
100
AcDbEntity
  8
0
  6
CONTINUOUS
 62
     7
100
AcDbLine
 10
638.0053959712
 20
335.4656778418
 30
0.0
 11
641.0054020509
 21
335.4656778418
 31
0.0
  0
LINE
  5
30F
330
1F
100
AcDbEntity
  8
0
  6
CONTINUOUS
 62
     7
100
AcDbLine
 10
1021.3485412225
 20
325.9656776816
 30
0.0
 11
1021.3485412225
 21
323.9656775866
 31
0.0
  0
LINE
  5
310
330
1F
100
AcDbEntity
  8
0
  6
CONTINUOUS
 62
     7
100
AcDbLine
 10
1024.1769753322
 20
325.9656776816
 30
0.0
 11
1024.1769753322
 21
323.9656775866
 31
0.0
  0
LINE
  5
311
330
1F
100
AcDbEntity
  8
0
  6
CONTINUOUS
 62
     7
100
AcDbLine
 10
1021.3485412225
 20
325.9656776816
 30
0.0
 11
1024.1769753322
 21
325.9656776816
 31
0.0
  0
LINE
  5
312
330
1F
100
AcDbEntity
  8
0
  6
CONTINUOUS
 62
     7
100
AcDbLine
 10
1007.5053922758
 20
325.9656776816
 30
0.0
 11
1007.5053922758
 21
323.9656775866
 31
0.0
  0
LINE
  5
313
330
1F
100
AcDbEntity
  8
0
  6
CONTINUOUS
 62
     7
100
AcDbLine
 10
1007.5053922758
 20
323.9656775866
 30
0.0
 11
1021.3485412225
 21
323.9656775866
 31
0.0
  0
LINE
  5
314
330
1F
100
AcDbEntity
  8
0
  6
CONTINUOUS
 62
     7
100
AcDbLine
 10
1007.5053922758
 20
325.9656776816
 30
0.0
 11
1021.3485412225
 21
325.9656776816
 31
0.0
  0
LINE
  5
315
330
1F
100
AcDbEntity
  8
0
  6
CONTINUOUS
 62
     7
100
AcDbLine
 10
1046.3338248357
 20
325.9656776816
 30
0.0
 11
1046.3338248357
 21
323.9656775866
 31
0.0
  0
LINE
  5
316
330
1F
100
AcDbEntity
  8
0
  6
CONTINUOUS
 62
     7
100
AcDbLine
 10
1024.1769753322
 20
325.9656776816
 30
0.0
 11
1046.3338248357
 21
325.9656776816
 31
0.0
  0
LINE
  5
317
330
1F
100
AcDbEntity
  8
0
  6
CONTINUOUS
 62
     7
100
AcDbLine
 10
1047.5053988323
 20
325.9656776816
 30
0.0
 11
1047.5053988323
 21
323.9656775866
 31
0.0
  0
LINE
  5
318
330
1F
100
AcDbEntity
  8
0
  6
CONTINUOUS
 62
     7
100
AcDbLine
 10
1046.3338248357
 20
325.9656776816
 30
0.0
 11
1047.5053988323
 21
325.9656776816
 31
0.0
  0
LINE
  5
319
330
1F
100
AcDbEntity
  8
0
  6
CONTINUOUS
 62
     7
100
AcDbLine
 10
625.162249051
 20
325.9656776816
 30
0.0
 11
625.162249051
 21
323.9656775866
 31
0.0
  0
LINE
  5
31A
330
1F
100
AcDbEntity
  8
0
  6
CONTINUOUS
 62
     7
100
AcDbLine
 10
625.162249051
 20
325.9656776816
 30
0.0
 11
639.0053979978
 21
325.9656776816
 31
0.0
  0
LINE
  5
31B
330
1F
100
AcDbEntity
  8
0
  6
CONTINUOUS
 62
     7
100
AcDbLine
 10
639.0053979978
 20
325.9656776816
 30
0.0
 11
639.0053979978
 21
323.9656775866
 31
0.0
  0
LINE
  5
31C
330
1F
100
AcDbEntity
  8
0
  6
CONTINUOUS
 62
     7
100
AcDbLine
 10
625.162249051
 20
323.9656775866
 30
0.0
 11
639.0053979978
 21
323.9656775866
 31
0.0
  0
LINE
  5
31D
330
1F
100
AcDbEntity
  8
0
  6
CONTINUOUS
 62
     7
100
AcDbLine
 10
622.3338149414
 20
325.9656776816
 30
0.0
 11
622.3338149414
 21
323.9656775866
 31
0.0
  0
LINE
  5
31E
330
1F
100
AcDbEntity
  8
0
  6
CONTINUOUS
 62
     7
100
AcDbLine
 10
622.3338149414
 20
325.9656776816
 30
0.0
 11
625.162249051
 21
325.9656776816
 31
0.0
  0
LINE
  5
31F
330
1F
100
AcDbEntity
  8
0
  6
CONTINUOUS
 62
     7
100
AcDbLine
 10
600.1769654378
 20
325.9656776816
 30
0.0
 11
600.1769654378
 21
323.9656775866
 31
0.0
  0
LINE
  5
320
330
1F
100
AcDbEntity
  8
0
  6
CONTINUOUS
 62
     7
100
AcDbLine
 10
600.1769654378
 20
325.9656776816
 30
0.0
 11
622.3338149414
 21
325.9656776816
 31
0.0
  0
LINE
  5
321
330
1F
100
AcDbEntity
  8
0
  6
CONTINUOUS
 62
     7
100
AcDbLine
 10
599.0053914413
 20
325.9656776816
 30
0.0
 11
599.0053914413
 21
323.9656775866
 31
0.0
  0
LINE
  5
322
330
1F
100
AcDbEntity
  8
0
  6
CONTINUOUS
 62
     7
100
AcDbLine
 10
599.0053914413
 20
325.9656776816
 30
0.0
 11
600.1769654378
 21
325.9656776816
 31
0.0
  0
LINE
  5
323
330
1F
100
AcDbEntity
  8
0
  6
CONTINUOUS
 62
     8
100
AcDbLine
 10
1010.8553074226
 20
318.9156775505
 30
0.0
 11
997.1553884372
 21
318.9156775505
 31
0.0
  0
LINE
  5
324
330
1F
100
AcDbEntity
  8
0
  6
CONTINUOUS
 62
     8
100
AcDbLine
 10
1008.9307628498
 20
334.9656777598
 30
0.0
 11
1011.0053919181
 21
334.9656777598
 31
0.0
  0
LINE
  5
325
330
1F
100
AcDbEntity
  8
0
  6
CONTINUOUS
 62
     8
100
AcDbLine
 10
997.0053933486
 20
334.9656777598
 30
0.0
 11
1008.9307628498
 21
334.9656777598
 31
0.0
  0
LINE
  5
326
330
1F
100
AcDbEntity
  8
0
  6
CONTINUOUS
 62
     8
100
AcDbLine
 10
1007.5053922758
 20
325.4656775996
 30
0.0
 11
639.0053979978
 21
325.4656775996
 31
0.0
  0
LINE
  5
327
330
1F
100
AcDbEntity
  8
0
  6
CONTINUOUS
 62
     8
100
AcDbLine
 10
1047.5394628868
 20
346.2068585821
 30
0.0
 11
1047.5053988323
 21
346.1977278956
 31
0.0
  0
LINE
  5
328
330
1F
100
AcDbEntity
  8
0
  6
CONTINUOUS
 62
     8
100
AcDbLine
 10
598.9713273868
 20
346.2068585821
 30
0.0
 11
599.0053914413
 21
346.1977278956
 31
0.0
  0
LINE
  5
329
330
1F
100
AcDbEntity
  8
0
  6
CONTINUOUS
 62
     8
100
AcDbLine
 10
641.0054020509
 20
335.4656778418
 30
0.0
 11
641.0054020509
 21
333.9656775959
 31
0.0
  0
LINE
  5
32A
330
1F
100
AcDbEntity
  8
0
  6
CONTINUOUS
 62
     7
100
AcDbLine
 10
1279.2235919749
 20
771.1219486909
 30
0.0
 11
1279.9235926484
 21
771.1219486909
 31
0.0
  0
LINE
  5
32B
330
1F
100
AcDbEntity
  8
0
  6
CONTINUOUS
 62
     7
100
AcDbLine
 10
1298.5235922513
 20
770.421948483
 30
0.0
 11
1298.5735921664
 21
770.421948483
 31
0.0
  0
LINE
  5
32C
330
1F
100
AcDbEntity
  8
0
  6
CONTINUOUS
 62
     7
100
AcDbLine
 10
1298.5735921664
 20
784.1219484935
 30
0.0
 11
1298.5235922513
 21
784.1219484935
 31
0.0
  0
ARC
  5
32D
330
1F
100
AcDbEntity
  8
0
  6
CONTINUOUS
 62
     7
100
AcDbCircle
 10
1298.5735922252
 20
770.6719484882
 30
0.0
 40
0.25
100
AcDbArc
 50
270.0
 51
0.0
  0
ARC
  5
32E
330
1F
100
AcDbEntity
  8
0
  6
CONTINUOUS
 62
     7
100
AcDbCircle
 10
1298.5735922252
 20
783.8719484882
 30
0.0
 40
0.25
100
AcDbArc
 50
0.0
 51
90.0
  0
LINE
  5
32F
330
1F
100
AcDbEntity
  8
0
  6
CONTINUOUS
 62
     7
100
AcDbLine
 10
1279.0235923147
 20
780.7719485963
 30
0.0
 11
1278.0235921507
 21
780.7719485963
 31
0.0
  0
LINE
  5
330
330
1F
100
AcDbEntity
  8
0
  6
CONTINUOUS
 62
     7
100
AcDbLine
 10
1278.0235921507
 20
773.7719483802
 30
0.0
 11
1279.0235923147
 21
773.7719483802
 31
0.0
  0
LINE
  5
331
330
1F
100
AcDbEntity
  8
0
  6
CONTINUOUS
 62
     7
100
AcDbLine
 10
1280.0235924786
 20
780.2719485143
 30
0.0
 11
1279.0235923147
 21
780.2719485143
 31
0.0
  0
LINE
  5
332
330
1F
100
AcDbEntity
  8
0
  6
CONTINUOUS
 62
     7
100
AcDbLine
 10
1279.0235923147
 20
774.2719484622
 30
0.0
 11
1279.2235919749
 21
774.2719484622
 31
0.0
  0
LINE
  5
333
330
1F
100
AcDbEntity
  8
0
  6
CONTINUOUS
 62
     7
100
AcDbLine
 10
1279.9235926484
 20
774.2719484622
 30
0.0
 11
1280.0235924786
 21
774.2719484622
 31
0.0
  0
LINE
  5
334
330
1F
100
AcDbEntity
  8
0
  6
CONTINUOUS
 62
     7
100
AcDbLine
 10
1296.5235922727
 20
788.2719484286
 30
0.0
 11
1295.5235922252
 21
788.2719484286
 31
0.0
  0
LINE
  5
335
330
1F
100
AcDbEntity
  8
0
  6
CONTINUOUS
 62
     7
100
AcDbLine
 10
1295.5235922252
 20
766.2719485478
 30
0.0
 11
1296.5235922727
 21
766.2719485478
 31
0.0
  0
LINE
  5
336
330
1F
100
AcDbEntity
  8
0
  6
CONTINUOUS
 62
     7
100
AcDbLine
 10
1296.5235922727
 20
766.2719485478
 30
0.0
 11
1298.5235922513
 21
768.2719488757
 31
0.0
  0
LINE
  5
337
330
1F
100
AcDbEntity
  8
0
  6
CONTINUOUS
 62
     7
100
AcDbLine
 10
1298.5235922513
 20
786.2719481008
 30
0.0
 11
1296.5235922727
 21
788.2719484286
 31
0.0
  0
LINE
  5
338
330
1F
100
AcDbEntity
  8
0
  6
CONTINUOUS
 62
     7
100
AcDbLine
 10
1284.0235922029
 20
784.2719487043
 30
0.0
 11
1282.523591957
 21
784.2719487043
 31
0.0
  0
LINE
  5
339
330
1F
100
AcDbEntity
  8
0
  6
CONTINUOUS
 62
     7
100
AcDbLine
 10
1282.523591957
 20
770.2719482722
 30
0.0
 11
1284.0235922029
 21
770.2719482722
 31
0.0
  0
ARC
  5
33A
330
1F
100
AcDbEntity
  8
0
  6
CONTINUOUS
 62
     7
100
AcDbCircle
 10
1282.5235922252
 20
783.7719484882
 30
0.0
 40
0.5000000000001137
100
AcDbArc
 50
90.0
 51
180.0000121787
  0
ARC
  5
33B
330
1F
100
AcDbEntity
  8
0
  6
CONTINUOUS
 62
     7
100
AcDbCircle
 10
1282.5235922252
 20
770.7719484882
 30
0.0
 40
0.5000000000002386
100
AcDbArc
 50
179.9999878213
 51
270.0
  0
LINE
  5
33C
330
1F
100
AcDbEntity
  8
0
  6
CONTINUOUS
 62
     7
100
AcDbLine
 10
1284.0235922029
 20
498.6584407406
 30
0.0
 11
1283.5235921209
 21
498.1584471779
 31
0.0
  0
LINE
  5
33D
330
1F
100
AcDbEntity
  8
0
  6
CONTINUOUS
 62
     7
100
AcDbLine
 10
1283.5235921209
 20
493.3854562359
 30
0.0
 11
1284.0235922029
 21
492.8854626732
 31
0.0
  0
LINE
  5
33E
330
1F
100
AcDbEntity
  8
0
  6
CONTINUOUS
 62
     7
100
AcDbLine
 10
1279.2235919749
 20
780.2041833883
 30
0.0
 11
1279.2235919749
 21
771.1219486909
 31
0.0
  0
LINE
  5
33F
330
1F
100
AcDbEntity
  8
0
  6
CONTINUOUS
 62
     7
100
AcDbLine
 10
1279.2235919749
 20
780.2041833883
 30
0.0
 11
1279.9235926484
 21
780.2041833883
 31
0.0
  0
LINE
  5
340
330
1F
100
AcDbEntity
  8
0
  6
CONTINUOUS
 62
     7
100
AcDbLine
 10
1279.9235926484
 20
780.2041833883
 30
0.0
 11
1279.9235926484
 21
771.1219486909
 31
0.0
  0
LINE
  5
341
330
1F
100
AcDbEntity
  8
0
  6
CONTINUOUS
 62
     7
100
AcDbLine
 10
1280.0235924786
 20
783.7718699256
 30
0.0
 11
1280.0235924786
 21
770.7720270509
 31
0.0
  0
LINE
  5
342
330
1F
100
AcDbEntity
  8
0
  6
CONTINUOUS
 62
     7
100
AcDbLine
 10
1280.0235924786
 20
783.7718699256
 30
0.0
 11
1282.0235918751
 21
783.7718699256
 31
0.0
  0
LINE
  5
343
330
1F
100
AcDbEntity
  8
0
  6
CONTINUOUS
 62
     7
100
AcDbLine
 10
1280.0235924786
 20
770.7720270509
 30
0.0
 11
1282.0235918751
 21
770.7720270509
 31
0.0
  0
LINE
  5
344
330
1F
100
AcDbEntity
  8
0
  6
CONTINUOUS
 62
     7
100
AcDbLine
 10
1282.0235918751
 20
783.7718699256
 30
0.0
 11
1282.0235918751
 21
770.7720270509
 31
0.0
  0
LINE
  5
345
330
1F
100
AcDbEntity
  8
0
  6
CONTINUOUS
 62
     7
100
AcDbLine
 10
1280.0235924786
 20
783.8853557723
 30
0.0
 11
1282.0235918751
 21
783.8853557723
 31
0.0
  0
LINE
  5
346
330
1F
100
AcDbEntity
  8
0
  6
CONTINUOUS
 62
     7
100
AcDbLine
 10
1280.0235924786
 20
783.8853557723
 30
0.0
 11
1280.0235924786
 21
783.7718699256
 31
0.0
  0
LINE
  5
347
330
1F
100
AcDbEntity
  8
0
  6
CONTINUOUS
 62
     7
100
AcDbLine
 10
1282.0235918751
 20
783.862902982
 30
0.0
 11
1282.0235918751
 21
783.7718699256
 31
0.0
  0
LINE
  5
348
330
1F
100
AcDbEntity
  8
0
  6
CONTINUOUS
 62
     7
100
AcDbLine
 10
1298.8235922074
 20
770.671948524
 30
0.0
 11
1298.8235922074
 21
783.8719484525
 31
0.0
  0
LINE
  5
349
330
1F
100
AcDbEntity
  8
0
  6
CONTINUOUS
 62
     7
100
AcDbLine
 10
1279.0235923147
 20
777.2547559134
 30
0.0
 11
1279.0235923147
 21
773.7719483802
 31
0.0
  0
LINE
  5
34A
330
1F
100
AcDbEntity
  8
0
  6
CONTINUOUS
 62
     7
100
AcDbLine
 10
1279.0235923147
 20
780.7719485963
 30
0.0
 11
1279.0235923147
 21
777.2547559134
 31
0.0
  0
LINE
  5
34B
330
1F
100
AcDbEntity
  8
0
  6
CONTINUOUS
 62
     7
100
AcDbLine
 10
1278.0235921507
 20
780.7719485963
 30
0.0
 11
1278.0235921507
 21
773.7719483802
 31
0.0
  0
LINE
  5
34C
330
1F
100
AcDbEntity
  8
0
  6
CONTINUOUS
 62
     7
100
AcDbLine
 10
1296.5235922727
 20
769.455659868
 30
0.0
 11
1296.5235922727
 21
766.2719485478
 31
0.0
  0
LINE
  5
34D
330
1F
100
AcDbEntity
  8
0
  6
CONTINUOUS
 62
     7
100
AcDbLine
 10
1296.5235922727
 20
788.2719484286
 30
0.0
 11
1296.5235922727
 21
769.455659868
 31
0.0
  0
LINE
  5
34E
330
1F
100
AcDbEntity
  8
0
  6
CONTINUOUS
 62
     7
100
AcDbLine
 10
1298.5235922513
 20
786.2719481008
 30
0.0
 11
1298.5235922513
 21
768.2719488757
 31
0.0
  0
LINE
  5
34F
330
1F
100
AcDbEntity
  8
0
  6
CONTINUOUS
 62
     7
100
AcDbLine
 10
1282.0235918751
 20
772.6532325277
 30
0.0
 11
1282.0235918751
 21
783.7719481567
 31
0.0
  0
LINE
  5
350
330
1F
100
AcDbEntity
  8
0
  6
CONTINUOUS
 62
     7
100
AcDbLine
 10
1282.0235918751
 20
770.7719488198
 30
0.0
 11
1282.0235918751
 21
772.6532325277
 31
0.0
  0
LINE
  5
351
330
1F
100
AcDbEntity
  8
0
  6
CONTINUOUS
 62
     7
100
AcDbLine
 10
1283.5235921209
 20
498.1584471779
 30
0.0
 11
1283.5235921209
 21
493.3854562359
 31
0.0
  0
LINE
  5
352
330
1F
100
AcDbEntity
  8
0
  6
CONTINUOUS
 62
     7
100
AcDbLine
 10
1291.5235920353
 20
478.4790498333
 30
0.0
 11
1284.0235922029
 21
478.4790498333
 31
0.0
  0
LINE
  5
353
330
1F
100
AcDbEntity
  8
0
  6
CONTINUOUS
 62
     7
100
AcDbLine
 10
1291.5235920353
 20
1076.0648471432
 30
0.0
 11
1284.0235922029
 21
1076.0648471432
 31
0.0
  0
LINE
  5
354
330
1F
100
AcDbEntity
  8
0
  6
CONTINUOUS
 62
     7
100
AcDbLine
 10
1284.0235922029
 20
478.4790498333
 30
0.0
 11
1284.0235922029
 21
483.0219370441
 31
0.0
  0
LINE
  5
355
330
1F
100
AcDbEntity
  8
0
  6
CONTINUOUS
 62
     7
100
AcDbLine
 10
1284.0235922029
 20
1071.5219599323
 30
0.0
 11
1284.0235922029
 21
1076.0648471432
 31
0.0
  0
LINE
  5
356
330
1F
100
AcDbEntity
  8
0
  6
CONTINUOUS
 62
     7
100
AcDbLine
 10
1284.0235922029
 20
1078.7719410973
 30
0.0
 11
1291.5235920353
 21
1078.7719410973
 31
0.0
  0
LINE
  5
357
330
1F
100
AcDbEntity
  8
0
  6
CONTINUOUS
 62
     7
100
AcDbLine
 10
1291.5235920353
 20
1076.7719370441
 30
0.0
 11
1284.0235922029
 21
1076.7719370441
 31
0.0
  0
LINE
  5
358
330
1F
100
AcDbEntity
  8
0
  6
CONTINUOUS
 62
     7
100
AcDbLine
 10
1284.0235922029
 20
1076.7719370441
 30
0.0
 11
1284.0235922029
 21
1078.7719410973
 31
0.0
  0
LINE
  5
359
330
1F
100
AcDbEntity
  8
0
  6
CONTINUOUS
 62
     7
100
AcDbLine
 10
1291.5235920353
 20
475.7719558792
 30
0.0
 11
1284.0235922029
 21
475.7719558792
 31
0.0
  0
LINE
  5
35A
330
1F
100
AcDbEntity
  8
0
  6
CONTINUOUS
 62
     7
100
AcDbLine
 10
1284.0235922029
 20
477.7719599323
 30
0.0
 11
1284.0235922029
 21
475.7719558792
 31
0.0
  0
LINE
  5
35B
330
1F
100
AcDbEntity
  8
0
  6
CONTINUOUS
 62
     7
100
AcDbLine
 10
1291.5235920353
 20
477.7719599323
 30
0.0
 11
1284.0235922029
 21
477.7719599323
 31
0.0
  0
LINE
  5
35C
330
1F
100
AcDbEntity
  8
0
  6
CONTINUOUS
 62
     7
100
AcDbLine
 10
1282.2633916055
 20
1012.0219511108
 30
0.0
 11
1282.2633916055
 21
1027.0219517069
 31
0.0
  0
LINE
  5
35D
330
1F
100
AcDbEntity
  8
0
  6
CONTINUOUS
 62
     7
100
AcDbLine
 10
1271.2824111348
 20
1012.0219511108
 30
0.0
 11
1282.2633916055
 21
1012.0219511108
 31
0.0
  0
LINE
  5
35E
330
1F
100
AcDbEntity
  8
0
  6
CONTINUOUS
 62
     7
100
AcDbLine
 10
1271.2824111348
 20
1012.0219511108
 30
0.0
 11
1271.2824111348
 21
1027.0219517069
 31
0.0
  0
LINE
  5
35F
330
1F
100
AcDbEntity
  8
0
  6
CONTINUOUS
 62
     7
100
AcDbLine
 10
1282.2633916055
 20
1027.0219517069
 30
0.0
 11
1271.2824111348
 21
1027.0219517069
 31
0.0
  0
LINE
  5
360
330
1F
100
AcDbEntity
  8
0
  6
CONTINUOUS
 62
     7
100
AcDbLine
 10
1282.7810300057
 20
1012.0219511108
 30
0.0
 11
1282.7810300057
 21
1027.0219517069
 31
0.0
  0
LINE
  5
361
330
1F
100
AcDbEntity
  8
0
  6
CONTINUOUS
 62
     7
100
AcDbLine
 10
1282.7810300057
 20
1012.0219511108
 30
0.0
 11
1282.2633916055
 21
1012.0219511108
 31
0.0
  0
LINE
  5
362
330
1F
100
AcDbEntity
  8
0
  6
CONTINUOUS
 62
     7
100
AcDbLine
 10
1282.7810300057
 20
1027.0219517069
 30
0.0
 11
1282.2633916055
 21
1027.0219517069
 31
0.0
  0
LINE
  5
363
330
1F
100
AcDbEntity
  8
0
  6
CONTINUOUS
 62
     7
100
AcDbLine
 10
1282.2633916055
 20
542.5219458656
 30
0.0
 11
1282.2633916055
 21
527.5219452696
 31
0.0
  0
LINE
  5
364
330
1F
100
AcDbEntity
  8
0
  6
CONTINUOUS
 62
     7
100
AcDbLine
 10
1282.2633916055
 20
527.5219452696
 30
0.0
 11
1271.2824111348
 21
527.5219452696
 31
0.0
  0
LINE
  5
365
330
1F
100
AcDbEntity
  8
0
  6
CONTINUOUS
 62
     7
100
AcDbLine
 10
1271.2824111348
 20
527.5219452696
 30
0.0
 11
1271.2824111348
 21
542.5219458656
 31
0.0
  0
LINE
  5
366
330
1F
100
AcDbEntity
  8
0
  6
CONTINUOUS
 62
     7
100
AcDbLine
 10
1271.2824111348
 20
542.5219458656
 30
0.0
 11
1282.2633916055
 21
542.5219458656
 31
0.0
  0
LINE
  5
367
330
1F
100
AcDbEntity
  8
0
  6
CONTINUOUS
 62
     7
100
AcDbLine
 10
1282.7810300057
 20
542.5219458656
 30
0.0
 11
1282.7810300057
 21
527.5219452696
 31
0.0
  0
LINE
  5
368
330
1F
100
AcDbEntity
  8
0
  6
CONTINUOUS
 62
     7
100
AcDbLine
 10
1282.7810300057
 20
527.5219452696
 30
0.0
 11
1282.2633916055
 21
527.5219452696
 31
0.0
  0
LINE
  5
369
330
1F
100
AcDbEntity
  8
0
  6
CONTINUOUS
 62
     7
100
AcDbLine
 10
1282.7810300057
 20
542.5219458656
 30
0.0
 11
1282.2633916055
 21
542.5219458656
 31
0.0
  0
LINE
  5
36A
330
1F
100
AcDbEntity
  8
0
  6
CONTINUOUS
 62
     7
100
AcDbLine
 10
1271.2824111348
 20
1027.0219517069
 30
0.0
 11
1271.023592866
 21
1027.0219517069
 31
0.0
  0
LINE
  5
36B
330
1F
100
AcDbEntity
  8
0
  6
CONTINUOUS
 62
     7
100
AcDbLine
 10
1271.023592866
 20
1012.0219511108
 30
0.0
 11
1271.2824111348
 21
1012.0219511108
 31
0.0
  0
LINE
  5
36C
330
1F
100
AcDbEntity
  8
0
  6
CONTINUOUS
 62
     7
100
AcDbLine
 10
1271.023592866
 20
1027.0219517069
 30
0.0
 11
1271.023592866
 21
1012.0219511108
 31
0.0
  0
LINE
  5
36D
330
1F
100
AcDbEntity
  8
0
  6
CONTINUOUS
 62
     7
100
AcDbLine
 10
1271.2824111348
 20
542.5219458656
 30
0.0
 11
1271.023592866
 21
542.5219458656
 31
0.0
  0
LINE
  5
36E
330
1F
100
AcDbEntity
  8
0
  6
CONTINUOUS
 62
     7
100
AcDbLine
 10
1271.023592866
 20
527.5219452696
 30
0.0
 11
1271.2824111348
 21
527.5219452696
 31
0.0
  0
LINE
  5
36F
330
1F
100
AcDbEntity
  8
0
  6
CONTINUOUS
 62
     7
100
AcDbLine
 10
1271.023592866
 20
542.5219458656
 30
0.0
 11
1271.023592866
 21
527.5219452696
 31
0.0
  0
LINE
  5
370
330
1F
100
AcDbEntity
  8
0
  6
CONTINUOUS
 62
     7
100
AcDbLine
 10
1271.023592866
 20
1027.0219517069
 30
0.0
 11
1271.023592866
 21
1027.5219601708
 31
0.0
  0
LINE
  5
371
330
1F
100
AcDbEntity
  8
0
  6
CONTINUOUS
 62
     7
100
AcDbLine
 10
1271.023592866
 20
1011.521942647
 30
0.0
 11
1271.023592866
 21
1012.0219511108
 31
0.0
  0
LINE
  5
372
330
1F
100
AcDbEntity
  8
0
  6
CONTINUOUS
 62
     7
100
AcDbLine
 10
1283.5235921209
 20
1011.521942647
 30
0.0
 11
1271.023592866
 21
1011.521942647
 31
0.0
  0
LINE
  5
373
330
1F
100
AcDbEntity
  8
0
  6
CONTINUOUS
 62
     7
100
AcDbLine
 10
1283.5235921209
 20
1027.5219601708
 30
0.0
 11
1283.5235921209
 21
1011.521942647
 31
0.0
  0
LINE
  5
374
330
1F
100
AcDbEntity
  8
0
  6
CONTINUOUS
 62
     7
100
AcDbLine
 10
1271.023592866
 20
1027.5219601708
 30
0.0
 11
1283.5235921209
 21
1027.5219601708
 31
0.0
  0
LINE
  5
375
330
1F
100
AcDbEntity
  8
0
  6
CONTINUOUS
 62
     7
100
AcDbLine
 10
1292.0235921172
 20
1031.021944912
 30
0.0
 11
1292.0235921172
 21
1008.0219430046
 31
0.0
  0
LINE
  5
376
330
1F
100
AcDbEntity
  8
0
  6
CONTINUOUS
 62
     7
100
AcDbLine
 10
1292.0235921172
 20
1008.0219430046
 30
0.0
 11
1270.0235927021
 21
1008.0219430046
 31
0.0
  0
ARC
  5
377
330
1F
100
AcDbEntity
  8
0
  6
CONTINUOUS
 62
     7
100
AcDbCircle
 10
1270.0235922252
 20
1011.0219484882
 30
0.0
 40
3.0
100
AcDbArc
 50
180.0
 51
270.0
  0
LINE
  5
378
330
1F
100
AcDbEntity
  8
0
  6
CONTINUOUS
 62
     7
100
AcDbLine
 10
1267.0235922103
 20
1011.0219490843
 30
0.0
 11
1267.0235922103
 21
1028.0219537335
 31
0.0
  0
ARC
  5
379
330
1F
100
AcDbEntity
  8
0
  6
CONTINUOUS
 62
     7
100
AcDbCircle
 10
1270.0235922252
 20
1028.0219484882
 30
0.0
 40
3.0
100
AcDbArc
 50
90.0
 51
180.0
  0
LINE
  5
37A
330
1F
100
AcDbEntity
  8
0
  6
CONTINUOUS
 62
     7
100
AcDbLine
 10
1270.0235927021
 20
1031.021944912
 30
0.0
 11
1292.0235921172
 21
1031.021944912
 31
0.0
  0
LINE
  5
37B
330
1F
100
AcDbEntity
  8
0
  6
CONTINUOUS
 62
     7
100
AcDbLine
 10
1292.0235921172
 20
546.5219539719
 30
0.0
 11
1292.0235921172
 21
523.5219520645
 31
0.0
  0
LINE
  5
37C
330
1F
100
AcDbEntity
  8
0
  6
CONTINUOUS
 62
     7
100
AcDbLine
 10
1270.0235927021
 20
523.5219520645
 30
0.0
 11
1292.0235921172
 21
523.5219520645
 31
0.0
  0
ARC
  5
37D
330
1F
100
AcDbEntity
  8
0
  6
CONTINUOUS
 62
     7
100
AcDbCircle
 10
1270.0235922252
 20
526.5219484882
 30
0.0
 40
3.000000000000114
100
AcDbArc
 50
180.0
 51
270.0
  0
LINE
  5
37E
330
1F
100
AcDbEntity
  8
0
  6
CONTINUOUS
 62
     7
100
AcDbLine
 10
1267.0235922103
 20
543.5219478922
 30
0.0
 11
1267.0235922103
 21
526.521943243
 31
0.0
  0
ARC
  5
37F
330
1F
100
AcDbEntity
  8
0
  6
CONTINUOUS
 62
     7
100
AcDbCircle
 10
1270.0235922252
 20
543.5219484882
 30
0.0
 40
3.0
100
AcDbArc
 50
90.0
 51
180.0
  0
LINE
  5
380
330
1F
100
AcDbEntity
  8
0
  6
CONTINUOUS
 62
     7
100
AcDbLine
 10
1292.0235921172
 20
546.5219539719
 30
0.0
 11
1270.0235927021
 21
546.5219539719
 31
0.0
  0
LINE
  5
381
330
1F
100
AcDbEntity
  8
0
  6
CONTINUOUS
 62
     7
100
AcDbLine
 10
1283.5235921209
 20
543.0219543295
 30
0.0
 11
1271.023592866
 21
543.0219543295
 31
0.0
  0
LINE
  5
382
330
1F
100
AcDbEntity
  8
0
  6
CONTINUOUS
 62
     7
100
AcDbLine
 10
1271.023592866
 20
543.0219543295
 30
0.0
 11
1271.023592866
 21
542.5219458656
 31
0.0
  0
LINE
  5
383
330
1F
100
AcDbEntity
  8
0
  6
CONTINUOUS
 62
     7
100
AcDbLine
 10
1271.023592866
 20
527.5219452696
 30
0.0
 11
1271.023592866
 21
527.0219368057
 31
0.0
  0
LINE
  5
384
330
1F
100
AcDbEntity
  8
0
  6
CONTINUOUS
 62
     7
100
AcDbLine
 10
1271.023592866
 20
527.0219368057
 30
0.0
 11
1283.5235921209
 21
527.0219368057
 31
0.0
  0
LINE
  5
385
330
1F
100
AcDbEntity
  8
0
  6
CONTINUOUS
 62
     7
100
AcDbLine
 10
1283.5235921209
 20
527.0219368057
 30
0.0
 11
1283.5235921209
 21
543.0219543295
 31
0.0
  0
LINE
  5
386
330
1F
100
AcDbEntity
  8
0
  6
CONTINUOUS
 62
     7
100
AcDbLine
 10
1295.5235922252
 20
1008.0219430046
 30
0.0
 11
1292.0235921172
 21
1008.0219430046
 31
0.0
  0
LINE
  5
387
330
1F
100
AcDbEntity
  8
0
  6
CONTINUOUS
 62
     7
100
AcDbLine
 10
1295.5235922252
 20
1031.021944912
 30
0.0
 11
1295.5235922252
 21
1008.0219430046
 31
0.0
  0
LINE
  5
388
330
1F
100
AcDbEntity
  8
0
  6
CONTINUOUS
 62
     7
100
AcDbLine
 10
1292.0235921172
 20
1031.021944912
 30
0.0
 11
1295.5235922252
 21
1031.021944912
 31
0.0
  0
LINE
  5
389
330
1F
100
AcDbEntity
  8
0
  6
CONTINUOUS
 62
     7
100
AcDbLine
 10
1295.5235922252
 20
523.5219520645
 30
0.0
 11
1292.0235921172
 21
523.5219520645
 31
0.0
  0
LINE
  5
38A
330
1F
100
AcDbEntity
  8
0
  6
CONTINUOUS
 62
     7
100
AcDbLine
 10
1292.0235921172
 20
546.5219539719
 30
0.0
 11
1295.5235922252
 21
546.5219539719
 31
0.0
  0
LINE
  5
38B
330
1F
100
AcDbEntity
  8
0
  6
CONTINUOUS
 62
     7
100
AcDbLine
 10
1295.5235922252
 20
546.5219539719
 30
0.0
 11
1295.5235922252
 21
523.5219520645
 31
0.0
  0
LINE
  5
38C
330
1F
100
AcDbEntity
  8
0
  6
CONTINUOUS
 62
     7
100
AcDbLine
 10
1293.5235921302
 20
1075.3650886135
 30
0.0
 11
1295.5235922252
 21
1075.3650886135
 31
0.0
  0
LINE
  5
38D
330
1F
100
AcDbEntity
  8
0
  6
CONTINUOUS
 62
     7
100
AcDbLine
 10
1293.5235921302
 20
1078.193507822
 30
0.0
 11
1295.5235922252
 21
1078.193507822
 31
0.0
  0
LINE
  5
38E
330
1F
100
AcDbEntity
  8
0
  6
CONTINUOUS
 62
     7
100
AcDbLine
 10
1295.5235922252
 20
1078.193507822
 30
0.0
 11
1295.5235922252
 21
1075.3650886135
 31
0.0
  0
LINE
  5
38F
330
1F
100
AcDbEntity
  8
0
  6
CONTINUOUS
 62
     7
100
AcDbLine
 10
1293.5235921302
 20
1078.193507822
 30
0.0
 11
1293.5235921302
 21
1075.3650886135
 31
0.0
  0
LINE
  5
390
330
1F
100
AcDbEntity
  8
0
  6
CONTINUOUS
 62
     7
100
AcDbLine
 10
1293.5235921302
 20
1031.5219384747
 30
0.0
 11
1295.5235922252
 21
1031.5219384747
 31
0.0
  0
LINE
  5
391
330
1F
100
AcDbEntity
  8
0
  6
CONTINUOUS
 62
     7
100
AcDbLine
 10
1295.5235922252
 20
1075.3650886135
 30
0.0
 11
1295.5235922252
 21
1031.5219384747
 31
0.0
  0
LINE
  5
392
330
1F
100
AcDbEntity
  8
0
  6
CONTINUOUS
 62
     7
100
AcDbLine
 10
1293.5235921302
 20
1075.3650886135
 30
0.0
 11
1293.5235921302
 21
1031.5219384747
 31
0.0
  0
LINE
  5
393
330
1F
100
AcDbEntity
  8
0
  6
CONTINUOUS
 62
     7
100
AcDbLine
 10
1293.5235921302
 20
547.0219475346
 30
0.0
 11
1295.5235922252
 21
547.0219475346
 31
0.0
  0
LINE
  5
394
330
1F
100
AcDbEntity
  8
0
  6
CONTINUOUS
 62
     7
100
AcDbLine
 10
1293.5235921302
 20
1007.5219494419
 30
0.0
 11
1295.5235922252
 21
1007.5219494419
 31
0.0
  0
LINE
  5
395
330
1F
100
AcDbEntity
  8
0
  6
CONTINUOUS
 62
     7
100
AcDbLine
 10
1295.5235922252
 20
1007.5219494419
 30
0.0
 11
1295.5235922252
 21
547.0219475346
 31
0.0
  0
LINE
  5
396
330
1F
100
AcDbEntity
  8
0
  6
CONTINUOUS
 62
     7
100
AcDbLine
 10
1293.5235921302
 20
1007.5219494419
 30
0.0
 11
1293.5235921302
 21
547.0219475346
 31
0.0
  0
LINE
  5
397
330
1F
100
AcDbEntity
  8
0
  6
CONTINUOUS
 62
     7
100
AcDbLine
 10
1293.5235921302
 20
479.178808363
 30
0.0
 11
1295.5235922252
 21
479.178808363
 31
0.0
  0
LINE
  5
398
330
1F
100
AcDbEntity
  8
0
  6
CONTINUOUS
 62
     7
100
AcDbLine
 10
1293.5235921302
 20
523.0219585018
 30
0.0
 11
1295.5235922252
 21
523.0219585018
 31
0.0
  0
LINE
  5
399
330
1F
100
AcDbEntity
  8
0
  6
CONTINUOUS
 62
     7
100
AcDbLine
 10
1295.5235922252
 20
523.0219585018
 30
0.0
 11
1295.5235922252
 21
479.178808363
 31
0.0
  0
LINE
  5
39A
330
1F
100
AcDbEntity
  8
0
  6
CONTINUOUS
 62
     7
100
AcDbLine
 10
1293.5235921302
 20
523.0219585018
 30
0.0
 11
1293.5235921302
 21
479.178808363
 31
0.0
  0
LINE
  5
39B
330
1F
100
AcDbEntity
  8
0
  6
CONTINUOUS
 62
     7
100
AcDbLine
 10
1293.5235921302
 20
476.3503891544
 30
0.0
 11
1295.5235922252
 21
476.3503891544
 31
0.0
  0
LINE
  5
39C
330
1F
100
AcDbEntity
  8
0
  6
CONTINUOUS
 62
     7
100
AcDbLine
 10
1295.5235922252
 20
479.178808363
 30
0.0
 11
1295.5235922252
 21
476.3503891544
 31
0.0
  0
LINE
  5
39D
330
1F
100
AcDbEntity
  8
0
  6
CONTINUOUS
 62
     7
100
AcDbLine
 10
1293.5235921302
 20
479.178808363
 30
0.0
 11
1293.5235921302
 21
476.3503891544
 31
0.0
  0
LINE
  5
39E
330
1F
100
AcDbEntity
  8
0
  6
CONTINUOUS
 62
     7
100
AcDbLine
 10
1293.5235921302
 20
1100.3503722267
 30
0.0
 11
1295.5235922252
 21
1100.3503722267
 31
0.0
  0
LINE
  5
39F
330
1F
100
AcDbEntity
  8
0
  6
CONTINUOUS
 62
     7
100
AcDbLine
 10
1295.5235922252
 20
1100.3503722267
 30
0.0
 11
1295.5235922252
 21
1078.193507822
 31
0.0
  0
LINE
  5
3A0
330
1F
100
AcDbEntity
  8
0
  6
CONTINUOUS
 62
     7
100
AcDbLine
 10
1293.5235921302
 20
1100.3503722267
 30
0.0
 11
1293.5235921302
 21
1078.193507822
 31
0.0
  0
LINE
  5
3A1
330
1F
100
AcDbEntity
  8
0
  6
CONTINUOUS
 62
     7
100
AcDbLine
 10
1293.5235921302
 20
454.1935247498
 30
0.0
 11
1295.5235922252
 21
454.1935247498
 31
0.0
  0
LINE
  5
3A2
330
1F
100
AcDbEntity
  8
0
  6
CONTINUOUS
 62
     7
100
AcDbLine
 10
1295.5235922252
 20
476.3503891544
 30
0.0
 11
1295.5235922252
 21
454.1935247498
 31
0.0
  0
LINE
  5
3A3
330
1F
100
AcDbEntity
  8
0
  6
CONTINUOUS
 62
     7
100
AcDbLine
 10
1293.5235921302
 20
476.3503891544
 30
0.0
 11
1293.5235921302
 21
454.1935247498
 31
0.0
  0
LINE
  5
3A4
330
1F
100
AcDbEntity
  8
0
  6
CONTINUOUS
 62
     7
100
AcDbLine
 10
1295.5235922252
 20
1031.5219384747
 30
0.0
 11
1295.5235922252
 21
1031.021944912
 31
0.0
  0
LINE
  5
3A5
330
1F
100
AcDbEntity
  8
0
  6
CONTINUOUS
 62
     7
100
AcDbLine
 10
1293.5235921302
 20
1031.5219384747
 30
0.0
 11
1293.5235921302
 21
1031.021944912
 31
0.0
  0
LINE
  5
3A6
330
1F
100
AcDbEntity
  8
0
  6
CONTINUOUS
 62
     7
100
AcDbLine
 10
1295.5235922252
 20
1008.0219430046
 30
0.0
 11
1295.5235922252
 21
1007.5219494419
 31
0.0
  0
LINE
  5
3A7
330
1F
100
AcDbEntity
  8
0
  6
CONTINUOUS
 62
     7
100
AcDbLine
 10
1293.5235921302
 20
1008.0219430046
 30
0.0
 11
1293.5235921302
 21
1007.5219494419
 31
0.0
  0
LINE
  5
3A8
330
1F
100
AcDbEntity
  8
0
  6
CONTINUOUS
 62
     7
100
AcDbLine
 10
1295.5235922252
 20
547.0219475346
 30
0.0
 11
1295.5235922252
 21
546.5219539719
 31
0.0
  0
LINE
  5
3A9
330
1F
100
AcDbEntity
  8
0
  6
CONTINUOUS
 62
     7
100
AcDbLine
 10
1293.5235921302
 20
547.0219475346
 30
0.0
 11
1293.5235921302
 21
546.5219539719
 31
0.0
  0
LINE
  5
3AA
330
1F
100
AcDbEntity
  8
0
  6
CONTINUOUS
 62
     7
100
AcDbLine
 10
1295.5235922252
 20
523.5219520645
 30
0.0
 11
1295.5235922252
 21
523.0219585018
 31
0.0
  0
LINE
  5
3AB
330
1F
100
AcDbEntity
  8
0
  6
CONTINUOUS
 62
     7
100
AcDbLine
 10
1293.5235921302
 20
523.5219520645
 30
0.0
 11
1293.5235921302
 21
523.0219585018
 31
0.0
  0
LINE
  5
3AC
330
1F
100
AcDbEntity
  8
0
  6
CONTINUOUS
 62
     7
100
AcDbLine
 10
1286.0235925307
 20
1073.5219341831
 30
0.0
 11
1284.0235922029
 21
1071.5219599323
 31
0.0
  0
LINE
  5
3AD
330
1F
100
AcDbEntity
  8
0
  6
CONTINUOUS
 62
     7
100
AcDbLine
 10
1286.0235925307
 20
1073.5219341831
 30
0.0
 11
1291.5235920353
 21
1073.5219341831
 31
0.0
  0
LINE
  5
3AE
330
1F
100
AcDbEntity
  8
0
  6
CONTINUOUS
 62
     7
100
AcDbLine
 10
1291.5235920353
 20
481.0219627934
 30
0.0
 11
1286.0235925307
 21
481.0219627934
 31
0.0
  0
LINE
  5
3AF
330
1F
100
AcDbEntity
  8
0
  6
CONTINUOUS
 62
     7
100
AcDbLine
 10
1284.0235922029
 20
483.0219370441
 30
0.0
 11
1286.0235925307
 21
481.0219627934
 31
0.0
  0
LINE
  5
3B0
330
1F
100
AcDbEntity
  8
0
  6
CONTINUOUS
 62
     7
100
AcDbLine
 10
1284.0235922029
 20
483.0219370441
 30
0.0
 11
1284.0235922029
 21
523.5219520645
 31
0.0
  0
LINE
  5
3B1
330
1F
100
AcDbEntity
  8
0
  6
CONTINUOUS
 62
     7
100
AcDbLine
 10
1284.0235922029
 20
546.5219539719
 30
0.0
 11
1284.0235922029
 21
1008.0219430046
 31
0.0
  0
LINE
  5
3B2
330
1F
100
AcDbEntity
  8
0
  6
CONTINUOUS
 62
     7
100
AcDbLine
 10
1284.0235922029
 20
1031.021944912
 30
0.0
 11
1284.0235922029
 21
1071.5219599323
 31
0.0
  0
LINE
  5
3B3
330
1F
100
AcDbEntity
  8
0
  6
CONTINUOUS
 62
     7
100
AcDbLine
 10
1293.5235921302
 20
1101.5219611244
 30
0.0
 11
1295.5235922252
 21
1101.5219611244
 31
0.0
  0
LINE
  5
3B4
330
1F
100
AcDbEntity
  8
0
  6
CONTINUOUS
 62
     7
100
AcDbLine
 10
1295.5235922252
 20
1101.5219611244
 30
0.0
 11
1295.5235922252
 21
1100.3503722267
 31
0.0
  0
LINE
  5
3B5
330
1F
100
AcDbEntity
  8
0
  6
CONTINUOUS
 62
     7
100
AcDbLine
 10
1293.5235921302
 20
1101.5219611244
 30
0.0
 11
1293.5235921302
 21
1100.3503722267
 31
0.0
  0
LINE
  5
3B6
330
1F
100
AcDbEntity
  8
0
  6
CONTINUOUS
 62
     7
100
AcDbLine
 10
1293.5235921302
 20
453.0219358521
 30
0.0
 11
1295.5235922252
 21
453.0219358521
 31
0.0
  0
LINE
  5
3B7
330
1F
100
AcDbEntity
  8
0
  6
CONTINUOUS
 62
     7
100
AcDbLine
 10
1295.5235922252
 20
454.1935247498
 30
0.0
 11
1295.5235922252
 21
453.0219358521
 31
0.0
  0
LINE
  5
3B8
330
1F
100
AcDbEntity
  8
0
  6
CONTINUOUS
 62
     7
100
AcDbLine
 10
1293.5235921302
 20
454.1935247498
 30
0.0
 11
1293.5235921302
 21
453.0219358521
 31
0.0
  0
LINE
  5
3B9
330
1F
100
AcDbEntity
  8
0
  6
CONTINUOUS
 62
     7
100
AcDbLine
 10
1284.0235922029
 20
1081.5219503956
 30
0.0
 11
1284.0235922029
 21
1083.5219544487
 31
0.0
  0
LINE
  5
3BA
330
1F
100
AcDbEntity
  8
0
  6
CONTINUOUS
 62
     7
100
AcDbLine
 10
1284.0235922029
 20
1083.5219544487
 30
0.0
 11
1286.0235925307
 21
1083.5219544487
 31
0.0
  0
LINE
  5
3BB
330
1F
100
AcDbEntity
  8
0
  6
CONTINUOUS
 62
     7
100
AcDbLine
 10
1286.0235925307
 20
1083.5219544487
 30
0.0
 11
1286.0235925307
 21
1081.5219503956
 31
0.0
  0
LINE
  5
3BC
330
1F
100
AcDbEntity
  8
0
  6
CONTINUOUS
 62
     7
100
AcDbLine
 10
1286.0235925307
 20
1081.5219503956
 30
0.0
 11
1284.0235922029
 21
1081.5219503956
 31
0.0
  0
LINE
  5
3BD
330
1F
100
AcDbEntity
  8
0
  6
CONTINUOUS
 62
     7
100
AcDbLine
 10
1291.5235920353
 20
1083.5219544487
 30
0.0
 11
1286.0235925307
 21
1083.5219544487
 31
0.0
  0
LINE
  5
3BE
330
1F
100
AcDbEntity
  8
0
  6
CONTINUOUS
 62
     7
100
AcDbLine
 10
1291.5235920353
 20
1081.5219503956
 30
0.0
 11
1286.0235925307
 21
1081.5219503956
 31
0.0
  0
LINE
  5
3BF
330
1F
100
AcDbEntity
  8
0
  6
CONTINUOUS
 62
     7
100
AcDbLine
 10
1286.0235925307
 20
473.0219465809
 30
0.0
 11
1286.0235925307
 21
471.0219425278
 31
0.0
  0
LINE
  5
3C0
330
1F
100
AcDbEntity
  8
0
  6
CONTINUOUS
 62
     7
100
AcDbLine
 10
1286.0235925307
 20
471.0219425278
 30
0.0
 11
1284.0235922029
 21
471.0219425278
 31
0.0
  0
LINE
  5
3C1
330
1F
100
AcDbEntity
  8
0
  6
CONTINUOUS
 62
     7
100
AcDbLine
 10
1284.0235922029
 20
471.0219425278
 30
0.0
 11
1284.0235922029
 21
473.0219465809
 31
0.0
  0
LINE
  5
3C2
330
1F
100
AcDbEntity
  8
0
  6
CONTINUOUS
 62
     7
100
AcDbLine
 10
1284.0235922029
 20
473.0219465809
 30
0.0
 11
1286.0235925307
 21
473.0219465809
 31
0.0
  0
LINE
  5
3C3
330
1F
100
AcDbEntity
  8
0
  6
CONTINUOUS
 62
     7
100
AcDbLine
 10
1291.5235920353
 20
471.0219425278
 30
0.0
 11
1286.0235925307
 21
471.0219425278
 31
0.0
  0
LINE
  5
3C4
330
1F
100
AcDbEntity
  8
0
  6
CONTINUOUS
 62
     7
100
AcDbLine
 10
1291.5235920353
 20
473.0219465809
 30
0.0
 11
1286.0235925307
 21
473.0219465809
 31
0.0
  0
LINE
  5
3C5
330
1F
100
AcDbEntity
  8
0
  6
CONTINUOUS
 62
     7
100
AcDbLine
 10
1284.0235922029
 20
474.5219570713
 30
0.0
 11
1282.0235918751
 21
474.5219570713
 31
0.0
  0
LINE
  5
3C6
330
1F
100
AcDbEntity
  8
0
  6
CONTINUOUS
 62
     7
100
AcDbLine
 10
1284.0235922029
 20
475.021950634
 30
0.0
 11
1282.0235918751
 21
475.021950634
 31
0.0
  0
LINE
  5
3C7
330
1F
100
AcDbEntity
  8
0
  6
CONTINUOUS
 62
     7
100
AcDbLine
 10
1284.0235922029
 20
474.5219570713
 30
0.0
 11
1284.0235922029
 21
475.021950634
 31
0.0
  0
LINE
  5
3C8
330
1F
100
AcDbEntity
  8
0
  6
CONTINUOUS
 62
     7
100
AcDbLine
 10
1282.0235918751
 20
474.5219570713
 30
0.0
 11
1282.0235918751
 21
475.021950634
 31
0.0
  0
ARC
  5
3C9
330
1F
100
AcDbEntity
  8
0
  6
CONTINUOUS
 62
     7
100
AcDbCircle
 10
1285.5235922252
 20
474.5219484882
 30
0.0
 40
3.500000000000024
100
AcDbArc
 50
180.0
 51
244.6230664749
  0
ARC
  5
3CA
330
1F
100
AcDbEntity
  8
0
  6
CONTINUOUS
 62
     7
100
AcDbCircle
 10
1285.5235922252
 20
474.5219484882
 30
0.0
 40
1.500000000000057
100
AcDbArc
 50
180.0
 51
270.0
  0
LINE
  5
3CB
330
1F
100
AcDbEntity
  8
0
  6
CONTINUOUS
 62
     7
100
AcDbLine
 10
1282.0235918751
 20
478.0219418125
 30
0.0
 11
1284.0235922029
 21
478.0219418125
 31
0.0
  0
LINE
  5
3CC
330
1F
100
AcDbEntity
  8
0
  6
CONTINUOUS
 62
     7
100
AcDbLine
 10
1284.0235922029
 20
478.0219418125
 30
0.0
 11
1284.0235922029
 21
477.7719599323
 31
0.0
  0
LINE
  5
3CD
330
1F
100
AcDbEntity
  8
0
  6
CONTINUOUS
 62
     7
100
AcDbLine
 10
1284.0235922029
 20
475.7719558792
 30
0.0
 11
1284.0235922029
 21
475.021950634
 31
0.0
  0
LINE
  5
3CE
330
1F
100
AcDbEntity
  8
0
  6
CONTINUOUS
 62
     7
100
AcDbLine
 10
1282.0235918751
 20
475.021950634
 30
0.0
 11
1282.0235918751
 21
478.0219418125
 31
0.0
  0
LINE
  5
3CF
330
1F
100
AcDbEntity
  8
0
  6
CONTINUOUS
 62
     7
100
AcDbLine
 10
1282.0235918751
 20
1061.5219396668
 30
0.0
 11
1284.0235922029
 21
1061.5219396668
 31
0.0
  0
LINE
  5
3D0
330
1F
100
AcDbEntity
  8
0
  6
CONTINUOUS
 62
     7
100
AcDbLine
 10
1284.0235922029
 20
1058.5219484882
 30
0.0
 11
1282.0235918751
 21
1058.5219484882
 31
0.0
  0
LINE
  5
3D1
330
1F
100
AcDbEntity
  8
0
  6
CONTINUOUS
 62
     7
100
AcDbLine
 10
1282.0235918751
 20
1058.5219484882
 30
0.0
 11
1282.0235918751
 21
1061.5219396668
 31
0.0
  0
LINE
  5
3D2
330
1F
100
AcDbEntity
  8
0
  6
CONTINUOUS
 62
     7
100
AcDbLine
 10
1282.0235918751
 20
496.0219484882
 30
0.0
 11
1282.0235918751
 21
523.5219520645
 31
0.0
  0
LINE
  5
3D3
330
1F
100
AcDbEntity
  8
0
  6
CONTINUOUS
 62
     7
100
AcDbLine
 10
1282.0235918751
 20
527.0219368057
 30
0.0
 11
1282.0235918751
 21
527.5219452696
 31
0.0
  0
LINE
  5
3D4
330
1F
100
AcDbEntity
  8
0
  6
CONTINUOUS
 62
     7
100
AcDbLine
 10
1282.0235918751
 20
542.5219458656
 30
0.0
 11
1282.0235918751
 21
543.0219543295
 31
0.0
  0
LINE
  5
3D5
330
1F
100
AcDbEntity
  8
0
  6
CONTINUOUS
 62
     7
100
AcDbLine
 10
1282.0235918751
 20
546.5219539719
 30
0.0
 11
1282.0235918751
 21
770.7719488198
 31
0.0
  0
LINE
  5
3D6
330
1F
100
AcDbEntity
  8
0
  6
CONTINUOUS
 62
     7
100
AcDbLine
 10
1282.0235918751
 20
783.862902982
 30
0.0
 11
1282.0235918751
 21
1008.0219430046
 31
0.0
  0
LINE
  5
3D7
330
1F
100
AcDbEntity
  8
0
  6
CONTINUOUS
 62
     7
100
AcDbLine
 10
1282.0235918751
 20
1011.521942647
 30
0.0
 11
1282.0235918751
 21
1012.0219511108
 31
0.0
  0
LINE
  5
3D8
330
1F
100
AcDbEntity
  8
0
  6
CONTINUOUS
 62
     7
100
AcDbLine
 10
1282.0235918751
 20
1027.0219517069
 30
0.0
 11
1282.0235918751
 21
1027.5219601708
 31
0.0
  0
LINE
  5
3D9
330
1F
100
AcDbEntity
  8
0
  6
CONTINUOUS
 62
     7
100
AcDbLine
 10
1282.0235918751
 20
1031.021944912
 30
0.0
 11
1282.0235918751
 21
1058.5219484882
 31
0.0
  0
LINE
  5
3DA
330
1F
100
AcDbEntity
  8
0
  6
CONTINUOUS
 62
     7
100
AcDbLine
 10
1283.8870919784
 20
493.0219573097
 30
0.0
 11
1282.0235918751
 21
493.0219573097
 31
0.0
  0
LINE
  5
3DB
330
1F
100
AcDbEntity
  8
0
  6
CONTINUOUS
 62
     7
100
AcDbLine
 10
1282.0235918751
 20
493.0219573097
 30
0.0
 11
1282.0235918751
 21
496.0219484882
 31
0.0
  0
LINE
  5
3DC
330
1F
100
AcDbEntity
  8
0
  6
CONTINUOUS
 62
     7
100
AcDbLine
 10
1291.5235920353
 20
479.178808363
 30
0.0
 11
1293.5235921302
 21
479.178808363
 31
0.0
  0
LINE
  5
3DD
330
1F
100
AcDbEntity
  8
0
  6
CONTINUOUS
 62
     7
100
AcDbLine
 10
1291.5235920353
 20
493.0219573097
 30
0.0
 11
1293.5235921302
 21
493.0219573097
 31
0.0
  0
LINE
  5
3DE
330
1F
100
AcDbEntity
  8
0
  6
CONTINUOUS
 62
     7
100
AcDbLine
 10
1291.5235920353
 20
479.178808363
 30
0.0
 11
1291.5235920353
 21
493.0219573097
 31
0.0
  0
LINE
  5
3DF
330
1F
100
AcDbEntity
  8
0
  6
CONTINUOUS
 62
     7
100
AcDbLine
 10
1293.5235921302
 20
479.178808363
 30
0.0
 11
1293.5235921302
 21
493.0219573097
 31
0.0
  0
LINE
  5
3E0
330
1F
100
AcDbEntity
  8
0
  6
CONTINUOUS
 62
     7
100
AcDbLine
 10
1291.5235920353
 20
476.3503891544
 30
0.0
 11
1293.5235921302
 21
476.3503891544
 31
0.0
  0
LINE
  5
3E1
330
1F
100
AcDbEntity
  8
0
  6
CONTINUOUS
 62
     7
100
AcDbLine
 10
1291.5235920353
 20
476.3503891544
 30
0.0
 11
1291.5235920353
 21
479.178808363
 31
0.0
  0
LINE
  5
3E2
330
1F
100
AcDbEntity
  8
0
  6
CONTINUOUS
 62
     7
100
AcDbLine
 10
1291.5235920353
 20
454.1935247498
 30
0.0
 11
1293.5235921302
 21
454.1935247498
 31
0.0
  0
LINE
  5
3E3
330
1F
100
AcDbEntity
  8
0
  6
CONTINUOUS
 62
     7
100
AcDbLine
 10
1291.5235920353
 20
454.1935247498
 30
0.0
 11
1291.5235920353
 21
476.3503891544
 31
0.0
  0
LINE
  5
3E4
330
1F
100
AcDbEntity
  8
0
  6
CONTINUOUS
 62
     7
100
AcDbLine
 10
1291.5235920353
 20
453.0219358521
 30
0.0
 11
1293.5235921302
 21
453.0219358521
 31
0.0
  0
LINE
  5
3E5
330
1F
100
AcDbEntity
  8
0
  6
CONTINUOUS
 62
     7
100
AcDbLine
 10
1291.5235920353
 20
453.0219358521
 30
0.0
 11
1291.5235920353
 21
454.1935247498
 31
0.0
  0
LINE
  5
3E6
330
1F
100
AcDbEntity
  8
0
  6
CONTINUOUS
 62
     7
100
AcDbLine
 10
1291.5235920353
 20
1075.3650886135
 30
0.0
 11
1293.5235921302
 21
1075.3650886135
 31
0.0
  0
LINE
  5
3E7
330
1F
100
AcDbEntity
  8
0
  6
CONTINUOUS
 62
     7
100
AcDbLine
 10
1291.5235920353
 20
1078.193507822
 30
0.0
 11
1293.5235921302
 21
1078.193507822
 31
0.0
  0
LINE
  5
3E8
330
1F
100
AcDbEntity
  8
0
  6
CONTINUOUS
 62
     7
100
AcDbLine
 10
1291.5235920353
 20
1075.3650886135
 30
0.0
 11
1291.5235920353
 21
1078.193507822
 31
0.0
  0
LINE
  5
3E9
330
1F
100
AcDbEntity
  8
0
  6
CONTINUOUS
 62
     7
100
AcDbLine
 10
1291.5235920353
 20
1061.5219396668
 30
0.0
 11
1293.5235921302
 21
1061.5219396668
 31
0.0
  0
LINE
  5
3EA
330
1F
100
AcDbEntity
  8
0
  6
CONTINUOUS
 62
     7
100
AcDbLine
 10
1293.5235921302
 20
1061.5219396668
 30
0.0
 11
1293.5235921302
 21
1075.3650886135
 31
0.0
  0
LINE
  5
3EB
330
1F
100
AcDbEntity
  8
0
  6
CONTINUOUS
 62
     7
100
AcDbLine
 10
1291.5235920353
 20
1061.5219396668
 30
0.0
 11
1291.5235920353
 21
1075.3650886135
 31
0.0
  0
LINE
  5
3EC
330
1F
100
AcDbEntity
  8
0
  6
CONTINUOUS
 62
     7
100
AcDbLine
 10
1291.5235920353
 20
1100.3503722267
 30
0.0
 11
1293.5235921302
 21
1100.3503722267
 31
0.0
  0
LINE
  5
3ED
330
1F
100
AcDbEntity
  8
0
  6
CONTINUOUS
 62
     7
100
AcDbLine
 10
1291.5235920353
 20
1078.193507822
 30
0.0
 11
1291.5235920353
 21
1100.3503722267
 31
0.0
  0
LINE
  5
3EE
330
1F
100
AcDbEntity
  8
0
  6
CONTINUOUS
 62
     7
100
AcDbLine
 10
1291.5235920353
 20
1101.5219611244
 30
0.0
 11
1293.5235921302
 21
1101.5219611244
 31
0.0
  0
LINE
  5
3EF
330
1F
100
AcDbEntity
  8
0
  6
CONTINUOUS
 62
     7
100
AcDbLine
 10
1291.5235920353
 20
1100.3503722267
 30
0.0
 11
1291.5235920353
 21
1101.5219611244
 31
0.0
  0
LINE
  5
3F0
330
1F
100
AcDbEntity
  8
0
  6
CONTINUOUS
 62
     8
100
AcDbLine
 10
1298.5735921664
 20
784.1219484935
 30
0.0
 11
1298.5735921664
 21
770.421948483
 31
0.0
  0
LINE
  5
3F1
330
1F
100
AcDbEntity
  8
0
  6
CONTINUOUS
 62
     8
100
AcDbLine
 10
1282.523591957
 20
770.2719482722
 30
0.0
 11
1282.523591957
 21
784.2719487043
 31
0.0
  0
LINE
  5
3F2
330
1F
100
AcDbEntity
  8
0
  6
CONTINUOUS
 62
     8
100
AcDbLine
 10
1292.0235921172
 20
1061.5219396668
 30
0.0
 11
1292.0235921172
 21
1031.021944912
 31
0.0
  0
LINE
  5
3F3
330
1F
100
AcDbEntity
  8
0
  6
CONTINUOUS
 62
     8
100
AcDbLine
 10
1292.0235921172
 20
1008.0219430046
 30
0.0
 11
1292.0235921172
 21
546.5219539719
 31
0.0
  0
LINE
  5
3F4
330
1F
100
AcDbEntity
  8
0
  6
CONTINUOUS
 62
     8
100
AcDbLine
 10
1292.0235921172
 20
523.5219520645
 30
0.0
 11
1292.0235921172
 21
493.0219573097
 31
0.0
  0
LINE
  5
3F5
330
1F
100
AcDbEntity
  8
0
  6
CONTINUOUS
 62
     8
100
AcDbLine
 10
1282.0235918751
 20
496.0219484882
 30
0.0
 11
1283.5235921209
 21
496.0219484882
 31
0.0
  0
LINE
  5
3F6
330
1F
100
AcDbEntity
  8
0
  6
CONTINUOUS
 62
     7
100
AcDbLine
 10
1599.7412540987
 20
772.8343896696
 30
0.0
 11
1600.0813134983
 21
773.8583557902
 31
0.0
  0
LINE
  5
3F7
330
1F
100
AcDbEntity
  8
0
  6
CONTINUOUS
 62
     7
100
AcDbLine
 10
1601.5935578421
 20
773.8509273285
 30
0.0
 11
1601.9235440567
 21
772.8236701468
 31
0.0
  0
ARC
  5
3F8
330
1F
100
AcDbEntity
  8
0
  6
CONTINUOUS
 62
     7
100
AcDbCircle
 10
1600.8542193249
 20
777.2719484882
 30
0.0
 40
4.575000000000077
100
AcDbArc
 50
283.516826599
 51
352.182643248
  0
LINE
  5
3F9
330
1F
100
AcDbEntity
  8
0
  6
CONTINUOUS
 62
     7
100
AcDbLine
 10
1605.3867080286
 20
776.6496766953
 30
0.0
 11
1604.2994149998
 21
776.6550176556
 31
0.0
  0
LINE
  5
3FA
330
1F
100
AcDbEntity
  8
0
  6
CONTINUOUS
 62
     7
100
AcDbLine
 10
1603.9307900742
 20
778.9406999608
 30
0.0
 11
1606.2601842955
 21
780.2041833883
 31
0.0
  0
LINE
  5
3FB
330
1F
100
AcDbEntity
  8
0
  6
CONTINUOUS
 62
     7
100
AcDbLine
 10
1595.4773166254
 20
780.2571511956
 30
0.0
 11
1597.7941938713
 21
778.9708443115
 31
0.0
  0
LINE
  5
3FC
330
1F
100
AcDbEntity
  8
0
  6
CONTINUOUS
 62
     7
100
AcDbLine
 10
1597.403127797
 20
776.6888938158
 30
0.0
 11
1596.3158347681
 21
776.6942347761
 31
0.0
  0
ARC
  5
3FD
330
1F
100
AcDbEntity
  8
0
  6
CONTINUOUS
 62
     7
100
AcDbCircle
 10
1600.8542193249
 20
777.2719484882
 30
0.0
 40
4.575000000000035
100
AcDbArc
 50
187.2544619325
 51
255.9202785815
  0
ARC
  5
3FE
330
1F
100
AcDbEntity
  8
0
  6
CONTINUOUS
 62
     7
100
AcDbCircle
 10
1600.8542193249
 20
777.2719484882
 30
0.0
 40
6.150000000000223
100
AcDbArc
 50
150.9613955488
 51
28.4757096317
  0
LINE
  5
3FF
330
1F
100
AcDbEntity
  8
0
  6
CONTINUOUS
 62
     7
100
AcDbLine
 10
1596.5422281102
 20
775.7431112358
 30
0.0
 11
1597.5974091366
 21
775.73792796
 31
0.0
  0
ARC
  5
400
330
1F
100
AcDbEntity
  8
0
  6
CONTINUOUS
 62
     7
100
AcDbCircle
 10
1600.8542193249
 20
777.2719484882
 30
0.0
 40
3.599999999999957
100
AcDbArc
 50
205.2213748482
 51
244.2157303323
  0
LINE
  5
401
330
1F
100
AcDbEntity
  8
0
  6
CONTINUOUS
 62
     7
100
AcDbLine
 10
1599.2882736996
 20
774.0303708369
 30
0.0
 11
1599.2830880955
 21
772.9751832912
 31
0.0
  0
LINE
  5
402
330
1F
100
AcDbEntity
  8
0
  6
CONTINUOUS
 62
     7
100
AcDbLine
 10
1602.3830511645
 20
772.9599557014
 30
0.0
 11
1602.3882367686
 21
774.0151432471
 31
0.0
  0
ARC
  5
403
330
1F
100
AcDbEntity
  8
0
  6
CONTINUOUS
 62
     7
100
AcDbCircle
 10
1600.8542193249
 20
777.2719484882
 30
0.0
 40
3.599999999999939
100
AcDbArc
 50
295.2213748482
 51
334.2157303323
  0
LINE
  5
404
330
1F
100
AcDbEntity
  8
0
  6
CONTINUOUS
 62
     7
100
AcDbLine
 10
1604.0957906321
 20
775.7060064131
 30
0.0
 11
1605.1509865597
 21
775.7008231373
 31
0.0
  0
ARC
  5
405
330
1F
100
AcDbEntity
  8
0
  6
CONTINUOUS
 62
     7
100
AcDbCircle
 10
1600.8542193249
 20
777.2719484882
 30
0.0
 40
3.599999999999979
100
AcDbArc
 50
28.4757096317
 51
64.2157303323
  0
LINE
  5
406
330
1F
100
AcDbEntity
  8
0
  6
CONTINUOUS
 62
     7
100
AcDbLine
 10
1602.4201550558
 20
780.5135261396
 30
0.0
 11
1602.4254747704
 21
781.5952754708
 31
0.0
  0
ARC
  5
407
330
1F
100
AcDbEntity
  8
0
  6
CONTINUOUS
 62
     7
100
AcDbCircle
 10
1600.8542193249
 20
777.2719484882
 30
0.0
 40
4.600000000000287
100
AcDbArc
 50
70.02699557
 51
109.4101096105
  0
LINE
  5
408
330
1F
100
AcDbEntity
  8
0
  6
CONTINUOUS
 62
     7
100
AcDbLine
 10
1599.3255117014
 20
781.6105030606
 30
0.0
 11
1599.3201919869
 21
780.5287537293
 31
0.0
  0
ARC
  5
409
330
1F
100
AcDbEntity
  8
0
  6
CONTINUOUS
 62
     7
100
AcDbCircle
 10
1600.8542193249
 20
777.2719484882
 30
0.0
 40
3.600000000000041
100
AcDbArc
 50
115.2213748482
 51
150.9613955488
  0
LINE
  5
40A
330
1F
100
AcDbEntity
  8
0
  6
CONTINUOUS
 62
     7
100
AcDbLine
 10
1600.8222886399
 20
770.7720270509
 30
0.0
 11
1577.7195432261
 21
770.8855128976
 31
0.0
  0
LINE
  5
40B
330
1F
100
AcDbEntity
  8
0
  6
CONTINUOUS
 62
     7
100
AcDbLine
 10
1577.7833947018
 20
783.8853557723
 30
0.0
 11
1600.8861550167
 21
783.7718699256
 31
0.0
  0
ARC
  5
40C
330
1F
100
AcDbEntity
  8
0
  6
CONTINUOUS
 62
     7
100
AcDbCircle
 10
1600.8542193249
 20
777.2719484882
 30
0.0
 40
6.500000000000094
100
AcDbArc
 50
269.7185525902
 51
89.7185525902
  0
ARC
  5
40D
330
1F
100
AcDbEntity
  8
0
  6
CONTINUOUS
 62
     7
100
AcDbCircle
 10
1600.8542193249
 20
777.2719484882
 30
0.0
 40
24.00000000000403
100
AcDbArc
 50
164.0046915422
 51
195.4324136383
  0
LWPOLYLINE
  5
40E
330
1F
100
AcDbEntity
  8
0
  6
CONTINUOUS
 62
     7
100
AcDbPolyline
 90
        3
 70
   128
 43
0.0
 10
1596.1586573199
 20
770.7949357236
 10
1597.072277315
 20
770.2223446349
 10
1598.6053385809
 20
769.5945424156
  0
ARC
  5
40F
330
1F
100
AcDbEntity
  8
0
  6
CONTINUOUS
 62
     7
100
AcDbCircle
 10
1600.8542193249
 20
777.2719484882
 30
0.0
 40
8.000000000000048
100
AcDbArc
 50
285.7635282184
 51
343.6735769621
  0
ARC
  5
410
330
1F
100
AcDbEntity
  8
0
  6
CONTINUOUS
 62
     7
100
AcDbCircle
 10
1600.8542193249
 20
777.2719484882
 30
0.0
 40
7.99999999999994
100
AcDbArc
 50
15.7635282184
 51
73.6735769621
  0
LWPOLYLINE
  5
411
330
1F
100
AcDbEntity
  8
0
  6
CONTINUOUS
 62
     7
100
AcDbPolyline
 90
        3
 70
   128
 43
0.0
 10
1598.680872567
 20
784.9710776599
 10
1597.1417167261
 20
784.3583665917
 10
1596.2225087956
 20
783.7947790639
  0
LINE
  5
412
330
1F
100
AcDbEntity
  8
0
  6
CONTINUOUS
 62
     7
100
AcDbLine
 10
1593.6693587378
 20
783.8073207194
 30
0.0
 11
1595.4161175564
 21
786.7987758609
 31
0.0
  0
LINE
  5
413
330
1F
100
AcDbEntity
  8
0
  6
CONTINUOUS
 62
     7
100
AcDbLine
 10
1595.4161175564
 20
786.7987758609
 30
0.0
 11
1606.3856520727
 21
786.7448913993
 31
0.0
  0
LINE
  5
414
330
1F
100
AcDbEntity
  8
0
  6
CONTINUOUS
 62
     7
100
AcDbLine
 10
1606.3856520727
 20
786.7448913993
 30
0.0
 11
1611.8237414435
 21
777.2180637393
 31
0.0
  0
LINE
  5
415
330
1F
100
AcDbEntity
  8
0
  6
CONTINUOUS
 62
     7
100
AcDbLine
 10
1611.8237414435
 20
777.2180637393
 30
0.0
 11
1606.292311199
 21
767.7451211156
 31
0.0
  0
LINE
  5
416
330
1F
100
AcDbEntity
  8
0
  6
CONTINUOUS
 62
     7
100
AcDbLine
 10
1606.292311199
 20
767.7451211156
 30
0.0
 11
1595.3227915839
 21
767.7990055772
 31
0.0
  0
LINE
  5
417
330
1F
100
AcDbEntity
  8
0
  6
CONTINUOUS
 62
     7
100
AcDbLine
 10
1595.3227915839
 20
767.7990055772
 30
0.0
 11
1593.6054923609
 21
770.807477379
 31
0.0
  0
CIRCLE
  5
418
330
1F
100
AcDbEntity
  8
0
  6
CONTINUOUS
 62
     7
100
AcDbCircle
 10
1600.8542193249
 20
777.2719484882
 30
0.0
 40
3.500000000000156
  0
LINE
  5
419
330
1F
100
AcDbEntity
  8
0
  6
CONTINUOUS
 62
     7
100
AcDbLine
 10
1599.3750729636
 20
781.521906344
 30
0.0
 11
1599.3697681502
 21
780.441556325
 31
0.0
  0
ARC
  5
41A
330
1F
100
AcDbEntity
  8
0
  6
CONTINUOUS
 62
     7
100
AcDbCircle
 10
1600.8542193249
 20
777.2719484882
 30
0.0
 40
4.499999999999785
100
AcDbArc
 50
70.2473319558
 51
109.1897732247
  0
LINE
  5
41B
330
1F
100
AcDbEntity
  8
0
  6
CONTINUOUS
 62
     7
100
AcDbLine
 10
1602.3750343397
 20
781.5071695613
 30
0.0
 11
1602.3697295264
 21
780.4268197751
 31
0.0
  0
ARC
  5
41C
330
1F
100
AcDbEntity
  8
0
  6
CONTINUOUS
 62
     7
100
AcDbCircle
 10
1600.8542193249
 20
777.2719484882
 30
0.0
 40
4.500000000000068
100
AcDbArc
 50
340.2473319558
 51
351.1694737597
  0
LINE
  5
41D
330
1F
100
AcDbEntity
  8
0
  6
CONTINUOUS
 62
     7
100
AcDbLine
 10
1605.089444764
 20
775.7511260815
 30
0.0
 11
1604.0090956763
 21
775.7564329904
 31
0.0
  0
LINE
  5
41E
330
1F
100
AcDbEntity
  8
0
  6
CONTINUOUS
 62
     7
100
AcDbLine
 10
1602.3386606053
 20
774.1023406515
 30
0.0
 11
1602.3333557919
 21
773.0219906325
 31
0.0
  0
LWPOLYLINE
  5
41F
330
1F
100
AcDbEntity
  8
0
  6
CONTINUOUS
 62
     7
100
AcDbPolyline
 90
        3
 70
   128
 43
0.0
 10
1599.3333944157
 20
773.0367274152
 10
1599.6982642487
 20
772.9229505302
 10
1599.7649618462
 20
772.9057708884
  0
LWPOLYLINE
  5
420
330
1F
100
AcDbEntity
  8
0
  6
CONTINUOUS
 62
     7
100
AcDbPolyline
 90
        3
 70
   128
 43
0.0
 10
1601.9005366639
 20
772.8952804709
 10
1601.967383273
 20
772.911803996
 10
1602.3333557919
 20
773.0219906325
  0
LINE
  5
421
330
1F
100
AcDbEntity
  8
0
  6
CONTINUOUS
 62
     7
100
AcDbLine
 10
1599.3386992291
 20
774.1170772014
 30
0.0
 11
1599.3333944157
 21
773.0367274152
 31
0.0
  0
LINE
  5
422
330
1F
100
AcDbEntity
  8
0
  6
CONTINUOUS
 62
     7
100
AcDbLine
 10
1596.6042616442
 20
775.7928071905
 30
0.0
 11
1597.6846107319
 21
775.7875001652
 31
0.0
  0
ARC
  5
423
330
1F
100
AcDbEntity
  8
0
  6
CONTINUOUS
 62
     7
100
AcDbCircle
 10
1600.8542193249
 20
777.2719484882
 30
0.0
 40
4.499999999999855
100
AcDbArc
 50
187.380808251
 51
199.1897732247
  0
ARC
  5
424
330
1F
100
AcDbEntity
  8
0
  6
CONTINUOUS
 62
     7
100
AcDbCircle
 10
1600.8542193249
 20
777.2719484882
 30
0.0
 40
7.000000000000069
100
AcDbArc
 50
247.931763292
 51
111.5053418885
  0
LWPOLYLINE
  5
425
330
1F
100
AcDbEntity
  8
0
  6
CONTINUOUS
 62
     7
100
AcDbPolyline
 90
        3
 70
   128
 43
0.0
 10
1597.4228420332
 20
770.7887256647
 10
1597.644869335
 20
770.5644999759
 10
1598.6053385809
 20
769.5945424156
  0
LWPOLYLINE
  5
426
330
1F
100
AcDbEntity
  8
0
  6
CONTINUOUS
 62
     7
100
AcDbPolyline
 90
        4
 70
   128
 43
0.0
 10
1603.0275561884
 20
769.5728193166
 10
1604.1822620705
 20
770.7162259275
 10
1605.4441818074
 20
771.9658112282
 10
1605.7795920447
 20
772.2979469353
  0
ARC
  5
427
330
1F
100
AcDbEntity
  8
0
  6
CONTINUOUS
 62
     7
100
AcDbCircle
 10
1600.8542193249
 20
777.2719484882
 30
0.0
 40
7.99999999999996
100
AcDbArc
 50
253.6735769621
 51
285.7635282184
  0
LWPOLYLINE
  5
428
330
1F
100
AcDbEntity
  8
0
  6
CONTINUOUS
 62
     7
100
AcDbPolyline
 90
        4
 70
   128
 43
0.0
 10
1608.5533537939
 20
779.4452900661
 10
1607.4099429921
 20
780.599985238
 10
1606.1603614167
 20
781.861907536
 10
1605.8282145336
 20
782.1973224299
  0
ARC
  5
429
330
1F
100
AcDbEntity
  8
0
  6
CONTINUOUS
 62
     7
100
AcDbCircle
 10
1600.8542193249
 20
777.2719484882
 30
0.0
 40
8.00000000000008
100
AcDbArc
 50
343.6735769621
 51
15.7635282184
  0
LWPOLYLINE
  5
42A
330
1F
100
AcDbEntity
  8
0
  6
CONTINUOUS
 62
     7
100
AcDbPolyline
 90
        3
 70
   128
 43
0.0
 10
1605.7795920447
 20
772.2979469353
 10
1607.5616666153
 20
774.0625992546
 10
1608.5316279009
 20
775.0230740884
  0
ARC
  5
42B
330
1F
100
AcDbEntity
  8
0
  6
CONTINUOUS
 62
     7
100
AcDbCircle
 10
1600.8542193249
 20
777.2719484882
 30
0.0
 40
8.000000000000004
100
AcDbArc
 50
73.6735769621
 51
105.7635282184
  0
LWPOLYLINE
  5
42C
330
1F
100
AcDbEntity
  8
0
  6
CONTINUOUS
 62
     7
100
AcDbPolyline
 90
        3
 70
   128
 43
0.0
 10
1605.8282145336
 20
782.1973224299
 10
1604.0635743216
 20
783.9793970006
 10
1603.1030901745
 20
784.9493545609
  0
LWPOLYLINE
  5
42D
330
1F
100
AcDbEntity
  8
0
  6
CONTINUOUS
 62
     7
100
AcDbPolyline
 90
        3
 70
   128
 43
0.0
 10
1598.680872567
 20
784.9710776599
 10
1597.5261815861
 20
783.827671049
 10
1597.4866935089
 20
783.788569005
  0
CIRCLE
  5
42E
330
1F
100
AcDbEntity
  8
0
  6
CONTINUOUS
 62
     7
100
AcDbCircle
 10
1963.8542193249
 20
495.7719484882
 30
0.0
 40
2.999999999999909
  0
CIRCLE
  5
42F
330
1F
100
AcDbEntity
  8
0
  6
CONTINUOUS
 62
     7
100
AcDbCircle
 10
1963.8542193249
 20
495.7719484882
 30
0.0
 40
2.386499999999883
  0
CIRCLE
  5
430
330
1F
100
AcDbEntity
  8
0
  6
CONTINUOUS
 62
     7
100
AcDbCircle
 10
1963.8542193249
 20
495.7719484882
 30
0.0
 40
0.759259259259366
  0
LINE
  5
431
330
1F
100
AcDbEntity
  8
0
  6
CONTINUOUS
 62
     7
100
AcDbLine
 10
1582.0613243655
 20
475.7719558792
 30
0.0
 11
1596.4494832829
 21
475.7719558792
 31
0.0
  0
LINE
  5
432
330
1F
100
AcDbEntity
  8
0
  6
CONTINUOUS
 62
     7
100
AcDbLine
 10
1966.7589553669
 20
475.7719558792
 30
0.0
 11
1981.1471142844
 21
475.7719558792
 31
0.0
  0
LINE
  5
433
330
1F
100
AcDbEntity
  8
0
  6
CONTINUOUS
 62
     7
100
AcDbLine
 10
1582.0613243655
 20
477.7719599323
 30
0.0
 11
1582.0613243655
 21
475.7719558792
 31
0.0
  0
LINE
  5
434
330
1F
100
AcDbEntity
  8
0
  6
CONTINUOUS
 62
     7
100
AcDbLine
 10
1582.0613243655
 20
477.7719599323
 30
0.0
 11
1598.1552639082
 21
477.7719599323
 31
0.0
  0
LINE
  5
435
330
1F
100
AcDbEntity
  8
0
  6
CONTINUOUS
 62
     7
100
AcDbLine
 10
1965.0531747416
 20
477.7719599323
 30
0.0
 11
1981.1471142844
 21
477.7719599323
 31
0.0
  0
LINE
  5
436
330
1F
100
AcDbEntity
  8
0
  6
CONTINUOUS
 62
     7
100
AcDbLine
 10
1981.1471142844
 20
477.7719599323
 30
0.0
 11
1981.1471142844
 21
475.7719558792
 31
0.0
  0
LINE
  5
437
330
1F
100
AcDbEntity
  8
0
  6
CONTINUOUS
 62
     7
100
AcDbLine
 10
1579.3542155102
 20
1076.0648471432
 30
0.0
 11
1579.3542155102
 21
1061.5219396668
 31
0.0
  0
LINE
  5
438
330
1F
100
AcDbEntity
  8
0
  6
CONTINUOUS
 62
     7
100
AcDbLine
 10
1579.3542155102
 20
493.0219573097
 30
0.0
 11
1579.3542155102
 21
478.4790498333
 31
0.0
  0
LINE
  5
439
330
1F
100
AcDbEntity
  8
0
  6
CONTINUOUS
 62
     7
100
AcDbLine
 10
1581.3542195633
 20
1076.0648471432
 30
0.0
 11
1579.3542155102
 21
1076.0648471432
 31
0.0
  0
LINE
  5
43A
330
1F
100
AcDbEntity
  8
0
  6
CONTINUOUS
 62
     7
100
AcDbLine
 10
1581.3542195633
 20
1076.0648471432
 30
0.0
 11
1581.3542195633
 21
1060.758016737
 31
0.0
  0
LINE
  5
43B
330
1F
100
AcDbEntity
  8
0
  6
CONTINUOUS
 62
     7
100
AcDbLine
 10
1581.3542195633
 20
493.7858802395
 30
0.0
 11
1581.3542195633
 21
478.4790498333
 31
0.0
  0
LINE
  5
43C
330
1F
100
AcDbEntity
  8
0
  6
CONTINUOUS
 62
     7
100
AcDbLine
 10
1581.3542195633
 20
478.4790498333
 30
0.0
 11
1579.3542155102
 21
478.4790498333
 31
0.0
  0
LINE
  5
43D
330
1F
100
AcDbEntity
  8
0
  6
CONTINUOUS
 62
     7
100
AcDbLine
 10
1983.8542231396
 20
478.4790498333
 30
0.0
 11
1983.8542231396
 21
1076.0648471432
 31
0.0
  0
LINE
  5
43E
330
1F
100
AcDbEntity
  8
0
  6
CONTINUOUS
 62
     7
100
AcDbLine
 10
1981.8542190865
 20
478.4790498333
 30
0.0
 11
1981.8542190865
 21
1076.0648471432
 31
0.0
  0
LINE
  5
43F
330
1F
100
AcDbEntity
  8
0
  6
CONTINUOUS
 62
     7
100
AcDbLine
 10
1981.8542190865
 20
1076.0648471432
 30
0.0
 11
1983.8542231396
 21
1076.0648471432
 31
0.0
  0
LINE
  5
440
330
1F
100
AcDbEntity
  8
0
  6
CONTINUOUS
 62
     7
100
AcDbLine
 10
1981.8542190865
 20
478.4790498333
 30
0.0
 11
1983.8542231396
 21
478.4790498333
 31
0.0
  0
LINE
  5
441
330
1F
100
AcDbEntity
  8
0
  6
CONTINUOUS
 62
     7
100
AcDbLine
 10
1981.1471142844
 20
1078.7719410973
 30
0.0
 11
1582.0613243655
 21
1078.7719410973
 31
0.0
  0
LINE
  5
442
330
1F
100
AcDbEntity
  8
0
  6
CONTINUOUS
 62
     7
100
AcDbLine
 10
1981.1471142844
 20
1076.7719370441
 30
0.0
 11
1981.1471142844
 21
1078.7719410973
 31
0.0
  0
LINE
  5
443
330
1F
100
AcDbEntity
  8
0
  6
CONTINUOUS
 62
     7
100
AcDbLine
 10
1582.0613243655
 20
1076.7719370441
 30
0.0
 11
1582.0613243655
 21
1078.7719410973
 31
0.0
  0
LINE
  5
444
330
1F
100
AcDbEntity
  8
0
  6
CONTINUOUS
 62
     7
100
AcDbLine
 10
1981.1471142844
 20
1076.7719370441
 30
0.0
 11
1582.0613243655
 21
1076.7719370441
 31
0.0
  0
LINE
  5
445
330
1F
100
AcDbEntity
  8
0
  6
CONTINUOUS
 62
     7
100
AcDbLine
 10
1980.3542234972
 20
479.2719406204
 30
0.0
 11
1582.8542151526
 21
479.2719406204
 31
0.0
  0
ARC
  5
446
330
1F
100
AcDbEntity
  8
0
  6
CONTINUOUS
 62
     7
100
AcDbCircle
 10
1983.3005308932
 20
479.869809023
 30
0.0
 40
3.006355584127777
100
AcDbArc
 50
191.4707799022
 51
224.2511399657
  0
LWPOLYLINE
  5
447
330
1F
100
AcDbEntity
  8
0
  6
CONTINUOUS
 62
     7
100
AcDbPolyline
 90
        6
 70
   128
 43
0.0
 10
1582.8542151526
 20
479.2719406204
 10
1582.6744177416
 20
478.7488502579
 10
1582.4946054295
 20
478.2914442139
 10
1582.3148676232
 20
477.9572111683
 10
1582.1351298169
 20
477.7879637795
 10
1582.0613243655
 20
477.7719599323
  0
LINE
  5
448
330
1F
100
AcDbEntity
  8
0
  6
CONTINUOUS
 62
     7
100
AcDbLine
 10
1582.8542151526
 20
1075.2719563561
 30
0.0
 11
1980.3542234972
 21
1075.2719563561
 31
0.0
  0
LWPOLYLINE
  5
449
330
1F
100
AcDbEntity
  8
0
  6
CONTINUOUS
 62
     7
100
AcDbPolyline
 90
        6
 70
   128
 43
0.0
 10
1980.3542234972
 20
1075.2719563561
 10
1980.5340209082
 20
1075.7950467186
 10
1980.7138332203
 20
1076.2524527626
 10
1980.8935710266
 20
1076.5866858082
 10
1981.073308833
 20
1076.755933197
 10
1981.1471142844
 20
1076.7719370441
  0
ARC
  5
44A
330
1F
100
AcDbEntity
  8
0
  6
CONTINUOUS
 62
     7
100
AcDbCircle
 10
1579.9079077566
 20
1074.6740879535
 30
0.0
 40
3.006355584127662
100
AcDbArc
 50
11.4707799021
 51
44.2511399657
  0
LWPOLYLINE
  5
44B
330
1F
100
AcDbEntity
  8
0
  6
CONTINUOUS
 62
     7
100
AcDbPolyline
 90
        6
 70
   128
 43
0.0
 10
1582.8542151526
 20
1075.2719563561
 10
1582.3311396912
 20
1075.451753767
 10
1581.873718746
 20
1075.631551178
 10
1581.5395006016
 20
1075.8112889843
 10
1581.3702234104
 20
1075.9910267906
 10
1581.3542195633
 20
1076.0648471432
  0
ARC
  5
44C
330
1F
100
AcDbEntity
  8
0
  6
CONTINUOUS
 62
     7
100
AcDbCircle
 10
1583.4519615054
 20
476.3258246929
 30
0.0
 40
3.00614366932518
100
AcDbArc
 50
101.4692258815
 51
134.2522236607
  0
LINE
  5
44D
330
1F
100
AcDbEntity
  8
0
  6
CONTINUOUS
 62
     7
100
AcDbLine
 10
1980.3542234972
 20
1075.2719563561
 30
0.0
 11
1980.3542234972
 21
479.2719406204
 31
0.0
  0
ARC
  5
44E
330
1F
100
AcDbEntity
  8
0
  6
CONTINUOUS
 62
     7
100
AcDbCircle
 10
1979.7564771444
 20
1078.2180722836
 30
0.0
 40
3.006143669327281
100
AcDbArc
 50
281.4692258815
 51
314.2522236606
  0
LWPOLYLINE
  5
44F
330
1F
100
AcDbEntity
  8
0
  6
CONTINUOUS
 62
     7
100
AcDbPolyline
 90
        6
 70
   128
 43
0.0
 10
1980.3542234972
 20
479.2719406204
 10
1980.8772989586
 20
479.0921432095
 10
1981.3347199038
 20
478.9123457985
 10
1981.6689380482
 20
478.7326079922
 10
1981.8382152394
 20
478.5528701859
 10
1981.8542190865
 20
478.4790498333
  0
LINE
  5
450
330
1F
100
AcDbEntity
  8
0
  6
CONTINUOUS
 62
     7
100
AcDbLine
 10
1598.1190838888
 20
769.7540337348
 30
0.0
 11
1597.082723029
 21
770.7903964574
 31
0.0
  0
LINE
  5
451
330
1F
100
AcDbEntity
  8
0
  6
CONTINUOUS
 62
     7
100
AcDbLine
 10
1608.3721407727
 20
774.5368152054
 30
0.0
 11
1603.5893597678
 21
769.7540337348
 31
0.0
  0
LINE
  5
452
330
1F
100
AcDbEntity
  8
0
  6
CONTINUOUS
 62
     7
100
AcDbLine
 10
1603.5893597678
 20
784.7898632416
 30
0.0
 11
1608.3721407727
 21
780.0070817711
 31
0.0
  0
LINE
  5
453
330
1F
100
AcDbEntity
  8
0
  6
CONTINUOUS
 62
     7
100
AcDbLine
 10
1597.1195885018
 20
783.7903720455
 30
0.0
 11
1598.1190838888
 21
784.7898632416
 31
0.0
  0
LINE
  5
454
330
1F
100
AcDbEntity
  8
0
  6
CONTINUOUS
 62
     7
100
AcDbLine
 10
1557.3542156294
 20
526.521943243
 30
0.0
 11
1559.3542196825
 21
526.521943243
 31
0.0
  0
LINE
  5
455
330
1F
100
AcDbEntity
  8
0
  6
CONTINUOUS
 62
     7
100
AcDbLine
 10
1559.3542196825
 20
526.521943243
 30
0.0
 11
1559.3542196825
 21
523.5219520645
 31
0.0
  0
LINE
  5
456
330
1F
100
AcDbEntity
  8
0
  6
CONTINUOUS
 62
     7
100
AcDbLine
 10
1559.3542196825
 20
523.5219520645
 30
0.0
 11
1557.3542156294
 21
523.5219520645
 31
0.0
  0
LINE
  5
457
330
1F
100
AcDbEntity
  8
0
  6
CONTINUOUS
 62
     7
100
AcDbLine
 10
1557.3542156294
 20
523.5219520645
 30
0.0
 11
1557.3542156294
 21
526.521943243
 31
0.0
  0
LINE
  5
458
330
1F
100
AcDbEntity
  8
0
  6
CONTINUOUS
 62
     7
100
AcDbLine
 10
1559.3542196825
 20
543.5219478922
 30
0.0
 11
1557.3542156294
 21
543.5219478922
 31
0.0
  0
LINE
  5
459
330
1F
100
AcDbEntity
  8
0
  6
CONTINUOUS
 62
     7
100
AcDbLine
 10
1559.3542196825
 20
543.5219478922
 30
0.0
 11
1559.3542196825
 21
526.521943243
 31
0.0
  0
LINE
  5
45A
330
1F
100
AcDbEntity
  8
0
  6
CONTINUOUS
 62
     7
100
AcDbLine
 10
1557.3542156294
 20
543.5219478922
 30
0.0
 11
1557.3542156294
 21
526.521943243
 31
0.0
  0
LINE
  5
45B
330
1F
100
AcDbEntity
  8
0
  6
CONTINUOUS
 62
     7
100
AcDbLine
 10
1557.3542156294
 20
546.5219539719
 30
0.0
 11
1559.3542196825
 21
546.5219539719
 31
0.0
  0
LINE
  5
45C
330
1F
100
AcDbEntity
  8
0
  6
CONTINUOUS
 62
     7
100
AcDbLine
 10
1559.3542196825
 20
546.5219539719
 30
0.0
 11
1559.3542196825
 21
543.5219478922
 31
0.0
  0
LINE
  5
45D
330
1F
100
AcDbEntity
  8
0
  6
CONTINUOUS
 62
     7
100
AcDbLine
 10
1557.3542156294
 20
543.5219478922
 30
0.0
 11
1557.3542156294
 21
546.5219539719
 31
0.0
  0
LINE
  5
45E
330
1F
100
AcDbEntity
  8
0
  6
CONTINUOUS
 62
     7
100
AcDbLine
 10
1557.3542156294
 20
1011.0219490843
 30
0.0
 11
1559.3542196825
 21
1011.0219490843
 31
0.0
  0
LINE
  5
45F
330
1F
100
AcDbEntity
  8
0
  6
CONTINUOUS
 62
     7
100
AcDbLine
 10
1559.3542196825
 20
1011.0219490843
 30
0.0
 11
1559.3542196825
 21
1008.0219430046
 31
0.0
  0
LINE
  5
460
330
1F
100
AcDbEntity
  8
0
  6
CONTINUOUS
 62
     7
100
AcDbLine
 10
1559.3542196825
 20
1008.0219430046
 30
0.0
 11
1557.3542156294
 21
1008.0219430046
 31
0.0
  0
LINE
  5
461
330
1F
100
AcDbEntity
  8
0
  6
CONTINUOUS
 62
     7
100
AcDbLine
 10
1557.3542156294
 20
1008.0219430046
 30
0.0
 11
1557.3542156294
 21
1011.0219490843
 31
0.0
  0
LINE
  5
462
330
1F
100
AcDbEntity
  8
0
  6
CONTINUOUS
 62
     7
100
AcDbLine
 10
1559.3542196825
 20
1028.0219537335
 30
0.0
 11
1557.3542156294
 21
1028.0219537335
 31
0.0
  0
LINE
  5
463
330
1F
100
AcDbEntity
  8
0
  6
CONTINUOUS
 62
     7
100
AcDbLine
 10
1559.3542196825
 20
1011.0219490843
 30
0.0
 11
1559.3542196825
 21
1028.0219537335
 31
0.0
  0
LINE
  5
464
330
1F
100
AcDbEntity
  8
0
  6
CONTINUOUS
 62
     7
100
AcDbLine
 10
1557.3542156294
 20
1011.0219490843
 30
0.0
 11
1557.3542156294
 21
1028.0219537335
 31
0.0
  0
LINE
  5
465
330
1F
100
AcDbEntity
  8
0
  6
CONTINUOUS
 62
     7
100
AcDbLine
 10
1557.3542156294
 20
1031.021944912
 30
0.0
 11
1559.3542196825
 21
1031.021944912
 31
0.0
  0
LINE
  5
466
330
1F
100
AcDbEntity
  8
0
  6
CONTINUOUS
 62
     7
100
AcDbLine
 10
1559.3542196825
 20
1031.021944912
 30
0.0
 11
1559.3542196825
 21
1028.0219537335
 31
0.0
  0
LINE
  5
467
330
1F
100
AcDbEntity
  8
0
  6
CONTINUOUS
 62
     7
100
AcDbLine
 10
1557.3542156294
 20
1028.0219537335
 30
0.0
 11
1557.3542156294
 21
1031.021944912
 31
0.0
  0
LINE
  5
468
330
1F
100
AcDbEntity
  8
0
  6
CONTINUOUS
 62
     7
100
AcDbLine
 10
2005.8542230204
 20
523.5219520645
 30
0.0
 11
2003.8542189673
 21
523.5219520645
 31
0.0
  0
LINE
  5
469
330
1F
100
AcDbEntity
  8
0
  6
CONTINUOUS
 62
     7
100
AcDbLine
 10
2003.8542189673
 20
526.521943243
 30
0.0
 11
2005.8542230204
 21
526.521943243
 31
0.0
  0
LINE
  5
46A
330
1F
100
AcDbEntity
  8
0
  6
CONTINUOUS
 62
     7
100
AcDbLine
 10
2005.8542230204
 20
526.521943243
 30
0.0
 11
2005.8542230204
 21
523.5219520645
 31
0.0
  0
LINE
  5
46B
330
1F
100
AcDbEntity
  8
0
  6
CONTINUOUS
 62
     7
100
AcDbLine
 10
2003.8542189673
 20
523.5219520645
 30
0.0
 11
2003.8542189673
 21
526.521943243
 31
0.0
  0
LINE
  5
46C
330
1F
100
AcDbEntity
  8
0
  6
CONTINUOUS
 62
     7
100
AcDbLine
 10
2005.8542230204
 20
543.5219478922
 30
0.0
 11
2003.8542189673
 21
543.5219478922
 31
0.0
  0
LINE
  5
46D
330
1F
100
AcDbEntity
  8
0
  6
CONTINUOUS
 62
     7
100
AcDbLine
 10
2005.8542230204
 20
543.5219478922
 30
0.0
 11
2005.8542230204
 21
526.521943243
 31
0.0
  0
LINE
  5
46E
330
1F
100
AcDbEntity
  8
0
  6
CONTINUOUS
 62
     7
100
AcDbLine
 10
2003.8542189673
 20
543.5219478922
 30
0.0
 11
2003.8542189673
 21
526.521943243
 31
0.0
  0
LINE
  5
46F
330
1F
100
AcDbEntity
  8
0
  6
CONTINUOUS
 62
     7
100
AcDbLine
 10
2003.8542189673
 20
546.5219539719
 30
0.0
 11
2005.8542230204
 21
546.5219539719
 31
0.0
  0
LINE
  5
470
330
1F
100
AcDbEntity
  8
0
  6
CONTINUOUS
 62
     7
100
AcDbLine
 10
2005.8542230204
 20
546.5219539719
 30
0.0
 11
2005.8542230204
 21
543.5219478922
 31
0.0
  0
LINE
  5
471
330
1F
100
AcDbEntity
  8
0
  6
CONTINUOUS
 62
     7
100
AcDbLine
 10
2003.8542189673
 20
543.5219478922
 30
0.0
 11
2003.8542189673
 21
546.5219539719
 31
0.0
  0
LINE
  5
472
330
1F
100
AcDbEntity
  8
0
  6
CONTINUOUS
 62
     7
100
AcDbLine
 10
2005.8542230204
 20
1008.0219430046
 30
0.0
 11
2003.8542189673
 21
1008.0219430046
 31
0.0
  0
LINE
  5
473
330
1F
100
AcDbEntity
  8
0
  6
CONTINUOUS
 62
     7
100
AcDbLine
 10
2003.8542189673
 20
1011.0219490843
 30
0.0
 11
2005.8542230204
 21
1011.0219490843
 31
0.0
  0
LINE
  5
474
330
1F
100
AcDbEntity
  8
0
  6
CONTINUOUS
 62
     7
100
AcDbLine
 10
2005.8542230204
 20
1011.0219490843
 30
0.0
 11
2005.8542230204
 21
1008.0219430046
 31
0.0
  0
LINE
  5
475
330
1F
100
AcDbEntity
  8
0
  6
CONTINUOUS
 62
     7
100
AcDbLine
 10
2003.8542189673
 20
1008.0219430046
 30
0.0
 11
2003.8542189673
 21
1011.0219490843
 31
0.0
  0
LINE
  5
476
330
1F
100
AcDbEntity
  8
0
  6
CONTINUOUS
 62
     7
100
AcDbLine
 10
2005.8542230204
 20
1028.0219537335
 30
0.0
 11
2003.8542189673
 21
1028.0219537335
 31
0.0
  0
LINE
  5
477
330
1F
100
AcDbEntity
  8
0
  6
CONTINUOUS
 62
     7
100
AcDbLine
 10
2005.8542230204
 20
1011.0219490843
 30
0.0
 11
2005.8542230204
 21
1028.0219537335
 31
0.0
  0
LINE
  5
478
330
1F
100
AcDbEntity
  8
0
  6
CONTINUOUS
 62
     7
100
AcDbLine
 10
2003.8542189673
 20
1011.0219490843
 30
0.0
 11
2003.8542189673
 21
1028.0219537335
 31
0.0
  0
LINE
  5
479
330
1F
100
AcDbEntity
  8
0
  6
CONTINUOUS
 62
     7
100
AcDbLine
 10
2003.8542189673
 20
1031.021944912
 30
0.0
 11
2005.8542230204
 21
1031.021944912
 31
0.0
  0
LINE
  5
47A
330
1F
100
AcDbEntity
  8
0
  6
CONTINUOUS
 62
     7
100
AcDbLine
 10
2005.8542230204
 20
1031.021944912
 30
0.0
 11
2005.8542230204
 21
1028.0219537335
 31
0.0
  0
LINE
  5
47B
330
1F
100
AcDbEntity
  8
0
  6
CONTINUOUS
 62
     7
100
AcDbLine
 10
2003.8542189673
 20
1028.0219537335
 30
0.0
 11
2003.8542189673
 21
1031.021944912
 31
0.0
  0
LINE
  5
47C
330
1F
100
AcDbEntity
  8
0
  6
CONTINUOUS
 62
     7
100
AcDbLine
 10
1557.3201515749
 20
542.5219458656
 30
0.0
 11
1557.3201515749
 21
527.5219452696
 31
0.0
  0
LINE
  5
47D
330
1F
100
AcDbEntity
  8
0
  6
CONTINUOUS
 62
     7
100
AcDbLine
 10
1557.3542156294
 20
542.5219458656
 30
0.0
 11
1557.3201515749
 21
542.5219458656
 31
0.0
  0
LINE
  5
47E
330
1F
100
AcDbEntity
  8
0
  6
CONTINUOUS
 62
     7
100
AcDbLine
 10
1557.3201515749
 20
527.5219452696
 30
0.0
 11
1557.3542156294
 21
527.5219452696
 31
0.0
  0
LINE
  5
47F
330
1F
100
AcDbEntity
  8
0
  6
CONTINUOUS
 62
     7
100
AcDbLine
 10
1557.3201515749
 20
1027.0219517069
 30
0.0
 11
1557.3201515749
 21
1012.0219511108
 31
0.0
  0
LINE
  5
480
330
1F
100
AcDbEntity
  8
0
  6
CONTINUOUS
 62
     7
100
AcDbLine
 10
1557.3542156294
 20
1027.0219517069
 30
0.0
 11
1557.3201515749
 21
1027.0219517069
 31
0.0
  0
LINE
  5
481
330
1F
100
AcDbEntity
  8
0
  6
CONTINUOUS
 62
     7
100
AcDbLine
 10
1557.3201515749
 20
1012.0219511108
 30
0.0
 11
1557.3542156294
 21
1012.0219511108
 31
0.0
  0
LINE
  5
482
330
1F
100
AcDbEntity
  8
0
  6
CONTINUOUS
 62
     7
100
AcDbLine
 10
2005.8882870749
 20
542.5219458656
 30
0.0
 11
2005.8542230204
 21
542.5219458656
 31
0.0
  0
LINE
  5
483
330
1F
100
AcDbEntity
  8
0
  6
CONTINUOUS
 62
     7
100
AcDbLine
 10
2005.8882870749
 20
527.5219452696
 30
0.0
 11
2005.8882870749
 21
542.5219458656
 31
0.0
  0
LINE
  5
484
330
1F
100
AcDbEntity
  8
0
  6
CONTINUOUS
 62
     7
100
AcDbLine
 10
2005.8542230204
 20
527.5219452696
 30
0.0
 11
2005.8882870749
 21
527.5219452696
 31
0.0
  0
LINE
  5
485
330
1F
100
AcDbEntity
  8
0
  6
CONTINUOUS
 62
     7
100
AcDbLine
 10
2005.8882870749
 20
1027.0219517069
 30
0.0
 11
2005.8542230204
 21
1027.0219517069
 31
0.0
  0
LINE
  5
486
330
1F
100
AcDbEntity
  8
0
  6
CONTINUOUS
 62
     7
100
AcDbLine
 10
2005.8882870749
 20
1012.0219511108
 30
0.0
 11
2005.8882870749
 21
1027.0219517069
 31
0.0
  0
LINE
  5
487
330
1F
100
AcDbEntity
  8
0
  6
CONTINUOUS
 62
     7
100
AcDbLine
 10
2005.8542230204
 20
1012.0219511108
 30
0.0
 11
2005.8882870749
 21
1012.0219511108
 31
0.0
  0
LINE
  5
488
330
1F
100
AcDbEntity
  8
0
  6
CONTINUOUS
 62
     7
100
AcDbLine
 10
1554.3777980879
 20
542.5219458656
 30
0.0
 11
1554.3777980879
 21
527.5219452696
 31
0.0
  0
LINE
  5
489
330
1F
100
AcDbEntity
  8
0
  6
CONTINUOUS
 62
     7
100
AcDbLine
 10
1557.3201515749
 20
542.5219458656
 30
0.0
 11
1554.3777980879
 21
542.5219458656
 31
0.0
  0
LINE
  5
48A
330
1F
100
AcDbEntity
  8
0
  6
CONTINUOUS
 62
     7
100
AcDbLine
 10
1554.3777980879
 20
527.5219452696
 30
0.0
 11
1557.3201515749
 21
527.5219452696
 31
0.0
  0
LINE
  5
48B
330
1F
100
AcDbEntity
  8
0
  6
CONTINUOUS
 62
     7
100
AcDbLine
 10
1554.3777980879
 20
1012.0219511108
 30
0.0
 11
1554.3777980879
 21
1027.0219517069
 31
0.0
  0
LINE
  5
48C
330
1F
100
AcDbEntity
  8
0
  6
CONTINUOUS
 62
     7
100
AcDbLine
 10
1554.3777980879
 20
1027.0219517069
 30
0.0
 11
1557.3201515749
 21
1027.0219517069
 31
0.0
  0
LINE
  5
48D
330
1F
100
AcDbEntity
  8
0
  6
CONTINUOUS
 62
     7
100
AcDbLine
 10
1557.3201515749
 20
1012.0219511108
 30
0.0
 11
1554.3777980879
 21
1012.0219511108
 31
0.0
  0
LINE
  5
48E
330
1F
100
AcDbEntity
  8
0
  6
CONTINUOUS
 62
     7
100
AcDbLine
 10
2008.8306405619
 20
542.5219458656
 30
0.0
 11
2008.8306405619
 21
527.5219452696
 31
0.0
  0
LINE
  5
48F
330
1F
100
AcDbEntity
  8
0
  6
CONTINUOUS
 62
     7
100
AcDbLine
 10
2005.8882870749
 20
542.5219458656
 30
0.0
 11
2008.8306405619
 21
542.5219458656
 31
0.0
  0
LINE
  5
490
330
1F
100
AcDbEntity
  8
0
  6
CONTINUOUS
 62
     7
100
AcDbLine
 10
2008.8306405619
 20
527.5219452696
 30
0.0
 11
2005.8882870749
 21
527.5219452696
 31
0.0
  0
LINE
  5
491
330
1F
100
AcDbEntity
  8
0
  6
CONTINUOUS
 62
     7
100
AcDbLine
 10
2008.8306405619
 20
1012.0219511108
 30
0.0
 11
2008.8306405619
 21
1027.0219517069
 31
0.0
  0
LINE
  5
492
330
1F
100
AcDbEntity
  8
0
  6
CONTINUOUS
 62
     7
100
AcDbLine
 10
2008.8306405619
 20
1027.0219517069
 30
0.0
 11
2005.8882870749
 21
1027.0219517069
 31
0.0
  0
LINE
  5
493
330
1F
100
AcDbEntity
  8
0
  6
CONTINUOUS
 62
     7
100
AcDbLine
 10
2005.8882870749
 20
1012.0219511108
 30
0.0
 11
2008.8306405619
 21
1012.0219511108
 31
0.0
  0
LINE
  5
494
330
1F
100
AcDbEntity
  8
0
  6
CONTINUOUS
 62
     7
100
AcDbLine
 10
1575.3542223051
 20
1061.5219396668
 30
0.0
 11
1578.8542219475
 21
1061.5219396668
 31
0.0
  0
LINE
  5
495
330
1F
100
AcDbEntity
  8
0
  6
CONTINUOUS
 62
     7
100
AcDbLine
 10
1575.3542223051
 20
493.0219573097
 30
0.0
 11
1575.3542223051
 21
1061.5219396668
 31
0.0
  0
LINE
  5
496
330
1F
100
AcDbEntity
  8
0
  6
CONTINUOUS
 62
     7
100
AcDbLine
 10
1578.8542219475
 20
493.0219573097
 30
0.0
 11
1575.3542223051
 21
493.0219573097
 31
0.0
  0
LINE
  5
497
330
1F
100
AcDbEntity
  8
0
  6
CONTINUOUS
 62
     7
100
AcDbLine
 10
1579.3542155102
 20
1061.5219396668
 30
0.0
 11
1578.8542219475
 21
1061.5219396668
 31
0.0
  0
ARC
  5
498
330
1F
100
AcDbEntity
  8
0
  6
CONTINUOUS
 62
     7
100
AcDbCircle
 10
1579.3542193249
 20
1058.5219484882
 30
0.0
 40
3.0
100
AcDbArc
 50
0.0
 51
90.0
  0
LINE
  5
499
330
1F
100
AcDbEntity
  8
0
  6
CONTINUOUS
 62
     7
100
AcDbLine
 10
1582.3542215899
 20
496.0219484882
 30
0.0
 11
1582.3542215899
 21
770.8627462516
 31
0.0
  0
LINE
  5
49A
330
1F
100
AcDbEntity
  8
0
  6
CONTINUOUS
 62
     7
100
AcDbLine
 10
1582.3542215899
 20
783.862902982
 30
0.0
 11
1582.3542215899
 21
1058.5219484882
 31
0.0
  0
ARC
  5
49B
330
1F
100
AcDbEntity
  8
0
  6
CONTINUOUS
 62
     7
100
AcDbCircle
 10
1579.3542193249
 20
496.0219484882
 30
0.0
 40
3.0
100
AcDbArc
 50
270.0
 51
0.0
  0
LINE
  5
49C
330
1F
100
AcDbEntity
  8
0
  6
CONTINUOUS
 62
     7
100
AcDbLine
 10
1578.8542219475
 20
493.0219573097
 30
0.0
 11
1579.3542155102
 21
493.0219573097
 31
0.0
  0
LINE
  5
49D
330
1F
100
AcDbEntity
  8
0
  6
CONTINUOUS
 62
     7
100
AcDbLine
 10
1596.3542201594
 20
471.0219425278
 30
0.0
 11
1596.3542201594
 21
474.5219570713
 31
0.0
  0
LINE
  5
49E
330
1F
100
AcDbEntity
  8
0
  6
CONTINUOUS
 62
     7
100
AcDbLine
 10
1966.8542184904
 20
474.5219570713
 30
0.0
 11
1596.3542201594
 21
474.5219570713
 31
0.0
  0
LINE
  5
49F
330
1F
100
AcDbEntity
  8
0
  6
CONTINUOUS
 62
     7
100
AcDbLine
 10
1966.8542184904
 20
474.5219570713
 30
0.0
 11
1966.8542184904
 21
471.0219425278
 31
0.0
  0
LINE
  5
4A0
330
1F
100
AcDbEntity
  8
0
  6
CONTINUOUS
 62
     7
100
AcDbLine
 10
1966.8542184904
 20
471.0219425278
 30
0.0
 11
1596.3542201594
 21
471.0219425278
 31
0.0
  0
ARC
  5
4A1
330
1F
100
AcDbEntity
  8
0
  6
CONTINUOUS
 62
     7
100
AcDbCircle
 10
1963.8542193249
 20
475.0219484882
 30
0.0
 40
3.0
100
AcDbArc
 50
0.0
 51
90.0
  0
LINE
  5
4A2
330
1F
100
AcDbEntity
  8
0
  6
CONTINUOUS
 62
     7
100
AcDbLine
 10
1966.8542184904
 20
474.5219570713
 30
0.0
 11
1966.8542184904
 21
475.021950634
 31
0.0
  0
LINE
  5
4A3
330
1F
100
AcDbEntity
  8
0
  6
CONTINUOUS
 62
     7
100
AcDbLine
 10
1596.3542201594
 20
475.021950634
 30
0.0
 11
1596.3542201594
 21
474.5219570713
 31
0.0
  0
ARC
  5
4A4
330
1F
100
AcDbEntity
  8
0
  6
CONTINUOUS
 62
     7
100
AcDbCircle
 10
1599.3542193249
 20
475.0219484882
 30
0.0
 40
3.000000000000227
100
AcDbArc
 50
90.0
 51
180.0
  0
LINE
  5
4A5
330
1F
100
AcDbEntity
  8
0
  6
CONTINUOUS
 62
     7
100
AcDbLine
 10
1963.8542124108
 20
478.0219418125
 30
0.0
 11
1599.354226239
 21
478.0219418125
 31
0.0
  0
LINE
  5
4A6
330
1F
100
AcDbEntity
  8
0
  6
CONTINUOUS
 62
     7
100
AcDbLine
 10
1577.3542263583
 20
481.0219627934
 30
0.0
 11
1575.3542223051
 21
481.0219627934
 31
0.0
  0
LINE
  5
4A7
330
1F
100
AcDbEntity
  8
0
  6
CONTINUOUS
 62
     7
100
AcDbLine
 10
1575.3542223051
 20
483.0219370441
 30
0.0
 11
1577.3542263583
 21
483.0219370441
 31
0.0
  0
LINE
  5
4A8
330
1F
100
AcDbEntity
  8
0
  6
CONTINUOUS
 62
     7
100
AcDbLine
 10
1577.3542263583
 20
483.0219370441
 30
0.0
 11
1577.3542263583
 21
481.0219627934
 31
0.0
  0
LINE
  5
4A9
330
1F
100
AcDbEntity
  8
0
  6
CONTINUOUS
 62
     7
100
AcDbLine
 10
1575.3542223051
 20
481.0219627934
 30
0.0
 11
1575.3542223051
 21
483.0219370441
 31
0.0
  0
LINE
  5
4AA
330
1F
100
AcDbEntity
  8
0
  6
CONTINUOUS
 62
     7
100
AcDbLine
 10
1577.3542263583
 20
492.021940382
 30
0.0
 11
1575.3542223051
 21
492.021940382
 31
0.0
  0
LINE
  5
4AB
330
1F
100
AcDbEntity
  8
0
  6
CONTINUOUS
 62
     7
100
AcDbLine
 10
1577.3542263583
 20
483.0219370441
 30
0.0
 11
1577.3542263583
 21
492.021940382
 31
0.0
  0
LINE
  5
4AC
330
1F
100
AcDbEntity
  8
0
  6
CONTINUOUS
 62
     7
100
AcDbLine
 10
1575.3542223051
 20
483.0219370441
 30
0.0
 11
1575.3542223051
 21
492.021940382
 31
0.0
  0
LINE
  5
4AD
330
1F
100
AcDbEntity
  8
0
  6
CONTINUOUS
 62
     7
100
AcDbLine
 10
1586.354214795
 20
473.0219465809
 30
0.0
 11
1586.354214795
 21
471.0219425278
 31
0.0
  0
LINE
  5
4AE
330
1F
100
AcDbEntity
  8
0
  6
CONTINUOUS
 62
     7
100
AcDbLine
 10
1586.354214795
 20
471.0219425278
 30
0.0
 11
1584.354225643
 21
471.0219425278
 31
0.0
  0
LINE
  5
4AF
330
1F
100
AcDbEntity
  8
0
  6
CONTINUOUS
 62
     7
100
AcDbLine
 10
1584.354225643
 20
471.0219425278
 30
0.0
 11
1584.354225643
 21
473.0219465809
 31
0.0
  0
LINE
  5
4B0
330
1F
100
AcDbEntity
  8
0
  6
CONTINUOUS
 62
     7
100
AcDbLine
 10
1584.354225643
 20
473.0219465809
 30
0.0
 11
1586.354214795
 21
473.0219465809
 31
0.0
  0
LINE
  5
4B1
330
1F
100
AcDbEntity
  8
0
  6
CONTINUOUS
 62
     7
100
AcDbLine
 10
1595.3542181328
 20
473.0219465809
 30
0.0
 11
1595.3542181328
 21
471.0219425278
 31
0.0
  0
LINE
  5
4B2
330
1F
100
AcDbEntity
  8
0
  6
CONTINUOUS
 62
     7
100
AcDbLine
 10
1595.3542181328
 20
473.0219465809
 30
0.0
 11
1586.354214795
 21
473.0219465809
 31
0.0
  0
LINE
  5
4B3
330
1F
100
AcDbEntity
  8
0
  6
CONTINUOUS
 62
     7
100
AcDbLine
 10
1595.3542181328
 20
471.0219425278
 30
0.0
 11
1586.354214795
 21
471.0219425278
 31
0.0
  0
LINE
  5
4B4
330
1F
100
AcDbEntity
  8
0
  6
CONTINUOUS
 62
     7
100
AcDbLine
 10
1577.3542263583
 20
1071.5219599323
 30
0.0
 11
1575.3542223051
 21
1071.5219599323
 31
0.0
  0
LINE
  5
4B5
330
1F
100
AcDbEntity
  8
0
  6
CONTINUOUS
 62
     7
100
AcDbLine
 10
1577.3542263583
 20
1062.5219565945
 30
0.0
 11
1575.3542223051
 21
1062.5219565945
 31
0.0
  0
LINE
  5
4B6
330
1F
100
AcDbEntity
  8
0
  6
CONTINUOUS
 62
     7
100
AcDbLine
 10
1577.3542263583
 20
1062.5219565945
 30
0.0
 11
1577.3542263583
 21
1071.5219599323
 31
0.0
  0
LINE
  5
4B7
330
1F
100
AcDbEntity
  8
0
  6
CONTINUOUS
 62
     7
100
AcDbLine
 10
1575.3542223051
 20
1062.5219565945
 30
0.0
 11
1575.3542223051
 21
1071.5219599323
 31
0.0
  0
LINE
  5
4B8
330
1F
100
AcDbEntity
  8
0
  6
CONTINUOUS
 62
     7
100
AcDbLine
 10
1575.3542223051
 20
1073.5219341831
 30
0.0
 11
1577.3542263583
 21
1073.5219341831
 31
0.0
  0
LINE
  5
4B9
330
1F
100
AcDbEntity
  8
0
  6
CONTINUOUS
 62
     7
100
AcDbLine
 10
1577.3542263583
 20
1073.5219341831
 30
0.0
 11
1577.3542263583
 21
1071.5219599323
 31
0.0
  0
LINE
  5
4BA
330
1F
100
AcDbEntity
  8
0
  6
CONTINUOUS
 62
     7
100
AcDbLine
 10
1575.3542223051
 20
1071.5219599323
 30
0.0
 11
1575.3542223051
 21
1073.5219341831
 31
0.0
  0
LINE
  5
4BB
330
1F
100
AcDbEntity
  8
0
  6
CONTINUOUS
 62
     7
100
AcDbLine
 10
1584.354225643
 20
1081.5219503956
 30
0.0
 11
1584.354225643
 21
1083.5219544487
 31
0.0
  0
LINE
  5
4BC
330
1F
100
AcDbEntity
  8
0
  6
CONTINUOUS
 62
     7
100
AcDbLine
 10
1584.354225643
 20
1083.5219544487
 30
0.0
 11
1586.354214795
 21
1083.5219544487
 31
0.0
  0
LINE
  5
4BD
330
1F
100
AcDbEntity
  8
0
  6
CONTINUOUS
 62
     7
100
AcDbLine
 10
1586.354214795
 20
1083.5219544487
 30
0.0
 11
1586.354214795
 21
1081.5219503956
 31
0.0
  0
LINE
  5
4BE
330
1F
100
AcDbEntity
  8
0
  6
CONTINUOUS
 62
     7
100
AcDbLine
 10
1586.354214795
 20
1081.5219503956
 30
0.0
 11
1584.354225643
 21
1081.5219503956
 31
0.0
  0
LINE
  5
4BF
330
1F
100
AcDbEntity
  8
0
  6
CONTINUOUS
 62
     7
100
AcDbLine
 10
1976.8542238549
 20
1081.5219503956
 30
0.0
 11
1976.8542238549
 21
1083.5219544487
 31
0.0
  0
LINE
  5
4C0
330
1F
100
AcDbEntity
  8
0
  6
CONTINUOUS
 62
     7
100
AcDbLine
 10
1976.8542238549
 20
1083.5219544487
 30
0.0
 11
1586.354214795
 21
1083.5219544487
 31
0.0
  0
LINE
  5
4C1
330
1F
100
AcDbEntity
  8
0
  6
CONTINUOUS
 62
     7
100
AcDbLine
 10
1976.8542238549
 20
1081.5219503956
 30
0.0
 11
1586.354214795
 21
1081.5219503956
 31
0.0
  0
LINE
  5
4C2
330
1F
100
AcDbEntity
  8
0
  6
CONTINUOUS
 62
     7
100
AcDbLine
 10
1976.8542238549
 20
471.0219425278
 30
0.0
 11
1976.8542238549
 21
473.0219465809
 31
0.0
  0
LINE
  5
4C3
330
1F
100
AcDbEntity
  8
0
  6
CONTINUOUS
 62
     7
100
AcDbLine
 10
1967.854220517
 20
473.0219465809
 30
0.0
 11
1967.854220517
 21
471.0219425278
 31
0.0
  0
LINE
  5
4C4
330
1F
100
AcDbEntity
  8
0
  6
CONTINUOUS
 62
     7
100
AcDbLine
 10
1976.8542238549
 20
473.0219465809
 30
0.0
 11
1967.854220517
 21
473.0219465809
 31
0.0
  0
LINE
  5
4C5
330
1F
100
AcDbEntity
  8
0
  6
CONTINUOUS
 62
     7
100
AcDbLine
 10
1976.8542238549
 20
471.0219425278
 30
0.0
 11
1967.854220517
 21
471.0219425278
 31
0.0
  0
LINE
  5
4C6
330
1F
100
AcDbEntity
  8
0
  6
CONTINUOUS
 62
     7
100
AcDbLine
 10
1978.8542130068
 20
473.0219465809
 30
0.0
 11
1978.8542130068
 21
471.0219425278
 31
0.0
  0
LINE
  5
4C7
330
1F
100
AcDbEntity
  8
0
  6
CONTINUOUS
 62
     7
100
AcDbLine
 10
1976.8542238549
 20
473.0219465809
 30
0.0
 11
1978.8542130068
 21
473.0219465809
 31
0.0
  0
LINE
  5
4C8
330
1F
100
AcDbEntity
  8
0
  6
CONTINUOUS
 62
     7
100
AcDbLine
 10
1978.8542130068
 20
471.0219425278
 30
0.0
 11
1976.8542238549
 21
471.0219425278
 31
0.0
  0
LINE
  5
4C9
330
1F
100
AcDbEntity
  8
0
  6
CONTINUOUS
 62
     7
100
AcDbLine
 10
1985.8542122916
 20
483.0219370441
 30
0.0
 11
1987.8542163447
 21
483.0219370441
 31
0.0
  0
LINE
  5
4CA
330
1F
100
AcDbEntity
  8
0
  6
CONTINUOUS
 62
     7
100
AcDbLine
 10
1987.8542163447
 20
483.0219370441
 30
0.0
 11
1987.8542163447
 21
481.0219627934
 31
0.0
  0
LINE
  5
4CB
330
1F
100
AcDbEntity
  8
0
  6
CONTINUOUS
 62
     7
100
AcDbLine
 10
1987.8542163447
 20
481.0219627934
 30
0.0
 11
1985.8542122916
 21
481.0219627934
 31
0.0
  0
LINE
  5
4CC
330
1F
100
AcDbEntity
  8
0
  6
CONTINUOUS
 62
     7
100
AcDbLine
 10
1985.8542122916
 20
481.0219627934
 30
0.0
 11
1985.8542122916
 21
483.0219370441
 31
0.0
  0
LINE
  5
4CD
330
1F
100
AcDbEntity
  8
0
  6
CONTINUOUS
 62
     7
100
AcDbLine
 10
1987.8542163447
 20
1071.5219599323
 30
0.0
 11
1985.8542122916
 21
1071.5219599323
 31
0.0
  0
LINE
  5
4CE
330
1F
100
AcDbEntity
  8
0
  6
CONTINUOUS
 62
     7
100
AcDbLine
 10
1987.8542163447
 20
483.0219370441
 30
0.0
 11
1987.8542163447
 21
1071.5219599323
 31
0.0
  0
LINE
  5
4CF
330
1F
100
AcDbEntity
  8
0
  6
CONTINUOUS
 62
     7
100
AcDbLine
 10
1985.8542122916
 20
483.0219370441
 30
0.0
 11
1985.8542122916
 21
1071.5219599323
 31
0.0
  0
LINE
  5
4D0
330
1F
100
AcDbEntity
  8
0
  6
CONTINUOUS
 62
     7
100
AcDbLine
 10
1978.8542130068
 20
1083.5219544487
 30
0.0
 11
1978.8542130068
 21
1081.5219503956
 31
0.0
  0
LINE
  5
4D1
330
1F
100
AcDbEntity
  8
0
  6
CONTINUOUS
 62
     7
100
AcDbLine
 10
1976.8542238549
 20
1083.5219544487
 30
0.0
 11
1978.8542130068
 21
1083.5219544487
 31
0.0
  0
LINE
  5
4D2
330
1F
100
AcDbEntity
  8
0
  6
CONTINUOUS
 62
     7
100
AcDbLine
 10
1978.8542130068
 20
1081.5219503956
 30
0.0
 11
1976.8542238549
 21
1081.5219503956
 31
0.0
  0
LINE
  5
4D3
330
1F
100
AcDbEntity
  8
0
  6
CONTINUOUS
 62
     7
100
AcDbLine
 10
1985.8542122916
 20
1073.5219341831
 30
0.0
 11
1987.8542163447
 21
1073.5219341831
 31
0.0
  0
LINE
  5
4D4
330
1F
100
AcDbEntity
  8
0
  6
CONTINUOUS
 62
     7
100
AcDbLine
 10
1987.8542163447
 20
1073.5219341831
 30
0.0
 11
1987.8542163447
 21
1071.5219599323
 31
0.0
  0
LINE
  5
4D5
330
1F
100
AcDbEntity
  8
0
  6
CONTINUOUS
 62
     7
100
AcDbLine
 10
1985.8542122916
 20
1071.5219599323
 30
0.0
 11
1985.8542122916
 21
1073.5219341831
 31
0.0
  0
LINE
  5
4D6
330
1F
100
AcDbEntity
  8
0
  6
CONTINUOUS
 62
     7
100
AcDbLine
 10
1596.3542201594
 20
473.0219465809
 30
0.0
 11
1595.3542181328
 21
473.0219465809
 31
0.0
  0
LINE
  5
4D7
330
1F
100
AcDbEntity
  8
0
  6
CONTINUOUS
 62
     7
100
AcDbLine
 10
1596.3542201594
 20
471.0219425278
 30
0.0
 11
1595.3542181328
 21
471.0219425278
 31
0.0
  0
LINE
  5
4D8
330
1F
100
AcDbEntity
  8
0
  6
CONTINUOUS
 62
     7
100
AcDbLine
 10
1577.3542263583
 20
492.021940382
 30
0.0
 11
1577.3542263583
 21
493.0219573097
 31
0.0
  0
LINE
  5
4D9
330
1F
100
AcDbEntity
  8
0
  6
CONTINUOUS
 62
     7
100
AcDbLine
 10
1575.3542223051
 20
492.021940382
 30
0.0
 11
1575.3542223051
 21
493.0219573097
 31
0.0
  0
LINE
  5
4DA
330
1F
100
AcDbEntity
  8
0
  6
CONTINUOUS
 62
     7
100
AcDbLine
 10
1577.3542263583
 20
1061.5219396668
 30
0.0
 11
1577.3542263583
 21
1062.5219565945
 31
0.0
  0
LINE
  5
4DB
330
1F
100
AcDbEntity
  8
0
  6
CONTINUOUS
 62
     7
100
AcDbLine
 10
1575.3542223051
 20
1061.5219396668
 30
0.0
 11
1575.3542223051
 21
1062.5219565945
 31
0.0
  0
LINE
  5
4DC
330
1F
100
AcDbEntity
  8
0
  6
CONTINUOUS
 62
     7
100
AcDbLine
 10
1967.854220517
 20
473.0219465809
 30
0.0
 11
1966.8542184904
 21
473.0219465809
 31
0.0
  0
LINE
  5
4DD
330
1F
100
AcDbEntity
  8
0
  6
CONTINUOUS
 62
     7
100
AcDbLine
 10
1967.854220517
 20
471.0219425278
 30
0.0
 11
1966.8542184904
 21
471.0219425278
 31
0.0
  0
LINE
  5
4DE
330
1F
100
AcDbEntity
  8
0
  6
CONTINUOUS
 62
     7
100
AcDbLine
 10
1560.8542152718
 20
546.5219539719
 30
0.0
 11
1559.3542196825
 21
546.5219539719
 31
0.0
  0
LINE
  5
4DF
330
1F
100
AcDbEntity
  8
0
  6
CONTINUOUS
 62
     7
100
AcDbLine
 10
1560.8542152718
 20
523.5219520645
 30
0.0
 11
1560.8542152718
 21
546.5219539719
 31
0.0
  0
LINE
  5
4E0
330
1F
100
AcDbEntity
  8
0
  6
CONTINUOUS
 62
     7
100
AcDbLine
 10
1559.3542196825
 20
523.5219520645
 30
0.0
 11
1560.8542152718
 21
523.5219520645
 31
0.0
  0
LINE
  5
4E1
330
1F
100
AcDbEntity
  8
0
  6
CONTINUOUS
 62
     7
100
AcDbLine
 10
1560.8542152718
 20
1031.021944912
 30
0.0
 11
1559.3542196825
 21
1031.021944912
 31
0.0
  0
LINE
  5
4E2
330
1F
100
AcDbEntity
  8
0
  6
CONTINUOUS
 62
     7
100
AcDbLine
 10
1560.8542152718
 20
1008.0219430046
 30
0.0
 11
1560.8542152718
 21
1031.021944912
 31
0.0
  0
LINE
  5
4E3
330
1F
100
AcDbEntity
  8
0
  6
CONTINUOUS
 62
     7
100
AcDbLine
 10
1559.3542196825
 20
1008.0219430046
 30
0.0
 11
1560.8542152718
 21
1008.0219430046
 31
0.0
  0
LINE
  5
4E4
330
1F
100
AcDbEntity
  8
0
  6
CONTINUOUS
 62
     7
100
AcDbLine
 10
2003.8542189673
 20
546.5219539719
 30
0.0
 11
2002.354223378
 21
546.5219539719
 31
0.0
  0
LINE
  5
4E5
330
1F
100
AcDbEntity
  8
0
  6
CONTINUOUS
 62
     7
100
AcDbLine
 10
2002.354223378
 20
523.5219520645
 30
0.0
 11
2003.8542189673
 21
523.5219520645
 31
0.0
  0
LINE
  5
4E6
330
1F
100
AcDbEntity
  8
0
  6
CONTINUOUS
 62
     7
100
AcDbLine
 10
2002.354223378
 20
546.5219539719
 30
0.0
 11
2002.354223378
 21
523.5219520645
 31
0.0
  0
LINE
  5
4E7
330
1F
100
AcDbEntity
  8
0
  6
CONTINUOUS
 62
     7
100
AcDbLine
 10
2003.8542189673
 20
1031.021944912
 30
0.0
 11
2002.354223378
 21
1031.021944912
 31
0.0
  0
LINE
  5
4E8
330
1F
100
AcDbEntity
  8
0
  6
CONTINUOUS
 62
     7
100
AcDbLine
 10
2002.354223378
 20
1031.021944912
 30
0.0
 11
2002.354223378
 21
1008.0219430046
 31
0.0
  0
LINE
  5
4E9
330
1F
100
AcDbEntity
  8
0
  6
CONTINUOUS
 62
     7
100
AcDbLine
 10
2002.354223378
 20
1008.0219430046
 30
0.0
 11
2003.8542189673
 21
1008.0219430046
 31
0.0
  0
LINE
  5
4EA
330
1F
100
AcDbEntity
  8
0
  6
CONTINUOUS
 62
     7
100
AcDbLine
 10
1584.354225643
 20
471.0219425278
 30
0.0
 11
1584.354225643
 21
469.5219618397
 31
0.0
  0
LINE
  5
4EB
330
1F
100
AcDbEntity
  8
0
  6
CONTINUOUS
 62
     7
100
AcDbLine
 10
1978.8542130068
 20
469.5219618397
 30
0.0
 11
1978.8542130068
 21
471.0219425278
 31
0.0
  0
LINE
  5
4EC
330
1F
100
AcDbEntity
  8
0
  6
CONTINUOUS
 62
     7
100
AcDbLine
 10
1584.354225643
 20
469.5219618397
 30
0.0
 11
1978.8542130068
 21
469.5219618397
 31
0.0
  0
LINE
  5
4ED
330
1F
100
AcDbEntity
  8
0
  6
CONTINUOUS
 62
     7
100
AcDbLine
 10
1575.3542223051
 20
1073.5219341831
 30
0.0
 11
1573.8542267159
 21
1073.5219341831
 31
0.0
  0
LINE
  5
4EE
330
1F
100
AcDbEntity
  8
0
  6
CONTINUOUS
 62
     7
100
AcDbLine
 10
1573.8542267159
 20
1073.5219341831
 30
0.0
 11
1573.8542267159
 21
481.0219627934
 31
0.0
  0
LINE
  5
4EF
330
1F
100
AcDbEntity
  8
0
  6
CONTINUOUS
 62
     7
100
AcDbLine
 10
1573.8542267159
 20
481.0219627934
 30
0.0
 11
1575.3542223051
 21
481.0219627934
 31
0.0
  0
LINE
  5
4F0
330
1F
100
AcDbEntity
  8
0
  6
CONTINUOUS
 62
     7
100
AcDbLine
 10
1978.8542130068
 20
1083.5219544487
 30
0.0
 11
1978.8542130068
 21
1085.0219351368
 31
0.0
  0
LINE
  5
4F1
330
1F
100
AcDbEntity
  8
0
  6
CONTINUOUS
 62
     7
100
AcDbLine
 10
1584.354225643
 20
1085.0219351368
 30
0.0
 11
1584.354225643
 21
1083.5219544487
 31
0.0
  0
LINE
  5
4F2
330
1F
100
AcDbEntity
  8
0
  6
CONTINUOUS
 62
     7
100
AcDbLine
 10
1978.8542130068
 20
1085.0219351368
 30
0.0
 11
1584.354225643
 21
1085.0219351368
 31
0.0
  0
LINE
  5
4F3
330
1F
100
AcDbEntity
  8
0
  6
CONTINUOUS
 62
     7
100
AcDbLine
 10
1989.3542119339
 20
1073.5219341831
 30
0.0
 11
1987.8542163447
 21
1073.5219341831
 31
0.0
  0
LINE
  5
4F4
330
1F
100
AcDbEntity
  8
0
  6
CONTINUOUS
 62
     7
100
AcDbLine
 10
1989.3542119339
 20
481.0219627934
 30
0.0
 11
1989.3542119339
 21
1073.5219341831
 31
0.0
  0
LINE
  5
4F5
330
1F
100
AcDbEntity
  8
0
  6
CONTINUOUS
 62
     7
100
AcDbLine
 10
1987.8542163447
 20
481.0219627934
 30
0.0
 11
1989.3542119339
 21
481.0219627934
 31
0.0
  0
LINE
  5
4F6
330
1F
100
AcDbEntity
  8
0
  6
CONTINUOUS
 62
     7
100
AcDbLine
 10
1985.8543165997
 20
481.0118598061
 30
0.0
 11
1985.8543165997
 21
481.0218435841
 31
0.0
  0
LINE
  5
4F7
330
1F
100
AcDbEntity
  8
0
  6
CONTINUOUS
 62
     7
100
AcDbLine
 10
1990.8542224243
 20
481.0118598061
 30
0.0
 11
1985.8543165997
 21
481.0118598061
 31
0.0
  0
LINE
  5
4F8
330
1F
100
AcDbEntity
  8
0
  6
CONTINUOUS
 62
     7
100
AcDbLine
 10
1990.8542224243
 20
481.0218435841
 30
0.0
 11
1985.8543165997
 21
481.0218435841
 31
0.0
  0
LINE
  5
4F9
330
1F
100
AcDbEntity
  8
0
  6
CONTINUOUS
 62
     7
100
AcDbLine
 10
1990.8542224243
 20
1073.5320371704
 30
0.0
 11
1985.8543165997
 21
1073.5320371704
 31
0.0
  0
LINE
  5
4FA
330
1F
100
AcDbEntity
  8
0
  6
CONTINUOUS
 62
     7
100
AcDbLine
 10
1985.8543165997
 20
1073.5320371704
 30
0.0
 11
1985.8543165997
 21
1073.5220533924
 31
0.0
  0
LINE
  5
4FB
330
1F
100
AcDbEntity
  8
0
  6
CONTINUOUS
 62
     7
100
AcDbLine
 10
1990.8542224243
 20
1073.5220533924
 30
0.0
 11
1985.8543165997
 21
1073.5220533924
 31
0.0
  0
LINE
  5
4FC
330
1F
100
AcDbEntity
  8
0
  6
CONTINUOUS
 62
     7
100
AcDbLine
 10
1572.3542162255
 20
481.0118598061
 30
0.0
 11
1577.3541220501
 21
481.0118598061
 31
0.0
  0
LINE
  5
4FD
330
1F
100
AcDbEntity
  8
0
  6
CONTINUOUS
 62
     7
100
AcDbLine
 10
1577.3541220501
 20
481.0118598061
 30
0.0
 11
1577.3541220501
 21
481.0218435841
 31
0.0
  0
LINE
  5
4FE
330
1F
100
AcDbEntity
  8
0
  6
CONTINUOUS
 62
     7
100
AcDbLine
 10
1572.3542162255
 20
481.0218435841
 30
0.0
 11
1577.3541220501
 21
481.0218435841
 31
0.0
  0
LINE
  5
4FF
330
1F
100
AcDbEntity
  8
0
  6
CONTINUOUS
 62
     7
100
AcDbLine
 10
1577.3542263583
 20
478.0219418125
 30
0.0
 11
1577.3542263583
 21
481.0219627934
 31
0.0
  0
ARC
  5
500
330
1F
100
AcDbEntity
  8
0
  6
CONTINUOUS
 62
     7
100
AcDbCircle
 10
1582.3542193249
 20
478.0219484882
 30
0.0
 40
5.0
100
AcDbArc
 50
180.0
 51
270.0
  0
LINE
  5
501
330
1F
100
AcDbEntity
  8
0
  6
CONTINUOUS
 62
     7
100
AcDbLine
 10
1583.3542236164
 20
473.0219465809
 30
0.0
 11
1582.3542215899
 21
473.0219465809
 31
0.0
  0
LINE
  5
502
330
1F
100
AcDbEntity
  8
0
  6
CONTINUOUS
 62
     7
100
AcDbLine
 10
1583.3542236164
 20
473.0219465809
 30
0.0
 11
1583.3542236164
 21
468.521944912
 31
0.0
  0
LINE
  5
503
330
1F
100
AcDbEntity
  8
0
  6
CONTINUOUS
 62
     7
100
AcDbLine
 10
1583.3542236164
 20
468.521944912
 30
0.0
 11
1584.354225643
 21
468.521944912
 31
0.0
  0
LINE
  5
504
330
1F
100
AcDbEntity
  8
0
  6
CONTINUOUS
 62
     7
100
AcDbLine
 10
1584.354225643
 20
468.521944912
 30
0.0
 11
1584.354225643
 21
469.5219618397
 31
0.0
  0
LINE
  5
505
330
1F
100
AcDbEntity
  8
0
  6
CONTINUOUS
 62
     7
100
AcDbLine
 10
1978.8542130068
 20
469.5219618397
 30
0.0
 11
1978.8542130068
 21
468.521944912
 31
0.0
  0
LINE
  5
506
330
1F
100
AcDbEntity
  8
0
  6
CONTINUOUS
 62
     7
100
AcDbLine
 10
1978.8542130068
 20
468.521944912
 30
0.0
 11
1979.8542150334
 21
468.521944912
 31
0.0
  0
LINE
  5
507
330
1F
100
AcDbEntity
  8
0
  6
CONTINUOUS
 62
     7
100
AcDbLine
 10
1979.8542150334
 20
468.521944912
 30
0.0
 11
1979.8542150334
 21
473.0219465809
 31
0.0
  0
LINE
  5
508
330
1F
100
AcDbEntity
  8
0
  6
CONTINUOUS
 62
     7
100
AcDbLine
 10
1980.8542170599
 20
473.0219465809
 30
0.0
 11
1979.8542150334
 21
473.0219465809
 31
0.0
  0
ARC
  5
509
330
1F
100
AcDbEntity
  8
0
  6
CONTINUOUS
 62
     7
100
AcDbCircle
 10
1980.8542193249
 20
478.0219484882
 30
0.0
 40
5.0
100
AcDbArc
 50
270.0
 51
0.0
  0
LINE
  5
50A
330
1F
100
AcDbEntity
  8
0
  6
CONTINUOUS
 62
     7
100
AcDbLine
 10
1985.8542122916
 20
481.0219627934
 30
0.0
 11
1985.8542122916
 21
478.0219418125
 31
0.0
  0
LINE
  5
50B
330
1F
100
AcDbEntity
  8
0
  6
CONTINUOUS
 62
     7
100
AcDbLine
 10
1985.8542122916
 20
1076.521955164
 30
0.0
 11
1985.8542122916
 21
1073.5219341831
 31
0.0
  0
ARC
  5
50C
330
1F
100
AcDbEntity
  8
0
  6
CONTINUOUS
 62
     7
100
AcDbCircle
 10
1980.8542193249
 20
1076.5219484882
 30
0.0
 40
5.0
100
AcDbArc
 50
0.0
 51
90.0
  0
LINE
  5
50D
330
1F
100
AcDbEntity
  8
0
  6
CONTINUOUS
 62
     7
100
AcDbLine
 10
1979.8542150334
 20
1081.5219503956
 30
0.0
 11
1980.8542170599
 21
1081.5219503956
 31
0.0
  0
LINE
  5
50E
330
1F
100
AcDbEntity
  8
0
  6
CONTINUOUS
 62
     7
100
AcDbLine
 10
1979.8542150334
 20
1081.5219503956
 30
0.0
 11
1979.8542150334
 21
1086.0219520645
 31
0.0
  0
LINE
  5
50F
330
1F
100
AcDbEntity
  8
0
  6
CONTINUOUS
 62
     7
100
AcDbLine
 10
1979.8542150334
 20
1086.0219520645
 30
0.0
 11
1978.8542130068
 21
1086.0219520645
 31
0.0
  0
LINE
  5
510
330
1F
100
AcDbEntity
  8
0
  6
CONTINUOUS
 62
     7
100
AcDbLine
 10
1978.8542130068
 20
1086.0219520645
 30
0.0
 11
1978.8542130068
 21
1085.0219351368
 31
0.0
  0
LINE
  5
511
330
1F
100
AcDbEntity
  8
0
  6
CONTINUOUS
 62
     7
100
AcDbLine
 10
1584.354225643
 20
1085.0219351368
 30
0.0
 11
1584.354225643
 21
1086.0219520645
 31
0.0
  0
LINE
  5
512
330
1F
100
AcDbEntity
  8
0
  6
CONTINUOUS
 62
     7
100
AcDbLine
 10
1584.354225643
 20
1086.0219520645
 30
0.0
 11
1583.3542236164
 21
1086.0219520645
 31
0.0
  0
LINE
  5
513
330
1F
100
AcDbEntity
  8
0
  6
CONTINUOUS
 62
     7
100
AcDbLine
 10
1583.3542236164
 20
1086.0219520645
 30
0.0
 11
1583.3542236164
 21
1081.5219503956
 31
0.0
  0
LINE
  5
514
330
1F
100
AcDbEntity
  8
0
  6
CONTINUOUS
 62
     7
100
AcDbLine
 10
1582.3542215899
 20
1081.5219503956
 30
0.0
 11
1583.3542236164
 21
1081.5219503956
 31
0.0
  0
ARC
  5
515
330
1F
100
AcDbEntity
  8
0
  6
CONTINUOUS
 62
     7
100
AcDbCircle
 10
1582.3542193249
 20
1076.5219484882
 30
0.0
 40
5.0
100
AcDbArc
 50
90.0
 51
180.0
  0
LINE
  5
516
330
1F
100
AcDbEntity
  8
0
  6
CONTINUOUS
 62
     7
100
AcDbLine
 10
1577.3542263583
 20
1073.5219341831
 30
0.0
 11
1577.3542263583
 21
1076.521955164
 31
0.0
  0
LINE
  5
517
330
1F
100
AcDbEntity
  8
0
  6
CONTINUOUS
 62
     7
100
AcDbLine
 10
2005.8542230204
 20
1061.5219396668
 30
0.0
 11
2005.8542230204
 21
1031.5219384747
 31
0.0
  0
LINE
  5
518
330
1F
100
AcDbEntity
  8
0
  6
CONTINUOUS
 62
     7
100
AcDbLine
 10
2005.8542230204
 20
1031.5219384747
 30
0.0
 11
2002.354223378
 21
1031.5219384747
 31
0.0
  0
LINE
  5
519
330
1F
100
AcDbEntity
  8
0
  6
CONTINUOUS
 62
     7
100
AcDbLine
 10
2002.354223378
 20
1031.5219384747
 30
0.0
 11
2002.354223378
 21
1031.021944912
 31
0.0
  0
LINE
  5
51A
330
1F
100
AcDbEntity
  8
0
  6
CONTINUOUS
 62
     7
100
AcDbLine
 10
2002.354223378
 20
1008.0219430046
 30
0.0
 11
2002.354223378
 21
1007.5219494419
 31
0.0
  0
LINE
  5
51B
330
1F
100
AcDbEntity
  8
0
  6
CONTINUOUS
 62
     7
100
AcDbLine
 10
2002.354223378
 20
1007.5219494419
 30
0.0
 11
2005.8542230204
 21
1007.5219494419
 31
0.0
  0
LINE
  5
51C
330
1F
100
AcDbEntity
  8
0
  6
CONTINUOUS
 62
     7
100
AcDbLine
 10
2005.8542230204
 20
1007.5219494419
 30
0.0
 11
2005.8542230204
 21
547.0219475346
 31
0.0
  0
LINE
  5
51D
330
1F
100
AcDbEntity
  8
0
  6
CONTINUOUS
 62
     7
100
AcDbLine
 10
2005.8542230204
 20
547.0219475346
 30
0.0
 11
2002.354223378
 21
547.0219475346
 31
0.0
  0
LINE
  5
51E
330
1F
100
AcDbEntity
  8
0
  6
CONTINUOUS
 62
     7
100
AcDbLine
 10
2002.354223378
 20
547.0219475346
 30
0.0
 11
2002.354223378
 21
546.5219539719
 31
0.0
  0
LINE
  5
51F
330
1F
100
AcDbEntity
  8
0
  6
CONTINUOUS
 62
     7
100
AcDbLine
 10
2002.354223378
 20
523.5219520645
 30
0.0
 11
2002.354223378
 21
523.0219585018
 31
0.0
  0
LINE
  5
520
330
1F
100
AcDbEntity
  8
0
  6
CONTINUOUS
 62
     7
100
AcDbLine
 10
2002.354223378
 20
523.0219585018
 30
0.0
 11
2005.8542230204
 21
523.0219585018
 31
0.0
  0
LINE
  5
521
330
1F
100
AcDbEntity
  8
0
  6
CONTINUOUS
 62
     7
100
AcDbLine
 10
2005.8542230204
 20
523.0219585018
 30
0.0
 11
2005.8542230204
 21
493.0219573097
 31
0.0
  0
LINE
  5
522
330
1F
100
AcDbEntity
  8
0
  6
CONTINUOUS
 62
     7
100
AcDbLine
 10
1965.8542164639
 20
453.0219358521
 30
0.0
 11
1597.3542221859
 21
453.0219358521
 31
0.0
  0
LINE
  5
523
330
1F
100
AcDbEntity
  8
0
  6
CONTINUOUS
 62
     7
100
AcDbLine
 10
1557.3542156294
 20
493.0219573097
 30
0.0
 11
1557.3542156294
 21
523.0219585018
 31
0.0
  0
LINE
  5
524
330
1F
100
AcDbEntity
  8
0
  6
CONTINUOUS
 62
     7
100
AcDbLine
 10
1557.3542156294
 20
523.0219585018
 30
0.0
 11
1560.8542152718
 21
523.0219585018
 31
0.0
  0
LINE
  5
525
330
1F
100
AcDbEntity
  8
0
  6
CONTINUOUS
 62
     7
100
AcDbLine
 10
1560.8542152718
 20
523.0219585018
 30
0.0
 11
1560.8542152718
 21
523.5219520645
 31
0.0
  0
LINE
  5
526
330
1F
100
AcDbEntity
  8
0
  6
CONTINUOUS
 62
     7
100
AcDbLine
 10
1560.8542152718
 20
546.5219539719
 30
0.0
 11
1560.8542152718
 21
547.0219475346
 31
0.0
  0
LINE
  5
527
330
1F
100
AcDbEntity
  8
0
  6
CONTINUOUS
 62
     7
100
AcDbLine
 10
1560.8542152718
 20
547.0219475346
 30
0.0
 11
1557.3542156294
 21
547.0219475346
 31
0.0
  0
LINE
  5
528
330
1F
100
AcDbEntity
  8
0
  6
CONTINUOUS
 62
     7
100
AcDbLine
 10
1557.3542156294
 20
547.0219475346
 30
0.0
 11
1557.3542156294
 21
1007.5219494419
 31
0.0
  0
LINE
  5
529
330
1F
100
AcDbEntity
  8
0
  6
CONTINUOUS
 62
     7
100
AcDbLine
 10
1557.3542156294
 20
1007.5219494419
 30
0.0
 11
1560.8542152718
 21
1007.5219494419
 31
0.0
  0
LINE
  5
52A
330
1F
100
AcDbEntity
  8
0
  6
CONTINUOUS
 62
     7
100
AcDbLine
 10
1560.8542152718
 20
1007.5219494419
 30
0.0
 11
1560.8542152718
 21
1008.0219430046
 31
0.0
  0
LINE
  5
52B
330
1F
100
AcDbEntity
  8
0
  6
CONTINUOUS
 62
     7
100
AcDbLine
 10
1560.8542152718
 20
1031.021944912
 30
0.0
 11
1560.8542152718
 21
1031.5219384747
 31
0.0
  0
LINE
  5
52C
330
1F
100
AcDbEntity
  8
0
  6
CONTINUOUS
 62
     7
100
AcDbLine
 10
1560.8542152718
 20
1031.5219384747
 30
0.0
 11
1557.3542156294
 21
1031.5219384747
 31
0.0
  0
LINE
  5
52D
330
1F
100
AcDbEntity
  8
0
  6
CONTINUOUS
 62
     7
100
AcDbLine
 10
1557.3542156294
 20
1031.5219384747
 30
0.0
 11
1557.3542156294
 21
1061.5219396668
 31
0.0
  0
LINE
  5
52E
330
1F
100
AcDbEntity
  8
0
  6
CONTINUOUS
 62
     7
100
AcDbLine
 10
1597.3542221859
 20
1101.5219611244
 30
0.0
 11
1965.8542164639
 21
1101.5219611244
 31
0.0
  0
LINE
  5
52F
330
1F
100
AcDbEntity
  8
0
  6
CONTINUOUS
 62
     7
100
AcDbLine
 10
1577.3541220501
 20
1073.5320371704
 30
0.0
 11
1577.3541220501
 21
1073.5220533924
 31
0.0
  0
LINE
  5
530
330
1F
100
AcDbEntity
  8
0
  6
CONTINUOUS
 62
     7
100
AcDbLine
 10
1572.3542162255
 20
1073.5320371704
 30
0.0
 11
1577.3541220501
 21
1073.5320371704
 31
0.0
  0
LINE
  5
531
330
1F
100
AcDbEntity
  8
0
  6
CONTINUOUS
 62
     7
100
AcDbLine
 10
1572.3542162255
 20
1073.5220533924
 30
0.0
 11
1577.3541220501
 21
1073.5220533924
 31
0.0
  0
LINE
  5
532
330
1F
100
AcDbEntity
  8
0
  6
CONTINUOUS
 62
     7
100
AcDbLine
 10
1982.5257995203
 20
454.1935247498
 30
0.0
 11
2004.6826490239
 21
476.3503891544
 31
0.0
  0
ARC
  5
533
330
1F
100
AcDbEntity
  8
0
  6
CONTINUOUS
 62
     7
100
AcDbCircle
 10
1979.6973650754
 20
457.0219484882
 30
0.0
 40
4.000000000000234
100
AcDbArc
 50
270.0
 51
315.0
  0
LINE
  5
534
330
1F
100
AcDbEntity
  8
0
  6
CONTINUOUS
 62
     7
100
AcDbLine
 10
1965.8542164639
 20
453.0219358521
 30
0.0
 11
1979.6973654106
 21
453.0219358521
 31
0.0
  0
LINE
  5
535
330
1F
100
AcDbEntity
  8
0
  6
CONTINUOUS
 62
     7
100
AcDbLine
 10
1965.8542164639
 20
468.0219513493
 30
0.0
 11
1965.8542164639
 21
453.0219358521
 31
0.0
  0
LINE
  5
536
330
1F
100
AcDbEntity
  8
0
  6
CONTINUOUS
 62
     7
100
AcDbLine
 10
1980.8542170599
 20
468.0219513493
 30
0.0
 11
1965.8542164639
 21
468.0219513493
 31
0.0
  0
LINE
  5
537
330
1F
100
AcDbEntity
  8
0
  6
CONTINUOUS
 62
     7
100
AcDbLine
 10
1990.8542224243
 20
478.0219418125
 30
0.0
 11
1980.8542170599
 21
468.0219513493
 31
0.0
  0
LINE
  5
538
330
1F
100
AcDbEntity
  8
0
  6
CONTINUOUS
 62
     7
100
AcDbLine
 10
1990.8542224243
 20
493.0219573097
 30
0.0
 11
1990.8542224243
 21
478.0219418125
 31
0.0
  0
LINE
  5
539
330
1F
100
AcDbEntity
  8
0
  6
CONTINUOUS
 62
     7
100
AcDbLine
 10
2005.8542230204
 20
493.0219573097
 30
0.0
 11
1990.8542224243
 21
493.0219573097
 31
0.0
  0
LINE
  5
53A
330
1F
100
AcDbEntity
  8
0
  6
CONTINUOUS
 62
     7
100
AcDbLine
 10
2005.8542230204
 20
479.178808363
 30
0.0
 11
2005.8542230204
 21
493.0219573097
 31
0.0
  0
ARC
  5
53B
330
1F
100
AcDbEntity
  8
0
  6
CONTINUOUS
 62
     7
100
AcDbCircle
 10
2001.8542193249
 20
479.1788027377
 30
0.0
 40
4.000000000000227
100
AcDbArc
 50
315.0
 51
0.0
  0
LINE
  5
53C
330
1F
100
AcDbEntity
  8
0
  6
CONTINUOUS
 62
     7
100
AcDbLine
 10
1557.3542156294
 20
493.0219573097
 30
0.0
 11
1557.3542156294
 21
479.178808363
 31
0.0
  0
LINE
  5
53D
330
1F
100
AcDbEntity
  8
0
  6
CONTINUOUS
 62
     7
100
AcDbLine
 10
1572.3542162255
 20
493.0219573097
 30
0.0
 11
1557.3542156294
 21
493.0219573097
 31
0.0
  0
LINE
  5
53E
330
1F
100
AcDbEntity
  8
0
  6
CONTINUOUS
 62
     7
100
AcDbLine
 10
1572.3542162255
 20
478.0219418125
 30
0.0
 11
1572.3542162255
 21
493.0219573097
 31
0.0
  0
LINE
  5
53F
330
1F
100
AcDbEntity
  8
0
  6
CONTINUOUS
 62
     7
100
AcDbLine
 10
1582.3542215899
 20
468.0219513493
 30
0.0
 11
1572.3542162255
 21
478.0219418125
 31
0.0
  0
LINE
  5
540
330
1F
100
AcDbEntity
  8
0
  6
CONTINUOUS
 62
     7
100
AcDbLine
 10
1597.3542221859
 20
468.0219513493
 30
0.0
 11
1582.3542215899
 21
468.0219513493
 31
0.0
  0
LINE
  5
541
330
1F
100
AcDbEntity
  8
0
  6
CONTINUOUS
 62
     7
100
AcDbLine
 10
1597.3542221859
 20
453.0219358521
 30
0.0
 11
1597.3542221859
 21
468.0219513493
 31
0.0
  0
LINE
  5
542
330
1F
100
AcDbEntity
  8
0
  6
CONTINUOUS
 62
     7
100
AcDbLine
 10
1583.5110732392
 20
453.0219358521
 30
0.0
 11
1597.3542221859
 21
453.0219358521
 31
0.0
  0
ARC
  5
543
330
1F
100
AcDbEntity
  8
0
  6
CONTINUOUS
 62
     7
100
AcDbCircle
 10
1583.5110735744
 20
457.0219484882
 30
0.0
 40
4.000000000000234
100
AcDbArc
 50
225.0
 51
270.0
  0
LINE
  5
544
330
1F
100
AcDbEntity
  8
0
  6
CONTINUOUS
 62
     7
100
AcDbLine
 10
1558.525789626
 20
476.3503891544
 30
0.0
 11
1580.6826391295
 21
454.1935247498
 31
0.0
  0
ARC
  5
545
330
1F
100
AcDbEntity
  8
0
  6
CONTINUOUS
 62
     7
100
AcDbCircle
 10
1561.3542193249
 20
479.1788027377
 30
0.0
 40
4.000000000000032
100
AcDbArc
 50
180.0
 51
225.0000000001
  0
LINE
  5
546
330
1F
100
AcDbEntity
  8
0
  6
CONTINUOUS
 62
     7
100
AcDbLine
 10
1597.3542221859
 20
1101.5219611244
 30
0.0
 11
1583.5110732392
 21
1101.5219611244
 31
0.0
  0
LINE
  5
547
330
1F
100
AcDbEntity
  8
0
  6
CONTINUOUS
 62
     7
100
AcDbLine
 10
1597.3542221859
 20
1086.5219456272
 30
0.0
 11
1597.3542221859
 21
1101.5219611244
 31
0.0
  0
LINE
  5
548
330
1F
100
AcDbEntity
  8
0
  6
CONTINUOUS
 62
     7
100
AcDbLine
 10
1582.3542215899
 20
1086.5219456272
 30
0.0
 11
1597.3542221859
 21
1086.5219456272
 31
0.0
  0
LINE
  5
549
330
1F
100
AcDbEntity
  8
0
  6
CONTINUOUS
 62
     7
100
AcDbLine
 10
1572.3542162255
 20
1076.521955164
 30
0.0
 11
1582.3542215899
 21
1086.5219456272
 31
0.0
  0
LINE
  5
54A
330
1F
100
AcDbEntity
  8
0
  6
CONTINUOUS
 62
     7
100
AcDbLine
 10
1572.3542162255
 20
1061.5219396668
 30
0.0
 11
1572.3542162255
 21
1076.521955164
 31
0.0
  0
LINE
  5
54B
330
1F
100
AcDbEntity
  8
0
  6
CONTINUOUS
 62
     7
100
AcDbLine
 10
1557.3542156294
 20
1061.5219396668
 30
0.0
 11
1572.3542162255
 21
1061.5219396668
 31
0.0
  0
LINE
  5
54C
330
1F
100
AcDbEntity
  8
0
  6
CONTINUOUS
 62
     7
100
AcDbLine
 10
1557.3542156294
 20
1075.3650886135
 30
0.0
 11
1557.3542156294
 21
1061.5219396668
 31
0.0
  0
ARC
  5
54D
330
1F
100
AcDbEntity
  8
0
  6
CONTINUOUS
 62
     7
100
AcDbCircle
 10
1561.3542193249
 20
1075.3650942387
 30
0.0
 40
4.000000000000032
100
AcDbArc
 50
134.9999999999
 51
180.0
  0
LINE
  5
54E
330
1F
100
AcDbEntity
  8
0
  6
CONTINUOUS
 62
     7
100
AcDbLine
 10
1580.6826391295
 20
1100.3503722267
 30
0.0
 11
1558.525789626
 21
1078.193507822
 31
0.0
  0
ARC
  5
54F
330
1F
100
AcDbEntity
  8
0
  6
CONTINUOUS
 62
     7
100
AcDbCircle
 10
1583.5110735744
 20
1097.5219484882
 30
0.0
 40
4.000000000000032
100
AcDbArc
 50
90.0
 51
134.9999999999
  0
LINE
  5
550
330
1F
100
AcDbEntity
  8
0
  6
CONTINUOUS
 62
     7
100
AcDbLine
 10
2005.8542230204
 20
1061.5219396668
 30
0.0
 11
2005.8542230204
 21
1075.3650886135
 31
0.0
  0
LINE
  5
551
330
1F
100
AcDbEntity
  8
0
  6
CONTINUOUS
 62
     7
100
AcDbLine
 10
1990.8542224243
 20
1061.5219396668
 30
0.0
 11
2005.8542230204
 21
1061.5219396668
 31
0.0
  0
LINE
  5
552
330
1F
100
AcDbEntity
  8
0
  6
CONTINUOUS
 62
     7
100
AcDbLine
 10
1990.8542224243
 20
1076.521955164
 30
0.0
 11
1990.8542224243
 21
1061.5219396668
 31
0.0
  0
LINE
  5
553
330
1F
100
AcDbEntity
  8
0
  6
CONTINUOUS
 62
     7
100
AcDbLine
 10
1980.8542170599
 20
1086.5219456272
 30
0.0
 11
1990.8542224243
 21
1076.521955164
 31
0.0
  0
LINE
  5
554
330
1F
100
AcDbEntity
  8
0
  6
CONTINUOUS
 62
     7
100
AcDbLine
 10
1965.8542164639
 20
1086.5219456272
 30
0.0
 11
1980.8542170599
 21
1086.5219456272
 31
0.0
  0
LINE
  5
555
330
1F
100
AcDbEntity
  8
0
  6
CONTINUOUS
 62
     7
100
AcDbLine
 10
1965.8542164639
 20
1101.5219611244
 30
0.0
 11
1965.8542164639
 21
1086.5219456272
 31
0.0
  0
LINE
  5
556
330
1F
100
AcDbEntity
  8
0
  6
CONTINUOUS
 62
     7
100
AcDbLine
 10
1979.6973654106
 20
1101.5219611244
 30
0.0
 11
1965.8542164639
 21
1101.5219611244
 31
0.0
  0
ARC
  5
557
330
1F
100
AcDbEntity
  8
0
  6
CONTINUOUS
 62
     7
100
AcDbCircle
 10
1979.6973650754
 20
1097.5219484882
 30
0.0
 40
4.000000000000032
100
AcDbArc
 50
45.0000000001
 51
90.0
  0
LINE
  5
558
330
1F
100
AcDbEntity
  8
0
  6
CONTINUOUS
 62
     7
100
AcDbLine
 10
2004.6826490239
 20
1078.193507822
 30
0.0
 11
1982.5257995203
 21
1100.3503722267
 31
0.0
  0
ARC
  5
559
330
1F
100
AcDbEntity
  8
0
  6
CONTINUOUS
 62
     7
100
AcDbCircle
 10
2001.8542193249
 20
1075.3650942387
 30
0.0
 40
4.000000000000032
100
AcDbArc
 50
0.0
 51
45.0000000001
  0
LINE
  5
55A
330
1F
100
AcDbEntity
  8
0
  6
CONTINUOUS
 62
     8
100
AcDbLine
 10
1582.8542151526
 20
479.2719406204
 30
0.0
 11
1582.8542151526
 21
770.8602898883
 31
0.0
  0
LINE
  5
55B
330
1F
100
AcDbEntity
  8
0
  6
CONTINUOUS
 62
     8
100
AcDbLine
 10
1582.8542151526
 20
783.8604470843
 30
0.0
 11
1582.8542151526
 21
1075.2719563561
 31
0.0
  0
LINE
  5
55C
330
1F
100
AcDbEntity
  8
0
  6
CONTINUOUS
 62
     8
100
AcDbLine
 10
1578.8542219475
 20
493.0219573097
 30
0.0
 11
1578.8542219475
 21
770.8799389319
 31
0.0
  0
LINE
  5
55D
330
1F
100
AcDbEntity
  8
0
  6
CONTINUOUS
 62
     8
100
AcDbLine
 10
1578.8542219475
 20
783.8800956624
 30
0.0
 11
1578.8542219475
 21
1061.5219396668
 31
0.0
  0
ENDSEC
  0
SECTION
  2
OBJECTS
  0
DICTIONARY
  5
C
330
0
100
AcDbDictionary
  3
ACAD_GROUP
350
D
  3
ACAD_MLINESTYLE
350
17
  0
DICTIONARY
  5
D
102
{ACAD_REACTORS
330
C
102
}
330
C
100
AcDbDictionary
  0
DICTIONARY
  5
17
102
{ACAD_REACTORS
330
C
102
}
330
C
100
AcDbDictionary
  3
STANDARD
350
18
  0
MLINESTYLE
  5
18
102
{ACAD_REACTORS
330
17
102
}
330
17
100
AcDbMlineStyle
  2
Standard
 70
     0
  3

 62
   256
 51
90.0
 52
90.0
 71
     2
 49
0.5
 62
   256
  6
BYLAYER
 49
-0.5
 62
   256
  6
BYLAYER
  0
ENDSEC
  0
EOF
