  0
SECTION
  2
HEADER
  9
$ACADVER
  1
AC1014
  9
$ACADMAINTVER
 70
     9
  9
$DWGCODEPAGE
  3
ANSI_1252
  9
$INSBASE
 10
0.0
 20
0.0
 30
0.0
  9
$EXTMIN
 10
0.0
 20
0.0
 30
0.0
  9
$EXTMAX
 10
2100.0
 20
1485.0
 30
0.0
  9
$LIMMIN
 10
0.0
 20
0.0
  9
$LIMMAX
 10
2100.0
 20
1485.0
  9
$ORTHOMODE
 70
     0
  9
$REGENMODE
 70
     1
  9
$FILLMODE
 70
     1
  9
$QTEXTMODE
 70
     0
  9
$MIRRTEXT
 70
     1
  9
$DRAGMODE
 70
     2
  9
$LTSCALE
 40
5.0
  9
$OSMODE
 70
    37
  9
$ATTMODE
 70
     1
  9
$TEXTSIZE
 40
17.5
  9
$TRACEWID
 40
1.0
  9
$TEXTSTYLE
  7
STANDARD
  9
$CLAYER
  8
0
  9
$CELTYPE
  6
BYLAYER
  9
$CECOLOR
 62
   256
  9
$CELTSCALE
 40
1.0
  9
$DELOBJ
 70
     1
  9
$DISPSILH
 70
     0
  9
$DIMSCALE
 40
1.0
  9
$DIMASZ
 40
30.0
  9
$DIMEXO
 40
5.0
  9
$DIMDLI
 40
3.75
  9
$DIMRND
 40
0.0
  9
$DIMDLE
 40
0.0
  9
$DIMEXE
 40
5.0
  9
$DIMTP
 40
0.0
  9
$DIMTM
 40
0.0
  9
$DIMTXT
 40
17.5
  9
$DIMCEN
 40
2.5
  9
$DIMTSZ
 40
0.0
  9
$DIMTOL
 70
     0
  9
$DIMLIM
 70
     0
  9
$DIMTIH
 70
     1
  9
$DIMTOH
 70
     1
  9
$DIMSE1
 70
     0
  9
$DIMSE2
 70
     0
  9
$DIMTAD
 70
     1
  9
$DIMZIN
 70
     0
  9
$DIMBLK
  1

  9
$DIMASO
 70
     1
  9
$DIMSHO
 70
     1
  9
$DIMPOST
  1

  9
$DIMAPOST
  1

  9
$DIMALT
 70
     0
  9
$DIMALTD
 70
     3
  9
$DIMALTF
 40
0.0393700787
  9
$DIMLFAC
 40
1.0
  9
$DIMTOFL
 70
     1
  9
$DIMTVP
 40
0.0
  9
$DIMTIX
 70
     0
  9
$DIMSOXD
 70
     0
  9
$DIMSAH
 70
     0
  9
$DIMBLK1
  1

  9
$DIMBLK2
  1

  9
$DIMSTYLE
  2
ISO-25
  9
$DIMCLRD
 70
     0
  9
$DIMCLRE
 70
     0
  9
$DIMCLRT
 70
     0
  9
$DIMTFAC
 40
1.0
  9
$DIMGAP
 40
7.62
  9
$DIMJUST
 70
     0
  9
$DIMSD1
 70
     0
  9
$DIMSD2
 70
     0
  9
$DIMTOLJ
 70
     0
  9
$DIMTZIN
 70
     0
  9
$DIMALTZ
 70
     0
  9
$DIMALTTZ
 70
     0
  9
$DIMFIT
 70
     3
  9
$DIMUPT
 70
     0
  9
$DIMUNIT
 70
     2
  9
$DIMDEC
 70
     2
  9
$DIMTDEC
 70
     2
  9
$DIMALTU
 70
     2
  9
$DIMALTTD
 70
     3
  9
$DIMTXSTY
  7
STANDARD
  9
$DIMAUNIT
 70
     0
  9
$LUNITS
 70
     2
  9
$LUPREC
 70
     2
  9
$SKETCHINC
 40
1.0
  9
$FILLETRAD
 40
10.0
  9
$AUNITS
 70
     0
  9
$AUPREC
 70
     2
  9
$MENU
  1
.
  9
$ELEVATION
 40
0.0
  9
$PELEVATION
 40
0.0
  9
$THICKNESS
 40
0.0
  9
$LIMCHECK
 70
     0
  9
$CHAMFERA
 40
10.0
  9
$CHAMFERB
 40
10.0
  9
$CHAMFERC
 40
20.0
  9
$CHAMFERD
 40
0.0
  9
$SKPOLY
 70
     0
  9
$TDCREATE
 40
2456582.472497882
  9
$TDUPDATE
 40
2456582.472498981
  9
$TDINDWG
 40
0.0000000116
  9
$TDUSRTIMER
 40
0.0000000116
  9
$USRTIMER
 70
     1
  9
$ANGBASE
 50
0.0
  9
$ANGDIR
 70
     0
  9
$PDMODE
 70
     0
  9
$PDSIZE
 40
-1.0
  9
$PLINEWID
 40
0.0
  9
$COORDS
 70
     1
  9
$SPLFRAME
 70
     0
  9
$SPLINETYPE
 70
     6
  9
$SPLINESEGS
 70
     8
  9
$ATTDIA
 70
     0
  9
$ATTREQ
 70
     1
  9
$HANDLING
 70
     1
  9
$HANDSEED
  5
5C4
  9
$SURFTAB1
 70
     6
  9
$SURFTAB2
 70
     6
  9
$SURFTYPE
 70
     6
  9
$SURFU
 70
     6
  9
$SURFV
 70
     6
  9
$UCSNAME
  2

  9
$UCSORG
 10
0.0
 20
0.0
 30
0.0
  9
$UCSXDIR
 10
1.0
 20
0.0
 30
0.0
  9
$UCSYDIR
 10
0.0
 20
1.0
 30
0.0
  9
$PUCSNAME
  2

  9
$PUCSORG
 10
0.0
 20
0.0
 30
0.0
  9
$PUCSXDIR
 10
1.0
 20
0.0
 30
0.0
  9
$PUCSYDIR
 10
0.0
 20
1.0
 30
0.0
  9
$USERI1
 70
     0
  9
$USERI2
 70
     0
  9
$USERI3
 70
     0
  9
$USERI4
 70
     0
  9
$USERI5
 70
     0
  9
$USERR1
 40
0.0
  9
$USERR2
 40
0.0
  9
$USERR3
 40
0.0
  9
$USERR4
 40
0.0
  9
$USERR5
 40
0.0
  9
$WORLDVIEW
 70
     1
  9
$SHADEDGE
 70
     3
  9
$SHADEDIF
 70
    70
  9
$TILEMODE
 70
     1
  9
$MAXACTVP
 70
    64
  9
$PINSBASE
 10
0.0
 20
0.0
 30
0.0
  9
$PLIMCHECK
 70
     0
  9
$PEXTMIN
 10
1.0000000000E+20
 20
1.0000000000E+20
 30
1.0000000000E+20
  9
$PEXTMAX
 10
-1.0000000000E+20
 20
-1.0000000000E+20
 30
-1.0000000000E+20
  9
$PLIMMIN
 10
0.0
 20
0.0
  9
$PLIMMAX
 10
420.0
 20
297.0
  9
$UNITMODE
 70
     0
  9
$VISRETAIN
 70
     1
  9
$PLINEGEN
 70
     0
  9
$PSLTSCALE
 70
     1
  9
$TREEDEPTH
 70
  3020
  9
$PICKSTYLE
 70
     1
  9
$CMLSTYLE
  2
STANDARD
  9
$CMLJUST
 70
     0
  9
$CMLSCALE
 40
20.0
  9
$PROXYGRAPHICS
 70
     1
  9
$MEASUREMENT
 70
     1
  0
ENDSEC
  0
SECTION
  2
CLASSES
  0
CLASS
  1
ACDBDICTIONARYWDFLT
  2
AcDbDictionaryWithDefault
  3
ObjectDBX Classes
 90
        0
280
     0
281
     0
  0
CLASS
  1
VISUALSTYLE
  2
AcDbVisualStyle
  3
ObjectDBX Classes
 90
     4095
280
     0
281
     0
  0
CLASS
  1
MATERIAL
  2
AcDbMaterial
  3
ObjectDBX Classes
 90
     1153
280
     0
281
     0
  0
CLASS
  1
XRECORD
  2
AcDbXrecord
  3
AutoCAD 2000
 90
        0
280
     0
281
     0
  0
CLASS
  1
LWPOLYLINE
  2
AcDbPolyline
  3
AutoCAD 2000
 90
        0
280
     0
281
     1
  0
CLASS
  1
HATCH
  2
AcDbHatch
  3
AutoCAD 2000
 90
        0
280
     0
281
     1
  0
ENDSEC
  0
SECTION
  2
TABLES
  0
TABLE
  2
VPORT
  5
8
330
0
100
AcDbSymbolTable
 70
     1
  0
VPORT
  5
29
330
8
100
AcDbSymbolTableRecord
100
AcDbViewportTableRecord
  2
*ACTIVE
 70
     0
 10
0.0
 20
0.0
 11
1.0
 21
1.0
 12
1050.0
 22
742.5
 13
0.0
 23
0.0
 14
10.0
 24
10.0
 15
10.0
 25
10.0
 16
0.0
 26
0.0
 36
1.0
 17
0.0
 27
0.0
 37
0.0
 40
1485.0
 41
1.4141414141
 42
50.0
 43
0.0
 44
0.0
 50
0.0
 51
0.0
 71
     0
 72
  2000
 73
     1
 74
     3
 75
     0
 76
     0
 77
     0
 78
     0
  0
ENDTAB
  0
TABLE
  2
LTYPE
  5
5
330
0
100
AcDbSymbolTable
 70
     6
  0
LTYPE
  5
14
330
5
100
AcDbSymbolTableRecord
100
AcDbLinetypeTableRecord
  2
BYBLOCK
 70
     0
  3

 72
    65
 73
     0
 40
0.0
  0
LTYPE
  5
15
330
5
100
AcDbSymbolTableRecord
100
AcDbLinetypeTableRecord
  2
BYLAYER
 70
     0
  3

 72
    65
 73
     0
 40
0.0
  0
LTYPE
  5
16
330
5
100
AcDbSymbolTableRecord
100
AcDbLinetypeTableRecord
  2
CONTINUOUS
 70
     0
  3
Solid line
 72
    65
 73
     0
 40
0.0
  0
LTYPE
  5
3F
330
5
100
AcDbSymbolTableRecord
100
AcDbLinetypeTableRecord
  2
HIDDEN
 70
     0
  3
Hidden __ __ __ __ __ __ __ __ __ __ __ __ __ __
 72
    65
 73
     2
 40
1.905
 49
1.27
 74
     0
 49
-0.635
 74
     0
  0
LTYPE
  5
40
330
5
100
AcDbSymbolTableRecord
100
AcDbLinetypeTableRecord
  2
PHANTOM
 70
     0
  3
Phantom ______  __  __  ______  __  __  ______
 72
    65
 73
     6
 40
12.7
 49
6.35
 74
     0
 49
-1.27
 74
     0
 49
1.27
 74
     0
 49
-1.27
 74
     0
 49
1.27
 74
     0
 49
-1.27
 74
     0
  0
LTYPE
  5
41
330
5
100
AcDbSymbolTableRecord
100
AcDbLinetypeTableRecord
  2
CENTER
 70
     0
  3
Center ____ _ ____ _ ____ _ ____ _ ____ _ ____
 72
    65
 73
     4
 40
10.16
 49
6.35
 74
     0
 49
-1.27
 74
     0
 49
1.27
 74
     0
 49
-1.27
 74
     0
  0
LTYPE
  5
42
330
5
100
AcDbSymbolTableRecord
100
AcDbLinetypeTableRecord
  2
CENTERX2
 70
     0
  3
Center (2x) ________  __  ________  __  _____
 72
    65
 73
     4
 40
20.32
 49
12.7
 74
     0
 49
-2.54
 74
     0
 49
2.54
 74
     0
 49
-2.54
 74
     0
  0
LTYPE
  5
43
330
5
100
AcDbSymbolTableRecord
100
AcDbLinetypeTableRecord
  2
DOT2
 70
     0
  3
Dot (.5x) ........................................
 72
    65
 73
     2
 40
0.635
 49
0.0
 74
     0
 49
-0.635
 74
     0
  0
ENDTAB
  0
TABLE
  2
LAYER
  5
2
330
0
100
AcDbSymbolTable
 70
     1
  0
LAYER
  5
10
330
2
100
AcDbSymbolTableRecord
100
AcDbLayerTableRecord
  2
0
 70
     0
 62
     7
  6
CONTINUOUS
  0
ENDTAB
  0
TABLE
  2
STYLE
  5
3
330
0
100
AcDbSymbolTable
 70
     1
  0
STYLE
  5
11
330
3
100
AcDbSymbolTableRecord
100
AcDbTextStyleTableRecord
  2
STANDARD
 70
     0
 40
0.0
 41
1.0
 50
0.0
 71
     0
 42
17.5
  3
txt
  4

  0
ENDTAB
  0
TABLE
  2
VIEW
  5
6
330
0
100
AcDbSymbolTable
 70
     0
  0
ENDTAB
  0
TABLE
  2
UCS
  5
7
330
0
100
AcDbSymbolTable
 70
     0
  0
ENDTAB
  0
TABLE
  2
APPID
  5
9
330
0
100
AcDbSymbolTable
 70
     1
  0
APPID
  5
12
330
9
100
AcDbSymbolTableRecord
100
AcDbRegAppTableRecord
  2
ACAD
 70
     0
  0
ENDTAB
  0
TABLE
  2
DIMSTYLE
  5
A
330
0
100
AcDbSymbolTable
 70
     1
  0
DIMSTYLE
105
27
330
A
100
AcDbSymbolTableRecord
100
AcDbDimStyleTableRecord
  2
ISO-25
 70
     0
  3

  4

  5

  6

  7

 40
1.0
 41
2.5
 42
0.625
 43
3.75
 44
1.25
 45
0.0
 46
0.0
 47
0.0
 48
0.0
140
2.5
141
2.5
142
0.0
143
0.0393700787
144
1.0
145
0.0
146
1.0
147
0.625
 71
     0
 72
     0
 73
     0
 74
     0
 75
     0
 76
     0
 77
     1
 78
     8
170
     0
171
     3
172
     1
173
     0
174
     0
175
     0
176
     0
177
     0
178
     0
270
     2
271
     2
272
     2
273
     2
274
     3
340
11
275
     0
280
     0
281
     0
282
     0
283
     0
284
     8
285
     0
286
     0
287
     3
288
     0
  0
ENDTAB
  0
TABLE
  2
BLOCK_RECORD
  5
1
330
0
100
AcDbSymbolTable
 70
     1
  0
BLOCK_RECORD
  5
1F
330
1
100
AcDbSymbolTableRecord
100
AcDbBlockTableRecord
  2
*MODEL_SPACE
  0
BLOCK_RECORD
  5
1B
330
1
100
AcDbSymbolTableRecord
100
AcDbBlockTableRecord
  2
*PAPER_SPACE
  0
BLOCK_RECORD
  5
23
330
1
100
AcDbSymbolTableRecord
100
AcDbBlockTableRecord
  2
*PAPER_SPACE0
  0
ENDTAB
  0
ENDSEC
  0
SECTION
  2
BLOCKS
  0
BLOCK
  5
20
330
1F
100
AcDbEntity
  8
0
100
AcDbBlockBegin
  2
*MODEL_SPACE
 70
     0
 10
0.0
 20
0.0
 30
0.0
  3
*MODEL_SPACE
  1

  0
ENDBLK
  5
21
330
1F
100
AcDbEntity
  8
0
100
AcDbBlockEnd
  0
BLOCK
  5
1C
330
1B
100
AcDbEntity
 67
     1
  8
0
100
AcDbBlockBegin
  2
*PAPER_SPACE
 70
     0
 10
0.0
 20
0.0
 30
0.0
  3
*PAPER_SPACE
  1

  0
ENDBLK
  5
1D
330
1B
100
AcDbEntity
 67
     1
  8
0
100
AcDbBlockEnd
  0
BLOCK
  5
24
330
23
100
AcDbEntity
  8
0
100
AcDbBlockBegin
  2
*PAPER_SPACE0
 70
     0
 10
0.0
 20
0.0
 30
0.0
  3
*PAPER_SPACE0
  1

  0
ENDBLK
  5
25
330
23
100
AcDbEntity
  8
0
100
AcDbBlockEnd
  0
ENDSEC
  0
SECTION
  2
ENTITIES
  0
LINE
  5
44
330
1F
100
AcDbEntity
  8
0
  6
CONTINUOUS
 62
     7
100
AcDbLine
 10
684.4673147913
 20
1059.1800605135
 30
0.0
 11
686.2173220631
 21
1059.1800605135
 31
0.0
  0
ARC
  5
45
330
1F
100
AcDbEntity
  8
0
  6
CONTINUOUS
 62
     7
100
AcDbCircle
 10
684.4673212286
 20
1054.1800671892
 30
0.0
 40
5.0
100
AcDbArc
 50
90.0
 51
180.0
  0
LINE
  5
46
330
1F
100
AcDbEntity
  8
0
  6
CONTINUOUS
 62
     7
100
AcDbLine
 10
679.4673195597
 20
1051.6800676661
 30
0.0
 11
679.4673195597
 21
1054.1800652819
 31
0.0
  0
LINE
  5
47
330
1F
100
AcDbEntity
  8
0
  6
CONTINUOUS
 62
     7
100
AcDbLine
 10
674.7173211094
 20
1051.6800676661
 30
0.0
 11
679.4673195597
 21
1051.6800676661
 31
0.0
  0
LINE
  5
48
330
1F
100
AcDbEntity
  8
0
  6
CONTINUOUS
 62
     7
100
AcDbLine
 10
671.7173150297
 20
1048.6800764876
 30
0.0
 11
674.7173211094
 21
1051.6800676661
 31
0.0
  0
LINE
  5
49
330
1F
100
AcDbEntity
  8
0
  6
CONTINUOUS
 62
     7
100
AcDbLine
 10
667.7173218246
 20
1048.6800764876
 30
0.0
 11
671.7173150297
 21
1048.6800764876
 31
0.0
  0
LINE
  5
4A
330
1F
100
AcDbEntity
  8
0
  6
CONTINUOUS
 62
     7
100
AcDbLine
 10
664.717315745
 20
1051.6800676661
 30
0.0
 11
667.7173218246
 21
1048.6800764876
 31
0.0
  0
LINE
  5
4B
330
1F
100
AcDbEntity
  8
0
  6
CONTINUOUS
 62
     7
100
AcDbLine
 10
659.9673172947
 20
1051.6800676661
 30
0.0
 11
664.717315745
 21
1051.6800676661
 31
0.0
  0
LINE
  5
4C
330
1F
100
AcDbEntity
  8
0
  6
CONTINUOUS
 62
     7
100
AcDbLine
 10
659.9673172947
 20
1053.1800781565
 30
0.0
 11
659.9673172947
 21
1051.6800676661
 31
0.0
  0
ARC
  5
4D
330
1F
100
AcDbEntity
  8
0
  6
CONTINUOUS
 62
     7
100
AcDbCircle
 10
667.9673212286
 20
1053.1800671892
 30
0.0
 40
7.999999999999984
100
AcDbArc
 50
135.0
 51
180.0
  0
LINE
  5
4E
330
1F
100
AcDbEntity
  8
0
  6
CONTINUOUS
 62
     7
100
AcDbLine
 10
677.8104743477
 20
1074.3369256335
 30
0.0
 11
662.3104652878
 21
1058.8369165736
 31
0.0
  0
LINE
  5
4F
330
1F
100
AcDbEntity
  8
0
  6
CONTINUOUS
 62
     7
100
AcDbLine
 10
996.9673147913
 20
1076.6800736266
 30
0.0
 11
683.4673276659
 21
1076.6800736266
 31
0.0
  0
ARC
  5
50
330
1F
100
AcDbEntity
  8
0
  6
CONTINUOUS
 62
     7
100
AcDbCircle
 10
996.9673212286
 20
1068.6800671892
 30
0.0
 40
8.000000000000064
100
AcDbArc
 50
45.0
 51
90.0
  0
LINE
  5
51
330
1F
100
AcDbEntity
  8
0
  6
CONTINUOUS
 62
     7
100
AcDbLine
 10
1018.1241771694
 20
1058.8369165736
 30
0.0
 11
1002.6241681095
 21
1074.3369256335
 31
0.0
  0
ARC
  5
52
330
1F
100
AcDbEntity
  8
0
  6
CONTINUOUS
 62
     7
100
AcDbCircle
 10
1012.4673212286
 20
1053.1800671892
 30
0.0
 40
8.000000000000114
100
AcDbArc
 50
0.0
 51
45.0
  0
LINE
  5
53
330
1F
100
AcDbEntity
  8
0
  6
CONTINUOUS
 62
     7
100
AcDbLine
 10
1020.4673251625
 20
1051.6800676661
 30
0.0
 11
1020.4673251625
 21
1053.1800781565
 31
0.0
  0
LINE
  5
54
330
1F
100
AcDbEntity
  8
0
  6
CONTINUOUS
 62
     7
100
AcDbLine
 10
1015.7173267122
 20
1051.6800676661
 30
0.0
 11
1020.4673251625
 21
1051.6800676661
 31
0.0
  0
LINE
  5
55
330
1F
100
AcDbEntity
  8
0
  6
CONTINUOUS
 62
     7
100
AcDbLine
 10
1012.7173206326
 20
1048.6800764876
 30
0.0
 11
1015.7173267122
 21
1051.6800676661
 31
0.0
  0
LINE
  5
56
330
1F
100
AcDbEntity
  8
0
  6
CONTINUOUS
 62
     7
100
AcDbLine
 10
1008.7173274275
 20
1048.6800764876
 30
0.0
 11
1012.7173206326
 21
1048.6800764876
 31
0.0
  0
LINE
  5
57
330
1F
100
AcDbEntity
  8
0
  6
CONTINUOUS
 62
     7
100
AcDbLine
 10
1005.7173213478
 20
1051.6800676661
 30
0.0
 11
1008.7173274275
 21
1048.6800764876
 31
0.0
  0
LINE
  5
58
330
1F
100
AcDbEntity
  8
0
  6
CONTINUOUS
 62
     7
100
AcDbLine
 10
1000.9673228975
 20
1051.6800676661
 30
0.0
 11
1005.7173213478
 21
1051.6800676661
 31
0.0
  0
LINE
  5
59
330
1F
100
AcDbEntity
  8
0
  6
CONTINUOUS
 62
     7
100
AcDbLine
 10
1000.9673228975
 20
1054.1800652819
 30
0.0
 11
1000.9673228975
 21
1051.6800676661
 31
0.0
  0
ARC
  5
5A
330
1F
100
AcDbEntity
  8
0
  6
CONTINUOUS
 62
     7
100
AcDbCircle
 10
995.9673212286
 20
1054.1800671892
 30
0.0
 40
5.0
100
AcDbArc
 50
0.0
 51
90.0
  0
LINE
  5
5B
330
1F
100
AcDbEntity
  8
0
  6
CONTINUOUS
 62
     7
100
AcDbLine
 10
994.2173203941
 20
1059.1800605135
 30
0.0
 11
995.9673276659
 21
1059.1800605135
 31
0.0
  0
LINE
  5
5C
330
1F
100
AcDbEntity
  8
0
  6
CONTINUOUS
 62
     7
100
AcDbLine
 10
994.2173203941
 20
1059.1800605135
 30
0.0
 11
994.2173203941
 21
1062.4300633746
 31
0.0
  0
LINE
  5
5D
330
1F
100
AcDbEntity
  8
0
  6
CONTINUOUS
 62
     7
100
AcDbLine
 10
994.2173203941
 20
1062.4300633746
 30
0.0
 11
993.4673151489
 21
1062.4300633746
 31
0.0
  0
LINE
  5
5E
330
1F
100
AcDbEntity
  8
0
  6
CONTINUOUS
 62
     7
100
AcDbLine
 10
993.4673151489
 20
1062.4300633746
 30
0.0
 11
993.4673151489
 21
1061.6800581293
 31
0.0
  0
LINE
  5
5F
330
1F
100
AcDbEntity
  8
0
  6
CONTINUOUS
 62
     7
100
AcDbLine
 10
686.9673273083
 20
1061.6800581293
 30
0.0
 11
993.4673151489
 21
1061.6800581293
 31
0.0
  0
LINE
  5
60
330
1F
100
AcDbEntity
  8
0
  6
CONTINUOUS
 62
     7
100
AcDbLine
 10
686.9673273083
 20
1061.6800581293
 30
0.0
 11
686.9673273083
 21
1062.4300633746
 31
0.0
  0
LINE
  5
61
330
1F
100
AcDbEntity
  8
0
  6
CONTINUOUS
 62
     7
100
AcDbLine
 10
686.9673273083
 20
1062.4300633746
 30
0.0
 11
686.2173220631
 21
1062.4300633746
 31
0.0
  0
LINE
  5
62
330
1F
100
AcDbEntity
  8
0
  6
CONTINUOUS
 62
     7
100
AcDbLine
 10
686.2173220631
 20
1062.4300633746
 30
0.0
 11
686.2173220631
 21
1059.1800605135
 31
0.0
  0
ARC
  5
63
330
1F
100
AcDbEntity
  8
0
  6
CONTINUOUS
 62
     7
100
AcDbCircle
 10
683.4673212286
 20
1068.6800671892
 30
0.0
 40
7.999999999999984
100
AcDbArc
 50
90.0
 51
135.0
  0
LINE
  5
64
330
1F
100
AcDbEntity
  8
0
  6
CONTINUOUS
 62
     7
100
AcDbLine
 10
686.9673273083
 20
1059.1800605135
 30
0.0
 11
993.4673151489
 21
1059.1800605135
 31
0.0
  0
LINE
  5
65
330
1F
100
AcDbEntity
  8
0
  6
CONTINUOUS
 62
     7
100
AcDbLine
 10
686.9673273083
 20
1059.1800605135
 30
0.0
 11
686.9673273083
 21
1061.6800581293
 31
0.0
  0
LINE
  5
66
330
1F
100
AcDbEntity
  8
0
  6
CONTINUOUS
 62
     7
100
AcDbLine
 10
993.4673151489
 20
1061.6800581293
 30
0.0
 11
993.4673151489
 21
1059.1800605135
 31
0.0
  0
LINE
  5
67
330
1F
100
AcDbEntity
  8
0
  6
CONTINUOUS
 62
     7
100
AcDbLine
 10
698.9673218246
 20
1058.1800733881
 30
0.0
 11
981.4673206326
 21
1058.1800733881
 31
0.0
  0
LINE
  5
68
330
1F
100
AcDbEntity
  8
0
  6
CONTINUOUS
 62
     7
100
AcDbLine
 10
698.9673218246
 20
1059.1800605135
 30
0.0
 11
698.9673218246
 21
1058.1800733881
 31
0.0
  0
LINE
  5
69
330
1F
100
AcDbEntity
  8
0
  6
CONTINUOUS
 62
     7
100
AcDbLine
 10
981.4673206326
 20
1058.1800733881
 30
0.0
 11
981.4673206326
 21
1059.1800605135
 31
0.0
  0
LWPOLYLINE
  5
6A
330
1F
100
AcDbEntity
  8
0
  6
CONTINUOUS
 62
     7
100
AcDbPolyline
 90
        3
 70
   128
 43
0.0
 10
698.9673218246
 20
1057.1800564604
 10
699.0249595161
 20
1056.5947984534
 10
699.1388937946
 20
1056.180069335
  0
LINE
  5
6B
330
1F
100
AcDbEntity
  8
0
  6
CONTINUOUS
 62
     7
100
AcDbLine
 10
698.9673218246
 20
1057.1800564604
 30
0.0
 11
698.9673218246
 21
1058.1800733881
 31
0.0
  0
LWPOLYLINE
  5
6C
330
1F
100
AcDbEntity
  8
0
  6
CONTINUOUS
 62
     7
100
AcDbPolyline
 90
        3
 70
   128
 43
0.0
 10
981.2957486626
 20
1056.180069335
 10
981.4096829411
 20
1056.5947984534
 10
981.4673206326
 20
1057.1800564604
  0
LINE
  5
6D
330
1F
100
AcDbEntity
  8
0
  6
CONTINUOUS
 62
     7
100
AcDbLine
 10
981.4673206326
 20
1058.1800733881
 30
0.0
 11
981.4673206326
 21
1057.1800564604
 31
0.0
  0
LINE
  5
6E
330
1F
100
AcDbEntity
  8
0
  6
CONTINUOUS
 62
     7
100
AcDbLine
 10
995.9673276659
 20
532.680073865
 30
0.0
 11
994.2173203941
 21
532.680073865
 31
0.0
  0
ARC
  5
6F
330
1F
100
AcDbEntity
  8
0
  6
CONTINUOUS
 62
     7
100
AcDbCircle
 10
995.9673212286
 20
537.6800671892
 30
0.0
 40
5.0
100
AcDbArc
 50
270.0
 51
0.0
  0
LINE
  5
70
330
1F
100
AcDbEntity
  8
0
  6
CONTINUOUS
 62
     7
100
AcDbLine
 10
1000.9673228975
 20
540.1800667124
 30
0.0
 11
1000.9673228975
 21
537.6800690966
 31
0.0
  0
LINE
  5
71
330
1F
100
AcDbEntity
  8
0
  6
CONTINUOUS
 62
     7
100
AcDbLine
 10
1005.7173213478
 20
540.1800667124
 30
0.0
 11
1000.9673228975
 21
540.1800667124
 31
0.0
  0
LINE
  5
72
330
1F
100
AcDbEntity
  8
0
  6
CONTINUOUS
 62
     7
100
AcDbLine
 10
1008.7173274275
 20
543.1800578909
 30
0.0
 11
1005.7173213478
 21
540.1800667124
 31
0.0
  0
LINE
  5
73
330
1F
100
AcDbEntity
  8
0
  6
CONTINUOUS
 62
     7
100
AcDbLine
 10
1012.7173206326
 20
543.1800578909
 30
0.0
 11
1008.7173274275
 21
543.1800578909
 31
0.0
  0
LINE
  5
74
330
1F
100
AcDbEntity
  8
0
  6
CONTINUOUS
 62
     7
100
AcDbLine
 10
1015.7173267122
 20
540.1800667124
 30
0.0
 11
1012.7173206326
 21
543.1800578909
 31
0.0
  0
LINE
  5
75
330
1F
100
AcDbEntity
  8
0
  6
CONTINUOUS
 62
     7
100
AcDbLine
 10
1020.4673251625
 20
540.1800667124
 30
0.0
 11
1015.7173267122
 21
540.1800667124
 31
0.0
  0
LINE
  5
76
330
1F
100
AcDbEntity
  8
0
  6
CONTINUOUS
 62
     7
100
AcDbLine
 10
1020.4673251625
 20
538.680056222
 30
0.0
 11
1020.4673251625
 21
540.1800667124
 31
0.0
  0
ARC
  5
77
330
1F
100
AcDbEntity
  8
0
  6
CONTINUOUS
 62
     7
100
AcDbCircle
 10
1012.4673212286
 20
538.6800671892
 30
0.0
 40
7.999999999999904
100
AcDbArc
 50
315.0
 51
0.0
  0
LINE
  5
78
330
1F
100
AcDbEntity
  8
0
  6
CONTINUOUS
 62
     7
100
AcDbLine
 10
1002.6241681095
 20
517.523208745
 30
0.0
 11
1018.1241771694
 21
533.0232178049
 31
0.0
  0
ARC
  5
79
330
1F
100
AcDbEntity
  8
0
  6
CONTINUOUS
 62
     7
100
AcDbCircle
 10
996.9673212286
 20
523.1800671892
 30
0.0
 40
7.999999999999904
100
AcDbArc
 50
270.0
 51
315.0
  0
LINE
  5
7A
330
1F
100
AcDbEntity
  8
0
  6
CONTINUOUS
 62
     7
100
AcDbLine
 10
683.4673276659
 20
515.1800607519
 30
0.0
 11
996.9673147913
 21
515.1800607519
 31
0.0
  0
ARC
  5
7B
330
1F
100
AcDbEntity
  8
0
  6
CONTINUOUS
 62
     7
100
AcDbCircle
 10
683.4673212286
 20
523.1800671892
 30
0.0
 40
7.999999999999984
100
AcDbArc
 50
225.0
 51
270.0
  0
LINE
  5
7C
330
1F
100
AcDbEntity
  8
0
  6
CONTINUOUS
 62
     7
100
AcDbLine
 10
662.3104652878
 20
533.0232178049
 30
0.0
 11
677.8104743477
 21
517.523208745
 31
0.0
  0
ARC
  5
7D
330
1F
100
AcDbEntity
  8
0
  6
CONTINUOUS
 62
     7
100
AcDbCircle
 10
667.9673212286
 20
538.6800671892
 30
0.0
 40
7.999999999999984
100
AcDbArc
 50
180.0
 51
225.0
  0
LINE
  5
7E
330
1F
100
AcDbEntity
  8
0
  6
CONTINUOUS
 62
     7
100
AcDbLine
 10
659.9673172947
 20
540.1800667124
 30
0.0
 11
659.9673172947
 21
538.680056222
 31
0.0
  0
LINE
  5
7F
330
1F
100
AcDbEntity
  8
0
  6
CONTINUOUS
 62
     7
100
AcDbLine
 10
664.717315745
 20
540.1800667124
 30
0.0
 11
659.9673172947
 21
540.1800667124
 31
0.0
  0
LINE
  5
80
330
1F
100
AcDbEntity
  8
0
  6
CONTINUOUS
 62
     7
100
AcDbLine
 10
667.7173218246
 20
543.1800578909
 30
0.0
 11
664.717315745
 21
540.1800667124
 31
0.0
  0
LINE
  5
81
330
1F
100
AcDbEntity
  8
0
  6
CONTINUOUS
 62
     7
100
AcDbLine
 10
674.7173211094
 20
540.1800667124
 30
0.0
 11
671.7173150297
 21
543.1800578909
 31
0.0
  0
LINE
  5
82
330
1F
100
AcDbEntity
  8
0
  6
CONTINUOUS
 62
     7
100
AcDbLine
 10
679.4673195597
 20
540.1800667124
 30
0.0
 11
674.7173211094
 21
540.1800667124
 31
0.0
  0
LINE
  5
83
330
1F
100
AcDbEntity
  8
0
  6
CONTINUOUS
 62
     7
100
AcDbLine
 10
679.4673195597
 20
537.6800690966
 30
0.0
 11
679.4673195597
 21
540.1800667124
 31
0.0
  0
ARC
  5
84
330
1F
100
AcDbEntity
  8
0
  6
CONTINUOUS
 62
     7
100
AcDbCircle
 10
684.4673212286
 20
537.6800671892
 30
0.0
 40
5.0
100
AcDbArc
 50
180.0
 51
270.0
  0
LINE
  5
85
330
1F
100
AcDbEntity
  8
0
  6
CONTINUOUS
 62
     7
100
AcDbLine
 10
686.2173220631
 20
532.680073865
 30
0.0
 11
684.4673147913
 21
532.680073865
 31
0.0
  0
LINE
  5
86
330
1F
100
AcDbEntity
  8
0
  6
CONTINUOUS
 62
     7
100
AcDbLine
 10
686.2173220631
 20
532.680073865
 30
0.0
 11
686.2173220631
 21
529.4300710039
 31
0.0
  0
LINE
  5
87
330
1F
100
AcDbEntity
  8
0
  6
CONTINUOUS
 62
     7
100
AcDbLine
 10
686.2173220631
 20
529.4300710039
 30
0.0
 11
686.9673273083
 21
529.4300710039
 31
0.0
  0
LINE
  5
88
330
1F
100
AcDbEntity
  8
0
  6
CONTINUOUS
 62
     7
100
AcDbLine
 10
686.9673273083
 20
529.4300710039
 30
0.0
 11
686.9673273083
 21
530.1800762492
 31
0.0
  0
LINE
  5
89
330
1F
100
AcDbEntity
  8
0
  6
CONTINUOUS
 62
     7
100
AcDbLine
 10
993.4673151489
 20
530.1800762492
 30
0.0
 11
686.9673273083
 21
530.1800762492
 31
0.0
  0
LINE
  5
8A
330
1F
100
AcDbEntity
  8
0
  6
CONTINUOUS
 62
     7
100
AcDbLine
 10
993.4673151489
 20
530.1800762492
 30
0.0
 11
993.4673151489
 21
529.4300710039
 31
0.0
  0
LINE
  5
8B
330
1F
100
AcDbEntity
  8
0
  6
CONTINUOUS
 62
     7
100
AcDbLine
 10
993.4673151489
 20
529.4300710039
 30
0.0
 11
994.2173203941
 21
529.4300710039
 31
0.0
  0
LINE
  5
8C
330
1F
100
AcDbEntity
  8
0
  6
CONTINUOUS
 62
     7
100
AcDbLine
 10
994.2173203941
 20
529.4300710039
 30
0.0
 11
994.2173203941
 21
532.680073865
 31
0.0
  0
LINE
  5
8D
330
1F
100
AcDbEntity
  8
0
  6
CONTINUOUS
 62
     7
100
AcDbLine
 10
671.7173150297
 20
543.1800578909
 30
0.0
 11
667.7173218246
 21
543.1800578909
 31
0.0
  0
LINE
  5
8E
330
1F
100
AcDbEntity
  8
0
  6
CONTINUOUS
 62
     7
100
AcDbLine
 10
686.9673273083
 20
530.1800762492
 30
0.0
 11
686.9673273083
 21
532.680073865
 31
0.0
  0
LINE
  5
8F
330
1F
100
AcDbEntity
  8
0
  6
CONTINUOUS
 62
     7
100
AcDbLine
 10
993.4673151489
 20
532.680073865
 30
0.0
 11
686.9673273083
 21
532.680073865
 31
0.0
  0
LINE
  5
90
330
1F
100
AcDbEntity
  8
0
  6
CONTINUOUS
 62
     7
100
AcDbLine
 10
993.4673151489
 20
532.680073865
 30
0.0
 11
993.4673151489
 21
530.1800762492
 31
0.0
  0
LINE
  5
91
330
1F
100
AcDbEntity
  8
0
  6
CONTINUOUS
 62
     7
100
AcDbLine
 10
1017.4673190828
 20
604.6800707655
 30
0.0
 11
1017.4673190828
 21
587.6800661164
 31
0.0
  0
LINE
  5
92
330
1F
100
AcDbEntity
  8
0
  6
CONTINUOUS
 62
     7
100
AcDbLine
 10
1017.4673190828
 20
587.6800661164
 30
0.0
 11
1017.9673275467
 21
587.6800661164
 31
0.0
  0
LINE
  5
93
330
1F
100
AcDbEntity
  8
0
  6
CONTINUOUS
 62
     7
100
AcDbLine
 10
1017.9673275467
 20
584.6800600367
 30
0.0
 11
1017.9673275467
 21
587.6800661164
 31
0.0
  0
LINE
  5
94
330
1F
100
AcDbEntity
  8
0
  6
CONTINUOUS
 62
     7
100
AcDbLine
 10
1017.9673275467
 20
584.180066474
 30
0.0
 11
1017.9673275467
 21
584.6800600367
 31
0.0
  0
LINE
  5
95
330
1F
100
AcDbEntity
  8
0
  6
CONTINUOUS
 62
     7
100
AcDbLine
 10
1020.4673251625
 20
584.180066474
 30
0.0
 11
1017.9673275467
 21
584.180066474
 31
0.0
  0
LINE
  5
96
330
1F
100
AcDbEntity
  8
0
  6
CONTINUOUS
 62
     7
100
AcDbLine
 10
1020.4673251625
 20
540.1800667124
 30
0.0
 11
1020.4673251625
 21
584.180066474
 31
0.0
  0
LINE
  5
97
330
1F
100
AcDbEntity
  8
0
  6
CONTINUOUS
 62
     7
100
AcDbLine
 10
1003.4673205133
 20
540.1800667124
 30
0.0
 11
1005.7173213478
 21
540.1800667124
 31
0.0
  0
LINE
  5
98
330
1F
100
AcDbEntity
  8
0
  6
CONTINUOUS
 62
     7
100
AcDbLine
 10
1003.4673205133
 20
1051.6800676661
 30
0.0
 11
1003.4673205133
 21
540.1800667124
 31
0.0
  0
LINE
  5
99
330
1F
100
AcDbEntity
  8
0
  6
CONTINUOUS
 62
     7
100
AcDbLine
 10
1005.7173213478
 20
1051.6800676661
 30
0.0
 11
1003.4673205133
 21
1051.6800676661
 31
0.0
  0
LINE
  5
9A
330
1F
100
AcDbEntity
  8
0
  6
CONTINUOUS
 62
     7
100
AcDbLine
 10
1020.4673251625
 20
1007.6800679045
 30
0.0
 11
1020.4673251625
 21
1051.6800676661
 31
0.0
  0
LINE
  5
9B
330
1F
100
AcDbEntity
  8
0
  6
CONTINUOUS
 62
     7
100
AcDbLine
 10
1017.9673275467
 20
1007.6800679045
 30
0.0
 11
1020.4673251625
 21
1007.6800679045
 31
0.0
  0
LINE
  5
9C
330
1F
100
AcDbEntity
  8
0
  6
CONTINUOUS
 62
     7
100
AcDbLine
 10
1017.9673275467
 20
1007.1800743418
 30
0.0
 11
1017.9673275467
 21
1007.6800679045
 31
0.0
  0
LINE
  5
9D
330
1F
100
AcDbEntity
  8
0
  6
CONTINUOUS
 62
     7
100
AcDbLine
 10
1017.9673275467
 20
1004.1800682621
 30
0.0
 11
1017.9673275467
 21
1007.1800743418
 31
0.0
  0
LINE
  5
9E
330
1F
100
AcDbEntity
  8
0
  6
CONTINUOUS
 62
     7
100
AcDbLine
 10
1017.4673190828
 20
1004.1800682621
 30
0.0
 11
1017.9673275467
 21
1004.1800682621
 31
0.0
  0
LINE
  5
9F
330
1F
100
AcDbEntity
  8
0
  6
CONTINUOUS
 62
     7
100
AcDbLine
 10
1017.4673190828
 20
1004.1800682621
 30
0.0
 11
1017.4673190828
 21
987.180063613
 31
0.0
  0
LINE
  5
A0
330
1F
100
AcDbEntity
  8
0
  6
CONTINUOUS
 62
     7
100
AcDbLine
 10
1017.9673275467
 20
987.180063613
 30
0.0
 11
1017.4673190828
 21
987.180063613
 31
0.0
  0
LINE
  5
A1
330
1F
100
AcDbEntity
  8
0
  6
CONTINUOUS
 62
     7
100
AcDbLine
 10
1017.9673275467
 20
984.1800724345
 30
0.0
 11
1017.9673275467
 21
987.180063613
 31
0.0
  0
LINE
  5
A2
330
1F
100
AcDbEntity
  8
0
  6
CONTINUOUS
 62
     7
100
AcDbLine
 10
1017.9673275467
 20
983.6800639706
 30
0.0
 11
1017.9673275467
 21
984.1800724345
 31
0.0
  0
LINE
  5
A3
330
1F
100
AcDbEntity
  8
0
  6
CONTINUOUS
 62
     7
100
AcDbLine
 10
1020.4673251625
 20
983.6800639706
 30
0.0
 11
1017.9673275467
 21
983.6800639706
 31
0.0
  0
LINE
  5
A4
330
1F
100
AcDbEntity
  8
0
  6
CONTINUOUS
 62
     7
100
AcDbLine
 10
1020.4673251625
 20
608.1800704079
 30
0.0
 11
1020.4673251625
 21
983.6800639706
 31
0.0
  0
LINE
  5
A5
330
1F
100
AcDbEntity
  8
0
  6
CONTINUOUS
 62
     7
100
AcDbLine
 10
1017.9673275467
 20
608.1800704079
 30
0.0
 11
1020.4673251625
 21
608.1800704079
 31
0.0
  0
LINE
  5
A6
330
1F
100
AcDbEntity
  8
0
  6
CONTINUOUS
 62
     7
100
AcDbLine
 10
1017.9673275467
 20
607.680061944
 30
0.0
 11
1017.9673275467
 21
608.1800704079
 31
0.0
  0
LINE
  5
A7
330
1F
100
AcDbEntity
  8
0
  6
CONTINUOUS
 62
     7
100
AcDbLine
 10
1017.9673275467
 20
604.6800707655
 30
0.0
 11
1017.9673275467
 21
607.680061944
 31
0.0
  0
LINE
  5
A8
330
1F
100
AcDbEntity
  8
0
  6
CONTINUOUS
 62
     7
100
AcDbLine
 10
1017.9673275467
 20
604.6800707655
 30
0.0
 11
1017.4673190828
 21
604.6800707655
 31
0.0
  0
LINE
  5
A9
330
1F
100
AcDbEntity
  8
0
  6
CONTINUOUS
 62
     7
100
AcDbLine
 10
1020.4673251625
 20
1004.1800682621
 30
0.0
 11
1020.4673251625
 21
1007.1800743418
 31
0.0
  0
LINE
  5
AA
330
1F
100
AcDbEntity
  8
0
  6
CONTINUOUS
 62
     7
100
AcDbLine
 10
1020.4673251625
 20
1004.1800682621
 30
0.0
 11
1017.9673275467
 21
1004.1800682621
 31
0.0
  0
LINE
  5
AB
330
1F
100
AcDbEntity
  8
0
  6
CONTINUOUS
 62
     7
100
AcDbLine
 10
1017.9673275467
 20
1007.1800743418
 30
0.0
 11
1020.4673251625
 21
1007.1800743418
 31
0.0
  0
LINE
  5
AC
330
1F
100
AcDbEntity
  8
0
  6
CONTINUOUS
 62
     7
100
AcDbLine
 10
1020.4673251625
 20
984.1800724345
 30
0.0
 11
1020.4673251625
 21
987.180063613
 31
0.0
  0
LINE
  5
AD
330
1F
100
AcDbEntity
  8
0
  6
CONTINUOUS
 62
     7
100
AcDbLine
 10
1020.4673251625
 20
984.1800724345
 30
0.0
 11
1017.9673275467
 21
984.1800724345
 31
0.0
  0
LINE
  5
AE
330
1F
100
AcDbEntity
  8
0
  6
CONTINUOUS
 62
     7
100
AcDbLine
 10
1017.9673275467
 20
987.180063613
 30
0.0
 11
1020.4673251625
 21
987.180063613
 31
0.0
  0
LINE
  5
AF
330
1F
100
AcDbEntity
  8
0
  6
CONTINUOUS
 62
     7
100
AcDbLine
 10
1020.4673251625
 20
604.6800707655
 30
0.0
 11
1020.4673251625
 21
607.680061944
 31
0.0
  0
LINE
  5
B0
330
1F
100
AcDbEntity
  8
0
  6
CONTINUOUS
 62
     7
100
AcDbLine
 10
1017.9673275467
 20
604.6800707655
 30
0.0
 11
1020.4673251625
 21
604.6800707655
 31
0.0
  0
LINE
  5
B1
330
1F
100
AcDbEntity
  8
0
  6
CONTINUOUS
 62
     7
100
AcDbLine
 10
1017.9673275467
 20
607.680061944
 30
0.0
 11
1020.4673251625
 21
607.680061944
 31
0.0
  0
LINE
  5
B2
330
1F
100
AcDbEntity
  8
0
  6
CONTINUOUS
 62
     7
100
AcDbLine
 10
1020.4673251625
 20
584.6800600367
 30
0.0
 11
1017.9673275467
 21
584.6800600367
 31
0.0
  0
LINE
  5
B3
330
1F
100
AcDbEntity
  8
0
  6
CONTINUOUS
 62
     7
100
AcDbLine
 10
1020.4673251625
 20
587.6800661164
 30
0.0
 11
1017.9673275467
 21
587.6800661164
 31
0.0
  0
LINE
  5
B4
330
1F
100
AcDbEntity
  8
0
  6
CONTINUOUS
 62
     7
100
AcDbLine
 10
1020.4673251625
 20
584.6800600367
 30
0.0
 11
1020.4673251625
 21
587.6800661164
 31
0.0
  0
LINE
  5
B5
330
1F
100
AcDbEntity
  8
0
  6
CONTINUOUS
 62
     7
100
AcDbLine
 10
1000.9673228975
 20
1051.6800676661
 30
0.0
 11
1000.9673228975
 21
540.1800667124
 31
0.0
  0
LINE
  5
B6
330
1F
100
AcDbEntity
  8
0
  6
CONTINUOUS
 62
     7
100
AcDbLine
 10
1022.771312904
 20
1003.6800597983
 30
0.0
 11
1019.0525046106
 21
1003.6800597983
 31
0.0
  0
LINE
  5
B7
330
1F
100
AcDbEntity
  8
0
  6
CONTINUOUS
 62
     7
100
AcDbLine
 10
1022.771312904
 20
987.6800720768
 30
0.0
 11
1022.771312904
 21
1003.6800597983
 31
0.0
  0
LINE
  5
B8
330
1F
100
AcDbEntity
  8
0
  6
CONTINUOUS
 62
     7
100
AcDbLine
 10
1019.0525046106
 20
987.6800720768
 30
0.0
 11
1022.771312904
 21
987.6800720768
 31
0.0
  0
LINE
  5
B9
330
1F
100
AcDbEntity
  8
0
  6
CONTINUOUS
 62
     7
100
AcDbLine
 10
1019.0525046106
 20
987.6800720768
 30
0.0
 11
1019.0525046106
 21
1003.6800597983
 31
0.0
  0
LINE
  5
BA
330
1F
100
AcDbEntity
  8
0
  6
CONTINUOUS
 62
     7
100
AcDbLine
 10
1022.771312904
 20
987.6800720768
 30
0.0
 11
1024.2201975103
 21
987.6800720768
 31
0.0
  0
LINE
  5
BB
330
1F
100
AcDbEntity
  8
0
  6
CONTINUOUS
 62
     7
100
AcDbLine
 10
1024.2201975103
 20
987.6800720768
 30
0.0
 11
1024.2201975103
 21
1003.6800597983
 31
0.0
  0
LINE
  5
BC
330
1F
100
AcDbEntity
  8
0
  6
CONTINUOUS
 62
     7
100
AcDbLine
 10
1022.771312904
 20
1003.6800597983
 30
0.0
 11
1024.2201975103
 21
1003.6800597983
 31
0.0
  0
LINE
  5
BD
330
1F
100
AcDbEntity
  8
0
  6
CONTINUOUS
 62
     7
100
AcDbLine
 10
1022.771312904
 20
588.1800745802
 30
0.0
 11
1024.2201975103
 21
588.1800745802
 31
0.0
  0
LINE
  5
BE
330
1F
100
AcDbEntity
  8
0
  6
CONTINUOUS
 62
     7
100
AcDbLine
 10
1022.771312904
 20
604.1800623017
 30
0.0
 11
1022.771312904
 21
588.1800745802
 31
0.0
  0
LINE
  5
BF
330
1F
100
AcDbEntity
  8
0
  6
CONTINUOUS
 62
     7
100
AcDbLine
 10
1022.771312904
 20
604.1800623017
 30
0.0
 11
1024.2201975103
 21
604.1800623017
 31
0.0
  0
LINE
  5
C0
330
1F
100
AcDbEntity
  8
0
  6
CONTINUOUS
 62
     7
100
AcDbLine
 10
1024.2201975103
 20
604.1800623017
 30
0.0
 11
1024.2201975103
 21
588.1800745802
 31
0.0
  0
LINE
  5
C1
330
1F
100
AcDbEntity
  8
0
  6
CONTINUOUS
 62
     7
100
AcDbLine
 10
1019.0525046106
 20
604.1800623017
 30
0.0
 11
1022.771312904
 21
604.1800623017
 31
0.0
  0
LINE
  5
C2
330
1F
100
AcDbEntity
  8
0
  6
CONTINUOUS
 62
     7
100
AcDbLine
 10
1022.771312904
 20
588.1800745802
 30
0.0
 11
1019.0525046106
 21
588.1800745802
 31
0.0
  0
LINE
  5
C3
330
1F
100
AcDbEntity
  8
0
  6
CONTINUOUS
 62
     7
100
AcDbLine
 10
1019.0525046106
 20
588.1800745802
 30
0.0
 11
1019.0525046106
 21
604.1800623017
 31
0.0
  0
LINE
  5
C4
330
1F
100
AcDbEntity
  8
0
  6
CONTINUOUS
 62
     7
100
AcDbLine
 10
999.967320871
 20
552.1800612288
 30
0.0
 11
1000.9673228975
 21
552.1800612288
 31
0.0
  0
LINE
  5
C5
330
1F
100
AcDbEntity
  8
0
  6
CONTINUOUS
 62
     7
100
AcDbLine
 10
999.967320871
 20
1039.6800731497
 30
0.0
 11
999.967320871
 21
552.1800612288
 31
0.0
  0
LINE
  5
C6
330
1F
100
AcDbEntity
  8
0
  6
CONTINUOUS
 62
     7
100
AcDbLine
 10
1000.9673228975
 20
1039.6800731497
 30
0.0
 11
999.967320871
 21
1039.6800731497
 31
0.0
  0
LINE
  5
C7
330
1F
100
AcDbEntity
  8
0
  6
CONTINUOUS
 62
     7
100
AcDbLine
 10
998.9673188444
 20
1039.6800731497
 30
0.0
 11
998.4673252817
 21
1039.6381114798
 31
0.0
  0
LINE
  5
C8
330
1F
100
AcDbEntity
  8
0
  6
CONTINUOUS
 62
     7
100
AcDbLine
 10
999.967320871
 20
552.1800612288
 30
0.0
 11
998.9673188444
 21
552.1800612288
 31
0.0
  0
LINE
  5
C9
330
1F
100
AcDbEntity
  8
0
  6
CONTINUOUS
 62
     7
100
AcDbLine
 10
998.4673252817
 20
552.2220228987
 30
0.0
 11
998.9673188444
 21
552.1800612288
 31
0.0
  0
LINE
  5
CA
330
1F
100
AcDbEntity
  8
0
  6
CONTINUOUS
 62
     7
100
AcDbLine
 10
998.9673188444
 20
1039.6800731497
 30
0.0
 11
999.967320871
 21
1039.6800731497
 31
0.0
  0
LINE
  5
CB
330
1F
100
AcDbEntity
  8
0
  6
CONTINUOUS
 62
     7
100
AcDbLine
 10
1019.0525046106
 20
987.6800720768
 30
0.0
 11
1018.9673146721
 21
987.6800720768
 31
0.0
  0
LINE
  5
CC
330
1F
100
AcDbEntity
  8
0
  6
CONTINUOUS
 62
     7
100
AcDbLine
 10
1018.9673146721
 20
1003.6800597983
 30
0.0
 11
1019.0525046106
 21
1003.6800597983
 31
0.0
  0
LINE
  5
CD
330
1F
100
AcDbEntity
  8
0
  6
CONTINUOUS
 62
     7
100
AcDbLine
 10
1018.9673146721
 20
987.6800720768
 30
0.0
 11
1018.9673146721
 21
1003.6800597983
 31
0.0
  0
LINE
  5
CE
330
1F
100
AcDbEntity
  8
0
  6
CONTINUOUS
 62
     7
100
AcDbLine
 10
1018.9673146721
 20
604.1800623017
 30
0.0
 11
1019.0525046106
 21
604.1800623017
 31
0.0
  0
LINE
  5
CF
330
1F
100
AcDbEntity
  8
0
  6
CONTINUOUS
 62
     7
100
AcDbLine
 10
1019.0525046106
 20
588.1800745802
 30
0.0
 11
1018.9673146721
 21
588.1800745802
 31
0.0
  0
LINE
  5
D0
330
1F
100
AcDbEntity
  8
0
  6
CONTINUOUS
 62
     7
100
AcDbLine
 10
1018.9673146721
 20
588.1800745802
 30
0.0
 11
1018.9673146721
 21
604.1800623017
 31
0.0
  0
LINE
  5
D1
330
1F
100
AcDbEntity
  8
0
  6
CONTINUOUS
 62
     7
100
AcDbLine
 10
1018.9673146721
 20
1004.1800682621
 30
0.0
 11
1018.9673146721
 21
1003.6800597983
 31
0.0
  0
LINE
  5
D2
330
1F
100
AcDbEntity
  8
0
  6
CONTINUOUS
 62
     7
100
AcDbLine
 10
1020.4673251625
 20
1003.6800597983
 30
0.0
 11
1020.4673251625
 21
1004.1800682621
 31
0.0
  0
LINE
  5
D3
330
1F
100
AcDbEntity
  8
0
  6
CONTINUOUS
 62
     7
100
AcDbLine
 10
1018.9673146721
 20
987.6800720768
 30
0.0
 11
1018.9673146721
 21
987.180063613
 31
0.0
  0
LINE
  5
D4
330
1F
100
AcDbEntity
  8
0
  6
CONTINUOUS
 62
     7
100
AcDbLine
 10
1020.4673251625
 20
987.180063613
 30
0.0
 11
1020.4673251625
 21
987.6800720768
 31
0.0
  0
LINE
  5
D5
330
1F
100
AcDbEntity
  8
0
  6
CONTINUOUS
 62
     7
100
AcDbLine
 10
1018.9673146721
 20
604.1800623017
 30
0.0
 11
1018.9673146721
 21
604.6800707655
 31
0.0
  0
LINE
  5
D6
330
1F
100
AcDbEntity
  8
0
  6
CONTINUOUS
 62
     7
100
AcDbLine
 10
1020.4673251625
 20
604.6800707655
 30
0.0
 11
1020.4673251625
 21
604.1800623017
 31
0.0
  0
LINE
  5
D7
330
1F
100
AcDbEntity
  8
0
  6
CONTINUOUS
 62
     7
100
AcDbLine
 10
1018.9673146721
 20
587.6800661164
 30
0.0
 11
1018.9673146721
 21
588.1800745802
 31
0.0
  0
LINE
  5
D8
330
1F
100
AcDbEntity
  8
0
  6
CONTINUOUS
 62
     7
100
AcDbLine
 10
1020.4673251625
 20
588.1800745802
 30
0.0
 11
1020.4673251625
 21
587.6800661164
 31
0.0
  0
LINE
  5
D9
330
1F
100
AcDbEntity
  8
0
  6
CONTINUOUS
 62
     7
100
AcDbLine
 10
662.9673233744
 20
987.180063613
 30
0.0
 11
662.9673233744
 21
1004.1800682621
 31
0.0
  0
LINE
  5
DA
330
1F
100
AcDbEntity
  8
0
  6
CONTINUOUS
 62
     7
100
AcDbLine
 10
662.9673233744
 20
1004.1800682621
 30
0.0
 11
662.4673149105
 21
1004.1800682621
 31
0.0
  0
LINE
  5
DB
330
1F
100
AcDbEntity
  8
0
  6
CONTINUOUS
 62
     7
100
AcDbLine
 10
662.4673149105
 20
1007.1800743418
 30
0.0
 11
662.4673149105
 21
1004.1800682621
 31
0.0
  0
LINE
  5
DC
330
1F
100
AcDbEntity
  8
0
  6
CONTINUOUS
 62
     7
100
AcDbLine
 10
662.4673149105
 20
1007.6800679045
 30
0.0
 11
662.4673149105
 21
1007.1800743418
 31
0.0
  0
LINE
  5
DD
330
1F
100
AcDbEntity
  8
0
  6
CONTINUOUS
 62
     7
100
AcDbLine
 10
659.9673172947
 20
1007.6800679045
 30
0.0
 11
662.4673149105
 21
1007.6800679045
 31
0.0
  0
LINE
  5
DE
330
1F
100
AcDbEntity
  8
0
  6
CONTINUOUS
 62
     7
100
AcDbLine
 10
659.9673172947
 20
1051.6800676661
 30
0.0
 11
659.9673172947
 21
1007.6800679045
 31
0.0
  0
LINE
  5
DF
330
1F
100
AcDbEntity
  8
0
  6
CONTINUOUS
 62
     7
100
AcDbLine
 10
676.9673219439
 20
1051.6800676661
 30
0.0
 11
674.7173211094
 21
1051.6800676661
 31
0.0
  0
LINE
  5
E0
330
1F
100
AcDbEntity
  8
0
  6
CONTINUOUS
 62
     7
100
AcDbLine
 10
676.9673219439
 20
540.1800667124
 30
0.0
 11
676.9673219439
 21
1051.6800676661
 31
0.0
  0
LINE
  5
E1
330
1F
100
AcDbEntity
  8
0
  6
CONTINUOUS
 62
     7
100
AcDbLine
 10
674.7173211094
 20
540.1800667124
 30
0.0
 11
676.9673219439
 21
540.1800667124
 31
0.0
  0
LINE
  5
E2
330
1F
100
AcDbEntity
  8
0
  6
CONTINUOUS
 62
     7
100
AcDbLine
 10
659.9673172947
 20
584.180066474
 30
0.0
 11
659.9673172947
 21
540.1800667124
 31
0.0
  0
LINE
  5
E3
330
1F
100
AcDbEntity
  8
0
  6
CONTINUOUS
 62
     7
100
AcDbLine
 10
662.4673149105
 20
584.180066474
 30
0.0
 11
659.9673172947
 21
584.180066474
 31
0.0
  0
LINE
  5
E4
330
1F
100
AcDbEntity
  8
0
  6
CONTINUOUS
 62
     7
100
AcDbLine
 10
662.4673149105
 20
584.6800600367
 30
0.0
 11
662.4673149105
 21
584.180066474
 31
0.0
  0
LINE
  5
E5
330
1F
100
AcDbEntity
  8
0
  6
CONTINUOUS
 62
     7
100
AcDbLine
 10
662.4673149105
 20
587.6800661164
 30
0.0
 11
662.4673149105
 21
584.6800600367
 31
0.0
  0
LINE
  5
E6
330
1F
100
AcDbEntity
  8
0
  6
CONTINUOUS
 62
     7
100
AcDbLine
 10
662.9673233744
 20
587.6800661164
 30
0.0
 11
662.4673149105
 21
587.6800661164
 31
0.0
  0
LINE
  5
E7
330
1F
100
AcDbEntity
  8
0
  6
CONTINUOUS
 62
     7
100
AcDbLine
 10
662.9673233744
 20
587.6800661164
 30
0.0
 11
662.9673233744
 21
604.6800707655
 31
0.0
  0
LINE
  5
E8
330
1F
100
AcDbEntity
  8
0
  6
CONTINUOUS
 62
     7
100
AcDbLine
 10
662.4673149105
 20
604.6800707655
 30
0.0
 11
662.9673233744
 21
604.6800707655
 31
0.0
  0
LINE
  5
E9
330
1F
100
AcDbEntity
  8
0
  6
CONTINUOUS
 62
     7
100
AcDbLine
 10
662.4673149105
 20
607.680061944
 30
0.0
 11
662.4673149105
 21
604.6800707655
 31
0.0
  0
LINE
  5
EA
330
1F
100
AcDbEntity
  8
0
  6
CONTINUOUS
 62
     7
100
AcDbLine
 10
662.4673149105
 20
608.1800704079
 30
0.0
 11
662.4673149105
 21
607.680061944
 31
0.0
  0
LINE
  5
EB
330
1F
100
AcDbEntity
  8
0
  6
CONTINUOUS
 62
     7
100
AcDbLine
 10
659.9673172947
 20
608.1800704079
 30
0.0
 11
662.4673149105
 21
608.1800704079
 31
0.0
  0
LINE
  5
EC
330
1F
100
AcDbEntity
  8
0
  6
CONTINUOUS
 62
     7
100
AcDbLine
 10
659.9673172947
 20
983.6800639706
 30
0.0
 11
659.9673172947
 21
608.1800704079
 31
0.0
  0
LINE
  5
ED
330
1F
100
AcDbEntity
  8
0
  6
CONTINUOUS
 62
     7
100
AcDbLine
 10
662.4673149105
 20
983.6800639706
 30
0.0
 11
659.9673172947
 21
983.6800639706
 31
0.0
  0
LINE
  5
EE
330
1F
100
AcDbEntity
  8
0
  6
CONTINUOUS
 62
     7
100
AcDbLine
 10
662.4673149105
 20
984.1800724345
 30
0.0
 11
662.4673149105
 21
983.6800639706
 31
0.0
  0
LINE
  5
EF
330
1F
100
AcDbEntity
  8
0
  6
CONTINUOUS
 62
     7
100
AcDbLine
 10
662.4673149105
 20
987.180063613
 30
0.0
 11
662.4673149105
 21
984.1800724345
 31
0.0
  0
LINE
  5
F0
330
1F
100
AcDbEntity
  8
0
  6
CONTINUOUS
 62
     7
100
AcDbLine
 10
662.4673149105
 20
987.180063613
 30
0.0
 11
662.9673233744
 21
987.180063613
 31
0.0
  0
LINE
  5
F1
330
1F
100
AcDbEntity
  8
0
  6
CONTINUOUS
 62
     7
100
AcDbLine
 10
659.9673172947
 20
1004.1800682621
 30
0.0
 11
662.4673149105
 21
1004.1800682621
 31
0.0
  0
LINE
  5
F2
330
1F
100
AcDbEntity
  8
0
  6
CONTINUOUS
 62
     7
100
AcDbLine
 10
659.9673172947
 20
1007.1800743418
 30
0.0
 11
659.9673172947
 21
1004.1800682621
 31
0.0
  0
LINE
  5
F3
330
1F
100
AcDbEntity
  8
0
  6
CONTINUOUS
 62
     7
100
AcDbLine
 10
659.9673172947
 20
1007.1800743418
 30
0.0
 11
662.4673149105
 21
1007.1800743418
 31
0.0
  0
LINE
  5
F4
330
1F
100
AcDbEntity
  8
0
  6
CONTINUOUS
 62
     7
100
AcDbLine
 10
662.4673149105
 20
984.1800724345
 30
0.0
 11
659.9673172947
 21
984.1800724345
 31
0.0
  0
LINE
  5
F5
330
1F
100
AcDbEntity
  8
0
  6
CONTINUOUS
 62
     7
100
AcDbLine
 10
659.9673172947
 20
987.180063613
 30
0.0
 11
659.9673172947
 21
984.1800724345
 31
0.0
  0
LINE
  5
F6
330
1F
100
AcDbEntity
  8
0
  6
CONTINUOUS
 62
     7
100
AcDbLine
 10
662.4673149105
 20
987.180063613
 30
0.0
 11
659.9673172947
 21
987.180063613
 31
0.0
  0
LINE
  5
F7
330
1F
100
AcDbEntity
  8
0
  6
CONTINUOUS
 62
     7
100
AcDbLine
 10
659.9673172947
 20
607.680061944
 30
0.0
 11
659.9673172947
 21
604.6800707655
 31
0.0
  0
LINE
  5
F8
330
1F
100
AcDbEntity
  8
0
  6
CONTINUOUS
 62
     7
100
AcDbLine
 10
659.9673172947
 20
607.680061944
 30
0.0
 11
662.4673149105
 21
607.680061944
 31
0.0
  0
LINE
  5
F9
330
1F
100
AcDbEntity
  8
0
  6
CONTINUOUS
 62
     7
100
AcDbLine
 10
662.4673149105
 20
604.6800707655
 30
0.0
 11
659.9673172947
 21
604.6800707655
 31
0.0
  0
LINE
  5
FA
330
1F
100
AcDbEntity
  8
0
  6
CONTINUOUS
 62
     7
100
AcDbLine
 10
662.4673149105
 20
584.6800600367
 30
0.0
 11
659.9673172947
 21
584.6800600367
 31
0.0
  0
LINE
  5
FB
330
1F
100
AcDbEntity
  8
0
  6
CONTINUOUS
 62
     7
100
AcDbLine
 10
659.9673172947
 20
587.6800661164
 30
0.0
 11
659.9673172947
 21
584.6800600367
 31
0.0
  0
LINE
  5
FC
330
1F
100
AcDbEntity
  8
0
  6
CONTINUOUS
 62
     7
100
AcDbLine
 10
659.9673172947
 20
587.6800661164
 30
0.0
 11
662.4673149105
 21
587.6800661164
 31
0.0
  0
LINE
  5
FD
330
1F
100
AcDbEntity
  8
0
  6
CONTINUOUS
 62
     7
100
AcDbLine
 10
679.4673195597
 20
540.1800667124
 30
0.0
 11
679.4673195597
 21
1051.6800676661
 31
0.0
  0
LINE
  5
FE
330
1F
100
AcDbEntity
  8
0
  6
CONTINUOUS
 62
     7
100
AcDbLine
 10
657.6633295532
 20
1003.6800597983
 30
0.0
 11
656.2144449469
 21
1003.6800597983
 31
0.0
  0
LINE
  5
FF
330
1F
100
AcDbEntity
  8
0
  6
CONTINUOUS
 62
     7
100
AcDbLine
 10
657.6633295532
 20
987.6800720768
 30
0.0
 11
657.6633295532
 21
1003.6800597983
 31
0.0
  0
LINE
  5
100
330
1F
100
AcDbEntity
  8
0
  6
CONTINUOUS
 62
     7
100
AcDbLine
 10
657.6633295532
 20
987.6800720768
 30
0.0
 11
656.2144449469
 21
987.6800720768
 31
0.0
  0
LINE
  5
101
330
1F
100
AcDbEntity
  8
0
  6
CONTINUOUS
 62
     7
100
AcDbLine
 10
656.2144449469
 20
987.6800720768
 30
0.0
 11
656.2144449469
 21
1003.6800597983
 31
0.0
  0
LINE
  5
102
330
1F
100
AcDbEntity
  8
0
  6
CONTINUOUS
 62
     7
100
AcDbLine
 10
661.3821378466
 20
987.6800720768
 30
0.0
 11
657.6633295532
 21
987.6800720768
 31
0.0
  0
LINE
  5
103
330
1F
100
AcDbEntity
  8
0
  6
CONTINUOUS
 62
     7
100
AcDbLine
 10
657.6633295532
 20
1003.6800597983
 30
0.0
 11
661.3821378466
 21
1003.6800597983
 31
0.0
  0
LINE
  5
104
330
1F
100
AcDbEntity
  8
0
  6
CONTINUOUS
 62
     7
100
AcDbLine
 10
661.3821378466
 20
1003.6800597983
 30
0.0
 11
661.3821378466
 21
987.6800720768
 31
0.0
  0
LINE
  5
105
330
1F
100
AcDbEntity
  8
0
  6
CONTINUOUS
 62
     7
100
AcDbLine
 10
657.6633295532
 20
604.1800623017
 30
0.0
 11
656.2144449469
 21
604.1800623017
 31
0.0
  0
LINE
  5
106
330
1F
100
AcDbEntity
  8
0
  6
CONTINUOUS
 62
     7
100
AcDbLine
 10
657.6633295532
 20
604.1800623017
 30
0.0
 11
657.6633295532
 21
588.1800745802
 31
0.0
  0
LINE
  5
107
330
1F
100
AcDbEntity
  8
0
  6
CONTINUOUS
 62
     7
100
AcDbLine
 10
657.6633295532
 20
588.1800745802
 30
0.0
 11
656.2144449469
 21
588.1800745802
 31
0.0
  0
LINE
  5
108
330
1F
100
AcDbEntity
  8
0
  6
CONTINUOUS
 62
     7
100
AcDbLine
 10
656.2144449469
 20
604.1800623017
 30
0.0
 11
656.2144449469
 21
588.1800745802
 31
0.0
  0
LINE
  5
109
330
1F
100
AcDbEntity
  8
0
  6
CONTINUOUS
 62
     7
100
AcDbLine
 10
657.6633295532
 20
588.1800745802
 30
0.0
 11
661.3821378466
 21
588.1800745802
 31
0.0
  0
LINE
  5
10A
330
1F
100
AcDbEntity
  8
0
  6
CONTINUOUS
 62
     7
100
AcDbLine
 10
661.3821378466
 20
604.1800623017
 30
0.0
 11
657.6633295532
 21
604.1800623017
 31
0.0
  0
LINE
  5
10B
330
1F
100
AcDbEntity
  8
0
  6
CONTINUOUS
 62
     7
100
AcDbLine
 10
661.3821378466
 20
604.1800623017
 30
0.0
 11
661.3821378466
 21
588.1800745802
 31
0.0
  0
LINE
  5
10C
330
1F
100
AcDbEntity
  8
0
  6
CONTINUOUS
 62
     7
100
AcDbLine
 10
661.4673277851
 20
987.6800720768
 30
0.0
 11
661.3821378466
 21
987.6800720768
 31
0.0
  0
LINE
  5
10D
330
1F
100
AcDbEntity
  8
0
  6
CONTINUOUS
 62
     7
100
AcDbLine
 10
661.3821378466
 20
1003.6800597983
 30
0.0
 11
661.4673277851
 21
1003.6800597983
 31
0.0
  0
LINE
  5
10E
330
1F
100
AcDbEntity
  8
0
  6
CONTINUOUS
 62
     7
100
AcDbLine
 10
661.4673277851
 20
1003.6800597983
 30
0.0
 11
661.4673277851
 21
987.6800720768
 31
0.0
  0
LINE
  5
10F
330
1F
100
AcDbEntity
  8
0
  6
CONTINUOUS
 62
     7
100
AcDbLine
 10
661.4673277851
 20
588.1800745802
 30
0.0
 11
661.3821378466
 21
588.1800745802
 31
0.0
  0
LINE
  5
110
330
1F
100
AcDbEntity
  8
0
  6
CONTINUOUS
 62
     7
100
AcDbLine
 10
661.3821378466
 20
604.1800623017
 30
0.0
 11
661.4673277851
 21
604.1800623017
 31
0.0
  0
LINE
  5
111
330
1F
100
AcDbEntity
  8
0
  6
CONTINUOUS
 62
     7
100
AcDbLine
 10
661.4673277851
 20
604.1800623017
 30
0.0
 11
661.4673277851
 21
588.1800745802
 31
0.0
  0
LINE
  5
112
330
1F
100
AcDbEntity
  8
0
  6
CONTINUOUS
 62
     7
100
AcDbLine
 10
661.4673277851
 20
1004.1800682621
 30
0.0
 11
661.4673277851
 21
1003.6800597983
 31
0.0
  0
LINE
  5
113
330
1F
100
AcDbEntity
  8
0
  6
CONTINUOUS
 62
     7
100
AcDbLine
 10
659.9673172947
 20
1003.6800597983
 30
0.0
 11
659.9673172947
 21
1004.1800682621
 31
0.0
  0
LINE
  5
114
330
1F
100
AcDbEntity
  8
0
  6
CONTINUOUS
 62
     7
100
AcDbLine
 10
661.4673277851
 20
987.6800720768
 30
0.0
 11
661.4673277851
 21
987.180063613
 31
0.0
  0
LINE
  5
115
330
1F
100
AcDbEntity
  8
0
  6
CONTINUOUS
 62
     7
100
AcDbLine
 10
659.9673172947
 20
987.180063613
 30
0.0
 11
659.9673172947
 21
987.6800720768
 31
0.0
  0
LINE
  5
116
330
1F
100
AcDbEntity
  8
0
  6
CONTINUOUS
 62
     7
100
AcDbLine
 10
661.4673277851
 20
604.1800623017
 30
0.0
 11
661.4673277851
 21
604.6800707655
 31
0.0
  0
LINE
  5
117
330
1F
100
AcDbEntity
  8
0
  6
CONTINUOUS
 62
     7
100
AcDbLine
 10
659.9673172947
 20
604.6800707655
 30
0.0
 11
659.9673172947
 21
604.1800623017
 31
0.0
  0
LINE
  5
118
330
1F
100
AcDbEntity
  8
0
  6
CONTINUOUS
 62
     7
100
AcDbLine
 10
661.4673277851
 20
587.6800661164
 30
0.0
 11
661.4673277851
 21
588.1800745802
 31
0.0
  0
LINE
  5
119
330
1F
100
AcDbEntity
  8
0
  6
CONTINUOUS
 62
     7
100
AcDbLine
 10
659.9673172947
 20
588.1800745802
 30
0.0
 11
659.9673172947
 21
587.6800661164
 31
0.0
  0
CIRCLE
  5
11A
330
1F
100
AcDbEntity
  8
0
  6
CONTINUOUS
 62
     7
100
AcDbCircle
 10
701.9673212286
 20
555.6800671892
 30
0.0
 40
3.690000000000024
  0
ARC
  5
11B
330
1F
100
AcDbEntity
  8
0
  6
CONTINUOUS
 62
     7
100
AcDbCircle
 10
676.9705866583
 20
1052.5950293558
 30
0.0
 40
8.497155566992346
100
AcDbArc
 50
0.5733306728
 51
24.9552703609
  0
LINE
  5
11C
330
1F
100
AcDbEntity
  8
0
  6
CONTINUOUS
 62
     7
100
AcDbLine
 10
684.6744260307
 20
1056.180069335
 30
0.0
 11
995.7602164265
 21
1056.180069335
 31
0.0
  0
ARC
  5
11D
330
1F
100
AcDbEntity
  8
0
  6
CONTINUOUS
 62
     7
100
AcDbCircle
 10
1005.4343667154
 20
1052.1486765324
 30
0.0
 40
10.48052058549456
100
AcDbArc
 50
157.3776277767
 51
177.0937711897
  0
LINE
  5
11E
330
1F
100
AcDbEntity
  8
0
  6
CONTINUOUS
 62
     7
100
AcDbLine
 10
994.9673256393
 20
1052.6800547915
 30
0.0
 11
685.4673168179
 21
1052.6800547915
 31
0.0
  0
LWPOLYLINE
  5
11F
330
1F
100
AcDbEntity
  8
0
  6
CONTINUOUS
 62
     7
100
AcDbPolyline
 90
        6
 70
   128
 43
0.0
 10
685.4673168179
 20
1052.6800547915
 10
685.2875194069
 20
1053.203145154
 10
685.1077219959
 20
1053.660551198
 10
684.9279692884
 20
1053.9947842436
 10
684.7482314821
 20
1054.1640614348
 10
684.6744260307
 20
1054.1800652819
  0
LINE
  5
120
330
1F
100
AcDbEntity
  8
0
  6
CONTINUOUS
 62
     7
100
AcDbLine
 10
684.6744260307
 20
1056.180069335
 30
0.0
 11
684.6744260307
 21
1054.1800652819
 31
0.0
  0
ARC
  5
121
330
1F
100
AcDbEntity
  8
0
  6
CONTINUOUS
 62
     7
100
AcDbCircle
 10
685.5524373811
 20
530.682996888
 30
0.0
 40
8.497509041113183
100
AcDbArc
 50
90.5739482674
 51
114.954757893
  0
LINE
  5
122
330
1F
100
AcDbEntity
  8
0
  6
CONTINUOUS
 62
     7
100
AcDbLine
 10
681.9673171755
 20
1053.4729455786
 30
0.0
 11
681.9673171755
 21
538.3871887999
 31
0.0
  0
ARC
  5
123
330
1F
100
AcDbEntity
  8
0
  6
CONTINUOUS
 62
     7
100
AcDbCircle
 10
685.9993064868
 20
1063.1497190052
 30
0.0
 40
10.48317135964187
100
AcDbArc
 50
247.380133117
 51
267.0911607226
  0
LINE
  5
124
330
1F
100
AcDbEntity
  8
0
  6
CONTINUOUS
 62
     7
100
AcDbLine
 10
685.4673168179
 20
1052.6800547915
 30
0.0
 11
685.4673168179
 21
539.180079587
 31
0.0
  0
LINE
  5
125
330
1F
100
AcDbEntity
  8
0
  6
CONTINUOUS
 62
     7
100
AcDbLine
 10
681.9673171755
 20
1053.4729455786
 30
0.0
 11
683.9673212286
 21
1053.4729455786
 31
0.0
  0
ARC
  5
126
330
1F
100
AcDbEntity
  8
0
  6
CONTINUOUS
 62
     7
100
AcDbCircle
 10
686.0657240678
 20
1055.6274210082
 30
0.0
 40
3.00750043262176
100
AcDbArc
 50
225.7553794002
 51
258.5231710577
  0
LINE
  5
127
330
1F
100
AcDbEntity
  8
0
  6
CONTINUOUS
 62
     7
100
AcDbLine
 10
994.9673256393
 20
539.180079587
 30
0.0
 11
994.9673256393
 21
1052.6800547915
 31
0.0
  0
LINE
  5
128
330
1F
100
AcDbEntity
  8
0
  6
CONTINUOUS
 62
     7
100
AcDbLine
 10
685.4673168179
 20
539.180079587
 30
0.0
 11
994.9673256393
 21
539.180079587
 31
0.0
  0
CIRCLE
  5
129
330
1F
100
AcDbEntity
  8
0
  6
CONTINUOUS
 62
     7
100
AcDbCircle
 10
701.9673212286
 20
555.6800671892
 30
0.0
 40
2.999999999999886
  0
LINE
  5
12A
330
1F
100
AcDbEntity
  8
0
  6
CONTINUOUS
 62
     7
100
AcDbLine
 10
995.7602164265
 20
1056.180069335
 30
0.0
 11
995.7602164265
 21
1054.1800652819
 31
0.0
  0
ARC
  5
12B
330
1F
100
AcDbEntity
  8
0
  6
CONTINUOUS
 62
     7
100
AcDbCircle
 10
997.9133298554
 20
1052.0823883274
 30
0.0
 40
3.006018303921724
100
AcDbArc
 50
135.7471777423
 51
168.531843034
  0
ARC
  5
12C
330
1F
100
AcDbEntity
  8
0
  6
CONTINUOUS
 62
     7
100
AcDbCircle
 10
994.8822050761
 20
1061.1771374905
 30
0.0
 40
8.497509041102756
100
AcDbArc
 50
270.5739482674
 51
294.954757893
  0
LINE
  5
12D
330
1F
100
AcDbEntity
  8
0
  6
CONTINUOUS
 62
     7
100
AcDbLine
 10
998.4673252817
 20
538.3871887999
 30
0.0
 11
998.4673252817
 21
1053.4729455786
 31
0.0
  0
ARC
  5
12E
330
1F
100
AcDbEntity
  8
0
  6
CONTINUOUS
 62
     7
100
AcDbCircle
 10
994.4353359705
 20
528.7104153733
 30
0.0
 40
10.48317135964109
100
AcDbArc
 50
67.380133117
 51
87.0911607226
  0
LWPOLYLINE
  5
12F
330
1F
100
AcDbEntity
  8
0
  6
CONTINUOUS
 62
     7
100
AcDbPolyline
 90
        6
 70
   128
 43
0.0
 10
994.9673256393
 20
1052.6800547915
 10
995.4904011007
 20
1052.8598820048
 10
995.9478220459
 20
1053.0396794157
 10
996.2820401903
 20
1053.2194172221
 10
996.4513173815
 20
1053.3991550284
 10
996.4673212286
 20
1053.4729455786
  0
LINE
  5
130
330
1F
100
AcDbEntity
  8
0
  6
CONTINUOUS
 62
     7
100
AcDbLine
 10
998.4673252817
 20
1053.4729455786
 30
0.0
 11
996.4673212286
 21
1053.4729455786
 31
0.0
  0
LWPOLYLINE
  5
131
330
1F
100
AcDbEntity
  8
0
  6
CONTINUOUS
 62
     7
100
AcDbPolyline
 90
        6
 70
   128
 43
0.0
 10
685.4673168179
 20
539.180079587
 10
684.9442413565
 20
539.0002523737
 10
684.4868204113
 20
538.8204549628
 10
684.1526022669
 20
538.6407171564
 10
683.9833250757
 20
538.4609793501
 10
683.9673212286
 20
538.3871887999
  0
LINE
  5
132
330
1F
100
AcDbEntity
  8
0
  6
CONTINUOUS
 62
     7
100
AcDbLine
 10
681.9673171755
 20
538.3871887999
 30
0.0
 11
683.9673212286
 21
538.3871887999
 31
0.0
  0
ARC
  5
133
330
1F
100
AcDbEntity
  8
0
  6
CONTINUOUS
 62
     7
100
AcDbCircle
 10
1003.4640557989
 20
539.2651050227
 30
0.0
 40
8.497155566982983
100
AcDbArc
 50
180.5733306728
 51
204.9552703609
  0
LINE
  5
134
330
1F
100
AcDbEntity
  8
0
  6
CONTINUOUS
 62
     7
100
AcDbLine
 10
684.6744260307
 20
535.6800650435
 30
0.0
 11
995.7602164265
 21
535.6800650435
 31
0.0
  0
ARC
  5
135
330
1F
100
AcDbEntity
  8
0
  6
CONTINUOUS
 62
     7
100
AcDbCircle
 10
675.0002757417
 20
539.7114578461
 30
0.0
 40
10.48052058551086
100
AcDbArc
 50
337.3776277767
 51
357.0937711897
  0
LINE
  5
136
330
1F
100
AcDbEntity
  8
0
  6
CONTINUOUS
 62
     7
100
AcDbLine
 10
684.6744260307
 20
535.6800650435
 30
0.0
 11
684.6744260307
 21
537.6800690966
 31
0.0
  0
ARC
  5
137
330
1F
100
AcDbEntity
  8
0
  6
CONTINUOUS
 62
     7
100
AcDbCircle
 10
682.5213126018
 20
539.7777460511
 30
0.0
 40
3.00601830392679
100
AcDbArc
 50
315.7471777423
 51
348.531843034
  0
LWPOLYLINE
  5
138
330
1F
100
AcDbEntity
  8
0
  6
CONTINUOUS
 62
     7
100
AcDbPolyline
 90
        6
 70
   128
 43
0.0
 10
994.9673256393
 20
539.180079587
 10
995.1471230503
 20
538.6569892245
 10
995.3269204613
 20
538.1995831805
 10
995.5066731688
 20
537.8653501349
 10
995.6864109751
 20
537.6960729437
 10
995.7602164265
 20
537.6800690966
  0
LINE
  5
139
330
1F
100
AcDbEntity
  8
0
  6
CONTINUOUS
 62
     7
100
AcDbLine
 10
995.7602164265
 20
535.6800650435
 30
0.0
 11
995.7602164265
 21
537.6800690966
 31
0.0
  0
LINE
  5
13A
330
1F
100
AcDbEntity
  8
0
  6
CONTINUOUS
 62
     7
100
AcDbLine
 10
998.4673252817
 20
538.3871887999
 30
0.0
 11
996.4673212286
 21
538.3871887999
 31
0.0
  0
ARC
  5
13B
330
1F
100
AcDbEntity
  8
0
  6
CONTINUOUS
 62
     7
100
AcDbCircle
 10
994.3689183894
 20
536.2327133703
 30
0.0
 40
3.007500432626925
100
AcDbArc
 50
45.7553794002
 51
78.5231710577
  0
CIRCLE
  5
13C
330
1F
100
AcDbEntity
  8
0
  6
CONTINUOUS
 62
     7
100
AcDbCircle
 10
976.9673212286
 20
795.9300671892
 30
0.0
 40
6.600000000000057
  0
CIRCLE
  5
13D
330
1F
100
AcDbEntity
  8
0
  6
CONTINUOUS
 62
     7
100
AcDbCircle
 10
976.9673212286
 20
795.9300671892
 30
0.0
 40
6.850000000000054
  0
LINE
  5
13E
330
1F
100
AcDbEntity
  8
0
  6
CONTINUOUS
 62
     7
100
AcDbLine
 10
979.1445127245
 20
797.0841587477
 30
0.0
 11
978.8058689352
 21
797.0773355292
 31
0.0
  0
ARC
  5
13F
330
1F
100
AcDbEntity
  8
0
  6
CONTINUOUS
 62
     7
100
AcDbCircle
 10
976.3674429748
 20
795.9179808065
 30
0.0
 40
2.699999999999797
100
AcDbArc
 50
25.4288948004
 51
156.8795904112
  0
LINE
  5
140
330
1F
100
AcDbEntity
  8
0
  6
CONTINUOUS
 62
     7
100
AcDbLine
 10
973.8842985149
 20
796.9781756357
 30
0.0
 11
972.4958679195
 21
796.9502012667
 31
0.0
  0
LINE
  5
141
330
1F
100
AcDbEntity
  8
0
  6
CONTINUOUS
 62
     7
100
AcDbLine
 10
972.4958679195
 20
796.9502012667
 30
0.0
 11
972.5405863043
 21
794.73065177
 31
0.0
  0
LINE
  5
142
330
1F
100
AcDbEntity
  8
0
  6
CONTINUOUS
 62
     7
100
AcDbLine
 10
972.5405863043
 20
794.73065177
 30
0.0
 11
973.9290168997
 21
794.7586260226
 31
0.0
  0
ARC
  5
143
330
1F
100
AcDbEntity
  8
0
  6
CONTINUOUS
 62
     7
100
AcDbCircle
 10
976.3674429748
 20
795.9179808065
 30
0.0
 40
2.699999999999797
100
AcDbArc
 50
205.4288948004
 51
336.8795904112
  0
LINE
  5
144
330
1F
100
AcDbEntity
  8
0
  6
CONTINUOUS
 62
     7
100
AcDbLine
 10
978.85058732
 20
794.8577860326
 30
0.0
 11
979.1892311092
 21
794.8646091346
 31
0.0
  0
LINE
  5
145
330
1F
100
AcDbEntity
  8
0
  6
CONTINUOUS
 62
     7
100
AcDbLine
 10
979.1892311092
 20
794.8646091346
 30
0.0
 11
979.1445127245
 21
797.0841587477
 31
0.0
  0
LWPOLYLINE
  5
146
330
1F
100
AcDbEntity
  8
0
  6
CONTINUOUS
 62
     7
100
AcDbPolyline
 90
        5
 70
   128
 43
0.0
 10
978.8058689352
 20
797.0773355292
 10
977.1963796135
 20
797.0449074593
 10
976.1227658506
 20
797.0232764447
 10
975.2158215757
 20
797.0050030809
 10
973.8842985149
 20
796.9781756357
  0
LWPOLYLINE
  5
147
330
1F
100
AcDbEntity
  8
0
  6
CONTINUOUS
 62
     7
100
AcDbPolyline
 90
        5
 70
   128
 43
0.0
 10
973.9290168997
 20
794.7586260226
 10
975.5385062214
 20
794.791054209
 10
976.6121199842
 20
794.8126852235
 10
977.5190642592
 20
794.8309585873
 10
978.85058732
 20
794.8577860326
  0
LWPOLYLINE
  5
148
330
1F
100
AcDbEntity
  8
0
  6
CONTINUOUS
 62
     7
100
AcDbPolyline
 90
        4
 70
   128
 43
0.0
 10
973.3767500635
 20
795.6076734073
 10
973.5434493538
 20
795.6110320766
 10
973.6913582798
 20
795.614012076
 10
973.7317255255
 20
795.6148255572
  0
LWPOLYLINE
  5
149
330
1F
100
AcDbEntity
  8
0
  6
CONTINUOUS
 62
     7
100
AcDbPolyline
 90
        4
 70
   128
 43
0.0
 10
973.8785466667
 20
796.8180272102
 10
973.7241855379
 20
796.8149171748
 10
973.5457143303
 20
796.811321222
 10
973.5013982769
 20
796.8104283747
  0
LINE
  5
14A
330
1F
100
AcDbEntity
  8
0
  6
CONTINUOUS
 62
     7
100
AcDbLine
 10
972.798197579
 20
795.5960168284
 30
0.0
 11
972.7740278955
 21
796.7957733155
 31
0.0
  0
LINE
  5
14B
330
1F
100
AcDbEntity
  8
0
  6
CONTINUOUS
 62
     7
100
AcDbLine
 10
973.3767500635
 20
795.6076734073
 30
0.0
 11
972.798197579
 21
795.5960168284
 31
0.0
  0
LINE
  5
14C
330
1F
100
AcDbEntity
  8
0
  6
CONTINUOUS
 62
     7
100
AcDbLine
 10
973.5013982769
 20
796.8104283747
 30
0.0
 11
972.7740278955
 21
796.7957733155
 31
0.0
  0
ARC
  5
14D
330
1F
100
AcDbEntity
  8
0
  6
CONTINUOUS
 62
     7
100
AcDbCircle
 10
974.2203229087
 20
794.8245286293
 30
0.0
 40
0.7999787066380571
100
AcDbArc
 50
8.3336642932
 51
91.1550676545
  0
LWPOLYLINE
  5
14E
330
1F
100
AcDbEntity
  8
0
  6
CONTINUOUS
 62
     7
100
AcDbPolyline
 90
        3
 70
   128
 43
0.0
 10
976.1179080721
 20
794.9627603476
 10
975.7181993242
 20
794.9547069685
 10
975.0118544813
 20
794.9404756028
  0
ARC
  5
14F
330
1F
100
AcDbEntity
  8
0
  6
CONTINUOUS
 62
     7
100
AcDbCircle
 10
976.9134837407
 20
794.8787733055
 30
0.0
 40
0.7999965423103729
100
AcDbArc
 50
8.3347561694
 51
173.9737404966
  0
LWPOLYLINE
  5
150
330
1F
100
AcDbEntity
  8
0
  6
CONTINUOUS
 62
     7
100
AcDbPolyline
 90
        3
 70
   128
 43
0.0
 10
978.5111537691
 20
795.0109795157
 10
978.0383250233
 20
795.0014530171
 10
977.7050307509
 20
794.9947379485
  0
LWPOLYLINE
  5
151
330
1F
100
AcDbEntity
  8
0
  6
CONTINUOUS
 62
     7
100
AcDbPolyline
 90
        4
 70
   128
 43
0.0
 10
978.472872686
 20
796.9105939802
 10
978.4911564108
 20
796.0030650021
 10
978.5087844845
 20
795.1285466507
 10
978.5111537691
 20
795.0109795157
  0
LWPOLYLINE
  5
152
330
1F
100
AcDbEntity
  8
0
  6
CONTINUOUS
 62
     7
100
AcDbPolyline
 90
        3
 70
   128
 43
0.0
 10
976.5507570025
 20
796.8718671428
 10
977.1402916428
 20
796.8837448817
 10
978.472872686
 20
796.9105939802
  0
ARC
  5
153
330
1F
100
AcDbEntity
  8
0
  6
CONTINUOUS
 62
     7
100
AcDbCircle
 10
975.6694150802
 20
797.0541397373
 30
0.0
 40
0.8999927125360758
100
AcDbArc
 50
193.9932546306
 51
348.3152447789
  0
LWPOLYLINE
  5
154
330
1F
100
AcDbEntity
  8
0
  6
CONTINUOUS
 62
     7
100
AcDbPolyline
 90
        3
 70
   128
 43
0.0
 10
974.2041966435
 20
795.6243447799
 10
973.942725968
 20
795.6190766955
 10
973.7317255255
 20
795.6148255572
  0
LWPOLYLINE
  5
155
330
1F
100
AcDbEntity
  8
0
  6
CONTINUOUS
 62
     7
100
AcDbPolyline
 90
        3
 70
   128
 43
0.0
 10
973.8785466667
 20
796.8180272102
 10
974.4194290157
 20
796.8289250231
 10
974.7961303707
 20
796.8365146036
  0
CIRCLE
  5
156
330
1F
100
AcDbEntity
  8
0
  6
CONTINUOUS
 62
     7
100
AcDbCircle
 10
976.9673212286
 20
795.9300671892
 30
0.0
 40
9.000000000000023
  0
CIRCLE
  5
157
330
1F
100
AcDbEntity
  8
0
  6
CONTINUOUS
 62
     7
100
AcDbCircle
 10
976.9673212286
 20
795.9300671892
 30
0.0
 40
11.0
  0
CIRCLE
  5
158
330
1F
100
AcDbEntity
  8
0
  6
CONTINUOUS
 62
     7
100
AcDbCircle
 10
976.9673212286
 20
795.9300671892
 30
0.0
 40
7.000000000000052
  0
LINE
  5
159
330
1F
100
AcDbEntity
  8
0
  6
CONTINUOUS
 62
     7
100
AcDbLine
 10
979.2343667265
 20
802.5527914243
 30
0.0
 11
979.2376002785
 21
802.3929117436
 31
0.0
  0
LINE
  5
15A
330
1F
100
AcDbEntity
  8
0
  6
CONTINUOUS
 62
     7
100
AcDbLine
 10
970.6011703726
 20
793.4013145233
 30
0.0
 11
970.441280913
 21
793.3980933113
 31
0.0
  0
LINE
  5
15B
330
1F
100
AcDbEntity
  8
0
  6
CONTINUOUS
 62
     8
100
AcDbLine
 10
973.3767500635
 20
795.6076734073
 30
0.0
 11
973.6035159346
 21
794.7520677654
 31
0.0
  0
LWPOLYLINE
  5
15C
330
1F
100
AcDbEntity
  8
0
  6
CONTINUOUS
 62
     8
100
AcDbPolyline
 90
        3
 70
   128
 43
0.0
 10
978.976129603
 20
794.8603155047
 10
979.1590860601
 20
795.6163063019
 10
979.1709622856
 20
795.7712753515
  0
LWPOLYLINE
  5
15D
330
1F
100
AcDbEntity
  8
0
  6
CONTINUOUS
 62
     8
100
AcDbPolyline
 90
        3
 70
   128
 43
0.0
 10
979.1627815481
 20
796.1774925017
 10
979.0744176622
 20
796.6724492099
 10
978.9314112183
 20
797.0798650014
  0
LINE
  5
15E
330
1F
100
AcDbEntity
  8
0
  6
CONTINUOUS
 62
     8
100
AcDbLine
 10
973.5587975498
 20
796.9716173785
 30
0.0
 11
973.5013982769
 21
796.8104744169
 31
0.0
  0
LINE
  5
15F
330
1F
100
AcDbEntity
  8
0
  6
CONTINUOUS
 62
     8
100
AcDbLine
 10
973.7317255255
 20
795.6148255572
 30
0.0
 11
973.9941945787
 21
794.7528324977
 31
0.0
  0
ARC
  5
160
330
1F
100
AcDbEntity
  8
0
  6
CONTINUOUS
 62
     8
100
AcDbCircle
 10
976.2674632659
 20
795.9159664094
 30
0.0
 40
2.553553390593081
100
AcDbArc
 50
334.8442913202
 51
27.3003733147
  0
LINE
  5
161
330
1F
100
AcDbEntity
  8
0
  6
CONTINUOUS
 62
     8
100
AcDbLine
 10
975.3406337019
 20
796.2163511794
 30
0.0
 11
975.3662040945
 21
794.9476150053
 31
0.0
  0
LINE
  5
162
330
1F
100
AcDbEntity
  8
0
  6
CONTINUOUS
 62
     8
100
AcDbLine
 10
977.0246437307
 20
796.8814148872
 30
0.0
 11
977.0491114374
 21
795.667190595
 31
0.0
  0
LINE
  5
163
330
1F
100
AcDbEntity
  8
0
  6
CONTINUOUS
 62
     7
100
AcDbLine
 10
390.5862654714
 20
789.7800673919
 30
0.0
 11
391.286266145
 21
789.7800673919
 31
0.0
  0
LINE
  5
164
330
1F
100
AcDbEntity
  8
0
  6
CONTINUOUS
 62
     7
100
AcDbLine
 10
388.4862662448
 20
789.4300670551
 30
0.0
 11
390.4862656413
 21
789.4300670551
 31
0.0
  0
LINE
  5
165
330
1F
100
AcDbEntity
  8
0
  6
CONTINUOUS
 62
     7
100
AcDbLine
 10
371.9862658685
 20
802.7800671945
 30
0.0
 11
371.9362659535
 21
802.7800671945
 31
0.0
  0
LINE
  5
166
330
1F
100
AcDbEntity
  8
0
  6
CONTINUOUS
 62
     7
100
AcDbLine
 10
371.9362659535
 20
789.080067184
 30
0.0
 11
371.9862658685
 21
789.080067184
 31
0.0
  0
ARC
  5
167
330
1F
100
AcDbEntity
  8
0
  6
CONTINUOUS
 62
     7
100
AcDbCircle
 10
371.9362658946
 20
802.5300671892
 30
0.0
 40
0.2500000000001137
100
AcDbArc
 50
90.0
 51
180.0
  0
ARC
  5
168
330
1F
100
AcDbEntity
  8
0
  6
CONTINUOUS
 62
     7
100
AcDbCircle
 10
371.9362658946
 20
789.3300671892
 30
0.0
 40
0.2500000000000568
100
AcDbArc
 50
180.0
 51
270.0
  0
LINE
  5
169
330
1F
100
AcDbEntity
  8
0
  6
CONTINUOUS
 62
     7
100
AcDbLine
 10
391.4862658052
 20
792.4300670812
 30
0.0
 11
392.4862659691
 21
792.4300670812
 31
0.0
  0
LINE
  5
16A
330
1F
100
AcDbEntity
  8
0
  6
CONTINUOUS
 62
     7
100
AcDbLine
 10
392.4862659691
 20
799.4300672973
 30
0.0
 11
391.4862658052
 21
799.4300672973
 31
0.0
  0
LINE
  5
16B
330
1F
100
AcDbEntity
  8
0
  6
CONTINUOUS
 62
     7
100
AcDbLine
 10
390.4862656413
 20
792.9300671632
 30
0.0
 11
390.5862654714
 21
792.9300671632
 31
0.0
  0
LINE
  5
16C
330
1F
100
AcDbEntity
  8
0
  6
CONTINUOUS
 62
     7
100
AcDbLine
 10
391.286266145
 20
792.9300671632
 30
0.0
 11
391.4862658052
 21
792.9300671632
 31
0.0
  0
LINE
  5
16D
330
1F
100
AcDbEntity
  8
0
  6
CONTINUOUS
 62
     7
100
AcDbLine
 10
391.4862658052
 20
798.9300672153
 30
0.0
 11
391.286266145
 21
798.9300672153
 31
0.0
  0
LINE
  5
16E
330
1F
100
AcDbEntity
  8
0
  6
CONTINUOUS
 62
     7
100
AcDbLine
 10
390.5862654714
 20
798.9300672153
 30
0.0
 11
390.4862656413
 21
798.9300672153
 31
0.0
  0
LINE
  5
16F
330
1F
100
AcDbEntity
  8
0
  6
CONTINUOUS
 62
     7
100
AcDbLine
 10
373.9862658471
 20
784.9300672489
 30
0.0
 11
374.9862658946
 21
784.9300672489
 31
0.0
  0
LINE
  5
170
330
1F
100
AcDbEntity
  8
0
  6
CONTINUOUS
 62
     7
100
AcDbLine
 10
374.9862658946
 20
806.9300671296
 30
0.0
 11
373.9862658471
 21
806.9300671296
 31
0.0
  0
LINE
  5
171
330
1F
100
AcDbEntity
  8
0
  6
CONTINUOUS
 62
     7
100
AcDbLine
 10
373.9862658471
 20
806.9300671296
 30
0.0
 11
371.9862658685
 21
804.9300668018
 31
0.0
  0
LINE
  5
172
330
1F
100
AcDbEntity
  8
0
  6
CONTINUOUS
 62
     7
100
AcDbLine
 10
371.9862658685
 20
786.9300675767
 30
0.0
 11
373.9862658471
 21
784.9300672489
 31
0.0
  0
LINE
  5
173
330
1F
100
AcDbEntity
  8
0
  6
CONTINUOUS
 62
     7
100
AcDbLine
 10
376.4862659077
 20
1053.1800781565
 30
0.0
 11
374.9862658946
 21
1053.1800781565
 31
0.0
  0
LINE
  5
174
330
1F
100
AcDbEntity
  8
0
  6
CONTINUOUS
 62
     7
100
AcDbLine
 10
376.4862659077
 20
1051.6800676661
 30
0.0
 11
376.4862659077
 21
1053.1800781565
 31
0.0
  0
LINE
  5
175
330
1F
100
AcDbEntity
  8
0
  6
CONTINUOUS
 62
     7
100
AcDbLine
 10
376.4862659077
 20
1051.6800676661
 30
0.0
 11
374.9862658946
 21
1051.6800676661
 31
0.0
  0
LINE
  5
176
330
1F
100
AcDbEntity
  8
0
  6
CONTINUOUS
 62
     7
100
AcDbLine
 10
374.9862658946
 20
1051.6800676661
 30
0.0
 11
374.9862658946
 21
1053.1800781565
 31
0.0
  0
LINE
  5
177
330
1F
100
AcDbEntity
  8
0
  6
CONTINUOUS
 62
     7
100
AcDbLine
 10
376.4862659077
 20
1058.8369165736
 30
0.0
 11
374.9862658946
 21
1058.8369165736
 31
0.0
  0
LINE
  5
178
330
1F
100
AcDbEntity
  8
0
  6
CONTINUOUS
 62
     7
100
AcDbLine
 10
376.4862659077
 20
1053.1800781565
 30
0.0
 11
376.4862659077
 21
1058.8369165736
 31
0.0
  0
LINE
  5
179
330
1F
100
AcDbEntity
  8
0
  6
CONTINUOUS
 62
     7
100
AcDbLine
 10
374.9862658946
 20
1053.1800781565
 30
0.0
 11
374.9862658946
 21
1058.8369165736
 31
0.0
  0
LINE
  5
17A
330
1F
100
AcDbEntity
  8
0
  6
CONTINUOUS
 62
     7
100
AcDbLine
 10
376.4862659077
 20
1074.3369256335
 30
0.0
 11
374.9862658946
 21
1074.3369256335
 31
0.0
  0
LINE
  5
17B
330
1F
100
AcDbEntity
  8
0
  6
CONTINUOUS
 62
     7
100
AcDbLine
 10
376.4862659077
 20
1058.8369165736
 30
0.0
 11
376.4862659077
 21
1074.3369256335
 31
0.0
  0
LINE
  5
17C
330
1F
100
AcDbEntity
  8
0
  6
CONTINUOUS
 62
     7
100
AcDbLine
 10
374.9862658946
 20
1058.8369165736
 30
0.0
 11
374.9862658946
 21
1074.3369256335
 31
0.0
  0
LINE
  5
17D
330
1F
100
AcDbEntity
  8
0
  6
CONTINUOUS
 62
     7
100
AcDbLine
 10
376.4862659077
 20
1076.6800736266
 30
0.0
 11
374.9862658946
 21
1076.6800736266
 31
0.0
  0
LINE
  5
17E
330
1F
100
AcDbEntity
  8
0
  6
CONTINUOUS
 62
     7
100
AcDbLine
 10
376.4862659077
 20
1074.3369256335
 30
0.0
 11
376.4862659077
 21
1076.6800736266
 31
0.0
  0
LINE
  5
17F
330
1F
100
AcDbEntity
  8
0
  6
CONTINUOUS
 62
     7
100
AcDbLine
 10
374.9862658946
 20
1074.3369256335
 30
0.0
 11
374.9862658946
 21
1076.6800736266
 31
0.0
  0
LINE
  5
180
330
1F
100
AcDbEntity
  8
0
  6
CONTINUOUS
 62
     7
100
AcDbLine
 10
383.9862655072
 20
1059.1800605135
 30
0.0
 11
383.9862655072
 21
1060.6800710039
 31
0.0
  0
LINE
  5
181
330
1F
100
AcDbEntity
  8
0
  6
CONTINUOUS
 62
     7
100
AcDbLine
 10
383.9862655072
 20
1060.6800710039
 30
0.0
 11
385.986265835
 21
1060.6800710039
 31
0.0
  0
LINE
  5
182
330
1F
100
AcDbEntity
  8
0
  6
CONTINUOUS
 62
     7
100
AcDbLine
 10
385.986265835
 20
1060.6800710039
 30
0.0
 11
385.986265835
 21
1059.1800605135
 31
0.0
  0
LINE
  5
183
330
1F
100
AcDbEntity
  8
0
  6
CONTINUOUS
 62
     7
100
AcDbLine
 10
385.986265835
 20
1059.1800605135
 30
0.0
 11
383.9862655072
 21
1059.1800605135
 31
0.0
  0
LINE
  5
184
330
1F
100
AcDbEntity
  8
0
  6
CONTINUOUS
 62
     7
100
AcDbLine
 10
377.4862658387
 20
1060.6800710039
 30
0.0
 11
377.4862658387
 21
1059.1800605135
 31
0.0
  0
LINE
  5
185
330
1F
100
AcDbEntity
  8
0
  6
CONTINUOUS
 62
     7
100
AcDbLine
 10
383.9862655072
 20
1060.6800710039
 30
0.0
 11
377.4862658387
 21
1060.6800710039
 31
0.0
  0
LINE
  5
186
330
1F
100
AcDbEntity
  8
0
  6
CONTINUOUS
 62
     7
100
AcDbLine
 10
383.9862655072
 20
1059.1800605135
 30
0.0
 11
377.4862658387
 21
1059.1800605135
 31
0.0
  0
ARC
  5
187
330
1F
100
AcDbEntity
  8
0
  6
CONTINUOUS
 62
     7
100
AcDbCircle
 10
377.4862658946
 20
1061.6800671892
 30
0.0
 40
1.000000000000057
100
AcDbArc
 50
180.0
 51
270.0
  0
ARC
  5
188
330
1F
100
AcDbEntity
  8
0
  6
CONTINUOUS
 62
     7
100
AcDbCircle
 10
377.4862658946
 20
1061.6800671892
 30
0.0
 40
2.5
100
AcDbArc
 50
246.4218215218
 51
270.0
  0
ARC
  5
189
330
1F
100
AcDbEntity
  8
0
  6
CONTINUOUS
 62
     7
100
AcDbCircle
 10
385.9862658946
 20
1058.1800671892
 30
0.0
 40
2.5
100
AcDbArc
 50
0.0
 51
90.0
  0
LINE
  5
18A
330
1F
100
AcDbEntity
  8
0
  6
CONTINUOUS
 62
     7
100
AcDbLine
 10
386.9862659989
 20
1058.1800733881
 30
0.0
 11
388.4862662448
 21
1058.1800733881
 31
0.0
  0
ARC
  5
18B
330
1F
100
AcDbEntity
  8
0
  6
CONTINUOUS
 62
     7
100
AcDbCircle
 10
385.9862658946
 20
1058.1800671892
 30
0.0
 40
1.0
100
AcDbArc
 50
0.0
 51
90.0
  0
LINE
  5
18C
330
1F
100
AcDbEntity
  8
0
  6
CONTINUOUS
 62
     7
100
AcDbLine
 10
388.4862662448
 20
1054.1800652819
 30
0.0
 11
386.9862659989
 21
1054.1800652819
 31
0.0
  0
LINE
  5
18D
330
1F
100
AcDbEntity
  8
0
  6
CONTINUOUS
 62
     7
100
AcDbLine
 10
386.9862659989
 20
1056.180069335
 30
0.0
 11
386.9862659989
 21
1057.1800564604
 31
0.0
  0
LINE
  5
18E
330
1F
100
AcDbEntity
  8
0
  6
CONTINUOUS
 62
     7
100
AcDbLine
 10
386.9862659989
 20
1057.1800564604
 30
0.0
 11
388.4862662448
 21
1057.1800564604
 31
0.0
  0
LINE
  5
18F
330
1F
100
AcDbEntity
  8
0
  6
CONTINUOUS
 62
     7
100
AcDbLine
 10
388.4862662448
 20
1057.1800564604
 30
0.0
 11
388.4862662448
 21
1054.1800652819
 31
0.0
  0
LINE
  5
190
330
1F
100
AcDbEntity
  8
0
  6
CONTINUOUS
 62
     7
100
AcDbLine
 10
386.9862659989
 20
1058.1800733881
 30
0.0
 11
386.9862659989
 21
1057.1800564604
 31
0.0
  0
LINE
  5
191
330
1F
100
AcDbEntity
  8
0
  6
CONTINUOUS
 62
     7
100
AcDbLine
 10
388.4862662448
 20
1058.1800733881
 30
0.0
 11
388.4862662448
 21
1057.1800564604
 31
0.0
  0
LINE
  5
192
330
1F
100
AcDbEntity
  8
0
  6
CONTINUOUS
 62
     7
100
AcDbLine
 10
376.4862659077
 20
540.1800667124
 30
0.0
 11
374.9862658946
 21
540.1800667124
 31
0.0
  0
LINE
  5
193
330
1F
100
AcDbEntity
  8
0
  6
CONTINUOUS
 62
     7
100
AcDbLine
 10
376.4862659077
 20
538.680056222
 30
0.0
 11
374.9862658946
 21
538.680056222
 31
0.0
  0
LINE
  5
194
330
1F
100
AcDbEntity
  8
0
  6
CONTINUOUS
 62
     7
100
AcDbLine
 10
376.4862659077
 20
538.680056222
 30
0.0
 11
376.4862659077
 21
540.1800667124
 31
0.0
  0
LINE
  5
195
330
1F
100
AcDbEntity
  8
0
  6
CONTINUOUS
 62
     7
100
AcDbLine
 10
374.9862658946
 20
538.680056222
 30
0.0
 11
374.9862658946
 21
540.1800667124
 31
0.0
  0
LINE
  5
196
330
1F
100
AcDbEntity
  8
0
  6
CONTINUOUS
 62
     7
100
AcDbLine
 10
376.4862659077
 20
533.0232178049
 30
0.0
 11
374.9862658946
 21
533.0232178049
 31
0.0
  0
LINE
  5
197
330
1F
100
AcDbEntity
  8
0
  6
CONTINUOUS
 62
     7
100
AcDbLine
 10
376.4862659077
 20
533.0232178049
 30
0.0
 11
376.4862659077
 21
538.680056222
 31
0.0
  0
LINE
  5
198
330
1F
100
AcDbEntity
  8
0
  6
CONTINUOUS
 62
     7
100
AcDbLine
 10
374.9862658946
 20
533.0232178049
 30
0.0
 11
374.9862658946
 21
538.680056222
 31
0.0
  0
LINE
  5
199
330
1F
100
AcDbEntity
  8
0
  6
CONTINUOUS
 62
     7
100
AcDbLine
 10
376.4862659077
 20
517.523208745
 30
0.0
 11
374.9862658946
 21
517.523208745
 31
0.0
  0
LINE
  5
19A
330
1F
100
AcDbEntity
  8
0
  6
CONTINUOUS
 62
     7
100
AcDbLine
 10
376.4862659077
 20
517.523208745
 30
0.0
 11
376.4862659077
 21
533.0232178049
 31
0.0
  0
LINE
  5
19B
330
1F
100
AcDbEntity
  8
0
  6
CONTINUOUS
 62
     7
100
AcDbLine
 10
374.9862658946
 20
517.523208745
 30
0.0
 11
374.9862658946
 21
533.0232178049
 31
0.0
  0
LINE
  5
19C
330
1F
100
AcDbEntity
  8
0
  6
CONTINUOUS
 62
     7
100
AcDbLine
 10
376.4862659077
 20
515.1800607519
 30
0.0
 11
374.9862658946
 21
515.1800607519
 31
0.0
  0
LINE
  5
19D
330
1F
100
AcDbEntity
  8
0
  6
CONTINUOUS
 62
     7
100
AcDbLine
 10
376.4862659077
 20
515.1800607519
 30
0.0
 11
376.4862659077
 21
517.523208745
 31
0.0
  0
LINE
  5
19E
330
1F
100
AcDbEntity
  8
0
  6
CONTINUOUS
 62
     7
100
AcDbLine
 10
374.9862658946
 20
515.1800607519
 30
0.0
 11
374.9862658946
 21
517.523208745
 31
0.0
  0
LINE
  5
19F
330
1F
100
AcDbEntity
  8
0
  6
CONTINUOUS
 62
     7
100
AcDbLine
 10
385.986265835
 20
532.680073865
 30
0.0
 11
385.986265835
 21
531.1800633746
 31
0.0
  0
LINE
  5
1A0
330
1F
100
AcDbEntity
  8
0
  6
CONTINUOUS
 62
     7
100
AcDbLine
 10
385.986265835
 20
531.1800633746
 30
0.0
 11
383.9862655072
 21
531.1800633746
 31
0.0
  0
LINE
  5
1A1
330
1F
100
AcDbEntity
  8
0
  6
CONTINUOUS
 62
     7
100
AcDbLine
 10
383.9862655072
 20
531.1800633746
 30
0.0
 11
383.9862655072
 21
532.680073865
 31
0.0
  0
LINE
  5
1A2
330
1F
100
AcDbEntity
  8
0
  6
CONTINUOUS
 62
     7
100
AcDbLine
 10
383.9862655072
 20
532.680073865
 30
0.0
 11
385.986265835
 21
532.680073865
 31
0.0
  0
LINE
  5
1A3
330
1F
100
AcDbEntity
  8
0
  6
CONTINUOUS
 62
     7
100
AcDbLine
 10
377.4862658387
 20
531.1800633746
 30
0.0
 11
377.4862658387
 21
532.680073865
 31
0.0
  0
LINE
  5
1A4
330
1F
100
AcDbEntity
  8
0
  6
CONTINUOUS
 62
     7
100
AcDbLine
 10
377.4862658387
 20
531.1800633746
 30
0.0
 11
383.9862655072
 21
531.1800633746
 31
0.0
  0
LINE
  5
1A5
330
1F
100
AcDbEntity
  8
0
  6
CONTINUOUS
 62
     7
100
AcDbLine
 10
377.4862658387
 20
532.680073865
 30
0.0
 11
383.9862655072
 21
532.680073865
 31
0.0
  0
ARC
  5
1A6
330
1F
100
AcDbEntity
  8
0
  6
CONTINUOUS
 62
     7
100
AcDbCircle
 10
377.4862658946
 20
530.1800671892
 30
0.0
 40
1.000000000000057
100
AcDbArc
 50
90.0
 51
180.0
  0
ARC
  5
1A7
330
1F
100
AcDbEntity
  8
0
  6
CONTINUOUS
 62
     7
100
AcDbCircle
 10
377.4862658946
 20
530.1800671892
 30
0.0
 40
2.500000000000114
100
AcDbArc
 50
90.0
 51
113.5781784782
  0
LINE
  5
1A8
330
1F
100
AcDbEntity
  8
0
  6
CONTINUOUS
 62
     7
100
AcDbLine
 10
376.3486889579
 20
604.1800623017
 30
0.0
 11
376.3486889579
 21
588.1800745802
 31
0.0
  0
LINE
  5
1A9
330
1F
100
AcDbEntity
  8
0
  6
CONTINUOUS
 62
     7
100
AcDbLine
 10
390.2274464412
 20
604.1800623017
 30
0.0
 11
376.3486889579
 21
604.1800623017
 31
0.0
  0
LINE
  5
1AA
330
1F
100
AcDbEntity
  8
0
  6
CONTINUOUS
 62
     7
100
AcDbLine
 10
390.2274464412
 20
604.1800623017
 30
0.0
 11
390.2274464412
 21
588.1800745802
 31
0.0
  0
LINE
  5
1AB
330
1F
100
AcDbEntity
  8
0
  6
CONTINUOUS
 62
     7
100
AcDbLine
 10
376.3486889579
 20
588.1800745802
 30
0.0
 11
390.2274464412
 21
588.1800745802
 31
0.0
  0
LINE
  5
1AC
330
1F
100
AcDbEntity
  8
0
  6
CONTINUOUS
 62
     7
100
AcDbLine
 10
375.9604603324
 20
604.1800623017
 30
0.0
 11
375.9604603324
 21
588.1800745802
 31
0.0
  0
LINE
  5
1AD
330
1F
100
AcDbEntity
  8
0
  6
CONTINUOUS
 62
     7
100
AcDbLine
 10
375.9604603324
 20
604.1800623017
 30
0.0
 11
376.3486889579
 21
604.1800623017
 31
0.0
  0
LINE
  5
1AE
330
1F
100
AcDbEntity
  8
0
  6
CONTINUOUS
 62
     7
100
AcDbLine
 10
375.9604603324
 20
588.1800745802
 30
0.0
 11
376.3486889579
 21
588.1800745802
 31
0.0
  0
LINE
  5
1AF
330
1F
100
AcDbEntity
  8
0
  6
CONTINUOUS
 62
     7
100
AcDbLine
 10
376.3486889579
 20
987.6800720768
 30
0.0
 11
376.3486889579
 21
1003.6800597983
 31
0.0
  0
LINE
  5
1B0
330
1F
100
AcDbEntity
  8
0
  6
CONTINUOUS
 62
     7
100
AcDbLine
 10
376.3486889579
 20
1003.6800597983
 30
0.0
 11
390.2274464412
 21
1003.6800597983
 31
0.0
  0
LINE
  5
1B1
330
1F
100
AcDbEntity
  8
0
  6
CONTINUOUS
 62
     7
100
AcDbLine
 10
390.2274464412
 20
1003.6800597983
 30
0.0
 11
390.2274464412
 21
987.6800720768
 31
0.0
  0
LINE
  5
1B2
330
1F
100
AcDbEntity
  8
0
  6
CONTINUOUS
 62
     7
100
AcDbLine
 10
390.2274464412
 20
987.6800720768
 30
0.0
 11
376.3486889579
 21
987.6800720768
 31
0.0
  0
LINE
  5
1B3
330
1F
100
AcDbEntity
  8
0
  6
CONTINUOUS
 62
     7
100
AcDbLine
 10
375.9604603324
 20
987.6800720768
 30
0.0
 11
376.3486889579
 21
987.6800720768
 31
0.0
  0
LINE
  5
1B4
330
1F
100
AcDbEntity
  8
0
  6
CONTINUOUS
 62
     7
100
AcDbLine
 10
375.9604603324
 20
987.6800720768
 30
0.0
 11
375.9604603324
 21
1003.6800597983
 31
0.0
  0
LINE
  5
1B5
330
1F
100
AcDbEntity
  8
0
  6
CONTINUOUS
 62
     7
100
AcDbLine
 10
375.9604603324
 20
1003.6800597983
 30
0.0
 11
376.3486889579
 21
1003.6800597983
 31
0.0
  0
LINE
  5
1B6
330
1F
100
AcDbEntity
  8
0
  6
CONTINUOUS
 62
     7
100
AcDbLine
 10
390.4862656413
 20
604.1800623017
 30
0.0
 11
390.2274464412
 21
604.1800623017
 31
0.0
  0
LINE
  5
1B7
330
1F
100
AcDbEntity
  8
0
  6
CONTINUOUS
 62
     7
100
AcDbLine
 10
390.4862656413
 20
588.1800745802
 30
0.0
 11
390.4862656413
 21
604.1800623017
 31
0.0
  0
LINE
  5
1B8
330
1F
100
AcDbEntity
  8
0
  6
CONTINUOUS
 62
     7
100
AcDbLine
 10
390.2274464412
 20
588.1800745802
 30
0.0
 11
390.4862656413
 21
588.1800745802
 31
0.0
  0
LINE
  5
1B9
330
1F
100
AcDbEntity
  8
0
  6
CONTINUOUS
 62
     7
100
AcDbLine
 10
390.2274464412
 20
987.6800720768
 30
0.0
 11
390.4862656413
 21
987.6800720768
 31
0.0
  0
LINE
  5
1BA
330
1F
100
AcDbEntity
  8
0
  6
CONTINUOUS
 62
     7
100
AcDbLine
 10
390.4862656413
 20
1003.6800597983
 30
0.0
 11
390.2274464412
 21
1003.6800597983
 31
0.0
  0
LINE
  5
1BB
330
1F
100
AcDbEntity
  8
0
  6
CONTINUOUS
 62
     7
100
AcDbLine
 10
390.4862656413
 20
987.6800720768
 30
0.0
 11
390.4862656413
 21
1003.6800597983
 31
0.0
  0
LINE
  5
1BC
330
1F
100
AcDbEntity
  8
0
  6
CONTINUOUS
 62
     7
100
AcDbLine
 10
377.4862658387
 20
604.6800707655
 30
0.0
 11
377.4862658387
 21
607.680061944
 31
0.0
  0
LINE
  5
1BD
330
1F
100
AcDbEntity
  8
0
  6
CONTINUOUS
 62
     7
100
AcDbLine
 10
377.4862658387
 20
607.680061944
 30
0.0
 11
391.4862658052
 21
607.680061944
 31
0.0
  0
ARC
  5
1BE
330
1F
100
AcDbEntity
  8
0
  6
CONTINUOUS
 62
     7
100
AcDbCircle
 10
391.4862658946
 20
605.6800671892
 30
0.0
 40
2.0
100
AcDbArc
 50
0.0
 51
90.0
  0
LINE
  5
1BF
330
1F
100
AcDbEntity
  8
0
  6
CONTINUOUS
 62
     7
100
AcDbLine
 10
393.486266133
 20
605.6800727921
 30
0.0
 11
393.486266133
 21
586.6800640898
 31
0.0
  0
ARC
  5
1C0
330
1F
100
AcDbEntity
  8
0
  6
CONTINUOUS
 62
     7
100
AcDbCircle
 10
391.4862658946
 20
586.6800671892
 30
0.0
 40
2.0
100
AcDbArc
 50
270.0
 51
0.0
  0
LINE
  5
1C1
330
1F
100
AcDbEntity
  8
0
  6
CONTINUOUS
 62
     7
100
AcDbLine
 10
391.4862658052
 20
584.6800600367
 30
0.0
 11
377.4862658387
 21
584.6800600367
 31
0.0
  0
LINE
  5
1C2
330
1F
100
AcDbEntity
  8
0
  6
CONTINUOUS
 62
     7
100
AcDbLine
 10
377.4862658387
 20
584.6800600367
 30
0.0
 11
377.4862658387
 21
587.6800661164
 31
0.0
  0
LINE
  5
1C3
330
1F
100
AcDbEntity
  8
0
  6
CONTINUOUS
 62
     7
100
AcDbLine
 10
390.4862656413
 20
587.6800661164
 30
0.0
 11
377.4862658387
 21
587.6800661164
 31
0.0
  0
LINE
  5
1C4
330
1F
100
AcDbEntity
  8
0
  6
CONTINUOUS
 62
     7
100
AcDbLine
 10
390.4862656413
 20
588.1800745802
 30
0.0
 11
390.4862656413
 21
587.6800661164
 31
0.0
  0
LINE
  5
1C5
330
1F
100
AcDbEntity
  8
0
  6
CONTINUOUS
 62
     7
100
AcDbLine
 10
390.4862656413
 20
604.6800707655
 30
0.0
 11
390.4862656413
 21
604.1800623017
 31
0.0
  0
LINE
  5
1C6
330
1F
100
AcDbEntity
  8
0
  6
CONTINUOUS
 62
     7
100
AcDbLine
 10
377.4862658387
 20
604.6800707655
 30
0.0
 11
390.4862656413
 21
604.6800707655
 31
0.0
  0
LINE
  5
1C7
330
1F
100
AcDbEntity
  8
0
  6
CONTINUOUS
 62
     7
100
AcDbLine
 10
390.4862656413
 20
1003.6800597983
 30
0.0
 11
390.4862656413
 21
1004.1800682621
 31
0.0
  0
LINE
  5
1C8
330
1F
100
AcDbEntity
  8
0
  6
CONTINUOUS
 62
     7
100
AcDbLine
 10
390.4862656413
 20
1004.1800682621
 30
0.0
 11
377.4862658387
 21
1004.1800682621
 31
0.0
  0
LINE
  5
1C9
330
1F
100
AcDbEntity
  8
0
  6
CONTINUOUS
 62
     7
100
AcDbLine
 10
377.4862658387
 20
1004.1800682621
 30
0.0
 11
377.4862658387
 21
1007.1800743418
 31
0.0
  0
LINE
  5
1CA
330
1F
100
AcDbEntity
  8
0
  6
CONTINUOUS
 62
     7
100
AcDbLine
 10
391.4862658052
 20
1007.1800743418
 30
0.0
 11
377.4862658387
 21
1007.1800743418
 31
0.0
  0
ARC
  5
1CB
330
1F
100
AcDbEntity
  8
0
  6
CONTINUOUS
 62
     7
100
AcDbCircle
 10
391.4862658946
 20
1005.1800671892
 30
0.0
 40
2.0
100
AcDbArc
 50
0.0
 51
90.0
  0
LINE
  5
1CC
330
1F
100
AcDbEntity
  8
0
  6
CONTINUOUS
 62
     7
100
AcDbLine
 10
393.486266133
 20
986.1800615864
 30
0.0
 11
393.486266133
 21
1005.1800702887
 31
0.0
  0
ARC
  5
1CD
330
1F
100
AcDbEntity
  8
0
  6
CONTINUOUS
 62
     7
100
AcDbCircle
 10
391.4862658946
 20
986.1800671892
 30
0.0
 40
2.0
100
AcDbArc
 50
270.0
 51
0.0
  0
LINE
  5
1CE
330
1F
100
AcDbEntity
  8
0
  6
CONTINUOUS
 62
     7
100
AcDbLine
 10
377.4862658387
 20
984.1800724345
 30
0.0
 11
391.4862658052
 21
984.1800724345
 31
0.0
  0
LINE
  5
1CF
330
1F
100
AcDbEntity
  8
0
  6
CONTINUOUS
 62
     7
100
AcDbLine
 10
377.4862658387
 20
984.1800724345
 30
0.0
 11
377.4862658387
 21
987.180063613
 31
0.0
  0
LINE
  5
1D0
330
1F
100
AcDbEntity
  8
0
  6
CONTINUOUS
 62
     7
100
AcDbLine
 10
377.4862658387
 20
987.180063613
 30
0.0
 11
390.4862656413
 21
987.180063613
 31
0.0
  0
LINE
  5
1D1
330
1F
100
AcDbEntity
  8
0
  6
CONTINUOUS
 62
     7
100
AcDbLine
 10
390.4862656413
 20
987.180063613
 30
0.0
 11
390.4862656413
 21
987.6800720768
 31
0.0
  0
LINE
  5
1D2
330
1F
100
AcDbEntity
  8
0
  6
CONTINUOUS
 62
     7
100
AcDbLine
 10
377.4862658387
 20
584.6800600367
 30
0.0
 11
374.9862658946
 21
584.6800600367
 31
0.0
  0
LINE
  5
1D3
330
1F
100
AcDbEntity
  8
0
  6
CONTINUOUS
 62
     7
100
AcDbLine
 10
374.9862658946
 20
584.6800600367
 30
0.0
 11
374.9862658946
 21
587.6800661164
 31
0.0
  0
LINE
  5
1D4
330
1F
100
AcDbEntity
  8
0
  6
CONTINUOUS
 62
     7
100
AcDbLine
 10
377.4862658387
 20
587.6800661164
 30
0.0
 11
374.9862658946
 21
587.6800661164
 31
0.0
  0
LINE
  5
1D5
330
1F
100
AcDbEntity
  8
0
  6
CONTINUOUS
 62
     7
100
AcDbLine
 10
374.9862658946
 20
607.680061944
 30
0.0
 11
377.4862658387
 21
607.680061944
 31
0.0
  0
LINE
  5
1D6
330
1F
100
AcDbEntity
  8
0
  6
CONTINUOUS
 62
     7
100
AcDbLine
 10
374.9862658946
 20
604.6800707655
 30
0.0
 11
377.4862658387
 21
604.6800707655
 31
0.0
  0
LINE
  5
1D7
330
1F
100
AcDbEntity
  8
0
  6
CONTINUOUS
 62
     7
100
AcDbLine
 10
374.9862658946
 20
604.6800707655
 30
0.0
 11
374.9862658946
 21
607.680061944
 31
0.0
  0
LINE
  5
1D8
330
1F
100
AcDbEntity
  8
0
  6
CONTINUOUS
 62
     7
100
AcDbLine
 10
377.4862658387
 20
984.1800724345
 30
0.0
 11
374.9862658946
 21
984.1800724345
 31
0.0
  0
LINE
  5
1D9
330
1F
100
AcDbEntity
  8
0
  6
CONTINUOUS
 62
     7
100
AcDbLine
 10
374.9862658946
 20
984.1800724345
 30
0.0
 11
374.9862658946
 21
987.180063613
 31
0.0
  0
LINE
  5
1DA
330
1F
100
AcDbEntity
  8
0
  6
CONTINUOUS
 62
     7
100
AcDbLine
 10
374.9862658946
 20
987.180063613
 30
0.0
 11
377.4862658387
 21
987.180063613
 31
0.0
  0
LINE
  5
1DB
330
1F
100
AcDbEntity
  8
0
  6
CONTINUOUS
 62
     7
100
AcDbLine
 10
374.9862658946
 20
1004.1800682621
 30
0.0
 11
374.9862658946
 21
1007.1800743418
 31
0.0
  0
LINE
  5
1DC
330
1F
100
AcDbEntity
  8
0
  6
CONTINUOUS
 62
     7
100
AcDbLine
 10
374.9862658946
 20
1007.1800743418
 30
0.0
 11
377.4862658387
 21
1007.1800743418
 31
0.0
  0
LINE
  5
1DD
330
1F
100
AcDbEntity
  8
0
  6
CONTINUOUS
 62
     7
100
AcDbLine
 10
377.4862658387
 20
1004.1800682621
 30
0.0
 11
374.9862658946
 21
1004.1800682621
 31
0.0
  0
LINE
  5
1DE
330
1F
100
AcDbEntity
  8
0
  6
CONTINUOUS
 62
     7
100
AcDbLine
 10
376.4862659077
 20
584.180066474
 30
0.0
 11
374.9862658946
 21
584.180066474
 31
0.0
  0
LINE
  5
1DF
330
1F
100
AcDbEntity
  8
0
  6
CONTINUOUS
 62
     7
100
AcDbLine
 10
374.9862658946
 20
540.1800667124
 30
0.0
 11
374.9862658946
 21
584.180066474
 31
0.0
  0
LINE
  5
1E0
330
1F
100
AcDbEntity
  8
0
  6
CONTINUOUS
 62
     7
100
AcDbLine
 10
376.4862659077
 20
540.1800667124
 30
0.0
 11
376.4862659077
 21
584.180066474
 31
0.0
  0
LINE
  5
1E1
330
1F
100
AcDbEntity
  8
0
  6
CONTINUOUS
 62
     7
100
AcDbLine
 10
376.4862659077
 20
983.6800639706
 30
0.0
 11
374.9862658946
 21
983.6800639706
 31
0.0
  0
LINE
  5
1E2
330
1F
100
AcDbEntity
  8
0
  6
CONTINUOUS
 62
     7
100
AcDbLine
 10
376.4862659077
 20
608.1800704079
 30
0.0
 11
374.9862658946
 21
608.1800704079
 31
0.0
  0
LINE
  5
1E3
330
1F
100
AcDbEntity
  8
0
  6
CONTINUOUS
 62
     7
100
AcDbLine
 10
374.9862658946
 20
608.1800704079
 30
0.0
 11
374.9862658946
 21
983.6800639706
 31
0.0
  0
LINE
  5
1E4
330
1F
100
AcDbEntity
  8
0
  6
CONTINUOUS
 62
     7
100
AcDbLine
 10
376.4862659077
 20
608.1800704079
 30
0.0
 11
376.4862659077
 21
983.6800639706
 31
0.0
  0
LINE
  5
1E5
330
1F
100
AcDbEntity
  8
0
  6
CONTINUOUS
 62
     7
100
AcDbLine
 10
376.4862659077
 20
1007.6800679045
 30
0.0
 11
374.9862658946
 21
1007.6800679045
 31
0.0
  0
LINE
  5
1E6
330
1F
100
AcDbEntity
  8
0
  6
CONTINUOUS
 62
     7
100
AcDbLine
 10
374.9862658946
 20
1007.6800679045
 30
0.0
 11
374.9862658946
 21
1051.6800676661
 31
0.0
  0
LINE
  5
1E7
330
1F
100
AcDbEntity
  8
0
  6
CONTINUOUS
 62
     7
100
AcDbLine
 10
376.4862659077
 20
1007.6800679045
 30
0.0
 11
376.4862659077
 21
1051.6800676661
 31
0.0
  0
LINE
  5
1E8
330
1F
100
AcDbEntity
  8
0
  6
CONTINUOUS
 62
     7
100
AcDbLine
 10
374.9862658946
 20
584.180066474
 30
0.0
 11
374.9862658946
 21
584.6800600367
 31
0.0
  0
LINE
  5
1E9
330
1F
100
AcDbEntity
  8
0
  6
CONTINUOUS
 62
     7
100
AcDbLine
 10
376.4862659077
 20
584.180066474
 30
0.0
 11
376.4862659077
 21
584.6800600367
 31
0.0
  0
LINE
  5
1EA
330
1F
100
AcDbEntity
  8
0
  6
CONTINUOUS
 62
     7
100
AcDbLine
 10
374.9862658946
 20
607.680061944
 30
0.0
 11
374.9862658946
 21
608.1800704079
 31
0.0
  0
LINE
  5
1EB
330
1F
100
AcDbEntity
  8
0
  6
CONTINUOUS
 62
     7
100
AcDbLine
 10
376.4862659077
 20
607.680061944
 30
0.0
 11
376.4862659077
 21
608.1800704079
 31
0.0
  0
LINE
  5
1EC
330
1F
100
AcDbEntity
  8
0
  6
CONTINUOUS
 62
     7
100
AcDbLine
 10
374.9862658946
 20
983.6800639706
 30
0.0
 11
374.9862658946
 21
984.1800724345
 31
0.0
  0
LINE
  5
1ED
330
1F
100
AcDbEntity
  8
0
  6
CONTINUOUS
 62
     7
100
AcDbLine
 10
376.4862659077
 20
983.6800639706
 30
0.0
 11
376.4862659077
 21
984.1800724345
 31
0.0
  0
LINE
  5
1EE
330
1F
100
AcDbEntity
  8
0
  6
CONTINUOUS
 62
     7
100
AcDbLine
 10
374.9862658946
 20
1007.1800743418
 30
0.0
 11
374.9862658946
 21
1007.6800679045
 31
0.0
  0
LINE
  5
1EF
330
1F
100
AcDbEntity
  8
0
  6
CONTINUOUS
 62
     7
100
AcDbLine
 10
376.4862659077
 20
1007.1800743418
 30
0.0
 11
376.4862659077
 21
1007.6800679045
 31
0.0
  0
LINE
  5
1F0
330
1F
100
AcDbEntity
  8
0
  6
CONTINUOUS
 62
     7
100
AcDbLine
 10
374.9862658946
 20
604.6800707655
 30
0.0
 11
374.9862658946
 21
587.6800661164
 31
0.0
  0
LINE
  5
1F1
330
1F
100
AcDbEntity
  8
0
  6
CONTINUOUS
 62
     7
100
AcDbLine
 10
376.4862659077
 20
604.6800707655
 30
0.0
 11
376.4862659077
 21
604.1800623017
 31
0.0
  0
LINE
  5
1F2
330
1F
100
AcDbEntity
  8
0
  6
CONTINUOUS
 62
     7
100
AcDbLine
 10
376.4862659077
 20
588.1800745802
 30
0.0
 11
376.4862659077
 21
587.6800661164
 31
0.0
  0
LINE
  5
1F3
330
1F
100
AcDbEntity
  8
0
  6
CONTINUOUS
 62
     7
100
AcDbLine
 10
374.9862658946
 20
1004.1800682621
 30
0.0
 11
374.9862658946
 21
987.180063613
 31
0.0
  0
LINE
  5
1F4
330
1F
100
AcDbEntity
  8
0
  6
CONTINUOUS
 62
     7
100
AcDbLine
 10
376.4862659077
 20
1004.1800682621
 30
0.0
 11
376.4862659077
 21
1003.6800597983
 31
0.0
  0
LINE
  5
1F5
330
1F
100
AcDbEntity
  8
0
  6
CONTINUOUS
 62
     7
100
AcDbLine
 10
376.4862659077
 20
987.6800720768
 30
0.0
 11
376.4862659077
 21
987.180063613
 31
0.0
  0
LINE
  5
1F6
330
1F
100
AcDbEntity
  8
0
  6
CONTINUOUS
 62
     7
100
AcDbLine
 10
377.4862658387
 20
1051.6800676661
 30
0.0
 11
376.4862659077
 21
1051.6800676661
 31
0.0
  0
LINE
  5
1F7
330
1F
100
AcDbEntity
  8
0
  6
CONTINUOUS
 62
     7
100
AcDbLine
 10
376.4862659077
 20
540.1800667124
 30
0.0
 11
377.4862658387
 21
540.1800667124
 31
0.0
  0
LINE
  5
1F8
330
1F
100
AcDbEntity
  8
0
  6
CONTINUOUS
 62
     7
100
AcDbLine
 10
385.986265835
 20
552.1800612288
 30
0.0
 11
385.986265835
 21
542.1800707655
 31
0.0
  0
LINE
  5
1F9
330
1F
100
AcDbEntity
  8
0
  6
CONTINUOUS
 62
     7
100
AcDbLine
 10
383.9862655072
 20
540.1800667124
 30
0.0
 11
385.986265835
 21
542.1800707655
 31
0.0
  0
LINE
  5
1FA
330
1F
100
AcDbEntity
  8
0
  6
CONTINUOUS
 62
     7
100
AcDbLine
 10
383.9862655072
 20
540.1800667124
 30
0.0
 11
377.4862658387
 21
540.1800667124
 31
0.0
  0
LINE
  5
1FB
330
1F
100
AcDbEntity
  8
0
  6
CONTINUOUS
 62
     7
100
AcDbLine
 10
377.4862658387
 20
1051.6800676661
 30
0.0
 11
383.9862655072
 21
1051.6800676661
 31
0.0
  0
LINE
  5
1FC
330
1F
100
AcDbEntity
  8
0
  6
CONTINUOUS
 62
     7
100
AcDbLine
 10
385.986265835
 20
1049.680063613
 30
0.0
 11
383.9862655072
 21
1051.6800676661
 31
0.0
  0
LINE
  5
1FD
330
1F
100
AcDbEntity
  8
0
  6
CONTINUOUS
 62
     7
100
AcDbLine
 10
385.986265835
 20
1049.680063613
 30
0.0
 11
385.986265835
 21
1039.6800731497
 31
0.0
  0
LINE
  5
1FE
330
1F
100
AcDbEntity
  8
0
  6
CONTINUOUS
 62
     7
100
AcDbLine
 10
385.986265835
 20
1039.6800731497
 30
0.0
 11
388.4862662448
 21
1039.6800731497
 31
0.0
  0
LINE
  5
1FF
330
1F
100
AcDbEntity
  8
0
  6
CONTINUOUS
 62
     7
100
AcDbLine
 10
388.4862662448
 20
552.1800612288
 30
0.0
 11
388.4862662448
 21
584.6800600367
 31
0.0
  0
LINE
  5
200
330
1F
100
AcDbEntity
  8
0
  6
CONTINUOUS
 62
     7
100
AcDbLine
 10
388.4862662448
 20
587.6800661164
 30
0.0
 11
388.4862662448
 21
588.1800745802
 31
0.0
  0
LINE
  5
201
330
1F
100
AcDbEntity
  8
0
  6
CONTINUOUS
 62
     7
100
AcDbLine
 10
388.4862662448
 20
604.1800623017
 30
0.0
 11
388.4862662448
 21
604.6800707655
 31
0.0
  0
LINE
  5
202
330
1F
100
AcDbEntity
  8
0
  6
CONTINUOUS
 62
     7
100
AcDbLine
 10
388.4862662448
 20
607.680061944
 30
0.0
 11
388.4862662448
 21
789.8921534607
 31
0.0
  0
LINE
  5
203
330
1F
100
AcDbEntity
  8
0
  6
CONTINUOUS
 62
     7
100
AcDbLine
 10
388.4862662448
 20
802.7857217195
 30
0.0
 11
388.4862662448
 21
984.1800724345
 31
0.0
  0
LINE
  5
204
330
1F
100
AcDbEntity
  8
0
  6
CONTINUOUS
 62
     7
100
AcDbLine
 10
388.4862662448
 20
987.180063613
 30
0.0
 11
388.4862662448
 21
987.6800720768
 31
0.0
  0
LINE
  5
205
330
1F
100
AcDbEntity
  8
0
  6
CONTINUOUS
 62
     7
100
AcDbLine
 10
388.4862662448
 20
1003.6800597983
 30
0.0
 11
388.4862662448
 21
1004.1800682621
 31
0.0
  0
LINE
  5
206
330
1F
100
AcDbEntity
  8
0
  6
CONTINUOUS
 62
     7
100
AcDbLine
 10
388.4862662448
 20
1007.1800743418
 30
0.0
 11
388.4862662448
 21
1039.6800731497
 31
0.0
  0
LINE
  5
207
330
1F
100
AcDbEntity
  8
0
  6
CONTINUOUS
 62
     7
100
AcDbLine
 10
388.4862662448
 20
552.1800612288
 30
0.0
 11
385.986265835
 21
552.1800612288
 31
0.0
  0
LINE
  5
208
330
1F
100
AcDbEntity
  8
0
  6
CONTINUOUS
 62
     7
100
AcDbLine
 10
378.4862660027
 20
1053.4729455786
 30
0.0
 11
386.9862659989
 21
1053.4729455786
 31
0.0
  0
LINE
  5
209
330
1F
100
AcDbEntity
  8
0
  6
CONTINUOUS
 62
     7
100
AcDbLine
 10
386.9862659989
 20
1053.4729455786
 30
0.0
 11
386.9862659989
 21
1039.6800731497
 31
0.0
  0
LINE
  5
20A
330
1F
100
AcDbEntity
  8
0
  6
CONTINUOUS
 62
     7
100
AcDbLine
 10
386.9862659989
 20
552.1800612288
 30
0.0
 11
386.9862659989
 21
538.3871887999
 31
0.0
  0
LINE
  5
20B
330
1F
100
AcDbEntity
  8
0
  6
CONTINUOUS
 62
     7
100
AcDbLine
 10
378.4862660027
 20
538.3871887999
 30
0.0
 11
386.9862659989
 21
538.3871887999
 31
0.0
  0
ARC
  5
20C
330
1F
100
AcDbEntity
  8
0
  6
CONTINUOUS
 62
     7
100
AcDbCircle
 10
384.5430415704
 20
1007.4436760076
 30
0.0
 40
46.42605074218297
100
AcDbArc
 50
97.4962158187
 51
99.9937048386
  0
LWPOLYLINE
  5
20D
330
1F
100
AcDbEntity
  8
0
  6
CONTINUOUS
 62
     7
100
AcDbPolyline
 90
        3
 70
   128
 43
0.0
 10
378.4862660027
 20
538.3871887999
 10
377.4883452492
 20
538.5331307726
 10
376.4862659077
 20
538.6951659994
  0
ARC
  5
20E
330
1F
100
AcDbEntity
  8
0
  6
CONTINUOUS
 62
     7
100
AcDbCircle
 10
378.474143524
 20
539.1432828201
 30
0.0
 40
1.463263938992291
100
AcDbArc
 50
202.0925364263
 51
270.474675001
  0
LINE
  5
20F
330
1F
100
AcDbEntity
  8
0
  6
CONTINUOUS
 62
     7
100
AcDbLine
 10
378.4862660027
 20
535.6800650435
 30
0.0
 11
378.4862660027
 21
537.6800690966
 31
0.0
  0
ARC
  5
210
330
1F
100
AcDbEntity
  8
0
  6
CONTINUOUS
 62
     7
100
AcDbCircle
 10
378.2949035877
 20
538.546347275
 30
0.0
 40
2.872663120662182
100
AcDbArc
 50
230.9791520583
 51
273.8195860754
  0
LWPOLYLINE
  5
211
330
1F
100
AcDbEntity
  8
0
  6
CONTINUOUS
 62
     7
100
AcDbPolyline
 90
        3
 70
   128
 43
0.0
 10
378.4862660027
 20
1056.180069335
 10
377.4883452492
 20
1056.0347830134
 10
376.4862659077
 20
1055.5388425665
  0
LINE
  5
212
330
1F
100
AcDbEntity
  8
0
  6
CONTINUOUS
 62
     7
100
AcDbLine
 10
378.4862660027
 20
1056.180069335
 30
0.0
 11
378.4862660027
 21
1054.1800652819
 31
0.0
  0
ARC
  5
213
330
1F
100
AcDbEntity
  8
0
  6
CONTINUOUS
 62
     7
100
AcDbCircle
 10
378.4246833526
 20
1052.8021163567
 30
0.0
 40
1.379324350311466
100
AcDbArc
 50
87.4410665441
 51
160.2425266911
  0
LINE
  5
214
330
1F
100
AcDbEntity
  8
0
  6
CONTINUOUS
 62
     7
100
AcDbLine
 10
378.4862660027
 20
535.6800650435
 30
0.0
 11
386.9862659989
 21
535.6800650435
 31
0.0
  0
LINE
  5
215
330
1F
100
AcDbEntity
  8
0
  6
CONTINUOUS
 62
     7
100
AcDbLine
 10
386.9862659989
 20
537.6800690966
 30
0.0
 11
386.9862659989
 21
535.6800650435
 31
0.0
  0
LINE
  5
216
330
1F
100
AcDbEntity
  8
0
  6
CONTINUOUS
 62
     7
100
AcDbLine
 10
378.4862660027
 20
537.6800690966
 30
0.0
 11
386.9862659989
 21
537.6800690966
 31
0.0
  0
LINE
  5
217
330
1F
100
AcDbEntity
  8
0
  6
CONTINUOUS
 62
     7
100
AcDbLine
 10
386.9862659989
 20
1056.180069335
 30
0.0
 11
378.4862660027
 21
1056.180069335
 31
0.0
  0
LINE
  5
218
330
1F
100
AcDbEntity
  8
0
  6
CONTINUOUS
 62
     7
100
AcDbLine
 10
386.9862659989
 20
1054.1800652819
 30
0.0
 11
386.9862659989
 21
1056.180069335
 31
0.0
  0
LINE
  5
219
330
1F
100
AcDbEntity
  8
0
  6
CONTINUOUS
 62
     7
100
AcDbLine
 10
378.4862660027
 20
1054.1800652819
 30
0.0
 11
386.9862659989
 21
1054.1800652819
 31
0.0
  0
LINE
  5
21A
330
1F
100
AcDbEntity
  8
0
  6
CONTINUOUS
 62
     7
100
AcDbLine
 10
391.286266145
 20
798.9968274443
 30
0.0
 11
390.5862654714
 21
798.9968274443
 31
0.0
  0
LINE
  5
21B
330
1F
100
AcDbEntity
  8
0
  6
CONTINUOUS
 62
     7
100
AcDbLine
 10
390.5862654714
 20
789.7800673919
 30
0.0
 11
390.5862654714
 21
798.9968274443
 31
0.0
  0
LINE
  5
21C
330
1F
100
AcDbEntity
  8
0
  6
CONTINUOUS
 62
     7
100
AcDbLine
 10
391.286266145
 20
789.7800673919
 30
0.0
 11
391.286266145
 21
798.9968274443
 31
0.0
  0
LINE
  5
21D
330
1F
100
AcDbEntity
  8
0
  6
CONTINUOUS
 62
     7
100
AcDbLine
 10
390.4862656413
 20
789.8967728207
 30
0.0
 11
390.4862656413
 21
802.8941351177
 31
0.0
  0
LINE
  5
21E
330
1F
100
AcDbEntity
  8
0
  6
CONTINUOUS
 62
     7
100
AcDbLine
 10
390.4862656413
 20
789.8967728207
 30
0.0
 11
388.4862662448
 21
789.8967728207
 31
0.0
  0
LINE
  5
21F
330
1F
100
AcDbEntity
  8
0
  6
CONTINUOUS
 62
     7
100
AcDbLine
 10
388.4862662448
 20
789.8967728207
 30
0.0
 11
388.4862662448
 21
802.8941351177
 31
0.0
  0
LINE
  5
220
330
1F
100
AcDbEntity
  8
0
  6
CONTINUOUS
 62
     7
100
AcDbLine
 10
390.4862656413
 20
802.8941351177
 30
0.0
 11
388.4862662448
 21
802.8941351177
 31
0.0
  0
LINE
  5
221
330
1F
100
AcDbEntity
  8
0
  6
CONTINUOUS
 62
     7
100
AcDbLine
 10
390.4862656413
 20
789.4313862736
 30
0.0
 11
388.4862662448
 21
789.4313862736
 31
0.0
  0
LINE
  5
222
330
1F
100
AcDbEntity
  8
0
  6
CONTINUOUS
 62
     7
100
AcDbLine
 10
388.4862662448
 20
789.8921534607
 30
0.0
 11
388.4862662448
 21
789.8967728207
 31
0.0
  0
LINE
  5
223
330
1F
100
AcDbEntity
  8
0
  6
CONTINUOUS
 62
     7
100
AcDbLine
 10
390.4862656413
 20
789.4313862736
 30
0.0
 11
390.4862656413
 21
789.8967728207
 31
0.0
  0
LINE
  5
224
330
1F
100
AcDbEntity
  8
0
  6
CONTINUOUS
 62
     7
100
AcDbLine
 10
390.4862656413
 20
789.4300670551
 30
0.0
 11
390.4862656413
 21
789.4313862736
 31
0.0
  0
LINE
  5
225
330
1F
100
AcDbEntity
  8
0
  6
CONTINUOUS
 62
     7
100
AcDbLine
 10
371.6862659125
 20
796.0630174012
 30
0.0
 11
371.6862659125
 21
789.330067225
 31
0.0
  0
LINE
  5
226
330
1F
100
AcDbEntity
  8
0
  6
CONTINUOUS
 62
     7
100
AcDbLine
 10
371.6862659125
 20
802.5300671535
 30
0.0
 11
371.6862659125
 21
796.0630174012
 31
0.0
  0
LINE
  5
227
330
1F
100
AcDbEntity
  8
0
  6
CONTINUOUS
 62
     7
100
AcDbLine
 10
392.4862659691
 20
796.0005710876
 30
0.0
 11
392.4862659691
 21
799.4300672973
 31
0.0
  0
LINE
  5
228
330
1F
100
AcDbEntity
  8
0
  6
CONTINUOUS
 62
     7
100
AcDbLine
 10
392.4862659691
 20
792.4300670812
 30
0.0
 11
392.4862659691
 21
796.0005710876
 31
0.0
  0
LINE
  5
229
330
1F
100
AcDbEntity
  8
0
  6
CONTINUOUS
 62
     7
100
AcDbLine
 10
391.4862658052
 20
792.4300670812
 30
0.0
 11
391.4862658052
 21
799.4300672973
 31
0.0
  0
LINE
  5
22A
330
1F
100
AcDbEntity
  8
0
  6
CONTINUOUS
 62
     7
100
AcDbLine
 10
373.9862658471
 20
784.9300672489
 30
0.0
 11
373.9862658471
 21
806.9300671296
 31
0.0
  0
LINE
  5
22B
330
1F
100
AcDbEntity
  8
0
  6
CONTINUOUS
 62
     7
100
AcDbLine
 10
371.9862658685
 20
802.4209324459
 30
0.0
 11
371.9862658685
 21
804.9300668018
 31
0.0
  0
LINE
  5
22C
330
1F
100
AcDbEntity
  8
0
  6
CONTINUOUS
 62
     7
100
AcDbLine
 10
371.9862658685
 20
786.9300675767
 30
0.0
 11
371.9862658685
 21
802.4209324459
 31
0.0
  0
LINE
  5
22D
330
1F
100
AcDbEntity
  8
0
  6
CONTINUOUS
 62
     8
100
AcDbLine
 10
377.4862658387
 20
540.1800667124
 30
0.0
 11
377.4862658387
 21
584.6800600367
 31
0.0
  0
LINE
  5
22E
330
1F
100
AcDbEntity
  8
0
  6
CONTINUOUS
 62
     8
100
AcDbLine
 10
377.4862658387
 20
587.6800661164
 30
0.0
 11
377.4862658387
 21
588.1800745802
 31
0.0
  0
LINE
  5
22F
330
1F
100
AcDbEntity
  8
0
  6
CONTINUOUS
 62
     8
100
AcDbLine
 10
377.4862658387
 20
604.1800623017
 30
0.0
 11
377.4862658387
 21
604.6800707655
 31
0.0
  0
LINE
  5
230
330
1F
100
AcDbEntity
  8
0
  6
CONTINUOUS
 62
     8
100
AcDbLine
 10
377.4862658387
 20
607.680061944
 30
0.0
 11
377.4862658387
 21
984.1800724345
 31
0.0
  0
LINE
  5
231
330
1F
100
AcDbEntity
  8
0
  6
CONTINUOUS
 62
     8
100
AcDbLine
 10
377.4862658387
 20
987.180063613
 30
0.0
 11
377.4862658387
 21
987.6800720768
 31
0.0
  0
LINE
  5
232
330
1F
100
AcDbEntity
  8
0
  6
CONTINUOUS
 62
     8
100
AcDbLine
 10
377.4862658387
 20
1003.6800597983
 30
0.0
 11
377.4862658387
 21
1004.1800682621
 31
0.0
  0
LINE
  5
233
330
1F
100
AcDbEntity
  8
0
  6
CONTINUOUS
 62
     8
100
AcDbLine
 10
377.4862658387
 20
1007.1800743418
 30
0.0
 11
377.4862658387
 21
1051.6800676661
 31
0.0
  0
LINE
  5
234
330
1F
100
AcDbEntity
  8
0
  6
CONTINUOUS
 62
     8
100
AcDbLine
 10
385.986265835
 20
552.1800612288
 30
0.0
 11
385.986265835
 21
584.6800600367
 31
0.0
  0
LINE
  5
235
330
1F
100
AcDbEntity
  8
0
  6
CONTINUOUS
 62
     8
100
AcDbLine
 10
385.986265835
 20
587.6800661164
 30
0.0
 11
385.986265835
 21
588.1800745802
 31
0.0
  0
LINE
  5
236
330
1F
100
AcDbEntity
  8
0
  6
CONTINUOUS
 62
     8
100
AcDbLine
 10
385.986265835
 20
604.1800623017
 30
0.0
 11
385.986265835
 21
604.6800707655
 31
0.0
  0
LINE
  5
237
330
1F
100
AcDbEntity
  8
0
  6
CONTINUOUS
 62
     8
100
AcDbLine
 10
385.986265835
 20
607.680061944
 30
0.0
 11
385.986265835
 21
984.1800724345
 31
0.0
  0
LINE
  5
238
330
1F
100
AcDbEntity
  8
0
  6
CONTINUOUS
 62
     8
100
AcDbLine
 10
385.986265835
 20
987.180063613
 30
0.0
 11
385.986265835
 21
987.6800720768
 31
0.0
  0
LINE
  5
239
330
1F
100
AcDbEntity
  8
0
  6
CONTINUOUS
 62
     8
100
AcDbLine
 10
385.986265835
 20
1003.6800597983
 30
0.0
 11
385.986265835
 21
1004.1800682621
 31
0.0
  0
LINE
  5
23A
330
1F
100
AcDbEntity
  8
0
  6
CONTINUOUS
 62
     8
100
AcDbLine
 10
385.986265835
 20
1007.1800743418
 30
0.0
 11
385.986265835
 21
1039.6800731497
 31
0.0
  0
LINE
  5
23B
330
1F
100
AcDbEntity
  8
0
  6
CONTINUOUS
 62
     8
100
AcDbLine
 10
378.4862660027
 20
538.3871887999
 30
0.0
 11
378.4862660027
 21
540.1800667124
 31
0.0
  0
LINE
  5
23C
330
1F
100
AcDbEntity
  8
0
  6
CONTINUOUS
 62
     8
100
AcDbLine
 10
378.4862660027
 20
1051.6800676661
 30
0.0
 11
378.4862660027
 21
1053.4729455786
 31
0.0
  0
LINE
  5
23D
330
1F
100
AcDbEntity
  8
0
  6
CONTINUOUS
 62
     8
100
AcDbLine
 10
371.9362659535
 20
796.0680533971
 30
0.0
 11
371.9362659535
 21
802.7800671945
 31
0.0
  0
LINE
  5
23E
330
1F
100
AcDbEntity
  8
0
  6
CONTINUOUS
 62
     8
100
AcDbLine
 10
371.9362659535
 20
789.080067184
 30
0.0
 11
371.9362659535
 21
796.0680533971
 31
0.0
  0
LINE
  5
23F
330
1F
100
AcDbEntity
  8
0
  6
CONTINUOUS
 62
     7
100
AcDbLine
 10
970.8173266169
 20
1242.1687377281
 30
0.0
 11
970.8173266169
 21
1241.4687370545
 31
0.0
  0
LINE
  5
240
330
1F
100
AcDbEntity
  8
0
  6
CONTINUOUS
 62
     7
100
AcDbLine
 10
983.1173262116
 20
1241.4687370545
 30
0.0
 11
983.1173262116
 21
1242.1687377281
 31
0.0
  0
LINE
  5
241
330
1F
100
AcDbEntity
  8
0
  6
CONTINUOUS
 62
     7
100
AcDbLine
 10
970.4673281427
 20
1244.2687369547
 30
0.0
 11
970.4673281427
 21
1242.2687375582
 31
0.0
  0
LINE
  5
242
330
1F
100
AcDbEntity
  8
0
  6
CONTINUOUS
 62
     7
100
AcDbLine
 10
1000.9673228975
 20
1242.2687375582
 30
0.0
 11
1000.9673228975
 21
1244.2687369547
 31
0.0
  0
ARC
  5
243
330
1F
100
AcDbEntity
  8
0
  6
CONTINUOUS
 62
     7
100
AcDbCircle
 10
983.5673212286
 20
1260.8187373049
 30
0.0
 40
0.2500000000001137
100
AcDbArc
 50
0.0
 51
90.0
  0
ARC
  5
244
330
1F
100
AcDbEntity
  8
0
  6
CONTINUOUS
 62
     7
100
AcDbCircle
 10
970.3673212286
 20
1260.8187373049
 30
0.0
 40
0.25
100
AcDbArc
 50
90.0
 51
180.0
  0
LINE
  5
245
330
1F
100
AcDbEntity
  8
0
  6
CONTINUOUS
 62
     7
100
AcDbLine
 10
983.8173231598
 20
1260.7687373309
 30
0.0
 11
983.8173231598
 21
1260.818737246
 31
0.0
  0
LINE
  5
246
330
1F
100
AcDbEntity
  8
0
  6
CONTINUOUS
 62
     7
100
AcDbLine
 10
970.1173147675
 20
1260.818737246
 30
0.0
 11
970.1173147675
 21
1260.7687373309
 31
0.0
  0
LINE
  5
247
330
1F
100
AcDbEntity
  8
0
  6
CONTINUOUS
 62
     7
100
AcDbLine
 10
973.4673193213
 20
1241.2687373943
 30
0.0
 11
973.4673193213
 21
1240.2687372304
 31
0.0
  0
LINE
  5
248
330
1F
100
AcDbEntity
  8
0
  6
CONTINUOUS
 62
     7
100
AcDbLine
 10
980.467318606
 20
1240.2687372304
 30
0.0
 11
980.467318606
 21
1241.2687373943
 31
0.0
  0
LINE
  5
249
330
1F
100
AcDbEntity
  8
0
  6
CONTINUOUS
 62
     7
100
AcDbLine
 10
973.9673277851
 20
1242.2687375582
 30
0.0
 11
973.9673277851
 21
1242.1687377281
 31
0.0
  0
LINE
  5
24A
330
1F
100
AcDbEntity
  8
0
  6
CONTINUOUS
 62
     7
100
AcDbLine
 10
973.9673277851
 20
1241.4687370545
 30
0.0
 11
973.9673277851
 21
1241.2687373943
 31
0.0
  0
LINE
  5
24B
330
1F
100
AcDbEntity
  8
0
  6
CONTINUOUS
 62
     7
100
AcDbLine
 10
979.9673250433
 20
1241.2687373943
 30
0.0
 11
979.9673250433
 21
1241.4687370545
 31
0.0
  0
LINE
  5
24C
330
1F
100
AcDbEntity
  8
0
  6
CONTINUOUS
 62
     7
100
AcDbLine
 10
979.9673250433
 20
1242.1687377281
 30
0.0
 11
979.9673250433
 21
1242.2687375582
 31
0.0
  0
LINE
  5
24D
330
1F
100
AcDbEntity
  8
0
  6
CONTINUOUS
 62
     7
100
AcDbLine
 10
987.9673263546
 20
1258.7687373524
 30
0.0
 11
985.9673223015
 21
1260.7687373309
 31
0.0
  0
LINE
  5
24E
330
1F
100
AcDbEntity
  8
0
  6
CONTINUOUS
 62
     7
100
AcDbLine
 10
967.9673156258
 20
1260.7687373309
 30
0.0
 11
965.9673264738
 21
1258.7687373524
 31
0.0
  0
LINE
  5
24F
330
1F
100
AcDbEntity
  8
0
  6
CONTINUOUS
 62
     7
100
AcDbLine
 10
965.9673264738
 20
1258.7687373524
 30
0.0
 11
965.9673264738
 21
1257.7687373049
 31
0.0
  0
LINE
  5
250
330
1F
100
AcDbEntity
  8
0
  6
CONTINUOUS
 62
     7
100
AcDbLine
 10
987.9673263546
 20
1257.7687373049
 30
0.0
 11
987.9673263546
 21
1258.7687373524
 31
0.0
  0
LINE
  5
251
330
1F
100
AcDbEntity
  8
0
  6
CONTINUOUS
 62
     7
100
AcDbLine
 10
969.9673196789
 20
1245.7687372006
 30
0.0
 11
969.9673196789
 21
1244.7687370366
 31
0.0
  0
LINE
  5
252
330
1F
100
AcDbEntity
  8
0
  6
CONTINUOUS
 62
     7
100
AcDbLine
 10
983.9673182484
 20
1244.7687370366
 30
0.0
 11
983.9673182484
 21
1245.7687372006
 31
0.0
  0
ARC
  5
253
330
1F
100
AcDbEntity
  8
0
  6
CONTINUOUS
 62
     7
100
AcDbCircle
 10
970.4673212286
 20
1244.7687373049
 30
0.0
 40
0.5000000000000112
100
AcDbArc
 50
180.0
 51
270.0000121787
  0
ARC
  5
254
330
1F
100
AcDbEntity
  8
0
  6
CONTINUOUS
 62
     7
100
AcDbCircle
 10
983.4673212286
 20
1244.7687373049
 30
0.0
 40
0.5000000000001137
100
AcDbArc
 50
269.9999878213
 51
0.0
  0
LINE
  5
255
330
1F
100
AcDbEntity
  8
0
  6
CONTINUOUS
 62
     7
100
AcDbLine
 10
701.9673279043
 20
1245.7687372006
 30
0.0
 11
701.9673279043
 21
1244.2687369547
 31
0.0
  0
LINE
  5
256
330
1F
100
AcDbEntity
  8
0
  6
CONTINUOUS
 62
     7
100
AcDbLine
 10
970.4673281427
 20
1244.2687369547
 30
0.0
 11
701.9673279043
 21
1244.2687369547
 31
0.0
  0
LINE
  5
257
330
1F
100
AcDbEntity
  8
0
  6
CONTINUOUS
 62
     7
100
AcDbLine
 10
698.9673218246
 20
1244.2687369547
 30
0.0
 11
698.9673218246
 21
1245.7687372006
 31
0.0
  0
LINE
  5
258
330
1F
100
AcDbEntity
  8
0
  6
CONTINUOUS
 62
     7
100
AcDbLine
 10
701.9673279043
 20
1244.2687369547
 30
0.0
 11
698.9673218246
 21
1244.2687369547
 31
0.0
  0
LINE
  5
259
330
1F
100
AcDbEntity
  8
0
  6
CONTINUOUS
 62
     7
100
AcDbLine
 10
683.4673276659
 20
1256.2687372918
 30
0.0
 11
683.4673276659
 21
1257.7687373049
 31
0.0
  0
LINE
  5
25A
330
1F
100
AcDbEntity
  8
0
  6
CONTINUOUS
 62
     7
100
AcDbLine
 10
677.8104743477
 20
1256.2687372918
 30
0.0
 11
677.8104743477
 21
1257.7687373049
 31
0.0
  0
LINE
  5
25B
330
1F
100
AcDbEntity
  8
0
  6
CONTINUOUS
 62
     7
100
AcDbLine
 10
677.8104743477
 20
1256.2687372918
 30
0.0
 11
683.4673276659
 21
1256.2687372918
 31
0.0
  0
LINE
  5
25C
330
1F
100
AcDbEntity
  8
0
  6
CONTINUOUS
 62
     7
100
AcDbLine
 10
677.8104743477
 20
1257.7687373049
 30
0.0
 11
683.4673276659
 21
1257.7687373049
 31
0.0
  0
LINE
  5
25D
330
1F
100
AcDbEntity
  8
0
  6
CONTINUOUS
 62
     7
100
AcDbLine
 10
996.9673147913
 20
1256.2687372918
 30
0.0
 11
996.9673147913
 21
1257.7687373049
 31
0.0
  0
LINE
  5
25E
330
1F
100
AcDbEntity
  8
0
  6
CONTINUOUS
 62
     7
100
AcDbLine
 10
683.4673276659
 20
1256.2687372918
 30
0.0
 11
996.9673147913
 21
1256.2687372918
 31
0.0
  0
LINE
  5
25F
330
1F
100
AcDbEntity
  8
0
  6
CONTINUOUS
 62
     7
100
AcDbLine
 10
683.4673276659
 20
1257.7687373049
 30
0.0
 11
996.9673147913
 21
1257.7687373049
 31
0.0
  0
LINE
  5
260
330
1F
100
AcDbEntity
  8
0
  6
CONTINUOUS
 62
     7
100
AcDbLine
 10
1002.6241681095
 20
1256.2687372918
 30
0.0
 11
1002.6241681095
 21
1257.7687373049
 31
0.0
  0
LINE
  5
261
330
1F
100
AcDbEntity
  8
0
  6
CONTINUOUS
 62
     7
100
AcDbLine
 10
996.9673147913
 20
1256.2687372918
 30
0.0
 11
1002.6241681095
 21
1256.2687372918
 31
0.0
  0
LINE
  5
262
330
1F
100
AcDbEntity
  8
0
  6
CONTINUOUS
 62
     7
100
AcDbLine
 10
996.9673147913
 20
1257.7687373049
 30
0.0
 11
1002.6241681095
 21
1257.7687373049
 31
0.0
  0
LINE
  5
263
330
1F
100
AcDbEntity
  8
0
  6
CONTINUOUS
 62
     7
100
AcDbLine
 10
662.3104652878
 20
1256.2687372918
 30
0.0
 11
662.3104652878
 21
1257.7687373049
 31
0.0
  0
LINE
  5
264
330
1F
100
AcDbEntity
  8
0
  6
CONTINUOUS
 62
     7
100
AcDbLine
 10
662.3104652878
 20
1256.2687372918
 30
0.0
 11
677.8104743477
 21
1256.2687372918
 31
0.0
  0
LINE
  5
265
330
1F
100
AcDbEntity
  8
0
  6
CONTINUOUS
 62
     7
100
AcDbLine
 10
662.3104652878
 20
1257.7687373049
 30
0.0
 11
677.8104743477
 21
1257.7687373049
 31
0.0
  0
LINE
  5
266
330
1F
100
AcDbEntity
  8
0
  6
CONTINUOUS
 62
     7
100
AcDbLine
 10
1018.1241771694
 20
1256.2687372918
 30
0.0
 11
1018.1241771694
 21
1257.7687373049
 31
0.0
  0
LINE
  5
267
330
1F
100
AcDbEntity
  8
0
  6
CONTINUOUS
 62
     7
100
AcDbLine
 10
1002.6241681095
 20
1256.2687372918
 30
0.0
 11
1018.1241771694
 21
1256.2687372918
 31
0.0
  0
LINE
  5
268
330
1F
100
AcDbEntity
  8
0
  6
CONTINUOUS
 62
     7
100
AcDbLine
 10
1002.6241681095
 20
1257.7687373049
 30
0.0
 11
1018.1241771694
 21
1257.7687373049
 31
0.0
  0
LINE
  5
269
330
1F
100
AcDbEntity
  8
0
  6
CONTINUOUS
 62
     7
100
AcDbLine
 10
993.4673151489
 20
1255.2687373607
 30
0.0
 11
993.4673151489
 21
1256.2687372918
 31
0.0
  0
LINE
  5
26A
330
1F
100
AcDbEntity
  8
0
  6
CONTINUOUS
 62
     7
100
AcDbLine
 10
686.9673273083
 20
1255.2687373607
 30
0.0
 11
993.4673151489
 21
1255.2687373607
 31
0.0
  0
LINE
  5
26B
330
1F
100
AcDbEntity
  8
0
  6
CONTINUOUS
 62
     7
100
AcDbLine
 10
686.9673273083
 20
1256.2687372918
 30
0.0
 11
686.9673273083
 21
1255.2687373607
 31
0.0
  0
LINE
  5
26C
330
1F
100
AcDbEntity
  8
0
  6
CONTINUOUS
 62
     7
100
AcDbLine
 10
993.4673151489
 20
1255.2687373607
 30
0.0
 11
993.4673151489
 21
1248.7687376923
 31
0.0
  0
LINE
  5
26D
330
1F
100
AcDbEntity
  8
0
  6
CONTINUOUS
 62
     7
100
AcDbLine
 10
991.467325997
 20
1246.7687373645
 30
0.0
 11
993.4673151489
 21
1248.7687376923
 31
0.0
  0
LINE
  5
26E
330
1F
100
AcDbEntity
  8
0
  6
CONTINUOUS
 62
     7
100
AcDbLine
 10
991.467325997
 20
1246.7687373645
 30
0.0
 11
688.9673164602
 21
1246.7687373645
 31
0.0
  0
LINE
  5
26F
330
1F
100
AcDbEntity
  8
0
  6
CONTINUOUS
 62
     7
100
AcDbLine
 10
686.9673273083
 20
1248.7687376923
 30
0.0
 11
688.9673164602
 21
1246.7687373645
 31
0.0
  0
LINE
  5
270
330
1F
100
AcDbEntity
  8
0
  6
CONTINUOUS
 62
     7
100
AcDbLine
 10
686.9673273083
 20
1248.7687376923
 30
0.0
 11
686.9673273083
 21
1255.2687373607
 31
0.0
  0
CIRCLE
  5
271
330
1F
100
AcDbEntity
  8
0
  6
CONTINUOUS
 62
     7
100
AcDbCircle
 10
690.9673212286
 20
1250.2687373049
 30
0.0
 40
2.699999999999932
  0
LINE
  5
272
330
1F
100
AcDbEntity
  8
0
  6
CONTINUOUS
 62
     7
100
AcDbLine
 10
659.9673172947
 20
1256.2687372918
 30
0.0
 11
659.9673172947
 21
1257.7687373049
 31
0.0
  0
LINE
  5
273
330
1F
100
AcDbEntity
  8
0
  6
CONTINUOUS
 62
     7
100
AcDbLine
 10
1020.4673251625
 20
1256.2687372918
 30
0.0
 11
1020.4673251625
 21
1257.7687373049
 31
0.0
  0
LINE
  5
274
330
1F
100
AcDbEntity
  8
0
  6
CONTINUOUS
 62
     7
100
AcDbLine
 10
1018.1241771694
 20
1256.2687372918
 30
0.0
 11
1020.4673251625
 21
1256.2687372918
 31
0.0
  0
LINE
  5
275
330
1F
100
AcDbEntity
  8
0
  6
CONTINUOUS
 62
     7
100
AcDbLine
 10
1018.1241771694
 20
1257.7687373049
 30
0.0
 11
1020.4673251625
 21
1257.7687373049
 31
0.0
  0
LINE
  5
276
330
1F
100
AcDbEntity
  8
0
  6
CONTINUOUS
 62
     7
100
AcDbLine
 10
1000.9673228975
 20
1248.7687376923
 30
0.0
 11
1002.4673184868
 21
1248.7687376923
 31
0.0
  0
LINE
  5
277
330
1F
100
AcDbEntity
  8
0
  6
CONTINUOUS
 62
     7
100
AcDbLine
 10
1002.4673184868
 20
1246.7687373645
 30
0.0
 11
1000.9673228975
 21
1246.7687373645
 31
0.0
  0
LINE
  5
278
330
1F
100
AcDbEntity
  8
0
  6
CONTINUOUS
 62
     7
100
AcDbLine
 10
1002.4673184868
 20
1248.7687376923
 30
0.0
 11
1002.4673184868
 21
1246.7687373645
 31
0.0
  0
LINE
  5
279
330
1F
100
AcDbEntity
  8
0
  6
CONTINUOUS
 62
     7
100
AcDbLine
 10
1000.9673228975
 20
1246.7687373645
 30
0.0
 11
1000.9673228975
 21
1248.7687376923
 31
0.0
  0
ARC
  5
27A
330
1F
100
AcDbEntity
  8
0
  6
CONTINUOUS
 62
     7
100
AcDbCircle
 10
1003.4673212286
 20
1255.2687373049
 30
0.0
 40
2.500000000000141
100
AcDbArc
 50
156.4218215218
 51
180.0
  0
ARC
  5
27B
330
1F
100
AcDbEntity
  8
0
  6
CONTINUOUS
 62
     7
100
AcDbCircle
 10
1003.4673212286
 20
1255.2687373049
 30
0.0
 40
1.000000000000227
100
AcDbArc
 50
90.0
 51
180.0
  0
LINE
  5
27C
330
1F
100
AcDbEntity
  8
0
  6
CONTINUOUS
 62
     7
100
AcDbLine
 10
1002.4673184868
 20
1255.2687373607
 30
0.0
 11
1000.9673228975
 21
1255.2687373607
 31
0.0
  0
LINE
  5
27D
330
1F
100
AcDbEntity
  8
0
  6
CONTINUOUS
 62
     7
100
AcDbLine
 10
1002.4673184868
 20
1248.7687376923
 30
0.0
 11
1002.4673184868
 21
1255.2687373607
 31
0.0
  0
LINE
  5
27E
330
1F
100
AcDbEntity
  8
0
  6
CONTINUOUS
 62
     7
100
AcDbLine
 10
1000.9673228975
 20
1248.7687376923
 30
0.0
 11
1000.9673228975
 21
1255.2687373607
 31
0.0
  0
LINE
  5
27F
330
1F
100
AcDbEntity
  8
0
  6
CONTINUOUS
 62
     7
100
AcDbLine
 10
999.967320871
 20
1245.7687372006
 30
0.0
 11
999.967320871
 21
1244.2687369547
 31
0.0
  0
ARC
  5
280
330
1F
100
AcDbEntity
  8
0
  6
CONTINUOUS
 62
     7
100
AcDbCircle
 10
999.9673212286
 20
1246.7687373049
 30
0.0
 40
1.000000000000227
100
AcDbArc
 50
270.0
 51
0.0
  0
ARC
  5
281
330
1F
100
AcDbEntity
  8
0
  6
CONTINUOUS
 62
     7
100
AcDbCircle
 10
999.9673212286
 20
1246.7687373049
 30
0.0
 40
2.5
100
AcDbArc
 50
270.0
 51
0.0
  0
LINE
  5
282
330
1F
100
AcDbEntity
  8
0
  6
CONTINUOUS
 62
     7
100
AcDbLine
 10
995.9673276659
 20
1244.2687369547
 30
0.0
 11
995.9673276659
 21
1245.7687372006
 31
0.0
  0
LINE
  5
283
330
1F
100
AcDbEntity
  8
0
  6
CONTINUOUS
 62
     7
100
AcDbLine
 10
995.9673276659
 20
1245.7687372006
 30
0.0
 11
996.4673212286
 21
1245.7687372006
 31
0.0
  0
LINE
  5
284
330
1F
100
AcDbEntity
  8
0
  6
CONTINUOUS
 62
     7
100
AcDbLine
 10
998.4673252817
 20
1245.7687372006
 30
0.0
 11
998.9673188444
 21
1245.7687372006
 31
0.0
  0
LINE
  5
285
330
1F
100
AcDbEntity
  8
0
  6
CONTINUOUS
 62
     7
100
AcDbLine
 10
998.9673188444
 20
1245.7687372006
 30
0.0
 11
998.9673188444
 21
1244.2687369547
 31
0.0
  0
LINE
  5
286
330
1F
100
AcDbEntity
  8
0
  6
CONTINUOUS
 62
     7
100
AcDbLine
 10
998.9673188444
 20
1244.2687369547
 30
0.0
 11
995.9673276659
 21
1244.2687369547
 31
0.0
  0
LINE
  5
287
330
1F
100
AcDbEntity
  8
0
  6
CONTINUOUS
 62
     7
100
AcDbLine
 10
999.967320871
 20
1244.2687369547
 30
0.0
 11
998.9673188444
 21
1244.2687369547
 31
0.0
  0
LINE
  5
288
330
1F
100
AcDbEntity
  8
0
  6
CONTINUOUS
 62
     7
100
AcDbLine
 10
999.967320871
 20
1245.7687372006
 30
0.0
 11
998.9673188444
 21
1245.7687372006
 31
0.0
  0
ARC
  5
289
330
1F
100
AcDbEntity
  8
0
  6
CONTINUOUS
 62
     7
100
AcDbCircle
 10
1017.9673212286
 20
1255.2687373049
 30
0.0
 40
2.500000000000037
100
AcDbArc
 50
0.0
 51
23.5781784782
  0
LINE
  5
28A
330
1F
100
AcDbEntity
  8
0
  6
CONTINUOUS
 62
     7
100
AcDbLine
 10
1018.9673146721
 20
1255.2687373607
 30
0.0
 11
1020.4673251625
 21
1255.2687373607
 31
0.0
  0
ARC
  5
28B
330
1F
100
AcDbEntity
  8
0
  6
CONTINUOUS
 62
     7
100
AcDbCircle
 10
1017.9673212286
 20
1255.2687373049
 30
0.0
 40
1.000000000000227
100
AcDbArc
 50
0.0
 51
90.0
  0
LINE
  5
28C
330
1F
100
AcDbEntity
  8
0
  6
CONTINUOUS
 62
     7
100
AcDbLine
 10
1020.4673251625
 20
1239.2687370664
 30
0.0
 11
1018.9673146721
 21
1239.2687370664
 31
0.0
  0
LINE
  5
28D
330
1F
100
AcDbEntity
  8
0
  6
CONTINUOUS
 62
     7
100
AcDbLine
 10
1018.9673146721
 20
1239.2687370664
 30
0.0
 11
1018.9673146721
 21
1241.2687373943
 31
0.0
  0
LINE
  5
28E
330
1F
100
AcDbEntity
  8
0
  6
CONTINUOUS
 62
     7
100
AcDbLine
 10
1018.9673146721
 20
1241.2687373943
 30
0.0
 11
1020.4673251625
 21
1241.2687373943
 31
0.0
  0
LINE
  5
28F
330
1F
100
AcDbEntity
  8
0
  6
CONTINUOUS
 62
     7
100
AcDbLine
 10
1020.4673251625
 20
1241.2687373943
 30
0.0
 11
1020.4673251625
 21
1239.2687370664
 31
0.0
  0
LINE
  5
290
330
1F
100
AcDbEntity
  8
0
  6
CONTINUOUS
 62
     7
100
AcDbLine
 10
1020.4673251625
 20
1241.2687373943
 30
0.0
 11
1020.4673251625
 21
1255.2687373607
 31
0.0
  0
LINE
  5
291
330
1F
100
AcDbEntity
  8
0
  6
CONTINUOUS
 62
     7
100
AcDbLine
 10
1018.9673146721
 20
1241.2687373943
 30
0.0
 11
1018.9673146721
 21
1255.2687373607
 31
0.0
  0
ARC
  5
292
330
1F
100
AcDbEntity
  8
0
  6
CONTINUOUS
 62
     7
100
AcDbCircle
 10
1021.4673212286
 20
1242.2687373049
 30
0.0
 40
0.99999999999995
100
AcDbArc
 50
165.0
 51
179.9999999999
  0
LINE
  5
293
330
1F
100
AcDbEntity
  8
0
  6
CONTINUOUS
 62
     7
100
AcDbLine
 10
1022.771312904
 20
1256.7945428671
 30
0.0
 11
1024.2201975103
 21
1256.4063142416
 31
0.0
  0
LINE
  5
294
330
1F
100
AcDbEntity
  8
0
  6
CONTINUOUS
 62
     7
100
AcDbLine
 10
1022.771312904
 20
1256.7945428671
 30
0.0
 11
1020.4673251625
 21
1248.1959445066
 31
0.0
  0
LINE
  5
295
330
1F
100
AcDbEntity
  8
0
  6
CONTINUOUS
 62
     7
100
AcDbLine
 10
1024.2201975103
 20
1256.4063142416
 30
0.0
 11
1020.501389217
 21
1242.5275567583
 31
0.0
  0
LINE
  5
296
330
1F
100
AcDbEntity
  8
0
  6
CONTINUOUS
 62
     7
100
AcDbLine
 10
659.9673172947
 20
1257.7687373049
 30
0.0
 11
662.3104652878
 21
1257.7687373049
 31
0.0
  0
LINE
  5
297
330
1F
100
AcDbEntity
  8
0
  6
CONTINUOUS
 62
     7
100
AcDbLine
 10
677.9673239704
 20
1255.2687373607
 30
0.0
 11
679.4673195597
 21
1255.2687373607
 31
0.0
  0
LINE
  5
298
330
1F
100
AcDbEntity
  8
0
  6
CONTINUOUS
 62
     7
100
AcDbLine
 10
677.9673239704
 20
1248.7687376923
 30
0.0
 11
679.4673195597
 21
1248.7687376923
 31
0.0
  0
LINE
  5
299
330
1F
100
AcDbEntity
  8
0
  6
CONTINUOUS
 62
     7
100
AcDbLine
 10
677.9673239704
 20
1255.2687373607
 30
0.0
 11
677.9673239704
 21
1248.7687376923
 31
0.0
  0
LINE
  5
29A
330
1F
100
AcDbEntity
  8
0
  6
CONTINUOUS
 62
     7
100
AcDbLine
 10
679.4673195597
 20
1255.2687373607
 30
0.0
 11
679.4673195597
 21
1248.7687376923
 31
0.0
  0
LINE
  5
29B
330
1F
100
AcDbEntity
  8
0
  6
CONTINUOUS
 62
     7
100
AcDbLine
 10
679.4673195597
 20
1246.7687373645
 30
0.0
 11
677.9673239704
 21
1246.7687373645
 31
0.0
  0
LINE
  5
29C
330
1F
100
AcDbEntity
  8
0
  6
CONTINUOUS
 62
     7
100
AcDbLine
 10
677.9673239704
 20
1246.7687373645
 30
0.0
 11
677.9673239704
 21
1248.7687376923
 31
0.0
  0
LINE
  5
29D
330
1F
100
AcDbEntity
  8
0
  6
CONTINUOUS
 62
     7
100
AcDbLine
 10
679.4673195597
 20
1248.7687376923
 30
0.0
 11
679.4673195597
 21
1246.7687373645
 31
0.0
  0
ARC
  5
29E
330
1F
100
AcDbEntity
  8
0
  6
CONTINUOUS
 62
     7
100
AcDbCircle
 10
676.9673212286
 20
1255.2687373049
 30
0.0
 40
1.000000000000227
100
AcDbArc
 50
0.0
 51
90.0
  0
ARC
  5
29F
330
1F
100
AcDbEntity
  8
0
  6
CONTINUOUS
 62
     7
100
AcDbCircle
 10
676.9673212286
 20
1255.2687373049
 30
0.0
 40
2.500000000000037
100
AcDbArc
 50
0.0
 51
23.5781784782
  0
ARC
  5
2A0
330
1F
100
AcDbEntity
  8
0
  6
CONTINUOUS
 62
     7
100
AcDbCircle
 10
662.4673212286
 20
1255.2687373049
 30
0.0
 40
1.000000000000227
100
AcDbArc
 50
90.0
 51
180.0
  0
LINE
  5
2A1
330
1F
100
AcDbEntity
  8
0
  6
CONTINUOUS
 62
     7
100
AcDbLine
 10
661.4673277851
 20
1255.2687373607
 30
0.0
 11
659.9673172947
 21
1255.2687373607
 31
0.0
  0
ARC
  5
2A2
330
1F
100
AcDbEntity
  8
0
  6
CONTINUOUS
 62
     7
100
AcDbCircle
 10
662.4673212286
 20
1255.2687373049
 30
0.0
 40
2.500000000000037
100
AcDbArc
 50
156.4218215218
 51
180.0
  0
LINE
  5
2A3
330
1F
100
AcDbEntity
  8
0
  6
CONTINUOUS
 62
     7
100
AcDbLine
 10
661.4673277851
 20
1241.2687373943
 30
0.0
 11
661.4673277851
 21
1255.2687373607
 31
0.0
  0
LINE
  5
2A4
330
1F
100
AcDbEntity
  8
0
  6
CONTINUOUS
 62
     7
100
AcDbLine
 10
659.9673172947
 20
1241.2687373943
 30
0.0
 11
661.4673277851
 21
1241.2687373943
 31
0.0
  0
LINE
  5
2A5
330
1F
100
AcDbEntity
  8
0
  6
CONTINUOUS
 62
     7
100
AcDbLine
 10
659.9673172947
 20
1241.2687373943
 30
0.0
 11
659.9673172947
 21
1255.2687373607
 31
0.0
  0
LINE
  5
2A6
330
1F
100
AcDbEntity
  8
0
  6
CONTINUOUS
 62
     7
100
AcDbLine
 10
661.4673277851
 20
1239.2687370664
 30
0.0
 11
659.9673172947
 21
1239.2687370664
 31
0.0
  0
LINE
  5
2A7
330
1F
100
AcDbEntity
  8
0
  6
CONTINUOUS
 62
     7
100
AcDbLine
 10
659.9673172947
 20
1239.2687370664
 30
0.0
 11
659.9673172947
 21
1241.2687373943
 31
0.0
  0
LINE
  5
2A8
330
1F
100
AcDbEntity
  8
0
  6
CONTINUOUS
 62
     7
100
AcDbLine
 10
661.4673277851
 20
1241.2687373943
 30
0.0
 11
661.4673277851
 21
1239.2687370664
 31
0.0
  0
ARC
  5
2A9
330
1F
100
AcDbEntity
  8
0
  6
CONTINUOUS
 62
     7
100
AcDbCircle
 10
658.9673212286
 20
1242.2687373049
 30
0.0
 40
1.00000000000006
100
AcDbArc
 50
0.0000000001
 51
15.0
  0
LINE
  5
2AA
330
1F
100
AcDbEntity
  8
0
  6
CONTINUOUS
 62
     7
100
AcDbLine
 10
656.2144449469
 20
1256.4063142416
 30
0.0
 11
659.9332532402
 21
1242.5275567583
 31
0.0
  0
LINE
  5
2AB
330
1F
100
AcDbEntity
  8
0
  6
CONTINUOUS
 62
     7
100
AcDbLine
 10
657.6633295532
 20
1256.7945428671
 30
0.0
 11
656.2144449469
 21
1256.4063142416
 31
0.0
  0
LINE
  5
2AC
330
1F
100
AcDbEntity
  8
0
  6
CONTINUOUS
 62
     7
100
AcDbLine
 10
657.6633295532
 20
1256.7945428671
 30
0.0
 11
659.9673172947
 21
1248.1959445066
 31
0.0
  0
LINE
  5
2AD
330
1F
100
AcDbEntity
  8
0
  6
CONTINUOUS
 62
     7
100
AcDbLine
 10
995.7602164265
 20
1254.2687371968
 30
0.0
 11
995.7602164265
 21
1245.7687372006
 31
0.0
  0
LINE
  5
2AE
330
1F
100
AcDbEntity
  8
0
  6
CONTINUOUS
 62
     7
100
AcDbLine
 10
995.7602164265
 20
1245.7687372006
 30
0.0
 11
684.6744260307
 21
1245.7687372006
 31
0.0
  0
LWPOLYLINE
  5
2AF
330
1F
100
AcDbEntity
  8
0
  6
CONTINUOUS
 62
     7
100
AcDbPolyline
 90
        3
 70
   128
 43
0.0
 10
690.3735986467
 20
1246.7687373645
 10
690.9673205133
 20
1246.7187374494
 10
691.56104238
 20
1246.7687373645
  0
LINE
  5
2B0
330
1F
100
AcDbEntity
  8
0
  6
CONTINUOUS
 62
     7
100
AcDbLine
 10
684.6744260307
 20
1254.2687371968
 30
0.0
 11
684.6744260307
 21
1245.7687372006
 31
0.0
  0
ARC
  5
2B1
330
1F
100
AcDbEntity
  8
0
  6
CONTINUOUS
 62
     7
100
AcDbCircle
 10
949.6265894661
 20
1248.195567457
 30
0.0
 40
46.53165510929723
100
AcDbArc
 50
7.4994659361
 51
9.9912887588
  0
LWPOLYLINE
  5
2B2
330
1F
100
AcDbEntity
  8
0
  6
CONTINUOUS
 62
     7
100
AcDbPolyline
 90
        3
 70
   128
 43
0.0
 10
684.6744260307
 20
1254.2687371968
 10
684.8203680035
 20
1255.2666579503
 10
684.9824032303
 20
1256.2687372918
  0
ARC
  5
2B3
330
1F
100
AcDbEntity
  8
0
  6
CONTINUOUS
 62
     7
100
AcDbCircle
 10
684.8336349913
 20
1254.460104952
 30
0.0
 40
2.872698981573553
100
AcDbArc
 50
140.9798687732
 51
183.8196450719
  0
ARC
  5
2B4
330
1F
100
AcDbEntity
  8
0
  6
CONTINUOUS
 62
     7
100
AcDbCircle
 10
685.4304982055
 20
1254.2808782033
 30
0.0
 40
1.463227347274064
100
AcDbArc
 50
112.0909353967
 51
180.4754123895
  0
LINE
  5
2B5
330
1F
100
AcDbEntity
  8
0
  6
CONTINUOUS
 62
     7
100
AcDbLine
 10
681.9673171755
 20
1254.2687371968
 30
0.0
 11
683.9673212286
 21
1254.2687371968
 31
0.0
  0
LINE
  5
2B6
330
1F
100
AcDbEntity
  8
0
  6
CONTINUOUS
 62
     7
100
AcDbLine
 10
998.4673252817
 20
1254.2687371968
 30
0.0
 11
996.4673212286
 21
1254.2687371968
 31
0.0
  0
ARC
  5
2B7
330
1F
100
AcDbEntity
  8
0
  6
CONTINUOUS
 62
     7
100
AcDbCircle
 10
995.0893535661
 20
1254.3303021737
 30
0.0
 40
1.379342279915617
100
AcDbArc
 50
357.4418346815
 51
70.2426248888
  0
LWPOLYLINE
  5
2B8
330
1F
100
AcDbEntity
  8
0
  6
CONTINUOUS
 62
     7
100
AcDbPolyline
 90
        3
 70
   128
 43
0.0
 10
998.4673252817
 20
1254.2687371968
 10
998.3220389601
 20
1255.2666579503
 10
997.8260985132
 20
1256.2687372918
  0
LINE
  5
2B9
330
1F
100
AcDbEntity
  8
0
  6
CONTINUOUS
 62
     7
100
AcDbLine
 10
683.9673212286
 20
1245.7687372006
 30
0.0
 11
681.9673171755
 21
1245.7687372006
 31
0.0
  0
LINE
  5
2BA
330
1F
100
AcDbEntity
  8
0
  6
CONTINUOUS
 62
     7
100
AcDbLine
 10
681.9673171755
 20
1254.2687371968
 30
0.0
 11
681.9673171755
 21
1245.7687372006
 31
0.0
  0
LINE
  5
2BB
330
1F
100
AcDbEntity
  8
0
  6
CONTINUOUS
 62
     7
100
AcDbLine
 10
683.9673212286
 20
1254.2687371968
 30
0.0
 11
683.9673212286
 21
1245.7687372006
 31
0.0
  0
LINE
  5
2BC
330
1F
100
AcDbEntity
  8
0
  6
CONTINUOUS
 62
     7
100
AcDbLine
 10
998.4673252817
 20
1254.2687371968
 30
0.0
 11
998.4673252817
 21
1245.7687372006
 31
0.0
  0
LINE
  5
2BD
330
1F
100
AcDbEntity
  8
0
  6
CONTINUOUS
 62
     7
100
AcDbLine
 10
996.4673212286
 20
1245.7687372006
 30
0.0
 11
998.4673252817
 21
1245.7687372006
 31
0.0
  0
LINE
  5
2BE
330
1F
100
AcDbEntity
  8
0
  6
CONTINUOUS
 62
     7
100
AcDbLine
 10
996.4673212286
 20
1254.2687371968
 30
0.0
 11
996.4673212286
 21
1245.7687372006
 31
0.0
  0
LINE
  5
2BF
330
1F
100
AcDbEntity
  8
0
  6
CONTINUOUS
 62
     7
100
AcDbLine
 10
970.8173266169
 20
1241.4687370545
 30
0.0
 11
983.1173262116
 21
1241.4687370545
 31
0.0
  0
LINE
  5
2C0
330
1F
100
AcDbEntity
  8
0
  6
CONTINUOUS
 62
     7
100
AcDbLine
 10
970.8173266169
 20
1242.1687377281
 30
0.0
 11
983.1173262116
 21
1242.1687377281
 31
0.0
  0
LINE
  5
2C1
330
1F
100
AcDbEntity
  8
0
  6
CONTINUOUS
 62
     7
100
AcDbLine
 10
970.4673281427
 20
1242.2687375582
 30
0.0
 11
977.098255467
 21
1242.2687375582
 31
0.0
  0
LINE
  5
2C2
330
1F
100
AcDbEntity
  8
0
  6
CONTINUOUS
 62
     7
100
AcDbLine
 10
977.098255467
 20
1242.2687375582
 30
0.0
 11
977.098255467
 21
1244.2687369547
 31
0.0
  0
LINE
  5
2C3
330
1F
100
AcDbEntity
  8
0
  6
CONTINUOUS
 62
     7
100
AcDbLine
 10
970.4673281427
 20
1244.2687369547
 30
0.0
 11
977.098255467
 21
1244.2687369547
 31
0.0
  0
LINE
  5
2C4
330
1F
100
AcDbEntity
  8
0
  6
CONTINUOUS
 62
     7
100
AcDbLine
 10
1000.1966050383
 20
1242.2687375582
 30
0.0
 11
1000.1966050383
 21
1244.2687369547
 31
0.0
  0
LINE
  5
2C5
330
1F
100
AcDbEntity
  8
0
  6
CONTINUOUS
 62
     7
100
AcDbLine
 10
977.098255467
 20
1242.2687375582
 30
0.0
 11
1000.1966050383
 21
1242.2687375582
 31
0.0
  0
LINE
  5
2C6
330
1F
100
AcDbEntity
  8
0
  6
CONTINUOUS
 62
     7
100
AcDbLine
 10
977.098255467
 20
1244.2687369547
 30
0.0
 11
995.9673276659
 21
1244.2687369547
 31
0.0
  0
LINE
  5
2C7
330
1F
100
AcDbEntity
  8
0
  6
CONTINUOUS
 62
     7
100
AcDbLine
 10
999.967320871
 20
1244.2687369547
 30
0.0
 11
1000.1966050383
 21
1244.2687369547
 31
0.0
  0
LINE
  5
2C8
330
1F
100
AcDbEntity
  8
0
  6
CONTINUOUS
 62
     7
100
AcDbLine
 10
1000.1966050383
 20
1242.2687375582
 30
0.0
 11
1000.9673228975
 21
1242.2687375582
 31
0.0
  0
LINE
  5
2C9
330
1F
100
AcDbEntity
  8
0
  6
CONTINUOUS
 62
     7
100
AcDbLine
 10
1000.1966050383
 20
1244.2687369547
 30
0.0
 11
1000.9673228975
 21
1244.2687369547
 31
0.0
  0
LINE
  5
2CA
330
1F
100
AcDbEntity
  8
0
  6
CONTINUOUS
 62
     7
100
AcDbLine
 10
983.5673263784
 20
1261.068737287
 30
0.0
 11
970.36732645
 21
1261.068737287
 31
0.0
  0
LINE
  5
2CB
330
1F
100
AcDbEntity
  8
0
  6
CONTINUOUS
 62
     7
100
AcDbLine
 10
973.4673193213
 20
1241.2687373943
 30
0.0
 11
980.467318606
 21
1241.2687373943
 31
0.0
  0
LINE
  5
2CC
330
1F
100
AcDbEntity
  8
0
  6
CONTINUOUS
 62
     7
100
AcDbLine
 10
973.4673193213
 20
1240.2687372304
 30
0.0
 11
980.467318606
 21
1240.2687372304
 31
0.0
  0
LINE
  5
2CD
330
1F
100
AcDbEntity
  8
0
  6
CONTINUOUS
 62
     7
100
AcDbLine
 10
967.9673156258
 20
1260.7687373309
 30
0.0
 11
985.9673223015
 21
1260.7687373309
 31
0.0
  0
LINE
  5
2CE
330
1F
100
AcDbEntity
  8
0
  6
CONTINUOUS
 62
     7
100
AcDbLine
 10
969.3474015709
 20
1258.7687373524
 30
0.0
 11
987.9673263546
 21
1258.7687373524
 31
0.0
  0
LINE
  5
2CF
330
1F
100
AcDbEntity
  8
0
  6
CONTINUOUS
 62
     7
100
AcDbLine
 10
965.9673264738
 20
1258.7687373524
 30
0.0
 11
969.3474015709
 21
1258.7687373524
 31
0.0
  0
LINE
  5
2D0
330
1F
100
AcDbEntity
  8
0
  6
CONTINUOUS
 62
     7
100
AcDbLine
 10
972.4646499868
 20
1244.2687369547
 30
0.0
 11
970.4673281427
 21
1244.2687369547
 31
0.0
  0
LINE
  5
2D1
330
1F
100
AcDbEntity
  8
0
  6
CONTINUOUS
 62
     7
100
AcDbLine
 10
977.098255467
 20
1244.2687369547
 30
0.0
 11
972.4646499868
 21
1244.2687369547
 31
0.0
  0
LINE
  5
2D2
330
1F
100
AcDbEntity
  8
0
  6
CONTINUOUS
 62
     8
100
AcDbLine
 10
1020.501389217
 20
1242.5275567583
 30
0.0
 11
1020.4673251625
 21
1242.5366865135
 31
0.0
  0
LINE
  5
2D3
330
1F
100
AcDbEntity
  8
0
  6
CONTINUOUS
 62
     8
100
AcDbLine
 10
659.9332532402
 20
1242.5275567583
 30
0.0
 11
659.9673172947
 21
1242.5366865135
 31
0.0
  0
LINE
  5
2D4
330
1F
100
AcDbEntity
  8
0
  6
CONTINUOUS
 62
     8
100
AcDbLine
 10
684.6744260307
 20
1254.2687371968
 30
0.0
 11
686.9673273083
 21
1254.2687371968
 31
0.0
  0
LINE
  5
2D5
330
1F
100
AcDbEntity
  8
0
  6
CONTINUOUS
 62
     8
100
AcDbLine
 10
993.4673151489
 20
1254.2687371968
 30
0.0
 11
995.7602164265
 21
1254.2687371968
 31
0.0
  0
LINE
  5
2D6
330
1F
100
AcDbEntity
  8
0
  6
CONTINUOUS
 62
     8
100
AcDbLine
 10
970.1173147675
 20
1260.818737246
 30
0.0
 11
983.8173231598
 21
1260.818737246
 31
0.0
  0
LINE
  5
2D7
330
1F
100
AcDbEntity
  8
0
  6
CONTINUOUS
 62
     8
100
AcDbLine
 10
983.9673182484
 20
1244.7687370366
 30
0.0
 11
969.9673196789
 21
1244.7687370366
 31
0.0
  0
LINE
  5
2D8
330
1F
100
AcDbEntity
  8
0
  6
CONTINUOUS
 62
     7
100
AcDbLine
 10
983.1173262116
 20
280.147499674
 30
0.0
 11
983.1173262116
 21
280.8475003475
 31
0.0
  0
LINE
  5
2D9
330
1F
100
AcDbEntity
  8
0
  6
CONTINUOUS
 62
     7
100
AcDbLine
 10
970.8173266169
 20
280.8475003475
 30
0.0
 11
970.8173266169
 21
280.147499674
 31
0.0
  0
LINE
  5
2DA
330
1F
100
AcDbEntity
  8
0
  6
CONTINUOUS
 62
     7
100
AcDbLine
 10
1000.9673228975
 20
278.0475004473
 30
0.0
 11
1000.9673228975
 21
280.0474998438
 31
0.0
  0
LINE
  5
2DB
330
1F
100
AcDbEntity
  8
0
  6
CONTINUOUS
 62
     7
100
AcDbLine
 10
970.4673281427
 20
280.0474998438
 30
0.0
 11
970.4673281427
 21
278.0475004473
 31
0.0
  0
LINE
  5
2DC
330
1F
100
AcDbEntity
  8
0
  6
CONTINUOUS
 62
     7
100
AcDbLine
 10
970.1173147675
 20
261.5475000711
 30
0.0
 11
970.1173147675
 21
261.497500156
 31
0.0
  0
LINE
  5
2DD
330
1F
100
AcDbEntity
  8
0
  6
CONTINUOUS
 62
     7
100
AcDbLine
 10
983.8173231598
 20
261.497500156
 30
0.0
 11
983.8173231598
 21
261.5475000711
 31
0.0
  0
ARC
  5
2DE
330
1F
100
AcDbEntity
  8
0
  6
CONTINUOUS
 62
     7
100
AcDbCircle
 10
970.3673212286
 20
261.4975000972
 30
0.0
 40
0.25
100
AcDbArc
 50
180.0
 51
270.0
  0
ARC
  5
2DF
330
1F
100
AcDbEntity
  8
0
  6
CONTINUOUS
 62
     7
100
AcDbCircle
 10
983.5673212286
 20
261.4975000972
 30
0.0
 40
0.2500000000001137
100
AcDbArc
 50
270.0
 51
0.0
  0
LINE
  5
2E0
330
1F
100
AcDbEntity
  8
0
  6
CONTINUOUS
 62
     7
100
AcDbLine
 10
980.467318606
 20
281.0475000077
 30
0.0
 11
980.467318606
 21
282.0475001717
 31
0.0
  0
LINE
  5
2E1
330
1F
100
AcDbEntity
  8
0
  6
CONTINUOUS
 62
     7
100
AcDbLine
 10
973.4673193213
 20
282.0475001717
 30
0.0
 11
973.4673193213
 21
281.0475000077
 31
0.0
  0
LINE
  5
2E2
330
1F
100
AcDbEntity
  8
0
  6
CONTINUOUS
 62
     7
100
AcDbLine
 10
979.9673250433
 20
280.0474998438
 30
0.0
 11
979.9673250433
 21
280.147499674
 31
0.0
  0
LINE
  5
2E3
330
1F
100
AcDbEntity
  8
0
  6
CONTINUOUS
 62
     7
100
AcDbLine
 10
979.9673250433
 20
280.8475003475
 30
0.0
 11
979.9673250433
 21
281.0475000077
 31
0.0
  0
LINE
  5
2E4
330
1F
100
AcDbEntity
  8
0
  6
CONTINUOUS
 62
     7
100
AcDbLine
 10
973.9673277851
 20
281.0475000077
 30
0.0
 11
973.9673277851
 21
280.8475003475
 31
0.0
  0
LINE
  5
2E5
330
1F
100
AcDbEntity
  8
0
  6
CONTINUOUS
 62
     7
100
AcDbLine
 10
973.9673277851
 20
280.147499674
 30
0.0
 11
973.9673277851
 21
280.0474998438
 31
0.0
  0
LINE
  5
2E6
330
1F
100
AcDbEntity
  8
0
  6
CONTINUOUS
 62
     7
100
AcDbLine
 10
987.9673263546
 20
263.5475000497
 30
0.0
 11
987.9673263546
 21
264.5475000972
 31
0.0
  0
LINE
  5
2E7
330
1F
100
AcDbEntity
  8
0
  6
CONTINUOUS
 62
     7
100
AcDbLine
 10
965.9673264738
 20
264.5475000972
 30
0.0
 11
965.9673264738
 21
263.5475000497
 31
0.0
  0
LINE
  5
2E8
330
1F
100
AcDbEntity
  8
0
  6
CONTINUOUS
 62
     7
100
AcDbLine
 10
965.9673264738
 20
263.5475000497
 30
0.0
 11
967.9673156258
 21
261.5475000711
 31
0.0
  0
LINE
  5
2E9
330
1F
100
AcDbEntity
  8
0
  6
CONTINUOUS
 62
     7
100
AcDbLine
 10
985.9673223015
 20
261.5475000711
 30
0.0
 11
987.9673263546
 21
263.5475000497
 31
0.0
  0
ARC
  5
2EA
330
1F
100
AcDbEntity
  8
0
  6
CONTINUOUS
 62
     7
100
AcDbCircle
 10
983.4673212286
 20
277.5475000972
 30
0.0
 40
0.5000000000001137
100
AcDbArc
 50
0.0
 51
90.0000121787
  0
LINE
  5
2EB
330
1F
100
AcDbEntity
  8
0
  6
CONTINUOUS
 62
     7
100
AcDbLine
 10
983.9673182484
 20
276.5475002015
 30
0.0
 11
983.9673182484
 21
277.5475003654
 31
0.0
  0
LINE
  5
2EC
330
1F
100
AcDbEntity
  8
0
  6
CONTINUOUS
 62
     7
100
AcDbLine
 10
996.9673147913
 20
266.0475001102
 30
0.0
 11
996.9673147913
 21
264.5475000972
 31
0.0
  0
LINE
  5
2ED
330
1F
100
AcDbEntity
  8
0
  6
CONTINUOUS
 62
     7
100
AcDbLine
 10
1002.6241681095
 20
266.0475001102
 30
0.0
 11
1002.6241681095
 21
264.5475000972
 31
0.0
  0
LINE
  5
2EE
330
1F
100
AcDbEntity
  8
0
  6
CONTINUOUS
 62
     7
100
AcDbLine
 10
1002.6241681095
 20
266.0475001102
 30
0.0
 11
996.9673147913
 21
266.0475001102
 31
0.0
  0
LINE
  5
2EF
330
1F
100
AcDbEntity
  8
0
  6
CONTINUOUS
 62
     7
100
AcDbLine
 10
1002.6241681095
 20
264.5475000972
 30
0.0
 11
996.9673147913
 21
264.5475000972
 31
0.0
  0
LINE
  5
2F0
330
1F
100
AcDbEntity
  8
0
  6
CONTINUOUS
 62
     7
100
AcDbLine
 10
683.4673276659
 20
266.0475001102
 30
0.0
 11
683.4673276659
 21
264.5475000972
 31
0.0
  0
LINE
  5
2F1
330
1F
100
AcDbEntity
  8
0
  6
CONTINUOUS
 62
     7
100
AcDbLine
 10
996.9673147913
 20
266.0475001102
 30
0.0
 11
683.4673276659
 21
266.0475001102
 31
0.0
  0
LINE
  5
2F2
330
1F
100
AcDbEntity
  8
0
  6
CONTINUOUS
 62
     7
100
AcDbLine
 10
996.9673147913
 20
264.5475000972
 30
0.0
 11
683.4673276659
 21
264.5475000972
 31
0.0
  0
LINE
  5
2F3
330
1F
100
AcDbEntity
  8
0
  6
CONTINUOUS
 62
     7
100
AcDbLine
 10
677.8104743477
 20
266.0475001102
 30
0.0
 11
677.8104743477
 21
264.5475000972
 31
0.0
  0
LINE
  5
2F4
330
1F
100
AcDbEntity
  8
0
  6
CONTINUOUS
 62
     7
100
AcDbLine
 10
683.4673276659
 20
266.0475001102
 30
0.0
 11
677.8104743477
 21
266.0475001102
 31
0.0
  0
LINE
  5
2F5
330
1F
100
AcDbEntity
  8
0
  6
CONTINUOUS
 62
     7
100
AcDbLine
 10
683.4673276659
 20
264.5475000972
 30
0.0
 11
677.8104743477
 21
264.5475000972
 31
0.0
  0
LINE
  5
2F6
330
1F
100
AcDbEntity
  8
0
  6
CONTINUOUS
 62
     7
100
AcDbLine
 10
1018.1241771694
 20
266.0475001102
 30
0.0
 11
1018.1241771694
 21
264.5475000972
 31
0.0
  0
LINE
  5
2F7
330
1F
100
AcDbEntity
  8
0
  6
CONTINUOUS
 62
     7
100
AcDbLine
 10
1018.1241771694
 20
266.0475001102
 30
0.0
 11
1002.6241681095
 21
266.0475001102
 31
0.0
  0
LINE
  5
2F8
330
1F
100
AcDbEntity
  8
0
  6
CONTINUOUS
 62
     7
100
AcDbLine
 10
1018.1241771694
 20
264.5475000972
 30
0.0
 11
1002.6241681095
 21
264.5475000972
 31
0.0
  0
LINE
  5
2F9
330
1F
100
AcDbEntity
  8
0
  6
CONTINUOUS
 62
     7
100
AcDbLine
 10
662.3104652878
 20
266.0475001102
 30
0.0
 11
662.3104652878
 21
264.5475000972
 31
0.0
  0
LINE
  5
2FA
330
1F
100
AcDbEntity
  8
0
  6
CONTINUOUS
 62
     7
100
AcDbLine
 10
677.8104743477
 20
266.0475001102
 30
0.0
 11
662.3104652878
 21
266.0475001102
 31
0.0
  0
LINE
  5
2FB
330
1F
100
AcDbEntity
  8
0
  6
CONTINUOUS
 62
     7
100
AcDbLine
 10
677.8104743477
 20
264.5475000972
 30
0.0
 11
662.3104652878
 21
264.5475000972
 31
0.0
  0
LINE
  5
2FC
330
1F
100
AcDbEntity
  8
0
  6
CONTINUOUS
 62
     7
100
AcDbLine
 10
686.9673273083
 20
267.0475000413
 30
0.0
 11
686.9673273083
 21
266.0475001102
 31
0.0
  0
LINE
  5
2FD
330
1F
100
AcDbEntity
  8
0
  6
CONTINUOUS
 62
     7
100
AcDbLine
 10
993.4673151489
 20
267.0475000413
 30
0.0
 11
686.9673273083
 21
267.0475000413
 31
0.0
  0
LINE
  5
2FE
330
1F
100
AcDbEntity
  8
0
  6
CONTINUOUS
 62
     7
100
AcDbLine
 10
993.4673151489
 20
266.0475001102
 30
0.0
 11
993.4673151489
 21
267.0475000413
 31
0.0
  0
LINE
  5
2FF
330
1F
100
AcDbEntity
  8
0
  6
CONTINUOUS
 62
     7
100
AcDbLine
 10
686.9673273083
 20
267.0475000413
 30
0.0
 11
686.9673273083
 21
273.5474997097
 31
0.0
  0
LINE
  5
300
330
1F
100
AcDbEntity
  8
0
  6
CONTINUOUS
 62
     7
100
AcDbLine
 10
688.9673164602
 20
275.5475000375
 30
0.0
 11
686.9673273083
 21
273.5474997097
 31
0.0
  0
LINE
  5
301
330
1F
100
AcDbEntity
  8
0
  6
CONTINUOUS
 62
     7
100
AcDbLine
 10
688.9673164602
 20
275.5475000375
 30
0.0
 11
698.9673218246
 21
275.5475000375
 31
0.0
  0
LINE
  5
302
330
1F
100
AcDbEntity
  8
0
  6
CONTINUOUS
 62
     7
100
AcDbLine
 10
981.4673206326
 20
275.5475000375
 30
0.0
 11
698.9673218246
 21
275.5475000375
 31
0.0
  0
LINE
  5
303
330
1F
100
AcDbEntity
  8
0
  6
CONTINUOUS
 62
     7
100
AcDbLine
 10
993.4673151489
 20
273.5474997097
 30
0.0
 11
991.467325997
 21
275.5475000375
 31
0.0
  0
LINE
  5
304
330
1F
100
AcDbEntity
  8
0
  6
CONTINUOUS
 62
     7
100
AcDbLine
 10
993.4673151489
 20
273.5474997097
 30
0.0
 11
993.4673151489
 21
267.0475000413
 31
0.0
  0
CIRCLE
  5
305
330
1F
100
AcDbEntity
  8
0
  6
CONTINUOUS
 62
     7
100
AcDbCircle
 10
690.9673212286
 20
272.0475000972
 30
0.0
 40
2.699999999999932
  0
LINE
  5
306
330
1F
100
AcDbEntity
  8
0
  6
CONTINUOUS
 62
     7
100
AcDbLine
 10
981.4673206326
 20
275.5475000375
 30
0.0
 11
991.467325997
 21
275.5475000375
 31
0.0
  0
LINE
  5
307
330
1F
100
AcDbEntity
  8
0
  6
CONTINUOUS
 62
     7
100
AcDbLine
 10
698.9673218246
 20
275.5475000375
 30
0.0
 11
698.9673218246
 21
278.0475004473
 31
0.0
  0
LINE
  5
308
330
1F
100
AcDbEntity
  8
0
  6
CONTINUOUS
 62
     7
100
AcDbLine
 10
981.4673206326
 20
278.0475004473
 30
0.0
 11
698.9673218246
 21
278.0475004473
 31
0.0
  0
LINE
  5
309
330
1F
100
AcDbEntity
  8
0
  6
CONTINUOUS
 62
     7
100
AcDbLine
 10
981.4673206326
 20
278.0475004473
 30
0.0
 11
981.4673206326
 21
275.5475000375
 31
0.0
  0
LINE
  5
30A
330
1F
100
AcDbEntity
  8
0
  6
CONTINUOUS
 62
     7
100
AcDbLine
 10
1020.4673251625
 20
266.0475001102
 30
0.0
 11
1020.4673251625
 21
264.5475000972
 31
0.0
  0
LINE
  5
30B
330
1F
100
AcDbEntity
  8
0
  6
CONTINUOUS
 62
     7
100
AcDbLine
 10
659.9673172947
 20
266.0475001102
 30
0.0
 11
659.9673172947
 21
264.5475000972
 31
0.0
  0
LINE
  5
30C
330
1F
100
AcDbEntity
  8
0
  6
CONTINUOUS
 62
     7
100
AcDbLine
 10
662.3104652878
 20
266.0475001102
 30
0.0
 11
659.9673172947
 21
266.0475001102
 31
0.0
  0
LINE
  5
30D
330
1F
100
AcDbEntity
  8
0
  6
CONTINUOUS
 62
     7
100
AcDbLine
 10
662.3104652878
 20
264.5475000972
 30
0.0
 11
659.9673172947
 21
264.5475000972
 31
0.0
  0
LINE
  5
30E
330
1F
100
AcDbEntity
  8
0
  6
CONTINUOUS
 62
     7
100
AcDbLine
 10
1002.4673184868
 20
267.0475000413
 30
0.0
 11
1000.9673228975
 21
267.0475000413
 31
0.0
  0
LINE
  5
30F
330
1F
100
AcDbEntity
  8
0
  6
CONTINUOUS
 62
     7
100
AcDbLine
 10
1000.9673228975
 20
267.0475000413
 30
0.0
 11
1000.9673228975
 21
273.5474997097
 31
0.0
  0
LINE
  5
310
330
1F
100
AcDbEntity
  8
0
  6
CONTINUOUS
 62
     7
100
AcDbLine
 10
1002.4673184868
 20
273.5474997097
 30
0.0
 11
1000.9673228975
 21
273.5474997097
 31
0.0
  0
LINE
  5
311
330
1F
100
AcDbEntity
  8
0
  6
CONTINUOUS
 62
     7
100
AcDbLine
 10
1002.4673184868
 20
267.0475000413
 30
0.0
 11
1002.4673184868
 21
273.5474997097
 31
0.0
  0
LINE
  5
312
330
1F
100
AcDbEntity
  8
0
  6
CONTINUOUS
 62
     7
100
AcDbLine
 10
1000.9673228975
 20
275.5475000375
 30
0.0
 11
1002.4673184868
 21
275.5475000375
 31
0.0
  0
LINE
  5
313
330
1F
100
AcDbEntity
  8
0
  6
CONTINUOUS
 62
     7
100
AcDbLine
 10
1000.9673228975
 20
273.5474997097
 30
0.0
 11
1000.9673228975
 21
275.5475000375
 31
0.0
  0
LINE
  5
314
330
1F
100
AcDbEntity
  8
0
  6
CONTINUOUS
 62
     7
100
AcDbLine
 10
1002.4673184868
 20
275.5475000375
 30
0.0
 11
1002.4673184868
 21
273.5474997097
 31
0.0
  0
LINE
  5
315
330
1F
100
AcDbEntity
  8
0
  6
CONTINUOUS
 62
     7
100
AcDbLine
 10
1020.4673251625
 20
264.5475000972
 30
0.0
 11
1018.1241771694
 21
264.5475000972
 31
0.0
  0
ARC
  5
316
330
1F
100
AcDbEntity
  8
0
  6
CONTINUOUS
 62
     7
100
AcDbCircle
 10
1003.4673212286
 20
267.0475000972
 30
0.0
 40
2.50000000000005
100
AcDbArc
 50
180.0
 51
203.5781784782
  0
ARC
  5
317
330
1F
100
AcDbEntity
  8
0
  6
CONTINUOUS
 62
     7
100
AcDbCircle
 10
1003.4673212286
 20
267.0475000972
 30
0.0
 40
1.000000000000114
100
AcDbArc
 50
180.0
 51
270.0
  0
ARC
  5
318
330
1F
100
AcDbEntity
  8
0
  6
CONTINUOUS
 62
     7
100
AcDbCircle
 10
999.9673212286
 20
275.5475000972
 30
0.0
 40
1.000000000000114
100
AcDbArc
 50
0.0
 51
90.0
  0
LINE
  5
319
330
1F
100
AcDbEntity
  8
0
  6
CONTINUOUS
 62
     7
100
AcDbLine
 10
999.967320871
 20
276.5475002015
 30
0.0
 11
999.967320871
 21
278.0475004473
 31
0.0
  0
ARC
  5
31A
330
1F
100
AcDbEntity
  8
0
  6
CONTINUOUS
 62
     7
100
AcDbCircle
 10
999.9673212286
 20
275.5475000972
 30
0.0
 40
2.5
100
AcDbArc
 50
0.0
 51
90.0
  0
LINE
  5
31B
330
1F
100
AcDbEntity
  8
0
  6
CONTINUOUS
 62
     7
100
AcDbLine
 10
998.9673188444
 20
278.0475004473
 30
0.0
 11
998.9673188444
 21
276.5475002015
 31
0.0
  0
LINE
  5
31C
330
1F
100
AcDbEntity
  8
0
  6
CONTINUOUS
 62
     7
100
AcDbLine
 10
995.9673276659
 20
276.5475002015
 30
0.0
 11
995.9673276659
 21
278.0475004473
 31
0.0
  0
LINE
  5
31D
330
1F
100
AcDbEntity
  8
0
  6
CONTINUOUS
 62
     7
100
AcDbLine
 10
995.9673276659
 20
278.0475004473
 30
0.0
 11
998.9673188444
 21
278.0475004473
 31
0.0
  0
LINE
  5
31E
330
1F
100
AcDbEntity
  8
0
  6
CONTINUOUS
 62
     7
100
AcDbLine
 10
998.9673188444
 20
276.5475002015
 30
0.0
 11
998.4673252817
 21
276.5475002015
 31
0.0
  0
LINE
  5
31F
330
1F
100
AcDbEntity
  8
0
  6
CONTINUOUS
 62
     7
100
AcDbLine
 10
996.4673212286
 20
276.5475002015
 30
0.0
 11
995.9673276659
 21
276.5475002015
 31
0.0
  0
LINE
  5
320
330
1F
100
AcDbEntity
  8
0
  6
CONTINUOUS
 62
     7
100
AcDbLine
 10
998.9673188444
 20
278.0475004473
 30
0.0
 11
999.967320871
 21
278.0475004473
 31
0.0
  0
LINE
  5
321
330
1F
100
AcDbEntity
  8
0
  6
CONTINUOUS
 62
     7
100
AcDbLine
 10
998.9673188444
 20
276.5475002015
 30
0.0
 11
999.967320871
 21
276.5475002015
 31
0.0
  0
ARC
  5
322
330
1F
100
AcDbEntity
  8
0
  6
CONTINUOUS
 62
     7
100
AcDbCircle
 10
1017.9673212286
 20
267.0475000972
 30
0.0
 40
1.0
100
AcDbArc
 50
270.0
 51
0.0
  0
LINE
  5
323
330
1F
100
AcDbEntity
  8
0
  6
CONTINUOUS
 62
     7
100
AcDbLine
 10
1018.9673146721
 20
267.0475000413
 30
0.0
 11
1020.4673251625
 21
267.0475000413
 31
0.0
  0
ARC
  5
324
330
1F
100
AcDbEntity
  8
0
  6
CONTINUOUS
 62
     7
100
AcDbCircle
 10
1017.9673212286
 20
267.0475000972
 30
0.0
 40
2.5
100
AcDbArc
 50
336.4218215219
 51
0.0
  0
LINE
  5
325
330
1F
100
AcDbEntity
  8
0
  6
CONTINUOUS
 62
     7
100
AcDbLine
 10
1020.4673251625
 20
281.0475000077
 30
0.0
 11
1018.9673146721
 21
281.0475000077
 31
0.0
  0
LINE
  5
326
330
1F
100
AcDbEntity
  8
0
  6
CONTINUOUS
 62
     7
100
AcDbLine
 10
1020.4673251625
 20
281.0475000077
 30
0.0
 11
1020.4673251625
 21
267.0475000413
 31
0.0
  0
LINE
  5
327
330
1F
100
AcDbEntity
  8
0
  6
CONTINUOUS
 62
     7
100
AcDbLine
 10
1018.9673146721
 20
281.0475000077
 30
0.0
 11
1018.9673146721
 21
267.0475000413
 31
0.0
  0
LINE
  5
328
330
1F
100
AcDbEntity
  8
0
  6
CONTINUOUS
 62
     7
100
AcDbLine
 10
1018.9673146721
 20
283.0475003356
 30
0.0
 11
1020.4673251625
 21
283.0475003356
 31
0.0
  0
LINE
  5
329
330
1F
100
AcDbEntity
  8
0
  6
CONTINUOUS
 62
     7
100
AcDbLine
 10
1020.4673251625
 20
283.0475003356
 30
0.0
 11
1020.4673251625
 21
281.0475000077
 31
0.0
  0
LINE
  5
32A
330
1F
100
AcDbEntity
  8
0
  6
CONTINUOUS
 62
     7
100
AcDbLine
 10
1018.9673146721
 20
281.0475000077
 30
0.0
 11
1018.9673146721
 21
283.0475003356
 31
0.0
  0
ARC
  5
32B
330
1F
100
AcDbEntity
  8
0
  6
CONTINUOUS
 62
     7
100
AcDbCircle
 10
1021.4673212286
 20
280.0475000972
 30
0.0
 40
0.9999999999999206
100
AcDbArc
 50
179.9999999999
 51
195.0
  0
LINE
  5
32C
330
1F
100
AcDbEntity
  8
0
  6
CONTINUOUS
 62
     7
100
AcDbLine
 10
1024.2201975103
 20
265.9099231604
 30
0.0
 11
1020.501389217
 21
279.7886806437
 31
0.0
  0
LINE
  5
32D
330
1F
100
AcDbEntity
  8
0
  6
CONTINUOUS
 62
     7
100
AcDbLine
 10
1022.771312904
 20
265.5216945349
 30
0.0
 11
1024.2201975103
 21
265.9099231604
 31
0.0
  0
LINE
  5
32E
330
1F
100
AcDbEntity
  8
0
  6
CONTINUOUS
 62
     7
100
AcDbLine
 10
1022.771312904
 20
265.5216945349
 30
0.0
 11
1020.4673251625
 21
274.1202928954
 31
0.0
  0
LINE
  5
32F
330
1F
100
AcDbEntity
  8
0
  6
CONTINUOUS
 62
     7
100
AcDbLine
 10
679.4673195597
 20
273.5474997097
 30
0.0
 11
677.9673239704
 21
273.5474997097
 31
0.0
  0
LINE
  5
330
330
1F
100
AcDbEntity
  8
0
  6
CONTINUOUS
 62
     7
100
AcDbLine
 10
677.9673239704
 20
273.5474997097
 30
0.0
 11
677.9673239704
 21
275.5475000375
 31
0.0
  0
LINE
  5
331
330
1F
100
AcDbEntity
  8
0
  6
CONTINUOUS
 62
     7
100
AcDbLine
 10
677.9673239704
 20
275.5475000375
 30
0.0
 11
679.4673195597
 21
275.5475000375
 31
0.0
  0
LINE
  5
332
330
1F
100
AcDbEntity
  8
0
  6
CONTINUOUS
 62
     7
100
AcDbLine
 10
679.4673195597
 20
275.5475000375
 30
0.0
 11
679.4673195597
 21
273.5474997097
 31
0.0
  0
LINE
  5
333
330
1F
100
AcDbEntity
  8
0
  6
CONTINUOUS
 62
     7
100
AcDbLine
 10
677.9673239704
 20
267.0475000413
 30
0.0
 11
679.4673195597
 21
267.0475000413
 31
0.0
  0
LINE
  5
334
330
1F
100
AcDbEntity
  8
0
  6
CONTINUOUS
 62
     7
100
AcDbLine
 10
677.9673239704
 20
273.5474997097
 30
0.0
 11
677.9673239704
 21
267.0475000413
 31
0.0
  0
LINE
  5
335
330
1F
100
AcDbEntity
  8
0
  6
CONTINUOUS
 62
     7
100
AcDbLine
 10
679.4673195597
 20
273.5474997097
 30
0.0
 11
679.4673195597
 21
267.0475000413
 31
0.0
  0
ARC
  5
336
330
1F
100
AcDbEntity
  8
0
  6
CONTINUOUS
 62
     7
100
AcDbCircle
 10
676.9673212286
 20
267.0475000972
 30
0.0
 40
1.0
100
AcDbArc
 50
270.0
 51
0.0
  0
ARC
  5
337
330
1F
100
AcDbEntity
  8
0
  6
CONTINUOUS
 62
     7
100
AcDbCircle
 10
676.9673212286
 20
267.0475000972
 30
0.0
 40
2.500000000000053
100
AcDbArc
 50
336.4218215219
 51
0.0
  0
ARC
  5
338
330
1F
100
AcDbEntity
  8
0
  6
CONTINUOUS
 62
     7
100
AcDbCircle
 10
662.4673212286
 20
267.0475000972
 30
0.0
 40
2.500000000000118
100
AcDbArc
 50
180.0
 51
203.5781784781
  0
LINE
  5
339
330
1F
100
AcDbEntity
  8
0
  6
CONTINUOUS
 62
     7
100
AcDbLine
 10
661.4673277851
 20
267.0475000413
 30
0.0
 11
659.9673172947
 21
267.0475000413
 31
0.0
  0
ARC
  5
33A
330
1F
100
AcDbEntity
  8
0
  6
CONTINUOUS
 62
     7
100
AcDbCircle
 10
662.4673212286
 20
267.0475000972
 30
0.0
 40
1.0
100
AcDbArc
 50
180.0
 51
270.0
  0
LINE
  5
33B
330
1F
100
AcDbEntity
  8
0
  6
CONTINUOUS
 62
     7
100
AcDbLine
 10
659.9673172947
 20
283.0475003356
 30
0.0
 11
661.4673277851
 21
283.0475003356
 31
0.0
  0
LINE
  5
33C
330
1F
100
AcDbEntity
  8
0
  6
CONTINUOUS
 62
     7
100
AcDbLine
 10
661.4673277851
 20
283.0475003356
 30
0.0
 11
661.4673277851
 21
281.0475000077
 31
0.0
  0
LINE
  5
33D
330
1F
100
AcDbEntity
  8
0
  6
CONTINUOUS
 62
     7
100
AcDbLine
 10
661.4673277851
 20
281.0475000077
 30
0.0
 11
659.9673172947
 21
281.0475000077
 31
0.0
  0
LINE
  5
33E
330
1F
100
AcDbEntity
  8
0
  6
CONTINUOUS
 62
     7
100
AcDbLine
 10
659.9673172947
 20
281.0475000077
 30
0.0
 11
659.9673172947
 21
283.0475003356
 31
0.0
  0
LINE
  5
33F
330
1F
100
AcDbEntity
  8
0
  6
CONTINUOUS
 62
     7
100
AcDbLine
 10
659.9673172947
 20
281.0475000077
 30
0.0
 11
659.9673172947
 21
267.0475000413
 31
0.0
  0
LINE
  5
340
330
1F
100
AcDbEntity
  8
0
  6
CONTINUOUS
 62
     7
100
AcDbLine
 10
661.4673277851
 20
281.0475000077
 30
0.0
 11
661.4673277851
 21
267.0475000413
 31
0.0
  0
ARC
  5
341
330
1F
100
AcDbEntity
  8
0
  6
CONTINUOUS
 62
     7
100
AcDbCircle
 10
658.9673212286
 20
280.0475000972
 30
0.0
 40
1.00000000000003
100
AcDbArc
 50
345.0
 51
0.0000000001
  0
LINE
  5
342
330
1F
100
AcDbEntity
  8
0
  6
CONTINUOUS
 62
     7
100
AcDbLine
 10
657.6633295532
 20
265.5216945349
 30
0.0
 11
656.2144449469
 21
265.9099231604
 31
0.0
  0
LINE
  5
343
330
1F
100
AcDbEntity
  8
0
  6
CONTINUOUS
 62
     7
100
AcDbLine
 10
657.6633295532
 20
265.5216945349
 30
0.0
 11
659.9673172947
 21
274.1202928954
 31
0.0
  0
LINE
  5
344
330
1F
100
AcDbEntity
  8
0
  6
CONTINUOUS
 62
     7
100
AcDbLine
 10
656.2144449469
 20
265.9099231604
 30
0.0
 11
659.9332532402
 21
279.7886806437
 31
0.0
  0
LINE
  5
345
330
1F
100
AcDbEntity
  8
0
  6
CONTINUOUS
 62
     7
100
AcDbLine
 10
684.6744260307
 20
276.5475002015
 30
0.0
 11
684.6744260307
 21
268.0475002052
 31
0.0
  0
LINE
  5
346
330
1F
100
AcDbEntity
  8
0
  6
CONTINUOUS
 62
     7
100
AcDbLine
 10
684.6744260307
 20
276.5475002015
 30
0.0
 11
698.9673218246
 21
276.5475002015
 31
0.0
  0
LINE
  5
347
330
1F
100
AcDbEntity
  8
0
  6
CONTINUOUS
 62
     7
100
AcDbLine
 10
981.4673206326
 20
276.5475002015
 30
0.0
 11
995.7602164265
 21
276.5475002015
 31
0.0
  0
LINE
  5
348
330
1F
100
AcDbEntity
  8
0
  6
CONTINUOUS
 62
     7
100
AcDbLine
 10
995.7602164265
 20
276.5475002015
 30
0.0
 11
995.7602164265
 21
268.0475002052
 31
0.0
  0
LWPOLYLINE
  5
349
330
1F
100
AcDbEntity
  8
0
  6
CONTINUOUS
 62
     7
100
AcDbPolyline
 90
        3
 70
   128
 43
0.0
 10
690.3735986467
 20
275.5475000375
 10
690.9673205133
 20
275.5974999526
 10
691.56104238
 20
275.5475000375
  0
ARC
  5
34A
330
1F
100
AcDbEntity
  8
0
  6
CONTINUOUS
 62
     7
100
AcDbCircle
 10
730.8080529896
 20
274.1206699448
 30
0.0
 40
46.53165510773697
100
AcDbArc
 50
187.4994659361
 51
189.9912887589
  0
LWPOLYLINE
  5
34B
330
1F
100
AcDbEntity
  8
0
  6
CONTINUOUS
 62
     7
100
AcDbPolyline
 90
        3
 70
   128
 43
0.0
 10
995.7602164265
 20
268.0475002052
 10
995.6142744537
 20
267.0495794518
 10
995.4522392269
 20
266.0475001102
  0
ARC
  5
34C
330
1F
100
AcDbEntity
  8
0
  6
CONTINUOUS
 62
     7
100
AcDbCircle
 10
995.0041442517
 20
268.0353591988
 30
0.0
 40
1.463227347274519
100
AcDbArc
 50
292.0909353967
 51
0.4754123895
  0
LINE
  5
34D
330
1F
100
AcDbEntity
  8
0
  6
CONTINUOUS
 62
     7
100
AcDbLine
 10
998.4673252817
 20
268.0475002052
 30
0.0
 11
996.4673212286
 21
268.0475002052
 31
0.0
  0
ARC
  5
34E
330
1F
100
AcDbEntity
  8
0
  6
CONTINUOUS
 62
     7
100
AcDbCircle
 10
995.601007466
 20
267.85613245
 30
0.0
 40
2.872698981554121
100
AcDbArc
 50
320.9798687731
 51
3.819645072
  0
LWPOLYLINE
  5
34F
330
1F
100
AcDbEntity
  8
0
  6
CONTINUOUS
 62
     7
100
AcDbPolyline
 90
        3
 70
   128
 43
0.0
 10
681.9673171755
 20
268.0475002052
 10
682.1126034971
 20
267.0495794518
 10
682.608543944
 20
266.0475001102
  0
LINE
  5
350
330
1F
100
AcDbEntity
  8
0
  6
CONTINUOUS
 62
     7
100
AcDbLine
 10
681.9673171755
 20
268.0475002052
 30
0.0
 11
683.9673212286
 21
268.0475002052
 31
0.0
  0
ARC
  5
351
330
1F
100
AcDbEntity
  8
0
  6
CONTINUOUS
 62
     7
100
AcDbCircle
 10
685.3452888911
 20
267.9859352283
 30
0.0
 40
1.379342279914953
100
AcDbArc
 50
177.4418346815
 51
250.2426248888
  0
LINE
  5
352
330
1F
100
AcDbEntity
  8
0
  6
CONTINUOUS
 62
     7
100
AcDbLine
 10
998.4673252817
 20
268.0475002052
 30
0.0
 11
998.4673252817
 21
276.5475002015
 31
0.0
  0
LINE
  5
353
330
1F
100
AcDbEntity
  8
0
  6
CONTINUOUS
 62
     7
100
AcDbLine
 10
996.4673212286
 20
276.5475002015
 30
0.0
 11
998.4673252817
 21
276.5475002015
 31
0.0
  0
LINE
  5
354
330
1F
100
AcDbEntity
  8
0
  6
CONTINUOUS
 62
     7
100
AcDbLine
 10
996.4673212286
 20
268.0475002052
 30
0.0
 11
996.4673212286
 21
276.5475002015
 31
0.0
  0
LINE
  5
355
330
1F
100
AcDbEntity
  8
0
  6
CONTINUOUS
 62
     7
100
AcDbLine
 10
683.9673212286
 20
268.0475002052
 30
0.0
 11
683.9673212286
 21
276.5475002015
 31
0.0
  0
LINE
  5
356
330
1F
100
AcDbEntity
  8
0
  6
CONTINUOUS
 62
     7
100
AcDbLine
 10
681.9673171755
 20
268.0475002052
 30
0.0
 11
681.9673171755
 21
276.5475002015
 31
0.0
  0
LINE
  5
357
330
1F
100
AcDbEntity
  8
0
  6
CONTINUOUS
 62
     7
100
AcDbLine
 10
683.9673212286
 20
276.5475002015
 30
0.0
 11
681.9673171755
 21
276.5475002015
 31
0.0
  0
LINE
  5
358
330
1F
100
AcDbEntity
  8
0
  6
CONTINUOUS
 62
     7
100
AcDbLine
 10
971.5173086639
 20
280.8475003475
 30
0.0
 11
970.8173266169
 21
280.8475003475
 31
0.0
  0
LINE
  5
359
330
1F
100
AcDbEntity
  8
0
  6
CONTINUOUS
 62
     7
100
AcDbLine
 10
983.1173262116
 20
280.8475003475
 30
0.0
 11
982.2981199738
 21
280.8475003475
 31
0.0
  0
LINE
  5
35A
330
1F
100
AcDbEntity
  8
0
  6
CONTINUOUS
 62
     7
100
AcDbLine
 10
971.5173086639
 20
280.8475003475
 30
0.0
 11
971.5173086639
 21
280.147499674
 31
0.0
  0
LINE
  5
35B
330
1F
100
AcDbEntity
  8
0
  6
CONTINUOUS
 62
     7
100
AcDbLine
 10
971.5173086639
 20
280.147499674
 30
0.0
 11
970.8173266169
 21
280.147499674
 31
0.0
  0
LINE
  5
35C
330
1F
100
AcDbEntity
  8
0
  6
CONTINUOUS
 62
     7
100
AcDbLine
 10
983.1173262116
 20
280.147499674
 30
0.0
 11
982.2981199738
 21
280.147499674
 31
0.0
  0
LINE
  5
35D
330
1F
100
AcDbEntity
  8
0
  6
CONTINUOUS
 62
     7
100
AcDbLine
 10
982.2981199738
 20
280.8475003475
 30
0.0
 11
982.2981199738
 21
280.147499674
 31
0.0
  0
LINE
  5
35E
330
1F
100
AcDbEntity
  8
0
  6
CONTINUOUS
 62
     7
100
AcDbLine
 10
979.5677206036
 20
280.8475003475
 30
0.0
 11
979.5677206036
 21
280.147499674
 31
0.0
  0
LINE
  5
35F
330
1F
100
AcDbEntity
  8
0
  6
CONTINUOUS
 62
     7
100
AcDbLine
 10
982.2981199738
 20
280.147499674
 30
0.0
 11
979.5677206036
 21
280.147499674
 31
0.0
  0
LINE
  5
360
330
1F
100
AcDbEntity
  8
0
  6
CONTINUOUS
 62
     7
100
AcDbLine
 10
982.2981199738
 20
280.8475003475
 30
0.0
 11
979.5677206036
 21
280.8475003475
 31
0.0
  0
LINE
  5
361
330
1F
100
AcDbEntity
  8
0
  6
CONTINUOUS
 62
     7
100
AcDbLine
 10
974.3087878939
 20
280.8475003475
 30
0.0
 11
974.3087878939
 21
280.147499674
 31
0.0
  0
LINE
  5
362
330
1F
100
AcDbEntity
  8
0
  6
CONTINUOUS
 62
     7
100
AcDbLine
 10
974.3087878939
 20
280.147499674
 30
0.0
 11
971.5173086639
 21
280.147499674
 31
0.0
  0
LINE
  5
363
330
1F
100
AcDbEntity
  8
0
  6
CONTINUOUS
 62
     7
100
AcDbLine
 10
974.3087878939
 20
280.8475003475
 30
0.0
 11
971.5173086639
 21
280.8475003475
 31
0.0
  0
LINE
  5
364
330
1F
100
AcDbEntity
  8
0
  6
CONTINUOUS
 62
     7
100
AcDbLine
 10
1000.9673228975
 20
278.0475004473
 30
0.0
 11
999.9347320314
 21
278.0475004473
 31
0.0
  0
LINE
  5
365
330
1F
100
AcDbEntity
  8
0
  6
CONTINUOUS
 62
     7
100
AcDbLine
 10
999.9347320314
 20
280.0474998438
 30
0.0
 11
999.9347320314
 21
278.0475004473
 31
0.0
  0
LINE
  5
366
330
1F
100
AcDbEntity
  8
0
  6
CONTINUOUS
 62
     7
100
AcDbLine
 10
1000.9673228975
 20
280.0474998438
 30
0.0
 11
999.9347320314
 21
280.0474998438
 31
0.0
  0
LINE
  5
367
330
1F
100
AcDbEntity
  8
0
  6
CONTINUOUS
 62
     7
100
AcDbLine
 10
976.8363824602
 20
280.0474998438
 30
0.0
 11
976.8363824602
 21
278.0475004473
 31
0.0
  0
LINE
  5
368
330
1F
100
AcDbEntity
  8
0
  6
CONTINUOUS
 62
     7
100
AcDbLine
 10
995.9673276659
 20
278.0475004473
 30
0.0
 11
981.4673206326
 21
278.0475004473
 31
0.0
  0
LINE
  5
369
330
1F
100
AcDbEntity
  8
0
  6
CONTINUOUS
 62
     7
100
AcDbLine
 10
999.9347320314
 20
280.0474998438
 30
0.0
 11
976.8363824602
 21
280.0474998438
 31
0.0
  0
LINE
  5
36A
330
1F
100
AcDbEntity
  8
0
  6
CONTINUOUS
 62
     7
100
AcDbLine
 10
976.8363824602
 20
280.0474998438
 30
0.0
 11
970.4673281427
 21
280.0474998438
 31
0.0
  0
LINE
  5
36B
330
1F
100
AcDbEntity
  8
0
  6
CONTINUOUS
 62
     7
100
AcDbLine
 10
983.5659852739
 20
261.247500115
 30
0.0
 11
983.5673263784
 21
261.247500115
 31
0.0
  0
LINE
  5
36C
330
1F
100
AcDbEntity
  8
0
  6
CONTINUOUS
 62
     7
100
AcDbLine
 10
970.36732645
 20
261.247500115
 30
0.0
 11
983.5659852739
 21
261.247500115
 31
0.0
  0
LINE
  5
36D
330
1F
100
AcDbEntity
  8
0
  6
CONTINUOUS
 62
     7
100
AcDbLine
 10
980.467318606
 20
281.0475000077
 30
0.0
 11
973.4673193213
 21
281.0475000077
 31
0.0
  0
LINE
  5
36E
330
1F
100
AcDbEntity
  8
0
  6
CONTINUOUS
 62
     7
100
AcDbLine
 10
980.467318606
 20
282.0475001717
 30
0.0
 11
973.4673193213
 21
282.0475001717
 31
0.0
  0
LINE
  5
36F
330
1F
100
AcDbEntity
  8
0
  6
CONTINUOUS
 62
     7
100
AcDbLine
 10
987.9673263546
 20
263.5475000497
 30
0.0
 11
965.9673264738
 21
263.5475000497
 31
0.0
  0
LINE
  5
370
330
1F
100
AcDbEntity
  8
0
  6
CONTINUOUS
 62
     7
100
AcDbLine
 10
983.2018008944
 20
261.5475000711
 30
0.0
 11
967.9673156258
 21
261.5475000711
 31
0.0
  0
LINE
  5
371
330
1F
100
AcDbEntity
  8
0
  6
CONTINUOUS
 62
     7
100
AcDbLine
 10
985.9673223015
 20
261.5475000711
 30
0.0
 11
983.2018008944
 21
261.5475000711
 31
0.0
  0
LINE
  5
372
330
1F
100
AcDbEntity
  8
0
  6
CONTINUOUS
 62
     8
100
AcDbLine
 10
1020.501389217
 20
279.7886806437
 30
0.0
 11
1020.4673251625
 21
279.7795508885
 31
0.0
  0
LINE
  5
373
330
1F
100
AcDbEntity
  8
0
  6
CONTINUOUS
 62
     8
100
AcDbLine
 10
659.9332532402
 20
279.7886806437
 30
0.0
 11
659.9673172947
 21
279.7795508885
 31
0.0
  0
LINE
  5
374
330
1F
100
AcDbEntity
  8
0
  6
CONTINUOUS
 62
     8
100
AcDbLine
 10
684.6744260307
 20
268.0475002052
 30
0.0
 11
686.9673273083
 21
268.0475002052
 31
0.0
  0
LINE
  5
375
330
1F
100
AcDbEntity
  8
0
  6
CONTINUOUS
 62
     8
100
AcDbLine
 10
993.4673151489
 20
268.0475002052
 30
0.0
 11
995.7602164265
 21
268.0475002052
 31
0.0
  0
LINE
  5
376
330
1F
100
AcDbEntity
  8
0
  6
CONTINUOUS
 62
     8
100
AcDbLine
 10
983.8173231598
 20
261.497500156
 30
0.0
 11
970.1173147675
 21
261.497500156
 31
0.0
  0
LINE
  5
377
330
1F
100
AcDbEntity
  8
0
  6
CONTINUOUS
 62
     8
100
AcDbLine
 10
981.4673206326
 20
277.5475003654
 30
0.0
 11
983.9673182484
 21
277.5475003654
 31
0.0
  0
LINE
  5
378
330
1F
100
AcDbEntity
  8
0
  6
CONTINUOUS
 62
     7
100
AcDbLine
 10
1192.4653975888
 20
789.7800673919
 30
0.0
 11
1193.1653982624
 21
789.7800673919
 31
0.0
  0
LINE
  5
379
330
1F
100
AcDbEntity
  8
0
  6
CONTINUOUS
 62
     7
100
AcDbLine
 10
1193.2653980925
 20
789.4300670551
 30
0.0
 11
1195.265397489
 21
789.4300670551
 31
0.0
  0
LINE
  5
37A
330
1F
100
AcDbEntity
  8
0
  6
CONTINUOUS
 62
     7
100
AcDbLine
 10
1211.7653978653
 20
789.080067184
 30
0.0
 11
1211.8153977803
 21
789.080067184
 31
0.0
  0
LINE
  5
37B
330
1F
100
AcDbEntity
  8
0
  6
CONTINUOUS
 62
     7
100
AcDbLine
 10
1211.8153977803
 20
802.7800671945
 30
0.0
 11
1211.7653978653
 21
802.7800671945
 31
0.0
  0
ARC
  5
37C
330
1F
100
AcDbEntity
  8
0
  6
CONTINUOUS
 62
     7
100
AcDbCircle
 10
1211.8153978392
 20
789.3300671892
 30
0.0
 40
0.25
100
AcDbArc
 50
270.0
 51
0.0
  0
ARC
  5
37D
330
1F
100
AcDbEntity
  8
0
  6
CONTINUOUS
 62
     7
100
AcDbCircle
 10
1211.8153978392
 20
802.5300671892
 30
0.0
 40
0.2500000000001137
100
AcDbArc
 50
0.0
 51
90.0
  0
LINE
  5
37E
330
1F
100
AcDbEntity
  8
0
  6
CONTINUOUS
 62
     7
100
AcDbLine
 10
1192.2653979286
 20
799.4300672973
 30
0.0
 11
1191.2653977647
 21
799.4300672973
 31
0.0
  0
LINE
  5
37F
330
1F
100
AcDbEntity
  8
0
  6
CONTINUOUS
 62
     7
100
AcDbLine
 10
1191.2653977647
 20
792.4300670812
 30
0.0
 11
1192.2653979286
 21
792.4300670812
 31
0.0
  0
LINE
  5
380
330
1F
100
AcDbEntity
  8
0
  6
CONTINUOUS
 62
     7
100
AcDbLine
 10
1193.2653980925
 20
798.9300672153
 30
0.0
 11
1192.2653979286
 21
798.9300672153
 31
0.0
  0
LINE
  5
381
330
1F
100
AcDbEntity
  8
0
  6
CONTINUOUS
 62
     7
100
AcDbLine
 10
1192.2653979286
 20
792.9300671632
 30
0.0
 11
1192.4653975888
 21
792.9300671632
 31
0.0
  0
LINE
  5
382
330
1F
100
AcDbEntity
  8
0
  6
CONTINUOUS
 62
     7
100
AcDbLine
 10
1193.1653982624
 20
792.9300671632
 30
0.0
 11
1193.2653980925
 21
792.9300671632
 31
0.0
  0
LINE
  5
383
330
1F
100
AcDbEntity
  8
0
  6
CONTINUOUS
 62
     7
100
AcDbLine
 10
1209.7653978867
 20
784.9300672489
 30
0.0
 11
1211.7653978653
 21
786.9300675767
 31
0.0
  0
LINE
  5
384
330
1F
100
AcDbEntity
  8
0
  6
CONTINUOUS
 62
     7
100
AcDbLine
 10
1211.7653978653
 20
804.9300668018
 30
0.0
 11
1209.7653978867
 21
806.9300671296
 31
0.0
  0
LINE
  5
385
330
1F
100
AcDbEntity
  8
0
  6
CONTINUOUS
 62
     7
100
AcDbLine
 10
1209.7653978867
 20
806.9300671296
 30
0.0
 11
1208.7653978392
 21
806.9300671296
 31
0.0
  0
LINE
  5
386
330
1F
100
AcDbEntity
  8
0
  6
CONTINUOUS
 62
     7
100
AcDbLine
 10
1208.7653978392
 20
784.9300672489
 30
0.0
 11
1209.7653978867
 21
784.9300672489
 31
0.0
  0
ARC
  5
387
330
1F
100
AcDbEntity
  8
0
  6
CONTINUOUS
 62
     7
100
AcDbCircle
 10
1195.7653978392
 20
802.4300671892
 30
0.0
 40
0.5000000000000112
100
AcDbArc
 50
90.0
 51
180.0000121787
  0
ARC
  5
388
330
1F
100
AcDbEntity
  8
0
  6
CONTINUOUS
 62
     7
100
AcDbCircle
 10
1195.7653978392
 20
789.4300671892
 30
0.0
 40
0.5000000000000112
100
AcDbArc
 50
179.9999878213
 51
270.0
  0
LINE
  5
389
330
1F
100
AcDbEntity
  8
0
  6
CONTINUOUS
 62
     7
100
AcDbLine
 10
1196.7653977349
 20
802.9300674053
 30
0.0
 11
1195.765397571
 21
802.9300674053
 31
0.0
  0
LINE
  5
38A
330
1F
100
AcDbEntity
  8
0
  6
CONTINUOUS
 62
     7
100
AcDbLine
 10
1195.765397571
 20
788.9300669732
 30
0.0
 11
1196.7653977349
 21
788.9300669732
 31
0.0
  0
LINE
  5
38B
330
1F
100
AcDbEntity
  8
0
  6
CONTINUOUS
 62
     7
100
AcDbLine
 10
1207.2653978261
 20
1053.1800781565
 30
0.0
 11
1208.7653978392
 21
1053.1800781565
 31
0.0
  0
LINE
  5
38C
330
1F
100
AcDbEntity
  8
0
  6
CONTINUOUS
 62
     7
100
AcDbLine
 10
1207.2653978261
 20
1051.6800676661
 30
0.0
 11
1208.7653978392
 21
1051.6800676661
 31
0.0
  0
LINE
  5
38D
330
1F
100
AcDbEntity
  8
0
  6
CONTINUOUS
 62
     7
100
AcDbLine
 10
1207.2653978261
 20
1053.1800781565
 30
0.0
 11
1207.2653978261
 21
1051.6800676661
 31
0.0
  0
LINE
  5
38E
330
1F
100
AcDbEntity
  8
0
  6
CONTINUOUS
 62
     7
100
AcDbLine
 10
1208.7653978392
 20
1053.1800781565
 30
0.0
 11
1208.7653978392
 21
1051.6800676661
 31
0.0
  0
LINE
  5
38F
330
1F
100
AcDbEntity
  8
0
  6
CONTINUOUS
 62
     7
100
AcDbLine
 10
1207.2653978261
 20
1058.8369165736
 30
0.0
 11
1208.7653978392
 21
1058.8369165736
 31
0.0
  0
LINE
  5
390
330
1F
100
AcDbEntity
  8
0
  6
CONTINUOUS
 62
     7
100
AcDbLine
 10
1207.2653978261
 20
1058.8369165736
 30
0.0
 11
1207.2653978261
 21
1053.1800781565
 31
0.0
  0
LINE
  5
391
330
1F
100
AcDbEntity
  8
0
  6
CONTINUOUS
 62
     7
100
AcDbLine
 10
1208.7653978392
 20
1058.8369165736
 30
0.0
 11
1208.7653978392
 21
1053.1800781565
 31
0.0
  0
LINE
  5
392
330
1F
100
AcDbEntity
  8
0
  6
CONTINUOUS
 62
     7
100
AcDbLine
 10
1207.2653978261
 20
1074.3369256335
 30
0.0
 11
1208.7653978392
 21
1074.3369256335
 31
0.0
  0
LINE
  5
393
330
1F
100
AcDbEntity
  8
0
  6
CONTINUOUS
 62
     7
100
AcDbLine
 10
1207.2653978261
 20
1074.3369256335
 30
0.0
 11
1207.2653978261
 21
1058.8369165736
 31
0.0
  0
LINE
  5
394
330
1F
100
AcDbEntity
  8
0
  6
CONTINUOUS
 62
     7
100
AcDbLine
 10
1208.7653978392
 20
1074.3369256335
 30
0.0
 11
1208.7653978392
 21
1058.8369165736
 31
0.0
  0
LINE
  5
395
330
1F
100
AcDbEntity
  8
0
  6
CONTINUOUS
 62
     7
100
AcDbLine
 10
1207.2653978261
 20
1076.6800736266
 30
0.0
 11
1208.7653978392
 21
1076.6800736266
 31
0.0
  0
LINE
  5
396
330
1F
100
AcDbEntity
  8
0
  6
CONTINUOUS
 62
     7
100
AcDbLine
 10
1207.2653978261
 20
1076.6800736266
 30
0.0
 11
1207.2653978261
 21
1074.3369256335
 31
0.0
  0
LINE
  5
397
330
1F
100
AcDbEntity
  8
0
  6
CONTINUOUS
 62
     7
100
AcDbLine
 10
1208.7653978392
 20
1076.6800736266
 30
0.0
 11
1208.7653978392
 21
1074.3369256335
 31
0.0
  0
LINE
  5
398
330
1F
100
AcDbEntity
  8
0
  6
CONTINUOUS
 62
     7
100
AcDbLine
 10
1206.2653978951
 20
1060.6800710039
 30
0.0
 11
1206.2653978951
 21
1059.1800605135
 31
0.0
  0
LINE
  5
399
330
1F
100
AcDbEntity
  8
0
  6
CONTINUOUS
 62
     7
100
AcDbLine
 10
1206.2653978951
 20
1059.1800605135
 30
0.0
 11
1199.7653982266
 21
1059.1800605135
 31
0.0
  0
LINE
  5
39A
330
1F
100
AcDbEntity
  8
0
  6
CONTINUOUS
 62
     7
100
AcDbLine
 10
1199.7653982266
 20
1060.6800710039
 30
0.0
 11
1199.7653982266
 21
1059.1800605135
 31
0.0
  0
LINE
  5
39B
330
1F
100
AcDbEntity
  8
0
  6
CONTINUOUS
 62
     7
100
AcDbLine
 10
1206.2653978951
 20
1060.6800710039
 30
0.0
 11
1199.7653982266
 21
1060.6800710039
 31
0.0
  0
LINE
  5
39C
330
1F
100
AcDbEntity
  8
0
  6
CONTINUOUS
 62
     7
100
AcDbLine
 10
1197.7653978988
 20
1059.1800605135
 30
0.0
 11
1197.7653978988
 21
1060.6800710039
 31
0.0
  0
LINE
  5
39D
330
1F
100
AcDbEntity
  8
0
  6
CONTINUOUS
 62
     7
100
AcDbLine
 10
1197.7653978988
 20
1060.6800710039
 30
0.0
 11
1199.7653982266
 21
1060.6800710039
 31
0.0
  0
LINE
  5
39E
330
1F
100
AcDbEntity
  8
0
  6
CONTINUOUS
 62
     7
100
AcDbLine
 10
1199.7653982266
 20
1059.1800605135
 30
0.0
 11
1197.7653978988
 21
1059.1800605135
 31
0.0
  0
ARC
  5
39F
330
1F
100
AcDbEntity
  8
0
  6
CONTINUOUS
 62
     7
100
AcDbCircle
 10
1206.2653978392
 20
1061.6800671892
 30
0.0
 40
2.5
100
AcDbArc
 50
270.0
 51
293.5781784782
  0
ARC
  5
3A0
330
1F
100
AcDbEntity
  8
0
  6
CONTINUOUS
 62
     7
100
AcDbCircle
 10
1206.2653978392
 20
1061.6800671892
 30
0.0
 40
1.0
100
AcDbArc
 50
270.0
 51
0.0
  0
ARC
  5
3A1
330
1F
100
AcDbEntity
  8
0
  6
CONTINUOUS
 62
     7
100
AcDbCircle
 10
1197.7653978392
 20
1058.1800671892
 30
0.0
 40
2.5
100
AcDbArc
 50
90.0
 51
180.0
  0
LINE
  5
3A2
330
1F
100
AcDbEntity
  8
0
  6
CONTINUOUS
 62
     7
100
AcDbLine
 10
1196.7653977349
 20
1058.1800733881
 30
0.0
 11
1195.265397489
 21
1058.1800733881
 31
0.0
  0
ARC
  5
3A3
330
1F
100
AcDbEntity
  8
0
  6
CONTINUOUS
 62
     7
100
AcDbCircle
 10
1197.7653978392
 20
1058.1800671892
 30
0.0
 40
1.0
100
AcDbArc
 50
90.0
 51
180.0
  0
LINE
  5
3A4
330
1F
100
AcDbEntity
  8
0
  6
CONTINUOUS
 62
     7
100
AcDbLine
 10
1195.265397489
 20
1057.1800564604
 30
0.0
 11
1196.7653977349
 21
1057.1800564604
 31
0.0
  0
LINE
  5
3A5
330
1F
100
AcDbEntity
  8
0
  6
CONTINUOUS
 62
     7
100
AcDbLine
 10
1195.265397489
 20
1057.1800564604
 30
0.0
 11
1195.265397489
 21
1058.1800733881
 31
0.0
  0
LINE
  5
3A6
330
1F
100
AcDbEntity
  8
0
  6
CONTINUOUS
 62
     7
100
AcDbLine
 10
1196.7653977349
 20
1057.1800564604
 30
0.0
 11
1196.7653977349
 21
1058.1800733881
 31
0.0
  0
LINE
  5
3A7
330
1F
100
AcDbEntity
  8
0
  6
CONTINUOUS
 62
     7
100
AcDbLine
 10
1196.7653977349
 20
1054.1800652819
 30
0.0
 11
1195.265397489
 21
1054.1800652819
 31
0.0
  0
LINE
  5
3A8
330
1F
100
AcDbEntity
  8
0
  6
CONTINUOUS
 62
     7
100
AcDbLine
 10
1195.265397489
 20
1054.1800652819
 30
0.0
 11
1195.265397489
 21
1057.1800564604
 31
0.0
  0
LINE
  5
3A9
330
1F
100
AcDbEntity
  8
0
  6
CONTINUOUS
 62
     7
100
AcDbLine
 10
1196.7653977349
 20
1057.1800564604
 30
0.0
 11
1196.7653977349
 21
1056.180069335
 31
0.0
  0
LINE
  5
3AA
330
1F
100
AcDbEntity
  8
0
  6
CONTINUOUS
 62
     7
100
AcDbLine
 10
1207.2653978261
 20
533.0232178049
 30
0.0
 11
1208.7653978392
 21
533.0232178049
 31
0.0
  0
LINE
  5
3AB
330
1F
100
AcDbEntity
  8
0
  6
CONTINUOUS
 62
     7
100
AcDbLine
 10
1207.2653978261
 20
538.680056222
 30
0.0
 11
1207.2653978261
 21
533.0232178049
 31
0.0
  0
LINE
  5
3AC
330
1F
100
AcDbEntity
  8
0
  6
CONTINUOUS
 62
     7
100
AcDbLine
 10
1207.2653978261
 20
538.680056222
 30
0.0
 11
1208.7653978392
 21
538.680056222
 31
0.0
  0
LINE
  5
3AD
330
1F
100
AcDbEntity
  8
0
  6
CONTINUOUS
 62
     7
100
AcDbLine
 10
1208.7653978392
 20
538.680056222
 30
0.0
 11
1208.7653978392
 21
533.0232178049
 31
0.0
  0
LINE
  5
3AE
330
1F
100
AcDbEntity
  8
0
  6
CONTINUOUS
 62
     7
100
AcDbLine
 10
1207.2653978261
 20
540.1800667124
 30
0.0
 11
1207.2653978261
 21
538.680056222
 31
0.0
  0
LINE
  5
3AF
330
1F
100
AcDbEntity
  8
0
  6
CONTINUOUS
 62
     7
100
AcDbLine
 10
1207.2653978261
 20
540.1800667124
 30
0.0
 11
1208.7653978392
 21
540.1800667124
 31
0.0
  0
LINE
  5
3B0
330
1F
100
AcDbEntity
  8
0
  6
CONTINUOUS
 62
     7
100
AcDbLine
 10
1208.7653978392
 20
540.1800667124
 30
0.0
 11
1208.7653978392
 21
538.680056222
 31
0.0
  0
LINE
  5
3B1
330
1F
100
AcDbEntity
  8
0
  6
CONTINUOUS
 62
     7
100
AcDbLine
 10
1207.2653978261
 20
517.523208745
 30
0.0
 11
1208.7653978392
 21
517.523208745
 31
0.0
  0
LINE
  5
3B2
330
1F
100
AcDbEntity
  8
0
  6
CONTINUOUS
 62
     7
100
AcDbLine
 10
1207.2653978261
 20
533.0232178049
 30
0.0
 11
1207.2653978261
 21
517.523208745
 31
0.0
  0
LINE
  5
3B3
330
1F
100
AcDbEntity
  8
0
  6
CONTINUOUS
 62
     7
100
AcDbLine
 10
1208.7653978392
 20
533.0232178049
 30
0.0
 11
1208.7653978392
 21
517.523208745
 31
0.0
  0
LINE
  5
3B4
330
1F
100
AcDbEntity
  8
0
  6
CONTINUOUS
 62
     7
100
AcDbLine
 10
1207.2653978261
 20
515.1800607519
 30
0.0
 11
1208.7653978392
 21
515.1800607519
 31
0.0
  0
LINE
  5
3B5
330
1F
100
AcDbEntity
  8
0
  6
CONTINUOUS
 62
     7
100
AcDbLine
 10
1207.2653978261
 20
517.523208745
 30
0.0
 11
1207.2653978261
 21
515.1800607519
 31
0.0
  0
LINE
  5
3B6
330
1F
100
AcDbEntity
  8
0
  6
CONTINUOUS
 62
     7
100
AcDbLine
 10
1208.7653978392
 20
517.523208745
 30
0.0
 11
1208.7653978392
 21
515.1800607519
 31
0.0
  0
LINE
  5
3B7
330
1F
100
AcDbEntity
  8
0
  6
CONTINUOUS
 62
     7
100
AcDbLine
 10
1206.2653978951
 20
531.1800633746
 30
0.0
 11
1206.2653978951
 21
532.680073865
 31
0.0
  0
LINE
  5
3B8
330
1F
100
AcDbEntity
  8
0
  6
CONTINUOUS
 62
     7
100
AcDbLine
 10
1199.7653982266
 20
531.1800633746
 30
0.0
 11
1206.2653978951
 21
531.1800633746
 31
0.0
  0
LINE
  5
3B9
330
1F
100
AcDbEntity
  8
0
  6
CONTINUOUS
 62
     7
100
AcDbLine
 10
1199.7653982266
 20
532.680073865
 30
0.0
 11
1199.7653982266
 21
531.1800633746
 31
0.0
  0
LINE
  5
3BA
330
1F
100
AcDbEntity
  8
0
  6
CONTINUOUS
 62
     7
100
AcDbLine
 10
1199.7653982266
 20
532.680073865
 30
0.0
 11
1206.2653978951
 21
532.680073865
 31
0.0
  0
LINE
  5
3BB
330
1F
100
AcDbEntity
  8
0
  6
CONTINUOUS
 62
     7
100
AcDbLine
 10
1199.7653982266
 20
531.1800633746
 30
0.0
 11
1197.7653978988
 21
531.1800633746
 31
0.0
  0
LINE
  5
3BC
330
1F
100
AcDbEntity
  8
0
  6
CONTINUOUS
 62
     7
100
AcDbLine
 10
1197.7653978988
 20
531.1800633746
 30
0.0
 11
1197.7653978988
 21
532.680073865
 31
0.0
  0
LINE
  5
3BD
330
1F
100
AcDbEntity
  8
0
  6
CONTINUOUS
 62
     7
100
AcDbLine
 10
1197.7653978988
 20
532.680073865
 30
0.0
 11
1199.7653982266
 21
532.680073865
 31
0.0
  0
ARC
  5
3BE
330
1F
100
AcDbEntity
  8
0
  6
CONTINUOUS
 62
     7
100
AcDbCircle
 10
1206.2653978392
 20
530.1800671892
 30
0.0
 40
1.0
100
AcDbArc
 50
0.0
 51
90.0
  0
ARC
  5
3BF
330
1F
100
AcDbEntity
  8
0
  6
CONTINUOUS
 62
     7
100
AcDbCircle
 10
1206.2653978392
 20
530.1800671892
 30
0.0
 40
2.500000000000103
100
AcDbArc
 50
66.4218215218
 51
90.0
  0
LINE
  5
3C0
330
1F
100
AcDbEntity
  8
0
  6
CONTINUOUS
 62
     7
100
AcDbLine
 10
1195.265397489
 20
1039.6800731497
 30
0.0
 11
1196.7653977349
 21
1039.6800731497
 31
0.0
  0
LINE
  5
3C1
330
1F
100
AcDbEntity
  8
0
  6
CONTINUOUS
 62
     7
100
AcDbLine
 10
1196.7653977349
 20
1036.68006707
 30
0.0
 11
1195.265397489
 21
1036.68006707
 31
0.0
  0
LINE
  5
3C2
330
1F
100
AcDbEntity
  8
0
  6
CONTINUOUS
 62
     7
100
AcDbLine
 10
1195.265397489
 20
1036.68006707
 30
0.0
 11
1195.265397489
 21
1039.6800731497
 31
0.0
  0
LINE
  5
3C3
330
1F
100
AcDbEntity
  8
0
  6
CONTINUOUS
 62
     7
100
AcDbLine
 10
1195.265397489
 20
555.1800673085
 30
0.0
 11
1196.7653977349
 21
555.1800673085
 31
0.0
  0
LINE
  5
3C4
330
1F
100
AcDbEntity
  8
0
  6
CONTINUOUS
 62
     7
100
AcDbLine
 10
1195.265397489
 20
555.1800673085
 30
0.0
 11
1195.265397489
 21
584.6800600367
 31
0.0
  0
LINE
  5
3C5
330
1F
100
AcDbEntity
  8
0
  6
CONTINUOUS
 62
     7
100
AcDbLine
 10
1195.265397489
 20
587.6800661164
 30
0.0
 11
1195.265397489
 21
588.1800745802
 31
0.0
  0
LINE
  5
3C6
330
1F
100
AcDbEntity
  8
0
  6
CONTINUOUS
 62
     7
100
AcDbLine
 10
1195.265397489
 20
604.1800623017
 30
0.0
 11
1195.265397489
 21
604.6800707655
 31
0.0
  0
LINE
  5
3C7
330
1F
100
AcDbEntity
  8
0
  6
CONTINUOUS
 62
     7
100
AcDbLine
 10
1195.265397489
 20
607.680061944
 30
0.0
 11
1195.265397489
 21
789.4300670551
 31
0.0
  0
LINE
  5
3C8
330
1F
100
AcDbEntity
  8
0
  6
CONTINUOUS
 62
     7
100
AcDbLine
 10
1195.265397489
 20
802.8141997012
 30
0.0
 11
1195.265397489
 21
984.1800724345
 31
0.0
  0
LINE
  5
3C9
330
1F
100
AcDbEntity
  8
0
  6
CONTINUOUS
 62
     7
100
AcDbLine
 10
1195.265397489
 20
987.180063613
 30
0.0
 11
1195.265397489
 21
987.6800720768
 31
0.0
  0
LINE
  5
3CA
330
1F
100
AcDbEntity
  8
0
  6
CONTINUOUS
 62
     7
100
AcDbLine
 10
1195.265397489
 20
1003.6800597983
 30
0.0
 11
1195.265397489
 21
1004.1800682621
 31
0.0
  0
LINE
  5
3CB
330
1F
100
AcDbEntity
  8
0
  6
CONTINUOUS
 62
     7
100
AcDbLine
 10
1195.265397489
 20
1007.1800743418
 30
0.0
 11
1195.265397489
 21
1036.68006707
 31
0.0
  0
LINE
  5
3CC
330
1F
100
AcDbEntity
  8
0
  6
CONTINUOUS
 62
     7
100
AcDbLine
 10
1196.7653977349
 20
552.1800612288
 30
0.0
 11
1195.265397489
 21
552.1800612288
 31
0.0
  0
LINE
  5
3CD
330
1F
100
AcDbEntity
  8
0
  6
CONTINUOUS
 62
     7
100
AcDbLine
 10
1195.265397489
 20
552.1800612288
 30
0.0
 11
1195.265397489
 21
555.1800673085
 31
0.0
  0
LINE
  5
3CE
330
1F
100
AcDbEntity
  8
0
  6
CONTINUOUS
 62
     7
100
AcDbLine
 10
1207.4029747759
 20
987.6800720768
 30
0.0
 11
1207.4029747759
 21
1003.6800597983
 31
0.0
  0
LINE
  5
3CF
330
1F
100
AcDbEntity
  8
0
  6
CONTINUOUS
 62
     7
100
AcDbLine
 10
1193.5242172926
 20
987.6800720768
 30
0.0
 11
1207.4029747759
 21
987.6800720768
 31
0.0
  0
LINE
  5
3D0
330
1F
100
AcDbEntity
  8
0
  6
CONTINUOUS
 62
     7
100
AcDbLine
 10
1193.5242172926
 20
987.6800720768
 30
0.0
 11
1193.5242172926
 21
1003.6800597983
 31
0.0
  0
LINE
  5
3D1
330
1F
100
AcDbEntity
  8
0
  6
CONTINUOUS
 62
     7
100
AcDbLine
 10
1207.4029747759
 20
1003.6800597983
 30
0.0
 11
1193.5242172926
 21
1003.6800597983
 31
0.0
  0
LINE
  5
3D2
330
1F
100
AcDbEntity
  8
0
  6
CONTINUOUS
 62
     7
100
AcDbLine
 10
1207.7912034014
 20
987.6800720768
 30
0.0
 11
1207.7912034014
 21
1003.6800597983
 31
0.0
  0
LINE
  5
3D3
330
1F
100
AcDbEntity
  8
0
  6
CONTINUOUS
 62
     7
100
AcDbLine
 10
1207.7912034014
 20
987.6800720768
 30
0.0
 11
1207.4029747759
 21
987.6800720768
 31
0.0
  0
LINE
  5
3D4
330
1F
100
AcDbEntity
  8
0
  6
CONTINUOUS
 62
     7
100
AcDbLine
 10
1207.7912034014
 20
1003.6800597983
 30
0.0
 11
1207.4029747759
 21
1003.6800597983
 31
0.0
  0
LINE
  5
3D5
330
1F
100
AcDbEntity
  8
0
  6
CONTINUOUS
 62
     7
100
AcDbLine
 10
1207.4029747759
 20
604.1800623017
 30
0.0
 11
1207.4029747759
 21
588.1800745802
 31
0.0
  0
LINE
  5
3D6
330
1F
100
AcDbEntity
  8
0
  6
CONTINUOUS
 62
     7
100
AcDbLine
 10
1207.4029747759
 20
588.1800745802
 30
0.0
 11
1193.5242172926
 21
588.1800745802
 31
0.0
  0
LINE
  5
3D7
330
1F
100
AcDbEntity
  8
0
  6
CONTINUOUS
 62
     7
100
AcDbLine
 10
1193.5242172926
 20
588.1800745802
 30
0.0
 11
1193.5242172926
 21
604.1800623017
 31
0.0
  0
LINE
  5
3D8
330
1F
100
AcDbEntity
  8
0
  6
CONTINUOUS
 62
     7
100
AcDbLine
 10
1193.5242172926
 20
604.1800623017
 30
0.0
 11
1207.4029747759
 21
604.1800623017
 31
0.0
  0
LINE
  5
3D9
330
1F
100
AcDbEntity
  8
0
  6
CONTINUOUS
 62
     7
100
AcDbLine
 10
1207.7912034014
 20
604.1800623017
 30
0.0
 11
1207.4029747759
 21
604.1800623017
 31
0.0
  0
LINE
  5
3DA
330
1F
100
AcDbEntity
  8
0
  6
CONTINUOUS
 62
     7
100
AcDbLine
 10
1207.7912034014
 20
604.1800623017
 30
0.0
 11
1207.7912034014
 21
588.1800745802
 31
0.0
  0
LINE
  5
3DB
330
1F
100
AcDbEntity
  8
0
  6
CONTINUOUS
 62
     7
100
AcDbLine
 10
1207.7912034014
 20
588.1800745802
 30
0.0
 11
1207.4029747759
 21
588.1800745802
 31
0.0
  0
LINE
  5
3DC
330
1F
100
AcDbEntity
  8
0
  6
CONTINUOUS
 62
     7
100
AcDbLine
 10
1193.2653980925
 20
987.6800720768
 30
0.0
 11
1193.5242172926
 21
987.6800720768
 31
0.0
  0
LINE
  5
3DD
330
1F
100
AcDbEntity
  8
0
  6
CONTINUOUS
 62
     7
100
AcDbLine
 10
1193.2653980925
 20
1003.6800597983
 30
0.0
 11
1193.2653980925
 21
987.6800720768
 31
0.0
  0
LINE
  5
3DE
330
1F
100
AcDbEntity
  8
0
  6
CONTINUOUS
 62
     7
100
AcDbLine
 10
1193.5242172926
 20
1003.6800597983
 30
0.0
 11
1193.2653980925
 21
1003.6800597983
 31
0.0
  0
LINE
  5
3DF
330
1F
100
AcDbEntity
  8
0
  6
CONTINUOUS
 62
     7
100
AcDbLine
 10
1193.5242172926
 20
604.1800623017
 30
0.0
 11
1193.2653980925
 21
604.1800623017
 31
0.0
  0
LINE
  5
3E0
330
1F
100
AcDbEntity
  8
0
  6
CONTINUOUS
 62
     7
100
AcDbLine
 10
1193.2653980925
 20
588.1800745802
 30
0.0
 11
1193.5242172926
 21
588.1800745802
 31
0.0
  0
LINE
  5
3E1
330
1F
100
AcDbEntity
  8
0
  6
CONTINUOUS
 62
     7
100
AcDbLine
 10
1193.2653980925
 20
604.1800623017
 30
0.0
 11
1193.2653980925
 21
588.1800745802
 31
0.0
  0
LINE
  5
3E2
330
1F
100
AcDbEntity
  8
0
  6
CONTINUOUS
 62
     7
100
AcDbLine
 10
1206.2653978951
 20
987.180063613
 30
0.0
 11
1206.2653978951
 21
984.1800724345
 31
0.0
  0
LINE
  5
3E3
330
1F
100
AcDbEntity
  8
0
  6
CONTINUOUS
 62
     7
100
AcDbLine
 10
1206.2653978951
 20
984.1800724345
 30
0.0
 11
1192.2653979286
 21
984.1800724345
 31
0.0
  0
ARC
  5
3E4
330
1F
100
AcDbEntity
  8
0
  6
CONTINUOUS
 62
     7
100
AcDbCircle
 10
1192.2653978392
 20
986.1800671892
 30
0.0
 40
2.0
100
AcDbArc
 50
180.0
 51
270.0
  0
LINE
  5
3E5
330
1F
100
AcDbEntity
  8
0
  6
CONTINUOUS
 62
     7
100
AcDbLine
 10
1190.2653976008
 20
986.1800615864
 30
0.0
 11
1190.2653976008
 21
1005.1800702887
 31
0.0
  0
ARC
  5
3E6
330
1F
100
AcDbEntity
  8
0
  6
CONTINUOUS
 62
     7
100
AcDbCircle
 10
1192.2653978392
 20
1005.1800671892
 30
0.0
 40
2.0
100
AcDbArc
 50
90.0
 51
180.0
  0
LINE
  5
3E7
330
1F
100
AcDbEntity
  8
0
  6
CONTINUOUS
 62
     7
100
AcDbLine
 10
1192.2653979286
 20
1007.1800743418
 30
0.0
 11
1206.2653978951
 21
1007.1800743418
 31
0.0
  0
LINE
  5
3E8
330
1F
100
AcDbEntity
  8
0
  6
CONTINUOUS
 62
     7
100
AcDbLine
 10
1206.2653978951
 20
1007.1800743418
 30
0.0
 11
1206.2653978951
 21
1004.1800682621
 31
0.0
  0
LINE
  5
3E9
330
1F
100
AcDbEntity
  8
0
  6
CONTINUOUS
 62
     7
100
AcDbLine
 10
1193.2653980925
 20
1004.1800682621
 30
0.0
 11
1206.2653978951
 21
1004.1800682621
 31
0.0
  0
LINE
  5
3EA
330
1F
100
AcDbEntity
  8
0
  6
CONTINUOUS
 62
     7
100
AcDbLine
 10
1193.2653980925
 20
1003.6800597983
 30
0.0
 11
1193.2653980925
 21
1004.1800682621
 31
0.0
  0
LINE
  5
3EB
330
1F
100
AcDbEntity
  8
0
  6
CONTINUOUS
 62
     7
100
AcDbLine
 10
1193.2653980925
 20
987.180063613
 30
0.0
 11
1193.2653980925
 21
987.6800720768
 31
0.0
  0
LINE
  5
3EC
330
1F
100
AcDbEntity
  8
0
  6
CONTINUOUS
 62
     7
100
AcDbLine
 10
1206.2653978951
 20
987.180063613
 30
0.0
 11
1193.2653980925
 21
987.180063613
 31
0.0
  0
LINE
  5
3ED
330
1F
100
AcDbEntity
  8
0
  6
CONTINUOUS
 62
     7
100
AcDbLine
 10
1193.2653980925
 20
588.1800745802
 30
0.0
 11
1193.2653980925
 21
587.6800661164
 31
0.0
  0
LINE
  5
3EE
330
1F
100
AcDbEntity
  8
0
  6
CONTINUOUS
 62
     7
100
AcDbLine
 10
1193.2653980925
 20
587.6800661164
 30
0.0
 11
1206.2653978951
 21
587.6800661164
 31
0.0
  0
LINE
  5
3EF
330
1F
100
AcDbEntity
  8
0
  6
CONTINUOUS
 62
     7
100
AcDbLine
 10
1206.2653978951
 20
587.6800661164
 30
0.0
 11
1206.2653978951
 21
584.6800600367
 31
0.0
  0
LINE
  5
3F0
330
1F
100
AcDbEntity
  8
0
  6
CONTINUOUS
 62
     7
100
AcDbLine
 10
1192.2653979286
 20
584.6800600367
 30
0.0
 11
1206.2653978951
 21
584.6800600367
 31
0.0
  0
ARC
  5
3F1
330
1F
100
AcDbEntity
  8
0
  6
CONTINUOUS
 62
     7
100
AcDbCircle
 10
1192.2653978392
 20
586.6800671892
 30
0.0
 40
2.0
100
AcDbArc
 50
180.0
 51
270.0
  0
LINE
  5
3F2
330
1F
100
AcDbEntity
  8
0
  6
CONTINUOUS
 62
     7
100
AcDbLine
 10
1190.2653976008
 20
605.6800727921
 30
0.0
 11
1190.2653976008
 21
586.6800640898
 31
0.0
  0
ARC
  5
3F3
330
1F
100
AcDbEntity
  8
0
  6
CONTINUOUS
 62
     7
100
AcDbCircle
 10
1192.2653978392
 20
605.6800671892
 30
0.0
 40
2.0
100
AcDbArc
 50
90.0
 51
180.0
  0
LINE
  5
3F4
330
1F
100
AcDbEntity
  8
0
  6
CONTINUOUS
 62
     7
100
AcDbLine
 10
1206.2653978951
 20
607.680061944
 30
0.0
 11
1192.2653979286
 21
607.680061944
 31
0.0
  0
LINE
  5
3F5
330
1F
100
AcDbEntity
  8
0
  6
CONTINUOUS
 62
     7
100
AcDbLine
 10
1206.2653978951
 20
607.680061944
 30
0.0
 11
1206.2653978951
 21
604.6800707655
 31
0.0
  0
LINE
  5
3F6
330
1F
100
AcDbEntity
  8
0
  6
CONTINUOUS
 62
     7
100
AcDbLine
 10
1206.2653978951
 20
604.6800707655
 30
0.0
 11
1193.2653980925
 21
604.6800707655
 31
0.0
  0
LINE
  5
3F7
330
1F
100
AcDbEntity
  8
0
  6
CONTINUOUS
 62
     7
100
AcDbLine
 10
1193.2653980925
 20
604.6800707655
 30
0.0
 11
1193.2653980925
 21
604.1800623017
 31
0.0
  0
LINE
  5
3F8
330
1F
100
AcDbEntity
  8
0
  6
CONTINUOUS
 62
     7
100
AcDbLine
 10
1208.7653978392
 20
1007.1800743418
 30
0.0
 11
1208.7653978392
 21
1004.1800682621
 31
0.0
  0
LINE
  5
3F9
330
1F
100
AcDbEntity
  8
0
  6
CONTINUOUS
 62
     7
100
AcDbLine
 10
1206.2653978951
 20
1004.1800682621
 30
0.0
 11
1208.7653978392
 21
1004.1800682621
 31
0.0
  0
LINE
  5
3FA
330
1F
100
AcDbEntity
  8
0
  6
CONTINUOUS
 62
     7
100
AcDbLine
 10
1206.2653978951
 20
1007.1800743418
 30
0.0
 11
1208.7653978392
 21
1007.1800743418
 31
0.0
  0
LINE
  5
3FB
330
1F
100
AcDbEntity
  8
0
  6
CONTINUOUS
 62
     7
100
AcDbLine
 10
1208.7653978392
 20
984.1800724345
 30
0.0
 11
1206.2653978951
 21
984.1800724345
 31
0.0
  0
LINE
  5
3FC
330
1F
100
AcDbEntity
  8
0
  6
CONTINUOUS
 62
     7
100
AcDbLine
 10
1208.7653978392
 20
987.180063613
 30
0.0
 11
1206.2653978951
 21
987.180063613
 31
0.0
  0
LINE
  5
3FD
330
1F
100
AcDbEntity
  8
0
  6
CONTINUOUS
 62
     7
100
AcDbLine
 10
1208.7653978392
 20
987.180063613
 30
0.0
 11
1208.7653978392
 21
984.1800724345
 31
0.0
  0
LINE
  5
3FE
330
1F
100
AcDbEntity
  8
0
  6
CONTINUOUS
 62
     7
100
AcDbLine
 10
1206.2653978951
 20
607.680061944
 30
0.0
 11
1208.7653978392
 21
607.680061944
 31
0.0
  0
LINE
  5
3FF
330
1F
100
AcDbEntity
  8
0
  6
CONTINUOUS
 62
     7
100
AcDbLine
 10
1208.7653978392
 20
607.680061944
 30
0.0
 11
1208.7653978392
 21
604.6800707655
 31
0.0
  0
LINE
  5
400
330
1F
100
AcDbEntity
  8
0
  6
CONTINUOUS
 62
     7
100
AcDbLine
 10
1208.7653978392
 20
604.6800707655
 30
0.0
 11
1206.2653978951
 21
604.6800707655
 31
0.0
  0
LINE
  5
401
330
1F
100
AcDbEntity
  8
0
  6
CONTINUOUS
 62
     7
100
AcDbLine
 10
1208.7653978392
 20
587.6800661164
 30
0.0
 11
1208.7653978392
 21
584.6800600367
 31
0.0
  0
LINE
  5
402
330
1F
100
AcDbEntity
  8
0
  6
CONTINUOUS
 62
     7
100
AcDbLine
 10
1208.7653978392
 20
584.6800600367
 30
0.0
 11
1206.2653978951
 21
584.6800600367
 31
0.0
  0
LINE
  5
403
330
1F
100
AcDbEntity
  8
0
  6
CONTINUOUS
 62
     7
100
AcDbLine
 10
1206.2653978951
 20
587.6800661164
 30
0.0
 11
1208.7653978392
 21
587.6800661164
 31
0.0
  0
LINE
  5
404
330
1F
100
AcDbEntity
  8
0
  6
CONTINUOUS
 62
     7
100
AcDbLine
 10
1207.2653978261
 20
1007.6800679045
 30
0.0
 11
1208.7653978392
 21
1007.6800679045
 31
0.0
  0
LINE
  5
405
330
1F
100
AcDbEntity
  8
0
  6
CONTINUOUS
 62
     7
100
AcDbLine
 10
1208.7653978392
 20
1051.6800676661
 30
0.0
 11
1208.7653978392
 21
1007.6800679045
 31
0.0
  0
LINE
  5
406
330
1F
100
AcDbEntity
  8
0
  6
CONTINUOUS
 62
     7
100
AcDbLine
 10
1207.2653978261
 20
1051.6800676661
 30
0.0
 11
1207.2653978261
 21
1007.6800679045
 31
0.0
  0
LINE
  5
407
330
1F
100
AcDbEntity
  8
0
  6
CONTINUOUS
 62
     7
100
AcDbLine
 10
1207.2653978261
 20
608.1800704079
 30
0.0
 11
1208.7653978392
 21
608.1800704079
 31
0.0
  0
LINE
  5
408
330
1F
100
AcDbEntity
  8
0
  6
CONTINUOUS
 62
     7
100
AcDbLine
 10
1207.2653978261
 20
983.6800639706
 30
0.0
 11
1208.7653978392
 21
983.6800639706
 31
0.0
  0
LINE
  5
409
330
1F
100
AcDbEntity
  8
0
  6
CONTINUOUS
 62
     7
100
AcDbLine
 10
1208.7653978392
 20
983.6800639706
 30
0.0
 11
1208.7653978392
 21
608.1800704079
 31
0.0
  0
LINE
  5
40A
330
1F
100
AcDbEntity
  8
0
  6
CONTINUOUS
 62
     7
100
AcDbLine
 10
1207.2653978261
 20
983.6800639706
 30
0.0
 11
1207.2653978261
 21
608.1800704079
 31
0.0
  0
LINE
  5
40B
330
1F
100
AcDbEntity
  8
0
  6
CONTINUOUS
 62
     7
100
AcDbLine
 10
1207.2653978261
 20
584.180066474
 30
0.0
 11
1208.7653978392
 21
584.180066474
 31
0.0
  0
LINE
  5
40C
330
1F
100
AcDbEntity
  8
0
  6
CONTINUOUS
 62
     7
100
AcDbLine
 10
1208.7653978392
 20
584.180066474
 30
0.0
 11
1208.7653978392
 21
540.1800667124
 31
0.0
  0
LINE
  5
40D
330
1F
100
AcDbEntity
  8
0
  6
CONTINUOUS
 62
     7
100
AcDbLine
 10
1207.2653978261
 20
584.180066474
 30
0.0
 11
1207.2653978261
 21
540.1800667124
 31
0.0
  0
LINE
  5
40E
330
1F
100
AcDbEntity
  8
0
  6
CONTINUOUS
 62
     7
100
AcDbLine
 10
1208.7653978392
 20
1007.6800679045
 30
0.0
 11
1208.7653978392
 21
1007.1800743418
 31
0.0
  0
LINE
  5
40F
330
1F
100
AcDbEntity
  8
0
  6
CONTINUOUS
 62
     7
100
AcDbLine
 10
1207.2653978261
 20
1007.6800679045
 30
0.0
 11
1207.2653978261
 21
1007.1800743418
 31
0.0
  0
LINE
  5
410
330
1F
100
AcDbEntity
  8
0
  6
CONTINUOUS
 62
     7
100
AcDbLine
 10
1208.7653978392
 20
984.1800724345
 30
0.0
 11
1208.7653978392
 21
983.6800639706
 31
0.0
  0
LINE
  5
411
330
1F
100
AcDbEntity
  8
0
  6
CONTINUOUS
 62
     7
100
AcDbLine
 10
1207.2653978261
 20
984.1800724345
 30
0.0
 11
1207.2653978261
 21
983.6800639706
 31
0.0
  0
LINE
  5
412
330
1F
100
AcDbEntity
  8
0
  6
CONTINUOUS
 62
     7
100
AcDbLine
 10
1208.7653978392
 20
608.1800704079
 30
0.0
 11
1208.7653978392
 21
607.680061944
 31
0.0
  0
LINE
  5
413
330
1F
100
AcDbEntity
  8
0
  6
CONTINUOUS
 62
     7
100
AcDbLine
 10
1207.2653978261
 20
608.1800704079
 30
0.0
 11
1207.2653978261
 21
607.680061944
 31
0.0
  0
LINE
  5
414
330
1F
100
AcDbEntity
  8
0
  6
CONTINUOUS
 62
     7
100
AcDbLine
 10
1208.7653978392
 20
584.6800600367
 30
0.0
 11
1208.7653978392
 21
584.180066474
 31
0.0
  0
LINE
  5
415
330
1F
100
AcDbEntity
  8
0
  6
CONTINUOUS
 62
     7
100
AcDbLine
 10
1207.2653978261
 20
584.6800600367
 30
0.0
 11
1207.2653978261
 21
584.180066474
 31
0.0
  0
LINE
  5
416
330
1F
100
AcDbEntity
  8
0
  6
CONTINUOUS
 62
     7
100
AcDbLine
 10
1208.7653978392
 20
987.180063613
 30
0.0
 11
1208.7653978392
 21
1004.1800682621
 31
0.0
  0
LINE
  5
417
330
1F
100
AcDbEntity
  8
0
  6
CONTINUOUS
 62
     7
100
AcDbLine
 10
1207.2653978261
 20
987.180063613
 30
0.0
 11
1207.2653978261
 21
987.6800720768
 31
0.0
  0
LINE
  5
418
330
1F
100
AcDbEntity
  8
0
  6
CONTINUOUS
 62
     7
100
AcDbLine
 10
1207.2653978261
 20
1003.6800597983
 30
0.0
 11
1207.2653978261
 21
1004.1800682621
 31
0.0
  0
LINE
  5
419
330
1F
100
AcDbEntity
  8
0
  6
CONTINUOUS
 62
     7
100
AcDbLine
 10
1208.7653978392
 20
587.6800661164
 30
0.0
 11
1208.7653978392
 21
604.6800707655
 31
0.0
  0
LINE
  5
41A
330
1F
100
AcDbEntity
  8
0
  6
CONTINUOUS
 62
     7
100
AcDbLine
 10
1207.2653978261
 20
587.6800661164
 30
0.0
 11
1207.2653978261
 21
588.1800745802
 31
0.0
  0
LINE
  5
41B
330
1F
100
AcDbEntity
  8
0
  6
CONTINUOUS
 62
     7
100
AcDbLine
 10
1207.2653978261
 20
604.1800623017
 30
0.0
 11
1207.2653978261
 21
604.6800707655
 31
0.0
  0
LINE
  5
41C
330
1F
100
AcDbEntity
  8
0
  6
CONTINUOUS
 62
     7
100
AcDbLine
 10
1206.2653978951
 20
540.1800667124
 30
0.0
 11
1207.2653978261
 21
540.1800667124
 31
0.0
  0
LINE
  5
41D
330
1F
100
AcDbEntity
  8
0
  6
CONTINUOUS
 62
     7
100
AcDbLine
 10
1207.2653978261
 20
1051.6800676661
 30
0.0
 11
1206.2653978951
 21
1051.6800676661
 31
0.0
  0
LINE
  5
41E
330
1F
100
AcDbEntity
  8
0
  6
CONTINUOUS
 62
     7
100
AcDbLine
 10
1199.7653982266
 20
1051.6800676661
 30
0.0
 11
1197.7653978988
 21
1049.680063613
 31
0.0
  0
LINE
  5
41F
330
1F
100
AcDbEntity
  8
0
  6
CONTINUOUS
 62
     7
100
AcDbLine
 10
1199.7653982266
 20
1051.6800676661
 30
0.0
 11
1206.2653978951
 21
1051.6800676661
 31
0.0
  0
LINE
  5
420
330
1F
100
AcDbEntity
  8
0
  6
CONTINUOUS
 62
     7
100
AcDbLine
 10
1206.2653978951
 20
540.1800667124
 30
0.0
 11
1199.7653982266
 21
540.1800667124
 31
0.0
  0
LINE
  5
421
330
1F
100
AcDbEntity
  8
0
  6
CONTINUOUS
 62
     7
100
AcDbLine
 10
1197.7653978988
 20
542.1800707655
 30
0.0
 11
1199.7653982266
 21
540.1800667124
 31
0.0
  0
LINE
  5
422
330
1F
100
AcDbEntity
  8
0
  6
CONTINUOUS
 62
     7
100
AcDbLine
 10
1197.7653978988
 20
542.1800707655
 30
0.0
 11
1197.7653978988
 21
584.6800600367
 31
0.0
  0
LINE
  5
423
330
1F
100
AcDbEntity
  8
0
  6
CONTINUOUS
 62
     7
100
AcDbLine
 10
1197.7653978988
 20
587.6800661164
 30
0.0
 11
1197.7653978988
 21
588.1800745802
 31
0.0
  0
LINE
  5
424
330
1F
100
AcDbEntity
  8
0
  6
CONTINUOUS
 62
     7
100
AcDbLine
 10
1197.7653978988
 20
604.1800623017
 30
0.0
 11
1197.7653978988
 21
604.6800707655
 31
0.0
  0
LINE
  5
425
330
1F
100
AcDbEntity
  8
0
  6
CONTINUOUS
 62
     7
100
AcDbLine
 10
1197.7653978988
 20
607.680061944
 30
0.0
 11
1197.7653978988
 21
984.1800724345
 31
0.0
  0
LINE
  5
426
330
1F
100
AcDbEntity
  8
0
  6
CONTINUOUS
 62
     7
100
AcDbLine
 10
1197.7653978988
 20
987.180063613
 30
0.0
 11
1197.7653978988
 21
987.6800720768
 31
0.0
  0
LINE
  5
427
330
1F
100
AcDbEntity
  8
0
  6
CONTINUOUS
 62
     7
100
AcDbLine
 10
1197.7653978988
 20
1003.6800597983
 30
0.0
 11
1197.7653978988
 21
1004.1800682621
 31
0.0
  0
LINE
  5
428
330
1F
100
AcDbEntity
  8
0
  6
CONTINUOUS
 62
     7
100
AcDbLine
 10
1197.7653978988
 20
1007.1800743418
 30
0.0
 11
1197.7653978988
 21
1049.680063613
 31
0.0
  0
LINE
  5
429
330
1F
100
AcDbEntity
  8
0
  6
CONTINUOUS
 62
     7
100
AcDbLine
 10
1205.2653977311
 20
538.3871887999
 30
0.0
 11
1196.7653977349
 21
538.3871887999
 31
0.0
  0
LINE
  5
42A
330
1F
100
AcDbEntity
  8
0
  6
CONTINUOUS
 62
     7
100
AcDbLine
 10
1196.7653977349
 20
538.3871887999
 30
0.0
 11
1196.7653977349
 21
584.6800600367
 31
0.0
  0
LINE
  5
42B
330
1F
100
AcDbEntity
  8
0
  6
CONTINUOUS
 62
     7
100
AcDbLine
 10
1196.7653977349
 20
587.6800661164
 30
0.0
 11
1196.7653977349
 21
588.1800745802
 31
0.0
  0
LINE
  5
42C
330
1F
100
AcDbEntity
  8
0
  6
CONTINUOUS
 62
     7
100
AcDbLine
 10
1196.7653977349
 20
604.1800623017
 30
0.0
 11
1196.7653977349
 21
604.6800707655
 31
0.0
  0
LINE
  5
42D
330
1F
100
AcDbEntity
  8
0
  6
CONTINUOUS
 62
     7
100
AcDbLine
 10
1196.7653977349
 20
607.680061944
 30
0.0
 11
1196.7653977349
 21
984.1800724345
 31
0.0
  0
LINE
  5
42E
330
1F
100
AcDbEntity
  8
0
  6
CONTINUOUS
 62
     7
100
AcDbLine
 10
1196.7653977349
 20
987.180063613
 30
0.0
 11
1196.7653977349
 21
987.6800720768
 31
0.0
  0
LINE
  5
42F
330
1F
100
AcDbEntity
  8
0
  6
CONTINUOUS
 62
     7
100
AcDbLine
 10
1196.7653977349
 20
1003.6800597983
 30
0.0
 11
1196.7653977349
 21
1004.1800682621
 31
0.0
  0
LINE
  5
430
330
1F
100
AcDbEntity
  8
0
  6
CONTINUOUS
 62
     7
100
AcDbLine
 10
1196.7653977349
 20
1007.1800743418
 30
0.0
 11
1196.7653977349
 21
1053.4729455786
 31
0.0
  0
LINE
  5
431
330
1F
100
AcDbEntity
  8
0
  6
CONTINUOUS
 62
     7
100
AcDbLine
 10
1205.2653977311
 20
1053.4729455786
 30
0.0
 11
1196.7653977349
 21
1053.4729455786
 31
0.0
  0
ARC
  5
432
330
1F
100
AcDbEntity
  8
0
  6
CONTINUOUS
 62
     7
100
AcDbCircle
 10
1199.2086221632
 20
584.4164583722
 30
0.0
 40
46.42605074350038
100
AcDbArc
 50
277.4962158187
 51
279.9937048386
  0
LWPOLYLINE
  5
433
330
1F
100
AcDbEntity
  8
0
  6
CONTINUOUS
 62
     7
100
AcDbPolyline
 90
        3
 70
   128
 43
0.0
 10
1205.2653977311
 20
1053.4729455786
 10
1206.2633184846
 20
1053.3270036059
 10
1207.2653978261
 20
1053.1649683791
  0
ARC
  5
434
330
1F
100
AcDbEntity
  8
0
  6
CONTINUOUS
 62
     7
100
AcDbCircle
 10
1205.4567601461
 20
1053.3137871035
 30
0.0
 40
2.872663120655977
100
AcDbArc
 50
50.9791520582
 51
93.8195860754
  0
ARC
  5
435
330
1F
100
AcDbEntity
  8
0
  6
CONTINUOUS
 62
     7
100
AcDbCircle
 10
1205.2775202098
 20
1052.7168515584
 30
0.0
 40
1.463263938991605
100
AcDbArc
 50
22.0925364262
 51
90.474675001
  0
LINE
  5
436
330
1F
100
AcDbEntity
  8
0
  6
CONTINUOUS
 62
     7
100
AcDbLine
 10
1205.2653977311
 20
1056.180069335
 30
0.0
 11
1205.2653977311
 21
1054.1800652819
 31
0.0
  0
LINE
  5
437
330
1F
100
AcDbEntity
  8
0
  6
CONTINUOUS
 62
     7
100
AcDbLine
 10
1205.2653977311
 20
535.6800650435
 30
0.0
 11
1205.2653977311
 21
537.6800690966
 31
0.0
  0
ARC
  5
438
330
1F
100
AcDbEntity
  8
0
  6
CONTINUOUS
 62
     7
100
AcDbCircle
 10
1205.3269803812
 20
539.0580180218
 30
0.0
 40
1.379324350311766
100
AcDbArc
 50
267.4410665441
 51
340.2425266911
  0
LWPOLYLINE
  5
439
330
1F
100
AcDbEntity
  8
0
  6
CONTINUOUS
 62
     7
100
AcDbPolyline
 90
        3
 70
   128
 43
0.0
 10
1205.2653977311
 20
535.6800650435
 10
1206.2633184846
 20
535.8253513651
 10
1207.2653978261
 20
536.321291812
  0
LINE
  5
43A
330
1F
100
AcDbEntity
  8
0
  6
CONTINUOUS
 62
     7
100
AcDbLine
 10
1196.7653977349
 20
1054.1800652819
 30
0.0
 11
1196.7653977349
 21
1056.180069335
 31
0.0
  0
LINE
  5
43B
330
1F
100
AcDbEntity
  8
0
  6
CONTINUOUS
 62
     7
100
AcDbLine
 10
1196.7653977349
 20
1056.180069335
 30
0.0
 11
1205.2653977311
 21
1056.180069335
 31
0.0
  0
LINE
  5
43C
330
1F
100
AcDbEntity
  8
0
  6
CONTINUOUS
 62
     7
100
AcDbLine
 10
1205.2653977311
 20
1054.1800652819
 30
0.0
 11
1196.7653977349
 21
1054.1800652819
 31
0.0
  0
LINE
  5
43D
330
1F
100
AcDbEntity
  8
0
  6
CONTINUOUS
 62
     7
100
AcDbLine
 10
1205.2653977311
 20
535.6800650435
 30
0.0
 11
1196.7653977349
 21
535.6800650435
 31
0.0
  0
LINE
  5
43E
330
1F
100
AcDbEntity
  8
0
  6
CONTINUOUS
 62
     7
100
AcDbLine
 10
1196.7653977349
 20
537.6800690966
 30
0.0
 11
1196.7653977349
 21
535.6800650435
 31
0.0
  0
LINE
  5
43F
330
1F
100
AcDbEntity
  8
0
  6
CONTINUOUS
 62
     7
100
AcDbLine
 10
1205.2653977311
 20
537.6800690966
 30
0.0
 11
1196.7653977349
 21
537.6800690966
 31
0.0
  0
LINE
  5
440
330
1F
100
AcDbEntity
  8
0
  6
CONTINUOUS
 62
     7
100
AcDbLine
 10
1192.4653975888
 20
798.7796150802
 30
0.0
 11
1193.1653982624
 21
798.7796150802
 31
0.0
  0
LINE
  5
441
330
1F
100
AcDbEntity
  8
0
  6
CONTINUOUS
 62
     7
100
AcDbLine
 10
1192.4653975888
 20
798.9968274443
 30
0.0
 11
1193.1653982624
 21
798.9968274443
 31
0.0
  0
LINE
  5
442
330
1F
100
AcDbEntity
  8
0
  6
CONTINUOUS
 62
     7
100
AcDbLine
 10
1193.1653982624
 20
798.7796150802
 30
0.0
 11
1193.1653982624
 21
789.7800673919
 31
0.0
  0
LINE
  5
443
330
1F
100
AcDbEntity
  8
0
  6
CONTINUOUS
 62
     7
100
AcDbLine
 10
1192.4653975888
 20
798.7796150802
 30
0.0
 11
1192.4653975888
 21
789.7800673919
 31
0.0
  0
LINE
  5
444
330
1F
100
AcDbEntity
  8
0
  6
CONTINUOUS
 62
     7
100
AcDbLine
 10
1193.1653982624
 20
798.9968274443
 30
0.0
 11
1193.1653982624
 21
798.9300672153
 31
0.0
  0
LINE
  5
445
330
1F
100
AcDbEntity
  8
0
  6
CONTINUOUS
 62
     7
100
AcDbLine
 10
1192.4653975888
 20
798.9968274443
 30
0.0
 11
1192.4653975888
 21
798.9300672153
 31
0.0
  0
LINE
  5
446
330
1F
100
AcDbEntity
  8
0
  6
CONTINUOUS
 62
     7
100
AcDbLine
 10
1193.2653980925
 20
802.4287481049
 30
0.0
 11
1193.2653980925
 21
789.4300670551
 31
0.0
  0
LINE
  5
447
330
1F
100
AcDbEntity
  8
0
  6
CONTINUOUS
 62
     7
100
AcDbLine
 10
1193.2653980925
 20
802.4287481049
 30
0.0
 11
1195.265397489
 21
802.4287481049
 31
0.0
  0
LINE
  5
448
330
1F
100
AcDbEntity
  8
0
  6
CONTINUOUS
 62
     7
100
AcDbLine
 10
1195.265397489
 20
802.4287481049
 30
0.0
 11
1195.265397489
 21
789.4300670551
 31
0.0
  0
LINE
  5
449
330
1F
100
AcDbEntity
  8
0
  6
CONTINUOUS
 62
     7
100
AcDbLine
 10
1193.2653980925
 20
802.8941351177
 30
0.0
 11
1195.265397489
 21
802.8941351177
 31
0.0
  0
LINE
  5
44A
330
1F
100
AcDbEntity
  8
0
  6
CONTINUOUS
 62
     7
100
AcDbLine
 10
1193.2653980925
 20
802.8941351177
 30
0.0
 11
1193.2653980925
 21
802.4287481049
 31
0.0
  0
LINE
  5
44B
330
1F
100
AcDbEntity
  8
0
  6
CONTINUOUS
 62
     7
100
AcDbLine
 10
1195.265397489
 20
802.8141997012
 30
0.0
 11
1195.265397489
 21
802.4287481049
 31
0.0
  0
LINE
  5
44C
330
1F
100
AcDbEntity
  8
0
  6
CONTINUOUS
 62
     7
100
AcDbLine
 10
1212.0653978213
 20
789.330067225
 30
0.0
 11
1212.0653978213
 21
802.5300671535
 31
0.0
  0
LINE
  5
44D
330
1F
100
AcDbEntity
  8
0
  6
CONTINUOUS
 62
     7
100
AcDbLine
 10
1192.2653979286
 20
795.8595632909
 30
0.0
 11
1192.2653979286
 21
792.4300670812
 31
0.0
  0
LINE
  5
44E
330
1F
100
AcDbEntity
  8
0
  6
CONTINUOUS
 62
     7
100
AcDbLine
 10
1192.2653979286
 20
799.4300672973
 30
0.0
 11
1192.2653979286
 21
795.8595632909
 31
0.0
  0
LINE
  5
44F
330
1F
100
AcDbEntity
  8
0
  6
CONTINUOUS
 62
     7
100
AcDbLine
 10
1191.2653977647
 20
799.4300672973
 30
0.0
 11
1191.2653977647
 21
792.4300670812
 31
0.0
  0
LINE
  5
450
330
1F
100
AcDbEntity
  8
0
  6
CONTINUOUS
 62
     7
100
AcDbLine
 10
1211.7653978653
 20
804.9300668018
 30
0.0
 11
1211.7653978653
 21
786.9300675767
 31
0.0
  0
LINE
  5
451
330
1F
100
AcDbEntity
  8
0
  6
CONTINUOUS
 62
     7
100
AcDbLine
 10
1209.7653978867
 20
787.9967876898
 30
0.0
 11
1209.7653978867
 21
784.9300672489
 31
0.0
  0
LINE
  5
452
330
1F
100
AcDbEntity
  8
0
  6
CONTINUOUS
 62
     7
100
AcDbLine
 10
1209.7653978867
 20
806.9300671296
 30
0.0
 11
1209.7653978867
 21
787.9967876898
 31
0.0
  0
LINE
  5
453
330
1F
100
AcDbEntity
  8
0
  6
CONTINUOUS
 62
     7
100
AcDbLine
 10
1195.265397489
 20
791.2422200853
 30
0.0
 11
1195.265397489
 21
802.4287481049
 31
0.0
  0
LINE
  5
454
330
1F
100
AcDbEntity
  8
0
  6
CONTINUOUS
 62
     7
100
AcDbLine
 10
1195.265397489
 20
789.4300675208
 30
0.0
 11
1195.265397489
 21
791.2422200853
 31
0.0
  0
LINE
  5
455
330
1F
100
AcDbEntity
  8
0
  6
CONTINUOUS
 62
     8
100
AcDbLine
 10
1206.2653978951
 20
1051.6800676661
 30
0.0
 11
1206.2653978951
 21
1007.1800743418
 31
0.0
  0
LINE
  5
456
330
1F
100
AcDbEntity
  8
0
  6
CONTINUOUS
 62
     8
100
AcDbLine
 10
1206.2653978951
 20
1004.1800682621
 30
0.0
 11
1206.2653978951
 21
1003.6800597983
 31
0.0
  0
LINE
  5
457
330
1F
100
AcDbEntity
  8
0
  6
CONTINUOUS
 62
     8
100
AcDbLine
 10
1206.2653978951
 20
987.6800720768
 30
0.0
 11
1206.2653978951
 21
987.180063613
 31
0.0
  0
LINE
  5
458
330
1F
100
AcDbEntity
  8
0
  6
CONTINUOUS
 62
     8
100
AcDbLine
 10
1206.2653978951
 20
984.1800724345
 30
0.0
 11
1206.2653978951
 21
607.680061944
 31
0.0
  0
LINE
  5
459
330
1F
100
AcDbEntity
  8
0
  6
CONTINUOUS
 62
     8
100
AcDbLine
 10
1206.2653978951
 20
604.6800707655
 30
0.0
 11
1206.2653978951
 21
604.1800623017
 31
0.0
  0
LINE
  5
45A
330
1F
100
AcDbEntity
  8
0
  6
CONTINUOUS
 62
     8
100
AcDbLine
 10
1206.2653978951
 20
588.1800745802
 30
0.0
 11
1206.2653978951
 21
587.6800661164
 31
0.0
  0
LINE
  5
45B
330
1F
100
AcDbEntity
  8
0
  6
CONTINUOUS
 62
     8
100
AcDbLine
 10
1206.2653978951
 20
584.6800600367
 30
0.0
 11
1206.2653978951
 21
540.1800667124
 31
0.0
  0
LINE
  5
45C
330
1F
100
AcDbEntity
  8
0
  6
CONTINUOUS
 62
     8
100
AcDbLine
 10
1205.2653977311
 20
1053.4729455786
 30
0.0
 11
1205.2653977311
 21
1051.6800676661
 31
0.0
  0
LINE
  5
45D
330
1F
100
AcDbEntity
  8
0
  6
CONTINUOUS
 62
     8
100
AcDbLine
 10
1205.2653977311
 20
540.1800667124
 30
0.0
 11
1205.2653977311
 21
538.3871887999
 31
0.0
  0
LINE
  5
45E
330
1F
100
AcDbEntity
  8
0
  6
CONTINUOUS
 62
     8
100
AcDbLine
 10
1211.8153977803
 20
802.7800671945
 30
0.0
 11
1211.8153977803
 21
789.080067184
 31
0.0
  0
LINE
  5
45F
330
1F
100
AcDbEntity
  8
0
  6
CONTINUOUS
 62
     8
100
AcDbLine
 10
1195.765397571
 20
788.9300669732
 30
0.0
 11
1195.765397571
 21
802.9300674053
 31
0.0
  0
LINE
  5
460
330
1F
100
AcDbEntity
  8
0
  6
CONTINUOUS
 62
     7
100
AcDbLine
 10
1839.7407808789
 20
1060.6800710039
 30
0.0
 11
1839.7407808789
 21
1058.1800733881
 31
0.0
  0
LINE
  5
461
330
1F
100
AcDbEntity
  8
0
  6
CONTINUOUS
 62
     7
100
AcDbLine
 10
1557.240782071
 20
1058.1800733881
 30
0.0
 11
1839.7407808789
 21
1058.1800733881
 31
0.0
  0
LINE
  5
462
330
1F
100
AcDbEntity
  8
0
  6
CONTINUOUS
 62
     7
100
AcDbLine
 10
1557.240782071
 20
1060.6800710039
 30
0.0
 11
1839.7407808789
 21
1060.6800710039
 31
0.0
  0
LINE
  5
463
330
1F
100
AcDbEntity
  8
0
  6
CONTINUOUS
 62
     7
100
AcDbLine
 10
1557.240782071
 20
1058.1800733881
 30
0.0
 11
1557.240782071
 21
1060.6800710039
 31
0.0
  0
LINE
  5
464
330
1F
100
AcDbEntity
  8
0
  6
CONTINUOUS
 62
     7
100
AcDbLine
 10
1839.7407808789
 20
1057.1800564604
 30
0.0
 11
1839.7407808789
 21
1058.1800733881
 31
0.0
  0
ARC
  5
465
330
1F
100
AcDbEntity
  8
0
  6
CONTINUOUS
 62
     7
100
AcDbCircle
 10
1836.740781475
 20
1057.1800671892
 30
0.0
 40
3.0
100
AcDbArc
 50
270.0
 51
0.0
  0
LINE
  5
466
330
1F
100
AcDbEntity
  8
0
  6
CONTINUOUS
 62
     7
100
AcDbLine
 10
1560.2407881507
 20
1054.1800652819
 30
0.0
 11
1836.7407747992
 21
1054.1800652819
 31
0.0
  0
ARC
  5
467
330
1F
100
AcDbEntity
  8
0
  6
CONTINUOUS
 62
     7
100
AcDbCircle
 10
1560.240781475
 20
1057.1800671892
 30
0.0
 40
3.0
100
AcDbArc
 50
180.0
 51
270.0
  0
LINE
  5
468
330
1F
100
AcDbEntity
  8
0
  6
CONTINUOUS
 62
     7
100
AcDbLine
 10
1557.240782071
 20
1058.1800733881
 30
0.0
 11
1557.240782071
 21
1057.1800564604
 31
0.0
  0
LINE
  5
469
330
1F
100
AcDbEntity
  8
0
  6
CONTINUOUS
 62
     7
100
AcDbLine
 10
1547.2407767066
 20
1060.6800710039
 30
0.0
 11
1547.2407767066
 21
1059.1800605135
 31
0.0
  0
LINE
  5
46A
330
1F
100
AcDbEntity
  8
0
  6
CONTINUOUS
 62
     7
100
AcDbLine
 10
1557.240782071
 20
1059.1800605135
 30
0.0
 11
1547.2407767066
 21
1059.1800605135
 31
0.0
  0
LINE
  5
46B
330
1F
100
AcDbEntity
  8
0
  6
CONTINUOUS
 62
     7
100
AcDbLine
 10
1557.240782071
 20
1060.6800710039
 30
0.0
 11
1547.2407767066
 21
1060.6800710039
 31
0.0
  0
LINE
  5
46C
330
1F
100
AcDbEntity
  8
0
  6
CONTINUOUS
 62
     7
100
AcDbLine
 10
1849.7407862433
 20
1059.1800605135
 30
0.0
 11
1849.7407862433
 21
1060.6800710039
 31
0.0
  0
LINE
  5
46D
330
1F
100
AcDbEntity
  8
0
  6
CONTINUOUS
 62
     7
100
AcDbLine
 10
1849.7407862433
 20
1059.1800605135
 30
0.0
 11
1839.7407808789
 21
1059.1800605135
 31
0.0
  0
LINE
  5
46E
330
1F
100
AcDbEntity
  8
0
  6
CONTINUOUS
 62
     7
100
AcDbLine
 10
1849.7407862433
 20
1060.6800710039
 30
0.0
 11
1839.7407808789
 21
1060.6800710039
 31
0.0
  0
LINE
  5
46F
330
1F
100
AcDbEntity
  8
0
  6
CONTINUOUS
 62
     7
100
AcDbLine
 10
1545.2407875546
 20
1059.1800605135
 30
0.0
 11
1545.2407875546
 21
1060.6800710039
 31
0.0
  0
LINE
  5
470
330
1F
100
AcDbEntity
  8
0
  6
CONTINUOUS
 62
     7
100
AcDbLine
 10
1547.2407767066
 20
1059.1800605135
 30
0.0
 11
1545.2407875546
 21
1059.1800605135
 31
0.0
  0
LINE
  5
471
330
1F
100
AcDbEntity
  8
0
  6
CONTINUOUS
 62
     7
100
AcDbLine
 10
1545.2407875546
 20
1060.6800710039
 30
0.0
 11
1547.2407767066
 21
1060.6800710039
 31
0.0
  0
LINE
  5
472
330
1F
100
AcDbEntity
  8
0
  6
CONTINUOUS
 62
     7
100
AcDbLine
 10
1851.7407753953
 20
1060.6800710039
 30
0.0
 11
1851.7407753953
 21
1059.1800605135
 31
0.0
  0
LINE
  5
473
330
1F
100
AcDbEntity
  8
0
  6
CONTINUOUS
 62
     7
100
AcDbLine
 10
1851.7407753953
 20
1059.1800605135
 30
0.0
 11
1849.7407862433
 21
1059.1800605135
 31
0.0
  0
LINE
  5
474
330
1F
100
AcDbEntity
  8
0
  6
CONTINUOUS
 62
     7
100
AcDbLine
 10
1849.7407862433
 20
1060.6800710039
 30
0.0
 11
1851.7407753953
 21
1060.6800710039
 31
0.0
  0
LINE
  5
475
330
1F
100
AcDbEntity
  8
0
  6
CONTINUOUS
 62
     7
100
AcDbLine
 10
1851.7407753953
 20
1060.6800710039
 30
0.0
 11
1851.7407753953
 21
1061.6800581293
 31
0.0
  0
LINE
  5
476
330
1F
100
AcDbEntity
  8
0
  6
CONTINUOUS
 62
     7
100
AcDbLine
 10
1851.7407753953
 20
1061.6800581293
 30
0.0
 11
1545.2407875546
 21
1061.6800581293
 31
0.0
  0
LINE
  5
477
330
1F
100
AcDbEntity
  8
0
  6
CONTINUOUS
 62
     7
100
AcDbLine
 10
1545.2407875546
 20
1061.6800581293
 30
0.0
 11
1545.2407875546
 21
1060.6800710039
 31
0.0
  0
LINE
  5
478
330
1F
100
AcDbEntity
  8
0
  6
CONTINUOUS
 62
     7
100
AcDbLine
 10
1851.7407753953
 20
1062.4300633746
 30
0.0
 11
1851.7407753953
 21
1061.6800581293
 31
0.0
  0
LINE
  5
479
330
1F
100
AcDbEntity
  8
0
  6
CONTINUOUS
 62
     7
100
AcDbLine
 10
1545.2407875546
 20
1061.6800581293
 30
0.0
 11
1545.2407875546
 21
1062.4300633746
 31
0.0
  0
LINE
  5
47A
330
1F
100
AcDbEntity
  8
0
  6
CONTINUOUS
 62
     7
100
AcDbLine
 10
1545.2407875546
 20
1062.4300633746
 30
0.0
 11
1544.4907823094
 21
1062.4300633746
 31
0.0
  0
LINE
  5
47B
330
1F
100
AcDbEntity
  8
0
  6
CONTINUOUS
 62
     7
100
AcDbLine
 10
1544.4907823094
 20
1062.4300633746
 30
0.0
 11
1544.4907823094
 21
1059.1800605135
 31
0.0
  0
LINE
  5
47C
330
1F
100
AcDbEntity
  8
0
  6
CONTINUOUS
 62
     7
100
AcDbLine
 10
1544.4907823094
 20
1059.1800605135
 30
0.0
 11
1542.7407750377
 21
1059.1800605135
 31
0.0
  0
ARC
  5
47D
330
1F
100
AcDbEntity
  8
0
  6
CONTINUOUS
 62
     7
100
AcDbCircle
 10
1542.740781475
 20
1054.1800671892
 30
0.0
 40
5.0
100
AcDbArc
 50
90.0
 51
180.0
  0
LINE
  5
47E
330
1F
100
AcDbEntity
  8
0
  6
CONTINUOUS
 62
     7
100
AcDbLine
 10
1537.740779806
 20
1054.1800652819
 30
0.0
 11
1537.740779806
 21
1051.6800676661
 31
0.0
  0
LINE
  5
47F
330
1F
100
AcDbEntity
  8
0
  6
CONTINUOUS
 62
     7
100
AcDbLine
 10
1535.2407821902
 20
1051.6800676661
 30
0.0
 11
1532.9907813558
 21
1051.6800676661
 31
0.0
  0
LINE
  5
480
330
1F
100
AcDbEntity
  8
0
  6
CONTINUOUS
 62
     7
100
AcDbLine
 10
1532.9907813558
 20
1051.6800676661
 30
0.0
 11
1529.9907752761
 21
1048.6800764876
 31
0.0
  0
LINE
  5
481
330
1F
100
AcDbEntity
  8
0
  6
CONTINUOUS
 62
     7
100
AcDbLine
 10
1529.9907752761
 20
1048.6800764876
 30
0.0
 11
1525.990782071
 21
1048.6800764876
 31
0.0
  0
LINE
  5
482
330
1F
100
AcDbEntity
  8
0
  6
CONTINUOUS
 62
     7
100
AcDbLine
 10
1525.990782071
 20
1048.6800764876
 30
0.0
 11
1522.9907759913
 21
1051.6800676661
 31
0.0
  0
LINE
  5
483
330
1F
100
AcDbEntity
  8
0
  6
CONTINUOUS
 62
     7
100
AcDbLine
 10
1522.9907759913
 20
1051.6800676661
 30
0.0
 11
1518.2407775411
 21
1051.6800676661
 31
0.0
  0
LINE
  5
484
330
1F
100
AcDbEntity
  8
0
  6
CONTINUOUS
 62
     7
100
AcDbLine
 10
1518.2407775411
 20
1051.6800676661
 30
0.0
 11
1518.2407775411
 21
1053.1800781565
 31
0.0
  0
ARC
  5
485
330
1F
100
AcDbEntity
  8
0
  6
CONTINUOUS
 62
     7
100
AcDbCircle
 10
1526.240781475
 20
1053.1800671892
 30
0.0
 40
8.000000000000226
100
AcDbArc
 50
135.0
 51
180.0
  0
LINE
  5
486
330
1F
100
AcDbEntity
  8
0
  6
CONTINUOUS
 62
     7
100
AcDbLine
 10
1520.5839255341
 20
1058.8369165736
 30
0.0
 11
1536.0839345941
 21
1074.3369256335
 31
0.0
  0
ARC
  5
487
330
1F
100
AcDbEntity
  8
0
  6
CONTINUOUS
 62
     7
100
AcDbCircle
 10
1541.740781475
 20
1068.6800671892
 30
0.0
 40
8.000000000000226
100
AcDbArc
 50
90.0
 51
135.0
  0
LINE
  5
488
330
1F
100
AcDbEntity
  8
0
  6
CONTINUOUS
 62
     7
100
AcDbLine
 10
1541.7407879123
 20
1076.6800736266
 30
0.0
 11
1855.2407750377
 21
1076.6800736266
 31
0.0
  0
ARC
  5
489
330
1F
100
AcDbEntity
  8
0
  6
CONTINUOUS
 62
     7
100
AcDbCircle
 10
1855.240781475
 20
1068.6800671892
 30
0.0
 40
7.999999999999904
100
AcDbArc
 50
45.0
 51
90.0
  0
LINE
  5
48A
330
1F
100
AcDbEntity
  8
0
  6
CONTINUOUS
 62
     7
100
AcDbLine
 10
1860.8976283559
 20
1074.3369256335
 30
0.0
 11
1876.3976374158
 21
1058.8369165736
 31
0.0
  0
ARC
  5
48B
330
1F
100
AcDbEntity
  8
0
  6
CONTINUOUS
 62
     7
100
AcDbCircle
 10
1870.740781475
 20
1053.1800671892
 30
0.0
 40
8.0
100
AcDbArc
 50
0.0
 51
45.0
  0
LINE
  5
48C
330
1F
100
AcDbEntity
  8
0
  6
CONTINUOUS
 62
     7
100
AcDbLine
 10
1878.7407854089
 20
1053.1800781565
 30
0.0
 11
1878.7407854089
 21
1051.6800676661
 31
0.0
  0
LINE
  5
48D
330
1F
100
AcDbEntity
  8
0
  6
CONTINUOUS
 62
     7
100
AcDbLine
 10
1878.7407854089
 20
1051.6800676661
 30
0.0
 11
1873.9907869586
 21
1051.6800676661
 31
0.0
  0
LINE
  5
48E
330
1F
100
AcDbEntity
  8
0
  6
CONTINUOUS
 62
     7
100
AcDbLine
 10
1873.9907869586
 20
1051.6800676661
 30
0.0
 11
1870.9907808789
 21
1048.6800764876
 31
0.0
  0
LINE
  5
48F
330
1F
100
AcDbEntity
  8
0
  6
CONTINUOUS
 62
     7
100
AcDbLine
 10
1870.9907808789
 20
1048.6800764876
 30
0.0
 11
1866.9907876738
 21
1048.6800764876
 31
0.0
  0
LINE
  5
490
330
1F
100
AcDbEntity
  8
0
  6
CONTINUOUS
 62
     7
100
AcDbLine
 10
1866.9907876738
 20
1048.6800764876
 30
0.0
 11
1863.9907815942
 21
1051.6800676661
 31
0.0
  0
LINE
  5
491
330
1F
100
AcDbEntity
  8
0
  6
CONTINUOUS
 62
     7
100
AcDbLine
 10
1863.9907815942
 20
1051.6800676661
 30
0.0
 11
1861.7407807597
 21
1051.6800676661
 31
0.0
  0
LINE
  5
492
330
1F
100
AcDbEntity
  8
0
  6
CONTINUOUS
 62
     7
100
AcDbLine
 10
1859.2407831439
 20
1051.6800676661
 30
0.0
 11
1859.2407831439
 21
1054.1800652819
 31
0.0
  0
ARC
  5
493
330
1F
100
AcDbEntity
  8
0
  6
CONTINUOUS
 62
     7
100
AcDbCircle
 10
1854.240781475
 20
1054.1800671892
 30
0.0
 40
5.0
100
AcDbArc
 50
0.0
 51
90.0
  0
LINE
  5
494
330
1F
100
AcDbEntity
  8
0
  6
CONTINUOUS
 62
     7
100
AcDbLine
 10
1854.2407879123
 20
1059.1800605135
 30
0.0
 11
1852.4907806405
 21
1059.1800605135
 31
0.0
  0
LINE
  5
495
330
1F
100
AcDbEntity
  8
0
  6
CONTINUOUS
 62
     7
100
AcDbLine
 10
1852.4907806405
 20
1059.1800605135
 30
0.0
 11
1852.4907806405
 21
1062.4300633746
 31
0.0
  0
LINE
  5
496
330
1F
100
AcDbEntity
  8
0
  6
CONTINUOUS
 62
     7
100
AcDbLine
 10
1852.4907806405
 20
1062.4300633746
 30
0.0
 11
1851.7407753953
 21
1062.4300633746
 31
0.0
  0
LINE
  5
497
330
1F
100
AcDbEntity
  8
0
  6
CONTINUOUS
 62
     7
100
AcDbLine
 10
1547.2407767066
 20
532.680073865
 30
0.0
 11
1547.2407767066
 21
531.1800633746
 31
0.0
  0
LINE
  5
498
330
1F
100
AcDbEntity
  8
0
  6
CONTINUOUS
 62
     7
100
AcDbLine
 10
1545.2407875546
 20
531.1800633746
 30
0.0
 11
1545.2407875546
 21
532.680073865
 31
0.0
  0
LINE
  5
499
330
1F
100
AcDbEntity
  8
0
  6
CONTINUOUS
 62
     7
100
AcDbLine
 10
1545.2407875546
 20
532.680073865
 30
0.0
 11
1547.2407767066
 21
532.680073865
 31
0.0
  0
LINE
  5
49A
330
1F
100
AcDbEntity
  8
0
  6
CONTINUOUS
 62
     7
100
AcDbLine
 10
1547.2407767066
 20
531.1800633746
 30
0.0
 11
1545.2407875546
 21
531.1800633746
 31
0.0
  0
LINE
  5
49B
330
1F
100
AcDbEntity
  8
0
  6
CONTINUOUS
 62
     7
100
AcDbLine
 10
1849.7407862433
 20
531.1800633746
 30
0.0
 11
1849.7407862433
 21
532.680073865
 31
0.0
  0
LINE
  5
49C
330
1F
100
AcDbEntity
  8
0
  6
CONTINUOUS
 62
     7
100
AcDbLine
 10
1547.2407767066
 20
532.680073865
 30
0.0
 11
1849.7407862433
 21
532.680073865
 31
0.0
  0
LINE
  5
49D
330
1F
100
AcDbEntity
  8
0
  6
CONTINUOUS
 62
     7
100
AcDbLine
 10
1547.2407767066
 20
531.1800633746
 30
0.0
 11
1849.7407862433
 21
531.1800633746
 31
0.0
  0
LINE
  5
49E
330
1F
100
AcDbEntity
  8
0
  6
CONTINUOUS
 62
     7
100
AcDbLine
 10
1851.7407753953
 20
532.680073865
 30
0.0
 11
1851.7407753953
 21
531.1800633746
 31
0.0
  0
LINE
  5
49F
330
1F
100
AcDbEntity
  8
0
  6
CONTINUOUS
 62
     7
100
AcDbLine
 10
1849.7407862433
 20
532.680073865
 30
0.0
 11
1851.7407753953
 21
532.680073865
 31
0.0
  0
LINE
  5
4A0
330
1F
100
AcDbEntity
  8
0
  6
CONTINUOUS
 62
     7
100
AcDbLine
 10
1851.7407753953
 20
531.1800633746
 30
0.0
 11
1849.7407862433
 21
531.1800633746
 31
0.0
  0
LINE
  5
4A1
330
1F
100
AcDbEntity
  8
0
  6
CONTINUOUS
 62
     7
100
AcDbLine
 10
1851.7407753953
 20
530.1800762492
 30
0.0
 11
1851.7407753953
 21
531.1800633746
 31
0.0
  0
LINE
  5
4A2
330
1F
100
AcDbEntity
  8
0
  6
CONTINUOUS
 62
     7
100
AcDbLine
 10
1545.2407875546
 20
530.1800762492
 30
0.0
 11
1851.7407753953
 21
530.1800762492
 31
0.0
  0
LINE
  5
4A3
330
1F
100
AcDbEntity
  8
0
  6
CONTINUOUS
 62
     7
100
AcDbLine
 10
1545.2407875546
 20
531.1800633746
 30
0.0
 11
1545.2407875546
 21
530.1800762492
 31
0.0
  0
LINE
  5
4A4
330
1F
100
AcDbEntity
  8
0
  6
CONTINUOUS
 62
     7
100
AcDbLine
 10
1545.2407875546
 20
529.4300710039
 30
0.0
 11
1545.2407875546
 21
530.1800762492
 31
0.0
  0
LINE
  5
4A5
330
1F
100
AcDbEntity
  8
0
  6
CONTINUOUS
 62
     7
100
AcDbLine
 10
1851.7407753953
 20
530.1800762492
 30
0.0
 11
1851.7407753953
 21
529.4300710039
 31
0.0
  0
LINE
  5
4A6
330
1F
100
AcDbEntity
  8
0
  6
CONTINUOUS
 62
     7
100
AcDbLine
 10
1851.7407753953
 20
529.4300710039
 30
0.0
 11
1852.4907806405
 21
529.4300710039
 31
0.0
  0
LINE
  5
4A7
330
1F
100
AcDbEntity
  8
0
  6
CONTINUOUS
 62
     7
100
AcDbLine
 10
1852.4907806405
 20
529.4300710039
 30
0.0
 11
1852.4907806405
 21
532.680073865
 31
0.0
  0
LINE
  5
4A8
330
1F
100
AcDbEntity
  8
0
  6
CONTINUOUS
 62
     7
100
AcDbLine
 10
1852.4907806405
 20
532.680073865
 30
0.0
 11
1854.2407879123
 21
532.680073865
 31
0.0
  0
ARC
  5
4A9
330
1F
100
AcDbEntity
  8
0
  6
CONTINUOUS
 62
     7
100
AcDbCircle
 10
1854.240781475
 20
537.6800671892
 30
0.0
 40
5.0
100
AcDbArc
 50
270.0
 51
0.0
  0
LINE
  5
4AA
330
1F
100
AcDbEntity
  8
0
  6
CONTINUOUS
 62
     7
100
AcDbLine
 10
1859.2407831439
 20
537.6800690966
 30
0.0
 11
1859.2407831439
 21
540.1800667124
 31
0.0
  0
LINE
  5
4AB
330
1F
100
AcDbEntity
  8
0
  6
CONTINUOUS
 62
     7
100
AcDbLine
 10
1861.7407807597
 20
540.1800667124
 30
0.0
 11
1863.9907815942
 21
540.1800667124
 31
0.0
  0
LINE
  5
4AC
330
1F
100
AcDbEntity
  8
0
  6
CONTINUOUS
 62
     7
100
AcDbLine
 10
1863.9907815942
 20
540.1800667124
 30
0.0
 11
1866.9907876738
 21
543.1800578909
 31
0.0
  0
LINE
  5
4AD
330
1F
100
AcDbEntity
  8
0
  6
CONTINUOUS
 62
     7
100
AcDbLine
 10
1866.9907876738
 20
543.1800578909
 30
0.0
 11
1870.9907808789
 21
543.1800578909
 31
0.0
  0
LINE
  5
4AE
330
1F
100
AcDbEntity
  8
0
  6
CONTINUOUS
 62
     7
100
AcDbLine
 10
1870.9907808789
 20
543.1800578909
 30
0.0
 11
1873.9907869586
 21
540.1800667124
 31
0.0
  0
LINE
  5
4AF
330
1F
100
AcDbEntity
  8
0
  6
CONTINUOUS
 62
     7
100
AcDbLine
 10
1873.9907869586
 20
540.1800667124
 30
0.0
 11
1878.7407854089
 21
540.1800667124
 31
0.0
  0
LINE
  5
4B0
330
1F
100
AcDbEntity
  8
0
  6
CONTINUOUS
 62
     7
100
AcDbLine
 10
1878.7407854089
 20
540.1800667124
 30
0.0
 11
1878.7407854089
 21
538.680056222
 31
0.0
  0
ARC
  5
4B1
330
1F
100
AcDbEntity
  8
0
  6
CONTINUOUS
 62
     7
100
AcDbCircle
 10
1870.740781475
 20
538.6800671892
 30
0.0
 40
8.0
100
AcDbArc
 50
315.0
 51
0.0
  0
LINE
  5
4B2
330
1F
100
AcDbEntity
  8
0
  6
CONTINUOUS
 62
     7
100
AcDbLine
 10
1876.3976374158
 20
533.0232178049
 30
0.0
 11
1860.8976283559
 21
517.523208745
 31
0.0
  0
ARC
  5
4B3
330
1F
100
AcDbEntity
  8
0
  6
CONTINUOUS
 62
     7
100
AcDbCircle
 10
1855.240781475
 20
523.1800671892
 30
0.0
 40
7.999999999999904
100
AcDbArc
 50
270.0
 51
315.0
  0
LINE
  5
4B4
330
1F
100
AcDbEntity
  8
0
  6
CONTINUOUS
 62
     7
100
AcDbLine
 10
1855.2407750377
 20
515.1800607519
 30
0.0
 11
1541.7407879123
 21
515.1800607519
 31
0.0
  0
ARC
  5
4B5
330
1F
100
AcDbEntity
  8
0
  6
CONTINUOUS
 62
     7
100
AcDbCircle
 10
1541.740781475
 20
523.1800671892
 30
0.0
 40
7.999999999999984
100
AcDbArc
 50
225.0
 51
270.0
  0
LINE
  5
4B6
330
1F
100
AcDbEntity
  8
0
  6
CONTINUOUS
 62
     7
100
AcDbLine
 10
1536.0839345941
 20
517.523208745
 30
0.0
 11
1520.5839255341
 21
533.0232178049
 31
0.0
  0
ARC
  5
4B7
330
1F
100
AcDbEntity
  8
0
  6
CONTINUOUS
 62
     7
100
AcDbCircle
 10
1526.240781475
 20
538.6800671892
 30
0.0
 40
8.0
100
AcDbArc
 50
180.0
 51
225.0
  0
LINE
  5
4B8
330
1F
100
AcDbEntity
  8
0
  6
CONTINUOUS
 62
     7
100
AcDbLine
 10
1518.2407775411
 20
538.680056222
 30
0.0
 11
1518.2407775411
 21
540.1800667124
 31
0.0
  0
LINE
  5
4B9
330
1F
100
AcDbEntity
  8
0
  6
CONTINUOUS
 62
     7
100
AcDbLine
 10
1518.2407775411
 20
540.1800667124
 30
0.0
 11
1522.9907759913
 21
540.1800667124
 31
0.0
  0
LINE
  5
4BA
330
1F
100
AcDbEntity
  8
0
  6
CONTINUOUS
 62
     7
100
AcDbLine
 10
1522.9907759913
 20
540.1800667124
 30
0.0
 11
1525.990782071
 21
543.1800578909
 31
0.0
  0
LINE
  5
4BB
330
1F
100
AcDbEntity
  8
0
  6
CONTINUOUS
 62
     7
100
AcDbLine
 10
1525.990782071
 20
543.1800578909
 30
0.0
 11
1529.9907752761
 21
543.1800578909
 31
0.0
  0
LINE
  5
4BC
330
1F
100
AcDbEntity
  8
0
  6
CONTINUOUS
 62
     7
100
AcDbLine
 10
1529.9907752761
 20
543.1800578909
 30
0.0
 11
1532.9907813558
 21
540.1800667124
 31
0.0
  0
LINE
  5
4BD
330
1F
100
AcDbEntity
  8
0
  6
CONTINUOUS
 62
     7
100
AcDbLine
 10
1532.9907813558
 20
540.1800667124
 30
0.0
 11
1535.2407821902
 21
540.1800667124
 31
0.0
  0
LINE
  5
4BE
330
1F
100
AcDbEntity
  8
0
  6
CONTINUOUS
 62
     7
100
AcDbLine
 10
1537.740779806
 20
540.1800667124
 30
0.0
 11
1537.740779806
 21
537.6800690966
 31
0.0
  0
ARC
  5
4BF
330
1F
100
AcDbEntity
  8
0
  6
CONTINUOUS
 62
     7
100
AcDbCircle
 10
1542.740781475
 20
537.6800671892
 30
0.0
 40
5.0
100
AcDbArc
 50
180.0
 51
270.0
  0
LINE
  5
4C0
330
1F
100
AcDbEntity
  8
0
  6
CONTINUOUS
 62
     7
100
AcDbLine
 10
1542.7407750377
 20
532.680073865
 30
0.0
 11
1544.4907823094
 21
532.680073865
 31
0.0
  0
LINE
  5
4C1
330
1F
100
AcDbEntity
  8
0
  6
CONTINUOUS
 62
     7
100
AcDbLine
 10
1544.4907823094
 20
532.680073865
 30
0.0
 11
1544.4907823094
 21
529.4300710039
 31
0.0
  0
LINE
  5
4C2
330
1F
100
AcDbEntity
  8
0
  6
CONTINUOUS
 62
     7
100
AcDbLine
 10
1544.4907823094
 20
529.4300710039
 30
0.0
 11
1545.2407875546
 21
529.4300710039
 31
0.0
  0
LINE
  5
4C3
330
1F
100
AcDbEntity
  8
0
  6
CONTINUOUS
 62
     7
100
AcDbLine
 10
1518.2407775411
 20
586.6800640898
 30
0.0
 11
1519.7407880315
 21
586.6800640898
 31
0.0
  0
LINE
  5
4C4
330
1F
100
AcDbEntity
  8
0
  6
CONTINUOUS
 62
     7
100
AcDbLine
 10
1519.7407880315
 20
586.6800640898
 30
0.0
 11
1519.7407880315
 21
584.6800600367
 31
0.0
  0
LINE
  5
4C5
330
1F
100
AcDbEntity
  8
0
  6
CONTINUOUS
 62
     7
100
AcDbLine
 10
1519.7407880315
 20
584.6800600367
 30
0.0
 11
1518.2407775411
 21
584.6800600367
 31
0.0
  0
LINE
  5
4C6
330
1F
100
AcDbEntity
  8
0
  6
CONTINUOUS
 62
     7
100
AcDbLine
 10
1518.2407775411
 20
584.6800600367
 30
0.0
 11
1518.2407775411
 21
586.6800640898
 31
0.0
  0
LINE
  5
4C7
330
1F
100
AcDbEntity
  8
0
  6
CONTINUOUS
 62
     7
100
AcDbLine
 10
1519.7407880315
 20
605.6800727921
 30
0.0
 11
1518.2407775411
 21
605.6800727921
 31
0.0
  0
LINE
  5
4C8
330
1F
100
AcDbEntity
  8
0
  6
CONTINUOUS
 62
     7
100
AcDbLine
 10
1519.7407880315
 20
605.6800727921
 30
0.0
 11
1519.7407880315
 21
586.6800640898
 31
0.0
  0
LINE
  5
4C9
330
1F
100
AcDbEntity
  8
0
  6
CONTINUOUS
 62
     7
100
AcDbLine
 10
1518.2407775411
 20
605.6800727921
 30
0.0
 11
1518.2407775411
 21
586.6800640898
 31
0.0
  0
LINE
  5
4CA
330
1F
100
AcDbEntity
  8
0
  6
CONTINUOUS
 62
     7
100
AcDbLine
 10
1518.2407775411
 20
607.680061944
 30
0.0
 11
1519.7407880315
 21
607.680061944
 31
0.0
  0
LINE
  5
4CB
330
1F
100
AcDbEntity
  8
0
  6
CONTINUOUS
 62
     7
100
AcDbLine
 10
1519.7407880315
 20
607.680061944
 30
0.0
 11
1519.7407880315
 21
605.6800727921
 31
0.0
  0
LINE
  5
4CC
330
1F
100
AcDbEntity
  8
0
  6
CONTINUOUS
 62
     7
100
AcDbLine
 10
1518.2407775411
 20
605.6800727921
 30
0.0
 11
1518.2407775411
 21
607.680061944
 31
0.0
  0
LINE
  5
4CD
330
1F
100
AcDbEntity
  8
0
  6
CONTINUOUS
 62
     7
100
AcDbLine
 10
1518.2407775411
 20
986.1800615864
 30
0.0
 11
1519.7407880315
 21
986.1800615864
 31
0.0
  0
LINE
  5
4CE
330
1F
100
AcDbEntity
  8
0
  6
CONTINUOUS
 62
     7
100
AcDbLine
 10
1519.7407880315
 20
986.1800615864
 30
0.0
 11
1519.7407880315
 21
984.1800724345
 31
0.0
  0
LINE
  5
4CF
330
1F
100
AcDbEntity
  8
0
  6
CONTINUOUS
 62
     7
100
AcDbLine
 10
1519.7407880315
 20
984.1800724345
 30
0.0
 11
1518.2407775411
 21
984.1800724345
 31
0.0
  0
LINE
  5
4D0
330
1F
100
AcDbEntity
  8
0
  6
CONTINUOUS
 62
     7
100
AcDbLine
 10
1518.2407775411
 20
984.1800724345
 30
0.0
 11
1518.2407775411
 21
986.1800615864
 31
0.0
  0
LINE
  5
4D1
330
1F
100
AcDbEntity
  8
0
  6
CONTINUOUS
 62
     7
100
AcDbLine
 10
1519.7407880315
 20
1005.1800702887
 30
0.0
 11
1518.2407775411
 21
1005.1800702887
 31
0.0
  0
LINE
  5
4D2
330
1F
100
AcDbEntity
  8
0
  6
CONTINUOUS
 62
     7
100
AcDbLine
 10
1519.7407880315
 20
986.1800615864
 30
0.0
 11
1519.7407880315
 21
1005.1800702887
 31
0.0
  0
LINE
  5
4D3
330
1F
100
AcDbEntity
  8
0
  6
CONTINUOUS
 62
     7
100
AcDbLine
 10
1518.2407775411
 20
986.1800615864
 30
0.0
 11
1518.2407775411
 21
1005.1800702887
 31
0.0
  0
LINE
  5
4D4
330
1F
100
AcDbEntity
  8
0
  6
CONTINUOUS
 62
     7
100
AcDbLine
 10
1518.2407775411
 20
1007.1800743418
 30
0.0
 11
1519.7407880315
 21
1007.1800743418
 31
0.0
  0
LINE
  5
4D5
330
1F
100
AcDbEntity
  8
0
  6
CONTINUOUS
 62
     7
100
AcDbLine
 10
1519.7407880315
 20
1007.1800743418
 30
0.0
 11
1519.7407880315
 21
1005.1800702887
 31
0.0
  0
LINE
  5
4D6
330
1F
100
AcDbEntity
  8
0
  6
CONTINUOUS
 62
     7
100
AcDbLine
 10
1518.2407775411
 20
1005.1800702887
 30
0.0
 11
1518.2407775411
 21
1007.1800743418
 31
0.0
  0
LINE
  5
4D7
330
1F
100
AcDbEntity
  8
0
  6
CONTINUOUS
 62
     7
100
AcDbLine
 10
1518.2067134866
 20
588.1800745802
 30
0.0
 11
1518.2407775411
 21
588.1800745802
 31
0.0
  0
LINE
  5
4D8
330
1F
100
AcDbEntity
  8
0
  6
CONTINUOUS
 62
     7
100
AcDbLine
 10
1518.2067134866
 20
604.1800623017
 30
0.0
 11
1518.2067134866
 21
588.1800745802
 31
0.0
  0
LINE
  5
4D9
330
1F
100
AcDbEntity
  8
0
  6
CONTINUOUS
 62
     7
100
AcDbLine
 10
1518.2407775411
 20
604.1800623017
 30
0.0
 11
1518.2067134866
 21
604.1800623017
 31
0.0
  0
LINE
  5
4DA
330
1F
100
AcDbEntity
  8
0
  6
CONTINUOUS
 62
     7
100
AcDbLine
 10
1518.2067134866
 20
1003.6800597983
 30
0.0
 11
1518.2067134866
 21
987.6800720768
 31
0.0
  0
LINE
  5
4DB
330
1F
100
AcDbEntity
  8
0
  6
CONTINUOUS
 62
     7
100
AcDbLine
 10
1518.2407775411
 20
1003.6800597983
 30
0.0
 11
1518.2067134866
 21
1003.6800597983
 31
0.0
  0
LINE
  5
4DC
330
1F
100
AcDbEntity
  8
0
  6
CONTINUOUS
 62
     7
100
AcDbLine
 10
1518.2067134866
 20
987.6800720768
 30
0.0
 11
1518.2407775411
 21
987.6800720768
 31
0.0
  0
LINE
  5
4DD
330
1F
100
AcDbEntity
  8
0
  6
CONTINUOUS
 62
     7
100
AcDbLine
 10
1514.4879051932
 20
604.1800623017
 30
0.0
 11
1514.4879051932
 21
588.1800745802
 31
0.0
  0
LINE
  5
4DE
330
1F
100
AcDbEntity
  8
0
  6
CONTINUOUS
 62
     7
100
AcDbLine
 10
1518.2067134866
 20
604.1800623017
 30
0.0
 11
1514.4879051932
 21
604.1800623017
 31
0.0
  0
LINE
  5
4DF
330
1F
100
AcDbEntity
  8
0
  6
CONTINUOUS
 62
     7
100
AcDbLine
 10
1514.4879051932
 20
588.1800745802
 30
0.0
 11
1518.2067134866
 21
588.1800745802
 31
0.0
  0
LINE
  5
4E0
330
1F
100
AcDbEntity
  8
0
  6
CONTINUOUS
 62
     7
100
AcDbLine
 10
1514.4879051932
 20
987.6800720768
 30
0.0
 11
1514.4879051932
 21
1003.6800597983
 31
0.0
  0
LINE
  5
4E1
330
1F
100
AcDbEntity
  8
0
  6
CONTINUOUS
 62
     7
100
AcDbLine
 10
1514.4879051932
 20
1003.6800597983
 30
0.0
 11
1518.2067134866
 21
1003.6800597983
 31
0.0
  0
LINE
  5
4E2
330
1F
100
AcDbEntity
  8
0
  6
CONTINUOUS
 62
     7
100
AcDbLine
 10
1518.2067134866
 20
987.6800720768
 30
0.0
 11
1514.4879051932
 21
987.6800720768
 31
0.0
  0
LINE
  5
4E3
330
1F
100
AcDbEntity
  8
0
  6
CONTINUOUS
 62
     7
100
AcDbLine
 10
1536.2407842168
 20
1039.6800731497
 30
0.0
 11
1538.7407818326
 21
1039.6800731497
 31
0.0
  0
LINE
  5
4E4
330
1F
100
AcDbEntity
  8
0
  6
CONTINUOUS
 62
     7
100
AcDbLine
 10
1536.2407842168
 20
552.1800612288
 30
0.0
 11
1536.2407842168
 21
1039.6800731497
 31
0.0
  0
LINE
  5
4E5
330
1F
100
AcDbEntity
  8
0
  6
CONTINUOUS
 62
     7
100
AcDbLine
 10
1538.7407818326
 20
552.1800612288
 30
0.0
 11
1536.2407842168
 21
552.1800612288
 31
0.0
  0
LINE
  5
4E6
330
1F
100
AcDbEntity
  8
0
  6
CONTINUOUS
 62
     7
100
AcDbLine
 10
1539.7407838591
 20
1039.6800731497
 30
0.0
 11
1538.7407818326
 21
1039.6800731497
 31
0.0
  0
ARC
  5
4E7
330
1F
100
AcDbEntity
  8
0
  6
CONTINUOUS
 62
     7
100
AcDbCircle
 10
1539.740781475
 20
1036.6800671892
 30
0.0
 40
3.0
100
AcDbArc
 50
0.0
 51
90.0
  0
LINE
  5
4E8
330
1F
100
AcDbEntity
  8
0
  6
CONTINUOUS
 62
     7
100
AcDbLine
 10
1542.7407750377
 20
555.1800673085
 30
0.0
 11
1542.7407750377
 21
789.8115609961
 31
0.0
  0
LINE
  5
4E9
330
1F
100
AcDbEntity
  8
0
  6
CONTINUOUS
 62
     7
100
AcDbLine
 10
1542.7407750377
 20
802.8141997012
 30
0.0
 11
1542.7407750377
 21
1036.68006707
 31
0.0
  0
ARC
  5
4EA
330
1F
100
AcDbEntity
  8
0
  6
CONTINUOUS
 62
     7
100
AcDbCircle
 10
1539.740781475
 20
555.1800671892
 30
0.0
 40
3.0
100
AcDbArc
 50
270.0
 51
0.0
  0
LINE
  5
4EB
330
1F
100
AcDbEntity
  8
0
  6
CONTINUOUS
 62
     7
100
AcDbLine
 10
1538.7407818326
 20
552.1800612288
 30
0.0
 11
1539.7407838591
 21
552.1800612288
 31
0.0
  0
LINE
  5
4EC
330
1F
100
AcDbEntity
  8
0
  6
CONTINUOUS
 62
     7
100
AcDbLine
 10
1536.2407842168
 20
542.1800707655
 30
0.0
 11
1537.740779806
 21
542.1800707655
 31
0.0
  0
LINE
  5
4ED
330
1F
100
AcDbEntity
  8
0
  6
CONTINUOUS
 62
     7
100
AcDbLine
 10
1537.740779806
 20
552.1800612288
 30
0.0
 11
1537.740779806
 21
542.1800707655
 31
0.0
  0
LINE
  5
4EE
330
1F
100
AcDbEntity
  8
0
  6
CONTINUOUS
 62
     7
100
AcDbLine
 10
1536.2407842168
 20
552.1800612288
 30
0.0
 11
1536.2407842168
 21
542.1800707655
 31
0.0
  0
LINE
  5
4EF
330
1F
100
AcDbEntity
  8
0
  6
CONTINUOUS
 62
     7
100
AcDbLine
 10
1537.740779806
 20
1049.680063613
 30
0.0
 11
1536.2407842168
 21
1049.680063613
 31
0.0
  0
LINE
  5
4F0
330
1F
100
AcDbEntity
  8
0
  6
CONTINUOUS
 62
     7
100
AcDbLine
 10
1537.740779806
 20
1049.680063613
 30
0.0
 11
1537.740779806
 21
1039.6800731497
 31
0.0
  0
LINE
  5
4F1
330
1F
100
AcDbEntity
  8
0
  6
CONTINUOUS
 62
     7
100
AcDbLine
 10
1536.2407842168
 20
1049.680063613
 30
0.0
 11
1536.2407842168
 21
1039.6800731497
 31
0.0
  0
LINE
  5
4F2
330
1F
100
AcDbEntity
  8
0
  6
CONTINUOUS
 62
     7
100
AcDbLine
 10
1537.740779806
 20
540.1800667124
 30
0.0
 11
1536.2407842168
 21
540.1800667124
 31
0.0
  0
LINE
  5
4F3
330
1F
100
AcDbEntity
  8
0
  6
CONTINUOUS
 62
     7
100
AcDbLine
 10
1537.740779806
 20
542.1800707655
 30
0.0
 11
1537.740779806
 21
540.1800667124
 31
0.0
  0
LINE
  5
4F4
330
1F
100
AcDbEntity
  8
0
  6
CONTINUOUS
 62
     7
100
AcDbLine
 10
1536.2407842168
 20
540.1800667124
 30
0.0
 11
1536.2407842168
 21
542.1800707655
 31
0.0
  0
LINE
  5
4F5
330
1F
100
AcDbEntity
  8
0
  6
CONTINUOUS
 62
     7
100
AcDbLine
 10
1536.2407842168
 20
1051.6800676661
 30
0.0
 11
1537.740779806
 21
1051.6800676661
 31
0.0
  0
LINE
  5
4F6
330
1F
100
AcDbEntity
  8
0
  6
CONTINUOUS
 62
     7
100
AcDbLine
 10
1537.740779806
 20
1051.6800676661
 30
0.0
 11
1537.740779806
 21
1049.680063613
 31
0.0
  0
LINE
  5
4F7
330
1F
100
AcDbEntity
  8
0
  6
CONTINUOUS
 62
     7
100
AcDbLine
 10
1536.2407842168
 20
1049.680063613
 30
0.0
 11
1536.2407842168
 21
1051.6800676661
 31
0.0
  0
LINE
  5
4F8
330
1F
100
AcDbEntity
  8
0
  6
CONTINUOUS
 62
     7
100
AcDbLine
 10
1520.7407751569
 20
584.6800600367
 30
0.0
 11
1520.7407751569
 21
587.6800661164
 31
0.0
  0
LINE
  5
4F9
330
1F
100
AcDbEntity
  8
0
  6
CONTINUOUS
 62
     7
100
AcDbLine
 10
1519.7407880315
 20
587.6800661164
 30
0.0
 11
1520.7407751569
 21
587.6800661164
 31
0.0
  0
LINE
  5
4FA
330
1F
100
AcDbEntity
  8
0
  6
CONTINUOUS
 62
     7
100
AcDbLine
 10
1519.7407880315
 20
584.6800600367
 30
0.0
 11
1520.7407751569
 21
584.6800600367
 31
0.0
  0
LINE
  5
4FB
330
1F
100
AcDbEntity
  8
0
  6
CONTINUOUS
 62
     7
100
AcDbLine
 10
1520.7407751569
 20
607.680061944
 30
0.0
 11
1519.7407880315
 21
607.680061944
 31
0.0
  0
LINE
  5
4FC
330
1F
100
AcDbEntity
  8
0
  6
CONTINUOUS
 62
     7
100
AcDbLine
 10
1520.7407751569
 20
604.6800707655
 30
0.0
 11
1520.7407751569
 21
607.680061944
 31
0.0
  0
LINE
  5
4FD
330
1F
100
AcDbEntity
  8
0
  6
CONTINUOUS
 62
     7
100
AcDbLine
 10
1520.7407751569
 20
604.6800707655
 30
0.0
 11
1519.7407880315
 21
604.6800707655
 31
0.0
  0
LINE
  5
4FE
330
1F
100
AcDbEntity
  8
0
  6
CONTINUOUS
 62
     7
100
AcDbLine
 10
1520.7407751569
 20
987.180063613
 30
0.0
 11
1519.7407880315
 21
987.180063613
 31
0.0
  0
LINE
  5
4FF
330
1F
100
AcDbEntity
  8
0
  6
CONTINUOUS
 62
     7
100
AcDbLine
 10
1520.7407751569
 20
984.1800724345
 30
0.0
 11
1520.7407751569
 21
987.180063613
 31
0.0
  0
LINE
  5
500
330
1F
100
AcDbEntity
  8
0
  6
CONTINUOUS
 62
     7
100
AcDbLine
 10
1519.7407880315
 20
984.1800724345
 30
0.0
 11
1520.7407751569
 21
984.1800724345
 31
0.0
  0
LINE
  5
501
330
1F
100
AcDbEntity
  8
0
  6
CONTINUOUS
 62
     7
100
AcDbLine
 10
1520.7407751569
 20
1007.1800743418
 30
0.0
 11
1519.7407880315
 21
1007.1800743418
 31
0.0
  0
LINE
  5
502
330
1F
100
AcDbEntity
  8
0
  6
CONTINUOUS
 62
     7
100
AcDbLine
 10
1520.7407751569
 20
1004.1800682621
 30
0.0
 11
1520.7407751569
 21
1007.1800743418
 31
0.0
  0
LINE
  5
503
330
1F
100
AcDbEntity
  8
0
  6
CONTINUOUS
 62
     7
100
AcDbLine
 10
1519.7407880315
 20
1004.1800682621
 30
0.0
 11
1520.7407751569
 21
1004.1800682621
 31
0.0
  0
LINE
  5
504
330
1F
100
AcDbEntity
  8
0
  6
CONTINUOUS
 62
     7
100
AcDbLine
 10
1536.2407842168
 20
1051.6800676661
 30
0.0
 11
1535.2407821902
 21
1051.6800676661
 31
0.0
  0
LINE
  5
505
330
1F
100
AcDbEntity
  8
0
  6
CONTINUOUS
 62
     7
100
AcDbLine
 10
1535.2407821902
 20
1051.6800676661
 30
0.0
 11
1535.2407821902
 21
540.1800667124
 31
0.0
  0
LINE
  5
506
330
1F
100
AcDbEntity
  8
0
  6
CONTINUOUS
 62
     7
100
AcDbLine
 10
1535.2407821902
 20
540.1800667124
 30
0.0
 11
1536.2407842168
 21
540.1800667124
 31
0.0
  0
LINE
  5
507
330
1F
100
AcDbEntity
  8
0
  6
CONTINUOUS
 62
     7
100
AcDbLine
 10
1520.7407751569
 20
607.680061944
 30
0.0
 11
1520.7407751569
 21
608.1800704079
 31
0.0
  0
LINE
  5
508
330
1F
100
AcDbEntity
  8
0
  6
CONTINUOUS
 62
     7
100
AcDbLine
 10
1520.7407751569
 20
608.1800704079
 30
0.0
 11
1518.2407775411
 21
608.1800704079
 31
0.0
  0
LINE
  5
509
330
1F
100
AcDbEntity
  8
0
  6
CONTINUOUS
 62
     7
100
AcDbLine
 10
1518.2407775411
 20
608.1800704079
 30
0.0
 11
1518.2407775411
 21
983.6800639706
 31
0.0
  0
LINE
  5
50A
330
1F
100
AcDbEntity
  8
0
  6
CONTINUOUS
 62
     7
100
AcDbLine
 10
1518.2407775411
 20
983.6800639706
 30
0.0
 11
1520.7407751569
 21
983.6800639706
 31
0.0
  0
LINE
  5
50B
330
1F
100
AcDbEntity
  8
0
  6
CONTINUOUS
 62
     7
100
AcDbLine
 10
1520.7407751569
 20
983.6800639706
 30
0.0
 11
1520.7407751569
 21
984.1800724345
 31
0.0
  0
LINE
  5
50C
330
1F
100
AcDbEntity
  8
0
  6
CONTINUOUS
 62
     7
100
AcDbLine
 10
1520.7407751569
 20
987.180063613
 30
0.0
 11
1521.2407836207
 21
987.180063613
 31
0.0
  0
LINE
  5
50D
330
1F
100
AcDbEntity
  8
0
  6
CONTINUOUS
 62
     7
100
AcDbLine
 10
1521.2407836207
 20
1004.1800682621
 30
0.0
 11
1521.2407836207
 21
987.180063613
 31
0.0
  0
LINE
  5
50E
330
1F
100
AcDbEntity
  8
0
  6
CONTINUOUS
 62
     7
100
AcDbLine
 10
1521.2407836207
 20
1004.1800682621
 30
0.0
 11
1520.7407751569
 21
1004.1800682621
 31
0.0
  0
LINE
  5
50F
330
1F
100
AcDbEntity
  8
0
  6
CONTINUOUS
 62
     7
100
AcDbLine
 10
1520.7407751569
 20
1007.1800743418
 30
0.0
 11
1520.7407751569
 21
1007.6800679045
 31
0.0
  0
LINE
  5
510
330
1F
100
AcDbEntity
  8
0
  6
CONTINUOUS
 62
     7
100
AcDbLine
 10
1520.7407751569
 20
1007.6800679045
 30
0.0
 11
1518.2407775411
 21
1007.6800679045
 31
0.0
  0
LINE
  5
511
330
1F
100
AcDbEntity
  8
0
  6
CONTINUOUS
 62
     7
100
AcDbLine
 10
1518.2407775411
 20
1007.6800679045
 30
0.0
 11
1518.2407775411
 21
1051.6800676661
 31
0.0
  0
LINE
  5
512
330
1F
100
AcDbEntity
  8
0
  6
CONTINUOUS
 62
     7
100
AcDbLine
 10
1518.2407775411
 20
540.1800667124
 30
0.0
 11
1518.2407775411
 21
584.180066474
 31
0.0
  0
LINE
  5
513
330
1F
100
AcDbEntity
  8
0
  6
CONTINUOUS
 62
     7
100
AcDbLine
 10
1518.2407775411
 20
584.180066474
 30
0.0
 11
1520.7407751569
 21
584.180066474
 31
0.0
  0
LINE
  5
514
330
1F
100
AcDbEntity
  8
0
  6
CONTINUOUS
 62
     7
100
AcDbLine
 10
1520.7407751569
 20
584.180066474
 30
0.0
 11
1520.7407751569
 21
584.6800600367
 31
0.0
  0
LINE
  5
515
330
1F
100
AcDbEntity
  8
0
  6
CONTINUOUS
 62
     7
100
AcDbLine
 10
1521.2407836207
 20
587.6800661164
 30
0.0
 11
1520.7407751569
 21
587.6800661164
 31
0.0
  0
LINE
  5
516
330
1F
100
AcDbEntity
  8
0
  6
CONTINUOUS
 62
     7
100
AcDbLine
 10
1521.2407836207
 20
604.6800707655
 30
0.0
 11
1521.2407836207
 21
587.6800661164
 31
0.0
  0
LINE
  5
517
330
1F
100
AcDbEntity
  8
0
  6
CONTINUOUS
 62
     7
100
AcDbLine
 10
1520.7407751569
 20
604.6800707655
 30
0.0
 11
1521.2407836207
 21
604.6800707655
 31
0.0
  0
LINE
  5
518
330
1F
100
AcDbEntity
  8
0
  6
CONTINUOUS
 62
     7
100
AcDbLine
 10
1878.7407854089
 20
584.6800600367
 30
0.0
 11
1877.2407749185
 21
584.6800600367
 31
0.0
  0
LINE
  5
519
330
1F
100
AcDbEntity
  8
0
  6
CONTINUOUS
 62
     7
100
AcDbLine
 10
1877.2407749185
 20
584.6800600367
 30
0.0
 11
1877.2407749185
 21
586.6800640898
 31
0.0
  0
LINE
  5
51A
330
1F
100
AcDbEntity
  8
0
  6
CONTINUOUS
 62
     7
100
AcDbLine
 10
1877.2407749185
 20
586.6800640898
 30
0.0
 11
1878.7407854089
 21
586.6800640898
 31
0.0
  0
LINE
  5
51B
330
1F
100
AcDbEntity
  8
0
  6
CONTINUOUS
 62
     7
100
AcDbLine
 10
1878.7407854089
 20
586.6800640898
 30
0.0
 11
1878.7407854089
 21
584.6800600367
 31
0.0
  0
LINE
  5
51C
330
1F
100
AcDbEntity
  8
0
  6
CONTINUOUS
 62
     7
100
AcDbLine
 10
1878.7407854089
 20
605.6800727921
 30
0.0
 11
1877.2407749185
 21
605.6800727921
 31
0.0
  0
LINE
  5
51D
330
1F
100
AcDbEntity
  8
0
  6
CONTINUOUS
 62
     7
100
AcDbLine
 10
1878.7407854089
 20
605.6800727921
 30
0.0
 11
1878.7407854089
 21
586.6800640898
 31
0.0
  0
LINE
  5
51E
330
1F
100
AcDbEntity
  8
0
  6
CONTINUOUS
 62
     7
100
AcDbLine
 10
1877.2407749185
 20
605.6800727921
 30
0.0
 11
1877.2407749185
 21
586.6800640898
 31
0.0
  0
LINE
  5
51F
330
1F
100
AcDbEntity
  8
0
  6
CONTINUOUS
 62
     7
100
AcDbLine
 10
1877.2407749185
 20
607.680061944
 30
0.0
 11
1878.7407854089
 21
607.680061944
 31
0.0
  0
LINE
  5
520
330
1F
100
AcDbEntity
  8
0
  6
CONTINUOUS
 62
     7
100
AcDbLine
 10
1878.7407854089
 20
607.680061944
 30
0.0
 11
1878.7407854089
 21
605.6800727921
 31
0.0
  0
LINE
  5
521
330
1F
100
AcDbEntity
  8
0
  6
CONTINUOUS
 62
     7
100
AcDbLine
 10
1877.2407749185
 20
605.6800727921
 30
0.0
 11
1877.2407749185
 21
607.680061944
 31
0.0
  0
LINE
  5
522
330
1F
100
AcDbEntity
  8
0
  6
CONTINUOUS
 62
     7
100
AcDbLine
 10
1878.7407854089
 20
984.1800724345
 30
0.0
 11
1877.2407749185
 21
984.1800724345
 31
0.0
  0
LINE
  5
523
330
1F
100
AcDbEntity
  8
0
  6
CONTINUOUS
 62
     7
100
AcDbLine
 10
1877.2407749185
 20
986.1800615864
 30
0.0
 11
1878.7407854089
 21
986.1800615864
 31
0.0
  0
LINE
  5
524
330
1F
100
AcDbEntity
  8
0
  6
CONTINUOUS
 62
     7
100
AcDbLine
 10
1878.7407854089
 20
986.1800615864
 30
0.0
 11
1878.7407854089
 21
984.1800724345
 31
0.0
  0
LINE
  5
525
330
1F
100
AcDbEntity
  8
0
  6
CONTINUOUS
 62
     7
100
AcDbLine
 10
1877.2407749185
 20
984.1800724345
 30
0.0
 11
1877.2407749185
 21
986.1800615864
 31
0.0
  0
LINE
  5
526
330
1F
100
AcDbEntity
  8
0
  6
CONTINUOUS
 62
     7
100
AcDbLine
 10
1878.7407854089
 20
1005.1800702887
 30
0.0
 11
1877.2407749185
 21
1005.1800702887
 31
0.0
  0
LINE
  5
527
330
1F
100
AcDbEntity
  8
0
  6
CONTINUOUS
 62
     7
100
AcDbLine
 10
1878.7407854089
 20
986.1800615864
 30
0.0
 11
1878.7407854089
 21
1005.1800702887
 31
0.0
  0
LINE
  5
528
330
1F
100
AcDbEntity
  8
0
  6
CONTINUOUS
 62
     7
100
AcDbLine
 10
1877.2407749185
 20
986.1800615864
 30
0.0
 11
1877.2407749185
 21
1005.1800702887
 31
0.0
  0
LINE
  5
529
330
1F
100
AcDbEntity
  8
0
  6
CONTINUOUS
 62
     7
100
AcDbLine
 10
1877.2407749185
 20
1007.1800743418
 30
0.0
 11
1878.7407854089
 21
1007.1800743418
 31
0.0
  0
LINE
  5
52A
330
1F
100
AcDbEntity
  8
0
  6
CONTINUOUS
 62
     7
100
AcDbLine
 10
1878.7407854089
 20
1007.1800743418
 30
0.0
 11
1878.7407854089
 21
1005.1800702887
 31
0.0
  0
LINE
  5
52B
330
1F
100
AcDbEntity
  8
0
  6
CONTINUOUS
 62
     7
100
AcDbLine
 10
1877.2407749185
 20
1005.1800702887
 30
0.0
 11
1877.2407749185
 21
1007.1800743418
 31
0.0
  0
LINE
  5
52C
330
1F
100
AcDbEntity
  8
0
  6
CONTINUOUS
 62
     7
100
AcDbLine
 10
1878.7748494634
 20
604.1800623017
 30
0.0
 11
1878.7407854089
 21
604.1800623017
 31
0.0
  0
LINE
  5
52D
330
1F
100
AcDbEntity
  8
0
  6
CONTINUOUS
 62
     7
100
AcDbLine
 10
1878.7748494634
 20
588.1800745802
 30
0.0
 11
1878.7748494634
 21
604.1800623017
 31
0.0
  0
LINE
  5
52E
330
1F
100
AcDbEntity
  8
0
  6
CONTINUOUS
 62
     7
100
AcDbLine
 10
1878.7407854089
 20
588.1800745802
 30
0.0
 11
1878.7748494634
 21
588.1800745802
 31
0.0
  0
LINE
  5
52F
330
1F
100
AcDbEntity
  8
0
  6
CONTINUOUS
 62
     7
100
AcDbLine
 10
1878.7748494634
 20
1003.6800597983
 30
0.0
 11
1878.7407854089
 21
1003.6800597983
 31
0.0
  0
LINE
  5
530
330
1F
100
AcDbEntity
  8
0
  6
CONTINUOUS
 62
     7
100
AcDbLine
 10
1878.7748494634
 20
987.6800720768
 30
0.0
 11
1878.7748494634
 21
1003.6800597983
 31
0.0
  0
LINE
  5
531
330
1F
100
AcDbEntity
  8
0
  6
CONTINUOUS
 62
     7
100
AcDbLine
 10
1878.7407854089
 20
987.6800720768
 30
0.0
 11
1878.7748494634
 21
987.6800720768
 31
0.0
  0
LINE
  5
532
330
1F
100
AcDbEntity
  8
0
  6
CONTINUOUS
 62
     7
100
AcDbLine
 10
1882.4936577567
 20
604.1800623017
 30
0.0
 11
1882.4936577567
 21
588.1800745802
 31
0.0
  0
LINE
  5
533
330
1F
100
AcDbEntity
  8
0
  6
CONTINUOUS
 62
     7
100
AcDbLine
 10
1882.4936577567
 20
588.1800745802
 30
0.0
 11
1878.7748494634
 21
588.1800745802
 31
0.0
  0
LINE
  5
534
330
1F
100
AcDbEntity
  8
0
  6
CONTINUOUS
 62
     7
100
AcDbLine
 10
1878.7748494634
 20
604.1800623017
 30
0.0
 11
1882.4936577567
 21
604.1800623017
 31
0.0
  0
LINE
  5
535
330
1F
100
AcDbEntity
  8
0
  6
CONTINUOUS
 62
     7
100
AcDbLine
 10
1882.4936577567
 20
987.6800720768
 30
0.0
 11
1882.4936577567
 21
1003.6800597983
 31
0.0
  0
LINE
  5
536
330
1F
100
AcDbEntity
  8
0
  6
CONTINUOUS
 62
     7
100
AcDbLine
 10
1882.4936577567
 20
1003.6800597983
 30
0.0
 11
1878.7748494634
 21
1003.6800597983
 31
0.0
  0
LINE
  5
537
330
1F
100
AcDbEntity
  8
0
  6
CONTINUOUS
 62
     7
100
AcDbLine
 10
1878.7748494634
 20
987.6800720768
 30
0.0
 11
1882.4936577567
 21
987.6800720768
 31
0.0
  0
LINE
  5
538
330
1F
100
AcDbEntity
  8
0
  6
CONTINUOUS
 62
     7
100
AcDbLine
 10
1859.2407831439
 20
542.1800707655
 30
0.0
 11
1860.7407787331
 21
542.1800707655
 31
0.0
  0
LINE
  5
539
330
1F
100
AcDbEntity
  8
0
  6
CONTINUOUS
 62
     7
100
AcDbLine
 10
1860.7407787331
 20
542.1800707655
 30
0.0
 11
1860.7407787331
 21
540.1800667124
 31
0.0
  0
LINE
  5
53A
330
1F
100
AcDbEntity
  8
0
  6
CONTINUOUS
 62
     7
100
AcDbLine
 10
1860.7407787331
 20
540.1800667124
 30
0.0
 11
1859.2407831439
 21
540.1800667124
 31
0.0
  0
LINE
  5
53B
330
1F
100
AcDbEntity
  8
0
  6
CONTINUOUS
 62
     7
100
AcDbLine
 10
1859.2407831439
 20
540.1800667124
 30
0.0
 11
1859.2407831439
 21
542.1800707655
 31
0.0
  0
LINE
  5
53C
330
1F
100
AcDbEntity
  8
0
  6
CONTINUOUS
 62
     7
100
AcDbLine
 10
1860.7407787331
 20
1049.680063613
 30
0.0
 11
1859.2407831439
 21
1049.680063613
 31
0.0
  0
LINE
  5
53D
330
1F
100
AcDbEntity
  8
0
  6
CONTINUOUS
 62
     7
100
AcDbLine
 10
1860.7407787331
 20
542.1800707655
 30
0.0
 11
1860.7407787331
 21
1049.680063613
 31
0.0
  0
LINE
  5
53E
330
1F
100
AcDbEntity
  8
0
  6
CONTINUOUS
 62
     7
100
AcDbLine
 10
1859.2407831439
 20
542.1800707655
 30
0.0
 11
1859.2407831439
 21
1049.680063613
 31
0.0
  0
LINE
  5
53F
330
1F
100
AcDbEntity
  8
0
  6
CONTINUOUS
 62
     7
100
AcDbLine
 10
1859.2407831439
 20
1051.6800676661
 30
0.0
 11
1860.7407787331
 21
1051.6800676661
 31
0.0
  0
LINE
  5
540
330
1F
100
AcDbEntity
  8
0
  6
CONTINUOUS
 62
     7
100
AcDbLine
 10
1859.2407831439
 20
1049.680063613
 30
0.0
 11
1859.2407831439
 21
1051.6800676661
 31
0.0
  0
LINE
  5
541
330
1F
100
AcDbEntity
  8
0
  6
CONTINUOUS
 62
     7
100
AcDbLine
 10
1860.7407787331
 20
1051.6800676661
 30
0.0
 11
1860.7407787331
 21
1049.680063613
 31
0.0
  0
LINE
  5
542
330
1F
100
AcDbEntity
  8
0
  6
CONTINUOUS
 62
     7
100
AcDbLine
 10
1876.2407877931
 20
587.6800661164
 30
0.0
 11
1876.2407877931
 21
584.6800600367
 31
0.0
  0
LINE
  5
543
330
1F
100
AcDbEntity
  8
0
  6
CONTINUOUS
 62
     7
100
AcDbLine
 10
1877.2407749185
 20
587.6800661164
 30
0.0
 11
1876.2407877931
 21
587.6800661164
 31
0.0
  0
LINE
  5
544
330
1F
100
AcDbEntity
  8
0
  6
CONTINUOUS
 62
     7
100
AcDbLine
 10
1876.2407877931
 20
584.6800600367
 30
0.0
 11
1877.2407749185
 21
584.6800600367
 31
0.0
  0
LINE
  5
545
330
1F
100
AcDbEntity
  8
0
  6
CONTINUOUS
 62
     7
100
AcDbLine
 10
1877.2407749185
 20
607.680061944
 30
0.0
 11
1876.2407877931
 21
607.680061944
 31
0.0
  0
LINE
  5
546
330
1F
100
AcDbEntity
  8
0
  6
CONTINUOUS
 62
     7
100
AcDbLine
 10
1876.2407877931
 20
604.6800707655
 30
0.0
 11
1877.2407749185
 21
604.6800707655
 31
0.0
  0
LINE
  5
547
330
1F
100
AcDbEntity
  8
0
  6
CONTINUOUS
 62
     7
100
AcDbLine
 10
1876.2407877931
 20
607.680061944
 30
0.0
 11
1876.2407877931
 21
604.6800707655
 31
0.0
  0
LINE
  5
548
330
1F
100
AcDbEntity
  8
0
  6
CONTINUOUS
 62
     7
100
AcDbLine
 10
1876.2407877931
 20
984.1800724345
 30
0.0
 11
1877.2407749185
 21
984.1800724345
 31
0.0
  0
LINE
  5
549
330
1F
100
AcDbEntity
  8
0
  6
CONTINUOUS
 62
     7
100
AcDbLine
 10
1876.2407877931
 20
987.180063613
 30
0.0
 11
1876.2407877931
 21
984.1800724345
 31
0.0
  0
LINE
  5
54A
330
1F
100
AcDbEntity
  8
0
  6
CONTINUOUS
 62
     7
100
AcDbLine
 10
1876.2407877931
 20
987.180063613
 30
0.0
 11
1877.2407749185
 21
987.180063613
 31
0.0
  0
LINE
  5
54B
330
1F
100
AcDbEntity
  8
0
  6
CONTINUOUS
 62
     7
100
AcDbLine
 10
1876.2407877931
 20
1007.1800743418
 30
0.0
 11
1876.2407877931
 21
1004.1800682621
 31
0.0
  0
LINE
  5
54C
330
1F
100
AcDbEntity
  8
0
  6
CONTINUOUS
 62
     7
100
AcDbLine
 10
1877.2407749185
 20
1007.1800743418
 30
0.0
 11
1876.2407877931
 21
1007.1800743418
 31
0.0
  0
LINE
  5
54D
330
1F
100
AcDbEntity
  8
0
  6
CONTINUOUS
 62
     7
100
AcDbLine
 10
1877.2407749185
 20
1004.1800682621
 30
0.0
 11
1876.2407877931
 21
1004.1800682621
 31
0.0
  0
LINE
  5
54E
330
1F
100
AcDbEntity
  8
0
  6
CONTINUOUS
 62
     7
100
AcDbLine
 10
1861.7407807597
 20
1051.6800676661
 30
0.0
 11
1860.7407787331
 21
1051.6800676661
 31
0.0
  0
LINE
  5
54F
330
1F
100
AcDbEntity
  8
0
  6
CONTINUOUS
 62
     7
100
AcDbLine
 10
1861.7407807597
 20
540.1800667124
 30
0.0
 11
1861.7407807597
 21
1051.6800676661
 31
0.0
  0
LINE
  5
550
330
1F
100
AcDbEntity
  8
0
  6
CONTINUOUS
 62
     7
100
AcDbLine
 10
1860.7407787331
 20
540.1800667124
 30
0.0
 11
1861.7407807597
 21
540.1800667124
 31
0.0
  0
LINE
  5
551
330
1F
100
AcDbEntity
  8
0
  6
CONTINUOUS
 62
     7
100
AcDbLine
 10
1876.2407877931
 20
984.1800724345
 30
0.0
 11
1876.2407877931
 21
983.6800639706
 31
0.0
  0
LINE
  5
552
330
1F
100
AcDbEntity
  8
0
  6
CONTINUOUS
 62
     7
100
AcDbLine
 10
1876.2407877931
 20
983.6800639706
 30
0.0
 11
1878.7407854089
 21
983.6800639706
 31
0.0
  0
LINE
  5
553
330
1F
100
AcDbEntity
  8
0
  6
CONTINUOUS
 62
     7
100
AcDbLine
 10
1878.7407854089
 20
983.6800639706
 30
0.0
 11
1878.7407854089
 21
608.1800704079
 31
0.0
  0
LINE
  5
554
330
1F
100
AcDbEntity
  8
0
  6
CONTINUOUS
 62
     7
100
AcDbLine
 10
1878.7407854089
 20
608.1800704079
 30
0.0
 11
1876.2407877931
 21
608.1800704079
 31
0.0
  0
LINE
  5
555
330
1F
100
AcDbEntity
  8
0
  6
CONTINUOUS
 62
     7
100
AcDbLine
 10
1876.2407877931
 20
608.1800704079
 30
0.0
 11
1876.2407877931
 21
607.680061944
 31
0.0
  0
LINE
  5
556
330
1F
100
AcDbEntity
  8
0
  6
CONTINUOUS
 62
     7
100
AcDbLine
 10
1876.2407877931
 20
604.6800707655
 30
0.0
 11
1875.7407793292
 21
604.6800707655
 31
0.0
  0
LINE
  5
557
330
1F
100
AcDbEntity
  8
0
  6
CONTINUOUS
 62
     7
100
AcDbLine
 10
1875.7407793292
 20
587.6800661164
 30
0.0
 11
1875.7407793292
 21
604.6800707655
 31
0.0
  0
LINE
  5
558
330
1F
100
AcDbEntity
  8
0
  6
CONTINUOUS
 62
     7
100
AcDbLine
 10
1875.7407793292
 20
587.6800661164
 30
0.0
 11
1876.2407877931
 21
587.6800661164
 31
0.0
  0
LINE
  5
559
330
1F
100
AcDbEntity
  8
0
  6
CONTINUOUS
 62
     7
100
AcDbLine
 10
1876.2407877931
 20
584.6800600367
 30
0.0
 11
1876.2407877931
 21
584.180066474
 31
0.0
  0
LINE
  5
55A
330
1F
100
AcDbEntity
  8
0
  6
CONTINUOUS
 62
     7
100
AcDbLine
 10
1876.2407877931
 20
584.180066474
 30
0.0
 11
1878.7407854089
 21
584.180066474
 31
0.0
  0
LINE
  5
55B
330
1F
100
AcDbEntity
  8
0
  6
CONTINUOUS
 62
     7
100
AcDbLine
 10
1878.7407854089
 20
584.180066474
 30
0.0
 11
1878.7407854089
 21
540.1800667124
 31
0.0
  0
LINE
  5
55C
330
1F
100
AcDbEntity
  8
0
  6
CONTINUOUS
 62
     7
100
AcDbLine
 10
1878.7407854089
 20
1051.6800676661
 30
0.0
 11
1878.7407854089
 21
1007.6800679045
 31
0.0
  0
LINE
  5
55D
330
1F
100
AcDbEntity
  8
0
  6
CONTINUOUS
 62
     7
100
AcDbLine
 10
1878.7407854089
 20
1007.6800679045
 30
0.0
 11
1876.2407877931
 21
1007.6800679045
 31
0.0
  0
LINE
  5
55E
330
1F
100
AcDbEntity
  8
0
  6
CONTINUOUS
 62
     7
100
AcDbLine
 10
1876.2407877931
 20
1007.6800679045
 30
0.0
 11
1876.2407877931
 21
1007.1800743418
 31
0.0
  0
LINE
  5
55F
330
1F
100
AcDbEntity
  8
0
  6
CONTINUOUS
 62
     7
100
AcDbLine
 10
1875.7407793292
 20
1004.1800682621
 30
0.0
 11
1876.2407877931
 21
1004.1800682621
 31
0.0
  0
LINE
  5
560
330
1F
100
AcDbEntity
  8
0
  6
CONTINUOUS
 62
     7
100
AcDbLine
 10
1875.7407793292
 20
987.180063613
 30
0.0
 11
1875.7407793292
 21
1004.1800682621
 31
0.0
  0
LINE
  5
561
330
1F
100
AcDbEntity
  8
0
  6
CONTINUOUS
 62
     7
100
AcDbLine
 10
1876.2407877931
 20
987.180063613
 30
0.0
 11
1875.7407793292
 21
987.180063613
 31
0.0
  0
CIRCLE
  5
562
330
1F
100
AcDbEntity
  8
0
  6
CONTINUOUS
 62
     7
100
AcDbCircle
 10
1836.740781475
 20
555.6800671892
 30
0.0
 40
3.000000000000097
  0
CIRCLE
  5
563
330
1F
100
AcDbEntity
  8
0
  6
CONTINUOUS
 62
     7
100
AcDbCircle
 10
1836.740781475
 20
555.6800671892
 30
0.0
 40
2.386499999999983
  0
CIRCLE
  5
564
330
1F
100
AcDbEntity
  8
0
  6
CONTINUOUS
 62
     7
100
AcDbCircle
 10
1836.740781475
 20
555.6800671892
 30
0.0
 40
0.7592592592591557
  0
LINE
  5
565
330
1F
100
AcDbEntity
  8
0
  6
CONTINUOUS
 62
     7
100
AcDbLine
 10
1540.2407774218
 20
1053.4729455786
 30
0.0
 11
1540.2407774218
 21
1039.6381114798
 31
0.0
  0
LINE
  5
566
330
1F
100
AcDbEntity
  8
0
  6
CONTINUOUS
 62
     7
100
AcDbLine
 10
1540.2407774218
 20
552.2220228987
 30
0.0
 11
1540.2407774218
 21
538.3871887999
 31
0.0
  0
LINE
  5
567
330
1F
100
AcDbEntity
  8
0
  6
CONTINUOUS
 62
     7
100
AcDbLine
 10
1542.240781475
 20
1053.4729455786
 30
0.0
 11
1540.2407774218
 21
1053.4729455786
 31
0.0
  0
LINE
  5
568
330
1F
100
AcDbEntity
  8
0
  6
CONTINUOUS
 62
     7
100
AcDbLine
 10
1542.240781475
 20
1053.4729455786
 30
0.0
 11
1542.240781475
 21
1038.3383725958
 31
0.0
  0
LINE
  5
569
330
1F
100
AcDbEntity
  8
0
  6
CONTINUOUS
 62
     7
100
AcDbLine
 10
1542.240781475
 20
553.5217617827
 30
0.0
 11
1542.240781475
 21
538.3871887999
 31
0.0
  0
LINE
  5
56A
330
1F
100
AcDbEntity
  8
0
  6
CONTINUOUS
 62
     7
100
AcDbLine
 10
1542.240781475
 20
538.3871887999
 30
0.0
 11
1540.2407774218
 21
538.3871887999
 31
0.0
  0
LINE
  5
56B
330
1F
100
AcDbEntity
  8
0
  6
CONTINUOUS
 62
     7
100
AcDbLine
 10
1542.9478862771
 20
535.6800650435
 30
0.0
 11
1854.0336766728
 21
535.6800650435
 31
0.0
  0
LINE
  5
56C
330
1F
100
AcDbEntity
  8
0
  6
CONTINUOUS
 62
     7
100
AcDbLine
 10
1542.9478862771
 20
537.6800690966
 30
0.0
 11
1854.0336766728
 21
537.6800690966
 31
0.0
  0
LINE
  5
56D
330
1F
100
AcDbEntity
  8
0
  6
CONTINUOUS
 62
     7
100
AcDbLine
 10
1854.0336766728
 20
537.6800690966
 30
0.0
 11
1854.0336766728
 21
535.6800650435
 31
0.0
  0
LINE
  5
56E
330
1F
100
AcDbEntity
  8
0
  6
CONTINUOUS
 62
     7
100
AcDbLine
 10
1542.9478862771
 20
537.6800690966
 30
0.0
 11
1542.9478862771
 21
535.6800650435
 31
0.0
  0
LINE
  5
56F
330
1F
100
AcDbEntity
  8
0
  6
CONTINUOUS
 62
     7
100
AcDbLine
 10
1856.7407855281
 20
538.3871887999
 30
0.0
 11
1856.7407855281
 21
1053.4729455786
 31
0.0
  0
LINE
  5
570
330
1F
100
AcDbEntity
  8
0
  6
CONTINUOUS
 62
     7
100
AcDbLine
 10
1854.740781475
 20
538.3871887999
 30
0.0
 11
1856.7407855281
 21
538.3871887999
 31
0.0
  0
LINE
  5
571
330
1F
100
AcDbEntity
  8
0
  6
CONTINUOUS
 62
     7
100
AcDbLine
 10
1854.740781475
 20
538.3871887999
 30
0.0
 11
1854.740781475
 21
1053.4729455786
 31
0.0
  0
LINE
  5
572
330
1F
100
AcDbEntity
  8
0
  6
CONTINUOUS
 62
     7
100
AcDbLine
 10
1854.740781475
 20
1053.4729455786
 30
0.0
 11
1856.7407855281
 21
1053.4729455786
 31
0.0
  0
LINE
  5
573
330
1F
100
AcDbEntity
  8
0
  6
CONTINUOUS
 62
     7
100
AcDbLine
 10
1854.0336766728
 20
1056.180069335
 30
0.0
 11
1839.5692089089
 21
1056.180069335
 31
0.0
  0
LINE
  5
574
330
1F
100
AcDbEntity
  8
0
  6
CONTINUOUS
 62
     7
100
AcDbLine
 10
1557.412354041
 20
1056.180069335
 30
0.0
 11
1542.9478862771
 21
1056.180069335
 31
0.0
  0
LINE
  5
575
330
1F
100
AcDbEntity
  8
0
  6
CONTINUOUS
 62
     7
100
AcDbLine
 10
1854.0336766728
 20
1054.1800652819
 30
0.0
 11
1854.0336766728
 21
1056.180069335
 31
0.0
  0
LINE
  5
576
330
1F
100
AcDbEntity
  8
0
  6
CONTINUOUS
 62
     7
100
AcDbLine
 10
1854.0336766728
 20
1054.1800652819
 30
0.0
 11
1836.7407747992
 21
1054.1800652819
 31
0.0
  0
LINE
  5
577
330
1F
100
AcDbEntity
  8
0
  6
CONTINUOUS
 62
     7
100
AcDbLine
 10
1560.2407881507
 20
1054.1800652819
 30
0.0
 11
1542.9478862771
 21
1054.1800652819
 31
0.0
  0
LINE
  5
578
330
1F
100
AcDbEntity
  8
0
  6
CONTINUOUS
 62
     7
100
AcDbLine
 10
1542.9478862771
 20
1054.1800652819
 30
0.0
 11
1542.9478862771
 21
1056.180069335
 31
0.0
  0
LINE
  5
579
330
1F
100
AcDbEntity
  8
0
  6
CONTINUOUS
 62
     7
100
AcDbLine
 10
1853.2407858857
 20
539.180079587
 30
0.0
 11
1543.7407770642
 21
539.180079587
 31
0.0
  0
ARC
  5
57A
330
1F
100
AcDbEntity
  8
0
  6
CONTINUOUS
 62
     7
100
AcDbCircle
 10
1856.1867901018
 20
539.7777460511
 30
0.0
 40
3.006018303930886
100
AcDbArc
 50
191.468156966
 51
224.2528222577
  0
LWPOLYLINE
  5
57B
330
1F
100
AcDbEntity
  8
0
  6
CONTINUOUS
 62
     7
100
AcDbPolyline
 90
        6
 70
   128
 43
0.0
 10
1543.7407770642
 20
539.180079587
 10
1543.5609796533
 20
538.6569892245
 10
1543.3811822423
 20
538.1995831805
 10
1543.2014295348
 20
537.8653501349
 10
1543.0216917285
 20
537.6960729437
 10
1542.9478862771
 20
537.6800690966
  0
LWPOLYLINE
  5
57C
330
1F
100
AcDbEntity
  8
0
  6
CONTINUOUS
 62
     7
100
AcDbPolyline
 90
        6
 70
   128
 43
0.0
 10
1543.7407770642
 20
1052.6800547915
 10
1543.2177016028
 20
1052.8598820048
 10
1542.7602806577
 20
1053.0396794157
 10
1542.4260625132
 20
1053.2194172221
 10
1542.2567853221
 20
1053.3991550284
 10
1542.240781475
 20
1053.4729455786
  0
ARC
  5
57D
330
1F
100
AcDbEntity
  8
0
  6
CONTINUOUS
 62
     7
100
AcDbCircle
 10
1544.3391843142
 20
536.2327133703
 30
0.0
 40
3.007500432627652
100
AcDbArc
 50
101.4768289423
 51
134.2446205998
  0
LINE
  5
57E
330
1F
100
AcDbEntity
  8
0
  6
CONTINUOUS
 62
     7
100
AcDbLine
 10
1853.2407858857
 20
1052.6800547915
 30
0.0
 11
1853.2407858857
 21
539.180079587
 31
0.0
  0
ARC
  5
57F
330
1F
100
AcDbEntity
  8
0
  6
CONTINUOUS
 62
     7
100
AcDbCircle
 10
1852.6423786358
 20
1055.6274210082
 30
0.0
 40
3.007500432622084
100
AcDbArc
 50
281.4768289423
 51
314.2446205998
  0
LWPOLYLINE
  5
580
330
1F
100
AcDbEntity
  8
0
  6
CONTINUOUS
 62
     7
100
AcDbPolyline
 90
        6
 70
   128
 43
0.0
 10
1853.2407858857
 20
539.180079587
 10
1853.7638613471
 20
539.0002523737
 10
1854.2212822923
 20
538.8204549628
 10
1854.5555004367
 20
538.6407171564
 10
1854.7247776278
 20
538.4609793501
 10
1854.740781475
 20
538.3871887999
  0
LINE
  5
581
330
1F
100
AcDbEntity
  8
0
  6
CONTINUOUS
 62
     7
100
AcDbLine
 10
1543.7407770642
 20
1052.6800547915
 30
0.0
 11
1853.2407858857
 21
1052.6800547915
 31
0.0
  0
LWPOLYLINE
  5
582
330
1F
100
AcDbEntity
  8
0
  6
CONTINUOUS
 62
     7
100
AcDbPolyline
 90
        6
 70
   128
 43
0.0
 10
1853.2407858857
 20
1052.6800547915
 10
1853.4205832967
 20
1053.203145154
 10
1853.6003807076
 20
1053.660551198
 10
1853.7801334151
 20
1053.9947842436
 10
1853.9598712214
 20
1054.1640614348
 10
1854.0336766728
 20
1054.1800652819
  0
ARC
  5
583
330
1F
100
AcDbEntity
  8
0
  6
CONTINUOUS
 62
     7
100
AcDbCircle
 10
1540.7947728481
 20
1052.0823883274
 30
0.0
 40
3.006018303921724
100
AcDbArc
 50
11.468156966
 51
44.2528222577
  0
LINE
  5
584
330
1F
100
AcDbEntity
  8
0
  6
CONTINUOUS
 62
     7
100
AcDbLine
 10
1559.0056458005
 20
788.4121524358
 30
0.0
 11
1557.9119005689
 21
789.5058925452
 31
0.0
  0
LINE
  5
585
330
1F
100
AcDbEntity
  8
0
  6
CONTINUOUS
 62
     7
100
AcDbLine
 10
1569.2587026843
 20
793.1949339064
 30
0.0
 11
1564.4759216794
 21
788.4121524358
 31
0.0
  0
LINE
  5
586
330
1F
100
AcDbEntity
  8
0
  6
CONTINUOUS
 62
     7
100
AcDbLine
 10
1564.4759216794
 20
803.4479819427
 30
0.0
 11
1569.2587026843
 21
798.6652004721
 31
0.0
  0
LINE
  5
587
330
1F
100
AcDbEntity
  8
0
  6
CONTINUOUS
 62
     7
100
AcDbLine
 10
1558.063147355
 20
802.5054834971
 30
0.0
 11
1559.0056458005
 21
803.4479819427
 31
0.0
  0
LINE
  5
588
330
1F
100
AcDbEntity
  8
0
  6
CONTINUOUS
 62
     7
100
AcDbLine
 10
1560.5603435525
 20
791.5099767225
 30
0.0
 11
1560.9159597644
 21
792.5286438504
 31
0.0
  0
LINE
  5
589
330
1F
100
AcDbEntity
  8
0
  6
CONTINUOUS
 62
     7
100
AcDbLine
 10
1562.4279209861
 20
792.4981809875
 30
0.0
 11
1562.742216278
 21
791.4660164343
 31
0.0
  0
ARC
  5
58A
330
1F
100
AcDbEntity
  8
0
  6
CONTINUOUS
 62
     7
100
AcDbCircle
 10
1561.740781475
 20
795.9300671892
 30
0.0
 40
4.575000000000166
100
AcDbArc
 50
282.644031403
 51
351.3098480519
  0
LINE
  5
58B
330
1F
100
AcDbEntity
  8
0
  6
CONTINUOUS
 62
     7
100
AcDbLine
 10
1566.26325636
 20
795.2388262448
 30
0.0
 11
1565.1761868485
 21
795.2607287399
 31
0.0
  0
LINE
  5
58C
330
1F
100
AcDbEntity
  8
0
  6
CONTINUOUS
 62
     7
100
AcDbLine
 10
1564.842415739
 20
797.5517610276
 30
0.0
 11
1567.1907940396
 21
798.7796150802
 31
0.0
  0
LINE
  5
58D
330
1F
100
AcDbEntity
  8
0
  6
CONTINUOUS
 62
     7
100
AcDbLine
 10
1556.4099827298
 20
798.9968274443
 30
0.0
 11
1558.7069967278
 21
797.6753779177
 31
0.0
  0
LINE
  5
58E
330
1F
100
AcDbEntity
  8
0
  6
CONTINUOUS
 62
     7
100
AcDbLine
 10
1558.2812109479
 20
795.3996491225
 30
0.0
 11
1557.1941265353
 21
795.4215516175
 31
0.0
  0
ARC
  5
58F
330
1F
100
AcDbEntity
  8
0
  6
CONTINUOUS
 62
     7
100
AcDbCircle
 10
1561.740781475
 20
795.9300671892
 30
0.0
 40
4.575000000000072
100
AcDbArc
 50
186.3816667365
 51
255.0474833855
  0
ARC
  5
590
330
1F
100
AcDbEntity
  8
0
  6
CONTINUOUS
 62
     7
100
AcDbCircle
 10
1561.740781475
 20
795.9300671892
 30
0.0
 40
6.150000000000271
100
AcDbArc
 50
150.0886003528
 51
27.6029144356
  0
LINE
  5
591
330
1F
100
AcDbEntity
  8
0
  6
CONTINUOUS
 62
     7
100
AcDbLine
 10
1557.4060061463
 20
794.4670900425
 30
0.0
 11
1558.4609934577
 21
794.4458341182
 31
0.0
  0
ARC
  5
592
330
1F
100
AcDbEntity
  8
0
  6
CONTINUOUS
 62
     7
100
AcDbCircle
 10
1561.740781475
 20
795.9300671892
 30
0.0
 40
3.599999999999941
100
AcDbArc
 50
204.3485796522
 51
243.3429351363
  0
LINE
  5
593
330
1F
100
AcDbEntity
  8
0
  6
CONTINUOUS
 62
     7
100
AcDbLine
 10
1560.1256468781
 20
792.7127190588
 30
0.0
 11
1560.1043829211
 21
791.6577329116
 31
0.0
  0
LINE
  5
594
330
1F
100
AcDbEntity
  8
0
  6
CONTINUOUS
 62
     7
100
AcDbLine
 10
1563.2037648448
 20
791.5952868017
 30
0.0
 11
1563.2250139007
 21
792.650272716
 31
0.0
  0
ARC
  5
595
330
1F
100
AcDbEntity
  8
0
  6
CONTINUOUS
 62
     7
100
AcDbCircle
 10
1561.740781475
 20
795.9300671892
 30
0.0
 40
3.60000000000033
100
AcDbArc
 50
294.3485796522
 51
333.3429351363
  0
LINE
  5
596
330
1F
100
AcDbEntity
  8
0
  6
CONTINUOUS
 62
     7
100
AcDbLine
 10
1564.9581232556
 20
794.3149292797
 30
0.0
 11
1566.013110567
 21
794.2936733553
 31
0.0
  0
ARC
  5
597
330
1F
100
AcDbEntity
  8
0
  6
CONTINUOUS
 62
     7
100
AcDbCircle
 10
1561.740781475
 20
795.9300671892
 30
0.0
 40
3.600000000000179
100
AcDbArc
 50
27.6029144356
 51
63.3429351362
  0
LINE
  5
598
330
1F
100
AcDbEntity
  8
0
  6
CONTINUOUS
 62
     7
100
AcDbLine
 10
1563.3559206017
 20
799.1474153197
 30
0.0
 11
1563.3777060994
 21
800.2289581301
 31
0.0
  0
ARC
  5
599
330
1F
100
AcDbEntity
  8
0
  6
CONTINUOUS
 62
     7
100
AcDbCircle
 10
1561.740781475
 20
795.9300671892
 30
0.0
 40
4.600000000000265
100
AcDbArc
 50
69.154200374
 51
108.5373144144
  0
LINE
  5
59A
330
1F
100
AcDbEntity
  8
0
  6
CONTINUOUS
 62
     7
100
AcDbLine
 10
1560.2783390769
 20
800.2914047057
 30
0.0
 11
1560.2565535792
 21
799.2098616625
 31
0.0
  0
ARC
  5
59B
330
1F
100
AcDbEntity
  8
0
  6
CONTINUOUS
 62
     7
100
AcDbCircle
 10
1561.740781475
 20
795.9300671892
 30
0.0
 40
3.599999999999941
100
AcDbArc
 50
114.3485796522
 51
150.0886003528
  0
LINE
  5
59C
330
1F
100
AcDbEntity
  8
0
  6
CONTINUOUS
 62
     7
100
AcDbLine
 10
1561.6098472365
 20
789.4313862736
 30
0.0
 11
1538.5114976653
 21
789.8967728207
 31
0.0
  0
LINE
  5
59D
330
1F
100
AcDbEntity
  8
0
  6
CONTINUOUS
 62
     7
100
AcDbLine
 10
1538.7733706721
 20
802.8941351177
 30
0.0
 11
1561.8717202434
 21
802.4287481049
 31
0.0
  0
ARC
  5
59E
330
1F
100
AcDbEntity
  8
0
  6
CONTINUOUS
 62
     7
100
AcDbCircle
 10
1561.740781475
 20
795.9300671892
 30
0.0
 40
6.499999999999978
100
AcDbArc
 50
268.8457573942
 51
88.8457573942
  0
ARC
  5
59F
330
1F
100
AcDbEntity
  8
0
  6
CONTINUOUS
 62
     7
100
AcDbCircle
 10
1561.740781475
 20
795.9300671892
 30
0.0
 40
24.00000000000393
100
AcDbArc
 50
163.1318963462
 51
194.5596184422
  0
LWPOLYLINE
  5
5A0
330
1F
100
AcDbEntity
  8
0
  6
CONTINUOUS
 62
     7
100
AcDbPolyline
 90
        3
 70
   128
 43
0.0
 10
1556.947095085
 20
789.52533111
 10
1557.8518935927
 20
788.9388898576
 10
1559.3752244004
 20
788.2878078336
  0
ARC
  5
5A1
330
1F
100
AcDbEntity
  8
0
  6
CONTINUOUS
 62
     7
100
AcDbCircle
 10
1561.740781475
 20
795.9300671892
 30
0.0
 40
8.000000000000318
100
AcDbArc
 50
284.8907330224
 51
342.8007817661
  0
ARC
  5
5A2
330
1F
100
AcDbEntity
  8
0
  6
CONTINUOUS
 62
     7
100
AcDbCircle
 10
1561.740781475
 20
795.9300671892
 30
0.0
 40
8.000000000000123
100
AcDbArc
 50
14.8907330224
 51
72.8007817661
  0
LWPOLYLINE
  5
5A3
330
1F
100
AcDbEntity
  8
0
  6
CONTINUOUS
 62
     7
100
AcDbPolyline
 90
        3
 70
   128
 43
0.0
 10
1559.6849748382
 20
803.6614084805
 10
1558.1366547831
 20
803.0722142386
 10
1557.2089680919
 20
802.522693407
  0
LINE
  5
5A4
330
1F
100
AcDbEntity
  8
0
  6
CONTINUOUS
 62
     7
100
AcDbLine
 10
1554.6563097724
 20
802.5741247649
 30
0.0
 11
1556.4484277257
 21
805.5386255684
 31
0.0
  0
LINE
  5
5A5
330
1F
100
AcDbEntity
  8
0
  6
CONTINUOUS
 62
     7
100
AcDbLine
 10
1556.4484277257
 20
805.5386255684
 30
0.0
 11
1567.4158611783
 21
805.3176534551
 31
0.0
  0
LINE
  5
5A6
330
1F
100
AcDbEntity
  8
0
  6
CONTINUOUS
 62
     7
100
AcDbLine
 10
1567.4158611783
 20
805.3176534551
 30
0.0
 11
1572.7082171925
 21
795.7090947703
 31
0.0
  0
LINE
  5
5A7
330
1F
100
AcDbEntity
  8
0
  6
CONTINUOUS
 62
     7
100
AcDbLine
 10
1572.7082171925
 20
795.7090947703
 30
0.0
 11
1567.033124853
 21
786.3215088101
 31
0.0
  0
LINE
  5
5A8
330
1F
100
AcDbEntity
  8
0
  6
CONTINUOUS
 62
     7
100
AcDbLine
 10
1567.033124853
 20
786.3215088101
 30
0.0
 11
1556.0657063016
 21
786.5424809234
 31
0.0
  0
LINE
  5
5A9
330
1F
100
AcDbEntity
  8
0
  6
CONTINUOUS
 62
     7
100
AcDbLine
 10
1556.0657063016
 20
786.5424809234
 30
0.0
 11
1554.3944367656
 21
789.5767624678
 31
0.0
  0
CIRCLE
  5
5AA
330
1F
100
AcDbEntity
  8
0
  6
CONTINUOUS
 62
     7
100
AcDbCircle
 10
1561.740781475
 20
795.9300671892
 30
0.0
 40
3.499999999999695
  0
LINE
  5
5AB
330
1F
100
AcDbEntity
  8
0
  6
CONTINUOUS
 62
     7
100
AcDbLine
 10
1560.3265443334
 20
800.2020629311
 30
0.0
 11
1560.304788638
 21
799.1219192
 31
0.0
  0
ARC
  5
5AC
330
1F
100
AcDbEntity
  8
0
  6
CONTINUOUS
 62
     7
100
AcDbCircle
 10
1561.740781475
 20
795.9300671892
 30
0.0
 40
4.499999999999735
100
AcDbArc
 50
69.3745367597
 51
108.3169780287
  0
LINE
  5
5AD
330
1F
100
AcDbEntity
  8
0
  6
CONTINUOUS
 62
     7
100
AcDbLine
 10
1563.3259394654
 20
800.1416312719
 30
0.0
 11
1563.3041837701
 21
799.061487308
 31
0.0
  0
ARC
  5
5AE
330
1F
100
AcDbEntity
  8
0
  6
CONTINUOUS
 62
     7
100
AcDbCircle
 10
1561.740781475
 20
795.9300671892
 30
0.0
 40
4.500000000000201
100
AcDbArc
 50
339.3745367597
 51
350.2966785637
  0
LINE
  5
5AF
330
1F
100
AcDbEntity
  8
0
  6
CONTINUOUS
 62
     7
100
AcDbLine
 10
1565.9523436316
 20
794.3449079713
 30
0.0
 11
1564.8722031602
 21
794.366670768
 31
0.0
  0
LINE
  5
5B0
330
1F
100
AcDbEntity
  8
0
  6
CONTINUOUS
 62
     7
100
AcDbLine
 10
1563.1767788419
 20
792.7382151785
 30
0.0
 11
1563.1550082454
 21
791.6580714474
 31
0.0
  0
LWPOLYLINE
  5
5B1
330
1F
100
AcDbEntity
  8
0
  6
CONTINUOUS
 62
     7
100
AcDbPolyline
 90
        3
 70
   128
 43
0.0
 10
1560.1556280145
 20
791.7185031066
 10
1560.5187246093
 20
791.5991820583
 10
1560.5851390847
 20
791.5809882062
  0
LWPOLYLINE
  5
5B2
330
1F
100
AcDbEntity
  8
0
  6
CONTINUOUS
 62
     7
100
AcDbPolyline
 90
        3
 70
   128
 43
0.0
 10
1562.720311571
 20
791.5379690195
 10
1562.7873965987
 20
791.5534722807
 10
1563.1550082454
 20
791.6580714474
  0
LINE
  5
5B3
330
1F
100
AcDbEntity
  8
0
  6
CONTINUOUS
 62
     7
100
AcDbLine
 10
1560.1773837098
 20
792.7986470705
 30
0.0
 11
1560.1556280145
 21
791.7185031066
 31
0.0
  0
LINE
  5
5B4
330
1F
100
AcDbEntity
  8
0
  6
CONTINUOUS
 62
     7
100
AcDbLine
 10
1557.4687847384
 20
794.5158352332
 30
0.0
 11
1558.5489252099
 21
794.4940724366
 31
0.0
  0
ARC
  5
5B5
330
1F
100
AcDbEntity
  8
0
  6
CONTINUOUS
 62
     7
100
AcDbCircle
 10
1561.740781475
 20
795.9300671892
 30
0.0
 40
4.499999999999863
100
AcDbArc
 50
186.508013055
 51
198.3169780287
  0
ARC
  5
5B6
330
1F
100
AcDbEntity
  8
0
  6
CONTINUOUS
 62
     7
100
AcDbCircle
 10
1561.740781475
 20
795.9300671892
 30
0.0
 40
6.999999999999967
100
AcDbArc
 50
247.058968096
 51
110.6325466925
  0
LWPOLYLINE
  5
5B7
330
1F
100
AcDbEntity
  8
0
  6
CONTINUOUS
 62
     7
100
AcDbPolyline
 90
        4
 70
   128
 43
0.0
 10
1563.7965926417
 20
788.198725898
 10
1564.9685689696
 20
789.3244108374
 10
1566.2493833789
 20
790.5546288194
 10
1566.5898153075
 20
790.881616641
  0
ARC
  5
5B8
330
1F
100
AcDbEntity
  8
0
  6
CONTINUOUS
 62
     7
100
AcDbCircle
 10
1561.740781475
 20
795.9300671892
 30
0.0
 40
7.999999999999884
100
AcDbArc
 50
252.8007817661
 51
284.8907330224
  0
LWPOLYLINE
  5
5B9
330
1F
100
AcDbEntity
  8
0
  6
CONTINUOUS
 62
     7
100
AcDbPolyline
 90
        3
 70
   128
 43
0.0
 10
1558.2110413798
 20
789.4998654912
 10
1558.4296265134
 20
789.2722833159
 10
1559.3752244004
 20
788.2878078336
  0
ARC
  5
5BA
330
1F
100
AcDbEntity
  8
0
  6
CONTINUOUS
 62
     7
100
AcDbCircle
 10
1561.740781475
 20
795.9300671892
 30
0.0
 40
7.99999999999995
100
AcDbArc
 50
72.8007817661
 51
104.8907330224
  0
LWPOLYLINE
  5
5BB
330
1F
100
AcDbEntity
  8
0
  6
CONTINUOUS
 62
     7
100
AcDbPolyline
 90
        3
 70
   128
 43
0.0
 10
1566.7892375478
 20
800.7791029478
 10
1565.0519260653
 20
802.5878510626
 10
1564.1063430795
 20
803.5723265449
  0
LWPOLYLINE
  5
5BC
330
1F
100
AcDbEntity
  8
0
  6
CONTINUOUS
 62
     7
100
AcDbPolyline
 90
        3
 70
   128
 43
0.0
 10
1559.6849748382
 20
803.6614084805
 10
1558.5129985103
 20
802.5357235411
 10
1558.4729143866
 20
802.4972277882
  0
LWPOLYLINE
  5
5BD
330
1F
100
AcDbEntity
  8
0
  6
CONTINUOUS
 62
     7
100
AcDbPolyline
 90
        4
 70
   128
 43
0.0
 10
1569.4721171149
 20
797.9858791178
 10
1568.3464386949
 20
799.1578573084
 10
1567.1162137278
 20
800.4386677595
 10
1566.7892375478
 20
800.7791029478
  0
ARC
  5
5BE
330
1F
100
AcDbEntity
  8
0
  6
CONTINUOUS
 62
     7
100
AcDbCircle
 10
1561.740781475
 20
795.9300671892
 30
0.0
 40
8.000000000000318
100
AcDbArc
 50
342.8007817661
 51
14.8907330224
  0
LWPOLYLINE
  5
5BF
330
1F
100
AcDbEntity
  8
0
  6
CONTINUOUS
 62
     7
100
AcDbPolyline
 90
        3
 70
   128
 43
0.0
 10
1566.5898153075
 20
790.881616641
 10
1568.3985629567
 20
792.6189185774
 10
1569.3830379733
 20
793.5645071512
  0
LINE
  5
5C0
330
1F
100
AcDbEntity
  8
0
  6
CONTINUOUS
 62
     8
100
AcDbLine
 10
1538.7407818326
 20
552.1800612288
 30
0.0
 11
1538.7407818326
 21
789.8921534607
 31
0.0
  0
LINE
  5
5C1
330
1F
100
AcDbEntity
  8
0
  6
CONTINUOUS
 62
     8
100
AcDbLine
 10
1538.7407818326
 20
802.7857217195
 30
0.0
 11
1538.7407818326
 21
1039.6800731497
 31
0.0
  0
LINE
  5
5C2
330
1F
100
AcDbEntity
  8
0
  6
CONTINUOUS
 62
     8
100
AcDbLine
 10
1543.7407770642
 20
539.180079587
 30
0.0
 11
1543.7407770642
 21
789.7914132292
 31
0.0
  0
LINE
  5
5C3
330
1F
100
AcDbEntity
  8
0
  6
CONTINUOUS
 62
     8
100
AcDbLine
 10
1543.7407770642
 20
802.7940514686
 30
0.0
 11
1543.7407770642
 21
1052.6800547915
 31
0.0
  0
ENDSEC
  0
SECTION
  2
OBJECTS
  0
DICTIONARY
  5
C
330
0
100
AcDbDictionary
  3
ACAD_GROUP
350
D
  3
ACAD_MLINESTYLE
350
17
  0
DICTIONARY
  5
D
102
{ACAD_REACTORS
330
C
102
}
330
C
100
AcDbDictionary
  0
DICTIONARY
  5
17
102
{ACAD_REACTORS
330
C
102
}
330
C
100
AcDbDictionary
  3
STANDARD
350
18
  0
MLINESTYLE
  5
18
102
{ACAD_REACTORS
330
17
102
}
330
17
100
AcDbMlineStyle
  2
Standard
 70
     0
  3

 62
   256
 51
90.0
 52
90.0
 71
     2
 49
0.5
 62
   256
  6
BYLAYER
 49
-0.5
 62
   256
  6
BYLAYER
  0
ENDSEC
  0
EOF
