  0
SECTION
  2
HEADER
  9
$ACADVER
  1
AC1014
  9
$ACADMAINTVER
 70
     9
  9
$DWGCODEPAGE
  3
ANSI_1252
  9
$INSBASE
 10
0.0
 20
0.0
 30
0.0
  9
$EXTMIN
 10
0.0
 20
0.0
 30
0.0
  9
$EXTMAX
 10
1680.0
 20
1188.0
 30
0.0
  9
$LIMMIN
 10
0.0
 20
0.0
  9
$LIMMAX
 10
1680.0
 20
1188.0
  9
$ORTHOMODE
 70
     0
  9
$REGENMODE
 70
     1
  9
$FILLMODE
 70
     1
  9
$QTEXTMODE
 70
     0
  9
$MIRRTEXT
 70
     1
  9
$DRAGMODE
 70
     2
  9
$LTSCALE
 40
4.0
  9
$OSMODE
 70
    37
  9
$ATTMODE
 70
     1
  9
$TEXTSIZE
 40
14.0
  9
$TRACEWID
 40
1.0
  9
$TEXTSTYLE
  7
STANDARD
  9
$CLAYER
  8
0
  9
$CELTYPE
  6
BYLAYER
  9
$CECOLOR
 62
   256
  9
$CELTSCALE
 40
1.0
  9
$DELOBJ
 70
     1
  9
$DISPSILH
 70
     0
  9
$DIMSCALE
 40
1.0
  9
$DIMASZ
 40
24.0
  9
$DIMEXO
 40
4.0
  9
$DIMDLI
 40
3.75
  9
$DIMRND
 40
0.0
  9
$DIMDLE
 40
0.0
  9
$DIMEXE
 40
4.0
  9
$DIMTP
 40
0.0
  9
$DIMTM
 40
0.0
  9
$DIMTXT
 40
14.0
  9
$DIMCEN
 40
2.5
  9
$DIMTSZ
 40
0.0
  9
$DIMTOL
 70
     0
  9
$DIMLIM
 70
     0
  9
$DIMTIH
 70
     1
  9
$DIMTOH
 70
     1
  9
$DIMSE1
 70
     0
  9
$DIMSE2
 70
     0
  9
$DIMTAD
 70
     1
  9
$DIMZIN
 70
     0
  9
$DIMBLK
  1

  9
$DIMASO
 70
     1
  9
$DIMSHO
 70
     1
  9
$DIMPOST
  1

  9
$DIMAPOST
  1

  9
$DIMALT
 70
     0
  9
$DIMALTD
 70
     3
  9
$DIMALTF
 40
0.0393700787
  9
$DIMLFAC
 40
1.0
  9
$DIMTOFL
 70
     1
  9
$DIMTVP
 40
0.0
  9
$DIMTIX
 70
     0
  9
$DIMSOXD
 70
     0
  9
$DIMSAH
 70
     0
  9
$DIMBLK1
  1

  9
$DIMBLK2
  1

  9
$DIMSTYLE
  2
ISO-25
  9
$DIMCLRD
 70
     0
  9
$DIMCLRE
 70
     0
  9
$DIMCLRT
 70
     0
  9
$DIMTFAC
 40
1.0
  9
$DIMGAP
 40
6.096
  9
$DIMJUST
 70
     0
  9
$DIMSD1
 70
     0
  9
$DIMSD2
 70
     0
  9
$DIMTOLJ
 70
     0
  9
$DIMTZIN
 70
     0
  9
$DIMALTZ
 70
     0
  9
$DIMALTTZ
 70
     0
  9
$DIMFIT
 70
     3
  9
$DIMUPT
 70
     0
  9
$DIMUNIT
 70
     2
  9
$DIMDEC
 70
     2
  9
$DIMTDEC
 70
     2
  9
$DIMALTU
 70
     2
  9
$DIMALTTD
 70
     3
  9
$DIMTXSTY
  7
STANDARD
  9
$DIMAUNIT
 70
     0
  9
$LUNITS
 70
     2
  9
$LUPREC
 70
     2
  9
$SKETCHINC
 40
1.0
  9
$FILLETRAD
 40
10.0
  9
$AUNITS
 70
     0
  9
$AUPREC
 70
     2
  9
$MENU
  1
.
  9
$ELEVATION
 40
0.0
  9
$PELEVATION
 40
0.0
  9
$THICKNESS
 40
0.0
  9
$LIMCHECK
 70
     0
  9
$CHAMFERA
 40
10.0
  9
$CHAMFERB
 40
10.0
  9
$CHAMFERC
 40
20.0
  9
$CHAMFERD
 40
0.0
  9
$SKPOLY
 70
     0
  9
$TDCREATE
 40
2456582.463717257
  9
$TDUPDATE
 40
2456582.46371787
  9
$TDINDWG
 40
0.0000000116
  9
$TDUSRTIMER
 40
0.0000000116
  9
$USRTIMER
 70
     1
  9
$ANGBASE
 50
0.0
  9
$ANGDIR
 70
     0
  9
$PDMODE
 70
     0
  9
$PDSIZE
 40
-1.0
  9
$PLINEWID
 40
0.0
  9
$COORDS
 70
     1
  9
$SPLFRAME
 70
     0
  9
$SPLINETYPE
 70
     6
  9
$SPLINESEGS
 70
     8
  9
$ATTDIA
 70
     0
  9
$ATTREQ
 70
     1
  9
$HANDLING
 70
     1
  9
$HANDSEED
  5
5C3
  9
$SURFTAB1
 70
     6
  9
$SURFTAB2
 70
     6
  9
$SURFTYPE
 70
     6
  9
$SURFU
 70
     6
  9
$SURFV
 70
     6
  9
$UCSNAME
  2

  9
$UCSORG
 10
0.0
 20
0.0
 30
0.0
  9
$UCSXDIR
 10
1.0
 20
0.0
 30
0.0
  9
$UCSYDIR
 10
0.0
 20
1.0
 30
0.0
  9
$PUCSNAME
  2

  9
$PUCSORG
 10
0.0
 20
0.0
 30
0.0
  9
$PUCSXDIR
 10
1.0
 20
0.0
 30
0.0
  9
$PUCSYDIR
 10
0.0
 20
1.0
 30
0.0
  9
$USERI1
 70
     0
  9
$USERI2
 70
     0
  9
$USERI3
 70
     0
  9
$USERI4
 70
     0
  9
$USERI5
 70
     0
  9
$USERR1
 40
0.0
  9
$USERR2
 40
0.0
  9
$USERR3
 40
0.0
  9
$USERR4
 40
0.0
  9
$USERR5
 40
0.0
  9
$WORLDVIEW
 70
     1
  9
$SHADEDGE
 70
     3
  9
$SHADEDIF
 70
    70
  9
$TILEMODE
 70
     1
  9
$MAXACTVP
 70
    64
  9
$PINSBASE
 10
0.0
 20
0.0
 30
0.0
  9
$PLIMCHECK
 70
     0
  9
$PEXTMIN
 10
1.0000000000E+20
 20
1.0000000000E+20
 30
1.0000000000E+20
  9
$PEXTMAX
 10
-1.0000000000E+20
 20
-1.0000000000E+20
 30
-1.0000000000E+20
  9
$PLIMMIN
 10
0.0
 20
0.0
  9
$PLIMMAX
 10
420.0
 20
297.0
  9
$UNITMODE
 70
     0
  9
$VISRETAIN
 70
     1
  9
$PLINEGEN
 70
     0
  9
$PSLTSCALE
 70
     1
  9
$TREEDEPTH
 70
  3020
  9
$PICKSTYLE
 70
     1
  9
$CMLSTYLE
  2
STANDARD
  9
$CMLJUST
 70
     0
  9
$CMLSCALE
 40
20.0
  9
$PROXYGRAPHICS
 70
     1
  9
$MEASUREMENT
 70
     1
  0
ENDSEC
  0
SECTION
  2
CLASSES
  0
CLASS
  1
ACDBDICTIONARYWDFLT
  2
AcDbDictionaryWithDefault
  3
ObjectDBX Classes
 90
        0
280
     0
281
     0
  0
CLASS
  1
VISUALSTYLE
  2
AcDbVisualStyle
  3
ObjectDBX Classes
 90
     4095
280
     0
281
     0
  0
CLASS
  1
MATERIAL
  2
AcDbMaterial
  3
ObjectDBX Classes
 90
     1153
280
     0
281
     0
  0
CLASS
  1
XRECORD
  2
AcDbXrecord
  3
AutoCAD 2000
 90
        0
280
     0
281
     0
  0
CLASS
  1
LWPOLYLINE
  2
AcDbPolyline
  3
AutoCAD 2000
 90
        0
280
     0
281
     1
  0
CLASS
  1
HATCH
  2
AcDbHatch
  3
AutoCAD 2000
 90
        0
280
     0
281
     1
  0
ENDSEC
  0
SECTION
  2
TABLES
  0
TABLE
  2
VPORT
  5
8
330
0
100
AcDbSymbolTable
 70
     1
  0
VPORT
  5
29
330
8
100
AcDbSymbolTableRecord
100
AcDbViewportTableRecord
  2
*ACTIVE
 70
     0
 10
0.0
 20
0.0
 11
1.0
 21
1.0
 12
840.0
 22
594.0
 13
0.0
 23
0.0
 14
10.0
 24
10.0
 15
10.0
 25
10.0
 16
0.0
 26
0.0
 36
1.0
 17
0.0
 27
0.0
 37
0.0
 40
1188.0
 41
1.4141414141
 42
50.0
 43
0.0
 44
0.0
 50
0.0
 51
0.0
 71
     0
 72
  2000
 73
     1
 74
     3
 75
     0
 76
     0
 77
     0
 78
     0
  0
ENDTAB
  0
TABLE
  2
LTYPE
  5
5
330
0
100
AcDbSymbolTable
 70
     6
  0
LTYPE
  5
14
330
5
100
AcDbSymbolTableRecord
100
AcDbLinetypeTableRecord
  2
BYBLOCK
 70
     0
  3

 72
    65
 73
     0
 40
0.0
  0
LTYPE
  5
15
330
5
100
AcDbSymbolTableRecord
100
AcDbLinetypeTableRecord
  2
BYLAYER
 70
     0
  3

 72
    65
 73
     0
 40
0.0
  0
LTYPE
  5
16
330
5
100
AcDbSymbolTableRecord
100
AcDbLinetypeTableRecord
  2
CONTINUOUS
 70
     0
  3
Solid line
 72
    65
 73
     0
 40
0.0
  0
LTYPE
  5
3F
330
5
100
AcDbSymbolTableRecord
100
AcDbLinetypeTableRecord
  2
HIDDEN
 70
     0
  3
Hidden __ __ __ __ __ __ __ __ __ __ __ __ __ __
 72
    65
 73
     2
 40
1.905
 49
1.27
 74
     0
 49
-0.635
 74
     0
  0
LTYPE
  5
40
330
5
100
AcDbSymbolTableRecord
100
AcDbLinetypeTableRecord
  2
PHANTOM
 70
     0
  3
Phantom ______  __  __  ______  __  __  ______
 72
    65
 73
     6
 40
12.7
 49
6.35
 74
     0
 49
-1.27
 74
     0
 49
1.27
 74
     0
 49
-1.27
 74
     0
 49
1.27
 74
     0
 49
-1.27
 74
     0
  0
LTYPE
  5
41
330
5
100
AcDbSymbolTableRecord
100
AcDbLinetypeTableRecord
  2
CENTER
 70
     0
  3
Center ____ _ ____ _ ____ _ ____ _ ____ _ ____
 72
    65
 73
     4
 40
10.16
 49
6.35
 74
     0
 49
-1.27
 74
     0
 49
1.27
 74
     0
 49
-1.27
 74
     0
  0
LTYPE
  5
42
330
5
100
AcDbSymbolTableRecord
100
AcDbLinetypeTableRecord
  2
CENTERX2
 70
     0
  3
Center (2x) ________  __  ________  __  _____
 72
    65
 73
     4
 40
20.32
 49
12.7
 74
     0
 49
-2.54
 74
     0
 49
2.54
 74
     0
 49
-2.54
 74
     0
  0
LTYPE
  5
43
330
5
100
AcDbSymbolTableRecord
100
AcDbLinetypeTableRecord
  2
DOT2
 70
     0
  3
Dot (.5x) ........................................
 72
    65
 73
     2
 40
0.635
 49
0.0
 74
     0
 49
-0.635
 74
     0
  0
ENDTAB
  0
TABLE
  2
LAYER
  5
2
330
0
100
AcDbSymbolTable
 70
     1
  0
LAYER
  5
10
330
2
100
AcDbSymbolTableRecord
100
AcDbLayerTableRecord
  2
0
 70
     0
 62
     7
  6
CONTINUOUS
  0
ENDTAB
  0
TABLE
  2
STYLE
  5
3
330
0
100
AcDbSymbolTable
 70
     1
  0
STYLE
  5
11
330
3
100
AcDbSymbolTableRecord
100
AcDbTextStyleTableRecord
  2
STANDARD
 70
     0
 40
0.0
 41
1.0
 50
0.0
 71
     0
 42
14.0
  3
txt
  4

  0
ENDTAB
  0
TABLE
  2
VIEW
  5
6
330
0
100
AcDbSymbolTable
 70
     0
  0
ENDTAB
  0
TABLE
  2
UCS
  5
7
330
0
100
AcDbSymbolTable
 70
     0
  0
ENDTAB
  0
TABLE
  2
APPID
  5
9
330
0
100
AcDbSymbolTable
 70
     1
  0
APPID
  5
12
330
9
100
AcDbSymbolTableRecord
100
AcDbRegAppTableRecord
  2
ACAD
 70
     0
  0
ENDTAB
  0
TABLE
  2
DIMSTYLE
  5
A
330
0
100
AcDbSymbolTable
 70
     1
  0
DIMSTYLE
105
27
330
A
100
AcDbSymbolTableRecord
100
AcDbDimStyleTableRecord
  2
ISO-25
 70
     0
  3

  4

  5

  6

  7

 40
1.0
 41
2.5
 42
0.625
 43
3.75
 44
1.25
 45
0.0
 46
0.0
 47
0.0
 48
0.0
140
2.5
141
2.5
142
0.0
143
0.0393700787
144
1.0
145
0.0
146
1.0
147
0.625
 71
     0
 72
     0
 73
     0
 74
     0
 75
     0
 76
     0
 77
     1
 78
     8
170
     0
171
     3
172
     1
173
     0
174
     0
175
     0
176
     0
177
     0
178
     0
270
     2
271
     2
272
     2
273
     2
274
     3
340
11
275
     0
280
     0
281
     0
282
     0
283
     0
284
     8
285
     0
286
     0
287
     3
288
     0
  0
ENDTAB
  0
TABLE
  2
BLOCK_RECORD
  5
1
330
0
100
AcDbSymbolTable
 70
     1
  0
BLOCK_RECORD
  5
1F
330
1
100
AcDbSymbolTableRecord
100
AcDbBlockTableRecord
  2
*MODEL_SPACE
  0
BLOCK_RECORD
  5
1B
330
1
100
AcDbSymbolTableRecord
100
AcDbBlockTableRecord
  2
*PAPER_SPACE
  0
BLOCK_RECORD
  5
23
330
1
100
AcDbSymbolTableRecord
100
AcDbBlockTableRecord
  2
*PAPER_SPACE0
  0
ENDTAB
  0
ENDSEC
  0
SECTION
  2
BLOCKS
  0
BLOCK
  5
20
330
1F
100
AcDbEntity
  8
0
100
AcDbBlockBegin
  2
*MODEL_SPACE
 70
     0
 10
0.0
 20
0.0
 30
0.0
  3
*MODEL_SPACE
  1

  0
ENDBLK
  5
21
330
1F
100
AcDbEntity
  8
0
100
AcDbBlockEnd
  0
BLOCK
  5
1C
330
1B
100
AcDbEntity
 67
     1
  8
0
100
AcDbBlockBegin
  2
*PAPER_SPACE
 70
     0
 10
0.0
 20
0.0
 30
0.0
  3
*PAPER_SPACE
  1

  0
ENDBLK
  5
1D
330
1B
100
AcDbEntity
 67
     1
  8
0
100
AcDbBlockEnd
  0
BLOCK
  5
24
330
23
100
AcDbEntity
  8
0
100
AcDbBlockBegin
  2
*PAPER_SPACE0
 70
     0
 10
0.0
 20
0.0
 30
0.0
  3
*PAPER_SPACE0
  1

  0
ENDBLK
  5
25
330
23
100
AcDbEntity
  8
0
100
AcDbBlockEnd
  0
ENDSEC
  0
SECTION
  2
ENTITIES
  0
LINE
  5
44
330
1F
100
AcDbEntity
  8
0
  6
CONTINUOUS
 62
     7
100
AcDbLine
 10
670.5171796321
 20
413.9953788355
 30
0.0
 11
668.7671872615
 21
413.9953788355
 31
0.0
  0
ARC
  5
45
330
1F
100
AcDbEntity
  8
0
  6
CONTINUOUS
 62
     7
100
AcDbCircle
 10
670.5171828507
 20
418.99537514
 30
0.0
 40
5.0
100
AcDbArc
 50
270.0
 51
0.0
  0
LINE
  5
46
330
1F
100
AcDbEntity
  8
0
  6
CONTINUOUS
 62
     7
100
AcDbLine
 10
675.5171897649
 20
421.4953716829
 30
0.0
 11
675.5171897649
 21
418.9953740671
 31
0.0
  0
LINE
  5
47
330
1F
100
AcDbEntity
  8
0
  6
CONTINUOUS
 62
     7
100
AcDbLine
 10
680.2671882152
 20
421.4953716829
 30
0.0
 11
675.5171897649
 21
421.4953716829
 31
0.0
  0
LINE
  5
48
330
1F
100
AcDbEntity
  8
0
  6
CONTINUOUS
 62
     7
100
AcDbLine
 10
695.0171771287
 20
421.4953716829
 30
0.0
 11
690.2671786784
 21
421.4953716829
 31
0.0
  0
LINE
  5
49
330
1F
100
AcDbEntity
  8
0
  6
CONTINUOUS
 62
     7
100
AcDbLine
 10
695.0171771287
 20
419.9953760937
 30
0.0
 11
695.0171771287
 21
421.4953716829
 31
0.0
  0
ARC
  5
4A
330
1F
100
AcDbEntity
  8
0
  6
CONTINUOUS
 62
     7
100
AcDbCircle
 10
687.0171828507
 20
419.99537514
 30
0.0
 40
8.0
100
AcDbArc
 50
315.0
 51
0.0
  0
LINE
  5
4B
330
1F
100
AcDbEntity
  8
0
  6
CONTINUOUS
 62
     7
100
AcDbLine
 10
677.1740349769
 20
398.8385137155
 30
0.0
 11
692.6740440368
 21
414.3385227754
 31
0.0
  0
ARC
  5
4C
330
1F
100
AcDbEntity
  8
0
  6
CONTINUOUS
 62
     7
100
AcDbCircle
 10
671.5171828507
 20
404.49537514
 30
0.0
 40
8.000000000000064
100
AcDbArc
 50
270.0
 51
315.0
  0
LINE
  5
4D
330
1F
100
AcDbEntity
  8
0
  6
CONTINUOUS
 62
     7
100
AcDbLine
 10
358.0171796321
 20
396.4953806236
 30
0.0
 11
671.5171816587
 21
396.4953806236
 31
0.0
  0
ARC
  5
4E
330
1F
100
AcDbEntity
  8
0
  6
CONTINUOUS
 62
     7
100
AcDbCircle
 10
358.0171828507
 20
404.49537514
 30
0.0
 40
7.999999999999984
100
AcDbArc
 50
225.0
 51
270.0
  0
LINE
  5
4F
330
1F
100
AcDbEntity
  8
0
  6
CONTINUOUS
 62
     7
100
AcDbLine
 10
336.8603321551
 20
414.3385227754
 30
0.0
 11
352.3603263139
 21
398.8385137155
 31
0.0
  0
ARC
  5
50
330
1F
100
AcDbEntity
  8
0
  6
CONTINUOUS
 62
     7
100
AcDbCircle
 10
342.5171828507
 20
419.99537514
 30
0.0
 40
8.000000000000025
100
AcDbArc
 50
180.0
 51
225.0
  0
LINE
  5
51
330
1F
100
AcDbEntity
  8
0
  6
CONTINUOUS
 62
     7
100
AcDbLine
 10
334.517184162
 20
421.4953716829
 30
0.0
 11
334.517184162
 21
419.9953760937
 31
0.0
  0
LINE
  5
52
330
1F
100
AcDbEntity
  8
0
  6
CONTINUOUS
 62
     7
100
AcDbLine
 10
339.2671826123
 20
421.4953716829
 30
0.0
 11
334.517184162
 21
421.4953716829
 31
0.0
  0
LINE
  5
53
330
1F
100
AcDbEntity
  8
0
  6
CONTINUOUS
 62
     7
100
AcDbLine
 10
346.2671818971
 20
424.4953777626
 30
0.0
 11
342.267188692
 21
424.4953777626
 31
0.0
  0
LINE
  5
54
330
1F
100
AcDbEntity
  8
0
  6
CONTINUOUS
 62
     7
100
AcDbLine
 10
354.017186427
 20
421.4953716829
 30
0.0
 11
349.2671879767
 21
421.4953716829
 31
0.0
  0
LINE
  5
55
330
1F
100
AcDbEntity
  8
0
  6
CONTINUOUS
 62
     7
100
AcDbLine
 10
354.017186427
 20
418.9953740671
 30
0.0
 11
354.017186427
 21
421.4953716829
 31
0.0
  0
ARC
  5
56
330
1F
100
AcDbEntity
  8
0
  6
CONTINUOUS
 62
     7
100
AcDbCircle
 10
359.0171828507
 20
418.99537514
 30
0.0
 40
5.0
100
AcDbArc
 50
180.0
 51
270.0
  0
LINE
  5
57
330
1F
100
AcDbEntity
  8
0
  6
CONTINUOUS
 62
     7
100
AcDbLine
 10
360.7671889304
 20
413.9953788355
 30
0.0
 11
359.0171816587
 21
413.9953788355
 31
0.0
  0
LINE
  5
58
330
1F
100
AcDbEntity
  8
0
  6
CONTINUOUS
 62
     7
100
AcDbLine
 10
360.7671889304
 20
413.9953788355
 30
0.0
 11
360.7671889304
 21
410.7453759744
 31
0.0
  0
LINE
  5
59
330
1F
100
AcDbEntity
  8
0
  6
CONTINUOUS
 62
     7
100
AcDbLine
 10
360.7671889304
 20
410.7453759744
 30
0.0
 11
361.5171792745
 21
410.7453759744
 31
0.0
  0
LINE
  5
5A
330
1F
100
AcDbEntity
  8
0
  6
CONTINUOUS
 62
     7
100
AcDbLine
 10
361.5171792745
 20
410.7453759744
 30
0.0
 11
361.5171792745
 21
411.4953812197
 31
0.0
  0
LINE
  5
5B
330
1F
100
AcDbEntity
  8
0
  6
CONTINUOUS
 62
     7
100
AcDbLine
 10
668.0171820163
 20
411.4953812197
 30
0.0
 11
361.5171792745
 21
411.4953812197
 31
0.0
  0
LINE
  5
5C
330
1F
100
AcDbEntity
  8
0
  6
CONTINUOUS
 62
     7
100
AcDbLine
 10
668.0171820163
 20
411.4953812197
 30
0.0
 11
668.0171820163
 21
410.7453759744
 31
0.0
  0
LINE
  5
5D
330
1F
100
AcDbEntity
  8
0
  6
CONTINUOUS
 62
     7
100
AcDbLine
 10
668.0171820163
 20
410.7453759744
 30
0.0
 11
668.7671872615
 21
410.7453759744
 31
0.0
  0
LINE
  5
5E
330
1F
100
AcDbEntity
  8
0
  6
CONTINUOUS
 62
     7
100
AcDbLine
 10
668.7671872615
 20
410.7453759744
 30
0.0
 11
668.7671872615
 21
413.9953788355
 31
0.0
  0
LINE
  5
5F
330
1F
100
AcDbEntity
  8
0
  6
CONTINUOUS
 62
     7
100
AcDbLine
 10
683.2671793937
 20
424.4953777626
 30
0.0
 11
680.2671882152
 21
421.4953716829
 31
0.0
  0
LINE
  5
60
330
1F
100
AcDbEntity
  8
0
  6
CONTINUOUS
 62
     7
100
AcDbLine
 10
690.2671786784
 20
421.4953716829
 30
0.0
 11
687.2671874999
 21
424.4953777626
 31
0.0
  0
LINE
  5
61
330
1F
100
AcDbEntity
  8
0
  6
CONTINUOUS
 62
     7
100
AcDbLine
 10
342.267188692
 20
424.4953777626
 30
0.0
 11
339.2671826123
 21
421.4953716829
 31
0.0
  0
LINE
  5
62
330
1F
100
AcDbEntity
  8
0
  6
CONTINUOUS
 62
     7
100
AcDbLine
 10
349.2671879767
 20
421.4953716829
 30
0.0
 11
346.2671818971
 21
424.4953777626
 31
0.0
  0
LINE
  5
63
330
1F
100
AcDbEntity
  8
0
  6
CONTINUOUS
 62
     7
100
AcDbLine
 10
687.2671874999
 20
424.4953777626
 30
0.0
 11
683.2671793937
 21
424.4953777626
 31
0.0
  0
LINE
  5
64
330
1F
100
AcDbEntity
  8
0
  6
CONTINUOUS
 62
     7
100
AcDbLine
 10
668.0171820163
 20
413.9953788355
 30
0.0
 11
361.5171792745
 21
413.9953788355
 31
0.0
  0
LINE
  5
65
330
1F
100
AcDbEntity
  8
0
  6
CONTINUOUS
 62
     7
100
AcDbLine
 10
668.0171820163
 20
413.9953788355
 30
0.0
 11
668.0171820163
 21
411.4953812197
 31
0.0
  0
LINE
  5
66
330
1F
100
AcDbEntity
  8
0
  6
CONTINUOUS
 62
     7
100
AcDbLine
 10
361.5171792745
 20
411.4953812197
 30
0.0
 11
361.5171792745
 21
413.9953788355
 31
0.0
  0
LINE
  5
67
330
1F
100
AcDbEntity
  8
0
  6
CONTINUOUS
 62
     7
100
AcDbLine
 10
656.0171874999
 20
414.995380862
 30
0.0
 11
373.517188692
 21
414.995380862
 31
0.0
  0
LINE
  5
68
330
1F
100
AcDbEntity
  8
0
  6
CONTINUOUS
 62
     7
100
AcDbLine
 10
656.0171874999
 20
413.9953788355
 30
0.0
 11
656.0171874999
 21
414.995380862
 31
0.0
  0
LINE
  5
69
330
1F
100
AcDbEntity
  8
0
  6
CONTINUOUS
 62
     7
100
AcDbLine
 10
373.517188692
 20
414.995380862
 30
0.0
 11
373.517188692
 21
413.9953788355
 31
0.0
  0
LWPOLYLINE
  5
6A
330
1F
100
AcDbEntity
  8
0
  6
CONTINUOUS
 62
     7
100
AcDbPolyline
 90
        3
 70
   128
 43
0.0
 10
656.0171874999
 20
415.9953679874
 10
655.9595349072
 20
416.5806408956
 10
655.9219243764
 20
416.7453732326
  0
LINE
  5
6B
330
1F
100
AcDbEntity
  8
0
  6
CONTINUOUS
 62
     7
100
AcDbLine
 10
656.0171874999
 20
415.9953679874
 30
0.0
 11
656.0171874999
 21
414.995380862
 31
0.0
  0
LINE
  5
6C
330
1F
100
AcDbEntity
  8
0
  6
CONTINUOUS
 62
     7
100
AcDbLine
 10
373.517188692
 20
414.995380862
 30
0.0
 11
373.517188692
 21
415.9953679874
 31
0.0
  0
LWPOLYLINE
  5
6D
330
1F
100
AcDbEntity
  8
0
  6
CONTINUOUS
 62
     7
100
AcDbPolyline
 90
        3
 70
   128
 43
0.0
 10
373.6124518155
 20
416.7453732326
 10
373.5748263835
 20
416.5806408956
 10
373.517188692
 20
415.9953679874
  0
LINE
  5
6E
330
1F
100
AcDbEntity
  8
0
  6
CONTINUOUS
 62
     7
100
AcDbLine
 10
359.0171816587
 20
840.4953714445
 30
0.0
 11
360.7671889304
 21
840.4953714445
 31
0.0
  0
ARC
  5
6F
330
1F
100
AcDbEntity
  8
0
  6
CONTINUOUS
 62
     7
100
AcDbCircle
 10
359.0171828507
 20
835.49537514
 30
0.0
 40
5.000000000000114
100
AcDbArc
 50
90.0
 51
180.0
  0
LINE
  5
70
330
1F
100
AcDbEntity
  8
0
  6
CONTINUOUS
 62
     7
100
AcDbLine
 10
354.017186427
 20
832.995378597
 30
0.0
 11
354.017186427
 21
835.4953762129
 31
0.0
  0
LINE
  5
71
330
1F
100
AcDbEntity
  8
0
  6
CONTINUOUS
 62
     7
100
AcDbLine
 10
349.2671879767
 20
832.995378597
 30
0.0
 11
354.017186427
 21
832.995378597
 31
0.0
  0
LINE
  5
72
330
1F
100
AcDbEntity
  8
0
  6
CONTINUOUS
 62
     7
100
AcDbLine
 10
346.2671818971
 20
829.9953725174
 30
0.0
 11
349.2671879767
 21
832.995378597
 31
0.0
  0
LINE
  5
73
330
1F
100
AcDbEntity
  8
0
  6
CONTINUOUS
 62
     7
100
AcDbLine
 10
342.267188692
 20
829.9953725174
 30
0.0
 11
346.2671818971
 21
829.9953725174
 31
0.0
  0
LINE
  5
74
330
1F
100
AcDbEntity
  8
0
  6
CONTINUOUS
 62
     7
100
AcDbLine
 10
339.2671826123
 20
832.995378597
 30
0.0
 11
342.267188692
 21
829.9953725174
 31
0.0
  0
LINE
  5
75
330
1F
100
AcDbEntity
  8
0
  6
CONTINUOUS
 62
     7
100
AcDbLine
 10
334.517184162
 20
832.995378597
 30
0.0
 11
339.2671826123
 21
832.995378597
 31
0.0
  0
LINE
  5
76
330
1F
100
AcDbEntity
  8
0
  6
CONTINUOUS
 62
     7
100
AcDbLine
 10
334.517184162
 20
834.4953741863
 30
0.0
 11
334.517184162
 21
832.995378597
 31
0.0
  0
ARC
  5
77
330
1F
100
AcDbEntity
  8
0
  6
CONTINUOUS
 62
     7
100
AcDbCircle
 10
342.5171828507
 20
834.49537514
 30
0.0
 40
8.000000000000064
100
AcDbArc
 50
135.0
 51
180.0
  0
LINE
  5
78
330
1F
100
AcDbEntity
  8
0
  6
CONTINUOUS
 62
     7
100
AcDbLine
 10
352.3603263139
 20
855.6522365644
 30
0.0
 11
336.8603321551
 21
840.1522275045
 31
0.0
  0
ARC
  5
79
330
1F
100
AcDbEntity
  8
0
  6
CONTINUOUS
 62
     7
100
AcDbCircle
 10
358.0171828507
 20
849.99537514
 30
0.0
 40
8.0
100
AcDbArc
 50
90.0
 51
135.0
  0
LINE
  5
7A
330
1F
100
AcDbEntity
  8
0
  6
CONTINUOUS
 62
     7
100
AcDbLine
 10
671.5171816587
 20
857.9953696564
 30
0.0
 11
358.0171796321
 21
857.9953696564
 31
0.0
  0
ARC
  5
7B
330
1F
100
AcDbEntity
  8
0
  6
CONTINUOUS
 62
     7
100
AcDbCircle
 10
671.5171828507
 20
849.99537514
 30
0.0
 40
8.000000000000064
100
AcDbArc
 50
45.0
 51
90.0
  0
LINE
  5
7C
330
1F
100
AcDbEntity
  8
0
  6
CONTINUOUS
 62
     7
100
AcDbLine
 10
692.6740440368
 20
840.1522275045
 30
0.0
 11
677.1740349769
 21
855.6522365644
 31
0.0
  0
ARC
  5
7D
330
1F
100
AcDbEntity
  8
0
  6
CONTINUOUS
 62
     7
100
AcDbCircle
 10
687.0171828507
 20
834.49537514
 30
0.0
 40
8.0
100
AcDbArc
 50
0.0
 51
45.0
  0
LINE
  5
7E
330
1F
100
AcDbEntity
  8
0
  6
CONTINUOUS
 62
     7
100
AcDbLine
 10
695.0171771287
 20
832.995378597
 30
0.0
 11
695.0171771287
 21
834.4953741863
 31
0.0
  0
LINE
  5
7F
330
1F
100
AcDbEntity
  8
0
  6
CONTINUOUS
 62
     7
100
AcDbLine
 10
690.2671786784
 20
832.995378597
 30
0.0
 11
695.0171771287
 21
832.995378597
 31
0.0
  0
LINE
  5
80
330
1F
100
AcDbEntity
  8
0
  6
CONTINUOUS
 62
     7
100
AcDbLine
 10
687.2671874999
 20
829.9953725174
 30
0.0
 11
690.2671786784
 21
832.995378597
 31
0.0
  0
LINE
  5
81
330
1F
100
AcDbEntity
  8
0
  6
CONTINUOUS
 62
     7
100
AcDbLine
 10
683.2671793937
 20
829.9953725174
 30
0.0
 11
687.2671874999
 21
829.9953725174
 31
0.0
  0
LINE
  5
82
330
1F
100
AcDbEntity
  8
0
  6
CONTINUOUS
 62
     7
100
AcDbLine
 10
680.2671882152
 20
832.995378597
 30
0.0
 11
683.2671793937
 21
829.9953725174
 31
0.0
  0
LINE
  5
83
330
1F
100
AcDbEntity
  8
0
  6
CONTINUOUS
 62
     7
100
AcDbLine
 10
675.5171897649
 20
832.995378597
 30
0.0
 11
680.2671882152
 21
832.995378597
 31
0.0
  0
LINE
  5
84
330
1F
100
AcDbEntity
  8
0
  6
CONTINUOUS
 62
     7
100
AcDbLine
 10
675.5171897649
 20
835.4953762129
 30
0.0
 11
675.5171897649
 21
832.995378597
 31
0.0
  0
ARC
  5
85
330
1F
100
AcDbEntity
  8
0
  6
CONTINUOUS
 62
     7
100
AcDbCircle
 10
670.5171828507
 20
835.49537514
 30
0.0
 40
5.000000000000114
100
AcDbArc
 50
0.0
 51
90.0
  0
LINE
  5
86
330
1F
100
AcDbEntity
  8
0
  6
CONTINUOUS
 62
     7
100
AcDbLine
 10
668.7671872615
 20
840.4953714445
 30
0.0
 11
670.5171796321
 21
840.4953714445
 31
0.0
  0
LINE
  5
87
330
1F
100
AcDbEntity
  8
0
  6
CONTINUOUS
 62
     7
100
AcDbLine
 10
668.7671872615
 20
840.4953714445
 30
0.0
 11
668.7671872615
 21
843.7453743055
 31
0.0
  0
LINE
  5
88
330
1F
100
AcDbEntity
  8
0
  6
CONTINUOUS
 62
     7
100
AcDbLine
 10
668.7671872615
 20
843.7453743055
 30
0.0
 11
668.0171820163
 21
843.7453743055
 31
0.0
  0
LINE
  5
89
330
1F
100
AcDbEntity
  8
0
  6
CONTINUOUS
 62
     7
100
AcDbLine
 10
668.0171820163
 20
843.7453743055
 30
0.0
 11
668.0171820163
 21
842.9953690603
 31
0.0
  0
LINE
  5
8A
330
1F
100
AcDbEntity
  8
0
  6
CONTINUOUS
 62
     7
100
AcDbLine
 10
361.5171792745
 20
842.9953690603
 30
0.0
 11
668.0171820163
 21
842.9953690603
 31
0.0
  0
LINE
  5
8B
330
1F
100
AcDbEntity
  8
0
  6
CONTINUOUS
 62
     7
100
AcDbLine
 10
361.5171792745
 20
842.9953690603
 30
0.0
 11
361.5171792745
 21
843.7453743055
 31
0.0
  0
LINE
  5
8C
330
1F
100
AcDbEntity
  8
0
  6
CONTINUOUS
 62
     7
100
AcDbLine
 10
361.5171792745
 20
843.7453743055
 30
0.0
 11
360.7671889304
 21
843.7453743055
 31
0.0
  0
LINE
  5
8D
330
1F
100
AcDbEntity
  8
0
  6
CONTINUOUS
 62
     7
100
AcDbLine
 10
360.7671889304
 20
843.7453743055
 30
0.0
 11
360.7671889304
 21
840.4953714445
 31
0.0
  0
LINE
  5
8E
330
1F
100
AcDbEntity
  8
0
  6
CONTINUOUS
 62
     7
100
AcDbLine
 10
668.0171820163
 20
842.9953690603
 30
0.0
 11
668.0171820163
 21
840.4953714445
 31
0.0
  0
LINE
  5
8F
330
1F
100
AcDbEntity
  8
0
  6
CONTINUOUS
 62
     7
100
AcDbLine
 10
361.5171792745
 20
840.4953714445
 30
0.0
 11
668.0171820163
 21
840.4953714445
 31
0.0
  0
LINE
  5
90
330
1F
100
AcDbEntity
  8
0
  6
CONTINUOUS
 62
     7
100
AcDbLine
 10
361.5171792745
 20
840.4953714445
 30
0.0
 11
361.5171792745
 21
842.9953690603
 31
0.0
  0
LINE
  5
91
330
1F
100
AcDbEntity
  8
0
  6
CONTINUOUS
 62
     7
100
AcDbLine
 10
692.0171859502
 20
485.995375736
 30
0.0
 11
692.0171859502
 21
468.9953710869
 31
0.0
  0
LINE
  5
92
330
1F
100
AcDbEntity
  8
0
  6
CONTINUOUS
 62
     7
100
AcDbLine
 10
692.0171859502
 20
468.9953710869
 30
0.0
 11
692.5171795129
 21
468.9953710869
 31
0.0
  0
LINE
  5
93
330
1F
100
AcDbEntity
  8
0
  6
CONTINUOUS
 62
     7
100
AcDbLine
 10
692.5171795129
 20
465.9953799083
 30
0.0
 11
692.5171795129
 21
468.9953710869
 31
0.0
  0
LINE
  5
94
330
1F
100
AcDbEntity
  8
0
  6
CONTINUOUS
 62
     7
100
AcDbLine
 10
692.5171795129
 20
465.4953714445
 30
0.0
 11
692.5171795129
 21
465.9953799083
 31
0.0
  0
LINE
  5
95
330
1F
100
AcDbEntity
  8
0
  6
CONTINUOUS
 62
     7
100
AcDbLine
 10
695.0171771287
 20
465.4953714445
 30
0.0
 11
692.5171795129
 21
465.4953714445
 31
0.0
  0
LINE
  5
96
330
1F
100
AcDbEntity
  8
0
  6
CONTINUOUS
 62
     7
100
AcDbLine
 10
695.0171771287
 20
421.4953716829
 30
0.0
 11
695.0171771287
 21
465.4953714445
 31
0.0
  0
LINE
  5
97
330
1F
100
AcDbEntity
  8
0
  6
CONTINUOUS
 62
     7
100
AcDbLine
 10
678.0171873807
 20
421.4953716829
 30
0.0
 11
680.2671882152
 21
421.4953716829
 31
0.0
  0
LINE
  5
98
330
1F
100
AcDbEntity
  8
0
  6
CONTINUOUS
 62
     7
100
AcDbLine
 10
678.0171873807
 20
832.995378597
 30
0.0
 11
678.0171873807
 21
421.4953716829
 31
0.0
  0
LINE
  5
99
330
1F
100
AcDbEntity
  8
0
  6
CONTINUOUS
 62
     7
100
AcDbLine
 10
680.2671882152
 20
832.995378597
 30
0.0
 11
678.0171873807
 21
832.995378597
 31
0.0
  0
LINE
  5
9A
330
1F
100
AcDbEntity
  8
0
  6
CONTINUOUS
 62
     7
100
AcDbLine
 10
695.0171771287
 20
788.9953788355
 30
0.0
 11
695.0171771287
 21
832.995378597
 31
0.0
  0
LINE
  5
9B
330
1F
100
AcDbEntity
  8
0
  6
CONTINUOUS
 62
     7
100
AcDbLine
 10
692.5171795129
 20
788.9953788355
 30
0.0
 11
695.0171771287
 21
788.9953788355
 31
0.0
  0
LINE
  5
9C
330
1F
100
AcDbEntity
  8
0
  6
CONTINUOUS
 62
     7
100
AcDbLine
 10
692.5171795129
 20
788.4953703716
 30
0.0
 11
692.5171795129
 21
788.9953788355
 31
0.0
  0
LINE
  5
9D
330
1F
100
AcDbEntity
  8
0
  6
CONTINUOUS
 62
     7
100
AcDbLine
 10
692.5171795129
 20
785.4953791931
 30
0.0
 11
692.5171795129
 21
788.4953703716
 31
0.0
  0
LINE
  5
9E
330
1F
100
AcDbEntity
  8
0
  6
CONTINUOUS
 62
     7
100
AcDbLine
 10
692.0171859502
 20
785.4953791931
 30
0.0
 11
692.5171795129
 21
785.4953791931
 31
0.0
  0
LINE
  5
9F
330
1F
100
AcDbEntity
  8
0
  6
CONTINUOUS
 62
     7
100
AcDbLine
 10
692.0171859502
 20
785.4953791931
 30
0.0
 11
692.0171859502
 21
768.4953745439
 31
0.0
  0
LINE
  5
A0
330
1F
100
AcDbEntity
  8
0
  6
CONTINUOUS
 62
     7
100
AcDbLine
 10
692.5171795129
 20
768.4953745439
 30
0.0
 11
692.0171859502
 21
768.4953745439
 31
0.0
  0
LINE
  5
A1
330
1F
100
AcDbEntity
  8
0
  6
CONTINUOUS
 62
     7
100
AcDbLine
 10
692.5171795129
 20
765.4953684643
 30
0.0
 11
692.5171795129
 21
768.4953745439
 31
0.0
  0
LINE
  5
A2
330
1F
100
AcDbEntity
  8
0
  6
CONTINUOUS
 62
     7
100
AcDbLine
 10
692.5171795129
 20
764.9953749016
 30
0.0
 11
692.5171795129
 21
765.4953684643
 31
0.0
  0
LINE
  5
A3
330
1F
100
AcDbEntity
  8
0
  6
CONTINUOUS
 62
     7
100
AcDbLine
 10
695.0171771287
 20
764.9953749016
 30
0.0
 11
692.5171795129
 21
764.9953749016
 31
0.0
  0
LINE
  5
A4
330
1F
100
AcDbEntity
  8
0
  6
CONTINUOUS
 62
     7
100
AcDbLine
 10
695.0171771287
 20
489.4953753784
 30
0.0
 11
695.0171771287
 21
764.9953749016
 31
0.0
  0
LINE
  5
A5
330
1F
100
AcDbEntity
  8
0
  6
CONTINUOUS
 62
     7
100
AcDbLine
 10
692.5171795129
 20
489.4953753784
 30
0.0
 11
695.0171771287
 21
489.4953753784
 31
0.0
  0
LINE
  5
A6
330
1F
100
AcDbEntity
  8
0
  6
CONTINUOUS
 62
     7
100
AcDbLine
 10
692.5171795129
 20
488.9953818157
 30
0.0
 11
692.5171795129
 21
489.4953753784
 31
0.0
  0
LINE
  5
A7
330
1F
100
AcDbEntity
  8
0
  6
CONTINUOUS
 62
     7
100
AcDbLine
 10
692.5171795129
 20
485.995375736
 30
0.0
 11
692.5171795129
 21
488.9953818157
 31
0.0
  0
LINE
  5
A8
330
1F
100
AcDbEntity
  8
0
  6
CONTINUOUS
 62
     7
100
AcDbLine
 10
692.5171795129
 20
485.995375736
 30
0.0
 11
692.0171859502
 21
485.995375736
 31
0.0
  0
LINE
  5
A9
330
1F
100
AcDbEntity
  8
0
  6
CONTINUOUS
 62
     7
100
AcDbLine
 10
692.5171795129
 20
788.4953703716
 30
0.0
 11
695.0171771287
 21
788.4953703716
 31
0.0
  0
LINE
  5
AA
330
1F
100
AcDbEntity
  8
0
  6
CONTINUOUS
 62
     7
100
AcDbLine
 10
695.0171771287
 20
785.4953791931
 30
0.0
 11
695.0171771287
 21
788.4953703716
 31
0.0
  0
LINE
  5
AB
330
1F
100
AcDbEntity
  8
0
  6
CONTINUOUS
 62
     7
100
AcDbLine
 10
695.0171771287
 20
785.4953791931
 30
0.0
 11
692.5171795129
 21
785.4953791931
 31
0.0
  0
LINE
  5
AC
330
1F
100
AcDbEntity
  8
0
  6
CONTINUOUS
 62
     7
100
AcDbLine
 10
695.0171771287
 20
765.4953684643
 30
0.0
 11
695.0171771287
 21
768.4953745439
 31
0.0
  0
LINE
  5
AD
330
1F
100
AcDbEntity
  8
0
  6
CONTINUOUS
 62
     7
100
AcDbLine
 10
695.0171771287
 20
765.4953684643
 30
0.0
 11
692.5171795129
 21
765.4953684643
 31
0.0
  0
LINE
  5
AE
330
1F
100
AcDbEntity
  8
0
  6
CONTINUOUS
 62
     7
100
AcDbLine
 10
692.5171795129
 20
768.4953745439
 30
0.0
 11
695.0171771287
 21
768.4953745439
 31
0.0
  0
LINE
  5
AF
330
1F
100
AcDbEntity
  8
0
  6
CONTINUOUS
 62
     7
100
AcDbLine
 10
695.0171771287
 20
465.9953799083
 30
0.0
 11
692.5171795129
 21
465.9953799083
 31
0.0
  0
LINE
  5
B0
330
1F
100
AcDbEntity
  8
0
  6
CONTINUOUS
 62
     7
100
AcDbLine
 10
695.0171771287
 20
468.9953710869
 30
0.0
 11
692.5171795129
 21
468.9953710869
 31
0.0
  0
LINE
  5
B1
330
1F
100
AcDbEntity
  8
0
  6
CONTINUOUS
 62
     7
100
AcDbLine
 10
695.0171771287
 20
465.9953799083
 30
0.0
 11
695.0171771287
 21
468.9953710869
 31
0.0
  0
LINE
  5
B2
330
1F
100
AcDbEntity
  8
0
  6
CONTINUOUS
 62
     7
100
AcDbLine
 10
695.0171771287
 20
485.995375736
 30
0.0
 11
695.0171771287
 21
488.9953818157
 31
0.0
  0
LINE
  5
B3
330
1F
100
AcDbEntity
  8
0
  6
CONTINUOUS
 62
     7
100
AcDbLine
 10
692.5171795129
 20
485.995375736
 30
0.0
 11
695.0171771287
 21
485.995375736
 31
0.0
  0
LINE
  5
B4
330
1F
100
AcDbEntity
  8
0
  6
CONTINUOUS
 62
     7
100
AcDbLine
 10
692.5171795129
 20
488.9953818157
 30
0.0
 11
695.0171771287
 21
488.9953818157
 31
0.0
  0
LINE
  5
B5
330
1F
100
AcDbEntity
  8
0
  6
CONTINUOUS
 62
     7
100
AcDbLine
 10
675.5171897649
 20
832.995378597
 30
0.0
 11
675.5171897649
 21
421.4953716829
 31
0.0
  0
LINE
  5
B6
330
1F
100
AcDbEntity
  8
0
  6
CONTINUOUS
 62
     7
100
AcDbLine
 10
697.3211648702
 20
784.9953707292
 30
0.0
 11
693.602371478
 21
784.9953707292
 31
0.0
  0
LINE
  5
B7
330
1F
100
AcDbEntity
  8
0
  6
CONTINUOUS
 62
     7
100
AcDbLine
 10
697.3211648702
 20
768.9953681066
 30
0.0
 11
697.3211648702
 21
784.9953707292
 31
0.0
  0
LINE
  5
B8
330
1F
100
AcDbEntity
  8
0
  6
CONTINUOUS
 62
     7
100
AcDbLine
 10
693.602371478
 20
768.9953681066
 30
0.0
 11
697.3211648702
 21
768.9953681066
 31
0.0
  0
LINE
  5
B9
330
1F
100
AcDbEntity
  8
0
  6
CONTINUOUS
 62
     7
100
AcDbLine
 10
693.602371478
 20
768.9953681066
 30
0.0
 11
693.602371478
 21
784.9953707292
 31
0.0
  0
LINE
  5
BA
330
1F
100
AcDbEntity
  8
0
  6
CONTINUOUS
 62
     7
100
AcDbLine
 10
697.3211648702
 20
768.9953681066
 30
0.0
 11
698.7700643777
 21
768.9953681066
 31
0.0
  0
LINE
  5
BB
330
1F
100
AcDbEntity
  8
0
  6
CONTINUOUS
 62
     7
100
AcDbLine
 10
698.7700643777
 20
768.9953681066
 30
0.0
 11
698.7700643777
 21
784.9953707292
 31
0.0
  0
LINE
  5
BC
330
1F
100
AcDbEntity
  8
0
  6
CONTINUOUS
 62
     7
100
AcDbLine
 10
697.3211648702
 20
784.9953707292
 30
0.0
 11
698.7700643777
 21
784.9953707292
 31
0.0
  0
LINE
  5
BD
330
1F
100
AcDbEntity
  8
0
  6
CONTINUOUS
 62
     7
100
AcDbLine
 10
697.3211648702
 20
469.4953795507
 30
0.0
 11
698.7700643777
 21
469.4953795507
 31
0.0
  0
LINE
  5
BE
330
1F
100
AcDbEntity
  8
0
  6
CONTINUOUS
 62
     7
100
AcDbLine
 10
697.3211648702
 20
485.4953821733
 30
0.0
 11
697.3211648702
 21
469.4953795507
 31
0.0
  0
LINE
  5
BF
330
1F
100
AcDbEntity
  8
0
  6
CONTINUOUS
 62
     7
100
AcDbLine
 10
697.3211648702
 20
485.4953821733
 30
0.0
 11
698.7700643777
 21
485.4953821733
 31
0.0
  0
LINE
  5
C0
330
1F
100
AcDbEntity
  8
0
  6
CONTINUOUS
 62
     7
100
AcDbLine
 10
698.7700643777
 20
485.4953821733
 30
0.0
 11
698.7700643777
 21
469.4953795507
 31
0.0
  0
LINE
  5
C1
330
1F
100
AcDbEntity
  8
0
  6
CONTINUOUS
 62
     7
100
AcDbLine
 10
693.602371478
 20
485.4953821733
 30
0.0
 11
697.3211648702
 21
485.4953821733
 31
0.0
  0
LINE
  5
C2
330
1F
100
AcDbEntity
  8
0
  6
CONTINUOUS
 62
     7
100
AcDbLine
 10
697.3211648702
 20
469.4953795507
 30
0.0
 11
693.602371478
 21
469.4953795507
 31
0.0
  0
LINE
  5
C3
330
1F
100
AcDbEntity
  8
0
  6
CONTINUOUS
 62
     7
100
AcDbLine
 10
693.602371478
 20
469.4953795507
 30
0.0
 11
693.602371478
 21
485.4953821733
 31
0.0
  0
LINE
  5
C4
330
1F
100
AcDbEntity
  8
0
  6
CONTINUOUS
 62
     7
100
AcDbLine
 10
674.5171877383
 20
433.4953811004
 30
0.0
 11
675.5171897649
 21
433.4953811004
 31
0.0
  0
LINE
  5
C5
330
1F
100
AcDbEntity
  8
0
  6
CONTINUOUS
 62
     7
100
AcDbLine
 10
674.5171877383
 20
820.9953691795
 30
0.0
 11
674.5171877383
 21
433.4953811004
 31
0.0
  0
LINE
  5
C6
330
1F
100
AcDbEntity
  8
0
  6
CONTINUOUS
 62
     7
100
AcDbLine
 10
675.5171897649
 20
820.9953691795
 30
0.0
 11
674.5171877383
 21
820.9953691795
 31
0.0
  0
ARC
  5
C7
330
1F
100
AcDbEntity
  8
0
  6
CONTINUOUS
 62
     7
100
AcDbCircle
 10
673.5171828507
 20
817.99537514
 30
0.0
 40
3.000000000000114
100
AcDbArc
 50
90.0
 51
120.0
  0
LINE
  5
C8
330
1F
100
AcDbEntity
  8
0
  6
CONTINUOUS
 62
     7
100
AcDbLine
 10
673.5171857118
 20
820.9953691795
 30
0.0
 11
674.5171877383
 21
820.9953691795
 31
0.0
  0
LINE
  5
C9
330
1F
100
AcDbEntity
  8
0
  6
CONTINUOUS
 62
     7
100
AcDbLine
 10
674.5171877383
 20
433.4953811004
 30
0.0
 11
673.5171857118
 21
433.4953811004
 31
0.0
  0
ARC
  5
CA
330
1F
100
AcDbEntity
  8
0
  6
CONTINUOUS
 62
     7
100
AcDbCircle
 10
673.5171828507
 20
436.49537514
 30
0.0
 40
2.999999999999985
100
AcDbArc
 50
240.0
 51
270.0
  0
LINE
  5
CB
330
1F
100
AcDbEntity
  8
0
  6
CONTINUOUS
 62
     7
100
AcDbLine
 10
693.5171815394
 20
485.4953821733
 30
0.0
 11
693.602371478
 21
485.4953821733
 31
0.0
  0
LINE
  5
CC
330
1F
100
AcDbEntity
  8
0
  6
CONTINUOUS
 62
     7
100
AcDbLine
 10
693.602371478
 20
469.4953795507
 30
0.0
 11
693.5171815394
 21
469.4953795507
 31
0.0
  0
LINE
  5
CD
330
1F
100
AcDbEntity
  8
0
  6
CONTINUOUS
 62
     7
100
AcDbLine
 10
693.5171815394
 20
469.4953795507
 30
0.0
 11
693.5171815394
 21
485.4953821733
 31
0.0
  0
LINE
  5
CE
330
1F
100
AcDbEntity
  8
0
  6
CONTINUOUS
 62
     7
100
AcDbLine
 10
693.602371478
 20
768.9953681066
 30
0.0
 11
693.5171815394
 21
768.9953681066
 31
0.0
  0
LINE
  5
CF
330
1F
100
AcDbEntity
  8
0
  6
CONTINUOUS
 62
     7
100
AcDbLine
 10
693.5171815394
 20
784.9953707292
 30
0.0
 11
693.602371478
 21
784.9953707292
 31
0.0
  0
LINE
  5
D0
330
1F
100
AcDbEntity
  8
0
  6
CONTINUOUS
 62
     7
100
AcDbLine
 10
693.5171815394
 20
768.9953681066
 30
0.0
 11
693.5171815394
 21
784.9953707292
 31
0.0
  0
LINE
  5
D1
330
1F
100
AcDbEntity
  8
0
  6
CONTINUOUS
 62
     7
100
AcDbLine
 10
693.5171815394
 20
785.4953791931
 30
0.0
 11
693.5171815394
 21
784.9953707292
 31
0.0
  0
LINE
  5
D2
330
1F
100
AcDbEntity
  8
0
  6
CONTINUOUS
 62
     7
100
AcDbLine
 10
695.0171771287
 20
784.9953707292
 30
0.0
 11
695.0171771287
 21
785.4953791931
 31
0.0
  0
LINE
  5
D3
330
1F
100
AcDbEntity
  8
0
  6
CONTINUOUS
 62
     7
100
AcDbLine
 10
693.5171815394
 20
768.9953681066
 30
0.0
 11
693.5171815394
 21
768.4953745439
 31
0.0
  0
LINE
  5
D4
330
1F
100
AcDbEntity
  8
0
  6
CONTINUOUS
 62
     7
100
AcDbLine
 10
695.0171771287
 20
768.4953745439
 30
0.0
 11
695.0171771287
 21
768.9953681066
 31
0.0
  0
LINE
  5
D5
330
1F
100
AcDbEntity
  8
0
  6
CONTINUOUS
 62
     7
100
AcDbLine
 10
693.5171815394
 20
468.9953710869
 30
0.0
 11
693.5171815394
 21
469.4953795507
 31
0.0
  0
LINE
  5
D6
330
1F
100
AcDbEntity
  8
0
  6
CONTINUOUS
 62
     7
100
AcDbLine
 10
695.0171771287
 20
469.4953795507
 30
0.0
 11
695.0171771287
 21
468.9953710869
 31
0.0
  0
LINE
  5
D7
330
1F
100
AcDbEntity
  8
0
  6
CONTINUOUS
 62
     7
100
AcDbLine
 10
693.5171815394
 20
485.4953821733
 30
0.0
 11
693.5171815394
 21
485.995375736
 31
0.0
  0
LINE
  5
D8
330
1F
100
AcDbEntity
  8
0
  6
CONTINUOUS
 62
     7
100
AcDbLine
 10
695.0171771287
 20
485.995375736
 30
0.0
 11
695.0171771287
 21
485.4953821733
 31
0.0
  0
LINE
  5
D9
330
1F
100
AcDbEntity
  8
0
  6
CONTINUOUS
 62
     7
100
AcDbLine
 10
337.5171902417
 20
768.4953745439
 30
0.0
 11
337.5171902417
 21
785.4953791931
 31
0.0
  0
LINE
  5
DA
330
1F
100
AcDbEntity
  8
0
  6
CONTINUOUS
 62
     7
100
AcDbLine
 10
337.5171902417
 20
785.4953791931
 30
0.0
 11
337.0171817779
 21
785.4953791931
 31
0.0
  0
LINE
  5
DB
330
1F
100
AcDbEntity
  8
0
  6
CONTINUOUS
 62
     7
100
AcDbLine
 10
337.0171817779
 20
788.4953703716
 30
0.0
 11
337.0171817779
 21
785.4953791931
 31
0.0
  0
LINE
  5
DC
330
1F
100
AcDbEntity
  8
0
  6
CONTINUOUS
 62
     7
100
AcDbLine
 10
337.0171817779
 20
788.9953788355
 30
0.0
 11
337.0171817779
 21
788.4953703716
 31
0.0
  0
LINE
  5
DD
330
1F
100
AcDbEntity
  8
0
  6
CONTINUOUS
 62
     7
100
AcDbLine
 10
334.517184162
 20
788.9953788355
 30
0.0
 11
337.0171817779
 21
788.9953788355
 31
0.0
  0
LINE
  5
DE
330
1F
100
AcDbEntity
  8
0
  6
CONTINUOUS
 62
     7
100
AcDbLine
 10
334.517184162
 20
832.995378597
 30
0.0
 11
334.517184162
 21
788.9953788355
 31
0.0
  0
LINE
  5
DF
330
1F
100
AcDbEntity
  8
0
  6
CONTINUOUS
 62
     7
100
AcDbLine
 10
351.5171888112
 20
832.995378597
 30
0.0
 11
349.2671879767
 21
832.995378597
 31
0.0
  0
LINE
  5
E0
330
1F
100
AcDbEntity
  8
0
  6
CONTINUOUS
 62
     7
100
AcDbLine
 10
351.5171888112
 20
421.4953716829
 30
0.0
 11
351.5171888112
 21
832.995378597
 31
0.0
  0
LINE
  5
E1
330
1F
100
AcDbEntity
  8
0
  6
CONTINUOUS
 62
     7
100
AcDbLine
 10
349.2671879767
 20
421.4953716829
 30
0.0
 11
351.5171888112
 21
421.4953716829
 31
0.0
  0
LINE
  5
E2
330
1F
100
AcDbEntity
  8
0
  6
CONTINUOUS
 62
     7
100
AcDbLine
 10
334.517184162
 20
465.4953714445
 30
0.0
 11
334.517184162
 21
421.4953716829
 31
0.0
  0
LINE
  5
E3
330
1F
100
AcDbEntity
  8
0
  6
CONTINUOUS
 62
     7
100
AcDbLine
 10
337.0171817779
 20
465.4953714445
 30
0.0
 11
334.517184162
 21
465.4953714445
 31
0.0
  0
LINE
  5
E4
330
1F
100
AcDbEntity
  8
0
  6
CONTINUOUS
 62
     7
100
AcDbLine
 10
337.0171817779
 20
465.9953799083
 30
0.0
 11
337.0171817779
 21
465.4953714445
 31
0.0
  0
LINE
  5
E5
330
1F
100
AcDbEntity
  8
0
  6
CONTINUOUS
 62
     7
100
AcDbLine
 10
337.0171817779
 20
468.9953710869
 30
0.0
 11
337.0171817779
 21
465.9953799083
 31
0.0
  0
LINE
  5
E6
330
1F
100
AcDbEntity
  8
0
  6
CONTINUOUS
 62
     7
100
AcDbLine
 10
337.5171902417
 20
468.9953710869
 30
0.0
 11
337.0171817779
 21
468.9953710869
 31
0.0
  0
LINE
  5
E7
330
1F
100
AcDbEntity
  8
0
  6
CONTINUOUS
 62
     7
100
AcDbLine
 10
337.5171902417
 20
468.9953710869
 30
0.0
 11
337.5171902417
 21
485.995375736
 31
0.0
  0
LINE
  5
E8
330
1F
100
AcDbEntity
  8
0
  6
CONTINUOUS
 62
     7
100
AcDbLine
 10
337.0171817779
 20
485.995375736
 30
0.0
 11
337.5171902417
 21
485.995375736
 31
0.0
  0
LINE
  5
E9
330
1F
100
AcDbEntity
  8
0
  6
CONTINUOUS
 62
     7
100
AcDbLine
 10
337.0171817779
 20
488.9953818157
 30
0.0
 11
337.0171817779
 21
485.995375736
 31
0.0
  0
LINE
  5
EA
330
1F
100
AcDbEntity
  8
0
  6
CONTINUOUS
 62
     7
100
AcDbLine
 10
337.0171817779
 20
489.4953753784
 30
0.0
 11
337.0171817779
 21
488.9953818157
 31
0.0
  0
LINE
  5
EB
330
1F
100
AcDbEntity
  8
0
  6
CONTINUOUS
 62
     7
100
AcDbLine
 10
334.517184162
 20
489.4953753784
 30
0.0
 11
337.0171817779
 21
489.4953753784
 31
0.0
  0
LINE
  5
EC
330
1F
100
AcDbEntity
  8
0
  6
CONTINUOUS
 62
     7
100
AcDbLine
 10
334.517184162
 20
764.9953749016
 30
0.0
 11
334.517184162
 21
489.4953753784
 31
0.0
  0
LINE
  5
ED
330
1F
100
AcDbEntity
  8
0
  6
CONTINUOUS
 62
     7
100
AcDbLine
 10
337.0171817779
 20
764.9953749016
 30
0.0
 11
334.517184162
 21
764.9953749016
 31
0.0
  0
LINE
  5
EE
330
1F
100
AcDbEntity
  8
0
  6
CONTINUOUS
 62
     7
100
AcDbLine
 10
337.0171817779
 20
765.4953684643
 30
0.0
 11
337.0171817779
 21
764.9953749016
 31
0.0
  0
LINE
  5
EF
330
1F
100
AcDbEntity
  8
0
  6
CONTINUOUS
 62
     7
100
AcDbLine
 10
337.0171817779
 20
768.4953745439
 30
0.0
 11
337.0171817779
 21
765.4953684643
 31
0.0
  0
LINE
  5
F0
330
1F
100
AcDbEntity
  8
0
  6
CONTINUOUS
 62
     7
100
AcDbLine
 10
337.0171817779
 20
768.4953745439
 30
0.0
 11
337.5171902417
 21
768.4953745439
 31
0.0
  0
LINE
  5
F1
330
1F
100
AcDbEntity
  8
0
  6
CONTINUOUS
 62
     7
100
AcDbLine
 10
334.517184162
 20
788.4953703716
 30
0.0
 11
337.0171817779
 21
788.4953703716
 31
0.0
  0
LINE
  5
F2
330
1F
100
AcDbEntity
  8
0
  6
CONTINUOUS
 62
     7
100
AcDbLine
 10
334.517184162
 20
785.4953791931
 30
0.0
 11
337.0171817779
 21
785.4953791931
 31
0.0
  0
LINE
  5
F3
330
1F
100
AcDbEntity
  8
0
  6
CONTINUOUS
 62
     7
100
AcDbLine
 10
334.517184162
 20
788.4953703716
 30
0.0
 11
334.517184162
 21
785.4953791931
 31
0.0
  0
LINE
  5
F4
330
1F
100
AcDbEntity
  8
0
  6
CONTINUOUS
 62
     7
100
AcDbLine
 10
337.0171817779
 20
765.4953684643
 30
0.0
 11
334.517184162
 21
765.4953684643
 31
0.0
  0
LINE
  5
F5
330
1F
100
AcDbEntity
  8
0
  6
CONTINUOUS
 62
     7
100
AcDbLine
 10
334.517184162
 20
768.4953745439
 30
0.0
 11
334.517184162
 21
765.4953684643
 31
0.0
  0
LINE
  5
F6
330
1F
100
AcDbEntity
  8
0
  6
CONTINUOUS
 62
     7
100
AcDbLine
 10
337.0171817779
 20
768.4953745439
 30
0.0
 11
334.517184162
 21
768.4953745439
 31
0.0
  0
LINE
  5
F7
330
1F
100
AcDbEntity
  8
0
  6
CONTINUOUS
 62
     7
100
AcDbLine
 10
334.517184162
 20
488.9953818157
 30
0.0
 11
334.517184162
 21
485.995375736
 31
0.0
  0
LINE
  5
F8
330
1F
100
AcDbEntity
  8
0
  6
CONTINUOUS
 62
     7
100
AcDbLine
 10
334.517184162
 20
488.9953818157
 30
0.0
 11
337.0171817779
 21
488.9953818157
 31
0.0
  0
LINE
  5
F9
330
1F
100
AcDbEntity
  8
0
  6
CONTINUOUS
 62
     7
100
AcDbLine
 10
337.0171817779
 20
485.995375736
 30
0.0
 11
334.517184162
 21
485.995375736
 31
0.0
  0
LINE
  5
FA
330
1F
100
AcDbEntity
  8
0
  6
CONTINUOUS
 62
     7
100
AcDbLine
 10
337.0171817779
 20
465.9953799083
 30
0.0
 11
334.517184162
 21
465.9953799083
 31
0.0
  0
LINE
  5
FB
330
1F
100
AcDbEntity
  8
0
  6
CONTINUOUS
 62
     7
100
AcDbLine
 10
334.517184162
 20
468.9953710869
 30
0.0
 11
334.517184162
 21
465.9953799083
 31
0.0
  0
LINE
  5
FC
330
1F
100
AcDbEntity
  8
0
  6
CONTINUOUS
 62
     7
100
AcDbLine
 10
334.517184162
 20
468.9953710869
 30
0.0
 11
337.0171817779
 21
468.9953710869
 31
0.0
  0
LINE
  5
FD
330
1F
100
AcDbEntity
  8
0
  6
CONTINUOUS
 62
     7
100
AcDbLine
 10
354.017186427
 20
421.4953716829
 30
0.0
 11
354.017186427
 21
832.995378597
 31
0.0
  0
LINE
  5
FE
330
1F
100
AcDbEntity
  8
0
  6
CONTINUOUS
 62
     7
100
AcDbLine
 10
335.9320047139
 20
768.9953681066
 30
0.0
 11
332.2131964206
 21
768.9953681066
 31
0.0
  0
LINE
  5
FF
330
1F
100
AcDbEntity
  8
0
  6
CONTINUOUS
 62
     7
100
AcDbLine
 10
332.2131964206
 20
768.9953681066
 30
0.0
 11
332.2131964206
 21
784.9953707292
 31
0.0
  0
LINE
  5
100
330
1F
100
AcDbEntity
  8
0
  6
CONTINUOUS
 62
     7
100
AcDbLine
 10
332.2131964206
 20
784.9953707292
 30
0.0
 11
335.9320047139
 21
784.9953707292
 31
0.0
  0
LINE
  5
101
330
1F
100
AcDbEntity
  8
0
  6
CONTINUOUS
 62
     7
100
AcDbLine
 10
335.9320047139
 20
784.9953707292
 30
0.0
 11
335.9320047139
 21
768.9953681066
 31
0.0
  0
LINE
  5
102
330
1F
100
AcDbEntity
  8
0
  6
CONTINUOUS
 62
     7
100
AcDbLine
 10
332.2131964206
 20
768.9953681066
 30
0.0
 11
330.7643118142
 21
768.9953681066
 31
0.0
  0
LINE
  5
103
330
1F
100
AcDbEntity
  8
0
  6
CONTINUOUS
 62
     7
100
AcDbLine
 10
330.7643118142
 20
768.9953681066
 30
0.0
 11
330.7643118142
 21
784.9953707292
 31
0.0
  0
LINE
  5
104
330
1F
100
AcDbEntity
  8
0
  6
CONTINUOUS
 62
     7
100
AcDbLine
 10
332.2131964206
 20
784.9953707292
 30
0.0
 11
330.7643118142
 21
784.9953707292
 31
0.0
  0
LINE
  5
105
330
1F
100
AcDbEntity
  8
0
  6
CONTINUOUS
 62
     7
100
AcDbLine
 10
332.2131964206
 20
469.4953795507
 30
0.0
 11
335.9320047139
 21
469.4953795507
 31
0.0
  0
LINE
  5
106
330
1F
100
AcDbEntity
  8
0
  6
CONTINUOUS
 62
     7
100
AcDbLine
 10
332.2131964206
 20
485.4953821733
 30
0.0
 11
332.2131964206
 21
469.4953795507
 31
0.0
  0
LINE
  5
107
330
1F
100
AcDbEntity
  8
0
  6
CONTINUOUS
 62
     7
100
AcDbLine
 10
335.9320047139
 20
485.4953821733
 30
0.0
 11
332.2131964206
 21
485.4953821733
 31
0.0
  0
LINE
  5
108
330
1F
100
AcDbEntity
  8
0
  6
CONTINUOUS
 62
     7
100
AcDbLine
 10
335.9320047139
 20
485.4953821733
 30
0.0
 11
335.9320047139
 21
469.4953795507
 31
0.0
  0
LINE
  5
109
330
1F
100
AcDbEntity
  8
0
  6
CONTINUOUS
 62
     7
100
AcDbLine
 10
332.2131964206
 20
485.4953821733
 30
0.0
 11
330.7643118142
 21
485.4953821733
 31
0.0
  0
LINE
  5
10A
330
1F
100
AcDbEntity
  8
0
  6
CONTINUOUS
 62
     7
100
AcDbLine
 10
332.2131964206
 20
469.4953795507
 30
0.0
 11
330.7643118142
 21
469.4953795507
 31
0.0
  0
LINE
  5
10B
330
1F
100
AcDbEntity
  8
0
  6
CONTINUOUS
 62
     7
100
AcDbLine
 10
330.7643118142
 20
485.4953821733
 30
0.0
 11
330.7643118142
 21
469.4953795507
 31
0.0
  0
LINE
  5
10C
330
1F
100
AcDbEntity
  8
0
  6
CONTINUOUS
 62
     7
100
AcDbLine
 10
336.0171797513
 20
768.9953681066
 30
0.0
 11
335.9320047139
 21
768.9953681066
 31
0.0
  0
LINE
  5
10D
330
1F
100
AcDbEntity
  8
0
  6
CONTINUOUS
 62
     7
100
AcDbLine
 10
335.9320047139
 20
784.9953707292
 30
0.0
 11
336.0171797513
 21
784.9953707292
 31
0.0
  0
LINE
  5
10E
330
1F
100
AcDbEntity
  8
0
  6
CONTINUOUS
 62
     7
100
AcDbLine
 10
336.0171797513
 20
784.9953707292
 30
0.0
 11
336.0171797513
 21
768.9953681066
 31
0.0
  0
LINE
  5
10F
330
1F
100
AcDbEntity
  8
0
  6
CONTINUOUS
 62
     7
100
AcDbLine
 10
336.0171797513
 20
469.4953795507
 30
0.0
 11
335.9320047139
 21
469.4953795507
 31
0.0
  0
LINE
  5
110
330
1F
100
AcDbEntity
  8
0
  6
CONTINUOUS
 62
     7
100
AcDbLine
 10
335.9320047139
 20
485.4953821733
 30
0.0
 11
336.0171797513
 21
485.4953821733
 31
0.0
  0
LINE
  5
111
330
1F
100
AcDbEntity
  8
0
  6
CONTINUOUS
 62
     7
100
AcDbLine
 10
336.0171797513
 20
485.4953821733
 30
0.0
 11
336.0171797513
 21
469.4953795507
 31
0.0
  0
LINE
  5
112
330
1F
100
AcDbEntity
  8
0
  6
CONTINUOUS
 62
     7
100
AcDbLine
 10
336.0171797513
 20
785.4953791931
 30
0.0
 11
336.0171797513
 21
784.9953707292
 31
0.0
  0
LINE
  5
113
330
1F
100
AcDbEntity
  8
0
  6
CONTINUOUS
 62
     7
100
AcDbLine
 10
334.517184162
 20
784.9953707292
 30
0.0
 11
334.517184162
 21
785.4953791931
 31
0.0
  0
LINE
  5
114
330
1F
100
AcDbEntity
  8
0
  6
CONTINUOUS
 62
     7
100
AcDbLine
 10
336.0171797513
 20
768.9953681066
 30
0.0
 11
336.0171797513
 21
768.4953745439
 31
0.0
  0
LINE
  5
115
330
1F
100
AcDbEntity
  8
0
  6
CONTINUOUS
 62
     7
100
AcDbLine
 10
334.517184162
 20
768.4953745439
 30
0.0
 11
334.517184162
 21
768.9953681066
 31
0.0
  0
LINE
  5
116
330
1F
100
AcDbEntity
  8
0
  6
CONTINUOUS
 62
     7
100
AcDbLine
 10
336.0171797513
 20
485.4953821733
 30
0.0
 11
336.0171797513
 21
485.995375736
 31
0.0
  0
LINE
  5
117
330
1F
100
AcDbEntity
  8
0
  6
CONTINUOUS
 62
     7
100
AcDbLine
 10
334.517184162
 20
485.995375736
 30
0.0
 11
334.517184162
 21
485.4953821733
 31
0.0
  0
LINE
  5
118
330
1F
100
AcDbEntity
  8
0
  6
CONTINUOUS
 62
     7
100
AcDbLine
 10
336.0171797513
 20
468.9953710869
 30
0.0
 11
336.0171797513
 21
469.4953795507
 31
0.0
  0
LINE
  5
119
330
1F
100
AcDbEntity
  8
0
  6
CONTINUOUS
 62
     7
100
AcDbLine
 10
334.517184162
 20
469.4953795507
 30
0.0
 11
334.517184162
 21
468.9953710869
 31
0.0
  0
CIRCLE
  5
11A
330
1F
100
AcDbEntity
  8
0
  6
CONTINUOUS
 62
     7
100
AcDbCircle
 10
376.0171828507
 20
436.74537514
 30
0.0
 40
3.689999999999998
  0
LINE
  5
11B
330
1F
100
AcDbEntity
  8
0
  6
CONTINUOUS
 62
     7
100
AcDbLine
 10
359.5171901225
 20
834.245377405
 30
0.0
 11
359.5171901225
 21
420.245372875
 31
0.0
  0
LINE
  5
11C
330
1F
100
AcDbEntity
  8
0
  6
CONTINUOUS
 62
     7
100
AcDbLine
 10
668.517175579
 20
834.245377405
 30
0.0
 11
359.5171901225
 21
834.245377405
 31
0.0
  0
LINE
  5
11D
330
1F
100
AcDbEntity
  8
0
  6
CONTINUOUS
 62
     7
100
AcDbLine
 10
668.517175579
 20
420.245372875
 30
0.0
 11
668.517175579
 21
834.245377405
 31
0.0
  0
LINE
  5
11E
330
1F
100
AcDbEntity
  8
0
  6
CONTINUOUS
 62
     7
100
AcDbLine
 10
359.5171901225
 20
420.245372875
 30
0.0
 11
668.517175579
 21
420.245372875
 31
0.0
  0
CIRCLE
  5
11F
330
1F
100
AcDbEntity
  8
0
  6
CONTINUOUS
 62
     7
100
AcDbCircle
 10
376.0171828507
 20
436.74537514
 30
0.0
 40
3.0
  0
ARC
  5
120
330
1F
100
AcDbEntity
  8
0
  6
CONTINUOUS
 62
     7
100
AcDbCircle
 10
351.0197647145
 20
834.1601464025
 30
0.0
 40
8.497852839860396
100
AcDbArc
 50
0.5746697072
 51
24.9545005079
  0
LINE
  5
121
330
1F
100
AcDbEntity
  8
0
  6
CONTINUOUS
 62
     7
100
AcDbLine
 10
358.7242844342
 20
837.7453770473
 30
0.0
 11
669.3100812673
 21
837.7453770473
 31
0.0
  0
ARC
  5
122
330
1F
100
AcDbEntity
  8
0
  6
CONTINUOUS
 62
     7
100
AcDbCircle
 10
678.9850992627
 20
833.713740845
 30
0.0
 40
10.48141515635434
100
AcDbArc
 50
157.3782241395
 51
177.0926056453
  0
LINE
  5
123
330
1F
100
AcDbEntity
  8
0
  6
CONTINUOUS
 62
     7
100
AcDbLine
 10
669.3100812673
 20
837.7453770473
 30
0.0
 11
669.3100812673
 21
835.7453729942
 31
0.0
  0
ARC
  5
124
330
1F
100
AcDbEntity
  8
0
  6
CONTINUOUS
 62
     7
100
AcDbCircle
 10
671.4639025257
 20
833.6472866738
 30
0.0
 40
3.006810971968864
100
AcDbArc
 50
135.7510026447
 51
168.5266580587
  0
ARC
  5
125
330
1F
100
AcDbEntity
  8
0
  6
CONTINUOUS
 62
     7
100
AcDbCircle
 10
668.4321501433
 20
842.7421075645
 30
0.0
 40
8.497155566983867
100
AcDbArc
 50
270.5733306728
 51
294.9552703609
  0
LINE
  5
126
330
1F
100
AcDbEntity
  8
0
  6
CONTINUOUS
 62
     7
100
AcDbLine
 10
672.0171901225
 20
419.4524820879
 30
0.0
 11
672.0171901225
 21
835.0382681921
 31
0.0
  0
ARC
  5
127
330
1F
100
AcDbEntity
  8
0
  6
CONTINUOUS
 62
     7
100
AcDbCircle
 10
667.9858429878
 20
409.7785333886
 30
0.0
 40
10.48031693965582
100
AcDbArc
 50
67.3774343089
 51
87.0939646574
  0
LWPOLYLINE
  5
128
330
1F
100
AcDbEntity
  8
0
  6
CONTINUOUS
 62
     7
100
AcDbPolyline
 90
        6
 70
   128
 43
0.0
 10
668.517175579
 20
834.245377405
 10
669.0402659415
 20
834.4251748159
 10
669.4976868867
 20
834.604987128
 10
669.8319050311
 20
834.7847249344
 10
670.0011822223
 20
834.9644627407
 10
670.0171860694
 20
835.0382681921
  0
LINE
  5
129
330
1F
100
AcDbEntity
  8
0
  6
CONTINUOUS
 62
     7
100
AcDbLine
 10
672.0171901225
 20
835.0382681921
 30
0.0
 11
670.0171860694
 21
835.0382681921
 31
0.0
  0
ARC
  5
12A
330
1F
100
AcDbEntity
  8
0
  6
CONTINUOUS
 62
     7
100
AcDbCircle
 10
359.6022155582
 20
411.7486427154
 30
0.0
 40
8.497155566983754
100
AcDbArc
 50
90.5733306728
 51
114.9552703609
  0
LINE
  5
12B
330
1F
100
AcDbEntity
  8
0
  6
CONTINUOUS
 62
     7
100
AcDbLine
 10
356.017175579
 20
835.0382681921
 30
0.0
 11
356.017175579
 21
419.4524820879
 31
0.0
  0
ARC
  5
12C
330
1F
100
AcDbEntity
  8
0
  6
CONTINUOUS
 62
     7
100
AcDbCircle
 10
360.0485227136
 20
844.7122168913
 30
0.0
 40
10.48031693965583
100
AcDbArc
 50
247.3774343089
 51
267.0939646574
  0
LWPOLYLINE
  5
12D
330
1F
100
AcDbEntity
  8
0
  6
CONTINUOUS
 62
     7
100
AcDbPolyline
 90
        6
 70
   128
 43
0.0
 10
359.5171901225
 20
834.245377405
 10
359.3373778104
 20
834.7684528663
 10
359.1575803994
 20
835.2258738115
 10
358.9778276919
 20
835.5600919559
 10
358.7980898856
 20
835.7293691471
 10
358.7242844342
 20
835.7453729942
  0
LINE
  5
12E
330
1F
100
AcDbEntity
  8
0
  6
CONTINUOUS
 62
     7
100
AcDbLine
 10
358.7242844342
 20
837.7453770473
 30
0.0
 11
358.7242844342
 21
835.7453729942
 31
0.0
  0
LINE
  5
12F
330
1F
100
AcDbEntity
  8
0
  6
CONTINUOUS
 62
     7
100
AcDbLine
 10
356.017175579
 20
835.0382681921
 30
0.0
 11
358.0171796321
 21
835.0382681921
 31
0.0
  0
ARC
  5
130
330
1F
100
AcDbEntity
  8
0
  6
CONTINUOUS
 62
     7
100
AcDbCircle
 10
360.1152941403
 20
837.192209396
 30
0.0
 40
3.006916560159069
100
AcDbArc
 50
225.7522126921
 51
258.5268080842
  0
ARC
  5
131
330
1F
100
AcDbEntity
  8
0
  6
CONTINUOUS
 62
     7
100
AcDbCircle
 10
677.014600987
 20
420.3306038775
 30
0.0
 40
8.497852839860329
100
AcDbArc
 50
180.5746697072
 51
204.9545005079
  0
LINE
  5
132
330
1F
100
AcDbEntity
  8
0
  6
CONTINUOUS
 62
     7
100
AcDbLine
 10
358.7242844342
 20
416.7453732326
 30
0.0
 11
669.3100812673
 21
416.7453732326
 31
0.0
  0
ARC
  5
133
330
1F
100
AcDbEntity
  8
0
  6
CONTINUOUS
 62
     7
100
AcDbCircle
 10
349.0492664388
 20
420.777009435
 30
0.0
 40
10.4814151563544
100
AcDbArc
 50
337.3782241395
 51
357.0926056453
  0
LWPOLYLINE
  5
134
330
1F
100
AcDbEntity
  8
0
  6
CONTINUOUS
 62
     7
100
AcDbPolyline
 90
        6
 70
   128
 43
0.0
 10
668.517175579
 20
420.245372875
 10
668.6969878911
 20
419.7222974136
 10
668.8767853021
 20
419.2648764684
 10
669.0565380095
 20
418.930658324
 10
669.2362758159
 20
418.7613811329
 10
669.3100812673
 20
418.7453772857
  0
LINE
  5
135
330
1F
100
AcDbEntity
  8
0
  6
CONTINUOUS
 62
     7
100
AcDbLine
 10
669.3100812673
 20
416.7453732326
 30
0.0
 11
669.3100812673
 21
418.7453772857
 31
0.0
  0
LINE
  5
136
330
1F
100
AcDbEntity
  8
0
  6
CONTINUOUS
 62
     7
100
AcDbLine
 10
672.0171901225
 20
419.4524820879
 30
0.0
 11
670.0171860694
 21
419.4524820879
 31
0.0
  0
ARC
  5
137
330
1F
100
AcDbEntity
  8
0
  6
CONTINUOUS
 62
     7
100
AcDbCircle
 10
667.9190715612
 20
417.2985408839
 30
0.0
 40
3.006916560158999
100
AcDbArc
 50
45.7522126921
 51
78.5268080842
  0
LINE
  5
138
330
1F
100
AcDbEntity
  8
0
  6
CONTINUOUS
 62
     7
100
AcDbLine
 10
358.7242844342
 20
416.7453732326
 30
0.0
 11
358.7242844342
 21
418.7453772857
 31
0.0
  0
ARC
  5
139
330
1F
100
AcDbEntity
  8
0
  6
CONTINUOUS
 62
     7
100
AcDbCircle
 10
356.5704631758
 20
420.8434636062
 30
0.0
 40
3.006810971968825
100
AcDbArc
 50
315.7510026447
 51
348.5266580587
  0
LWPOLYLINE
  5
13A
330
1F
100
AcDbEntity
  8
0
  6
CONTINUOUS
 62
     7
100
AcDbPolyline
 90
        6
 70
   128
 43
0.0
 10
359.5171901225
 20
420.245372875
 10
358.99409976
 20
420.065575464
 10
358.5366788148
 20
419.8857631519
 10
358.2024606704
 20
419.7060253456
 10
358.0331834792
 20
419.5262875393
 10
358.0171796321
 20
419.4524820879
  0
LINE
  5
13B
330
1F
100
AcDbEntity
  8
0
  6
CONTINUOUS
 62
     7
100
AcDbLine
 10
356.017175579
 20
419.4524820879
 30
0.0
 11
358.0171796321
 21
419.4524820879
 31
0.0
  0
CIRCLE
  5
13C
330
1F
100
AcDbEntity
  8
0
  6
CONTINUOUS
 62
     7
100
AcDbCircle
 10
650.5171828507
 20
627.24537514
 30
0.0
 40
6.599999999999977
  0
CIRCLE
  5
13D
330
1F
100
AcDbEntity
  8
0
  6
CONTINUOUS
 62
     7
100
AcDbCircle
 10
650.5171828507
 20
627.24537514
 30
0.0
 40
6.849999999999968
  0
LINE
  5
13E
330
1F
100
AcDbEntity
  8
0
  6
CONTINUOUS
 62
     7
100
AcDbLine
 10
652.6773753404
 20
628.4309719441
 30
0.0
 11
652.3388656615
 21
628.4192300619
 31
0.0
  0
ARC
  5
13F
330
1F
100
AcDbEntity
  8
0
  6
CONTINUOUS
 62
     7
100
AcDbCircle
 10
649.9175434666
 20
627.2245758866
 30
0.0
 40
2.699999999999841
100
AcDbArc
 50
26.2612325958
 51
157.7119282066
  0
LINE
  5
140
330
1F
100
AcDbEntity
  8
0
  6
CONTINUOUS
 62
     7
100
AcDbLine
 10
647.4192621945
 20
628.2485874355
 30
0.0
 11
646.0313829421
 21
628.2004468477
 31
0.0
  0
LINE
  5
141
330
1F
100
AcDbEntity
  8
0
  6
CONTINUOUS
 62
     7
100
AcDbLine
 10
646.0313829421
 20
628.2004468477
 30
0.0
 11
646.1083325385
 21
625.981781118
 31
0.0
  0
LINE
  5
142
330
1F
100
AcDbEntity
  8
0
  6
CONTINUOUS
 62
     7
100
AcDbLine
 10
646.1083325385
 20
625.981781118
 30
0.0
 11
647.4962266921
 21
626.0299217639
 31
0.0
  0
ARC
  5
143
330
1F
100
AcDbEntity
  8
0
  6
CONTINUOUS
 62
     7
100
AcDbCircle
 10
649.9175434666
 20
627.2245758866
 30
0.0
 40
2.699999999999742
100
AcDbArc
 50
206.2612325958
 51
337.7119282066
  0
LINE
  5
144
330
1F
100
AcDbEntity
  8
0
  6
CONTINUOUS
 62
     7
100
AcDbLine
 10
652.4158301591
 20
626.2005643904
 30
0.0
 11
652.7543398379
 21
626.2123061562
 31
0.0
  0
LINE
  5
145
330
1F
100
AcDbEntity
  8
0
  6
CONTINUOUS
 62
     7
100
AcDbLine
 10
652.7543398379
 20
626.2123061562
 30
0.0
 11
652.6773753404
 21
628.4309719441
 31
0.0
  0
LWPOLYLINE
  5
146
330
1F
100
AcDbEntity
  8
0
  6
CONTINUOUS
 62
     7
100
AcDbPolyline
 90
        5
 70
   128
 43
0.0
 10
652.3388656615
 20
628.4192300619
 10
650.7300170897
 20
628.3634250968
 10
649.6568354606
 20
628.3262005992
 10
648.7502488135
 20
628.294754376
 10
647.4192621945
 20
628.2485874355
  0
LWPOLYLINE
  5
147
330
1F
100
AcDbEntity
  8
0
  6
CONTINUOUS
 62
     7
100
AcDbPolyline
 90
        5
 70
   128
 43
0.0
 10
647.4962266921
 20
626.0299217639
 10
649.1050752639
 20
626.085726729
 10
650.1782419919
 20
626.1229512266
 10
651.0848435401
 20
626.1543974498
 10
652.4158301591
 20
626.2005643904
  0
LWPOLYLINE
  5
148
330
1F
100
AcDbEntity
  8
0
  6
CONTINUOUS
 62
     7
100
AcDbPolyline
 90
        4
 70
   128
 43
0.0
 10
646.9316812991
 20
626.8708568633
 10
647.0983060836
 20
626.8766367385
 10
647.246155405
 20
626.881764979
 10
647.2865077495
 20
626.8831648441
  0
LWPOLYLINE
  5
149
330
1F
100
AcDbEntity
  8
0
  6
CONTINUOUS
 62
     7
100
AcDbPolyline
 90
        4
 70
   128
 43
0.0
 10
647.4158349275
 20
628.088372304
 10
647.2615334033
 20
628.0830203424
 10
647.0831367015
 20
628.0768321113
 10
647.0388355493
 20
628.0752956037
  0
LINE
  5
14A
330
1F
100
AcDbEntity
  8
0
  6
CONTINUOUS
 62
     7
100
AcDbLine
 10
646.353352332
 20
626.8507972519
 30
0.0
 11
646.3117631911
 21
628.0500760287
 31
0.0
  0
LINE
  5
14B
330
1F
100
AcDbEntity
  8
0
  6
CONTINUOUS
 62
     7
100
AcDbLine
 10
646.931666398
 20
626.8708568633
 30
0.0
 11
646.353352332
 21
626.8507972519
 31
0.0
  0
LINE
  5
14C
330
1F
100
AcDbEntity
  8
0
  6
CONTINUOUS
 62
     7
100
AcDbLine
 10
647.0388355493
 20
628.0752956037
 30
0.0
 11
646.3117631911
 21
628.0500760287
 31
0.0
  0
ARC
  5
14D
330
1F
100
AcDbEntity
  8
0
  6
CONTINUOUS
 62
     7
100
AcDbCircle
 10
647.7865073333
 20
626.1000051171
 30
0.0
 40
0.8000217103341268
100
AcDbArc
 50
9.168688547
 51
91.9857986237
  0
LWPOLYLINE
  5
14E
330
1F
100
AcDbEntity
  8
0
  6
CONTINUOUS
 62
     7
100
AcDbPolyline
 90
        3
 70
   128
 43
0.0
 10
649.6819141149
 20
626.26583136
 10
649.2823543786
 20
626.2519724652
 10
648.5763075589
 20
626.2274819411
  0
ARC
  5
14F
330
1F
100
AcDbEntity
  8
0
  6
CONTINUOUS
 62
     7
100
AcDbCircle
 10
650.4786291528
 20
626.193404057
 30
0.0
 40
0.800000353704673
100
AcDbArc
 50
9.1674972802
 51
174.8056664424
  0
LWPOLYLINE
  5
150
330
1F
100
AcDbEntity
  8
0
  6
CONTINUOUS
 62
     7
100
AcDbPolyline
 90
        3
 70
   128
 43
0.0
 10
652.0741912364
 20
626.3488108626
 10
651.6015562057
 20
626.3324169078
 10
651.2684109448
 20
626.3208610573
  0
LWPOLYLINE
  5
151
330
1F
100
AcDbEntity
  8
0
  6
CONTINUOUS
 62
     7
100
AcDbPolyline
 90
        4
 70
   128
 43
0.0
 10
652.0083281039
 20
628.2476689186
 10
652.0397993564
 20
627.34050133
 10
652.0701232194
 20
626.4663311987
 10
652.0741912364
 20
626.3488108626
  0
LWPOLYLINE
  5
152
330
1F
100
AcDbEntity
  8
0
  6
CONTINUOUS
 62
     7
100
AcDbPolyline
 90
        3
 70
   128
 43
0.0
 10
650.0869872808
 20
628.1810245229
 10
650.6762686013
 20
628.2014647833
 10
652.0083281039
 20
628.2476689186
  0
ARC
  5
153
330
1F
100
AcDbEntity
  8
0
  6
CONTINUOUS
 62
     7
100
AcDbCircle
 10
649.2030836153
 20
628.3504857561
 30
0.0
 40
0.9000015551839079
100
AcDbArc
 50
194.8261554527
 51
349.146996518
  0
LWPOLYLINE
  5
154
330
1F
100
AcDbEntity
  8
0
  6
CONTINUOUS
 62
     7
100
AcDbPolyline
 90
        3
 70
   128
 43
0.0
 10
647.7587851523
 20
626.8995463716
 10
647.497418785
 20
626.8904805867
 10
647.2865077495
 20
626.8831648441
  0
LWPOLYLINE
  5
155
330
1F
100
AcDbEntity
  8
0
  6
CONTINUOUS
 62
     7
100
AcDbPolyline
 90
        3
 70
   128
 43
0.0
 10
647.4158349275
 20
628.088372304
 10
647.9565086602
 20
628.107126172
 10
648.3330461024
 20
628.1201869816
  0
CIRCLE
  5
156
330
1F
100
AcDbEntity
  8
0
  6
CONTINUOUS
 62
     7
100
AcDbCircle
 10
650.5171828507
 20
627.24537514
 30
0.0
 40
8.999999999999863
  0
CIRCLE
  5
157
330
1F
100
AcDbEntity
  8
0
  6
CONTINUOUS
 62
     7
100
AcDbCircle
 10
650.5171828507
 20
627.24537514
 30
0.0
 40
11.00000000000007
  0
CIRCLE
  5
158
330
1F
100
AcDbEntity
  8
0
  6
CONTINUOUS
 62
     7
100
AcDbCircle
 10
650.5171828507
 20
627.24537514
 30
0.0
 40
6.999999999999892
  0
LINE
  5
159
330
1F
100
AcDbEntity
  8
0
  6
CONTINUOUS
 62
     7
100
AcDbLine
 10
652.687791252
 20
633.900332915
 30
0.0
 11
652.693334484
 21
633.7405170299
 31
0.0
  0
LINE
  5
15A
330
1F
100
AcDbEntity
  8
0
  6
CONTINUOUS
 62
     7
100
AcDbLine
 10
644.188437128
 20
624.6244110617
 30
0.0
 11
644.0286221742
 21
624.6188678298
 31
0.0
  0
LINE
  5
15B
330
1F
100
AcDbEntity
  8
0
  6
CONTINUOUS
 62
     8
100
AcDbLine
 10
646.931666398
 20
626.8708568633
 30
0.0
 11
647.1708449363
 21
626.0186356477
 31
0.0
  0
LWPOLYLINE
  5
15C
330
1F
100
AcDbEntity
  8
0
  6
CONTINUOUS
 62
     8
100
AcDbPolyline
 90
        3
 70
   128
 43
0.0
 10
652.5413128375
 20
626.2049172757
 10
652.7132722377
 20
626.9634860611
 10
652.7228983878
 20
627.1186113837
  0
LWPOLYLINE
  5
15D
330
1F
100
AcDbEntity
  8
0
  6
CONTINUOUS
 62
     8
100
AcDbPolyline
 90
        3
 70
   128
 43
0.0
 10
652.7088167905
 20
627.5246667602
 10
652.6132705449
 20
628.0182876609
 10
652.4643632411
 20
628.4235830636
  0
LINE
  5
15E
330
1F
100
AcDbEntity
  8
0
  6
CONTINUOUS
 62
     8
100
AcDbLine
 10
647.0938953399
 20
628.2373013192
 30
0.0
 11
647.0388355493
 21
628.0753415878
 31
0.0
  0
LINE
  5
15F
330
1F
100
AcDbEntity
  8
0
  6
CONTINUOUS
 62
     8
100
AcDbLine
 10
647.2865077495
 20
626.8831648441
 30
0.0
 11
647.5614639758
 21
626.0250753941
 31
0.0
  0
ARC
  5
160
330
1F
100
AcDbEntity
  8
0
  6
CONTINUOUS
 62
     8
100
AcDbCircle
 10
649.8176035692
 20
627.2211093444
 30
0.0
 40
2.553553390593001
100
AcDbArc
 50
335.6766291156
 51
28.1327111101
  0
LINE
  5
161
330
1F
100
AcDbEntity
  8
0
  6
CONTINUOUS
 62
     8
100
AcDbLine
 10
648.8865199327
 20
627.5079989092
 30
0.0
 11
648.9305081605
 21
626.2397678321
 31
0.0
  0
LINE
  5
162
330
1F
100
AcDbEntity
  8
0
  6
CONTINUOUS
 62
     8
100
AcDbLine
 10
650.5606802939
 20
628.1974550903
 30
0.0
 11
650.6027760743
 21
626.9837143292
 31
0.0
  0
LINE
  5
163
330
1F
100
AcDbEntity
  8
0
  6
CONTINUOUS
 62
     7
100
AcDbLine
 10
123.8243913713
 20
621.0953753426
 30
0.0
 11
124.5243920448
 21
621.0953753426
 31
0.0
  0
LINE
  5
164
330
1F
100
AcDbEntity
  8
0
  6
CONTINUOUS
 62
     7
100
AcDbLine
 10
121.7243921447
 20
620.7453750059
 30
0.0
 11
123.7243915412
 21
620.7453750059
 31
0.0
  0
LINE
  5
165
330
1F
100
AcDbEntity
  8
0
  6
CONTINUOUS
 62
     7
100
AcDbLine
 10
105.2243917684
 20
634.0953751452
 30
0.0
 11
105.1743918533
 21
634.0953751452
 31
0.0
  0
LINE
  5
166
330
1F
100
AcDbEntity
  8
0
  6
CONTINUOUS
 62
     7
100
AcDbLine
 10
105.1743918533
 20
620.3953751348
 30
0.0
 11
105.2243917684
 21
620.3953751348
 31
0.0
  0
ARC
  5
167
330
1F
100
AcDbEntity
  8
0
  6
CONTINUOUS
 62
     7
100
AcDbCircle
 10
105.1743917945
 20
633.84537514
 30
0.0
 40
0.25
100
AcDbArc
 50
90.0
 51
180.0
  0
ARC
  5
168
330
1F
100
AcDbEntity
  8
0
  6
CONTINUOUS
 62
     7
100
AcDbCircle
 10
105.1743917945
 20
620.64537514
 30
0.0
 40
0.25
100
AcDbArc
 50
180.0
 51
270.0
  0
LINE
  5
169
330
1F
100
AcDbEntity
  8
0
  6
CONTINUOUS
 62
     7
100
AcDbLine
 10
124.7243917051
 20
623.7453750319
 30
0.0
 11
125.724391869
 21
623.7453750319
 31
0.0
  0
LINE
  5
16A
330
1F
100
AcDbEntity
  8
0
  6
CONTINUOUS
 62
     7
100
AcDbLine
 10
125.724391869
 20
630.745375248
 30
0.0
 11
124.7243917051
 21
630.745375248
 31
0.0
  0
LINE
  5
16B
330
1F
100
AcDbEntity
  8
0
  6
CONTINUOUS
 62
     7
100
AcDbLine
 10
123.7243915412
 20
624.2453751139
 30
0.0
 11
123.8243913713
 21
624.2453751139
 31
0.0
  0
LINE
  5
16C
330
1F
100
AcDbEntity
  8
0
  6
CONTINUOUS
 62
     7
100
AcDbLine
 10
124.5243920448
 20
624.2453751139
 30
0.0
 11
124.7243917051
 21
624.2453751139
 31
0.0
  0
LINE
  5
16D
330
1F
100
AcDbEntity
  8
0
  6
CONTINUOUS
 62
     7
100
AcDbLine
 10
124.7243917051
 20
630.2453751661
 30
0.0
 11
124.5243920448
 21
630.2453751661
 31
0.0
  0
LINE
  5
16E
330
1F
100
AcDbEntity
  8
0
  6
CONTINUOUS
 62
     7
100
AcDbLine
 10
123.8243913713
 20
630.2453751661
 30
0.0
 11
123.7243915412
 21
630.2453751661
 31
0.0
  0
LINE
  5
16F
330
1F
100
AcDbEntity
  8
0
  6
CONTINUOUS
 62
     7
100
AcDbLine
 10
107.224391747
 20
616.2453751996
 30
0.0
 11
108.2243917945
 21
616.2453751996
 31
0.0
  0
LINE
  5
170
330
1F
100
AcDbEntity
  8
0
  6
CONTINUOUS
 62
     7
100
AcDbLine
 10
108.2243917945
 20
638.2453750804
 30
0.0
 11
107.224391747
 21
638.2453750804
 31
0.0
  0
LINE
  5
171
330
1F
100
AcDbEntity
  8
0
  6
CONTINUOUS
 62
     7
100
AcDbLine
 10
107.224391747
 20
638.2453750804
 30
0.0
 11
105.2243917684
 21
636.2453747525
 31
0.0
  0
LINE
  5
172
330
1F
100
AcDbEntity
  8
0
  6
CONTINUOUS
 62
     7
100
AcDbLine
 10
105.2243917684
 20
618.2453755274
 30
0.0
 11
107.224391747
 21
616.2453751996
 31
0.0
  0
LINE
  5
173
330
1F
100
AcDbEntity
  8
0
  6
CONTINUOUS
 62
     7
100
AcDbLine
 10
109.7243918075
 20
419.9953760937
 30
0.0
 11
108.2243917945
 21
419.9953760937
 31
0.0
  0
LINE
  5
174
330
1F
100
AcDbEntity
  8
0
  6
CONTINUOUS
 62
     7
100
AcDbLine
 10
109.7243918075
 20
414.3385227754
 30
0.0
 11
108.2243917945
 21
414.3385227754
 31
0.0
  0
LINE
  5
175
330
1F
100
AcDbEntity
  8
0
  6
CONTINUOUS
 62
     7
100
AcDbLine
 10
108.2243917945
 20
414.3385227754
 30
0.0
 11
108.2243917945
 21
419.9953760937
 31
0.0
  0
LINE
  5
176
330
1F
100
AcDbEntity
  8
0
  6
CONTINUOUS
 62
     7
100
AcDbLine
 10
109.7243918075
 20
414.3385227754
 30
0.0
 11
109.7243918075
 21
419.9953760937
 31
0.0
  0
LINE
  5
177
330
1F
100
AcDbEntity
  8
0
  6
CONTINUOUS
 62
     7
100
AcDbLine
 10
109.7243918075
 20
421.4953716829
 30
0.0
 11
108.2243917945
 21
421.4953716829
 31
0.0
  0
LINE
  5
178
330
1F
100
AcDbEntity
  8
0
  6
CONTINUOUS
 62
     7
100
AcDbLine
 10
108.2243917945
 20
419.9953760937
 30
0.0
 11
108.2243917945
 21
421.4953716829
 31
0.0
  0
LINE
  5
179
330
1F
100
AcDbEntity
  8
0
  6
CONTINUOUS
 62
     7
100
AcDbLine
 10
109.7243918075
 20
419.9953760937
 30
0.0
 11
109.7243918075
 21
421.4953716829
 31
0.0
  0
LINE
  5
17A
330
1F
100
AcDbEntity
  8
0
  6
CONTINUOUS
 62
     7
100
AcDbLine
 10
109.7243918075
 20
398.8385137155
 30
0.0
 11
108.2243917945
 21
398.8385137155
 31
0.0
  0
LINE
  5
17B
330
1F
100
AcDbEntity
  8
0
  6
CONTINUOUS
 62
     7
100
AcDbLine
 10
108.2243917945
 20
398.8385137155
 30
0.0
 11
108.2243917945
 21
414.3385227754
 31
0.0
  0
LINE
  5
17C
330
1F
100
AcDbEntity
  8
0
  6
CONTINUOUS
 62
     7
100
AcDbLine
 10
109.7243918075
 20
398.8385137155
 30
0.0
 11
109.7243918075
 21
414.3385227754
 31
0.0
  0
LINE
  5
17D
330
1F
100
AcDbEntity
  8
0
  6
CONTINUOUS
 62
     7
100
AcDbLine
 10
109.7243918075
 20
396.4953806236
 30
0.0
 11
108.2243917945
 21
396.4953806236
 31
0.0
  0
LINE
  5
17E
330
1F
100
AcDbEntity
  8
0
  6
CONTINUOUS
 62
     7
100
AcDbLine
 10
108.2243917945
 20
396.4953806236
 30
0.0
 11
108.2243917945
 21
398.8385137155
 31
0.0
  0
LINE
  5
17F
330
1F
100
AcDbEntity
  8
0
  6
CONTINUOUS
 62
     7
100
AcDbLine
 10
109.7243918075
 20
396.4953806236
 30
0.0
 11
109.7243918075
 21
398.8385137155
 31
0.0
  0
LINE
  5
180
330
1F
100
AcDbEntity
  8
0
  6
CONTINUOUS
 62
     7
100
AcDbLine
 10
119.2243917349
 20
413.9953788355
 30
0.0
 11
119.2243917349
 21
412.495368345
 31
0.0
  0
LINE
  5
181
330
1F
100
AcDbEntity
  8
0
  6
CONTINUOUS
 62
     7
100
AcDbLine
 10
117.224391407
 20
412.495368345
 30
0.0
 11
117.224391407
 21
413.9953788355
 31
0.0
  0
LINE
  5
182
330
1F
100
AcDbEntity
  8
0
  6
CONTINUOUS
 62
     7
100
AcDbLine
 10
117.224391407
 20
413.9953788355
 30
0.0
 11
119.2243917349
 21
413.9953788355
 31
0.0
  0
LINE
  5
183
330
1F
100
AcDbEntity
  8
0
  6
CONTINUOUS
 62
     7
100
AcDbLine
 10
119.2243917349
 20
412.495368345
 30
0.0
 11
117.224391407
 21
412.495368345
 31
0.0
  0
ARC
  5
184
330
1F
100
AcDbEntity
  8
0
  6
CONTINUOUS
 62
     7
100
AcDbCircle
 10
110.7243917945
 20
411.49537514
 30
0.0
 40
2.500000000000057
100
AcDbArc
 50
90.0
 51
113.5781784782
  0
LINE
  5
185
330
1F
100
AcDbEntity
  8
0
  6
CONTINUOUS
 62
     7
100
AcDbLine
 10
110.7243917386
 20
412.495368345
 30
0.0
 11
110.7243917386
 21
413.9953788355
 31
0.0
  0
ARC
  5
186
330
1F
100
AcDbEntity
  8
0
  6
CONTINUOUS
 62
     7
100
AcDbCircle
 10
110.7243917945
 20
411.49537514
 30
0.0
 40
1.000000000000028
100
AcDbArc
 50
90.0
 51
180.0
  0
LINE
  5
187
330
1F
100
AcDbEntity
  8
0
  6
CONTINUOUS
 62
     7
100
AcDbLine
 10
110.7243917386
 20
413.9953788355
 30
0.0
 11
117.224391407
 21
413.9953788355
 31
0.0
  0
LINE
  5
188
330
1F
100
AcDbEntity
  8
0
  6
CONTINUOUS
 62
     7
100
AcDbLine
 10
110.7243917386
 20
412.495368345
 30
0.0
 11
117.224391407
 21
412.495368345
 31
0.0
  0
ARC
  5
189
330
1F
100
AcDbEntity
  8
0
  6
CONTINUOUS
 62
     7
100
AcDbCircle
 10
119.2243917945
 20
414.99537514
 30
0.0
 40
1.0
100
AcDbArc
 50
270.0
 51
0.0
  0
LINE
  5
18A
330
1F
100
AcDbEntity
  8
0
  6
CONTINUOUS
 62
     7
100
AcDbLine
 10
120.2243918988
 20
414.995380862
 30
0.0
 11
121.7243921447
 21
414.995380862
 31
0.0
  0
ARC
  5
18B
330
1F
100
AcDbEntity
  8
0
  6
CONTINUOUS
 62
     7
100
AcDbCircle
 10
119.2243917945
 20
414.99537514
 30
0.0
 40
2.500000000000014
100
AcDbArc
 50
270.0
 51
0.0
  0
LINE
  5
18C
330
1F
100
AcDbEntity
  8
0
  6
CONTINUOUS
 62
     7
100
AcDbLine
 10
120.2243918988
 20
415.9953679874
 30
0.0
 11
120.2243918988
 21
414.995380862
 31
0.0
  0
LINE
  5
18D
330
1F
100
AcDbEntity
  8
0
  6
CONTINUOUS
 62
     7
100
AcDbLine
 10
121.7243921447
 20
415.9953679874
 30
0.0
 11
120.2243918988
 21
415.9953679874
 31
0.0
  0
LINE
  5
18E
330
1F
100
AcDbEntity
  8
0
  6
CONTINUOUS
 62
     7
100
AcDbLine
 10
121.7243921447
 20
415.9953679874
 30
0.0
 11
121.7243921447
 21
414.995380862
 31
0.0
  0
LINE
  5
18F
330
1F
100
AcDbEntity
  8
0
  6
CONTINUOUS
 62
     7
100
AcDbLine
 10
120.2243918988
 20
418.9953740671
 30
0.0
 11
121.7243921447
 21
418.9953740671
 31
0.0
  0
LINE
  5
190
330
1F
100
AcDbEntity
  8
0
  6
CONTINUOUS
 62
     7
100
AcDbLine
 10
120.2243918988
 20
415.9953679874
 30
0.0
 11
120.2243918988
 21
416.7453732326
 31
0.0
  0
LINE
  5
191
330
1F
100
AcDbEntity
  8
0
  6
CONTINUOUS
 62
     7
100
AcDbLine
 10
120.2243918988
 20
418.7453772857
 30
0.0
 11
120.2243918988
 21
418.9953740671
 31
0.0
  0
LINE
  5
192
330
1F
100
AcDbEntity
  8
0
  6
CONTINUOUS
 62
     7
100
AcDbLine
 10
121.7243921447
 20
418.9953740671
 30
0.0
 11
121.7243921447
 21
415.9953679874
 31
0.0
  0
LINE
  5
193
330
1F
100
AcDbEntity
  8
0
  6
CONTINUOUS
 62
     7
100
AcDbLine
 10
109.7243918075
 20
840.1522275045
 30
0.0
 11
108.2243917945
 21
840.1522275045
 31
0.0
  0
LINE
  5
194
330
1F
100
AcDbEntity
  8
0
  6
CONTINUOUS
 62
     7
100
AcDbLine
 10
109.7243918075
 20
834.4953741863
 30
0.0
 11
108.2243917945
 21
834.4953741863
 31
0.0
  0
LINE
  5
195
330
1F
100
AcDbEntity
  8
0
  6
CONTINUOUS
 62
     7
100
AcDbLine
 10
108.2243917945
 20
834.4953741863
 30
0.0
 11
108.2243917945
 21
840.1522275045
 31
0.0
  0
LINE
  5
196
330
1F
100
AcDbEntity
  8
0
  6
CONTINUOUS
 62
     7
100
AcDbLine
 10
109.7243918075
 20
834.4953741863
 30
0.0
 11
109.7243918075
 21
840.1522275045
 31
0.0
  0
LINE
  5
197
330
1F
100
AcDbEntity
  8
0
  6
CONTINUOUS
 62
     7
100
AcDbLine
 10
109.7243918075
 20
832.995378597
 30
0.0
 11
108.2243917945
 21
832.995378597
 31
0.0
  0
LINE
  5
198
330
1F
100
AcDbEntity
  8
0
  6
CONTINUOUS
 62
     7
100
AcDbLine
 10
108.2243917945
 20
832.995378597
 30
0.0
 11
108.2243917945
 21
834.4953741863
 31
0.0
  0
LINE
  5
199
330
1F
100
AcDbEntity
  8
0
  6
CONTINUOUS
 62
     7
100
AcDbLine
 10
109.7243918075
 20
832.995378597
 30
0.0
 11
109.7243918075
 21
834.4953741863
 31
0.0
  0
LINE
  5
19A
330
1F
100
AcDbEntity
  8
0
  6
CONTINUOUS
 62
     7
100
AcDbLine
 10
109.7243918075
 20
855.6522365644
 30
0.0
 11
108.2243917945
 21
855.6522365644
 31
0.0
  0
LINE
  5
19B
330
1F
100
AcDbEntity
  8
0
  6
CONTINUOUS
 62
     7
100
AcDbLine
 10
108.2243917945
 20
840.1522275045
 30
0.0
 11
108.2243917945
 21
855.6522365644
 31
0.0
  0
LINE
  5
19C
330
1F
100
AcDbEntity
  8
0
  6
CONTINUOUS
 62
     7
100
AcDbLine
 10
109.7243918075
 20
840.1522275045
 30
0.0
 11
109.7243918075
 21
855.6522365644
 31
0.0
  0
LINE
  5
19D
330
1F
100
AcDbEntity
  8
0
  6
CONTINUOUS
 62
     7
100
AcDbLine
 10
109.7243918075
 20
857.9953696564
 30
0.0
 11
108.2243917945
 21
857.9953696564
 31
0.0
  0
LINE
  5
19E
330
1F
100
AcDbEntity
  8
0
  6
CONTINUOUS
 62
     7
100
AcDbLine
 10
108.2243917945
 20
855.6522365644
 30
0.0
 11
108.2243917945
 21
857.9953696564
 31
0.0
  0
LINE
  5
19F
330
1F
100
AcDbEntity
  8
0
  6
CONTINUOUS
 62
     7
100
AcDbLine
 10
109.7243918075
 20
855.6522365644
 30
0.0
 11
109.7243918075
 21
857.9953696564
 31
0.0
  0
ARC
  5
1A0
330
1F
100
AcDbEntity
  8
0
  6
CONTINUOUS
 62
     7
100
AcDbCircle
 10
110.7243917945
 20
842.99537514
 30
0.0
 40
2.50000000000004
100
AcDbArc
 50
246.4218215218
 51
270.0
  0
ARC
  5
1A1
330
1F
100
AcDbEntity
  8
0
  6
CONTINUOUS
 62
     7
100
AcDbCircle
 10
110.7243917945
 20
842.99537514
 30
0.0
 40
1.000000000000114
100
AcDbArc
 50
180.0
 51
270.0
  0
LINE
  5
1A2
330
1F
100
AcDbEntity
  8
0
  6
CONTINUOUS
 62
     7
100
AcDbLine
 10
110.7243917386
 20
841.9953819349
 30
0.0
 11
110.7243917386
 21
840.4953714445
 31
0.0
  0
LINE
  5
1A3
330
1F
100
AcDbEntity
  8
0
  6
CONTINUOUS
 62
     7
100
AcDbLine
 10
117.224391407
 20
840.4953714445
 30
0.0
 11
117.224391407
 21
841.9953819349
 31
0.0
  0
LINE
  5
1A4
330
1F
100
AcDbEntity
  8
0
  6
CONTINUOUS
 62
     7
100
AcDbLine
 10
117.224391407
 20
841.9953819349
 30
0.0
 11
119.2243917349
 21
841.9953819349
 31
0.0
  0
LINE
  5
1A5
330
1F
100
AcDbEntity
  8
0
  6
CONTINUOUS
 62
     7
100
AcDbLine
 10
119.2243917349
 20
841.9953819349
 30
0.0
 11
119.2243917349
 21
840.4953714445
 31
0.0
  0
LINE
  5
1A6
330
1F
100
AcDbEntity
  8
0
  6
CONTINUOUS
 62
     7
100
AcDbLine
 10
119.2243917349
 20
840.4953714445
 30
0.0
 11
117.224391407
 21
840.4953714445
 31
0.0
  0
LINE
  5
1A7
330
1F
100
AcDbEntity
  8
0
  6
CONTINUOUS
 62
     7
100
AcDbLine
 10
117.224391407
 20
841.9953819349
 30
0.0
 11
110.7243917386
 21
841.9953819349
 31
0.0
  0
LINE
  5
1A8
330
1F
100
AcDbEntity
  8
0
  6
CONTINUOUS
 62
     7
100
AcDbLine
 10
117.224391407
 20
840.4953714445
 30
0.0
 11
110.7243917386
 21
840.4953714445
 31
0.0
  0
LINE
  5
1A9
330
1F
100
AcDbEntity
  8
0
  6
CONTINUOUS
 62
     7
100
AcDbLine
 10
109.5868148577
 20
485.4953821733
 30
0.0
 11
109.5868148577
 21
469.4953795507
 31
0.0
  0
LINE
  5
1AA
330
1F
100
AcDbEntity
  8
0
  6
CONTINUOUS
 62
     7
100
AcDbLine
 10
123.4655723411
 20
485.4953821733
 30
0.0
 11
109.5868148577
 21
485.4953821733
 31
0.0
  0
LINE
  5
1AB
330
1F
100
AcDbEntity
  8
0
  6
CONTINUOUS
 62
     7
100
AcDbLine
 10
123.4655723411
 20
485.4953821733
 30
0.0
 11
123.4655723411
 21
469.4953795507
 31
0.0
  0
LINE
  5
1AC
330
1F
100
AcDbEntity
  8
0
  6
CONTINUOUS
 62
     7
100
AcDbLine
 10
109.5868148577
 20
469.4953795507
 30
0.0
 11
123.4655723411
 21
469.4953795507
 31
0.0
  0
LINE
  5
1AD
330
1F
100
AcDbEntity
  8
0
  6
CONTINUOUS
 62
     7
100
AcDbLine
 10
109.1985862322
 20
485.4953821733
 30
0.0
 11
109.1985862322
 21
469.4953795507
 31
0.0
  0
LINE
  5
1AE
330
1F
100
AcDbEntity
  8
0
  6
CONTINUOUS
 62
     7
100
AcDbLine
 10
109.1985862322
 20
485.4953821733
 30
0.0
 11
109.5868148577
 21
485.4953821733
 31
0.0
  0
LINE
  5
1AF
330
1F
100
AcDbEntity
  8
0
  6
CONTINUOUS
 62
     7
100
AcDbLine
 10
109.1985862322
 20
469.4953795507
 30
0.0
 11
109.5868148577
 21
469.4953795507
 31
0.0
  0
LINE
  5
1B0
330
1F
100
AcDbEntity
  8
0
  6
CONTINUOUS
 62
     7
100
AcDbLine
 10
109.5868148577
 20
768.9953681066
 30
0.0
 11
109.5868148577
 21
784.9953707292
 31
0.0
  0
LINE
  5
1B1
330
1F
100
AcDbEntity
  8
0
  6
CONTINUOUS
 62
     7
100
AcDbLine
 10
109.5868148577
 20
784.9953707292
 30
0.0
 11
123.4655723411
 21
784.9953707292
 31
0.0
  0
LINE
  5
1B2
330
1F
100
AcDbEntity
  8
0
  6
CONTINUOUS
 62
     7
100
AcDbLine
 10
123.4655723411
 20
784.9953707292
 30
0.0
 11
123.4655723411
 21
768.9953681066
 31
0.0
  0
LINE
  5
1B3
330
1F
100
AcDbEntity
  8
0
  6
CONTINUOUS
 62
     7
100
AcDbLine
 10
123.4655723411
 20
768.9953681066
 30
0.0
 11
109.5868148577
 21
768.9953681066
 31
0.0
  0
LINE
  5
1B4
330
1F
100
AcDbEntity
  8
0
  6
CONTINUOUS
 62
     7
100
AcDbLine
 10
109.1985862322
 20
768.9953681066
 30
0.0
 11
109.5868148577
 21
768.9953681066
 31
0.0
  0
LINE
  5
1B5
330
1F
100
AcDbEntity
  8
0
  6
CONTINUOUS
 62
     7
100
AcDbLine
 10
109.1985862322
 20
768.9953681066
 30
0.0
 11
109.1985862322
 21
784.9953707292
 31
0.0
  0
LINE
  5
1B6
330
1F
100
AcDbEntity
  8
0
  6
CONTINUOUS
 62
     7
100
AcDbLine
 10
109.1985862322
 20
784.9953707292
 30
0.0
 11
109.5868148577
 21
784.9953707292
 31
0.0
  0
LINE
  5
1B7
330
1F
100
AcDbEntity
  8
0
  6
CONTINUOUS
 62
     7
100
AcDbLine
 10
123.7243915412
 20
485.4953821733
 30
0.0
 11
123.4655723411
 21
485.4953821733
 31
0.0
  0
LINE
  5
1B8
330
1F
100
AcDbEntity
  8
0
  6
CONTINUOUS
 62
     7
100
AcDbLine
 10
123.7243915412
 20
469.4953795507
 30
0.0
 11
123.7243915412
 21
485.4953821733
 31
0.0
  0
LINE
  5
1B9
330
1F
100
AcDbEntity
  8
0
  6
CONTINUOUS
 62
     7
100
AcDbLine
 10
123.4655723411
 20
469.4953795507
 30
0.0
 11
123.7243915412
 21
469.4953795507
 31
0.0
  0
LINE
  5
1BA
330
1F
100
AcDbEntity
  8
0
  6
CONTINUOUS
 62
     7
100
AcDbLine
 10
123.4655723411
 20
768.9953681066
 30
0.0
 11
123.7243915412
 21
768.9953681066
 31
0.0
  0
LINE
  5
1BB
330
1F
100
AcDbEntity
  8
0
  6
CONTINUOUS
 62
     7
100
AcDbLine
 10
123.7243915412
 20
784.9953707292
 30
0.0
 11
123.4655723411
 21
784.9953707292
 31
0.0
  0
LINE
  5
1BC
330
1F
100
AcDbEntity
  8
0
  6
CONTINUOUS
 62
     7
100
AcDbLine
 10
123.7243915412
 20
768.9953681066
 30
0.0
 11
123.7243915412
 21
784.9953707292
 31
0.0
  0
LINE
  5
1BD
330
1F
100
AcDbEntity
  8
0
  6
CONTINUOUS
 62
     7
100
AcDbLine
 10
110.7243917386
 20
485.995375736
 30
0.0
 11
110.7243917386
 21
488.9953818157
 31
0.0
  0
LINE
  5
1BE
330
1F
100
AcDbEntity
  8
0
  6
CONTINUOUS
 62
     7
100
AcDbLine
 10
110.7243917386
 20
488.9953818157
 30
0.0
 11
124.7243917051
 21
488.9953818157
 31
0.0
  0
ARC
  5
1BF
330
1F
100
AcDbEntity
  8
0
  6
CONTINUOUS
 62
     7
100
AcDbCircle
 10
124.7243917945
 20
486.99537514
 30
0.0
 40
2.0
100
AcDbArc
 50
0.0
 51
90.0
  0
LINE
  5
1C0
330
1F
100
AcDbEntity
  8
0
  6
CONTINUOUS
 62
     7
100
AcDbLine
 10
126.7243920329
 20
486.9953777626
 30
0.0
 11
126.7243920329
 21
467.9953690603
 31
0.0
  0
ARC
  5
1C1
330
1F
100
AcDbEntity
  8
0
  6
CONTINUOUS
 62
     7
100
AcDbCircle
 10
124.7243917945
 20
467.99537514
 30
0.0
 40
2.000000000000014
100
AcDbArc
 50
270.0
 51
0.0
  0
LINE
  5
1C2
330
1F
100
AcDbEntity
  8
0
  6
CONTINUOUS
 62
     7
100
AcDbLine
 10
124.7243917051
 20
465.9953799083
 30
0.0
 11
110.7243917386
 21
465.9953799083
 31
0.0
  0
LINE
  5
1C3
330
1F
100
AcDbEntity
  8
0
  6
CONTINUOUS
 62
     7
100
AcDbLine
 10
110.7243917386
 20
465.9953799083
 30
0.0
 11
110.7243917386
 21
468.9953710869
 31
0.0
  0
LINE
  5
1C4
330
1F
100
AcDbEntity
  8
0
  6
CONTINUOUS
 62
     7
100
AcDbLine
 10
123.7243915412
 20
468.9953710869
 30
0.0
 11
110.7243917386
 21
468.9953710869
 31
0.0
  0
LINE
  5
1C5
330
1F
100
AcDbEntity
  8
0
  6
CONTINUOUS
 62
     7
100
AcDbLine
 10
123.7243915412
 20
469.4953795507
 30
0.0
 11
123.7243915412
 21
468.9953710869
 31
0.0
  0
LINE
  5
1C6
330
1F
100
AcDbEntity
  8
0
  6
CONTINUOUS
 62
     7
100
AcDbLine
 10
123.7243915412
 20
485.995375736
 30
0.0
 11
123.7243915412
 21
485.4953821733
 31
0.0
  0
LINE
  5
1C7
330
1F
100
AcDbEntity
  8
0
  6
CONTINUOUS
 62
     7
100
AcDbLine
 10
110.7243917386
 20
485.995375736
 30
0.0
 11
123.7243915412
 21
485.995375736
 31
0.0
  0
LINE
  5
1C8
330
1F
100
AcDbEntity
  8
0
  6
CONTINUOUS
 62
     7
100
AcDbLine
 10
123.7243915412
 20
784.9953707292
 30
0.0
 11
123.7243915412
 21
785.4953791931
 31
0.0
  0
LINE
  5
1C9
330
1F
100
AcDbEntity
  8
0
  6
CONTINUOUS
 62
     7
100
AcDbLine
 10
123.7243915412
 20
785.4953791931
 30
0.0
 11
110.7243917386
 21
785.4953791931
 31
0.0
  0
LINE
  5
1CA
330
1F
100
AcDbEntity
  8
0
  6
CONTINUOUS
 62
     7
100
AcDbLine
 10
110.7243917386
 20
785.4953791931
 30
0.0
 11
110.7243917386
 21
788.4953703716
 31
0.0
  0
LINE
  5
1CB
330
1F
100
AcDbEntity
  8
0
  6
CONTINUOUS
 62
     7
100
AcDbLine
 10
124.7243917051
 20
788.4953703716
 30
0.0
 11
110.7243917386
 21
788.4953703716
 31
0.0
  0
ARC
  5
1CC
330
1F
100
AcDbEntity
  8
0
  6
CONTINUOUS
 62
     7
100
AcDbCircle
 10
124.7243917945
 20
786.49537514
 30
0.0
 40
2.0
100
AcDbArc
 50
0.0
 51
90.0
  0
LINE
  5
1CD
330
1F
100
AcDbEntity
  8
0
  6
CONTINUOUS
 62
     7
100
AcDbLine
 10
126.7243920329
 20
767.4953725174
 30
0.0
 11
126.7243920329
 21
786.4953812197
 31
0.0
  0
ARC
  5
1CE
330
1F
100
AcDbEntity
  8
0
  6
CONTINUOUS
 62
     7
100
AcDbCircle
 10
124.7243917945
 20
767.49537514
 30
0.0
 40
2.0
100
AcDbArc
 50
270.0
 51
0.0
  0
LINE
  5
1CF
330
1F
100
AcDbEntity
  8
0
  6
CONTINUOUS
 62
     7
100
AcDbLine
 10
110.7243917386
 20
765.4953684643
 30
0.0
 11
124.7243917051
 21
765.4953684643
 31
0.0
  0
LINE
  5
1D0
330
1F
100
AcDbEntity
  8
0
  6
CONTINUOUS
 62
     7
100
AcDbLine
 10
110.7243917386
 20
765.4953684643
 30
0.0
 11
110.7243917386
 21
768.4953745439
 31
0.0
  0
LINE
  5
1D1
330
1F
100
AcDbEntity
  8
0
  6
CONTINUOUS
 62
     7
100
AcDbLine
 10
110.7243917386
 20
768.4953745439
 30
0.0
 11
123.7243915412
 21
768.4953745439
 31
0.0
  0
LINE
  5
1D2
330
1F
100
AcDbEntity
  8
0
  6
CONTINUOUS
 62
     7
100
AcDbLine
 10
123.7243915412
 20
768.4953745439
 30
0.0
 11
123.7243915412
 21
768.9953681066
 31
0.0
  0
LINE
  5
1D3
330
1F
100
AcDbEntity
  8
0
  6
CONTINUOUS
 62
     7
100
AcDbLine
 10
110.7243917386
 20
465.9953799083
 30
0.0
 11
108.2243917945
 21
465.9953799083
 31
0.0
  0
LINE
  5
1D4
330
1F
100
AcDbEntity
  8
0
  6
CONTINUOUS
 62
     7
100
AcDbLine
 10
108.2243917945
 20
465.9953799083
 30
0.0
 11
108.2243917945
 21
468.9953710869
 31
0.0
  0
LINE
  5
1D5
330
1F
100
AcDbEntity
  8
0
  6
CONTINUOUS
 62
     7
100
AcDbLine
 10
110.7243917386
 20
468.9953710869
 30
0.0
 11
108.2243917945
 21
468.9953710869
 31
0.0
  0
LINE
  5
1D6
330
1F
100
AcDbEntity
  8
0
  6
CONTINUOUS
 62
     7
100
AcDbLine
 10
108.2243917945
 20
488.9953818157
 30
0.0
 11
110.7243917386
 21
488.9953818157
 31
0.0
  0
LINE
  5
1D7
330
1F
100
AcDbEntity
  8
0
  6
CONTINUOUS
 62
     7
100
AcDbLine
 10
108.2243917945
 20
485.995375736
 30
0.0
 11
110.7243917386
 21
485.995375736
 31
0.0
  0
LINE
  5
1D8
330
1F
100
AcDbEntity
  8
0
  6
CONTINUOUS
 62
     7
100
AcDbLine
 10
108.2243917945
 20
485.995375736
 30
0.0
 11
108.2243917945
 21
488.9953818157
 31
0.0
  0
LINE
  5
1D9
330
1F
100
AcDbEntity
  8
0
  6
CONTINUOUS
 62
     7
100
AcDbLine
 10
110.7243917386
 20
765.4953684643
 30
0.0
 11
108.2243917945
 21
765.4953684643
 31
0.0
  0
LINE
  5
1DA
330
1F
100
AcDbEntity
  8
0
  6
CONTINUOUS
 62
     7
100
AcDbLine
 10
108.2243917945
 20
765.4953684643
 30
0.0
 11
108.2243917945
 21
768.4953745439
 31
0.0
  0
LINE
  5
1DB
330
1F
100
AcDbEntity
  8
0
  6
CONTINUOUS
 62
     7
100
AcDbLine
 10
108.2243917945
 20
768.4953745439
 30
0.0
 11
110.7243917386
 21
768.4953745439
 31
0.0
  0
LINE
  5
1DC
330
1F
100
AcDbEntity
  8
0
  6
CONTINUOUS
 62
     7
100
AcDbLine
 10
108.2243917945
 20
785.4953791931
 30
0.0
 11
108.2243917945
 21
788.4953703716
 31
0.0
  0
LINE
  5
1DD
330
1F
100
AcDbEntity
  8
0
  6
CONTINUOUS
 62
     7
100
AcDbLine
 10
108.2243917945
 20
788.4953703716
 30
0.0
 11
110.7243917386
 21
788.4953703716
 31
0.0
  0
LINE
  5
1DE
330
1F
100
AcDbEntity
  8
0
  6
CONTINUOUS
 62
     7
100
AcDbLine
 10
110.7243917386
 20
785.4953791931
 30
0.0
 11
108.2243917945
 21
785.4953791931
 31
0.0
  0
LINE
  5
1DF
330
1F
100
AcDbEntity
  8
0
  6
CONTINUOUS
 62
     7
100
AcDbLine
 10
109.7243918075
 20
465.4953714445
 30
0.0
 11
108.2243917945
 21
465.4953714445
 31
0.0
  0
LINE
  5
1E0
330
1F
100
AcDbEntity
  8
0
  6
CONTINUOUS
 62
     7
100
AcDbLine
 10
109.7243918075
 20
421.4953716829
 30
0.0
 11
109.7243918075
 21
465.4953714445
 31
0.0
  0
LINE
  5
1E1
330
1F
100
AcDbEntity
  8
0
  6
CONTINUOUS
 62
     7
100
AcDbLine
 10
108.2243917945
 20
421.4953716829
 30
0.0
 11
108.2243917945
 21
465.4953714445
 31
0.0
  0
LINE
  5
1E2
330
1F
100
AcDbEntity
  8
0
  6
CONTINUOUS
 62
     7
100
AcDbLine
 10
109.7243918075
 20
764.9953749016
 30
0.0
 11
108.2243917945
 21
764.9953749016
 31
0.0
  0
LINE
  5
1E3
330
1F
100
AcDbEntity
  8
0
  6
CONTINUOUS
 62
     7
100
AcDbLine
 10
109.7243918075
 20
489.4953753784
 30
0.0
 11
108.2243917945
 21
489.4953753784
 31
0.0
  0
LINE
  5
1E4
330
1F
100
AcDbEntity
  8
0
  6
CONTINUOUS
 62
     7
100
AcDbLine
 10
108.2243917945
 20
489.4953753784
 30
0.0
 11
108.2243917945
 21
764.9953749016
 31
0.0
  0
LINE
  5
1E5
330
1F
100
AcDbEntity
  8
0
  6
CONTINUOUS
 62
     7
100
AcDbLine
 10
109.7243918075
 20
489.4953753784
 30
0.0
 11
109.7243918075
 21
764.9953749016
 31
0.0
  0
LINE
  5
1E6
330
1F
100
AcDbEntity
  8
0
  6
CONTINUOUS
 62
     7
100
AcDbLine
 10
109.7243918075
 20
788.9953788355
 30
0.0
 11
108.2243917945
 21
788.9953788355
 31
0.0
  0
LINE
  5
1E7
330
1F
100
AcDbEntity
  8
0
  6
CONTINUOUS
 62
     7
100
AcDbLine
 10
108.2243917945
 20
788.9953788355
 30
0.0
 11
108.2243917945
 21
832.995378597
 31
0.0
  0
LINE
  5
1E8
330
1F
100
AcDbEntity
  8
0
  6
CONTINUOUS
 62
     7
100
AcDbLine
 10
109.7243918075
 20
788.9953788355
 30
0.0
 11
109.7243918075
 21
832.995378597
 31
0.0
  0
LINE
  5
1E9
330
1F
100
AcDbEntity
  8
0
  6
CONTINUOUS
 62
     7
100
AcDbLine
 10
108.2243917945
 20
465.4953714445
 30
0.0
 11
108.2243917945
 21
465.9953799083
 31
0.0
  0
LINE
  5
1EA
330
1F
100
AcDbEntity
  8
0
  6
CONTINUOUS
 62
     7
100
AcDbLine
 10
109.7243918075
 20
465.4953714445
 30
0.0
 11
109.7243918075
 21
465.9953799083
 31
0.0
  0
LINE
  5
1EB
330
1F
100
AcDbEntity
  8
0
  6
CONTINUOUS
 62
     7
100
AcDbLine
 10
108.2243917945
 20
488.9953818157
 30
0.0
 11
108.2243917945
 21
489.4953753784
 31
0.0
  0
LINE
  5
1EC
330
1F
100
AcDbEntity
  8
0
  6
CONTINUOUS
 62
     7
100
AcDbLine
 10
109.7243918075
 20
488.9953818157
 30
0.0
 11
109.7243918075
 21
489.4953753784
 31
0.0
  0
LINE
  5
1ED
330
1F
100
AcDbEntity
  8
0
  6
CONTINUOUS
 62
     7
100
AcDbLine
 10
108.2243917945
 20
764.9953749016
 30
0.0
 11
108.2243917945
 21
765.4953684643
 31
0.0
  0
LINE
  5
1EE
330
1F
100
AcDbEntity
  8
0
  6
CONTINUOUS
 62
     7
100
AcDbLine
 10
109.7243918075
 20
764.9953749016
 30
0.0
 11
109.7243918075
 21
765.4953684643
 31
0.0
  0
LINE
  5
1EF
330
1F
100
AcDbEntity
  8
0
  6
CONTINUOUS
 62
     7
100
AcDbLine
 10
108.2243917945
 20
788.4953703716
 30
0.0
 11
108.2243917945
 21
788.9953788355
 31
0.0
  0
LINE
  5
1F0
330
1F
100
AcDbEntity
  8
0
  6
CONTINUOUS
 62
     7
100
AcDbLine
 10
109.7243918075
 20
788.4953703716
 30
0.0
 11
109.7243918075
 21
788.9953788355
 31
0.0
  0
LINE
  5
1F1
330
1F
100
AcDbEntity
  8
0
  6
CONTINUOUS
 62
     7
100
AcDbLine
 10
108.2243917945
 20
485.995375736
 30
0.0
 11
108.2243917945
 21
468.9953710869
 31
0.0
  0
LINE
  5
1F2
330
1F
100
AcDbEntity
  8
0
  6
CONTINUOUS
 62
     7
100
AcDbLine
 10
109.7243918075
 20
485.995375736
 30
0.0
 11
109.7243918075
 21
485.4953821733
 31
0.0
  0
LINE
  5
1F3
330
1F
100
AcDbEntity
  8
0
  6
CONTINUOUS
 62
     7
100
AcDbLine
 10
109.7243918075
 20
469.4953795507
 30
0.0
 11
109.7243918075
 21
468.9953710869
 31
0.0
  0
LINE
  5
1F4
330
1F
100
AcDbEntity
  8
0
  6
CONTINUOUS
 62
     7
100
AcDbLine
 10
108.2243917945
 20
785.4953791931
 30
0.0
 11
108.2243917945
 21
768.4953745439
 31
0.0
  0
LINE
  5
1F5
330
1F
100
AcDbEntity
  8
0
  6
CONTINUOUS
 62
     7
100
AcDbLine
 10
109.7243918075
 20
785.4953791931
 30
0.0
 11
109.7243918075
 21
784.9953707292
 31
0.0
  0
LINE
  5
1F6
330
1F
100
AcDbEntity
  8
0
  6
CONTINUOUS
 62
     7
100
AcDbLine
 10
109.7243918075
 20
768.9953681066
 30
0.0
 11
109.7243918075
 21
768.4953745439
 31
0.0
  0
LINE
  5
1F7
330
1F
100
AcDbEntity
  8
0
  6
CONTINUOUS
 62
     7
100
AcDbLine
 10
110.7243917386
 20
832.995378597
 30
0.0
 11
109.7243918075
 21
832.995378597
 31
0.0
  0
LINE
  5
1F8
330
1F
100
AcDbEntity
  8
0
  6
CONTINUOUS
 62
     7
100
AcDbLine
 10
109.7243918075
 20
421.4953716829
 30
0.0
 11
110.7243917386
 21
421.4953716829
 31
0.0
  0
LINE
  5
1F9
330
1F
100
AcDbEntity
  8
0
  6
CONTINUOUS
 62
     7
100
AcDbLine
 10
117.224391407
 20
421.4953716829
 30
0.0
 11
119.2243917349
 21
423.495375736
 31
0.0
  0
LINE
  5
1FA
330
1F
100
AcDbEntity
  8
0
  6
CONTINUOUS
 62
     7
100
AcDbLine
 10
117.224391407
 20
421.4953716829
 30
0.0
 11
110.7243917386
 21
421.4953716829
 31
0.0
  0
LINE
  5
1FB
330
1F
100
AcDbEntity
  8
0
  6
CONTINUOUS
 62
     7
100
AcDbLine
 10
110.7243917386
 20
832.995378597
 30
0.0
 11
117.224391407
 21
832.995378597
 31
0.0
  0
LINE
  5
1FC
330
1F
100
AcDbEntity
  8
0
  6
CONTINUOUS
 62
     7
100
AcDbLine
 10
119.2243917349
 20
830.9953745439
 30
0.0
 11
117.224391407
 21
832.995378597
 31
0.0
  0
LINE
  5
1FD
330
1F
100
AcDbEntity
  8
0
  6
CONTINUOUS
 62
     7
100
AcDbLine
 10
119.2243917349
 20
830.9953745439
 30
0.0
 11
119.2243917349
 21
820.9953691795
 31
0.0
  0
LINE
  5
1FE
330
1F
100
AcDbEntity
  8
0
  6
CONTINUOUS
 62
     7
100
AcDbLine
 10
119.2243917349
 20
433.4953811004
 30
0.0
 11
119.2243917349
 21
423.495375736
 31
0.0
  0
LINE
  5
1FF
330
1F
100
AcDbEntity
  8
0
  6
CONTINUOUS
 62
     7
100
AcDbLine
 10
119.2243917349
 20
820.9953691795
 30
0.0
 11
121.7243921447
 21
820.9953691795
 31
0.0
  0
LINE
  5
200
330
1F
100
AcDbEntity
  8
0
  6
CONTINUOUS
 62
     7
100
AcDbLine
 10
121.7243921447
 20
433.4953811004
 30
0.0
 11
121.7243921447
 21
465.9953799083
 31
0.0
  0
LINE
  5
201
330
1F
100
AcDbEntity
  8
0
  6
CONTINUOUS
 62
     7
100
AcDbLine
 10
121.7243921447
 20
468.9953710869
 30
0.0
 11
121.7243921447
 21
469.4953795507
 31
0.0
  0
LINE
  5
202
330
1F
100
AcDbEntity
  8
0
  6
CONTINUOUS
 62
     7
100
AcDbLine
 10
121.7243921447
 20
485.4953821733
 30
0.0
 11
121.7243921447
 21
485.995375736
 31
0.0
  0
LINE
  5
203
330
1F
100
AcDbEntity
  8
0
  6
CONTINUOUS
 62
     7
100
AcDbLine
 10
121.7243921447
 20
488.9953818157
 30
0.0
 11
121.7243921447
 21
765.4953684643
 31
0.0
  0
LINE
  5
204
330
1F
100
AcDbEntity
  8
0
  6
CONTINUOUS
 62
     7
100
AcDbLine
 10
121.7243921447
 20
768.4953745439
 30
0.0
 11
121.7243921447
 21
768.9953681066
 31
0.0
  0
LINE
  5
205
330
1F
100
AcDbEntity
  8
0
  6
CONTINUOUS
 62
     7
100
AcDbLine
 10
121.7243921447
 20
784.9953707292
 30
0.0
 11
121.7243921447
 21
785.4953791931
 31
0.0
  0
LINE
  5
206
330
1F
100
AcDbEntity
  8
0
  6
CONTINUOUS
 62
     7
100
AcDbLine
 10
121.7243921447
 20
788.4953703716
 30
0.0
 11
121.7243921447
 21
820.9953691795
 31
0.0
  0
LINE
  5
207
330
1F
100
AcDbEntity
  8
0
  6
CONTINUOUS
 62
     7
100
AcDbLine
 10
121.7243921447
 20
433.4953811004
 30
0.0
 11
119.2243917349
 21
433.4953811004
 31
0.0
  0
LINE
  5
208
330
1F
100
AcDbEntity
  8
0
  6
CONTINUOUS
 62
     7
100
AcDbLine
 10
111.7243919025
 20
835.0382681921
 30
0.0
 11
120.2243918988
 21
835.0382681921
 31
0.0
  0
LINE
  5
209
330
1F
100
AcDbEntity
  8
0
  6
CONTINUOUS
 62
     7
100
AcDbLine
 10
120.2243918988
 20
835.0382681921
 30
0.0
 11
120.2243918988
 21
820.9953691795
 31
0.0
  0
LINE
  5
20A
330
1F
100
AcDbEntity
  8
0
  6
CONTINUOUS
 62
     7
100
AcDbLine
 10
120.2243918988
 20
433.4953811004
 30
0.0
 11
120.2243918988
 21
419.4524820879
 31
0.0
  0
LINE
  5
20B
330
1F
100
AcDbEntity
  8
0
  6
CONTINUOUS
 62
     7
100
AcDbLine
 10
111.7243919025
 20
419.4524820879
 30
0.0
 11
120.2243918988
 21
419.4524820879
 31
0.0
  0
ARC
  5
20C
330
1F
100
AcDbEntity
  8
0
  6
CONTINUOUS
 62
     7
100
AcDbCircle
 10
117.7975616422
 20
788.9046412327
 30
0.0
 40
46.5316551083039
100
AcDbArc
 50
97.4994659361
 51
99.9912887589
  0
LWPOLYLINE
  5
20D
330
1F
100
AcDbEntity
  8
0
  6
CONTINUOUS
 62
     7
100
AcDbPolyline
 90
        3
 70
   128
 43
0.0
 10
111.7243919025
 20
419.4524820879
 10
110.7264711491
 20
419.5984240606
 10
109.7243918075
 20
419.7604592874
  0
ARC
  5
20E
330
1F
100
AcDbEntity
  8
0
  6
CONTINUOUS
 62
     7
100
AcDbCircle
 10
111.5330241473
 20
419.6116910484
 30
0.0
 40
2.872698981554981
100
AcDbArc
 50
230.9798687731
 51
273.819645072
  0
ARC
  5
20F
330
1F
100
AcDbEntity
  8
0
  6
CONTINUOUS
 62
     7
100
AcDbCircle
 10
111.7122565951
 20
420.2085717853
 30
0.0
 40
1.463244822072009
100
AcDbArc
 50
202.092027878
 51
270.4751835492
  0
LINE
  5
210
330
1F
100
AcDbEntity
  8
0
  6
CONTINUOUS
 62
     7
100
AcDbLine
 10
111.7243919025
 20
416.7453732326
 30
0.0
 11
111.7243919025
 21
418.7453772857
 31
0.0
  0
LINE
  5
211
330
1F
100
AcDbEntity
  8
0
  6
CONTINUOUS
 62
     7
100
AcDbLine
 10
111.7243919025
 20
837.7453770473
 30
0.0
 11
111.7243919025
 21
835.7453729942
 31
0.0
  0
ARC
  5
212
330
1F
100
AcDbEntity
  8
0
  6
CONTINUOUS
 62
     7
100
AcDbCircle
 10
111.662839112
 20
834.3673795356
 30
0.0
 40
1.379367506494329
100
AcDbArc
 50
87.4423881937
 51
160.2412050414
  0
LWPOLYLINE
  5
213
330
1F
100
AcDbEntity
  8
0
  6
CONTINUOUS
 62
     7
100
AcDbPolyline
 90
        3
 70
   128
 43
0.0
 10
111.7243919025
 20
837.7453770473
 10
110.7264711491
 20
837.6000907257
 10
109.7243918075
 20
837.1041502788
  0
LINE
  5
214
330
1F
100
AcDbEntity
  8
0
  6
CONTINUOUS
 62
     7
100
AcDbLine
 10
111.7243919025
 20
416.7453732326
 30
0.0
 11
120.2243918988
 21
416.7453732326
 31
0.0
  0
LINE
  5
215
330
1F
100
AcDbEntity
  8
0
  6
CONTINUOUS
 62
     7
100
AcDbLine
 10
120.2243918988
 20
418.7453772857
 30
0.0
 11
120.2243918988
 21
416.7453732326
 31
0.0
  0
LINE
  5
216
330
1F
100
AcDbEntity
  8
0
  6
CONTINUOUS
 62
     7
100
AcDbLine
 10
111.7243919025
 20
418.7453772857
 30
0.0
 11
120.2243918988
 21
418.7453772857
 31
0.0
  0
LINE
  5
217
330
1F
100
AcDbEntity
  8
0
  6
CONTINUOUS
 62
     7
100
AcDbLine
 10
120.2243918988
 20
837.7453770473
 30
0.0
 11
111.7243919025
 21
837.7453770473
 31
0.0
  0
LINE
  5
218
330
1F
100
AcDbEntity
  8
0
  6
CONTINUOUS
 62
     7
100
AcDbLine
 10
120.2243918988
 20
835.7453729942
 30
0.0
 11
120.2243918988
 21
837.7453770473
 31
0.0
  0
LINE
  5
219
330
1F
100
AcDbEntity
  8
0
  6
CONTINUOUS
 62
     7
100
AcDbLine
 10
111.7243919025
 20
835.7453729942
 30
0.0
 11
120.2243918988
 21
835.7453729942
 31
0.0
  0
LINE
  5
21A
330
1F
100
AcDbEntity
  8
0
  6
CONTINUOUS
 62
     7
100
AcDbLine
 10
124.5243920448
 20
621.0953753426
 30
0.0
 11
124.5243920448
 21
630.3892498355
 31
0.0
  0
LINE
  5
21B
330
1F
100
AcDbEntity
  8
0
  6
CONTINUOUS
 62
     7
100
AcDbLine
 10
124.5243920448
 20
630.3892498355
 30
0.0
 11
123.8243913713
 21
630.3892498355
 31
0.0
  0
LINE
  5
21C
330
1F
100
AcDbEntity
  8
0
  6
CONTINUOUS
 62
     7
100
AcDbLine
 10
123.8243913713
 20
621.0953753426
 30
0.0
 11
123.8243913713
 21
630.3892498355
 31
0.0
  0
LINE
  5
21D
330
1F
100
AcDbEntity
  8
0
  6
CONTINUOUS
 62
     7
100
AcDbLine
 10
123.7243915412
 20
621.5501583166
 30
0.0
 11
121.7243921447
 21
621.5501583166
 31
0.0
  0
LINE
  5
21E
330
1F
100
AcDbEntity
  8
0
  6
CONTINUOUS
 62
     7
100
AcDbLine
 10
123.7243915412
 20
634.5423447884
 30
0.0
 11
121.7243921447
 21
634.5423447884
 31
0.0
  0
LINE
  5
21F
330
1F
100
AcDbEntity
  8
0
  6
CONTINUOUS
 62
     7
100
AcDbLine
 10
123.7243915412
 20
621.5501583166
 30
0.0
 11
123.7243915412
 21
634.5423447884
 31
0.0
  0
LINE
  5
220
330
1F
100
AcDbEntity
  8
0
  6
CONTINUOUS
 62
     7
100
AcDbLine
 10
123.7243915412
 20
620.7492819041
 30
0.0
 11
121.7243921447
 21
620.7492819041
 31
0.0
  0
LINE
  5
221
330
1F
100
AcDbEntity
  8
0
  6
CONTINUOUS
 62
     7
100
AcDbLine
 10
123.7243915412
 20
620.7492819041
 30
0.0
 11
123.7243915412
 21
621.5501583166
 31
0.0
  0
LINE
  5
222
330
1F
100
AcDbEntity
  8
0
  6
CONTINUOUS
 62
     7
100
AcDbLine
 10
123.7243915412
 20
620.7453750059
 30
0.0
 11
123.7243915412
 21
620.7492819041
 31
0.0
  0
LINE
  5
223
330
1F
100
AcDbEntity
  8
0
  6
CONTINUOUS
 62
     7
100
AcDbLine
 10
104.9243918124
 20
627.4741669287
 30
0.0
 11
104.9243918124
 21
620.6453751757
 31
0.0
  0
LINE
  5
224
330
1F
100
AcDbEntity
  8
0
  6
CONTINUOUS
 62
     7
100
AcDbLine
 10
104.9243918124
 20
633.8453751042
 30
0.0
 11
104.9243918124
 21
627.4741669287
 31
0.0
  0
LINE
  5
225
330
1F
100
AcDbEntity
  8
0
  6
CONTINUOUS
 62
     7
100
AcDbLine
 10
125.724391869
 20
627.3667041197
 30
0.0
 11
125.724391869
 21
630.745375248
 31
0.0
  0
LINE
  5
226
330
1F
100
AcDbEntity
  8
0
  6
CONTINUOUS
 62
     7
100
AcDbLine
 10
125.724391869
 20
623.7453750319
 30
0.0
 11
125.724391869
 21
627.3667041197
 31
0.0
  0
LINE
  5
227
330
1F
100
AcDbEntity
  8
0
  6
CONTINUOUS
 62
     7
100
AcDbLine
 10
124.7243917051
 20
623.7453750319
 30
0.0
 11
124.7243917051
 21
630.745375248
 31
0.0
  0
LINE
  5
228
330
1F
100
AcDbEntity
  8
0
  6
CONTINUOUS
 62
     7
100
AcDbLine
 10
107.224391747
 20
616.2453751996
 30
0.0
 11
107.224391747
 21
638.2453750804
 31
0.0
  0
LINE
  5
229
330
1F
100
AcDbEntity
  8
0
  6
CONTINUOUS
 62
     7
100
AcDbLine
 10
105.2243917684
 20
633.8261204756
 30
0.0
 11
105.2243917684
 21
636.2453747525
 31
0.0
  0
LINE
  5
22A
330
1F
100
AcDbEntity
  8
0
  6
CONTINUOUS
 62
     7
100
AcDbLine
 10
105.2243917684
 20
618.2453755274
 30
0.0
 11
105.2243917684
 21
633.8261204756
 31
0.0
  0
LINE
  5
22B
330
1F
100
AcDbEntity
  8
0
  6
CONTINUOUS
 62
     8
100
AcDbLine
 10
110.7243917386
 20
421.4953716829
 30
0.0
 11
110.7243917386
 21
465.9953799083
 31
0.0
  0
LINE
  5
22C
330
1F
100
AcDbEntity
  8
0
  6
CONTINUOUS
 62
     8
100
AcDbLine
 10
110.7243917386
 20
468.9953710869
 30
0.0
 11
110.7243917386
 21
469.4953795507
 31
0.0
  0
LINE
  5
22D
330
1F
100
AcDbEntity
  8
0
  6
CONTINUOUS
 62
     8
100
AcDbLine
 10
110.7243917386
 20
485.4953821733
 30
0.0
 11
110.7243917386
 21
485.995375736
 31
0.0
  0
LINE
  5
22E
330
1F
100
AcDbEntity
  8
0
  6
CONTINUOUS
 62
     8
100
AcDbLine
 10
110.7243917386
 20
488.9953818157
 30
0.0
 11
110.7243917386
 21
765.4953684643
 31
0.0
  0
LINE
  5
22F
330
1F
100
AcDbEntity
  8
0
  6
CONTINUOUS
 62
     8
100
AcDbLine
 10
110.7243917386
 20
768.4953745439
 30
0.0
 11
110.7243917386
 21
768.9953681066
 31
0.0
  0
LINE
  5
230
330
1F
100
AcDbEntity
  8
0
  6
CONTINUOUS
 62
     8
100
AcDbLine
 10
110.7243917386
 20
784.9953707292
 30
0.0
 11
110.7243917386
 21
785.4953791931
 31
0.0
  0
LINE
  5
231
330
1F
100
AcDbEntity
  8
0
  6
CONTINUOUS
 62
     8
100
AcDbLine
 10
110.7243917386
 20
788.4953703716
 30
0.0
 11
110.7243917386
 21
832.995378597
 31
0.0
  0
LINE
  5
232
330
1F
100
AcDbEntity
  8
0
  6
CONTINUOUS
 62
     8
100
AcDbLine
 10
119.2243917349
 20
433.4953811004
 30
0.0
 11
119.2243917349
 21
465.9953799083
 31
0.0
  0
LINE
  5
233
330
1F
100
AcDbEntity
  8
0
  6
CONTINUOUS
 62
     8
100
AcDbLine
 10
119.2243917349
 20
468.9953710869
 30
0.0
 11
119.2243917349
 21
469.4953795507
 31
0.0
  0
LINE
  5
234
330
1F
100
AcDbEntity
  8
0
  6
CONTINUOUS
 62
     8
100
AcDbLine
 10
119.2243917349
 20
485.4953821733
 30
0.0
 11
119.2243917349
 21
485.995375736
 31
0.0
  0
LINE
  5
235
330
1F
100
AcDbEntity
  8
0
  6
CONTINUOUS
 62
     8
100
AcDbLine
 10
119.2243917349
 20
488.9953818157
 30
0.0
 11
119.2243917349
 21
765.4953684643
 31
0.0
  0
LINE
  5
236
330
1F
100
AcDbEntity
  8
0
  6
CONTINUOUS
 62
     8
100
AcDbLine
 10
119.2243917349
 20
768.4953745439
 30
0.0
 11
119.2243917349
 21
768.9953681066
 31
0.0
  0
LINE
  5
237
330
1F
100
AcDbEntity
  8
0
  6
CONTINUOUS
 62
     8
100
AcDbLine
 10
119.2243917349
 20
784.9953707292
 30
0.0
 11
119.2243917349
 21
785.4953791931
 31
0.0
  0
LINE
  5
238
330
1F
100
AcDbEntity
  8
0
  6
CONTINUOUS
 62
     8
100
AcDbLine
 10
119.2243917349
 20
788.4953703716
 30
0.0
 11
119.2243917349
 21
820.9953691795
 31
0.0
  0
LINE
  5
239
330
1F
100
AcDbEntity
  8
0
  6
CONTINUOUS
 62
     8
100
AcDbLine
 10
111.7243919025
 20
419.4524820879
 30
0.0
 11
111.7243919025
 21
421.4953716829
 31
0.0
  0
LINE
  5
23A
330
1F
100
AcDbEntity
  8
0
  6
CONTINUOUS
 62
     8
100
AcDbLine
 10
111.7243919025
 20
832.995378597
 30
0.0
 11
111.7243919025
 21
835.0382681921
 31
0.0
  0
LINE
  5
23B
330
1F
100
AcDbEntity
  8
0
  6
CONTINUOUS
 62
     8
100
AcDbLine
 10
105.1743918533
 20
627.4828332781
 30
0.0
 11
105.1743918533
 21
634.0953751452
 31
0.0
  0
LINE
  5
23C
330
1F
100
AcDbEntity
  8
0
  6
CONTINUOUS
 62
     8
100
AcDbLine
 10
105.1743918533
 20
620.3953751348
 30
0.0
 11
105.1743918533
 21
627.4828332781
 31
0.0
  0
LINE
  5
23D
330
1F
100
AcDbEntity
  8
0
  6
CONTINUOUS
 62
     7
100
AcDbLine
 10
644.3671765565
 20
1069.7524219386
 30
0.0
 11
644.3671765565
 21
1069.0524212651
 31
0.0
  0
LINE
  5
23E
330
1F
100
AcDbEntity
  8
0
  6
CONTINUOUS
 62
     7
100
AcDbLine
 10
656.6671761512
 20
1069.0524212651
 30
0.0
 11
656.6671761512
 21
1069.7524219386
 31
0.0
  0
LINE
  5
23F
330
1F
100
AcDbEntity
  8
0
  6
CONTINUOUS
 62
     7
100
AcDbLine
 10
644.0171780824
 20
1071.8524211652
 30
0.0
 11
644.0171780824
 21
1069.8524217687
 31
0.0
  0
LINE
  5
240
330
1F
100
AcDbEntity
  8
0
  6
CONTINUOUS
 62
     7
100
AcDbLine
 10
674.5171877383
 20
1069.8524217687
 30
0.0
 11
674.5171877383
 21
1071.8524211652
 31
0.0
  0
LINE
  5
241
330
1F
100
AcDbEntity
  8
0
  6
CONTINUOUS
 62
     7
100
AcDbLine
 10
657.3671880006
 20
1088.3524215415
 30
0.0
 11
657.3671880006
 21
1088.4024214565
 31
0.0
  0
LINE
  5
242
330
1F
100
AcDbEntity
  8
0
  6
CONTINUOUS
 62
     7
100
AcDbLine
 10
643.6671796083
 20
1088.4024214565
 30
0.0
 11
643.6671796083
 21
1088.3524215415
 31
0.0
  0
ARC
  5
243
330
1F
100
AcDbEntity
  8
0
  6
CONTINUOUS
 62
     7
100
AcDbCircle
 10
657.1171828507
 20
1088.4024215154
 30
0.0
 40
0.25
100
AcDbArc
 50
0.0
 51
90.0
  0
ARC
  5
244
330
1F
100
AcDbEntity
  8
0
  6
CONTINUOUS
 62
     7
100
AcDbCircle
 10
643.9171828507
 20
1088.4024215154
 30
0.0
 40
0.25
100
AcDbArc
 50
90.0
 51
180.0
  0
LINE
  5
245
330
1F
100
AcDbEntity
  8
0
  6
CONTINUOUS
 62
     7
100
AcDbLine
 10
647.017184162
 20
1068.8524216048
 30
0.0
 11
647.017184162
 21
1067.8524214409
 31
0.0
  0
LINE
  5
246
330
1F
100
AcDbEntity
  8
0
  6
CONTINUOUS
 62
     7
100
AcDbLine
 10
654.0171834468
 20
1067.8524214409
 30
0.0
 11
654.0171834468
 21
1068.8524216048
 31
0.0
  0
LINE
  5
247
330
1F
100
AcDbEntity
  8
0
  6
CONTINUOUS
 62
     7
100
AcDbLine
 10
647.5171777247
 20
1069.8524217687
 30
0.0
 11
647.5171777247
 21
1069.7524219386
 31
0.0
  0
LINE
  5
248
330
1F
100
AcDbEntity
  8
0
  6
CONTINUOUS
 62
     7
100
AcDbLine
 10
647.5171777247
 20
1069.0524212651
 30
0.0
 11
647.5171777247
 21
1068.8524216048
 31
0.0
  0
LINE
  5
249
330
1F
100
AcDbEntity
  8
0
  6
CONTINUOUS
 62
     7
100
AcDbLine
 10
653.5171898841
 20
1068.8524216048
 30
0.0
 11
653.5171898841
 21
1069.0524212651
 31
0.0
  0
LINE
  5
24A
330
1F
100
AcDbEntity
  8
0
  6
CONTINUOUS
 62
     7
100
AcDbLine
 10
653.5171898841
 20
1069.7524219386
 30
0.0
 11
653.5171898841
 21
1069.8524217687
 31
0.0
  0
LINE
  5
24B
330
1F
100
AcDbEntity
  8
0
  6
CONTINUOUS
 62
     7
100
AcDbLine
 10
639.5171764134
 20
1086.3524215629
 30
0.0
 11
639.5171764134
 21
1085.3524215154
 31
0.0
  0
LINE
  5
24C
330
1F
100
AcDbEntity
  8
0
  6
CONTINUOUS
 62
     7
100
AcDbLine
 10
661.5171762942
 20
1085.3524215154
 30
0.0
 11
661.5171762942
 21
1086.3524215629
 31
0.0
  0
LINE
  5
24D
330
1F
100
AcDbEntity
  8
0
  6
CONTINUOUS
 62
     7
100
AcDbLine
 10
661.5171762942
 20
1086.3524215629
 30
0.0
 11
659.5171871423
 21
1088.3524215415
 31
0.0
  0
LINE
  5
24E
330
1F
100
AcDbEntity
  8
0
  6
CONTINUOUS
 62
     7
100
AcDbLine
 10
641.5171804666
 20
1088.3524215415
 30
0.0
 11
639.5171764134
 21
1086.3524215629
 31
0.0
  0
LINE
  5
24F
330
1F
100
AcDbEntity
  8
0
  6
CONTINUOUS
 62
     7
100
AcDbLine
 10
657.5171830892
 20
1072.3524212472
 30
0.0
 11
657.5171830892
 21
1073.3524214111
 31
0.0
  0
ARC
  5
250
330
1F
100
AcDbEntity
  8
0
  6
CONTINUOUS
 62
     7
100
AcDbCircle
 10
657.0171828507
 20
1072.3524215154
 30
0.0
 40
0.4999999999998863
100
AcDbArc
 50
269.9999878213
 51
0.0
  0
LINE
  5
251
330
1F
100
AcDbEntity
  8
0
  6
CONTINUOUS
 62
     7
100
AcDbLine
 10
358.0171796321
 20
1083.8524215024
 30
0.0
 11
358.0171796321
 21
1085.3524215154
 31
0.0
  0
LINE
  5
252
330
1F
100
AcDbEntity
  8
0
  6
CONTINUOUS
 62
     7
100
AcDbLine
 10
352.3603263139
 20
1083.8524215024
 30
0.0
 11
352.3603263139
 21
1085.3524215154
 31
0.0
  0
LINE
  5
253
330
1F
100
AcDbEntity
  8
0
  6
CONTINUOUS
 62
     7
100
AcDbLine
 10
352.3603263139
 20
1083.8524215024
 30
0.0
 11
358.0171796321
 21
1083.8524215024
 31
0.0
  0
LINE
  5
254
330
1F
100
AcDbEntity
  8
0
  6
CONTINUOUS
 62
     7
100
AcDbLine
 10
352.3603263139
 20
1085.3524215154
 30
0.0
 11
358.0171796321
 21
1085.3524215154
 31
0.0
  0
LINE
  5
255
330
1F
100
AcDbEntity
  8
0
  6
CONTINUOUS
 62
     7
100
AcDbLine
 10
671.5171816587
 20
1083.8524215024
 30
0.0
 11
671.5171816587
 21
1085.3524215154
 31
0.0
  0
LINE
  5
256
330
1F
100
AcDbEntity
  8
0
  6
CONTINUOUS
 62
     7
100
AcDbLine
 10
358.0171796321
 20
1083.8524215024
 30
0.0
 11
671.5171816587
 21
1083.8524215024
 31
0.0
  0
LINE
  5
257
330
1F
100
AcDbEntity
  8
0
  6
CONTINUOUS
 62
     7
100
AcDbLine
 10
358.0171796321
 20
1085.3524215154
 30
0.0
 11
671.5171816587
 21
1085.3524215154
 31
0.0
  0
LINE
  5
258
330
1F
100
AcDbEntity
  8
0
  6
CONTINUOUS
 62
     7
100
AcDbLine
 10
677.1740349769
 20
1083.8524215024
 30
0.0
 11
677.1740349769
 21
1085.3524215154
 31
0.0
  0
LINE
  5
259
330
1F
100
AcDbEntity
  8
0
  6
CONTINUOUS
 62
     7
100
AcDbLine
 10
671.5171816587
 20
1083.8524215024
 30
0.0
 11
677.1740349769
 21
1083.8524215024
 31
0.0
  0
LINE
  5
25A
330
1F
100
AcDbEntity
  8
0
  6
CONTINUOUS
 62
     7
100
AcDbLine
 10
671.5171816587
 20
1085.3524215154
 30
0.0
 11
677.1740349769
 21
1085.3524215154
 31
0.0
  0
LINE
  5
25B
330
1F
100
AcDbEntity
  8
0
  6
CONTINUOUS
 62
     7
100
AcDbLine
 10
336.8603321551
 20
1083.8524215024
 30
0.0
 11
336.8603321551
 21
1085.3524215154
 31
0.0
  0
LINE
  5
25C
330
1F
100
AcDbEntity
  8
0
  6
CONTINUOUS
 62
     7
100
AcDbLine
 10
336.8603321551
 20
1083.8524215024
 30
0.0
 11
352.3603263139
 21
1083.8524215024
 31
0.0
  0
LINE
  5
25D
330
1F
100
AcDbEntity
  8
0
  6
CONTINUOUS
 62
     7
100
AcDbLine
 10
336.8603321551
 20
1085.3524215154
 30
0.0
 11
352.3603263139
 21
1085.3524215154
 31
0.0
  0
LINE
  5
25E
330
1F
100
AcDbEntity
  8
0
  6
CONTINUOUS
 62
     7
100
AcDbLine
 10
692.6740440368
 20
1083.8524215024
 30
0.0
 11
692.6740440368
 21
1085.3524215154
 31
0.0
  0
LINE
  5
25F
330
1F
100
AcDbEntity
  8
0
  6
CONTINUOUS
 62
     7
100
AcDbLine
 10
677.1740349769
 20
1083.8524215024
 30
0.0
 11
692.6740440368
 21
1083.8524215024
 31
0.0
  0
LINE
  5
260
330
1F
100
AcDbEntity
  8
0
  6
CONTINUOUS
 62
     7
100
AcDbLine
 10
677.1740349769
 20
1085.3524215154
 30
0.0
 11
692.6740440368
 21
1085.3524215154
 31
0.0
  0
LINE
  5
261
330
1F
100
AcDbEntity
  8
0
  6
CONTINUOUS
 62
     7
100
AcDbLine
 10
668.0171820163
 20
1082.8524215713
 30
0.0
 11
668.0171820163
 21
1083.8524215024
 31
0.0
  0
LINE
  5
262
330
1F
100
AcDbEntity
  8
0
  6
CONTINUOUS
 62
     7
100
AcDbLine
 10
361.5171792745
 20
1082.8524215713
 30
0.0
 11
668.0171820163
 21
1082.8524215713
 31
0.0
  0
LINE
  5
263
330
1F
100
AcDbEntity
  8
0
  6
CONTINUOUS
 62
     7
100
AcDbLine
 10
361.5171792745
 20
1083.8524215024
 30
0.0
 11
361.5171792745
 21
1082.8524215713
 31
0.0
  0
LINE
  5
264
330
1F
100
AcDbEntity
  8
0
  6
CONTINUOUS
 62
     7
100
AcDbLine
 10
668.0171820163
 20
1082.8524215713
 30
0.0
 11
668.0171820163
 21
1076.3524219028
 31
0.0
  0
LINE
  5
265
330
1F
100
AcDbEntity
  8
0
  6
CONTINUOUS
 62
     7
100
AcDbLine
 10
666.0171779632
 20
1074.352421575
 30
0.0
 11
668.0171820163
 21
1076.3524219028
 31
0.0
  0
LINE
  5
266
330
1F
100
AcDbEntity
  8
0
  6
CONTINUOUS
 62
     7
100
AcDbLine
 10
666.0171779632
 20
1074.352421575
 30
0.0
 11
656.0171874999
 21
1074.352421575
 31
0.0
  0
LINE
  5
267
330
1F
100
AcDbEntity
  8
0
  6
CONTINUOUS
 62
     7
100
AcDbLine
 10
373.517188692
 20
1074.352421575
 30
0.0
 11
656.0171874999
 21
1074.352421575
 31
0.0
  0
LINE
  5
268
330
1F
100
AcDbEntity
  8
0
  6
CONTINUOUS
 62
     7
100
AcDbLine
 10
361.5171792745
 20
1076.3524219028
 30
0.0
 11
363.5171833276
 21
1074.352421575
 31
0.0
  0
LINE
  5
269
330
1F
100
AcDbEntity
  8
0
  6
CONTINUOUS
 62
     7
100
AcDbLine
 10
361.5171792745
 20
1076.3524219028
 30
0.0
 11
361.5171792745
 21
1082.8524215713
 31
0.0
  0
CIRCLE
  5
26A
330
1F
100
AcDbEntity
  8
0
  6
CONTINUOUS
 62
     7
100
AcDbCircle
 10
365.0171828507
 20
1077.8524215154
 30
0.0
 40
2.700000000000045
  0
LINE
  5
26B
330
1F
100
AcDbEntity
  8
0
  6
CONTINUOUS
 62
     7
100
AcDbLine
 10
373.517188692
 20
1074.352421575
 30
0.0
 11
363.5171833276
 21
1074.352421575
 31
0.0
  0
LINE
  5
26C
330
1F
100
AcDbEntity
  8
0
  6
CONTINUOUS
 62
     7
100
AcDbLine
 10
656.0171874999
 20
1074.352421575
 30
0.0
 11
656.0171874999
 21
1071.8524211652
 31
0.0
  0
LINE
  5
26D
330
1F
100
AcDbEntity
  8
0
  6
CONTINUOUS
 62
     7
100
AcDbLine
 10
373.517188692
 20
1071.8524211652
 30
0.0
 11
656.0171874999
 21
1071.8524211652
 31
0.0
  0
LINE
  5
26E
330
1F
100
AcDbEntity
  8
0
  6
CONTINUOUS
 62
     7
100
AcDbLine
 10
373.517188692
 20
1071.8524211652
 30
0.0
 11
373.517188692
 21
1074.352421575
 31
0.0
  0
LINE
  5
26F
330
1F
100
AcDbEntity
  8
0
  6
CONTINUOUS
 62
     7
100
AcDbLine
 10
334.517184162
 20
1083.8524215024
 30
0.0
 11
334.517184162
 21
1085.3524215154
 31
0.0
  0
LINE
  5
270
330
1F
100
AcDbEntity
  8
0
  6
CONTINUOUS
 62
     7
100
AcDbLine
 10
695.0171771287
 20
1083.8524215024
 30
0.0
 11
695.0171771287
 21
1085.3524215154
 31
0.0
  0
LINE
  5
271
330
1F
100
AcDbEntity
  8
0
  6
CONTINUOUS
 62
     7
100
AcDbLine
 10
692.6740440368
 20
1083.8524215024
 30
0.0
 11
695.0171771287
 21
1083.8524215024
 31
0.0
  0
LINE
  5
272
330
1F
100
AcDbEntity
  8
0
  6
CONTINUOUS
 62
     7
100
AcDbLine
 10
692.6740440368
 20
1085.3524215154
 30
0.0
 11
695.0171771287
 21
1085.3524215154
 31
0.0
  0
LINE
  5
273
330
1F
100
AcDbEntity
  8
0
  6
CONTINUOUS
 62
     7
100
AcDbLine
 10
675.5171897649
 20
1076.3524219028
 30
0.0
 11
677.0171853541
 21
1076.3524219028
 31
0.0
  0
LINE
  5
274
330
1F
100
AcDbEntity
  8
0
  6
CONTINUOUS
 62
     7
100
AcDbLine
 10
677.0171853541
 20
1076.3524219028
 30
0.0
 11
677.0171853541
 21
1074.352421575
 31
0.0
  0
LINE
  5
275
330
1F
100
AcDbEntity
  8
0
  6
CONTINUOUS
 62
     7
100
AcDbLine
 10
677.0171853541
 20
1074.352421575
 30
0.0
 11
675.5171897649
 21
1074.352421575
 31
0.0
  0
LINE
  5
276
330
1F
100
AcDbEntity
  8
0
  6
CONTINUOUS
 62
     7
100
AcDbLine
 10
675.5171897649
 20
1074.352421575
 30
0.0
 11
675.5171897649
 21
1076.3524219028
 31
0.0
  0
LINE
  5
277
330
1F
100
AcDbEntity
  8
0
  6
CONTINUOUS
 62
     7
100
AcDbLine
 10
677.0171853541
 20
1082.8524215713
 30
0.0
 11
675.5171897649
 21
1082.8524215713
 31
0.0
  0
LINE
  5
278
330
1F
100
AcDbEntity
  8
0
  6
CONTINUOUS
 62
     7
100
AcDbLine
 10
677.0171853541
 20
1076.3524219028
 30
0.0
 11
677.0171853541
 21
1082.8524215713
 31
0.0
  0
LINE
  5
279
330
1F
100
AcDbEntity
  8
0
  6
CONTINUOUS
 62
     7
100
AcDbLine
 10
675.5171897649
 20
1076.3524219028
 30
0.0
 11
675.5171897649
 21
1082.8524215713
 31
0.0
  0
ARC
  5
27A
330
1F
100
AcDbEntity
  8
0
  6
CONTINUOUS
 62
     7
100
AcDbCircle
 10
678.0171828507
 20
1082.8524215154
 30
0.0
 40
2.500000000000114
100
AcDbArc
 50
156.4218215219
 51
180.0
  0
ARC
  5
27B
330
1F
100
AcDbEntity
  8
0
  6
CONTINUOUS
 62
     7
100
AcDbCircle
 10
678.0171828507
 20
1082.8524215154
 30
0.0
 40
1.0
100
AcDbArc
 50
90.0
 51
180.0
  0
LINE
  5
27C
330
1F
100
AcDbEntity
  8
0
  6
CONTINUOUS
 62
     7
100
AcDbLine
 10
674.5171877383
 20
1073.3524214111
 30
0.0
 11
674.5171877383
 21
1071.8524211652
 31
0.0
  0
ARC
  5
27D
330
1F
100
AcDbEntity
  8
0
  6
CONTINUOUS
 62
     7
100
AcDbCircle
 10
674.5171828507
 20
1074.3524215154
 30
0.0
 40
1.000000000000227
100
AcDbArc
 50
270.0
 51
0.0
  0
ARC
  5
27E
330
1F
100
AcDbEntity
  8
0
  6
CONTINUOUS
 62
     7
100
AcDbCircle
 10
674.5171828507
 20
1074.3524215154
 30
0.0
 40
2.500000000000227
100
AcDbArc
 50
270.0
 51
360.0
  0
LINE
  5
27F
330
1F
100
AcDbEntity
  8
0
  6
CONTINUOUS
 62
     7
100
AcDbLine
 10
670.5171796321
 20
1071.8524211652
 30
0.0
 11
670.5171796321
 21
1073.3524214111
 31
0.0
  0
LINE
  5
280
330
1F
100
AcDbEntity
  8
0
  6
CONTINUOUS
 62
     7
100
AcDbLine
 10
672.0171901225
 20
1073.3524214111
 30
0.0
 11
673.5171857118
 21
1073.3524214111
 31
0.0
  0
LINE
  5
281
330
1F
100
AcDbEntity
  8
0
  6
CONTINUOUS
 62
     7
100
AcDbLine
 10
673.5171857118
 20
1073.3524214111
 30
0.0
 11
673.5171857118
 21
1071.8524211652
 31
0.0
  0
LINE
  5
282
330
1F
100
AcDbEntity
  8
0
  6
CONTINUOUS
 62
     7
100
AcDbLine
 10
673.5171857118
 20
1071.8524211652
 30
0.0
 11
670.5171796321
 21
1071.8524211652
 31
0.0
  0
LINE
  5
283
330
1F
100
AcDbEntity
  8
0
  6
CONTINUOUS
 62
     7
100
AcDbLine
 10
674.5171877383
 20
1073.3524214111
 30
0.0
 11
673.5171857118
 21
1073.3524214111
 31
0.0
  0
LINE
  5
284
330
1F
100
AcDbEntity
  8
0
  6
CONTINUOUS
 62
     7
100
AcDbLine
 10
674.5171877383
 20
1071.8524211652
 30
0.0
 11
673.5171857118
 21
1071.8524211652
 31
0.0
  0
LINE
  5
285
330
1F
100
AcDbEntity
  8
0
  6
CONTINUOUS
 62
     7
100
AcDbLine
 10
693.5171815394
 20
1082.8524215713
 30
0.0
 11
695.0171771287
 21
1082.8524215713
 31
0.0
  0
ARC
  5
286
330
1F
100
AcDbEntity
  8
0
  6
CONTINUOUS
 62
     7
100
AcDbCircle
 10
692.5171828507
 20
1082.8524215154
 30
0.0
 40
1.000000000000227
100
AcDbArc
 50
0.0
 51
90.0
  0
ARC
  5
287
330
1F
100
AcDbEntity
  8
0
  6
CONTINUOUS
 62
     7
100
AcDbCircle
 10
692.5171828507
 20
1082.8524215154
 30
0.0
 40
2.500000000000103
100
AcDbArc
 50
0.0
 51
23.5781784782
  0
LINE
  5
288
330
1F
100
AcDbEntity
  8
0
  6
CONTINUOUS
 62
     7
100
AcDbLine
 10
695.0171771287
 20
1068.8524216048
 30
0.0
 11
695.0171771287
 21
1082.8524215713
 31
0.0
  0
LINE
  5
289
330
1F
100
AcDbEntity
  8
0
  6
CONTINUOUS
 62
     7
100
AcDbLine
 10
693.5171815394
 20
1068.8524216048
 30
0.0
 11
695.0171771287
 21
1068.8524216048
 31
0.0
  0
LINE
  5
28A
330
1F
100
AcDbEntity
  8
0
  6
CONTINUOUS
 62
     7
100
AcDbLine
 10
693.5171815394
 20
1068.8524216048
 30
0.0
 11
693.5171815394
 21
1082.8524215713
 31
0.0
  0
LINE
  5
28B
330
1F
100
AcDbEntity
  8
0
  6
CONTINUOUS
 62
     7
100
AcDbLine
 10
695.0171771287
 20
1066.852421277
 30
0.0
 11
693.5171815394
 21
1066.852421277
 31
0.0
  0
LINE
  5
28C
330
1F
100
AcDbEntity
  8
0
  6
CONTINUOUS
 62
     7
100
AcDbLine
 10
695.0171771287
 20
1068.8524216048
 30
0.0
 11
695.0171771287
 21
1066.852421277
 31
0.0
  0
LINE
  5
28D
330
1F
100
AcDbEntity
  8
0
  6
CONTINUOUS
 62
     7
100
AcDbLine
 10
693.5171815394
 20
1066.852421277
 30
0.0
 11
693.5171815394
 21
1068.8524216048
 31
0.0
  0
ARC
  5
28E
330
1F
100
AcDbEntity
  8
0
  6
CONTINUOUS
 62
     7
100
AcDbCircle
 10
696.0171828507
 20
1069.8524215154
 30
0.0
 40
1.0
100
AcDbArc
 50
165.0
 51
180.0
  0
LINE
  5
28F
330
1F
100
AcDbEntity
  8
0
  6
CONTINUOUS
 62
     7
100
AcDbLine
 10
697.3211648702
 20
1084.3782270777
 30
0.0
 11
698.7700643777
 21
1083.9899984521
 31
0.0
  0
LINE
  5
290
330
1F
100
AcDbEntity
  8
0
  6
CONTINUOUS
 62
     7
100
AcDbLine
 10
698.7700643777
 20
1083.9899984521
 30
0.0
 11
695.0512560843
 21
1070.1112409688
 31
0.0
  0
LINE
  5
291
330
1F
100
AcDbEntity
  8
0
  6
CONTINUOUS
 62
     7
100
AcDbLine
 10
697.3211648702
 20
1084.3782270777
 30
0.0
 11
695.0171771287
 21
1075.7796287171
 31
0.0
  0
LINE
  5
292
330
1F
100
AcDbEntity
  8
0
  6
CONTINUOUS
 62
     7
100
AcDbLine
 10
334.517184162
 20
1085.3524215154
 30
0.0
 11
336.8603321551
 21
1085.3524215154
 31
0.0
  0
ARC
  5
293
330
1F
100
AcDbEntity
  8
0
  6
CONTINUOUS
 62
     7
100
AcDbCircle
 10
351.5171828507
 20
1082.8524215154
 30
0.0
 40
2.500000000000077
100
AcDbArc
 50
0.0
 51
23.5781784782
  0
LINE
  5
294
330
1F
100
AcDbEntity
  8
0
  6
CONTINUOUS
 62
     7
100
AcDbLine
 10
352.5171759366
 20
1082.8524215713
 30
0.0
 11
354.017186427
 21
1082.8524215713
 31
0.0
  0
ARC
  5
295
330
1F
100
AcDbEntity
  8
0
  6
CONTINUOUS
 62
     7
100
AcDbCircle
 10
351.5171828507
 20
1082.8524215154
 30
0.0
 40
1.0
100
AcDbArc
 50
0.0
 51
90.0
  0
LINE
  5
296
330
1F
100
AcDbEntity
  8
0
  6
CONTINUOUS
 62
     7
100
AcDbLine
 10
354.017186427
 20
1074.352421575
 30
0.0
 11
352.5171759366
 21
1074.352421575
 31
0.0
  0
LINE
  5
297
330
1F
100
AcDbEntity
  8
0
  6
CONTINUOUS
 62
     7
100
AcDbLine
 10
352.5171759366
 20
1074.352421575
 30
0.0
 11
352.5171759366
 21
1076.3524219028
 31
0.0
  0
LINE
  5
298
330
1F
100
AcDbEntity
  8
0
  6
CONTINUOUS
 62
     7
100
AcDbLine
 10
352.5171759366
 20
1076.3524219028
 30
0.0
 11
354.017186427
 21
1076.3524219028
 31
0.0
  0
LINE
  5
299
330
1F
100
AcDbEntity
  8
0
  6
CONTINUOUS
 62
     7
100
AcDbLine
 10
354.017186427
 20
1076.3524219028
 30
0.0
 11
354.017186427
 21
1074.352421575
 31
0.0
  0
LINE
  5
29A
330
1F
100
AcDbEntity
  8
0
  6
CONTINUOUS
 62
     7
100
AcDbLine
 10
354.017186427
 20
1082.8524215713
 30
0.0
 11
354.017186427
 21
1076.3524219028
 31
0.0
  0
LINE
  5
29B
330
1F
100
AcDbEntity
  8
0
  6
CONTINUOUS
 62
     7
100
AcDbLine
 10
352.5171759366
 20
1082.8524215713
 30
0.0
 11
352.5171759366
 21
1076.3524219028
 31
0.0
  0
ARC
  5
29C
330
1F
100
AcDbEntity
  8
0
  6
CONTINUOUS
 62
     7
100
AcDbCircle
 10
337.0171828507
 20
1082.8524215154
 30
0.0
 40
2.5
100
AcDbArc
 50
156.4218215218
 51
180.0
  0
ARC
  5
29D
330
1F
100
AcDbEntity
  8
0
  6
CONTINUOUS
 62
     7
100
AcDbCircle
 10
337.0171828507
 20
1082.8524215154
 30
0.0
 40
1.0
100
AcDbArc
 50
90.0
 51
180.0
  0
LINE
  5
29E
330
1F
100
AcDbEntity
  8
0
  6
CONTINUOUS
 62
     7
100
AcDbLine
 10
336.0171797513
 20
1082.8524215713
 30
0.0
 11
334.517184162
 21
1082.8524215713
 31
0.0
  0
LINE
  5
29F
330
1F
100
AcDbEntity
  8
0
  6
CONTINUOUS
 62
     7
100
AcDbLine
 10
334.517184162
 20
1068.8524216048
 30
0.0
 11
336.0171797513
 21
1068.8524216048
 31
0.0
  0
LINE
  5
2A0
330
1F
100
AcDbEntity
  8
0
  6
CONTINUOUS
 62
     7
100
AcDbLine
 10
334.517184162
 20
1068.8524216048
 30
0.0
 11
334.517184162
 21
1082.8524215713
 31
0.0
  0
LINE
  5
2A1
330
1F
100
AcDbEntity
  8
0
  6
CONTINUOUS
 62
     7
100
AcDbLine
 10
336.0171797513
 20
1068.8524216048
 30
0.0
 11
336.0171797513
 21
1082.8524215713
 31
0.0
  0
LINE
  5
2A2
330
1F
100
AcDbEntity
  8
0
  6
CONTINUOUS
 62
     7
100
AcDbLine
 10
336.0171797513
 20
1066.852421277
 30
0.0
 11
334.517184162
 21
1066.852421277
 31
0.0
  0
LINE
  5
2A3
330
1F
100
AcDbEntity
  8
0
  6
CONTINUOUS
 62
     7
100
AcDbLine
 10
334.517184162
 20
1066.852421277
 30
0.0
 11
334.517184162
 21
1068.8524216048
 31
0.0
  0
LINE
  5
2A4
330
1F
100
AcDbEntity
  8
0
  6
CONTINUOUS
 62
     7
100
AcDbLine
 10
336.0171797513
 20
1068.8524216048
 30
0.0
 11
336.0171797513
 21
1066.852421277
 31
0.0
  0
ARC
  5
2A5
330
1F
100
AcDbEntity
  8
0
  6
CONTINUOUS
 62
     7
100
AcDbCircle
 10
333.5171828507
 20
1069.8524215154
 30
0.0
 40
1.000000000000001
100
AcDbArc
 50
0.0
 51
15.0
  0
LINE
  5
2A6
330
1F
100
AcDbEntity
  8
0
  6
CONTINUOUS
 62
     7
100
AcDbLine
 10
330.7643118142
 20
1083.9899984521
 30
0.0
 11
334.4831052064
 21
1070.1112409688
 31
0.0
  0
LINE
  5
2A7
330
1F
100
AcDbEntity
  8
0
  6
CONTINUOUS
 62
     7
100
AcDbLine
 10
332.2131964206
 20
1084.3782270777
 30
0.0
 11
330.7643118142
 21
1083.9899984521
 31
0.0
  0
LINE
  5
2A8
330
1F
100
AcDbEntity
  8
0
  6
CONTINUOUS
 62
     7
100
AcDbLine
 10
332.2131964206
 20
1084.3782270777
 30
0.0
 11
334.517184162
 21
1075.7796287171
 31
0.0
  0
LINE
  5
2A9
330
1F
100
AcDbEntity
  8
0
  6
CONTINUOUS
 62
     7
100
AcDbLine
 10
669.3100812673
 20
1081.8524214074
 30
0.0
 11
669.3100812673
 21
1073.3524214111
 31
0.0
  0
LINE
  5
2AA
330
1F
100
AcDbEntity
  8
0
  6
CONTINUOUS
 62
     7
100
AcDbLine
 10
669.3100812673
 20
1073.3524214111
 30
0.0
 11
656.0171874999
 21
1073.3524214111
 31
0.0
  0
LINE
  5
2AB
330
1F
100
AcDbEntity
  8
0
  6
CONTINUOUS
 62
     7
100
AcDbLine
 10
373.517188692
 20
1073.3524214111
 30
0.0
 11
358.7242844342
 21
1073.3524214111
 31
0.0
  0
LINE
  5
2AC
330
1F
100
AcDbEntity
  8
0
  6
CONTINUOUS
 62
     7
100
AcDbLine
 10
365.0171789168
 20
1074.3024216599
 30
0.0
 11
365.6109007834
 21
1074.352421575
 31
0.0
  0
LWPOLYLINE
  5
2AD
330
1F
100
AcDbEntity
  8
0
  6
CONTINUOUS
 62
     7
100
AcDbPolyline
 90
        3
 70
   128
 43
0.0
 10
361.5171792745
 20
1078.4461384274
 10
361.4793005227
 20
1078.1455782808
 10
361.5171792745
 20
1077.2587040074
  0
LINE
  5
2AE
330
1F
100
AcDbEntity
  8
0
  6
CONTINUOUS
 62
     7
100
AcDbLine
 10
362.2908028602
 20
1075.5788057677
 30
0.0
 11
362.743574643
 21
1075.1260367788
 31
0.0
  0
LINE
  5
2AF
330
1F
100
AcDbEntity
  8
0
  6
CONTINUOUS
 62
     7
100
AcDbLine
 10
364.4234719514
 20
1074.352421575
 30
0.0
 11
365.0171789168
 21
1074.3024216599
 31
0.0
  0
LINE
  5
2B0
330
1F
100
AcDbEntity
  8
0
  6
CONTINUOUS
 62
     7
100
AcDbLine
 10
358.7242844342
 20
1081.8524214074
 30
0.0
 11
358.7242844342
 21
1073.3524214111
 31
0.0
  0
LWPOLYLINE
  5
2B1
330
1F
100
AcDbEntity
  8
0
  6
CONTINUOUS
 62
     7
100
AcDbPolyline
 90
        3
 70
   128
 43
0.0
 10
669.0074088811
 20
1083.8274349326
 10
669.1793235778
 20
1082.7489057656
 10
669.3100812673
 20
1081.8524214074
  0
LWPOLYLINE
  5
2B2
330
1F
100
AcDbEntity
  8
0
  6
CONTINUOUS
 62
     7
100
AcDbPolyline
 90
        3
 70
   128
 43
0.0
 10
358.7242844342
 20
1081.8524214074
 10
358.870226407
 20
1082.8503421608
 10
359.0322616338
 20
1083.8524215024
  0
ARC
  5
2B3
330
1F
100
AcDbEntity
  8
0
  6
CONTINUOUS
 62
     7
100
AcDbCircle
 10
358.8834578105
 20
1082.0437838223
 30
0.0
 40
2.872663120656079
100
AcDbArc
 50
140.9791520582
 51
183.8195860755
  0
ARC
  5
2B4
330
1F
100
AcDbEntity
  8
0
  6
CONTINUOUS
 62
     7
100
AcDbCircle
 10
359.480356609
 20
1081.8645624138
 30
0.0
 40
1.463227347274235
100
AcDbArc
 50
112.0909353967
 51
180.4754123895
  0
LINE
  5
2B5
330
1F
100
AcDbEntity
  8
0
  6
CONTINUOUS
 62
     7
100
AcDbLine
 10
356.017175579
 20
1081.8524214074
 30
0.0
 11
358.0171796321
 21
1081.8524214074
 31
0.0
  0
LINE
  5
2B6
330
1F
100
AcDbEntity
  8
0
  6
CONTINUOUS
 62
     7
100
AcDbLine
 10
672.0171901225
 20
1081.8524214074
 30
0.0
 11
670.0171860694
 21
1081.8524214074
 31
0.0
  0
ARC
  5
2B7
330
1F
100
AcDbEntity
  8
0
  6
CONTINUOUS
 62
     7
100
AcDbCircle
 10
668.639196118
 20
1081.9139714392
 30
0.0
 40
1.379363879702916
100
AcDbArc
 50
357.4424961672
 51
70.2419634031
  0
LWPOLYLINE
  5
2B8
330
1F
100
AcDbEntity
  8
0
  6
CONTINUOUS
 62
     7
100
AcDbPolyline
 90
        3
 70
   128
 43
0.0
 10
672.0171901225
 20
1081.8524214074
 10
671.8719038009
 20
1082.8503421608
 10
671.375963354
 20
1083.8524215024
  0
LINE
  5
2B9
330
1F
100
AcDbEntity
  8
0
  6
CONTINUOUS
 62
     7
100
AcDbLine
 10
356.017175579
 20
1081.8524214074
 30
0.0
 11
356.017175579
 21
1073.3524214111
 31
0.0
  0
LINE
  5
2BA
330
1F
100
AcDbEntity
  8
0
  6
CONTINUOUS
 62
     7
100
AcDbLine
 10
358.0171796321
 20
1073.3524214111
 30
0.0
 11
356.017175579
 21
1073.3524214111
 31
0.0
  0
LINE
  5
2BB
330
1F
100
AcDbEntity
  8
0
  6
CONTINUOUS
 62
     7
100
AcDbLine
 10
358.0171796321
 20
1081.8524214074
 30
0.0
 11
358.0171796321
 21
1073.3524214111
 31
0.0
  0
LINE
  5
2BC
330
1F
100
AcDbEntity
  8
0
  6
CONTINUOUS
 62
     7
100
AcDbLine
 10
672.0171901225
 20
1081.8524214074
 30
0.0
 11
672.0171901225
 21
1073.3524214111
 31
0.0
  0
LINE
  5
2BD
330
1F
100
AcDbEntity
  8
0
  6
CONTINUOUS
 62
     7
100
AcDbLine
 10
670.0171860694
 20
1073.3524214111
 30
0.0
 11
672.0171901225
 21
1073.3524214111
 31
0.0
  0
LINE
  5
2BE
330
1F
100
AcDbEntity
  8
0
  6
CONTINUOUS
 62
     7
100
AcDbLine
 10
670.0171860694
 20
1081.8524214074
 30
0.0
 11
670.0171860694
 21
1073.3524214111
 31
0.0
  0
LINE
  5
2BF
330
1F
100
AcDbEntity
  8
0
  6
CONTINUOUS
 62
     7
100
AcDbLine
 10
644.3671765565
 20
1069.7524219386
 30
0.0
 11
656.6671761512
 21
1069.7524219386
 31
0.0
  0
LINE
  5
2C0
330
1F
100
AcDbEntity
  8
0
  6
CONTINUOUS
 62
     7
100
AcDbLine
 10
644.3671765565
 20
1069.0524212651
 30
0.0
 11
656.6671761512
 21
1069.0524212651
 31
0.0
  0
LINE
  5
2C1
330
1F
100
AcDbEntity
  8
0
  6
CONTINUOUS
 62
     7
100
AcDbLine
 10
650.7425042628
 20
1069.8524217687
 30
0.0
 11
650.7425042628
 21
1071.8524211652
 31
0.0
  0
LINE
  5
2C2
330
1F
100
AcDbEntity
  8
0
  6
CONTINUOUS
 62
     7
100
AcDbLine
 10
644.0171780824
 20
1069.8524217687
 30
0.0
 11
650.7425042628
 21
1069.8524217687
 31
0.0
  0
LINE
  5
2C3
330
1F
100
AcDbEntity
  8
0
  6
CONTINUOUS
 62
     7
100
AcDbLine
 10
673.8316598176
 20
1069.8524217687
 30
0.0
 11
673.8316598176
 21
1071.8524211652
 31
0.0
  0
LINE
  5
2C4
330
1F
100
AcDbEntity
  8
0
  6
CONTINUOUS
 62
     7
100
AcDbLine
 10
656.0171874999
 20
1071.8524211652
 30
0.0
 11
670.5171796321
 21
1071.8524211652
 31
0.0
  0
LINE
  5
2C5
330
1F
100
AcDbEntity
  8
0
  6
CONTINUOUS
 62
     7
100
AcDbLine
 10
650.7425042628
 20
1069.8524217687
 30
0.0
 11
673.8316598176
 21
1069.8524217687
 31
0.0
  0
LINE
  5
2C6
330
1F
100
AcDbEntity
  8
0
  6
CONTINUOUS
 62
     7
100
AcDbLine
 10
673.8316598176
 20
1069.8524217687
 30
0.0
 11
674.5171877383
 21
1069.8524217687
 31
0.0
  0
LINE
  5
2C7
330
1F
100
AcDbEntity
  8
0
  6
CONTINUOUS
 62
     7
100
AcDbLine
 10
657.1171763181
 20
1088.6524214975
 30
0.0
 11
643.9171763896
 21
1088.6524214975
 31
0.0
  0
LINE
  5
2C8
330
1F
100
AcDbEntity
  8
0
  6
CONTINUOUS
 62
     7
100
AcDbLine
 10
647.017184162
 20
1067.8524214409
 30
0.0
 11
654.0171834468
 21
1067.8524214409
 31
0.0
  0
LINE
  5
2C9
330
1F
100
AcDbEntity
  8
0
  6
CONTINUOUS
 62
     7
100
AcDbLine
 10
647.017184162
 20
1068.8524216048
 30
0.0
 11
654.0171834468
 21
1068.8524216048
 31
0.0
  0
LINE
  5
2CA
330
1F
100
AcDbEntity
  8
0
  6
CONTINUOUS
 62
     7
100
AcDbLine
 10
643.0133166551
 20
1086.3524215629
 30
0.0
 11
661.5171762942
 21
1086.3524215629
 31
0.0
  0
LINE
  5
2CB
330
1F
100
AcDbEntity
  8
0
  6
CONTINUOUS
 62
     7
100
AcDbLine
 10
639.5171764134
 20
1086.3524215629
 30
0.0
 11
643.0133166551
 21
1086.3524215629
 31
0.0
  0
LINE
  5
2CC
330
1F
100
AcDbEntity
  8
0
  6
CONTINUOUS
 62
     7
100
AcDbLine
 10
641.5171804666
 20
1088.3524215415
 30
0.0
 11
659.5171871423
 21
1088.3524215415
 31
0.0
  0
LINE
  5
2CD
330
1F
100
AcDbEntity
  8
0
  6
CONTINUOUS
 62
     8
100
AcDbLine
 10
695.0512560843
 20
1070.1112409688
 30
0.0
 11
695.0171771287
 21
1070.120370724
 31
0.0
  0
LINE
  5
2CE
330
1F
100
AcDbEntity
  8
0
  6
CONTINUOUS
 62
     8
100
AcDbLine
 10
334.4831052064
 20
1070.1112409688
 30
0.0
 11
334.517184162
 21
1070.120370724
 31
0.0
  0
LINE
  5
2CF
330
1F
100
AcDbEntity
  8
0
  6
CONTINUOUS
 62
     8
100
AcDbLine
 10
358.7242844342
 20
1081.8524214074
 30
0.0
 11
361.5171792745
 21
1081.8524214074
 31
0.0
  0
LINE
  5
2D0
330
1F
100
AcDbEntity
  8
0
  6
CONTINUOUS
 62
     8
100
AcDbLine
 10
668.0171820163
 20
1081.8524214074
 30
0.0
 11
669.3100812673
 21
1081.8524214074
 31
0.0
  0
LINE
  5
2D1
330
1F
100
AcDbEntity
  8
0
  6
CONTINUOUS
 62
     8
100
AcDbLine
 10
643.6671796083
 20
1088.4024214565
 30
0.0
 11
657.3671880006
 21
1088.4024214565
 31
0.0
  0
LINE
  5
2D2
330
1F
100
AcDbEntity
  8
0
  6
CONTINUOUS
 62
     8
100
AcDbLine
 10
657.5171830892
 20
1072.3524212472
 30
0.0
 11
656.0171874999
 21
1072.3524212472
 31
0.0
  0
LINE
  5
2D3
330
1F
100
AcDbEntity
  8
0
  6
CONTINUOUS
 62
     7
100
AcDbLine
 10
656.6671761512
 20
180.6674660793
 30
0.0
 11
656.6671761512
 21
181.3674667529
 31
0.0
  0
LINE
  5
2D4
330
1F
100
AcDbEntity
  8
0
  6
CONTINUOUS
 62
     7
100
AcDbLine
 10
644.3671765565
 20
181.3674667529
 30
0.0
 11
644.3671765565
 21
180.6674660793
 31
0.0
  0
LINE
  5
2D5
330
1F
100
AcDbEntity
  8
0
  6
CONTINUOUS
 62
     7
100
AcDbLine
 10
674.5171877383
 20
178.5674668527
 30
0.0
 11
674.5171877383
 21
180.5674662492
 31
0.0
  0
LINE
  5
2D6
330
1F
100
AcDbEntity
  8
0
  6
CONTINUOUS
 62
     7
100
AcDbLine
 10
644.0171780824
 20
180.5674662492
 30
0.0
 11
644.0171780824
 21
178.5674668527
 31
0.0
  0
LINE
  5
2D7
330
1F
100
AcDbEntity
  8
0
  6
CONTINUOUS
 62
     7
100
AcDbLine
 10
643.6671796083
 20
162.0674664764
 30
0.0
 11
643.6671796083
 21
162.0174665614
 31
0.0
  0
LINE
  5
2D8
330
1F
100
AcDbEntity
  8
0
  6
CONTINUOUS
 62
     7
100
AcDbLine
 10
657.3671880006
 20
162.0174665614
 30
0.0
 11
657.3671880006
 21
162.0674664764
 31
0.0
  0
ARC
  5
2D9
330
1F
100
AcDbEntity
  8
0
  6
CONTINUOUS
 62
     7
100
AcDbCircle
 10
643.9171828507
 20
162.0174665025
 30
0.0
 40
0.25
100
AcDbArc
 50
180.0
 51
270.0
  0
ARC
  5
2DA
330
1F
100
AcDbEntity
  8
0
  6
CONTINUOUS
 62
     7
100
AcDbCircle
 10
657.1171828507
 20
162.0174665025
 30
0.0
 40
0.25
100
AcDbArc
 50
270.0
 51
0.0
  0
LINE
  5
2DB
330
1F
100
AcDbEntity
  8
0
  6
CONTINUOUS
 62
     7
100
AcDbLine
 10
654.0171834468
 20
181.5674664131
 30
0.0
 11
654.0171834468
 21
182.567466577
 31
0.0
  0
LINE
  5
2DC
330
1F
100
AcDbEntity
  8
0
  6
CONTINUOUS
 62
     7
100
AcDbLine
 10
647.017184162
 20
182.567466577
 30
0.0
 11
647.017184162
 21
181.5674664131
 31
0.0
  0
LINE
  5
2DD
330
1F
100
AcDbEntity
  8
0
  6
CONTINUOUS
 62
     7
100
AcDbLine
 10
653.5171898841
 20
180.5674662492
 30
0.0
 11
653.5171898841
 21
180.6674660793
 31
0.0
  0
LINE
  5
2DE
330
1F
100
AcDbEntity
  8
0
  6
CONTINUOUS
 62
     7
100
AcDbLine
 10
653.5171898841
 20
181.3674667529
 30
0.0
 11
653.5171898841
 21
181.5674664131
 31
0.0
  0
LINE
  5
2DF
330
1F
100
AcDbEntity
  8
0
  6
CONTINUOUS
 62
     7
100
AcDbLine
 10
647.5171777247
 20
181.5674664131
 30
0.0
 11
647.5171777247
 21
181.3674667529
 31
0.0
  0
LINE
  5
2E0
330
1F
100
AcDbEntity
  8
0
  6
CONTINUOUS
 62
     7
100
AcDbLine
 10
647.5171777247
 20
180.6674660793
 30
0.0
 11
647.5171777247
 21
180.5674662492
 31
0.0
  0
LINE
  5
2E1
330
1F
100
AcDbEntity
  8
0
  6
CONTINUOUS
 62
     7
100
AcDbLine
 10
661.5171762942
 20
164.067466455
 30
0.0
 11
661.5171762942
 21
165.0674665025
 31
0.0
  0
LINE
  5
2E2
330
1F
100
AcDbEntity
  8
0
  6
CONTINUOUS
 62
     7
100
AcDbLine
 10
639.5171764134
 20
165.0674665025
 30
0.0
 11
639.5171764134
 21
164.067466455
 31
0.0
  0
LINE
  5
2E3
330
1F
100
AcDbEntity
  8
0
  6
CONTINUOUS
 62
     7
100
AcDbLine
 10
639.5171764134
 20
164.067466455
 30
0.0
 11
641.5171804666
 21
162.0674664764
 31
0.0
  0
LINE
  5
2E4
330
1F
100
AcDbEntity
  8
0
  6
CONTINUOUS
 62
     7
100
AcDbLine
 10
659.5171871423
 20
162.0674664764
 30
0.0
 11
661.5171762942
 21
164.067466455
 31
0.0
  0
ARC
  5
2E5
330
1F
100
AcDbEntity
  8
0
  6
CONTINUOUS
 62
     7
100
AcDbCircle
 10
657.0171828507
 20
178.0674665025
 30
0.0
 40
0.5000000000000112
100
AcDbArc
 50
0.0
 51
90.0000121787
  0
ARC
  5
2E6
330
1F
100
AcDbEntity
  8
0
  6
CONTINUOUS
 62
     7
100
AcDbCircle
 10
644.0171828507
 20
178.0674665025
 30
0.0
 40
0.5000000000000112
100
AcDbArc
 50
89.9999878213
 51
180.0
  0
LINE
  5
2E7
330
1F
100
AcDbEntity
  8
0
  6
CONTINUOUS
 62
     7
100
AcDbLine
 10
657.5171830892
 20
177.0674666068
 30
0.0
 11
657.5171830892
 21
178.0674667707
 31
0.0
  0
LINE
  5
2E8
330
1F
100
AcDbEntity
  8
0
  6
CONTINUOUS
 62
     7
100
AcDbLine
 10
643.5171845197
 20
178.0674667707
 30
0.0
 11
643.5171845197
 21
177.0674666068
 31
0.0
  0
LINE
  5
2E9
330
1F
100
AcDbEntity
  8
0
  6
CONTINUOUS
 62
     7
100
AcDbLine
 10
376.5171798705
 20
178.5674668527
 30
0.0
 11
376.5171798705
 21
177.0674666068
 31
0.0
  0
LINE
  5
2EA
330
1F
100
AcDbEntity
  8
0
  6
CONTINUOUS
 62
     7
100
AcDbLine
 10
376.5171798705
 20
178.5674668527
 30
0.0
 11
644.0171780824
 21
178.5674668527
 31
0.0
  0
LINE
  5
2EB
330
1F
100
AcDbEntity
  8
0
  6
CONTINUOUS
 62
     7
100
AcDbLine
 10
373.517188692
 20
177.0674666068
 30
0.0
 11
373.517188692
 21
178.5674668527
 31
0.0
  0
LINE
  5
2EC
330
1F
100
AcDbEntity
  8
0
  6
CONTINUOUS
 62
     7
100
AcDbLine
 10
373.517188692
 20
178.5674668527
 30
0.0
 11
376.5171798705
 21
178.5674668527
 31
0.0
  0
LINE
  5
2ED
330
1F
100
AcDbEntity
  8
0
  6
CONTINUOUS
 62
     7
100
AcDbLine
 10
671.5171816587
 20
166.5674665156
 30
0.0
 11
671.5171816587
 21
165.0674665025
 31
0.0
  0
LINE
  5
2EE
330
1F
100
AcDbEntity
  8
0
  6
CONTINUOUS
 62
     7
100
AcDbLine
 10
677.1740349769
 20
166.5674665156
 30
0.0
 11
677.1740349769
 21
165.0674665025
 31
0.0
  0
LINE
  5
2EF
330
1F
100
AcDbEntity
  8
0
  6
CONTINUOUS
 62
     7
100
AcDbLine
 10
677.1740349769
 20
166.5674665156
 30
0.0
 11
671.5171816587
 21
166.5674665156
 31
0.0
  0
LINE
  5
2F0
330
1F
100
AcDbEntity
  8
0
  6
CONTINUOUS
 62
     7
100
AcDbLine
 10
677.1740349769
 20
165.0674665025
 30
0.0
 11
671.5171816587
 21
165.0674665025
 31
0.0
  0
LINE
  5
2F1
330
1F
100
AcDbEntity
  8
0
  6
CONTINUOUS
 62
     7
100
AcDbLine
 10
358.0171796321
 20
166.5674665156
 30
0.0
 11
358.0171796321
 21
165.0674665025
 31
0.0
  0
LINE
  5
2F2
330
1F
100
AcDbEntity
  8
0
  6
CONTINUOUS
 62
     7
100
AcDbLine
 10
671.5171816587
 20
166.5674665156
 30
0.0
 11
358.0171796321
 21
166.5674665156
 31
0.0
  0
LINE
  5
2F3
330
1F
100
AcDbEntity
  8
0
  6
CONTINUOUS
 62
     7
100
AcDbLine
 10
671.5171816587
 20
165.0674665025
 30
0.0
 11
358.0171796321
 21
165.0674665025
 31
0.0
  0
LINE
  5
2F4
330
1F
100
AcDbEntity
  8
0
  6
CONTINUOUS
 62
     7
100
AcDbLine
 10
352.3603263139
 20
166.5674665156
 30
0.0
 11
352.3603263139
 21
165.0674665025
 31
0.0
  0
LINE
  5
2F5
330
1F
100
AcDbEntity
  8
0
  6
CONTINUOUS
 62
     7
100
AcDbLine
 10
358.0171796321
 20
166.5674665156
 30
0.0
 11
352.3603263139
 21
166.5674665156
 31
0.0
  0
LINE
  5
2F6
330
1F
100
AcDbEntity
  8
0
  6
CONTINUOUS
 62
     7
100
AcDbLine
 10
358.0171796321
 20
165.0674665025
 30
0.0
 11
352.3603263139
 21
165.0674665025
 31
0.0
  0
LINE
  5
2F7
330
1F
100
AcDbEntity
  8
0
  6
CONTINUOUS
 62
     7
100
AcDbLine
 10
692.6740440368
 20
166.5674665156
 30
0.0
 11
692.6740440368
 21
165.0674665025
 31
0.0
  0
LINE
  5
2F8
330
1F
100
AcDbEntity
  8
0
  6
CONTINUOUS
 62
     7
100
AcDbLine
 10
692.6740440368
 20
166.5674665156
 30
0.0
 11
677.1740349769
 21
166.5674665156
 31
0.0
  0
LINE
  5
2F9
330
1F
100
AcDbEntity
  8
0
  6
CONTINUOUS
 62
     7
100
AcDbLine
 10
692.6740440368
 20
165.0674665025
 30
0.0
 11
677.1740349769
 21
165.0674665025
 31
0.0
  0
LINE
  5
2FA
330
1F
100
AcDbEntity
  8
0
  6
CONTINUOUS
 62
     7
100
AcDbLine
 10
336.8603321551
 20
166.5674665156
 30
0.0
 11
336.8603321551
 21
165.0674665025
 31
0.0
  0
LINE
  5
2FB
330
1F
100
AcDbEntity
  8
0
  6
CONTINUOUS
 62
     7
100
AcDbLine
 10
352.3603263139
 20
166.5674665156
 30
0.0
 11
336.8603321551
 21
166.5674665156
 31
0.0
  0
LINE
  5
2FC
330
1F
100
AcDbEntity
  8
0
  6
CONTINUOUS
 62
     7
100
AcDbLine
 10
352.3603263139
 20
165.0674665025
 30
0.0
 11
336.8603321551
 21
165.0674665025
 31
0.0
  0
LINE
  5
2FD
330
1F
100
AcDbEntity
  8
0
  6
CONTINUOUS
 62
     7
100
AcDbLine
 10
361.5171792745
 20
167.5674664466
 30
0.0
 11
361.5171792745
 21
166.5674665156
 31
0.0
  0
LINE
  5
2FE
330
1F
100
AcDbEntity
  8
0
  6
CONTINUOUS
 62
     7
100
AcDbLine
 10
668.0171820163
 20
167.5674664466
 30
0.0
 11
361.5171792745
 21
167.5674664466
 31
0.0
  0
LINE
  5
2FF
330
1F
100
AcDbEntity
  8
0
  6
CONTINUOUS
 62
     7
100
AcDbLine
 10
668.0171820163
 20
166.5674665156
 30
0.0
 11
668.0171820163
 21
167.5674664466
 31
0.0
  0
LINE
  5
300
330
1F
100
AcDbEntity
  8
0
  6
CONTINUOUS
 62
     7
100
AcDbLine
 10
361.5171792745
 20
167.5674664466
 30
0.0
 11
361.5171792745
 21
174.0674661151
 31
0.0
  0
LINE
  5
301
330
1F
100
AcDbEntity
  8
0
  6
CONTINUOUS
 62
     7
100
AcDbLine
 10
363.5171833276
 20
176.0674664429
 30
0.0
 11
361.5171792745
 21
174.0674661151
 31
0.0
  0
LINE
  5
302
330
1F
100
AcDbEntity
  8
0
  6
CONTINUOUS
 62
     7
100
AcDbLine
 10
363.5171833276
 20
176.0674664429
 30
0.0
 11
666.0171779632
 21
176.0674664429
 31
0.0
  0
LINE
  5
303
330
1F
100
AcDbEntity
  8
0
  6
CONTINUOUS
 62
     7
100
AcDbLine
 10
668.0171820163
 20
174.0674661151
 30
0.0
 11
666.0171779632
 21
176.0674664429
 31
0.0
  0
LINE
  5
304
330
1F
100
AcDbEntity
  8
0
  6
CONTINUOUS
 62
     7
100
AcDbLine
 10
668.0171820163
 20
174.0674661151
 30
0.0
 11
668.0171820163
 21
167.5674664466
 31
0.0
  0
CIRCLE
  5
305
330
1F
100
AcDbEntity
  8
0
  6
CONTINUOUS
 62
     7
100
AcDbCircle
 10
365.0171828507
 20
172.5674665025
 30
0.0
 40
2.69999999999996
  0
LINE
  5
306
330
1F
100
AcDbEntity
  8
0
  6
CONTINUOUS
 62
     7
100
AcDbLine
 10
695.0171771287
 20
166.5674665156
 30
0.0
 11
695.0171771287
 21
165.0674665025
 31
0.0
  0
LINE
  5
307
330
1F
100
AcDbEntity
  8
0
  6
CONTINUOUS
 62
     7
100
AcDbLine
 10
695.0171771287
 20
166.5674665156
 30
0.0
 11
692.6740440368
 21
166.5674665156
 31
0.0
  0
LINE
  5
308
330
1F
100
AcDbEntity
  8
0
  6
CONTINUOUS
 62
     7
100
AcDbLine
 10
334.517184162
 20
166.5674665156
 30
0.0
 11
334.517184162
 21
165.0674665025
 31
0.0
  0
LINE
  5
309
330
1F
100
AcDbEntity
  8
0
  6
CONTINUOUS
 62
     7
100
AcDbLine
 10
336.8603321551
 20
166.5674665156
 30
0.0
 11
334.517184162
 21
166.5674665156
 31
0.0
  0
LINE
  5
30A
330
1F
100
AcDbEntity
  8
0
  6
CONTINUOUS
 62
     7
100
AcDbLine
 10
336.8603321551
 20
165.0674665025
 30
0.0
 11
334.517184162
 21
165.0674665025
 31
0.0
  0
LINE
  5
30B
330
1F
100
AcDbEntity
  8
0
  6
CONTINUOUS
 62
     7
100
AcDbLine
 10
695.0171771287
 20
165.0674665025
 30
0.0
 11
692.6740440368
 21
165.0674665025
 31
0.0
  0
LINE
  5
30C
330
1F
100
AcDbEntity
  8
0
  6
CONTINUOUS
 62
     7
100
AcDbLine
 10
675.5171897649
 20
176.0674664429
 30
0.0
 11
677.0171853541
 21
176.0674664429
 31
0.0
  0
LINE
  5
30D
330
1F
100
AcDbEntity
  8
0
  6
CONTINUOUS
 62
     7
100
AcDbLine
 10
677.0171853541
 20
174.0674661151
 30
0.0
 11
675.5171897649
 21
174.0674661151
 31
0.0
  0
LINE
  5
30E
330
1F
100
AcDbEntity
  8
0
  6
CONTINUOUS
 62
     7
100
AcDbLine
 10
675.5171897649
 20
174.0674661151
 30
0.0
 11
675.5171897649
 21
176.0674664429
 31
0.0
  0
LINE
  5
30F
330
1F
100
AcDbEntity
  8
0
  6
CONTINUOUS
 62
     7
100
AcDbLine
 10
677.0171853541
 20
176.0674664429
 30
0.0
 11
677.0171853541
 21
174.0674661151
 31
0.0
  0
ARC
  5
310
330
1F
100
AcDbEntity
  8
0
  6
CONTINUOUS
 62
     7
100
AcDbCircle
 10
678.0171828507
 20
167.5674665025
 30
0.0
 40
2.5
100
AcDbArc
 50
180.0
 51
203.5781784782
  0
LINE
  5
311
330
1F
100
AcDbEntity
  8
0
  6
CONTINUOUS
 62
     7
100
AcDbLine
 10
677.0171853541
 20
167.5674664466
 30
0.0
 11
675.5171897649
 21
167.5674664466
 31
0.0
  0
ARC
  5
312
330
1F
100
AcDbEntity
  8
0
  6
CONTINUOUS
 62
     7
100
AcDbCircle
 10
678.0171828507
 20
167.5674665025
 30
0.0
 40
1.0
100
AcDbArc
 50
180.0
 51
270.0
  0
LINE
  5
313
330
1F
100
AcDbEntity
  8
0
  6
CONTINUOUS
 62
     7
100
AcDbLine
 10
675.5171897649
 20
167.5674664466
 30
0.0
 11
675.5171897649
 21
174.0674661151
 31
0.0
  0
LINE
  5
314
330
1F
100
AcDbEntity
  8
0
  6
CONTINUOUS
 62
     7
100
AcDbLine
 10
677.0171853541
 20
167.5674664466
 30
0.0
 11
677.0171853541
 21
174.0674661151
 31
0.0
  0
ARC
  5
315
330
1F
100
AcDbEntity
  8
0
  6
CONTINUOUS
 62
     7
100
AcDbCircle
 10
674.5171828507
 20
176.0674665025
 30
0.0
 40
2.500000000000114
100
AcDbArc
 50
0.0
 51
90.0
  0
ARC
  5
316
330
1F
100
AcDbEntity
  8
0
  6
CONTINUOUS
 62
     7
100
AcDbCircle
 10
674.5171828507
 20
176.0674665025
 30
0.0
 40
1.000000000000114
100
AcDbArc
 50
0.0
 51
90.0
  0
LINE
  5
317
330
1F
100
AcDbEntity
  8
0
  6
CONTINUOUS
 62
     7
100
AcDbLine
 10
674.5171877383
 20
177.0674666068
 30
0.0
 11
674.5171877383
 21
178.5674668527
 31
0.0
  0
LINE
  5
318
330
1F
100
AcDbEntity
  8
0
  6
CONTINUOUS
 62
     7
100
AcDbLine
 10
673.5171857118
 20
177.0674666068
 30
0.0
 11
674.5171877383
 21
177.0674666068
 31
0.0
  0
LINE
  5
319
330
1F
100
AcDbEntity
  8
0
  6
CONTINUOUS
 62
     7
100
AcDbLine
 10
673.5171857118
 20
178.5674668527
 30
0.0
 11
673.5171857118
 21
177.0674666068
 31
0.0
  0
LINE
  5
31A
330
1F
100
AcDbEntity
  8
0
  6
CONTINUOUS
 62
     7
100
AcDbLine
 10
673.5171857118
 20
178.5674668527
 30
0.0
 11
674.5171877383
 21
178.5674668527
 31
0.0
  0
LINE
  5
31B
330
1F
100
AcDbEntity
  8
0
  6
CONTINUOUS
 62
     7
100
AcDbLine
 10
673.5171857118
 20
177.0674666068
 30
0.0
 11
672.0171901225
 21
177.0674666068
 31
0.0
  0
LINE
  5
31C
330
1F
100
AcDbEntity
  8
0
  6
CONTINUOUS
 62
     7
100
AcDbLine
 10
670.5171796321
 20
177.0674666068
 30
0.0
 11
670.5171796321
 21
178.5674668527
 31
0.0
  0
LINE
  5
31D
330
1F
100
AcDbEntity
  8
0
  6
CONTINUOUS
 62
     7
100
AcDbLine
 10
670.5171796321
 20
178.5674668527
 30
0.0
 11
673.5171857118
 21
178.5674668527
 31
0.0
  0
ARC
  5
31E
330
1F
100
AcDbEntity
  8
0
  6
CONTINUOUS
 62
     7
100
AcDbCircle
 10
692.5171828507
 20
167.5674665025
 30
0.0
 40
2.500000000000114
100
AcDbArc
 50
336.4218215218
 51
0.0
  0
ARC
  5
31F
330
1F
100
AcDbEntity
  8
0
  6
CONTINUOUS
 62
     7
100
AcDbCircle
 10
692.5171828507
 20
167.5674665025
 30
0.0
 40
1.0
100
AcDbArc
 50
270.0
 51
0.0
  0
LINE
  5
320
330
1F
100
AcDbEntity
  8
0
  6
CONTINUOUS
 62
     7
100
AcDbLine
 10
693.5171815394
 20
167.5674664466
 30
0.0
 11
695.0171771287
 21
167.5674664466
 31
0.0
  0
LINE
  5
321
330
1F
100
AcDbEntity
  8
0
  6
CONTINUOUS
 62
     7
100
AcDbLine
 10
695.0171771287
 20
181.5674664131
 30
0.0
 11
693.5171815394
 21
181.5674664131
 31
0.0
  0
LINE
  5
322
330
1F
100
AcDbEntity
  8
0
  6
CONTINUOUS
 62
     7
100
AcDbLine
 10
695.0171771287
 20
181.5674664131
 30
0.0
 11
695.0171771287
 21
167.5674664466
 31
0.0
  0
LINE
  5
323
330
1F
100
AcDbEntity
  8
0
  6
CONTINUOUS
 62
     7
100
AcDbLine
 10
693.5171815394
 20
181.5674664131
 30
0.0
 11
693.5171815394
 21
167.5674664466
 31
0.0
  0
LINE
  5
324
330
1F
100
AcDbEntity
  8
0
  6
CONTINUOUS
 62
     7
100
AcDbLine
 10
693.5171815394
 20
183.5674667409
 30
0.0
 11
695.0171771287
 21
183.5674667409
 31
0.0
  0
LINE
  5
325
330
1F
100
AcDbEntity
  8
0
  6
CONTINUOUS
 62
     7
100
AcDbLine
 10
695.0171771287
 20
183.5674667409
 30
0.0
 11
695.0171771287
 21
181.5674664131
 31
0.0
  0
LINE
  5
326
330
1F
100
AcDbEntity
  8
0
  6
CONTINUOUS
 62
     7
100
AcDbLine
 10
693.5171815394
 20
181.5674664131
 30
0.0
 11
693.5171815394
 21
183.5674667409
 31
0.0
  0
ARC
  5
327
330
1F
100
AcDbEntity
  8
0
  6
CONTINUOUS
 62
     7
100
AcDbCircle
 10
696.0171828507
 20
180.5674665025
 30
0.0
 40
1.000000000000023
100
AcDbArc
 50
180.0
 51
195.0
  0
LINE
  5
328
330
1F
100
AcDbEntity
  8
0
  6
CONTINUOUS
 62
     7
100
AcDbLine
 10
698.7700643777
 20
166.4298895658
 30
0.0
 11
695.0512560843
 21
180.3086470491
 31
0.0
  0
LINE
  5
329
330
1F
100
AcDbEntity
  8
0
  6
CONTINUOUS
 62
     7
100
AcDbLine
 10
697.3211648702
 20
166.0416609403
 30
0.0
 11
698.7700643777
 21
166.4298895658
 31
0.0
  0
LINE
  5
32A
330
1F
100
AcDbEntity
  8
0
  6
CONTINUOUS
 62
     7
100
AcDbLine
 10
697.3211648702
 20
166.0416609403
 30
0.0
 11
695.0171771287
 21
174.6402593008
 31
0.0
  0
LINE
  5
32B
330
1F
100
AcDbEntity
  8
0
  6
CONTINUOUS
 62
     7
100
AcDbLine
 10
354.017186427
 20
174.0674661151
 30
0.0
 11
352.5171759366
 21
174.0674661151
 31
0.0
  0
LINE
  5
32C
330
1F
100
AcDbEntity
  8
0
  6
CONTINUOUS
 62
     7
100
AcDbLine
 10
352.5171759366
 20
174.0674661151
 30
0.0
 11
352.5171759366
 21
176.0674664429
 31
0.0
  0
LINE
  5
32D
330
1F
100
AcDbEntity
  8
0
  6
CONTINUOUS
 62
     7
100
AcDbLine
 10
352.5171759366
 20
176.0674664429
 30
0.0
 11
354.017186427
 21
176.0674664429
 31
0.0
  0
LINE
  5
32E
330
1F
100
AcDbEntity
  8
0
  6
CONTINUOUS
 62
     7
100
AcDbLine
 10
354.017186427
 20
176.0674664429
 30
0.0
 11
354.017186427
 21
174.0674661151
 31
0.0
  0
LINE
  5
32F
330
1F
100
AcDbEntity
  8
0
  6
CONTINUOUS
 62
     7
100
AcDbLine
 10
352.5171759366
 20
167.5674664466
 30
0.0
 11
354.017186427
 21
167.5674664466
 31
0.0
  0
LINE
  5
330
330
1F
100
AcDbEntity
  8
0
  6
CONTINUOUS
 62
     7
100
AcDbLine
 10
352.5171759366
 20
174.0674661151
 30
0.0
 11
352.5171759366
 21
167.5674664466
 31
0.0
  0
LINE
  5
331
330
1F
100
AcDbEntity
  8
0
  6
CONTINUOUS
 62
     7
100
AcDbLine
 10
354.017186427
 20
174.0674661151
 30
0.0
 11
354.017186427
 21
167.5674664466
 31
0.0
  0
ARC
  5
332
330
1F
100
AcDbEntity
  8
0
  6
CONTINUOUS
 62
     7
100
AcDbCircle
 10
351.5171828507
 20
167.5674665025
 30
0.0
 40
2.500000000000044
100
AcDbArc
 50
336.4218215218
 51
0.0
  0
ARC
  5
333
330
1F
100
AcDbEntity
  8
0
  6
CONTINUOUS
 62
     7
100
AcDbCircle
 10
351.5171828507
 20
167.5674665025
 30
0.0
 40
1.0
100
AcDbArc
 50
270.0
 51
0.0
  0
ARC
  5
334
330
1F
100
AcDbEntity
  8
0
  6
CONTINUOUS
 62
     7
100
AcDbCircle
 10
337.0171828507
 20
167.5674665025
 30
0.0
 40
2.5
100
AcDbArc
 50
180.0
 51
203.5781784781
  0
LINE
  5
335
330
1F
100
AcDbEntity
  8
0
  6
CONTINUOUS
 62
     7
100
AcDbLine
 10
336.0171797513
 20
167.5674664466
 30
0.0
 11
334.517184162
 21
167.5674664466
 31
0.0
  0
ARC
  5
336
330
1F
100
AcDbEntity
  8
0
  6
CONTINUOUS
 62
     7
100
AcDbCircle
 10
337.0171828507
 20
167.5674665025
 30
0.0
 40
1.0
100
AcDbArc
 50
180.0
 51
270.0
  0
LINE
  5
337
330
1F
100
AcDbEntity
  8
0
  6
CONTINUOUS
 62
     7
100
AcDbLine
 10
334.517184162
 20
183.5674667409
 30
0.0
 11
336.0171797513
 21
183.5674667409
 31
0.0
  0
LINE
  5
338
330
1F
100
AcDbEntity
  8
0
  6
CONTINUOUS
 62
     7
100
AcDbLine
 10
336.0171797513
 20
183.5674667409
 30
0.0
 11
336.0171797513
 21
181.5674664131
 31
0.0
  0
LINE
  5
339
330
1F
100
AcDbEntity
  8
0
  6
CONTINUOUS
 62
     7
100
AcDbLine
 10
336.0171797513
 20
181.5674664131
 30
0.0
 11
334.517184162
 21
181.5674664131
 31
0.0
  0
LINE
  5
33A
330
1F
100
AcDbEntity
  8
0
  6
CONTINUOUS
 62
     7
100
AcDbLine
 10
334.517184162
 20
181.5674664131
 30
0.0
 11
334.517184162
 21
183.5674667409
 31
0.0
  0
LINE
  5
33B
330
1F
100
AcDbEntity
  8
0
  6
CONTINUOUS
 62
     7
100
AcDbLine
 10
334.517184162
 20
181.5674664131
 30
0.0
 11
334.517184162
 21
167.5674664466
 31
0.0
  0
LINE
  5
33C
330
1F
100
AcDbEntity
  8
0
  6
CONTINUOUS
 62
     7
100
AcDbLine
 10
336.0171797513
 20
181.5674664131
 30
0.0
 11
336.0171797513
 21
167.5674664466
 31
0.0
  0
ARC
  5
33D
330
1F
100
AcDbEntity
  8
0
  6
CONTINUOUS
 62
     7
100
AcDbCircle
 10
333.5171828507
 20
180.5674665025
 30
0.0
 40
1.00000000000003
100
AcDbArc
 50
345.0
 51
0.0
  0
LINE
  5
33E
330
1F
100
AcDbEntity
  8
0
  6
CONTINUOUS
 62
     7
100
AcDbLine
 10
332.2131964206
 20
166.0416609403
 30
0.0
 11
330.7643118142
 21
166.4298895658
 31
0.0
  0
LINE
  5
33F
330
1F
100
AcDbEntity
  8
0
  6
CONTINUOUS
 62
     7
100
AcDbLine
 10
330.7643118142
 20
166.4298895658
 30
0.0
 11
334.4831052064
 21
180.3086470491
 31
0.0
  0
LINE
  5
340
330
1F
100
AcDbEntity
  8
0
  6
CONTINUOUS
 62
     7
100
AcDbLine
 10
332.2131964206
 20
166.0416609403
 30
0.0
 11
334.517184162
 21
174.6402593008
 31
0.0
  0
LINE
  5
341
330
1F
100
AcDbEntity
  8
0
  6
CONTINUOUS
 62
     7
100
AcDbLine
 10
358.7242844342
 20
177.0674666068
 30
0.0
 11
358.7242844342
 21
168.5674666106
 31
0.0
  0
LINE
  5
342
330
1F
100
AcDbEntity
  8
0
  6
CONTINUOUS
 62
     7
100
AcDbLine
 10
358.7242844342
 20
177.0674666068
 30
0.0
 11
669.3100812673
 21
177.0674666068
 31
0.0
  0
LINE
  5
343
330
1F
100
AcDbEntity
  8
0
  6
CONTINUOUS
 62
     7
100
AcDbLine
 10
669.3100812673
 20
177.0674666068
 30
0.0
 11
669.3100812673
 21
168.5674666106
 31
0.0
  0
LINE
  5
344
330
1F
100
AcDbEntity
  8
0
  6
CONTINUOUS
 62
     7
100
AcDbLine
 10
365.0171789168
 20
176.117466358
 30
0.0
 11
365.6109007834
 21
176.0674664429
 31
0.0
  0
LWPOLYLINE
  5
345
330
1F
100
AcDbEntity
  8
0
  6
CONTINUOUS
 62
     7
100
AcDbPolyline
 90
        3
 70
   128
 43
0.0
 10
361.5171792745
 20
171.9737495906
 10
361.4793005227
 20
172.2743097371
 10
361.5171792745
 20
173.1611840105
  0
LINE
  5
346
330
1F
100
AcDbEntity
  8
0
  6
CONTINUOUS
 62
     7
100
AcDbLine
 10
362.2908028602
 20
174.8410822502
 30
0.0
 11
362.743574643
 21
175.2938512391
 31
0.0
  0
LINE
  5
347
330
1F
100
AcDbEntity
  8
0
  6
CONTINUOUS
 62
     7
100
AcDbLine
 10
364.4234719514
 20
176.0674664429
 30
0.0
 11
365.0171789168
 21
176.117466358
 31
0.0
  0
ARC
  5
348
330
1F
100
AcDbEntity
  8
0
  6
CONTINUOUS
 62
     7
100
AcDbCircle
 10
404.9315482121
 20
174.6519640589
 30
0.0
 40
46.60614052933789
100
AcDbArc
 50
187.5014574512
 51
189.9892972438
  0
LWPOLYLINE
  5
349
330
1F
100
AcDbEntity
  8
0
  6
CONTINUOUS
 62
     7
100
AcDbPolyline
 90
        3
 70
   128
 43
0.0
 10
669.3100812673
 20
168.5674666106
 10
669.1641392945
 20
167.5695458571
 10
669.0021040677
 20
166.5674665156
  0
ARC
  5
34A
330
1F
100
AcDbEntity
  8
0
  6
CONTINUOUS
 62
     7
100
AcDbCircle
 10
668.5540090925
 20
168.5553256041
 30
0.0
 40
1.463227347274291
100
AcDbArc
 50
292.0909353967
 51
0.4754123895
  0
LINE
  5
34B
330
1F
100
AcDbEntity
  8
0
  6
CONTINUOUS
 62
     7
100
AcDbLine
 10
672.0171901225
 20
168.5674666106
 30
0.0
 11
670.0171860694
 21
168.5674666106
 31
0.0
  0
LWPOLYLINE
  5
34C
330
1F
100
AcDbEntity
  8
0
  6
CONTINUOUS
 62
     7
100
AcDbPolyline
 90
        3
 70
   128
 43
0.0
 10
671.4285346507
 20
166.6405928
 10
671.9004246234
 20
167.6709822523
 10
672.0171901225
 20
168.5674666106
  0
LINE
  5
34D
330
1F
100
AcDbEntity
  8
0
  6
CONTINUOUS
 62
     7
100
AcDbLine
 10
356.017175579
 20
168.5674666106
 30
0.0
 11
358.0171796321
 21
168.5674666106
 31
0.0
  0
ARC
  5
34E
330
1F
100
AcDbEntity
  8
0
  6
CONTINUOUS
 62
     7
100
AcDbCircle
 10
359.3951695835
 20
168.5059165787
 30
0.0
 40
1.379363879702931
100
AcDbArc
 50
177.4424961672
 51
250.2419634031
  0
LWPOLYLINE
  5
34F
330
1F
100
AcDbEntity
  8
0
  6
CONTINUOUS
 62
     7
100
AcDbPolyline
 90
        3
 70
   128
 43
0.0
 10
356.017175579
 20
168.5674666106
 10
356.1624619006
 20
167.5695458571
 10
356.6584023475
 20
166.5674665156
  0
LINE
  5
350
330
1F
100
AcDbEntity
  8
0
  6
CONTINUOUS
 62
     7
100
AcDbLine
 10
672.0171901225
 20
168.5674666106
 30
0.0
 11
672.0171901225
 21
177.0674666068
 31
0.0
  0
LINE
  5
351
330
1F
100
AcDbEntity
  8
0
  6
CONTINUOUS
 62
     7
100
AcDbLine
 10
670.0171860694
 20
168.5674666106
 30
0.0
 11
670.0171860694
 21
177.0674666068
 31
0.0
  0
LINE
  5
352
330
1F
100
AcDbEntity
  8
0
  6
CONTINUOUS
 62
     7
100
AcDbLine
 10
670.0171860694
 20
177.0674666068
 30
0.0
 11
672.0171901225
 21
177.0674666068
 31
0.0
  0
LINE
  5
353
330
1F
100
AcDbEntity
  8
0
  6
CONTINUOUS
 62
     7
100
AcDbLine
 10
358.0171796321
 20
177.0674666068
 30
0.0
 11
356.017175579
 21
177.0674666068
 31
0.0
  0
LINE
  5
354
330
1F
100
AcDbEntity
  8
0
  6
CONTINUOUS
 62
     7
100
AcDbLine
 10
358.0171796321
 20
168.5674666106
 30
0.0
 11
358.0171796321
 21
177.0674666068
 31
0.0
  0
LINE
  5
355
330
1F
100
AcDbEntity
  8
0
  6
CONTINUOUS
 62
     7
100
AcDbLine
 10
356.017175579
 20
168.5674666106
 30
0.0
 11
356.017175579
 21
177.0674666068
 31
0.0
  0
LINE
  5
356
330
1F
100
AcDbEntity
  8
0
  6
CONTINUOUS
 62
     7
100
AcDbLine
 10
645.0263592242
 20
181.3674667529
 30
0.0
 11
645.0263592242
 21
180.6674660793
 31
0.0
  0
LINE
  5
357
330
1F
100
AcDbEntity
  8
0
  6
CONTINUOUS
 62
     7
100
AcDbLine
 10
645.0263592242
 20
180.6674660793
 30
0.0
 11
644.3671765565
 21
180.6674660793
 31
0.0
  0
LINE
  5
358
330
1F
100
AcDbEntity
  8
0
  6
CONTINUOUS
 62
     7
100
AcDbLine
 10
656.6671761512
 20
180.6674660793
 30
0.0
 11
655.8028789996
 21
180.6674660793
 31
0.0
  0
LINE
  5
359
330
1F
100
AcDbEntity
  8
0
  6
CONTINUOUS
 62
     7
100
AcDbLine
 10
655.8028789996
 20
181.3674667529
 30
0.0
 11
655.8028789996
 21
180.6674660793
 31
0.0
  0
LINE
  5
35A
330
1F
100
AcDbEntity
  8
0
  6
CONTINUOUS
 62
     7
100
AcDbLine
 10
645.0263592242
 20
181.3674667529
 30
0.0
 11
644.3671765565
 21
181.3674667529
 31
0.0
  0
LINE
  5
35B
330
1F
100
AcDbEntity
  8
0
  6
CONTINUOUS
 62
     7
100
AcDbLine
 10
656.6671761512
 20
181.3674667529
 30
0.0
 11
655.8028789996
 21
181.3674667529
 31
0.0
  0
LINE
  5
35C
330
1F
100
AcDbEntity
  8
0
  6
CONTINUOUS
 62
     7
100
AcDbLine
 10
653.0955764293
 20
181.3674667529
 30
0.0
 11
653.0955764293
 21
180.6674660793
 31
0.0
  0
LINE
  5
35D
330
1F
100
AcDbEntity
  8
0
  6
CONTINUOUS
 62
     7
100
AcDbLine
 10
655.8028789996
 20
180.6674660793
 30
0.0
 11
653.0955764293
 21
180.6674660793
 31
0.0
  0
LINE
  5
35E
330
1F
100
AcDbEntity
  8
0
  6
CONTINUOUS
 62
     7
100
AcDbLine
 10
655.8028789996
 20
181.3674667529
 30
0.0
 11
653.0955764293
 21
181.3674667529
 31
0.0
  0
LINE
  5
35F
330
1F
100
AcDbEntity
  8
0
  6
CONTINUOUS
 62
     7
100
AcDbLine
 10
647.8387298821
 20
181.3674667529
 30
0.0
 11
647.8387298821
 21
180.6674660793
 31
0.0
  0
LINE
  5
360
330
1F
100
AcDbEntity
  8
0
  6
CONTINUOUS
 62
     7
100
AcDbLine
 10
647.8387298821
 20
180.6674660793
 30
0.0
 11
645.0263592242
 21
180.6674660793
 31
0.0
  0
LINE
  5
361
330
1F
100
AcDbEntity
  8
0
  6
CONTINUOUS
 62
     7
100
AcDbLine
 10
647.8387298821
 20
181.3674667529
 30
0.0
 11
645.0263592242
 21
181.3674667529
 31
0.0
  0
LINE
  5
362
330
1F
100
AcDbEntity
  8
0
  6
CONTINUOUS
 62
     7
100
AcDbLine
 10
673.3810039996
 20
180.5674662492
 30
0.0
 11
673.3810039996
 21
178.5674668527
 31
0.0
  0
LINE
  5
363
330
1F
100
AcDbEntity
  8
0
  6
CONTINUOUS
 62
     7
100
AcDbLine
 10
674.5171877383
 20
180.5674662492
 30
0.0
 11
673.3810039996
 21
180.5674662492
 31
0.0
  0
LINE
  5
364
330
1F
100
AcDbEntity
  8
0
  6
CONTINUOUS
 62
     7
100
AcDbLine
 10
650.291863346
 20
180.5674662492
 30
0.0
 11
650.291863346
 21
178.5674668527
 31
0.0
  0
LINE
  5
365
330
1F
100
AcDbEntity
  8
0
  6
CONTINUOUS
 62
     7
100
AcDbLine
 10
670.5171796321
 20
178.5674668527
 30
0.0
 11
650.291863346
 21
178.5674668527
 31
0.0
  0
LINE
  5
366
330
1F
100
AcDbEntity
  8
0
  6
CONTINUOUS
 62
     7
100
AcDbLine
 10
673.3810039996
 20
180.5674662492
 30
0.0
 11
650.291863346
 21
180.5674662492
 31
0.0
  0
LINE
  5
367
330
1F
100
AcDbEntity
  8
0
  6
CONTINUOUS
 62
     7
100
AcDbLine
 10
650.291863346
 20
178.5674668527
 30
0.0
 11
644.0171780824
 21
178.5674668527
 31
0.0
  0
LINE
  5
368
330
1F
100
AcDbEntity
  8
0
  6
CONTINUOUS
 62
     7
100
AcDbLine
 10
650.291863346
 20
180.5674662492
 30
0.0
 11
644.0171780824
 21
180.5674662492
 31
0.0
  0
LINE
  5
369
330
1F
100
AcDbEntity
  8
0
  6
CONTINUOUS
 62
     7
100
AcDbLine
 10
657.1132126092
 20
161.7674665204
 30
0.0
 11
657.1171763181
 21
161.7674665204
 31
0.0
  0
LINE
  5
36A
330
1F
100
AcDbEntity
  8
0
  6
CONTINUOUS
 62
     7
100
AcDbLine
 10
643.9171763896
 20
161.7674665204
 30
0.0
 11
657.1132126092
 21
161.7674665204
 31
0.0
  0
LINE
  5
36B
330
1F
100
AcDbEntity
  8
0
  6
CONTINUOUS
 62
     7
100
AcDbLine
 10
654.0171834468
 20
181.5674664131
 30
0.0
 11
647.017184162
 21
181.5674664131
 31
0.0
  0
LINE
  5
36C
330
1F
100
AcDbEntity
  8
0
  6
CONTINUOUS
 62
     7
100
AcDbLine
 10
654.0171834468
 20
182.567466577
 30
0.0
 11
647.017184162
 21
182.567466577
 31
0.0
  0
LINE
  5
36D
330
1F
100
AcDbEntity
  8
0
  6
CONTINUOUS
 62
     7
100
AcDbLine
 10
661.5171762942
 20
164.067466455
 30
0.0
 11
639.5171764134
 21
164.067466455
 31
0.0
  0
LINE
  5
36E
330
1F
100
AcDbEntity
  8
0
  6
CONTINUOUS
 62
     7
100
AcDbLine
 10
656.656715536
 20
162.0674664764
 30
0.0
 11
641.5171804666
 21
162.0674664764
 31
0.0
  0
LINE
  5
36F
330
1F
100
AcDbEntity
  8
0
  6
CONTINUOUS
 62
     7
100
AcDbLine
 10
659.5171871423
 20
162.0674664764
 30
0.0
 11
656.656715536
 21
162.0674664764
 31
0.0
  0
LINE
  5
370
330
1F
100
AcDbEntity
  8
0
  6
CONTINUOUS
 62
     8
100
AcDbLine
 10
695.0512560843
 20
180.3086470491
 30
0.0
 11
695.0171771287
 21
180.2995172939
 31
0.0
  0
LINE
  5
371
330
1F
100
AcDbEntity
  8
0
  6
CONTINUOUS
 62
     8
100
AcDbLine
 10
334.4831052064
 20
180.3086470491
 30
0.0
 11
334.517184162
 21
180.2995172939
 31
0.0
  0
LINE
  5
372
330
1F
100
AcDbEntity
  8
0
  6
CONTINUOUS
 62
     8
100
AcDbLine
 10
358.7242844342
 20
168.5674666106
 30
0.0
 11
361.5171792745
 21
168.5674666106
 31
0.0
  0
LINE
  5
373
330
1F
100
AcDbEntity
  8
0
  6
CONTINUOUS
 62
     8
100
AcDbLine
 10
668.0171820163
 20
168.5674666106
 30
0.0
 11
669.3100812673
 21
168.5674666106
 31
0.0
  0
LINE
  5
374
330
1F
100
AcDbEntity
  8
0
  6
CONTINUOUS
 62
     8
100
AcDbLine
 10
657.3671880006
 20
162.0174665614
 30
0.0
 11
643.6671796083
 21
162.0174665614
 31
0.0
  0
LINE
  5
375
330
1F
100
AcDbEntity
  8
0
  6
CONTINUOUS
 62
     8
100
AcDbLine
 10
655.2923652171
 20
178.0674667707
 30
0.0
 11
657.5171830892
 21
178.0674667707
 31
0.0
  0
LINE
  5
376
330
1F
100
AcDbEntity
  8
0
  6
CONTINUOUS
 62
     8
100
AcDbLine
 10
643.5171845197
 20
178.0674667707
 30
0.0
 11
655.2923652171
 21
178.0674667707
 31
0.0
  0
LINE
  5
377
330
1F
100
AcDbEntity
  8
0
  6
CONTINUOUS
 62
     7
100
AcDbLine
 10
941.647734015
 20
621.0953753426
 30
0.0
 11
942.3477346885
 21
621.0953753426
 31
0.0
  0
LINE
  5
378
330
1F
100
AcDbEntity
  8
0
  6
CONTINUOUS
 62
     7
100
AcDbLine
 10
942.4477345187
 20
620.7453750059
 30
0.0
 11
944.4477339152
 21
620.7453750059
 31
0.0
  0
LINE
  5
379
330
1F
100
AcDbEntity
  8
0
  6
CONTINUOUS
 62
     7
100
AcDbLine
 10
960.9477342914
 20
620.3953751348
 30
0.0
 11
960.9977342065
 21
620.3953751348
 31
0.0
  0
LINE
  5
37A
330
1F
100
AcDbEntity
  8
0
  6
CONTINUOUS
 62
     7
100
AcDbLine
 10
960.9977342065
 20
634.0953751452
 30
0.0
 11
960.9477342914
 21
634.0953751452
 31
0.0
  0
ARC
  5
37B
330
1F
100
AcDbEntity
  8
0
  6
CONTINUOUS
 62
     7
100
AcDbCircle
 10
960.9977342654
 20
620.64537514
 30
0.0
 40
0.2500000000001137
100
AcDbArc
 50
270.0
 51
0.0
  0
ARC
  5
37C
330
1F
100
AcDbEntity
  8
0
  6
CONTINUOUS
 62
     7
100
AcDbCircle
 10
960.9977342654
 20
633.84537514
 30
0.0
 40
0.2500000000001137
100
AcDbArc
 50
0.0
 51
90.0
  0
LINE
  5
37D
330
1F
100
AcDbEntity
  8
0
  6
CONTINUOUS
 62
     7
100
AcDbLine
 10
941.4477343548
 20
630.745375248
 30
0.0
 11
940.4477341908
 21
630.745375248
 31
0.0
  0
LINE
  5
37E
330
1F
100
AcDbEntity
  8
0
  6
CONTINUOUS
 62
     7
100
AcDbLine
 10
940.4477341908
 20
623.7453750319
 30
0.0
 11
941.4477343548
 21
623.7453750319
 31
0.0
  0
LINE
  5
37F
330
1F
100
AcDbEntity
  8
0
  6
CONTINUOUS
 62
     7
100
AcDbLine
 10
942.4477345187
 20
630.2453751661
 30
0.0
 11
941.4477343548
 21
630.2453751661
 31
0.0
  0
LINE
  5
380
330
1F
100
AcDbEntity
  8
0
  6
CONTINUOUS
 62
     7
100
AcDbLine
 10
941.4477343548
 20
624.2453751139
 30
0.0
 11
941.647734015
 21
624.2453751139
 31
0.0
  0
LINE
  5
381
330
1F
100
AcDbEntity
  8
0
  6
CONTINUOUS
 62
     7
100
AcDbLine
 10
942.3477346885
 20
624.2453751139
 30
0.0
 11
942.4477345187
 21
624.2453751139
 31
0.0
  0
LINE
  5
382
330
1F
100
AcDbEntity
  8
0
  6
CONTINUOUS
 62
     7
100
AcDbLine
 10
958.9477343128
 20
638.2453750804
 30
0.0
 11
957.9477342654
 21
638.2453750804
 31
0.0
  0
LINE
  5
383
330
1F
100
AcDbEntity
  8
0
  6
CONTINUOUS
 62
     7
100
AcDbLine
 10
957.9477342654
 20
616.2453751996
 30
0.0
 11
958.9477343128
 21
616.2453751996
 31
0.0
  0
LINE
  5
384
330
1F
100
AcDbEntity
  8
0
  6
CONTINUOUS
 62
     7
100
AcDbLine
 10
958.9477343128
 20
616.2453751996
 30
0.0
 11
960.9477342914
 21
618.2453755274
 31
0.0
  0
LINE
  5
385
330
1F
100
AcDbEntity
  8
0
  6
CONTINUOUS
 62
     7
100
AcDbLine
 10
960.9477342914
 20
636.2453747525
 30
0.0
 11
958.9477343128
 21
638.2453750804
 31
0.0
  0
LINE
  5
386
330
1F
100
AcDbEntity
  8
0
  6
CONTINUOUS
 62
     7
100
AcDbLine
 10
945.947734161
 20
634.245375356
 30
0.0
 11
944.9477339971
 21
634.245375356
 31
0.0
  0
LINE
  5
387
330
1F
100
AcDbEntity
  8
0
  6
CONTINUOUS
 62
     7
100
AcDbLine
 10
944.9477339971
 20
620.2453749239
 30
0.0
 11
945.947734161
 21
620.2453749239
 31
0.0
  0
ARC
  5
388
330
1F
100
AcDbEntity
  8
0
  6
CONTINUOUS
 62
     7
100
AcDbCircle
 10
944.9477342654
 20
633.74537514
 30
0.0
 40
0.5000000000001249
100
AcDbArc
 50
90.0
 51
180.0000121787
  0
ARC
  5
389
330
1F
100
AcDbEntity
  8
0
  6
CONTINUOUS
 62
     7
100
AcDbCircle
 10
944.9477342654
 20
620.74537514
 30
0.0
 40
0.5000000000001249
100
AcDbArc
 50
179.9999878213
 51
270.0
  0
LINE
  5
38A
330
1F
100
AcDbEntity
  8
0
  6
CONTINUOUS
 62
     7
100
AcDbLine
 10
956.4477342523
 20
419.9953760937
 30
0.0
 11
957.9477342653
 21
419.9953760937
 31
0.0
  0
LINE
  5
38B
330
1F
100
AcDbEntity
  8
0
  6
CONTINUOUS
 62
     7
100
AcDbLine
 10
956.4477342523
 20
421.4953716829
 30
0.0
 11
957.9477342653
 21
421.4953716829
 31
0.0
  0
LINE
  5
38C
330
1F
100
AcDbEntity
  8
0
  6
CONTINUOUS
 62
     7
100
AcDbLine
 10
957.9477342653
 20
421.4953716829
 30
0.0
 11
957.9477342653
 21
419.9953760937
 31
0.0
  0
LINE
  5
38D
330
1F
100
AcDbEntity
  8
0
  6
CONTINUOUS
 62
     7
100
AcDbLine
 10
956.4477342523
 20
421.4953716829
 30
0.0
 11
956.4477342523
 21
419.9953760937
 31
0.0
  0
LINE
  5
38E
330
1F
100
AcDbEntity
  8
0
  6
CONTINUOUS
 62
     7
100
AcDbLine
 10
956.4477342523
 20
414.3385227754
 30
0.0
 11
957.9477342653
 21
414.3385227754
 31
0.0
  0
LINE
  5
38F
330
1F
100
AcDbEntity
  8
0
  6
CONTINUOUS
 62
     7
100
AcDbLine
 10
957.9477342653
 20
419.9953760937
 30
0.0
 11
957.9477342653
 21
414.3385227754
 31
0.0
  0
LINE
  5
390
330
1F
100
AcDbEntity
  8
0
  6
CONTINUOUS
 62
     7
100
AcDbLine
 10
956.4477342523
 20
419.9953760937
 30
0.0
 11
956.4477342523
 21
414.3385227754
 31
0.0
  0
LINE
  5
391
330
1F
100
AcDbEntity
  8
0
  6
CONTINUOUS
 62
     7
100
AcDbLine
 10
956.4477342523
 20
398.8385137155
 30
0.0
 11
957.9477342653
 21
398.8385137155
 31
0.0
  0
LINE
  5
392
330
1F
100
AcDbEntity
  8
0
  6
CONTINUOUS
 62
     7
100
AcDbLine
 10
957.9477342653
 20
414.3385227754
 30
0.0
 11
957.9477342653
 21
398.8385137155
 31
0.0
  0
LINE
  5
393
330
1F
100
AcDbEntity
  8
0
  6
CONTINUOUS
 62
     7
100
AcDbLine
 10
956.4477342523
 20
414.3385227754
 30
0.0
 11
956.4477342523
 21
398.8385137155
 31
0.0
  0
LINE
  5
394
330
1F
100
AcDbEntity
  8
0
  6
CONTINUOUS
 62
     7
100
AcDbLine
 10
956.4477342523
 20
396.4953806236
 30
0.0
 11
957.9477342653
 21
396.4953806236
 31
0.0
  0
LINE
  5
395
330
1F
100
AcDbEntity
  8
0
  6
CONTINUOUS
 62
     7
100
AcDbLine
 10
957.9477342653
 20
398.8385137155
 30
0.0
 11
957.9477342653
 21
396.4953806236
 31
0.0
  0
LINE
  5
396
330
1F
100
AcDbEntity
  8
0
  6
CONTINUOUS
 62
     7
100
AcDbLine
 10
956.4477342523
 20
398.8385137155
 30
0.0
 11
956.4477342523
 21
396.4953806236
 31
0.0
  0
LINE
  5
397
330
1F
100
AcDbEntity
  8
0
  6
CONTINUOUS
 62
     7
100
AcDbLine
 10
948.9477346528
 20
413.9953788355
 30
0.0
 11
948.9477346528
 21
412.495368345
 31
0.0
  0
LINE
  5
398
330
1F
100
AcDbEntity
  8
0
  6
CONTINUOUS
 62
     7
100
AcDbLine
 10
946.947734325
 20
412.495368345
 30
0.0
 11
946.947734325
 21
413.9953788355
 31
0.0
  0
LINE
  5
399
330
1F
100
AcDbEntity
  8
0
  6
CONTINUOUS
 62
     7
100
AcDbLine
 10
948.9477346528
 20
412.495368345
 30
0.0
 11
946.947734325
 21
412.495368345
 31
0.0
  0
LINE
  5
39A
330
1F
100
AcDbEntity
  8
0
  6
CONTINUOUS
 62
     7
100
AcDbLine
 10
946.947734325
 20
413.9953788355
 30
0.0
 11
948.9477346528
 21
413.9953788355
 31
0.0
  0
LINE
  5
39B
330
1F
100
AcDbEntity
  8
0
  6
CONTINUOUS
 62
     7
100
AcDbLine
 10
955.4477343212
 20
412.495368345
 30
0.0
 11
955.4477343212
 21
413.9953788355
 31
0.0
  0
LINE
  5
39C
330
1F
100
AcDbEntity
  8
0
  6
CONTINUOUS
 62
     7
100
AcDbLine
 10
948.9477346528
 20
412.495368345
 30
0.0
 11
955.4477343212
 21
412.495368345
 31
0.0
  0
LINE
  5
39D
330
1F
100
AcDbEntity
  8
0
  6
CONTINUOUS
 62
     7
100
AcDbLine
 10
948.9477346528
 20
413.9953788355
 30
0.0
 11
955.4477343212
 21
413.9953788355
 31
0.0
  0
ARC
  5
39E
330
1F
100
AcDbEntity
  8
0
  6
CONTINUOUS
 62
     7
100
AcDbCircle
 10
955.4477342653
 20
411.49537514
 30
0.0
 40
2.49999999999996
100
AcDbArc
 50
66.4218215218
 51
90.0
  0
ARC
  5
39F
330
1F
100
AcDbEntity
  8
0
  6
CONTINUOUS
 62
     7
100
AcDbCircle
 10
955.4477342653
 20
411.49537514
 30
0.0
 40
1.0
100
AcDbArc
 50
0.0
 51
90.0
  0
ARC
  5
3A0
330
1F
100
AcDbEntity
  8
0
  6
CONTINUOUS
 62
     7
100
AcDbCircle
 10
946.9477342653
 20
414.99537514
 30
0.0
 40
2.5
100
AcDbArc
 50
180.0
 51
270.0
  0
LINE
  5
3A1
330
1F
100
AcDbEntity
  8
0
  6
CONTINUOUS
 62
     7
100
AcDbLine
 10
945.947734161
 20
414.995380862
 30
0.0
 11
944.4477339152
 21
414.995380862
 31
0.0
  0
ARC
  5
3A2
330
1F
100
AcDbEntity
  8
0
  6
CONTINUOUS
 62
     7
100
AcDbCircle
 10
946.9477342653
 20
414.99537514
 30
0.0
 40
1.0
100
AcDbArc
 50
180.0
 51
270.0
  0
LINE
  5
3A3
330
1F
100
AcDbEntity
  8
0
  6
CONTINUOUS
 62
     7
100
AcDbLine
 10
944.4477339152
 20
418.9953740671
 30
0.0
 11
945.947734161
 21
418.9953740671
 31
0.0
  0
LINE
  5
3A4
330
1F
100
AcDbEntity
  8
0
  6
CONTINUOUS
 62
     7
100
AcDbLine
 10
945.947734161
 20
415.9953679874
 30
0.0
 11
944.4477339152
 21
415.9953679874
 31
0.0
  0
LINE
  5
3A5
330
1F
100
AcDbEntity
  8
0
  6
CONTINUOUS
 62
     7
100
AcDbLine
 10
944.4477339152
 20
415.9953679874
 30
0.0
 11
944.4477339152
 21
418.9953740671
 31
0.0
  0
LINE
  5
3A6
330
1F
100
AcDbEntity
  8
0
  6
CONTINUOUS
 62
     7
100
AcDbLine
 10
945.947734161
 20
418.9953740671
 30
0.0
 11
945.947734161
 21
418.7453772857
 31
0.0
  0
LINE
  5
3A7
330
1F
100
AcDbEntity
  8
0
  6
CONTINUOUS
 62
     7
100
AcDbLine
 10
945.947734161
 20
416.7453732326
 30
0.0
 11
945.947734161
 21
415.9953679874
 31
0.0
  0
LINE
  5
3A8
330
1F
100
AcDbEntity
  8
0
  6
CONTINUOUS
 62
     7
100
AcDbLine
 10
944.4477339152
 20
414.995380862
 30
0.0
 11
944.4477339152
 21
415.9953679874
 31
0.0
  0
LINE
  5
3A9
330
1F
100
AcDbEntity
  8
0
  6
CONTINUOUS
 62
     7
100
AcDbLine
 10
945.947734161
 20
414.995380862
 30
0.0
 11
945.947734161
 21
415.9953679874
 31
0.0
  0
LINE
  5
3AA
330
1F
100
AcDbEntity
  8
0
  6
CONTINUOUS
 62
     7
100
AcDbLine
 10
956.4477342523
 20
834.4953741863
 30
0.0
 11
957.9477342653
 21
834.4953741863
 31
0.0
  0
LINE
  5
3AB
330
1F
100
AcDbEntity
  8
0
  6
CONTINUOUS
 62
     7
100
AcDbLine
 10
956.4477342523
 20
840.1522275045
 30
0.0
 11
957.9477342653
 21
840.1522275045
 31
0.0
  0
LINE
  5
3AC
330
1F
100
AcDbEntity
  8
0
  6
CONTINUOUS
 62
     7
100
AcDbLine
 10
957.9477342653
 20
840.1522275045
 30
0.0
 11
957.9477342653
 21
834.4953741863
 31
0.0
  0
LINE
  5
3AD
330
1F
100
AcDbEntity
  8
0
  6
CONTINUOUS
 62
     7
100
AcDbLine
 10
956.4477342523
 20
840.1522275045
 30
0.0
 11
956.4477342523
 21
834.4953741863
 31
0.0
  0
LINE
  5
3AE
330
1F
100
AcDbEntity
  8
0
  6
CONTINUOUS
 62
     7
100
AcDbLine
 10
956.4477342523
 20
832.995378597
 30
0.0
 11
957.9477342653
 21
832.995378597
 31
0.0
  0
LINE
  5
3AF
330
1F
100
AcDbEntity
  8
0
  6
CONTINUOUS
 62
     7
100
AcDbLine
 10
957.9477342653
 20
834.4953741863
 30
0.0
 11
957.9477342653
 21
832.995378597
 31
0.0
  0
LINE
  5
3B0
330
1F
100
AcDbEntity
  8
0
  6
CONTINUOUS
 62
     7
100
AcDbLine
 10
956.4477342523
 20
834.4953741863
 30
0.0
 11
956.4477342523
 21
832.995378597
 31
0.0
  0
LINE
  5
3B1
330
1F
100
AcDbEntity
  8
0
  6
CONTINUOUS
 62
     7
100
AcDbLine
 10
956.4477342523
 20
855.6522365644
 30
0.0
 11
957.9477342653
 21
855.6522365644
 31
0.0
  0
LINE
  5
3B2
330
1F
100
AcDbEntity
  8
0
  6
CONTINUOUS
 62
     7
100
AcDbLine
 10
957.9477342653
 20
855.6522365644
 30
0.0
 11
957.9477342653
 21
840.1522275045
 31
0.0
  0
LINE
  5
3B3
330
1F
100
AcDbEntity
  8
0
  6
CONTINUOUS
 62
     7
100
AcDbLine
 10
956.4477342523
 20
855.6522365644
 30
0.0
 11
956.4477342523
 21
840.1522275045
 31
0.0
  0
LINE
  5
3B4
330
1F
100
AcDbEntity
  8
0
  6
CONTINUOUS
 62
     7
100
AcDbLine
 10
956.4477342523
 20
857.9953696564
 30
0.0
 11
957.9477342653
 21
857.9953696564
 31
0.0
  0
LINE
  5
3B5
330
1F
100
AcDbEntity
  8
0
  6
CONTINUOUS
 62
     7
100
AcDbLine
 10
957.9477342653
 20
857.9953696564
 30
0.0
 11
957.9477342653
 21
855.6522365644
 31
0.0
  0
LINE
  5
3B6
330
1F
100
AcDbEntity
  8
0
  6
CONTINUOUS
 62
     7
100
AcDbLine
 10
956.4477342523
 20
857.9953696564
 30
0.0
 11
956.4477342523
 21
855.6522365644
 31
0.0
  0
LINE
  5
3B7
330
1F
100
AcDbEntity
  8
0
  6
CONTINUOUS
 62
     7
100
AcDbLine
 10
946.947734325
 20
840.4953714445
 30
0.0
 11
946.947734325
 21
841.9953819349
 31
0.0
  0
LINE
  5
3B8
330
1F
100
AcDbEntity
  8
0
  6
CONTINUOUS
 62
     7
100
AcDbLine
 10
948.9477346528
 20
841.9953819349
 30
0.0
 11
948.9477346528
 21
840.4953714445
 31
0.0
  0
LINE
  5
3B9
330
1F
100
AcDbEntity
  8
0
  6
CONTINUOUS
 62
     7
100
AcDbLine
 10
948.9477346528
 20
840.4953714445
 30
0.0
 11
946.947734325
 21
840.4953714445
 31
0.0
  0
LINE
  5
3BA
330
1F
100
AcDbEntity
  8
0
  6
CONTINUOUS
 62
     7
100
AcDbLine
 10
946.947734325
 20
841.9953819349
 30
0.0
 11
948.9477346528
 21
841.9953819349
 31
0.0
  0
ARC
  5
3BB
330
1F
100
AcDbEntity
  8
0
  6
CONTINUOUS
 62
     7
100
AcDbCircle
 10
955.4477342653
 20
842.99537514
 30
0.0
 40
2.500000000000012
100
AcDbArc
 50
270.0
 51
293.5781784782
  0
LINE
  5
3BC
330
1F
100
AcDbEntity
  8
0
  6
CONTINUOUS
 62
     7
100
AcDbLine
 10
955.4477343212
 20
841.9953819349
 30
0.0
 11
955.4477343212
 21
840.4953714445
 31
0.0
  0
ARC
  5
3BD
330
1F
100
AcDbEntity
  8
0
  6
CONTINUOUS
 62
     7
100
AcDbCircle
 10
955.4477342653
 20
842.99537514
 30
0.0
 40
1.000000000000114
100
AcDbArc
 50
270.0
 51
360.0
  0
LINE
  5
3BE
330
1F
100
AcDbEntity
  8
0
  6
CONTINUOUS
 62
     7
100
AcDbLine
 10
955.4477343212
 20
840.4953714445
 30
0.0
 11
948.9477346528
 21
840.4953714445
 31
0.0
  0
LINE
  5
3BF
330
1F
100
AcDbEntity
  8
0
  6
CONTINUOUS
 62
     7
100
AcDbLine
 10
955.4477343212
 20
841.9953819349
 30
0.0
 11
948.9477346528
 21
841.9953819349
 31
0.0
  0
LINE
  5
3C0
330
1F
100
AcDbEntity
  8
0
  6
CONTINUOUS
 62
     7
100
AcDbLine
 10
945.947734161
 20
817.995378001
 30
0.0
 11
944.4477339152
 21
817.995378001
 31
0.0
  0
LINE
  5
3C1
330
1F
100
AcDbEntity
  8
0
  6
CONTINUOUS
 62
     7
100
AcDbLine
 10
944.4477339152
 20
436.495372279
 30
0.0
 11
945.947734161
 21
436.495372279
 31
0.0
  0
LINE
  5
3C2
330
1F
100
AcDbEntity
  8
0
  6
CONTINUOUS
 62
     7
100
AcDbLine
 10
944.4477339152
 20
436.495372279
 30
0.0
 11
944.4477339152
 21
465.9953799083
 31
0.0
  0
LINE
  5
3C3
330
1F
100
AcDbEntity
  8
0
  6
CONTINUOUS
 62
     7
100
AcDbLine
 10
944.4477339152
 20
468.9953710869
 30
0.0
 11
944.4477339152
 21
469.4953795507
 31
0.0
  0
LINE
  5
3C4
330
1F
100
AcDbEntity
  8
0
  6
CONTINUOUS
 62
     7
100
AcDbLine
 10
944.4477339152
 20
485.4953821733
 30
0.0
 11
944.4477339152
 21
485.995375736
 31
0.0
  0
LINE
  5
3C5
330
1F
100
AcDbEntity
  8
0
  6
CONTINUOUS
 62
     7
100
AcDbLine
 10
944.4477339152
 20
488.9953818157
 30
0.0
 11
944.4477339152
 21
620.7453750059
 31
0.0
  0
LINE
  5
3C6
330
1F
100
AcDbEntity
  8
0
  6
CONTINUOUS
 62
     7
100
AcDbLine
 10
944.4477339152
 20
634.443009457
 30
0.0
 11
944.4477339152
 21
765.4953684643
 31
0.0
  0
LINE
  5
3C7
330
1F
100
AcDbEntity
  8
0
  6
CONTINUOUS
 62
     7
100
AcDbLine
 10
944.4477339152
 20
768.4953745439
 30
0.0
 11
944.4477339152
 21
768.9953681066
 31
0.0
  0
LINE
  5
3C8
330
1F
100
AcDbEntity
  8
0
  6
CONTINUOUS
 62
     7
100
AcDbLine
 10
944.4477339152
 20
784.9953707292
 30
0.0
 11
944.4477339152
 21
785.4953791931
 31
0.0
  0
LINE
  5
3C9
330
1F
100
AcDbEntity
  8
0
  6
CONTINUOUS
 62
     7
100
AcDbLine
 10
944.4477339152
 20
788.4953703716
 30
0.0
 11
944.4477339152
 21
817.995378001
 31
0.0
  0
LINE
  5
3CA
330
1F
100
AcDbEntity
  8
0
  6
CONTINUOUS
 62
     7
100
AcDbLine
 10
944.4477339152
 20
820.9953691795
 30
0.0
 11
945.947734161
 21
820.9953691795
 31
0.0
  0
LINE
  5
3CB
330
1F
100
AcDbEntity
  8
0
  6
CONTINUOUS
 62
     7
100
AcDbLine
 10
944.4477339152
 20
817.995378001
 30
0.0
 11
944.4477339152
 21
820.9953691795
 31
0.0
  0
LINE
  5
3CC
330
1F
100
AcDbEntity
  8
0
  6
CONTINUOUS
 62
     7
100
AcDbLine
 10
945.947734161
 20
433.4953811004
 30
0.0
 11
944.4477339152
 21
433.4953811004
 31
0.0
  0
LINE
  5
3CD
330
1F
100
AcDbEntity
  8
0
  6
CONTINUOUS
 62
     7
100
AcDbLine
 10
944.4477339152
 20
433.4953811004
 30
0.0
 11
944.4477339152
 21
436.495372279
 31
0.0
  0
LINE
  5
3CE
330
1F
100
AcDbEntity
  8
0
  6
CONTINUOUS
 62
     7
100
AcDbLine
 10
956.5853112021
 20
768.9953681066
 30
0.0
 11
956.5853112021
 21
784.9953707292
 31
0.0
  0
LINE
  5
3CF
330
1F
100
AcDbEntity
  8
0
  6
CONTINUOUS
 62
     7
100
AcDbLine
 10
942.7065537188
 20
768.9953681066
 30
0.0
 11
956.5853112021
 21
768.9953681066
 31
0.0
  0
LINE
  5
3D0
330
1F
100
AcDbEntity
  8
0
  6
CONTINUOUS
 62
     7
100
AcDbLine
 10
942.7065537188
 20
768.9953681066
 30
0.0
 11
942.7065537188
 21
784.9953707292
 31
0.0
  0
LINE
  5
3D1
330
1F
100
AcDbEntity
  8
0
  6
CONTINUOUS
 62
     7
100
AcDbLine
 10
956.5853112021
 20
784.9953707292
 30
0.0
 11
942.7065537188
 21
784.9953707292
 31
0.0
  0
LINE
  5
3D2
330
1F
100
AcDbEntity
  8
0
  6
CONTINUOUS
 62
     7
100
AcDbLine
 10
956.9735398276
 20
768.9953681066
 30
0.0
 11
956.9735398276
 21
784.9953707292
 31
0.0
  0
LINE
  5
3D3
330
1F
100
AcDbEntity
  8
0
  6
CONTINUOUS
 62
     7
100
AcDbLine
 10
956.9735398276
 20
768.9953681066
 30
0.0
 11
956.5853112021
 21
768.9953681066
 31
0.0
  0
LINE
  5
3D4
330
1F
100
AcDbEntity
  8
0
  6
CONTINUOUS
 62
     7
100
AcDbLine
 10
956.9735398276
 20
784.9953707292
 30
0.0
 11
956.5853112021
 21
784.9953707292
 31
0.0
  0
LINE
  5
3D5
330
1F
100
AcDbEntity
  8
0
  6
CONTINUOUS
 62
     7
100
AcDbLine
 10
956.5853112021
 20
485.4953821733
 30
0.0
 11
956.5853112021
 21
469.4953795507
 31
0.0
  0
LINE
  5
3D6
330
1F
100
AcDbEntity
  8
0
  6
CONTINUOUS
 62
     7
100
AcDbLine
 10
956.5853112021
 20
469.4953795507
 30
0.0
 11
942.7065537188
 21
469.4953795507
 31
0.0
  0
LINE
  5
3D7
330
1F
100
AcDbEntity
  8
0
  6
CONTINUOUS
 62
     7
100
AcDbLine
 10
942.7065537188
 20
469.4953795507
 30
0.0
 11
942.7065537188
 21
485.4953821733
 31
0.0
  0
LINE
  5
3D8
330
1F
100
AcDbEntity
  8
0
  6
CONTINUOUS
 62
     7
100
AcDbLine
 10
942.7065537188
 20
485.4953821733
 30
0.0
 11
956.5853112021
 21
485.4953821733
 31
0.0
  0
LINE
  5
3D9
330
1F
100
AcDbEntity
  8
0
  6
CONTINUOUS
 62
     7
100
AcDbLine
 10
956.9735398276
 20
485.4953821733
 30
0.0
 11
956.5853112021
 21
485.4953821733
 31
0.0
  0
LINE
  5
3DA
330
1F
100
AcDbEntity
  8
0
  6
CONTINUOUS
 62
     7
100
AcDbLine
 10
956.9735398276
 20
485.4953821733
 30
0.0
 11
956.9735398276
 21
469.4953795507
 31
0.0
  0
LINE
  5
3DB
330
1F
100
AcDbEntity
  8
0
  6
CONTINUOUS
 62
     7
100
AcDbLine
 10
956.9735398276
 20
469.4953795507
 30
0.0
 11
956.5853112021
 21
469.4953795507
 31
0.0
  0
LINE
  5
3DC
330
1F
100
AcDbEntity
  8
0
  6
CONTINUOUS
 62
     7
100
AcDbLine
 10
942.4477345187
 20
768.9953681066
 30
0.0
 11
942.7065537188
 21
768.9953681066
 31
0.0
  0
LINE
  5
3DD
330
1F
100
AcDbEntity
  8
0
  6
CONTINUOUS
 62
     7
100
AcDbLine
 10
942.4477345187
 20
784.9953707292
 30
0.0
 11
942.4477345187
 21
768.9953681066
 31
0.0
  0
LINE
  5
3DE
330
1F
100
AcDbEntity
  8
0
  6
CONTINUOUS
 62
     7
100
AcDbLine
 10
942.7065537188
 20
784.9953707292
 30
0.0
 11
942.4477345187
 21
784.9953707292
 31
0.0
  0
LINE
  5
3DF
330
1F
100
AcDbEntity
  8
0
  6
CONTINUOUS
 62
     7
100
AcDbLine
 10
942.7065537188
 20
485.4953821733
 30
0.0
 11
942.4477345187
 21
485.4953821733
 31
0.0
  0
LINE
  5
3E0
330
1F
100
AcDbEntity
  8
0
  6
CONTINUOUS
 62
     7
100
AcDbLine
 10
942.4477345187
 20
469.4953795507
 30
0.0
 11
942.7065537188
 21
469.4953795507
 31
0.0
  0
LINE
  5
3E1
330
1F
100
AcDbEntity
  8
0
  6
CONTINUOUS
 62
     7
100
AcDbLine
 10
942.4477345187
 20
485.4953821733
 30
0.0
 11
942.4477345187
 21
469.4953795507
 31
0.0
  0
LINE
  5
3E2
330
1F
100
AcDbEntity
  8
0
  6
CONTINUOUS
 62
     7
100
AcDbLine
 10
955.4477343212
 20
768.4953745439
 30
0.0
 11
955.4477343212
 21
765.4953684643
 31
0.0
  0
LINE
  5
3E3
330
1F
100
AcDbEntity
  8
0
  6
CONTINUOUS
 62
     7
100
AcDbLine
 10
955.4477343212
 20
765.4953684643
 30
0.0
 11
941.4477343548
 21
765.4953684643
 31
0.0
  0
ARC
  5
3E4
330
1F
100
AcDbEntity
  8
0
  6
CONTINUOUS
 62
     7
100
AcDbCircle
 10
941.4477342653
 20
767.49537514
 30
0.0
 40
2.0
100
AcDbArc
 50
180.0
 51
270.0
  0
LINE
  5
3E5
330
1F
100
AcDbEntity
  8
0
  6
CONTINUOUS
 62
     7
100
AcDbLine
 10
939.4477340269
 20
767.4953725174
 30
0.0
 11
939.4477340269
 21
786.4953812197
 31
0.0
  0
ARC
  5
3E6
330
1F
100
AcDbEntity
  8
0
  6
CONTINUOUS
 62
     7
100
AcDbCircle
 10
941.4477342653
 20
786.49537514
 30
0.0
 40
2.0
100
AcDbArc
 50
90.0
 51
180.0
  0
LINE
  5
3E7
330
1F
100
AcDbEntity
  8
0
  6
CONTINUOUS
 62
     7
100
AcDbLine
 10
941.4477343548
 20
788.4953703716
 30
0.0
 11
955.4477343212
 21
788.4953703716
 31
0.0
  0
LINE
  5
3E8
330
1F
100
AcDbEntity
  8
0
  6
CONTINUOUS
 62
     7
100
AcDbLine
 10
955.4477343212
 20
788.4953703716
 30
0.0
 11
955.4477343212
 21
785.4953791931
 31
0.0
  0
LINE
  5
3E9
330
1F
100
AcDbEntity
  8
0
  6
CONTINUOUS
 62
     7
100
AcDbLine
 10
942.4477345187
 20
785.4953791931
 30
0.0
 11
955.4477343212
 21
785.4953791931
 31
0.0
  0
LINE
  5
3EA
330
1F
100
AcDbEntity
  8
0
  6
CONTINUOUS
 62
     7
100
AcDbLine
 10
942.4477345187
 20
784.9953707292
 30
0.0
 11
942.4477345187
 21
785.4953791931
 31
0.0
  0
LINE
  5
3EB
330
1F
100
AcDbEntity
  8
0
  6
CONTINUOUS
 62
     7
100
AcDbLine
 10
942.4477345187
 20
768.4953745439
 30
0.0
 11
942.4477345187
 21
768.9953681066
 31
0.0
  0
LINE
  5
3EC
330
1F
100
AcDbEntity
  8
0
  6
CONTINUOUS
 62
     7
100
AcDbLine
 10
955.4477343212
 20
768.4953745439
 30
0.0
 11
942.4477345187
 21
768.4953745439
 31
0.0
  0
LINE
  5
3ED
330
1F
100
AcDbEntity
  8
0
  6
CONTINUOUS
 62
     7
100
AcDbLine
 10
942.4477345187
 20
469.4953795507
 30
0.0
 11
942.4477345187
 21
468.9953710869
 31
0.0
  0
LINE
  5
3EE
330
1F
100
AcDbEntity
  8
0
  6
CONTINUOUS
 62
     7
100
AcDbLine
 10
942.4477345187
 20
468.9953710869
 30
0.0
 11
955.4477343212
 21
468.9953710869
 31
0.0
  0
LINE
  5
3EF
330
1F
100
AcDbEntity
  8
0
  6
CONTINUOUS
 62
     7
100
AcDbLine
 10
955.4477343212
 20
468.9953710869
 30
0.0
 11
955.4477343212
 21
465.9953799083
 31
0.0
  0
LINE
  5
3F0
330
1F
100
AcDbEntity
  8
0
  6
CONTINUOUS
 62
     7
100
AcDbLine
 10
941.4477343548
 20
465.9953799083
 30
0.0
 11
955.4477343212
 21
465.9953799083
 31
0.0
  0
ARC
  5
3F1
330
1F
100
AcDbEntity
  8
0
  6
CONTINUOUS
 62
     7
100
AcDbCircle
 10
941.4477342653
 20
467.99537514
 30
0.0
 40
2.0
100
AcDbArc
 50
180.0
 51
270.0
  0
LINE
  5
3F2
330
1F
100
AcDbEntity
  8
0
  6
CONTINUOUS
 62
     7
100
AcDbLine
 10
939.4477340269
 20
486.9953777626
 30
0.0
 11
939.4477340269
 21
467.9953690603
 31
0.0
  0
ARC
  5
3F3
330
1F
100
AcDbEntity
  8
0
  6
CONTINUOUS
 62
     7
100
AcDbCircle
 10
941.4477342653
 20
486.99537514
 30
0.0
 40
2.0
100
AcDbArc
 50
90.0
 51
180.0
  0
LINE
  5
3F4
330
1F
100
AcDbEntity
  8
0
  6
CONTINUOUS
 62
     7
100
AcDbLine
 10
955.4477343212
 20
488.9953818157
 30
0.0
 11
941.4477343548
 21
488.9953818157
 31
0.0
  0
LINE
  5
3F5
330
1F
100
AcDbEntity
  8
0
  6
CONTINUOUS
 62
     7
100
AcDbLine
 10
955.4477343212
 20
488.9953818157
 30
0.0
 11
955.4477343212
 21
485.995375736
 31
0.0
  0
LINE
  5
3F6
330
1F
100
AcDbEntity
  8
0
  6
CONTINUOUS
 62
     7
100
AcDbLine
 10
955.4477343212
 20
485.995375736
 30
0.0
 11
942.4477345187
 21
485.995375736
 31
0.0
  0
LINE
  5
3F7
330
1F
100
AcDbEntity
  8
0
  6
CONTINUOUS
 62
     7
100
AcDbLine
 10
942.4477345187
 20
485.995375736
 30
0.0
 11
942.4477345187
 21
485.4953821733
 31
0.0
  0
LINE
  5
3F8
330
1F
100
AcDbEntity
  8
0
  6
CONTINUOUS
 62
     7
100
AcDbLine
 10
957.9477342653
 20
788.4953703716
 30
0.0
 11
957.9477342653
 21
785.4953791931
 31
0.0
  0
LINE
  5
3F9
330
1F
100
AcDbEntity
  8
0
  6
CONTINUOUS
 62
     7
100
AcDbLine
 10
955.4477343212
 20
785.4953791931
 30
0.0
 11
957.9477342653
 21
785.4953791931
 31
0.0
  0
LINE
  5
3FA
330
1F
100
AcDbEntity
  8
0
  6
CONTINUOUS
 62
     7
100
AcDbLine
 10
955.4477343212
 20
788.4953703716
 30
0.0
 11
957.9477342653
 21
788.4953703716
 31
0.0
  0
LINE
  5
3FB
330
1F
100
AcDbEntity
  8
0
  6
CONTINUOUS
 62
     7
100
AcDbLine
 10
957.9477342653
 20
765.4953684643
 30
0.0
 11
955.4477343212
 21
765.4953684643
 31
0.0
  0
LINE
  5
3FC
330
1F
100
AcDbEntity
  8
0
  6
CONTINUOUS
 62
     7
100
AcDbLine
 10
957.9477342653
 20
768.4953745439
 30
0.0
 11
955.4477343212
 21
768.4953745439
 31
0.0
  0
LINE
  5
3FD
330
1F
100
AcDbEntity
  8
0
  6
CONTINUOUS
 62
     7
100
AcDbLine
 10
957.9477342653
 20
768.4953745439
 30
0.0
 11
957.9477342653
 21
765.4953684643
 31
0.0
  0
LINE
  5
3FE
330
1F
100
AcDbEntity
  8
0
  6
CONTINUOUS
 62
     7
100
AcDbLine
 10
955.4477343212
 20
488.9953818157
 30
0.0
 11
957.9477342653
 21
488.9953818157
 31
0.0
  0
LINE
  5
3FF
330
1F
100
AcDbEntity
  8
0
  6
CONTINUOUS
 62
     7
100
AcDbLine
 10
957.9477342653
 20
488.9953818157
 30
0.0
 11
957.9477342653
 21
485.995375736
 31
0.0
  0
LINE
  5
400
330
1F
100
AcDbEntity
  8
0
  6
CONTINUOUS
 62
     7
100
AcDbLine
 10
957.9477342653
 20
485.995375736
 30
0.0
 11
955.4477343212
 21
485.995375736
 31
0.0
  0
LINE
  5
401
330
1F
100
AcDbEntity
  8
0
  6
CONTINUOUS
 62
     7
100
AcDbLine
 10
957.9477342653
 20
468.9953710869
 30
0.0
 11
957.9477342653
 21
465.9953799083
 31
0.0
  0
LINE
  5
402
330
1F
100
AcDbEntity
  8
0
  6
CONTINUOUS
 62
     7
100
AcDbLine
 10
957.9477342653
 20
465.9953799083
 30
0.0
 11
955.4477343212
 21
465.9953799083
 31
0.0
  0
LINE
  5
403
330
1F
100
AcDbEntity
  8
0
  6
CONTINUOUS
 62
     7
100
AcDbLine
 10
955.4477343212
 20
468.9953710869
 30
0.0
 11
957.9477342653
 21
468.9953710869
 31
0.0
  0
LINE
  5
404
330
1F
100
AcDbEntity
  8
0
  6
CONTINUOUS
 62
     7
100
AcDbLine
 10
956.4477342523
 20
788.9953788355
 30
0.0
 11
957.9477342653
 21
788.9953788355
 31
0.0
  0
LINE
  5
405
330
1F
100
AcDbEntity
  8
0
  6
CONTINUOUS
 62
     7
100
AcDbLine
 10
957.9477342653
 20
832.995378597
 30
0.0
 11
957.9477342653
 21
788.9953788355
 31
0.0
  0
LINE
  5
406
330
1F
100
AcDbEntity
  8
0
  6
CONTINUOUS
 62
     7
100
AcDbLine
 10
956.4477342523
 20
832.995378597
 30
0.0
 11
956.4477342523
 21
788.9953788355
 31
0.0
  0
LINE
  5
407
330
1F
100
AcDbEntity
  8
0
  6
CONTINUOUS
 62
     7
100
AcDbLine
 10
956.4477342523
 20
489.4953753784
 30
0.0
 11
957.9477342653
 21
489.4953753784
 31
0.0
  0
LINE
  5
408
330
1F
100
AcDbEntity
  8
0
  6
CONTINUOUS
 62
     7
100
AcDbLine
 10
956.4477342523
 20
764.9953749016
 30
0.0
 11
957.9477342653
 21
764.9953749016
 31
0.0
  0
LINE
  5
409
330
1F
100
AcDbEntity
  8
0
  6
CONTINUOUS
 62
     7
100
AcDbLine
 10
957.9477342653
 20
764.9953749016
 30
0.0
 11
957.9477342653
 21
489.4953753784
 31
0.0
  0
LINE
  5
40A
330
1F
100
AcDbEntity
  8
0
  6
CONTINUOUS
 62
     7
100
AcDbLine
 10
956.4477342523
 20
764.9953749016
 30
0.0
 11
956.4477342523
 21
489.4953753784
 31
0.0
  0
LINE
  5
40B
330
1F
100
AcDbEntity
  8
0
  6
CONTINUOUS
 62
     7
100
AcDbLine
 10
956.4477342523
 20
465.4953714445
 30
0.0
 11
957.9477342653
 21
465.4953714445
 31
0.0
  0
LINE
  5
40C
330
1F
100
AcDbEntity
  8
0
  6
CONTINUOUS
 62
     7
100
AcDbLine
 10
957.9477342653
 20
465.4953714445
 30
0.0
 11
957.9477342653
 21
421.4953716829
 31
0.0
  0
LINE
  5
40D
330
1F
100
AcDbEntity
  8
0
  6
CONTINUOUS
 62
     7
100
AcDbLine
 10
956.4477342523
 20
465.4953714445
 30
0.0
 11
956.4477342523
 21
421.4953716829
 31
0.0
  0
LINE
  5
40E
330
1F
100
AcDbEntity
  8
0
  6
CONTINUOUS
 62
     7
100
AcDbLine
 10
957.9477342653
 20
788.9953788355
 30
0.0
 11
957.9477342653
 21
788.4953703716
 31
0.0
  0
LINE
  5
40F
330
1F
100
AcDbEntity
  8
0
  6
CONTINUOUS
 62
     7
100
AcDbLine
 10
956.4477342523
 20
788.9953788355
 30
0.0
 11
956.4477342523
 21
788.4953703716
 31
0.0
  0
LINE
  5
410
330
1F
100
AcDbEntity
  8
0
  6
CONTINUOUS
 62
     7
100
AcDbLine
 10
957.9477342653
 20
765.4953684643
 30
0.0
 11
957.9477342653
 21
764.9953749016
 31
0.0
  0
LINE
  5
411
330
1F
100
AcDbEntity
  8
0
  6
CONTINUOUS
 62
     7
100
AcDbLine
 10
956.4477342523
 20
765.4953684643
 30
0.0
 11
956.4477342523
 21
764.9953749016
 31
0.0
  0
LINE
  5
412
330
1F
100
AcDbEntity
  8
0
  6
CONTINUOUS
 62
     7
100
AcDbLine
 10
957.9477342653
 20
489.4953753784
 30
0.0
 11
957.9477342653
 21
488.9953818157
 31
0.0
  0
LINE
  5
413
330
1F
100
AcDbEntity
  8
0
  6
CONTINUOUS
 62
     7
100
AcDbLine
 10
956.4477342523
 20
489.4953753784
 30
0.0
 11
956.4477342523
 21
488.9953818157
 31
0.0
  0
LINE
  5
414
330
1F
100
AcDbEntity
  8
0
  6
CONTINUOUS
 62
     7
100
AcDbLine
 10
957.9477342653
 20
465.9953799083
 30
0.0
 11
957.9477342653
 21
465.4953714445
 31
0.0
  0
LINE
  5
415
330
1F
100
AcDbEntity
  8
0
  6
CONTINUOUS
 62
     7
100
AcDbLine
 10
956.4477342523
 20
465.9953799083
 30
0.0
 11
956.4477342523
 21
465.4953714445
 31
0.0
  0
LINE
  5
416
330
1F
100
AcDbEntity
  8
0
  6
CONTINUOUS
 62
     7
100
AcDbLine
 10
957.9477342653
 20
768.4953745439
 30
0.0
 11
957.9477342653
 21
785.4953791931
 31
0.0
  0
LINE
  5
417
330
1F
100
AcDbEntity
  8
0
  6
CONTINUOUS
 62
     7
100
AcDbLine
 10
956.4477342523
 20
768.4953745439
 30
0.0
 11
956.4477342523
 21
768.9953681066
 31
0.0
  0
LINE
  5
418
330
1F
100
AcDbEntity
  8
0
  6
CONTINUOUS
 62
     7
100
AcDbLine
 10
956.4477342523
 20
784.9953707292
 30
0.0
 11
956.4477342523
 21
785.4953791931
 31
0.0
  0
LINE
  5
419
330
1F
100
AcDbEntity
  8
0
  6
CONTINUOUS
 62
     7
100
AcDbLine
 10
957.9477342653
 20
468.9953710869
 30
0.0
 11
957.9477342653
 21
485.995375736
 31
0.0
  0
LINE
  5
41A
330
1F
100
AcDbEntity
  8
0
  6
CONTINUOUS
 62
     7
100
AcDbLine
 10
956.4477342523
 20
468.9953710869
 30
0.0
 11
956.4477342523
 21
469.4953795507
 31
0.0
  0
LINE
  5
41B
330
1F
100
AcDbEntity
  8
0
  6
CONTINUOUS
 62
     7
100
AcDbLine
 10
956.4477342523
 20
485.4953821733
 30
0.0
 11
956.4477342523
 21
485.995375736
 31
0.0
  0
LINE
  5
41C
330
1F
100
AcDbEntity
  8
0
  6
CONTINUOUS
 62
     7
100
AcDbLine
 10
955.4477343212
 20
421.4953716829
 30
0.0
 11
956.4477342523
 21
421.4953716829
 31
0.0
  0
LINE
  5
41D
330
1F
100
AcDbEntity
  8
0
  6
CONTINUOUS
 62
     7
100
AcDbLine
 10
956.4477342523
 20
832.995378597
 30
0.0
 11
955.4477343212
 21
832.995378597
 31
0.0
  0
LINE
  5
41E
330
1F
100
AcDbEntity
  8
0
  6
CONTINUOUS
 62
     7
100
AcDbLine
 10
948.9477346528
 20
832.995378597
 30
0.0
 11
946.947734325
 21
830.9953745439
 31
0.0
  0
LINE
  5
41F
330
1F
100
AcDbEntity
  8
0
  6
CONTINUOUS
 62
     7
100
AcDbLine
 10
955.4477343212
 20
421.4953716829
 30
0.0
 11
948.9477346528
 21
421.4953716829
 31
0.0
  0
LINE
  5
420
330
1F
100
AcDbEntity
  8
0
  6
CONTINUOUS
 62
     7
100
AcDbLine
 10
946.947734325
 20
423.495375736
 30
0.0
 11
948.9477346528
 21
421.4953716829
 31
0.0
  0
LINE
  5
421
330
1F
100
AcDbEntity
  8
0
  6
CONTINUOUS
 62
     7
100
AcDbLine
 10
946.947734325
 20
423.495375736
 30
0.0
 11
946.947734325
 21
465.9953799083
 31
0.0
  0
LINE
  5
422
330
1F
100
AcDbEntity
  8
0
  6
CONTINUOUS
 62
     7
100
AcDbLine
 10
946.947734325
 20
468.9953710869
 30
0.0
 11
946.947734325
 21
469.4953795507
 31
0.0
  0
LINE
  5
423
330
1F
100
AcDbEntity
  8
0
  6
CONTINUOUS
 62
     7
100
AcDbLine
 10
946.947734325
 20
485.4953821733
 30
0.0
 11
946.947734325
 21
485.995375736
 31
0.0
  0
LINE
  5
424
330
1F
100
AcDbEntity
  8
0
  6
CONTINUOUS
 62
     7
100
AcDbLine
 10
946.947734325
 20
488.9953818157
 30
0.0
 11
946.947734325
 21
765.4953684643
 31
0.0
  0
LINE
  5
425
330
1F
100
AcDbEntity
  8
0
  6
CONTINUOUS
 62
     7
100
AcDbLine
 10
946.947734325
 20
768.4953745439
 30
0.0
 11
946.947734325
 21
768.9953681066
 31
0.0
  0
LINE
  5
426
330
1F
100
AcDbEntity
  8
0
  6
CONTINUOUS
 62
     7
100
AcDbLine
 10
946.947734325
 20
784.9953707292
 30
0.0
 11
946.947734325
 21
785.4953791931
 31
0.0
  0
LINE
  5
427
330
1F
100
AcDbEntity
  8
0
  6
CONTINUOUS
 62
     7
100
AcDbLine
 10
946.947734325
 20
788.4953703716
 30
0.0
 11
946.947734325
 21
830.9953745439
 31
0.0
  0
LINE
  5
428
330
1F
100
AcDbEntity
  8
0
  6
CONTINUOUS
 62
     7
100
AcDbLine
 10
948.9477346528
 20
832.995378597
 30
0.0
 11
955.4477343212
 21
832.995378597
 31
0.0
  0
LINE
  5
429
330
1F
100
AcDbEntity
  8
0
  6
CONTINUOUS
 62
     7
100
AcDbLine
 10
954.4477341573
 20
419.4524820879
 30
0.0
 11
945.947734161
 21
419.4524820879
 31
0.0
  0
LINE
  5
42A
330
1F
100
AcDbEntity
  8
0
  6
CONTINUOUS
 62
     7
100
AcDbLine
 10
945.947734161
 20
419.4524820879
 30
0.0
 11
945.947734161
 21
465.9953799083
 31
0.0
  0
LINE
  5
42B
330
1F
100
AcDbEntity
  8
0
  6
CONTINUOUS
 62
     7
100
AcDbLine
 10
945.947734161
 20
468.9953710869
 30
0.0
 11
945.947734161
 21
469.4953795507
 31
0.0
  0
LINE
  5
42C
330
1F
100
AcDbEntity
  8
0
  6
CONTINUOUS
 62
     7
100
AcDbLine
 10
945.947734161
 20
485.4953821733
 30
0.0
 11
945.947734161
 21
485.995375736
 31
0.0
  0
LINE
  5
42D
330
1F
100
AcDbEntity
  8
0
  6
CONTINUOUS
 62
     7
100
AcDbLine
 10
945.947734161
 20
488.9953818157
 30
0.0
 11
945.947734161
 21
765.4953684643
 31
0.0
  0
LINE
  5
42E
330
1F
100
AcDbEntity
  8
0
  6
CONTINUOUS
 62
     7
100
AcDbLine
 10
945.947734161
 20
768.4953745439
 30
0.0
 11
945.947734161
 21
768.9953681066
 31
0.0
  0
LINE
  5
42F
330
1F
100
AcDbEntity
  8
0
  6
CONTINUOUS
 62
     7
100
AcDbLine
 10
945.947734161
 20
784.9953707292
 30
0.0
 11
945.947734161
 21
785.4953791931
 31
0.0
  0
LINE
  5
430
330
1F
100
AcDbEntity
  8
0
  6
CONTINUOUS
 62
     7
100
AcDbLine
 10
945.947734161
 20
788.4953703716
 30
0.0
 11
945.947734161
 21
835.0382681921
 31
0.0
  0
LINE
  5
431
330
1F
100
AcDbEntity
  8
0
  6
CONTINUOUS
 62
     7
100
AcDbLine
 10
954.4477341573
 20
835.0382681921
 30
0.0
 11
945.947734161
 21
835.0382681921
 31
0.0
  0
ARC
  5
432
330
1F
100
AcDbEntity
  8
0
  6
CONTINUOUS
 62
     7
100
AcDbCircle
 10
948.3745644176
 20
465.5861090473
 30
0.0
 40
46.5316551083039
100
AcDbArc
 50
277.4994659361
 51
279.9912887589
  0
LWPOLYLINE
  5
433
330
1F
100
AcDbEntity
  8
0
  6
CONTINUOUS
 62
     7
100
AcDbPolyline
 90
        3
 70
   128
 43
0.0
 10
954.4477341573
 20
835.0382681921
 10
955.4456549108
 20
834.8923262193
 10
956.4477342523
 20
834.7302909925
  0
ARC
  5
434
330
1F
100
AcDbEntity
  8
0
  6
CONTINUOUS
 62
     7
100
AcDbCircle
 10
954.4598694647
 20
834.2821784946
 30
0.0
 40
1.463244822072039
100
AcDbArc
 50
22.092027878
 51
90.4751835492
  0
LINE
  5
435
330
1F
100
AcDbEntity
  8
0
  6
CONTINUOUS
 62
     7
100
AcDbLine
 10
954.4477341573
 20
837.7453770473
 30
0.0
 11
954.4477341573
 21
835.7453729942
 31
0.0
  0
ARC
  5
436
330
1F
100
AcDbEntity
  8
0
  6
CONTINUOUS
 62
     7
100
AcDbCircle
 10
954.6391019125
 20
834.8790592316
 30
0.0
 40
2.872698981554871
100
AcDbArc
 50
50.9798687731
 51
93.819645072
  0
LINE
  5
437
330
1F
100
AcDbEntity
  8
0
  6
CONTINUOUS
 62
     7
100
AcDbLine
 10
954.4477341573
 20
416.7453732326
 30
0.0
 11
954.4477341573
 21
418.7453772857
 31
0.0
  0
ARC
  5
438
330
1F
100
AcDbEntity
  8
0
  6
CONTINUOUS
 62
     7
100
AcDbCircle
 10
954.5092869479
 20
420.1233707443
 30
0.0
 40
1.379367506494366
100
AcDbArc
 50
267.4423881937
 51
340.2412050414
  0
LWPOLYLINE
  5
439
330
1F
100
AcDbEntity
  8
0
  6
CONTINUOUS
 62
     7
100
AcDbPolyline
 90
        3
 70
   128
 43
0.0
 10
954.4477341573
 20
416.7453732326
 10
955.4456549108
 20
416.8906595543
 10
956.4477342523
 20
417.3866000011
  0
LINE
  5
43A
330
1F
100
AcDbEntity
  8
0
  6
CONTINUOUS
 62
     7
100
AcDbLine
 10
954.4477341573
 20
835.7453729942
 30
0.0
 11
945.947734161
 21
835.7453729942
 31
0.0
  0
LINE
  5
43B
330
1F
100
AcDbEntity
  8
0
  6
CONTINUOUS
 62
     7
100
AcDbLine
 10
945.947734161
 20
835.7453729942
 30
0.0
 11
945.947734161
 21
837.7453770473
 31
0.0
  0
LINE
  5
43C
330
1F
100
AcDbEntity
  8
0
  6
CONTINUOUS
 62
     7
100
AcDbLine
 10
945.947734161
 20
837.7453770473
 30
0.0
 11
954.4477341573
 21
837.7453770473
 31
0.0
  0
LINE
  5
43D
330
1F
100
AcDbEntity
  8
0
  6
CONTINUOUS
 62
     7
100
AcDbLine
 10
954.4477341573
 20
416.7453732326
 30
0.0
 11
945.947734161
 21
416.7453732326
 31
0.0
  0
LINE
  5
43E
330
1F
100
AcDbEntity
  8
0
  6
CONTINUOUS
 62
     7
100
AcDbLine
 10
945.947734161
 20
418.7453772857
 30
0.0
 11
945.947734161
 21
416.7453732326
 31
0.0
  0
LINE
  5
43F
330
1F
100
AcDbEntity
  8
0
  6
CONTINUOUS
 62
     7
100
AcDbLine
 10
954.4477341573
 20
418.7453772857
 30
0.0
 11
945.947734161
 21
418.7453772857
 31
0.0
  0
LINE
  5
440
330
1F
100
AcDbEntity
  8
0
  6
CONTINUOUS
 62
     7
100
AcDbLine
 10
941.647734015
 20
630.0154525771
 30
0.0
 11
941.647734015
 21
621.0953753426
 31
0.0
  0
LINE
  5
441
330
1F
100
AcDbEntity
  8
0
  6
CONTINUOUS
 62
     7
100
AcDbLine
 10
941.647734015
 20
630.0154525771
 30
0.0
 11
942.3477346885
 21
630.0154525771
 31
0.0
  0
LINE
  5
442
330
1F
100
AcDbEntity
  8
0
  6
CONTINUOUS
 62
     7
100
AcDbLine
 10
942.3477346885
 20
630.0154525771
 30
0.0
 11
942.3477346885
 21
621.0953753426
 31
0.0
  0
LINE
  5
443
330
1F
100
AcDbEntity
  8
0
  6
CONTINUOUS
 62
     7
100
AcDbLine
 10
941.647734015
 20
630.3892498355
 30
0.0
 11
942.3477346885
 21
630.3892498355
 31
0.0
  0
LINE
  5
444
330
1F
100
AcDbEntity
  8
0
  6
CONTINUOUS
 62
     7
100
AcDbLine
 10
942.3477346885
 20
630.3892498355
 30
0.0
 11
942.3477346885
 21
630.2453751661
 31
0.0
  0
LINE
  5
445
330
1F
100
AcDbEntity
  8
0
  6
CONTINUOUS
 62
     7
100
AcDbLine
 10
941.647734015
 20
630.3892498355
 30
0.0
 11
941.647734015
 21
630.2453751661
 31
0.0
  0
LINE
  5
446
330
1F
100
AcDbEntity
  8
0
  6
CONTINUOUS
 62
     7
100
AcDbLine
 10
942.4477345187
 20
633.7414683759
 30
0.0
 11
942.4477345187
 21
620.7453750059
 31
0.0
  0
LINE
  5
447
330
1F
100
AcDbEntity
  8
0
  6
CONTINUOUS
 62
     7
100
AcDbLine
 10
942.4477345187
 20
633.7414683759
 30
0.0
 11
944.4477339152
 21
633.7414683759
 31
0.0
  0
LINE
  5
448
330
1F
100
AcDbEntity
  8
0
  6
CONTINUOUS
 62
     7
100
AcDbLine
 10
944.4477339152
 20
633.7414683759
 30
0.0
 11
944.4477339152
 21
620.7453750059
 31
0.0
  0
LINE
  5
449
330
1F
100
AcDbEntity
  8
0
  6
CONTINUOUS
 62
     7
100
AcDbLine
 10
942.4477345187
 20
634.5423447884
 30
0.0
 11
944.4477339152
 21
634.5423447884
 31
0.0
  0
LINE
  5
44A
330
1F
100
AcDbEntity
  8
0
  6
CONTINUOUS
 62
     7
100
AcDbLine
 10
944.4477339152
 20
634.443009457
 30
0.0
 11
944.4477339152
 21
633.7414683759
 31
0.0
  0
LINE
  5
44B
330
1F
100
AcDbEntity
  8
0
  6
CONTINUOUS
 62
     7
100
AcDbLine
 10
942.4477345187
 20
634.5423447884
 30
0.0
 11
942.4477345187
 21
633.7414683759
 31
0.0
  0
LINE
  5
44C
330
1F
100
AcDbEntity
  8
0
  6
CONTINUOUS
 62
     7
100
AcDbLine
 10
961.2477342475
 20
620.6453751757
 30
0.0
 11
961.2477342475
 21
633.8453751042
 31
0.0
  0
LINE
  5
44D
330
1F
100
AcDbEntity
  8
0
  6
CONTINUOUS
 62
     7
100
AcDbLine
 10
941.4477343548
 20
627.1240461602
 30
0.0
 11
941.4477343548
 21
623.7453750319
 31
0.0
  0
LINE
  5
44E
330
1F
100
AcDbEntity
  8
0
  6
CONTINUOUS
 62
     7
100
AcDbLine
 10
941.4477343548
 20
630.745375248
 30
0.0
 11
941.4477343548
 21
627.1240461602
 31
0.0
  0
LINE
  5
44F
330
1F
100
AcDbEntity
  8
0
  6
CONTINUOUS
 62
     7
100
AcDbLine
 10
940.4477341908
 20
630.745375248
 30
0.0
 11
940.4477341908
 21
623.7453750319
 31
0.0
  0
LINE
  5
450
330
1F
100
AcDbEntity
  8
0
  6
CONTINUOUS
 62
     7
100
AcDbLine
 10
958.9477343128
 20
619.2022414863
 30
0.0
 11
958.9477343128
 21
616.2453751996
 31
0.0
  0
LINE
  5
451
330
1F
100
AcDbEntity
  8
0
  6
CONTINUOUS
 62
     7
100
AcDbLine
 10
958.9477343128
 20
638.2453750804
 30
0.0
 11
958.9477343128
 21
619.2022414863
 31
0.0
  0
LINE
  5
452
330
1F
100
AcDbEntity
  8
0
  6
CONTINUOUS
 62
     7
100
AcDbLine
 10
960.9477342914
 20
636.2453747525
 30
0.0
 11
960.9477342914
 21
618.2453755274
 31
0.0
  0
LINE
  5
453
330
1F
100
AcDbEntity
  8
0
  6
CONTINUOUS
 62
     7
100
AcDbLine
 10
944.4477339152
 20
622.4926148526
 30
0.0
 11
944.4477339152
 21
633.7414683759
 31
0.0
  0
LINE
  5
454
330
1F
100
AcDbEntity
  8
0
  6
CONTINUOUS
 62
     7
100
AcDbLine
 10
944.4477339152
 20
620.7453754715
 30
0.0
 11
944.4477339152
 21
622.4926148526
 31
0.0
  0
LINE
  5
455
330
1F
100
AcDbEntity
  8
0
  6
CONTINUOUS
 62
     8
100
AcDbLine
 10
955.4477343212
 20
832.995378597
 30
0.0
 11
955.4477343212
 21
788.4953703716
 31
0.0
  0
LINE
  5
456
330
1F
100
AcDbEntity
  8
0
  6
CONTINUOUS
 62
     8
100
AcDbLine
 10
955.4477343212
 20
785.4953791931
 30
0.0
 11
955.4477343212
 21
784.9953707292
 31
0.0
  0
LINE
  5
457
330
1F
100
AcDbEntity
  8
0
  6
CONTINUOUS
 62
     8
100
AcDbLine
 10
955.4477343212
 20
768.9953681066
 30
0.0
 11
955.4477343212
 21
768.4953745439
 31
0.0
  0
LINE
  5
458
330
1F
100
AcDbEntity
  8
0
  6
CONTINUOUS
 62
     8
100
AcDbLine
 10
955.4477343212
 20
765.4953684643
 30
0.0
 11
955.4477343212
 21
488.9953818157
 31
0.0
  0
LINE
  5
459
330
1F
100
AcDbEntity
  8
0
  6
CONTINUOUS
 62
     8
100
AcDbLine
 10
955.4477343212
 20
485.995375736
 30
0.0
 11
955.4477343212
 21
485.4953821733
 31
0.0
  0
LINE
  5
45A
330
1F
100
AcDbEntity
  8
0
  6
CONTINUOUS
 62
     8
100
AcDbLine
 10
955.4477343212
 20
469.4953795507
 30
0.0
 11
955.4477343212
 21
468.9953710869
 31
0.0
  0
LINE
  5
45B
330
1F
100
AcDbEntity
  8
0
  6
CONTINUOUS
 62
     8
100
AcDbLine
 10
955.4477343212
 20
465.9953799083
 30
0.0
 11
955.4477343212
 21
421.4953716829
 31
0.0
  0
LINE
  5
45C
330
1F
100
AcDbEntity
  8
0
  6
CONTINUOUS
 62
     8
100
AcDbLine
 10
954.4477341573
 20
835.0382681921
 30
0.0
 11
954.4477341573
 21
832.995378597
 31
0.0
  0
LINE
  5
45D
330
1F
100
AcDbEntity
  8
0
  6
CONTINUOUS
 62
     8
100
AcDbLine
 10
954.4477341573
 20
421.4953716829
 30
0.0
 11
954.4477341573
 21
419.4524820879
 31
0.0
  0
LINE
  5
45E
330
1F
100
AcDbEntity
  8
0
  6
CONTINUOUS
 62
     8
100
AcDbLine
 10
960.9977342065
 20
634.0953751452
 30
0.0
 11
960.9977342065
 21
620.3953751348
 31
0.0
  0
LINE
  5
45F
330
1F
100
AcDbEntity
  8
0
  6
CONTINUOUS
 62
     8
100
AcDbLine
 10
944.9477339971
 20
620.2453749239
 30
0.0
 11
944.9477339971
 21
634.245375356
 31
0.0
  0
LINE
  5
460
330
1F
100
AcDbEntity
  8
0
  6
CONTINUOUS
 62
     7
100
AcDbLine
 10
1289.4611871601
 20
412.495368345
 30
0.0
 11
1289.4611871601
 21
414.995380862
 31
0.0
  0
LINE
  5
461
330
1F
100
AcDbEntity
  8
0
  6
CONTINUOUS
 62
     7
100
AcDbLine
 10
1571.9611859681
 20
414.995380862
 30
0.0
 11
1289.4611871601
 21
414.995380862
 31
0.0
  0
LINE
  5
462
330
1F
100
AcDbEntity
  8
0
  6
CONTINUOUS
 62
     7
100
AcDbLine
 10
1571.9611859681
 20
414.995380862
 30
0.0
 11
1571.9611859681
 21
412.495368345
 31
0.0
  0
LINE
  5
463
330
1F
100
AcDbEntity
  8
0
  6
CONTINUOUS
 62
     7
100
AcDbLine
 10
1571.9611859681
 20
412.495368345
 30
0.0
 11
1289.4611871601
 21
412.495368345
 31
0.0
  0
LINE
  5
464
330
1F
100
AcDbEntity
  8
0
  6
CONTINUOUS
 62
     7
100
AcDbLine
 10
1289.4611871601
 20
415.9953679874
 30
0.0
 11
1289.4611871601
 21
414.995380862
 31
0.0
  0
ARC
  5
465
330
1F
100
AcDbEntity
  8
0
  6
CONTINUOUS
 62
     7
100
AcDbCircle
 10
1292.4611918093
 20
415.99537514
 30
0.0
 40
3.0
100
AcDbArc
 50
90.0
 51
180.0
  0
LINE
  5
466
330
1F
100
AcDbEntity
  8
0
  6
CONTINUOUS
 62
     7
100
AcDbLine
 10
1568.9611947895
 20
418.9953740671
 30
0.0
 11
1292.4611932398
 21
418.9953740671
 31
0.0
  0
ARC
  5
467
330
1F
100
AcDbEntity
  8
0
  6
CONTINUOUS
 62
     7
100
AcDbCircle
 10
1568.9611918093
 20
415.99537514
 30
0.0
 40
3.0
100
AcDbArc
 50
0.0
 51
90.0
  0
LINE
  5
468
330
1F
100
AcDbEntity
  8
0
  6
CONTINUOUS
 62
     7
100
AcDbLine
 10
1571.9611859681
 20
414.995380862
 30
0.0
 11
1571.9611859681
 21
415.9953679874
 31
0.0
  0
LINE
  5
469
330
1F
100
AcDbEntity
  8
0
  6
CONTINUOUS
 62
     7
100
AcDbLine
 10
1279.4611966969
 20
413.9953788355
 30
0.0
 11
1279.4611966969
 21
412.495368345
 31
0.0
  0
LINE
  5
46A
330
1F
100
AcDbEntity
  8
0
  6
CONTINUOUS
 62
     7
100
AcDbLine
 10
1279.4611966969
 20
413.9953788355
 30
0.0
 11
1289.4611871601
 21
413.9953788355
 31
0.0
  0
LINE
  5
46B
330
1F
100
AcDbEntity
  8
0
  6
CONTINUOUS
 62
     7
100
AcDbLine
 10
1279.4611966969
 20
412.495368345
 30
0.0
 11
1289.4611871601
 21
412.495368345
 31
0.0
  0
LINE
  5
46C
330
1F
100
AcDbEntity
  8
0
  6
CONTINUOUS
 62
     7
100
AcDbLine
 10
1581.9611913325
 20
412.495368345
 30
0.0
 11
1581.9611913325
 21
413.9953788355
 31
0.0
  0
LINE
  5
46D
330
1F
100
AcDbEntity
  8
0
  6
CONTINUOUS
 62
     7
100
AcDbLine
 10
1571.9611859681
 20
413.9953788355
 30
0.0
 11
1581.9611913325
 21
413.9953788355
 31
0.0
  0
LINE
  5
46E
330
1F
100
AcDbEntity
  8
0
  6
CONTINUOUS
 62
     7
100
AcDbLine
 10
1571.9611859681
 20
412.495368345
 30
0.0
 11
1581.9611913325
 21
412.495368345
 31
0.0
  0
LINE
  5
46F
330
1F
100
AcDbEntity
  8
0
  6
CONTINUOUS
 62
     7
100
AcDbLine
 10
1277.4611926438
 20
412.495368345
 30
0.0
 11
1277.4611926438
 21
413.9953788355
 31
0.0
  0
LINE
  5
470
330
1F
100
AcDbEntity
  8
0
  6
CONTINUOUS
 62
     7
100
AcDbLine
 10
1277.4611926438
 20
413.9953788355
 30
0.0
 11
1279.4611966969
 21
413.9953788355
 31
0.0
  0
LINE
  5
471
330
1F
100
AcDbEntity
  8
0
  6
CONTINUOUS
 62
     7
100
AcDbLine
 10
1279.4611966969
 20
412.495368345
 30
0.0
 11
1277.4611926438
 21
412.495368345
 31
0.0
  0
LINE
  5
472
330
1F
100
AcDbEntity
  8
0
  6
CONTINUOUS
 62
     7
100
AcDbLine
 10
1583.9611953856
 20
413.9953788355
 30
0.0
 11
1583.9611953856
 21
412.495368345
 31
0.0
  0
LINE
  5
473
330
1F
100
AcDbEntity
  8
0
  6
CONTINUOUS
 62
     7
100
AcDbLine
 10
1581.9611913325
 20
413.9953788355
 30
0.0
 11
1583.9611953856
 21
413.9953788355
 31
0.0
  0
LINE
  5
474
330
1F
100
AcDbEntity
  8
0
  6
CONTINUOUS
 62
     7
100
AcDbLine
 10
1583.9611953856
 20
412.495368345
 30
0.0
 11
1581.9611913325
 21
412.495368345
 31
0.0
  0
LINE
  5
475
330
1F
100
AcDbEntity
  8
0
  6
CONTINUOUS
 62
     7
100
AcDbLine
 10
1583.9611953856
 20
411.4953812197
 30
0.0
 11
1583.9611953856
 21
412.495368345
 31
0.0
  0
LINE
  5
476
330
1F
100
AcDbEntity
  8
0
  6
CONTINUOUS
 62
     7
100
AcDbLine
 10
1277.4611926438
 20
411.4953812197
 30
0.0
 11
1583.9611953856
 21
411.4953812197
 31
0.0
  0
LINE
  5
477
330
1F
100
AcDbEntity
  8
0
  6
CONTINUOUS
 62
     7
100
AcDbLine
 10
1277.4611926438
 20
412.495368345
 30
0.0
 11
1277.4611926438
 21
411.4953812197
 31
0.0
  0
LINE
  5
478
330
1F
100
AcDbEntity
  8
0
  6
CONTINUOUS
 62
     7
100
AcDbLine
 10
1277.4611926438
 20
410.7453759744
 30
0.0
 11
1277.4611926438
 21
411.4953812197
 31
0.0
  0
LINE
  5
479
330
1F
100
AcDbEntity
  8
0
  6
CONTINUOUS
 62
     7
100
AcDbLine
 10
1583.9611953856
 20
411.4953812197
 30
0.0
 11
1583.9611953856
 21
410.7453759744
 31
0.0
  0
LINE
  5
47A
330
1F
100
AcDbEntity
  8
0
  6
CONTINUOUS
 62
     7
100
AcDbLine
 10
1583.9611953856
 20
410.7453759744
 30
0.0
 11
1584.7111857296
 21
410.7453759744
 31
0.0
  0
LINE
  5
47B
330
1F
100
AcDbEntity
  8
0
  6
CONTINUOUS
 62
     7
100
AcDbLine
 10
1584.7111857296
 20
410.7453759744
 30
0.0
 11
1584.7111857296
 21
413.9953788355
 31
0.0
  0
LINE
  5
47C
330
1F
100
AcDbEntity
  8
0
  6
CONTINUOUS
 62
     7
100
AcDbLine
 10
1584.7111857296
 20
413.9953788355
 30
0.0
 11
1586.4611930014
 21
413.9953788355
 31
0.0
  0
ARC
  5
47D
330
1F
100
AcDbEntity
  8
0
  6
CONTINUOUS
 62
     7
100
AcDbCircle
 10
1586.4611918093
 20
418.99537514
 30
0.0
 40
5.000000000000227
100
AcDbArc
 50
270.0
 51
0.0
  0
LINE
  5
47E
330
1F
100
AcDbEntity
  8
0
  6
CONTINUOUS
 62
     7
100
AcDbLine
 10
1591.461188233
 20
418.9953740671
 30
0.0
 11
1591.461188233
 21
421.4953716829
 31
0.0
  0
LINE
  5
47F
330
1F
100
AcDbEntity
  8
0
  6
CONTINUOUS
 62
     7
100
AcDbLine
 10
1593.9611858488
 20
421.4953716829
 30
0.0
 11
1596.2111866833
 21
421.4953716829
 31
0.0
  0
LINE
  5
480
330
1F
100
AcDbEntity
  8
0
  6
CONTINUOUS
 62
     7
100
AcDbLine
 10
1596.2111866833
 20
421.4953716829
 30
0.0
 11
1599.211192763
 21
424.4953777626
 31
0.0
  0
LINE
  5
481
330
1F
100
AcDbEntity
  8
0
  6
CONTINUOUS
 62
     7
100
AcDbLine
 10
1599.211192763
 20
424.4953777626
 30
0.0
 11
1603.2111859681
 21
424.4953777626
 31
0.0
  0
LINE
  5
482
330
1F
100
AcDbEntity
  8
0
  6
CONTINUOUS
 62
     7
100
AcDbLine
 10
1603.2111859681
 20
424.4953777626
 30
0.0
 11
1606.2111920477
 21
421.4953716829
 31
0.0
  0
LINE
  5
483
330
1F
100
AcDbEntity
  8
0
  6
CONTINUOUS
 62
     7
100
AcDbLine
 10
1606.2111920477
 20
421.4953716829
 30
0.0
 11
1610.961190498
 21
421.4953716829
 31
0.0
  0
LINE
  5
484
330
1F
100
AcDbEntity
  8
0
  6
CONTINUOUS
 62
     7
100
AcDbLine
 10
1610.961190498
 20
421.4953716829
 30
0.0
 11
1610.961190498
 21
419.9953760937
 31
0.0
  0
ARC
  5
485
330
1F
100
AcDbEntity
  8
0
  6
CONTINUOUS
 62
     7
100
AcDbCircle
 10
1602.9611918093
 20
419.99537514
 30
0.0
 40
8.0
100
AcDbArc
 50
315.0
 51
0.0
  0
LINE
  5
486
330
1F
100
AcDbEntity
  8
0
  6
CONTINUOUS
 62
     7
100
AcDbLine
 10
1608.6180425049
 20
414.3385227754
 30
0.0
 11
1593.1180483462
 21
398.8385137155
 31
0.0
  0
ARC
  5
487
330
1F
100
AcDbEntity
  8
0
  6
CONTINUOUS
 62
     7
100
AcDbCircle
 10
1587.4611918093
 20
404.49537514
 30
0.0
 40
7.999999999999943
100
AcDbArc
 50
270.0
 51
315.0
  0
LINE
  5
488
330
1F
100
AcDbEntity
  8
0
  6
CONTINUOUS
 62
     7
100
AcDbLine
 10
1587.461195028
 20
396.4953806236
 30
0.0
 11
1273.9611930014
 21
396.4953806236
 31
0.0
  0
ARC
  5
489
330
1F
100
AcDbEntity
  8
0
  6
CONTINUOUS
 62
     7
100
AcDbCircle
 10
1273.9611918093
 20
404.49537514
 30
0.0
 40
8.000000000000064
100
AcDbArc
 50
225.0
 51
270.0
  0
LINE
  5
48A
330
1F
100
AcDbEntity
  8
0
  6
CONTINUOUS
 62
     7
100
AcDbLine
 10
1268.3043396832
 20
398.8385137155
 30
0.0
 11
1252.8043306233
 21
414.3385227754
 31
0.0
  0
ARC
  5
48B
330
1F
100
AcDbEntity
  8
0
  6
CONTINUOUS
 62
     7
100
AcDbCircle
 10
1258.4611918093
 20
419.99537514
 30
0.0
 40
8.000000000000064
100
AcDbArc
 50
180.0
 51
225.0
  0
LINE
  5
48C
330
1F
100
AcDbEntity
  8
0
  6
CONTINUOUS
 62
     7
100
AcDbLine
 10
1250.4611975314
 20
419.9953760937
 30
0.0
 11
1250.4611975314
 21
421.4953716829
 31
0.0
  0
LINE
  5
48D
330
1F
100
AcDbEntity
  8
0
  6
CONTINUOUS
 62
     7
100
AcDbLine
 10
1250.4611975314
 20
421.4953716829
 30
0.0
 11
1255.2111959816
 21
421.4953716829
 31
0.0
  0
LINE
  5
48E
330
1F
100
AcDbEntity
  8
0
  6
CONTINUOUS
 62
     7
100
AcDbLine
 10
1255.2111959816
 20
421.4953716829
 30
0.0
 11
1258.2111871601
 21
424.4953777626
 31
0.0
  0
LINE
  5
48F
330
1F
100
AcDbEntity
  8
0
  6
CONTINUOUS
 62
     7
100
AcDbLine
 10
1258.2111871601
 20
424.4953777626
 30
0.0
 11
1262.2111952664
 21
424.4953777626
 31
0.0
  0
LINE
  5
490
330
1F
100
AcDbEntity
  8
0
  6
CONTINUOUS
 62
     7
100
AcDbLine
 10
1262.2111952664
 20
424.4953777626
 30
0.0
 11
1265.2111864449
 21
421.4953716829
 31
0.0
  0
LINE
  5
491
330
1F
100
AcDbEntity
  8
0
  6
CONTINUOUS
 62
     7
100
AcDbLine
 10
1265.2111864449
 20
421.4953716829
 30
0.0
 11
1267.4611872794
 21
421.4953716829
 31
0.0
  0
LINE
  5
492
330
1F
100
AcDbEntity
  8
0
  6
CONTINUOUS
 62
     7
100
AcDbLine
 10
1269.9611848952
 20
421.4953716829
 30
0.0
 11
1269.9611848952
 21
418.9953740671
 31
0.0
  0
ARC
  5
493
330
1F
100
AcDbEntity
  8
0
  6
CONTINUOUS
 62
     7
100
AcDbCircle
 10
1274.9611918093
 20
418.99537514
 30
0.0
 40
5.000000000000227
100
AcDbArc
 50
180.0
 51
270.0
  0
LINE
  5
494
330
1F
100
AcDbEntity
  8
0
  6
CONTINUOUS
 62
     7
100
AcDbLine
 10
1274.961195028
 20
413.9953788355
 30
0.0
 11
1276.7111873986
 21
413.9953788355
 31
0.0
  0
LINE
  5
495
330
1F
100
AcDbEntity
  8
0
  6
CONTINUOUS
 62
     7
100
AcDbLine
 10
1276.7111873986
 20
413.9953788355
 30
0.0
 11
1276.7111873986
 21
410.7453759744
 31
0.0
  0
LINE
  5
496
330
1F
100
AcDbEntity
  8
0
  6
CONTINUOUS
 62
     7
100
AcDbLine
 10
1276.7111873986
 20
410.7453759744
 30
0.0
 11
1277.4611926438
 21
410.7453759744
 31
0.0
  0
LINE
  5
497
330
1F
100
AcDbEntity
  8
0
  6
CONTINUOUS
 62
     7
100
AcDbLine
 10
1277.4611926438
 20
840.4953714445
 30
0.0
 11
1277.4611926438
 21
841.9953819349
 31
0.0
  0
LINE
  5
498
330
1F
100
AcDbEntity
  8
0
  6
CONTINUOUS
 62
     7
100
AcDbLine
 10
1277.4611926438
 20
841.9953819349
 30
0.0
 11
1279.4611966969
 21
841.9953819349
 31
0.0
  0
LINE
  5
499
330
1F
100
AcDbEntity
  8
0
  6
CONTINUOUS
 62
     7
100
AcDbLine
 10
1279.4611966969
 20
841.9953819349
 30
0.0
 11
1279.4611966969
 21
840.4953714445
 31
0.0
  0
LINE
  5
49A
330
1F
100
AcDbEntity
  8
0
  6
CONTINUOUS
 62
     7
100
AcDbLine
 10
1279.4611966969
 20
840.4953714445
 30
0.0
 11
1277.4611926438
 21
840.4953714445
 31
0.0
  0
LINE
  5
49B
330
1F
100
AcDbEntity
  8
0
  6
CONTINUOUS
 62
     7
100
AcDbLine
 10
1581.9611913325
 20
840.4953714445
 30
0.0
 11
1581.9611913325
 21
841.9953819349
 31
0.0
  0
LINE
  5
49C
330
1F
100
AcDbEntity
  8
0
  6
CONTINUOUS
 62
     7
100
AcDbLine
 10
1581.9611913325
 20
840.4953714445
 30
0.0
 11
1279.4611966969
 21
840.4953714445
 31
0.0
  0
LINE
  5
49D
330
1F
100
AcDbEntity
  8
0
  6
CONTINUOUS
 62
     7
100
AcDbLine
 10
1581.9611913325
 20
841.9953819349
 30
0.0
 11
1279.4611966969
 21
841.9953819349
 31
0.0
  0
LINE
  5
49E
330
1F
100
AcDbEntity
  8
0
  6
CONTINUOUS
 62
     7
100
AcDbLine
 10
1583.9611953856
 20
841.9953819349
 30
0.0
 11
1583.9611953856
 21
840.4953714445
 31
0.0
  0
LINE
  5
49F
330
1F
100
AcDbEntity
  8
0
  6
CONTINUOUS
 62
     7
100
AcDbLine
 10
1583.9611953856
 20
840.4953714445
 30
0.0
 11
1581.9611913325
 21
840.4953714445
 31
0.0
  0
LINE
  5
4A0
330
1F
100
AcDbEntity
  8
0
  6
CONTINUOUS
 62
     7
100
AcDbLine
 10
1581.9611913325
 20
841.9953819349
 30
0.0
 11
1583.9611953856
 21
841.9953819349
 31
0.0
  0
LINE
  5
4A1
330
1F
100
AcDbEntity
  8
0
  6
CONTINUOUS
 62
     7
100
AcDbLine
 10
1583.9611953856
 20
841.9953819349
 30
0.0
 11
1583.9611953856
 21
842.9953690603
 31
0.0
  0
LINE
  5
4A2
330
1F
100
AcDbEntity
  8
0
  6
CONTINUOUS
 62
     7
100
AcDbLine
 10
1583.9611953856
 20
842.9953690603
 30
0.0
 11
1277.4611926438
 21
842.9953690603
 31
0.0
  0
LINE
  5
4A3
330
1F
100
AcDbEntity
  8
0
  6
CONTINUOUS
 62
     7
100
AcDbLine
 10
1277.4611926438
 20
842.9953690603
 30
0.0
 11
1277.4611926438
 21
841.9953819349
 31
0.0
  0
LINE
  5
4A4
330
1F
100
AcDbEntity
  8
0
  6
CONTINUOUS
 62
     7
100
AcDbLine
 10
1583.9611953856
 20
843.7453743055
 30
0.0
 11
1583.9611953856
 21
842.9953690603
 31
0.0
  0
LINE
  5
4A5
330
1F
100
AcDbEntity
  8
0
  6
CONTINUOUS
 62
     7
100
AcDbLine
 10
1277.4611926438
 20
842.9953690603
 30
0.0
 11
1277.4611926438
 21
843.7453743055
 31
0.0
  0
LINE
  5
4A6
330
1F
100
AcDbEntity
  8
0
  6
CONTINUOUS
 62
     7
100
AcDbLine
 10
1277.4611926438
 20
843.7453743055
 30
0.0
 11
1276.7111873986
 21
843.7453743055
 31
0.0
  0
LINE
  5
4A7
330
1F
100
AcDbEntity
  8
0
  6
CONTINUOUS
 62
     7
100
AcDbLine
 10
1276.7111873986
 20
843.7453743055
 30
0.0
 11
1276.7111873986
 21
840.4953714445
 31
0.0
  0
LINE
  5
4A8
330
1F
100
AcDbEntity
  8
0
  6
CONTINUOUS
 62
     7
100
AcDbLine
 10
1276.7111873986
 20
840.4953714445
 30
0.0
 11
1274.961195028
 21
840.4953714445
 31
0.0
  0
ARC
  5
4A9
330
1F
100
AcDbEntity
  8
0
  6
CONTINUOUS
 62
     7
100
AcDbCircle
 10
1274.9611918093
 20
835.49537514
 30
0.0
 40
5.000000000000114
100
AcDbArc
 50
90.0
 51
180.0
  0
LINE
  5
4AA
330
1F
100
AcDbEntity
  8
0
  6
CONTINUOUS
 62
     7
100
AcDbLine
 10
1269.9611848952
 20
835.4953762129
 30
0.0
 11
1269.9611848952
 21
832.995378597
 31
0.0
  0
LINE
  5
4AB
330
1F
100
AcDbEntity
  8
0
  6
CONTINUOUS
 62
     7
100
AcDbLine
 10
1267.4611872794
 20
832.995378597
 30
0.0
 11
1265.2111864449
 21
832.995378597
 31
0.0
  0
LINE
  5
4AC
330
1F
100
AcDbEntity
  8
0
  6
CONTINUOUS
 62
     7
100
AcDbLine
 10
1265.2111864449
 20
832.995378597
 30
0.0
 11
1262.2111952664
 21
829.9953725174
 31
0.0
  0
LINE
  5
4AD
330
1F
100
AcDbEntity
  8
0
  6
CONTINUOUS
 62
     7
100
AcDbLine
 10
1262.2111952664
 20
829.9953725174
 30
0.0
 11
1258.2111871601
 21
829.9953725174
 31
0.0
  0
LINE
  5
4AE
330
1F
100
AcDbEntity
  8
0
  6
CONTINUOUS
 62
     7
100
AcDbLine
 10
1258.2111871601
 20
829.9953725174
 30
0.0
 11
1255.2111959816
 21
832.995378597
 31
0.0
  0
LINE
  5
4AF
330
1F
100
AcDbEntity
  8
0
  6
CONTINUOUS
 62
     7
100
AcDbLine
 10
1255.2111959816
 20
832.995378597
 30
0.0
 11
1250.4611975314
 21
832.995378597
 31
0.0
  0
LINE
  5
4B0
330
1F
100
AcDbEntity
  8
0
  6
CONTINUOUS
 62
     7
100
AcDbLine
 10
1250.4611975314
 20
832.995378597
 30
0.0
 11
1250.4611975314
 21
834.4953741863
 31
0.0
  0
ARC
  5
4B1
330
1F
100
AcDbEntity
  8
0
  6
CONTINUOUS
 62
     7
100
AcDbCircle
 10
1258.4611918093
 20
834.49537514
 30
0.0
 40
8.0
100
AcDbArc
 50
135.0
 51
180.0
  0
LINE
  5
4B2
330
1F
100
AcDbEntity
  8
0
  6
CONTINUOUS
 62
     7
100
AcDbLine
 10
1252.8043306233
 20
840.1522275045
 30
0.0
 11
1268.3043396832
 21
855.6522365644
 31
0.0
  0
ARC
  5
4B3
330
1F
100
AcDbEntity
  8
0
  6
CONTINUOUS
 62
     7
100
AcDbCircle
 10
1273.9611918093
 20
849.99537514
 30
0.0
 40
8.000000000000144
100
AcDbArc
 50
90.0
 51
135.0
  0
LINE
  5
4B4
330
1F
100
AcDbEntity
  8
0
  6
CONTINUOUS
 62
     7
100
AcDbLine
 10
1273.9611930014
 20
857.9953696564
 30
0.0
 11
1587.461195028
 21
857.9953696564
 31
0.0
  0
ARC
  5
4B5
330
1F
100
AcDbEntity
  8
0
  6
CONTINUOUS
 62
     7
100
AcDbCircle
 10
1587.4611918093
 20
849.99537514
 30
0.0
 40
8.000000000000064
100
AcDbArc
 50
45.0
 51
90.0
  0
LINE
  5
4B6
330
1F
100
AcDbEntity
  8
0
  6
CONTINUOUS
 62
     7
100
AcDbLine
 10
1593.1180483462
 20
855.6522365644
 30
0.0
 11
1608.6180425049
 21
840.1522275045
 31
0.0
  0
ARC
  5
4B7
330
1F
100
AcDbEntity
  8
0
  6
CONTINUOUS
 62
     7
100
AcDbCircle
 10
1602.9611918093
 20
834.49537514
 30
0.0
 40
8.0
100
AcDbArc
 50
0.0
 51
45.0
  0
LINE
  5
4B8
330
1F
100
AcDbEntity
  8
0
  6
CONTINUOUS
 62
     7
100
AcDbLine
 10
1610.961190498
 20
834.4953741863
 30
0.0
 11
1610.961190498
 21
832.995378597
 31
0.0
  0
LINE
  5
4B9
330
1F
100
AcDbEntity
  8
0
  6
CONTINUOUS
 62
     7
100
AcDbLine
 10
1610.961190498
 20
832.995378597
 30
0.0
 11
1606.2111920477
 21
832.995378597
 31
0.0
  0
LINE
  5
4BA
330
1F
100
AcDbEntity
  8
0
  6
CONTINUOUS
 62
     7
100
AcDbLine
 10
1606.2111920477
 20
832.995378597
 30
0.0
 11
1603.2111859681
 21
829.9953725174
 31
0.0
  0
LINE
  5
4BB
330
1F
100
AcDbEntity
  8
0
  6
CONTINUOUS
 62
     7
100
AcDbLine
 10
1603.2111859681
 20
829.9953725174
 30
0.0
 11
1599.211192763
 21
829.9953725174
 31
0.0
  0
LINE
  5
4BC
330
1F
100
AcDbEntity
  8
0
  6
CONTINUOUS
 62
     7
100
AcDbLine
 10
1599.211192763
 20
829.9953725174
 30
0.0
 11
1596.2111866833
 21
832.995378597
 31
0.0
  0
LINE
  5
4BD
330
1F
100
AcDbEntity
  8
0
  6
CONTINUOUS
 62
     7
100
AcDbLine
 10
1596.2111866833
 20
832.995378597
 30
0.0
 11
1593.9611858488
 21
832.995378597
 31
0.0
  0
LINE
  5
4BE
330
1F
100
AcDbEntity
  8
0
  6
CONTINUOUS
 62
     7
100
AcDbLine
 10
1591.461188233
 20
832.995378597
 30
0.0
 11
1591.461188233
 21
835.4953762129
 31
0.0
  0
ARC
  5
4BF
330
1F
100
AcDbEntity
  8
0
  6
CONTINUOUS
 62
     7
100
AcDbCircle
 10
1586.4611918093
 20
835.49537514
 30
0.0
 40
5.000000000000114
100
AcDbArc
 50
0.0
 51
90.0
  0
LINE
  5
4C0
330
1F
100
AcDbEntity
  8
0
  6
CONTINUOUS
 62
     7
100
AcDbLine
 10
1586.4611930014
 20
840.4953714445
 30
0.0
 11
1584.7111857296
 21
840.4953714445
 31
0.0
  0
LINE
  5
4C1
330
1F
100
AcDbEntity
  8
0
  6
CONTINUOUS
 62
     7
100
AcDbLine
 10
1584.7111857296
 20
840.4953714445
 30
0.0
 11
1584.7111857296
 21
843.7453743055
 31
0.0
  0
LINE
  5
4C2
330
1F
100
AcDbEntity
  8
0
  6
CONTINUOUS
 62
     7
100
AcDbLine
 10
1584.7111857296
 20
843.7453743055
 30
0.0
 11
1583.9611953856
 21
843.7453743055
 31
0.0
  0
LINE
  5
4C3
330
1F
100
AcDbEntity
  8
0
  6
CONTINUOUS
 62
     7
100
AcDbLine
 10
1250.4611975314
 20
467.9953690603
 30
0.0
 11
1251.9611931206
 21
467.9953690603
 31
0.0
  0
LINE
  5
4C4
330
1F
100
AcDbEntity
  8
0
  6
CONTINUOUS
 62
     7
100
AcDbLine
 10
1250.4611975314
 20
486.9953777626
 30
0.0
 11
1250.4611975314
 21
467.9953690603
 31
0.0
  0
LINE
  5
4C5
330
1F
100
AcDbEntity
  8
0
  6
CONTINUOUS
 62
     7
100
AcDbLine
 10
1251.9611931206
 20
486.9953777626
 30
0.0
 11
1250.4611975314
 21
486.9953777626
 31
0.0
  0
LINE
  5
4C6
330
1F
100
AcDbEntity
  8
0
  6
CONTINUOUS
 62
     7
100
AcDbLine
 10
1251.9611931206
 20
486.9953777626
 30
0.0
 11
1251.9611931206
 21
467.9953690603
 31
0.0
  0
LINE
  5
4C7
330
1F
100
AcDbEntity
  8
0
  6
CONTINUOUS
 62
     7
100
AcDbLine
 10
1251.9611931206
 20
467.9953690603
 30
0.0
 11
1251.9611931206
 21
465.9953799083
 31
0.0
  0
LINE
  5
4C8
330
1F
100
AcDbEntity
  8
0
  6
CONTINUOUS
 62
     7
100
AcDbLine
 10
1251.9611931206
 20
465.9953799083
 30
0.0
 11
1250.4611975314
 21
465.9953799083
 31
0.0
  0
LINE
  5
4C9
330
1F
100
AcDbEntity
  8
0
  6
CONTINUOUS
 62
     7
100
AcDbLine
 10
1250.4611975314
 20
465.9953799083
 30
0.0
 11
1250.4611975314
 21
467.9953690603
 31
0.0
  0
LINE
  5
4CA
330
1F
100
AcDbEntity
  8
0
  6
CONTINUOUS
 62
     7
100
AcDbLine
 10
1250.4611975314
 20
488.9953818157
 30
0.0
 11
1251.9611931206
 21
488.9953818157
 31
0.0
  0
LINE
  5
4CB
330
1F
100
AcDbEntity
  8
0
  6
CONTINUOUS
 62
     7
100
AcDbLine
 10
1251.9611931206
 20
488.9953818157
 30
0.0
 11
1251.9611931206
 21
486.9953777626
 31
0.0
  0
LINE
  5
4CC
330
1F
100
AcDbEntity
  8
0
  6
CONTINUOUS
 62
     7
100
AcDbLine
 10
1250.4611975314
 20
486.9953777626
 30
0.0
 11
1250.4611975314
 21
488.9953818157
 31
0.0
  0
LINE
  5
4CD
330
1F
100
AcDbEntity
  8
0
  6
CONTINUOUS
 62
     7
100
AcDbLine
 10
1250.4611975314
 20
767.4953725174
 30
0.0
 11
1251.9611931206
 21
767.4953725174
 31
0.0
  0
LINE
  5
4CE
330
1F
100
AcDbEntity
  8
0
  6
CONTINUOUS
 62
     7
100
AcDbLine
 10
1251.9611931206
 20
767.4953725174
 30
0.0
 11
1251.9611931206
 21
765.4953684643
 31
0.0
  0
LINE
  5
4CF
330
1F
100
AcDbEntity
  8
0
  6
CONTINUOUS
 62
     7
100
AcDbLine
 10
1251.9611931206
 20
765.4953684643
 30
0.0
 11
1250.4611975314
 21
765.4953684643
 31
0.0
  0
LINE
  5
4D0
330
1F
100
AcDbEntity
  8
0
  6
CONTINUOUS
 62
     7
100
AcDbLine
 10
1250.4611975314
 20
765.4953684643
 30
0.0
 11
1250.4611975314
 21
767.4953725174
 31
0.0
  0
LINE
  5
4D1
330
1F
100
AcDbEntity
  8
0
  6
CONTINUOUS
 62
     7
100
AcDbLine
 10
1251.9611931206
 20
786.4953812197
 30
0.0
 11
1250.4611975314
 21
786.4953812197
 31
0.0
  0
LINE
  5
4D2
330
1F
100
AcDbEntity
  8
0
  6
CONTINUOUS
 62
     7
100
AcDbLine
 10
1251.9611931206
 20
767.4953725174
 30
0.0
 11
1251.9611931206
 21
786.4953812197
 31
0.0
  0
LINE
  5
4D3
330
1F
100
AcDbEntity
  8
0
  6
CONTINUOUS
 62
     7
100
AcDbLine
 10
1250.4611975314
 20
767.4953725174
 30
0.0
 11
1250.4611975314
 21
786.4953812197
 31
0.0
  0
LINE
  5
4D4
330
1F
100
AcDbEntity
  8
0
  6
CONTINUOUS
 62
     7
100
AcDbLine
 10
1250.4611975314
 20
788.4953703716
 30
0.0
 11
1251.9611931206
 21
788.4953703716
 31
0.0
  0
LINE
  5
4D5
330
1F
100
AcDbEntity
  8
0
  6
CONTINUOUS
 62
     7
100
AcDbLine
 10
1251.9611931206
 20
788.4953703716
 30
0.0
 11
1251.9611931206
 21
786.4953812197
 31
0.0
  0
LINE
  5
4D6
330
1F
100
AcDbEntity
  8
0
  6
CONTINUOUS
 62
     7
100
AcDbLine
 10
1250.4611975314
 20
786.4953812197
 30
0.0
 11
1250.4611975314
 21
788.4953703716
 31
0.0
  0
LINE
  5
4D7
330
1F
100
AcDbEntity
  8
0
  6
CONTINUOUS
 62
     7
100
AcDbLine
 10
1250.4271185757
 20
469.4953795507
 30
0.0
 11
1250.4611975314
 21
469.4953795507
 31
0.0
  0
LINE
  5
4D8
330
1F
100
AcDbEntity
  8
0
  6
CONTINUOUS
 62
     7
100
AcDbLine
 10
1250.4271185757
 20
485.4953821733
 30
0.0
 11
1250.4271185757
 21
469.4953795507
 31
0.0
  0
LINE
  5
4D9
330
1F
100
AcDbEntity
  8
0
  6
CONTINUOUS
 62
     7
100
AcDbLine
 10
1250.4611975314
 20
485.4953821733
 30
0.0
 11
1250.4271185757
 21
485.4953821733
 31
0.0
  0
LINE
  5
4DA
330
1F
100
AcDbEntity
  8
0
  6
CONTINUOUS
 62
     7
100
AcDbLine
 10
1250.4271185757
 20
784.9953707292
 30
0.0
 11
1250.4271185757
 21
768.9953681066
 31
0.0
  0
LINE
  5
4DB
330
1F
100
AcDbEntity
  8
0
  6
CONTINUOUS
 62
     7
100
AcDbLine
 10
1250.4611975314
 20
784.9953707292
 30
0.0
 11
1250.4271185757
 21
784.9953707292
 31
0.0
  0
LINE
  5
4DC
330
1F
100
AcDbEntity
  8
0
  6
CONTINUOUS
 62
     7
100
AcDbLine
 10
1250.4271185757
 20
768.9953681066
 30
0.0
 11
1250.4611975314
 21
768.9953681066
 31
0.0
  0
LINE
  5
4DD
330
1F
100
AcDbEntity
  8
0
  6
CONTINUOUS
 62
     7
100
AcDbLine
 10
1246.7083102824
 20
485.4953821733
 30
0.0
 11
1246.7083102824
 21
469.4953795507
 31
0.0
  0
LINE
  5
4DE
330
1F
100
AcDbEntity
  8
0
  6
CONTINUOUS
 62
     7
100
AcDbLine
 10
1250.4271185757
 20
485.4953821733
 30
0.0
 11
1246.7083102824
 21
485.4953821733
 31
0.0
  0
LINE
  5
4DF
330
1F
100
AcDbEntity
  8
0
  6
CONTINUOUS
 62
     7
100
AcDbLine
 10
1246.7083102824
 20
469.4953795507
 30
0.0
 11
1250.4271185757
 21
469.4953795507
 31
0.0
  0
LINE
  5
4E0
330
1F
100
AcDbEntity
  8
0
  6
CONTINUOUS
 62
     7
100
AcDbLine
 10
1246.7083102824
 20
768.9953681066
 30
0.0
 11
1246.7083102824
 21
784.9953707292
 31
0.0
  0
LINE
  5
4E1
330
1F
100
AcDbEntity
  8
0
  6
CONTINUOUS
 62
     7
100
AcDbLine
 10
1246.7083102824
 20
784.9953707292
 30
0.0
 11
1250.4271185757
 21
784.9953707292
 31
0.0
  0
LINE
  5
4E2
330
1F
100
AcDbEntity
  8
0
  6
CONTINUOUS
 62
     7
100
AcDbLine
 10
1250.4271185757
 20
768.9953681066
 30
0.0
 11
1246.7083102824
 21
768.9953681066
 31
0.0
  0
LINE
  5
4E3
330
1F
100
AcDbEntity
  8
0
  6
CONTINUOUS
 62
     7
100
AcDbLine
 10
1268.4611893059
 20
820.9953691795
 30
0.0
 11
1270.9611869217
 21
820.9953691795
 31
0.0
  0
LINE
  5
4E4
330
1F
100
AcDbEntity
  8
0
  6
CONTINUOUS
 62
     7
100
AcDbLine
 10
1270.9611869217
 20
433.4953811004
 30
0.0
 11
1270.9611869217
 21
820.9953691795
 31
0.0
  0
LINE
  5
4E5
330
1F
100
AcDbEntity
  8
0
  6
CONTINUOUS
 62
     7
100
AcDbLine
 10
1268.4611893059
 20
433.4953811004
 30
0.0
 11
1268.4611893059
 21
820.9953691795
 31
0.0
  0
LINE
  5
4E6
330
1F
100
AcDbEntity
  8
0
  6
CONTINUOUS
 62
     7
100
AcDbLine
 10
1270.9611869217
 20
433.4953811004
 30
0.0
 11
1268.4611893059
 21
433.4953811004
 31
0.0
  0
LINE
  5
4E7
330
1F
100
AcDbEntity
  8
0
  6
CONTINUOUS
 62
     7
100
AcDbLine
 10
1271.9611889483
 20
820.9953691795
 30
0.0
 11
1270.9611869217
 21
820.9953691795
 31
0.0
  0
ARC
  5
4E8
330
1F
100
AcDbEntity
  8
0
  6
CONTINUOUS
 62
     7
100
AcDbCircle
 10
1271.9611918093
 20
817.99537514
 30
0.0
 40
3.000000000000227
100
AcDbArc
 50
0.0
 51
90.0
  0
LINE
  5
4E9
330
1F
100
AcDbEntity
  8
0
  6
CONTINUOUS
 62
     7
100
AcDbLine
 10
1274.961195028
 20
436.495372279
 30
0.0
 11
1274.961195028
 21
621.435191667
 31
0.0
  0
LINE
  5
4EA
330
1F
100
AcDbEntity
  8
0
  6
CONTINUOUS
 62
     7
100
AcDbLine
 10
1274.961195028
 20
634.443009457
 30
0.0
 11
1274.961195028
 21
817.995378001
 31
0.0
  0
ARC
  5
4EB
330
1F
100
AcDbEntity
  8
0
  6
CONTINUOUS
 62
     7
100
AcDbCircle
 10
1271.9611918093
 20
436.49537514
 30
0.0
 40
3.0
100
AcDbArc
 50
270.0
 51
0.0
  0
LINE
  5
4EC
330
1F
100
AcDbEntity
  8
0
  6
CONTINUOUS
 62
     7
100
AcDbLine
 10
1270.9611869217
 20
433.4953811004
 30
0.0
 11
1271.9611889483
 21
433.4953811004
 31
0.0
  0
LINE
  5
4ED
330
1F
100
AcDbEntity
  8
0
  6
CONTINUOUS
 62
     7
100
AcDbLine
 10
1268.4611893059
 20
423.495375736
 30
0.0
 11
1269.9611848952
 21
423.495375736
 31
0.0
  0
LINE
  5
4EE
330
1F
100
AcDbEntity
  8
0
  6
CONTINUOUS
 62
     7
100
AcDbLine
 10
1268.4611893059
 20
433.4953811004
 30
0.0
 11
1268.4611893059
 21
423.495375736
 31
0.0
  0
LINE
  5
4EF
330
1F
100
AcDbEntity
  8
0
  6
CONTINUOUS
 62
     7
100
AcDbLine
 10
1269.9611848952
 20
433.4953811004
 30
0.0
 11
1269.9611848952
 21
423.495375736
 31
0.0
  0
LINE
  5
4F0
330
1F
100
AcDbEntity
  8
0
  6
CONTINUOUS
 62
     7
100
AcDbLine
 10
1269.9611848952
 20
830.9953745439
 30
0.0
 11
1268.4611893059
 21
830.9953745439
 31
0.0
  0
LINE
  5
4F1
330
1F
100
AcDbEntity
  8
0
  6
CONTINUOUS
 62
     7
100
AcDbLine
 10
1269.9611848952
 20
830.9953745439
 30
0.0
 11
1269.9611848952
 21
820.9953691795
 31
0.0
  0
LINE
  5
4F2
330
1F
100
AcDbEntity
  8
0
  6
CONTINUOUS
 62
     7
100
AcDbLine
 10
1268.4611893059
 20
830.9953745439
 30
0.0
 11
1268.4611893059
 21
820.9953691795
 31
0.0
  0
LINE
  5
4F3
330
1F
100
AcDbEntity
  8
0
  6
CONTINUOUS
 62
     7
100
AcDbLine
 10
1269.9611848952
 20
421.4953716829
 30
0.0
 11
1268.4611893059
 21
421.4953716829
 31
0.0
  0
LINE
  5
4F4
330
1F
100
AcDbEntity
  8
0
  6
CONTINUOUS
 62
     7
100
AcDbLine
 10
1269.9611848952
 20
423.495375736
 30
0.0
 11
1269.9611848952
 21
421.4953716829
 31
0.0
  0
LINE
  5
4F5
330
1F
100
AcDbEntity
  8
0
  6
CONTINUOUS
 62
     7
100
AcDbLine
 10
1268.4611893059
 20
421.4953716829
 30
0.0
 11
1268.4611893059
 21
423.495375736
 31
0.0
  0
LINE
  5
4F6
330
1F
100
AcDbEntity
  8
0
  6
CONTINUOUS
 62
     7
100
AcDbLine
 10
1268.4611893059
 20
832.995378597
 30
0.0
 11
1269.9611848952
 21
832.995378597
 31
0.0
  0
LINE
  5
4F7
330
1F
100
AcDbEntity
  8
0
  6
CONTINUOUS
 62
     7
100
AcDbLine
 10
1269.9611848952
 20
832.995378597
 30
0.0
 11
1269.9611848952
 21
830.9953745439
 31
0.0
  0
LINE
  5
4F8
330
1F
100
AcDbEntity
  8
0
  6
CONTINUOUS
 62
     7
100
AcDbLine
 10
1268.4611893059
 20
830.9953745439
 30
0.0
 11
1268.4611893059
 21
832.995378597
 31
0.0
  0
LINE
  5
4F9
330
1F
100
AcDbEntity
  8
0
  6
CONTINUOUS
 62
     7
100
AcDbLine
 10
1252.9611951472
 20
485.995375736
 30
0.0
 11
1252.9611951472
 21
488.9953818157
 31
0.0
  0
LINE
  5
4FA
330
1F
100
AcDbEntity
  8
0
  6
CONTINUOUS
 62
     7
100
AcDbLine
 10
1252.9611951472
 20
485.995375736
 30
0.0
 11
1251.9611931206
 21
485.995375736
 31
0.0
  0
LINE
  5
4FB
330
1F
100
AcDbEntity
  8
0
  6
CONTINUOUS
 62
     7
100
AcDbLine
 10
1252.9611951472
 20
488.9953818157
 30
0.0
 11
1251.9611931206
 21
488.9953818157
 31
0.0
  0
LINE
  5
4FC
330
1F
100
AcDbEntity
  8
0
  6
CONTINUOUS
 62
     7
100
AcDbLine
 10
1252.9611951472
 20
465.9953799083
 30
0.0
 11
1252.9611951472
 21
468.9953710869
 31
0.0
  0
LINE
  5
4FD
330
1F
100
AcDbEntity
  8
0
  6
CONTINUOUS
 62
     7
100
AcDbLine
 10
1251.9611931206
 20
468.9953710869
 30
0.0
 11
1252.9611951472
 21
468.9953710869
 31
0.0
  0
LINE
  5
4FE
330
1F
100
AcDbEntity
  8
0
  6
CONTINUOUS
 62
     7
100
AcDbLine
 10
1251.9611931206
 20
465.9953799083
 30
0.0
 11
1252.9611951472
 21
465.9953799083
 31
0.0
  0
LINE
  5
4FF
330
1F
100
AcDbEntity
  8
0
  6
CONTINUOUS
 62
     7
100
AcDbLine
 10
1252.9611951472
 20
768.4953745439
 30
0.0
 11
1251.9611931206
 21
768.4953745439
 31
0.0
  0
LINE
  5
500
330
1F
100
AcDbEntity
  8
0
  6
CONTINUOUS
 62
     7
100
AcDbLine
 10
1252.9611951472
 20
765.4953684643
 30
0.0
 11
1252.9611951472
 21
768.4953745439
 31
0.0
  0
LINE
  5
501
330
1F
100
AcDbEntity
  8
0
  6
CONTINUOUS
 62
     7
100
AcDbLine
 10
1251.9611931206
 20
765.4953684643
 30
0.0
 11
1252.9611951472
 21
765.4953684643
 31
0.0
  0
LINE
  5
502
330
1F
100
AcDbEntity
  8
0
  6
CONTINUOUS
 62
     7
100
AcDbLine
 10
1252.9611951472
 20
785.4953791931
 30
0.0
 11
1252.9611951472
 21
788.4953703716
 31
0.0
  0
LINE
  5
503
330
1F
100
AcDbEntity
  8
0
  6
CONTINUOUS
 62
     7
100
AcDbLine
 10
1251.9611931206
 20
785.4953791931
 30
0.0
 11
1252.9611951472
 21
785.4953791931
 31
0.0
  0
LINE
  5
504
330
1F
100
AcDbEntity
  8
0
  6
CONTINUOUS
 62
     7
100
AcDbLine
 10
1252.9611951472
 20
788.4953703716
 30
0.0
 11
1251.9611931206
 21
788.4953703716
 31
0.0
  0
LINE
  5
505
330
1F
100
AcDbEntity
  8
0
  6
CONTINUOUS
 62
     7
100
AcDbLine
 10
1268.4611893059
 20
832.995378597
 30
0.0
 11
1267.4611872794
 21
832.995378597
 31
0.0
  0
LINE
  5
506
330
1F
100
AcDbEntity
  8
0
  6
CONTINUOUS
 62
     7
100
AcDbLine
 10
1267.4611872794
 20
421.4953716829
 30
0.0
 11
1268.4611893059
 21
421.4953716829
 31
0.0
  0
LINE
  5
507
330
1F
100
AcDbEntity
  8
0
  6
CONTINUOUS
 62
     7
100
AcDbLine
 10
1267.4611872794
 20
832.995378597
 30
0.0
 11
1267.4611872794
 21
421.4953716829
 31
0.0
  0
LINE
  5
508
330
1F
100
AcDbEntity
  8
0
  6
CONTINUOUS
 62
     7
100
AcDbLine
 10
1252.9611951472
 20
488.9953818157
 30
0.0
 11
1252.9611951472
 21
489.4953753784
 31
0.0
  0
LINE
  5
509
330
1F
100
AcDbEntity
  8
0
  6
CONTINUOUS
 62
     7
100
AcDbLine
 10
1252.9611951472
 20
489.4953753784
 30
0.0
 11
1250.4611975314
 21
489.4953753784
 31
0.0
  0
LINE
  5
50A
330
1F
100
AcDbEntity
  8
0
  6
CONTINUOUS
 62
     7
100
AcDbLine
 10
1250.4611975314
 20
489.4953753784
 30
0.0
 11
1250.4611975314
 21
764.9953749016
 31
0.0
  0
LINE
  5
50B
330
1F
100
AcDbEntity
  8
0
  6
CONTINUOUS
 62
     7
100
AcDbLine
 10
1250.4611975314
 20
764.9953749016
 30
0.0
 11
1252.9611951472
 21
764.9953749016
 31
0.0
  0
LINE
  5
50C
330
1F
100
AcDbEntity
  8
0
  6
CONTINUOUS
 62
     7
100
AcDbLine
 10
1252.9611951472
 20
764.9953749016
 30
0.0
 11
1252.9611951472
 21
765.4953684643
 31
0.0
  0
LINE
  5
50D
330
1F
100
AcDbEntity
  8
0
  6
CONTINUOUS
 62
     7
100
AcDbLine
 10
1252.9611951472
 20
768.4953745439
 30
0.0
 11
1253.4611887099
 21
768.4953745439
 31
0.0
  0
LINE
  5
50E
330
1F
100
AcDbEntity
  8
0
  6
CONTINUOUS
 62
     7
100
AcDbLine
 10
1253.4611887099
 20
785.4953791931
 30
0.0
 11
1253.4611887099
 21
768.4953745439
 31
0.0
  0
LINE
  5
50F
330
1F
100
AcDbEntity
  8
0
  6
CONTINUOUS
 62
     7
100
AcDbLine
 10
1253.4611887099
 20
785.4953791931
 30
0.0
 11
1252.9611951472
 21
785.4953791931
 31
0.0
  0
LINE
  5
510
330
1F
100
AcDbEntity
  8
0
  6
CONTINUOUS
 62
     7
100
AcDbLine
 10
1252.9611951472
 20
788.4953703716
 30
0.0
 11
1252.9611951472
 21
788.9953788355
 31
0.0
  0
LINE
  5
511
330
1F
100
AcDbEntity
  8
0
  6
CONTINUOUS
 62
     7
100
AcDbLine
 10
1252.9611951472
 20
788.9953788355
 30
0.0
 11
1250.4611975314
 21
788.9953788355
 31
0.0
  0
LINE
  5
512
330
1F
100
AcDbEntity
  8
0
  6
CONTINUOUS
 62
     7
100
AcDbLine
 10
1250.4611975314
 20
788.9953788355
 30
0.0
 11
1250.4611975314
 21
832.995378597
 31
0.0
  0
LINE
  5
513
330
1F
100
AcDbEntity
  8
0
  6
CONTINUOUS
 62
     7
100
AcDbLine
 10
1250.4611975314
 20
421.4953716829
 30
0.0
 11
1250.4611975314
 21
465.4953714445
 31
0.0
  0
LINE
  5
514
330
1F
100
AcDbEntity
  8
0
  6
CONTINUOUS
 62
     7
100
AcDbLine
 10
1250.4611975314
 20
465.4953714445
 30
0.0
 11
1252.9611951472
 21
465.4953714445
 31
0.0
  0
LINE
  5
515
330
1F
100
AcDbEntity
  8
0
  6
CONTINUOUS
 62
     7
100
AcDbLine
 10
1252.9611951472
 20
465.4953714445
 30
0.0
 11
1252.9611951472
 21
465.9953799083
 31
0.0
  0
LINE
  5
516
330
1F
100
AcDbEntity
  8
0
  6
CONTINUOUS
 62
     7
100
AcDbLine
 10
1253.4611887099
 20
468.9953710869
 30
0.0
 11
1252.9611951472
 21
468.9953710869
 31
0.0
  0
LINE
  5
517
330
1F
100
AcDbEntity
  8
0
  6
CONTINUOUS
 62
     7
100
AcDbLine
 10
1253.4611887099
 20
485.995375736
 30
0.0
 11
1253.4611887099
 21
468.9953710869
 31
0.0
  0
LINE
  5
518
330
1F
100
AcDbEntity
  8
0
  6
CONTINUOUS
 62
     7
100
AcDbLine
 10
1252.9611951472
 20
485.995375736
 30
0.0
 11
1253.4611887099
 21
485.995375736
 31
0.0
  0
LINE
  5
519
330
1F
100
AcDbEntity
  8
0
  6
CONTINUOUS
 62
     7
100
AcDbLine
 10
1610.961190498
 20
465.9953799083
 30
0.0
 11
1609.4611949088
 21
465.9953799083
 31
0.0
  0
LINE
  5
51A
330
1F
100
AcDbEntity
  8
0
  6
CONTINUOUS
 62
     7
100
AcDbLine
 10
1609.4611949088
 20
465.9953799083
 30
0.0
 11
1609.4611949088
 21
467.9953690603
 31
0.0
  0
LINE
  5
51B
330
1F
100
AcDbEntity
  8
0
  6
CONTINUOUS
 62
     7
100
AcDbLine
 10
1609.4611949088
 20
467.9953690603
 30
0.0
 11
1610.961190498
 21
467.9953690603
 31
0.0
  0
LINE
  5
51C
330
1F
100
AcDbEntity
  8
0
  6
CONTINUOUS
 62
     7
100
AcDbLine
 10
1610.961190498
 20
467.9953690603
 30
0.0
 11
1610.961190498
 21
465.9953799083
 31
0.0
  0
LINE
  5
51D
330
1F
100
AcDbEntity
  8
0
  6
CONTINUOUS
 62
     7
100
AcDbLine
 10
1610.961190498
 20
486.9953777626
 30
0.0
 11
1609.4611949088
 21
486.9953777626
 31
0.0
  0
LINE
  5
51E
330
1F
100
AcDbEntity
  8
0
  6
CONTINUOUS
 62
     7
100
AcDbLine
 10
1610.961190498
 20
486.9953777626
 30
0.0
 11
1610.961190498
 21
467.9953690603
 31
0.0
  0
LINE
  5
51F
330
1F
100
AcDbEntity
  8
0
  6
CONTINUOUS
 62
     7
100
AcDbLine
 10
1609.4611949088
 20
486.9953777626
 30
0.0
 11
1609.4611949088
 21
467.9953690603
 31
0.0
  0
LINE
  5
520
330
1F
100
AcDbEntity
  8
0
  6
CONTINUOUS
 62
     7
100
AcDbLine
 10
1609.4611949088
 20
488.9953818157
 30
0.0
 11
1610.961190498
 21
488.9953818157
 31
0.0
  0
LINE
  5
521
330
1F
100
AcDbEntity
  8
0
  6
CONTINUOUS
 62
     7
100
AcDbLine
 10
1610.961190498
 20
488.9953818157
 30
0.0
 11
1610.961190498
 21
486.9953777626
 31
0.0
  0
LINE
  5
522
330
1F
100
AcDbEntity
  8
0
  6
CONTINUOUS
 62
     7
100
AcDbLine
 10
1609.4611949088
 20
486.9953777626
 30
0.0
 11
1609.4611949088
 21
488.9953818157
 31
0.0
  0
LINE
  5
523
330
1F
100
AcDbEntity
  8
0
  6
CONTINUOUS
 62
     7
100
AcDbLine
 10
1610.961190498
 20
765.4953684643
 30
0.0
 11
1609.4611949088
 21
765.4953684643
 31
0.0
  0
LINE
  5
524
330
1F
100
AcDbEntity
  8
0
  6
CONTINUOUS
 62
     7
100
AcDbLine
 10
1609.4611949088
 20
767.4953725174
 30
0.0
 11
1610.961190498
 21
767.4953725174
 31
0.0
  0
LINE
  5
525
330
1F
100
AcDbEntity
  8
0
  6
CONTINUOUS
 62
     7
100
AcDbLine
 10
1610.961190498
 20
767.4953725174
 30
0.0
 11
1610.961190498
 21
765.4953684643
 31
0.0
  0
LINE
  5
526
330
1F
100
AcDbEntity
  8
0
  6
CONTINUOUS
 62
     7
100
AcDbLine
 10
1609.4611949088
 20
765.4953684643
 30
0.0
 11
1609.4611949088
 21
767.4953725174
 31
0.0
  0
LINE
  5
527
330
1F
100
AcDbEntity
  8
0
  6
CONTINUOUS
 62
     7
100
AcDbLine
 10
1610.961190498
 20
786.4953812197
 30
0.0
 11
1609.4611949088
 21
786.4953812197
 31
0.0
  0
LINE
  5
528
330
1F
100
AcDbEntity
  8
0
  6
CONTINUOUS
 62
     7
100
AcDbLine
 10
1610.961190498
 20
767.4953725174
 30
0.0
 11
1610.961190498
 21
786.4953812197
 31
0.0
  0
LINE
  5
529
330
1F
100
AcDbEntity
  8
0
  6
CONTINUOUS
 62
     7
100
AcDbLine
 10
1609.4611949088
 20
767.4953725174
 30
0.0
 11
1609.4611949088
 21
786.4953812197
 31
0.0
  0
LINE
  5
52A
330
1F
100
AcDbEntity
  8
0
  6
CONTINUOUS
 62
     7
100
AcDbLine
 10
1609.4611949088
 20
788.4953703716
 30
0.0
 11
1610.961190498
 21
788.4953703716
 31
0.0
  0
LINE
  5
52B
330
1F
100
AcDbEntity
  8
0
  6
CONTINUOUS
 62
     7
100
AcDbLine
 10
1610.961190498
 20
788.4953703716
 30
0.0
 11
1610.961190498
 21
786.4953812197
 31
0.0
  0
LINE
  5
52C
330
1F
100
AcDbEntity
  8
0
  6
CONTINUOUS
 62
     7
100
AcDbLine
 10
1609.4611949088
 20
786.4953812197
 30
0.0
 11
1609.4611949088
 21
788.4953703716
 31
0.0
  0
LINE
  5
52D
330
1F
100
AcDbEntity
  8
0
  6
CONTINUOUS
 62
     7
100
AcDbLine
 10
1610.9952694537
 20
485.4953821733
 30
0.0
 11
1610.961190498
 21
485.4953821733
 31
0.0
  0
LINE
  5
52E
330
1F
100
AcDbEntity
  8
0
  6
CONTINUOUS
 62
     7
100
AcDbLine
 10
1610.9952694537
 20
469.4953795507
 30
0.0
 11
1610.9952694537
 21
485.4953821733
 31
0.0
  0
LINE
  5
52F
330
1F
100
AcDbEntity
  8
0
  6
CONTINUOUS
 62
     7
100
AcDbLine
 10
1610.961190498
 20
469.4953795507
 30
0.0
 11
1610.9952694537
 21
469.4953795507
 31
0.0
  0
LINE
  5
530
330
1F
100
AcDbEntity
  8
0
  6
CONTINUOUS
 62
     7
100
AcDbLine
 10
1610.9952694537
 20
784.9953707292
 30
0.0
 11
1610.961190498
 21
784.9953707292
 31
0.0
  0
LINE
  5
531
330
1F
100
AcDbEntity
  8
0
  6
CONTINUOUS
 62
     7
100
AcDbLine
 10
1610.9952694537
 20
768.9953681066
 30
0.0
 11
1610.9952694537
 21
784.9953707292
 31
0.0
  0
LINE
  5
532
330
1F
100
AcDbEntity
  8
0
  6
CONTINUOUS
 62
     7
100
AcDbLine
 10
1610.961190498
 20
768.9953681066
 30
0.0
 11
1610.9952694537
 21
768.9953681066
 31
0.0
  0
LINE
  5
533
330
1F
100
AcDbEntity
  8
0
  6
CONTINUOUS
 62
     7
100
AcDbLine
 10
1614.7140628458
 20
485.4953821733
 30
0.0
 11
1614.7140628458
 21
469.4953795507
 31
0.0
  0
LINE
  5
534
330
1F
100
AcDbEntity
  8
0
  6
CONTINUOUS
 62
     7
100
AcDbLine
 10
1614.7140628458
 20
469.4953795507
 30
0.0
 11
1610.9952694537
 21
469.4953795507
 31
0.0
  0
LINE
  5
535
330
1F
100
AcDbEntity
  8
0
  6
CONTINUOUS
 62
     7
100
AcDbLine
 10
1610.9952694537
 20
485.4953821733
 30
0.0
 11
1614.7140628458
 21
485.4953821733
 31
0.0
  0
LINE
  5
536
330
1F
100
AcDbEntity
  8
0
  6
CONTINUOUS
 62
     7
100
AcDbLine
 10
1614.7140628458
 20
768.9953681066
 30
0.0
 11
1614.7140628458
 21
784.9953707292
 31
0.0
  0
LINE
  5
537
330
1F
100
AcDbEntity
  8
0
  6
CONTINUOUS
 62
     7
100
AcDbLine
 10
1614.7140628458
 20
784.9953707292
 30
0.0
 11
1610.9952694537
 21
784.9953707292
 31
0.0
  0
LINE
  5
538
330
1F
100
AcDbEntity
  8
0
  6
CONTINUOUS
 62
     7
100
AcDbLine
 10
1610.9952694537
 20
768.9953681066
 30
0.0
 11
1614.7140628458
 21
768.9953681066
 31
0.0
  0
LINE
  5
539
330
1F
100
AcDbEntity
  8
0
  6
CONTINUOUS
 62
     7
100
AcDbLine
 10
1591.461188233
 20
423.495375736
 30
0.0
 11
1592.9611987234
 21
423.495375736
 31
0.0
  0
LINE
  5
53A
330
1F
100
AcDbEntity
  8
0
  6
CONTINUOUS
 62
     7
100
AcDbLine
 10
1592.9611987234
 20
423.495375736
 30
0.0
 11
1592.9611987234
 21
421.4953716829
 31
0.0
  0
LINE
  5
53B
330
1F
100
AcDbEntity
  8
0
  6
CONTINUOUS
 62
     7
100
AcDbLine
 10
1592.9611987234
 20
421.4953716829
 30
0.0
 11
1591.461188233
 21
421.4953716829
 31
0.0
  0
LINE
  5
53C
330
1F
100
AcDbEntity
  8
0
  6
CONTINUOUS
 62
     7
100
AcDbLine
 10
1591.461188233
 20
421.4953716829
 30
0.0
 11
1591.461188233
 21
423.495375736
 31
0.0
  0
LINE
  5
53D
330
1F
100
AcDbEntity
  8
0
  6
CONTINUOUS
 62
     7
100
AcDbLine
 10
1592.9611987234
 20
830.9953745439
 30
0.0
 11
1591.461188233
 21
830.9953745439
 31
0.0
  0
LINE
  5
53E
330
1F
100
AcDbEntity
  8
0
  6
CONTINUOUS
 62
     7
100
AcDbLine
 10
1592.9611987234
 20
423.495375736
 30
0.0
 11
1592.9611987234
 21
830.9953745439
 31
0.0
  0
LINE
  5
53F
330
1F
100
AcDbEntity
  8
0
  6
CONTINUOUS
 62
     7
100
AcDbLine
 10
1591.461188233
 20
423.495375736
 30
0.0
 11
1591.461188233
 21
830.9953745439
 31
0.0
  0
LINE
  5
540
330
1F
100
AcDbEntity
  8
0
  6
CONTINUOUS
 62
     7
100
AcDbLine
 10
1591.461188233
 20
832.995378597
 30
0.0
 11
1592.9611987234
 21
832.995378597
 31
0.0
  0
LINE
  5
541
330
1F
100
AcDbEntity
  8
0
  6
CONTINUOUS
 62
     7
100
AcDbLine
 10
1592.9611987234
 20
832.995378597
 30
0.0
 11
1592.9611987234
 21
830.9953745439
 31
0.0
  0
LINE
  5
542
330
1F
100
AcDbEntity
  8
0
  6
CONTINUOUS
 62
     7
100
AcDbLine
 10
1591.461188233
 20
830.9953745439
 30
0.0
 11
1591.461188233
 21
832.995378597
 31
0.0
  0
LINE
  5
543
330
1F
100
AcDbEntity
  8
0
  6
CONTINUOUS
 62
     7
100
AcDbLine
 10
1608.4611928822
 20
468.9953710869
 30
0.0
 11
1608.4611928822
 21
465.9953799083
 31
0.0
  0
LINE
  5
544
330
1F
100
AcDbEntity
  8
0
  6
CONTINUOUS
 62
     7
100
AcDbLine
 10
1609.4611949088
 20
468.9953710869
 30
0.0
 11
1608.4611928822
 21
468.9953710869
 31
0.0
  0
LINE
  5
545
330
1F
100
AcDbEntity
  8
0
  6
CONTINUOUS
 62
     7
100
AcDbLine
 10
1608.4611928822
 20
465.9953799083
 30
0.0
 11
1609.4611949088
 21
465.9953799083
 31
0.0
  0
LINE
  5
546
330
1F
100
AcDbEntity
  8
0
  6
CONTINUOUS
 62
     7
100
AcDbLine
 10
1609.4611949088
 20
488.9953818157
 30
0.0
 11
1608.4611928822
 21
488.9953818157
 31
0.0
  0
LINE
  5
547
330
1F
100
AcDbEntity
  8
0
  6
CONTINUOUS
 62
     7
100
AcDbLine
 10
1608.4611928822
 20
485.995375736
 30
0.0
 11
1609.4611949088
 21
485.995375736
 31
0.0
  0
LINE
  5
548
330
1F
100
AcDbEntity
  8
0
  6
CONTINUOUS
 62
     7
100
AcDbLine
 10
1608.4611928822
 20
488.9953818157
 30
0.0
 11
1608.4611928822
 21
485.995375736
 31
0.0
  0
LINE
  5
549
330
1F
100
AcDbEntity
  8
0
  6
CONTINUOUS
 62
     7
100
AcDbLine
 10
1608.4611928822
 20
765.4953684643
 30
0.0
 11
1609.4611949088
 21
765.4953684643
 31
0.0
  0
LINE
  5
54A
330
1F
100
AcDbEntity
  8
0
  6
CONTINUOUS
 62
     7
100
AcDbLine
 10
1608.4611928822
 20
768.4953745439
 30
0.0
 11
1608.4611928822
 21
765.4953684643
 31
0.0
  0
LINE
  5
54B
330
1F
100
AcDbEntity
  8
0
  6
CONTINUOUS
 62
     7
100
AcDbLine
 10
1608.4611928822
 20
768.4953745439
 30
0.0
 11
1609.4611949088
 21
768.4953745439
 31
0.0
  0
LINE
  5
54C
330
1F
100
AcDbEntity
  8
0
  6
CONTINUOUS
 62
     7
100
AcDbLine
 10
1608.4611928822
 20
788.4953703716
 30
0.0
 11
1608.4611928822
 21
785.4953791931
 31
0.0
  0
LINE
  5
54D
330
1F
100
AcDbEntity
  8
0
  6
CONTINUOUS
 62
     7
100
AcDbLine
 10
1609.4611949088
 20
788.4953703716
 30
0.0
 11
1608.4611928822
 21
788.4953703716
 31
0.0
  0
LINE
  5
54E
330
1F
100
AcDbEntity
  8
0
  6
CONTINUOUS
 62
     7
100
AcDbLine
 10
1609.4611949088
 20
785.4953791931
 30
0.0
 11
1608.4611928822
 21
785.4953791931
 31
0.0
  0
LINE
  5
54F
330
1F
100
AcDbEntity
  8
0
  6
CONTINUOUS
 62
     7
100
AcDbLine
 10
1593.9611858488
 20
832.995378597
 30
0.0
 11
1592.9611987234
 21
832.995378597
 31
0.0
  0
LINE
  5
550
330
1F
100
AcDbEntity
  8
0
  6
CONTINUOUS
 62
     7
100
AcDbLine
 10
1593.9611858488
 20
421.4953716829
 30
0.0
 11
1593.9611858488
 21
832.995378597
 31
0.0
  0
LINE
  5
551
330
1F
100
AcDbEntity
  8
0
  6
CONTINUOUS
 62
     7
100
AcDbLine
 10
1592.9611987234
 20
421.4953716829
 30
0.0
 11
1593.9611858488
 21
421.4953716829
 31
0.0
  0
LINE
  5
552
330
1F
100
AcDbEntity
  8
0
  6
CONTINUOUS
 62
     7
100
AcDbLine
 10
1608.4611928822
 20
765.4953684643
 30
0.0
 11
1608.4611928822
 21
764.9953749016
 31
0.0
  0
LINE
  5
553
330
1F
100
AcDbEntity
  8
0
  6
CONTINUOUS
 62
     7
100
AcDbLine
 10
1608.4611928822
 20
764.9953749016
 30
0.0
 11
1610.961190498
 21
764.9953749016
 31
0.0
  0
LINE
  5
554
330
1F
100
AcDbEntity
  8
0
  6
CONTINUOUS
 62
     7
100
AcDbLine
 10
1610.961190498
 20
764.9953749016
 30
0.0
 11
1610.961190498
 21
489.4953753784
 31
0.0
  0
LINE
  5
555
330
1F
100
AcDbEntity
  8
0
  6
CONTINUOUS
 62
     7
100
AcDbLine
 10
1610.961190498
 20
489.4953753784
 30
0.0
 11
1608.4611928822
 21
489.4953753784
 31
0.0
  0
LINE
  5
556
330
1F
100
AcDbEntity
  8
0
  6
CONTINUOUS
 62
     7
100
AcDbLine
 10
1608.4611928822
 20
489.4953753784
 30
0.0
 11
1608.4611928822
 21
488.9953818157
 31
0.0
  0
LINE
  5
557
330
1F
100
AcDbEntity
  8
0
  6
CONTINUOUS
 62
     7
100
AcDbLine
 10
1608.4611928822
 20
485.995375736
 30
0.0
 11
1607.9611844183
 21
485.995375736
 31
0.0
  0
LINE
  5
558
330
1F
100
AcDbEntity
  8
0
  6
CONTINUOUS
 62
     7
100
AcDbLine
 10
1607.9611844183
 20
468.9953710869
 30
0.0
 11
1607.9611844183
 21
485.995375736
 31
0.0
  0
LINE
  5
559
330
1F
100
AcDbEntity
  8
0
  6
CONTINUOUS
 62
     7
100
AcDbLine
 10
1607.9611844183
 20
468.9953710869
 30
0.0
 11
1608.4611928822
 21
468.9953710869
 31
0.0
  0
LINE
  5
55A
330
1F
100
AcDbEntity
  8
0
  6
CONTINUOUS
 62
     7
100
AcDbLine
 10
1608.4611928822
 20
465.9953799083
 30
0.0
 11
1608.4611928822
 21
465.4953714445
 31
0.0
  0
LINE
  5
55B
330
1F
100
AcDbEntity
  8
0
  6
CONTINUOUS
 62
     7
100
AcDbLine
 10
1608.4611928822
 20
465.4953714445
 30
0.0
 11
1610.961190498
 21
465.4953714445
 31
0.0
  0
LINE
  5
55C
330
1F
100
AcDbEntity
  8
0
  6
CONTINUOUS
 62
     7
100
AcDbLine
 10
1610.961190498
 20
465.4953714445
 30
0.0
 11
1610.961190498
 21
421.4953716829
 31
0.0
  0
LINE
  5
55D
330
1F
100
AcDbEntity
  8
0
  6
CONTINUOUS
 62
     7
100
AcDbLine
 10
1610.961190498
 20
832.995378597
 30
0.0
 11
1610.961190498
 21
788.9953788355
 31
0.0
  0
LINE
  5
55E
330
1F
100
AcDbEntity
  8
0
  6
CONTINUOUS
 62
     7
100
AcDbLine
 10
1610.961190498
 20
788.9953788355
 30
0.0
 11
1608.4611928822
 21
788.9953788355
 31
0.0
  0
LINE
  5
55F
330
1F
100
AcDbEntity
  8
0
  6
CONTINUOUS
 62
     7
100
AcDbLine
 10
1608.4611928822
 20
788.9953788355
 30
0.0
 11
1608.4611928822
 21
788.4953703716
 31
0.0
  0
LINE
  5
560
330
1F
100
AcDbEntity
  8
0
  6
CONTINUOUS
 62
     7
100
AcDbLine
 10
1607.9611844183
 20
785.4953791931
 30
0.0
 11
1608.4611928822
 21
785.4953791931
 31
0.0
  0
LINE
  5
561
330
1F
100
AcDbEntity
  8
0
  6
CONTINUOUS
 62
     7
100
AcDbLine
 10
1607.9611844183
 20
768.4953745439
 30
0.0
 11
1607.9611844183
 21
785.4953791931
 31
0.0
  0
LINE
  5
562
330
1F
100
AcDbEntity
  8
0
  6
CONTINUOUS
 62
     7
100
AcDbLine
 10
1608.4611928822
 20
768.4953745439
 30
0.0
 11
1607.9611844183
 21
768.4953745439
 31
0.0
  0
CIRCLE
  5
563
330
1F
100
AcDbEntity
  8
0
  6
CONTINUOUS
 62
     7
100
AcDbCircle
 10
1569.4611918093
 20
436.74537514
 30
0.0
 40
3.0
  0
CIRCLE
  5
564
330
1F
100
AcDbEntity
  8
0
  6
CONTINUOUS
 62
     7
100
AcDbCircle
 10
1569.4611918093
 20
436.74537514
 30
0.0
 40
2.386499999999842
  0
CIRCLE
  5
565
330
1F
100
AcDbEntity
  8
0
  6
CONTINUOUS
 62
     7
100
AcDbCircle
 10
1569.4611918093
 20
436.74537514
 30
0.0
 40
0.7592592592593519
  0
LINE
  5
566
330
1F
100
AcDbEntity
  8
0
  6
CONTINUOUS
 62
     7
100
AcDbLine
 10
1273.4611845375
 20
835.0382681921
 30
0.0
 11
1273.4611845375
 21
820.5934550598
 31
0.0
  0
LINE
  5
567
330
1F
100
AcDbEntity
  8
0
  6
CONTINUOUS
 62
     7
100
AcDbLine
 10
1273.4611845375
 20
433.8972952202
 30
0.0
 11
1273.4611845375
 21
419.4524820879
 31
0.0
  0
LINE
  5
568
330
1F
100
AcDbEntity
  8
0
  6
CONTINUOUS
 62
     7
100
AcDbLine
 10
1275.4611885907
 20
835.0382681921
 30
0.0
 11
1273.4611845375
 21
835.0382681921
 31
0.0
  0
LINE
  5
569
330
1F
100
AcDbEntity
  8
0
  6
CONTINUOUS
 62
     7
100
AcDbLine
 10
1275.4611885907
 20
835.0382681921
 30
0.0
 11
1275.4611885907
 21
634.425666368
 31
0.0
  0
LINE
  5
56A
330
1F
100
AcDbEntity
  8
0
  6
CONTINUOUS
 62
     7
100
AcDbLine
 10
1275.4611885907
 20
621.4178485781
 30
0.0
 11
1275.4611885907
 21
419.4524820879
 31
0.0
  0
LINE
  5
56B
330
1F
100
AcDbEntity
  8
0
  6
CONTINUOUS
 62
     7
100
AcDbLine
 10
1275.4611885907
 20
419.4524820879
 30
0.0
 11
1273.4611845375
 21
419.4524820879
 31
0.0
  0
LINE
  5
56C
330
1F
100
AcDbEntity
  8
0
  6
CONTINUOUS
 62
     7
100
AcDbLine
 10
1276.1682933928
 20
416.7453732326
 30
0.0
 11
1289.5564502837
 21
416.7453732326
 31
0.0
  0
LINE
  5
56D
330
1F
100
AcDbEntity
  8
0
  6
CONTINUOUS
 62
     7
100
AcDbLine
 10
1571.8659228445
 20
416.7453732326
 30
0.0
 11
1586.7540902258
 21
416.7453732326
 31
0.0
  0
LINE
  5
56E
330
1F
100
AcDbEntity
  8
0
  6
CONTINUOUS
 62
     7
100
AcDbLine
 10
1276.1682933928
 20
418.7453772857
 30
0.0
 11
1276.1682933928
 21
416.7453732326
 31
0.0
  0
LINE
  5
56F
330
1F
100
AcDbEntity
  8
0
  6
CONTINUOUS
 62
     7
100
AcDbLine
 10
1276.1682933928
 20
418.7453772857
 30
0.0
 11
1291.262230909
 21
418.7453772857
 31
0.0
  0
LINE
  5
570
330
1F
100
AcDbEntity
  8
0
  6
CONTINUOUS
 62
     7
100
AcDbLine
 10
1570.1601571204
 20
418.7453772857
 30
0.0
 11
1586.7540902258
 21
418.7453772857
 31
0.0
  0
LINE
  5
571
330
1F
100
AcDbEntity
  8
0
  6
CONTINUOUS
 62
     7
100
AcDbLine
 10
1586.7540902258
 20
418.7453772857
 30
0.0
 11
1586.7540902258
 21
416.7453732326
 31
0.0
  0
LINE
  5
572
330
1F
100
AcDbEntity
  8
0
  6
CONTINUOUS
 62
     7
100
AcDbLine
 10
1589.4611990811
 20
419.4524820879
 30
0.0
 11
1589.4611990811
 21
835.0382681921
 31
0.0
  0
LINE
  5
573
330
1F
100
AcDbEntity
  8
0
  6
CONTINUOUS
 62
     7
100
AcDbLine
 10
1587.461195028
 20
419.4524820879
 30
0.0
 11
1589.4611990811
 21
419.4524820879
 31
0.0
  0
LINE
  5
574
330
1F
100
AcDbEntity
  8
0
  6
CONTINUOUS
 62
     7
100
AcDbLine
 10
1587.461195028
 20
419.4524820879
 30
0.0
 11
1587.461195028
 21
835.0382681921
 31
0.0
  0
LINE
  5
575
330
1F
100
AcDbEntity
  8
0
  6
CONTINUOUS
 62
     7
100
AcDbLine
 10
1587.461195028
 20
835.0382681921
 30
0.0
 11
1589.4611990811
 21
835.0382681921
 31
0.0
  0
LINE
  5
576
330
1F
100
AcDbEntity
  8
0
  6
CONTINUOUS
 62
     7
100
AcDbLine
 10
1586.7540902258
 20
837.7453770473
 30
0.0
 11
1276.1682933928
 21
837.7453770473
 31
0.0
  0
LINE
  5
577
330
1F
100
AcDbEntity
  8
0
  6
CONTINUOUS
 62
     7
100
AcDbLine
 10
1586.7540902258
 20
835.7453729942
 30
0.0
 11
1586.7540902258
 21
837.7453770473
 31
0.0
  0
LINE
  5
578
330
1F
100
AcDbEntity
  8
0
  6
CONTINUOUS
 62
     7
100
AcDbLine
 10
1586.7540902258
 20
835.7453729942
 30
0.0
 11
1276.1682933928
 21
835.7453729942
 31
0.0
  0
LINE
  5
579
330
1F
100
AcDbEntity
  8
0
  6
CONTINUOUS
 62
     7
100
AcDbLine
 10
1276.1682933928
 20
835.7453729942
 30
0.0
 11
1276.1682933928
 21
837.7453770473
 31
0.0
  0
LWPOLYLINE
  5
57A
330
1F
100
AcDbEntity
  8
0
  6
CONTINUOUS
 62
     7
100
AcDbPolyline
 90
        6
 70
   128
 43
0.0
 10
1276.9611990811
 20
834.245377405
 10
1276.4381087185
 20
834.4251748159
 10
1275.9806877734
 20
834.604987128
 10
1275.6464696289
 20
834.7847249344
 10
1275.4771924378
 20
834.9644627407
 10
1275.4611885907
 20
835.0382681921
  0
ARC
  5
57B
330
1F
100
AcDbEntity
  8
0
  6
CONTINUOUS
 62
     7
100
AcDbCircle
 10
1277.5593030989
 20
417.2985408839
 30
0.0
 40
3.00691656015911
100
AcDbArc
 50
101.4731919158
 51
134.2477873079
  0
LINE
  5
57C
330
1F
100
AcDbEntity
  8
0
  6
CONTINUOUS
 62
     7
100
AcDbLine
 10
1585.9611845375
 20
420.245372875
 30
0.0
 11
1276.9611990811
 21
420.245372875
 31
0.0
  0
ARC
  5
57D
330
1F
100
AcDbEntity
  8
0
  6
CONTINUOUS
 62
     7
100
AcDbCircle
 10
1588.9079114843
 20
420.8434636062
 30
0.0
 40
3.006810971969016
100
AcDbArc
 50
191.4733419413
 51
224.2489973553
  0
LWPOLYLINE
  5
57E
330
1F
100
AcDbEntity
  8
0
  6
CONTINUOUS
 62
     7
100
AcDbPolyline
 90
        6
 70
   128
 43
0.0
 10
1276.9611990811
 20
420.245372875
 10
1276.781386769
 20
419.7222974136
 10
1276.601589358
 20
419.2648764684
 10
1276.4218366505
 20
418.930658324
 10
1276.2420988442
 20
418.7613811329
 10
1276.1682933928
 20
418.7453772857
  0
LINE
  5
57F
330
1F
100
AcDbEntity
  8
0
  6
CONTINUOUS
 62
     7
100
AcDbLine
 10
1585.9611845375
 20
834.245377405
 30
0.0
 11
1585.9611845375
 21
420.245372875
 31
0.0
  0
ARC
  5
580
330
1F
100
AcDbEntity
  8
0
  6
CONTINUOUS
 62
     7
100
AcDbCircle
 10
1585.3630805197
 20
837.192209396
 30
0.0
 40
3.006916560158965
100
AcDbArc
 50
281.4731919158
 51
314.2477873079
  0
LWPOLYLINE
  5
581
330
1F
100
AcDbEntity
  8
0
  6
CONTINUOUS
 62
     7
100
AcDbPolyline
 90
        6
 70
   128
 43
0.0
 10
1585.9611845375
 20
420.245372875
 10
1586.4842749001
 20
420.065575464
 10
1586.9416958453
 20
419.8857631519
 10
1587.2759139897
 20
419.7060253456
 10
1587.4451911808
 20
419.5262875393
 10
1587.461195028
 20
419.4524820879
  0
LINE
  5
582
330
1F
100
AcDbEntity
  8
0
  6
CONTINUOUS
 62
     7
100
AcDbLine
 10
1276.9611990811
 20
834.245377405
 30
0.0
 11
1585.9611845375
 21
834.245377405
 31
0.0
  0
LWPOLYLINE
  5
583
330
1F
100
AcDbEntity
  8
0
  6
CONTINUOUS
 62
     7
100
AcDbPolyline
 90
        6
 70
   128
 43
0.0
 10
1585.9611845375
 20
834.245377405
 10
1586.1409968497
 20
834.7684528663
 10
1586.3207942606
 20
835.2258738115
 10
1586.5005469681
 20
835.5600919559
 10
1586.6802847744
 20
835.7293691471
 10
1586.7540902258
 20
835.7453729942
  0
ARC
  5
584
330
1F
100
AcDbEntity
  8
0
  6
CONTINUOUS
 62
     7
100
AcDbCircle
 10
1274.0144721344
 20
833.6472866738
 30
0.0
 40
3.006810971969027
100
AcDbArc
 50
11.4733419413
 51
44.2489973553
  0
LINE
  5
585
330
1F
100
AcDbEntity
  8
0
  6
CONTINUOUS
 62
     7
100
AcDbLine
 10
1292.2260529162
 20
619.7274603866
 30
0.0
 11
1291.0773373009
 21
620.8761825211
 31
0.0
  0
LINE
  5
586
330
1F
100
AcDbEntity
  8
0
  6
CONTINUOUS
 62
     7
100
AcDbLine
 10
1302.4791098
 20
624.5102418571
 30
0.0
 11
1297.6963287951
 21
619.7274603866
 31
0.0
  0
LINE
  5
587
330
1F
100
AcDbEntity
  8
0
  6
CONTINUOUS
 62
     7
100
AcDbLine
 10
1297.6963287951
 20
634.7632898934
 30
0.0
 11
1302.4791098
 21
629.9805084228
 31
0.0
  0
LINE
  5
588
330
1F
100
AcDbEntity
  8
0
  6
CONTINUOUS
 62
     7
100
AcDbLine
 10
1291.3377350928
 20
633.8749683447
 30
0.0
 11
1292.2260529162
 21
634.7632898934
 31
0.0
  0
LINE
  5
589
330
1F
100
AcDbEntity
  8
0
  6
CONTINUOUS
 62
     7
100
AcDbLine
 10
1293.716675675
 20
622.8428987771
 30
0.0
 11
1294.0870589377
 21
623.8562925238
 31
0.0
  0
LINE
  5
58A
330
1F
100
AcDbEntity
  8
0
  6
CONTINUOUS
 62
     7
100
AcDbLine
 10
1295.5984092118
 20
623.8038693074
 30
0.0
 11
1295.897669232
 21
622.76724791
 31
0.0
  0
ARC
  5
58B
330
1F
100
AcDbEntity
  8
0
  6
CONTINUOUS
 62
     7
100
AcDbCircle
 10
1294.9611918093
 20
627.24537514
 30
0.0
 40
4.575000000000304
100
AcDbArc
 50
281.8116936075
 51
350.4775102565
  0
LINE
  5
58C
330
1F
100
AcDbEntity
  8
0
  6
CONTINUOUS
 62
     7
100
AcDbLine
 10
1299.473158157
 20
626.4885112279
 30
0.0
 11
1298.3865058781
 21
626.526202842
 31
0.0
  0
LINE
  5
58D
330
1F
100
AcDbEntity
  8
0
  6
CONTINUOUS
 62
     7
100
AcDbLine
 10
1298.086053765
 20
628.8218419751
 30
0.0
 11
1300.4520154358
 21
630.0154525771
 31
0.0
  0
LINE
  5
58E
330
1F
100
AcDbEntity
  8
0
  6
CONTINUOUS
 62
     7
100
AcDbLine
 10
1289.6754956604
 20
630.3892498355
 30
0.0
 11
1291.9530785443
 21
629.0345721164
 31
0.0
  0
LINE
  5
58F
330
1F
100
AcDbEntity
  8
0
  6
CONTINUOUS
 62
     7
100
AcDbLine
 10
1291.4942717911
 20
626.7652686321
 30
0.0
 11
1290.4076344134
 21
626.8029602753
 31
0.0
  0
ARC
  5
590
330
1F
100
AcDbEntity
  8
0
  6
CONTINUOUS
 62
     7
100
AcDbCircle
 10
1294.9611918093
 20
627.24537514
 30
0.0
 40
4.575000000000171
100
AcDbArc
 50
185.5493289411
 51
254.21514559
  0
ARC
  5
591
330
1F
100
AcDbEntity
  8
0
  6
CONTINUOUS
 62
     7
100
AcDbCircle
 10
1294.9611918093
 20
627.24537514
 30
0.0
 40
6.150000000000109
100
AcDbArc
 50
149.2562625574
 51
26.7705766402
  0
LINE
  5
592
330
1F
100
AcDbEntity
  8
0
  6
CONTINUOUS
 62
     7
100
AcDbLine
 10
1290.605611241
 20
625.8455216404
 30
0.0
 11
1291.6601813198
 21
625.8089426657
 31
0.0
  0
ARC
  5
593
330
1F
100
AcDbEntity
  8
0
  6
CONTINUOUS
 62
     7
100
AcDbCircle
 10
1294.9611918093
 20
627.24537514
 30
0.0
 40
3.600000000000115
100
AcDbArc
 50
203.5162418567
 51
242.5105973408
  0
LINE
  5
594
330
1F
100
AcDbEntity
  8
0
  6
CONTINUOUS
 62
     7
100
AcDbLine
 10
1293.2994878651
 20
624.0518288206
 30
0.0
 11
1293.2629055144
 21
622.9972626999
 31
0.0
  0
LINE
  5
595
330
1F
100
AcDbEntity
  8
0
  6
CONTINUOUS
 62
     7
100
AcDbLine
 10
1296.3610506417
 20
622.889800182
 30
0.0
 11
1296.3976180912
 21
623.944365837
 31
0.0
  0
ARC
  5
596
330
1F
100
AcDbEntity
  8
0
  6
CONTINUOUS
 62
     7
100
AcDbCircle
 10
1294.9611918093
 20
627.24537514
 30
0.0
 40
3.600000000000069
100
AcDbArc
 50
293.5162418567
 51
332.5105973408
  0
LINE
  5
597
330
1F
100
AcDbEntity
  8
0
  6
CONTINUOUS
 62
     7
100
AcDbLine
 10
1298.1547332169
 20
625.5836707525
 30
0.0
 11
1299.2093032957
 21
625.5470917778
 31
0.0
  0
ARC
  5
598
330
1F
100
AcDbEntity
  8
0
  6
CONTINUOUS
 62
     7
100
AcDbCircle
 10
1294.9611918093
 20
627.24537514
 30
0.0
 40
3.600000000000005
100
AcDbArc
 50
26.7705766402
 51
62.5105973408
  0
LINE
  5
599
330
1F
100
AcDbEntity
  8
0
  6
CONTINUOUS
 62
     7
100
AcDbLine
 10
1296.6228938462
 20
630.4389214594
 30
0.0
 11
1296.6604000689
 21
631.5200335331
 31
0.0
  0
ARC
  5
59A
330
1F
100
AcDbEntity
  8
0
  6
CONTINUOUS
 62
     7
100
AcDbCircle
 10
1294.9611918093
 20
627.24537514
 30
0.0
 40
4.600000000000136
100
AcDbArc
 50
68.3218625786
 51
107.704976619
  0
LINE
  5
59B
330
1F
100
AcDbEntity
  8
0
  6
CONTINUOUS
 62
     7
100
AcDbLine
 10
1293.5622549416
 20
631.6274965167
 30
0.0
 11
1293.52476362
 21
630.5463844429
 31
0.0
  0
ARC
  5
59C
330
1F
100
AcDbEntity
  8
0
  6
CONTINUOUS
 62
     7
100
AcDbCircle
 10
1294.9611918093
 20
627.24537514
 30
0.0
 40
3.599999999999952
100
AcDbArc
 50
113.5162418568
 51
149.2562625574
  0
LINE
  5
59D
330
1F
100
AcDbEntity
  8
0
  6
CONTINUOUS
 62
     7
100
AcDbLine
 10
1294.7358703972
 20
620.7492819041
 30
0.0
 11
1271.6467148425
 21
621.5501583166
 31
0.0
  0
LINE
  5
59E
330
1F
100
AcDbEntity
  8
0
  6
CONTINUOUS
 62
     7
100
AcDbLine
 10
1272.0973706604
 20
634.5423447884
 30
0.0
 11
1295.186511314
 21
633.7414683759
 31
0.0
  0
ARC
  5
59F
330
1F
100
AcDbEntity
  8
0
  6
CONTINUOUS
 62
     7
100
AcDbCircle
 10
1294.9611918093
 20
627.24537514
 30
0.0
 40
6.500000000000028
100
AcDbArc
 50
268.0134195988
 51
88.0134195988
  0
ARC
  5
5A0
330
1F
100
AcDbEntity
  8
0
  6
CONTINUOUS
 62
     7
100
AcDbCircle
 10
1294.9611918093
 20
627.24537514
 30
0.0
 40
24.00000000000416
100
AcDbArc
 50
162.2995585508
 51
193.7272806468
  0
LWPOLYLINE
  5
5A1
330
1F
100
AcDbEntity
  8
0
  6
CONTINUOUS
 62
     7
100
AcDbPolyline
 90
        3
 70
   128
 43
0.0
 10
1290.0749808909
 20
620.9109506555
 10
1290.9711516262
 20
620.3114275805
 10
1292.484871185
 20
619.6382857844
  0
ARC
  5
5A2
330
1F
100
AcDbEntity
  8
0
  6
CONTINUOUS
 62
     7
100
AcDbCircle
 10
1294.9611918093
 20
627.24537514
 30
0.0
 40
8.000000000000131
100
AcDbArc
 50
284.0583952269
 51
341.9684439706
  0
ARC
  5
5A3
330
1F
100
AcDbEntity
  8
0
  6
CONTINUOUS
 62
     7
100
AcDbCircle
 10
1294.9611918093
 20
627.24537514
 30
0.0
 40
7.999999999999993
100
AcDbArc
 50
14.0583952269
 51
71.9684439706
  0
LWPOLYLINE
  5
5A4
330
1F
100
AcDbEntity
  8
0
  6
CONTINUOUS
 62
     7
100
AcDbPolyline
 90
        3
 70
   128
 43
0.0
 10
1293.017900622
 20
635.0057643823
 10
1291.4611912133
 20
634.4391239792
 10
1290.5256367089
 20
633.9031371273
  0
LINE
  5
5A5
330
1F
100
AcDbEntity
  8
0
  6
CONTINUOUS
 62
     7
100
AcDbLine
 10
1287.9739767672
 20
633.9916444368
 30
0.0
 11
1289.8089802624
 21
636.929799056
 31
0.0
  0
LINE
  5
5A6
330
1F
100
AcDbEntity
  8
0
  6
CONTINUOUS
 62
     7
100
AcDbLine
 10
1289.8089802624
 20
636.929799056
 30
0.0
 11
1300.7720476748
 21
636.5495316669
 31
0.0
  0
LINE
  5
5A7
330
1F
100
AcDbEntity
  8
0
  6
CONTINUOUS
 62
     7
100
AcDbLine
 10
1300.7720476748
 20
636.5495316669
 30
0.0
 11
1305.924258268
 21
626.8651074016
 31
0.0
  0
LINE
  5
5A8
330
1F
100
AcDbEntity
  8
0
  6
CONTINUOUS
 62
     7
100
AcDbLine
 10
1305.924258268
 20
626.8651074016
 30
0.0
 11
1300.1134014489
 21
617.5609512239
 31
0.0
  0
LINE
  5
5A9
330
1F
100
AcDbEntity
  8
0
  6
CONTINUOUS
 62
     7
100
AcDbLine
 10
1300.1134014489
 20
617.5609512239
 30
0.0
 11
1289.1503340365
 21
617.9412186131
 31
0.0
  0
LINE
  5
5AA
330
1F
100
AcDbEntity
  8
0
  6
CONTINUOUS
 62
     7
100
AcDbLine
 10
1289.1503340365
 20
617.9412186131
 30
0.0
 11
1287.5233209492
 21
620.999457965
 31
0.0
  0
CIRCLE
  5
5AB
330
1F
100
AcDbEntity
  8
0
  6
CONTINUOUS
 62
     7
100
AcDbCircle
 10
1294.9611918093
 20
627.24537514
 30
0.0
 40
3.499999999999951
  0
LINE
  5
5AC
330
1F
100
AcDbEntity
  8
0
  6
CONTINUOUS
 62
     7
100
AcDbLine
 10
1293.609163797
 20
631.5374641664
 30
0.0
 11
1293.571717179
 21
630.4577502407
 31
0.0
  0
ARC
  5
5AD
330
1F
100
AcDbEntity
  8
0
  6
CONTINUOUS
 62
     7
100
AcDbCircle
 10
1294.9611918093
 20
627.24537514
 30
0.0
 40
4.499999999999666
100
AcDbArc
 50
68.5421989643
 51
107.4846402333
  0
LINE
  5
5AE
330
1F
100
AcDbEntity
  8
0
  6
CONTINUOUS
 62
     7
100
AcDbLine
 10
1296.6073668362
 20
631.4334675654
 30
0.0
 11
1296.569905317
 21
630.3537541054
 31
0.0
  0
ARC
  5
5AF
330
1F
100
AcDbEntity
  8
0
  6
CONTINUOUS
 62
     7
100
AcDbCircle
 10
1294.9611918093
 20
627.24537514
 30
0.0
 40
4.500000000000064
100
AcDbArc
 50
338.5421989643
 51
349.4643407683
  0
LINE
  5
5B0
330
1F
100
AcDbEntity
  8
0
  6
CONTINUOUS
 62
     7
100
AcDbLine
 10
1299.1492814185
 20
625.5992036996
 30
0.0
 11
1298.0695730807
 21
625.6366549743
 31
0.0
  0
LINE
  5
5B1
330
1F
100
AcDbEntity
  8
0
  6
CONTINUOUS
 62
     7
100
AcDbLine
 10
1296.3506645323
 20
624.0330000393
 30
0.0
 11
1296.3132179142
 21
622.9532861136
 31
0.0
  0
LWPOLYLINE
  5
5B2
330
1F
100
AcDbEntity
  8
0
  6
CONTINUOUS
 62
     7
100
AcDbPolyline
 90
        3
 70
   128
 43
0.0
 10
1293.3150148751
 20
623.0572827145
 10
1293.6763531329
 20
622.932699228
 10
1293.7424993874
 20
622.913542854
  0
LWPOLYLINE
  5
5B3
330
1F
100
AcDbEntity
  8
0
  6
CONTINUOUS
 62
     7
100
AcDbPolyline
 90
        3
 70
   128
 43
0.0
 10
1295.8768076064
 20
622.8395110912
 10
1295.9441310526
 20
622.8540383264
 10
1296.3132179142
 20
622.9532861136
  0
LINE
  5
5B4
330
1F
100
AcDbEntity
  8
0
  6
CONTINUOUS
 62
     7
100
AcDbLine
 10
1293.3524763943
 20
624.1369961746
 30
0.0
 11
1293.3150148751
 21
623.0572827145
 31
0.0
  0
LINE
  5
5B5
330
1F
100
AcDbEntity
  8
0
  6
CONTINUOUS
 62
     7
100
AcDbLine
 10
1290.6691050888
 20
625.8933495948
 30
0.0
 11
1291.7488134266
 21
625.8558983201
 31
0.0
  0
ARC
  5
5B6
330
1F
100
AcDbEntity
  8
0
  6
CONTINUOUS
 62
     7
100
AcDbCircle
 10
1294.9611918093
 20
627.24537514
 30
0.0
 40
4.500000000000023
100
AcDbArc
 50
185.6756752596
 51
197.4846402333
  0
ARC
  5
5B7
330
1F
100
AcDbEntity
  8
0
  6
CONTINUOUS
 62
     7
100
AcDbCircle
 10
1294.9611918093
 20
627.24537514
 30
0.0
 40
6.999999999999978
100
AcDbArc
 50
246.2266303005
 51
109.800208897
  0
LWPOLYLINE
  5
5B8
330
1F
100
AcDbEntity
  8
0
  6
CONTINUOUS
 62
     7
100
AcDbPolyline
 90
        4
 70
   128
 43
0.0
 10
1296.9044810892
 20
619.4849858977
 10
1298.0926847817
 20
620.593527051
 10
1299.3912315728
 20
621.8050096169
 10
1299.7363722683
 20
622.1270176567
  0
ARC
  5
5B9
330
1F
100
AcDbEntity
  8
0
  6
CONTINUOUS
 62
     7
100
AcDbCircle
 10
1294.9611918093
 20
627.24537514
 30
0.0
 40
7.999999999999982
100
AcDbArc
 50
251.9684439706
 51
284.0583952269
  0
LWPOLYLINE
  5
5BA
330
1F
100
AcDbEntity
  8
0
  6
CONTINUOUS
 62
     7
100
AcDbPolyline
 90
        3
 70
   128
 43
0.0
 10
1291.3384205462
 20
620.867126806
 10
1291.5536827208
 20
620.6363935008
 10
1292.484871185
 20
619.6382857844
  0
ARC
  5
5BB
330
1F
100
AcDbEntity
  8
0
  6
CONTINUOUS
 62
     7
100
AcDbCircle
 10
1294.9611918093
 20
627.24537514
 30
0.0
 40
7.999999999999874
100
AcDbArc
 50
71.9684439706
 51
104.0583952269
  0
LWPOLYLINE
  5
5BC
330
1F
100
AcDbEntity
  8
0
  6
CONTINUOUS
 62
     7
100
AcDbPolyline
 90
        3
 70
   128
 43
0.0
 10
1300.0795460106
 20
632.0205626063
 10
1298.3686989905
 20
633.8543567791
 10
1297.4375105263
 20
634.8524644956
  0
LWPOLYLINE
  5
5BD
330
1F
100
AcDbEntity
  8
0
  6
CONTINUOUS
 62
     7
100
AcDbPolyline
 90
        3
 70
   128
 43
0.0
 10
1293.017900622
 20
635.0057643823
 10
1291.8296969296
 20
633.8972232289
 10
1291.789061463
 20
633.8593132779
  0
LWPOLYLINE
  5
5BE
330
1F
100
AcDbEntity
  8
0
  6
CONTINUOUS
 62
     7
100
AcDbPolyline
 90
        4
 70
   128
 43
0.0
 10
1302.7215814949
 20
629.1886606006
 10
1301.6130394102
 20
630.3768674362
 10
1300.401560104
 20
631.6754135288
 10
1300.0795460106
 20
632.0205626063
  0
ARC
  5
5BF
330
1F
100
AcDbEntity
  8
0
  6
CONTINUOUS
 62
     7
100
AcDbCircle
 10
1294.9611918093
 20
627.24537514
 30
0.0
 40
8.000000000000126
100
AcDbArc
 50
341.9684439706
 51
14.0583952269
  0
LWPOLYLINE
  5
5C0
330
1F
100
AcDbEntity
  8
0
  6
CONTINUOUS
 62
     7
100
AcDbPolyline
 90
        3
 70
   128
 43
0.0
 10
1299.7363722683
 20
622.1270176567
 10
1301.5701687695
 20
623.8378614172
 10
1302.5682783486
 20
624.7690491829
  0
LINE
  5
5C1
330
1F
100
AcDbEntity
  8
0
  6
CONTINUOUS
 62
     8
100
AcDbLine
 10
1276.9611990811
 20
420.245372875
 30
0.0
 11
1276.9611990811
 21
621.3658188454
 31
0.0
  0
LINE
  5
5C2
330
1F
100
AcDbEntity
  8
0
  6
CONTINUOUS
 62
     8
100
AcDbLine
 10
1276.9611990811
 20
634.373637101
 30
0.0
 11
1276.9611990811
 21
834.245377405
 31
0.0
  0
ENDSEC
  0
SECTION
  2
OBJECTS
  0
DICTIONARY
  5
C
330
0
100
AcDbDictionary
  3
ACAD_GROUP
350
D
  3
ACAD_MLINESTYLE
350
17
  0
DICTIONARY
  5
D
102
{ACAD_REACTORS
330
C
102
}
330
C
100
AcDbDictionary
  0
DICTIONARY
  5
17
102
{ACAD_REACTORS
330
C
102
}
330
C
100
AcDbDictionary
  3
STANDARD
350
18
  0
MLINESTYLE
  5
18
102
{ACAD_REACTORS
330
17
102
}
330
17
100
AcDbMlineStyle
  2
Standard
 70
     0
  3

 62
   256
 51
90.0
 52
90.0
 71
     2
 49
0.5
 62
   256
  6
BYLAYER
 49
-0.5
 62
   256
  6
BYLAYER
  0
ENDSEC
  0
EOF
