  0
SECTION
  2
HEADER
  9
$ACADVER
  1
AC1014
  9
$ACADMAINTVER
 70
     9
  9
$DWGCODEPAGE
  3
ANSI_1252
  9
$INSBASE
 10
0.0
 20
0.0
 30
0.0
  9
$EXTMIN
 10
0.0
 20
0.0
 30
0.0
  9
$EXTMAX
 10
840.0
 20
594.0
 30
0.0
  9
$LIMMIN
 10
0.0
 20
0.0
  9
$LIMMAX
 10
840.0
 20
594.0
  9
$ORTHOMODE
 70
     0
  9
$REGENMODE
 70
     1
  9
$FILLMODE
 70
     1
  9
$QTEXTMODE
 70
     0
  9
$MIRRTEXT
 70
     1
  9
$DRAGMODE
 70
     2
  9
$LTSCALE
 40
2.0
  9
$OSMODE
 70
    37
  9
$ATTMODE
 70
     1
  9
$TEXTSIZE
 40
7.0
  9
$TRACEWID
 40
1.0
  9
$TEXTSTYLE
  7
STANDARD
  9
$CLAYER
  8
0
  9
$CELTYPE
  6
BYLAYER
  9
$CECOLOR
 62
   256
  9
$CELTSCALE
 40
1.0
  9
$DELOBJ
 70
     1
  9
$DISPSILH
 70
     0
  9
$DIMSCALE
 40
1.0
  9
$DIMASZ
 40
12.0
  9
$DIMEXO
 40
2.0
  9
$DIMDLI
 40
3.75
  9
$DIMRND
 40
0.0
  9
$DIMDLE
 40
0.0
  9
$DIMEXE
 40
2.0
  9
$DIMTP
 40
0.0
  9
$DIMTM
 40
0.0
  9
$DIMTXT
 40
7.0
  9
$DIMCEN
 40
2.5
  9
$DIMTSZ
 40
0.0
  9
$DIMTOL
 70
     0
  9
$DIMLIM
 70
     0
  9
$DIMTIH
 70
     1
  9
$DIMTOH
 70
     1
  9
$DIMSE1
 70
     0
  9
$DIMSE2
 70
     0
  9
$DIMTAD
 70
     1
  9
$DIMZIN
 70
     0
  9
$DIMBLK
  1

  9
$DIMASO
 70
     1
  9
$DIMSHO
 70
     1
  9
$DIMPOST
  1

  9
$DIMAPOST
  1

  9
$DIMALT
 70
     0
  9
$DIMALTD
 70
     3
  9
$DIMALTF
 40
0.0393700787
  9
$DIMLFAC
 40
1.0
  9
$DIMTOFL
 70
     1
  9
$DIMTVP
 40
0.0
  9
$DIMTIX
 70
     0
  9
$DIMSOXD
 70
     0
  9
$DIMSAH
 70
     0
  9
$DIMBLK1
  1

  9
$DIMBLK2
  1

  9
$DIMSTYLE
  2
ISO-25
  9
$DIMCLRD
 70
     0
  9
$DIMCLRE
 70
     0
  9
$DIMCLRT
 70
     0
  9
$DIMTFAC
 40
1.0
  9
$DIMGAP
 40
3.048
  9
$DIMJUST
 70
     0
  9
$DIMSD1
 70
     0
  9
$DIMSD2
 70
     0
  9
$DIMTOLJ
 70
     0
  9
$DIMTZIN
 70
     0
  9
$DIMALTZ
 70
     0
  9
$DIMALTTZ
 70
     0
  9
$DIMFIT
 70
     3
  9
$DIMUPT
 70
     0
  9
$DIMUNIT
 70
     2
  9
$DIMDEC
 70
     2
  9
$DIMTDEC
 70
     2
  9
$DIMALTU
 70
     2
  9
$DIMALTTD
 70
     3
  9
$DIMTXSTY
  7
STANDARD
  9
$DIMAUNIT
 70
     0
  9
$LUNITS
 70
     2
  9
$LUPREC
 70
     2
  9
$SKETCHINC
 40
1.0
  9
$FILLETRAD
 40
10.0
  9
$AUNITS
 70
     0
  9
$AUPREC
 70
     2
  9
$MENU
  1
.
  9
$ELEVATION
 40
0.0
  9
$PELEVATION
 40
0.0
  9
$THICKNESS
 40
0.0
  9
$LIMCHECK
 70
     0
  9
$CHAMFERA
 40
10.0
  9
$CHAMFERB
 40
10.0
  9
$CHAMFERC
 40
20.0
  9
$CHAMFERD
 40
0.0
  9
$SKPOLY
 70
     0
  9
$TDCREATE
 40
2456582.439256736
  9
$TDUPDATE
 40
2456582.439257361
  9
$TDINDWG
 40
0.0000000116
  9
$TDUSRTIMER
 40
0.0000000116
  9
$USRTIMER
 70
     1
  9
$ANGBASE
 50
0.0
  9
$ANGDIR
 70
     0
  9
$PDMODE
 70
     0
  9
$PDSIZE
 40
-1.0
  9
$PLINEWID
 40
0.0
  9
$COORDS
 70
     1
  9
$SPLFRAME
 70
     0
  9
$SPLINETYPE
 70
     6
  9
$SPLINESEGS
 70
     8
  9
$ATTDIA
 70
     0
  9
$ATTREQ
 70
     1
  9
$HANDLING
 70
     1
  9
$HANDSEED
  5
5BC
  9
$SURFTAB1
 70
     6
  9
$SURFTAB2
 70
     6
  9
$SURFTYPE
 70
     6
  9
$SURFU
 70
     6
  9
$SURFV
 70
     6
  9
$UCSNAME
  2

  9
$UCSORG
 10
0.0
 20
0.0
 30
0.0
  9
$UCSXDIR
 10
1.0
 20
0.0
 30
0.0
  9
$UCSYDIR
 10
0.0
 20
1.0
 30
0.0
  9
$PUCSNAME
  2

  9
$PUCSORG
 10
0.0
 20
0.0
 30
0.0
  9
$PUCSXDIR
 10
1.0
 20
0.0
 30
0.0
  9
$PUCSYDIR
 10
0.0
 20
1.0
 30
0.0
  9
$USERI1
 70
     0
  9
$USERI2
 70
     0
  9
$USERI3
 70
     0
  9
$USERI4
 70
     0
  9
$USERI5
 70
     0
  9
$USERR1
 40
0.0
  9
$USERR2
 40
0.0
  9
$USERR3
 40
0.0
  9
$USERR4
 40
0.0
  9
$USERR5
 40
0.0
  9
$WORLDVIEW
 70
     1
  9
$SHADEDGE
 70
     3
  9
$SHADEDIF
 70
    70
  9
$TILEMODE
 70
     1
  9
$MAXACTVP
 70
    64
  9
$PINSBASE
 10
0.0
 20
0.0
 30
0.0
  9
$PLIMCHECK
 70
     0
  9
$PEXTMIN
 10
1.0000000000E+20
 20
1.0000000000E+20
 30
1.0000000000E+20
  9
$PEXTMAX
 10
-1.0000000000E+20
 20
-1.0000000000E+20
 30
-1.0000000000E+20
  9
$PLIMMIN
 10
0.0
 20
0.0
  9
$PLIMMAX
 10
420.0
 20
297.0
  9
$UNITMODE
 70
     0
  9
$VISRETAIN
 70
     1
  9
$PLINEGEN
 70
     0
  9
$PSLTSCALE
 70
     1
  9
$TREEDEPTH
 70
  3020
  9
$PICKSTYLE
 70
     1
  9
$CMLSTYLE
  2
STANDARD
  9
$CMLJUST
 70
     0
  9
$CMLSCALE
 40
20.0
  9
$PROXYGRAPHICS
 70
     1
  9
$MEASUREMENT
 70
     1
  0
ENDSEC
  0
SECTION
  2
CLASSES
  0
CLASS
  1
ACDBDICTIONARYWDFLT
  2
AcDbDictionaryWithDefault
  3
ObjectDBX Classes
 90
        0
280
     0
281
     0
  0
CLASS
  1
VISUALSTYLE
  2
AcDbVisualStyle
  3
ObjectDBX Classes
 90
     4095
280
     0
281
     0
  0
CLASS
  1
MATERIAL
  2
AcDbMaterial
  3
ObjectDBX Classes
 90
     1153
280
     0
281
     0
  0
CLASS
  1
XRECORD
  2
AcDbXrecord
  3
AutoCAD 2000
 90
        0
280
     0
281
     0
  0
CLASS
  1
LWPOLYLINE
  2
AcDbPolyline
  3
AutoCAD 2000
 90
        0
280
     0
281
     1
  0
CLASS
  1
HATCH
  2
AcDbHatch
  3
AutoCAD 2000
 90
        0
280
     0
281
     1
  0
ENDSEC
  0
SECTION
  2
TABLES
  0
TABLE
  2
VPORT
  5
8
330
0
100
AcDbSymbolTable
 70
     1
  0
VPORT
  5
29
330
8
100
AcDbSymbolTableRecord
100
AcDbViewportTableRecord
  2
*ACTIVE
 70
     0
 10
0.0
 20
0.0
 11
1.0
 21
1.0
 12
420.0
 22
297.0
 13
0.0
 23
0.0
 14
10.0
 24
10.0
 15
10.0
 25
10.0
 16
0.0
 26
0.0
 36
1.0
 17
0.0
 27
0.0
 37
0.0
 40
594.0
 41
1.4141414141
 42
50.0
 43
0.0
 44
0.0
 50
0.0
 51
0.0
 71
     0
 72
  2000
 73
     1
 74
     3
 75
     0
 76
     0
 77
     0
 78
     0
  0
ENDTAB
  0
TABLE
  2
LTYPE
  5
5
330
0
100
AcDbSymbolTable
 70
     6
  0
LTYPE
  5
14
330
5
100
AcDbSymbolTableRecord
100
AcDbLinetypeTableRecord
  2
BYBLOCK
 70
     0
  3

 72
    65
 73
     0
 40
0.0
  0
LTYPE
  5
15
330
5
100
AcDbSymbolTableRecord
100
AcDbLinetypeTableRecord
  2
BYLAYER
 70
     0
  3

 72
    65
 73
     0
 40
0.0
  0
LTYPE
  5
16
330
5
100
AcDbSymbolTableRecord
100
AcDbLinetypeTableRecord
  2
CONTINUOUS
 70
     0
  3
Solid line
 72
    65
 73
     0
 40
0.0
  0
LTYPE
  5
3F
330
5
100
AcDbSymbolTableRecord
100
AcDbLinetypeTableRecord
  2
HIDDEN
 70
     0
  3
Hidden __ __ __ __ __ __ __ __ __ __ __ __ __ __
 72
    65
 73
     2
 40
1.905
 49
1.27
 74
     0
 49
-0.635
 74
     0
  0
LTYPE
  5
40
330
5
100
AcDbSymbolTableRecord
100
AcDbLinetypeTableRecord
  2
PHANTOM
 70
     0
  3
Phantom ______  __  __  ______  __  __  ______
 72
    65
 73
     6
 40
12.7
 49
6.35
 74
     0
 49
-1.27
 74
     0
 49
1.27
 74
     0
 49
-1.27
 74
     0
 49
1.27
 74
     0
 49
-1.27
 74
     0
  0
LTYPE
  5
41
330
5
100
AcDbSymbolTableRecord
100
AcDbLinetypeTableRecord
  2
CENTER
 70
     0
  3
Center ____ _ ____ _ ____ _ ____ _ ____ _ ____
 72
    65
 73
     4
 40
10.16
 49
6.35
 74
     0
 49
-1.27
 74
     0
 49
1.27
 74
     0
 49
-1.27
 74
     0
  0
LTYPE
  5
42
330
5
100
AcDbSymbolTableRecord
100
AcDbLinetypeTableRecord
  2
CENTERX2
 70
     0
  3
Center (2x) ________  __  ________  __  _____
 72
    65
 73
     4
 40
20.32
 49
12.7
 74
     0
 49
-2.54
 74
     0
 49
2.54
 74
     0
 49
-2.54
 74
     0
  0
LTYPE
  5
43
330
5
100
AcDbSymbolTableRecord
100
AcDbLinetypeTableRecord
  2
DOT2
 70
     0
  3
Dot (.5x) ........................................
 72
    65
 73
     2
 40
0.635
 49
0.0
 74
     0
 49
-0.635
 74
     0
  0
ENDTAB
  0
TABLE
  2
LAYER
  5
2
330
0
100
AcDbSymbolTable
 70
     1
  0
LAYER
  5
10
330
2
100
AcDbSymbolTableRecord
100
AcDbLayerTableRecord
  2
0
 70
     0
 62
     7
  6
CONTINUOUS
  0
ENDTAB
  0
TABLE
  2
STYLE
  5
3
330
0
100
AcDbSymbolTable
 70
     1
  0
STYLE
  5
11
330
3
100
AcDbSymbolTableRecord
100
AcDbTextStyleTableRecord
  2
STANDARD
 70
     0
 40
0.0
 41
1.0
 50
0.0
 71
     0
 42
7.0
  3
txt
  4

  0
ENDTAB
  0
TABLE
  2
VIEW
  5
6
330
0
100
AcDbSymbolTable
 70
     0
  0
ENDTAB
  0
TABLE
  2
UCS
  5
7
330
0
100
AcDbSymbolTable
 70
     0
  0
ENDTAB
  0
TABLE
  2
APPID
  5
9
330
0
100
AcDbSymbolTable
 70
     1
  0
APPID
  5
12
330
9
100
AcDbSymbolTableRecord
100
AcDbRegAppTableRecord
  2
ACAD
 70
     0
  0
ENDTAB
  0
TABLE
  2
DIMSTYLE
  5
A
330
0
100
AcDbSymbolTable
 70
     1
  0
DIMSTYLE
105
27
330
A
100
AcDbSymbolTableRecord
100
AcDbDimStyleTableRecord
  2
ISO-25
 70
     0
  3

  4

  5

  6

  7

 40
1.0
 41
2.5
 42
0.625
 43
3.75
 44
1.25
 45
0.0
 46
0.0
 47
0.0
 48
0.0
140
2.5
141
2.5
142
0.0
143
0.0393700787
144
1.0
145
0.0
146
1.0
147
0.625
 71
     0
 72
     0
 73
     0
 74
     0
 75
     0
 76
     0
 77
     1
 78
     8
170
     0
171
     3
172
     1
173
     0
174
     0
175
     0
176
     0
177
     0
178
     0
270
     2
271
     2
272
     2
273
     2
274
     3
340
11
275
     0
280
     0
281
     0
282
     0
283
     0
284
     8
285
     0
286
     0
287
     3
288
     0
  0
ENDTAB
  0
TABLE
  2
BLOCK_RECORD
  5
1
330
0
100
AcDbSymbolTable
 70
     1
  0
BLOCK_RECORD
  5
1F
330
1
100
AcDbSymbolTableRecord
100
AcDbBlockTableRecord
  2
*MODEL_SPACE
  0
BLOCK_RECORD
  5
1B
330
1
100
AcDbSymbolTableRecord
100
AcDbBlockTableRecord
  2
*PAPER_SPACE
  0
BLOCK_RECORD
  5
23
330
1
100
AcDbSymbolTableRecord
100
AcDbBlockTableRecord
  2
*PAPER_SPACE0
  0
ENDTAB
  0
ENDSEC
  0
SECTION
  2
BLOCKS
  0
BLOCK
  5
20
330
1F
100
AcDbEntity
  8
0
100
AcDbBlockBegin
  2
*MODEL_SPACE
 70
     0
 10
0.0
 20
0.0
 30
0.0
  3
*MODEL_SPACE
  1

  0
ENDBLK
  5
21
330
1F
100
AcDbEntity
  8
0
100
AcDbBlockEnd
  0
BLOCK
  5
1C
330
1B
100
AcDbEntity
 67
     1
  8
0
100
AcDbBlockBegin
  2
*PAPER_SPACE
 70
     0
 10
0.0
 20
0.0
 30
0.0
  3
*PAPER_SPACE
  1

  0
ENDBLK
  5
1D
330
1B
100
AcDbEntity
 67
     1
  8
0
100
AcDbBlockEnd
  0
BLOCK
  5
24
330
23
100
AcDbEntity
  8
0
100
AcDbBlockBegin
  2
*PAPER_SPACE0
 70
     0
 10
0.0
 20
0.0
 30
0.0
  3
*PAPER_SPACE0
  1

  0
ENDBLK
  5
25
330
23
100
AcDbEntity
  8
0
100
AcDbBlockEnd
  0
ENDSEC
  0
SECTION
  2
ENTITIES
  0
LINE
  5
44
330
1F
100
AcDbEntity
  8
0
  6
CONTINUOUS
 62
     7
100
AcDbLine
 10
296.1716665554
 20
193.9455335242
 30
0.0
 11
294.4216667343
 21
193.9455335242
 31
0.0
  0
ARC
  5
45
330
1F
100
AcDbEntity
  8
0
  6
CONTINUOUS
 62
     7
100
AcDbCircle
 10
296.1716653335
 20
198.9455319149
 30
0.0
 40
5.0
100
AcDbArc
 50
270.0
 51
0.0
  0
LINE
  5
46
330
1F
100
AcDbEntity
  8
0
  6
CONTINUOUS
 62
     7
100
AcDbLine
 10
301.1716655124
 20
201.4455338222
 30
0.0
 11
301.1716655124
 21
198.9455287558
 31
0.0
  0
LINE
  5
47
330
1F
100
AcDbEntity
  8
0
  6
CONTINUOUS
 62
     7
100
AcDbLine
 10
305.9216639626
 20
201.4455338222
 30
0.0
 11
301.1716655124
 21
201.4455338222
 31
0.0
  0
LINE
  5
48
330
1F
100
AcDbEntity
  8
0
  6
CONTINUOUS
 62
     7
100
AcDbLine
 10
308.9216625917
 20
204.4455324513
 30
0.0
 11
305.9216639626
 21
201.4455338222
 31
0.0
  0
LINE
  5
49
330
1F
100
AcDbEntity
  8
0
  6
CONTINUOUS
 62
     7
100
AcDbLine
 10
312.9216632474
 20
204.4455324513
 30
0.0
 11
308.9216625917
 21
204.4455324513
 31
0.0
  0
LINE
  5
4A
330
1F
100
AcDbEntity
  8
0
  6
CONTINUOUS
 62
     7
100
AcDbLine
 10
315.9216618765
 20
201.4455338222
 30
0.0
 11
312.9216632474
 21
204.4455324513
 31
0.0
  0
LINE
  5
4B
330
1F
100
AcDbEntity
  8
0
  6
CONTINUOUS
 62
     7
100
AcDbLine
 10
320.6716677773
 20
201.4455338222
 30
0.0
 11
315.9216618765
 21
201.4455338222
 31
0.0
  0
LINE
  5
4C
330
1F
100
AcDbEntity
  8
0
  6
CONTINUOUS
 62
     7
100
AcDbLine
 10
320.6716677773
 20
196.9455321533
 30
0.0
 11
320.6716677773
 21
201.4455338222
 31
0.0
  0
ARC
  5
4D
330
1F
100
AcDbEntity
  8
0
  6
CONTINUOUS
 62
     7
100
AcDbCircle
 10
312.6716653335
 20
196.9455319149
 30
0.0
 40
8.000000000000025
100
AcDbArc
 50
315.0
 51
0.0
  0
LINE
  5
4E
330
1F
100
AcDbEntity
  8
0
  6
CONTINUOUS
 62
     7
100
AcDbLine
 10
302.3285208869
 20
175.2886762125
 30
0.0
 11
318.3285197842
 21
191.2886788351
 31
0.0
  0
ARC
  5
4F
330
1F
100
AcDbEntity
  8
0
  6
CONTINUOUS
 62
     7
100
AcDbCircle
 10
296.6716653335
 20
180.9455319149
 30
0.0
 40
7.999999999999984
100
AcDbArc
 50
270.0
 51
315.0
  0
LINE
  5
50
330
1F
100
AcDbEntity
  8
0
  6
CONTINUOUS
 62
     7
100
AcDbLine
 10
184.1716668237
 20
172.9455282194
 30
0.0
 11
296.6716638434
 21
172.9455282194
 31
0.0
  0
ARC
  5
51
330
1F
100
AcDbEntity
  8
0
  6
CONTINUOUS
 62
     7
100
AcDbCircle
 10
184.1716653335
 20
180.9455319149
 30
0.0
 40
8.000000000000023
100
AcDbArc
 50
225.0
 51
270.0
  0
LINE
  5
52
330
1F
100
AcDbEntity
  8
0
  6
CONTINUOUS
 62
     7
100
AcDbLine
 10
162.5148108828
 20
191.2886788351
 30
0.0
 11
178.5148097802
 21
175.2886762125
 31
0.0
  0
ARC
  5
53
330
1F
100
AcDbEntity
  8
0
  6
CONTINUOUS
 62
     7
100
AcDbCircle
 10
168.1716653335
 20
196.9455319149
 30
0.0
 40
7.999999999999984
100
AcDbArc
 50
180.0
 51
225.0
  0
LINE
  5
54
330
1F
100
AcDbEntity
  8
0
  6
CONTINUOUS
 62
     7
100
AcDbLine
 10
160.1716628898
 20
201.4455338222
 30
0.0
 11
160.1716628898
 21
196.9455321533
 31
0.0
  0
LINE
  5
55
330
1F
100
AcDbEntity
  8
0
  6
CONTINUOUS
 62
     7
100
AcDbLine
 10
164.9216687906
 20
201.4455338222
 30
0.0
 11
160.1716628898
 21
201.4455338222
 31
0.0
  0
LINE
  5
56
330
1F
100
AcDbEntity
  8
0
  6
CONTINUOUS
 62
     7
100
AcDbLine
 10
167.9216674197
 20
204.4455324513
 30
0.0
 11
164.9216687906
 21
201.4455338222
 31
0.0
  0
LINE
  5
57
330
1F
100
AcDbEntity
  8
0
  6
CONTINUOUS
 62
     7
100
AcDbLine
 10
171.9216680754
 20
204.4455324513
 30
0.0
 11
167.9216674197
 21
204.4455324513
 31
0.0
  0
LINE
  5
58
330
1F
100
AcDbEntity
  8
0
  6
CONTINUOUS
 62
     7
100
AcDbLine
 10
174.9216667045
 20
201.4455338222
 30
0.0
 11
171.9216680754
 21
204.4455324513
 31
0.0
  0
LINE
  5
59
330
1F
100
AcDbEntity
  8
0
  6
CONTINUOUS
 62
     7
100
AcDbLine
 10
179.6716651547
 20
201.4455338222
 30
0.0
 11
174.9216667045
 21
201.4455338222
 31
0.0
  0
LINE
  5
5A
330
1F
100
AcDbEntity
  8
0
  6
CONTINUOUS
 62
     7
100
AcDbLine
 10
179.6716651547
 20
198.9455287558
 30
0.0
 11
179.6716651547
 21
201.4455338222
 31
0.0
  0
ARC
  5
5B
330
1F
100
AcDbEntity
  8
0
  6
CONTINUOUS
 62
     7
100
AcDbCircle
 10
184.6716653335
 20
198.9455319149
 30
0.0
 40
4.999999999999972
100
AcDbArc
 50
180.0
 51
270.0
  0
LINE
  5
5C
330
1F
100
AcDbEntity
  8
0
  6
CONTINUOUS
 62
     7
100
AcDbLine
 10
186.4216639328
 20
193.9455335242
 30
0.0
 11
184.6716641117
 21
193.9455335242
 31
0.0
  0
LINE
  5
5D
330
1F
100
AcDbEntity
  8
0
  6
CONTINUOUS
 62
     7
100
AcDbLine
 10
186.4216639328
 20
193.9455335242
 30
0.0
 11
186.4216639328
 21
190.6955306632
 31
0.0
  0
LINE
  5
5E
330
1F
100
AcDbEntity
  8
0
  6
CONTINUOUS
 62
     7
100
AcDbLine
 10
186.4216639328
 20
190.6955306632
 30
0.0
 11
187.1716654528
 21
190.6955306632
 31
0.0
  0
LINE
  5
5F
330
1F
100
AcDbEntity
  8
0
  6
CONTINUOUS
 62
     7
100
AcDbLine
 10
187.1716654528
 20
190.6955306632
 30
0.0
 11
187.1716654528
 21
191.4455284578
 31
0.0
  0
LINE
  5
60
330
1F
100
AcDbEntity
  8
0
  6
CONTINUOUS
 62
     7
100
AcDbLine
 10
293.6716652143
 20
191.4455284578
 30
0.0
 11
187.1716654528
 21
191.4455284578
 31
0.0
  0
LINE
  5
61
330
1F
100
AcDbEntity
  8
0
  6
CONTINUOUS
 62
     7
100
AcDbLine
 10
293.6716652143
 20
191.4455284578
 30
0.0
 11
293.6716652143
 21
190.6955306632
 31
0.0
  0
LINE
  5
62
330
1F
100
AcDbEntity
  8
0
  6
CONTINUOUS
 62
     7
100
AcDbLine
 10
293.6716652143
 20
190.6955306632
 30
0.0
 11
294.4216667343
 21
190.6955306632
 31
0.0
  0
LINE
  5
63
330
1F
100
AcDbEntity
  8
0
  6
CONTINUOUS
 62
     7
100
AcDbLine
 10
294.4216667343
 20
190.6955306632
 30
0.0
 11
294.4216667343
 21
193.9455335242
 31
0.0
  0
LINE
  5
64
330
1F
100
AcDbEntity
  8
0
  6
CONTINUOUS
 62
     7
100
AcDbLine
 10
187.1716654528
 20
191.4455284578
 30
0.0
 11
187.1716654528
 21
193.9455335242
 31
0.0
  0
LINE
  5
65
330
1F
100
AcDbEntity
  8
0
  6
CONTINUOUS
 62
     7
100
AcDbLine
 10
293.6716652143
 20
193.9455335242
 30
0.0
 11
187.1716654528
 21
193.9455335242
 31
0.0
  0
LINE
  5
66
330
1F
100
AcDbEntity
  8
0
  6
CONTINUOUS
 62
     7
100
AcDbLine
 10
293.6716652143
 20
193.9455335242
 30
0.0
 11
293.6716652143
 21
191.4455284578
 31
0.0
  0
LINE
  5
67
330
1F
100
AcDbEntity
  8
0
  6
CONTINUOUS
 62
     7
100
AcDbLine
 10
281.6716669727
 20
194.9455355508
 30
0.0
 11
199.1716636944
 21
194.9455355508
 31
0.0
  0
LINE
  5
68
330
1F
100
AcDbEntity
  8
0
  6
CONTINUOUS
 62
     7
100
AcDbLine
 10
281.6716669727
 20
193.9455335242
 30
0.0
 11
281.6716669727
 21
194.9455355508
 31
0.0
  0
LINE
  5
69
330
1F
100
AcDbEntity
  8
0
  6
CONTINUOUS
 62
     7
100
AcDbLine
 10
199.1716636944
 20
194.9455355508
 30
0.0
 11
199.1716636944
 21
193.9455335242
 31
0.0
  0
LINE
  5
6A
330
1F
100
AcDbEntity
  8
0
  6
CONTINUOUS
 62
     7
100
AcDbLine
 10
281.6716669727
 20
195.9455301268
 30
0.0
 11
281.6297053028
 21
196.44553114
 31
0.0
  0
LINE
  5
6B
330
1F
100
AcDbEntity
  8
0
  6
CONTINUOUS
 62
     7
100
AcDbLine
 10
199.1716636944
 20
194.9455355508
 30
0.0
 11
199.1716636944
 21
195.9455301268
 31
0.0
  0
LINE
  5
6C
330
1F
100
AcDbEntity
  8
0
  6
CONTINUOUS
 62
     7
100
AcDbLine
 10
199.2136253643
 20
196.44553114
 30
0.0
 11
199.1716636944
 21
195.9455301268
 31
0.0
  0
LINE
  5
6D
330
1F
100
AcDbEntity
  8
0
  6
CONTINUOUS
 62
     7
100
AcDbLine
 10
281.6716669727
 20
195.9455301268
 30
0.0
 11
281.6716669727
 21
194.9455355508
 31
0.0
  0
LINE
  5
6E
330
1F
100
AcDbEntity
  8
0
  6
CONTINUOUS
 62
     7
100
AcDbLine
 10
184.6716641117
 20
412.9455303056
 30
0.0
 11
186.4216639328
 21
412.9455303056
 31
0.0
  0
ARC
  5
6F
330
1F
100
AcDbEntity
  8
0
  6
CONTINUOUS
 62
     7
100
AcDbCircle
 10
184.6716653335
 20
407.9455319149
 30
0.0
 40
5.0
100
AcDbArc
 50
90.0
 51
180.0
  0
LINE
  5
70
330
1F
100
AcDbEntity
  8
0
  6
CONTINUOUS
 62
     7
100
AcDbLine
 10
179.6716651547
 20
405.4455300075
 30
0.0
 11
179.6716651547
 21
407.9455350739
 31
0.0
  0
LINE
  5
71
330
1F
100
AcDbEntity
  8
0
  6
CONTINUOUS
 62
     7
100
AcDbLine
 10
174.9216667045
 20
405.4455300075
 30
0.0
 11
179.6716651547
 21
405.4455300075
 31
0.0
  0
LINE
  5
72
330
1F
100
AcDbEntity
  8
0
  6
CONTINUOUS
 62
     7
100
AcDbLine
 10
171.9216680754
 20
402.4455313785
 30
0.0
 11
174.9216667045
 21
405.4455300075
 31
0.0
  0
LINE
  5
73
330
1F
100
AcDbEntity
  8
0
  6
CONTINUOUS
 62
     7
100
AcDbLine
 10
167.9216674197
 20
402.4455313785
 30
0.0
 11
171.9216680754
 21
402.4455313785
 31
0.0
  0
LINE
  5
74
330
1F
100
AcDbEntity
  8
0
  6
CONTINUOUS
 62
     7
100
AcDbLine
 10
164.9216687906
 20
405.4455300075
 30
0.0
 11
167.9216674197
 21
402.4455313785
 31
0.0
  0
LINE
  5
75
330
1F
100
AcDbEntity
  8
0
  6
CONTINUOUS
 62
     7
100
AcDbLine
 10
160.1716628898
 20
405.4455300075
 30
0.0
 11
164.9216687906
 21
405.4455300075
 31
0.0
  0
LINE
  5
76
330
1F
100
AcDbEntity
  8
0
  6
CONTINUOUS
 62
     7
100
AcDbLine
 10
160.1716628898
 20
409.9455316765
 30
0.0
 11
160.1716628898
 21
405.4455300075
 31
0.0
  0
ARC
  5
77
330
1F
100
AcDbEntity
  8
0
  6
CONTINUOUS
 62
     7
100
AcDbCircle
 10
168.1716653335
 20
409.9455319149
 30
0.0
 40
8.000000000000004
100
AcDbArc
 50
135.0
 51
180.0
  0
LINE
  5
78
330
1F
100
AcDbEntity
  8
0
  6
CONTINUOUS
 62
     7
100
AcDbLine
 10
178.5148097802
 20
431.6023876173
 30
0.0
 11
162.5148108828
 21
415.6023849947
 31
0.0
  0
ARC
  5
79
330
1F
100
AcDbEntity
  8
0
  6
CONTINUOUS
 62
     7
100
AcDbCircle
 10
184.1716653335
 20
425.9455319149
 30
0.0
 40
7.999999999999984
100
AcDbArc
 50
90.0
 51
135.0
  0
LINE
  5
7A
330
1F
100
AcDbEntity
  8
0
  6
CONTINUOUS
 62
     7
100
AcDbLine
 10
296.6716638434
 20
433.9455356104
 30
0.0
 11
184.1716668237
 21
433.9455356104
 31
0.0
  0
ARC
  5
7B
330
1F
100
AcDbEntity
  8
0
  6
CONTINUOUS
 62
     7
100
AcDbCircle
 10
296.6716653335
 20
425.9455319149
 30
0.0
 40
7.999999999999944
100
AcDbArc
 50
45.0
 51
90.0
  0
LINE
  5
7C
330
1F
100
AcDbEntity
  8
0
  6
CONTINUOUS
 62
     7
100
AcDbLine
 10
318.3285197842
 20
415.6023849947
 30
0.0
 11
302.3285208869
 21
431.6023876173
 31
0.0
  0
ARC
  5
7D
330
1F
100
AcDbEntity
  8
0
  6
CONTINUOUS
 62
     7
100
AcDbCircle
 10
312.6716653335
 20
409.9455319149
 30
0.0
 40
8.0
100
AcDbArc
 50
0.0
 51
45.0
  0
LINE
  5
7E
330
1F
100
AcDbEntity
  8
0
  6
CONTINUOUS
 62
     7
100
AcDbLine
 10
320.6716677773
 20
405.4455300075
 30
0.0
 11
320.6716677773
 21
409.9455316765
 31
0.0
  0
LINE
  5
7F
330
1F
100
AcDbEntity
  8
0
  6
CONTINUOUS
 62
     7
100
AcDbLine
 10
315.9216618765
 20
405.4455300075
 30
0.0
 11
320.6716677773
 21
405.4455300075
 31
0.0
  0
LINE
  5
80
330
1F
100
AcDbEntity
  8
0
  6
CONTINUOUS
 62
     7
100
AcDbLine
 10
312.9216632474
 20
402.4455313785
 30
0.0
 11
315.9216618765
 21
405.4455300075
 31
0.0
  0
LINE
  5
81
330
1F
100
AcDbEntity
  8
0
  6
CONTINUOUS
 62
     7
100
AcDbLine
 10
308.9216625917
 20
402.4455313785
 30
0.0
 11
312.9216632474
 21
402.4455313785
 31
0.0
  0
LINE
  5
82
330
1F
100
AcDbEntity
  8
0
  6
CONTINUOUS
 62
     7
100
AcDbLine
 10
305.9216639626
 20
405.4455300075
 30
0.0
 11
308.9216625917
 21
402.4455313785
 31
0.0
  0
LINE
  5
83
330
1F
100
AcDbEntity
  8
0
  6
CONTINUOUS
 62
     7
100
AcDbLine
 10
301.1716655124
 20
405.4455300075
 30
0.0
 11
305.9216639626
 21
405.4455300075
 31
0.0
  0
LINE
  5
84
330
1F
100
AcDbEntity
  8
0
  6
CONTINUOUS
 62
     7
100
AcDbLine
 10
301.1716655124
 20
407.9455350739
 30
0.0
 11
301.1716655124
 21
405.4455300075
 31
0.0
  0
ARC
  5
85
330
1F
100
AcDbEntity
  8
0
  6
CONTINUOUS
 62
     7
100
AcDbCircle
 10
296.1716653335
 20
407.9455319149
 30
0.0
 40
4.999999999999943
100
AcDbArc
 50
0.0
 51
90.0
  0
LINE
  5
86
330
1F
100
AcDbEntity
  8
0
  6
CONTINUOUS
 62
     7
100
AcDbLine
 10
294.4216667343
 20
412.9455303056
 30
0.0
 11
296.1716665554
 21
412.9455303056
 31
0.0
  0
LINE
  5
87
330
1F
100
AcDbEntity
  8
0
  6
CONTINUOUS
 62
     7
100
AcDbLine
 10
294.4216667343
 20
412.9455303056
 30
0.0
 11
294.4216667343
 21
416.1955331666
 31
0.0
  0
LINE
  5
88
330
1F
100
AcDbEntity
  8
0
  6
CONTINUOUS
 62
     7
100
AcDbLine
 10
294.4216667343
 20
416.1955331666
 30
0.0
 11
293.6716652143
 21
416.1955331666
 31
0.0
  0
LINE
  5
89
330
1F
100
AcDbEntity
  8
0
  6
CONTINUOUS
 62
     7
100
AcDbLine
 10
293.6716652143
 20
416.1955331666
 30
0.0
 11
293.6716652143
 21
415.445535372
 31
0.0
  0
LINE
  5
8A
330
1F
100
AcDbEntity
  8
0
  6
CONTINUOUS
 62
     7
100
AcDbLine
 10
187.1716654528
 20
415.445535372
 30
0.0
 11
293.6716652143
 21
415.445535372
 31
0.0
  0
LINE
  5
8B
330
1F
100
AcDbEntity
  8
0
  6
CONTINUOUS
 62
     7
100
AcDbLine
 10
187.1716654528
 20
415.445535372
 30
0.0
 11
187.1716654528
 21
416.1955331666
 31
0.0
  0
LINE
  5
8C
330
1F
100
AcDbEntity
  8
0
  6
CONTINUOUS
 62
     7
100
AcDbLine
 10
187.1716654528
 20
416.1955331666
 30
0.0
 11
186.4216639328
 21
416.1955331666
 31
0.0
  0
LINE
  5
8D
330
1F
100
AcDbEntity
  8
0
  6
CONTINUOUS
 62
     7
100
AcDbLine
 10
186.4216639328
 20
416.1955331666
 30
0.0
 11
186.4216639328
 21
412.9455303056
 31
0.0
  0
LINE
  5
8E
330
1F
100
AcDbEntity
  8
0
  6
CONTINUOUS
 62
     7
100
AcDbLine
 10
187.1716654528
 20
412.9455303056
 30
0.0
 11
293.6716652143
 21
412.9455303056
 31
0.0
  0
LINE
  5
8F
330
1F
100
AcDbEntity
  8
0
  6
CONTINUOUS
 62
     7
100
AcDbLine
 10
187.1716654528
 20
412.9455303056
 30
0.0
 11
187.1716654528
 21
415.445535372
 31
0.0
  0
LINE
  5
90
330
1F
100
AcDbEntity
  8
0
  6
CONTINUOUS
 62
     7
100
AcDbLine
 10
293.6716652143
 20
415.445535372
 30
0.0
 11
293.6716652143
 21
412.9455303056
 31
0.0
  0
LINE
  5
91
330
1F
100
AcDbEntity
  8
0
  6
CONTINUOUS
 62
     7
100
AcDbLine
 10
317.6716616977
 20
241.9455302162
 30
0.0
 11
317.6716616977
 21
224.9455292923
 31
0.0
  0
LINE
  5
92
330
1F
100
AcDbEntity
  8
0
  6
CONTINUOUS
 62
     7
100
AcDbLine
 10
317.6716616977
 20
224.9455292923
 30
0.0
 11
318.1716627109
 21
224.9455292923
 31
0.0
  0
LINE
  5
93
330
1F
100
AcDbEntity
  8
0
  6
CONTINUOUS
 62
     7
100
AcDbLine
 10
318.1716627109
 20
221.9455306632
 30
0.0
 11
318.1716627109
 21
224.9455292923
 31
0.0
  0
LINE
  5
94
330
1F
100
AcDbEntity
  8
0
  6
CONTINUOUS
 62
     7
100
AcDbLine
 10
318.1716627109
 20
221.4455296499
 30
0.0
 11
318.1716627109
 21
221.9455306632
 31
0.0
  0
LINE
  5
95
330
1F
100
AcDbEntity
  8
0
  6
CONTINUOUS
 62
     7
100
AcDbLine
 10
320.6716677773
 20
221.4455296499
 30
0.0
 11
318.1716627109
 21
221.4455296499
 31
0.0
  0
LINE
  5
96
330
1F
100
AcDbEntity
  8
0
  6
CONTINUOUS
 62
     7
100
AcDbLine
 10
320.6716677773
 20
201.4455338222
 30
0.0
 11
320.6716677773
 21
221.4455296499
 31
0.0
  0
LINE
  5
97
330
1F
100
AcDbEntity
  8
0
  6
CONTINUOUS
 62
     7
100
AcDbLine
 10
303.6716631282
 20
201.4455338222
 30
0.0
 11
305.9216639626
 21
201.4455338222
 31
0.0
  0
LINE
  5
98
330
1F
100
AcDbEntity
  8
0
  6
CONTINUOUS
 62
     7
100
AcDbLine
 10
303.6716631282
 20
405.4455300075
 30
0.0
 11
303.6716631282
 21
201.4455338222
 31
0.0
  0
LINE
  5
99
330
1F
100
AcDbEntity
  8
0
  6
CONTINUOUS
 62
     7
100
AcDbLine
 10
305.9216639626
 20
405.4455300075
 30
0.0
 11
303.6716631282
 21
405.4455300075
 31
0.0
  0
LINE
  5
9A
330
1F
100
AcDbEntity
  8
0
  6
CONTINUOUS
 62
     7
100
AcDbLine
 10
320.6716677773
 20
385.4455341799
 30
0.0
 11
320.6716677773
 21
405.4455300075
 31
0.0
  0
LINE
  5
9B
330
1F
100
AcDbEntity
  8
0
  6
CONTINUOUS
 62
     7
100
AcDbLine
 10
318.1716627109
 20
385.4455341799
 30
0.0
 11
320.6716677773
 21
385.4455341799
 31
0.0
  0
LINE
  5
9C
330
1F
100
AcDbEntity
  8
0
  6
CONTINUOUS
 62
     7
100
AcDbLine
 10
318.1716627109
 20
384.9455331666
 30
0.0
 11
318.1716627109
 21
385.4455341799
 31
0.0
  0
LINE
  5
9D
330
1F
100
AcDbEntity
  8
0
  6
CONTINUOUS
 62
     7
100
AcDbLine
 10
318.1716627109
 20
381.9455345375
 30
0.0
 11
318.1716627109
 21
384.9455331666
 31
0.0
  0
LINE
  5
9E
330
1F
100
AcDbEntity
  8
0
  6
CONTINUOUS
 62
     7
100
AcDbLine
 10
317.6716616977
 20
381.9455345375
 30
0.0
 11
318.1716627109
 21
381.9455345375
 31
0.0
  0
LINE
  5
9F
330
1F
100
AcDbEntity
  8
0
  6
CONTINUOUS
 62
     7
100
AcDbLine
 10
317.6716616977
 20
381.9455345375
 30
0.0
 11
317.6716616977
 21
364.9455336136
 31
0.0
  0
LINE
  5
A0
330
1F
100
AcDbEntity
  8
0
  6
CONTINUOUS
 62
     7
100
AcDbLine
 10
318.1716627109
 20
364.9455336136
 30
0.0
 11
317.6716616977
 21
364.9455336136
 31
0.0
  0
LINE
  5
A1
330
1F
100
AcDbEntity
  8
0
  6
CONTINUOUS
 62
     7
100
AcDbLine
 10
318.1716627109
 20
361.9455312592
 30
0.0
 11
318.1716627109
 21
364.9455336136
 31
0.0
  0
LINE
  5
A2
330
1F
100
AcDbEntity
  8
0
  6
CONTINUOUS
 62
     7
100
AcDbLine
 10
318.1716627109
 20
361.445530246
 30
0.0
 11
318.1716627109
 21
361.9455312592
 31
0.0
  0
LINE
  5
A3
330
1F
100
AcDbEntity
  8
0
  6
CONTINUOUS
 62
     7
100
AcDbLine
 10
320.6716677773
 20
361.445530246
 30
0.0
 11
318.1716627109
 21
361.445530246
 31
0.0
  0
LINE
  5
A4
330
1F
100
AcDbEntity
  8
0
  6
CONTINUOUS
 62
     7
100
AcDbLine
 10
320.6716677773
 20
245.4455335838
 30
0.0
 11
320.6716677773
 21
361.445530246
 31
0.0
  0
LINE
  5
A5
330
1F
100
AcDbEntity
  8
0
  6
CONTINUOUS
 62
     7
100
AcDbLine
 10
318.1716627109
 20
245.4455335838
 30
0.0
 11
320.6716677773
 21
245.4455335838
 31
0.0
  0
LINE
  5
A6
330
1F
100
AcDbEntity
  8
0
  6
CONTINUOUS
 62
     7
100
AcDbLine
 10
318.1716627109
 20
244.9455325705
 30
0.0
 11
318.1716627109
 21
245.4455335838
 31
0.0
  0
LINE
  5
A7
330
1F
100
AcDbEntity
  8
0
  6
CONTINUOUS
 62
     7
100
AcDbLine
 10
318.1716627109
 20
241.9455302162
 30
0.0
 11
318.1716627109
 21
244.9455325705
 31
0.0
  0
LINE
  5
A8
330
1F
100
AcDbEntity
  8
0
  6
CONTINUOUS
 62
     7
100
AcDbLine
 10
318.1716627109
 20
241.9455302162
 30
0.0
 11
317.6716616977
 21
241.9455302162
 31
0.0
  0
LINE
  5
A9
330
1F
100
AcDbEntity
  8
0
  6
CONTINUOUS
 62
     7
100
AcDbLine
 10
318.1716627109
 20
384.9455331666
 30
0.0
 11
320.6716677773
 21
384.9455331666
 31
0.0
  0
LINE
  5
AA
330
1F
100
AcDbEntity
  8
0
  6
CONTINUOUS
 62
     7
100
AcDbLine
 10
320.6716677773
 20
381.9455345375
 30
0.0
 11
320.6716677773
 21
384.9455331666
 31
0.0
  0
LINE
  5
AB
330
1F
100
AcDbEntity
  8
0
  6
CONTINUOUS
 62
     7
100
AcDbLine
 10
320.6716677773
 20
381.9455345375
 30
0.0
 11
318.1716627109
 21
381.9455345375
 31
0.0
  0
LINE
  5
AC
330
1F
100
AcDbEntity
  8
0
  6
CONTINUOUS
 62
     7
100
AcDbLine
 10
320.6716677773
 20
361.9455312592
 30
0.0
 11
320.6716677773
 21
364.9455336136
 31
0.0
  0
LINE
  5
AD
330
1F
100
AcDbEntity
  8
0
  6
CONTINUOUS
 62
     7
100
AcDbLine
 10
320.6716677773
 20
361.9455312592
 30
0.0
 11
318.1716627109
 21
361.9455312592
 31
0.0
  0
LINE
  5
AE
330
1F
100
AcDbEntity
  8
0
  6
CONTINUOUS
 62
     7
100
AcDbLine
 10
318.1716627109
 20
364.9455336136
 30
0.0
 11
320.6716677773
 21
364.9455336136
 31
0.0
  0
LINE
  5
AF
330
1F
100
AcDbEntity
  8
0
  6
CONTINUOUS
 62
     7
100
AcDbLine
 10
320.6716677773
 20
221.9455306632
 30
0.0
 11
318.1716627109
 21
221.9455306632
 31
0.0
  0
LINE
  5
B0
330
1F
100
AcDbEntity
  8
0
  6
CONTINUOUS
 62
     7
100
AcDbLine
 10
320.6716677773
 20
224.9455292923
 30
0.0
 11
318.1716627109
 21
224.9455292923
 31
0.0
  0
LINE
  5
B1
330
1F
100
AcDbEntity
  8
0
  6
CONTINUOUS
 62
     7
100
AcDbLine
 10
320.6716677773
 20
221.9455306632
 30
0.0
 11
320.6716677773
 21
224.9455292923
 31
0.0
  0
LINE
  5
B2
330
1F
100
AcDbEntity
  8
0
  6
CONTINUOUS
 62
     7
100
AcDbLine
 10
320.6716677773
 20
241.9455302162
 30
0.0
 11
320.6716677773
 21
244.9455325705
 31
0.0
  0
LINE
  5
B3
330
1F
100
AcDbEntity
  8
0
  6
CONTINUOUS
 62
     7
100
AcDbLine
 10
318.1716627109
 20
241.9455302162
 30
0.0
 11
320.6716677773
 21
241.9455302162
 31
0.0
  0
LINE
  5
B4
330
1F
100
AcDbEntity
  8
0
  6
CONTINUOUS
 62
     7
100
AcDbLine
 10
318.1716627109
 20
244.9455325705
 30
0.0
 11
320.6716677773
 21
244.9455325705
 31
0.0
  0
LINE
  5
B5
330
1F
100
AcDbEntity
  8
0
  6
CONTINUOUS
 62
     7
100
AcDbLine
 10
301.1716655124
 20
405.4455300075
 30
0.0
 11
301.1716655124
 21
201.4455338222
 31
0.0
  0
LINE
  5
B6
330
1F
100
AcDbEntity
  8
0
  6
CONTINUOUS
 62
     7
100
AcDbLine
 10
322.9756555188
 20
381.4455335242
 30
0.0
 11
319.2568472255
 21
381.4455335242
 31
0.0
  0
LINE
  5
B7
330
1F
100
AcDbEntity
  8
0
  6
CONTINUOUS
 62
     7
100
AcDbLine
 10
322.9756555188
 20
365.4455309016
 30
0.0
 11
322.9756555188
 21
381.4455335242
 31
0.0
  0
LINE
  5
B8
330
1F
100
AcDbEntity
  8
0
  6
CONTINUOUS
 62
     7
100
AcDbLine
 10
319.2568472255
 20
365.4455309016
 30
0.0
 11
322.9756555188
 21
365.4455309016
 31
0.0
  0
LINE
  5
B9
330
1F
100
AcDbEntity
  8
0
  6
CONTINUOUS
 62
     7
100
AcDbLine
 10
319.2568472255
 20
365.4455309016
 30
0.0
 11
319.2568472255
 21
381.4455335242
 31
0.0
  0
LINE
  5
BA
330
1F
100
AcDbEntity
  8
0
  6
CONTINUOUS
 62
     7
100
AcDbLine
 10
322.9756555188
 20
365.4455309016
 30
0.0
 11
324.4245401252
 21
365.4455309016
 31
0.0
  0
LINE
  5
BB
330
1F
100
AcDbEntity
  8
0
  6
CONTINUOUS
 62
     7
100
AcDbLine
 10
324.4245401252
 20
365.4455309016
 30
0.0
 11
324.4245401252
 21
381.4455335242
 31
0.0
  0
LINE
  5
BC
330
1F
100
AcDbEntity
  8
0
  6
CONTINUOUS
 62
     7
100
AcDbLine
 10
322.9756555188
 20
381.4455335242
 30
0.0
 11
324.4245401252
 21
381.4455335242
 31
0.0
  0
LINE
  5
BD
330
1F
100
AcDbEntity
  8
0
  6
CONTINUOUS
 62
     7
100
AcDbLine
 10
322.9756555188
 20
225.4455303056
 30
0.0
 11
324.4245401252
 21
225.4455303056
 31
0.0
  0
LINE
  5
BE
330
1F
100
AcDbEntity
  8
0
  6
CONTINUOUS
 62
     7
100
AcDbLine
 10
322.9756555188
 20
241.4455329282
 30
0.0
 11
322.9756555188
 21
225.4455303056
 31
0.0
  0
LINE
  5
BF
330
1F
100
AcDbEntity
  8
0
  6
CONTINUOUS
 62
     7
100
AcDbLine
 10
322.9756555188
 20
241.4455329282
 30
0.0
 11
324.4245401252
 21
241.4455329282
 31
0.0
  0
LINE
  5
C0
330
1F
100
AcDbEntity
  8
0
  6
CONTINUOUS
 62
     7
100
AcDbLine
 10
324.4245401252
 20
241.4455329282
 30
0.0
 11
324.4245401252
 21
225.4455303056
 31
0.0
  0
LINE
  5
C1
330
1F
100
AcDbEntity
  8
0
  6
CONTINUOUS
 62
     7
100
AcDbLine
 10
319.2568472255
 20
241.4455329282
 30
0.0
 11
322.9756555188
 21
241.4455329282
 31
0.0
  0
LINE
  5
C2
330
1F
100
AcDbEntity
  8
0
  6
CONTINUOUS
 62
     7
100
AcDbLine
 10
322.9756555188
 20
225.4455303056
 30
0.0
 11
319.2568472255
 21
225.4455303056
 31
0.0
  0
LINE
  5
C3
330
1F
100
AcDbEntity
  8
0
  6
CONTINUOUS
 62
     7
100
AcDbLine
 10
319.2568472255
 20
225.4455303056
 30
0.0
 11
319.2568472255
 21
241.4455329282
 31
0.0
  0
LINE
  5
C4
330
1F
100
AcDbEntity
  8
0
  6
CONTINUOUS
 62
     7
100
AcDbLine
 10
300.1716634858
 20
215.4455323917
 30
0.0
 11
301.1716655124
 21
215.4455323917
 31
0.0
  0
LINE
  5
C5
330
1F
100
AcDbEntity
  8
0
  6
CONTINUOUS
 62
     7
100
AcDbLine
 10
300.1716634858
 20
391.4455314381
 30
0.0
 11
300.1716634858
 21
215.4455323917
 31
0.0
  0
LINE
  5
C6
330
1F
100
AcDbEntity
  8
0
  6
CONTINUOUS
 62
     7
100
AcDbLine
 10
301.1716655124
 20
391.4455314381
 30
0.0
 11
300.1716634858
 21
391.4455314381
 31
0.0
  0
LINE
  5
C7
330
1F
100
AcDbEntity
  8
0
  6
CONTINUOUS
 62
     7
100
AcDbLine
 10
299.1716651845
 20
391.4455314381
 30
0.0
 11
298.6716641713
 21
391.4035697681
 31
0.0
  0
LINE
  5
C8
330
1F
100
AcDbEntity
  8
0
  6
CONTINUOUS
 62
     7
100
AcDbLine
 10
299.1716651845
 20
391.4455314381
 30
0.0
 11
300.1716634858
 21
391.4455314381
 31
0.0
  0
LINE
  5
C9
330
1F
100
AcDbEntity
  8
0
  6
CONTINUOUS
 62
     7
100
AcDbLine
 10
300.1716634858
 20
215.4455323917
 30
0.0
 11
299.1716651845
 21
215.4455323917
 31
0.0
  0
LINE
  5
CA
330
1F
100
AcDbEntity
  8
0
  6
CONTINUOUS
 62
     7
100
AcDbLine
 10
298.6716641713
 20
215.4874940617
 30
0.0
 11
299.1716651845
 21
215.4455323917
 31
0.0
  0
LINE
  5
CB
330
1F
100
AcDbEntity
  8
0
  6
CONTINUOUS
 62
     7
100
AcDbLine
 10
319.1716647375
 20
241.4455329282
 30
0.0
 11
319.2568472255
 21
241.4455329282
 31
0.0
  0
LINE
  5
CC
330
1F
100
AcDbEntity
  8
0
  6
CONTINUOUS
 62
     7
100
AcDbLine
 10
319.2568472255
 20
225.4455303056
 30
0.0
 11
319.1716647375
 21
225.4455303056
 31
0.0
  0
LINE
  5
CD
330
1F
100
AcDbEntity
  8
0
  6
CONTINUOUS
 62
     7
100
AcDbLine
 10
319.1716647375
 20
225.4455303056
 30
0.0
 11
319.1716647375
 21
241.4455329282
 31
0.0
  0
LINE
  5
CE
330
1F
100
AcDbEntity
  8
0
  6
CONTINUOUS
 62
     7
100
AcDbLine
 10
319.1716647375
 20
381.4455335242
 30
0.0
 11
319.2568472255
 21
381.4455335242
 31
0.0
  0
LINE
  5
CF
330
1F
100
AcDbEntity
  8
0
  6
CONTINUOUS
 62
     7
100
AcDbLine
 10
319.2568472255
 20
365.4455309016
 30
0.0
 11
319.1716647375
 21
365.4455309016
 31
0.0
  0
LINE
  5
D0
330
1F
100
AcDbEntity
  8
0
  6
CONTINUOUS
 62
     7
100
AcDbLine
 10
319.1716647375
 20
365.4455309016
 30
0.0
 11
319.1716647375
 21
381.4455335242
 31
0.0
  0
LINE
  5
D1
330
1F
100
AcDbEntity
  8
0
  6
CONTINUOUS
 62
     7
100
AcDbLine
 10
319.1716647375
 20
224.9455292923
 30
0.0
 11
319.1716647375
 21
225.4455303056
 31
0.0
  0
LINE
  5
D2
330
1F
100
AcDbEntity
  8
0
  6
CONTINUOUS
 62
     7
100
AcDbLine
 10
320.6716677773
 20
225.4455303056
 30
0.0
 11
320.6716677773
 21
224.9455292923
 31
0.0
  0
LINE
  5
D3
330
1F
100
AcDbEntity
  8
0
  6
CONTINUOUS
 62
     7
100
AcDbLine
 10
319.1716647375
 20
381.9455345375
 30
0.0
 11
319.1716647375
 21
381.4455335242
 31
0.0
  0
LINE
  5
D4
330
1F
100
AcDbEntity
  8
0
  6
CONTINUOUS
 62
     7
100
AcDbLine
 10
320.6716677773
 20
381.4455335242
 30
0.0
 11
320.6716677773
 21
381.9455345375
 31
0.0
  0
LINE
  5
D5
330
1F
100
AcDbEntity
  8
0
  6
CONTINUOUS
 62
     7
100
AcDbLine
 10
319.1716647375
 20
241.4455329282
 30
0.0
 11
319.1716647375
 21
241.9455302162
 31
0.0
  0
LINE
  5
D6
330
1F
100
AcDbEntity
  8
0
  6
CONTINUOUS
 62
     7
100
AcDbLine
 10
320.6716677773
 20
241.9455302162
 30
0.0
 11
320.6716677773
 21
241.4455329282
 31
0.0
  0
LINE
  5
D7
330
1F
100
AcDbEntity
  8
0
  6
CONTINUOUS
 62
     7
100
AcDbLine
 10
319.1716647375
 20
365.4455309016
 30
0.0
 11
319.1716647375
 21
364.9455336136
 31
0.0
  0
LINE
  5
D8
330
1F
100
AcDbEntity
  8
0
  6
CONTINUOUS
 62
     7
100
AcDbLine
 10
320.6716677773
 20
364.9455336136
 30
0.0
 11
320.6716677773
 21
365.4455309016
 31
0.0
  0
LINE
  5
D9
330
1F
100
AcDbEntity
  8
0
  6
CONTINUOUS
 62
     7
100
AcDbLine
 10
163.1716689694
 20
364.9455336136
 30
0.0
 11
163.1716689694
 21
381.9455345375
 31
0.0
  0
LINE
  5
DA
330
1F
100
AcDbEntity
  8
0
  6
CONTINUOUS
 62
     7
100
AcDbLine
 10
163.1716689694
 20
381.9455345375
 30
0.0
 11
162.6716679562
 21
381.9455345375
 31
0.0
  0
LINE
  5
DB
330
1F
100
AcDbEntity
  8
0
  6
CONTINUOUS
 62
     7
100
AcDbLine
 10
162.6716679562
 20
384.9455331666
 30
0.0
 11
162.6716679562
 21
381.9455345375
 31
0.0
  0
LINE
  5
DC
330
1F
100
AcDbEntity
  8
0
  6
CONTINUOUS
 62
     7
100
AcDbLine
 10
162.6716679562
 20
385.4455341799
 30
0.0
 11
162.6716679562
 21
384.9455331666
 31
0.0
  0
LINE
  5
DD
330
1F
100
AcDbEntity
  8
0
  6
CONTINUOUS
 62
     7
100
AcDbLine
 10
160.1716628898
 20
385.4455341799
 30
0.0
 11
162.6716679562
 21
385.4455341799
 31
0.0
  0
LINE
  5
DE
330
1F
100
AcDbEntity
  8
0
  6
CONTINUOUS
 62
     7
100
AcDbLine
 10
160.1716628898
 20
405.4455300075
 30
0.0
 11
160.1716628898
 21
385.4455341799
 31
0.0
  0
LINE
  5
DF
330
1F
100
AcDbEntity
  8
0
  6
CONTINUOUS
 62
     7
100
AcDbLine
 10
177.1716675389
 20
405.4455300075
 30
0.0
 11
174.9216667045
 21
405.4455300075
 31
0.0
  0
LINE
  5
E0
330
1F
100
AcDbEntity
  8
0
  6
CONTINUOUS
 62
     7
100
AcDbLine
 10
177.1716675389
 20
201.4455338222
 30
0.0
 11
177.1716675389
 21
405.4455300075
 31
0.0
  0
LINE
  5
E1
330
1F
100
AcDbEntity
  8
0
  6
CONTINUOUS
 62
     7
100
AcDbLine
 10
174.9216667045
 20
201.4455338222
 30
0.0
 11
177.1716675389
 21
201.4455338222
 31
0.0
  0
LINE
  5
E2
330
1F
100
AcDbEntity
  8
0
  6
CONTINUOUS
 62
     7
100
AcDbLine
 10
160.1716628898
 20
221.4455296499
 30
0.0
 11
160.1716628898
 21
201.4455338222
 31
0.0
  0
LINE
  5
E3
330
1F
100
AcDbEntity
  8
0
  6
CONTINUOUS
 62
     7
100
AcDbLine
 10
162.6716679562
 20
221.4455296499
 30
0.0
 11
160.1716628898
 21
221.4455296499
 31
0.0
  0
LINE
  5
E4
330
1F
100
AcDbEntity
  8
0
  6
CONTINUOUS
 62
     7
100
AcDbLine
 10
162.6716679562
 20
221.9455306632
 30
0.0
 11
162.6716679562
 21
221.4455296499
 31
0.0
  0
LINE
  5
E5
330
1F
100
AcDbEntity
  8
0
  6
CONTINUOUS
 62
     7
100
AcDbLine
 10
162.6716679562
 20
224.9455292923
 30
0.0
 11
162.6716679562
 21
221.9455306632
 31
0.0
  0
LINE
  5
E6
330
1F
100
AcDbEntity
  8
0
  6
CONTINUOUS
 62
     7
100
AcDbLine
 10
163.1716689694
 20
224.9455292923
 30
0.0
 11
162.6716679562
 21
224.9455292923
 31
0.0
  0
LINE
  5
E7
330
1F
100
AcDbEntity
  8
0
  6
CONTINUOUS
 62
     7
100
AcDbLine
 10
163.1716689694
 20
224.9455292923
 30
0.0
 11
163.1716689694
 21
241.9455302162
 31
0.0
  0
LINE
  5
E8
330
1F
100
AcDbEntity
  8
0
  6
CONTINUOUS
 62
     7
100
AcDbLine
 10
162.6716679562
 20
241.9455302162
 30
0.0
 11
163.1716689694
 21
241.9455302162
 31
0.0
  0
LINE
  5
E9
330
1F
100
AcDbEntity
  8
0
  6
CONTINUOUS
 62
     7
100
AcDbLine
 10
162.6716679562
 20
244.9455325705
 30
0.0
 11
162.6716679562
 21
241.9455302162
 31
0.0
  0
LINE
  5
EA
330
1F
100
AcDbEntity
  8
0
  6
CONTINUOUS
 62
     7
100
AcDbLine
 10
162.6716679562
 20
245.4455335838
 30
0.0
 11
162.6716679562
 21
244.9455325705
 31
0.0
  0
LINE
  5
EB
330
1F
100
AcDbEntity
  8
0
  6
CONTINUOUS
 62
     7
100
AcDbLine
 10
160.1716628898
 20
245.4455335838
 30
0.0
 11
162.6716679562
 21
245.4455335838
 31
0.0
  0
LINE
  5
EC
330
1F
100
AcDbEntity
  8
0
  6
CONTINUOUS
 62
     7
100
AcDbLine
 10
160.1716628898
 20
361.445530246
 30
0.0
 11
160.1716628898
 21
245.4455335838
 31
0.0
  0
LINE
  5
ED
330
1F
100
AcDbEntity
  8
0
  6
CONTINUOUS
 62
     7
100
AcDbLine
 10
162.6716679562
 20
361.445530246
 30
0.0
 11
160.1716628898
 21
361.445530246
 31
0.0
  0
LINE
  5
EE
330
1F
100
AcDbEntity
  8
0
  6
CONTINUOUS
 62
     7
100
AcDbLine
 10
162.6716679562
 20
361.9455312592
 30
0.0
 11
162.6716679562
 21
361.445530246
 31
0.0
  0
LINE
  5
EF
330
1F
100
AcDbEntity
  8
0
  6
CONTINUOUS
 62
     7
100
AcDbLine
 10
162.6716679562
 20
364.9455336136
 30
0.0
 11
162.6716679562
 21
361.9455312592
 31
0.0
  0
LINE
  5
F0
330
1F
100
AcDbEntity
  8
0
  6
CONTINUOUS
 62
     7
100
AcDbLine
 10
162.6716679562
 20
364.9455336136
 30
0.0
 11
163.1716689694
 21
364.9455336136
 31
0.0
  0
LINE
  5
F1
330
1F
100
AcDbEntity
  8
0
  6
CONTINUOUS
 62
     7
100
AcDbLine
 10
160.1716628898
 20
381.9455345375
 30
0.0
 11
162.6716679562
 21
381.9455345375
 31
0.0
  0
LINE
  5
F2
330
1F
100
AcDbEntity
  8
0
  6
CONTINUOUS
 62
     7
100
AcDbLine
 10
160.1716628898
 20
384.9455331666
 30
0.0
 11
160.1716628898
 21
381.9455345375
 31
0.0
  0
LINE
  5
F3
330
1F
100
AcDbEntity
  8
0
  6
CONTINUOUS
 62
     7
100
AcDbLine
 10
160.1716628898
 20
384.9455331666
 30
0.0
 11
162.6716679562
 21
384.9455331666
 31
0.0
  0
LINE
  5
F4
330
1F
100
AcDbEntity
  8
0
  6
CONTINUOUS
 62
     7
100
AcDbLine
 10
162.6716679562
 20
361.9455312592
 30
0.0
 11
160.1716628898
 21
361.9455312592
 31
0.0
  0
LINE
  5
F5
330
1F
100
AcDbEntity
  8
0
  6
CONTINUOUS
 62
     7
100
AcDbLine
 10
160.1716628898
 20
364.9455336136
 30
0.0
 11
160.1716628898
 21
361.9455312592
 31
0.0
  0
LINE
  5
F6
330
1F
100
AcDbEntity
  8
0
  6
CONTINUOUS
 62
     7
100
AcDbLine
 10
162.6716679562
 20
364.9455336136
 30
0.0
 11
160.1716628898
 21
364.9455336136
 31
0.0
  0
LINE
  5
F7
330
1F
100
AcDbEntity
  8
0
  6
CONTINUOUS
 62
     7
100
AcDbLine
 10
160.1716628898
 20
244.9455325705
 30
0.0
 11
160.1716628898
 21
241.9455302162
 31
0.0
  0
LINE
  5
F8
330
1F
100
AcDbEntity
  8
0
  6
CONTINUOUS
 62
     7
100
AcDbLine
 10
160.1716628898
 20
244.9455325705
 30
0.0
 11
162.6716679562
 21
244.9455325705
 31
0.0
  0
LINE
  5
F9
330
1F
100
AcDbEntity
  8
0
  6
CONTINUOUS
 62
     7
100
AcDbLine
 10
162.6716679562
 20
241.9455302162
 30
0.0
 11
160.1716628898
 21
241.9455302162
 31
0.0
  0
LINE
  5
FA
330
1F
100
AcDbEntity
  8
0
  6
CONTINUOUS
 62
     7
100
AcDbLine
 10
162.6716679562
 20
221.9455306632
 30
0.0
 11
160.1716628898
 21
221.9455306632
 31
0.0
  0
LINE
  5
FB
330
1F
100
AcDbEntity
  8
0
  6
CONTINUOUS
 62
     7
100
AcDbLine
 10
160.1716628898
 20
224.9455292923
 30
0.0
 11
160.1716628898
 21
221.9455306632
 31
0.0
  0
LINE
  5
FC
330
1F
100
AcDbEntity
  8
0
  6
CONTINUOUS
 62
     7
100
AcDbLine
 10
160.1716628898
 20
224.9455292923
 30
0.0
 11
162.6716679562
 21
224.9455292923
 31
0.0
  0
LINE
  5
FD
330
1F
100
AcDbEntity
  8
0
  6
CONTINUOUS
 62
     7
100
AcDbLine
 10
179.6716651547
 20
201.4455338222
 30
0.0
 11
179.6716651547
 21
405.4455300075
 31
0.0
  0
LINE
  5
FE
330
1F
100
AcDbEntity
  8
0
  6
CONTINUOUS
 62
     7
100
AcDbLine
 10
157.8676751483
 20
381.4455335242
 30
0.0
 11
156.4187905419
 21
381.4455335242
 31
0.0
  0
LINE
  5
FF
330
1F
100
AcDbEntity
  8
0
  6
CONTINUOUS
 62
     7
100
AcDbLine
 10
157.8676751483
 20
365.4455309016
 30
0.0
 11
157.8676751483
 21
381.4455335242
 31
0.0
  0
LINE
  5
100
330
1F
100
AcDbEntity
  8
0
  6
CONTINUOUS
 62
     7
100
AcDbLine
 10
157.8676751483
 20
365.4455309016
 30
0.0
 11
156.4187905419
 21
365.4455309016
 31
0.0
  0
LINE
  5
101
330
1F
100
AcDbEntity
  8
0
  6
CONTINUOUS
 62
     7
100
AcDbLine
 10
156.4187905419
 20
365.4455309016
 30
0.0
 11
156.4187905419
 21
381.4455335242
 31
0.0
  0
LINE
  5
102
330
1F
100
AcDbEntity
  8
0
  6
CONTINUOUS
 62
     7
100
AcDbLine
 10
161.5864834416
 20
365.4455309016
 30
0.0
 11
157.8676751483
 21
365.4455309016
 31
0.0
  0
LINE
  5
103
330
1F
100
AcDbEntity
  8
0
  6
CONTINUOUS
 62
     7
100
AcDbLine
 10
157.8676751483
 20
381.4455335242
 30
0.0
 11
161.5864834416
 21
381.4455335242
 31
0.0
  0
LINE
  5
104
330
1F
100
AcDbEntity
  8
0
  6
CONTINUOUS
 62
     7
100
AcDbLine
 10
161.5864834416
 20
381.4455335242
 30
0.0
 11
161.5864834416
 21
365.4455309016
 31
0.0
  0
LINE
  5
105
330
1F
100
AcDbEntity
  8
0
  6
CONTINUOUS
 62
     7
100
AcDbLine
 10
157.8676751483
 20
241.4455329282
 30
0.0
 11
156.4187905419
 21
241.4455329282
 31
0.0
  0
LINE
  5
106
330
1F
100
AcDbEntity
  8
0
  6
CONTINUOUS
 62
     7
100
AcDbLine
 10
157.8676751483
 20
241.4455329282
 30
0.0
 11
157.8676751483
 21
225.4455303056
 31
0.0
  0
LINE
  5
107
330
1F
100
AcDbEntity
  8
0
  6
CONTINUOUS
 62
     7
100
AcDbLine
 10
157.8676751483
 20
225.4455303056
 30
0.0
 11
156.4187905419
 21
225.4455303056
 31
0.0
  0
LINE
  5
108
330
1F
100
AcDbEntity
  8
0
  6
CONTINUOUS
 62
     7
100
AcDbLine
 10
156.4187905419
 20
241.4455329282
 30
0.0
 11
156.4187905419
 21
225.4455303056
 31
0.0
  0
LINE
  5
109
330
1F
100
AcDbEntity
  8
0
  6
CONTINUOUS
 62
     7
100
AcDbLine
 10
157.8676751483
 20
225.4455303056
 30
0.0
 11
161.5864834416
 21
225.4455303056
 31
0.0
  0
LINE
  5
10A
330
1F
100
AcDbEntity
  8
0
  6
CONTINUOUS
 62
     7
100
AcDbLine
 10
161.5864834416
 20
241.4455329282
 30
0.0
 11
157.8676751483
 21
241.4455329282
 31
0.0
  0
LINE
  5
10B
330
1F
100
AcDbEntity
  8
0
  6
CONTINUOUS
 62
     7
100
AcDbLine
 10
161.5864834416
 20
241.4455329282
 30
0.0
 11
161.5864834416
 21
225.4455303056
 31
0.0
  0
LINE
  5
10C
330
1F
100
AcDbEntity
  8
0
  6
CONTINUOUS
 62
     7
100
AcDbLine
 10
161.6716659296
 20
365.4455309016
 30
0.0
 11
161.5864834416
 21
365.4455309016
 31
0.0
  0
LINE
  5
10D
330
1F
100
AcDbEntity
  8
0
  6
CONTINUOUS
 62
     7
100
AcDbLine
 10
161.5864834416
 20
381.4455335242
 30
0.0
 11
161.6716659296
 21
381.4455335242
 31
0.0
  0
LINE
  5
10E
330
1F
100
AcDbEntity
  8
0
  6
CONTINUOUS
 62
     7
100
AcDbLine
 10
161.6716659296
 20
381.4455335242
 30
0.0
 11
161.6716659296
 21
365.4455309016
 31
0.0
  0
LINE
  5
10F
330
1F
100
AcDbEntity
  8
0
  6
CONTINUOUS
 62
     7
100
AcDbLine
 10
161.5864834416
 20
241.4455329282
 30
0.0
 11
161.6716659296
 21
241.4455329282
 31
0.0
  0
LINE
  5
110
330
1F
100
AcDbEntity
  8
0
  6
CONTINUOUS
 62
     7
100
AcDbLine
 10
161.6716659296
 20
225.4455303056
 30
0.0
 11
161.5864834416
 21
225.4455303056
 31
0.0
  0
LINE
  5
111
330
1F
100
AcDbEntity
  8
0
  6
CONTINUOUS
 62
     7
100
AcDbLine
 10
161.6716659296
 20
241.4455329282
 30
0.0
 11
161.6716659296
 21
225.4455303056
 31
0.0
  0
LINE
  5
112
330
1F
100
AcDbEntity
  8
0
  6
CONTINUOUS
 62
     7
100
AcDbLine
 10
161.6716659296
 20
381.9455345375
 30
0.0
 11
161.6716659296
 21
381.4455335242
 31
0.0
  0
LINE
  5
113
330
1F
100
AcDbEntity
  8
0
  6
CONTINUOUS
 62
     7
100
AcDbLine
 10
160.1716628898
 20
381.4455335242
 30
0.0
 11
160.1716628898
 21
381.9455345375
 31
0.0
  0
LINE
  5
114
330
1F
100
AcDbEntity
  8
0
  6
CONTINUOUS
 62
     7
100
AcDbLine
 10
161.6716659296
 20
224.9455292923
 30
0.0
 11
161.6716659296
 21
225.4455303056
 31
0.0
  0
LINE
  5
115
330
1F
100
AcDbEntity
  8
0
  6
CONTINUOUS
 62
     7
100
AcDbLine
 10
160.1716628898
 20
225.4455303056
 30
0.0
 11
160.1716628898
 21
224.9455292923
 31
0.0
  0
LINE
  5
116
330
1F
100
AcDbEntity
  8
0
  6
CONTINUOUS
 62
     7
100
AcDbLine
 10
161.6716659296
 20
365.4455309016
 30
0.0
 11
161.6716659296
 21
364.9455336136
 31
0.0
  0
LINE
  5
117
330
1F
100
AcDbEntity
  8
0
  6
CONTINUOUS
 62
     7
100
AcDbLine
 10
160.1716628898
 20
364.9455336136
 30
0.0
 11
160.1716628898
 21
365.4455309016
 31
0.0
  0
LINE
  5
118
330
1F
100
AcDbEntity
  8
0
  6
CONTINUOUS
 62
     7
100
AcDbLine
 10
161.6716659296
 20
241.4455329282
 30
0.0
 11
161.6716659296
 21
241.9455302162
 31
0.0
  0
LINE
  5
119
330
1F
100
AcDbEntity
  8
0
  6
CONTINUOUS
 62
     7
100
AcDbLine
 10
160.1716628898
 20
241.9455302162
 30
0.0
 11
160.1716628898
 21
241.4455329282
 31
0.0
  0
CIRCLE
  5
11A
330
1F
100
AcDbEntity
  8
0
  6
CONTINUOUS
 62
     7
100
AcDbCircle
 10
202.1716653335
 20
216.4455319149
 30
0.0
 40
3.689999999999984
  0
ARC
  5
11B
330
1F
100
AcDbEntity
  8
0
  6
CONTINUOUS
 62
     7
100
AcDbCircle
 10
177.1747655438
 20
406.8604455382
 30
0.0
 40
8.497326614577252
100
AcDbArc
 50
0.5737377012
 51
24.9550844729
  0
LINE
  5
11C
330
1F
100
AcDbEntity
  8
0
  6
CONTINUOUS
 62
     7
100
AcDbLine
 10
184.8787716258
 20
410.4455326898
 30
0.0
 11
295.9645590413
 21
410.4455326898
 31
0.0
  0
ARC
  5
11D
330
1F
100
AcDbEntity
  8
0
  6
CONTINUOUS
 62
     7
100
AcDbCircle
 10
305.6389516084
 20
406.4140715979
 30
0.0
 40
10.48077049059991
100
AcDbArc
 50
157.3777926467
 51
177.0933851791
  0
LINE
  5
11E
330
1F
100
AcDbEntity
  8
0
  6
CONTINUOUS
 62
     7
100
AcDbLine
 10
295.1716645289
 20
406.9455330474
 30
0.0
 11
185.6716661382
 21
406.9455330474
 31
0.0
  0
LWPOLYLINE
  5
11F
330
1F
100
AcDbEntity
  8
0
  6
CONTINUOUS
 62
     7
100
AcDbPolyline
 90
        6
 70
   128
 43
0.0
 10
185.6716661382
 20
406.9455330474
 10
185.4918612767
 20
407.4686159594
 10
185.3120601404
 20
407.9260294539
 10
185.1323148835
 20
408.2602550489
 10
184.9525733519
 20
408.4295322401
 10
184.8787716258
 20
408.4455286366
  0
LINE
  5
120
330
1F
100
AcDbEntity
  8
0
  6
CONTINUOUS
 62
     7
100
AcDbLine
 10
184.8787716258
 20
410.4455326898
 30
0.0
 11
184.8787716258
 21
408.4455286366
 31
0.0
  0
ARC
  5
121
330
1F
100
AcDbEntity
  8
0
  6
CONTINUOUS
 62
     7
100
AcDbCircle
 10
185.7567060159
 20
191.4488042477
 30
0.0
 40
8.49715208681378
100
AcDbArc
 50
90.5734282941
 51
114.9552778663
  0
LINE
  5
122
330
1F
100
AcDbEntity
  8
0
  6
CONTINUOUS
 62
     7
100
AcDbLine
 10
182.1716664958
 20
407.7384238345
 30
0.0
 11
182.1716664958
 21
199.1526399953
 31
0.0
  0
ARC
  5
123
330
1F
100
AcDbEntity
  8
0
  6
CONTINUOUS
 62
     7
100
AcDbCircle
 10
186.2030575841
 20
417.4125565692
 30
0.0
 40
10.48050372240566
100
AcDbArc
 50
247.3775995135
 51
267.0936943261
  0
LINE
  5
124
330
1F
100
AcDbEntity
  8
0
  6
CONTINUOUS
 62
     7
100
AcDbLine
 10
185.6716661382
 20
406.9455330474
 30
0.0
 11
185.6716661382
 21
199.9455307824
 31
0.0
  0
LINE
  5
125
330
1F
100
AcDbEntity
  8
0
  6
CONTINUOUS
 62
     7
100
AcDbLine
 10
182.1716664958
 20
407.7384238345
 30
0.0
 11
184.1716668237
 21
407.7384238345
 31
0.0
  0
ARC
  5
126
330
1F
100
AcDbEntity
  8
0
  6
CONTINUOUS
 62
     7
100
AcDbCircle
 10
186.2696065985
 20
409.8920260455
 30
0.0
 40
3.006551809258268
100
AcDbArc
 50
225.7500903151
 51
258.5285777231
  0
LINE
  5
127
330
1F
100
AcDbEntity
  8
0
  6
CONTINUOUS
 62
     7
100
AcDbLine
 10
295.1716645289
 20
199.9455307824
 30
0.0
 11
295.1716645289
 21
406.9455330474
 31
0.0
  0
LINE
  5
128
330
1F
100
AcDbEntity
  8
0
  6
CONTINUOUS
 62
     7
100
AcDbLine
 10
185.6716661382
 20
199.9455307824
 30
0.0
 11
295.1716645289
 21
199.9455307824
 31
0.0
  0
CIRCLE
  5
129
330
1F
100
AcDbEntity
  8
0
  6
CONTINUOUS
 62
     7
100
AcDbCircle
 10
202.1716653335
 20
216.4455319149
 30
0.0
 40
3.0
  0
ARC
  5
12A
330
1F
100
AcDbEntity
  8
0
  6
CONTINUOUS
 62
     7
100
AcDbCircle
 10
295.0866246512
 20
415.4422595821
 30
0.0
 40
8.49715208681378
100
AcDbArc
 50
270.5734282941
 51
294.9552778663
  0
LWPOLYLINE
  5
12B
330
1F
100
AcDbEntity
  8
0
  6
CONTINUOUS
 62
     7
100
AcDbPolyline
 90
        6
 70
   128
 43
0.0
 10
295.1716645289
 20
406.9455330474
 10
295.6947511661
 20
407.1253379089
 10
296.1521609354
 20
407.3051353199
 10
296.4863865304
 20
407.4848805768
 10
296.6556637216
 20
407.6646258337
 10
296.6716638434
 20
407.7384238345
  0
LINE
  5
12C
330
1F
100
AcDbEntity
  8
0
  6
CONTINUOUS
 62
     7
100
AcDbLine
 10
298.6716641713
 20
407.7384238345
 30
0.0
 11
296.6716638434
 21
407.7384238345
 31
0.0
  0
LINE
  5
12D
330
1F
100
AcDbEntity
  8
0
  6
CONTINUOUS
 62
     7
100
AcDbLine
 10
298.6716641713
 20
199.1526399953
 30
0.0
 11
298.6716641713
 21
407.7384238345
 31
0.0
  0
ARC
  5
12E
330
1F
100
AcDbEntity
  8
0
  6
CONTINUOUS
 62
     7
100
AcDbCircle
 10
294.640273083
 20
189.4785072606
 30
0.0
 40
10.48050372240561
100
AcDbArc
 50
67.3775995135
 51
87.0936943261
  0
LINE
  5
12F
330
1F
100
AcDbEntity
  8
0
  6
CONTINUOUS
 62
     7
100
AcDbLine
 10
295.9645590413
 20
410.4455326898
 30
0.0
 11
295.9645590413
 21
408.4455286366
 31
0.0
  0
ARC
  5
130
330
1F
100
AcDbEntity
  8
0
  6
CONTINUOUS
 62
     7
100
AcDbCircle
 10
298.1182388095
 20
406.3475390625
 30
0.0
 40
3.006642113193324
100
AcDbArc
 50
135.7504418522
 51
168.5278861664
  0
LWPOLYLINE
  5
131
330
1F
100
AcDbEntity
  8
0
  6
CONTINUOUS
 62
     7
100
AcDbPolyline
 90
        6
 70
   128
 43
0.0
 10
185.6716661382
 20
199.9455307824
 10
185.148579501
 20
199.7657259209
 10
184.6911697317
 20
199.5859285099
 10
184.3569441367
 20
199.406183253
 10
184.1876669455
 20
199.2264379961
 10
184.1716668237
 20
199.1526399953
  0
LINE
  5
132
330
1F
100
AcDbEntity
  8
0
  6
CONTINUOUS
 62
     7
100
AcDbLine
 10
182.1716664958
 20
199.1526399953
 30
0.0
 11
184.1716668237
 21
199.1526399953
 31
0.0
  0
ARC
  5
133
330
1F
100
AcDbEntity
  8
0
  6
CONTINUOUS
 62
     7
100
AcDbCircle
 10
303.6685651233
 20
200.0306182916
 30
0.0
 40
8.497326614577224
100
AcDbArc
 50
180.5737377012
 51
204.9550844729
  0
LINE
  5
134
330
1F
100
AcDbEntity
  8
0
  6
CONTINUOUS
 62
     7
100
AcDbLine
 10
184.8787716258
 20
196.44553114
 30
0.0
 11
295.9645590413
 21
196.44553114
 31
0.0
  0
ARC
  5
135
330
1F
100
AcDbEntity
  8
0
  6
CONTINUOUS
 62
     7
100
AcDbCircle
 10
175.2043790587
 20
200.4769922318
 30
0.0
 40
10.48077049059994
100
AcDbArc
 50
337.3777926467
 51
357.0933851791
  0
LINE
  5
136
330
1F
100
AcDbEntity
  8
0
  6
CONTINUOUS
 62
     7
100
AcDbLine
 10
298.6716641713
 20
199.1526399953
 30
0.0
 11
296.6716638434
 21
199.1526399953
 31
0.0
  0
ARC
  5
137
330
1F
100
AcDbEntity
  8
0
  6
CONTINUOUS
 62
     7
100
AcDbCircle
 10
294.5737240686
 20
196.9990377843
 30
0.0
 40
3.006551809258278
100
AcDbArc
 50
45.7500903151
 51
78.5285777231
  0
LWPOLYLINE
  5
138
330
1F
100
AcDbEntity
  8
0
  6
CONTINUOUS
 62
     7
100
AcDbPolyline
 90
        6
 70
   128
 43
0.0
 10
295.1716645289
 20
199.9455307824
 10
295.3514693904
 20
199.4224478704
 10
295.5312705267
 20
198.9650343759
 10
295.7110157836
 20
198.6308087809
 10
295.8907573152
 20
198.4615315897
 10
295.9645590413
 20
198.4455351931
  0
LINE
  5
139
330
1F
100
AcDbEntity
  8
0
  6
CONTINUOUS
 62
     7
100
AcDbLine
 10
295.9645590413
 20
196.44553114
 30
0.0
 11
295.9645590413
 21
198.4455351931
 31
0.0
  0
LINE
  5
13A
330
1F
100
AcDbEntity
  8
0
  6
CONTINUOUS
 62
     7
100
AcDbLine
 10
184.8787716258
 20
196.44553114
 30
0.0
 11
184.8787716258
 21
198.4455351931
 31
0.0
  0
ARC
  5
13B
330
1F
100
AcDbEntity
  8
0
  6
CONTINUOUS
 62
     7
100
AcDbCircle
 10
182.7250918576
 20
200.5435247673
 30
0.0
 40
3.006642113193267
100
AcDbArc
 50
315.7504418522
 51
348.5278861664
  0
LINE
  5
13C
330
1F
100
AcDbEntity
  8
0
  6
CONTINUOUS
 62
     7
100
AcDbLine
 10
279.3716652918
 20
304.5555318687
 30
0.0
 11
279.0329469967
 21
304.5555318687
 31
0.0
  0
ARC
  5
13D
330
1F
100
AcDbEntity
  8
0
  6
CONTINUOUS
 62
     7
100
AcDbCircle
 10
276.5716653335
 20
303.4455319149
 30
0.0
 40
2.699999999999793
100
AcDbArc
 50
24.2746521946
 51
155.7253478054
  0
LINE
  5
13E
330
1F
100
AcDbEntity
  8
0
  6
CONTINUOUS
 62
     7
100
AcDbLine
 10
274.1103856492
 20
304.5555318687
 30
0.0
 11
272.7216644812
 21
304.5555318687
 31
0.0
  0
LINE
  5
13F
330
1F
100
AcDbEntity
  8
0
  6
CONTINUOUS
 62
     7
100
AcDbLine
 10
272.7216644812
 20
304.5555318687
 30
0.0
 11
272.7216644812
 21
302.3355319611
 31
0.0
  0
LINE
  5
140
330
1F
100
AcDbEntity
  8
0
  6
CONTINUOUS
 62
     7
100
AcDbLine
 10
272.7216644812
 20
302.3355319611
 30
0.0
 11
274.1103856492
 21
302.3355319611
 31
0.0
  0
ARC
  5
141
330
1F
100
AcDbEntity
  8
0
  6
CONTINUOUS
 62
     7
100
AcDbCircle
 10
276.5716653335
 20
303.4455319149
 30
0.0
 40
2.699999999999793
100
AcDbArc
 50
204.2746521946
 51
335.7253478054
  0
LINE
  5
142
330
1F
100
AcDbEntity
  8
0
  6
CONTINUOUS
 62
     7
100
AcDbLine
 10
279.0329469967
 20
302.3355319611
 30
0.0
 11
279.3716652918
 21
302.3355319611
 31
0.0
  0
LINE
  5
143
330
1F
100
AcDbEntity
  8
0
  6
CONTINUOUS
 62
     7
100
AcDbLine
 10
279.3716652918
 20
302.3355319611
 30
0.0
 11
279.3716652918
 21
304.5555318687
 31
0.0
  0
CIRCLE
  5
144
330
1F
100
AcDbEntity
  8
0
  6
CONTINUOUS
 62
     7
100
AcDbCircle
 10
277.1716653335
 20
303.4455319149
 30
0.0
 40
6.600000000000023
  0
CIRCLE
  5
145
330
1F
100
AcDbEntity
  8
0
  6
CONTINUOUS
 62
     7
100
AcDbCircle
 10
277.1716653335
 20
303.4455319149
 30
0.0
 40
6.849999999999966
  0
LINE
  5
146
330
1F
100
AcDbEntity
  8
0
  6
CONTINUOUS
 62
     7
100
AcDbLine
 10
279.0329469967
 20
304.5555318687
 30
0.0
 11
274.1103856492
 21
304.5555318687
 31
0.0
  0
LINE
  5
147
330
1F
100
AcDbEntity
  8
0
  6
CONTINUOUS
 62
     7
100
AcDbLine
 10
274.1103856492
 20
302.3355319611
 30
0.0
 11
279.0329469967
 21
302.3355319611
 31
0.0
  0
LINE
  5
148
330
1F
100
AcDbEntity
  8
0
  6
CONTINUOUS
 62
     7
100
AcDbLine
 10
273.5753296543
 20
303.195531903
 30
0.0
 11
273.930379622
 21
303.195531903
 31
0.0
  0
LINE
  5
149
330
1F
100
AcDbEntity
  8
0
  6
CONTINUOUS
 62
     7
100
AcDbLine
 10
274.1014039743
 20
304.3955319309
 30
0.0
 11
273.7241773534
 21
304.3955319309
 31
0.0
  0
LINE
  5
14A
330
1F
100
AcDbEntity
  8
0
  6
CONTINUOUS
 62
     7
100
AcDbLine
 10
272.996665411
 20
303.195531903
 30
0.0
 11
272.996665411
 21
304.3955319309
 31
0.0
  0
LINE
  5
14B
330
1F
100
AcDbEntity
  8
0
  6
CONTINUOUS
 62
     7
100
AcDbLine
 10
273.5753296543
 20
303.195531903
 30
0.0
 11
272.996665411
 21
303.195531903
 31
0.0
  0
LINE
  5
14C
330
1F
100
AcDbEntity
  8
0
  6
CONTINUOUS
 62
     7
100
AcDbLine
 10
273.7241773534
 20
304.3955319309
 30
0.0
 11
272.996665411
 21
304.3955319309
 31
0.0
  0
ARC
  5
14D
330
1F
100
AcDbEntity
  8
0
  6
CONTINUOUS
 62
     7
100
AcDbCircle
 10
274.4029413589
 20
302.3955334379
 30
0.0
 40
0.7999984651164681
100
AcDbArc
 50
7.1806585347
 51
90.0000867998
  0
LINE
  5
14E
330
1F
100
AcDbEntity
  8
0
  6
CONTINUOUS
 62
     7
100
AcDbLine
 10
276.302938782
 20
302.4955318989
 30
0.0
 11
275.1966653991
 21
302.4955318989
 31
0.0
  0
ARC
  5
14F
330
1F
100
AcDbEntity
  8
0
  6
CONTINUOUS
 62
     7
100
AcDbCircle
 10
277.0966640342
 20
302.3955321234
 30
0.0
 40
0.7999998318728554
100
AcDbArc
 50
7.1807410905
 51
172.8192589095
  0
LINE
  5
150
330
1F
100
AcDbEntity
  8
0
  6
CONTINUOUS
 62
     7
100
AcDbLine
 10
278.6966650415
 20
302.4955318989
 30
0.0
 11
277.8903892863
 21
302.4955318989
 31
0.0
  0
LINE
  5
151
330
1F
100
AcDbEntity
  8
0
  6
CONTINUOUS
 62
     7
100
AcDbLine
 10
278.6966650415
 20
304.3955319309
 30
0.0
 11
278.6966650415
 21
302.4955318989
 31
0.0
  0
LINE
  5
152
330
1F
100
AcDbEntity
  8
0
  6
CONTINUOUS
 62
     7
100
AcDbLine
 10
276.7741619277
 20
304.3955319309
 30
0.0
 11
278.6966650415
 21
304.3955319309
 31
0.0
  0
ARC
  5
153
330
1F
100
AcDbEntity
  8
0
  6
CONTINUOUS
 62
     7
100
AcDbCircle
 10
275.8966660726
 20
304.5955310826
 30
0.0
 40
0.8999992424371747
100
AcDbArc
 50
192.8395440099
 51
347.1604559901
  0
LINE
  5
154
330
1F
100
AcDbEntity
  8
0
  6
CONTINUOUS
 62
     7
100
AcDbLine
 10
274.402940147
 20
303.195531903
 30
0.0
 11
273.930379622
 21
303.195531903
 31
0.0
  0
LINE
  5
155
330
1F
100
AcDbEntity
  8
0
  6
CONTINUOUS
 62
     7
100
AcDbLine
 10
274.1014039743
 20
304.3955319309
 30
0.0
 11
275.0191702176
 21
304.3955319309
 31
0.0
  0
CIRCLE
  5
156
330
1F
100
AcDbEntity
  8
0
  6
CONTINUOUS
 62
     7
100
AcDbCircle
 10
277.1716653335
 20
303.4455319149
 30
0.0
 40
9.000000000000032
  0
CIRCLE
  5
157
330
1F
100
AcDbEntity
  8
0
  6
CONTINUOUS
 62
     7
100
AcDbCircle
 10
277.1716653335
 20
303.4455319149
 30
0.0
 40
10.99999999999997
  0
CIRCLE
  5
158
330
1F
100
AcDbEntity
  8
0
  6
CONTINUOUS
 62
     7
100
AcDbCircle
 10
277.1716653335
 20
303.4455319149
 30
0.0
 40
7.000000000000056
  0
LINE
  5
159
330
1F
100
AcDbEntity
  8
0
  6
CONTINUOUS
 62
     7
100
AcDbLine
 10
279.5716649521
 20
310.021244849
 30
0.0
 11
279.5716649521
 21
309.861332572
 31
0.0
  0
LINE
  5
15A
330
1F
100
AcDbEntity
  8
0
  6
CONTINUOUS
 62
     7
100
AcDbLine
 10
270.755864181
 20
301.0455318009
 30
0.0
 11
270.5959523696
 21
301.0455318009
 31
0.0
  0
LINE
  5
15B
330
1F
100
AcDbEntity
  8
0
  6
CONTINUOUS
 62
     7
100
AcDbLine
 10
274.7716656554
 20
297.3510673483
 30
0.0
 11
274.7716656554
 21
297.2705316944
 31
0.0
  0
LINE
  5
15C
330
1F
100
AcDbEntity
  8
0
  6
CONTINUOUS
 62
     8
100
AcDbLine
 10
273.5753296543
 20
303.195531903
 30
0.0
 11
273.7848139036
 21
302.3355319611
 31
0.0
  0
LWPOLYLINE
  5
15D
330
1F
100
AcDbEntity
  8
0
  6
CONTINUOUS
 62
     8
100
AcDbPolyline
 90
        3
 70
   128
 43
0.0
 10
279.1585153568
 20
302.3355319611
 10
279.2524448264
 20
302.5978653323
 10
279.3716652918
 20
303.2423821288
  0
LINE
  5
15E
330
1F
100
AcDbEntity
  8
0
  6
CONTINUOUS
 62
     8
100
AcDbLine
 10
279.3716652918
 20
303.648681701
 30
0.0
 11
279.1585153568
 21
304.5555318687
 31
0.0
  0
LINE
  5
15F
330
1F
100
AcDbEntity
  8
0
  6
CONTINUOUS
 62
     8
100
AcDbLine
 10
273.7848139036
 20
304.5555318687
 30
0.0
 11
273.7241773534
 21
304.3955779732
 31
0.0
  0
LINE
  5
160
330
1F
100
AcDbEntity
  8
0
  6
CONTINUOUS
 62
     8
100
AcDbLine
 10
273.930379622
 20
303.195531903
 30
0.0
 11
274.1754254926
 21
302.3284266684
 31
0.0
  0
ARC
  5
161
330
1F
100
AcDbEntity
  8
0
  6
CONTINUOUS
 62
     8
100
AcDbCircle
 10
276.4716653335
 20
303.4455319149
 30
0.0
 40
2.553553390593003
100
AcDbArc
 50
333.6900487144
 51
26.1461307089
  0
LINE
  5
162
330
1F
100
AcDbEntity
  8
0
  6
CONTINUOUS
 62
     8
100
AcDbLine
 10
275.5510820675
 20
303.7645256419
 30
0.0
 11
275.5510820675
 21
302.4955318989
 31
0.0
  0
LINE
  5
163
330
1F
100
AcDbEntity
  8
0
  6
CONTINUOUS
 62
     8
100
AcDbLine
 10
277.248138063
 20
304.3955319309
 30
0.0
 11
277.248138063
 21
303.1810612166
 31
0.0
  0
LINE
  5
164
330
1F
100
AcDbEntity
  8
0
  6
CONTINUOUS
 62
     7
100
AcDbLine
 10
87.6243161833
 20
297.2955321175
 30
0.0
 11
88.3243168568
 21
297.2955321175
 31
0.0
  0
LINE
  5
165
330
1F
100
AcDbEntity
  8
0
  6
CONTINUOUS
 62
     7
100
AcDbLine
 10
69.0243165804
 20
310.2955319201
 30
0.0
 11
68.9743166654
 21
310.2955319201
 31
0.0
  0
LINE
  5
166
330
1F
100
AcDbEntity
  8
0
  6
CONTINUOUS
 62
     7
100
AcDbLine
 10
68.9743166654
 20
296.5955319097
 30
0.0
 11
69.0243165804
 21
296.5955319097
 31
0.0
  0
ARC
  5
167
330
1F
100
AcDbEntity
  8
0
  6
CONTINUOUS
 62
     7
100
AcDbCircle
 10
68.9743166065
 20
310.0455319149
 30
0.0
 40
0.25
100
AcDbArc
 50
90.0
 51
180.0
  0
ARC
  5
168
330
1F
100
AcDbEntity
  8
0
  6
CONTINUOUS
 62
     7
100
AcDbCircle
 10
68.9743166065
 20
296.8455319149
 30
0.0
 40
0.25
100
AcDbArc
 50
180.0
 51
270.0
  0
LINE
  5
169
330
1F
100
AcDbEntity
  8
0
  6
CONTINUOUS
 62
     7
100
AcDbLine
 10
88.5243165171
 20
299.9455318069
 30
0.0
 11
89.524316681
 21
299.9455318069
 31
0.0
  0
LINE
  5
16A
330
1F
100
AcDbEntity
  8
0
  6
CONTINUOUS
 62
     7
100
AcDbLine
 10
89.524316681
 20
306.9455320229
 30
0.0
 11
88.5243165171
 21
306.9455320229
 31
0.0
  0
LINE
  5
16B
330
1F
100
AcDbEntity
  8
0
  6
CONTINUOUS
 62
     7
100
AcDbLine
 10
87.5243163532
 20
300.4455318888
 30
0.0
 11
87.6243161833
 21
300.4455318888
 31
0.0
  0
LINE
  5
16C
330
1F
100
AcDbEntity
  8
0
  6
CONTINUOUS
 62
     7
100
AcDbLine
 10
88.3243168568
 20
300.4455318888
 30
0.0
 11
88.5243165171
 21
300.4455318888
 31
0.0
  0
LINE
  5
16D
330
1F
100
AcDbEntity
  8
0
  6
CONTINUOUS
 62
     7
100
AcDbLine
 10
88.5243165171
 20
306.445531941
 30
0.0
 11
87.5243163532
 21
306.445531941
 31
0.0
  0
LINE
  5
16E
330
1F
100
AcDbEntity
  8
0
  6
CONTINUOUS
 62
     7
100
AcDbLine
 10
71.024316559
 20
292.4455319745
 30
0.0
 11
72.0243166065
 21
292.4455319745
 31
0.0
  0
LINE
  5
16F
330
1F
100
AcDbEntity
  8
0
  6
CONTINUOUS
 62
     7
100
AcDbLine
 10
72.0243166065
 20
314.4455318553
 30
0.0
 11
71.024316559
 21
314.4455318553
 31
0.0
  0
LINE
  5
170
330
1F
100
AcDbEntity
  8
0
  6
CONTINUOUS
 62
     7
100
AcDbLine
 10
71.024316559
 20
314.4455318553
 30
0.0
 11
69.0243165804
 21
312.4455315275
 31
0.0
  0
LINE
  5
171
330
1F
100
AcDbEntity
  8
0
  6
CONTINUOUS
 62
     7
100
AcDbLine
 10
69.0243165804
 20
294.4455323023
 30
0.0
 11
71.024316559
 21
292.4455319745
 31
0.0
  0
LINE
  5
172
330
1F
100
AcDbEntity
  8
0
  6
CONTINUOUS
 62
     7
100
AcDbLine
 10
73.5243166195
 20
201.4455338222
 30
0.0
 11
72.0243166065
 21
201.4455338222
 31
0.0
  0
LINE
  5
173
330
1F
100
AcDbEntity
  8
0
  6
CONTINUOUS
 62
     7
100
AcDbLine
 10
73.5243166195
 20
196.9455321533
 30
0.0
 11
72.0243166065
 21
196.9455321533
 31
0.0
  0
LINE
  5
174
330
1F
100
AcDbEntity
  8
0
  6
CONTINUOUS
 62
     7
100
AcDbLine
 10
73.5243166195
 20
196.9455321533
 30
0.0
 11
73.5243166195
 21
201.4455338222
 31
0.0
  0
LINE
  5
175
330
1F
100
AcDbEntity
  8
0
  6
CONTINUOUS
 62
     7
100
AcDbLine
 10
72.0243166065
 20
196.9455321533
 30
0.0
 11
72.0243166065
 21
201.4455338222
 31
0.0
  0
LINE
  5
176
330
1F
100
AcDbEntity
  8
0
  6
CONTINUOUS
 62
     7
100
AcDbLine
 10
73.5243166195
 20
191.2886788351
 30
0.0
 11
72.0243166065
 21
191.2886788351
 31
0.0
  0
LINE
  5
177
330
1F
100
AcDbEntity
  8
0
  6
CONTINUOUS
 62
     7
100
AcDbLine
 10
73.5243166195
 20
191.2886788351
 30
0.0
 11
73.5243166195
 21
196.9455321533
 31
0.0
  0
LINE
  5
178
330
1F
100
AcDbEntity
  8
0
  6
CONTINUOUS
 62
     7
100
AcDbLine
 10
72.0243166065
 20
191.2886788351
 30
0.0
 11
72.0243166065
 21
196.9455321533
 31
0.0
  0
LINE
  5
179
330
1F
100
AcDbEntity
  8
0
  6
CONTINUOUS
 62
     7
100
AcDbLine
 10
73.5243166195
 20
175.2886762125
 30
0.0
 11
72.0243166065
 21
175.2886762125
 31
0.0
  0
LINE
  5
17A
330
1F
100
AcDbEntity
  8
0
  6
CONTINUOUS
 62
     7
100
AcDbLine
 10
73.5243166195
 20
175.2886762125
 30
0.0
 11
73.5243166195
 21
191.2886788351
 31
0.0
  0
LINE
  5
17B
330
1F
100
AcDbEntity
  8
0
  6
CONTINUOUS
 62
     7
100
AcDbLine
 10
72.0243166065
 20
175.2886762125
 30
0.0
 11
72.0243166065
 21
191.2886788351
 31
0.0
  0
LINE
  5
17C
330
1F
100
AcDbEntity
  8
0
  6
CONTINUOUS
 62
     7
100
AcDbLine
 10
73.5243166195
 20
172.9455282194
 30
0.0
 11
72.0243166065
 21
172.9455282194
 31
0.0
  0
LINE
  5
17D
330
1F
100
AcDbEntity
  8
0
  6
CONTINUOUS
 62
     7
100
AcDbLine
 10
73.5243166195
 20
172.9455282194
 30
0.0
 11
73.5243166195
 21
175.2886762125
 31
0.0
  0
LINE
  5
17E
330
1F
100
AcDbEntity
  8
0
  6
CONTINUOUS
 62
     7
100
AcDbLine
 10
72.0243166065
 20
172.9455282194
 30
0.0
 11
72.0243166065
 21
175.2886762125
 31
0.0
  0
LINE
  5
17F
330
1F
100
AcDbEntity
  8
0
  6
CONTINUOUS
 62
     7
100
AcDbLine
 10
83.0243165469
 20
193.9455335242
 30
0.0
 11
83.0243165469
 21
192.4455304844
 31
0.0
  0
LINE
  5
180
330
1F
100
AcDbEntity
  8
0
  6
CONTINUOUS
 62
     7
100
AcDbLine
 10
83.0243165469
 20
192.4455304844
 30
0.0
 11
81.0243162191
 21
192.4455304844
 31
0.0
  0
LINE
  5
181
330
1F
100
AcDbEntity
  8
0
  6
CONTINUOUS
 62
     7
100
AcDbLine
 10
81.0243162191
 20
192.4455304844
 30
0.0
 11
81.0243162191
 21
193.9455335242
 31
0.0
  0
LINE
  5
182
330
1F
100
AcDbEntity
  8
0
  6
CONTINUOUS
 62
     7
100
AcDbLine
 10
81.0243162191
 20
193.9455335242
 30
0.0
 11
83.0243165469
 21
193.9455335242
 31
0.0
  0
LINE
  5
183
330
1F
100
AcDbEntity
  8
0
  6
CONTINUOUS
 62
     7
100
AcDbLine
 10
74.5243165506
 20
192.4455304844
 30
0.0
 11
74.5243165506
 21
193.9455335242
 31
0.0
  0
LINE
  5
184
330
1F
100
AcDbEntity
  8
0
  6
CONTINUOUS
 62
     7
100
AcDbLine
 10
74.5243165506
 20
192.4455304844
 30
0.0
 11
81.0243162191
 21
192.4455304844
 31
0.0
  0
LINE
  5
185
330
1F
100
AcDbEntity
  8
0
  6
CONTINUOUS
 62
     7
100
AcDbLine
 10
74.5243165506
 20
193.9455335242
 30
0.0
 11
81.0243162191
 21
193.9455335242
 31
0.0
  0
ARC
  5
186
330
1F
100
AcDbEntity
  8
0
  6
CONTINUOUS
 62
     7
100
AcDbCircle
 10
74.5243166065
 20
191.4455319149
 30
0.0
 40
2.500000000000001
100
AcDbArc
 50
90.0
 51
113.5781784782
  0
ARC
  5
187
330
1F
100
AcDbEntity
  8
0
  6
CONTINUOUS
 62
     7
100
AcDbCircle
 10
74.5243166065
 20
191.4455319149
 30
0.0
 40
1.000000000000014
100
AcDbArc
 50
90.0
 51
180.0
  0
ARC
  5
188
330
1F
100
AcDbEntity
  8
0
  6
CONTINUOUS
 62
     7
100
AcDbCircle
 10
83.0243166065
 20
194.9455319149
 30
0.0
 40
2.5
100
AcDbArc
 50
270.0
 51
0.0
  0
ARC
  5
189
330
1F
100
AcDbEntity
  8
0
  6
CONTINUOUS
 62
     7
100
AcDbCircle
 10
83.0243166065
 20
194.9455319149
 30
0.0
 40
1.0
100
AcDbArc
 50
270.0
 51
0.0
  0
LINE
  5
18A
330
1F
100
AcDbEntity
  8
0
  6
CONTINUOUS
 62
     7
100
AcDbLine
 10
84.0243167108
 20
194.9455355508
 30
0.0
 11
85.5243169567
 21
194.9455355508
 31
0.0
  0
LINE
  5
18B
330
1F
100
AcDbEntity
  8
0
  6
CONTINUOUS
 62
     7
100
AcDbLine
 10
85.5243169567
 20
195.9455301268
 30
0.0
 11
84.0243167108
 21
195.9455301268
 31
0.0
  0
LINE
  5
18C
330
1F
100
AcDbEntity
  8
0
  6
CONTINUOUS
 62
     7
100
AcDbLine
 10
84.0243167108
 20
195.9455301268
 30
0.0
 11
84.0243167108
 21
196.44553114
 31
0.0
  0
LINE
  5
18D
330
1F
100
AcDbEntity
  8
0
  6
CONTINUOUS
 62
     7
100
AcDbLine
 10
84.0243167108
 20
198.4455351931
 30
0.0
 11
84.0243167108
 21
198.9455287558
 31
0.0
  0
LINE
  5
18E
330
1F
100
AcDbEntity
  8
0
  6
CONTINUOUS
 62
     7
100
AcDbLine
 10
84.0243167108
 20
198.9455287558
 30
0.0
 11
85.5243169567
 21
198.9455287558
 31
0.0
  0
LINE
  5
18F
330
1F
100
AcDbEntity
  8
0
  6
CONTINUOUS
 62
     7
100
AcDbLine
 10
85.5243169567
 20
198.9455287558
 30
0.0
 11
85.5243169567
 21
195.9455301268
 31
0.0
  0
LINE
  5
190
330
1F
100
AcDbEntity
  8
0
  6
CONTINUOUS
 62
     7
100
AcDbLine
 10
84.0243167108
 20
195.9455301268
 30
0.0
 11
84.0243167108
 21
194.9455355508
 31
0.0
  0
LINE
  5
191
330
1F
100
AcDbEntity
  8
0
  6
CONTINUOUS
 62
     7
100
AcDbLine
 10
85.5243169567
 20
195.9455301268
 30
0.0
 11
85.5243169567
 21
194.9455355508
 31
0.0
  0
LINE
  5
192
330
1F
100
AcDbEntity
  8
0
  6
CONTINUOUS
 62
     7
100
AcDbLine
 10
73.5243166195
 20
415.6023849947
 30
0.0
 11
72.0243166065
 21
415.6023849947
 31
0.0
  0
LINE
  5
193
330
1F
100
AcDbEntity
  8
0
  6
CONTINUOUS
 62
     7
100
AcDbLine
 10
73.5243166195
 20
409.9455316765
 30
0.0
 11
73.5243166195
 21
415.6023849947
 31
0.0
  0
LINE
  5
194
330
1F
100
AcDbEntity
  8
0
  6
CONTINUOUS
 62
     7
100
AcDbLine
 10
73.5243166195
 20
409.9455316765
 30
0.0
 11
72.0243166065
 21
409.9455316765
 31
0.0
  0
LINE
  5
195
330
1F
100
AcDbEntity
  8
0
  6
CONTINUOUS
 62
     7
100
AcDbLine
 10
72.0243166065
 20
409.9455316765
 30
0.0
 11
72.0243166065
 21
415.6023849947
 31
0.0
  0
LINE
  5
196
330
1F
100
AcDbEntity
  8
0
  6
CONTINUOUS
 62
     7
100
AcDbLine
 10
73.5243166195
 20
405.4455300075
 30
0.0
 11
72.0243166065
 21
405.4455300075
 31
0.0
  0
LINE
  5
197
330
1F
100
AcDbEntity
  8
0
  6
CONTINUOUS
 62
     7
100
AcDbLine
 10
73.5243166195
 20
405.4455300075
 30
0.0
 11
73.5243166195
 21
409.9455316765
 31
0.0
  0
LINE
  5
198
330
1F
100
AcDbEntity
  8
0
  6
CONTINUOUS
 62
     7
100
AcDbLine
 10
72.0243166065
 20
405.4455300075
 30
0.0
 11
72.0243166065
 21
409.9455316765
 31
0.0
  0
LINE
  5
199
330
1F
100
AcDbEntity
  8
0
  6
CONTINUOUS
 62
     7
100
AcDbLine
 10
73.5243166195
 20
431.6023876173
 30
0.0
 11
72.0243166065
 21
431.6023876173
 31
0.0
  0
LINE
  5
19A
330
1F
100
AcDbEntity
  8
0
  6
CONTINUOUS
 62
     7
100
AcDbLine
 10
73.5243166195
 20
415.6023849947
 30
0.0
 11
73.5243166195
 21
431.6023876173
 31
0.0
  0
LINE
  5
19B
330
1F
100
AcDbEntity
  8
0
  6
CONTINUOUS
 62
     7
100
AcDbLine
 10
72.0243166065
 20
415.6023849947
 30
0.0
 11
72.0243166065
 21
431.6023876173
 31
0.0
  0
LINE
  5
19C
330
1F
100
AcDbEntity
  8
0
  6
CONTINUOUS
 62
     7
100
AcDbLine
 10
73.5243166195
 20
433.9455356104
 30
0.0
 11
72.0243166065
 21
433.9455356104
 31
0.0
  0
LINE
  5
19D
330
1F
100
AcDbEntity
  8
0
  6
CONTINUOUS
 62
     7
100
AcDbLine
 10
73.5243166195
 20
431.6023876173
 30
0.0
 11
73.5243166195
 21
433.9455356104
 31
0.0
  0
LINE
  5
19E
330
1F
100
AcDbEntity
  8
0
  6
CONTINUOUS
 62
     7
100
AcDbLine
 10
72.0243166065
 20
431.6023876173
 30
0.0
 11
72.0243166065
 21
433.9455356104
 31
0.0
  0
LINE
  5
19F
330
1F
100
AcDbEntity
  8
0
  6
CONTINUOUS
 62
     7
100
AcDbLine
 10
81.0243162191
 20
412.9455303056
 30
0.0
 11
81.0243162191
 21
414.4455333454
 31
0.0
  0
LINE
  5
1A0
330
1F
100
AcDbEntity
  8
0
  6
CONTINUOUS
 62
     7
100
AcDbLine
 10
81.0243162191
 20
414.4455333454
 30
0.0
 11
83.0243165469
 21
414.4455333454
 31
0.0
  0
LINE
  5
1A1
330
1F
100
AcDbEntity
  8
0
  6
CONTINUOUS
 62
     7
100
AcDbLine
 10
83.0243165469
 20
414.4455333454
 30
0.0
 11
83.0243165469
 21
412.9455303056
 31
0.0
  0
LINE
  5
1A2
330
1F
100
AcDbEntity
  8
0
  6
CONTINUOUS
 62
     7
100
AcDbLine
 10
83.0243165469
 20
412.9455303056
 30
0.0
 11
81.0243162191
 21
412.9455303056
 31
0.0
  0
LINE
  5
1A3
330
1F
100
AcDbEntity
  8
0
  6
CONTINUOUS
 62
     7
100
AcDbLine
 10
74.5243165506
 20
414.4455333454
 30
0.0
 11
74.5243165506
 21
412.9455303056
 31
0.0
  0
LINE
  5
1A4
330
1F
100
AcDbEntity
  8
0
  6
CONTINUOUS
 62
     7
100
AcDbLine
 10
81.0243162191
 20
412.9455303056
 30
0.0
 11
74.5243165506
 21
412.9455303056
 31
0.0
  0
LINE
  5
1A5
330
1F
100
AcDbEntity
  8
0
  6
CONTINUOUS
 62
     7
100
AcDbLine
 10
81.0243162191
 20
414.4455333454
 30
0.0
 11
74.5243165506
 21
414.4455333454
 31
0.0
  0
ARC
  5
1A6
330
1F
100
AcDbEntity
  8
0
  6
CONTINUOUS
 62
     7
100
AcDbCircle
 10
74.5243166065
 20
415.4455319149
 30
0.0
 40
1.0
100
AcDbArc
 50
180.0
 51
270.0
  0
ARC
  5
1A7
330
1F
100
AcDbEntity
  8
0
  6
CONTINUOUS
 62
     7
100
AcDbCircle
 10
74.5243166065
 20
415.4455319149
 30
0.0
 40
2.5
100
AcDbArc
 50
246.4218215218
 51
270.0
  0
LINE
  5
1A8
330
1F
100
AcDbEntity
  8
0
  6
CONTINUOUS
 62
     7
100
AcDbLine
 10
73.3867396698
 20
365.4455309016
 30
0.0
 11
73.3867396698
 21
381.4455335242
 31
0.0
  0
LINE
  5
1A9
330
1F
100
AcDbEntity
  8
0
  6
CONTINUOUS
 62
     7
100
AcDbLine
 10
73.3867396698
 20
381.4455335242
 30
0.0
 11
87.2654971531
 21
381.4455335242
 31
0.0
  0
LINE
  5
1AA
330
1F
100
AcDbEntity
  8
0
  6
CONTINUOUS
 62
     7
100
AcDbLine
 10
87.2654971531
 20
381.4455335242
 30
0.0
 11
87.2654971531
 21
365.4455309016
 31
0.0
  0
LINE
  5
1AB
330
1F
100
AcDbEntity
  8
0
  6
CONTINUOUS
 62
     7
100
AcDbLine
 10
87.2654971531
 20
365.4455309016
 30
0.0
 11
73.3867396698
 21
365.4455309016
 31
0.0
  0
LINE
  5
1AC
330
1F
100
AcDbEntity
  8
0
  6
CONTINUOUS
 62
     7
100
AcDbLine
 10
73.3867396698
 20
241.4455329282
 30
0.0
 11
73.3867396698
 21
225.4455303056
 31
0.0
  0
LINE
  5
1AD
330
1F
100
AcDbEntity
  8
0
  6
CONTINUOUS
 62
     7
100
AcDbLine
 10
87.2654971531
 20
241.4455329282
 30
0.0
 11
73.3867396698
 21
241.4455329282
 31
0.0
  0
LINE
  5
1AE
330
1F
100
AcDbEntity
  8
0
  6
CONTINUOUS
 62
     7
100
AcDbLine
 10
87.2654971531
 20
241.4455329282
 30
0.0
 11
87.2654971531
 21
225.4455303056
 31
0.0
  0
LINE
  5
1AF
330
1F
100
AcDbEntity
  8
0
  6
CONTINUOUS
 62
     7
100
AcDbLine
 10
73.3867396698
 20
225.4455303056
 30
0.0
 11
87.2654971531
 21
225.4455303056
 31
0.0
  0
LINE
  5
1B0
330
1F
100
AcDbEntity
  8
0
  6
CONTINUOUS
 62
     7
100
AcDbLine
 10
72.9985110442
 20
365.4455309016
 30
0.0
 11
73.3867396698
 21
365.4455309016
 31
0.0
  0
LINE
  5
1B1
330
1F
100
AcDbEntity
  8
0
  6
CONTINUOUS
 62
     7
100
AcDbLine
 10
72.9985110442
 20
365.4455309016
 30
0.0
 11
72.9985110442
 21
381.4455335242
 31
0.0
  0
LINE
  5
1B2
330
1F
100
AcDbEntity
  8
0
  6
CONTINUOUS
 62
     7
100
AcDbLine
 10
72.9985110442
 20
381.4455335242
 30
0.0
 11
73.3867396698
 21
381.4455335242
 31
0.0
  0
LINE
  5
1B3
330
1F
100
AcDbEntity
  8
0
  6
CONTINUOUS
 62
     7
100
AcDbLine
 10
72.9985110442
 20
241.4455329282
 30
0.0
 11
72.9985110442
 21
225.4455303056
 31
0.0
  0
LINE
  5
1B4
330
1F
100
AcDbEntity
  8
0
  6
CONTINUOUS
 62
     7
100
AcDbLine
 10
72.9985110442
 20
241.4455329282
 30
0.0
 11
73.3867396698
 21
241.4455329282
 31
0.0
  0
LINE
  5
1B5
330
1F
100
AcDbEntity
  8
0
  6
CONTINUOUS
 62
     7
100
AcDbLine
 10
72.9985110442
 20
225.4455303056
 30
0.0
 11
73.3867396698
 21
225.4455303056
 31
0.0
  0
LINE
  5
1B6
330
1F
100
AcDbEntity
  8
0
  6
CONTINUOUS
 62
     7
100
AcDbLine
 10
87.5243163532
 20
241.4455329282
 30
0.0
 11
87.2654971531
 21
241.4455329282
 31
0.0
  0
LINE
  5
1B7
330
1F
100
AcDbEntity
  8
0
  6
CONTINUOUS
 62
     7
100
AcDbLine
 10
87.5243163532
 20
225.4455303056
 30
0.0
 11
87.5243163532
 21
241.4455329282
 31
0.0
  0
LINE
  5
1B8
330
1F
100
AcDbEntity
  8
0
  6
CONTINUOUS
 62
     7
100
AcDbLine
 10
87.2654971531
 20
225.4455303056
 30
0.0
 11
87.5243163532
 21
225.4455303056
 31
0.0
  0
LINE
  5
1B9
330
1F
100
AcDbEntity
  8
0
  6
CONTINUOUS
 62
     7
100
AcDbLine
 10
87.2654971531
 20
365.4455309016
 30
0.0
 11
87.5243163532
 21
365.4455309016
 31
0.0
  0
LINE
  5
1BA
330
1F
100
AcDbEntity
  8
0
  6
CONTINUOUS
 62
     7
100
AcDbLine
 10
87.5243163532
 20
381.4455335242
 30
0.0
 11
87.2654971531
 21
381.4455335242
 31
0.0
  0
LINE
  5
1BB
330
1F
100
AcDbEntity
  8
0
  6
CONTINUOUS
 62
     7
100
AcDbLine
 10
87.5243163532
 20
365.4455309016
 30
0.0
 11
87.5243163532
 21
381.4455335242
 31
0.0
  0
LINE
  5
1BC
330
1F
100
AcDbEntity
  8
0
  6
CONTINUOUS
 62
     7
100
AcDbLine
 10
74.5243165506
 20
241.9455302162
 30
0.0
 11
74.5243165506
 21
244.9455325705
 31
0.0
  0
LINE
  5
1BD
330
1F
100
AcDbEntity
  8
0
  6
CONTINUOUS
 62
     7
100
AcDbLine
 10
74.5243165506
 20
244.9455325705
 30
0.0
 11
88.5243165171
 21
244.9455325705
 31
0.0
  0
ARC
  5
1BE
330
1F
100
AcDbEntity
  8
0
  6
CONTINUOUS
 62
     7
100
AcDbCircle
 10
88.5243166065
 20
242.9455319149
 30
0.0
 40
2.000000000000014
100
AcDbArc
 50
0.0
 51
90.0
  0
LINE
  5
1BF
330
1F
100
AcDbEntity
  8
0
  6
CONTINUOUS
 62
     7
100
AcDbLine
 10
90.5243168449
 20
242.9455322427
 30
0.0
 11
90.5243168449
 21
223.9455347163
 31
0.0
  0
ARC
  5
1C0
330
1F
100
AcDbEntity
  8
0
  6
CONTINUOUS
 62
     7
100
AcDbCircle
 10
88.5243166065
 20
223.9455319149
 30
0.0
 40
2.000000000000014
100
AcDbArc
 50
270.0
 51
0.0
  0
LINE
  5
1C1
330
1F
100
AcDbEntity
  8
0
  6
CONTINUOUS
 62
     7
100
AcDbLine
 10
88.5243165171
 20
221.9455306632
 30
0.0
 11
74.5243165506
 21
221.9455306632
 31
0.0
  0
LINE
  5
1C2
330
1F
100
AcDbEntity
  8
0
  6
CONTINUOUS
 62
     7
100
AcDbLine
 10
74.5243165506
 20
221.9455306632
 30
0.0
 11
74.5243165506
 21
224.9455292923
 31
0.0
  0
LINE
  5
1C3
330
1F
100
AcDbEntity
  8
0
  6
CONTINUOUS
 62
     7
100
AcDbLine
 10
87.5243163532
 20
224.9455292923
 30
0.0
 11
74.5243165506
 21
224.9455292923
 31
0.0
  0
LINE
  5
1C4
330
1F
100
AcDbEntity
  8
0
  6
CONTINUOUS
 62
     7
100
AcDbLine
 10
87.5243163532
 20
225.4455303056
 30
0.0
 11
87.5243163532
 21
224.9455292923
 31
0.0
  0
LINE
  5
1C5
330
1F
100
AcDbEntity
  8
0
  6
CONTINUOUS
 62
     7
100
AcDbLine
 10
87.5243163532
 20
241.9455302162
 30
0.0
 11
87.5243163532
 21
241.4455329282
 31
0.0
  0
LINE
  5
1C6
330
1F
100
AcDbEntity
  8
0
  6
CONTINUOUS
 62
     7
100
AcDbLine
 10
74.5243165506
 20
241.9455302162
 30
0.0
 11
87.5243163532
 21
241.9455302162
 31
0.0
  0
LINE
  5
1C7
330
1F
100
AcDbEntity
  8
0
  6
CONTINUOUS
 62
     7
100
AcDbLine
 10
87.5243163532
 20
381.4455335242
 30
0.0
 11
87.5243163532
 21
381.9455345375
 31
0.0
  0
LINE
  5
1C8
330
1F
100
AcDbEntity
  8
0
  6
CONTINUOUS
 62
     7
100
AcDbLine
 10
87.5243163532
 20
381.9455345375
 30
0.0
 11
74.5243165506
 21
381.9455345375
 31
0.0
  0
LINE
  5
1C9
330
1F
100
AcDbEntity
  8
0
  6
CONTINUOUS
 62
     7
100
AcDbLine
 10
74.5243165506
 20
381.9455345375
 30
0.0
 11
74.5243165506
 21
384.9455331666
 31
0.0
  0
LINE
  5
1CA
330
1F
100
AcDbEntity
  8
0
  6
CONTINUOUS
 62
     7
100
AcDbLine
 10
88.5243165171
 20
384.9455331666
 30
0.0
 11
74.5243165506
 21
384.9455331666
 31
0.0
  0
ARC
  5
1CB
330
1F
100
AcDbEntity
  8
0
  6
CONTINUOUS
 62
     7
100
AcDbCircle
 10
88.5243166065
 20
382.9455319149
 30
0.0
 40
2.000000000000014
100
AcDbArc
 50
0.0
 51
90.0
  0
LINE
  5
1CC
330
1F
100
AcDbEntity
  8
0
  6
CONTINUOUS
 62
     7
100
AcDbLine
 10
90.5243168449
 20
363.9455315871
 30
0.0
 11
90.5243168449
 21
382.9455291135
 31
0.0
  0
ARC
  5
1CD
330
1F
100
AcDbEntity
  8
0
  6
CONTINUOUS
 62
     7
100
AcDbCircle
 10
88.5243166065
 20
363.9455319149
 30
0.0
 40
2.000000000000014
100
AcDbArc
 50
270.0
 51
0.0
  0
LINE
  5
1CE
330
1F
100
AcDbEntity
  8
0
  6
CONTINUOUS
 62
     7
100
AcDbLine
 10
74.5243165506
 20
361.9455312592
 30
0.0
 11
88.5243165171
 21
361.9455312592
 31
0.0
  0
LINE
  5
1CF
330
1F
100
AcDbEntity
  8
0
  6
CONTINUOUS
 62
     7
100
AcDbLine
 10
74.5243165506
 20
361.9455312592
 30
0.0
 11
74.5243165506
 21
364.9455336136
 31
0.0
  0
LINE
  5
1D0
330
1F
100
AcDbEntity
  8
0
  6
CONTINUOUS
 62
     7
100
AcDbLine
 10
74.5243165506
 20
364.9455336136
 30
0.0
 11
87.5243163532
 21
364.9455336136
 31
0.0
  0
LINE
  5
1D1
330
1F
100
AcDbEntity
  8
0
  6
CONTINUOUS
 62
     7
100
AcDbLine
 10
87.5243163532
 20
364.9455336136
 30
0.0
 11
87.5243163532
 21
365.4455309016
 31
0.0
  0
LINE
  5
1D2
330
1F
100
AcDbEntity
  8
0
  6
CONTINUOUS
 62
     7
100
AcDbLine
 10
72.0243166065
 20
361.9455312592
 30
0.0
 11
72.0243166065
 21
364.9455336136
 31
0.0
  0
LINE
  5
1D3
330
1F
100
AcDbEntity
  8
0
  6
CONTINUOUS
 62
     7
100
AcDbLine
 10
72.0243166065
 20
364.9455336136
 30
0.0
 11
74.5243165506
 21
364.9455336136
 31
0.0
  0
LINE
  5
1D4
330
1F
100
AcDbEntity
  8
0
  6
CONTINUOUS
 62
     7
100
AcDbLine
 10
74.5243165506
 20
361.9455312592
 30
0.0
 11
72.0243166065
 21
361.9455312592
 31
0.0
  0
LINE
  5
1D5
330
1F
100
AcDbEntity
  8
0
  6
CONTINUOUS
 62
     7
100
AcDbLine
 10
72.0243166065
 20
381.9455345375
 30
0.0
 11
72.0243166065
 21
384.9455331666
 31
0.0
  0
LINE
  5
1D6
330
1F
100
AcDbEntity
  8
0
  6
CONTINUOUS
 62
     7
100
AcDbLine
 10
72.0243166065
 20
384.9455331666
 30
0.0
 11
74.5243165506
 21
384.9455331666
 31
0.0
  0
LINE
  5
1D7
330
1F
100
AcDbEntity
  8
0
  6
CONTINUOUS
 62
     7
100
AcDbLine
 10
74.5243165506
 20
381.9455345375
 30
0.0
 11
72.0243166065
 21
381.9455345375
 31
0.0
  0
LINE
  5
1D8
330
1F
100
AcDbEntity
  8
0
  6
CONTINUOUS
 62
     7
100
AcDbLine
 10
72.0243166065
 20
244.9455325705
 30
0.0
 11
74.5243165506
 21
244.9455325705
 31
0.0
  0
LINE
  5
1D9
330
1F
100
AcDbEntity
  8
0
  6
CONTINUOUS
 62
     7
100
AcDbLine
 10
72.0243166065
 20
241.9455302162
 30
0.0
 11
74.5243165506
 21
241.9455302162
 31
0.0
  0
LINE
  5
1DA
330
1F
100
AcDbEntity
  8
0
  6
CONTINUOUS
 62
     7
100
AcDbLine
 10
72.0243166065
 20
241.9455302162
 30
0.0
 11
72.0243166065
 21
244.9455325705
 31
0.0
  0
LINE
  5
1DB
330
1F
100
AcDbEntity
  8
0
  6
CONTINUOUS
 62
     7
100
AcDbLine
 10
72.0243166065
 20
221.9455306632
 30
0.0
 11
72.0243166065
 21
224.9455292923
 31
0.0
  0
LINE
  5
1DC
330
1F
100
AcDbEntity
  8
0
  6
CONTINUOUS
 62
     7
100
AcDbLine
 10
74.5243165506
 20
224.9455292923
 30
0.0
 11
72.0243166065
 21
224.9455292923
 31
0.0
  0
LINE
  5
1DD
330
1F
100
AcDbEntity
  8
0
  6
CONTINUOUS
 62
     7
100
AcDbLine
 10
74.5243165506
 20
221.9455306632
 30
0.0
 11
72.0243166065
 21
221.9455306632
 31
0.0
  0
LINE
  5
1DE
330
1F
100
AcDbEntity
  8
0
  6
CONTINUOUS
 62
     7
100
AcDbLine
 10
73.5243166195
 20
385.4455341799
 30
0.0
 11
72.0243166065
 21
385.4455341799
 31
0.0
  0
LINE
  5
1DF
330
1F
100
AcDbEntity
  8
0
  6
CONTINUOUS
 62
     7
100
AcDbLine
 10
72.0243166065
 20
385.4455341799
 30
0.0
 11
72.0243166065
 21
405.4455300075
 31
0.0
  0
LINE
  5
1E0
330
1F
100
AcDbEntity
  8
0
  6
CONTINUOUS
 62
     7
100
AcDbLine
 10
73.5243166195
 20
385.4455341799
 30
0.0
 11
73.5243166195
 21
405.4455300075
 31
0.0
  0
LINE
  5
1E1
330
1F
100
AcDbEntity
  8
0
  6
CONTINUOUS
 62
     7
100
AcDbLine
 10
73.5243166195
 20
361.445530246
 30
0.0
 11
72.0243166065
 21
361.445530246
 31
0.0
  0
LINE
  5
1E2
330
1F
100
AcDbEntity
  8
0
  6
CONTINUOUS
 62
     7
100
AcDbLine
 10
73.5243166195
 20
245.4455335838
 30
0.0
 11
72.0243166065
 21
245.4455335838
 31
0.0
  0
LINE
  5
1E3
330
1F
100
AcDbEntity
  8
0
  6
CONTINUOUS
 62
     7
100
AcDbLine
 10
72.0243166065
 20
245.4455335838
 30
0.0
 11
72.0243166065
 21
361.445530246
 31
0.0
  0
LINE
  5
1E4
330
1F
100
AcDbEntity
  8
0
  6
CONTINUOUS
 62
     7
100
AcDbLine
 10
73.5243166195
 20
245.4455335838
 30
0.0
 11
73.5243166195
 21
361.445530246
 31
0.0
  0
LINE
  5
1E5
330
1F
100
AcDbEntity
  8
0
  6
CONTINUOUS
 62
     7
100
AcDbLine
 10
73.5243166195
 20
221.4455296499
 30
0.0
 11
72.0243166065
 21
221.4455296499
 31
0.0
  0
LINE
  5
1E6
330
1F
100
AcDbEntity
  8
0
  6
CONTINUOUS
 62
     7
100
AcDbLine
 10
72.0243166065
 20
201.4455338222
 30
0.0
 11
72.0243166065
 21
221.4455296499
 31
0.0
  0
LINE
  5
1E7
330
1F
100
AcDbEntity
  8
0
  6
CONTINUOUS
 62
     7
100
AcDbLine
 10
73.5243166195
 20
201.4455338222
 30
0.0
 11
73.5243166195
 21
221.4455296499
 31
0.0
  0
LINE
  5
1E8
330
1F
100
AcDbEntity
  8
0
  6
CONTINUOUS
 62
     7
100
AcDbLine
 10
72.0243166065
 20
384.9455331666
 30
0.0
 11
72.0243166065
 21
385.4455341799
 31
0.0
  0
LINE
  5
1E9
330
1F
100
AcDbEntity
  8
0
  6
CONTINUOUS
 62
     7
100
AcDbLine
 10
73.5243166195
 20
384.9455331666
 30
0.0
 11
73.5243166195
 21
385.4455341799
 31
0.0
  0
LINE
  5
1EA
330
1F
100
AcDbEntity
  8
0
  6
CONTINUOUS
 62
     7
100
AcDbLine
 10
72.0243166065
 20
361.445530246
 30
0.0
 11
72.0243166065
 21
361.9455312592
 31
0.0
  0
LINE
  5
1EB
330
1F
100
AcDbEntity
  8
0
  6
CONTINUOUS
 62
     7
100
AcDbLine
 10
73.5243166195
 20
361.445530246
 30
0.0
 11
73.5243166195
 21
361.9455312592
 31
0.0
  0
LINE
  5
1EC
330
1F
100
AcDbEntity
  8
0
  6
CONTINUOUS
 62
     7
100
AcDbLine
 10
72.0243166065
 20
244.9455325705
 30
0.0
 11
72.0243166065
 21
245.4455335838
 31
0.0
  0
LINE
  5
1ED
330
1F
100
AcDbEntity
  8
0
  6
CONTINUOUS
 62
     7
100
AcDbLine
 10
73.5243166195
 20
244.9455325705
 30
0.0
 11
73.5243166195
 21
245.4455335838
 31
0.0
  0
LINE
  5
1EE
330
1F
100
AcDbEntity
  8
0
  6
CONTINUOUS
 62
     7
100
AcDbLine
 10
72.0243166065
 20
221.4455296499
 30
0.0
 11
72.0243166065
 21
221.9455306632
 31
0.0
  0
LINE
  5
1EF
330
1F
100
AcDbEntity
  8
0
  6
CONTINUOUS
 62
     7
100
AcDbLine
 10
73.5243166195
 20
221.4455296499
 30
0.0
 11
73.5243166195
 21
221.9455306632
 31
0.0
  0
LINE
  5
1F0
330
1F
100
AcDbEntity
  8
0
  6
CONTINUOUS
 62
     7
100
AcDbLine
 10
72.0243166065
 20
381.9455345375
 30
0.0
 11
72.0243166065
 21
364.9455336136
 31
0.0
  0
LINE
  5
1F1
330
1F
100
AcDbEntity
  8
0
  6
CONTINUOUS
 62
     7
100
AcDbLine
 10
73.5243166195
 20
381.9455345375
 30
0.0
 11
73.5243166195
 21
381.4455335242
 31
0.0
  0
LINE
  5
1F2
330
1F
100
AcDbEntity
  8
0
  6
CONTINUOUS
 62
     7
100
AcDbLine
 10
73.5243166195
 20
365.4455309016
 30
0.0
 11
73.5243166195
 21
364.9455336136
 31
0.0
  0
LINE
  5
1F3
330
1F
100
AcDbEntity
  8
0
  6
CONTINUOUS
 62
     7
100
AcDbLine
 10
72.0243166065
 20
241.9455302162
 30
0.0
 11
72.0243166065
 21
224.9455292923
 31
0.0
  0
LINE
  5
1F4
330
1F
100
AcDbEntity
  8
0
  6
CONTINUOUS
 62
     7
100
AcDbLine
 10
73.5243166195
 20
241.9455302162
 30
0.0
 11
73.5243166195
 21
241.4455329282
 31
0.0
  0
LINE
  5
1F5
330
1F
100
AcDbEntity
  8
0
  6
CONTINUOUS
 62
     7
100
AcDbLine
 10
73.5243166195
 20
225.4455303056
 30
0.0
 11
73.5243166195
 21
224.9455292923
 31
0.0
  0
LINE
  5
1F6
330
1F
100
AcDbEntity
  8
0
  6
CONTINUOUS
 62
     7
100
AcDbLine
 10
73.5243166195
 20
201.4455338222
 30
0.0
 11
74.5243165506
 21
201.4455338222
 31
0.0
  0
LINE
  5
1F7
330
1F
100
AcDbEntity
  8
0
  6
CONTINUOUS
 62
     7
100
AcDbLine
 10
74.5243165506
 20
405.4455300075
 30
0.0
 11
73.5243166195
 21
405.4455300075
 31
0.0
  0
LINE
  5
1F8
330
1F
100
AcDbEntity
  8
0
  6
CONTINUOUS
 62
     7
100
AcDbLine
 10
83.0243165469
 20
215.4455323917
 30
0.0
 11
83.0243165469
 21
203.4455304248
 31
0.0
  0
LINE
  5
1F9
330
1F
100
AcDbEntity
  8
0
  6
CONTINUOUS
 62
     7
100
AcDbLine
 10
81.0243162191
 20
201.4455338222
 30
0.0
 11
83.0243165469
 21
203.4455304248
 31
0.0
  0
LINE
  5
1FA
330
1F
100
AcDbEntity
  8
0
  6
CONTINUOUS
 62
     7
100
AcDbLine
 10
81.0243162191
 20
201.4455338222
 30
0.0
 11
74.5243165506
 21
201.4455338222
 31
0.0
  0
LINE
  5
1FB
330
1F
100
AcDbEntity
  8
0
  6
CONTINUOUS
 62
     7
100
AcDbLine
 10
74.5243165506
 20
405.4455300075
 30
0.0
 11
81.0243162191
 21
405.4455300075
 31
0.0
  0
LINE
  5
1FC
330
1F
100
AcDbEntity
  8
0
  6
CONTINUOUS
 62
     7
100
AcDbLine
 10
83.0243165469
 20
403.445533405
 30
0.0
 11
81.0243162191
 21
405.4455300075
 31
0.0
  0
LINE
  5
1FD
330
1F
100
AcDbEntity
  8
0
  6
CONTINUOUS
 62
     7
100
AcDbLine
 10
83.0243165469
 20
403.445533405
 30
0.0
 11
83.0243165469
 21
391.4455314381
 31
0.0
  0
LINE
  5
1FE
330
1F
100
AcDbEntity
  8
0
  6
CONTINUOUS
 62
     7
100
AcDbLine
 10
83.0243165469
 20
391.4455314381
 30
0.0
 11
85.5243169567
 21
391.4455314381
 31
0.0
  0
LINE
  5
1FF
330
1F
100
AcDbEntity
  8
0
  6
CONTINUOUS
 62
     7
100
AcDbLine
 10
85.5243169567
 20
215.4455323917
 30
0.0
 11
85.5243169567
 21
221.9455306632
 31
0.0
  0
LINE
  5
200
330
1F
100
AcDbEntity
  8
0
  6
CONTINUOUS
 62
     7
100
AcDbLine
 10
85.5243169567
 20
224.9455292923
 30
0.0
 11
85.5243169567
 21
225.4455303056
 31
0.0
  0
LINE
  5
201
330
1F
100
AcDbEntity
  8
0
  6
CONTINUOUS
 62
     7
100
AcDbLine
 10
85.5243169567
 20
241.4455329282
 30
0.0
 11
85.5243169567
 21
241.9455302162
 31
0.0
  0
LINE
  5
202
330
1F
100
AcDbEntity
  8
0
  6
CONTINUOUS
 62
     7
100
AcDbLine
 10
85.5243169567
 20
244.9455325705
 30
0.0
 11
85.5243169567
 21
296.9455317808
 31
0.0
  0
LINE
  5
203
330
1F
100
AcDbEntity
  8
0
  6
CONTINUOUS
 62
     7
100
AcDbLine
 10
85.5243169567
 20
309.945532049
 30
0.0
 11
85.5243169567
 21
361.9455312592
 31
0.0
  0
LINE
  5
204
330
1F
100
AcDbEntity
  8
0
  6
CONTINUOUS
 62
     7
100
AcDbLine
 10
85.5243169567
 20
364.9455336136
 30
0.0
 11
85.5243169567
 21
365.4455309016
 31
0.0
  0
LINE
  5
205
330
1F
100
AcDbEntity
  8
0
  6
CONTINUOUS
 62
     7
100
AcDbLine
 10
85.5243169567
 20
381.4455335242
 30
0.0
 11
85.5243169567
 21
381.9455345375
 31
0.0
  0
LINE
  5
206
330
1F
100
AcDbEntity
  8
0
  6
CONTINUOUS
 62
     7
100
AcDbLine
 10
85.5243169567
 20
384.9455331666
 30
0.0
 11
85.5243169567
 21
391.4455314381
 31
0.0
  0
LINE
  5
207
330
1F
100
AcDbEntity
  8
0
  6
CONTINUOUS
 62
     7
100
AcDbLine
 10
85.5243169567
 20
215.4455323917
 30
0.0
 11
83.0243165469
 21
215.4455323917
 31
0.0
  0
LINE
  5
208
330
1F
100
AcDbEntity
  8
0
  6
CONTINUOUS
 62
     7
100
AcDbLine
 10
75.5243167145
 20
407.7384238345
 30
0.0
 11
84.0243167108
 21
407.7384238345
 31
0.0
  0
LINE
  5
209
330
1F
100
AcDbEntity
  8
0
  6
CONTINUOUS
 62
     7
100
AcDbLine
 10
75.5243167145
 20
199.1526399953
 30
0.0
 11
84.0243167108
 21
199.1526399953
 31
0.0
  0
LINE
  5
20A
330
1F
100
AcDbEntity
  8
0
  6
CONTINUOUS
 62
     7
100
AcDbLine
 10
84.0243167108
 20
407.7384238345
 30
0.0
 11
84.0243167108
 21
391.4455314381
 31
0.0
  0
LINE
  5
20B
330
1F
100
AcDbEntity
  8
0
  6
CONTINUOUS
 62
     7
100
AcDbLine
 10
84.0243167108
 20
215.4455323917
 30
0.0
 11
84.0243167108
 21
199.1526399953
 31
0.0
  0
LWPOLYLINE
  5
20C
330
1F
100
AcDbEntity
  8
0
  6
CONTINUOUS
 62
     7
100
AcDbPolyline
 90
        3
 70
   128
 43
0.0
 10
75.5243167145
 20
199.1526399953
 10
74.5263959611
 20
199.298581968
 10
73.5243166195
 20
199.4606171948
  0
ARC
  5
20D
330
1F
100
AcDbEntity
  8
0
  6
CONTINUOUS
 62
     7
100
AcDbCircle
 10
81.5869889252
 20
361.6730370342
 30
0.0
 40
46.46262858894994
100
AcDbArc
 50
97.4976146737
 51
99.9931400212
  0
LINE
  5
20E
330
1F
100
AcDbEntity
  8
0
  6
CONTINUOUS
 62
     7
100
AcDbLine
 10
75.5243167145
 20
410.4455326898
 30
0.0
 11
75.5243167145
 21
408.4455286366
 31
0.0
  0
ARC
  5
20F
330
1F
100
AcDbEntity
  8
0
  6
CONTINUOUS
 62
     7
100
AcDbCircle
 10
75.4627517565
 20
407.0675571356
 30
0.0
 40
1.379346113802226
100
AcDbArc
 50
87.4418425783
 51
160.2421838255
  0
LWPOLYLINE
  5
210
330
1F
100
AcDbEntity
  8
0
  6
CONTINUOUS
 62
     7
100
AcDbPolyline
 90
        3
 70
   128
 43
0.0
 10
75.5243167145
 20
410.4455326898
 10
74.5263959611
 20
410.3002538187
 10
73.5243166195
 20
409.8043133718
  0
ARC
  5
211
330
1F
100
AcDbEntity
  8
0
  6
CONTINUOUS
 62
     7
100
AcDbCircle
 10
75.3329254711
 20
199.3117749125
 30
0.0
 40
2.872626667603487
100
AcDbArc
 50
230.9793029502
 51
273.8202108949
  0
ARC
  5
212
330
1F
100
AcDbEntity
  8
0
  6
CONTINUOUS
 62
     7
100
AcDbCircle
 10
75.5121527046
 20
199.9086821907
 30
0.0
 40
1.463197559983282
100
AcDbArc
 50
202.0904567375
 51
270.4763228681
  0
LINE
  5
213
330
1F
100
AcDbEntity
  8
0
  6
CONTINUOUS
 62
     7
100
AcDbLine
 10
75.5243167145
 20
196.44553114
 30
0.0
 11
75.5243167145
 21
198.4455351931
 31
0.0
  0
LINE
  5
214
330
1F
100
AcDbEntity
  8
0
  6
CONTINUOUS
 62
     7
100
AcDbLine
 10
84.0243167108
 20
410.4455326898
 30
0.0
 11
75.5243167145
 21
410.4455326898
 31
0.0
  0
LINE
  5
215
330
1F
100
AcDbEntity
  8
0
  6
CONTINUOUS
 62
     7
100
AcDbLine
 10
84.0243167108
 20
408.4455286366
 30
0.0
 11
84.0243167108
 21
410.4455326898
 31
0.0
  0
LINE
  5
216
330
1F
100
AcDbEntity
  8
0
  6
CONTINUOUS
 62
     7
100
AcDbLine
 10
75.5243167145
 20
408.4455286366
 30
0.0
 11
84.0243167108
 21
408.4455286366
 31
0.0
  0
LINE
  5
217
330
1F
100
AcDbEntity
  8
0
  6
CONTINUOUS
 62
     7
100
AcDbLine
 10
84.0243167108
 20
198.4455351931
 30
0.0
 11
84.0243167108
 21
196.44553114
 31
0.0
  0
LINE
  5
218
330
1F
100
AcDbEntity
  8
0
  6
CONTINUOUS
 62
     7
100
AcDbLine
 10
75.5243167145
 20
198.4455351931
 30
0.0
 11
84.0243167108
 21
198.4455351931
 31
0.0
  0
LINE
  5
219
330
1F
100
AcDbEntity
  8
0
  6
CONTINUOUS
 62
     7
100
AcDbLine
 10
75.5243167145
 20
196.44553114
 30
0.0
 11
84.0243167108
 21
196.44553114
 31
0.0
  0
LINE
  5
21A
330
1F
100
AcDbEntity
  8
0
  6
CONTINUOUS
 62
     7
100
AcDbLine
 10
88.3243168568
 20
297.2955321175
 30
0.0
 11
88.3243168568
 21
306.4042862253
 31
0.0
  0
LINE
  5
21B
330
1F
100
AcDbEntity
  8
0
  6
CONTINUOUS
 62
     7
100
AcDbLine
 10
88.3243168568
 20
306.4042862253
 30
0.0
 11
87.6243161833
 21
306.4042862253
 31
0.0
  0
LINE
  5
21C
330
1F
100
AcDbEntity
  8
0
  6
CONTINUOUS
 62
     7
100
AcDbLine
 10
87.6243161833
 20
297.2955321175
 30
0.0
 11
87.6243161833
 21
306.4042862253
 31
0.0
  0
LINE
  5
21D
330
1F
100
AcDbEntity
  8
0
  6
CONTINUOUS
 62
     7
100
AcDbLine
 10
87.5243163532
 20
296.9455317808
 30
0.0
 11
87.5243163532
 21
309.945532049
 31
0.0
  0
LINE
  5
21E
330
1F
100
AcDbEntity
  8
0
  6
CONTINUOUS
 62
     7
100
AcDbLine
 10
87.5243163532
 20
296.9455317808
 30
0.0
 11
85.5243169567
 21
296.9455317808
 31
0.0
  0
LINE
  5
21F
330
1F
100
AcDbEntity
  8
0
  6
CONTINUOUS
 62
     7
100
AcDbLine
 10
85.5243169567
 20
296.9455317808
 30
0.0
 11
85.5243169567
 21
309.945532049
 31
0.0
  0
LINE
  5
220
330
1F
100
AcDbEntity
  8
0
  6
CONTINUOUS
 62
     7
100
AcDbLine
 10
87.5243163532
 20
309.945532049
 30
0.0
 11
85.5243169567
 21
309.945532049
 31
0.0
  0
LINE
  5
221
330
1F
100
AcDbEntity
  8
0
  6
CONTINUOUS
 62
     7
100
AcDbLine
 10
68.7243166244
 20
303.4455319149
 30
0.0
 11
68.7243166244
 21
296.8455319507
 31
0.0
  0
LINE
  5
222
330
1F
100
AcDbEntity
  8
0
  6
CONTINUOUS
 62
     7
100
AcDbLine
 10
68.7243166244
 20
310.0455318791
 30
0.0
 11
68.7243166244
 21
303.4455319149
 31
0.0
  0
LINE
  5
223
330
1F
100
AcDbEntity
  8
0
  6
CONTINUOUS
 62
     7
100
AcDbLine
 10
88.5243165171
 20
299.9455318069
 30
0.0
 11
88.5243165171
 21
306.9455320229
 31
0.0
  0
LINE
  5
224
330
1F
100
AcDbEntity
  8
0
  6
CONTINUOUS
 62
     7
100
AcDbLine
 10
89.524316681
 20
303.4455319149
 30
0.0
 11
89.524316681
 21
306.9455320229
 31
0.0
  0
LINE
  5
225
330
1F
100
AcDbEntity
  8
0
  6
CONTINUOUS
 62
     7
100
AcDbLine
 10
89.524316681
 20
299.9455318069
 30
0.0
 11
89.524316681
 21
303.4455319149
 31
0.0
  0
LINE
  5
226
330
1F
100
AcDbEntity
  8
0
  6
CONTINUOUS
 62
     7
100
AcDbLine
 10
71.024316559
 20
292.4455319745
 30
0.0
 11
71.024316559
 21
314.4455318553
 31
0.0
  0
LINE
  5
227
330
1F
100
AcDbEntity
  8
0
  6
CONTINUOUS
 62
     7
100
AcDbLine
 10
69.0243165804
 20
309.8094928292
 30
0.0
 11
69.0243165804
 21
312.4455315275
 31
0.0
  0
LINE
  5
228
330
1F
100
AcDbEntity
  8
0
  6
CONTINUOUS
 62
     7
100
AcDbLine
 10
69.0243165804
 20
294.4455323023
 30
0.0
 11
69.0243165804
 21
309.8094928292
 31
0.0
  0
LINE
  5
229
330
1F
100
AcDbEntity
  8
0
  6
CONTINUOUS
 62
     8
100
AcDbLine
 10
74.5243165506
 20
201.4455338222
 30
0.0
 11
74.5243165506
 21
221.9455306632
 31
0.0
  0
LINE
  5
22A
330
1F
100
AcDbEntity
  8
0
  6
CONTINUOUS
 62
     8
100
AcDbLine
 10
74.5243165506
 20
224.9455292923
 30
0.0
 11
74.5243165506
 21
225.4455303056
 31
0.0
  0
LINE
  5
22B
330
1F
100
AcDbEntity
  8
0
  6
CONTINUOUS
 62
     8
100
AcDbLine
 10
74.5243165506
 20
241.4455329282
 30
0.0
 11
74.5243165506
 21
241.9455302162
 31
0.0
  0
LINE
  5
22C
330
1F
100
AcDbEntity
  8
0
  6
CONTINUOUS
 62
     8
100
AcDbLine
 10
74.5243165506
 20
244.9455325705
 30
0.0
 11
74.5243165506
 21
361.9455312592
 31
0.0
  0
LINE
  5
22D
330
1F
100
AcDbEntity
  8
0
  6
CONTINUOUS
 62
     8
100
AcDbLine
 10
74.5243165506
 20
364.9455336136
 30
0.0
 11
74.5243165506
 21
365.4455309016
 31
0.0
  0
LINE
  5
22E
330
1F
100
AcDbEntity
  8
0
  6
CONTINUOUS
 62
     8
100
AcDbLine
 10
74.5243165506
 20
381.4455335242
 30
0.0
 11
74.5243165506
 21
381.9455345375
 31
0.0
  0
LINE
  5
22F
330
1F
100
AcDbEntity
  8
0
  6
CONTINUOUS
 62
     8
100
AcDbLine
 10
74.5243165506
 20
384.9455331666
 30
0.0
 11
74.5243165506
 21
405.4455300075
 31
0.0
  0
LINE
  5
230
330
1F
100
AcDbEntity
  8
0
  6
CONTINUOUS
 62
     8
100
AcDbLine
 10
83.0243165469
 20
215.4455323917
 30
0.0
 11
83.0243165469
 21
221.9455306632
 31
0.0
  0
LINE
  5
231
330
1F
100
AcDbEntity
  8
0
  6
CONTINUOUS
 62
     8
100
AcDbLine
 10
83.0243165469
 20
224.9455292923
 30
0.0
 11
83.0243165469
 21
225.4455303056
 31
0.0
  0
LINE
  5
232
330
1F
100
AcDbEntity
  8
0
  6
CONTINUOUS
 62
     8
100
AcDbLine
 10
83.0243165469
 20
241.4455329282
 30
0.0
 11
83.0243165469
 21
241.9455302162
 31
0.0
  0
LINE
  5
233
330
1F
100
AcDbEntity
  8
0
  6
CONTINUOUS
 62
     8
100
AcDbLine
 10
83.0243165469
 20
244.9455325705
 30
0.0
 11
83.0243165469
 21
361.9455312592
 31
0.0
  0
LINE
  5
234
330
1F
100
AcDbEntity
  8
0
  6
CONTINUOUS
 62
     8
100
AcDbLine
 10
83.0243165469
 20
364.9455336136
 30
0.0
 11
83.0243165469
 21
365.4455309016
 31
0.0
  0
LINE
  5
235
330
1F
100
AcDbEntity
  8
0
  6
CONTINUOUS
 62
     8
100
AcDbLine
 10
83.0243165469
 20
381.4455335242
 30
0.0
 11
83.0243165469
 21
381.9455345375
 31
0.0
  0
LINE
  5
236
330
1F
100
AcDbEntity
  8
0
  6
CONTINUOUS
 62
     8
100
AcDbLine
 10
83.0243165469
 20
384.9455331666
 30
0.0
 11
83.0243165469
 21
391.4455314381
 31
0.0
  0
LINE
  5
237
330
1F
100
AcDbEntity
  8
0
  6
CONTINUOUS
 62
     8
100
AcDbLine
 10
75.5243167145
 20
199.1526399953
 30
0.0
 11
75.5243167145
 21
201.4455338222
 31
0.0
  0
LINE
  5
238
330
1F
100
AcDbEntity
  8
0
  6
CONTINUOUS
 62
     8
100
AcDbLine
 10
75.5243167145
 20
405.4455300075
 30
0.0
 11
75.5243167145
 21
407.7384238345
 31
0.0
  0
LINE
  5
239
330
1F
100
AcDbEntity
  8
0
  6
CONTINUOUS
 62
     8
100
AcDbLine
 10
68.9743166654
 20
303.4455319149
 30
0.0
 11
68.9743166654
 21
310.2955319201
 31
0.0
  0
LINE
  5
23A
330
1F
100
AcDbEntity
  8
0
  6
CONTINUOUS
 62
     8
100
AcDbLine
 10
68.9743166654
 20
296.5955319097
 30
0.0
 11
68.9743166654
 21
303.4455319149
 31
0.0
  0
LINE
  5
23B
330
1F
100
AcDbEntity
  8
0
  6
CONTINUOUS
 62
     7
100
AcDbLine
 10
283.3216651011
 20
55.6613966504
 30
0.0
 11
283.3216651011
 21
56.361397324
 31
0.0
  0
LINE
  5
23C
330
1F
100
AcDbEntity
  8
0
  6
CONTINUOUS
 62
     7
100
AcDbLine
 10
271.0216655064
 20
56.361397324
 30
0.0
 11
271.0216655064
 21
55.6613966504
 31
0.0
  0
LINE
  5
23D
330
1F
100
AcDbEntity
  8
0
  6
CONTINUOUS
 62
     7
100
AcDbLine
 10
270.6716651696
 20
55.5613968203
 30
0.0
 11
270.6716651696
 21
53.5613974238
 31
0.0
  0
LINE
  5
23E
330
1F
100
AcDbEntity
  8
0
  6
CONTINUOUS
 62
     7
100
AcDbLine
 10
301.1716655124
 20
53.5613974238
 30
0.0
 11
301.1716655124
 21
55.5613968203
 31
0.0
  0
LINE
  5
23F
330
1F
100
AcDbEntity
  8
0
  6
CONTINUOUS
 62
     7
100
AcDbLine
 10
270.3216648329
 20
37.0613970476
 30
0.0
 11
270.3216648329
 21
37.0113971325
 31
0.0
  0
LINE
  5
240
330
1F
100
AcDbEntity
  8
0
  6
CONTINUOUS
 62
     7
100
AcDbLine
 10
284.0216657746
 20
37.0113971325
 30
0.0
 11
284.0216657746
 21
37.0613970476
 31
0.0
  0
ARC
  5
241
330
1F
100
AcDbEntity
  8
0
  6
CONTINUOUS
 62
     7
100
AcDbCircle
 10
270.5716653335
 20
37.0113970736
 30
0.0
 40
0.2500000000000568
100
AcDbArc
 50
180.0
 51
270.0
  0
ARC
  5
242
330
1F
100
AcDbEntity
  8
0
  6
CONTINUOUS
 62
     7
100
AcDbCircle
 10
283.7716653335
 20
37.0113970736
 30
0.0
 40
0.25
100
AcDbArc
 50
270.0
 51
0.0
  0
LINE
  5
243
330
1F
100
AcDbEntity
  8
0
  6
CONTINUOUS
 62
     7
100
AcDbLine
 10
280.6716649461
 20
56.5613969842
 30
0.0
 11
280.6716649461
 21
57.5613971481
 31
0.0
  0
LINE
  5
244
330
1F
100
AcDbEntity
  8
0
  6
CONTINUOUS
 62
     7
100
AcDbLine
 10
273.6716656614
 20
57.5613971481
 30
0.0
 11
273.6716656614
 21
56.5613969842
 31
0.0
  0
LINE
  5
245
330
1F
100
AcDbEntity
  8
0
  6
CONTINUOUS
 62
     7
100
AcDbLine
 10
280.1716639328
 20
55.5613968203
 30
0.0
 11
280.1716639328
 21
55.6613966504
 31
0.0
  0
LINE
  5
246
330
1F
100
AcDbEntity
  8
0
  6
CONTINUOUS
 62
     7
100
AcDbLine
 10
280.1716639328
 20
56.361397324
 30
0.0
 11
280.1716639328
 21
56.5613969842
 31
0.0
  0
LINE
  5
247
330
1F
100
AcDbEntity
  8
0
  6
CONTINUOUS
 62
     7
100
AcDbLine
 10
274.1716666747
 20
56.5613969842
 30
0.0
 11
274.1716666747
 21
56.361397324
 31
0.0
  0
LINE
  5
248
330
1F
100
AcDbEntity
  8
0
  6
CONTINUOUS
 62
     7
100
AcDbLine
 10
274.1716666747
 20
55.6613966504
 30
0.0
 11
274.1716666747
 21
55.5613968203
 31
0.0
  0
LINE
  5
249
330
1F
100
AcDbEntity
  8
0
  6
CONTINUOUS
 62
     7
100
AcDbLine
 10
288.1716652441
 20
39.0613970261
 30
0.0
 11
288.1716652441
 21
40.0613970736
 31
0.0
  0
LINE
  5
24A
330
1F
100
AcDbEntity
  8
0
  6
CONTINUOUS
 62
     7
100
AcDbLine
 10
266.1716653633
 20
40.0613970736
 30
0.0
 11
266.1716653633
 21
39.0613970261
 31
0.0
  0
LINE
  5
24B
330
1F
100
AcDbEntity
  8
0
  6
CONTINUOUS
 62
     7
100
AcDbLine
 10
266.1716653633
 20
39.0613970261
 30
0.0
 11
268.1716656912
 21
37.0613970476
 31
0.0
  0
LINE
  5
24C
330
1F
100
AcDbEntity
  8
0
  6
CONTINUOUS
 62
     7
100
AcDbLine
 10
286.1716649163
 20
37.0613970476
 30
0.0
 11
288.1716652441
 21
39.0613970261
 31
0.0
  0
ARC
  5
24D
330
1F
100
AcDbEntity
  8
0
  6
CONTINUOUS
 62
     7
100
AcDbCircle
 10
283.6716653335
 20
53.0613970736
 30
0.0
 40
0.5000000000000568
100
AcDbArc
 50
0.0
 51
90.0000121787
  0
ARC
  5
24E
330
1F
100
AcDbEntity
  8
0
  6
CONTINUOUS
 62
     7
100
AcDbCircle
 10
270.6716653335
 20
53.0613970736
 30
0.0
 40
0.5000000000000112
100
AcDbArc
 50
89.9999878213
 51
180.0
  0
LINE
  5
24F
330
1F
100
AcDbEntity
  8
0
  6
CONTINUOUS
 62
     7
100
AcDbLine
 10
284.1716645885
 20
52.0613971779
 30
0.0
 11
284.1716645885
 21
53.0613973419
 31
0.0
  0
LINE
  5
250
330
1F
100
AcDbEntity
  8
0
  6
CONTINUOUS
 62
     7
100
AcDbLine
 10
270.171666019
 20
53.0613973419
 30
0.0
 11
270.171666019
 21
52.0613971779
 31
0.0
  0
LINE
  5
251
330
1F
100
AcDbEntity
  8
0
  6
CONTINUOUS
 62
     7
100
AcDbLine
 10
202.1716660488
 20
53.5613974238
 30
0.0
 11
202.1716660488
 21
52.0613971779
 31
0.0
  0
LINE
  5
252
330
1F
100
AcDbEntity
  8
0
  6
CONTINUOUS
 62
     7
100
AcDbLine
 10
199.1716636944
 20
52.0613971779
 30
0.0
 11
199.1716636944
 21
53.5613974238
 31
0.0
  0
LINE
  5
253
330
1F
100
AcDbEntity
  8
0
  6
CONTINUOUS
 62
     7
100
AcDbLine
 10
199.1716636944
 20
53.5613974238
 30
0.0
 11
202.1716660488
 21
53.5613974238
 31
0.0
  0
LINE
  5
254
330
1F
100
AcDbEntity
  8
0
  6
CONTINUOUS
 62
     7
100
AcDbLine
 10
202.1716660488
 20
53.5613974238
 30
0.0
 11
270.6716651696
 21
53.5613974238
 31
0.0
  0
LINE
  5
255
330
1F
100
AcDbEntity
  8
0
  6
CONTINUOUS
 62
     7
100
AcDbLine
 10
184.1716668237
 20
41.5613970867
 30
0.0
 11
184.1716668237
 21
40.0613970736
 31
0.0
  0
LINE
  5
256
330
1F
100
AcDbEntity
  8
0
  6
CONTINUOUS
 62
     7
100
AcDbLine
 10
296.6716638434
 20
41.5613970867
 30
0.0
 11
184.1716668237
 21
41.5613970867
 31
0.0
  0
LINE
  5
257
330
1F
100
AcDbEntity
  8
0
  6
CONTINUOUS
 62
     7
100
AcDbLine
 10
296.6716638434
 20
41.5613970867
 30
0.0
 11
296.6716638434
 21
40.0613970736
 31
0.0
  0
LINE
  5
258
330
1F
100
AcDbEntity
  8
0
  6
CONTINUOUS
 62
     7
100
AcDbLine
 10
296.6716638434
 20
40.0613970736
 30
0.0
 11
184.1716668237
 21
40.0613970736
 31
0.0
  0
LINE
  5
259
330
1F
100
AcDbEntity
  8
0
  6
CONTINUOUS
 62
     7
100
AcDbLine
 10
178.5148097802
 20
41.5613970867
 30
0.0
 11
178.5148097802
 21
40.0613970736
 31
0.0
  0
LINE
  5
25A
330
1F
100
AcDbEntity
  8
0
  6
CONTINUOUS
 62
     7
100
AcDbLine
 10
184.1716668237
 20
41.5613970867
 30
0.0
 11
178.5148097802
 21
41.5613970867
 31
0.0
  0
LINE
  5
25B
330
1F
100
AcDbEntity
  8
0
  6
CONTINUOUS
 62
     7
100
AcDbLine
 10
184.1716668237
 20
40.0613970736
 30
0.0
 11
178.5148097802
 21
40.0613970736
 31
0.0
  0
LINE
  5
25C
330
1F
100
AcDbEntity
  8
0
  6
CONTINUOUS
 62
     7
100
AcDbLine
 10
302.3285208869
 20
41.5613970867
 30
0.0
 11
302.3285208869
 21
40.0613970736
 31
0.0
  0
LINE
  5
25D
330
1F
100
AcDbEntity
  8
0
  6
CONTINUOUS
 62
     7
100
AcDbLine
 10
302.3285208869
 20
41.5613970867
 30
0.0
 11
296.6716638434
 21
41.5613970867
 31
0.0
  0
LINE
  5
25E
330
1F
100
AcDbEntity
  8
0
  6
CONTINUOUS
 62
     7
100
AcDbLine
 10
302.3285208869
 20
40.0613970736
 30
0.0
 11
296.6716638434
 21
40.0613970736
 31
0.0
  0
LINE
  5
25F
330
1F
100
AcDbEntity
  8
0
  6
CONTINUOUS
 62
     7
100
AcDbLine
 10
162.5148108828
 20
41.5613970867
 30
0.0
 11
162.5148108828
 21
40.0613970736
 31
0.0
  0
LINE
  5
260
330
1F
100
AcDbEntity
  8
0
  6
CONTINUOUS
 62
     7
100
AcDbLine
 10
178.5148097802
 20
41.5613970867
 30
0.0
 11
162.5148108828
 21
41.5613970867
 31
0.0
  0
LINE
  5
261
330
1F
100
AcDbEntity
  8
0
  6
CONTINUOUS
 62
     7
100
AcDbLine
 10
178.5148097802
 20
40.0613970736
 30
0.0
 11
162.5148108828
 21
40.0613970736
 31
0.0
  0
LINE
  5
262
330
1F
100
AcDbEntity
  8
0
  6
CONTINUOUS
 62
     7
100
AcDbLine
 10
318.3285197842
 20
41.5613970867
 30
0.0
 11
318.3285197842
 21
40.0613970736
 31
0.0
  0
LINE
  5
263
330
1F
100
AcDbEntity
  8
0
  6
CONTINUOUS
 62
     7
100
AcDbLine
 10
318.3285197842
 20
41.5613970867
 30
0.0
 11
302.3285208869
 21
41.5613970867
 31
0.0
  0
LINE
  5
264
330
1F
100
AcDbEntity
  8
0
  6
CONTINUOUS
 62
     7
100
AcDbLine
 10
318.3285197842
 20
40.0613970736
 30
0.0
 11
302.3285208869
 21
40.0613970736
 31
0.0
  0
LINE
  5
265
330
1F
100
AcDbEntity
  8
0
  6
CONTINUOUS
 62
     7
100
AcDbLine
 10
160.1716628898
 20
41.5613970867
 30
0.0
 11
160.1716628898
 21
40.0613970736
 31
0.0
  0
LINE
  5
266
330
1F
100
AcDbEntity
  8
0
  6
CONTINUOUS
 62
     7
100
AcDbLine
 10
162.5148108828
 20
41.5613970867
 30
0.0
 11
160.1716628898
 21
41.5613970867
 31
0.0
  0
LINE
  5
267
330
1F
100
AcDbEntity
  8
0
  6
CONTINUOUS
 62
     7
100
AcDbLine
 10
162.5148108828
 20
40.0613970736
 30
0.0
 11
160.1716628898
 21
40.0613970736
 31
0.0
  0
LINE
  5
268
330
1F
100
AcDbEntity
  8
0
  6
CONTINUOUS
 62
     7
100
AcDbLine
 10
320.6716677773
 20
41.5613970867
 30
0.0
 11
320.6716677773
 21
40.0613970736
 31
0.0
  0
LINE
  5
269
330
1F
100
AcDbEntity
  8
0
  6
CONTINUOUS
 62
     7
100
AcDbLine
 10
320.6716677773
 20
41.5613970867
 30
0.0
 11
318.3285197842
 21
41.5613970867
 31
0.0
  0
LINE
  5
26A
330
1F
100
AcDbEntity
  8
0
  6
CONTINUOUS
 62
     7
100
AcDbLine
 10
320.6716677773
 20
40.0613970736
 30
0.0
 11
318.3285197842
 21
40.0613970736
 31
0.0
  0
LINE
  5
26B
330
1F
100
AcDbEntity
  8
0
  6
CONTINUOUS
 62
     7
100
AcDbLine
 10
293.6716652143
 20
42.5613970178
 30
0.0
 11
187.1716654528
 21
42.5613970178
 31
0.0
  0
LINE
  5
26C
330
1F
100
AcDbEntity
  8
0
  6
CONTINUOUS
 62
     7
100
AcDbLine
 10
293.6716652143
 20
41.5613970867
 30
0.0
 11
293.6716652143
 21
42.5613970178
 31
0.0
  0
LINE
  5
26D
330
1F
100
AcDbEntity
  8
0
  6
CONTINUOUS
 62
     7
100
AcDbLine
 10
187.1716654528
 20
42.5613970178
 30
0.0
 11
187.1716654528
 21
41.5613970867
 31
0.0
  0
LINE
  5
26E
330
1F
100
AcDbEntity
  8
0
  6
CONTINUOUS
 62
     7
100
AcDbLine
 10
187.1716654528
 20
42.5613970178
 30
0.0
 11
187.1716654528
 21
49.0613966862
 31
0.0
  0
LINE
  5
26F
330
1F
100
AcDbEntity
  8
0
  6
CONTINUOUS
 62
     7
100
AcDbLine
 10
189.1716657806
 20
51.061397014
 30
0.0
 11
187.1716654528
 21
49.0613966862
 31
0.0
  0
LINE
  5
270
330
1F
100
AcDbEntity
  8
0
  6
CONTINUOUS
 62
     7
100
AcDbLine
 10
189.1716657806
 20
51.061397014
 30
0.0
 11
291.6716648865
 21
51.061397014
 31
0.0
  0
LINE
  5
271
330
1F
100
AcDbEntity
  8
0
  6
CONTINUOUS
 62
     7
100
AcDbLine
 10
293.6716652143
 20
49.0613966862
 30
0.0
 11
291.6716648865
 21
51.061397014
 31
0.0
  0
LINE
  5
272
330
1F
100
AcDbEntity
  8
0
  6
CONTINUOUS
 62
     7
100
AcDbLine
 10
293.6716652143
 20
49.0613966862
 30
0.0
 11
293.6716652143
 21
42.5613970178
 31
0.0
  0
CIRCLE
  5
273
330
1F
100
AcDbEntity
  8
0
  6
CONTINUOUS
 62
     7
100
AcDbCircle
 10
191.1716653335
 20
47.5613970736
 30
0.0
 40
2.699999999999996
  0
LINE
  5
274
330
1F
100
AcDbEntity
  8
0
  6
CONTINUOUS
 62
     7
100
AcDbLine
 10
301.1716655124
 20
51.061397014
 30
0.0
 11
302.6716648269
 21
51.061397014
 31
0.0
  0
LINE
  5
275
330
1F
100
AcDbEntity
  8
0
  6
CONTINUOUS
 62
     7
100
AcDbLine
 10
302.6716648269
 20
49.0613966862
 30
0.0
 11
301.1716655124
 21
49.0613966862
 31
0.0
  0
LINE
  5
276
330
1F
100
AcDbEntity
  8
0
  6
CONTINUOUS
 62
     7
100
AcDbLine
 10
301.1716655124
 20
49.0613966862
 30
0.0
 11
301.1716655124
 21
51.061397014
 31
0.0
  0
LINE
  5
277
330
1F
100
AcDbEntity
  8
0
  6
CONTINUOUS
 62
     7
100
AcDbLine
 10
302.6716648269
 20
51.061397014
 30
0.0
 11
302.6716648269
 21
49.0613966862
 31
0.0
  0
LINE
  5
278
330
1F
100
AcDbEntity
  8
0
  6
CONTINUOUS
 62
     7
100
AcDbLine
 10
302.6716648269
 20
42.5613970178
 30
0.0
 11
301.1716655124
 21
42.5613970178
 31
0.0
  0
LINE
  5
279
330
1F
100
AcDbEntity
  8
0
  6
CONTINUOUS
 62
     7
100
AcDbLine
 10
301.1716655124
 20
42.5613970178
 30
0.0
 11
301.1716655124
 21
49.0613966862
 31
0.0
  0
LINE
  5
27A
330
1F
100
AcDbEntity
  8
0
  6
CONTINUOUS
 62
     7
100
AcDbLine
 10
302.6716648269
 20
42.5613970178
 30
0.0
 11
302.6716648269
 21
49.0613966862
 31
0.0
  0
ARC
  5
27B
330
1F
100
AcDbEntity
  8
0
  6
CONTINUOUS
 62
     7
100
AcDbCircle
 10
303.6716653335
 20
42.5613970736
 30
0.0
 40
2.500000000000075
100
AcDbArc
 50
180.0
 51
203.5781784782
  0
ARC
  5
27C
330
1F
100
AcDbEntity
  8
0
  6
CONTINUOUS
 62
     7
100
AcDbCircle
 10
303.6716653335
 20
42.5613970736
 30
0.0
 40
1.0
100
AcDbArc
 50
180.0
 51
270.0
  0
ARC
  5
27D
330
1F
100
AcDbEntity
  8
0
  6
CONTINUOUS
 62
     7
100
AcDbCircle
 10
300.1716653335
 20
51.0613970736
 30
0.0
 40
2.5
100
AcDbArc
 50
0.0
 51
90.0
  0
ARC
  5
27E
330
1F
100
AcDbEntity
  8
0
  6
CONTINUOUS
 62
     7
100
AcDbCircle
 10
300.1716653335
 20
51.0613970736
 30
0.0
 40
1.0
100
AcDbArc
 50
0.0
 51
90.0
  0
LINE
  5
27F
330
1F
100
AcDbEntity
  8
0
  6
CONTINUOUS
 62
     7
100
AcDbLine
 10
300.1716634858
 20
52.0613971779
 30
0.0
 11
300.1716634858
 21
53.5613974238
 31
0.0
  0
LINE
  5
280
330
1F
100
AcDbEntity
  8
0
  6
CONTINUOUS
 62
     7
100
AcDbLine
 10
299.1716651845
 20
52.0613971779
 30
0.0
 11
300.1716634858
 21
52.0613971779
 31
0.0
  0
LINE
  5
281
330
1F
100
AcDbEntity
  8
0
  6
CONTINUOUS
 62
     7
100
AcDbLine
 10
299.1716651845
 20
53.5613974238
 30
0.0
 11
299.1716651845
 21
52.0613971779
 31
0.0
  0
LINE
  5
282
330
1F
100
AcDbEntity
  8
0
  6
CONTINUOUS
 62
     7
100
AcDbLine
 10
299.1716651845
 20
53.5613974238
 30
0.0
 11
300.1716634858
 21
53.5613974238
 31
0.0
  0
LINE
  5
283
330
1F
100
AcDbEntity
  8
0
  6
CONTINUOUS
 62
     7
100
AcDbLine
 10
299.1716651845
 20
52.0613971779
 30
0.0
 11
298.6716641713
 21
52.0613971779
 31
0.0
  0
LINE
  5
284
330
1F
100
AcDbEntity
  8
0
  6
CONTINUOUS
 62
     7
100
AcDbLine
 10
296.6716638434
 20
52.0613971779
 30
0.0
 11
296.1716665554
 21
52.0613971779
 31
0.0
  0
LINE
  5
285
330
1F
100
AcDbEntity
  8
0
  6
CONTINUOUS
 62
     7
100
AcDbLine
 10
296.1716665554
 20
52.0613971779
 30
0.0
 11
296.1716665554
 21
53.5613974238
 31
0.0
  0
LINE
  5
286
330
1F
100
AcDbEntity
  8
0
  6
CONTINUOUS
 62
     7
100
AcDbLine
 10
296.1716665554
 20
53.5613974238
 30
0.0
 11
299.1716651845
 21
53.5613974238
 31
0.0
  0
ARC
  5
287
330
1F
100
AcDbEntity
  8
0
  6
CONTINUOUS
 62
     7
100
AcDbCircle
 10
318.1716653335
 20
42.5613970736
 30
0.0
 40
2.500000000000025
100
AcDbArc
 50
336.4218215218
 51
0.0
  0
ARC
  5
288
330
1F
100
AcDbEntity
  8
0
  6
CONTINUOUS
 62
     7
100
AcDbCircle
 10
318.1716653335
 20
42.5613970736
 30
0.0
 40
1.0
100
AcDbArc
 50
270.0
 51
0.0
  0
LINE
  5
289
330
1F
100
AcDbEntity
  8
0
  6
CONTINUOUS
 62
     7
100
AcDbLine
 10
319.1716647375
 20
42.5613970178
 30
0.0
 11
320.6716677773
 21
42.5613970178
 31
0.0
  0
LINE
  5
28A
330
1F
100
AcDbEntity
  8
0
  6
CONTINUOUS
 62
     7
100
AcDbLine
 10
320.6716677773
 20
56.5613969842
 30
0.0
 11
319.1716647375
 21
56.5613969842
 31
0.0
  0
LINE
  5
28B
330
1F
100
AcDbEntity
  8
0
  6
CONTINUOUS
 62
     7
100
AcDbLine
 10
319.1716647375
 20
58.5613973121
 30
0.0
 11
320.6716677773
 21
58.5613973121
 31
0.0
  0
LINE
  5
28C
330
1F
100
AcDbEntity
  8
0
  6
CONTINUOUS
 62
     7
100
AcDbLine
 10
320.6716677773
 20
58.5613973121
 30
0.0
 11
320.6716677773
 21
56.5613969842
 31
0.0
  0
LINE
  5
28D
330
1F
100
AcDbEntity
  8
0
  6
CONTINUOUS
 62
     7
100
AcDbLine
 10
319.1716647375
 20
56.5613969842
 30
0.0
 11
319.1716647375
 21
58.5613973121
 31
0.0
  0
LINE
  5
28E
330
1F
100
AcDbEntity
  8
0
  6
CONTINUOUS
 62
     7
100
AcDbLine
 10
320.6716677773
 20
56.5613969842
 30
0.0
 11
320.6716677773
 21
42.5613970178
 31
0.0
  0
LINE
  5
28F
330
1F
100
AcDbEntity
  8
0
  6
CONTINUOUS
 62
     7
100
AcDbLine
 10
319.1716647375
 20
56.5613969842
 30
0.0
 11
319.1716647375
 21
42.5613970178
 31
0.0
  0
ARC
  5
290
330
1F
100
AcDbEntity
  8
0
  6
CONTINUOUS
 62
     7
100
AcDbCircle
 10
321.6716653335
 20
55.5613970736
 30
0.0
 40
1.0
100
AcDbArc
 50
180.0
 51
195.0
  0
LINE
  5
291
330
1F
100
AcDbEntity
  8
0
  6
CONTINUOUS
 62
     7
100
AcDbLine
 10
324.4245401252
 20
41.4238201369
 30
0.0
 11
320.7057392824
 21
55.3025776202
 31
0.0
  0
LINE
  5
292
330
1F
100
AcDbEntity
  8
0
  6
CONTINUOUS
 62
     7
100
AcDbLine
 10
322.9756555188
 20
41.0355915114
 30
0.0
 11
324.4245401252
 21
41.4238201369
 31
0.0
  0
LINE
  5
293
330
1F
100
AcDbEntity
  8
0
  6
CONTINUOUS
 62
     7
100
AcDbLine
 10
322.9756555188
 20
41.0355915114
 30
0.0
 11
320.6716677773
 21
49.6341898719
 31
0.0
  0
LINE
  5
294
330
1F
100
AcDbEntity
  8
0
  6
CONTINUOUS
 62
     7
100
AcDbLine
 10
179.6716651547
 20
49.0613966862
 30
0.0
 11
178.1716658402
 21
49.0613966862
 31
0.0
  0
LINE
  5
295
330
1F
100
AcDbEntity
  8
0
  6
CONTINUOUS
 62
     7
100
AcDbLine
 10
178.1716658402
 20
51.061397014
 30
0.0
 11
179.6716651547
 21
51.061397014
 31
0.0
  0
LINE
  5
296
330
1F
100
AcDbEntity
  8
0
  6
CONTINUOUS
 62
     7
100
AcDbLine
 10
179.6716651547
 20
51.061397014
 30
0.0
 11
179.6716651547
 21
49.0613966862
 31
0.0
  0
LINE
  5
297
330
1F
100
AcDbEntity
  8
0
  6
CONTINUOUS
 62
     7
100
AcDbLine
 10
178.1716658402
 20
49.0613966862
 30
0.0
 11
178.1716658402
 21
51.061397014
 31
0.0
  0
LINE
  5
298
330
1F
100
AcDbEntity
  8
0
  6
CONTINUOUS
 62
     7
100
AcDbLine
 10
178.1716658402
 20
42.5613970178
 30
0.0
 11
179.6716651547
 21
42.5613970178
 31
0.0
  0
LINE
  5
299
330
1F
100
AcDbEntity
  8
0
  6
CONTINUOUS
 62
     7
100
AcDbLine
 10
179.6716651547
 20
49.0613966862
 30
0.0
 11
179.6716651547
 21
42.5613970178
 31
0.0
  0
LINE
  5
29A
330
1F
100
AcDbEntity
  8
0
  6
CONTINUOUS
 62
     7
100
AcDbLine
 10
178.1716658402
 20
49.0613966862
 30
0.0
 11
178.1716658402
 21
42.5613970178
 31
0.0
  0
ARC
  5
29B
330
1F
100
AcDbEntity
  8
0
  6
CONTINUOUS
 62
     7
100
AcDbCircle
 10
177.1716653335
 20
42.5613970736
 30
0.0
 40
2.5
100
AcDbArc
 50
336.4218215218
 51
0.0
  0
ARC
  5
29C
330
1F
100
AcDbEntity
  8
0
  6
CONTINUOUS
 62
     7
100
AcDbCircle
 10
177.1716653335
 20
42.5613970736
 30
0.0
 40
1.0
100
AcDbArc
 50
270.0
 51
0.0
  0
ARC
  5
29D
330
1F
100
AcDbEntity
  8
0
  6
CONTINUOUS
 62
     7
100
AcDbCircle
 10
162.6716653335
 20
42.5613970736
 30
0.0
 40
2.500000000000002
100
AcDbArc
 50
180.0
 51
203.5781784782
  0
LINE
  5
29E
330
1F
100
AcDbEntity
  8
0
  6
CONTINUOUS
 62
     7
100
AcDbLine
 10
161.6716659296
 20
42.5613970178
 30
0.0
 11
160.1716628898
 21
42.5613970178
 31
0.0
  0
ARC
  5
29F
330
1F
100
AcDbEntity
  8
0
  6
CONTINUOUS
 62
     7
100
AcDbCircle
 10
162.6716653335
 20
42.5613970736
 30
0.0
 40
1.0
100
AcDbArc
 50
180.0
 51
270.0
  0
LINE
  5
2A0
330
1F
100
AcDbEntity
  8
0
  6
CONTINUOUS
 62
     7
100
AcDbLine
 10
160.1716628898
 20
58.5613973121
 30
0.0
 11
161.6716659296
 21
58.5613973121
 31
0.0
  0
LINE
  5
2A1
330
1F
100
AcDbEntity
  8
0
  6
CONTINUOUS
 62
     7
100
AcDbLine
 10
161.6716659296
 20
56.5613969842
 30
0.0
 11
160.1716628898
 21
56.5613969842
 31
0.0
  0
LINE
  5
2A2
330
1F
100
AcDbEntity
  8
0
  6
CONTINUOUS
 62
     7
100
AcDbLine
 10
160.1716628898
 20
56.5613969842
 30
0.0
 11
160.1716628898
 21
58.5613973121
 31
0.0
  0
LINE
  5
2A3
330
1F
100
AcDbEntity
  8
0
  6
CONTINUOUS
 62
     7
100
AcDbLine
 10
161.6716659296
 20
58.5613973121
 30
0.0
 11
161.6716659296
 21
56.5613969842
 31
0.0
  0
LINE
  5
2A4
330
1F
100
AcDbEntity
  8
0
  6
CONTINUOUS
 62
     7
100
AcDbLine
 10
160.1716628898
 20
56.5613969842
 30
0.0
 11
160.1716628898
 21
42.5613970178
 31
0.0
  0
LINE
  5
2A5
330
1F
100
AcDbEntity
  8
0
  6
CONTINUOUS
 62
     7
100
AcDbLine
 10
161.6716659296
 20
56.5613969842
 30
0.0
 11
161.6716659296
 21
42.5613970178
 31
0.0
  0
ARC
  5
2A6
330
1F
100
AcDbEntity
  8
0
  6
CONTINUOUS
 62
     7
100
AcDbCircle
 10
159.1716653335
 20
55.5613970736
 30
0.0
 40
1.0
100
AcDbArc
 50
345.0
 51
0.0
  0
LINE
  5
2A7
330
1F
100
AcDbEntity
  8
0
  6
CONTINUOUS
 62
     7
100
AcDbLine
 10
157.8676751483
 20
41.0355915114
 30
0.0
 11
156.4187905419
 21
41.4238201369
 31
0.0
  0
LINE
  5
2A8
330
1F
100
AcDbEntity
  8
0
  6
CONTINUOUS
 62
     7
100
AcDbLine
 10
156.4187905419
 20
41.4238201369
 30
0.0
 11
160.1375913847
 21
55.3025776202
 31
0.0
  0
LINE
  5
2A9
330
1F
100
AcDbEntity
  8
0
  6
CONTINUOUS
 62
     7
100
AcDbLine
 10
157.8676751483
 20
41.0355915114
 30
0.0
 11
160.1716628898
 21
49.6341898719
 31
0.0
  0
LINE
  5
2AA
330
1F
100
AcDbEntity
  8
0
  6
CONTINUOUS
 62
     7
100
AcDbLine
 10
184.8787716258
 20
52.0613971779
 30
0.0
 11
184.8787716258
 21
43.5613971817
 31
0.0
  0
LINE
  5
2AB
330
1F
100
AcDbEntity
  8
0
  6
CONTINUOUS
 62
     7
100
AcDbLine
 10
184.8787716258
 20
52.0613971779
 30
0.0
 11
295.9645590413
 21
52.0613971779
 31
0.0
  0
LINE
  5
2AC
330
1F
100
AcDbEntity
  8
0
  6
CONTINUOUS
 62
     7
100
AcDbLine
 10
295.9645590413
 20
52.0613971779
 30
0.0
 11
295.9645590413
 21
43.5613971817
 31
0.0
  0
LWPOLYLINE
  5
2AD
330
1F
100
AcDbEntity
  8
0
  6
CONTINUOUS
 62
     7
100
AcDbPolyline
 90
        3
 70
   128
 43
0.0
 10
190.5779479671
 20
51.061397014
 10
191.1716661084
 20
51.1113969291
 10
191.7653842497
 20
51.061397014
  0
LWPOLYLINE
  5
2AE
330
1F
100
AcDbEntity
  8
0
  6
CONTINUOUS
 62
     7
100
AcDbPolyline
 90
        3
 70
   128
 43
0.0
 10
295.9645590413
 20
43.5613971817
 10
295.8186133433
 20
42.5634764282
 10
295.6565781165
 20
41.5613970867
  0
ARC
  5
2AF
330
1F
100
AcDbEntity
  8
0
  6
CONTINUOUS
 62
     7
100
AcDbCircle
 10
230.9547331311
 20
49.6257813718
 30
0.0
 40
46.47333627189495
100
AcDbArc
 50
187.4980061151
 51
189.992957089
  0
LWPOLYLINE
  5
2B0
330
1F
100
AcDbEntity
  8
0
  6
CONTINUOUS
 62
     7
100
AcDbPolyline
 90
        3
 70
   128
 43
0.0
 10
182.1716664958
 20
43.5613971817
 10
182.3169453669
 20
42.5634764282
 10
182.8128858138
 20
41.5613970867
  0
LINE
  5
2B1
330
1F
100
AcDbEntity
  8
0
  6
CONTINUOUS
 62
     7
100
AcDbLine
 10
182.1716664958
 20
43.5613971817
 30
0.0
 11
184.1716668237
 21
43.5613971817
 31
0.0
  0
ARC
  5
2B2
330
1F
100
AcDbEntity
  8
0
  6
CONTINUOUS
 62
     7
100
AcDbCircle
 10
185.5496484264
 20
43.4998389969
 30
0.0
 40
1.379355903150243
100
AcDbArc
 50
177.4421423735
 51
250.2418840303
  0
ARC
  5
2B3
330
1F
100
AcDbEntity
  8
0
  6
CONTINUOUS
 62
     7
100
AcDbCircle
 10
295.8054203988
 20
43.3700059382
 30
0.0
 40
2.872626667603407
100
AcDbArc
 50
320.9793029502
 51
3.8202108949
  0
ARC
  5
2B4
330
1F
100
AcDbEntity
  8
0
  6
CONTINUOUS
 62
     7
100
AcDbCircle
 10
295.2084926705
 20
43.5492493049
 30
0.0
 40
1.463221600506672
100
AcDbArc
 50
292.091096314
 51
0.4756832917
  0
LINE
  5
2B5
330
1F
100
AcDbEntity
  8
0
  6
CONTINUOUS
 62
     7
100
AcDbLine
 10
298.6716641713
 20
43.5613971817
 30
0.0
 11
296.6716638434
 21
43.5613971817
 31
0.0
  0
LINE
  5
2B6
330
1F
100
AcDbEntity
  8
0
  6
CONTINUOUS
 62
     7
100
AcDbLine
 10
184.1716668237
 20
43.5613971817
 30
0.0
 11
184.1716668237
 21
52.0613971779
 31
0.0
  0
LINE
  5
2B7
330
1F
100
AcDbEntity
  8
0
  6
CONTINUOUS
 62
     7
100
AcDbLine
 10
182.1716664958
 20
43.5613971817
 30
0.0
 11
182.1716664958
 21
52.0613971779
 31
0.0
  0
LINE
  5
2B8
330
1F
100
AcDbEntity
  8
0
  6
CONTINUOUS
 62
     7
100
AcDbLine
 10
184.1716668237
 20
52.0613971779
 30
0.0
 11
182.1716664958
 21
52.0613971779
 31
0.0
  0
LINE
  5
2B9
330
1F
100
AcDbEntity
  8
0
  6
CONTINUOUS
 62
     7
100
AcDbLine
 10
298.6716641713
 20
43.5613971817
 30
0.0
 11
298.6716641713
 21
52.0613971779
 31
0.0
  0
LINE
  5
2BA
330
1F
100
AcDbEntity
  8
0
  6
CONTINUOUS
 62
     7
100
AcDbLine
 10
296.6716638434
 20
43.5613971817
 30
0.0
 11
296.6716638434
 21
52.0613971779
 31
0.0
  0
LINE
  5
2BB
330
1F
100
AcDbEntity
  8
0
  6
CONTINUOUS
 62
     7
100
AcDbLine
 10
296.6716638434
 20
52.0613971779
 30
0.0
 11
298.6716641713
 21
52.0613971779
 31
0.0
  0
LINE
  5
2BC
330
1F
100
AcDbEntity
  8
0
  6
CONTINUOUS
 62
     7
100
AcDbLine
 10
274.5416662324
 20
56.361397324
 30
0.0
 11
274.5416662324
 21
55.6613966504
 31
0.0
  0
LINE
  5
2BD
330
1F
100
AcDbEntity
  8
0
  6
CONTINUOUS
 62
     7
100
AcDbLine
 10
274.5416662324
 20
55.6613966504
 30
0.0
 11
271.7801644135
 21
55.6613966504
 31
0.0
  0
LINE
  5
2BE
330
1F
100
AcDbEntity
  8
0
  6
CONTINUOUS
 62
     7
100
AcDbLine
 10
271.7801644135
 20
56.361397324
 30
0.0
 11
271.7801644135
 21
55.6613966504
 31
0.0
  0
LINE
  5
2BF
330
1F
100
AcDbEntity
  8
0
  6
CONTINUOUS
 62
     7
100
AcDbLine
 10
274.5416662324
 20
56.361397324
 30
0.0
 11
271.7801644135
 21
56.361397324
 31
0.0
  0
LINE
  5
2C0
330
1F
100
AcDbEntity
  8
0
  6
CONTINUOUS
 62
     7
100
AcDbLine
 10
271.7801644135
 20
55.6613966504
 30
0.0
 11
271.0216655064
 21
55.6613966504
 31
0.0
  0
LINE
  5
2C1
330
1F
100
AcDbEntity
  8
0
  6
CONTINUOUS
 62
     7
100
AcDbLine
 10
283.3216651011
 20
55.6613966504
 30
0.0
 11
282.563166194
 21
55.6613966504
 31
0.0
  0
LINE
  5
2C2
330
1F
100
AcDbEntity
  8
0
  6
CONTINUOUS
 62
     7
100
AcDbLine
 10
282.563166194
 20
56.361397324
 30
0.0
 11
282.563166194
 21
55.6613966504
 31
0.0
  0
LINE
  5
2C3
330
1F
100
AcDbEntity
  8
0
  6
CONTINUOUS
 62
     7
100
AcDbLine
 10
271.7801644135
 20
56.361397324
 30
0.0
 11
271.0216655064
 21
56.361397324
 31
0.0
  0
LINE
  5
2C4
330
1F
100
AcDbEntity
  8
0
  6
CONTINUOUS
 62
     7
100
AcDbLine
 10
283.3216651011
 20
56.361397324
 30
0.0
 11
282.563166194
 21
56.361397324
 31
0.0
  0
LINE
  5
2C5
330
1F
100
AcDbEntity
  8
0
  6
CONTINUOUS
 62
     7
100
AcDbLine
 10
282.563166194
 20
55.6613966504
 30
0.0
 11
279.8016643751
 21
55.6613966504
 31
0.0
  0
LINE
  5
2C6
330
1F
100
AcDbEntity
  8
0
  6
CONTINUOUS
 62
     7
100
AcDbLine
 10
279.8016643751
 20
56.361397324
 30
0.0
 11
279.8016643751
 21
55.6613966504
 31
0.0
  0
LINE
  5
2C7
330
1F
100
AcDbEntity
  8
0
  6
CONTINUOUS
 62
     7
100
AcDbLine
 10
282.563166194
 20
56.361397324
 30
0.0
 11
279.8016643751
 21
56.361397324
 31
0.0
  0
LINE
  5
2C8
330
1F
100
AcDbEntity
  8
0
  6
CONTINUOUS
 62
     7
100
AcDbLine
 10
277.1716653037
 20
55.5613968203
 30
0.0
 11
270.6716651696
 21
55.5613968203
 31
0.0
  0
LINE
  5
2C9
330
1F
100
AcDbEntity
  8
0
  6
CONTINUOUS
 62
     7
100
AcDbLine
 10
277.1716653037
 20
55.5613968203
 30
0.0
 11
277.1716653037
 21
53.5613974238
 31
0.0
  0
LINE
  5
2CA
330
1F
100
AcDbEntity
  8
0
  6
CONTINUOUS
 62
     7
100
AcDbLine
 10
277.1716653037
 20
53.5613974238
 30
0.0
 11
270.6716651696
 21
53.5613974238
 31
0.0
  0
LINE
  5
2CB
330
1F
100
AcDbEntity
  8
0
  6
CONTINUOUS
 62
     7
100
AcDbLine
 10
300.2746938396
 20
55.5613968203
 30
0.0
 11
300.2746938396
 21
53.5613974238
 31
0.0
  0
LINE
  5
2CC
330
1F
100
AcDbEntity
  8
0
  6
CONTINUOUS
 62
     7
100
AcDbLine
 10
300.2746938396
 20
53.5613974238
 30
0.0
 11
300.1716634858
 21
53.5613974238
 31
0.0
  0
LINE
  5
2CD
330
1F
100
AcDbEntity
  8
0
  6
CONTINUOUS
 62
     7
100
AcDbLine
 10
296.1716665554
 20
53.5613974238
 30
0.0
 11
277.1716653037
 21
53.5613974238
 31
0.0
  0
LINE
  5
2CE
330
1F
100
AcDbEntity
  8
0
  6
CONTINUOUS
 62
     7
100
AcDbLine
 10
300.2746938396
 20
55.5613968203
 30
0.0
 11
277.1716653037
 21
55.5613968203
 31
0.0
  0
LINE
  5
2CF
330
1F
100
AcDbEntity
  8
0
  6
CONTINUOUS
 62
     7
100
AcDbLine
 10
301.1716655124
 20
53.5613974238
 30
0.0
 11
300.2746938396
 21
53.5613974238
 31
0.0
  0
LINE
  5
2D0
330
1F
100
AcDbEntity
  8
0
  6
CONTINUOUS
 62
     7
100
AcDbLine
 10
301.1716655124
 20
55.5613968203
 30
0.0
 11
300.2746938396
 21
55.5613968203
 31
0.0
  0
LINE
  5
2D1
330
1F
100
AcDbEntity
  8
0
  6
CONTINUOUS
 62
     7
100
AcDbLine
 10
270.5716653395
 20
36.7613970915
 30
0.0
 11
283.771665268
 21
36.7613970915
 31
0.0
  0
LINE
  5
2D2
330
1F
100
AcDbEntity
  8
0
  6
CONTINUOUS
 62
     7
100
AcDbLine
 10
280.6716649461
 20
56.5613969842
 30
0.0
 11
273.6716656614
 21
56.5613969842
 31
0.0
  0
LINE
  5
2D3
330
1F
100
AcDbEntity
  8
0
  6
CONTINUOUS
 62
     7
100
AcDbLine
 10
280.6716649461
 20
57.5613971481
 30
0.0
 11
273.6716656614
 21
57.5613971481
 31
0.0
  0
LINE
  5
2D4
330
1F
100
AcDbEntity
  8
0
  6
CONTINUOUS
 62
     7
100
AcDbLine
 10
288.1716652441
 20
39.0613970261
 30
0.0
 11
266.1716653633
 21
39.0613970261
 31
0.0
  0
LINE
  5
2D5
330
1F
100
AcDbEntity
  8
0
  6
CONTINUOUS
 62
     7
100
AcDbLine
 10
283.5356271494
 20
37.0613970476
 30
0.0
 11
268.1716656912
 21
37.0613970476
 31
0.0
  0
LINE
  5
2D6
330
1F
100
AcDbEntity
  8
0
  6
CONTINUOUS
 62
     7
100
AcDbLine
 10
286.1716649163
 20
37.0613970476
 30
0.0
 11
283.5356271494
 21
37.0613970476
 31
0.0
  0
LINE
  5
2D7
330
1F
100
AcDbEntity
  8
0
  6
CONTINUOUS
 62
     8
100
AcDbLine
 10
320.7057392824
 20
55.3025776202
 30
0.0
 11
320.6716677773
 21
55.293447865
 31
0.0
  0
LINE
  5
2D8
330
1F
100
AcDbEntity
  8
0
  6
CONTINUOUS
 62
     8
100
AcDbLine
 10
160.1375913847
 20
55.3025776202
 30
0.0
 11
160.1716628898
 21
55.293447865
 31
0.0
  0
LINE
  5
2D9
330
1F
100
AcDbEntity
  8
0
  6
CONTINUOUS
 62
     8
100
AcDbLine
 10
184.8787716258
 20
43.5613971817
 30
0.0
 11
187.1716654528
 21
43.5613971817
 31
0.0
  0
LINE
  5
2DA
330
1F
100
AcDbEntity
  8
0
  6
CONTINUOUS
 62
     8
100
AcDbLine
 10
293.6716652143
 20
43.5613971817
 30
0.0
 11
295.9645590413
 21
43.5613971817
 31
0.0
  0
LINE
  5
2DB
330
1F
100
AcDbEntity
  8
0
  6
CONTINUOUS
 62
     8
100
AcDbLine
 10
284.0216657746
 20
37.0113971325
 30
0.0
 11
270.3216648329
 21
37.0113971325
 31
0.0
  0
LINE
  5
2DC
330
1F
100
AcDbEntity
  8
0
  6
CONTINUOUS
 62
     8
100
AcDbLine
 10
282.1214138198
 20
53.0613973419
 30
0.0
 11
284.1716645885
 21
53.0613973419
 31
0.0
  0
LINE
  5
2DD
330
1F
100
AcDbEntity
  8
0
  6
CONTINUOUS
 62
     8
100
AcDbLine
 10
270.171666019
 20
53.0613973419
 30
0.0
 11
282.1214138198
 21
53.0613973419
 31
0.0
  0
LINE
  5
2DE
330
1F
100
AcDbEntity
  8
0
  6
CONTINUOUS
 62
     7
100
AcDbLine
 10
271.0216655064
 20
532.2323099565
 30
0.0
 11
271.0216655064
 21
531.532309283
 31
0.0
  0
LINE
  5
2DF
330
1F
100
AcDbEntity
  8
0
  6
CONTINUOUS
 62
     7
100
AcDbLine
 10
283.3216651011
 20
531.532309283
 30
0.0
 11
283.3216651011
 21
532.2323099565
 31
0.0
  0
LINE
  5
2E0
330
1F
100
AcDbEntity
  8
0
  6
CONTINUOUS
 62
     7
100
AcDbLine
 10
301.1716655124
 20
532.3323097866
 30
0.0
 11
301.1716655124
 21
534.3323091831
 31
0.0
  0
LINE
  5
2E1
330
1F
100
AcDbEntity
  8
0
  6
CONTINUOUS
 62
     7
100
AcDbLine
 10
270.6716651696
 20
534.3323091831
 30
0.0
 11
270.6716651696
 21
532.3323097866
 31
0.0
  0
ARC
  5
2E2
330
1F
100
AcDbEntity
  8
0
  6
CONTINUOUS
 62
     7
100
AcDbCircle
 10
283.7716653335
 20
550.8823095333
 30
0.0
 40
0.2500000000001137
100
AcDbArc
 50
0.0
 51
90.0
  0
ARC
  5
2E3
330
1F
100
AcDbEntity
  8
0
  6
CONTINUOUS
 62
     7
100
AcDbCircle
 10
270.5716653335
 20
550.8823095333
 30
0.0
 40
0.2500000000001137
100
AcDbArc
 50
90.0
 51
180.0
  0
LINE
  5
2E4
330
1F
100
AcDbEntity
  8
0
  6
CONTINUOUS
 62
     7
100
AcDbLine
 10
284.0216657746
 20
550.8323095594
 30
0.0
 11
284.0216657746
 21
550.8823094744
 31
0.0
  0
LINE
  5
2E5
330
1F
100
AcDbEntity
  8
0
  6
CONTINUOUS
 62
     7
100
AcDbLine
 10
270.3216648329
 20
550.8823094744
 30
0.0
 11
270.3216648329
 21
550.8323095594
 31
0.0
  0
LINE
  5
2E6
330
1F
100
AcDbEntity
  8
0
  6
CONTINUOUS
 62
     7
100
AcDbLine
 10
273.6716656614
 20
531.3323096227
 30
0.0
 11
273.6716656614
 21
530.3323094588
 31
0.0
  0
LINE
  5
2E7
330
1F
100
AcDbEntity
  8
0
  6
CONTINUOUS
 62
     7
100
AcDbLine
 10
280.6716649461
 20
530.3323094588
 30
0.0
 11
280.6716649461
 21
531.3323096227
 31
0.0
  0
LINE
  5
2E8
330
1F
100
AcDbEntity
  8
0
  6
CONTINUOUS
 62
     7
100
AcDbLine
 10
274.1716666747
 20
532.3323097866
 30
0.0
 11
274.1716666747
 21
532.2323099565
 31
0.0
  0
LINE
  5
2E9
330
1F
100
AcDbEntity
  8
0
  6
CONTINUOUS
 62
     7
100
AcDbLine
 10
274.1716666747
 20
531.532309283
 30
0.0
 11
274.1716666747
 21
531.3323096227
 31
0.0
  0
LINE
  5
2EA
330
1F
100
AcDbEntity
  8
0
  6
CONTINUOUS
 62
     7
100
AcDbLine
 10
280.1716639328
 20
531.3323096227
 30
0.0
 11
280.1716639328
 21
531.532309283
 31
0.0
  0
LINE
  5
2EB
330
1F
100
AcDbEntity
  8
0
  6
CONTINUOUS
 62
     7
100
AcDbLine
 10
280.1716639328
 20
532.2323099565
 30
0.0
 11
280.1716639328
 21
532.3323097866
 31
0.0
  0
LINE
  5
2EC
330
1F
100
AcDbEntity
  8
0
  6
CONTINUOUS
 62
     7
100
AcDbLine
 10
266.1716653633
 20
548.8323095808
 30
0.0
 11
266.1716653633
 21
547.8323095333
 31
0.0
  0
LINE
  5
2ED
330
1F
100
AcDbEntity
  8
0
  6
CONTINUOUS
 62
     7
100
AcDbLine
 10
288.1716652441
 20
547.8323095333
 30
0.0
 11
288.1716652441
 21
548.8323095808
 31
0.0
  0
LINE
  5
2EE
330
1F
100
AcDbEntity
  8
0
  6
CONTINUOUS
 62
     7
100
AcDbLine
 10
288.1716652441
 20
548.8323095808
 30
0.0
 11
286.1716649163
 21
550.8323095594
 31
0.0
  0
LINE
  5
2EF
330
1F
100
AcDbEntity
  8
0
  6
CONTINUOUS
 62
     7
100
AcDbLine
 10
268.1716656912
 20
550.8323095594
 30
0.0
 11
266.1716653633
 21
548.8323095808
 31
0.0
  0
LINE
  5
2F0
330
1F
100
AcDbEntity
  8
0
  6
CONTINUOUS
 62
     7
100
AcDbLine
 10
284.1716645885
 20
534.8323092651
 30
0.0
 11
284.1716645885
 21
535.832309429
 31
0.0
  0
ARC
  5
2F1
330
1F
100
AcDbEntity
  8
0
  6
CONTINUOUS
 62
     7
100
AcDbCircle
 10
283.6716653335
 20
534.8323095333
 30
0.0
 40
0.5000000000000568
100
AcDbArc
 50
269.9999878213
 51
0.0
  0
LINE
  5
2F2
330
1F
100
AcDbEntity
  8
0
  6
CONTINUOUS
 62
     7
100
AcDbLine
 10
302.3285208869
 20
546.3323095203
 30
0.0
 11
302.3285208869
 21
547.8323095333
 31
0.0
  0
LINE
  5
2F3
330
1F
100
AcDbEntity
  8
0
  6
CONTINUOUS
 62
     7
100
AcDbLine
 10
296.6716638434
 20
546.3323095203
 30
0.0
 11
296.6716638434
 21
547.8323095333
 31
0.0
  0
LINE
  5
2F4
330
1F
100
AcDbEntity
  8
0
  6
CONTINUOUS
 62
     7
100
AcDbLine
 10
296.6716638434
 20
546.3323095203
 30
0.0
 11
302.3285208869
 21
546.3323095203
 31
0.0
  0
LINE
  5
2F5
330
1F
100
AcDbEntity
  8
0
  6
CONTINUOUS
 62
     7
100
AcDbLine
 10
296.6716638434
 20
547.8323095333
 30
0.0
 11
302.3285208869
 21
547.8323095333
 31
0.0
  0
LINE
  5
2F6
330
1F
100
AcDbEntity
  8
0
  6
CONTINUOUS
 62
     7
100
AcDbLine
 10
184.1716668237
 20
546.3323095203
 30
0.0
 11
184.1716668237
 21
547.8323095333
 31
0.0
  0
LINE
  5
2F7
330
1F
100
AcDbEntity
  8
0
  6
CONTINUOUS
 62
     7
100
AcDbLine
 10
184.1716668237
 20
546.3323095203
 30
0.0
 11
296.6716638434
 21
546.3323095203
 31
0.0
  0
LINE
  5
2F8
330
1F
100
AcDbEntity
  8
0
  6
CONTINUOUS
 62
     7
100
AcDbLine
 10
184.1716668237
 20
547.8323095333
 30
0.0
 11
296.6716638434
 21
547.8323095333
 31
0.0
  0
LINE
  5
2F9
330
1F
100
AcDbEntity
  8
0
  6
CONTINUOUS
 62
     7
100
AcDbLine
 10
178.5148097802
 20
546.3323095203
 30
0.0
 11
178.5148097802
 21
547.8323095333
 31
0.0
  0
LINE
  5
2FA
330
1F
100
AcDbEntity
  8
0
  6
CONTINUOUS
 62
     7
100
AcDbLine
 10
178.5148097802
 20
546.3323095203
 30
0.0
 11
184.1716668237
 21
546.3323095203
 31
0.0
  0
LINE
  5
2FB
330
1F
100
AcDbEntity
  8
0
  6
CONTINUOUS
 62
     7
100
AcDbLine
 10
178.5148097802
 20
547.8323095333
 30
0.0
 11
184.1716668237
 21
547.8323095333
 31
0.0
  0
LINE
  5
2FC
330
1F
100
AcDbEntity
  8
0
  6
CONTINUOUS
 62
     7
100
AcDbLine
 10
318.3285197842
 20
546.3323095203
 30
0.0
 11
318.3285197842
 21
547.8323095333
 31
0.0
  0
LINE
  5
2FD
330
1F
100
AcDbEntity
  8
0
  6
CONTINUOUS
 62
     7
100
AcDbLine
 10
302.3285208869
 20
546.3323095203
 30
0.0
 11
318.3285197842
 21
546.3323095203
 31
0.0
  0
LINE
  5
2FE
330
1F
100
AcDbEntity
  8
0
  6
CONTINUOUS
 62
     7
100
AcDbLine
 10
302.3285208869
 20
547.8323095333
 30
0.0
 11
318.3285197842
 21
547.8323095333
 31
0.0
  0
LINE
  5
2FF
330
1F
100
AcDbEntity
  8
0
  6
CONTINUOUS
 62
     7
100
AcDbLine
 10
162.5148108828
 20
546.3323095203
 30
0.0
 11
162.5148108828
 21
547.8323095333
 31
0.0
  0
LINE
  5
300
330
1F
100
AcDbEntity
  8
0
  6
CONTINUOUS
 62
     7
100
AcDbLine
 10
162.5148108828
 20
546.3323095203
 30
0.0
 11
178.5148097802
 21
546.3323095203
 31
0.0
  0
LINE
  5
301
330
1F
100
AcDbEntity
  8
0
  6
CONTINUOUS
 62
     7
100
AcDbLine
 10
162.5148108828
 20
547.8323095333
 30
0.0
 11
178.5148097802
 21
547.8323095333
 31
0.0
  0
LINE
  5
302
330
1F
100
AcDbEntity
  8
0
  6
CONTINUOUS
 62
     7
100
AcDbLine
 10
320.6716677773
 20
546.3323095203
 30
0.0
 11
320.6716677773
 21
547.8323095333
 31
0.0
  0
LINE
  5
303
330
1F
100
AcDbEntity
  8
0
  6
CONTINUOUS
 62
     7
100
AcDbLine
 10
318.3285197842
 20
546.3323095203
 30
0.0
 11
320.6716677773
 21
546.3323095203
 31
0.0
  0
LINE
  5
304
330
1F
100
AcDbEntity
  8
0
  6
CONTINUOUS
 62
     7
100
AcDbLine
 10
318.3285197842
 20
547.8323095333
 30
0.0
 11
320.6716677773
 21
547.8323095333
 31
0.0
  0
LINE
  5
305
330
1F
100
AcDbEntity
  8
0
  6
CONTINUOUS
 62
     7
100
AcDbLine
 10
160.1716628898
 20
546.3323095203
 30
0.0
 11
160.1716628898
 21
547.8323095333
 31
0.0
  0
LINE
  5
306
330
1F
100
AcDbEntity
  8
0
  6
CONTINUOUS
 62
     7
100
AcDbLine
 10
160.1716628898
 20
546.3323095203
 30
0.0
 11
162.5148108828
 21
546.3323095203
 31
0.0
  0
LINE
  5
307
330
1F
100
AcDbEntity
  8
0
  6
CONTINUOUS
 62
     7
100
AcDbLine
 10
160.1716628898
 20
547.8323095333
 30
0.0
 11
162.5148108828
 21
547.8323095333
 31
0.0
  0
LINE
  5
308
330
1F
100
AcDbEntity
  8
0
  6
CONTINUOUS
 62
     7
100
AcDbLine
 10
293.6716652143
 20
545.3323095892
 30
0.0
 11
293.6716652143
 21
546.3323095203
 31
0.0
  0
LINE
  5
309
330
1F
100
AcDbEntity
  8
0
  6
CONTINUOUS
 62
     7
100
AcDbLine
 10
187.1716654528
 20
545.3323095892
 30
0.0
 11
293.6716652143
 21
545.3323095892
 31
0.0
  0
LINE
  5
30A
330
1F
100
AcDbEntity
  8
0
  6
CONTINUOUS
 62
     7
100
AcDbLine
 10
187.1716654528
 20
546.3323095203
 30
0.0
 11
187.1716654528
 21
545.3323095892
 31
0.0
  0
LINE
  5
30B
330
1F
100
AcDbEntity
  8
0
  6
CONTINUOUS
 62
     7
100
AcDbLine
 10
293.6716652143
 20
545.3323095892
 30
0.0
 11
293.6716652143
 21
538.8323099207
 31
0.0
  0
LINE
  5
30C
330
1F
100
AcDbEntity
  8
0
  6
CONTINUOUS
 62
     7
100
AcDbLine
 10
291.6716648865
 20
536.8323095929
 30
0.0
 11
293.6716652143
 21
538.8323099207
 31
0.0
  0
LINE
  5
30D
330
1F
100
AcDbEntity
  8
0
  6
CONTINUOUS
 62
     7
100
AcDbLine
 10
199.1716636944
 20
536.8323095929
 30
0.0
 11
281.6716669727
 21
536.8323095929
 31
0.0
  0
LINE
  5
30E
330
1F
100
AcDbEntity
  8
0
  6
CONTINUOUS
 62
     7
100
AcDbLine
 10
199.1716636944
 20
536.8323095929
 30
0.0
 11
189.1716657806
 21
536.8323095929
 31
0.0
  0
LINE
  5
30F
330
1F
100
AcDbEntity
  8
0
  6
CONTINUOUS
 62
     7
100
AcDbLine
 10
187.1716654528
 20
538.8323099207
 30
0.0
 11
189.1716657806
 21
536.8323095929
 31
0.0
  0
LINE
  5
310
330
1F
100
AcDbEntity
  8
0
  6
CONTINUOUS
 62
     7
100
AcDbLine
 10
187.1716654528
 20
538.8323099207
 30
0.0
 11
187.1716654528
 21
545.3323095892
 31
0.0
  0
CIRCLE
  5
311
330
1F
100
AcDbEntity
  8
0
  6
CONTINUOUS
 62
     7
100
AcDbCircle
 10
191.1716653335
 20
540.3323095333
 30
0.0
 40
2.699999999999932
  0
LINE
  5
312
330
1F
100
AcDbEntity
  8
0
  6
CONTINUOUS
 62
     7
100
AcDbLine
 10
291.6716648865
 20
536.8323095929
 30
0.0
 11
281.6716669727
 21
536.8323095929
 31
0.0
  0
LINE
  5
313
330
1F
100
AcDbEntity
  8
0
  6
CONTINUOUS
 62
     7
100
AcDbLine
 10
199.1716636944
 20
534.3323091831
 30
0.0
 11
281.6716669727
 21
534.3323091831
 31
0.0
  0
LINE
  5
314
330
1F
100
AcDbEntity
  8
0
  6
CONTINUOUS
 62
     7
100
AcDbLine
 10
199.1716636944
 20
534.3323091831
 30
0.0
 11
199.1716636944
 21
536.8323095929
 31
0.0
  0
LINE
  5
315
330
1F
100
AcDbEntity
  8
0
  6
CONTINUOUS
 62
     7
100
AcDbLine
 10
281.6716669727
 20
536.8323095929
 30
0.0
 11
281.6716669727
 21
534.3323091831
 31
0.0
  0
LINE
  5
316
330
1F
100
AcDbEntity
  8
0
  6
CONTINUOUS
 62
     7
100
AcDbLine
 10
302.6716648269
 20
545.3323095892
 30
0.0
 11
301.1716655124
 21
545.3323095892
 31
0.0
  0
LINE
  5
317
330
1F
100
AcDbEntity
  8
0
  6
CONTINUOUS
 62
     7
100
AcDbLine
 10
302.6716648269
 20
538.8323099207
 30
0.0
 11
302.6716648269
 21
545.3323095892
 31
0.0
  0
LINE
  5
318
330
1F
100
AcDbEntity
  8
0
  6
CONTINUOUS
 62
     7
100
AcDbLine
 10
301.1716655124
 20
538.8323099207
 30
0.0
 11
302.6716648269
 21
538.8323099207
 31
0.0
  0
LINE
  5
319
330
1F
100
AcDbEntity
  8
0
  6
CONTINUOUS
 62
     7
100
AcDbLine
 10
301.1716655124
 20
538.8323099207
 30
0.0
 11
301.1716655124
 21
545.3323095892
 31
0.0
  0
ARC
  5
31A
330
1F
100
AcDbEntity
  8
0
  6
CONTINUOUS
 62
     7
100
AcDbCircle
 10
303.6716653335
 20
545.3323095333
 30
0.0
 40
1.0
100
AcDbArc
 50
90.0
 51
180.0
  0
ARC
  5
31B
330
1F
100
AcDbEntity
  8
0
  6
CONTINUOUS
 62
     7
100
AcDbCircle
 10
303.6716653335
 20
545.3323095333
 30
0.0
 40
2.5
100
AcDbArc
 50
156.4218215218
 51
180.0
  0
LINE
  5
31C
330
1F
100
AcDbEntity
  8
0
  6
CONTINUOUS
 62
     7
100
AcDbLine
 10
302.6716648269
 20
536.8323095929
 30
0.0
 11
301.1716655124
 21
536.8323095929
 31
0.0
  0
LINE
  5
31D
330
1F
100
AcDbEntity
  8
0
  6
CONTINUOUS
 62
     7
100
AcDbLine
 10
302.6716648269
 20
538.8323099207
 30
0.0
 11
302.6716648269
 21
536.8323095929
 31
0.0
  0
LINE
  5
31E
330
1F
100
AcDbEntity
  8
0
  6
CONTINUOUS
 62
     7
100
AcDbLine
 10
301.1716655124
 20
536.8323095929
 30
0.0
 11
301.1716655124
 21
538.8323099207
 31
0.0
  0
LINE
  5
31F
330
1F
100
AcDbEntity
  8
0
  6
CONTINUOUS
 62
     7
100
AcDbLine
 10
300.1716634858
 20
535.832309429
 30
0.0
 11
300.1716634858
 21
534.3323091831
 31
0.0
  0
ARC
  5
320
330
1F
100
AcDbEntity
  8
0
  6
CONTINUOUS
 62
     7
100
AcDbCircle
 10
300.1716653335
 20
536.8323095333
 30
0.0
 40
1.0
100
AcDbArc
 50
270.0
 51
0.0
  0
ARC
  5
321
330
1F
100
AcDbEntity
  8
0
  6
CONTINUOUS
 62
     7
100
AcDbCircle
 10
300.1716653335
 20
536.8323095333
 30
0.0
 40
2.5
100
AcDbArc
 50
270.0
 51
0.0
  0
LINE
  5
322
330
1F
100
AcDbEntity
  8
0
  6
CONTINUOUS
 62
     7
100
AcDbLine
 10
300.1716634858
 20
534.3323091831
 30
0.0
 11
299.1716651845
 21
534.3323091831
 31
0.0
  0
LINE
  5
323
330
1F
100
AcDbEntity
  8
0
  6
CONTINUOUS
 62
     7
100
AcDbLine
 10
299.1716651845
 20
535.832309429
 30
0.0
 11
299.1716651845
 21
534.3323091831
 31
0.0
  0
LINE
  5
324
330
1F
100
AcDbEntity
  8
0
  6
CONTINUOUS
 62
     7
100
AcDbLine
 10
300.1716634858
 20
535.832309429
 30
0.0
 11
299.1716651845
 21
535.832309429
 31
0.0
  0
LINE
  5
325
330
1F
100
AcDbEntity
  8
0
  6
CONTINUOUS
 62
     7
100
AcDbLine
 10
296.1716665554
 20
534.3323091831
 30
0.0
 11
296.1716665554
 21
535.832309429
 31
0.0
  0
LINE
  5
326
330
1F
100
AcDbEntity
  8
0
  6
CONTINUOUS
 62
     7
100
AcDbLine
 10
296.1716665554
 20
535.832309429
 30
0.0
 11
296.6716638434
 21
535.832309429
 31
0.0
  0
LINE
  5
327
330
1F
100
AcDbEntity
  8
0
  6
CONTINUOUS
 62
     7
100
AcDbLine
 10
298.6716641713
 20
535.832309429
 30
0.0
 11
299.1716651845
 21
535.832309429
 31
0.0
  0
LINE
  5
328
330
1F
100
AcDbEntity
  8
0
  6
CONTINUOUS
 62
     7
100
AcDbLine
 10
299.1716651845
 20
534.3323091831
 30
0.0
 11
296.1716665554
 21
534.3323091831
 31
0.0
  0
ARC
  5
329
330
1F
100
AcDbEntity
  8
0
  6
CONTINUOUS
 62
     7
100
AcDbCircle
 10
318.1716653335
 20
545.3323095333
 30
0.0
 40
2.5
100
AcDbArc
 50
0.0
 51
23.5781784782
  0
LINE
  5
32A
330
1F
100
AcDbEntity
  8
0
  6
CONTINUOUS
 62
     7
100
AcDbLine
 10
319.1716647375
 20
545.3323095892
 30
0.0
 11
320.6716677773
 21
545.3323095892
 31
0.0
  0
ARC
  5
32B
330
1F
100
AcDbEntity
  8
0
  6
CONTINUOUS
 62
     7
100
AcDbCircle
 10
318.1716653335
 20
545.3323095333
 30
0.0
 40
1.0
100
AcDbArc
 50
0.0
 51
90.0
  0
LINE
  5
32C
330
1F
100
AcDbEntity
  8
0
  6
CONTINUOUS
 62
     7
100
AcDbLine
 10
320.6716677773
 20
531.3323096227
 30
0.0
 11
320.6716677773
 21
545.3323095892
 31
0.0
  0
LINE
  5
32D
330
1F
100
AcDbEntity
  8
0
  6
CONTINUOUS
 62
     7
100
AcDbLine
 10
319.1716647375
 20
531.3323096227
 30
0.0
 11
320.6716677773
 21
531.3323096227
 31
0.0
  0
LINE
  5
32E
330
1F
100
AcDbEntity
  8
0
  6
CONTINUOUS
 62
     7
100
AcDbLine
 10
319.1716647375
 20
531.3323096227
 30
0.0
 11
319.1716647375
 21
545.3323095892
 31
0.0
  0
LINE
  5
32F
330
1F
100
AcDbEntity
  8
0
  6
CONTINUOUS
 62
     7
100
AcDbLine
 10
320.6716677773
 20
529.3323092949
 30
0.0
 11
319.1716647375
 21
529.3323092949
 31
0.0
  0
LINE
  5
330
330
1F
100
AcDbEntity
  8
0
  6
CONTINUOUS
 62
     7
100
AcDbLine
 10
320.6716677773
 20
531.3323096227
 30
0.0
 11
320.6716677773
 21
529.3323092949
 31
0.0
  0
LINE
  5
331
330
1F
100
AcDbEntity
  8
0
  6
CONTINUOUS
 62
     7
100
AcDbLine
 10
319.1716647375
 20
529.3323092949
 30
0.0
 11
319.1716647375
 21
531.3323096227
 31
0.0
  0
ARC
  5
332
330
1F
100
AcDbEntity
  8
0
  6
CONTINUOUS
 62
     7
100
AcDbCircle
 10
321.6716653335
 20
532.3323095333
 30
0.0
 40
1.00000000000003
100
AcDbArc
 50
165.0
 51
180.0
  0
LINE
  5
333
330
1F
100
AcDbEntity
  8
0
  6
CONTINUOUS
 62
     7
100
AcDbLine
 10
322.9756555188
 20
546.8581150956
 30
0.0
 11
324.4245401252
 21
546.4698864701
 31
0.0
  0
LINE
  5
334
330
1F
100
AcDbEntity
  8
0
  6
CONTINUOUS
 62
     7
100
AcDbLine
 10
324.4245401252
 20
546.4698864701
 30
0.0
 11
320.7057392824
 21
532.5911289867
 31
0.0
  0
LINE
  5
335
330
1F
100
AcDbEntity
  8
0
  6
CONTINUOUS
 62
     7
100
AcDbLine
 10
322.9756555188
 20
546.8581150956
 30
0.0
 11
320.6716677773
 21
538.259516735
 31
0.0
  0
LINE
  5
336
330
1F
100
AcDbEntity
  8
0
  6
CONTINUOUS
 62
     7
100
AcDbLine
 10
178.1716658402
 20
545.3323095892
 30
0.0
 11
179.6716651547
 21
545.3323095892
 31
0.0
  0
LINE
  5
337
330
1F
100
AcDbEntity
  8
0
  6
CONTINUOUS
 62
     7
100
AcDbLine
 10
178.1716658402
 20
538.8323099207
 30
0.0
 11
179.6716651547
 21
538.8323099207
 31
0.0
  0
LINE
  5
338
330
1F
100
AcDbEntity
  8
0
  6
CONTINUOUS
 62
     7
100
AcDbLine
 10
178.1716658402
 20
545.3323095892
 30
0.0
 11
178.1716658402
 21
538.8323099207
 31
0.0
  0
LINE
  5
339
330
1F
100
AcDbEntity
  8
0
  6
CONTINUOUS
 62
     7
100
AcDbLine
 10
179.6716651547
 20
545.3323095892
 30
0.0
 11
179.6716651547
 21
538.8323099207
 31
0.0
  0
LINE
  5
33A
330
1F
100
AcDbEntity
  8
0
  6
CONTINUOUS
 62
     7
100
AcDbLine
 10
179.6716651547
 20
536.8323095929
 30
0.0
 11
178.1716658402
 21
536.8323095929
 31
0.0
  0
LINE
  5
33B
330
1F
100
AcDbEntity
  8
0
  6
CONTINUOUS
 62
     7
100
AcDbLine
 10
178.1716658402
 20
536.8323095929
 30
0.0
 11
178.1716658402
 21
538.8323099207
 31
0.0
  0
LINE
  5
33C
330
1F
100
AcDbEntity
  8
0
  6
CONTINUOUS
 62
     7
100
AcDbLine
 10
179.6716651547
 20
538.8323099207
 30
0.0
 11
179.6716651547
 21
536.8323095929
 31
0.0
  0
ARC
  5
33D
330
1F
100
AcDbEntity
  8
0
  6
CONTINUOUS
 62
     7
100
AcDbCircle
 10
177.1716653335
 20
545.3323095333
 30
0.0
 40
2.5
100
AcDbArc
 50
0.0
 51
23.5781784782
  0
ARC
  5
33E
330
1F
100
AcDbEntity
  8
0
  6
CONTINUOUS
 62
     7
100
AcDbCircle
 10
177.1716653335
 20
545.3323095333
 30
0.0
 40
1.0
100
AcDbArc
 50
0.0
 51
90.0
  0
ARC
  5
33F
330
1F
100
AcDbEntity
  8
0
  6
CONTINUOUS
 62
     7
100
AcDbCircle
 10
162.6716653335
 20
545.3323095333
 30
0.0
 40
1.0
100
AcDbArc
 50
90.0
 51
180.0
  0
LINE
  5
340
330
1F
100
AcDbEntity
  8
0
  6
CONTINUOUS
 62
     7
100
AcDbLine
 10
161.6716659296
 20
545.3323095892
 30
0.0
 11
160.1716628898
 21
545.3323095892
 31
0.0
  0
ARC
  5
341
330
1F
100
AcDbEntity
  8
0
  6
CONTINUOUS
 62
     7
100
AcDbCircle
 10
162.6716653335
 20
545.3323095333
 30
0.0
 40
2.5
100
AcDbArc
 50
156.4218215218
 51
180.0
  0
LINE
  5
342
330
1F
100
AcDbEntity
  8
0
  6
CONTINUOUS
 62
     7
100
AcDbLine
 10
161.6716659296
 20
531.3323096227
 30
0.0
 11
161.6716659296
 21
545.3323095892
 31
0.0
  0
LINE
  5
343
330
1F
100
AcDbEntity
  8
0
  6
CONTINUOUS
 62
     7
100
AcDbLine
 10
160.1716628898
 20
531.3323096227
 30
0.0
 11
161.6716659296
 21
531.3323096227
 31
0.0
  0
LINE
  5
344
330
1F
100
AcDbEntity
  8
0
  6
CONTINUOUS
 62
     7
100
AcDbLine
 10
160.1716628898
 20
531.3323096227
 30
0.0
 11
160.1716628898
 21
545.3323095892
 31
0.0
  0
LINE
  5
345
330
1F
100
AcDbEntity
  8
0
  6
CONTINUOUS
 62
     7
100
AcDbLine
 10
161.6716659296
 20
529.3323092949
 30
0.0
 11
160.1716628898
 21
529.3323092949
 31
0.0
  0
LINE
  5
346
330
1F
100
AcDbEntity
  8
0
  6
CONTINUOUS
 62
     7
100
AcDbLine
 10
161.6716659296
 20
531.3323096227
 30
0.0
 11
161.6716659296
 21
529.3323092949
 31
0.0
  0
LINE
  5
347
330
1F
100
AcDbEntity
  8
0
  6
CONTINUOUS
 62
     7
100
AcDbLine
 10
160.1716628898
 20
529.3323092949
 30
0.0
 11
160.1716628898
 21
531.3323096227
 31
0.0
  0
ARC
  5
348
330
1F
100
AcDbEntity
  8
0
  6
CONTINUOUS
 62
     7
100
AcDbCircle
 10
159.1716653335
 20
532.3323095333
 30
0.0
 40
1.000000000000003
100
AcDbArc
 50
0.0
 51
15.0
  0
LINE
  5
349
330
1F
100
AcDbEntity
  8
0
  6
CONTINUOUS
 62
     7
100
AcDbLine
 10
156.4187905419
 20
546.4698864701
 30
0.0
 11
160.1375913847
 21
532.5911289867
 31
0.0
  0
LINE
  5
34A
330
1F
100
AcDbEntity
  8
0
  6
CONTINUOUS
 62
     7
100
AcDbLine
 10
157.8676751483
 20
546.8581150956
 30
0.0
 11
156.4187905419
 21
546.4698864701
 31
0.0
  0
LINE
  5
34B
330
1F
100
AcDbEntity
  8
0
  6
CONTINUOUS
 62
     7
100
AcDbLine
 10
157.8676751483
 20
546.8581150956
 30
0.0
 11
160.1716628898
 21
538.259516735
 31
0.0
  0
LINE
  5
34C
330
1F
100
AcDbEntity
  8
0
  6
CONTINUOUS
 62
     7
100
AcDbLine
 10
295.9645590413
 20
544.3323094253
 30
0.0
 11
295.9645590413
 21
535.832309429
 31
0.0
  0
LINE
  5
34D
330
1F
100
AcDbEntity
  8
0
  6
CONTINUOUS
 62
     7
100
AcDbLine
 10
295.9645590413
 20
535.832309429
 30
0.0
 11
281.6716669727
 21
535.832309429
 31
0.0
  0
LINE
  5
34E
330
1F
100
AcDbEntity
  8
0
  6
CONTINUOUS
 62
     7
100
AcDbLine
 10
199.1716636944
 20
535.832309429
 30
0.0
 11
184.8787716258
 21
535.832309429
 31
0.0
  0
LINE
  5
34F
330
1F
100
AcDbEntity
  8
0
  6
CONTINUOUS
 62
     7
100
AcDbLine
 10
184.8787716258
 20
544.3323094253
 30
0.0
 11
184.8787716258
 21
535.832309429
 31
0.0
  0
LWPOLYLINE
  5
350
330
1F
100
AcDbEntity
  8
0
  6
CONTINUOUS
 62
     7
100
AcDbPolyline
 90
        3
 70
   128
 43
0.0
 10
190.5779479671
 20
536.8323095929
 10
191.1716661084
 20
536.7823096778
 10
191.7653842497
 20
536.8323095929
  0
LWPOLYLINE
  5
351
330
1F
100
AcDbEntity
  8
0
  6
CONTINUOUS
 62
     7
100
AcDbPolyline
 90
        3
 70
   128
 43
0.0
 10
184.8787716258
 20
544.3323094253
 10
185.0247173238
 20
545.3302301787
 10
185.1867525506
 20
546.3323095203
  0
ARC
  5
352
330
1F
100
AcDbEntity
  8
0
  6
CONTINUOUS
 62
     7
100
AcDbCircle
 10
249.888597536
 20
538.2679252351
 30
0.0
 40
46.47333627189492
100
AcDbArc
 50
7.4980061151
 51
9.992957089
  0
LWPOLYLINE
  5
353
330
1F
100
AcDbEntity
  8
0
  6
CONTINUOUS
 62
     7
100
AcDbPolyline
 90
        3
 70
   128
 43
0.0
 10
298.6716641713
 20
544.3323094253
 10
298.5263853002
 20
545.3302301787
 10
298.0304448533
 20
546.3323095203
  0
LINE
  5
354
330
1F
100
AcDbEntity
  8
0
  6
CONTINUOUS
 62
     7
100
AcDbLine
 10
298.6716641713
 20
544.3323094253
 30
0.0
 11
296.6716638434
 21
544.3323094253
 31
0.0
  0
ARC
  5
355
330
1F
100
AcDbEntity
  8
0
  6
CONTINUOUS
 62
     7
100
AcDbCircle
 10
295.2936822407
 20
544.3938676101
 30
0.0
 40
1.379355903150268
100
AcDbArc
 50
357.4421423735
 51
70.2418840303
  0
ARC
  5
356
330
1F
100
AcDbEntity
  8
0
  6
CONTINUOUS
 62
     7
100
AcDbCircle
 10
185.6348379966
 20
544.3444573021
 30
0.0
 40
1.463221600506661
100
AcDbArc
 50
112.091096314
 51
180.4756832917
  0
LINE
  5
357
330
1F
100
AcDbEntity
  8
0
  6
CONTINUOUS
 62
     7
100
AcDbLine
 10
182.1716664958
 20
544.3323094253
 30
0.0
 11
184.1716668237
 21
544.3323094253
 31
0.0
  0
ARC
  5
358
330
1F
100
AcDbEntity
  8
0
  6
CONTINUOUS
 62
     7
100
AcDbCircle
 10
185.0379102683
 20
544.5237006687
 30
0.0
 40
2.872626667603504
100
AcDbArc
 50
140.9793029502
 51
183.8202108949
  0
LINE
  5
359
330
1F
100
AcDbEntity
  8
0
  6
CONTINUOUS
 62
     7
100
AcDbLine
 10
296.6716638434
 20
535.832309429
 30
0.0
 11
298.6716641713
 21
535.832309429
 31
0.0
  0
LINE
  5
35A
330
1F
100
AcDbEntity
  8
0
  6
CONTINUOUS
 62
     7
100
AcDbLine
 10
296.6716638434
 20
544.3323094253
 30
0.0
 11
296.6716638434
 21
535.832309429
 31
0.0
  0
LINE
  5
35B
330
1F
100
AcDbEntity
  8
0
  6
CONTINUOUS
 62
     7
100
AcDbLine
 10
298.6716641713
 20
544.3323094253
 30
0.0
 11
298.6716641713
 21
535.832309429
 31
0.0
  0
LINE
  5
35C
330
1F
100
AcDbEntity
  8
0
  6
CONTINUOUS
 62
     7
100
AcDbLine
 10
182.1716664958
 20
544.3323094253
 30
0.0
 11
182.1716664958
 21
535.832309429
 31
0.0
  0
LINE
  5
35D
330
1F
100
AcDbEntity
  8
0
  6
CONTINUOUS
 62
     7
100
AcDbLine
 10
184.1716668237
 20
535.832309429
 30
0.0
 11
182.1716664958
 21
535.832309429
 31
0.0
  0
LINE
  5
35E
330
1F
100
AcDbEntity
  8
0
  6
CONTINUOUS
 62
     7
100
AcDbLine
 10
184.1716668237
 20
544.3323094253
 30
0.0
 11
184.1716668237
 21
535.832309429
 31
0.0
  0
LINE
  5
35F
330
1F
100
AcDbEntity
  8
0
  6
CONTINUOUS
 62
     7
100
AcDbLine
 10
271.0216655064
 20
531.532309283
 30
0.0
 11
283.3216651011
 21
531.532309283
 31
0.0
  0
LINE
  5
360
330
1F
100
AcDbEntity
  8
0
  6
CONTINUOUS
 62
     7
100
AcDbLine
 10
271.0216655064
 20
532.2323099565
 30
0.0
 11
283.3216651011
 21
532.2323099565
 31
0.0
  0
LINE
  5
361
330
1F
100
AcDbEntity
  8
0
  6
CONTINUOUS
 62
     7
100
AcDbLine
 10
300.2746938396
 20
532.3323097866
 30
0.0
 11
301.1716655124
 21
532.3323097866
 31
0.0
  0
LINE
  5
362
330
1F
100
AcDbEntity
  8
0
  6
CONTINUOUS
 62
     7
100
AcDbLine
 10
300.2746938396
 20
532.3323097866
 30
0.0
 11
300.2746938396
 21
534.3323091831
 31
0.0
  0
LINE
  5
363
330
1F
100
AcDbEntity
  8
0
  6
CONTINUOUS
 62
     7
100
AcDbLine
 10
300.2746938396
 20
534.3323091831
 30
0.0
 11
301.1716655124
 21
534.3323091831
 31
0.0
  0
LINE
  5
364
330
1F
100
AcDbEntity
  8
0
  6
CONTINUOUS
 62
     7
100
AcDbLine
 10
277.1716653037
 20
532.3323097866
 30
0.0
 11
300.2746938396
 21
532.3323097866
 31
0.0
  0
LINE
  5
365
330
1F
100
AcDbEntity
  8
0
  6
CONTINUOUS
 62
     7
100
AcDbLine
 10
277.1716653037
 20
532.3323097866
 30
0.0
 11
277.1716653037
 21
534.3323091831
 31
0.0
  0
LINE
  5
366
330
1F
100
AcDbEntity
  8
0
  6
CONTINUOUS
 62
     7
100
AcDbLine
 10
281.6716669727
 20
534.3323091831
 30
0.0
 11
296.1716665554
 21
534.3323091831
 31
0.0
  0
LINE
  5
367
330
1F
100
AcDbEntity
  8
0
  6
CONTINUOUS
 62
     7
100
AcDbLine
 10
300.1716634858
 20
534.3323091831
 30
0.0
 11
300.2746938396
 21
534.3323091831
 31
0.0
  0
LINE
  5
368
330
1F
100
AcDbEntity
  8
0
  6
CONTINUOUS
 62
     7
100
AcDbLine
 10
270.6716651696
 20
532.3323097866
 30
0.0
 11
277.1716653037
 21
532.3323097866
 31
0.0
  0
LINE
  5
369
330
1F
100
AcDbEntity
  8
0
  6
CONTINUOUS
 62
     7
100
AcDbLine
 10
283.771665268
 20
551.1323095154
 30
0.0
 11
270.5716653395
 21
551.1323095154
 31
0.0
  0
LINE
  5
36A
330
1F
100
AcDbEntity
  8
0
  6
CONTINUOUS
 62
     7
100
AcDbLine
 10
273.6716656614
 20
530.3323094588
 30
0.0
 11
280.6716649461
 21
530.3323094588
 31
0.0
  0
LINE
  5
36B
330
1F
100
AcDbEntity
  8
0
  6
CONTINUOUS
 62
     7
100
AcDbLine
 10
273.6716656614
 20
531.3323096227
 30
0.0
 11
280.6716649461
 21
531.3323096227
 31
0.0
  0
LINE
  5
36C
330
1F
100
AcDbEntity
  8
0
  6
CONTINUOUS
 62
     7
100
AcDbLine
 10
269.3934901286
 20
548.8323095808
 30
0.0
 11
288.1716652441
 21
548.8323095808
 31
0.0
  0
LINE
  5
36D
330
1F
100
AcDbEntity
  8
0
  6
CONTINUOUS
 62
     7
100
AcDbLine
 10
266.1716653633
 20
548.8323095808
 30
0.0
 11
269.3934901286
 21
548.8323095808
 31
0.0
  0
LINE
  5
36E
330
1F
100
AcDbEntity
  8
0
  6
CONTINUOUS
 62
     7
100
AcDbLine
 10
268.1716656912
 20
550.8323095594
 30
0.0
 11
286.1716649163
 21
550.8323095594
 31
0.0
  0
LINE
  5
36F
330
1F
100
AcDbEntity
  8
0
  6
CONTINUOUS
 62
     8
100
AcDbLine
 10
320.7057392824
 20
532.5911289867
 30
0.0
 11
320.6716677773
 21
532.6002587419
 31
0.0
  0
LINE
  5
370
330
1F
100
AcDbEntity
  8
0
  6
CONTINUOUS
 62
     8
100
AcDbLine
 10
160.1375913847
 20
532.5911289867
 30
0.0
 11
160.1716628898
 21
532.6002587419
 31
0.0
  0
LINE
  5
371
330
1F
100
AcDbEntity
  8
0
  6
CONTINUOUS
 62
     8
100
AcDbLine
 10
184.8787716258
 20
544.3323094253
 30
0.0
 11
187.1716654528
 21
544.3323094253
 31
0.0
  0
LINE
  5
372
330
1F
100
AcDbEntity
  8
0
  6
CONTINUOUS
 62
     8
100
AcDbLine
 10
293.6716652143
 20
544.3323094253
 30
0.0
 11
295.9645590413
 21
544.3323094253
 31
0.0
  0
LINE
  5
373
330
1F
100
AcDbEntity
  8
0
  6
CONTINUOUS
 62
     8
100
AcDbLine
 10
270.3216648329
 20
550.8823094744
 30
0.0
 11
284.0216657746
 21
550.8823094744
 31
0.0
  0
LINE
  5
374
330
1F
100
AcDbEntity
  8
0
  6
CONTINUOUS
 62
     8
100
AcDbLine
 10
284.1716645885
 20
534.8323092651
 30
0.0
 11
281.6716669727
 21
534.8323092651
 31
0.0
  0
LINE
  5
375
330
1F
100
AcDbEntity
  8
0
  6
CONTINUOUS
 62
     7
100
AcDbLine
 10
431.1922052996
 20
297.2955321175
 30
0.0
 11
431.8922059731
 21
297.2955321175
 31
0.0
  0
LINE
  5
376
330
1F
100
AcDbEntity
  8
0
  6
CONTINUOUS
 62
     7
100
AcDbLine
 10
450.492205576
 20
296.5955319097
 30
0.0
 11
450.5422054911
 21
296.5955319097
 31
0.0
  0
LINE
  5
377
330
1F
100
AcDbEntity
  8
0
  6
CONTINUOUS
 62
     7
100
AcDbLine
 10
450.5422054911
 20
310.2955319201
 30
0.0
 11
450.492205576
 21
310.2955319201
 31
0.0
  0
ARC
  5
378
330
1F
100
AcDbEntity
  8
0
  6
CONTINUOUS
 62
     7
100
AcDbCircle
 10
450.5422055499
 20
296.8455319149
 30
0.0
 40
0.25
100
AcDbArc
 50
270.0
 51
0.0
  0
ARC
  5
379
330
1F
100
AcDbEntity
  8
0
  6
CONTINUOUS
 62
     7
100
AcDbCircle
 10
450.5422055499
 20
310.0455319149
 30
0.0
 40
0.25
100
AcDbArc
 50
0.0
 51
90.0
  0
LINE
  5
37A
330
1F
100
AcDbEntity
  8
0
  6
CONTINUOUS
 62
     7
100
AcDbLine
 10
430.9922056394
 20
306.9455320229
 30
0.0
 11
429.9922054754
 21
306.9455320229
 31
0.0
  0
LINE
  5
37B
330
1F
100
AcDbEntity
  8
0
  6
CONTINUOUS
 62
     7
100
AcDbLine
 10
429.9922054754
 20
299.9455318069
 30
0.0
 11
430.9922056394
 21
299.9455318069
 31
0.0
  0
LINE
  5
37C
330
1F
100
AcDbEntity
  8
0
  6
CONTINUOUS
 62
     7
100
AcDbLine
 10
431.9922058033
 20
306.445531941
 30
0.0
 11
430.9922056394
 21
306.445531941
 31
0.0
  0
LINE
  5
37D
330
1F
100
AcDbEntity
  8
0
  6
CONTINUOUS
 62
     7
100
AcDbLine
 10
430.9922056394
 20
300.4455318888
 30
0.0
 11
431.1922052996
 21
300.4455318888
 31
0.0
  0
LINE
  5
37E
330
1F
100
AcDbEntity
  8
0
  6
CONTINUOUS
 62
     7
100
AcDbLine
 10
431.8922059731
 20
300.4455318888
 30
0.0
 11
431.9922058033
 21
300.4455318888
 31
0.0
  0
LINE
  5
37F
330
1F
100
AcDbEntity
  8
0
  6
CONTINUOUS
 62
     7
100
AcDbLine
 10
448.4922055974
 20
314.4455318553
 30
0.0
 11
447.4922055499
 21
314.4455318553
 31
0.0
  0
LINE
  5
380
330
1F
100
AcDbEntity
  8
0
  6
CONTINUOUS
 62
     7
100
AcDbLine
 10
447.4922055499
 20
292.4455319745
 30
0.0
 11
448.4922055974
 21
292.4455319745
 31
0.0
  0
LINE
  5
381
330
1F
100
AcDbEntity
  8
0
  6
CONTINUOUS
 62
     7
100
AcDbLine
 10
448.4922055974
 20
292.4455319745
 30
0.0
 11
450.492205576
 21
294.4455323023
 31
0.0
  0
LINE
  5
382
330
1F
100
AcDbEntity
  8
0
  6
CONTINUOUS
 62
     7
100
AcDbLine
 10
450.492205576
 20
312.4455315275
 30
0.0
 11
448.4922055974
 21
314.4455318553
 31
0.0
  0
ARC
  5
383
330
1F
100
AcDbEntity
  8
0
  6
CONTINUOUS
 62
     7
100
AcDbCircle
 10
434.4922055499
 20
309.9455319149
 30
0.0
 40
0.5000000000000112
100
AcDbArc
 50
90.0
 51
180.0000121787
  0
ARC
  5
384
330
1F
100
AcDbEntity
  8
0
  6
CONTINUOUS
 62
     7
100
AcDbCircle
 10
434.4922055499
 20
296.9455319149
 30
0.0
 40
0.5000000000000112
100
AcDbArc
 50
179.9999878213
 51
270.0
  0
LINE
  5
385
330
1F
100
AcDbEntity
  8
0
  6
CONTINUOUS
 62
     7
100
AcDbLine
 10
435.4922054456
 20
310.445532131
 30
0.0
 11
434.4922052817
 21
310.445532131
 31
0.0
  0
LINE
  5
386
330
1F
100
AcDbEntity
  8
0
  6
CONTINUOUS
 62
     7
100
AcDbLine
 10
434.4922052817
 20
296.4455316988
 30
0.0
 11
435.4922054456
 21
296.4455316988
 31
0.0
  0
LINE
  5
387
330
1F
100
AcDbEntity
  8
0
  6
CONTINUOUS
 62
     7
100
AcDbLine
 10
445.9922055369
 20
191.2886788351
 30
0.0
 11
447.4922055499
 21
191.2886788351
 31
0.0
  0
LINE
  5
388
330
1F
100
AcDbEntity
  8
0
  6
CONTINUOUS
 62
     7
100
AcDbLine
 10
445.9922055369
 20
196.9455321533
 30
0.0
 11
445.9922055369
 21
191.2886788351
 31
0.0
  0
LINE
  5
389
330
1F
100
AcDbEntity
  8
0
  6
CONTINUOUS
 62
     7
100
AcDbLine
 10
445.9922055369
 20
196.9455321533
 30
0.0
 11
447.4922055499
 21
196.9455321533
 31
0.0
  0
LINE
  5
38A
330
1F
100
AcDbEntity
  8
0
  6
CONTINUOUS
 62
     7
100
AcDbLine
 10
447.4922055499
 20
196.9455321533
 30
0.0
 11
447.4922055499
 21
191.2886788351
 31
0.0
  0
LINE
  5
38B
330
1F
100
AcDbEntity
  8
0
  6
CONTINUOUS
 62
     7
100
AcDbLine
 10
445.9922055369
 20
201.4455338222
 30
0.0
 11
445.9922055369
 21
196.9455321533
 31
0.0
  0
LINE
  5
38C
330
1F
100
AcDbEntity
  8
0
  6
CONTINUOUS
 62
     7
100
AcDbLine
 10
447.4922055499
 20
201.4455338222
 30
0.0
 11
447.4922055499
 21
196.9455321533
 31
0.0
  0
LINE
  5
38D
330
1F
100
AcDbEntity
  8
0
  6
CONTINUOUS
 62
     7
100
AcDbLine
 10
445.9922055369
 20
201.4455338222
 30
0.0
 11
447.4922055499
 21
201.4455338222
 31
0.0
  0
LINE
  5
38E
330
1F
100
AcDbEntity
  8
0
  6
CONTINUOUS
 62
     7
100
AcDbLine
 10
445.9922055369
 20
175.2886762125
 30
0.0
 11
447.4922055499
 21
175.2886762125
 31
0.0
  0
LINE
  5
38F
330
1F
100
AcDbEntity
  8
0
  6
CONTINUOUS
 62
     7
100
AcDbLine
 10
445.9922055369
 20
191.2886788351
 30
0.0
 11
445.9922055369
 21
175.2886762125
 31
0.0
  0
LINE
  5
390
330
1F
100
AcDbEntity
  8
0
  6
CONTINUOUS
 62
     7
100
AcDbLine
 10
447.4922055499
 20
191.2886788351
 30
0.0
 11
447.4922055499
 21
175.2886762125
 31
0.0
  0
LINE
  5
391
330
1F
100
AcDbEntity
  8
0
  6
CONTINUOUS
 62
     7
100
AcDbLine
 10
445.9922055369
 20
172.9455282194
 30
0.0
 11
447.4922055499
 21
172.9455282194
 31
0.0
  0
LINE
  5
392
330
1F
100
AcDbEntity
  8
0
  6
CONTINUOUS
 62
     7
100
AcDbLine
 10
445.9922055369
 20
175.2886762125
 30
0.0
 11
445.9922055369
 21
172.9455282194
 31
0.0
  0
LINE
  5
393
330
1F
100
AcDbEntity
  8
0
  6
CONTINUOUS
 62
     7
100
AcDbLine
 10
447.4922055499
 20
175.2886762125
 30
0.0
 11
447.4922055499
 21
172.9455282194
 31
0.0
  0
LINE
  5
394
330
1F
100
AcDbEntity
  8
0
  6
CONTINUOUS
 62
     7
100
AcDbLine
 10
438.4922059374
 20
193.9455335242
 30
0.0
 11
438.4922059374
 21
192.4455304844
 31
0.0
  0
LINE
  5
395
330
1F
100
AcDbEntity
  8
0
  6
CONTINUOUS
 62
     7
100
AcDbLine
 10
438.4922059374
 20
192.4455304844
 30
0.0
 11
436.4922056095
 21
192.4455304844
 31
0.0
  0
LINE
  5
396
330
1F
100
AcDbEntity
  8
0
  6
CONTINUOUS
 62
     7
100
AcDbLine
 10
436.4922056095
 20
192.4455304844
 30
0.0
 11
436.4922056095
 21
193.9455335242
 31
0.0
  0
LINE
  5
397
330
1F
100
AcDbEntity
  8
0
  6
CONTINUOUS
 62
     7
100
AcDbLine
 10
436.4922056095
 20
193.9455335242
 30
0.0
 11
438.4922059374
 21
193.9455335242
 31
0.0
  0
LINE
  5
398
330
1F
100
AcDbEntity
  8
0
  6
CONTINUOUS
 62
     7
100
AcDbLine
 10
444.9922056058
 20
192.4455304844
 30
0.0
 11
444.9922056058
 21
193.9455335242
 31
0.0
  0
LINE
  5
399
330
1F
100
AcDbEntity
  8
0
  6
CONTINUOUS
 62
     7
100
AcDbLine
 10
438.4922059374
 20
193.9455335242
 30
0.0
 11
444.9922056058
 21
193.9455335242
 31
0.0
  0
LINE
  5
39A
330
1F
100
AcDbEntity
  8
0
  6
CONTINUOUS
 62
     7
100
AcDbLine
 10
438.4922059374
 20
192.4455304844
 30
0.0
 11
444.9922056058
 21
192.4455304844
 31
0.0
  0
ARC
  5
39B
330
1F
100
AcDbEntity
  8
0
  6
CONTINUOUS
 62
     7
100
AcDbCircle
 10
444.9922055499
 20
191.4455319149
 30
0.0
 40
2.500000000000018
100
AcDbArc
 50
66.4218215218
 51
90.0
  0
ARC
  5
39C
330
1F
100
AcDbEntity
  8
0
  6
CONTINUOUS
 62
     7
100
AcDbCircle
 10
444.9922055499
 20
191.4455319149
 30
0.0
 40
1.000000000000057
100
AcDbArc
 50
0.0
 51
90.0
  0
ARC
  5
39D
330
1F
100
AcDbEntity
  8
0
  6
CONTINUOUS
 62
     7
100
AcDbCircle
 10
436.4922055499
 20
194.9455319149
 30
0.0
 40
2.5
100
AcDbArc
 50
180.0
 51
270.0
  0
LINE
  5
39E
330
1F
100
AcDbEntity
  8
0
  6
CONTINUOUS
 62
     7
100
AcDbLine
 10
435.4922054456
 20
194.9455355508
 30
0.0
 11
433.9922051998
 21
194.9455355508
 31
0.0
  0
ARC
  5
39F
330
1F
100
AcDbEntity
  8
0
  6
CONTINUOUS
 62
     7
100
AcDbCircle
 10
436.4922055499
 20
194.9455319149
 30
0.0
 40
1.0
100
AcDbArc
 50
180.0
 51
270.0
  0
LINE
  5
3A0
330
1F
100
AcDbEntity
  8
0
  6
CONTINUOUS
 62
     7
100
AcDbLine
 10
433.9922051998
 20
194.9455355508
 30
0.0
 11
433.9922051998
 21
195.9455301268
 31
0.0
  0
LINE
  5
3A1
330
1F
100
AcDbEntity
  8
0
  6
CONTINUOUS
 62
     7
100
AcDbLine
 10
435.4922054456
 20
195.9455301268
 30
0.0
 11
433.9922051998
 21
195.9455301268
 31
0.0
  0
LINE
  5
3A2
330
1F
100
AcDbEntity
  8
0
  6
CONTINUOUS
 62
     7
100
AcDbLine
 10
435.4922054456
 20
194.9455355508
 30
0.0
 11
435.4922054456
 21
195.9455301268
 31
0.0
  0
LINE
  5
3A3
330
1F
100
AcDbEntity
  8
0
  6
CONTINUOUS
 62
     7
100
AcDbLine
 10
433.9922051998
 20
198.9455287558
 30
0.0
 11
435.4922054456
 21
198.9455287558
 31
0.0
  0
LINE
  5
3A4
330
1F
100
AcDbEntity
  8
0
  6
CONTINUOUS
 62
     7
100
AcDbLine
 10
435.4922054456
 20
198.9455287558
 30
0.0
 11
435.4922054456
 21
198.4455351931
 31
0.0
  0
LINE
  5
3A5
330
1F
100
AcDbEntity
  8
0
  6
CONTINUOUS
 62
     7
100
AcDbLine
 10
435.4922054456
 20
196.44553114
 30
0.0
 11
435.4922054456
 21
195.9455301268
 31
0.0
  0
LINE
  5
3A6
330
1F
100
AcDbEntity
  8
0
  6
CONTINUOUS
 62
     7
100
AcDbLine
 10
433.9922051998
 20
195.9455301268
 30
0.0
 11
433.9922051998
 21
198.9455287558
 31
0.0
  0
LINE
  5
3A7
330
1F
100
AcDbEntity
  8
0
  6
CONTINUOUS
 62
     7
100
AcDbLine
 10
445.9922055369
 20
405.4455300075
 30
0.0
 11
447.4922055499
 21
405.4455300075
 31
0.0
  0
LINE
  5
3A8
330
1F
100
AcDbEntity
  8
0
  6
CONTINUOUS
 62
     7
100
AcDbLine
 10
445.9922055369
 20
409.9455316765
 30
0.0
 11
447.4922055499
 21
409.9455316765
 31
0.0
  0
LINE
  5
3A9
330
1F
100
AcDbEntity
  8
0
  6
CONTINUOUS
 62
     7
100
AcDbLine
 10
447.4922055499
 20
409.9455316765
 30
0.0
 11
447.4922055499
 21
405.4455300075
 31
0.0
  0
LINE
  5
3AA
330
1F
100
AcDbEntity
  8
0
  6
CONTINUOUS
 62
     7
100
AcDbLine
 10
445.9922055369
 20
409.9455316765
 30
0.0
 11
445.9922055369
 21
405.4455300075
 31
0.0
  0
LINE
  5
3AB
330
1F
100
AcDbEntity
  8
0
  6
CONTINUOUS
 62
     7
100
AcDbLine
 10
445.9922055369
 20
415.6023849947
 30
0.0
 11
447.4922055499
 21
415.6023849947
 31
0.0
  0
LINE
  5
3AC
330
1F
100
AcDbEntity
  8
0
  6
CONTINUOUS
 62
     7
100
AcDbLine
 10
447.4922055499
 20
415.6023849947
 30
0.0
 11
447.4922055499
 21
409.9455316765
 31
0.0
  0
LINE
  5
3AD
330
1F
100
AcDbEntity
  8
0
  6
CONTINUOUS
 62
     7
100
AcDbLine
 10
445.9922055369
 20
415.6023849947
 30
0.0
 11
445.9922055369
 21
409.9455316765
 31
0.0
  0
LINE
  5
3AE
330
1F
100
AcDbEntity
  8
0
  6
CONTINUOUS
 62
     7
100
AcDbLine
 10
445.9922055369
 20
431.6023876173
 30
0.0
 11
447.4922055499
 21
431.6023876173
 31
0.0
  0
LINE
  5
3AF
330
1F
100
AcDbEntity
  8
0
  6
CONTINUOUS
 62
     7
100
AcDbLine
 10
447.4922055499
 20
431.6023876173
 30
0.0
 11
447.4922055499
 21
415.6023849947
 31
0.0
  0
LINE
  5
3B0
330
1F
100
AcDbEntity
  8
0
  6
CONTINUOUS
 62
     7
100
AcDbLine
 10
445.9922055369
 20
431.6023876173
 30
0.0
 11
445.9922055369
 21
415.6023849947
 31
0.0
  0
LINE
  5
3B1
330
1F
100
AcDbEntity
  8
0
  6
CONTINUOUS
 62
     7
100
AcDbLine
 10
445.9922055369
 20
433.9455356104
 30
0.0
 11
447.4922055499
 21
433.9455356104
 31
0.0
  0
LINE
  5
3B2
330
1F
100
AcDbEntity
  8
0
  6
CONTINUOUS
 62
     7
100
AcDbLine
 10
447.4922055499
 20
433.9455356104
 30
0.0
 11
447.4922055499
 21
431.6023876173
 31
0.0
  0
LINE
  5
3B3
330
1F
100
AcDbEntity
  8
0
  6
CONTINUOUS
 62
     7
100
AcDbLine
 10
445.9922055369
 20
433.9455356104
 30
0.0
 11
445.9922055369
 21
431.6023876173
 31
0.0
  0
LINE
  5
3B4
330
1F
100
AcDbEntity
  8
0
  6
CONTINUOUS
 62
     7
100
AcDbLine
 10
436.4922056095
 20
412.9455303056
 30
0.0
 11
436.4922056095
 21
414.4455333454
 31
0.0
  0
LINE
  5
3B5
330
1F
100
AcDbEntity
  8
0
  6
CONTINUOUS
 62
     7
100
AcDbLine
 10
438.4922059374
 20
414.4455333454
 30
0.0
 11
438.4922059374
 21
412.9455303056
 31
0.0
  0
LINE
  5
3B6
330
1F
100
AcDbEntity
  8
0
  6
CONTINUOUS
 62
     7
100
AcDbLine
 10
438.4922059374
 20
412.9455303056
 30
0.0
 11
436.4922056095
 21
412.9455303056
 31
0.0
  0
LINE
  5
3B7
330
1F
100
AcDbEntity
  8
0
  6
CONTINUOUS
 62
     7
100
AcDbLine
 10
436.4922056095
 20
414.4455333454
 30
0.0
 11
438.4922059374
 21
414.4455333454
 31
0.0
  0
LINE
  5
3B8
330
1F
100
AcDbEntity
  8
0
  6
CONTINUOUS
 62
     7
100
AcDbLine
 10
444.9922056058
 20
414.4455333454
 30
0.0
 11
444.9922056058
 21
412.9455303056
 31
0.0
  0
LINE
  5
3B9
330
1F
100
AcDbEntity
  8
0
  6
CONTINUOUS
 62
     7
100
AcDbLine
 10
444.9922056058
 20
412.9455303056
 30
0.0
 11
438.4922059374
 21
412.9455303056
 31
0.0
  0
LINE
  5
3BA
330
1F
100
AcDbEntity
  8
0
  6
CONTINUOUS
 62
     7
100
AcDbLine
 10
444.9922056058
 20
414.4455333454
 30
0.0
 11
438.4922059374
 21
414.4455333454
 31
0.0
  0
ARC
  5
3BB
330
1F
100
AcDbEntity
  8
0
  6
CONTINUOUS
 62
     7
100
AcDbCircle
 10
444.9922055499
 20
415.4455319149
 30
0.0
 40
1.000000000000057
100
AcDbArc
 50
270.0
 51
0.0
  0
ARC
  5
3BC
330
1F
100
AcDbEntity
  8
0
  6
CONTINUOUS
 62
     7
100
AcDbCircle
 10
444.9922055499
 20
415.4455319149
 30
0.0
 40
2.500000000000018
100
AcDbArc
 50
270.0
 51
293.5781784782
  0
LINE
  5
3BD
330
1F
100
AcDbEntity
  8
0
  6
CONTINUOUS
 62
     7
100
AcDbLine
 10
433.9922051998
 20
218.4455310208
 30
0.0
 11
435.4922054456
 21
218.4455310208
 31
0.0
  0
LINE
  5
3BE
330
1F
100
AcDbEntity
  8
0
  6
CONTINUOUS
 62
     7
100
AcDbLine
 10
435.4922054456
 20
215.4455323917
 30
0.0
 11
433.9922051998
 21
215.4455323917
 31
0.0
  0
LINE
  5
3BF
330
1F
100
AcDbEntity
  8
0
  6
CONTINUOUS
 62
     7
100
AcDbLine
 10
433.9922051998
 20
215.4455323917
 30
0.0
 11
433.9922051998
 21
218.4455310208
 31
0.0
  0
LINE
  5
3C0
330
1F
100
AcDbEntity
  8
0
  6
CONTINUOUS
 62
     7
100
AcDbLine
 10
435.4922054456
 20
388.445532809
 30
0.0
 11
433.9922051998
 21
388.445532809
 31
0.0
  0
LINE
  5
3C1
330
1F
100
AcDbEntity
  8
0
  6
CONTINUOUS
 62
     7
100
AcDbLine
 10
433.9922051998
 20
218.4455310208
 30
0.0
 11
433.9922051998
 21
221.9455306632
 31
0.0
  0
LINE
  5
3C2
330
1F
100
AcDbEntity
  8
0
  6
CONTINUOUS
 62
     7
100
AcDbLine
 10
433.9922051998
 20
224.9455292923
 30
0.0
 11
433.9922051998
 21
225.4455303056
 31
0.0
  0
LINE
  5
3C3
330
1F
100
AcDbEntity
  8
0
  6
CONTINUOUS
 62
     7
100
AcDbLine
 10
433.9922051998
 20
241.4455329282
 30
0.0
 11
433.9922051998
 21
241.9455302162
 31
0.0
  0
LINE
  5
3C4
330
1F
100
AcDbEntity
  8
0
  6
CONTINUOUS
 62
     7
100
AcDbLine
 10
433.9922051998
 20
244.9455325705
 30
0.0
 11
433.9922051998
 21
296.9455317808
 31
0.0
  0
LINE
  5
3C5
330
1F
100
AcDbEntity
  8
0
  6
CONTINUOUS
 62
     7
100
AcDbLine
 10
433.9922051998
 20
309.945532049
 30
0.0
 11
433.9922051998
 21
361.9455312592
 31
0.0
  0
LINE
  5
3C6
330
1F
100
AcDbEntity
  8
0
  6
CONTINUOUS
 62
     7
100
AcDbLine
 10
433.9922051998
 20
364.9455336136
 30
0.0
 11
433.9922051998
 21
365.4455309016
 31
0.0
  0
LINE
  5
3C7
330
1F
100
AcDbEntity
  8
0
  6
CONTINUOUS
 62
     7
100
AcDbLine
 10
433.9922051998
 20
381.4455335242
 30
0.0
 11
433.9922051998
 21
381.9455345375
 31
0.0
  0
LINE
  5
3C8
330
1F
100
AcDbEntity
  8
0
  6
CONTINUOUS
 62
     7
100
AcDbLine
 10
433.9922051998
 20
384.9455331666
 30
0.0
 11
433.9922051998
 21
388.445532809
 31
0.0
  0
LINE
  5
3C9
330
1F
100
AcDbEntity
  8
0
  6
CONTINUOUS
 62
     7
100
AcDbLine
 10
433.9922051998
 20
391.4455314381
 30
0.0
 11
435.4922054456
 21
391.4455314381
 31
0.0
  0
LINE
  5
3CA
330
1F
100
AcDbEntity
  8
0
  6
CONTINUOUS
 62
     7
100
AcDbLine
 10
433.9922051998
 20
388.445532809
 30
0.0
 11
433.9922051998
 21
391.4455314381
 31
0.0
  0
LINE
  5
3CB
330
1F
100
AcDbEntity
  8
0
  6
CONTINUOUS
 62
     7
100
AcDbLine
 10
446.1297824867
 20
241.4455329282
 30
0.0
 11
446.1297824867
 21
225.4455303056
 31
0.0
  0
LINE
  5
3CC
330
1F
100
AcDbEntity
  8
0
  6
CONTINUOUS
 62
     7
100
AcDbLine
 10
432.2510250034
 20
225.4455303056
 30
0.0
 11
432.2510250034
 21
241.4455329282
 31
0.0
  0
LINE
  5
3CD
330
1F
100
AcDbEntity
  8
0
  6
CONTINUOUS
 62
     7
100
AcDbLine
 10
432.2510250034
 20
241.4455329282
 30
0.0
 11
446.1297824867
 21
241.4455329282
 31
0.0
  0
LINE
  5
3CE
330
1F
100
AcDbEntity
  8
0
  6
CONTINUOUS
 62
     7
100
AcDbLine
 10
446.1297824867
 20
225.4455303056
 30
0.0
 11
432.2510250034
 21
225.4455303056
 31
0.0
  0
LINE
  5
3CF
330
1F
100
AcDbEntity
  8
0
  6
CONTINUOUS
 62
     7
100
AcDbLine
 10
446.1297824867
 20
365.4455309016
 30
0.0
 11
446.1297824867
 21
381.4455335242
 31
0.0
  0
LINE
  5
3D0
330
1F
100
AcDbEntity
  8
0
  6
CONTINUOUS
 62
     7
100
AcDbLine
 10
432.2510250034
 20
365.4455309016
 30
0.0
 11
446.1297824867
 21
365.4455309016
 31
0.0
  0
LINE
  5
3D1
330
1F
100
AcDbEntity
  8
0
  6
CONTINUOUS
 62
     7
100
AcDbLine
 10
432.2510250034
 20
365.4455309016
 30
0.0
 11
432.2510250034
 21
381.4455335242
 31
0.0
  0
LINE
  5
3D2
330
1F
100
AcDbEntity
  8
0
  6
CONTINUOUS
 62
     7
100
AcDbLine
 10
446.1297824867
 20
381.4455335242
 30
0.0
 11
432.2510250034
 21
381.4455335242
 31
0.0
  0
LINE
  5
3D3
330
1F
100
AcDbEntity
  8
0
  6
CONTINUOUS
 62
     7
100
AcDbLine
 10
446.5180111122
 20
241.4455329282
 30
0.0
 11
446.1297824867
 21
241.4455329282
 31
0.0
  0
LINE
  5
3D4
330
1F
100
AcDbEntity
  8
0
  6
CONTINUOUS
 62
     7
100
AcDbLine
 10
446.5180111122
 20
241.4455329282
 30
0.0
 11
446.5180111122
 21
225.4455303056
 31
0.0
  0
LINE
  5
3D5
330
1F
100
AcDbEntity
  8
0
  6
CONTINUOUS
 62
     7
100
AcDbLine
 10
446.5180111122
 20
225.4455303056
 30
0.0
 11
446.1297824867
 21
225.4455303056
 31
0.0
  0
LINE
  5
3D6
330
1F
100
AcDbEntity
  8
0
  6
CONTINUOUS
 62
     7
100
AcDbLine
 10
446.5180111122
 20
365.4455309016
 30
0.0
 11
446.5180111122
 21
381.4455335242
 31
0.0
  0
LINE
  5
3D7
330
1F
100
AcDbEntity
  8
0
  6
CONTINUOUS
 62
     7
100
AcDbLine
 10
446.5180111122
 20
365.4455309016
 30
0.0
 11
446.1297824867
 21
365.4455309016
 31
0.0
  0
LINE
  5
3D8
330
1F
100
AcDbEntity
  8
0
  6
CONTINUOUS
 62
     7
100
AcDbLine
 10
446.5180111122
 20
381.4455335242
 30
0.0
 11
446.1297824867
 21
381.4455335242
 31
0.0
  0
LINE
  5
3D9
330
1F
100
AcDbEntity
  8
0
  6
CONTINUOUS
 62
     7
100
AcDbLine
 10
431.9922058033
 20
365.4455309016
 30
0.0
 11
432.2510250034
 21
365.4455309016
 31
0.0
  0
LINE
  5
3DA
330
1F
100
AcDbEntity
  8
0
  6
CONTINUOUS
 62
     7
100
AcDbLine
 10
431.9922058033
 20
381.4455335242
 30
0.0
 11
431.9922058033
 21
365.4455309016
 31
0.0
  0
LINE
  5
3DB
330
1F
100
AcDbEntity
  8
0
  6
CONTINUOUS
 62
     7
100
AcDbLine
 10
432.2510250034
 20
381.4455335242
 30
0.0
 11
431.9922058033
 21
381.4455335242
 31
0.0
  0
LINE
  5
3DC
330
1F
100
AcDbEntity
  8
0
  6
CONTINUOUS
 62
     7
100
AcDbLine
 10
432.2510250034
 20
241.4455329282
 30
0.0
 11
431.9922058033
 21
241.4455329282
 31
0.0
  0
LINE
  5
3DD
330
1F
100
AcDbEntity
  8
0
  6
CONTINUOUS
 62
     7
100
AcDbLine
 10
431.9922058033
 20
225.4455303056
 30
0.0
 11
432.2510250034
 21
225.4455303056
 31
0.0
  0
LINE
  5
3DE
330
1F
100
AcDbEntity
  8
0
  6
CONTINUOUS
 62
     7
100
AcDbLine
 10
431.9922058033
 20
241.4455329282
 30
0.0
 11
431.9922058033
 21
225.4455303056
 31
0.0
  0
LINE
  5
3DF
330
1F
100
AcDbEntity
  8
0
  6
CONTINUOUS
 62
     7
100
AcDbLine
 10
444.9922056058
 20
364.9455336136
 30
0.0
 11
444.9922056058
 21
361.9455312592
 31
0.0
  0
LINE
  5
3E0
330
1F
100
AcDbEntity
  8
0
  6
CONTINUOUS
 62
     7
100
AcDbLine
 10
444.9922056058
 20
361.9455312592
 30
0.0
 11
430.9922056394
 21
361.9455312592
 31
0.0
  0
ARC
  5
3E1
330
1F
100
AcDbEntity
  8
0
  6
CONTINUOUS
 62
     7
100
AcDbCircle
 10
430.9922055499
 20
363.9455319149
 30
0.0
 40
2.0
100
AcDbArc
 50
180.0
 51
270.0
  0
LINE
  5
3E2
330
1F
100
AcDbEntity
  8
0
  6
CONTINUOUS
 62
     7
100
AcDbLine
 10
428.9922053115
 20
363.9455315871
 30
0.0
 11
428.9922053115
 21
382.9455291135
 31
0.0
  0
ARC
  5
3E3
330
1F
100
AcDbEntity
  8
0
  6
CONTINUOUS
 62
     7
100
AcDbCircle
 10
430.9922055499
 20
382.9455319149
 30
0.0
 40
2.0
100
AcDbArc
 50
90.0
 51
180.0
  0
LINE
  5
3E4
330
1F
100
AcDbEntity
  8
0
  6
CONTINUOUS
 62
     7
100
AcDbLine
 10
430.9922056394
 20
384.9455331666
 30
0.0
 11
444.9922056058
 21
384.9455331666
 31
0.0
  0
LINE
  5
3E5
330
1F
100
AcDbEntity
  8
0
  6
CONTINUOUS
 62
     7
100
AcDbLine
 10
444.9922056058
 20
384.9455331666
 30
0.0
 11
444.9922056058
 21
381.9455345375
 31
0.0
  0
LINE
  5
3E6
330
1F
100
AcDbEntity
  8
0
  6
CONTINUOUS
 62
     7
100
AcDbLine
 10
431.9922058033
 20
381.9455345375
 30
0.0
 11
444.9922056058
 21
381.9455345375
 31
0.0
  0
LINE
  5
3E7
330
1F
100
AcDbEntity
  8
0
  6
CONTINUOUS
 62
     7
100
AcDbLine
 10
431.9922058033
 20
381.4455335242
 30
0.0
 11
431.9922058033
 21
381.9455345375
 31
0.0
  0
LINE
  5
3E8
330
1F
100
AcDbEntity
  8
0
  6
CONTINUOUS
 62
     7
100
AcDbLine
 10
431.9922058033
 20
364.9455336136
 30
0.0
 11
431.9922058033
 21
365.4455309016
 31
0.0
  0
LINE
  5
3E9
330
1F
100
AcDbEntity
  8
0
  6
CONTINUOUS
 62
     7
100
AcDbLine
 10
444.9922056058
 20
364.9455336136
 30
0.0
 11
431.9922058033
 21
364.9455336136
 31
0.0
  0
LINE
  5
3EA
330
1F
100
AcDbEntity
  8
0
  6
CONTINUOUS
 62
     7
100
AcDbLine
 10
431.9922058033
 20
225.4455303056
 30
0.0
 11
431.9922058033
 21
224.9455292923
 31
0.0
  0
LINE
  5
3EB
330
1F
100
AcDbEntity
  8
0
  6
CONTINUOUS
 62
     7
100
AcDbLine
 10
431.9922058033
 20
224.9455292923
 30
0.0
 11
444.9922056058
 21
224.9455292923
 31
0.0
  0
LINE
  5
3EC
330
1F
100
AcDbEntity
  8
0
  6
CONTINUOUS
 62
     7
100
AcDbLine
 10
444.9922056058
 20
224.9455292923
 30
0.0
 11
444.9922056058
 21
221.9455306632
 31
0.0
  0
LINE
  5
3ED
330
1F
100
AcDbEntity
  8
0
  6
CONTINUOUS
 62
     7
100
AcDbLine
 10
430.9922056394
 20
221.9455306632
 30
0.0
 11
444.9922056058
 21
221.9455306632
 31
0.0
  0
ARC
  5
3EE
330
1F
100
AcDbEntity
  8
0
  6
CONTINUOUS
 62
     7
100
AcDbCircle
 10
430.9922055499
 20
223.9455319149
 30
0.0
 40
2.000000000000028
100
AcDbArc
 50
180.0
 51
270.0
  0
LINE
  5
3EF
330
1F
100
AcDbEntity
  8
0
  6
CONTINUOUS
 62
     7
100
AcDbLine
 10
428.9922053115
 20
242.9455322427
 30
0.0
 11
428.9922053115
 21
223.9455347163
 31
0.0
  0
ARC
  5
3F0
330
1F
100
AcDbEntity
  8
0
  6
CONTINUOUS
 62
     7
100
AcDbCircle
 10
430.9922055499
 20
242.9455319149
 30
0.0
 40
2.0
100
AcDbArc
 50
90.0
 51
180.0
  0
LINE
  5
3F1
330
1F
100
AcDbEntity
  8
0
  6
CONTINUOUS
 62
     7
100
AcDbLine
 10
444.9922056058
 20
244.9455325705
 30
0.0
 11
430.9922056394
 21
244.9455325705
 31
0.0
  0
LINE
  5
3F2
330
1F
100
AcDbEntity
  8
0
  6
CONTINUOUS
 62
     7
100
AcDbLine
 10
444.9922056058
 20
244.9455325705
 30
0.0
 11
444.9922056058
 21
241.9455302162
 31
0.0
  0
LINE
  5
3F3
330
1F
100
AcDbEntity
  8
0
  6
CONTINUOUS
 62
     7
100
AcDbLine
 10
444.9922056058
 20
241.9455302162
 30
0.0
 11
431.9922058033
 21
241.9455302162
 31
0.0
  0
LINE
  5
3F4
330
1F
100
AcDbEntity
  8
0
  6
CONTINUOUS
 62
     7
100
AcDbLine
 10
431.9922058033
 20
241.9455302162
 30
0.0
 11
431.9922058033
 21
241.4455329282
 31
0.0
  0
LINE
  5
3F5
330
1F
100
AcDbEntity
  8
0
  6
CONTINUOUS
 62
     7
100
AcDbLine
 10
444.9922056058
 20
244.9455325705
 30
0.0
 11
447.4922055499
 21
244.9455325705
 31
0.0
  0
LINE
  5
3F6
330
1F
100
AcDbEntity
  8
0
  6
CONTINUOUS
 62
     7
100
AcDbLine
 10
447.4922055499
 20
244.9455325705
 30
0.0
 11
447.4922055499
 21
241.9455302162
 31
0.0
  0
LINE
  5
3F7
330
1F
100
AcDbEntity
  8
0
  6
CONTINUOUS
 62
     7
100
AcDbLine
 10
447.4922055499
 20
241.9455302162
 30
0.0
 11
444.9922056058
 21
241.9455302162
 31
0.0
  0
LINE
  5
3F8
330
1F
100
AcDbEntity
  8
0
  6
CONTINUOUS
 62
     7
100
AcDbLine
 10
447.4922055499
 20
224.9455292923
 30
0.0
 11
447.4922055499
 21
221.9455306632
 31
0.0
  0
LINE
  5
3F9
330
1F
100
AcDbEntity
  8
0
  6
CONTINUOUS
 62
     7
100
AcDbLine
 10
447.4922055499
 20
221.9455306632
 30
0.0
 11
444.9922056058
 21
221.9455306632
 31
0.0
  0
LINE
  5
3FA
330
1F
100
AcDbEntity
  8
0
  6
CONTINUOUS
 62
     7
100
AcDbLine
 10
444.9922056058
 20
224.9455292923
 30
0.0
 11
447.4922055499
 21
224.9455292923
 31
0.0
  0
LINE
  5
3FB
330
1F
100
AcDbEntity
  8
0
  6
CONTINUOUS
 62
     7
100
AcDbLine
 10
447.4922055499
 20
364.9455336136
 30
0.0
 11
444.9922056058
 21
364.9455336136
 31
0.0
  0
LINE
  5
3FC
330
1F
100
AcDbEntity
  8
0
  6
CONTINUOUS
 62
     7
100
AcDbLine
 10
447.4922055499
 20
364.9455336136
 30
0.0
 11
447.4922055499
 21
361.9455312592
 31
0.0
  0
LINE
  5
3FD
330
1F
100
AcDbEntity
  8
0
  6
CONTINUOUS
 62
     7
100
AcDbLine
 10
447.4922055499
 20
361.9455312592
 30
0.0
 11
444.9922056058
 21
361.9455312592
 31
0.0
  0
LINE
  5
3FE
330
1F
100
AcDbEntity
  8
0
  6
CONTINUOUS
 62
     7
100
AcDbLine
 10
444.9922056058
 20
384.9455331666
 30
0.0
 11
447.4922055499
 21
384.9455331666
 31
0.0
  0
LINE
  5
3FF
330
1F
100
AcDbEntity
  8
0
  6
CONTINUOUS
 62
     7
100
AcDbLine
 10
447.4922055499
 20
384.9455331666
 30
0.0
 11
447.4922055499
 21
381.9455345375
 31
0.0
  0
LINE
  5
400
330
1F
100
AcDbEntity
  8
0
  6
CONTINUOUS
 62
     7
100
AcDbLine
 10
444.9922056058
 20
381.9455345375
 30
0.0
 11
447.4922055499
 21
381.9455345375
 31
0.0
  0
LINE
  5
401
330
1F
100
AcDbEntity
  8
0
  6
CONTINUOUS
 62
     7
100
AcDbLine
 10
445.9922055369
 20
221.4455296499
 30
0.0
 11
445.9922055369
 21
201.4455338222
 31
0.0
  0
LINE
  5
402
330
1F
100
AcDbEntity
  8
0
  6
CONTINUOUS
 62
     7
100
AcDbLine
 10
445.9922055369
 20
221.4455296499
 30
0.0
 11
447.4922055499
 21
221.4455296499
 31
0.0
  0
LINE
  5
403
330
1F
100
AcDbEntity
  8
0
  6
CONTINUOUS
 62
     7
100
AcDbLine
 10
447.4922055499
 20
221.4455296499
 30
0.0
 11
447.4922055499
 21
201.4455338222
 31
0.0
  0
LINE
  5
404
330
1F
100
AcDbEntity
  8
0
  6
CONTINUOUS
 62
     7
100
AcDbLine
 10
445.9922055369
 20
245.4455335838
 30
0.0
 11
447.4922055499
 21
245.4455335838
 31
0.0
  0
LINE
  5
405
330
1F
100
AcDbEntity
  8
0
  6
CONTINUOUS
 62
     7
100
AcDbLine
 10
445.9922055369
 20
361.445530246
 30
0.0
 11
447.4922055499
 21
361.445530246
 31
0.0
  0
LINE
  5
406
330
1F
100
AcDbEntity
  8
0
  6
CONTINUOUS
 62
     7
100
AcDbLine
 10
445.9922055369
 20
361.445530246
 30
0.0
 11
445.9922055369
 21
245.4455335838
 31
0.0
  0
LINE
  5
407
330
1F
100
AcDbEntity
  8
0
  6
CONTINUOUS
 62
     7
100
AcDbLine
 10
447.4922055499
 20
361.445530246
 30
0.0
 11
447.4922055499
 21
245.4455335838
 31
0.0
  0
LINE
  5
408
330
1F
100
AcDbEntity
  8
0
  6
CONTINUOUS
 62
     7
100
AcDbLine
 10
445.9922055369
 20
385.4455341799
 30
0.0
 11
447.4922055499
 21
385.4455341799
 31
0.0
  0
LINE
  5
409
330
1F
100
AcDbEntity
  8
0
  6
CONTINUOUS
 62
     7
100
AcDbLine
 10
445.9922055369
 20
405.4455300075
 30
0.0
 11
445.9922055369
 21
385.4455341799
 31
0.0
  0
LINE
  5
40A
330
1F
100
AcDbEntity
  8
0
  6
CONTINUOUS
 62
     7
100
AcDbLine
 10
447.4922055499
 20
405.4455300075
 30
0.0
 11
447.4922055499
 21
385.4455341799
 31
0.0
  0
LINE
  5
40B
330
1F
100
AcDbEntity
  8
0
  6
CONTINUOUS
 62
     7
100
AcDbLine
 10
445.9922055369
 20
221.9455306632
 30
0.0
 11
445.9922055369
 21
221.4455296499
 31
0.0
  0
LINE
  5
40C
330
1F
100
AcDbEntity
  8
0
  6
CONTINUOUS
 62
     7
100
AcDbLine
 10
447.4922055499
 20
221.9455306632
 30
0.0
 11
447.4922055499
 21
221.4455296499
 31
0.0
  0
LINE
  5
40D
330
1F
100
AcDbEntity
  8
0
  6
CONTINUOUS
 62
     7
100
AcDbLine
 10
445.9922055369
 20
245.4455335838
 30
0.0
 11
445.9922055369
 21
244.9455325705
 31
0.0
  0
LINE
  5
40E
330
1F
100
AcDbEntity
  8
0
  6
CONTINUOUS
 62
     7
100
AcDbLine
 10
447.4922055499
 20
245.4455335838
 30
0.0
 11
447.4922055499
 21
244.9455325705
 31
0.0
  0
LINE
  5
40F
330
1F
100
AcDbEntity
  8
0
  6
CONTINUOUS
 62
     7
100
AcDbLine
 10
445.9922055369
 20
361.9455312592
 30
0.0
 11
445.9922055369
 21
361.445530246
 31
0.0
  0
LINE
  5
410
330
1F
100
AcDbEntity
  8
0
  6
CONTINUOUS
 62
     7
100
AcDbLine
 10
447.4922055499
 20
361.9455312592
 30
0.0
 11
447.4922055499
 21
361.445530246
 31
0.0
  0
LINE
  5
411
330
1F
100
AcDbEntity
  8
0
  6
CONTINUOUS
 62
     7
100
AcDbLine
 10
445.9922055369
 20
385.4455341799
 30
0.0
 11
445.9922055369
 21
384.9455331666
 31
0.0
  0
LINE
  5
412
330
1F
100
AcDbEntity
  8
0
  6
CONTINUOUS
 62
     7
100
AcDbLine
 10
447.4922055499
 20
385.4455341799
 30
0.0
 11
447.4922055499
 21
384.9455331666
 31
0.0
  0
LINE
  5
413
330
1F
100
AcDbEntity
  8
0
  6
CONTINUOUS
 62
     7
100
AcDbLine
 10
445.9922055369
 20
224.9455292923
 30
0.0
 11
445.9922055369
 21
225.4455303056
 31
0.0
  0
LINE
  5
414
330
1F
100
AcDbEntity
  8
0
  6
CONTINUOUS
 62
     7
100
AcDbLine
 10
445.9922055369
 20
241.4455329282
 30
0.0
 11
445.9922055369
 21
241.9455302162
 31
0.0
  0
LINE
  5
415
330
1F
100
AcDbEntity
  8
0
  6
CONTINUOUS
 62
     7
100
AcDbLine
 10
447.4922055499
 20
224.9455292923
 30
0.0
 11
447.4922055499
 21
241.9455302162
 31
0.0
  0
LINE
  5
416
330
1F
100
AcDbEntity
  8
0
  6
CONTINUOUS
 62
     7
100
AcDbLine
 10
445.9922055369
 20
364.9455336136
 30
0.0
 11
445.9922055369
 21
365.4455309016
 31
0.0
  0
LINE
  5
417
330
1F
100
AcDbEntity
  8
0
  6
CONTINUOUS
 62
     7
100
AcDbLine
 10
445.9922055369
 20
381.4455335242
 30
0.0
 11
445.9922055369
 21
381.9455345375
 31
0.0
  0
LINE
  5
418
330
1F
100
AcDbEntity
  8
0
  6
CONTINUOUS
 62
     7
100
AcDbLine
 10
447.4922055499
 20
364.9455336136
 30
0.0
 11
447.4922055499
 21
381.9455345375
 31
0.0
  0
LINE
  5
419
330
1F
100
AcDbEntity
  8
0
  6
CONTINUOUS
 62
     7
100
AcDbLine
 10
444.9922056058
 20
201.4455338222
 30
0.0
 11
445.9922055369
 21
201.4455338222
 31
0.0
  0
LINE
  5
41A
330
1F
100
AcDbEntity
  8
0
  6
CONTINUOUS
 62
     7
100
AcDbLine
 10
445.9922055369
 20
405.4455300075
 30
0.0
 11
444.9922056058
 21
405.4455300075
 31
0.0
  0
LINE
  5
41B
330
1F
100
AcDbEntity
  8
0
  6
CONTINUOUS
 62
     7
100
AcDbLine
 10
438.4922059374
 20
405.4455300075
 30
0.0
 11
436.4922056095
 21
403.445533405
 31
0.0
  0
LINE
  5
41C
330
1F
100
AcDbEntity
  8
0
  6
CONTINUOUS
 62
     7
100
AcDbLine
 10
438.4922059374
 20
405.4455300075
 30
0.0
 11
444.9922056058
 21
405.4455300075
 31
0.0
  0
LINE
  5
41D
330
1F
100
AcDbEntity
  8
0
  6
CONTINUOUS
 62
     7
100
AcDbLine
 10
444.9922056058
 20
201.4455338222
 30
0.0
 11
438.4922059374
 21
201.4455338222
 31
0.0
  0
LINE
  5
41E
330
1F
100
AcDbEntity
  8
0
  6
CONTINUOUS
 62
     7
100
AcDbLine
 10
436.4922056095
 20
203.4455304248
 30
0.0
 11
438.4922059374
 21
201.4455338222
 31
0.0
  0
LINE
  5
41F
330
1F
100
AcDbEntity
  8
0
  6
CONTINUOUS
 62
     7
100
AcDbLine
 10
436.4922056095
 20
203.4455304248
 30
0.0
 11
436.4922056095
 21
221.9455306632
 31
0.0
  0
LINE
  5
420
330
1F
100
AcDbEntity
  8
0
  6
CONTINUOUS
 62
     7
100
AcDbLine
 10
436.4922056095
 20
224.9455292923
 30
0.0
 11
436.4922056095
 21
225.4455303056
 31
0.0
  0
LINE
  5
421
330
1F
100
AcDbEntity
  8
0
  6
CONTINUOUS
 62
     7
100
AcDbLine
 10
436.4922056095
 20
241.4455329282
 30
0.0
 11
436.4922056095
 21
241.9455302162
 31
0.0
  0
LINE
  5
422
330
1F
100
AcDbEntity
  8
0
  6
CONTINUOUS
 62
     7
100
AcDbLine
 10
436.4922056095
 20
244.9455325705
 30
0.0
 11
436.4922056095
 21
361.9455312592
 31
0.0
  0
LINE
  5
423
330
1F
100
AcDbEntity
  8
0
  6
CONTINUOUS
 62
     7
100
AcDbLine
 10
436.4922056095
 20
364.9455336136
 30
0.0
 11
436.4922056095
 21
365.4455309016
 31
0.0
  0
LINE
  5
424
330
1F
100
AcDbEntity
  8
0
  6
CONTINUOUS
 62
     7
100
AcDbLine
 10
436.4922056095
 20
381.4455335242
 30
0.0
 11
436.4922056095
 21
381.9455345375
 31
0.0
  0
LINE
  5
425
330
1F
100
AcDbEntity
  8
0
  6
CONTINUOUS
 62
     7
100
AcDbLine
 10
436.4922056095
 20
384.9455331666
 30
0.0
 11
436.4922056095
 21
403.445533405
 31
0.0
  0
LINE
  5
426
330
1F
100
AcDbEntity
  8
0
  6
CONTINUOUS
 62
     7
100
AcDbLine
 10
443.9922054419
 20
199.1526399953
 30
0.0
 11
435.4922054456
 21
199.1526399953
 31
0.0
  0
LINE
  5
427
330
1F
100
AcDbEntity
  8
0
  6
CONTINUOUS
 62
     7
100
AcDbLine
 10
435.4922054456
 20
199.1526399953
 30
0.0
 11
435.4922054456
 21
221.9455306632
 31
0.0
  0
LINE
  5
428
330
1F
100
AcDbEntity
  8
0
  6
CONTINUOUS
 62
     7
100
AcDbLine
 10
435.4922054456
 20
224.9455292923
 30
0.0
 11
435.4922054456
 21
225.4455303056
 31
0.0
  0
LINE
  5
429
330
1F
100
AcDbEntity
  8
0
  6
CONTINUOUS
 62
     7
100
AcDbLine
 10
435.4922054456
 20
241.4455329282
 30
0.0
 11
435.4922054456
 21
241.9455302162
 31
0.0
  0
LINE
  5
42A
330
1F
100
AcDbEntity
  8
0
  6
CONTINUOUS
 62
     7
100
AcDbLine
 10
435.4922054456
 20
244.9455325705
 30
0.0
 11
435.4922054456
 21
361.9455312592
 31
0.0
  0
LINE
  5
42B
330
1F
100
AcDbEntity
  8
0
  6
CONTINUOUS
 62
     7
100
AcDbLine
 10
435.4922054456
 20
364.9455336136
 30
0.0
 11
435.4922054456
 21
365.4455309016
 31
0.0
  0
LINE
  5
42C
330
1F
100
AcDbEntity
  8
0
  6
CONTINUOUS
 62
     7
100
AcDbLine
 10
435.4922054456
 20
381.4455335242
 30
0.0
 11
435.4922054456
 21
381.9455345375
 31
0.0
  0
LINE
  5
42D
330
1F
100
AcDbEntity
  8
0
  6
CONTINUOUS
 62
     7
100
AcDbLine
 10
435.4922054456
 20
384.9455331666
 30
0.0
 11
435.4922054456
 21
407.7384238345
 31
0.0
  0
LINE
  5
42E
330
1F
100
AcDbEntity
  8
0
  6
CONTINUOUS
 62
     7
100
AcDbLine
 10
443.9922054419
 20
407.7384238345
 30
0.0
 11
435.4922054456
 21
407.7384238345
 31
0.0
  0
LWPOLYLINE
  5
42F
330
1F
100
AcDbEntity
  8
0
  6
CONTINUOUS
 62
     7
100
AcDbPolyline
 90
        3
 70
   128
 43
0.0
 10
443.9922054419
 20
407.7384238345
 10
444.9901261953
 20
407.5924818618
 10
445.9922055369
 20
407.430446635
  0
ARC
  5
430
330
1F
100
AcDbEntity
  8
0
  6
CONTINUOUS
 62
     7
100
AcDbCircle
 10
437.9295332313
 20
245.2180267956
 30
0.0
 40
46.46262858895001
100
AcDbArc
 50
277.4976146737
 51
279.9931400212
  0
LWPOLYLINE
  5
431
330
1F
100
AcDbEntity
  8
0
  6
CONTINUOUS
 62
     7
100
AcDbPolyline
 90
        3
 70
   128
 43
0.0
 10
443.9922054419
 20
196.44553114
 10
444.9901261953
 20
196.5908100111
 10
445.9922055369
 20
197.0867504579
  0
LINE
  5
432
330
1F
100
AcDbEntity
  8
0
  6
CONTINUOUS
 62
     7
100
AcDbLine
 10
443.9922054419
 20
196.44553114
 30
0.0
 11
443.9922054419
 21
198.4455351931
 31
0.0
  0
ARC
  5
433
330
1F
100
AcDbEntity
  8
0
  6
CONTINUOUS
 62
     7
100
AcDbCircle
 10
444.0537704
 20
199.8235066942
 30
0.0
 40
1.379346113802223
100
AcDbArc
 50
267.4418425783
 51
340.2421838255
  0
ARC
  5
434
330
1F
100
AcDbEntity
  8
0
  6
CONTINUOUS
 62
     7
100
AcDbCircle
 10
444.0043694518
 20
406.9823816391
 30
0.0
 40
1.463197559983254
100
AcDbArc
 50
22.0904567375
 51
90.4763228681
  0
LINE
  5
435
330
1F
100
AcDbEntity
  8
0
  6
CONTINUOUS
 62
     7
100
AcDbLine
 10
443.9922054419
 20
410.4455326898
 30
0.0
 11
443.9922054419
 21
408.4455286366
 31
0.0
  0
ARC
  5
436
330
1F
100
AcDbEntity
  8
0
  6
CONTINUOUS
 62
     7
100
AcDbCircle
 10
444.1835966854
 20
407.5792889173
 30
0.0
 40
2.872626667603447
100
AcDbArc
 50
50.9793029502
 51
93.8202108949
  0
LINE
  5
437
330
1F
100
AcDbEntity
  8
0
  6
CONTINUOUS
 62
     7
100
AcDbLine
 10
443.9922054419
 20
196.44553114
 30
0.0
 11
435.4922054456
 21
196.44553114
 31
0.0
  0
LINE
  5
438
330
1F
100
AcDbEntity
  8
0
  6
CONTINUOUS
 62
     7
100
AcDbLine
 10
435.4922054456
 20
198.4455351931
 30
0.0
 11
435.4922054456
 21
196.44553114
 31
0.0
  0
LINE
  5
439
330
1F
100
AcDbEntity
  8
0
  6
CONTINUOUS
 62
     7
100
AcDbLine
 10
443.9922054419
 20
198.4455351931
 30
0.0
 11
435.4922054456
 21
198.4455351931
 31
0.0
  0
LINE
  5
43A
330
1F
100
AcDbEntity
  8
0
  6
CONTINUOUS
 62
     7
100
AcDbLine
 10
443.9922054419
 20
408.4455286366
 30
0.0
 11
435.4922054456
 21
408.4455286366
 31
0.0
  0
LINE
  5
43B
330
1F
100
AcDbEntity
  8
0
  6
CONTINUOUS
 62
     7
100
AcDbLine
 10
435.4922054456
 20
408.4455286366
 30
0.0
 11
435.4922054456
 21
410.4455326898
 31
0.0
  0
LINE
  5
43C
330
1F
100
AcDbEntity
  8
0
  6
CONTINUOUS
 62
     7
100
AcDbLine
 10
435.4922054456
 20
410.4455326898
 30
0.0
 11
443.9922054419
 21
410.4455326898
 31
0.0
  0
LINE
  5
43D
330
1F
100
AcDbEntity
  8
0
  6
CONTINUOUS
 62
     7
100
AcDbLine
 10
431.1922052996
 20
306.4042862253
 30
0.0
 11
431.1922052996
 21
297.2955321175
 31
0.0
  0
LINE
  5
43E
330
1F
100
AcDbEntity
  8
0
  6
CONTINUOUS
 62
     7
100
AcDbLine
 10
431.1922052996
 20
306.4042862253
 30
0.0
 11
431.8922059731
 21
306.4042862253
 31
0.0
  0
LINE
  5
43F
330
1F
100
AcDbEntity
  8
0
  6
CONTINUOUS
 62
     7
100
AcDbLine
 10
431.8922059731
 20
306.4042862253
 30
0.0
 11
431.8922059731
 21
297.2955321175
 31
0.0
  0
LINE
  5
440
330
1F
100
AcDbEntity
  8
0
  6
CONTINUOUS
 62
     7
100
AcDbLine
 10
431.9922058033
 20
309.945532049
 30
0.0
 11
433.9922051998
 21
309.945532049
 31
0.0
  0
LINE
  5
441
330
1F
100
AcDbEntity
  8
0
  6
CONTINUOUS
 62
     7
100
AcDbLine
 10
433.9922051998
 20
309.945532049
 30
0.0
 11
433.9922051998
 21
296.9455317808
 31
0.0
  0
LINE
  5
442
330
1F
100
AcDbEntity
  8
0
  6
CONTINUOUS
 62
     7
100
AcDbLine
 10
431.9922058033
 20
296.9455317808
 30
0.0
 11
433.9922051998
 21
296.9455317808
 31
0.0
  0
LINE
  5
443
330
1F
100
AcDbEntity
  8
0
  6
CONTINUOUS
 62
     7
100
AcDbLine
 10
431.9922058033
 20
309.945532049
 30
0.0
 11
431.9922058033
 21
296.9455317808
 31
0.0
  0
LINE
  5
444
330
1F
100
AcDbEntity
  8
0
  6
CONTINUOUS
 62
     7
100
AcDbLine
 10
450.7922055321
 20
296.8455319507
 30
0.0
 11
450.7922055321
 21
310.0455318791
 31
0.0
  0
LINE
  5
445
330
1F
100
AcDbEntity
  8
0
  6
CONTINUOUS
 62
     7
100
AcDbLine
 10
430.9922056394
 20
303.4455319149
 30
0.0
 11
430.9922056394
 21
299.9455318069
 31
0.0
  0
LINE
  5
446
330
1F
100
AcDbEntity
  8
0
  6
CONTINUOUS
 62
     7
100
AcDbLine
 10
430.9922056394
 20
306.9455320229
 30
0.0
 11
430.9922056394
 21
303.4455319149
 31
0.0
  0
LINE
  5
447
330
1F
100
AcDbEntity
  8
0
  6
CONTINUOUS
 62
     7
100
AcDbLine
 10
429.9922054754
 20
306.9455320229
 30
0.0
 11
429.9922054754
 21
299.9455318069
 31
0.0
  0
LINE
  5
448
330
1F
100
AcDbEntity
  8
0
  6
CONTINUOUS
 62
     7
100
AcDbLine
 10
448.4922055974
 20
295.6673572054
 30
0.0
 11
448.4922055974
 21
292.4455319745
 31
0.0
  0
LINE
  5
449
330
1F
100
AcDbEntity
  8
0
  6
CONTINUOUS
 62
     7
100
AcDbLine
 10
448.4922055974
 20
314.4455318553
 30
0.0
 11
448.4922055974
 21
295.6673572054
 31
0.0
  0
LINE
  5
44A
330
1F
100
AcDbEntity
  8
0
  6
CONTINUOUS
 62
     7
100
AcDbLine
 10
450.492205576
 20
312.4455315275
 30
0.0
 11
450.492205576
 21
294.4455323023
 31
0.0
  0
LINE
  5
44B
330
1F
100
AcDbEntity
  8
0
  6
CONTINUOUS
 62
     7
100
AcDbLine
 10
433.9922051998
 20
298.8493381282
 30
0.0
 11
433.9922051998
 21
309.9455315833
 31
0.0
  0
LINE
  5
44C
330
1F
100
AcDbEntity
  8
0
  6
CONTINUOUS
 62
     7
100
AcDbLine
 10
433.9922051998
 20
296.9455322464
 30
0.0
 11
433.9922051998
 21
298.8493381282
 31
0.0
  0
LINE
  5
44D
330
1F
100
AcDbEntity
  8
0
  6
CONTINUOUS
 62
     8
100
AcDbLine
 10
444.9922056058
 20
405.4455300075
 30
0.0
 11
444.9922056058
 21
384.9455331666
 31
0.0
  0
LINE
  5
44E
330
1F
100
AcDbEntity
  8
0
  6
CONTINUOUS
 62
     8
100
AcDbLine
 10
444.9922056058
 20
381.9455345375
 30
0.0
 11
444.9922056058
 21
381.4455335242
 31
0.0
  0
LINE
  5
44F
330
1F
100
AcDbEntity
  8
0
  6
CONTINUOUS
 62
     8
100
AcDbLine
 10
444.9922056058
 20
365.4455309016
 30
0.0
 11
444.9922056058
 21
364.9455336136
 31
0.0
  0
LINE
  5
450
330
1F
100
AcDbEntity
  8
0
  6
CONTINUOUS
 62
     8
100
AcDbLine
 10
444.9922056058
 20
361.9455312592
 30
0.0
 11
444.9922056058
 21
244.9455325705
 31
0.0
  0
LINE
  5
451
330
1F
100
AcDbEntity
  8
0
  6
CONTINUOUS
 62
     8
100
AcDbLine
 10
444.9922056058
 20
241.9455302162
 30
0.0
 11
444.9922056058
 21
241.4455329282
 31
0.0
  0
LINE
  5
452
330
1F
100
AcDbEntity
  8
0
  6
CONTINUOUS
 62
     8
100
AcDbLine
 10
444.9922056058
 20
225.4455303056
 30
0.0
 11
444.9922056058
 21
224.9455292923
 31
0.0
  0
LINE
  5
453
330
1F
100
AcDbEntity
  8
0
  6
CONTINUOUS
 62
     8
100
AcDbLine
 10
444.9922056058
 20
221.9455306632
 30
0.0
 11
444.9922056058
 21
201.4455338222
 31
0.0
  0
LINE
  5
454
330
1F
100
AcDbEntity
  8
0
  6
CONTINUOUS
 62
     8
100
AcDbLine
 10
443.9922054419
 20
407.7384238345
 30
0.0
 11
443.9922054419
 21
405.4455300075
 31
0.0
  0
LINE
  5
455
330
1F
100
AcDbEntity
  8
0
  6
CONTINUOUS
 62
     8
100
AcDbLine
 10
443.9922054419
 20
201.4455338222
 30
0.0
 11
443.9922054419
 21
199.1526399953
 31
0.0
  0
LINE
  5
456
330
1F
100
AcDbEntity
  8
0
  6
CONTINUOUS
 62
     8
100
AcDbLine
 10
450.5422054911
 20
310.2955319201
 30
0.0
 11
450.5422054911
 21
296.5955319097
 31
0.0
  0
LINE
  5
457
330
1F
100
AcDbEntity
  8
0
  6
CONTINUOUS
 62
     8
100
AcDbLine
 10
434.4922052817
 20
296.4455316988
 30
0.0
 11
434.4922052817
 21
310.445532131
 31
0.0
  0
LINE
  5
458
330
1F
100
AcDbEntity
  8
0
  6
CONTINUOUS
 62
     7
100
AcDbLine
 10
591.3313949374
 20
192.4455304844
 30
0.0
 11
591.3313949374
 21
194.9455355508
 31
0.0
  0
LINE
  5
459
330
1F
100
AcDbEntity
  8
0
  6
CONTINUOUS
 62
     7
100
AcDbLine
 10
673.8313982157
 20
194.9455355508
 30
0.0
 11
591.3313949374
 21
194.9455355508
 31
0.0
  0
LINE
  5
45A
330
1F
100
AcDbEntity
  8
0
  6
CONTINUOUS
 62
     7
100
AcDbLine
 10
673.8313982157
 20
194.9455355508
 30
0.0
 11
673.8313982157
 21
192.4455304844
 31
0.0
  0
LINE
  5
45B
330
1F
100
AcDbEntity
  8
0
  6
CONTINUOUS
 62
     7
100
AcDbLine
 10
673.8313982157
 20
192.4455304844
 30
0.0
 11
591.3313949374
 21
192.4455304844
 31
0.0
  0
LINE
  5
45C
330
1F
100
AcDbEntity
  8
0
  6
CONTINUOUS
 62
     7
100
AcDbLine
 10
591.3313949374
 20
195.9455301268
 30
0.0
 11
591.3313949374
 21
194.9455355508
 31
0.0
  0
ARC
  5
45D
330
1F
100
AcDbEntity
  8
0
  6
CONTINUOUS
 62
     7
100
AcDbCircle
 10
594.3313965765
 20
195.9455319149
 30
0.0
 40
3.0
100
AcDbArc
 50
90.0
 51
180.0
  0
LINE
  5
45E
330
1F
100
AcDbEntity
  8
0
  6
CONTINUOUS
 62
     7
100
AcDbLine
 10
670.8313958613
 20
198.9455287558
 30
0.0
 11
594.3313972918
 21
198.9455287558
 31
0.0
  0
ARC
  5
45F
330
1F
100
AcDbEntity
  8
0
  6
CONTINUOUS
 62
     7
100
AcDbCircle
 10
670.8313965765
 20
195.9455319149
 30
0.0
 40
3.0
100
AcDbArc
 50
0.0
 51
90.0
  0
LINE
  5
460
330
1F
100
AcDbEntity
  8
0
  6
CONTINUOUS
 62
     7
100
AcDbLine
 10
673.8313982157
 20
194.9455355508
 30
0.0
 11
673.8313982157
 21
195.9455301268
 31
0.0
  0
LINE
  5
461
330
1F
100
AcDbEntity
  8
0
  6
CONTINUOUS
 62
     7
100
AcDbLine
 10
581.3313970236
 20
193.9455335242
 30
0.0
 11
581.3313970236
 21
192.4455304844
 31
0.0
  0
LINE
  5
462
330
1F
100
AcDbEntity
  8
0
  6
CONTINUOUS
 62
     7
100
AcDbLine
 10
581.3313970236
 20
193.9455335242
 30
0.0
 11
591.3313949374
 21
193.9455335242
 31
0.0
  0
LINE
  5
463
330
1F
100
AcDbEntity
  8
0
  6
CONTINUOUS
 62
     7
100
AcDbLine
 10
581.3313970236
 20
192.4455304844
 30
0.0
 11
591.3313949374
 21
192.4455304844
 31
0.0
  0
LINE
  5
464
330
1F
100
AcDbEntity
  8
0
  6
CONTINUOUS
 62
     7
100
AcDbLine
 10
683.8313961295
 20
192.4455304844
 30
0.0
 11
683.8313961295
 21
193.9455335242
 31
0.0
  0
LINE
  5
465
330
1F
100
AcDbEntity
  8
0
  6
CONTINUOUS
 62
     7
100
AcDbLine
 10
673.8313982157
 20
193.9455335242
 30
0.0
 11
683.8313961295
 21
193.9455335242
 31
0.0
  0
LINE
  5
466
330
1F
100
AcDbEntity
  8
0
  6
CONTINUOUS
 62
     7
100
AcDbLine
 10
673.8313982157
 20
192.4455304844
 30
0.0
 11
683.8313961295
 21
192.4455304844
 31
0.0
  0
LINE
  5
467
330
1F
100
AcDbEntity
  8
0
  6
CONTINUOUS
 62
     7
100
AcDbLine
 10
579.3313966958
 20
192.4455304844
 30
0.0
 11
579.3313966958
 21
193.9455335242
 31
0.0
  0
LINE
  5
468
330
1F
100
AcDbEntity
  8
0
  6
CONTINUOUS
 62
     7
100
AcDbLine
 10
579.3313966958
 20
193.9455335242
 30
0.0
 11
581.3313970236
 21
193.9455335242
 31
0.0
  0
LINE
  5
469
330
1F
100
AcDbEntity
  8
0
  6
CONTINUOUS
 62
     7
100
AcDbLine
 10
581.3313970236
 20
192.4455304844
 30
0.0
 11
579.3313966958
 21
192.4455304844
 31
0.0
  0
LINE
  5
46A
330
1F
100
AcDbEntity
  8
0
  6
CONTINUOUS
 62
     7
100
AcDbLine
 10
685.8313964573
 20
193.9455335242
 30
0.0
 11
685.8313964573
 21
192.4455304844
 31
0.0
  0
LINE
  5
46B
330
1F
100
AcDbEntity
  8
0
  6
CONTINUOUS
 62
     7
100
AcDbLine
 10
683.8313961295
 20
193.9455335242
 30
0.0
 11
685.8313964573
 21
193.9455335242
 31
0.0
  0
LINE
  5
46C
330
1F
100
AcDbEntity
  8
0
  6
CONTINUOUS
 62
     7
100
AcDbLine
 10
685.8313964573
 20
192.4455304844
 30
0.0
 11
683.8313961295
 21
192.4455304844
 31
0.0
  0
LINE
  5
46D
330
1F
100
AcDbEntity
  8
0
  6
CONTINUOUS
 62
     7
100
AcDbLine
 10
685.8313964573
 20
191.4455284578
 30
0.0
 11
685.8313964573
 21
192.4455304844
 31
0.0
  0
LINE
  5
46E
330
1F
100
AcDbEntity
  8
0
  6
CONTINUOUS
 62
     7
100
AcDbLine
 10
579.3313966958
 20
191.4455284578
 30
0.0
 11
685.8313964573
 21
191.4455284578
 31
0.0
  0
LINE
  5
46F
330
1F
100
AcDbEntity
  8
0
  6
CONTINUOUS
 62
     7
100
AcDbLine
 10
579.3313966958
 20
192.4455304844
 30
0.0
 11
579.3313966958
 21
191.4455284578
 31
0.0
  0
LINE
  5
470
330
1F
100
AcDbEntity
  8
0
  6
CONTINUOUS
 62
     7
100
AcDbLine
 10
579.3313966958
 20
190.6955306632
 30
0.0
 11
579.3313966958
 21
191.4455284578
 31
0.0
  0
LINE
  5
471
330
1F
100
AcDbEntity
  8
0
  6
CONTINUOUS
 62
     7
100
AcDbLine
 10
685.8313964573
 20
191.4455284578
 30
0.0
 11
685.8313964573
 21
190.6955306632
 31
0.0
  0
LINE
  5
472
330
1F
100
AcDbEntity
  8
0
  6
CONTINUOUS
 62
     7
100
AcDbLine
 10
685.8313964573
 20
190.6955306632
 30
0.0
 11
686.5813979773
 21
190.6955306632
 31
0.0
  0
LINE
  5
473
330
1F
100
AcDbEntity
  8
0
  6
CONTINUOUS
 62
     7
100
AcDbLine
 10
686.5813979773
 20
190.6955306632
 30
0.0
 11
686.5813979773
 21
193.9455335242
 31
0.0
  0
LINE
  5
474
330
1F
100
AcDbEntity
  8
0
  6
CONTINUOUS
 62
     7
100
AcDbLine
 10
686.5813979773
 20
193.9455335242
 30
0.0
 11
688.3313977984
 21
193.9455335242
 31
0.0
  0
ARC
  5
475
330
1F
100
AcDbEntity
  8
0
  6
CONTINUOUS
 62
     7
100
AcDbCircle
 10
688.3313965765
 20
198.9455319149
 30
0.0
 40
5.0
100
AcDbArc
 50
270.0
 51
0.0
  0
LINE
  5
476
330
1F
100
AcDbEntity
  8
0
  6
CONTINUOUS
 62
     7
100
AcDbLine
 10
693.3313967554
 20
198.9455287558
 30
0.0
 11
693.3313967554
 21
201.4455338222
 31
0.0
  0
LINE
  5
477
330
1F
100
AcDbEntity
  8
0
  6
CONTINUOUS
 62
     7
100
AcDbLine
 10
695.8313943712
 20
201.4455338222
 30
0.0
 11
698.0813952056
 21
201.4455338222
 31
0.0
  0
LINE
  5
478
330
1F
100
AcDbEntity
  8
0
  6
CONTINUOUS
 62
     7
100
AcDbLine
 10
698.0813952056
 20
201.4455338222
 30
0.0
 11
701.0813938347
 21
204.4455324513
 31
0.0
  0
LINE
  5
479
330
1F
100
AcDbEntity
  8
0
  6
CONTINUOUS
 62
     7
100
AcDbLine
 10
701.0813938347
 20
204.4455324513
 30
0.0
 11
705.0813944904
 21
204.4455324513
 31
0.0
  0
LINE
  5
47A
330
1F
100
AcDbEntity
  8
0
  6
CONTINUOUS
 62
     7
100
AcDbLine
 10
705.0813944904
 20
204.4455324513
 30
0.0
 11
708.0813931195
 21
201.4455338222
 31
0.0
  0
LINE
  5
47B
330
1F
100
AcDbEntity
  8
0
  6
CONTINUOUS
 62
     7
100
AcDbLine
 10
708.0813931195
 20
201.4455338222
 30
0.0
 11
712.8313990203
 21
201.4455338222
 31
0.0
  0
LINE
  5
47C
330
1F
100
AcDbEntity
  8
0
  6
CONTINUOUS
 62
     7
100
AcDbLine
 10
712.8313990203
 20
201.4455338222
 30
0.0
 11
712.8313990203
 21
196.9455321533
 31
0.0
  0
ARC
  5
47D
330
1F
100
AcDbEntity
  8
0
  6
CONTINUOUS
 62
     7
100
AcDbCircle
 10
704.8313965765
 20
196.9455319149
 30
0.0
 40
8.0
100
AcDbArc
 50
315.0
 51
0.0
  0
LINE
  5
47E
330
1F
100
AcDbEntity
  8
0
  6
CONTINUOUS
 62
     7
100
AcDbLine
 10
710.4882510273
 20
191.2886788351
 30
0.0
 11
694.4882521299
 21
175.2886762125
 31
0.0
  0
ARC
  5
47F
330
1F
100
AcDbEntity
  8
0
  6
CONTINUOUS
 62
     7
100
AcDbCircle
 10
688.8313965765
 20
180.9455319149
 30
0.0
 40
8.0
100
AcDbArc
 50
270.0
 51
315.0
  0
LINE
  5
480
330
1F
100
AcDbEntity
  8
0
  6
CONTINUOUS
 62
     7
100
AcDbLine
 10
688.8313950864
 20
172.9455282194
 30
0.0
 11
576.3313980667
 21
172.9455282194
 31
0.0
  0
ARC
  5
481
330
1F
100
AcDbEntity
  8
0
  6
CONTINUOUS
 62
     7
100
AcDbCircle
 10
576.3313965765
 20
180.9455319149
 30
0.0
 40
7.999999999999972
100
AcDbArc
 50
225.0
 51
270.0
  0
LINE
  5
482
330
1F
100
AcDbEntity
  8
0
  6
CONTINUOUS
 62
     7
100
AcDbLine
 10
570.6745410232
 20
175.2886762125
 30
0.0
 11
554.6745421258
 21
191.2886788351
 31
0.0
  0
ARC
  5
483
330
1F
100
AcDbEntity
  8
0
  6
CONTINUOUS
 62
     7
100
AcDbCircle
 10
560.3313965765
 20
196.9455319149
 30
0.0
 40
8.0
100
AcDbArc
 50
180.0
 51
225.0
  0
LINE
  5
484
330
1F
100
AcDbEntity
  8
0
  6
CONTINUOUS
 62
     7
100
AcDbLine
 10
552.3313941328
 20
196.9455321533
 30
0.0
 11
552.3313941328
 21
201.4455338222
 31
0.0
  0
LINE
  5
485
330
1F
100
AcDbEntity
  8
0
  6
CONTINUOUS
 62
     7
100
AcDbLine
 10
552.3313941328
 20
201.4455338222
 30
0.0
 11
557.0814000336
 21
201.4455338222
 31
0.0
  0
LINE
  5
486
330
1F
100
AcDbEntity
  8
0
  6
CONTINUOUS
 62
     7
100
AcDbLine
 10
557.0814000336
 20
201.4455338222
 30
0.0
 11
560.0813986627
 21
204.4455324513
 31
0.0
  0
LINE
  5
487
330
1F
100
AcDbEntity
  8
0
  6
CONTINUOUS
 62
     7
100
AcDbLine
 10
560.0813986627
 20
204.4455324513
 30
0.0
 11
564.0813993184
 21
204.4455324513
 31
0.0
  0
LINE
  5
488
330
1F
100
AcDbEntity
  8
0
  6
CONTINUOUS
 62
     7
100
AcDbLine
 10
564.0813993184
 20
204.4455324513
 30
0.0
 11
567.0813979475
 21
201.4455338222
 31
0.0
  0
LINE
  5
489
330
1F
100
AcDbEntity
  8
0
  6
CONTINUOUS
 62
     7
100
AcDbLine
 10
567.0813979475
 20
201.4455338222
 30
0.0
 11
569.3313987819
 21
201.4455338222
 31
0.0
  0
LINE
  5
48A
330
1F
100
AcDbEntity
  8
0
  6
CONTINUOUS
 62
     7
100
AcDbLine
 10
571.8313963977
 20
201.4455338222
 30
0.0
 11
571.8313963977
 21
198.9455287558
 31
0.0
  0
ARC
  5
48B
330
1F
100
AcDbEntity
  8
0
  6
CONTINUOUS
 62
     7
100
AcDbCircle
 10
576.8313965765
 20
198.9455319149
 30
0.0
 40
4.999999999999972
100
AcDbArc
 50
180.0
 51
270.0
  0
LINE
  5
48C
330
1F
100
AcDbEntity
  8
0
  6
CONTINUOUS
 62
     7
100
AcDbLine
 10
576.8313953547
 20
193.9455335242
 30
0.0
 11
578.5813951758
 21
193.9455335242
 31
0.0
  0
LINE
  5
48D
330
1F
100
AcDbEntity
  8
0
  6
CONTINUOUS
 62
     7
100
AcDbLine
 10
578.5813951758
 20
193.9455335242
 30
0.0
 11
578.5813951758
 21
190.6955306632
 31
0.0
  0
LINE
  5
48E
330
1F
100
AcDbEntity
  8
0
  6
CONTINUOUS
 62
     7
100
AcDbLine
 10
578.5813951758
 20
190.6955306632
 30
0.0
 11
579.3313966958
 21
190.6955306632
 31
0.0
  0
LINE
  5
48F
330
1F
100
AcDbEntity
  8
0
  6
CONTINUOUS
 62
     7
100
AcDbLine
 10
579.3313966958
 20
412.9455303056
 30
0.0
 11
579.3313966958
 21
414.4455333454
 31
0.0
  0
LINE
  5
490
330
1F
100
AcDbEntity
  8
0
  6
CONTINUOUS
 62
     7
100
AcDbLine
 10
581.3313970236
 20
414.4455333454
 30
0.0
 11
581.3313970236
 21
412.9455303056
 31
0.0
  0
LINE
  5
491
330
1F
100
AcDbEntity
  8
0
  6
CONTINUOUS
 62
     7
100
AcDbLine
 10
581.3313970236
 20
412.9455303056
 30
0.0
 11
579.3313966958
 21
412.9455303056
 31
0.0
  0
LINE
  5
492
330
1F
100
AcDbEntity
  8
0
  6
CONTINUOUS
 62
     7
100
AcDbLine
 10
579.3313966958
 20
414.4455333454
 30
0.0
 11
581.3313970236
 21
414.4455333454
 31
0.0
  0
LINE
  5
493
330
1F
100
AcDbEntity
  8
0
  6
CONTINUOUS
 62
     7
100
AcDbLine
 10
683.8313961295
 20
412.9455303056
 30
0.0
 11
683.8313961295
 21
414.4455333454
 31
0.0
  0
LINE
  5
494
330
1F
100
AcDbEntity
  8
0
  6
CONTINUOUS
 62
     7
100
AcDbLine
 10
683.8313961295
 20
412.9455303056
 30
0.0
 11
581.3313970236
 21
412.9455303056
 31
0.0
  0
LINE
  5
495
330
1F
100
AcDbEntity
  8
0
  6
CONTINUOUS
 62
     7
100
AcDbLine
 10
683.8313961295
 20
414.4455333454
 30
0.0
 11
581.3313970236
 21
414.4455333454
 31
0.0
  0
LINE
  5
496
330
1F
100
AcDbEntity
  8
0
  6
CONTINUOUS
 62
     7
100
AcDbLine
 10
685.8313964573
 20
414.4455333454
 30
0.0
 11
685.8313964573
 21
412.9455303056
 31
0.0
  0
LINE
  5
497
330
1F
100
AcDbEntity
  8
0
  6
CONTINUOUS
 62
     7
100
AcDbLine
 10
685.8313964573
 20
412.9455303056
 30
0.0
 11
683.8313961295
 21
412.9455303056
 31
0.0
  0
LINE
  5
498
330
1F
100
AcDbEntity
  8
0
  6
CONTINUOUS
 62
     7
100
AcDbLine
 10
683.8313961295
 20
414.4455333454
 30
0.0
 11
685.8313964573
 21
414.4455333454
 31
0.0
  0
LINE
  5
499
330
1F
100
AcDbEntity
  8
0
  6
CONTINUOUS
 62
     7
100
AcDbLine
 10
685.8313964573
 20
414.4455333454
 30
0.0
 11
685.8313964573
 21
415.445535372
 31
0.0
  0
LINE
  5
49A
330
1F
100
AcDbEntity
  8
0
  6
CONTINUOUS
 62
     7
100
AcDbLine
 10
579.3313966958
 20
415.445535372
 30
0.0
 11
579.3313966958
 21
414.4455333454
 31
0.0
  0
LINE
  5
49B
330
1F
100
AcDbEntity
  8
0
  6
CONTINUOUS
 62
     7
100
AcDbLine
 10
685.8313964573
 20
415.445535372
 30
0.0
 11
579.3313966958
 21
415.445535372
 31
0.0
  0
LINE
  5
49C
330
1F
100
AcDbEntity
  8
0
  6
CONTINUOUS
 62
     7
100
AcDbLine
 10
685.8313964573
 20
416.1955331666
 30
0.0
 11
685.8313964573
 21
415.445535372
 31
0.0
  0
LINE
  5
49D
330
1F
100
AcDbEntity
  8
0
  6
CONTINUOUS
 62
     7
100
AcDbLine
 10
579.3313966958
 20
415.445535372
 30
0.0
 11
579.3313966958
 21
416.1955331666
 31
0.0
  0
LINE
  5
49E
330
1F
100
AcDbEntity
  8
0
  6
CONTINUOUS
 62
     7
100
AcDbLine
 10
579.3313966958
 20
416.1955331666
 30
0.0
 11
578.5813951758
 21
416.1955331666
 31
0.0
  0
LINE
  5
49F
330
1F
100
AcDbEntity
  8
0
  6
CONTINUOUS
 62
     7
100
AcDbLine
 10
578.5813951758
 20
416.1955331666
 30
0.0
 11
578.5813951758
 21
412.9455303056
 31
0.0
  0
LINE
  5
4A0
330
1F
100
AcDbEntity
  8
0
  6
CONTINUOUS
 62
     7
100
AcDbLine
 10
578.5813951758
 20
412.9455303056
 30
0.0
 11
576.8313953547
 21
412.9455303056
 31
0.0
  0
ARC
  5
4A1
330
1F
100
AcDbEntity
  8
0
  6
CONTINUOUS
 62
     7
100
AcDbCircle
 10
576.8313965765
 20
407.9455319149
 30
0.0
 40
5.0
100
AcDbArc
 50
90.0
 51
180.0
  0
LINE
  5
4A2
330
1F
100
AcDbEntity
  8
0
  6
CONTINUOUS
 62
     7
100
AcDbLine
 10
571.8313963977
 20
407.9455350739
 30
0.0
 11
571.8313963977
 21
405.4455300075
 31
0.0
  0
LINE
  5
4A3
330
1F
100
AcDbEntity
  8
0
  6
CONTINUOUS
 62
     7
100
AcDbLine
 10
569.3313987819
 20
405.4455300075
 30
0.0
 11
567.0813979475
 21
405.4455300075
 31
0.0
  0
LINE
  5
4A4
330
1F
100
AcDbEntity
  8
0
  6
CONTINUOUS
 62
     7
100
AcDbLine
 10
567.0813979475
 20
405.4455300075
 30
0.0
 11
564.0813993184
 21
402.4455313785
 31
0.0
  0
LINE
  5
4A5
330
1F
100
AcDbEntity
  8
0
  6
CONTINUOUS
 62
     7
100
AcDbLine
 10
564.0813993184
 20
402.4455313785
 30
0.0
 11
560.0813986627
 21
402.4455313785
 31
0.0
  0
LINE
  5
4A6
330
1F
100
AcDbEntity
  8
0
  6
CONTINUOUS
 62
     7
100
AcDbLine
 10
560.0813986627
 20
402.4455313785
 30
0.0
 11
557.0814000336
 21
405.4455300075
 31
0.0
  0
LINE
  5
4A7
330
1F
100
AcDbEntity
  8
0
  6
CONTINUOUS
 62
     7
100
AcDbLine
 10
552.3313941328
 20
405.4455300075
 30
0.0
 11
552.3313941328
 21
409.9455316765
 31
0.0
  0
ARC
  5
4A8
330
1F
100
AcDbEntity
  8
0
  6
CONTINUOUS
 62
     7
100
AcDbCircle
 10
560.3313965765
 20
409.9455319149
 30
0.0
 40
8.0
100
AcDbArc
 50
135.0
 51
180.0
  0
LINE
  5
4A9
330
1F
100
AcDbEntity
  8
0
  6
CONTINUOUS
 62
     7
100
AcDbLine
 10
554.6745421258
 20
415.6023849947
 30
0.0
 11
570.6745410232
 21
431.6023876173
 31
0.0
  0
ARC
  5
4AA
330
1F
100
AcDbEntity
  8
0
  6
CONTINUOUS
 62
     7
100
AcDbCircle
 10
576.3313965765
 20
425.9455319149
 30
0.0
 40
8.000000000000025
100
AcDbArc
 50
90.0
 51
135.0
  0
LINE
  5
4AB
330
1F
100
AcDbEntity
  8
0
  6
CONTINUOUS
 62
     7
100
AcDbLine
 10
576.3313980667
 20
433.9455356104
 30
0.0
 11
688.8313950864
 21
433.9455356104
 31
0.0
  0
ARC
  5
4AC
330
1F
100
AcDbEntity
  8
0
  6
CONTINUOUS
 62
     7
100
AcDbCircle
 10
688.8313965765
 20
425.9455319149
 30
0.0
 40
7.999999999999943
100
AcDbArc
 50
45.0
 51
90.0
  0
LINE
  5
4AD
330
1F
100
AcDbEntity
  8
0
  6
CONTINUOUS
 62
     7
100
AcDbLine
 10
694.4882521299
 20
431.6023876173
 30
0.0
 11
710.4882510273
 21
415.6023849947
 31
0.0
  0
ARC
  5
4AE
330
1F
100
AcDbEntity
  8
0
  6
CONTINUOUS
 62
     7
100
AcDbCircle
 10
704.8313965765
 20
409.9455319149
 30
0.0
 40
8.000000000000025
100
AcDbArc
 50
0.0
 51
45.0
  0
LINE
  5
4AF
330
1F
100
AcDbEntity
  8
0
  6
CONTINUOUS
 62
     7
100
AcDbLine
 10
712.8313990203
 20
409.9455316765
 30
0.0
 11
712.8313990203
 21
405.4455300075
 31
0.0
  0
LINE
  5
4B0
330
1F
100
AcDbEntity
  8
0
  6
CONTINUOUS
 62
     7
100
AcDbLine
 10
712.8313990203
 20
405.4455300075
 30
0.0
 11
708.0813931195
 21
405.4455300075
 31
0.0
  0
LINE
  5
4B1
330
1F
100
AcDbEntity
  8
0
  6
CONTINUOUS
 62
     7
100
AcDbLine
 10
708.0813931195
 20
405.4455300075
 30
0.0
 11
705.0813944904
 21
402.4455313785
 31
0.0
  0
LINE
  5
4B2
330
1F
100
AcDbEntity
  8
0
  6
CONTINUOUS
 62
     7
100
AcDbLine
 10
705.0813944904
 20
402.4455313785
 30
0.0
 11
701.0813938347
 21
402.4455313785
 31
0.0
  0
LINE
  5
4B3
330
1F
100
AcDbEntity
  8
0
  6
CONTINUOUS
 62
     7
100
AcDbLine
 10
701.0813938347
 20
402.4455313785
 30
0.0
 11
698.0813952056
 21
405.4455300075
 31
0.0
  0
LINE
  5
4B4
330
1F
100
AcDbEntity
  8
0
  6
CONTINUOUS
 62
     7
100
AcDbLine
 10
698.0813952056
 20
405.4455300075
 30
0.0
 11
695.8313943712
 21
405.4455300075
 31
0.0
  0
LINE
  5
4B5
330
1F
100
AcDbEntity
  8
0
  6
CONTINUOUS
 62
     7
100
AcDbLine
 10
693.3313967554
 20
405.4455300075
 30
0.0
 11
693.3313967554
 21
407.9455350739
 31
0.0
  0
ARC
  5
4B6
330
1F
100
AcDbEntity
  8
0
  6
CONTINUOUS
 62
     7
100
AcDbCircle
 10
688.3313965765
 20
407.9455319149
 30
0.0
 40
5.0
100
AcDbArc
 50
0.0
 51
90.0
  0
LINE
  5
4B7
330
1F
100
AcDbEntity
  8
0
  6
CONTINUOUS
 62
     7
100
AcDbLine
 10
688.3313977984
 20
412.9455303056
 30
0.0
 11
686.5813979773
 21
412.9455303056
 31
0.0
  0
LINE
  5
4B8
330
1F
100
AcDbEntity
  8
0
  6
CONTINUOUS
 62
     7
100
AcDbLine
 10
686.5813979773
 20
412.9455303056
 30
0.0
 11
686.5813979773
 21
416.1955331666
 31
0.0
  0
LINE
  5
4B9
330
1F
100
AcDbEntity
  8
0
  6
CONTINUOUS
 62
     7
100
AcDbLine
 10
686.5813979773
 20
416.1955331666
 30
0.0
 11
685.8313964573
 21
416.1955331666
 31
0.0
  0
LINE
  5
4BA
330
1F
100
AcDbEntity
  8
0
  6
CONTINUOUS
 62
     7
100
AcDbLine
 10
557.0814000336
 20
405.4455300075
 30
0.0
 11
552.3313941328
 21
405.4455300075
 31
0.0
  0
LINE
  5
4BB
330
1F
100
AcDbEntity
  8
0
  6
CONTINUOUS
 62
     7
100
AcDbLine
 10
552.3313941328
 20
223.9455347163
 30
0.0
 11
553.8313971726
 21
223.9455347163
 31
0.0
  0
LINE
  5
4BC
330
1F
100
AcDbEntity
  8
0
  6
CONTINUOUS
 62
     7
100
AcDbLine
 10
552.3313941328
 20
242.9455322427
 30
0.0
 11
552.3313941328
 21
223.9455347163
 31
0.0
  0
LINE
  5
4BD
330
1F
100
AcDbEntity
  8
0
  6
CONTINUOUS
 62
     7
100
AcDbLine
 10
553.8313971726
 20
242.9455322427
 30
0.0
 11
552.3313941328
 21
242.9455322427
 31
0.0
  0
LINE
  5
4BE
330
1F
100
AcDbEntity
  8
0
  6
CONTINUOUS
 62
     7
100
AcDbLine
 10
553.8313971726
 20
242.9455322427
 30
0.0
 11
553.8313971726
 21
223.9455347163
 31
0.0
  0
LINE
  5
4BF
330
1F
100
AcDbEntity
  8
0
  6
CONTINUOUS
 62
     7
100
AcDbLine
 10
553.8313971726
 20
223.9455347163
 30
0.0
 11
553.8313971726
 21
221.9455306632
 31
0.0
  0
LINE
  5
4C0
330
1F
100
AcDbEntity
  8
0
  6
CONTINUOUS
 62
     7
100
AcDbLine
 10
553.8313971726
 20
221.9455306632
 30
0.0
 11
552.3313941328
 21
221.9455306632
 31
0.0
  0
LINE
  5
4C1
330
1F
100
AcDbEntity
  8
0
  6
CONTINUOUS
 62
     7
100
AcDbLine
 10
552.3313941328
 20
221.9455306632
 30
0.0
 11
552.3313941328
 21
223.9455347163
 31
0.0
  0
LINE
  5
4C2
330
1F
100
AcDbEntity
  8
0
  6
CONTINUOUS
 62
     7
100
AcDbLine
 10
552.3313941328
 20
363.9455315871
 30
0.0
 11
553.8313971726
 21
363.9455315871
 31
0.0
  0
LINE
  5
4C3
330
1F
100
AcDbEntity
  8
0
  6
CONTINUOUS
 62
     7
100
AcDbLine
 10
553.8313971726
 20
363.9455315871
 30
0.0
 11
553.8313971726
 21
361.9455312592
 31
0.0
  0
LINE
  5
4C4
330
1F
100
AcDbEntity
  8
0
  6
CONTINUOUS
 62
     7
100
AcDbLine
 10
553.8313971726
 20
361.9455312592
 30
0.0
 11
552.3313941328
 21
361.9455312592
 31
0.0
  0
LINE
  5
4C5
330
1F
100
AcDbEntity
  8
0
  6
CONTINUOUS
 62
     7
100
AcDbLine
 10
552.3313941328
 20
361.9455312592
 30
0.0
 11
552.3313941328
 21
363.9455315871
 31
0.0
  0
LINE
  5
4C6
330
1F
100
AcDbEntity
  8
0
  6
CONTINUOUS
 62
     7
100
AcDbLine
 10
553.8313971726
 20
382.9455291135
 30
0.0
 11
552.3313941328
 21
382.9455291135
 31
0.0
  0
LINE
  5
4C7
330
1F
100
AcDbEntity
  8
0
  6
CONTINUOUS
 62
     7
100
AcDbLine
 10
553.8313971726
 20
363.9455315871
 30
0.0
 11
553.8313971726
 21
382.9455291135
 31
0.0
  0
LINE
  5
4C8
330
1F
100
AcDbEntity
  8
0
  6
CONTINUOUS
 62
     7
100
AcDbLine
 10
552.3313941328
 20
363.9455315871
 30
0.0
 11
552.3313941328
 21
382.9455291135
 31
0.0
  0
LINE
  5
4C9
330
1F
100
AcDbEntity
  8
0
  6
CONTINUOUS
 62
     7
100
AcDbLine
 10
552.3313941328
 20
244.9455325705
 30
0.0
 11
553.8313971726
 21
244.9455325705
 31
0.0
  0
LINE
  5
4CA
330
1F
100
AcDbEntity
  8
0
  6
CONTINUOUS
 62
     7
100
AcDbLine
 10
553.8313971726
 20
244.9455325705
 30
0.0
 11
553.8313971726
 21
242.9455322427
 31
0.0
  0
LINE
  5
4CB
330
1F
100
AcDbEntity
  8
0
  6
CONTINUOUS
 62
     7
100
AcDbLine
 10
552.3313941328
 20
242.9455322427
 30
0.0
 11
552.3313941328
 21
244.9455325705
 31
0.0
  0
LINE
  5
4CC
330
1F
100
AcDbEntity
  8
0
  6
CONTINUOUS
 62
     7
100
AcDbLine
 10
552.3313941328
 20
384.9455331666
 30
0.0
 11
553.8313971726
 21
384.9455331666
 31
0.0
  0
LINE
  5
4CD
330
1F
100
AcDbEntity
  8
0
  6
CONTINUOUS
 62
     7
100
AcDbLine
 10
553.8313971726
 20
384.9455331666
 30
0.0
 11
553.8313971726
 21
382.9455291135
 31
0.0
  0
LINE
  5
4CE
330
1F
100
AcDbEntity
  8
0
  6
CONTINUOUS
 62
     7
100
AcDbLine
 10
552.3313941328
 20
382.9455291135
 30
0.0
 11
552.3313941328
 21
384.9455331666
 31
0.0
  0
LINE
  5
4CF
330
1F
100
AcDbEntity
  8
0
  6
CONTINUOUS
 62
     7
100
AcDbLine
 10
552.2973226277
 20
365.4455309016
 30
0.0
 11
552.3313941328
 21
365.4455309016
 31
0.0
  0
LINE
  5
4D0
330
1F
100
AcDbEntity
  8
0
  6
CONTINUOUS
 62
     7
100
AcDbLine
 10
552.2973226277
 20
381.4455335242
 30
0.0
 11
552.2973226277
 21
365.4455309016
 31
0.0
  0
LINE
  5
4D1
330
1F
100
AcDbEntity
  8
0
  6
CONTINUOUS
 62
     7
100
AcDbLine
 10
552.3313941328
 20
381.4455335242
 30
0.0
 11
552.2973226277
 21
381.4455335242
 31
0.0
  0
LINE
  5
4D2
330
1F
100
AcDbEntity
  8
0
  6
CONTINUOUS
 62
     7
100
AcDbLine
 10
552.2973226277
 20
225.4455303056
 30
0.0
 11
552.3313941328
 21
225.4455303056
 31
0.0
  0
LINE
  5
4D3
330
1F
100
AcDbEntity
  8
0
  6
CONTINUOUS
 62
     7
100
AcDbLine
 10
552.2973226277
 20
241.4455329282
 30
0.0
 11
552.2973226277
 21
225.4455303056
 31
0.0
  0
LINE
  5
4D4
330
1F
100
AcDbEntity
  8
0
  6
CONTINUOUS
 62
     7
100
AcDbLine
 10
552.3313941328
 20
241.4455329282
 30
0.0
 11
552.2973226277
 21
241.4455329282
 31
0.0
  0
LINE
  5
4D5
330
1F
100
AcDbEntity
  8
0
  6
CONTINUOUS
 62
     7
100
AcDbLine
 10
548.5785217849
 20
241.4455329282
 30
0.0
 11
548.5785217849
 21
225.4455303056
 31
0.0
  0
LINE
  5
4D6
330
1F
100
AcDbEntity
  8
0
  6
CONTINUOUS
 62
     7
100
AcDbLine
 10
548.5785217849
 20
225.4455303056
 30
0.0
 11
552.2973226277
 21
225.4455303056
 31
0.0
  0
LINE
  5
4D7
330
1F
100
AcDbEntity
  8
0
  6
CONTINUOUS
 62
     7
100
AcDbLine
 10
552.2973226277
 20
241.4455329282
 30
0.0
 11
548.5785217849
 21
241.4455329282
 31
0.0
  0
LINE
  5
4D8
330
1F
100
AcDbEntity
  8
0
  6
CONTINUOUS
 62
     7
100
AcDbLine
 10
548.5785217849
 20
365.4455309016
 30
0.0
 11
548.5785217849
 21
381.4455335242
 31
0.0
  0
LINE
  5
4D9
330
1F
100
AcDbEntity
  8
0
  6
CONTINUOUS
 62
     7
100
AcDbLine
 10
548.5785217849
 20
381.4455335242
 30
0.0
 11
552.2973226277
 21
381.4455335242
 31
0.0
  0
LINE
  5
4DA
330
1F
100
AcDbEntity
  8
0
  6
CONTINUOUS
 62
     7
100
AcDbLine
 10
552.2973226277
 20
365.4455309016
 30
0.0
 11
548.5785217849
 21
365.4455309016
 31
0.0
  0
LINE
  5
4DB
330
1F
100
AcDbEntity
  8
0
  6
CONTINUOUS
 62
     7
100
AcDbLine
 10
570.3313970832
 20
391.4455314381
 30
0.0
 11
572.8313984243
 21
391.4455314381
 31
0.0
  0
LINE
  5
4DC
330
1F
100
AcDbEntity
  8
0
  6
CONTINUOUS
 62
     7
100
AcDbLine
 10
570.3313970832
 20
215.4455323917
 30
0.0
 11
570.3313970832
 21
391.4455314381
 31
0.0
  0
LINE
  5
4DD
330
1F
100
AcDbEntity
  8
0
  6
CONTINUOUS
 62
     7
100
AcDbLine
 10
572.8313984243
 20
215.4455323917
 30
0.0
 11
570.3313970832
 21
215.4455323917
 31
0.0
  0
LINE
  5
4DE
330
1F
100
AcDbEntity
  8
0
  6
CONTINUOUS
 62
     7
100
AcDbLine
 10
573.8313967256
 20
391.4455314381
 30
0.0
 11
572.8313984243
 21
391.4455314381
 31
0.0
  0
ARC
  5
4DF
330
1F
100
AcDbEntity
  8
0
  6
CONTINUOUS
 62
     7
100
AcDbCircle
 10
573.8313965765
 20
388.4455319149
 30
0.0
 40
3.000000000000057
100
AcDbArc
 50
0.0
 51
90.0
  0
LINE
  5
4E0
330
1F
100
AcDbEntity
  8
0
  6
CONTINUOUS
 62
     7
100
AcDbLine
 10
576.8313953547
 20
218.4455310208
 30
0.0
 11
576.8313953547
 21
296.9455317808
 31
0.0
  0
LINE
  5
4E1
330
1F
100
AcDbEntity
  8
0
  6
CONTINUOUS
 62
     7
100
AcDbLine
 10
576.8313953547
 20
309.945532049
 30
0.0
 11
576.8313953547
 21
388.445532809
 31
0.0
  0
ARC
  5
4E2
330
1F
100
AcDbEntity
  8
0
  6
CONTINUOUS
 62
     7
100
AcDbCircle
 10
573.8313965765
 20
218.4455319149
 30
0.0
 40
3.0
100
AcDbArc
 50
270.0
 51
0.0
  0
LINE
  5
4E3
330
1F
100
AcDbEntity
  8
0
  6
CONTINUOUS
 62
     7
100
AcDbLine
 10
572.8313984243
 20
215.4455323917
 30
0.0
 11
573.8313967256
 21
215.4455323917
 31
0.0
  0
LINE
  5
4E4
330
1F
100
AcDbEntity
  8
0
  6
CONTINUOUS
 62
     7
100
AcDbLine
 10
570.3313970832
 20
203.4455304248
 30
0.0
 11
571.8313963977
 21
203.4455304248
 31
0.0
  0
LINE
  5
4E5
330
1F
100
AcDbEntity
  8
0
  6
CONTINUOUS
 62
     7
100
AcDbLine
 10
570.3313970832
 20
215.4455323917
 30
0.0
 11
570.3313970832
 21
203.4455304248
 31
0.0
  0
LINE
  5
4E6
330
1F
100
AcDbEntity
  8
0
  6
CONTINUOUS
 62
     7
100
AcDbLine
 10
571.8313963977
 20
215.4455323917
 30
0.0
 11
571.8313963977
 21
203.4455304248
 31
0.0
  0
LINE
  5
4E7
330
1F
100
AcDbEntity
  8
0
  6
CONTINUOUS
 62
     7
100
AcDbLine
 10
571.8313963977
 20
403.445533405
 30
0.0
 11
570.3313970832
 21
403.445533405
 31
0.0
  0
LINE
  5
4E8
330
1F
100
AcDbEntity
  8
0
  6
CONTINUOUS
 62
     7
100
AcDbLine
 10
571.8313963977
 20
403.445533405
 30
0.0
 11
571.8313963977
 21
391.4455314381
 31
0.0
  0
LINE
  5
4E9
330
1F
100
AcDbEntity
  8
0
  6
CONTINUOUS
 62
     7
100
AcDbLine
 10
570.3313970832
 20
403.445533405
 30
0.0
 11
570.3313970832
 21
391.4455314381
 31
0.0
  0
LINE
  5
4EA
330
1F
100
AcDbEntity
  8
0
  6
CONTINUOUS
 62
     7
100
AcDbLine
 10
571.8313963977
 20
201.4455338222
 30
0.0
 11
570.3313970832
 21
201.4455338222
 31
0.0
  0
LINE
  5
4EB
330
1F
100
AcDbEntity
  8
0
  6
CONTINUOUS
 62
     7
100
AcDbLine
 10
571.8313963977
 20
203.4455304248
 30
0.0
 11
571.8313963977
 21
201.4455338222
 31
0.0
  0
LINE
  5
4EC
330
1F
100
AcDbEntity
  8
0
  6
CONTINUOUS
 62
     7
100
AcDbLine
 10
570.3313970832
 20
201.4455338222
 30
0.0
 11
570.3313970832
 21
203.4455304248
 31
0.0
  0
LINE
  5
4ED
330
1F
100
AcDbEntity
  8
0
  6
CONTINUOUS
 62
     7
100
AcDbLine
 10
570.3313970832
 20
405.4455300075
 30
0.0
 11
571.8313963977
 21
405.4455300075
 31
0.0
  0
LINE
  5
4EE
330
1F
100
AcDbEntity
  8
0
  6
CONTINUOUS
 62
     7
100
AcDbLine
 10
571.8313963977
 20
405.4455300075
 30
0.0
 11
571.8313963977
 21
403.445533405
 31
0.0
  0
LINE
  5
4EF
330
1F
100
AcDbEntity
  8
0
  6
CONTINUOUS
 62
     7
100
AcDbLine
 10
570.3313970832
 20
403.445533405
 30
0.0
 11
570.3313970832
 21
405.4455300075
 31
0.0
  0
LINE
  5
4F0
330
1F
100
AcDbEntity
  8
0
  6
CONTINUOUS
 62
     7
100
AcDbLine
 10
554.8313991992
 20
221.9455306632
 30
0.0
 11
554.8313991992
 21
224.9455292923
 31
0.0
  0
LINE
  5
4F1
330
1F
100
AcDbEntity
  8
0
  6
CONTINUOUS
 62
     7
100
AcDbLine
 10
553.8313971726
 20
224.9455292923
 30
0.0
 11
554.8313991992
 21
224.9455292923
 31
0.0
  0
LINE
  5
4F2
330
1F
100
AcDbEntity
  8
0
  6
CONTINUOUS
 62
     7
100
AcDbLine
 10
553.8313971726
 20
221.9455306632
 30
0.0
 11
554.8313991992
 21
221.9455306632
 31
0.0
  0
LINE
  5
4F3
330
1F
100
AcDbEntity
  8
0
  6
CONTINUOUS
 62
     7
100
AcDbLine
 10
554.8313991992
 20
241.9455302162
 30
0.0
 11
554.8313991992
 21
244.9455325705
 31
0.0
  0
LINE
  5
4F4
330
1F
100
AcDbEntity
  8
0
  6
CONTINUOUS
 62
     7
100
AcDbLine
 10
554.8313991992
 20
241.9455302162
 30
0.0
 11
553.8313971726
 21
241.9455302162
 31
0.0
  0
LINE
  5
4F5
330
1F
100
AcDbEntity
  8
0
  6
CONTINUOUS
 62
     7
100
AcDbLine
 10
554.8313991992
 20
244.9455325705
 30
0.0
 11
553.8313971726
 21
244.9455325705
 31
0.0
  0
LINE
  5
4F6
330
1F
100
AcDbEntity
  8
0
  6
CONTINUOUS
 62
     7
100
AcDbLine
 10
554.8313991992
 20
364.9455336136
 30
0.0
 11
553.8313971726
 21
364.9455336136
 31
0.0
  0
LINE
  5
4F7
330
1F
100
AcDbEntity
  8
0
  6
CONTINUOUS
 62
     7
100
AcDbLine
 10
554.8313991992
 20
361.9455312592
 30
0.0
 11
554.8313991992
 21
364.9455336136
 31
0.0
  0
LINE
  5
4F8
330
1F
100
AcDbEntity
  8
0
  6
CONTINUOUS
 62
     7
100
AcDbLine
 10
553.8313971726
 20
361.9455312592
 30
0.0
 11
554.8313991992
 21
361.9455312592
 31
0.0
  0
LINE
  5
4F9
330
1F
100
AcDbEntity
  8
0
  6
CONTINUOUS
 62
     7
100
AcDbLine
 10
554.8313991992
 20
381.9455345375
 30
0.0
 11
554.8313991992
 21
384.9455331666
 31
0.0
  0
LINE
  5
4FA
330
1F
100
AcDbEntity
  8
0
  6
CONTINUOUS
 62
     7
100
AcDbLine
 10
553.8313971726
 20
381.9455345375
 30
0.0
 11
554.8313991992
 21
381.9455345375
 31
0.0
  0
LINE
  5
4FB
330
1F
100
AcDbEntity
  8
0
  6
CONTINUOUS
 62
     7
100
AcDbLine
 10
554.8313991992
 20
384.9455331666
 30
0.0
 11
553.8313971726
 21
384.9455331666
 31
0.0
  0
LINE
  5
4FC
330
1F
100
AcDbEntity
  8
0
  6
CONTINUOUS
 62
     7
100
AcDbLine
 10
569.3313987819
 20
405.4455300075
 30
0.0
 11
569.3313987819
 21
201.4455338222
 31
0.0
  0
LINE
  5
4FD
330
1F
100
AcDbEntity
  8
0
  6
CONTINUOUS
 62
     7
100
AcDbLine
 10
569.3313987819
 20
201.4455338222
 30
0.0
 11
570.3313970832
 21
201.4455338222
 31
0.0
  0
LINE
  5
4FE
330
1F
100
AcDbEntity
  8
0
  6
CONTINUOUS
 62
     7
100
AcDbLine
 10
570.3313970832
 20
405.4455300075
 30
0.0
 11
569.3313987819
 21
405.4455300075
 31
0.0
  0
LINE
  5
4FF
330
1F
100
AcDbEntity
  8
0
  6
CONTINUOUS
 62
     7
100
AcDbLine
 10
554.8313991992
 20
244.9455325705
 30
0.0
 11
554.8313991992
 21
245.4455335838
 31
0.0
  0
LINE
  5
500
330
1F
100
AcDbEntity
  8
0
  6
CONTINUOUS
 62
     7
100
AcDbLine
 10
554.8313991992
 20
245.4455335838
 30
0.0
 11
552.3313941328
 21
245.4455335838
 31
0.0
  0
LINE
  5
501
330
1F
100
AcDbEntity
  8
0
  6
CONTINUOUS
 62
     7
100
AcDbLine
 10
552.3313941328
 20
245.4455335838
 30
0.0
 11
552.3313941328
 21
361.445530246
 31
0.0
  0
LINE
  5
502
330
1F
100
AcDbEntity
  8
0
  6
CONTINUOUS
 62
     7
100
AcDbLine
 10
552.3313941328
 20
361.445530246
 30
0.0
 11
554.8313991992
 21
361.445530246
 31
0.0
  0
LINE
  5
503
330
1F
100
AcDbEntity
  8
0
  6
CONTINUOUS
 62
     7
100
AcDbLine
 10
554.8313991992
 20
361.445530246
 30
0.0
 11
554.8313991992
 21
361.9455312592
 31
0.0
  0
LINE
  5
504
330
1F
100
AcDbEntity
  8
0
  6
CONTINUOUS
 62
     7
100
AcDbLine
 10
554.8313991992
 20
364.9455336136
 30
0.0
 11
555.3314002124
 21
364.9455336136
 31
0.0
  0
LINE
  5
505
330
1F
100
AcDbEntity
  8
0
  6
CONTINUOUS
 62
     7
100
AcDbLine
 10
555.3314002124
 20
381.9455345375
 30
0.0
 11
555.3314002124
 21
364.9455336136
 31
0.0
  0
LINE
  5
506
330
1F
100
AcDbEntity
  8
0
  6
CONTINUOUS
 62
     7
100
AcDbLine
 10
555.3314002124
 20
381.9455345375
 30
0.0
 11
554.8313991992
 21
381.9455345375
 31
0.0
  0
LINE
  5
507
330
1F
100
AcDbEntity
  8
0
  6
CONTINUOUS
 62
     7
100
AcDbLine
 10
554.8313991992
 20
384.9455331666
 30
0.0
 11
554.8313991992
 21
385.4455341799
 31
0.0
  0
LINE
  5
508
330
1F
100
AcDbEntity
  8
0
  6
CONTINUOUS
 62
     7
100
AcDbLine
 10
554.8313991992
 20
385.4455341799
 30
0.0
 11
552.3313941328
 21
385.4455341799
 31
0.0
  0
LINE
  5
509
330
1F
100
AcDbEntity
  8
0
  6
CONTINUOUS
 62
     7
100
AcDbLine
 10
552.3313941328
 20
385.4455341799
 30
0.0
 11
552.3313941328
 21
405.4455300075
 31
0.0
  0
LINE
  5
50A
330
1F
100
AcDbEntity
  8
0
  6
CONTINUOUS
 62
     7
100
AcDbLine
 10
552.3313941328
 20
201.4455338222
 30
0.0
 11
552.3313941328
 21
221.4455296499
 31
0.0
  0
LINE
  5
50B
330
1F
100
AcDbEntity
  8
0
  6
CONTINUOUS
 62
     7
100
AcDbLine
 10
552.3313941328
 20
221.4455296499
 30
0.0
 11
554.8313991992
 21
221.4455296499
 31
0.0
  0
LINE
  5
50C
330
1F
100
AcDbEntity
  8
0
  6
CONTINUOUS
 62
     7
100
AcDbLine
 10
554.8313991992
 20
221.4455296499
 30
0.0
 11
554.8313991992
 21
221.9455306632
 31
0.0
  0
LINE
  5
50D
330
1F
100
AcDbEntity
  8
0
  6
CONTINUOUS
 62
     7
100
AcDbLine
 10
555.3314002124
 20
224.9455292923
 30
0.0
 11
554.8313991992
 21
224.9455292923
 31
0.0
  0
LINE
  5
50E
330
1F
100
AcDbEntity
  8
0
  6
CONTINUOUS
 62
     7
100
AcDbLine
 10
555.3314002124
 20
241.9455302162
 30
0.0
 11
555.3314002124
 21
224.9455292923
 31
0.0
  0
LINE
  5
50F
330
1F
100
AcDbEntity
  8
0
  6
CONTINUOUS
 62
     7
100
AcDbLine
 10
554.8313991992
 20
241.9455302162
 30
0.0
 11
555.3314002124
 21
241.9455302162
 31
0.0
  0
LINE
  5
510
330
1F
100
AcDbEntity
  8
0
  6
CONTINUOUS
 62
     7
100
AcDbLine
 10
711.3313959805
 20
223.9455347163
 30
0.0
 11
712.8313990203
 21
223.9455347163
 31
0.0
  0
LINE
  5
511
330
1F
100
AcDbEntity
  8
0
  6
CONTINUOUS
 62
     7
100
AcDbLine
 10
711.3313959805
 20
242.9455322427
 30
0.0
 11
711.3313959805
 21
223.9455347163
 31
0.0
  0
LINE
  5
512
330
1F
100
AcDbEntity
  8
0
  6
CONTINUOUS
 62
     7
100
AcDbLine
 10
712.8313990203
 20
242.9455322427
 30
0.0
 11
711.3313959805
 21
242.9455322427
 31
0.0
  0
LINE
  5
513
330
1F
100
AcDbEntity
  8
0
  6
CONTINUOUS
 62
     7
100
AcDbLine
 10
712.8313990203
 20
242.9455322427
 30
0.0
 11
712.8313990203
 21
223.9455347163
 31
0.0
  0
LINE
  5
514
330
1F
100
AcDbEntity
  8
0
  6
CONTINUOUS
 62
     7
100
AcDbLine
 10
712.8313990203
 20
221.9455306632
 30
0.0
 11
711.3313959805
 21
221.9455306632
 31
0.0
  0
LINE
  5
515
330
1F
100
AcDbEntity
  8
0
  6
CONTINUOUS
 62
     7
100
AcDbLine
 10
711.3313959805
 20
221.9455306632
 30
0.0
 11
711.3313959805
 21
223.9455347163
 31
0.0
  0
LINE
  5
516
330
1F
100
AcDbEntity
  8
0
  6
CONTINUOUS
 62
     7
100
AcDbLine
 10
712.8313990203
 20
223.9455347163
 30
0.0
 11
712.8313990203
 21
221.9455306632
 31
0.0
  0
LINE
  5
517
330
1F
100
AcDbEntity
  8
0
  6
CONTINUOUS
 62
     7
100
AcDbLine
 10
712.8313990203
 20
361.9455312592
 30
0.0
 11
711.3313959805
 21
361.9455312592
 31
0.0
  0
LINE
  5
518
330
1F
100
AcDbEntity
  8
0
  6
CONTINUOUS
 62
     7
100
AcDbLine
 10
711.3313959805
 20
363.9455315871
 30
0.0
 11
712.8313990203
 21
363.9455315871
 31
0.0
  0
LINE
  5
519
330
1F
100
AcDbEntity
  8
0
  6
CONTINUOUS
 62
     7
100
AcDbLine
 10
712.8313990203
 20
363.9455315871
 30
0.0
 11
712.8313990203
 21
361.9455312592
 31
0.0
  0
LINE
  5
51A
330
1F
100
AcDbEntity
  8
0
  6
CONTINUOUS
 62
     7
100
AcDbLine
 10
711.3313959805
 20
361.9455312592
 30
0.0
 11
711.3313959805
 21
363.9455315871
 31
0.0
  0
LINE
  5
51B
330
1F
100
AcDbEntity
  8
0
  6
CONTINUOUS
 62
     7
100
AcDbLine
 10
712.8313990203
 20
382.9455291135
 30
0.0
 11
711.3313959805
 21
382.9455291135
 31
0.0
  0
LINE
  5
51C
330
1F
100
AcDbEntity
  8
0
  6
CONTINUOUS
 62
     7
100
AcDbLine
 10
712.8313990203
 20
363.9455315871
 30
0.0
 11
712.8313990203
 21
382.9455291135
 31
0.0
  0
LINE
  5
51D
330
1F
100
AcDbEntity
  8
0
  6
CONTINUOUS
 62
     7
100
AcDbLine
 10
711.3313959805
 20
363.9455315871
 30
0.0
 11
711.3313959805
 21
382.9455291135
 31
0.0
  0
LINE
  5
51E
330
1F
100
AcDbEntity
  8
0
  6
CONTINUOUS
 62
     7
100
AcDbLine
 10
711.3313959805
 20
244.9455325705
 30
0.0
 11
712.8313990203
 21
244.9455325705
 31
0.0
  0
LINE
  5
51F
330
1F
100
AcDbEntity
  8
0
  6
CONTINUOUS
 62
     7
100
AcDbLine
 10
712.8313990203
 20
244.9455325705
 30
0.0
 11
712.8313990203
 21
242.9455322427
 31
0.0
  0
LINE
  5
520
330
1F
100
AcDbEntity
  8
0
  6
CONTINUOUS
 62
     7
100
AcDbLine
 10
711.3313959805
 20
242.9455322427
 30
0.0
 11
711.3313959805
 21
244.9455325705
 31
0.0
  0
LINE
  5
521
330
1F
100
AcDbEntity
  8
0
  6
CONTINUOUS
 62
     7
100
AcDbLine
 10
711.3313959805
 20
384.9455331666
 30
0.0
 11
712.8313990203
 21
384.9455331666
 31
0.0
  0
LINE
  5
522
330
1F
100
AcDbEntity
  8
0
  6
CONTINUOUS
 62
     7
100
AcDbLine
 10
712.8313990203
 20
384.9455331666
 30
0.0
 11
712.8313990203
 21
382.9455291135
 31
0.0
  0
LINE
  5
523
330
1F
100
AcDbEntity
  8
0
  6
CONTINUOUS
 62
     7
100
AcDbLine
 10
711.3313959805
 20
382.9455291135
 30
0.0
 11
711.3313959805
 21
384.9455331666
 31
0.0
  0
LINE
  5
524
330
1F
100
AcDbEntity
  8
0
  6
CONTINUOUS
 62
     7
100
AcDbLine
 10
712.8654705254
 20
225.4455303056
 30
0.0
 11
712.8654705254
 21
241.4455329282
 31
0.0
  0
LINE
  5
525
330
1F
100
AcDbEntity
  8
0
  6
CONTINUOUS
 62
     7
100
AcDbLine
 10
712.8313990203
 20
225.4455303056
 30
0.0
 11
712.8654705254
 21
225.4455303056
 31
0.0
  0
LINE
  5
526
330
1F
100
AcDbEntity
  8
0
  6
CONTINUOUS
 62
     7
100
AcDbLine
 10
712.8654705254
 20
241.4455329282
 30
0.0
 11
712.8313990203
 21
241.4455329282
 31
0.0
  0
LINE
  5
527
330
1F
100
AcDbEntity
  8
0
  6
CONTINUOUS
 62
     7
100
AcDbLine
 10
712.8654705254
 20
381.4455335242
 30
0.0
 11
712.8313990203
 21
381.4455335242
 31
0.0
  0
LINE
  5
528
330
1F
100
AcDbEntity
  8
0
  6
CONTINUOUS
 62
     7
100
AcDbLine
 10
712.8654705254
 20
365.4455309016
 30
0.0
 11
712.8654705254
 21
381.4455335242
 31
0.0
  0
LINE
  5
529
330
1F
100
AcDbEntity
  8
0
  6
CONTINUOUS
 62
     7
100
AcDbLine
 10
712.8313990203
 20
365.4455309016
 30
0.0
 11
712.8654705254
 21
365.4455309016
 31
0.0
  0
LINE
  5
52A
330
1F
100
AcDbEntity
  8
0
  6
CONTINUOUS
 62
     7
100
AcDbLine
 10
716.5842713682
 20
241.4455329282
 30
0.0
 11
716.5842713682
 21
225.4455303056
 31
0.0
  0
LINE
  5
52B
330
1F
100
AcDbEntity
  8
0
  6
CONTINUOUS
 62
     7
100
AcDbLine
 10
716.5842713682
 20
225.4455303056
 30
0.0
 11
712.8654705254
 21
225.4455303056
 31
0.0
  0
LINE
  5
52C
330
1F
100
AcDbEntity
  8
0
  6
CONTINUOUS
 62
     7
100
AcDbLine
 10
712.8654705254
 20
241.4455329282
 30
0.0
 11
716.5842713682
 21
241.4455329282
 31
0.0
  0
LINE
  5
52D
330
1F
100
AcDbEntity
  8
0
  6
CONTINUOUS
 62
     7
100
AcDbLine
 10
716.5842713682
 20
365.4455309016
 30
0.0
 11
716.5842713682
 21
381.4455335242
 31
0.0
  0
LINE
  5
52E
330
1F
100
AcDbEntity
  8
0
  6
CONTINUOUS
 62
     7
100
AcDbLine
 10
716.5842713682
 20
381.4455335242
 30
0.0
 11
712.8654705254
 21
381.4455335242
 31
0.0
  0
LINE
  5
52F
330
1F
100
AcDbEntity
  8
0
  6
CONTINUOUS
 62
     7
100
AcDbLine
 10
712.8654705254
 20
365.4455309016
 30
0.0
 11
716.5842713682
 21
365.4455309016
 31
0.0
  0
LINE
  5
530
330
1F
100
AcDbEntity
  8
0
  6
CONTINUOUS
 62
     7
100
AcDbLine
 10
694.8313960699
 20
403.445533405
 30
0.0
 11
693.3313967554
 21
403.445533405
 31
0.0
  0
LINE
  5
531
330
1F
100
AcDbEntity
  8
0
  6
CONTINUOUS
 62
     7
100
AcDbLine
 10
694.8313960699
 20
203.4455304248
 30
0.0
 11
694.8313960699
 21
403.445533405
 31
0.0
  0
LINE
  5
532
330
1F
100
AcDbEntity
  8
0
  6
CONTINUOUS
 62
     7
100
AcDbLine
 10
693.3313967554
 20
203.4455304248
 30
0.0
 11
694.8313960699
 21
203.4455304248
 31
0.0
  0
LINE
  5
533
330
1F
100
AcDbEntity
  8
0
  6
CONTINUOUS
 62
     7
100
AcDbLine
 10
693.3313967554
 20
203.4455304248
 30
0.0
 11
693.3313967554
 21
403.445533405
 31
0.0
  0
LINE
  5
534
330
1F
100
AcDbEntity
  8
0
  6
CONTINUOUS
 62
     7
100
AcDbLine
 10
694.8313960699
 20
203.4455304248
 30
0.0
 11
694.8313960699
 21
201.4455338222
 31
0.0
  0
LINE
  5
535
330
1F
100
AcDbEntity
  8
0
  6
CONTINUOUS
 62
     7
100
AcDbLine
 10
694.8313960699
 20
201.4455338222
 30
0.0
 11
693.3313967554
 21
201.4455338222
 31
0.0
  0
LINE
  5
536
330
1F
100
AcDbEntity
  8
0
  6
CONTINUOUS
 62
     7
100
AcDbLine
 10
693.3313967554
 20
201.4455338222
 30
0.0
 11
693.3313967554
 21
203.4455304248
 31
0.0
  0
LINE
  5
537
330
1F
100
AcDbEntity
  8
0
  6
CONTINUOUS
 62
     7
100
AcDbLine
 10
693.3313967554
 20
405.4455300075
 30
0.0
 11
694.8313960699
 21
405.4455300075
 31
0.0
  0
LINE
  5
538
330
1F
100
AcDbEntity
  8
0
  6
CONTINUOUS
 62
     7
100
AcDbLine
 10
694.8313960699
 20
405.4455300075
 30
0.0
 11
694.8313960699
 21
403.445533405
 31
0.0
  0
LINE
  5
539
330
1F
100
AcDbEntity
  8
0
  6
CONTINUOUS
 62
     7
100
AcDbLine
 10
693.3313967554
 20
403.445533405
 30
0.0
 11
693.3313967554
 21
405.4455300075
 31
0.0
  0
LINE
  5
53A
330
1F
100
AcDbEntity
  8
0
  6
CONTINUOUS
 62
     7
100
AcDbLine
 10
710.3313939539
 20
224.9455292923
 30
0.0
 11
710.3313939539
 21
221.9455306632
 31
0.0
  0
LINE
  5
53B
330
1F
100
AcDbEntity
  8
0
  6
CONTINUOUS
 62
     7
100
AcDbLine
 10
711.3313959805
 20
224.9455292923
 30
0.0
 11
710.3313939539
 21
224.9455292923
 31
0.0
  0
LINE
  5
53C
330
1F
100
AcDbEntity
  8
0
  6
CONTINUOUS
 62
     7
100
AcDbLine
 10
710.3313939539
 20
221.9455306632
 30
0.0
 11
711.3313959805
 21
221.9455306632
 31
0.0
  0
LINE
  5
53D
330
1F
100
AcDbEntity
  8
0
  6
CONTINUOUS
 62
     7
100
AcDbLine
 10
711.3313959805
 20
244.9455325705
 30
0.0
 11
710.3313939539
 21
244.9455325705
 31
0.0
  0
LINE
  5
53E
330
1F
100
AcDbEntity
  8
0
  6
CONTINUOUS
 62
     7
100
AcDbLine
 10
710.3313939539
 20
241.9455302162
 30
0.0
 11
711.3313959805
 21
241.9455302162
 31
0.0
  0
LINE
  5
53F
330
1F
100
AcDbEntity
  8
0
  6
CONTINUOUS
 62
     7
100
AcDbLine
 10
710.3313939539
 20
244.9455325705
 30
0.0
 11
710.3313939539
 21
241.9455302162
 31
0.0
  0
LINE
  5
540
330
1F
100
AcDbEntity
  8
0
  6
CONTINUOUS
 62
     7
100
AcDbLine
 10
710.3313939539
 20
361.9455312592
 30
0.0
 11
711.3313959805
 21
361.9455312592
 31
0.0
  0
LINE
  5
541
330
1F
100
AcDbEntity
  8
0
  6
CONTINUOUS
 62
     7
100
AcDbLine
 10
710.3313939539
 20
364.9455336136
 30
0.0
 11
710.3313939539
 21
361.9455312592
 31
0.0
  0
LINE
  5
542
330
1F
100
AcDbEntity
  8
0
  6
CONTINUOUS
 62
     7
100
AcDbLine
 10
710.3313939539
 20
364.9455336136
 30
0.0
 11
711.3313959805
 21
364.9455336136
 31
0.0
  0
LINE
  5
543
330
1F
100
AcDbEntity
  8
0
  6
CONTINUOUS
 62
     7
100
AcDbLine
 10
710.3313939539
 20
384.9455331666
 30
0.0
 11
710.3313939539
 21
381.9455345375
 31
0.0
  0
LINE
  5
544
330
1F
100
AcDbEntity
  8
0
  6
CONTINUOUS
 62
     7
100
AcDbLine
 10
711.3313959805
 20
381.9455345375
 30
0.0
 11
710.3313939539
 21
381.9455345375
 31
0.0
  0
LINE
  5
545
330
1F
100
AcDbEntity
  8
0
  6
CONTINUOUS
 62
     7
100
AcDbLine
 10
711.3313959805
 20
384.9455331666
 30
0.0
 11
710.3313939539
 21
384.9455331666
 31
0.0
  0
LINE
  5
546
330
1F
100
AcDbEntity
  8
0
  6
CONTINUOUS
 62
     7
100
AcDbLine
 10
695.8313943712
 20
201.4455338222
 30
0.0
 11
695.8313943712
 21
405.4455300075
 31
0.0
  0
LINE
  5
547
330
1F
100
AcDbEntity
  8
0
  6
CONTINUOUS
 62
     7
100
AcDbLine
 10
695.8313943712
 20
405.4455300075
 30
0.0
 11
694.8313960699
 21
405.4455300075
 31
0.0
  0
LINE
  5
548
330
1F
100
AcDbEntity
  8
0
  6
CONTINUOUS
 62
     7
100
AcDbLine
 10
694.8313960699
 20
201.4455338222
 30
0.0
 11
695.8313943712
 21
201.4455338222
 31
0.0
  0
LINE
  5
549
330
1F
100
AcDbEntity
  8
0
  6
CONTINUOUS
 62
     7
100
AcDbLine
 10
710.3313939539
 20
361.9455312592
 30
0.0
 11
710.3313939539
 21
361.445530246
 31
0.0
  0
LINE
  5
54A
330
1F
100
AcDbEntity
  8
0
  6
CONTINUOUS
 62
     7
100
AcDbLine
 10
710.3313939539
 20
361.445530246
 30
0.0
 11
712.8313990203
 21
361.445530246
 31
0.0
  0
LINE
  5
54B
330
1F
100
AcDbEntity
  8
0
  6
CONTINUOUS
 62
     7
100
AcDbLine
 10
712.8313990203
 20
361.445530246
 30
0.0
 11
712.8313990203
 21
245.4455335838
 31
0.0
  0
LINE
  5
54C
330
1F
100
AcDbEntity
  8
0
  6
CONTINUOUS
 62
     7
100
AcDbLine
 10
712.8313990203
 20
245.4455335838
 30
0.0
 11
710.3313939539
 21
245.4455335838
 31
0.0
  0
LINE
  5
54D
330
1F
100
AcDbEntity
  8
0
  6
CONTINUOUS
 62
     7
100
AcDbLine
 10
710.3313939539
 20
245.4455335838
 30
0.0
 11
710.3313939539
 21
244.9455325705
 31
0.0
  0
LINE
  5
54E
330
1F
100
AcDbEntity
  8
0
  6
CONTINUOUS
 62
     7
100
AcDbLine
 10
710.3313939539
 20
241.9455302162
 30
0.0
 11
709.8313929407
 21
241.9455302162
 31
0.0
  0
LINE
  5
54F
330
1F
100
AcDbEntity
  8
0
  6
CONTINUOUS
 62
     7
100
AcDbLine
 10
709.8313929407
 20
224.9455292923
 30
0.0
 11
709.8313929407
 21
241.9455302162
 31
0.0
  0
LINE
  5
550
330
1F
100
AcDbEntity
  8
0
  6
CONTINUOUS
 62
     7
100
AcDbLine
 10
709.8313929407
 20
224.9455292923
 30
0.0
 11
710.3313939539
 21
224.9455292923
 31
0.0
  0
LINE
  5
551
330
1F
100
AcDbEntity
  8
0
  6
CONTINUOUS
 62
     7
100
AcDbLine
 10
710.3313939539
 20
221.9455306632
 30
0.0
 11
710.3313939539
 21
221.4455296499
 31
0.0
  0
LINE
  5
552
330
1F
100
AcDbEntity
  8
0
  6
CONTINUOUS
 62
     7
100
AcDbLine
 10
710.3313939539
 20
221.4455296499
 30
0.0
 11
712.8313990203
 21
221.4455296499
 31
0.0
  0
LINE
  5
553
330
1F
100
AcDbEntity
  8
0
  6
CONTINUOUS
 62
     7
100
AcDbLine
 10
712.8313990203
 20
221.4455296499
 30
0.0
 11
712.8313990203
 21
201.4455338222
 31
0.0
  0
LINE
  5
554
330
1F
100
AcDbEntity
  8
0
  6
CONTINUOUS
 62
     7
100
AcDbLine
 10
712.8313990203
 20
405.4455300075
 30
0.0
 11
712.8313990203
 21
385.4455341799
 31
0.0
  0
LINE
  5
555
330
1F
100
AcDbEntity
  8
0
  6
CONTINUOUS
 62
     7
100
AcDbLine
 10
712.8313990203
 20
385.4455341799
 30
0.0
 11
710.3313939539
 21
385.4455341799
 31
0.0
  0
LINE
  5
556
330
1F
100
AcDbEntity
  8
0
  6
CONTINUOUS
 62
     7
100
AcDbLine
 10
710.3313939539
 20
385.4455341799
 30
0.0
 11
710.3313939539
 21
384.9455331666
 31
0.0
  0
LINE
  5
557
330
1F
100
AcDbEntity
  8
0
  6
CONTINUOUS
 62
     7
100
AcDbLine
 10
709.8313929407
 20
381.9455345375
 30
0.0
 11
710.3313939539
 21
381.9455345375
 31
0.0
  0
LINE
  5
558
330
1F
100
AcDbEntity
  8
0
  6
CONTINUOUS
 62
     7
100
AcDbLine
 10
709.8313929407
 20
364.9455336136
 30
0.0
 11
709.8313929407
 21
381.9455345375
 31
0.0
  0
LINE
  5
559
330
1F
100
AcDbEntity
  8
0
  6
CONTINUOUS
 62
     7
100
AcDbLine
 10
710.3313939539
 20
364.9455336136
 30
0.0
 11
709.8313929407
 21
364.9455336136
 31
0.0
  0
CIRCLE
  5
55A
330
1F
100
AcDbEntity
  8
0
  6
CONTINUOUS
 62
     7
100
AcDbCircle
 10
670.8313965765
 20
216.4455319149
 30
0.0
 40
2.999999999999992
  0
CIRCLE
  5
55B
330
1F
100
AcDbEntity
  8
0
  6
CONTINUOUS
 62
     7
100
AcDbCircle
 10
670.8313965765
 20
216.4455319149
 30
0.0
 40
2.386500000000021
  0
CIRCLE
  5
55C
330
1F
100
AcDbEntity
  8
0
  6
CONTINUOUS
 62
     7
100
AcDbCircle
 10
670.8313965765
 20
216.4455319149
 30
0.0
 40
0.7592592592593276
  0
LINE
  5
55D
330
1F
100
AcDbEntity
  8
0
  6
CONTINUOUS
 62
     7
100
AcDbLine
 10
574.3313977388
 20
407.7384238345
 30
0.0
 11
574.3313977388
 21
391.4035697681
 31
0.0
  0
LINE
  5
55E
330
1F
100
AcDbEntity
  8
0
  6
CONTINUOUS
 62
     7
100
AcDbLine
 10
574.3313977388
 20
215.4874940617
 30
0.0
 11
574.3313977388
 21
199.1526399953
 31
0.0
  0
LINE
  5
55F
330
1F
100
AcDbEntity
  8
0
  6
CONTINUOUS
 62
     7
100
AcDbLine
 10
576.3313980667
 20
407.7384238345
 30
0.0
 11
574.3313977388
 21
407.7384238345
 31
0.0
  0
LINE
  5
560
330
1F
100
AcDbEntity
  8
0
  6
CONTINUOUS
 62
     7
100
AcDbLine
 10
576.3313980667
 20
407.7384238345
 30
0.0
 11
576.3313980667
 21
390.1038457853
 31
0.0
  0
LINE
  5
561
330
1F
100
AcDbEntity
  8
0
  6
CONTINUOUS
 62
     7
100
AcDbLine
 10
576.3313980667
 20
216.7872180445
 30
0.0
 11
576.3313980667
 21
199.1526399953
 31
0.0
  0
LINE
  5
562
330
1F
100
AcDbEntity
  8
0
  6
CONTINUOUS
 62
     7
100
AcDbLine
 10
576.3313980667
 20
199.1526399953
 30
0.0
 11
574.3313977388
 21
199.1526399953
 31
0.0
  0
LINE
  5
563
330
1F
100
AcDbEntity
  8
0
  6
CONTINUOUS
 62
     7
100
AcDbLine
 10
577.0385028688
 20
196.44553114
 30
0.0
 11
591.3733566073
 21
196.44553114
 31
0.0
  0
LINE
  5
564
330
1F
100
AcDbEntity
  8
0
  6
CONTINUOUS
 62
     7
100
AcDbLine
 10
673.7894365458
 20
196.44553114
 30
0.0
 11
688.1242902843
 21
196.44553114
 31
0.0
  0
LINE
  5
565
330
1F
100
AcDbEntity
  8
0
  6
CONTINUOUS
 62
     7
100
AcDbLine
 10
577.0385028688
 20
198.4455351931
 30
0.0
 11
592.6730843154
 21
198.4455351931
 31
0.0
  0
LINE
  5
566
330
1F
100
AcDbEntity
  8
0
  6
CONTINUOUS
 62
     7
100
AcDbLine
 10
672.4897088377
 20
198.4455351931
 30
0.0
 11
688.1242902843
 21
198.4455351931
 31
0.0
  0
LINE
  5
567
330
1F
100
AcDbEntity
  8
0
  6
CONTINUOUS
 62
     7
100
AcDbLine
 10
688.1242902843
 20
198.4455351931
 30
0.0
 11
688.1242902843
 21
196.44553114
 31
0.0
  0
LINE
  5
568
330
1F
100
AcDbEntity
  8
0
  6
CONTINUOUS
 62
     7
100
AcDbLine
 10
577.0385028688
 20
198.4455351931
 30
0.0
 11
577.0385028688
 21
196.44553114
 31
0.0
  0
LINE
  5
569
330
1F
100
AcDbEntity
  8
0
  6
CONTINUOUS
 62
     7
100
AcDbLine
 10
688.1242902843
 20
410.4455326898
 30
0.0
 11
577.0385028688
 21
410.4455326898
 31
0.0
  0
LINE
  5
56A
330
1F
100
AcDbEntity
  8
0
  6
CONTINUOUS
 62
     7
100
AcDbLine
 10
688.1242902843
 20
408.4455286366
 30
0.0
 11
688.1242902843
 21
410.4455326898
 31
0.0
  0
LINE
  5
56B
330
1F
100
AcDbEntity
  8
0
  6
CONTINUOUS
 62
     7
100
AcDbLine
 10
577.0385028688
 20
408.4455286366
 30
0.0
 11
577.0385028688
 21
410.4455326898
 31
0.0
  0
LINE
  5
56C
330
1F
100
AcDbEntity
  8
0
  6
CONTINUOUS
 62
     7
100
AcDbLine
 10
688.1242902843
 20
408.4455286366
 30
0.0
 11
577.0385028688
 21
408.4455286366
 31
0.0
  0
LINE
  5
56D
330
1F
100
AcDbEntity
  8
0
  6
CONTINUOUS
 62
     7
100
AcDbLine
 10
690.8313954143
 20
199.1526399953
 30
0.0
 11
690.8313954143
 21
407.7384238345
 31
0.0
  0
LINE
  5
56E
330
1F
100
AcDbEntity
  8
0
  6
CONTINUOUS
 62
     7
100
AcDbLine
 10
688.8313950864
 20
199.1526399953
 30
0.0
 11
690.8313954143
 21
199.1526399953
 31
0.0
  0
LINE
  5
56F
330
1F
100
AcDbEntity
  8
0
  6
CONTINUOUS
 62
     7
100
AcDbLine
 10
688.8313950864
 20
199.1526399953
 30
0.0
 11
688.8313950864
 21
407.7384238345
 31
0.0
  0
LINE
  5
570
330
1F
100
AcDbEntity
  8
0
  6
CONTINUOUS
 62
     7
100
AcDbLine
 10
688.8313950864
 20
407.7384238345
 30
0.0
 11
690.8313954143
 21
407.7384238345
 31
0.0
  0
LINE
  5
571
330
1F
100
AcDbEntity
  8
0
  6
CONTINUOUS
 62
     7
100
AcDbLine
 10
687.3313957719
 20
199.9455307824
 30
0.0
 11
577.8313973812
 21
199.9455307824
 31
0.0
  0
ARC
  5
572
330
1F
100
AcDbEntity
  8
0
  6
CONTINUOUS
 62
     7
100
AcDbCircle
 10
690.2779700525
 20
200.5435247673
 30
0.0
 40
3.006642113193247
100
AcDbArc
 50
191.4721138336
 51
224.2495581478
  0
LWPOLYLINE
  5
573
330
1F
100
AcDbEntity
  8
0
  6
CONTINUOUS
 62
     7
100
AcDbPolyline
 90
        6
 70
   128
 43
0.0
 10
577.8313973812
 20
199.9455307824
 10
577.6515925197
 20
199.4224478704
 10
577.4717913834
 20
198.9650343759
 10
577.2920461265
 20
198.6308087809
 10
577.1123045949
 20
198.4615315897
 10
577.0385028688
 20
198.4455351931
  0
LWPOLYLINE
  5
574
330
1F
100
AcDbEntity
  8
0
  6
CONTINUOUS
 62
     7
100
AcDbPolyline
 90
        6
 70
   128
 43
0.0
 10
577.8313973812
 20
406.9455330474
 10
577.308310744
 20
407.1253379089
 10
576.8509009747
 20
407.3051353199
 10
576.5166753797
 20
407.4848805768
 10
576.3473981885
 20
407.6646258337
 10
576.3313980667
 20
407.7384238345
  0
ARC
  5
575
330
1F
100
AcDbEntity
  8
0
  6
CONTINUOUS
 62
     7
100
AcDbCircle
 10
578.4293378415
 20
196.9990377843
 30
0.0
 40
3.006551809258239
100
AcDbArc
 50
101.4714222769
 51
134.2499096849
  0
LINE
  5
576
330
1F
100
AcDbEntity
  8
0
  6
CONTINUOUS
 62
     7
100
AcDbLine
 10
577.8313973812
 20
406.9455330474
 30
0.0
 11
687.3313957719
 21
406.9455330474
 31
0.0
  0
LWPOLYLINE
  5
577
330
1F
100
AcDbEntity
  8
0
  6
CONTINUOUS
 62
     7
100
AcDbPolyline
 90
        6
 70
   128
 43
0.0
 10
687.3313957719
 20
406.9455330474
 10
687.5112006334
 20
407.4686159594
 10
687.6910017697
 20
407.9260294539
 10
687.8707470266
 20
408.2602550489
 10
688.0504885582
 20
408.4295322401
 10
688.1242902843
 20
408.4455286366
  0
ARC
  5
578
330
1F
100
AcDbEntity
  8
0
  6
CONTINUOUS
 62
     7
100
AcDbCircle
 10
574.8848231006
 20
406.3475390625
 30
0.0
 40
3.006642113193212
100
AcDbArc
 50
11.4721138336
 51
44.2495581478
  0
LINE
  5
579
330
1F
100
AcDbEntity
  8
0
  6
CONTINUOUS
 62
     7
100
AcDbLine
 10
687.3313957719
 20
406.9455330474
 30
0.0
 11
687.3313957719
 21
199.9455307824
 31
0.0
  0
ARC
  5
57A
330
1F
100
AcDbEntity
  8
0
  6
CONTINUOUS
 62
     7
100
AcDbCircle
 10
686.7334553116
 20
409.8920260455
 30
0.0
 40
3.006551809258239
100
AcDbArc
 50
281.4714222769
 51
314.2499096849
  0
LWPOLYLINE
  5
57B
330
1F
100
AcDbEntity
  8
0
  6
CONTINUOUS
 62
     7
100
AcDbPolyline
 90
        6
 70
   128
 43
0.0
 10
687.3313957719
 20
199.9455307824
 10
687.8544824091
 20
199.7657259209
 10
688.3118921784
 20
199.5859285099
 10
688.6461177734
 20
199.406183253
 10
688.8153949646
 20
199.2264379961
 10
688.8313950864
 20
199.1526399953
  0
LINE
  5
57C
330
1F
100
AcDbEntity
  8
0
  6
CONTINUOUS
 62
     7
100
AcDbLine
 10
593.0962623922
 20
295.9276171615
 30
0.0
 11
592.0783491699
 21
296.9455317808
 31
0.0
  0
LINE
  5
57D
330
1F
100
AcDbEntity
  8
0
  6
CONTINUOUS
 62
     7
100
AcDbLine
 10
603.3493118254
 20
300.7103986321
 30
0.0
 11
598.5665308205
 21
295.9276171615
 31
0.0
  0
LINE
  5
57E
330
1F
100
AcDbEntity
  8
0
  6
CONTINUOUS
 62
     7
100
AcDbLine
 10
598.5665308205
 20
310.9634466683
 30
0.0
 11
603.3493118254
 21
306.1806651977
 31
0.0
  0
LINE
  5
57F
330
1F
100
AcDbEntity
  8
0
  6
CONTINUOUS
 62
     7
100
AcDbLine
 10
592.0783491699
 20
309.945532049
 30
0.0
 11
593.0962623922
 21
310.9634466683
 31
0.0
  0
LINE
  5
580
330
1F
100
AcDbEntity
  8
0
  6
CONTINUOUS
 62
     7
100
AcDbLine
 10
594.7402404515
 20
299.0025597838
 30
0.0
 11
595.0752669839
 21
300.0281836586
 31
0.0
  0
LINE
  5
581
330
1F
100
AcDbEntity
  8
0
  6
CONTINUOUS
 62
     7
100
AcDbLine
 10
596.5875262288
 20
300.0281836586
 30
0.0
 11
596.9225527612
 21
299.0025597838
 31
0.0
  0
ARC
  5
582
330
1F
100
AcDbEntity
  8
0
  6
CONTINUOUS
 62
     7
100
AcDbCircle
 10
595.8313965765
 20
303.4455319149
 30
0.0
 40
4.575000000000091
100
AcDbArc
 50
283.7982740088
 51
352.4640906577
  0
LINE
  5
583
330
1F
100
AcDbEntity
  8
0
  6
CONTINUOUS
 62
     7
100
AcDbLine
 10
600.3668816654
 20
302.8455318864
 30
0.0
 11
599.2795849113
 21
302.8455318864
 31
0.0
  0
LINE
  5
584
330
1F
100
AcDbEntity
  8
0
  6
CONTINUOUS
 62
     7
100
AcDbLine
 10
598.8997282354
 20
305.1293759355
 30
0.0
 11
601.2228974966
 21
306.4042862253
 31
0.0
  0
LINE
  5
585
330
1F
100
AcDbEntity
  8
0
  6
CONTINUOUS
 62
     7
100
AcDbLine
 10
590.4398957161
 20
306.4042862253
 30
0.0
 11
592.7630649773
 21
305.1293759355
 31
0.0
  0
LINE
  5
586
330
1F
100
AcDbEntity
  8
0
  6
CONTINUOUS
 62
     7
100
AcDbLine
 10
592.3832083014
 20
302.8455318864
 30
0.0
 11
591.2959115473
 21
302.8455318864
 31
0.0
  0
ARC
  5
587
330
1F
100
AcDbEntity
  8
0
  6
CONTINUOUS
 62
     7
100
AcDbCircle
 10
595.8313965765
 20
303.4455319149
 30
0.0
 40
4.575000000000063
100
AcDbArc
 50
187.5359093423
 51
256.2017259913
  0
ARC
  5
588
330
1F
100
AcDbEntity
  8
0
  6
CONTINUOUS
 62
     7
100
AcDbCircle
 10
595.8313965765
 20
303.4455319149
 30
0.0
 40
6.150000000000068
100
AcDbArc
 50
151.2428429586
 51
28.7571570414
  0
LINE
  5
589
330
1F
100
AcDbEntity
  8
0
  6
CONTINUOUS
 62
     7
100
AcDbLine
 10
591.5269652275
 20
301.8955318704
 30
0.0
 11
592.5821648804
 21
301.8955318704
 31
0.0
  0
ARC
  5
58A
330
1F
100
AcDbEntity
  8
0
  6
CONTINUOUS
 62
     7
100
AcDbCircle
 10
595.8313965765
 20
303.4455319149
 30
0.0
 40
3.600000000000006
100
AcDbArc
 50
205.502822258
 51
244.497177742
  0
LINE
  5
58B
330
1F
100
AcDbEntity
  8
0
  6
CONTINUOUS
 62
     7
100
AcDbLine
 10
594.2813964454
 20
300.1963013531
 30
0.0
 11
594.2813964454
 21
299.1411010017
 31
0.0
  0
LINE
  5
58C
330
1F
100
AcDbEntity
  8
0
  6
CONTINUOUS
 62
     7
100
AcDbLine
 10
597.3813967673
 20
299.1411010017
 30
0.0
 11
597.3813967673
 21
300.1963013531
 31
0.0
  0
ARC
  5
58D
330
1F
100
AcDbEntity
  8
0
  6
CONTINUOUS
 62
     7
100
AcDbCircle
 10
595.8313965765
 20
303.4455319149
 30
0.0
 40
3.600000000000109
100
AcDbArc
 50
295.502822258
 51
334.497177742
  0
LINE
  5
58E
330
1F
100
AcDbEntity
  8
0
  6
CONTINUOUS
 62
     7
100
AcDbLine
 10
599.0806283323
 20
301.8955318704
 30
0.0
 11
600.1358279852
 21
301.8955318704
 31
0.0
  0
ARC
  5
58F
330
1F
100
AcDbEntity
  8
0
  6
CONTINUOUS
 62
     7
100
AcDbCircle
 10
595.8313965765
 20
303.4455319149
 30
0.0
 40
3.60000000000001
100
AcDbArc
 50
28.7571570414
 51
64.497177742
  0
LINE
  5
590
330
1F
100
AcDbEntity
  8
0
  6
CONTINUOUS
 62
     7
100
AcDbLine
 10
597.3813967673
 20
306.6947624767
 30
0.0
 11
597.3813967673
 21
307.7765250792
 31
0.0
  0
ARC
  5
591
330
1F
100
AcDbEntity
  8
0
  6
CONTINUOUS
 62
     7
100
AcDbCircle
 10
595.8313965765
 20
303.4455319149
 30
0.0
 40
4.600000000000245
100
AcDbArc
 50
70.3084429798
 51
109.6915570202
  0
LINE
  5
592
330
1F
100
AcDbEntity
  8
0
  6
CONTINUOUS
 62
     7
100
AcDbLine
 10
594.2813964454
 20
307.7765250792
 30
0.0
 11
594.2813964454
 21
306.6947624767
 31
0.0
  0
ARC
  5
593
330
1F
100
AcDbEntity
  8
0
  6
CONTINUOUS
 62
     7
100
AcDbCircle
 10
595.8313965765
 20
303.4455319149
 30
0.0
 40
3.599999999999948
100
AcDbArc
 50
115.502822258
 51
151.2428429586
  0
LINE
  5
594
330
1F
100
AcDbEntity
  8
0
  6
CONTINUOUS
 62
     7
100
AcDbLine
 10
595.8313966063
 20
296.9455317808
 30
0.0
 11
572.7283680705
 21
296.9455317808
 31
0.0
  0
LINE
  5
595
330
1F
100
AcDbEntity
  8
0
  6
CONTINUOUS
 62
     7
100
AcDbLine
 10
572.7283680705
 20
309.945532049
 30
0.0
 11
595.8313966063
 21
309.945532049
 31
0.0
  0
ARC
  5
596
330
1F
100
AcDbEntity
  8
0
  6
CONTINUOUS
 62
     7
100
AcDbCircle
 10
595.8313965765
 20
303.4455319149
 30
0.0
 40
6.5
100
AcDbArc
 50
270.0
 51
90.0
  0
ARC
  5
597
330
1F
100
AcDbEntity
  8
0
  6
CONTINUOUS
 62
     7
100
AcDbCircle
 10
595.8313965765
 20
303.4455319149
 30
0.0
 40
24.00000000000394
100
AcDbArc
 50
164.286138952
 51
195.713861048
  0
ARC
  5
598
330
1F
100
AcDbEntity
  8
0
  6
CONTINUOUS
 62
     7
100
AcDbCircle
 10
595.8313965765
 20
303.4455319149
 30
0.0
 40
7.999999999999967
100
AcDbArc
 50
234.3409123039
 51
253.9550243719
  0
ARC
  5
599
330
1F
100
AcDbEntity
  8
0
  6
CONTINUOUS
 62
     7
100
AcDbCircle
 10
595.8313965765
 20
303.4455319149
 30
0.0
 40
8.000000000000068
100
AcDbArc
 50
286.0449756281
 51
343.9550243719
  0
ARC
  5
59A
330
1F
100
AcDbEntity
  8
0
  6
CONTINUOUS
 62
     7
100
AcDbCircle
 10
595.8313965765
 20
303.4455319149
 30
0.0
 40
8.0000000000001
100
AcDbArc
 50
16.0449756281
 51
73.9550243719
  0
ARC
  5
59B
330
1F
100
AcDbEntity
  8
0
  6
CONTINUOUS
 62
     7
100
AcDbCircle
 10
595.8313965765
 20
303.4455319149
 30
0.0
 40
8.000000000000012
100
AcDbArc
 50
106.0449756281
 51
125.6590876961
  0
LINE
  5
59C
330
1F
100
AcDbEntity
  8
0
  6
CONTINUOUS
 62
     7
100
AcDbLine
 10
588.614518371
 20
309.945532049
 30
0.0
 11
590.3465697435
 21
312.9455316094
 31
0.0
  0
LINE
  5
59D
330
1F
100
AcDbEntity
  8
0
  6
CONTINUOUS
 62
     7
100
AcDbLine
 10
590.3465697435
 20
312.9455316094
 30
0.0
 11
601.3162234692
 21
312.9455316094
 31
0.0
  0
LINE
  5
59E
330
1F
100
AcDbEntity
  8
0
  6
CONTINUOUS
 62
     7
100
AcDbLine
 10
601.3162234692
 20
312.9455316094
 30
0.0
 11
606.8010521946
 21
303.4455319149
 31
0.0
  0
LINE
  5
59F
330
1F
100
AcDbEntity
  8
0
  6
CONTINUOUS
 62
     7
100
AcDbLine
 10
606.8010521946
 20
303.4455319149
 30
0.0
 11
601.3162234692
 21
293.9455322204
 31
0.0
  0
LINE
  5
5A0
330
1F
100
AcDbEntity
  8
0
  6
CONTINUOUS
 62
     7
100
AcDbLine
 10
601.3162234692
 20
293.9455322204
 30
0.0
 11
590.3465697435
 21
293.9455322204
 31
0.0
  0
LINE
  5
5A1
330
1F
100
AcDbEntity
  8
0
  6
CONTINUOUS
 62
     7
100
AcDbLine
 10
590.3465697435
 20
293.9455322204
 30
0.0
 11
588.614518371
 21
296.9455317808
 31
0.0
  0
CIRCLE
  5
5A2
330
1F
100
AcDbEntity
  8
0
  6
CONTINUOUS
 62
     7
100
AcDbCircle
 10
595.8313965765
 20
303.4455319149
 30
0.0
 40
3.5
  0
LINE
  5
5A3
330
1F
100
AcDbEntity
  8
0
  6
CONTINUOUS
 62
     7
100
AcDbLine
 10
594.3313972918
 20
307.6881723692
 30
0.0
 11
594.3313972918
 21
306.6078095445
 31
0.0
  0
ARC
  5
5A4
330
1F
100
AcDbEntity
  8
0
  6
CONTINUOUS
 62
     7
100
AcDbCircle
 10
595.8313965765
 20
303.4455319149
 30
0.0
 40
4.49999999999971
100
AcDbArc
 50
70.5287793655
 51
109.4712206345
  0
LINE
  5
5A5
330
1F
100
AcDbEntity
  8
0
  6
CONTINUOUS
 62
     7
100
AcDbLine
 10
597.3313959209
 20
307.6881723692
 30
0.0
 11
597.3313959209
 21
306.6078095445
 31
0.0
  0
ARC
  5
5A6
330
1F
100
AcDbEntity
  8
0
  6
CONTINUOUS
 62
     7
100
AcDbCircle
 10
595.8313965765
 20
303.4455319149
 30
0.0
 40
4.500000000000024
100
AcDbArc
 50
340.5287793655
 51
352.3377443392
  0
LINE
  5
5A7
330
1F
100
AcDbEntity
  8
0
  6
CONTINUOUS
 62
     7
100
AcDbLine
 10
600.074036595
 20
301.9455319019
 30
0.0
 11
598.9936726061
 21
301.9455319019
 31
0.0
  0
LINE
  5
5A8
330
1F
100
AcDbEntity
  8
0
  6
CONTINUOUS
 62
     7
100
AcDbLine
 10
597.3313959209
 20
300.2832542853
 30
0.0
 11
597.3313959209
 21
299.2028914606
 31
0.0
  0
LWPOLYLINE
  5
5A9
330
1F
100
AcDbEntity
  8
0
  6
CONTINUOUS
 62
     7
100
AcDbPolyline
 90
        3
 70
   128
 43
0.0
 10
594.3313972918
 20
299.2028914606
 10
594.6968259183
 20
299.0909083029
 10
594.7635942964
 20
299.0740564866
  0
LWPOLYLINE
  5
5AA
330
1F
100
AcDbEntity
  8
0
  6
CONTINUOUS
 62
     7
100
AcDbPolyline
 90
        3
 70
   128
 43
0.0
 10
596.8991989163
 20
299.0740564866
 10
596.9659672944
 20
299.0909083029
 10
597.3313959209
 20
299.2028914606
  0
LINE
  5
5AB
330
1F
100
AcDbEntity
  8
0
  6
CONTINUOUS
 62
     7
100
AcDbLine
 10
594.3313972918
 20
300.2832542853
 30
0.0
 11
594.3313972918
 21
299.2028914606
 31
0.0
  0
LINE
  5
5AC
330
1F
100
AcDbEntity
  8
0
  6
CONTINUOUS
 62
     7
100
AcDbLine
 10
591.5887566177
 20
301.9455319019
 30
0.0
 11
592.6691206066
 21
301.9455319019
 31
0.0
  0
ARC
  5
5AD
330
1F
100
AcDbEntity
  8
0
  6
CONTINUOUS
 62
     7
100
AcDbCircle
 10
595.8313965765
 20
303.4455319149
 30
0.0
 40
4.499999999999911
100
AcDbArc
 50
187.6622556608
 51
199.4712206345
  0
ARC
  5
5AE
330
1F
100
AcDbEntity
  8
0
  6
CONTINUOUS
 62
     7
100
AcDbCircle
 10
595.8313965765
 20
303.4455319149
 30
0.0
 40
7.000000000000021
100
AcDbArc
 50
248.2132107017
 51
111.7867892983
  0
LWPOLYLINE
  5
5AF
330
1F
100
AcDbEntity
  8
0
  6
CONTINUOUS
 62
     7
100
AcDbPolyline
 90
        4
 70
   128
 43
0.0
 10
598.0425314871
 20
295.7571716262
 10
599.1915972797
 20
296.9062364874
 10
600.4473665623
 20
298.1620053043
 10
600.7811451224
 20
298.4957843301
  0
ARC
  5
5B0
330
1F
100
AcDbEntity
  8
0
  6
CONTINUOUS
 62
     7
100
AcDbCircle
 10
595.8313965765
 20
303.4455319149
 30
0.0
 40
7.999999999999842
100
AcDbArc
 50
253.9550243719
 51
286.0449756281
  0
LWPOLYLINE
  5
5B1
330
1F
100
AcDbEntity
  8
0
  6
CONTINUOUS
 62
     7
100
AcDbPolyline
 90
        3
 70
   128
 43
0.0
 10
592.4319015709
 20
296.9455317808
 10
592.6550352839
 20
296.7223994648
 10
593.6202617256
 20
295.7571716262
  0
ARC
  5
5B2
330
1F
100
AcDbEntity
  8
0
  6
CONTINUOUS
 62
     7
100
AcDbCircle
 10
595.8313965765
 20
303.4455319149
 30
0.0
 40
8.000000000000028
100
AcDbArc
 50
73.9550243719
 51
106.0449756281
  0
LWPOLYLINE
  5
5B3
330
1F
100
AcDbEntity
  8
0
  6
CONTINUOUS
 62
     7
100
AcDbPolyline
 90
        3
 70
   128
 43
0.0
 10
600.7811451224
 20
308.3952794997
 10
599.0077579288
 20
310.168664365
 10
598.0425314871
 20
311.1338922036
  0
LWPOLYLINE
  5
5B4
330
1F
100
AcDbEntity
  8
0
  6
CONTINUOUS
 62
     7
100
AcDbPolyline
 90
        3
 70
   128
 43
0.0
 10
593.6202617256
 20
311.1338922036
 10
592.471195933
 20
309.9848273424
 10
592.4319015709
 20
309.945532049
  0
LWPOLYLINE
  5
5B5
330
1F
100
AcDbEntity
  8
0
  6
CONTINUOUS
 62
     7
100
AcDbPolyline
 90
        3
 70
   128
 43
0.0
 10
600.7811451224
 20
298.4957843301
 10
602.5545285908
 20
300.2691694283
 10
603.5197568951
 20
301.2343972669
  0
LWPOLYLINE
  5
5B6
330
1F
100
AcDbEntity
  8
0
  6
CONTINUOUS
 62
     7
100
AcDbPolyline
 90
        4
 70
   128
 43
0.0
 10
603.5197568951
 20
305.6566665628
 10
602.3706929652
 20
306.8057311913
 10
601.1149236826
 20
308.0615004738
 10
600.7811451224
 20
308.3952794997
  0
ARC
  5
5B7
330
1F
100
AcDbEntity
  8
0
  6
CONTINUOUS
 62
     7
100
AcDbCircle
 10
595.8313965765
 20
303.4455319149
 30
0.0
 40
8.0000000000001
100
AcDbArc
 50
343.9550243719
 51
16.0449756281
  0
LINE
  5
5B8
330
1F
100
AcDbEntity
  8
0
  6
CONTINUOUS
 62
     8
100
AcDbLine
 10
572.8313984243
 20
215.4455323917
 30
0.0
 11
572.8313984243
 21
296.9455317808
 31
0.0
  0
LINE
  5
5B9
330
1F
100
AcDbEntity
  8
0
  6
CONTINUOUS
 62
     8
100
AcDbLine
 10
572.8313984243
 20
309.945532049
 30
0.0
 11
572.8313984243
 21
391.4455314381
 31
0.0
  0
LINE
  5
5BA
330
1F
100
AcDbEntity
  8
0
  6
CONTINUOUS
 62
     8
100
AcDbLine
 10
577.8313973812
 20
199.9455307824
 30
0.0
 11
577.8313973812
 21
296.9455317808
 31
0.0
  0
LINE
  5
5BB
330
1F
100
AcDbEntity
  8
0
  6
CONTINUOUS
 62
     8
100
AcDbLine
 10
577.8313973812
 20
309.945532049
 30
0.0
 11
577.8313973812
 21
406.9455330474
 31
0.0
  0
ENDSEC
  0
SECTION
  2
OBJECTS
  0
DICTIONARY
  5
C
330
0
100
AcDbDictionary
  3
ACAD_GROUP
350
D
  3
ACAD_MLINESTYLE
350
17
  0
DICTIONARY
  5
D
102
{ACAD_REACTORS
330
C
102
}
330
C
100
AcDbDictionary
  0
DICTIONARY
  5
17
102
{ACAD_REACTORS
330
C
102
}
330
C
100
AcDbDictionary
  3
STANDARD
350
18
  0
MLINESTYLE
  5
18
102
{ACAD_REACTORS
330
17
102
}
330
17
100
AcDbMlineStyle
  2
Standard
 70
     0
  3

 62
   256
 51
90.0
 52
90.0
 71
     2
 49
0.5
 62
   256
  6
BYLAYER
 49
-0.5
 62
   256
  6
BYLAYER
  0
ENDSEC
  0
EOF
