  0
SECTION
  2
HEADER
  9
$ACADVER
  1
AC1014
  9
$ACADMAINTVER
 70
     9
  9
$DWGCODEPAGE
  3
ANSI_1252
  9
$INSBASE
 10
0.0
 20
0.0
 30
0.0
  9
$EXTMIN
 10
0.0
 20
0.0
 30
0.0
  9
$EXTMAX
 10
840.0
 20
594.0
 30
0.0
  9
$LIMMIN
 10
0.0
 20
0.0
  9
$LIMMAX
 10
840.0
 20
594.0
  9
$ORTHOMODE
 70
     0
  9
$REGENMODE
 70
     1
  9
$FILLMODE
 70
     1
  9
$QTEXTMODE
 70
     0
  9
$MIRRTEXT
 70
     1
  9
$DRAGMODE
 70
     2
  9
$LTSCALE
 40
2.0
  9
$OSMODE
 70
    37
  9
$ATTMODE
 70
     1
  9
$TEXTSIZE
 40
7.0
  9
$TRACEWID
 40
1.0
  9
$TEXTSTYLE
  7
STANDARD
  9
$CLAYER
  8
0
  9
$CELTYPE
  6
BYLAYER
  9
$CECOLOR
 62
   256
  9
$CELTSCALE
 40
1.0
  9
$DELOBJ
 70
     1
  9
$DISPSILH
 70
     0
  9
$DIMSCALE
 40
1.0
  9
$DIMASZ
 40
12.0
  9
$DIMEXO
 40
2.0
  9
$DIMDLI
 40
3.75
  9
$DIMRND
 40
0.0
  9
$DIMDLE
 40
0.0
  9
$DIMEXE
 40
2.0
  9
$DIMTP
 40
0.0
  9
$DIMTM
 40
0.0
  9
$DIMTXT
 40
7.0
  9
$DIMCEN
 40
2.5
  9
$DIMTSZ
 40
0.0
  9
$DIMTOL
 70
     0
  9
$DIMLIM
 70
     0
  9
$DIMTIH
 70
     1
  9
$DIMTOH
 70
     1
  9
$DIMSE1
 70
     0
  9
$DIMSE2
 70
     0
  9
$DIMTAD
 70
     1
  9
$DIMZIN
 70
     0
  9
$DIMBLK
  1

  9
$DIMASO
 70
     1
  9
$DIMSHO
 70
     1
  9
$DIMPOST
  1

  9
$DIMAPOST
  1

  9
$DIMALT
 70
     0
  9
$DIMALTD
 70
     3
  9
$DIMALTF
 40
0.0393700787
  9
$DIMLFAC
 40
1.0
  9
$DIMTOFL
 70
     1
  9
$DIMTVP
 40
0.0
  9
$DIMTIX
 70
     0
  9
$DIMSOXD
 70
     0
  9
$DIMSAH
 70
     0
  9
$DIMBLK1
  1

  9
$DIMBLK2
  1

  9
$DIMSTYLE
  2
ISO-25
  9
$DIMCLRD
 70
     0
  9
$DIMCLRE
 70
     0
  9
$DIMCLRT
 70
     0
  9
$DIMTFAC
 40
1.0
  9
$DIMGAP
 40
3.048
  9
$DIMJUST
 70
     0
  9
$DIMSD1
 70
     0
  9
$DIMSD2
 70
     0
  9
$DIMTOLJ
 70
     0
  9
$DIMTZIN
 70
     0
  9
$DIMALTZ
 70
     0
  9
$DIMALTTZ
 70
     0
  9
$DIMFIT
 70
     3
  9
$DIMUPT
 70
     0
  9
$DIMUNIT
 70
     2
  9
$DIMDEC
 70
     2
  9
$DIMTDEC
 70
     2
  9
$DIMALTU
 70
     2
  9
$DIMALTTD
 70
     3
  9
$DIMTXSTY
  7
STANDARD
  9
$DIMAUNIT
 70
     0
  9
$LUNITS
 70
     2
  9
$LUPREC
 70
     2
  9
$SKETCHINC
 40
1.0
  9
$FILLETRAD
 40
10.0
  9
$AUNITS
 70
     0
  9
$AUPREC
 70
     2
  9
$MENU
  1
.
  9
$ELEVATION
 40
0.0
  9
$PELEVATION
 40
0.0
  9
$THICKNESS
 40
0.0
  9
$LIMCHECK
 70
     0
  9
$CHAMFERA
 40
10.0
  9
$CHAMFERB
 40
10.0
  9
$CHAMFERC
 40
20.0
  9
$CHAMFERD
 40
0.0
  9
$SKPOLY
 70
     0
  9
$TDCREATE
 40
2455439.49004338
  9
$TDUPDATE
 40
2455439.490043391
  9
$TDINDWG
 40
0.0000000116
  9
$TDUSRTIMER
 40
0.0000000116
  9
$USRTIMER
 70
     1
  9
$ANGBASE
 50
0.0
  9
$ANGDIR
 70
     0
  9
$PDMODE
 70
     0
  9
$PDSIZE
 40
-1.0
  9
$PLINEWID
 40
0.0
  9
$COORDS
 70
     1
  9
$SPLFRAME
 70
     0
  9
$SPLINETYPE
 70
     6
  9
$SPLINESEGS
 70
     8
  9
$ATTDIA
 70
     0
  9
$ATTREQ
 70
     1
  9
$HANDLING
 70
     1
  9
$HANDSEED
  5
1D9
  9
$SURFTAB1
 70
     6
  9
$SURFTAB2
 70
     6
  9
$SURFTYPE
 70
     6
  9
$SURFU
 70
     6
  9
$SURFV
 70
     6
  9
$UCSNAME
  2

  9
$UCSORG
 10
0.0
 20
0.0
 30
0.0
  9
$UCSXDIR
 10
1.0
 20
0.0
 30
0.0
  9
$UCSYDIR
 10
0.0
 20
1.0
 30
0.0
  9
$PUCSNAME
  2

  9
$PUCSORG
 10
0.0
 20
0.0
 30
0.0
  9
$PUCSXDIR
 10
1.0
 20
0.0
 30
0.0
  9
$PUCSYDIR
 10
0.0
 20
1.0
 30
0.0
  9
$USERI1
 70
     0
  9
$USERI2
 70
     0
  9
$USERI3
 70
     0
  9
$USERI4
 70
     0
  9
$USERI5
 70
     0
  9
$USERR1
 40
0.0
  9
$USERR2
 40
0.0
  9
$USERR3
 40
0.0
  9
$USERR4
 40
0.0
  9
$USERR5
 40
0.0
  9
$WORLDVIEW
 70
     1
  9
$SHADEDGE
 70
     3
  9
$SHADEDIF
 70
    70
  9
$TILEMODE
 70
     1
  9
$MAXACTVP
 70
    64
  9
$PINSBASE
 10
0.0
 20
0.0
 30
0.0
  9
$PLIMCHECK
 70
     0
  9
$PEXTMIN
 10
1.0000000000E+20
 20
1.0000000000E+20
 30
1.0000000000E+20
  9
$PEXTMAX
 10
-1.0000000000E+20
 20
-1.0000000000E+20
 30
-1.0000000000E+20
  9
$PLIMMIN
 10
0.0
 20
0.0
  9
$PLIMMAX
 10
420.0
 20
297.0
  9
$UNITMODE
 70
     0
  9
$VISRETAIN
 70
     1
  9
$PLINEGEN
 70
     0
  9
$PSLTSCALE
 70
     1
  9
$TREEDEPTH
 70
  3020
  9
$PICKSTYLE
 70
     1
  9
$CMLSTYLE
  2
STANDARD
  9
$CMLJUST
 70
     0
  9
$CMLSCALE
 40
20.0
  9
$PROXYGRAPHICS
 70
     1
  9
$MEASUREMENT
 70
     1
  0
ENDSEC
  0
SECTION
  2
CLASSES
  0
CLASS
  1
ACDBDICTIONARYWDFLT
  2
AcDbDictionaryWithDefault
  3
ObjectDBX Classes
 90
        0
280
     0
281
     0
  0
CLASS
  1
VISUALSTYLE
  2
AcDbVisualStyle
  3
ObjectDBX Classes
 90
     4095
280
     0
281
     0
  0
CLASS
  1
MATERIAL
  2
AcDbMaterial
  3
ObjectDBX Classes
 90
     1153
280
     0
281
     0
  0
CLASS
  1
XRECORD
  2
AcDbXrecord
  3
AutoCAD 2000
 90
        0
280
     0
281
     0
  0
CLASS
  1
LWPOLYLINE
  2
AcDbPolyline
  3
AutoCAD 2000
 90
        0
280
     0
281
     1
  0
CLASS
  1
HATCH
  2
AcDbHatch
  3
AutoCAD 2000
 90
        0
280
     0
281
     1
  0
ENDSEC
  0
SECTION
  2
TABLES
  0
TABLE
  2
VPORT
  5
8
330
0
100
AcDbSymbolTable
 70
     1
  0
VPORT
  5
29
330
8
100
AcDbSymbolTableRecord
100
AcDbViewportTableRecord
  2
*ACTIVE
 70
     0
 10
0.0
 20
0.0
 11
1.0
 21
1.0
 12
420.0
 22
297.0
 13
0.0
 23
0.0
 14
10.0
 24
10.0
 15
10.0
 25
10.0
 16
0.0
 26
0.0
 36
1.0
 17
0.0
 27
0.0
 37
0.0
 40
594.0
 41
1.4141414141
 42
50.0
 43
0.0
 44
0.0
 50
0.0
 51
0.0
 71
     0
 72
  2000
 73
     1
 74
     3
 75
     0
 76
     0
 77
     0
 78
     0
  0
ENDTAB
  0
TABLE
  2
LTYPE
  5
5
330
0
100
AcDbSymbolTable
 70
     6
  0
LTYPE
  5
14
330
5
100
AcDbSymbolTableRecord
100
AcDbLinetypeTableRecord
  2
BYBLOCK
 70
     0
  3

 72
    65
 73
     0
 40
0.0
  0
LTYPE
  5
15
330
5
100
AcDbSymbolTableRecord
100
AcDbLinetypeTableRecord
  2
BYLAYER
 70
     0
  3

 72
    65
 73
     0
 40
0.0
  0
LTYPE
  5
16
330
5
100
AcDbSymbolTableRecord
100
AcDbLinetypeTableRecord
  2
CONTINUOUS
 70
     0
  3
Solid line
 72
    65
 73
     0
 40
0.0
  0
LTYPE
  5
3F
330
5
100
AcDbSymbolTableRecord
100
AcDbLinetypeTableRecord
  2
HIDDEN
 70
     0
  3
Hidden __ __ __ __ __ __ __ __ __ __ __ __ __ __
 72
    65
 73
     2
 40
1.905
 49
1.27
 74
     0
 49
-0.635
 74
     0
  0
LTYPE
  5
40
330
5
100
AcDbSymbolTableRecord
100
AcDbLinetypeTableRecord
  2
PHANTOM
 70
     0
  3
Phantom ______  __  __  ______  __  __  ______
 72
    65
 73
     6
 40
12.7
 49
6.35
 74
     0
 49
-1.27
 74
     0
 49
1.27
 74
     0
 49
-1.27
 74
     0
 49
1.27
 74
     0
 49
-1.27
 74
     0
  0
LTYPE
  5
41
330
5
100
AcDbSymbolTableRecord
100
AcDbLinetypeTableRecord
  2
CENTER
 70
     0
  3
Center ____ _ ____ _ ____ _ ____ _ ____ _ ____
 72
    65
 73
     4
 40
10.16
 49
6.35
 74
     0
 49
-1.27
 74
     0
 49
1.27
 74
     0
 49
-1.27
 74
     0
  0
LTYPE
  5
42
330
5
100
AcDbSymbolTableRecord
100
AcDbLinetypeTableRecord
  2
CENTERX2
 70
     0
  3
Center (2x) ________  __  ________  __  _____
 72
    65
 73
     4
 40
20.32
 49
12.7
 74
     0
 49
-2.54
 74
     0
 49
2.54
 74
     0
 49
-2.54
 74
     0
  0
LTYPE
  5
43
330
5
100
AcDbSymbolTableRecord
100
AcDbLinetypeTableRecord
  2
DOT2
 70
     0
  3
Dot (.5x) ........................................
 72
    65
 73
     2
 40
0.635
 49
0.0
 74
     0
 49
-0.635
 74
     0
  0
ENDTAB
  0
TABLE
  2
LAYER
  5
2
330
0
100
AcDbSymbolTable
 70
     1
  0
LAYER
  5
10
330
2
100
AcDbSymbolTableRecord
100
AcDbLayerTableRecord
  2
0
 70
     0
 62
     7
  6
CONTINUOUS
  0
ENDTAB
  0
TABLE
  2
STYLE
  5
3
330
0
100
AcDbSymbolTable
 70
     1
  0
STYLE
  5
11
330
3
100
AcDbSymbolTableRecord
100
AcDbTextStyleTableRecord
  2
STANDARD
 70
     0
 40
0.0
 41
1.0
 50
0.0
 71
     0
 42
2.5
  3
txt
  4

  0
ENDTAB
  0
TABLE
  2
VIEW
  5
6
330
0
100
AcDbSymbolTable
 70
     0
  0
ENDTAB
  0
TABLE
  2
UCS
  5
7
330
0
100
AcDbSymbolTable
 70
     0
  0
ENDTAB
  0
TABLE
  2
APPID
  5
9
330
0
100
AcDbSymbolTable
 70
     1
  0
APPID
  5
12
330
9
100
AcDbSymbolTableRecord
100
AcDbRegAppTableRecord
  2
ACAD
 70
     0
  0
ENDTAB
  0
TABLE
  2
DIMSTYLE
  5
A
330
0
100
AcDbSymbolTable
 70
     1
  0
DIMSTYLE
105
27
330
A
100
AcDbSymbolTableRecord
100
AcDbDimStyleTableRecord
  2
ISO-25
 70
     0
  3

  4

  5

  6

  7

 40
1.0
 41
2.5
 42
0.625
 43
3.75
 44
1.25
 45
0.0
 46
0.0
 47
0.0
 48
0.0
140
2.5
141
2.5
142
0.0
143
0.0393700787
144
1.0
145
0.0
146
1.0
147
0.625
 71
     0
 72
     0
 73
     0
 74
     0
 75
     0
 76
     0
 77
     1
 78
     8
170
     0
171
     3
172
     1
173
     0
174
     0
175
     0
176
     0
177
     0
178
     0
270
     2
271
     2
272
     2
273
     2
274
     3
340
11
275
     0
280
     0
281
     0
282
     0
283
     0
284
     8
285
     0
286
     0
287
     3
288
     0
  0
ENDTAB
  0
TABLE
  2
BLOCK_RECORD
  5
1
330
0
100
AcDbSymbolTable
 70
     1
  0
BLOCK_RECORD
  5
1F
330
1
100
AcDbSymbolTableRecord
100
AcDbBlockTableRecord
  2
*MODEL_SPACE
  0
BLOCK_RECORD
  5
1B
330
1
100
AcDbSymbolTableRecord
100
AcDbBlockTableRecord
  2
*PAPER_SPACE
  0
BLOCK_RECORD
  5
23
330
1
100
AcDbSymbolTableRecord
100
AcDbBlockTableRecord
  2
*PAPER_SPACE0
  0
ENDTAB
  0
ENDSEC
  0
SECTION
  2
BLOCKS
  0
BLOCK
  5
20
330
1F
100
AcDbEntity
  8
0
100
AcDbBlockBegin
  2
*MODEL_SPACE
 70
     0
 10
0.0
 20
0.0
 30
0.0
  3
*MODEL_SPACE
  1

  0
ENDBLK
  5
21
330
1F
100
AcDbEntity
  8
0
100
AcDbBlockEnd
  0
BLOCK
  5
1C
330
1B
100
AcDbEntity
 67
     1
  8
0
100
AcDbBlockBegin
  2
*PAPER_SPACE
 70
     0
 10
0.0
 20
0.0
 30
0.0
  3
*PAPER_SPACE
  1

  0
ENDBLK
  5
1D
330
1B
100
AcDbEntity
 67
     1
  8
0
100
AcDbBlockEnd
  0
BLOCK
  5
24
330
23
100
AcDbEntity
  8
0
100
AcDbBlockBegin
  2
*PAPER_SPACE0
 70
     0
 10
0.0
 20
0.0
 30
0.0
  3
*PAPER_SPACE0
  1

  0
ENDBLK
  5
25
330
23
100
AcDbEntity
  8
0
100
AcDbBlockEnd
  0
ENDSEC
  0
SECTION
  2
ENTITIES
  0
LINE
  5
44
330
1F
100
AcDbEntity
  8
0
  6
CONTINUOUS
 62
     7
100
AcDbLine
 10
205.1562390343
 20
181.9136923138
 30
0.0
 11
369.1562435643
 21
181.9136923138
 31
0.0
  0
LINE
  5
45
330
1F
100
AcDbEntity
  8
0
  6
CONTINUOUS
 62
     7
100
AcDbLine
 10
193.156244518
 20
357.9136913601
 30
0.0
 11
193.156244518
 21
193.9136868302
 31
0.0
  0
LINE
  5
46
330
1F
100
AcDbEntity
  8
0
  6
CONTINUOUS
 62
     7
100
AcDbLine
 10
369.1562435643
 20
369.9136858765
 30
0.0
 11
205.1562390343
 21
369.9136858765
 31
0.0
  0
LINE
  5
47
330
1F
100
AcDbEntity
  8
0
  6
CONTINUOUS
 62
     7
100
AcDbLine
 10
381.1562380807
 20
193.9136868302
 30
0.0
 11
381.1562380807
 21
357.9136913601
 31
0.0
  0
ARC
  5
48
330
1F
100
AcDbEntity
  8
0
  6
CONTINUOUS
 62
     7
100
AcDbCircle
 10
222.5562412993
 20
193.8136890943
 30
0.0
 40
5.400000000000006
100
AcDbArc
 50
180.0
 51
270.0
  0
LINE
  5
49
330
1F
100
AcDbEntity
  8
0
  6
CONTINUOUS
 62
     7
100
AcDbLine
 10
222.556243004
 20
188.4136905852
 30
0.0
 11
351.7562395946
 21
188.4136905852
 31
0.0
  0
ARC
  5
4A
330
1F
100
AcDbEntity
  8
0
  6
CONTINUOUS
 62
     7
100
AcDbCircle
 10
351.7562412993
 20
193.8136890943
 30
0.0
 40
5.399999999999977
100
AcDbArc
 50
270.0
 51
0.0
  0
LINE
  5
4B
330
1F
100
AcDbEntity
  8
0
  6
CONTINUOUS
 62
     7
100
AcDbLine
 10
357.1562415973
 20
193.813692588
 30
0.0
 11
357.1562415973
 21
193.9136868302
 31
0.0
  0
ARC
  5
4C
330
1F
100
AcDbEntity
  8
0
  6
CONTINUOUS
 62
     7
100
AcDbCircle
 10
369.2562412993
 20
211.3136890951
 30
0.0
 40
5.400000000000034
100
AcDbArc
 50
270.0
 51
0.0
  0
ARC
  5
4D
330
1F
100
AcDbEntity
  8
0
  6
CONTINUOUS
 62
     7
100
AcDbCircle
 10
369.2562412993
 20
340.5136890951
 30
0.0
 40
5.400000000000034
100
AcDbArc
 50
0.0
 51
90.0
  0
ARC
  5
4E
330
1F
100
AcDbEntity
  8
0
  6
CONTINUOUS
 62
     7
100
AcDbCircle
 10
369.1562412993
 20
357.9136890951
 30
0.0
 40
12.00000000000006
100
AcDbArc
 50
180.0
 51
270.0
  0
LINE
  5
4F
330
1F
100
AcDbEntity
  8
0
  6
CONTINUOUS
 62
     7
100
AcDbLine
 10
357.1562415973
 20
357.9136913601
 30
0.0
 11
357.1562415973
 21
358.0136856023
 31
0.0
  0
ARC
  5
50
330
1F
100
AcDbEntity
  8
0
  6
CONTINUOUS
 62
     7
100
AcDbCircle
 10
351.7562412993
 20
358.0136890959
 30
0.0
 40
5.400000000000034
100
AcDbArc
 50
0.0
 51
90.0
  0
LINE
  5
51
330
1F
100
AcDbEntity
  8
0
  6
CONTINUOUS
 62
     7
100
AcDbLine
 10
351.7562395946
 20
363.413687605
 30
0.0
 11
222.556243004
 21
363.413687605
 31
0.0
  0
ARC
  5
52
330
1F
100
AcDbEntity
  8
0
  6
CONTINUOUS
 62
     7
100
AcDbCircle
 10
222.5562412993
 20
358.0136890959
 30
0.0
 40
5.400000000000034
100
AcDbArc
 50
90.0
 51
180.0
  0
LINE
  5
53
330
1F
100
AcDbEntity
  8
0
  6
CONTINUOUS
 62
     7
100
AcDbLine
 10
217.1562410013
 20
358.0136856023
 30
0.0
 11
217.1562410013
 21
357.9136913601
 31
0.0
  0
ARC
  5
54
330
1F
100
AcDbEntity
  8
0
  6
CONTINUOUS
 62
     7
100
AcDbCircle
 10
205.1562412993
 20
357.9136890951
 30
0.0
 40
12.00000000000003
100
AcDbArc
 50
270.0
 51
0.0
  0
LINE
  5
55
330
1F
100
AcDbEntity
  8
0
  6
CONTINUOUS
 62
     7
100
AcDbLine
 10
205.1562390343
 20
345.9136893932
 30
0.0
 11
205.0562447921
 21
345.9136893932
 31
0.0
  0
ARC
  5
56
330
1F
100
AcDbEntity
  8
0
  6
CONTINUOUS
 62
     7
100
AcDbCircle
 10
205.0562412993
 20
340.5136890951
 30
0.0
 40
5.400000000000034
100
AcDbArc
 50
90.0
 51
180.0
  0
LINE
  5
57
330
1F
100
AcDbEntity
  8
0
  6
CONTINUOUS
 62
     7
100
AcDbLine
 10
199.6562427894
 20
340.5136873904
 30
0.0
 11
199.6562427894
 21
211.3136907998
 31
0.0
  0
LINE
  5
58
330
1F
100
AcDbEntity
  8
0
  6
CONTINUOUS
 62
     7
100
AcDbLine
 10
205.0562447921
 20
205.9136887971
 30
0.0
 11
205.1562390343
 21
205.9136887971
 31
0.0
  0
ARC
  5
59
330
1F
100
AcDbEntity
  8
0
  6
CONTINUOUS
 62
     7
100
AcDbCircle
 10
205.1562412993
 20
193.9136890951
 30
0.0
 40
12.0
100
AcDbArc
 50
0.0
 51
90.0
  0
LINE
  5
5A
330
1F
100
AcDbEntity
  8
0
  6
CONTINUOUS
 62
     7
100
AcDbLine
 10
217.1562410013
 20
193.9136868302
 30
0.0
 11
217.1562410013
 21
193.813692588
 31
0.0
  0
CIRCLE
  5
5B
330
1F
100
AcDbEntity
  8
0
  6
CONTINUOUS
 62
     7
100
AcDbCircle
 10
369.1562412993
 20
193.9136890951
 30
0.0
 40
8.0
  0
CIRCLE
  5
5C
330
1F
100
AcDbEntity
  8
0
  6
CONTINUOUS
 62
     7
100
AcDbCircle
 10
205.1562412993
 20
193.9136890951
 30
0.0
 40
8.0
  0
CIRCLE
  5
5D
330
1F
100
AcDbEntity
  8
0
  6
CONTINUOUS
 62
     7
100
AcDbCircle
 10
205.1562412993
 20
357.9136890951
 30
0.0
 40
8.0
  0
ARC
  5
5E
330
1F
100
AcDbEntity
  8
0
  6
CONTINUOUS
 62
     7
100
AcDbCircle
 10
205.0562412993
 20
211.3136890951
 30
0.0
 40
5.400000000000034
100
AcDbArc
 50
180.0
 51
270.0
  0
ARC
  5
5F
330
1F
100
AcDbEntity
  8
0
  6
CONTINUOUS
 62
     7
100
AcDbCircle
 10
369.1562412993
 20
357.9136890951
 30
0.0
 40
12.00000000078211
100
AcDbArc
 50
0.0
 51
90.0
  0
ARC
  5
60
330
1F
100
AcDbEntity
  8
0
  6
CONTINUOUS
 62
     7
100
AcDbCircle
 10
205.1562412993
 20
193.9136890951
 30
0.0
 40
12.00000000078211
100
AcDbArc
 50
180.0
 51
270.0
  0
ARC
  5
61
330
1F
100
AcDbEntity
  8
0
  6
CONTINUOUS
 62
     7
100
AcDbCircle
 10
205.1562412993
 20
357.9136890951
 30
0.0
 40
11.99999999921789
100
AcDbArc
 50
90.0
 51
180.0
  0
ARC
  5
62
330
1F
100
AcDbEntity
  8
0
  6
CONTINUOUS
 62
     7
100
AcDbCircle
 10
369.1562412993
 20
193.9136890951
 30
0.0
 40
12.00000000078211
100
AcDbArc
 50
270.0
 51
0.0
  0
CIRCLE
  5
63
330
1F
100
AcDbEntity
  8
0
  6
CONTINUOUS
 62
     7
100
AcDbCircle
 10
369.1562412993
 20
357.9136890951
 30
0.0
 40
8.0
  0
ARC
  5
64
330
1F
100
AcDbEntity
  8
0
  6
CONTINUOUS
 62
     7
100
AcDbCircle
 10
369.1562412993
 20
193.9136890951
 30
0.0
 40
12.0
100
AcDbArc
 50
90.0
 51
180.0
  0
LINE
  5
65
330
1F
100
AcDbEntity
  8
0
  6
CONTINUOUS
 62
     7
100
AcDbLine
 10
369.1562435643
 20
205.9136887971
 30
0.0
 11
369.2562378065
 21
205.9136887971
 31
0.0
  0
LINE
  5
66
330
1F
100
AcDbEntity
  8
0
  6
CONTINUOUS
 62
     7
100
AcDbLine
 10
374.6562398092
 20
211.3136907998
 30
0.0
 11
374.6562398092
 21
340.5136873904
 31
0.0
  0
LINE
  5
67
330
1F
100
AcDbEntity
  8
0
  6
CONTINUOUS
 62
     7
100
AcDbLine
 10
369.2562378065
 20
345.9136893932
 30
0.0
 11
369.1562435643
 21
345.9136893932
 31
0.0
  0
CIRCLE
  5
68
330
1F
100
AcDbEntity
  8
0
  6
CONTINUOUS
 62
     7
100
AcDbCircle
 10
369.1562412993
 20
357.9136890951
 30
0.0
 40
5.400000000000034
  0
CIRCLE
  5
69
330
1F
100
AcDbEntity
  8
0
  6
CONTINUOUS
 62
     7
100
AcDbCircle
 10
369.1562412993
 20
193.9136890951
 30
0.0
 40
5.400000000000006
  0
CIRCLE
  5
6A
330
1F
100
AcDbEntity
  8
0
  6
CONTINUOUS
 62
     7
100
AcDbCircle
 10
205.1562412993
 20
193.9136890951
 30
0.0
 40
5.400000000000006
  0
CIRCLE
  5
6B
330
1F
100
AcDbEntity
  8
0
  6
CONTINUOUS
 62
     7
100
AcDbCircle
 10
205.1562412993
 20
357.9136890951
 30
0.0
 40
5.400000000000034
  0
LINE
  5
6C
330
1F
100
AcDbEntity
  8
0
  6
CONTINUOUS
 62
     7
100
AcDbLine
 10
218.69228995
 20
193.813692588
 30
0.0
 11
217.1562410013
 21
193.813692588
 31
0.0
  0
LINE
  5
6D
330
1F
100
AcDbEntity
  8
0
  6
CONTINUOUS
 62
     7
100
AcDbLine
 10
218.69228995
 20
193.9136868302
 30
0.0
 11
217.1562410013
 21
193.9136868302
 31
0.0
  0
LINE
  5
6E
330
1F
100
AcDbEntity
  8
0
  6
CONTINUOUS
 62
     7
100
AcDbLine
 10
218.69228995
 20
193.813692588
 30
0.0
 11
218.69228995
 21
193.9136868302
 31
0.0
  0
LINE
  5
6F
330
1F
100
AcDbEntity
  8
0
  6
CONTINUOUS
 62
     7
100
AcDbLine
 10
369.2562378065
 20
207.4497377459
 30
0.0
 11
369.2562378065
 21
205.9136887971
 31
0.0
  0
LINE
  5
70
330
1F
100
AcDbEntity
  8
0
  6
CONTINUOUS
 62
     7
100
AcDbLine
 10
369.1562435643
 20
207.4497377459
 30
0.0
 11
369.1562435643
 21
205.9136887971
 31
0.0
  0
LINE
  5
71
330
1F
100
AcDbEntity
  8
0
  6
CONTINUOUS
 62
     7
100
AcDbLine
 10
369.2562378065
 20
207.4497377459
 30
0.0
 11
369.1562435643
 21
207.4497377459
 31
0.0
  0
LINE
  5
72
330
1F
100
AcDbEntity
  8
0
  6
CONTINUOUS
 62
     7
100
AcDbLine
 10
205.1562390343
 20
207.4497377459
 30
0.0
 11
205.1562390343
 21
205.9136887971
 31
0.0
  0
LINE
  5
73
330
1F
100
AcDbEntity
  8
0
  6
CONTINUOUS
 62
     7
100
AcDbLine
 10
205.0562447921
 20
207.4497377459
 30
0.0
 11
205.0562447921
 21
205.9136887971
 31
0.0
  0
LINE
  5
74
330
1F
100
AcDbEntity
  8
0
  6
CONTINUOUS
 62
     7
100
AcDbLine
 10
205.1562390343
 20
207.4497377459
 30
0.0
 11
205.0562447921
 21
207.4497377459
 31
0.0
  0
LINE
  5
75
330
1F
100
AcDbEntity
  8
0
  6
CONTINUOUS
 62
     7
100
AcDbLine
 10
205.0562447921
 20
344.3776404444
 30
0.0
 11
205.0562447921
 21
345.9136893932
 31
0.0
  0
LINE
  5
76
330
1F
100
AcDbEntity
  8
0
  6
CONTINUOUS
 62
     7
100
AcDbLine
 10
205.1562390343
 20
344.3776404444
 30
0.0
 11
205.1562390343
 21
345.9136893932
 31
0.0
  0
LINE
  5
77
330
1F
100
AcDbEntity
  8
0
  6
CONTINUOUS
 62
     7
100
AcDbLine
 10
205.0562447921
 20
344.3776404444
 30
0.0
 11
205.1562390343
 21
344.3776404444
 31
0.0
  0
LINE
  5
78
330
1F
100
AcDbEntity
  8
0
  6
CONTINUOUS
 62
     7
100
AcDbLine
 10
201.1922842876
 20
211.3136907998
 30
0.0
 11
199.6562427894
 21
211.3136907998
 31
0.0
  0
LINE
  5
79
330
1F
100
AcDbEntity
  8
0
  6
CONTINUOUS
 62
     7
100
AcDbLine
 10
201.1922842876
 20
340.5136873904
 30
0.0
 11
199.6562427894
 21
340.5136873904
 31
0.0
  0
LINE
  5
7A
330
1F
100
AcDbEntity
  8
0
  6
CONTINUOUS
 62
     7
100
AcDbLine
 10
201.1922842876
 20
211.3136907998
 30
0.0
 11
201.1922842876
 21
340.5136873904
 31
0.0
  0
LINE
  5
7B
330
1F
100
AcDbEntity
  8
0
  6
CONTINUOUS
 62
     7
100
AcDbLine
 10
222.556243004
 20
361.8776461068
 30
0.0
 11
222.556243004
 21
363.413687605
 31
0.0
  0
LINE
  5
7C
330
1F
100
AcDbEntity
  8
0
  6
CONTINUOUS
 62
     7
100
AcDbLine
 10
351.7562395946
 20
361.8776461068
 30
0.0
 11
351.7562395946
 21
363.413687605
 31
0.0
  0
LINE
  5
7D
330
1F
100
AcDbEntity
  8
0
  6
CONTINUOUS
 62
     7
100
AcDbLine
 10
222.556243004
 20
361.8776461068
 30
0.0
 11
351.7562395946
 21
361.8776461068
 31
0.0
  0
LINE
  5
7E
330
1F
100
AcDbEntity
  8
0
  6
CONTINUOUS
 62
     7
100
AcDbLine
 10
369.2562378065
 20
344.3776404444
 30
0.0
 11
369.2562378065
 21
345.9136893932
 31
0.0
  0
LINE
  5
7F
330
1F
100
AcDbEntity
  8
0
  6
CONTINUOUS
 62
     7
100
AcDbLine
 10
373.120198311
 20
340.5136873904
 30
0.0
 11
374.6562398092
 21
340.5136873904
 31
0.0
  0
ARC
  5
80
330
1F
100
AcDbEntity
  8
0
  6
CONTINUOUS
 62
     7
100
AcDbCircle
 10
369.2562412993
 20
340.5136890951
 30
0.0
 40
3.863954286316869
100
AcDbArc
 50
0.0
 51
90.0
  0
LINE
  5
81
330
1F
100
AcDbEntity
  8
0
  6
CONTINUOUS
 62
     7
100
AcDbLine
 10
218.69228995
 20
357.9136913601
 30
0.0
 11
217.1562410013
 21
357.9136913601
 31
0.0
  0
ARC
  5
82
330
1F
100
AcDbEntity
  8
0
  6
CONTINUOUS
 62
     7
100
AcDbCircle
 10
205.1562412993
 20
357.9136890951
 30
0.0
 40
13.53604571368319
100
AcDbArc
 50
270.0
 51
0.0
  0
LINE
  5
83
330
1F
100
AcDbEntity
  8
0
  6
CONTINUOUS
 62
     7
100
AcDbLine
 10
218.69228995
 20
358.0136856023
 30
0.0
 11
217.1562410013
 21
358.0136856023
 31
0.0
  0
LINE
  5
84
330
1F
100
AcDbEntity
  8
0
  6
CONTINUOUS
 62
     7
100
AcDbLine
 10
218.69228995
 20
357.9136913601
 30
0.0
 11
218.69228995
 21
358.0136856023
 31
0.0
  0
ARC
  5
85
330
1F
100
AcDbEntity
  8
0
  6
CONTINUOUS
 62
     7
100
AcDbCircle
 10
205.0562412993
 20
211.3136890951
 30
0.0
 40
3.863954286316869
100
AcDbArc
 50
180.0
 51
270.0
  0
LINE
  5
86
330
1F
100
AcDbEntity
  8
0
  6
CONTINUOUS
 62
     7
100
AcDbLine
 10
222.556243004
 20
189.9497320834
 30
0.0
 11
222.556243004
 21
188.4136905852
 31
0.0
  0
ARC
  5
87
330
1F
100
AcDbEntity
  8
0
  6
CONTINUOUS
 62
     7
100
AcDbCircle
 10
222.5562412993
 20
193.8136890943
 30
0.0
 40
3.86395428631684
100
AcDbArc
 50
180.0
 51
270.0
  0
LINE
  5
88
330
1F
100
AcDbEntity
  8
0
  6
CONTINUOUS
 62
     7
100
AcDbLine
 10
355.6201926486
 20
193.9136868302
 30
0.0
 11
357.1562415973
 21
193.9136868302
 31
0.0
  0
LINE
  5
89
330
1F
100
AcDbEntity
  8
0
  6
CONTINUOUS
 62
     7
100
AcDbLine
 10
355.6201926486
 20
193.813692588
 30
0.0
 11
357.1562415973
 21
193.813692588
 31
0.0
  0
LINE
  5
8A
330
1F
100
AcDbEntity
  8
0
  6
CONTINUOUS
 62
     7
100
AcDbLine
 10
355.6201926486
 20
193.9136868302
 30
0.0
 11
355.6201926486
 21
193.813692588
 31
0.0
  0
ARC
  5
8B
330
1F
100
AcDbEntity
  8
0
  6
CONTINUOUS
 62
     7
100
AcDbCircle
 10
205.1562412993
 20
193.9136890951
 30
0.0
 40
13.53604571368317
100
AcDbArc
 50
0.0
 51
90.0
  0
LINE
  5
8C
330
1F
100
AcDbEntity
  8
0
  6
CONTINUOUS
 62
     7
100
AcDbLine
 10
373.120198311
 20
211.3136907998
 30
0.0
 11
374.6562398092
 21
211.3136907998
 31
0.0
  0
ARC
  5
8D
330
1F
100
AcDbEntity
  8
0
  6
CONTINUOUS
 62
     7
100
AcDbCircle
 10
369.2562412993
 20
211.3136890951
 30
0.0
 40
3.863954286316869
100
AcDbArc
 50
270.0
 51
0.0
  0
LINE
  5
8E
330
1F
100
AcDbEntity
  8
0
  6
CONTINUOUS
 62
     7
100
AcDbLine
 10
369.1562435643
 20
344.3776404444
 30
0.0
 11
369.1562435643
 21
345.9136893932
 31
0.0
  0
LINE
  5
8F
330
1F
100
AcDbEntity
  8
0
  6
CONTINUOUS
 62
     7
100
AcDbLine
 10
369.1562435643
 20
344.3776404444
 30
0.0
 11
369.2562378065
 21
344.3776404444
 31
0.0
  0
ARC
  5
90
330
1F
100
AcDbEntity
  8
0
  6
CONTINUOUS
 62
     7
100
AcDbCircle
 10
205.0562412993
 20
340.5136890951
 30
0.0
 40
3.863954286316869
100
AcDbArc
 50
90.0
 51
180.0
  0
LINE
  5
91
330
1F
100
AcDbEntity
  8
0
  6
CONTINUOUS
 62
     7
100
AcDbLine
 10
351.7562395946
 20
189.9497320834
 30
0.0
 11
351.7562395946
 21
188.4136905852
 31
0.0
  0
LINE
  5
92
330
1F
100
AcDbEntity
  8
0
  6
CONTINUOUS
 62
     7
100
AcDbLine
 10
351.7562395946
 20
189.9497320834
 30
0.0
 11
222.556243004
 21
189.9497320834
 31
0.0
  0
LINE
  5
93
330
1F
100
AcDbEntity
  8
0
  6
CONTINUOUS
 62
     7
100
AcDbLine
 10
373.120198311
 20
340.5136873904
 30
0.0
 11
373.120198311
 21
211.3136907998
 31
0.0
  0
ARC
  5
94
330
1F
100
AcDbEntity
  8
0
  6
CONTINUOUS
 62
     7
100
AcDbCircle
 10
222.5562412993
 20
358.0136890959
 30
0.0
 40
3.863954286316869
100
AcDbArc
 50
90.0
 51
180.0
  0
LINE
  5
95
330
1F
100
AcDbEntity
  8
0
  6
CONTINUOUS
 62
     7
100
AcDbLine
 10
355.6201926486
 20
357.9136913601
 30
0.0
 11
357.1562415973
 21
357.9136913601
 31
0.0
  0
ARC
  5
96
330
1F
100
AcDbEntity
  8
0
  6
CONTINUOUS
 62
     7
100
AcDbCircle
 10
369.1562412993
 20
357.9136890951
 30
0.0
 40
13.53604571368317
100
AcDbArc
 50
180.0
 51
270.0
  0
LINE
  5
97
330
1F
100
AcDbEntity
  8
0
  6
CONTINUOUS
 62
     7
100
AcDbLine
 10
355.6201926486
 20
358.0136856023
 30
0.0
 11
357.1562415973
 21
358.0136856023
 31
0.0
  0
LINE
  5
98
330
1F
100
AcDbEntity
  8
0
  6
CONTINUOUS
 62
     7
100
AcDbLine
 10
355.6201926486
 20
358.0136856023
 30
0.0
 11
355.6201926486
 21
357.9136913601
 31
0.0
  0
ARC
  5
99
330
1F
100
AcDbEntity
  8
0
  6
CONTINUOUS
 62
     7
100
AcDbCircle
 10
369.1562412993
 20
193.9136890951
 30
0.0
 40
13.53604571368319
100
AcDbArc
 50
90.0
 51
180.0
  0
ARC
  5
9A
330
1F
100
AcDbEntity
  8
0
  6
CONTINUOUS
 62
     7
100
AcDbCircle
 10
351.7562412993
 20
358.0136890959
 30
0.0
 40
3.863954286316869
100
AcDbArc
 50
0.0
 51
90.0
  0
ARC
  5
9B
330
1F
100
AcDbEntity
  8
0
  6
CONTINUOUS
 62
     7
100
AcDbCircle
 10
351.7562412993
 20
193.8136890943
 30
0.0
 40
3.863954286316812
100
AcDbArc
 50
270.0
 51
0.0
  0
LINE
  5
9C
330
1F
100
AcDbEntity
  8
0
  6
CONTINUOUS
 62
     7
100
AcDbLine
 10
211.4062405244
 20
258.4702594164
 30
0.0
 11
211.4062405244
 21
243.3571180287
 31
0.0
  0
ARC
  5
9D
330
1F
100
AcDbEntity
  8
0
  6
CONTINUOUS
 62
     7
100
AcDbCircle
 10
212.1562412993
 20
263.4136890951
 30
0.0
 40
4.99999999999997
100
AcDbArc
 50
98.6269265587
 51
261.3730734413
  0
LINE
  5
9E
330
1F
100
AcDbEntity
  8
0
  6
CONTINUOUS
 62
     7
100
AcDbLine
 10
211.4062405244
 20
270.9702591371
 30
0.0
 11
211.4062405244
 21
268.3571188669
 31
0.0
  0
ARC
  5
9F
330
1F
100
AcDbEntity
  8
0
  6
CONTINUOUS
 62
     7
100
AcDbCircle
 10
212.1562412993
 20
275.9136890951
 30
0.0
 40
5.000000000000026
100
AcDbArc
 50
98.6269265587
 51
261.3730734413
  0
LINE
  5
A0
330
1F
100
AcDbEntity
  8
0
  6
CONTINUOUS
 62
     7
100
AcDbLine
 10
211.4062405244
 20
283.4702593233
 30
0.0
 11
211.4062405244
 21
280.8571190532
 31
0.0
  0
ARC
  5
A1
330
1F
100
AcDbEntity
  8
0
  6
CONTINUOUS
 62
     7
100
AcDbCircle
 10
212.1562412993
 20
288.4136890951
 30
0.0
 40
5.000000000000021
100
AcDbArc
 50
98.6269265587
 51
261.3730734413
  0
LINE
  5
A2
330
1F
100
AcDbEntity
  8
0
  6
CONTINUOUS
 62
     7
100
AcDbLine
 10
211.4062405244
 20
308.4702601615
 30
0.0
 11
211.4062405244
 21
293.3571187738
 31
0.0
  0
ARC
  5
A3
330
1F
100
AcDbEntity
  8
0
  6
CONTINUOUS
 62
     7
100
AcDbCircle
 10
212.1562412993
 20
313.4136890951
 30
0.0
 40
5.000000000000021
100
AcDbArc
 50
278.6269265587
 51
261.3730734413
  0
LINE
  5
A4
330
1F
100
AcDbEntity
  8
0
  6
CONTINUOUS
 62
     7
100
AcDbLine
 10
212.9062435643
 20
308.4702601615
 30
0.0
 11
212.9062435643
 21
293.3571187738
 31
0.0
  0
ARC
  5
A5
330
1F
100
AcDbEntity
  8
0
  6
CONTINUOUS
 62
     7
100
AcDbCircle
 10
212.1562412993
 20
288.4136890951
 30
0.0
 40
5.00000000000003
100
AcDbArc
 50
278.6269265587
 51
81.3730734413
  0
ARC
  5
A6
330
1F
100
AcDbEntity
  8
0
  6
CONTINUOUS
 62
     7
100
AcDbCircle
 10
212.1562412993
 20
275.9136890951
 30
0.0
 40
4.999999999999973
100
AcDbArc
 50
278.6269265587
 51
81.3730734413
  0
LINE
  5
A7
330
1F
100
AcDbEntity
  8
0
  6
CONTINUOUS
 62
     7
100
AcDbLine
 10
212.9062435643
 20
270.9702591371
 30
0.0
 11
212.9062435643
 21
268.3571188669
 31
0.0
  0
ARC
  5
A8
330
1F
100
AcDbEntity
  8
0
  6
CONTINUOUS
 62
     7
100
AcDbCircle
 10
212.1562412993
 20
263.4136890951
 30
0.0
 40
4.999999999999973
100
AcDbArc
 50
278.6269265587
 51
81.3730734413
  0
LINE
  5
A9
330
1F
100
AcDbEntity
  8
0
  6
CONTINUOUS
 62
     7
100
AcDbLine
 10
212.9062435643
 20
258.4702594164
 30
0.0
 11
212.9062435643
 21
243.3571180287
 31
0.0
  0
ARC
  5
AA
330
1F
100
AcDbEntity
  8
0
  6
CONTINUOUS
 62
     7
100
AcDbCircle
 10
212.1562412993
 20
238.4136890951
 30
0.0
 40
5.000000000000002
100
AcDbArc
 50
98.6269265587
 51
81.3730734413
  0
CIRCLE
  5
AB
330
1F
100
AcDbEntity
  8
0
  6
CONTINUOUS
 62
     7
100
AcDbCircle
 10
212.1562412993
 20
238.4136890951
 30
0.0
 40
2.400000000000006
  0
CIRCLE
  5
AC
330
1F
100
AcDbEntity
  8
0
  6
CONTINUOUS
 62
     7
100
AcDbCircle
 10
212.1562412993
 20
263.4136890951
 30
0.0
 40
2.399999999999977
  0
CIRCLE
  5
AD
330
1F
100
AcDbEntity
  8
0
  6
CONTINUOUS
 62
     7
100
AcDbCircle
 10
212.1562412993
 20
288.4136890951
 30
0.0
 40
2.400000000000034
  0
CIRCLE
  5
AE
330
1F
100
AcDbEntity
  8
0
  6
CONTINUOUS
 62
     7
100
AcDbCircle
 10
212.1562412993
 20
313.4136890951
 30
0.0
 40
2.399999999999977
  0
LINE
  5
AF
330
1F
100
AcDbEntity
  8
0
  6
CONTINUOUS
 62
     7
100
AcDbLine
 10
212.9062435643
 20
283.4702593233
 30
0.0
 11
212.9062435643
 21
280.8571190532
 31
0.0
  0
CIRCLE
  5
B0
330
1F
100
AcDbEntity
  8
0
  6
CONTINUOUS
 62
     7
100
AcDbCircle
 10
212.1562412993
 20
275.9136890951
 30
0.0
 40
2.400000000000034
  0
LINE
  5
B1
330
1F
100
AcDbEntity
  8
0
  6
CONTINUOUS
 62
     7
100
AcDbLine
 10
362.9062420742
 20
308.4702601615
 30
0.0
 11
362.9062420742
 21
293.3571187738
 31
0.0
  0
LINE
  5
B2
330
1F
100
AcDbEntity
  8
0
  6
CONTINUOUS
 62
     7
100
AcDbLine
 10
362.9062420742
 20
283.4702593233
 30
0.0
 11
362.9062420742
 21
280.8571190532
 31
0.0
  0
LINE
  5
B3
330
1F
100
AcDbEntity
  8
0
  6
CONTINUOUS
 62
     7
100
AcDbLine
 10
362.9062420742
 20
270.9702591371
 30
0.0
 11
362.9062420742
 21
268.3571188669
 31
0.0
  0
ARC
  5
B4
330
1F
100
AcDbEntity
  8
0
  6
CONTINUOUS
 62
     7
100
AcDbCircle
 10
362.1562412993
 20
263.4136890951
 30
0.0
 40
4.999999999999961
100
AcDbArc
 50
278.6269265587
 51
81.3730734413
  0
LINE
  5
B5
330
1F
100
AcDbEntity
  8
0
  6
CONTINUOUS
 62
     7
100
AcDbLine
 10
362.9062420742
 20
258.4702594164
 30
0.0
 11
362.9062420742
 21
243.3571180287
 31
0.0
  0
ARC
  5
B6
330
1F
100
AcDbEntity
  8
0
  6
CONTINUOUS
 62
     7
100
AcDbCircle
 10
362.1562412993
 20
263.4136890951
 30
0.0
 40
4.999999999999978
100
AcDbArc
 50
98.6269265587
 51
261.3730734413
  0
LINE
  5
B7
330
1F
100
AcDbEntity
  8
0
  6
CONTINUOUS
 62
     7
100
AcDbLine
 10
361.4062390343
 20
270.9702591371
 30
0.0
 11
361.4062390343
 21
268.3571188669
 31
0.0
  0
LINE
  5
B8
330
1F
100
AcDbEntity
  8
0
  6
CONTINUOUS
 62
     7
100
AcDbLine
 10
361.4062390343
 20
283.4702593233
 30
0.0
 11
361.4062390343
 21
280.8571190532
 31
0.0
  0
LINE
  5
B9
330
1F
100
AcDbEntity
  8
0
  6
CONTINUOUS
 62
     7
100
AcDbLine
 10
361.4062390343
 20
308.4702601615
 30
0.0
 11
361.4062390343
 21
293.3571187738
 31
0.0
  0
ARC
  5
BA
330
1F
100
AcDbEntity
  8
0
  6
CONTINUOUS
 62
     7
100
AcDbCircle
 10
362.1562412993
 20
313.4136890951
 30
0.0
 40
5.000000000000017
100
AcDbArc
 50
278.6269265587
 51
261.3730734413
  0
CIRCLE
  5
BB
330
1F
100
AcDbEntity
  8
0
  6
CONTINUOUS
 62
     7
100
AcDbCircle
 10
362.1562412993
 20
275.9136890951
 30
0.0
 40
2.400000000000034
  0
CIRCLE
  5
BC
330
1F
100
AcDbEntity
  8
0
  6
CONTINUOUS
 62
     7
100
AcDbCircle
 10
362.1562412993
 20
263.4136890951
 30
0.0
 40
2.399999999999977
  0
CIRCLE
  5
BD
330
1F
100
AcDbEntity
  8
0
  6
CONTINUOUS
 62
     7
100
AcDbCircle
 10
362.1562412993
 20
288.4136890951
 30
0.0
 40
2.400000000000034
  0
CIRCLE
  5
BE
330
1F
100
AcDbEntity
  8
0
  6
CONTINUOUS
 62
     7
100
AcDbCircle
 10
362.1562412993
 20
313.4136890951
 30
0.0
 40
2.399999999999977
  0
ARC
  5
BF
330
1F
100
AcDbEntity
  8
0
  6
CONTINUOUS
 62
     7
100
AcDbCircle
 10
362.1562412993
 20
238.4136890951
 30
0.0
 40
5.000000000000006
100
AcDbArc
 50
98.6269265587
 51
81.3730734413
  0
ARC
  5
C0
330
1F
100
AcDbEntity
  8
0
  6
CONTINUOUS
 62
     7
100
AcDbCircle
 10
362.1562412993
 20
275.9136890951
 30
0.0
 40
5.000000000000017
100
AcDbArc
 50
278.6269265587
 51
81.3730734413
  0
ARC
  5
C1
330
1F
100
AcDbEntity
  8
0
  6
CONTINUOUS
 62
     7
100
AcDbCircle
 10
362.1562412993
 20
275.9136890951
 30
0.0
 40
4.999999999999978
100
AcDbArc
 50
98.6269265587
 51
261.3730734413
  0
ARC
  5
C2
330
1F
100
AcDbEntity
  8
0
  6
CONTINUOUS
 62
     7
100
AcDbCircle
 10
362.1562412993
 20
288.4136890951
 30
0.0
 40
5.000000000000034
100
AcDbArc
 50
98.6269265587
 51
261.3730734413
  0
ARC
  5
C3
330
1F
100
AcDbEntity
  8
0
  6
CONTINUOUS
 62
     7
100
AcDbCircle
 10
362.1562412993
 20
288.4136890951
 30
0.0
 40
5.000000000000017
100
AcDbArc
 50
278.6269265587
 51
81.3730734413
  0
CIRCLE
  5
C4
330
1F
100
AcDbEntity
  8
0
  6
CONTINUOUS
 62
     7
100
AcDbCircle
 10
362.1562412993
 20
238.4136890951
 30
0.0
 40
2.400000000000006
  0
LINE
  5
C5
330
1F
100
AcDbEntity
  8
0
  6
CONTINUOUS
 62
     7
100
AcDbLine
 10
361.4062390343
 20
258.4702594164
 30
0.0
 11
361.4062390343
 21
243.3571180287
 31
0.0
  0
LINE
  5
C6
330
1F
100
AcDbEntity
  8
0
  6
CONTINUOUS
 62
     7
100
AcDbLine
 10
269.7128116206
 20
201.6636913601
 30
0.0
 11
254.5996702329
 21
201.6636913601
 31
0.0
  0
ARC
  5
C7
330
1F
100
AcDbEntity
  8
0
  6
CONTINUOUS
 62
     7
100
AcDbCircle
 10
274.6562412993
 20
200.9136890951
 30
0.0
 40
5.00000000000003
100
AcDbArc
 50
8.6269265587
 51
171.3730734413
  0
LINE
  5
C8
330
1F
100
AcDbEntity
  8
0
  6
CONTINUOUS
 62
     7
100
AcDbLine
 10
282.2128113412
 20
201.6636913601
 30
0.0
 11
279.5996710711
 21
201.6636913601
 31
0.0
  0
ARC
  5
C9
330
1F
100
AcDbEntity
  8
0
  6
CONTINUOUS
 62
     7
100
AcDbCircle
 10
287.1562412993
 20
200.9136890951
 30
0.0
 40
5.00000000000003
100
AcDbArc
 50
8.6269265587
 51
171.3730734413
  0
LINE
  5
CA
330
1F
100
AcDbEntity
  8
0
  6
CONTINUOUS
 62
     7
100
AcDbLine
 10
294.7128115275
 20
201.6636913601
 30
0.0
 11
292.0996712574
 21
201.6636913601
 31
0.0
  0
ARC
  5
CB
330
1F
100
AcDbEntity
  8
0
  6
CONTINUOUS
 62
     7
100
AcDbCircle
 10
299.6562412993
 20
200.9136890951
 30
0.0
 40
5.00000000000003
100
AcDbArc
 50
8.6269265587
 51
171.3730734413
  0
LINE
  5
CC
330
1F
100
AcDbEntity
  8
0
  6
CONTINUOUS
 62
     7
100
AcDbLine
 10
319.7128123657
 20
201.6636913601
 30
0.0
 11
304.599670978
 21
201.6636913601
 31
0.0
  0
ARC
  5
CD
330
1F
100
AcDbEntity
  8
0
  6
CONTINUOUS
 62
     7
100
AcDbCircle
 10
324.6562412993
 20
200.9136890951
 30
0.0
 40
4.999999999999973
100
AcDbArc
 50
188.6269265587
 51
171.3730734413
  0
LINE
  5
CE
330
1F
100
AcDbEntity
  8
0
  6
CONTINUOUS
 62
     7
100
AcDbLine
 10
319.7128123657
 20
200.1636883203
 30
0.0
 11
304.599670978
 21
200.1636883203
 31
0.0
  0
ARC
  5
CF
330
1F
100
AcDbEntity
  8
0
  6
CONTINUOUS
 62
     7
100
AcDbCircle
 10
299.6562412993
 20
200.9136890951
 30
0.0
 40
5.000000000000021
100
AcDbArc
 50
188.6269265587
 51
351.3730734413
  0
LINE
  5
D0
330
1F
100
AcDbEntity
  8
0
  6
CONTINUOUS
 62
     7
100
AcDbLine
 10
294.7128115275
 20
200.1636883203
 30
0.0
 11
292.0996712574
 21
200.1636883203
 31
0.0
  0
ARC
  5
D1
330
1F
100
AcDbEntity
  8
0
  6
CONTINUOUS
 62
     7
100
AcDbCircle
 10
287.1562412993
 20
200.9136890951
 30
0.0
 40
5.000000000000021
100
AcDbArc
 50
188.6269265587
 51
351.3730734413
  0
LINE
  5
D2
330
1F
100
AcDbEntity
  8
0
  6
CONTINUOUS
 62
     7
100
AcDbLine
 10
282.2128113412
 20
200.1636883203
 30
0.0
 11
279.5996710711
 21
200.1636883203
 31
0.0
  0
ARC
  5
D3
330
1F
100
AcDbEntity
  8
0
  6
CONTINUOUS
 62
     7
100
AcDbCircle
 10
274.6562412993
 20
200.9136890951
 30
0.0
 40
5.000000000000021
100
AcDbArc
 50
188.6269265587
 51
351.3730734413
  0
LINE
  5
D4
330
1F
100
AcDbEntity
  8
0
  6
CONTINUOUS
 62
     7
100
AcDbLine
 10
269.7128116206
 20
200.1636883203
 30
0.0
 11
254.5996702329
 21
200.1636883203
 31
0.0
  0
CIRCLE
  5
D5
330
1F
100
AcDbEntity
  8
0
  6
CONTINUOUS
 62
     7
100
AcDbCircle
 10
299.6562412993
 20
200.9136890951
 30
0.0
 40
2.399999999999977
  0
CIRCLE
  5
D6
330
1F
100
AcDbEntity
  8
0
  6
CONTINUOUS
 62
     7
100
AcDbCircle
 10
324.6562412993
 20
200.9136890951
 30
0.0
 40
2.400000000000006
  0
CIRCLE
  5
D7
330
1F
100
AcDbEntity
  8
0
  6
CONTINUOUS
 62
     7
100
AcDbCircle
 10
274.6562412993
 20
200.9136890951
 30
0.0
 40
2.399999999999977
  0
CIRCLE
  5
D8
330
1F
100
AcDbEntity
  8
0
  6
CONTINUOUS
 62
     7
100
AcDbCircle
 10
249.6562412993
 20
200.9136890951
 30
0.0
 40
2.400000000000006
  0
CIRCLE
  5
D9
330
1F
100
AcDbEntity
  8
0
  6
CONTINUOUS
 62
     7
100
AcDbCircle
 10
287.1562412993
 20
200.9136890951
 30
0.0
 40
2.399999999999977
  0
ARC
  5
DA
330
1F
100
AcDbEntity
  8
0
  6
CONTINUOUS
 62
     7
100
AcDbCircle
 10
249.6562412993
 20
200.9136890951
 30
0.0
 40
4.999999999999973
100
AcDbArc
 50
8.6269265587
 51
351.3730734413
  0
LINE
  5
DB
330
1F
100
AcDbEntity
  8
0
  6
CONTINUOUS
 62
     7
100
AcDbLine
 10
269.7128116206
 20
351.66368987
 30
0.0
 11
254.5996702329
 21
351.66368987
 31
0.0
  0
ARC
  5
DC
330
1F
100
AcDbEntity
  8
0
  6
CONTINUOUS
 62
     7
100
AcDbCircle
 10
274.6562412993
 20
350.9136890951
 30
0.0
 40
5.000000000000017
100
AcDbArc
 50
8.6269265587
 51
171.3730734413
  0
ARC
  5
DD
330
1F
100
AcDbEntity
  8
0
  6
CONTINUOUS
 62
     7
100
AcDbCircle
 10
287.1562412993
 20
350.9136890951
 30
0.0
 40
5.000000000000017
100
AcDbArc
 50
8.6269265587
 51
171.3730734413
  0
LINE
  5
DE
330
1F
100
AcDbEntity
  8
0
  6
CONTINUOUS
 62
     7
100
AcDbLine
 10
294.7128115275
 20
351.66368987
 30
0.0
 11
292.0996712574
 21
351.66368987
 31
0.0
  0
ARC
  5
DF
330
1F
100
AcDbEntity
  8
0
  6
CONTINUOUS
 62
     7
100
AcDbCircle
 10
299.6562412993
 20
350.9136890951
 30
0.0
 40
5.000000000000017
100
AcDbArc
 50
8.6269265587
 51
171.3730734413
  0
LINE
  5
E0
330
1F
100
AcDbEntity
  8
0
  6
CONTINUOUS
 62
     7
100
AcDbLine
 10
319.7128123657
 20
351.66368987
 30
0.0
 11
304.599670978
 21
351.66368987
 31
0.0
  0
ARC
  5
E1
330
1F
100
AcDbEntity
  8
0
  6
CONTINUOUS
 62
     7
100
AcDbCircle
 10
324.6562412993
 20
350.9136890951
 30
0.0
 40
4.999999999999978
100
AcDbArc
 50
188.6269265587
 51
171.3730734413
  0
LINE
  5
E2
330
1F
100
AcDbEntity
  8
0
  6
CONTINUOUS
 62
     7
100
AcDbLine
 10
319.7128123657
 20
350.1636868302
 30
0.0
 11
304.599670978
 21
350.1636868302
 31
0.0
  0
ARC
  5
E3
330
1F
100
AcDbEntity
  8
0
  6
CONTINUOUS
 62
     7
100
AcDbCircle
 10
299.6562412993
 20
350.9136890951
 30
0.0
 40
5.000000000000034
100
AcDbArc
 50
188.6269265587
 51
351.3730734413
  0
LINE
  5
E4
330
1F
100
AcDbEntity
  8
0
  6
CONTINUOUS
 62
     7
100
AcDbLine
 10
294.7128115275
 20
350.1636868302
 30
0.0
 11
292.0996712574
 21
350.1636868302
 31
0.0
  0
ARC
  5
E5
330
1F
100
AcDbEntity
  8
0
  6
CONTINUOUS
 62
     7
100
AcDbCircle
 10
287.1562412993
 20
350.9136890951
 30
0.0
 40
5.000000000000034
100
AcDbArc
 50
188.6269265587
 51
351.3730734413
  0
LINE
  5
E6
330
1F
100
AcDbEntity
  8
0
  6
CONTINUOUS
 62
     7
100
AcDbLine
 10
282.2128113412
 20
350.1636868302
 30
0.0
 11
279.5996710711
 21
350.1636868302
 31
0.0
  0
ARC
  5
E7
330
1F
100
AcDbEntity
  8
0
  6
CONTINUOUS
 62
     7
100
AcDbCircle
 10
274.6562412993
 20
350.9136890951
 30
0.0
 40
5.000000000000034
100
AcDbArc
 50
188.6269265587
 51
351.3730734413
  0
LINE
  5
E8
330
1F
100
AcDbEntity
  8
0
  6
CONTINUOUS
 62
     7
100
AcDbLine
 10
269.7128116206
 20
350.1636868302
 30
0.0
 11
254.5996702329
 21
350.1636868302
 31
0.0
  0
CIRCLE
  5
E9
330
1F
100
AcDbEntity
  8
0
  6
CONTINUOUS
 62
     7
100
AcDbCircle
 10
249.6562412993
 20
350.9136890951
 30
0.0
 40
2.400000000000034
  0
CIRCLE
  5
EA
330
1F
100
AcDbEntity
  8
0
  6
CONTINUOUS
 62
     7
100
AcDbCircle
 10
324.6562412993
 20
350.9136890951
 30
0.0
 40
2.400000000000034
  0
CIRCLE
  5
EB
330
1F
100
AcDbEntity
  8
0
  6
CONTINUOUS
 62
     7
100
AcDbCircle
 10
299.6562412993
 20
350.9136890951
 30
0.0
 40
2.400000000000034
  0
ARC
  5
EC
330
1F
100
AcDbEntity
  8
0
  6
CONTINUOUS
 62
     7
100
AcDbCircle
 10
249.6562412993
 20
350.9136890951
 30
0.0
 40
4.999999999999978
100
AcDbArc
 50
8.6269265587
 51
351.3730734413
  0
LINE
  5
ED
330
1F
100
AcDbEntity
  8
0
  6
CONTINUOUS
 62
     7
100
AcDbLine
 10
282.2128113412
 20
351.66368987
 30
0.0
 11
279.5996710711
 21
351.66368987
 31
0.0
  0
CIRCLE
  5
EE
330
1F
100
AcDbEntity
  8
0
  6
CONTINUOUS
 62
     7
100
AcDbCircle
 10
287.1562412993
 20
350.9136890951
 30
0.0
 40
2.400000000000034
  0
CIRCLE
  5
EF
330
1F
100
AcDbEntity
  8
0
  6
CONTINUOUS
 62
     7
100
AcDbCircle
 10
274.6562412993
 20
350.9136890951
 30
0.0
 40
2.400000000000034
  0
CIRCLE
  5
F0
330
1F
100
AcDbEntity
  8
0
  6
CONTINUOUS
 62
     7
100
AcDbCircle
 10
347.1562412993
 20
335.9136890951
 30
0.0
 40
6.0
  0
CIRCLE
  5
F1
330
1F
100
AcDbEntity
  8
0
  6
CONTINUOUS
 62
     7
100
AcDbCircle
 10
347.1562412993
 20
335.9136890951
 30
0.0
 40
3.0
  0
CIRCLE
  5
F2
330
1F
100
AcDbEntity
  8
0
  6
CONTINUOUS
 62
     7
100
AcDbCircle
 10
227.1562412993
 20
335.9136890951
 30
0.0
 40
6.0
  0
CIRCLE
  5
F3
330
1F
100
AcDbEntity
  8
0
  6
CONTINUOUS
 62
     7
100
AcDbCircle
 10
227.1562412993
 20
335.9136890951
 30
0.0
 40
3.0
  0
CIRCLE
  5
F4
330
1F
100
AcDbEntity
  8
0
  6
CONTINUOUS
 62
     7
100
AcDbCircle
 10
227.1562412993
 20
215.9136890951
 30
0.0
 40
6.0
  0
CIRCLE
  5
F5
330
1F
100
AcDbEntity
  8
0
  6
CONTINUOUS
 62
     7
100
AcDbCircle
 10
227.1562412993
 20
215.9136890951
 30
0.0
 40
3.0
  0
CIRCLE
  5
F6
330
1F
100
AcDbEntity
  8
0
  6
CONTINUOUS
 62
     7
100
AcDbCircle
 10
347.1562412993
 20
215.9136890951
 30
0.0
 40
5.999999999999943
  0
CIRCLE
  5
F7
330
1F
100
AcDbEntity
  8
0
  6
CONTINUOUS
 62
     7
100
AcDbCircle
 10
347.1562412993
 20
215.9136890951
 30
0.0
 40
3.0
  0
CIRCLE
  5
F8
330
1F
100
AcDbEntity
  8
0
  6
CONTINUOUS
 62
     7
100
AcDbCircle
 10
227.1562412993
 20
215.9136890951
 30
0.0
 40
2.599999999999966
  0
CIRCLE
  5
F9
330
1F
100
AcDbEntity
  8
0
  6
CONTINUOUS
 62
     7
100
AcDbCircle
 10
212.1562412993
 20
275.9136890951
 30
0.0
 40
2.150000000000034
  0
CIRCLE
  5
FA
330
1F
100
AcDbEntity
  8
0
  6
CONTINUOUS
 62
     7
100
AcDbCircle
 10
249.6562412993
 20
200.9136890951
 30
0.0
 40
2.149999999999977
  0
CIRCLE
  5
FB
330
1F
100
AcDbEntity
  8
0
  6
CONTINUOUS
 62
     7
100
AcDbCircle
 10
287.1562412993
 20
200.9136890951
 30
0.0
 40
2.149999999999977
  0
CIRCLE
  5
FC
330
1F
100
AcDbEntity
  8
0
  6
CONTINUOUS
 62
     7
100
AcDbCircle
 10
347.1562412993
 20
335.9136890951
 30
0.0
 40
2.600000000000023
  0
CIRCLE
  5
FD
330
1F
100
AcDbEntity
  8
0
  6
CONTINUOUS
 62
     7
100
AcDbCircle
 10
274.6562412993
 20
200.9136890951
 30
0.0
 40
2.149999999999977
  0
CIRCLE
  5
FE
330
1F
100
AcDbEntity
  8
0
  6
CONTINUOUS
 62
     7
100
AcDbCircle
 10
362.1562412993
 20
238.4136890951
 30
0.0
 40
2.150000000000006
  0
CIRCLE
  5
FF
330
1F
100
AcDbEntity
  8
0
  6
CONTINUOUS
 62
     7
100
AcDbCircle
 10
362.1562412993
 20
275.9136890951
 30
0.0
 40
2.150000000000034
  0
CIRCLE
  5
100
330
1F
100
AcDbEntity
  8
0
  6
CONTINUOUS
 62
     7
100
AcDbCircle
 10
227.1562412993
 20
335.9136890951
 30
0.0
 40
2.600000000000023
  0
CIRCLE
  5
101
330
1F
100
AcDbEntity
  8
0
  6
CONTINUOUS
 62
     7
100
AcDbCircle
 10
287.1562412993
 20
350.9136890951
 30
0.0
 40
2.150000000000034
  0
CIRCLE
  5
102
330
1F
100
AcDbEntity
  8
0
  6
CONTINUOUS
 62
     7
100
AcDbCircle
 10
362.1562412993
 20
313.4136890951
 30
0.0
 40
2.149999999999977
  0
CIRCLE
  5
103
330
1F
100
AcDbEntity
  8
0
  6
CONTINUOUS
 62
     7
100
AcDbCircle
 10
212.1562412993
 20
238.4136890951
 30
0.0
 40
2.150000000000006
  0
CIRCLE
  5
104
330
1F
100
AcDbEntity
  8
0
  6
CONTINUOUS
 62
     7
100
AcDbCircle
 10
249.6562412993
 20
350.9136890951
 30
0.0
 40
2.150000000000034
  0
CIRCLE
  5
105
330
1F
100
AcDbEntity
  8
0
  6
CONTINUOUS
 62
     7
100
AcDbCircle
 10
212.1562412993
 20
263.4136890951
 30
0.0
 40
2.150000000000034
  0
CIRCLE
  5
106
330
1F
100
AcDbEntity
  8
0
  6
CONTINUOUS
 62
     7
100
AcDbCircle
 10
299.6562412993
 20
200.9136890951
 30
0.0
 40
2.149999999999977
  0
CIRCLE
  5
107
330
1F
100
AcDbEntity
  8
0
  6
CONTINUOUS
 62
     7
100
AcDbCircle
 10
212.1562412993
 20
288.4136890951
 30
0.0
 40
2.150000000000034
  0
CIRCLE
  5
108
330
1F
100
AcDbEntity
  8
0
  6
CONTINUOUS
 62
     7
100
AcDbCircle
 10
324.6562412993
 20
200.9136890951
 30
0.0
 40
2.149999999999977
  0
CIRCLE
  5
109
330
1F
100
AcDbEntity
  8
0
  6
CONTINUOUS
 62
     7
100
AcDbCircle
 10
212.1562412993
 20
313.4136890951
 30
0.0
 40
2.149999999999977
  0
CIRCLE
  5
10A
330
1F
100
AcDbEntity
  8
0
  6
CONTINUOUS
 62
     7
100
AcDbCircle
 10
274.6562412993
 20
350.9136890951
 30
0.0
 40
2.149999999999977
  0
CIRCLE
  5
10B
330
1F
100
AcDbEntity
  8
0
  6
CONTINUOUS
 62
     7
100
AcDbCircle
 10
362.1562412993
 20
263.4136890951
 30
0.0
 40
2.150000000000034
  0
CIRCLE
  5
10C
330
1F
100
AcDbEntity
  8
0
  6
CONTINUOUS
 62
     7
100
AcDbCircle
 10
362.1562412993
 20
288.4136890951
 30
0.0
 40
2.150000000000034
  0
CIRCLE
  5
10D
330
1F
100
AcDbEntity
  8
0
  6
CONTINUOUS
 62
     7
100
AcDbCircle
 10
347.1562412993
 20
215.9136890951
 30
0.0
 40
2.599999999999966
  0
CIRCLE
  5
10E
330
1F
100
AcDbEntity
  8
0
  6
CONTINUOUS
 62
     7
100
AcDbCircle
 10
324.6562412993
 20
350.9136890951
 30
0.0
 40
2.150000000000034
  0
CIRCLE
  5
10F
330
1F
100
AcDbEntity
  8
0
  6
CONTINUOUS
 62
     7
100
AcDbCircle
 10
299.6562412993
 20
350.9136890951
 30
0.0
 40
2.149999999999977
  0
CIRCLE
  5
110
330
1F
100
AcDbEntity
  8
0
  6
CONTINUOUS
 62
     7
100
AcDbCircle
 10
369.1562412993
 20
193.9136890951
 30
0.0
 40
3.249999999999972
  0
CIRCLE
  5
111
330
1F
100
AcDbEntity
  8
0
  6
CONTINUOUS
 62
     7
100
AcDbCircle
 10
205.1562412993
 20
193.9136890951
 30
0.0
 40
3.249999999999972
  0
CIRCLE
  5
112
330
1F
100
AcDbEntity
  8
0
  6
CONTINUOUS
 62
     7
100
AcDbCircle
 10
205.1562412993
 20
357.9136890951
 30
0.0
 40
3.250000000000057
  0
CIRCLE
  5
113
330
1F
100
AcDbEntity
  8
0
  6
CONTINUOUS
 62
     7
100
AcDbCircle
 10
369.1562412993
 20
357.9136890951
 30
0.0
 40
3.250000000000057
  0
ARC
  5
114
330
1F
100
AcDbEntity
  8
0
  6
CONTINUOUS
 62
     7
100
AcDbCircle
 10
298.9173703348
 20
303.7089815086
 30
0.0
 40
1.067128965565928
100
AcDbArc
 50
270.0
 51
0.0
  0
LINE
  5
115
330
1F
100
AcDbEntity
  8
0
  6
CONTINUOUS
 62
     7
100
AcDbLine
 10
299.9844991655
 20
303.7089815322
 30
0.0
 11
299.9844991655
 21
307.8161252621
 31
0.0
  0
ARC
  5
116
330
1F
100
AcDbEntity
  8
0
  6
CONTINUOUS
 62
     7
100
AcDbCircle
 10
298.9173703348
 20
307.8161243657
 30
0.0
 40
1.067128965565985
100
AcDbArc
 50
0.0
 51
90.0
  0
LINE
  5
117
330
1F
100
AcDbEntity
  8
0
  6
CONTINUOUS
 62
     7
100
AcDbLine
 10
298.9173702017
 20
308.8832532946
 30
0.0
 11
294.4116837398
 21
308.8832532946
 31
0.0
  0
ARC
  5
118
330
1F
100
AcDbEntity
  8
0
  6
CONTINUOUS
 62
     7
100
AcDbCircle
 10
294.4116838323
 20
307.8161243657
 30
0.0
 40
1.067128965565928
100
AcDbArc
 50
90.0
 51
180.0
  0
LINE
  5
119
330
1F
100
AcDbEntity
  8
0
  6
CONTINUOUS
 62
     7
100
AcDbLine
 10
293.344554776
 20
307.8161252621
 30
0.0
 11
293.344554776
 21
303.7089815322
 31
0.0
  0
ARC
  5
11A
330
1F
100
AcDbEntity
  8
0
  6
CONTINUOUS
 62
     7
100
AcDbCircle
 10
294.4116838323
 20
303.7089815086
 30
0.0
 40
1.067128965565985
100
AcDbArc
 50
180.0
 51
270.0
  0
LINE
  5
11B
330
1F
100
AcDbEntity
  8
0
  6
CONTINUOUS
 62
     7
100
AcDbLine
 10
294.4116837398
 20
302.6418516371
 30
0.0
 11
298.9173702017
 21
302.6418516371
 31
0.0
  0
LINE
  5
11C
330
1F
100
AcDbEntity
  8
0
  6
CONTINUOUS
 62
     7
100
AcDbLine
 10
291.1573842221
 20
307.9054092947
 30
0.0
 11
291.1573842221
 21
303.619695637
 31
0.0
  0
ARC
  5
11D
330
1F
100
AcDbEntity
  8
0
  6
CONTINUOUS
 62
     7
100
AcDbCircle
 10
294.0145270836
 20
307.90541008
 30
0.0
 40
2.85714285714289
100
AcDbArc
 50
90.0
 51
180.0
  0
LINE
  5
11E
330
1F
100
AcDbEntity
  8
0
  6
CONTINUOUS
 62
     7
100
AcDbLine
 10
299.3145271257
 20
310.7625542167
 30
0.0
 11
294.0145272815
 21
310.7625542167
 31
0.0
  0
ARC
  5
11F
330
1F
100
AcDbEntity
  8
0
  6
CONTINUOUS
 62
     7
100
AcDbCircle
 10
299.3145270836
 20
307.90541008
 30
0.0
 40
2.85714285714289
100
AcDbArc
 50
0.0
 51
90.0
  0
LINE
  5
120
330
1F
100
AcDbEntity
  8
0
  6
CONTINUOUS
 62
     7
100
AcDbLine
 10
302.1716701851
 20
303.619695637
 30
0.0
 11
302.1716701851
 21
307.9054092947
 31
0.0
  0
ARC
  5
121
330
1F
100
AcDbEntity
  8
0
  6
CONTINUOUS
 62
     7
100
AcDbCircle
 10
299.3145270836
 20
303.6196957943
 30
0.0
 40
2.85714285714289
100
AcDbArc
 50
270.0
 51
0.0
  0
LINE
  5
122
330
1F
100
AcDbEntity
  8
0
  6
CONTINUOUS
 62
     7
100
AcDbLine
 10
294.0145272815
 20
300.7625525776
 30
0.0
 11
299.3145271257
 21
300.7625525776
 31
0.0
  0
ARC
  5
123
330
1F
100
AcDbEntity
  8
0
  6
CONTINUOUS
 62
     7
100
AcDbCircle
 10
294.0145270836
 20
303.6196957943
 30
0.0
 40
2.85714285714289
100
AcDbArc
 50
180.0
 51
270.0
  0
LINE
  5
124
330
1F
100
AcDbEntity
  8
0
  6
CONTINUOUS
 62
     7
100
AcDbLine
 10
260.7430986182
 20
300.7625525776
 30
0.0
 11
263.2430980966
 21
300.7625525776
 31
0.0
  0
LINE
  5
125
330
1F
100
AcDbEntity
  8
0
  6
CONTINUOUS
 62
     7
100
AcDbLine
 10
260.7430986182
 20
310.7625542167
 30
0.0
 11
260.7430986182
 21
300.7625525776
 31
0.0
  0
LINE
  5
126
330
1F
100
AcDbEntity
  8
0
  6
CONTINUOUS
 62
     7
100
AcDbLine
 10
271.4573836938
 20
310.7625542167
 30
0.0
 11
260.7430986182
 21
310.7625542167
 31
0.0
  0
LINE
  5
127
330
1F
100
AcDbEntity
  8
0
  6
CONTINUOUS
 62
     7
100
AcDbLine
 10
271.4573836938
 20
308.9768400375
 30
0.0
 11
271.4573836938
 21
310.7625542167
 31
0.0
  0
LINE
  5
128
330
1F
100
AcDbEntity
  8
0
  6
CONTINUOUS
 62
     7
100
AcDbLine
 10
263.2430980966
 20
308.9768400375
 30
0.0
 11
271.4573836938
 21
308.9768400375
 31
0.0
  0
LINE
  5
129
330
1F
100
AcDbEntity
  8
0
  6
CONTINUOUS
 62
     7
100
AcDbLine
 10
263.2430980966
 20
306.6554104868
 30
0.0
 11
263.2430980966
 21
308.9768400375
 31
0.0
  0
LINE
  5
12A
330
1F
100
AcDbEntity
  8
0
  6
CONTINUOUS
 62
     7
100
AcDbLine
 10
270.3859548138
 20
306.6554104868
 30
0.0
 11
263.2430980966
 21
306.6554104868
 31
0.0
  0
LINE
  5
12B
330
1F
100
AcDbEntity
  8
0
  6
CONTINUOUS
 62
     7
100
AcDbLine
 10
263.2430980966
 20
304.8696963075
 30
0.0
 11
270.3859548138
 21
304.8696963075
 31
0.0
  0
LINE
  5
12C
330
1F
100
AcDbEntity
  8
0
  6
CONTINUOUS
 62
     7
100
AcDbLine
 10
263.2430980966
 20
300.7625525776
 30
0.0
 11
263.2430980966
 21
304.8696963075
 31
0.0
  0
LINE
  5
12D
330
1F
100
AcDbEntity
  8
0
  6
CONTINUOUS
 62
     7
100
AcDbLine
 10
270.3859548138
 20
304.8696963075
 30
0.0
 11
270.3859548138
 21
306.6554104868
 31
0.0
  0
LINE
  5
12E
330
1F
100
AcDbEntity
  8
0
  6
CONTINUOUS
 62
     7
100
AcDbLine
 10
280.028812872
 20
302.5482667569
 30
0.0
 11
285.743098525
 21
302.5482667569
 31
0.0
  0
LINE
  5
12F
330
1F
100
AcDbEntity
  8
0
  6
CONTINUOUS
 62
     7
100
AcDbLine
 10
285.743098525
 20
304.8696963075
 30
0.0
 11
280.028812872
 21
304.8696963075
 31
0.0
  0
ARC
  5
130
330
1F
100
AcDbEntity
  8
0
  6
CONTINUOUS
 62
     7
100
AcDbCircle
 10
286.8145270836
 20
303.6196957943
 30
0.0
 40
2.85714285714296
100
AcDbArc
 50
270.0
 51
48.5903778907
  0
LINE
  5
131
330
1F
100
AcDbEntity
  8
0
  6
CONTINUOUS
 62
     7
100
AcDbLine
 10
277.5288124622
 20
310.7625542167
 30
0.0
 11
277.5288124622
 21
300.7625525776
 31
0.0
  0
LINE
  5
132
330
1F
100
AcDbEntity
  8
0
  6
CONTINUOUS
 62
     7
100
AcDbLine
 10
286.814527085
 20
310.7625542167
 30
0.0
 11
277.5288124622
 21
310.7625542167
 31
0.0
  0
ARC
  5
133
330
1F
100
AcDbEntity
  8
0
  6
CONTINUOUS
 62
     7
100
AcDbCircle
 10
286.8145270836
 20
307.90541008
 30
0.0
 40
2.857142857142833
100
AcDbArc
 50
311.4096221093
 51
90.0
  0
LINE
  5
134
330
1F
100
AcDbEntity
  8
0
  6
CONTINUOUS
 62
     7
100
AcDbLine
 10
280.028812872
 20
308.9768400375
 30
0.0
 11
280.028812872
 21
306.6554104868
 31
0.0
  0
LINE
  5
135
330
1F
100
AcDbEntity
  8
0
  6
CONTINUOUS
 62
     7
100
AcDbLine
 10
280.028812872
 20
306.6554104868
 30
0.0
 11
285.743098525
 21
306.6554104868
 31
0.0
  0
LINE
  5
136
330
1F
100
AcDbEntity
  8
0
  6
CONTINUOUS
 62
     7
100
AcDbLine
 10
285.743098525
 20
308.9768400375
 30
0.0
 11
280.028812872
 21
308.9768400375
 31
0.0
  0
LINE
  5
137
330
1F
100
AcDbEntity
  8
0
  6
CONTINUOUS
 62
     7
100
AcDbLine
 10
280.028812872
 20
304.8696963075
 30
0.0
 11
280.028812872
 21
302.5482667569
 31
0.0
  0
ARC
  5
138
330
1F
100
AcDbEntity
  8
0
  6
CONTINUOUS
 62
     7
100
AcDbCircle
 10
285.7430985121
 20
307.8161243657
 30
0.0
 40
1.160714285714278
100
AcDbArc
 50
270.0
 51
90.0
  0
ARC
  5
139
330
1F
100
AcDbEntity
  8
0
  6
CONTINUOUS
 62
     7
100
AcDbCircle
 10
285.7430985121
 20
303.7089815086
 30
0.0
 40
1.160714285714278
100
AcDbArc
 50
270.0
 51
90.0
  0
LINE
  5
13A
330
1F
100
AcDbEntity
  8
0
  6
CONTINUOUS
 62
     7
100
AcDbLine
 10
277.5288124622
 20
300.7625525776
 30
0.0
 11
286.814527085
 21
300.7625525776
 31
0.0
  0
LINE
  5
13B
330
1F
100
AcDbEntity
  8
0
  6
CONTINUOUS
 62
     7
100
AcDbLine
 10
309.5861527191
 20
305.7625533972
 30
0.0
 11
313.9216697828
 21
310.7625542167
 31
0.0
  0
LINE
  5
13C
330
1F
100
AcDbEntity
  8
0
  6
CONTINUOUS
 62
     7
100
AcDbLine
 10
313.9216697828
 20
300.7625525776
 30
0.0
 11
309.5861527191
 21
305.7625533972
 31
0.0
  0
LINE
  5
13D
330
1F
100
AcDbEntity
  8
0
  6
CONTINUOUS
 62
     7
100
AcDbLine
 10
310.8784205333
 20
300.7625525776
 30
0.0
 11
313.9216697828
 21
300.7625525776
 31
0.0
  0
LINE
  5
13E
330
1F
100
AcDbEntity
  8
0
  6
CONTINUOUS
 62
     7
100
AcDbLine
 10
308.0645262317
 20
303.7789555225
 30
0.0
 11
310.8784205333
 21
300.7625525776
 31
0.0
  0
LINE
  5
13F
330
1F
100
AcDbEntity
  8
0
  6
CONTINUOUS
 62
     7
100
AcDbLine
 10
305.2506337927
 20
300.7625525776
 30
0.0
 11
308.0645262317
 21
303.7789555225
 31
0.0
  0
LINE
  5
140
330
1F
100
AcDbEntity
  8
0
  6
CONTINUOUS
 62
     7
100
AcDbLine
 10
302.2073845432
 20
300.7625525776
 30
0.0
 11
305.2506337927
 21
300.7625525776
 31
0.0
  0
LINE
  5
141
330
1F
100
AcDbEntity
  8
0
  6
CONTINUOUS
 62
     7
100
AcDbLine
 10
306.5429016069
 20
305.7625533972
 30
0.0
 11
302.2073845432
 21
300.7625525776
 31
0.0
  0
LINE
  5
142
330
1F
100
AcDbEntity
  8
0
  6
CONTINUOUS
 62
     7
100
AcDbLine
 10
302.2073845432
 20
310.7625542167
 30
0.0
 11
306.5429016069
 21
305.7625533972
 31
0.0
  0
LINE
  5
143
330
1F
100
AcDbEntity
  8
0
  6
CONTINUOUS
 62
     7
100
AcDbLine
 10
305.2506337927
 20
310.7625542167
 30
0.0
 11
302.2073845432
 21
310.7625542167
 31
0.0
  0
LINE
  5
144
330
1F
100
AcDbEntity
  8
0
  6
CONTINUOUS
 62
     7
100
AcDbLine
 10
308.0645262317
 20
307.7461494092
 30
0.0
 11
305.2506337927
 21
310.7625542167
 31
0.0
  0
LINE
  5
145
330
1F
100
AcDbEntity
  8
0
  6
CONTINUOUS
 62
     7
100
AcDbLine
 10
310.8784205333
 20
310.7625542167
 30
0.0
 11
308.0645262317
 21
307.7461494092
 31
0.0
  0
LINE
  5
146
330
1F
100
AcDbEntity
  8
0
  6
CONTINUOUS
 62
     7
100
AcDbLine
 10
313.9216697828
 20
310.7625542167
 30
0.0
 11
310.8784205333
 21
310.7625542167
 31
0.0
  0
LINE
  5
147
330
1F
100
AcDbEntity
  8
0
  6
CONTINUOUS
 62
     7
100
AcDbLine
 10
275.7430982829
 20
300.7625525776
 30
0.0
 11
275.7430982829
 21
310.7625542167
 31
0.0
  0
LINE
  5
148
330
1F
100
AcDbEntity
  8
0
  6
CONTINUOUS
 62
     7
100
AcDbLine
 10
275.7430982829
 20
310.7625542167
 30
0.0
 11
273.2430988044
 21
310.7625542167
 31
0.0
  0
LINE
  5
149
330
1F
100
AcDbEntity
  8
0
  6
CONTINUOUS
 62
     7
100
AcDbLine
 10
273.2430988044
 20
300.7625525776
 30
0.0
 11
275.7430982829
 21
300.7625525776
 31
0.0
  0
LINE
  5
14A
330
1F
100
AcDbEntity
  8
0
  6
CONTINUOUS
 62
     7
100
AcDbLine
 10
273.2430988044
 20
310.7625542167
 30
0.0
 11
273.2430988044
 21
300.7625525776
 31
0.0
  0
LINE
  5
14B
330
1F
100
AcDbEntity
  8
0
  6
CONTINUOUS
 62
     7
100
AcDbLine
 10
51.0650557873
 20
182.0896526757
 30
0.0
 11
141.8650580046
 21
184.3087559525
 31
0.0
  0
LINE
  5
14C
330
1F
100
AcDbEntity
  8
0
  6
CONTINUOUS
 62
     7
100
AcDbLine
 10
141.8650580046
 20
367.5186222378
 30
0.0
 11
51.0650557873
 21
369.7377255145
 31
0.0
  0
LINE
  5
14D
330
1F
100
AcDbEntity
  8
0
  6
CONTINUOUS
 62
     7
100
AcDbLine
 10
141.8650580046
 20
350.4136910621
 30
0.0
 11
143.8650580996
 21
350.4136910621
 31
0.0
  0
LINE
  5
14E
330
1F
100
AcDbEntity
  8
0
  6
CONTINUOUS
 62
     7
100
AcDbLine
 10
143.8650580996
 20
365.4136916581
 30
0.0
 11
141.8650580046
 21
365.4136916581
 31
0.0
  0
LINE
  5
14F
330
1F
100
AcDbEntity
  8
0
  6
CONTINUOUS
 62
     7
100
AcDbLine
 10
141.8650580046
 20
186.4136865321
 30
0.0
 11
143.8650580996
 21
186.4136865321
 31
0.0
  0
LINE
  5
150
330
1F
100
AcDbEntity
  8
0
  6
CONTINUOUS
 62
     7
100
AcDbLine
 10
143.8650580996
 20
201.4136871282
 30
0.0
 11
141.8650580046
 21
201.4136871282
 31
0.0
  0
ELLIPSE
  5
151
330
1F
100
AcDbEntity
  8
0
  6
CONTINUOUS
 62
     7
100
AcDbEllipse
 10
-736.0886454069
 20
193.9136890951
 30
0.0
 11
1186.196859672716
 21
0.0
 31
0.0
210
0.0
220
0.0
230
1.0
 40
0.0094029048
 41
0.7375153424507782
 42
0.8451828661900556
  0
LINE
  5
152
330
1F
100
AcDbEntity
  8
0
  6
CONTINUOUS
 62
     7
100
AcDbLine
 10
141.8650580046
 20
201.4140000526
 30
0.0
 11
141.8650580046
 21
184.3087559525
 31
0.0
  0
LINE
  5
153
330
1F
100
AcDbEntity
  8
0
  6
CONTINUOUS
 62
     7
100
AcDbLine
 10
51.0650557873
 20
182.0896526757
 30
0.0
 11
43.8650605676
 21
181.9136923138
 31
0.0
  0
LINE
  5
154
330
1F
100
AcDbEntity
  8
0
  6
CONTINUOUS
 62
     7
100
AcDbLine
 10
43.8650605676
 20
193.9136868302
 30
0.0
 11
43.8650605676
 21
181.9136923138
 31
0.0
  0
LINE
  5
155
330
1F
100
AcDbEntity
  8
0
  6
CONTINUOUS
 62
     7
100
AcDbLine
 10
51.0650557873
 20
193.9136868302
 30
0.0
 11
43.8650605676
 21
193.9136868302
 31
0.0
  0
LINE
  5
156
330
1F
100
AcDbEntity
  8
0
  6
CONTINUOUS
 62
     7
100
AcDbLine
 10
51.0650557873
 20
357.9136913601
 30
0.0
 11
43.8650605676
 21
357.9136913601
 31
0.0
  0
LINE
  5
157
330
1F
100
AcDbEntity
  8
0
  6
CONTINUOUS
 62
     7
100
AcDbLine
 10
51.0650557873
 20
193.9136868302
 30
0.0
 11
51.0650557873
 21
357.9136913601
 31
0.0
  0
LINE
  5
158
330
1F
100
AcDbEntity
  8
0
  6
CONTINUOUS
 62
     7
100
AcDbLine
 10
43.8650605676
 20
193.9136868302
 30
0.0
 11
43.8650605676
 21
357.9136913601
 31
0.0
  0
LINE
  5
159
330
1F
100
AcDbEntity
  8
0
  6
CONTINUOUS
 62
     7
100
AcDbLine
 10
141.8650580046
 20
367.5186222378
 30
0.0
 11
141.8650580046
 21
350.4133781377
 31
0.0
  0
ELLIPSE
  5
15A
330
1F
100
AcDbEntity
  8
0
  6
CONTINUOUS
 62
     7
100
AcDbEllipse
 10
-736.0886449745
 20
357.9136890951
 30
0.0
 11
1186.196859209436
 21
0.0
 31
0.0
210
0.0
220
0.0
230
1.0
 40
0.0094029048
 41
5.438002440849393
 42
5.545669964617405
  0
LINE
  5
15B
330
1F
100
AcDbEntity
  8
0
  6
CONTINUOUS
 62
     7
100
AcDbLine
 10
51.0650557873
 20
369.7377255145
 30
0.0
 11
43.8650605676
 21
369.9136858765
 31
0.0
  0
LINE
  5
15C
330
1F
100
AcDbEntity
  8
0
  6
CONTINUOUS
 62
     7
100
AcDbLine
 10
43.8650605676
 20
369.9136858765
 30
0.0
 11
43.8650605676
 21
357.9136913601
 31
0.0
  0
LINE
  5
15D
330
1F
100
AcDbEntity
  8
0
  6
CONTINUOUS
 62
     7
100
AcDbLine
 10
141.8650580046
 20
201.4140000526
 30
0.0
 11
141.8650580046
 21
350.4133781377
 31
0.0
  0
LINE
  5
15E
330
1F
100
AcDbEntity
  8
0
  6
CONTINUOUS
 62
     7
100
AcDbLine
 10
143.8650580996
 20
365.4136916581
 30
0.0
 11
143.8650580996
 21
350.4136910621
 31
0.0
  0
LINE
  5
15F
330
1F
100
AcDbEntity
  8
0
  6
CONTINUOUS
 62
     7
100
AcDbLine
 10
143.8650580996
 20
201.4136871282
 30
0.0
 11
143.8650580996
 21
186.4136865321
 31
0.0
  0
LINE
  5
160
330
1F
100
AcDbEntity
  8
0
  6
CONTINUOUS
 62
     7
100
AcDbLine
 10
378.761174442
 20
442.9940603248
 30
0.0
 11
380.9802777187
 21
533.7940625421
 31
0.0
  0
LINE
  5
161
330
1F
100
AcDbEntity
  8
0
  6
CONTINUOUS
 62
     7
100
AcDbLine
 10
193.3322048799
 20
533.7940625421
 30
0.0
 11
195.5513081566
 21
442.9940603248
 31
0.0
  0
LINE
  5
162
330
1F
100
AcDbEntity
  8
0
  6
CONTINUOUS
 62
     7
100
AcDbLine
 10
197.6562387363
 20
442.9940603248
 30
0.0
 11
197.6562387363
 21
440.9940602298
 31
0.0
  0
LINE
  5
163
330
1F
100
AcDbEntity
  8
0
  6
CONTINUOUS
 62
     7
100
AcDbLine
 10
212.6562393324
 20
440.9940602298
 30
0.0
 11
212.6562393324
 21
442.9940603248
 31
0.0
  0
LINE
  5
164
330
1F
100
AcDbEntity
  8
0
  6
CONTINUOUS
 62
     7
100
AcDbLine
 10
361.6562432663
 20
442.9940603248
 30
0.0
 11
361.6562432663
 21
440.9940602298
 31
0.0
  0
LINE
  5
165
330
1F
100
AcDbEntity
  8
0
  6
CONTINUOUS
 62
     7
100
AcDbLine
 10
376.6562438623
 20
440.9940602298
 30
0.0
 11
376.6562438623
 21
442.9940603248
 31
0.0
  0
LINE
  5
166
330
1F
100
AcDbEntity
  8
0
  6
CONTINUOUS
 62
     7
100
AcDbLine
 10
378.761174442
 20
442.9940603248
 30
0.0
 11
361.6559303419
 21
442.9940603248
 31
0.0
  0
ELLIPSE
  5
167
330
1F
100
AcDbEntity
  8
0
  6
CONTINUOUS
 62
     7
100
AcDbEllipse
 10
369.1562412993
 20
1320.9477637383
 30
0.0
 11
0.0
 21
1186.196859675703
 31
0.0
210
0.0
220
0.0
230
1.0
 40
0.0094029048
 41
2.296409787400361
 42
2.404077311139497
  0
LINE
  5
168
330
1F
100
AcDbEntity
  8
0
  6
CONTINUOUS
 62
     7
100
AcDbLine
 10
369.1562435643
 20
533.7940625421
 30
0.0
 11
369.1562435643
 21
540.9940577618
 31
0.0
  0
LINE
  5
169
330
1F
100
AcDbEntity
  8
0
  6
CONTINUOUS
 62
     7
100
AcDbLine
 10
380.9802777187
 20
533.7940625421
 30
0.0
 11
381.1562380807
 21
540.9940577618
 31
0.0
  0
LINE
  5
16A
330
1F
100
AcDbEntity
  8
0
  6
CONTINUOUS
 62
     7
100
AcDbLine
 10
381.1562380807
 20
540.9940577618
 30
0.0
 11
369.1562435643
 21
540.9940577618
 31
0.0
  0
ELLIPSE
  5
16B
330
1F
100
AcDbEntity
  8
0
  6
CONTINUOUS
 62
     7
100
AcDbEllipse
 10
205.1562412993
 20
1320.9477637383
 30
0.0
 11
0.0
 21
1186.196859675703
 31
0.0
210
0.0
220
0.0
230
1.0
 40
0.0094029048
 41
3.879107996040905
 42
3.986775519779882
  0
LINE
  5
16C
330
1F
100
AcDbEntity
  8
0
  6
CONTINUOUS
 62
     7
100
AcDbLine
 10
212.6565522567
 20
442.9940603248
 30
0.0
 11
195.5513081566
 21
442.9940603248
 31
0.0
  0
LINE
  5
16D
330
1F
100
AcDbEntity
  8
0
  6
CONTINUOUS
 62
     7
100
AcDbLine
 10
193.3322048799
 20
533.7940625421
 30
0.0
 11
193.156244518
 21
540.9940577618
 31
0.0
  0
LINE
  5
16E
330
1F
100
AcDbEntity
  8
0
  6
CONTINUOUS
 62
     7
100
AcDbLine
 10
205.1562390343
 20
533.7940625421
 30
0.0
 11
205.1562390343
 21
540.9940577618
 31
0.0
  0
LINE
  5
16F
330
1F
100
AcDbEntity
  8
0
  6
CONTINUOUS
 62
     7
100
AcDbLine
 10
205.1562390343
 20
540.9940577618
 30
0.0
 11
193.156244518
 21
540.9940577618
 31
0.0
  0
LINE
  5
170
330
1F
100
AcDbEntity
  8
0
  6
CONTINUOUS
 62
     7
100
AcDbLine
 10
205.1562390343
 20
533.7940625421
 30
0.0
 11
369.1562435643
 21
533.7940625421
 31
0.0
  0
LINE
  5
171
330
1F
100
AcDbEntity
  8
0
  6
CONTINUOUS
 62
     7
100
AcDbLine
 10
205.1562390343
 20
540.9940577618
 30
0.0
 11
369.1562435643
 21
540.9940577618
 31
0.0
  0
LINE
  5
172
330
1F
100
AcDbEntity
  8
0
  6
CONTINUOUS
 62
     7
100
AcDbLine
 10
212.6565522567
 20
442.9940603248
 30
0.0
 11
361.6559303419
 21
442.9940603248
 31
0.0
  0
LINE
  5
173
330
1F
100
AcDbEntity
  8
0
  6
CONTINUOUS
 62
     7
100
AcDbLine
 10
205.1562390343
 20
440.9940602298
 30
0.0
 11
197.6562387363
 21
440.9940602298
 31
0.0
  0
LINE
  5
174
330
1F
100
AcDbEntity
  8
0
  6
CONTINUOUS
 62
     7
100
AcDbLine
 10
212.6562393324
 20
440.9940602298
 30
0.0
 11
205.1562390343
 21
440.9940602298
 31
0.0
  0
LINE
  5
175
330
1F
100
AcDbEntity
  8
0
  6
CONTINUOUS
 62
     7
100
AcDbLine
 10
376.6562438623
 20
440.9940602298
 30
0.0
 11
361.6562432663
 21
440.9940602298
 31
0.0
  0
LINE
  5
176
330
1F
100
AcDbEntity
  8
0
  6
CONTINUOUS
 62
     7
100
AcDbLine
 10
380.9802777187
 20
26.4678400101
 30
0.0
 11
378.761174442
 21
117.2678422274
 31
0.0
  0
LINE
  5
177
330
1F
100
AcDbEntity
  8
0
  6
CONTINUOUS
 62
     7
100
AcDbLine
 10
195.5513081566
 20
117.2678422274
 30
0.0
 11
193.3322048799
 21
26.4678400101
 31
0.0
  0
LINE
  5
178
330
1F
100
AcDbEntity
  8
0
  6
CONTINUOUS
 62
     7
100
AcDbLine
 10
212.6562393324
 20
117.2678422274
 30
0.0
 11
212.6562393324
 21
119.2678423224
 31
0.0
  0
LINE
  5
179
330
1F
100
AcDbEntity
  8
0
  6
CONTINUOUS
 62
     7
100
AcDbLine
 10
197.6562387363
 20
119.2678423224
 30
0.0
 11
197.6562387363
 21
117.2678422274
 31
0.0
  0
LINE
  5
17A
330
1F
100
AcDbEntity
  8
0
  6
CONTINUOUS
 62
     7
100
AcDbLine
 10
376.6562438623
 20
117.2678422274
 30
0.0
 11
376.6562438623
 21
119.2678423224
 31
0.0
  0
LINE
  5
17B
330
1F
100
AcDbEntity
  8
0
  6
CONTINUOUS
 62
     7
100
AcDbLine
 10
361.6562432663
 20
119.2678423224
 30
0.0
 11
361.6562432663
 21
117.2678422274
 31
0.0
  0
ELLIPSE
  5
17C
330
1F
100
AcDbEntity
  8
0
  6
CONTINUOUS
 62
     7
100
AcDbEllipse
 10
369.1562412993
 20
-760.6858607537
 30
0.0
 11
0.0
 21
1186.196859212423
 31
0.0
210
0.0
220
0.0
230
1.0
 40
0.0094029048
 41
0.7375153425624822
 42
0.8451828663302492
  0
LINE
  5
17D
330
1F
100
AcDbEntity
  8
0
  6
CONTINUOUS
 62
     7
100
AcDbLine
 10
361.6559303419
 20
117.2678422274
 30
0.0
 11
378.761174442
 21
117.2678422274
 31
0.0
  0
LINE
  5
17E
330
1F
100
AcDbEntity
  8
0
  6
CONTINUOUS
 62
     7
100
AcDbLine
 10
380.9802777187
 20
26.4678400101
 30
0.0
 11
381.1562380807
 21
19.2678447904
 31
0.0
  0
LINE
  5
17F
330
1F
100
AcDbEntity
  8
0
  6
CONTINUOUS
 62
     7
100
AcDbLine
 10
369.1562435643
 20
19.2678447904
 30
0.0
 11
381.1562380807
 21
19.2678447904
 31
0.0
  0
LINE
  5
180
330
1F
100
AcDbEntity
  8
0
  6
CONTINUOUS
 62
     7
100
AcDbLine
 10
369.1562435643
 20
26.4678400101
 30
0.0
 11
369.1562435643
 21
19.2678447904
 31
0.0
  0
LINE
  5
181
330
1F
100
AcDbEntity
  8
0
  6
CONTINUOUS
 62
     7
100
AcDbLine
 10
205.1562390343
 20
26.4678400101
 30
0.0
 11
205.1562390343
 21
19.2678447904
 31
0.0
  0
LINE
  5
182
330
1F
100
AcDbEntity
  8
0
  6
CONTINUOUS
 62
     7
100
AcDbLine
 10
369.1562435643
 20
26.4678400101
 30
0.0
 11
205.1562390343
 21
26.4678400101
 31
0.0
  0
LINE
  5
183
330
1F
100
AcDbEntity
  8
0
  6
CONTINUOUS
 62
     7
100
AcDbLine
 10
369.1562435643
 20
19.2678447904
 30
0.0
 11
205.1562390343
 21
19.2678447904
 31
0.0
  0
LINE
  5
184
330
1F
100
AcDbEntity
  8
0
  6
CONTINUOUS
 62
     7
100
AcDbLine
 10
195.5513081566
 20
117.2678422274
 30
0.0
 11
212.6565522567
 21
117.2678422274
 31
0.0
  0
ELLIPSE
  5
185
330
1F
100
AcDbEntity
  8
0
  6
CONTINUOUS
 62
     7
100
AcDbEllipse
 10
205.1562412993
 20
-760.6858607537
 30
0.0
 11
0.0
 21
1186.196859212419
 31
0.0
210
0.0
220
0.0
230
1.0
 40
0.0094029048
 41
5.438002440849974
 42
5.545669964617917
  0
LINE
  5
186
330
1F
100
AcDbEntity
  8
0
  6
CONTINUOUS
 62
     7
100
AcDbLine
 10
193.3322048799
 20
26.4678400101
 30
0.0
 11
193.156244518
 21
19.2678447904
 31
0.0
  0
LINE
  5
187
330
1F
100
AcDbEntity
  8
0
  6
CONTINUOUS
 62
     7
100
AcDbLine
 10
193.156244518
 20
19.2678447904
 30
0.0
 11
205.1562390343
 21
19.2678447904
 31
0.0
  0
LINE
  5
188
330
1F
100
AcDbEntity
  8
0
  6
CONTINUOUS
 62
     7
100
AcDbLine
 10
361.6559303419
 20
117.2678422274
 30
0.0
 11
212.6565522567
 21
117.2678422274
 31
0.0
  0
LINE
  5
189
330
1F
100
AcDbEntity
  8
0
  6
CONTINUOUS
 62
     7
100
AcDbLine
 10
205.1562390343
 20
119.2678423224
 30
0.0
 11
212.6562393324
 21
119.2678423224
 31
0.0
  0
LINE
  5
18A
330
1F
100
AcDbEntity
  8
0
  6
CONTINUOUS
 62
     7
100
AcDbLine
 10
197.6562387363
 20
119.2678423224
 30
0.0
 11
205.1562390343
 21
119.2678423224
 31
0.0
  0
LINE
  5
18B
330
1F
100
AcDbEntity
  8
0
  6
CONTINUOUS
 62
     7
100
AcDbLine
 10
361.6562432663
 20
119.2678423224
 30
0.0
 11
376.6562438623
 21
119.2678423224
 31
0.0
  0
LINE
  5
18C
330
1F
100
AcDbEntity
  8
0
  6
CONTINUOUS
 62
     7
100
AcDbLine
 10
434.5560556845
 20
184.3087559525
 30
0.0
 11
525.3560579017
 21
182.0896526757
 31
0.0
  0
LINE
  5
18D
330
1F
100
AcDbEntity
  8
0
  6
CONTINUOUS
 62
     7
100
AcDbLine
 10
525.3560579017
 20
369.7377255145
 30
0.0
 11
434.5560556845
 21
367.5186222378
 31
0.0
  0
LINE
  5
18E
330
1F
100
AcDbEntity
  8
0
  6
CONTINUOUS
 62
     7
100
AcDbLine
 10
434.5560556845
 20
201.4136871282
 30
0.0
 11
432.5560555895
 21
201.4136871282
 31
0.0
  0
LINE
  5
18F
330
1F
100
AcDbEntity
  8
0
  6
CONTINUOUS
 62
     7
100
AcDbLine
 10
432.5560555895
 20
186.4136865321
 30
0.0
 11
434.5560556845
 21
186.4136865321
 31
0.0
  0
LINE
  5
190
330
1F
100
AcDbEntity
  8
0
  6
CONTINUOUS
 62
     7
100
AcDbLine
 10
434.5560556845
 20
365.4136916581
 30
0.0
 11
432.5560555895
 21
365.4136916581
 31
0.0
  0
LINE
  5
191
330
1F
100
AcDbEntity
  8
0
  6
CONTINUOUS
 62
     7
100
AcDbLine
 10
432.5560555895
 20
350.4136910621
 30
0.0
 11
434.5560556845
 21
350.4136910621
 31
0.0
  0
LINE
  5
192
330
1F
100
AcDbEntity
  8
0
  6
CONTINUOUS
 62
     7
100
AcDbLine
 10
434.5560556845
 20
184.3087559525
 30
0.0
 11
434.5560556845
 21
201.4140000526
 31
0.0
  0
ELLIPSE
  5
193
330
1F
100
AcDbEntity
  8
0
  6
CONTINUOUS
 62
     7
100
AcDbEllipse
 10
1312.509759096
 20
193.9136890951
 30
0.0
 11
1186.196859672716
 21
0.0
 31
0.0
210
0.0
220
0.0
230
1.0
 40
0.0094029048
 41
2.296409787399737
 42
2.40407731113901
  0
LINE
  5
194
330
1F
100
AcDbEntity
  8
0
  6
CONTINUOUS
 62
     7
100
AcDbLine
 10
525.3560579017
 20
193.9136868302
 30
0.0
 11
532.5560531215
 21
193.9136868302
 31
0.0
  0
LINE
  5
195
330
1F
100
AcDbEntity
  8
0
  6
CONTINUOUS
 62
     7
100
AcDbLine
 10
532.5560531215
 20
181.9136923138
 30
0.0
 11
532.5560531215
 21
193.9136868302
 31
0.0
  0
LINE
  5
196
330
1F
100
AcDbEntity
  8
0
  6
CONTINUOUS
 62
     7
100
AcDbLine
 10
525.3560579017
 20
182.0896526757
 30
0.0
 11
532.5560531215
 21
181.9136923138
 31
0.0
  0
LINE
  5
197
330
1F
100
AcDbEntity
  8
0
  6
CONTINUOUS
 62
     7
100
AcDbLine
 10
525.3560579017
 20
357.9136913601
 30
0.0
 11
525.3560579017
 21
193.9136868302
 31
0.0
  0
LINE
  5
198
330
1F
100
AcDbEntity
  8
0
  6
CONTINUOUS
 62
     7
100
AcDbLine
 10
525.3560579017
 20
357.9136913601
 30
0.0
 11
532.5560531215
 21
357.9136913601
 31
0.0
  0
LINE
  5
199
330
1F
100
AcDbEntity
  8
0
  6
CONTINUOUS
 62
     7
100
AcDbLine
 10
532.5560531215
 20
357.9136913601
 30
0.0
 11
532.5560531215
 21
193.9136868302
 31
0.0
  0
ELLIPSE
  5
19A
330
1F
100
AcDbEntity
  8
0
  6
CONTINUOUS
 62
     7
100
AcDbEllipse
 10
1312.5097586636
 20
357.9136890951
 30
0.0
 11
1186.196859209429
 21
0.0
 31
0.0
210
0.0
220
0.0
230
1.0
 40
0.0094029048
 41
3.879107996153583
 42
3.98677551992132
  0
LINE
  5
19B
330
1F
100
AcDbEntity
  8
0
  6
CONTINUOUS
 62
     7
100
AcDbLine
 10
434.5560556845
 20
350.4133781377
 30
0.0
 11
434.5560556845
 21
367.5186222378
 31
0.0
  0
LINE
  5
19C
330
1F
100
AcDbEntity
  8
0
  6
CONTINUOUS
 62
     7
100
AcDbLine
 10
525.3560579017
 20
369.7377255145
 30
0.0
 11
532.5560531215
 21
369.9136858765
 31
0.0
  0
LINE
  5
19D
330
1F
100
AcDbEntity
  8
0
  6
CONTINUOUS
 62
     7
100
AcDbLine
 10
532.5560531215
 20
357.9136913601
 30
0.0
 11
532.5560531215
 21
369.9136858765
 31
0.0
  0
LINE
  5
19E
330
1F
100
AcDbEntity
  8
0
  6
CONTINUOUS
 62
     7
100
AcDbLine
 10
434.5560556845
 20
350.4133781377
 30
0.0
 11
434.5560556845
 21
201.4140000526
 31
0.0
  0
LINE
  5
19F
330
1F
100
AcDbEntity
  8
0
  6
CONTINUOUS
 62
     7
100
AcDbLine
 10
432.5560555895
 20
186.4136865321
 30
0.0
 11
432.5560555895
 21
201.4136871282
 31
0.0
  0
LINE
  5
1A0
330
1F
100
AcDbEntity
  8
0
  6
CONTINUOUS
 62
     7
100
AcDbLine
 10
432.5560555895
 20
350.4136910621
 30
0.0
 11
432.5560555895
 21
365.4136916581
 31
0.0
  0
CIRCLE
  5
1A1
330
1F
100
AcDbEntity
  8
0
  6
CONTINUOUS
 62
     7
100
AcDbCircle
 10
602.2817633411
 20
357.9136890951
 30
0.0
 40
3.250000000000057
  0
CIRCLE
  5
1A2
330
1F
100
AcDbEntity
  8
0
  6
CONTINUOUS
 62
     7
100
AcDbCircle
 10
602.2817633411
 20
357.9136890951
 30
0.0
 40
7.500000000000057
  0
CIRCLE
  5
1A3
330
1F
100
AcDbEntity
  8
0
  6
CONTINUOUS
 62
     7
100
AcDbCircle
 10
602.2817633411
 20
193.9136890951
 30
0.0
 40
3.250000000000028
  0
CIRCLE
  5
1A4
330
1F
100
AcDbEntity
  8
0
  6
CONTINUOUS
 62
     7
100
AcDbCircle
 10
602.2817633411
 20
193.9136890951
 30
0.0
 40
7.500000000000028
  0
CIRCLE
  5
1A5
330
1F
100
AcDbEntity
  8
0
  6
CONTINUOUS
 62
     7
100
AcDbCircle
 10
766.2817633411
 20
357.9136890951
 30
0.0
 40
3.25
  0
CIRCLE
  5
1A6
330
1F
100
AcDbEntity
  8
0
  6
CONTINUOUS
 62
     7
100
AcDbCircle
 10
766.2817633411
 20
357.9136890951
 30
0.0
 40
7.5
  0
CIRCLE
  5
1A7
330
1F
100
AcDbEntity
  8
0
  6
CONTINUOUS
 62
     7
100
AcDbCircle
 10
766.2817633411
 20
193.9136890951
 30
0.0
 40
3.249999999999972
  0
CIRCLE
  5
1A8
330
1F
100
AcDbEntity
  8
0
  6
CONTINUOUS
 62
     7
100
AcDbCircle
 10
766.2817633411
 20
193.9136890951
 30
0.0
 40
7.5
  0
ELLIPSE
  5
1A9
330
1F
100
AcDbEntity
  8
0
  6
CONTINUOUS
 62
     7
100
AcDbEllipse
 10
573.2917365222
 20
193.9136890951
 30
0.0
 11
31.06165793300568
 21
0.0
 31
0.0
210
0.0
220
0.0
230
1.0
 40
0.3590824485
 41
0.7375153424507789
 42
0.8451828661900566
  0
ARC
  5
1AA
330
1F
100
AcDbEntity
  8
0
  6
CONTINUOUS
 62
     7
100
AcDbCircle
 10
602.2817633411
 20
193.9136890951
 30
0.0
 40
9.604931589426549
100
AcDbArc
 50
128.6586379622
 51
321.3413620378
  0
ELLIPSE
  5
1AB
330
1F
100
AcDbEntity
  8
0
  6
CONTINUOUS
 62
     7
100
AcDbEllipse
 10
602.2817633411
 20
164.9236622762
 30
0.0
 11
0.0
 21
31.06165793308386
 31
0.0
210
0.0
220
0.0
230
1.0
 40
0.3590824485
 41
5.438002440990167
 42
5.545669964729319
  0
ARC
  5
1AC
330
1F
100
AcDbEntity
  8
0
  6
CONTINUOUS
 62
     7
100
AcDbCircle
 10
602.2817633411
 20
193.9136890951
 30
0.0
 40
11.82403579096825
100
AcDbArc
 50
270.0
 51
314.8845788748
  0
LINE
  5
1AD
330
1F
100
AcDbEntity
  8
0
  6
CONTINUOUS
 62
     7
100
AcDbLine
 10
602.2817610761
 20
182.0896526757
 30
0.0
 11
602.2817610761
 21
181.9136923138
 31
0.0
  0
ARC
  5
1AE
330
1F
100
AcDbEntity
  8
0
  6
CONTINUOUS
 62
     7
100
AcDbCircle
 10
602.2817633411
 20
193.9136890951
 30
0.0
 40
12.00000000078217
100
AcDbArc
 50
180.0
 51
270.0
  0
LINE
  5
1AF
330
1F
100
AcDbEntity
  8
0
  6
CONTINUOUS
 62
     7
100
AcDbLine
 10
590.4577269217
 20
193.9136868302
 30
0.0
 11
590.2817665597
 21
193.9136868302
 31
0.0
  0
ARC
  5
1B0
330
1F
100
AcDbEntity
  8
0
  6
CONTINUOUS
 62
     7
100
AcDbCircle
 10
602.2817633411
 20
193.9136890951
 30
0.0
 40
11.82403579096831
100
AcDbArc
 50
135.1154211252
 51
180.0
  0
ELLIPSE
  5
1B1
330
1F
100
AcDbEntity
  8
0
  6
CONTINUOUS
 62
     7
100
AcDbEllipse
 10
602.2817633411
 20
386.9037159028
 30
0.0
 11
0.0
 21
31.06165792095248
 31
0.0
210
0.0
220
0.0
230
1.0
 40
0.3590824485
 41
3.879107996152293
 42
3.98677551992006
  0
ARC
  5
1B2
330
1F
100
AcDbEntity
  8
0
  6
CONTINUOUS
 62
     7
100
AcDbCircle
 10
602.2817633411
 20
357.9136890951
 30
0.0
 40
9.604931587862383
100
AcDbArc
 50
38.6586379697
 51
231.3413620303
  0
ELLIPSE
  5
1B3
330
1F
100
AcDbEntity
  8
0
  6
CONTINUOUS
 62
     7
100
AcDbEllipse
 10
573.2917365335
 20
357.9136890951
 30
0.0
 11
31.06165792087415
 21
0.0
 31
0.0
210
0.0
220
0.0
230
1.0
 40
0.3590824485
 41
5.438002440848742
 42
5.545669964616636
  0
ARC
  5
1B4
330
1F
100
AcDbEntity
  8
0
  6
CONTINUOUS
 62
     7
100
AcDbCircle
 10
602.2817633411
 20
357.9136890951
 30
0.0
 40
11.82403579096831
100
AcDbArc
 50
180.0
 51
224.8845788672
  0
LINE
  5
1B5
330
1F
100
AcDbEntity
  8
0
  6
CONTINUOUS
 62
     7
100
AcDbLine
 10
590.4577269217
 20
357.9136913601
 30
0.0
 11
590.2817665597
 21
357.9136913601
 31
0.0
  0
ARC
  5
1B6
330
1F
100
AcDbEntity
  8
0
  6
CONTINUOUS
 62
     7
100
AcDbCircle
 10
602.2817633411
 20
357.9136890951
 30
0.0
 40
12.00000000078211
100
AcDbArc
 50
90.0
 51
180.0
  0
LINE
  5
1B7
330
1F
100
AcDbEntity
  8
0
  6
CONTINUOUS
 62
     7
100
AcDbLine
 10
602.2817610761
 20
369.7377255145
 30
0.0
 11
602.2817610761
 21
369.9136858765
 31
0.0
  0
ARC
  5
1B8
330
1F
100
AcDbEntity
  8
0
  6
CONTINUOUS
 62
     7
100
AcDbCircle
 10
602.2817633411
 20
357.9136890951
 30
0.0
 40
11.82403579096825
100
AcDbArc
 50
45.1154211328
 51
90.0
  0
ARC
  5
1B9
330
1F
100
AcDbEntity
  8
0
  6
CONTINUOUS
 62
     7
100
AcDbCircle
 10
766.2817633411
 20
357.9136890951
 30
0.0
 40
9.60493158786241
100
AcDbArc
 50
308.6586379697
 51
141.3413620303
  0
LINE
  5
1BA
330
1F
100
AcDbEntity
  8
0
  6
CONTINUOUS
 62
     7
100
AcDbLine
 10
772.2817628642
 20
350.4133781377
 30
0.0
 11
772.2817628642
 21
201.4140000526
 31
0.0
  0
ARC
  5
1BB
330
1F
100
AcDbEntity
  8
0
  6
CONTINUOUS
 62
     7
100
AcDbCircle
 10
766.2817633411
 20
193.9136890951
 30
0.0
 40
9.60493158942662
100
AcDbArc
 50
218.6586379622
 51
51.3413620378
  0
LINE
  5
1BC
330
1F
100
AcDbEntity
  8
0
  6
CONTINUOUS
 62
     7
100
AcDbLine
 10
758.7814523836
 20
187.913689572
 30
0.0
 11
609.7820742985
 21
187.913689572
 31
0.0
  0
LINE
  5
1BD
330
1F
100
AcDbEntity
  8
0
  6
CONTINUOUS
 62
     7
100
AcDbLine
 10
596.2817638179
 20
201.4140000526
 30
0.0
 11
596.2817638179
 21
350.4133781377
 31
0.0
  0
LINE
  5
1BE
330
1F
100
AcDbEntity
  8
0
  6
CONTINUOUS
 62
     7
100
AcDbLine
 10
609.7820742985
 20
363.9136886183
 30
0.0
 11
758.7814523836
 21
363.9136886183
 31
0.0
  0
LINE
  5
1BF
330
1F
100
AcDbEntity
  8
0
  6
CONTINUOUS
 62
     7
100
AcDbLine
 10
593.9040823838
 20
202.2576888982
 30
0.0
 11
593.9040823838
 21
349.5696892921
 31
0.0
  0
ELLIPSE
  5
1C0
330
1F
100
AcDbEntity
  8
0
  6
CONTINUOUS
 62
     7
100
AcDbEllipse
 10
766.2817633411
 20
386.9037159028
 30
0.0
 11
0.0
 21
31.06165792095243
 31
0.0
210
0.0
220
0.0
230
1.0
 40
0.3590824485
 41
2.296409787259546
 42
2.404077311027319
  0
LINE
  5
1C1
330
1F
100
AcDbEntity
  8
0
  6
CONTINUOUS
 62
     7
100
AcDbLine
 10
610.6257631441
 20
366.2913700524
 30
0.0
 11
757.937763538
 21
366.2913700524
 31
0.0
  0
ELLIPSE
  5
1C2
330
1F
100
AcDbEntity
  8
0
  6
CONTINUOUS
 62
     7
100
AcDbEllipse
 10
766.2817633411
 20
164.9236622762
 30
0.0
 11
0.0
 21
31.06165793308386
 31
0.0
210
0.0
220
0.0
230
1.0
 40
0.3590824485
 41
0.737515342450284
 42
0.8451828661894388
  0
LINE
  5
1C3
330
1F
100
AcDbEntity
  8
0
  6
CONTINUOUS
 62
     7
100
AcDbLine
 10
757.937763538
 20
185.5360081378
 30
0.0
 11
610.6257631441
 21
185.5360081378
 31
0.0
  0
ELLIPSE
  5
1C4
330
1F
100
AcDbEntity
  8
0
  6
CONTINUOUS
 62
     7
100
AcDbEllipse
 10
795.27179016
 20
193.9136890951
 30
0.0
 11
31.06165793300568
 21
0.0
 31
0.0
210
0.0
220
0.0
230
1.0
 40
0.3590824485
 41
2.296409787399739
 42
2.404077311139014
  0
ARC
  5
1C5
330
1F
100
AcDbEntity
  8
0
  6
CONTINUOUS
 62
     7
100
AcDbCircle
 10
766.2817633411
 20
193.9136890951
 30
0.0
 40
11.82403579096831
100
AcDbArc
 50
0.0
 51
44.8845788748
  0
LINE
  5
1C6
330
1F
100
AcDbEntity
  8
0
  6
CONTINUOUS
 62
     7
100
AcDbLine
 10
778.1057997605
 20
193.9136868302
 30
0.0
 11
778.2817601224
 21
193.9136868302
 31
0.0
  0
ARC
  5
1C7
330
1F
100
AcDbEntity
  8
0
  6
CONTINUOUS
 62
     7
100
AcDbCircle
 10
766.2817633411
 20
193.9136890951
 30
0.0
 40
12.00000000078217
100
AcDbArc
 50
270.0
 51
0.0
  0
LINE
  5
1C8
330
1F
100
AcDbEntity
  8
0
  6
CONTINUOUS
 62
     7
100
AcDbLine
 10
766.281765606
 20
182.0896526757
 30
0.0
 11
766.281765606
 21
181.9136923138
 31
0.0
  0
ARC
  5
1C9
330
1F
100
AcDbEntity
  8
0
  6
CONTINUOUS
 62
     7
100
AcDbCircle
 10
766.2817633411
 20
193.9136890951
 30
0.0
 40
11.82403579096825
100
AcDbArc
 50
225.1154211252
 51
270.0
  0
ELLIPSE
  5
1CA
330
1F
100
AcDbEntity
  8
0
  6
CONTINUOUS
 62
     7
100
AcDbEllipse
 10
795.2717901487
 20
357.9136890951
 30
0.0
 11
31.06165792087415
 21
0.0
 31
0.0
210
0.0
220
0.0
230
1.0
 40
0.3590824485
 41
3.879107996152793
 42
3.986775519920682
  0
ARC
  5
1CB
330
1F
100
AcDbEntity
  8
0
  6
CONTINUOUS
 62
     7
100
AcDbCircle
 10
766.2817633411
 20
357.9136890951
 30
0.0
 40
11.82403579096825
100
AcDbArc
 50
90.0
 51
134.8845788672
  0
LINE
  5
1CC
330
1F
100
AcDbEntity
  8
0
  6
CONTINUOUS
 62
     7
100
AcDbLine
 10
766.281765606
 20
369.7377255145
 30
0.0
 11
766.281765606
 21
369.9136858765
 31
0.0
  0
ARC
  5
1CD
330
1F
100
AcDbEntity
  8
0
  6
CONTINUOUS
 62
     7
100
AcDbCircle
 10
766.2817633411
 20
357.9136890951
 30
0.0
 40
11.99999999921806
100
AcDbArc
 50
0.0
 51
90.0
  0
LINE
  5
1CE
330
1F
100
AcDbEntity
  8
0
  6
CONTINUOUS
 62
     7
100
AcDbLine
 10
778.1057997605
 20
357.9136913601
 30
0.0
 11
778.2817601224
 21
357.9136913601
 31
0.0
  0
ARC
  5
1CF
330
1F
100
AcDbEntity
  8
0
  6
CONTINUOUS
 62
     7
100
AcDbCircle
 10
766.2817633411
 20
357.9136890951
 30
0.0
 40
11.82403579096842
100
AcDbArc
 50
315.1154211328
 51
0.0
  0
LINE
  5
1D0
330
1F
100
AcDbEntity
  8
0
  6
CONTINUOUS
 62
     7
100
AcDbLine
 10
774.6594442984
 20
349.5696892921
 30
0.0
 11
774.6594442984
 21
202.2576888982
 31
0.0
  0
LINE
  5
1D1
330
1F
100
AcDbEntity
  8
0
  6
CONTINUOUS
 62
     7
100
AcDbLine
 10
590.4577269217
 20
193.9136868302
 30
0.0
 11
590.4577269217
 21
357.9136913601
 31
0.0
  0
LINE
  5
1D2
330
1F
100
AcDbEntity
  8
0
  6
CONTINUOUS
 62
     7
100
AcDbLine
 10
590.2817665597
 20
193.9136868302
 30
0.0
 11
590.2817665597
 21
357.9136913601
 31
0.0
  0
LINE
  5
1D3
330
1F
100
AcDbEntity
  8
0
  6
CONTINUOUS
 62
     7
100
AcDbLine
 10
602.2817610761
 20
369.7377255145
 30
0.0
 11
766.281765606
 21
369.7377255145
 31
0.0
  0
LINE
  5
1D4
330
1F
100
AcDbEntity
  8
0
  6
CONTINUOUS
 62
     7
100
AcDbLine
 10
602.2817610761
 20
369.9136858765
 30
0.0
 11
766.281765606
 21
369.9136858765
 31
0.0
  0
LINE
  5
1D5
330
1F
100
AcDbEntity
  8
0
  6
CONTINUOUS
 62
     7
100
AcDbLine
 10
766.281765606
 20
182.0896526757
 30
0.0
 11
602.2817610761
 21
182.0896526757
 31
0.0
  0
LINE
  5
1D6
330
1F
100
AcDbEntity
  8
0
  6
CONTINUOUS
 62
     7
100
AcDbLine
 10
766.281765606
 20
181.9136923138
 30
0.0
 11
602.2817610761
 21
181.9136923138
 31
0.0
  0
LINE
  5
1D7
330
1F
100
AcDbEntity
  8
0
  6
CONTINUOUS
 62
     7
100
AcDbLine
 10
778.1057997605
 20
357.9136913601
 30
0.0
 11
778.1057997605
 21
193.9136868302
 31
0.0
  0
LINE
  5
1D8
330
1F
100
AcDbEntity
  8
0
  6
CONTINUOUS
 62
     7
100
AcDbLine
 10
778.2817601224
 20
357.9136913601
 30
0.0
 11
778.2817601224
 21
193.9136868302
 31
0.0
  0
ENDSEC
  0
SECTION
  2
OBJECTS
  0
DICTIONARY
  5
C
330
0
100
AcDbDictionary
  3
ACAD_GROUP
350
D
  3
ACAD_MLINESTYLE
350
17
  0
DICTIONARY
  5
D
102
{ACAD_REACTORS
330
C
102
}
330
C
100
AcDbDictionary
  0
DICTIONARY
  5
17
102
{ACAD_REACTORS
330
C
102
}
330
C
100
AcDbDictionary
  3
STANDARD
350
18
  0
MLINESTYLE
  5
18
102
{ACAD_REACTORS
330
17
102
}
330
17
100
AcDbMlineStyle
  2
Standard
 70
     0
  3

 62
   256
 51
90.0
 52
90.0
 71
     2
 49
0.5
 62
   256
  6
BYLAYER
 49
-0.5
 62
   256
  6
BYLAYER
  0
ENDSEC
  0
EOF
