  0
SECTION
  2
HEADER
  9
$ACADVER
  1
AC1014
  9
$ACADMAINTVER
 70
     9
  9
$DWGCODEPAGE
  3
ANSI_1252
  9
$INSBASE
 10
0.0
 20
0.0
 30
0.0
  9
$EXTMIN
 10
0.0
 20
0.0
 30
0.0
  9
$EXTMAX
 10
1260.0
 20
891.0
 30
0.0
  9
$LIMMIN
 10
0.0
 20
0.0
  9
$LIMMAX
 10
1260.0
 20
891.0
  9
$ORTHOMODE
 70
     0
  9
$REGENMODE
 70
     1
  9
$FILLMODE
 70
     1
  9
$QTEXTMODE
 70
     0
  9
$MIRRTEXT
 70
     1
  9
$DRAGMODE
 70
     2
  9
$LTSCALE
 40
1.0
  9
$OSMODE
 70
    37
  9
$ATTMODE
 70
     1
  9
$TEXTSIZE
 40
10.5
  9
$TRACEWID
 40
1.0
  9
$TEXTSTYLE
  7
STANDARD
  9
$CLAYER
  8
0
  9
$CELTYPE
  6
BYLAYER
  9
$CECOLOR
 62
   256
  9
$CELTSCALE
 40
1.0
  9
$DELOBJ
 70
     1
  9
$DISPSILH
 70
     0
  9
$DIMSCALE
 40
1.0
  9
$DIMASZ
 40
18.0
  9
$DIMEXO
 40
3.0
  9
$DIMDLI
 40
3.75
  9
$DIMRND
 40
0.0
  9
$DIMDLE
 40
0.0
  9
$DIMEXE
 40
3.0
  9
$DIMTP
 40
0.0
  9
$DIMTM
 40
0.0
  9
$DIMTXT
 40
10.5
  9
$DIMCEN
 40
2.5
  9
$DIMTSZ
 40
0.0
  9
$DIMTOL
 70
     0
  9
$DIMLIM
 70
     0
  9
$DIMTIH
 70
     1
  9
$DIMTOH
 70
     1
  9
$DIMSE1
 70
     0
  9
$DIMSE2
 70
     0
  9
$DIMTAD
 70
     1
  9
$DIMZIN
 70
     0
  9
$DIMBLK
  1

  9
$DIMASO
 70
     1
  9
$DIMSHO
 70
     1
  9
$DIMPOST
  1

  9
$DIMAPOST
  1

  9
$DIMALT
 70
     0
  9
$DIMALTD
 70
     3
  9
$DIMALTF
 40
0.0393700787
  9
$DIMLFAC
 40
1.0
  9
$DIMTOFL
 70
     1
  9
$DIMTVP
 40
0.0
  9
$DIMTIX
 70
     0
  9
$DIMSOXD
 70
     0
  9
$DIMSAH
 70
     0
  9
$DIMBLK1
  1

  9
$DIMBLK2
  1

  9
$DIMSTYLE
  2
ISO-25
  9
$DIMCLRD
 70
     0
  9
$DIMCLRE
 70
     0
  9
$DIMCLRT
 70
     0
  9
$DIMTFAC
 40
1.0
  9
$DIMGAP
 40
4.572
  9
$DIMJUST
 70
     0
  9
$DIMSD1
 70
     0
  9
$DIMSD2
 70
     0
  9
$DIMTOLJ
 70
     0
  9
$DIMTZIN
 70
     0
  9
$DIMALTZ
 70
     0
  9
$DIMALTTZ
 70
     0
  9
$DIMFIT
 70
     3
  9
$DIMUPT
 70
     0
  9
$DIMUNIT
 70
     2
  9
$DIMDEC
 70
     2
  9
$DIMTDEC
 70
     2
  9
$DIMALTU
 70
     2
  9
$DIMALTTD
 70
     3
  9
$DIMTXSTY
  7
STANDARD
  9
$DIMAUNIT
 70
     0
  9
$LUNITS
 70
     2
  9
$LUPREC
 70
     2
  9
$SKETCHINC
 40
1.0
  9
$FILLETRAD
 40
10.0
  9
$AUNITS
 70
     0
  9
$AUPREC
 70
     2
  9
$MENU
  1
.
  9
$ELEVATION
 40
0.0
  9
$PELEVATION
 40
0.0
  9
$THICKNESS
 40
0.0
  9
$LIMCHECK
 70
     0
  9
$CHAMFERA
 40
10.0
  9
$CHAMFERB
 40
10.0
  9
$CHAMFERC
 40
20.0
  9
$CHAMFERD
 40
0.0
  9
$SKPOLY
 70
     0
  9
$TDCREATE
 40
2455260.602579745
  9
$TDUPDATE
 40
2455260.602579757
  9
$TDINDWG
 40
0.0000000116
  9
$TDUSRTIMER
 40
0.0000000116
  9
$USRTIMER
 70
     1
  9
$ANGBASE
 50
0.0
  9
$ANGDIR
 70
     0
  9
$PDMODE
 70
     0
  9
$PDSIZE
 40
-1.0
  9
$PLINEWID
 40
0.0
  9
$COORDS
 70
     1
  9
$SPLFRAME
 70
     0
  9
$SPLINETYPE
 70
     6
  9
$SPLINESEGS
 70
     8
  9
$ATTDIA
 70
     0
  9
$ATTREQ
 70
     1
  9
$HANDLING
 70
     1
  9
$HANDSEED
  5
2E0
  9
$SURFTAB1
 70
     6
  9
$SURFTAB2
 70
     6
  9
$SURFTYPE
 70
     6
  9
$SURFU
 70
     6
  9
$SURFV
 70
     6
  9
$UCSNAME
  2

  9
$UCSORG
 10
0.0
 20
0.0
 30
0.0
  9
$UCSXDIR
 10
1.0
 20
0.0
 30
0.0
  9
$UCSYDIR
 10
0.0
 20
1.0
 30
0.0
  9
$PUCSNAME
  2

  9
$PUCSORG
 10
0.0
 20
0.0
 30
0.0
  9
$PUCSXDIR
 10
1.0
 20
0.0
 30
0.0
  9
$PUCSYDIR
 10
0.0
 20
1.0
 30
0.0
  9
$USERI1
 70
     0
  9
$USERI2
 70
     0
  9
$USERI3
 70
     0
  9
$USERI4
 70
     0
  9
$USERI5
 70
     0
  9
$USERR1
 40
0.0
  9
$USERR2
 40
0.0
  9
$USERR3
 40
0.0
  9
$USERR4
 40
0.0
  9
$USERR5
 40
0.0
  9
$WORLDVIEW
 70
     1
  9
$SHADEDGE
 70
     3
  9
$SHADEDIF
 70
    70
  9
$TILEMODE
 70
     1
  9
$MAXACTVP
 70
    64
  9
$PINSBASE
 10
0.0
 20
0.0
 30
0.0
  9
$PLIMCHECK
 70
     0
  9
$PEXTMIN
 10
1.0000000000E+20
 20
1.0000000000E+20
 30
1.0000000000E+20
  9
$PEXTMAX
 10
-1.0000000000E+20
 20
-1.0000000000E+20
 30
-1.0000000000E+20
  9
$PLIMMIN
 10
0.0
 20
0.0
  9
$PLIMMAX
 10
420.0
 20
297.0
  9
$UNITMODE
 70
     0
  9
$VISRETAIN
 70
     1
  9
$PLINEGEN
 70
     0
  9
$PSLTSCALE
 70
     1
  9
$TREEDEPTH
 70
  3020
  9
$PICKSTYLE
 70
     1
  9
$CMLSTYLE
  2
STANDARD
  9
$CMLJUST
 70
     0
  9
$CMLSCALE
 40
20.0
  9
$PROXYGRAPHICS
 70
     1
  9
$MEASUREMENT
 70
     1
  0
ENDSEC
  0
SECTION
  2
CLASSES
  0
CLASS
  1
ACDBDICTIONARYWDFLT
  2
AcDbDictionaryWithDefault
  3
ObjectDBX Classes
 90
        0
280
     0
281
     0
  0
CLASS
  1
VISUALSTYLE
  2
AcDbVisualStyle
  3
ObjectDBX Classes
 90
     4095
280
     0
281
     0
  0
CLASS
  1
DICTIONARYVAR
  2
AcDbDictionaryVar
  3
ObjectDBX Classes
 90
        0
280
     0
281
     0
  0
CLASS
  1
XRECORD
  2
AcDbXrecord
  3
AutoCAD 2000
 90
        0
280
     0
281
     0
  0
CLASS
  1
LWPOLYLINE
  2
AcDbPolyline
  3
AutoCAD 2000
 90
        0
280
     0
281
     1
  0
CLASS
  1
HATCH
  2
AcDbHatch
  3
AutoCAD 2000
 90
        0
280
     0
281
     1
  0
CLASS
  1
ACDBPLACEHOLDER
  2
AcDbPlaceHolder
  3
ObjectDBX Classes
 90
        0
280
     0
281
     0
  0
CLASS
  1
LAYOUT
  2
AcDbLayout
  3
ObjectDBX Classes
 90
        0
280
     0
281
     0
  0
ENDSEC
  0
SECTION
  2
TABLES
  0
TABLE
  2
VPORT
  5
8
330
0
100
AcDbSymbolTable
 70
     1
  0
VPORT
  5
29
330
8
100
AcDbSymbolTableRecord
100
AcDbViewportTableRecord
  2
*ACTIVE
 70
     0
 10
0.0
 20
0.0
 11
1.0
 21
1.0
 12
630.0
 22
445.5
 13
0.0
 23
0.0
 14
10.0
 24
10.0
 15
10.0
 25
10.0
 16
0.0
 26
0.0
 36
1.0
 17
0.0
 27
0.0
 37
0.0
 40
891.0
 41
1.4141414141
 42
50.0
 43
0.0
 44
0.0
 50
0.0
 51
0.0
 71
     0
 72
  2000
 73
     1
 74
     3
 75
     0
 76
     0
 77
     0
 78
     0
  0
ENDTAB
  0
TABLE
  2
LTYPE
  5
5
330
0
100
AcDbSymbolTable
 70
     6
  0
LTYPE
  5
14
330
5
100
AcDbSymbolTableRecord
100
AcDbLinetypeTableRecord
  2
BYBLOCK
 70
     0
  3

 72
    65
 73
     0
 40
0.0
  0
LTYPE
  5
15
330
5
100
AcDbSymbolTableRecord
100
AcDbLinetypeTableRecord
  2
BYLAYER
 70
     0
  3

 72
    65
 73
     0
 40
0.0
  0
LTYPE
  5
16
330
5
100
AcDbSymbolTableRecord
100
AcDbLinetypeTableRecord
  2
CONTINUOUS
 70
     0
  3
Solid line
 72
    65
 73
     0
 40
0.0
  0
LTYPE
  5
3B
330
5
100
AcDbSymbolTableRecord
100
AcDbLinetypeTableRecord
  2
HIDDEN
 70
     0
  3
Hidden __ __ __ __ __ __ __ __ __ __ __ __ __ __
 72
    65
 73
     2
 40
1.905
 49
1.27
 74
     0
 49
-0.635
 74
     0
  0
LTYPE
  5
3C
330
5
100
AcDbSymbolTableRecord
100
AcDbLinetypeTableRecord
  2
PHANTOM
 70
     0
  3
Phantom ______  __  __  ______  __  __  ______
 72
    65
 73
     6
 40
12.7
 49
6.35
 74
     0
 49
-1.27
 74
     0
 49
1.27
 74
     0
 49
-1.27
 74
     0
 49
1.27
 74
     0
 49
-1.27
 74
     0
  0
LTYPE
  5
3D
330
5
100
AcDbSymbolTableRecord
100
AcDbLinetypeTableRecord
  2
CENTER
 70
     0
  3
Center ____ _ ____ _ ____ _ ____ _ ____ _ ____
 72
    65
 73
     4
 40
10.16
 49
6.35
 74
     0
 49
-1.27
 74
     0
 49
1.27
 74
     0
 49
-1.27
 74
     0
  0
LTYPE
  5
3E
330
5
100
AcDbSymbolTableRecord
100
AcDbLinetypeTableRecord
  2
CENTERX2
 70
     0
  3
Center (2x) ________  __  ________  __  _____
 72
    65
 73
     4
 40
20.32
 49
12.7
 74
     0
 49
-2.54
 74
     0
 49
2.54
 74
     0
 49
-2.54
 74
     0
  0
LTYPE
  5
3F
330
5
100
AcDbSymbolTableRecord
100
AcDbLinetypeTableRecord
  2
DOT2
 70
     0
  3
Dot (.5x) ........................................
 72
    65
 73
     2
 40
0.635
 49
0.0
 74
     0
 49
-0.635
 74
     0
  0
ENDTAB
  0
TABLE
  2
LAYER
  5
2
330
0
100
AcDbSymbolTable
 70
     1
  0
LAYER
  5
10
330
2
100
AcDbSymbolTableRecord
100
AcDbLayerTableRecord
  2
0
 70
     0
 62
     7
  6
CONTINUOUS
  0
ENDTAB
  0
TABLE
  2
STYLE
  5
3
330
0
100
AcDbSymbolTable
 70
     1
  0
STYLE
  5
11
330
3
100
AcDbSymbolTableRecord
100
AcDbTextStyleTableRecord
  2
STANDARD
 70
     0
 40
0.0
 41
1.0
 50
0.0
 71
     0
 42
2.5
  3
txt
  4

  0
ENDTAB
  0
TABLE
  2
VIEW
  5
6
330
0
100
AcDbSymbolTable
 70
     0
  0
ENDTAB
  0
TABLE
  2
UCS
  5
7
330
0
100
AcDbSymbolTable
 70
     0
  0
ENDTAB
  0
TABLE
  2
APPID
  5
9
330
0
100
AcDbSymbolTable
 70
     1
  0
APPID
  5
12
330
9
100
AcDbSymbolTableRecord
100
AcDbRegAppTableRecord
  2
ACAD
 70
     0
  0
ENDTAB
  0
TABLE
  2
DIMSTYLE
  5
A
330
0
100
AcDbSymbolTable
 70
     1
  0
DIMSTYLE
105
27
330
A
100
AcDbSymbolTableRecord
100
AcDbDimStyleTableRecord
  2
ISO-25
 70
     0
  3

  4

  5

  6

  7

 40
1.0
 41
2.5
 42
0.625
 43
3.75
 44
1.25
 45
0.0
 46
0.0
 47
0.0
 48
0.0
140
2.5
141
2.5
142
0.0
143
0.0393700787
144
1.0
145
0.0
146
1.0
147
0.625
 71
     0
 72
     0
 73
     0
 74
     0
 75
     0
 76
     0
 77
     1
 78
     8
170
     0
171
     3
172
     1
173
     0
174
     0
175
     0
176
     0
177
     0
178
     0
270
     2
271
     2
272
     2
273
     2
274
     3
340
11
275
     0
280
     0
281
     0
282
     0
283
     0
284
     8
285
     0
286
     0
287
     3
288
     0
  0
ENDTAB
  0
TABLE
  2
BLOCK_RECORD
  5
1
330
0
100
AcDbSymbolTable
 70
     1
  0
BLOCK_RECORD
  5
1F
330
1
100
AcDbSymbolTableRecord
100
AcDbBlockTableRecord
  2
*MODEL_SPACE
  0
BLOCK_RECORD
  5
1B
330
1
100
AcDbSymbolTableRecord
100
AcDbBlockTableRecord
  2
*PAPER_SPACE
  0
ENDTAB
  0
ENDSEC
  0
SECTION
  2
BLOCKS
  0
BLOCK
  5
20
330
1F
100
AcDbEntity
  8
0
100
AcDbBlockBegin
  2
*MODEL_SPACE
 70
     0
 10
0.0
 20
0.0
 30
0.0
  3
*MODEL_SPACE
  1

  0
ENDBLK
  5
21
330
1F
100
AcDbEntity
  8
0
100
AcDbBlockEnd
  0
BLOCK
  5
1C
330
1B
100
AcDbEntity
 67
     1
  8
0
100
AcDbBlockBegin
  2
*PAPER_SPACE
 70
     0
 10
0.0
 20
0.0
 30
0.0
  3
*PAPER_SPACE
  1

  0
ENDBLK
  5
1D
330
1B
100
AcDbEntity
 67
     1
  8
0
100
AcDbBlockEnd
  0
ENDSEC
  0
SECTION
  2
ENTITIES
  0
LINE
  5
40
330
1F
100
AcDbEntity
  8
0
  6
CONTINUOUS
 62
     7
100
AcDbLine
 10
424.640894536
 20
373.7474761742
 30
0.0
 11
433.6408904233
 21
373.7474761742
 31
0.0
  0
LINE
  5
41
330
1F
100
AcDbEntity
  8
0
  6
CONTINUOUS
 62
     7
100
AcDbLine
 10
424.640894536
 20
376.3474754827
 30
0.0
 11
424.640894536
 21
373.7474761742
 31
0.0
  0
LINE
  5
42
330
1F
100
AcDbEntity
  8
0
  6
CONTINUOUS
 62
     7
100
AcDbLine
 10
424.640894536
 20
376.3474754827
 30
0.0
 11
433.6408904233
 21
376.3474754827
 31
0.0
  0
LINE
  5
43
330
1F
100
AcDbEntity
  8
0
  6
CONTINUOUS
 62
     7
100
AcDbLine
 10
433.6408904233
 20
376.3474754827
 30
0.0
 11
433.6408904233
 21
373.7474761742
 31
0.0
  0
LINE
  5
44
330
1F
100
AcDbEntity
  8
0
  6
CONTINUOUS
 62
     7
100
AcDbLine
 10
246.6408914366
 20
376.3474754827
 30
0.0
 11
237.6408955493
 21
376.3474754827
 31
0.0
  0
LINE
  5
45
330
1F
100
AcDbEntity
  8
0
  6
CONTINUOUS
 62
     7
100
AcDbLine
 10
246.6408914366
 20
376.3474754827
 30
0.0
 11
246.6408914366
 21
373.7474761742
 31
0.0
  0
LINE
  5
46
330
1F
100
AcDbEntity
  8
0
  6
CONTINUOUS
 62
     7
100
AcDbLine
 10
246.6408914366
 20
373.7474761742
 30
0.0
 11
237.6408955493
 21
373.7474761742
 31
0.0
  0
LINE
  5
47
330
1F
100
AcDbEntity
  8
0
  6
CONTINUOUS
 62
     7
100
AcDbLine
 10
237.6408955493
 20
376.3474754827
 30
0.0
 11
237.6408955493
 21
373.7474761742
 31
0.0
  0
LINE
  5
48
330
1F
100
AcDbEntity
  8
0
  6
CONTINUOUS
 62
     7
100
AcDbLine
 10
340.6408928745
 20
588.3974738257
 30
0.0
 11
330.6408930981
 21
588.3974738257
 31
0.0
  0
LINE
  5
49
330
1F
100
AcDbEntity
  8
0
  6
CONTINUOUS
 62
     7
100
AcDbLine
 10
340.6408928745
 20
588.3974738257
 30
0.0
 11
340.6408928745
 21
586.2974755304
 31
0.0
  0
LINE
  5
4A
330
1F
100
AcDbEntity
  8
0
  6
CONTINUOUS
 62
     7
100
AcDbLine
 10
340.6408928745
 20
586.2974755304
 30
0.0
 11
330.6408930981
 21
586.2974755304
 31
0.0
  0
LINE
  5
4B
330
1F
100
AcDbEntity
  8
0
  6
CONTINUOUS
 62
     7
100
AcDbLine
 10
330.6408930981
 20
588.3974738257
 30
0.0
 11
330.6408930981
 21
586.2974755304
 31
0.0
  0
LINE
  5
4C
330
1F
100
AcDbEntity
  8
0
  6
CONTINUOUS
 62
     7
100
AcDbLine
 10
340.6408928745
 20
586.2974755304
 30
0.0
 11
340.6408928745
 21
583.6821354764
 31
0.0
  0
LINE
  5
4D
330
1F
100
AcDbEntity
  8
0
  6
CONTINUOUS
 62
     7
100
AcDbLine
 10
330.6408930981
 20
583.6821354764
 30
0.0
 11
340.6408928745
 21
583.6821354764
 31
0.0
  0
LINE
  5
4E
330
1F
100
AcDbEntity
  8
0
  6
CONTINUOUS
 62
     7
100
AcDbLine
 10
330.6408930981
 20
586.2974755304
 30
0.0
 11
330.6408930981
 21
583.6821354764
 31
0.0
  0
LINE
  5
4F
330
1F
100
AcDbEntity
  8
0
  6
CONTINUOUS
 62
     7
100
AcDbLine
 10
442.6408937612
 20
586.2974755304
 30
0.0
 11
432.6408958473
 21
586.2974755304
 31
0.0
  0
LINE
  5
50
330
1F
100
AcDbEntity
  8
0
  6
CONTINUOUS
 62
     7
100
AcDbLine
 10
442.6408937612
 20
586.2974755304
 30
0.0
 11
442.6408937612
 21
583.6821354764
 31
0.0
  0
LINE
  5
51
330
1F
100
AcDbEntity
  8
0
  6
CONTINUOUS
 62
     7
100
AcDbLine
 10
432.6408958473
 20
583.6821354764
 30
0.0
 11
442.6408937612
 21
583.6821354764
 31
0.0
  0
LINE
  5
52
330
1F
100
AcDbEntity
  8
0
  6
CONTINUOUS
 62
     7
100
AcDbLine
 10
432.6408958473
 20
586.2974755304
 30
0.0
 11
432.6408958473
 21
583.6821354764
 31
0.0
  0
LINE
  5
53
330
1F
100
AcDbEntity
  8
0
  6
CONTINUOUS
 62
     7
100
AcDbLine
 10
238.6408901253
 20
588.3974738257
 30
0.0
 11
228.6408922114
 21
588.3974738257
 31
0.0
  0
LINE
  5
54
330
1F
100
AcDbEntity
  8
0
  6
CONTINUOUS
 62
     7
100
AcDbLine
 10
238.6408901253
 20
586.2974755304
 30
0.0
 11
228.6408922114
 21
586.2974755304
 31
0.0
  0
LINE
  5
55
330
1F
100
AcDbEntity
  8
0
  6
CONTINUOUS
 62
     7
100
AcDbLine
 10
228.6408922114
 20
588.3974738257
 30
0.0
 11
228.6408922114
 21
586.2974755304
 31
0.0
  0
LINE
  5
56
330
1F
100
AcDbEntity
  8
0
  6
CONTINUOUS
 62
     7
100
AcDbLine
 10
238.6408901253
 20
588.3974738257
 30
0.0
 11
238.6408901253
 21
586.2974755304
 31
0.0
  0
LINE
  5
57
330
1F
100
AcDbEntity
  8
0
  6
CONTINUOUS
 62
     7
100
AcDbLine
 10
228.6408922114
 20
583.6821354764
 30
0.0
 11
238.6408901253
 21
583.6821354764
 31
0.0
  0
LINE
  5
58
330
1F
100
AcDbEntity
  8
0
  6
CONTINUOUS
 62
     7
100
AcDbLine
 10
228.6408922114
 20
586.2974755304
 30
0.0
 11
228.6408922114
 21
583.6821354764
 31
0.0
  0
LINE
  5
59
330
1F
100
AcDbEntity
  8
0
  6
CONTINUOUS
 62
     7
100
AcDbLine
 10
238.6408901253
 20
586.2974755304
 30
0.0
 11
238.6408901253
 21
583.6821354764
 31
0.0
  0
LINE
  5
5A
330
1F
100
AcDbEntity
  8
0
  6
CONTINUOUS
 62
     7
100
AcDbLine
 10
442.6408937612
 20
588.3974738257
 30
0.0
 11
432.6408958473
 21
588.3974738257
 31
0.0
  0
LINE
  5
5B
330
1F
100
AcDbEntity
  8
0
  6
CONTINUOUS
 62
     7
100
AcDbLine
 10
432.6408958473
 20
588.3974738257
 30
0.0
 11
432.6408958473
 21
586.2974755304
 31
0.0
  0
LINE
  5
5C
330
1F
100
AcDbEntity
  8
0
  6
CONTINUOUS
 62
     7
100
AcDbLine
 10
442.6408937612
 20
588.3974738257
 30
0.0
 11
442.6408937612
 21
586.2974755304
 31
0.0
  0
LINE
  5
5D
330
1F
100
AcDbEntity
  8
0
  6
CONTINUOUS
 62
     7
100
AcDbLine
 10
442.6408937612
 20
591.1974765199
 30
0.0
 11
432.6408958473
 21
591.1974765199
 31
0.0
  0
LINE
  5
5E
330
1F
100
AcDbEntity
  8
0
  6
CONTINUOUS
 62
     7
100
AcDbLine
 10
432.6408958473
 20
591.1974765199
 30
0.0
 11
432.6408958473
 21
588.3974738257
 31
0.0
  0
LINE
  5
5F
330
1F
100
AcDbEntity
  8
0
  6
CONTINUOUS
 62
     7
100
AcDbLine
 10
442.6408937612
 20
591.1974765199
 30
0.0
 11
442.6408937612
 21
588.3974738257
 31
0.0
  0
LINE
  5
60
330
1F
100
AcDbEntity
  8
0
  6
CONTINUOUS
 62
     7
100
AcDbLine
 10
340.6408928745
 20
591.1974765199
 30
0.0
 11
330.6408930981
 21
591.1974765199
 31
0.0
  0
LINE
  5
61
330
1F
100
AcDbEntity
  8
0
  6
CONTINUOUS
 62
     7
100
AcDbLine
 10
330.6408930981
 20
591.1974765199
 30
0.0
 11
330.6408930981
 21
588.3974738257
 31
0.0
  0
LINE
  5
62
330
1F
100
AcDbEntity
  8
0
  6
CONTINUOUS
 62
     7
100
AcDbLine
 10
340.6408928745
 20
591.1974765199
 30
0.0
 11
340.6408928745
 21
588.3974738257
 31
0.0
  0
LINE
  5
63
330
1F
100
AcDbEntity
  8
0
  6
CONTINUOUS
 62
     7
100
AcDbLine
 10
238.6408901253
 20
591.1974765199
 30
0.0
 11
228.6408922114
 21
591.1974765199
 31
0.0
  0
LINE
  5
64
330
1F
100
AcDbEntity
  8
0
  6
CONTINUOUS
 62
     7
100
AcDbLine
 10
228.6408922114
 20
591.1974765199
 30
0.0
 11
228.6408922114
 21
588.3974738257
 31
0.0
  0
LINE
  5
65
330
1F
100
AcDbEntity
  8
0
  6
CONTINUOUS
 62
     7
100
AcDbLine
 10
238.6408901253
 20
591.1974765199
 30
0.0
 11
238.6408901253
 21
588.3974738257
 31
0.0
  0
LINE
  5
66
330
1F
100
AcDbEntity
  8
0
  6
CONTINUOUS
 62
     7
100
AcDbLine
 10
340.6408928745
 20
585.7474736708
 30
0.0
 11
341.1408929565
 21
585.7474736708
 31
0.0
  0
LINE
  5
67
330
1F
100
AcDbEntity
  8
0
  6
CONTINUOUS
 62
     7
100
AcDbLine
 10
432.140894834
 20
585.7474736708
 30
0.0
 11
432.6408958473
 21
585.7474736708
 31
0.0
  0
LINE
  5
68
330
1F
100
AcDbEntity
  8
0
  6
CONTINUOUS
 62
     7
100
AcDbLine
 10
228.1408911982
 20
585.7474736708
 30
0.0
 11
228.6408922114
 21
585.7474736708
 31
0.0
  0
LINE
  5
69
330
1F
100
AcDbEntity
  8
0
  6
CONTINUOUS
 62
     7
100
AcDbLine
 10
228.6408922114
 20
583.7474770682
 30
0.0
 11
228.1408911982
 21
583.7474770682
 31
0.0
  0
LINE
  5
6A
330
1F
100
AcDbEntity
  8
0
  6
CONTINUOUS
 62
     7
100
AcDbLine
 10
442.6408937612
 20
585.7474736708
 30
0.0
 11
443.1408947744
 21
585.7474736708
 31
0.0
  0
LINE
  5
6B
330
1F
100
AcDbEntity
  8
0
  6
CONTINUOUS
 62
     7
100
AcDbLine
 10
443.1408947744
 20
583.7474770682
 30
0.0
 11
442.6408937612
 21
583.7474770682
 31
0.0
  0
LINE
  5
6C
330
1F
100
AcDbEntity
  8
0
  6
CONTINUOUS
 62
     7
100
AcDbLine
 10
238.6408901253
 20
585.7474736708
 30
0.0
 11
239.1408911386
 21
585.7474736708
 31
0.0
  0
LINE
  5
6D
330
1F
100
AcDbEntity
  8
0
  6
CONTINUOUS
 62
     7
100
AcDbLine
 10
330.1408930161
 20
585.7474736708
 30
0.0
 11
330.6408930981
 21
585.7474736708
 31
0.0
  0
ARC
  5
6E
330
1F
100
AcDbEntity
  8
0
  6
CONTINUOUS
 62
     7
100
AcDbCircle
 10
440.1408929863
 20
569.2474749225
 30
0.0
 40
18.99999999999999
100
AcDbArc
 50
20.7370713642
 51
39.2629286358
  0
ARC
  5
6F
330
1F
100
AcDbEntity
  8
0
  6
CONTINUOUS
 62
     7
100
AcDbCircle
 10
440.1408929863
 20
390.2474749225
 30
0.0
 40
19.00000000000005
100
AcDbArc
 50
320.7370713642
 51
339.2629286358
  0
ARC
  5
70
330
1F
100
AcDbEntity
  8
0
  6
CONTINUOUS
 62
     7
100
AcDbCircle
 10
231.1408929863
 20
390.2474749225
 30
0.0
 40
19.00000000000005
100
AcDbArc
 50
200.7370713642
 51
219.2629286358
  0
ARC
  5
71
330
1F
100
AcDbEntity
  8
0
  6
CONTINUOUS
 62
     7
100
AcDbCircle
 10
231.1408929863
 20
569.2474749225
 30
0.0
 40
19.00000000000001
100
AcDbArc
 50
140.7370713642
 51
159.2629286358
  0
SPLINE
  5
72
330
1F
100
AcDbEntity
  8
0
  6
CONTINUOUS
 62
     7
100
AcDbSpline
210
0.0
220
0.0
230
1.0
 70
     8
 71
     3
 72
    14
 73
    10
 74
     0
 42
0.00000001
 43
0.00000001
 40
0.0
 40
0.0
 40
0.0
 40
0.0
 40
0.1427670825459981
 40
0.2854894437694127
 40
0.428400727170265
 40
0.5715981783792213
 40
0.7145083933876542
 40
0.8572311069166999
 40
0.9999999999999999
 40
0.9999999999999999
 40
0.9999999999999999
 40
0.9999999999999999
 10
447.4278917946876
 20
380.7667948143912
 30
0.0
 10
436.8417055661066
 20
380.8871241125685
 30
0.0
 10
415.6726491972252
 20
381.127745016163
 30
0.0
 10
383.7271083596763
 20
381.34647121846
 30
0.0
 10
351.6845158470335
 20
381.4603597355961
 30
0.0
 10
319.5975924635157
 20
381.4603601971449
 30
0.0
 10
287.5550516240313
 20
381.3464704528612
 30
0.0
 10
255.6094305256582
 20
381.1277432998892
 30
0.0
 10
234.440214365878
 20
380.8871239499788
 30
0.0
 10
223.8538941779197
 20
380.7667948143912
 30
0.0
  0
LINE
  5
73
330
1F
100
AcDbEntity
  8
0
  6
CONTINUOUS
 62
     7
100
AcDbLine
 10
223.8538941779
 20
380.7667948144
 30
0.0
 11
223.5198473969
 21
382.9585470097
 31
0.0
  0
SPLINE
  5
74
330
1F
100
AcDbEntity
  8
0
  6
CONTINUOUS
 62
     7
100
AcDbSpline
210
0.0
220
0.0
230
1.0
 70
     8
 71
     3
 72
    14
 73
    10
 74
     0
 42
0.00000001
 43
0.00000001
 40
0.0
 40
0.0
 40
0.0
 40
0.0
 40
0.1428615075984262
 40
0.2857186500106956
 40
0.4285731713212275
 40
0.5714268286787726
 40
0.7142813499893045
 40
0.8571384924015739
 40
1.0
 40
1.0
 40
1.0
 40
1.0
 10
223.5198473968566
 20
382.9585470097496
 30
0.0
 10
234.1449090178311
 20
383.078883021981
 30
0.0
 10
255.3947076070961
 20
383.3195513695323
 30
0.0
 10
287.4484406455947
 20
383.5380554634942
 30
0.0
 10
319.5666128747139
 20
383.6520641737838
 30
0.0
 10
351.7151730978933
 20
383.6520641737839
 30
0.0
 10
383.8333453270125
 20
383.5380554634942
 30
0.0
 10
415.8870783655111
 20
383.3195513695325
 30
0.0
 10
437.1368769547761
 20
383.0788830219809
 30
0.0
 10
447.7619385757507
 20
382.9585470097496
 30
0.0
  0
LINE
  5
75
330
1F
100
AcDbEntity
  8
0
  6
CONTINUOUS
 62
     7
100
AcDbLine
 10
447.4278917947
 20
380.7667948144
 30
0.0
 11
447.7619385758
 21
382.9585470097
 31
0.0
  0
SPLINE
  5
76
330
1F
100
AcDbEntity
  8
0
  6
CONTINUOUS
 62
     7
100
AcDbSpline
210
0.0
220
0.0
230
1.0
 70
     8
 71
     3
 72
    13
 73
     9
 74
     0
 42
0.00000001
 43
0.00000001
 40
0.0
 40
0.0
 40
0.0
 40
0.0
 40
0.2501660474141741
 40
0.4995973272583918
 40
0.6243337251447558
 40
0.7500514107068952
 40
0.8760363644530819
 40
1.0
 40
1.0
 40
1.0
 40
1.0
 10
223.5198473968566
 20
576.5364028351737
 30
0.0
 10
222.3661306641883
 20
576.4255759293296
 30
0.0
 10
220.0620858027363
 20
576.204247629505
 30
0.0
 10
217.5544435600641
 20
574.5930978756165
 30
0.0
 10
216.0306273766866
 20
572.8546612361909
 30
0.0
 10
215.1859884930702
 20
571.3237225467158
 30
0.0
 10
214.624711059984
 20
569.660607818471
 30
0.0
 10
214.5606371404489
 20
568.5008214519858
 30
0.0
 10
214.5288592615188
 20
567.9256178276969
 30
0.0
  0
SPLINE
  5
77
330
1F
100
AcDbEntity
  8
0
  6
CONTINUOUS
 62
     7
100
AcDbSpline
210
0.0
220
0.0
230
1.0
 70
     8
 71
     3
 72
    14
 73
    10
 74
     0
 42
0.00000001
 43
0.00000001
 40
0.0
 40
0.0
 40
0.0
 40
0.0
 40
0.1428615075984262
 40
0.2857186500106956
 40
0.4285731713212275
 40
0.5714268286787726
 40
0.7142813499893045
 40
0.8571384924015739
 40
1.0
 40
1.0
 40
1.0
 40
1.0
 10
447.7619385757507
 20
576.5364028351737
 30
0.0
 10
437.1368769547761
 20
576.4160668229424
 30
0.0
 10
415.8870783655111
 20
576.1753984753909
 30
0.0
 10
383.8333453270125
 20
575.9568943814292
 30
0.0
 10
351.7151730978933
 20
575.8428856711395
 30
0.0
 10
319.5666128747139
 20
575.8428856711395
 30
0.0
 10
287.4484406455947
 20
575.9568943814292
 30
0.0
 10
255.3947076070961
 20
576.1753984753909
 30
0.0
 10
234.1449090178311
 20
576.4160668229424
 30
0.0
 10
223.5198473968566
 20
576.5364028351737
 30
0.0
  0
SPLINE
  5
78
330
1F
100
AcDbEntity
  8
0
  6
CONTINUOUS
 62
     7
100
AcDbSpline
210
0.0
220
0.0
230
1.0
 70
     8
 71
     3
 72
    13
 73
     9
 74
     0
 42
0.00000001
 43
0.00000001
 40
0.0
 40
0.0
 40
0.0
 40
0.0
 40
0.1245245389112358
 40
0.2507295187045644
 40
0.3760905835121315
 40
0.500948502331613
 40
0.7502628342978852
 40
1.0
 40
1.0
 40
1.0
 40
1.0
 10
456.7529267110885
 20
567.9256178276969
 30
0.0
 10
456.7210233081358
 20
568.5034392898856
 30
0.0
 10
456.6567859703609
 20
569.6668798324358
 30
0.0
 10
456.0947067815483
 20
571.3320700695367
 30
0.0
 10
455.2470419867178
 20
572.8612945611867
 30
0.0
 10
453.7224214534219
 20
574.5968686228978
 30
0.0
 10
451.2150010685837
 20
576.2041526398576
 30
0.0
 10
448.9136093770562
 20
576.4255902305749
 30
0.0
 10
447.7619385757507
 20
576.5364028351737
 30
0.0
  0
LINE
  5
79
330
1F
100
AcDbEntity
  8
0
  6
CONTINUOUS
 62
     7
100
AcDbLine
 10
456.7529267111
 20
391.5693320172
 30
0.0
 11
456.7529267111
 21
567.9256178277
 31
0.0
  0
SPLINE
  5
7A
330
1F
100
AcDbEntity
  8
0
  6
CONTINUOUS
 62
     7
100
AcDbSpline
210
0.0
220
0.0
230
1.0
 70
     8
 71
     3
 72
    13
 73
     9
 74
     0
 42
0.00000001
 43
0.00000001
 40
0.0
 40
0.0
 40
0.0
 40
0.0
 40
0.2501660474141741
 40
0.4995973272583918
 40
0.6243337251447558
 40
0.7500514107068952
 40
0.8760363644530819
 40
1.0
 40
1.0
 40
1.0
 40
1.0
 10
447.7619385757507
 20
382.9585470097496
 30
0.0
 10
448.9156553084189
 20
383.0693739155937
 30
0.0
 10
451.2197001698709
 20
383.2907022154183
 30
0.0
 10
453.7273424125431
 20
384.9018519693067
 30
0.0
 10
455.2511585959205
 20
386.6402886087324
 30
0.0
 10
456.095797479537
 20
388.1712272982075
 30
0.0
 10
456.6570749126232
 20
389.8343420264523
 30
0.0
 10
456.7211488321583
 20
390.9941283929375
 30
0.0
 10
456.7529267110885
 20
391.5693320172264
 30
0.0
  0
SPLINE
  5
7B
330
1F
100
AcDbEntity
  8
0
  6
CONTINUOUS
 62
     7
100
AcDbSpline
210
0.0
220
0.0
230
1.0
 70
     8
 71
     3
 72
    13
 73
     9
 74
     0
 42
0.00000001
 43
0.00000001
 40
0.0
 40
0.0
 40
0.0
 40
0.0
 40
0.1245245389112358
 40
0.2507295187045644
 40
0.3760905835121315
 40
0.500948502331613
 40
0.7502628342978852
 40
1.0
 40
1.0
 40
1.0
 40
1.0
 10
214.5288592615188
 20
391.5693320172264
 30
0.0
 10
214.5607626644713
 20
390.9915105550378
 30
0.0
 10
214.6250000022463
 20
389.8280700124874
 30
0.0
 10
215.1870791910589
 20
388.1628797753866
 30
0.0
 10
216.0347439858894
 20
386.6336552837367
 30
0.0
 10
217.5593645191853
 20
384.8980812220256
 30
0.0
 10
220.0667849040235
 20
383.2907972050656
 30
0.0
 10
222.368176595551
 20
383.0693596143484
 30
0.0
 10
223.5198473968565
 20
382.9585470097496
 30
0.0
  0
LINE
  5
7C
330
1F
100
AcDbEntity
  8
0
  6
CONTINUOUS
 62
     7
100
AcDbLine
 10
214.5288592615
 20
567.9256178277
 30
0.0
 11
214.5288592615
 21
391.5693320172
 31
0.0
  0
LINE
  5
7D
330
1F
100
AcDbEntity
  8
0
  6
CONTINUOUS
 62
     7
100
AcDbLine
 10
223.5198473969
 20
576.5364028352
 30
0.0
 11
223.8538941779
 21
578.7281550305
 31
0.0
  0
SPLINE
  5
7E
330
1F
100
AcDbEntity
  8
0
  6
CONTINUOUS
 62
     7
100
AcDbSpline
210
0.0
220
0.0
230
1.0
 70
     8
 71
     3
 72
    14
 73
    10
 74
     0
 42
0.00000001
 43
0.00000001
 40
0.0
 40
0.0
 40
0.0
 40
0.0
 40
0.1427670825459981
 40
0.2854894437694127
 40
0.428400727170265
 40
0.5715981783792213
 40
0.7145083933876542
 40
0.8572311069166999
 40
0.9999999999999999
 40
0.9999999999999999
 40
0.9999999999999999
 40
0.9999999999999999
 10
223.8538941779197
 20
578.7281550305321
 30
0.0
 10
234.4400804065006
 20
578.6078257323547
 30
0.0
 10
255.609136775382
 20
578.3672048287602
 30
0.0
 10
287.5546776129308
 20
578.1484786264634
 30
0.0
 10
319.5972701255737
 20
578.0345901093272
 30
0.0
 10
351.6841935090915
 20
578.0345896477785
 30
0.0
 10
383.7267343485759
 20
578.1484793920621
 30
0.0
 10
415.672355446949
 20
578.367206545034
 30
0.0
 10
436.8415716067292
 20
578.6078258949445
 30
0.0
 10
447.4278917946876
 20
578.7281550305321
 30
0.0
  0
LINE
  5
7F
330
1F
100
AcDbEntity
  8
0
  6
CONTINUOUS
 62
     7
100
AcDbLine
 10
447.7619385758
 20
576.5364028352
 30
0.0
 11
447.4278917947
 21
578.7281550305
 31
0.0
  0
LINE
  5
80
330
1F
100
AcDbEntity
  8
0
  6
CONTINUOUS
 62
     7
100
AcDbLine
 10
226.6408956089
 20
572.7974779742
 30
0.0
 11
226.6408956089
 21
386.6974718707
 31
0.0
  0
SPLINE
  5
81
330
1F
100
AcDbEntity
  8
0
  6
CONTINUOUS
 62
     7
100
AcDbSpline
210
0.0
220
0.0
230
1.0
 70
     8
 71
     3
 72
    12
 73
     8
 74
     0
 42
0.00000001
 43
0.00000001
 40
0.0
 40
0.0
 40
0.0
 40
0.0
 40
0.2171985882677428
 40
0.43443368494034
 40
0.6507518208223858
 40
0.8651571057306077
 40
1.0
 40
1.0
 40
1.0
 40
1.0
 10
227.5908893384993
 20
573.7474717038109
 30
0.0
 10
227.4833382646413
 20
573.7368310582397
 30
0.0
 10
227.2682180389158
 20
573.7155479785357
 30
0.0
 10
226.9818264144465
 20
573.5493840543488
 30
0.0
 10
226.7670608938438
 20
573.3052650347092
 30
0.0
 10
226.6561495312428
 20
573.0386109019042
 30
0.0
 10
226.6451445677288
 20
572.8646452153775
 30
0.0
 10
226.640895608908
 20
572.7974779742195
 30
0.0
  0
LINE
  5
82
330
1F
100
AcDbEntity
  8
0
  6
CONTINUOUS
 62
     7
100
AcDbLine
 10
443.6908966341
 20
573.7474717038
 30
0.0
 11
227.5908893385
 21
573.7474717038
 31
0.0
  0
SPLINE
  5
83
330
1F
100
AcDbEntity
  8
0
  6
CONTINUOUS
 62
     7
100
AcDbSpline
210
0.0
220
0.0
230
1.0
 70
     8
 71
     3
 72
    12
 73
     8
 74
     0
 42
0.00000001
 43
0.00000001
 40
0.0
 40
0.0
 40
0.0
 40
0.0
 40
0.2122109113932172
 40
0.4243915157221155
 40
0.6374628892443188
 40
0.8524198527777113
 40
1.0
 40
1.0
 40
1.0
 40
1.0
 10
444.6408903636992
 20
572.7974779742195
 30
0.0
 10
444.6305253396204
 20
572.9035415469575
 30
0.0
 10
444.6097967717517
 20
573.115653544883
 30
0.0
 10
444.4483469929714
 20
573.3986387205358
 30
0.0
 10
444.2103038167027
 20
573.6135317254003
 30
0.0
 10
443.9427567259066
 20
573.7302842166479
 30
0.0
 10
443.7637613506917
 20
573.7424992551312
 30
0.0
 10
443.6908966341078
 20
573.7474717038109
 30
0.0
  0
LINE
  5
84
330
1F
100
AcDbEntity
  8
0
  6
CONTINUOUS
 62
     7
100
AcDbLine
 10
444.6408903637
 20
386.6974718707
 30
0.0
 11
444.6408903637
 21
572.7974779742
 31
0.0
  0
SPLINE
  5
85
330
1F
100
AcDbEntity
  8
0
  6
CONTINUOUS
 62
     7
100
AcDbSpline
210
0.0
220
0.0
230
1.0
 70
     8
 71
     3
 72
    12
 73
     8
 74
     0
 42
0.00000001
 43
0.00000001
 40
0.0
 40
0.0
 40
0.0
 40
0.0
 40
0.2171985882677428
 40
0.43443368494034
 40
0.6507518208223858
 40
0.8651571057306077
 40
1.0
 40
1.0
 40
1.0
 40
1.0
 10
443.6908966341078
 20
385.7474781411124
 30
0.0
 10
443.7984477079659
 20
385.7581187866838
 30
0.0
 10
444.0135679336914
 20
385.7794018663876
 30
0.0
 10
444.2999595581607
 20
385.9455657905746
 30
0.0
 10
444.5147250787634
 20
386.1896848102141
 30
0.0
 10
444.6256364413643
 20
386.456338943019
 30
0.0
 10
444.6366414048784
 20
386.6303046295458
 30
0.0
 10
444.6408903636992
 20
386.6974718707038
 30
0.0
  0
LINE
  5
86
330
1F
100
AcDbEntity
  8
0
  6
CONTINUOUS
 62
     7
100
AcDbLine
 10
227.5908893385
 20
385.7474781411
 30
0.0
 11
443.6908966341
 21
385.7474781411
 31
0.0
  0
SPLINE
  5
87
330
1F
100
AcDbEntity
  8
0
  6
CONTINUOUS
 62
     7
100
AcDbSpline
210
0.0
220
0.0
230
1.0
 70
     8
 71
     3
 72
    12
 73
     8
 74
     0
 42
0.00000001
 43
0.00000001
 40
0.0
 40
0.0
 40
0.0
 40
0.0
 40
0.2122109113932172
 40
0.4243915157221155
 40
0.6374628892443188
 40
0.8524198527777113
 40
1.0
 40
1.0
 40
1.0
 40
1.0
 10
226.640895608908
 20
386.6974718707038
 30
0.0
 10
226.6512606329868
 20
386.5914082979658
 30
0.0
 10
226.6719892008555
 20
386.3792963000403
 30
0.0
 10
226.8334389796358
 20
386.0963111243875
 30
0.0
 10
227.0714821559044
 20
385.881418119523
 30
0.0
 10
227.3390292467007
 20
385.7646656282755
 30
0.0
 10
227.5180246219155
 20
385.7524505897921
 30
0.0
 10
227.5908893384994
 20
385.7474781411124
 30
0.0
  0
LINE
  5
88
330
1F
100
AcDbEntity
  8
0
  6
CONTINUOUS
 62
     7
100
AcDbLine
 10
448.262118403
 20
579.2474753993
 30
0.0
 11
223.0196675696
 21
579.2474753993
 31
0.0
  0
LINE
  5
89
330
1F
100
AcDbEntity
  8
0
  6
CONTINUOUS
 62
     7
100
AcDbLine
 10
447.4278917947
 20
578.7281550305
 30
0.0
 11
448.262118403
 21
579.2474753993
 31
0.0
  0
LINE
  5
8A
330
1F
100
AcDbEntity
  8
0
  6
CONTINUOUS
 62
     7
100
AcDbLine
 10
223.0196675696
 20
579.2474753993
 30
0.0
 11
223.8538941779
 21
578.7281550305
 31
0.0
  0
LINE
  5
8B
330
1F
100
AcDbEntity
  8
0
  6
CONTINUOUS
 62
     7
100
AcDbLine
 10
223.0196675696
 20
380.2474744456
 30
0.0
 11
448.262118403
 21
380.2474744456
 31
0.0
  0
LINE
  5
8C
330
1F
100
AcDbEntity
  8
0
  6
CONTINUOUS
 62
     7
100
AcDbLine
 10
223.8538941779
 20
380.7667948144
 30
0.0
 11
223.0196675696
 21
380.2474744456
 31
0.0
  0
LINE
  5
8D
330
1F
100
AcDbEntity
  8
0
  6
CONTINUOUS
 62
     7
100
AcDbLine
 10
448.262118403
 20
380.2474744456
 30
0.0
 11
447.4278917947
 21
380.7667948144
 31
0.0
  0
LINE
  5
8E
330
1F
100
AcDbEntity
  8
0
  6
CONTINUOUS
 62
     7
100
AcDbLine
 10
214.5288592615
 20
567.9256178277
 30
0.0
 11
212.7109846511
 21
567.9256178277
 31
0.0
  0
SPLINE
  5
8F
330
1F
100
AcDbEntity
  8
0
  6
CONTINUOUS
 62
     7
100
AcDbSpline
210
0.0
220
0.0
230
1.0
 70
     8
 71
     3
 72
    16
 73
    12
 74
     0
 42
0.00000001
 43
0.00000001
 40
0.0
 40
0.0
 40
0.0
 40
0.0
 40
0.12294498059664
 40
0.2473616782727708
 40
0.3735421733711491
 40
0.4374647525939054
 40
0.5019337713841562
 40
0.6095641830954031
 40
0.7283966273423135
 40
0.858520424137373
 40
1.0
 40
1.0
 40
1.0
 40
1.0
 10
212.7109846510947
 20
567.9256178276969
 30
0.0
 10
212.7532299288997
 20
568.6348668585914
 30
0.0
 10
212.8382261830471
 20
570.0618550100718
 30
0.0
 10
213.5044568479161
 20
572.1286104551941
 30
0.0
 10
214.3782115648863
 20
573.7245191524321
 30
0.0
 10
215.2733235250746
 20
574.8851393551544
 30
0.0
 10
216.2076744242365
 20
575.8703049201372
 30
0.0
 10
217.5183867483621
 20
576.9201876970955
 30
0.0
 10
219.3264616050698
 20
577.8957345384591
 30
0.0
 10
221.4773624183066
 20
578.600564253562
 30
0.0
 10
223.039939724998
 20
578.6844556014601
 30
0.0
 10
223.8538941779197
 20
578.7281550305321
 30
0.0
  0
SPLINE
  5
90
330
1F
100
AcDbEntity
  8
0
  6
CONTINUOUS
 62
     7
100
AcDbSpline
210
0.0
220
0.0
230
1.0
 70
     8
 71
     3
 72
    15
 73
    11
 74
     0
 42
0.00000001
 43
0.00000001
 40
0.0
 40
0.0
 40
0.0
 40
0.0
 40
0.1358363425500982
 40
0.2577000197996531
 40
0.3742097294418092
 40
0.4976502994895605
 40
0.6260186218443582
 40
0.7523442936302728
 40
0.8769074975258083
 40
1.0
 40
1.0
 40
1.0
 40
1.0
 10
223.8538941779197
 20
380.7667948143912
 30
0.0
 10
223.072667044011
 20
380.806712928242
 30
0.0
 10
221.5905728997136
 20
380.8824430203259
 30
0.0
 10
219.5218346670401
 20
381.524043369811
 30
0.0
 10
217.6647514180387
 20
382.4705473314832
 30
0.0
 10
215.9865036082985
 20
383.7791863940421
 30
0.0
 10
214.5603183828276
 20
385.4392278897559
 30
0.0
 10
213.5061827141769
 20
387.3619669307124
 30
0.0
 10
212.8384886700631
 20
389.4308941733303
 30
0.0
 10
212.7533173944389
 20
390.8593470211788
 30
0.0
 10
212.7109846510947
 20
391.5693320172264
 30
0.0
  0
LINE
  5
91
330
1F
100
AcDbEntity
  8
0
  6
CONTINUOUS
 62
     7
100
AcDbLine
 10
214.5288592615
 20
391.5693320172
 30
0.0
 11
212.7109846511
 21
391.5693320172
 31
0.0
  0
SPLINE
  5
92
330
1F
100
AcDbEntity
  8
0
  6
CONTINUOUS
 62
     7
100
AcDbSpline
210
0.0
220
0.0
230
1.0
 70
     8
 71
     3
 72
    15
 73
    11
 74
     0
 42
0.00000001
 43
0.00000001
 40
0.0
 40
0.0
 40
0.0
 40
0.0
 40
0.1358363425500982
 40
0.2577000197996531
 40
0.3742097294418092
 40
0.4976502994895605
 40
0.6260186218443582
 40
0.7523442936302728
 40
0.8769074975258083
 40
1.0
 40
1.0
 40
1.0
 40
1.0
 10
447.4278917946876
 20
578.7281550305321
 30
0.0
 10
448.2091189285962
 20
578.6882369166814
 30
0.0
 10
449.6912130728936
 20
578.6125068245974
 30
0.0
 10
451.7599513055671
 20
577.9709064751124
 30
0.0
 10
453.6170345545684
 20
577.0244025134401
 30
0.0
 10
455.2952823643087
 20
575.7157634508811
 30
0.0
 10
456.7214675897796
 20
574.0557219551675
 30
0.0
 10
457.7756032584302
 20
572.132982914211
 30
0.0
 10
458.4432973025441
 20
570.064055671593
 30
0.0
 10
458.5284685781683
 20
568.6356028237445
 30
0.0
 10
458.5708013215125
 20
567.925617827697
 30
0.0
  0
LINE
  5
93
330
1F
100
AcDbEntity
  8
0
  6
CONTINUOUS
 62
     7
100
AcDbLine
 10
458.5708013215
 20
567.9256178277
 30
0.0
 11
456.7529267111
 21
567.9256178277
 31
0.0
  0
SPLINE
  5
94
330
1F
100
AcDbEntity
  8
0
  6
CONTINUOUS
 62
     7
100
AcDbSpline
210
0.0
220
0.0
230
1.0
 70
     8
 71
     3
 72
    16
 73
    12
 74
     0
 42
0.00000001
 43
0.00000001
 40
0.0
 40
0.0
 40
0.0
 40
0.0
 40
0.12294498059664
 40
0.2473616782727708
 40
0.3735421733711491
 40
0.4374647525939054
 40
0.5019337713841562
 40
0.6095641830954031
 40
0.7283966273423135
 40
0.858520424137373
 40
1.0
 40
1.0
 40
1.0
 40
1.0
 10
458.5708013215125
 20
391.5693320172264
 30
0.0
 10
458.5285560437075
 20
390.860082986332
 30
0.0
 10
458.44355978956
 20
389.4330948348516
 30
0.0
 10
457.777329124691
 20
387.3663393897292
 30
0.0
 10
456.9035744077208
 20
385.7704306924912
 30
0.0
 10
456.0084624475326
 20
384.6098104897689
 30
0.0
 10
455.0741115483706
 20
383.6246449247861
 30
0.0
 10
453.7633992242451
 20
382.5747621478279
 30
0.0
 10
451.9553243675374
 20
381.5992153064643
 30
0.0
 10
449.8044235543006
 20
380.8943855913612
 30
0.0
 10
448.2418462476091
 20
380.8104942434633
 30
0.0
 10
447.4278917946876
 20
380.7667948143912
 30
0.0
  0
LINE
  5
95
330
1F
100
AcDbEntity
  8
0
  6
CONTINUOUS
 62
     7
100
AcDbLine
 10
458.5708013215
 20
391.5693320172
 30
0.0
 11
456.7529267111
 21
391.5693320172
 31
0.0
  0
ELLIPSE
  5
96
330
1F
100
AcDbEntity
  8
0
  6
CONTINUOUS
 62
     7
100
AcDbEllipse
 10
223.154404631
 20
568.2054567095
 30
0.0
 11
-9.465498565012352
 21
5.8924071485211
 31
0.0
210
0.0
220
0.0
230
1.0
 40
0.9865723799
 41
5.27528185923563
 42
6.833948153583895
  0
LINE
  5
97
330
1F
100
AcDbEntity
  8
0
  6
CONTINUOUS
 62
     7
100
AcDbLine
 10
212.7109846511
 20
567.9256178277
 30
0.0
 11
212.0463034549
 21
568.3393932717
 31
0.0
  0
ELLIPSE
  5
98
330
1F
100
AcDbEntity
  8
0
  6
CONTINUOUS
 62
     7
100
AcDbEllipse
 10
448.1273813416
 20
568.2054567095
 30
0.0
 11
-9.465498565012297
 21
-5.892407148520988
 31
0.0
210
0.0
220
0.0
230
1.0
 40
0.9865723799
 41
2.590829807185508
 42
4.149496101533787
  0
LINE
  5
99
330
1F
100
AcDbEntity
  8
0
  6
CONTINUOUS
 62
     7
100
AcDbLine
 10
459.2354825177
 20
568.3393932717
 30
0.0
 11
458.5708013215
 21
567.9256178277
 31
0.0
  0
ELLIPSE
  5
9A
330
1F
100
AcDbEntity
  8
0
  6
CONTINUOUS
 62
     7
100
AcDbEllipse
 10
223.154404631
 20
391.2894931354
 30
0.0
 11
-9.465498565012354
 21
-5.892407148520932
 31
0.0
210
0.0
220
0.0
230
1.0
 40
0.9865723799
 41
5.732422460775315
 42
7.291088755123583
  0
LINE
  5
9B
330
1F
100
AcDbEntity
  8
0
  6
CONTINUOUS
 62
     7
100
AcDbLine
 10
212.0463034549
 20
391.1555565732
 30
0.0
 11
212.7109846511
 21
391.5693320172
 31
0.0
  0
ELLIPSE
  5
9C
330
1F
100
AcDbEntity
  8
0
  6
CONTINUOUS
 62
     7
100
AcDbEllipse
 10
448.1273813416
 20
391.2894931354
 30
0.0
 11
-9.465498565012295
 21
5.892407148520929
 31
0.0
210
0.0
220
0.0
230
0.9999999999999999
 40
0.9865723799
 41
2.133689205645813
 42
3.692355499994089
  0
LINE
  5
9D
330
1F
100
AcDbEntity
  8
0
  6
CONTINUOUS
 62
     7
100
AcDbLine
 10
458.5708013215
 20
391.5693320172
 30
0.0
 11
459.2354825177
 21
391.1555565732
 31
0.0
  0
LINE
  5
9E
330
1F
100
AcDbEntity
  8
0
  6
CONTINUOUS
 62
     7
100
AcDbLine
 10
212.7109846511
 20
391.5693320172
 30
0.0
 11
212.7109846511
 21
567.9256178277
 31
0.0
  0
LINE
  5
9F
330
1F
100
AcDbEntity
  8
0
  6
CONTINUOUS
 62
     7
100
AcDbLine
 10
458.5708013215
 20
567.9256178277
 30
0.0
 11
458.5708013215
 21
391.5693320172
 31
0.0
  0
LINE
  5
A0
330
1F
100
AcDbEntity
  8
0
  6
CONTINUOUS
 62
     7
100
AcDbLine
 10
459.2354825177
 20
573.6791573303
 30
0.0
 11
459.2354825177
 21
568.3393932717
 31
0.0
  0
LINE
  5
A1
330
1F
100
AcDbEntity
  8
0
  6
CONTINUOUS
 62
     7
100
AcDbLine
 10
459.2354825177
 20
573.6791573303
 30
0.0
 11
460.6408929863
 21
571.2449185389
 31
0.0
  0
LINE
  5
A2
330
1F
100
AcDbEntity
  8
0
  6
CONTINUOUS
 62
     7
100
AcDbLine
 10
460.6408929863
 20
388.2500313061
 30
0.0
 11
460.6408929863
 21
571.2449185389
 31
0.0
  0
LINE
  5
A3
330
1F
100
AcDbEntity
  8
0
  6
CONTINUOUS
 62
     7
100
AcDbLine
 10
459.2354825177
 20
385.8157925146
 30
0.0
 11
460.6408929863
 21
388.2500313061
 31
0.0
  0
LINE
  5
A4
330
1F
100
AcDbEntity
  8
0
  6
CONTINUOUS
 62
     7
100
AcDbLine
 10
459.2354825177
 20
391.1555565732
 30
0.0
 11
459.2354825177
 21
385.8157925146
 31
0.0
  0
LINE
  5
A5
330
1F
100
AcDbEntity
  8
0
  6
CONTINUOUS
 62
     7
100
AcDbLine
 10
212.0463034549
 20
385.8157925146
 30
0.0
 11
212.0463034549
 21
391.1555565732
 31
0.0
  0
LINE
  5
A6
330
1F
100
AcDbEntity
  8
0
  6
CONTINUOUS
 62
     7
100
AcDbLine
 10
212.0463034549
 20
385.8157925146
 30
0.0
 11
210.6408929863
 21
388.2500313061
 31
0.0
  0
LINE
  5
A7
330
1F
100
AcDbEntity
  8
0
  6
CONTINUOUS
 62
     7
100
AcDbLine
 10
210.6408929863
 20
571.2449185389
 30
0.0
 11
210.6408929863
 21
388.2500313061
 31
0.0
  0
LINE
  5
A8
330
1F
100
AcDbEntity
  8
0
  6
CONTINUOUS
 62
     7
100
AcDbLine
 10
212.0463034549
 20
573.6791573303
 30
0.0
 11
210.6408929863
 21
571.2449185389
 31
0.0
  0
LINE
  5
A9
330
1F
100
AcDbEntity
  8
0
  6
CONTINUOUS
 62
     7
100
AcDbLine
 10
212.0463034549
 20
568.3393932717
 30
0.0
 11
212.0463034549
 21
573.6791573303
 31
0.0
  0
ARC
  5
AA
330
1F
100
AcDbEntity
  8
0
  6
CONTINUOUS
 62
     7
100
AcDbCircle
 10
429.1408924797
 20
371.0265246846
 30
0.0
 40
10.00389424617317
100
AcDbArc
 50
181.5984072831
 51
358.4015927169
  0
LINE
  5
AB
330
1F
100
AcDbEntity
  8
0
  6
CONTINUOUS
 62
     7
100
AcDbLine
 10
419.1408908405
 20
370.7474775451
 30
0.0
 11
439.1408941188
 21
370.7474775451
 31
0.0
  0
LINE
  5
AC
330
1F
100
AcDbEntity
  8
0
  6
CONTINUOUS
 62
     7
100
AcDbLine
 10
232.1408918538
 20
370.7474775451
 30
0.0
 11
252.1408951321
 21
370.7474775451
 31
0.0
  0
ARC
  5
AD
330
1F
100
AcDbEntity
  8
0
  6
CONTINUOUS
 62
     7
100
AcDbCircle
 10
242.1408934929
 20
371.0265246846
 30
0.0
 40
10.00389424617306
100
AcDbArc
 50
181.5984072831
 51
358.4015927169
  0
LINE
  5
AE
330
1F
100
AcDbEntity
  8
0
  6
CONTINUOUS
 62
     7
100
AcDbLine
 10
252.1408951321
 20
370.2298335569
 30
0.0
 11
252.1408951321
 21
370.7474775451
 31
0.0
  0
ARC
  5
AF
330
1F
100
AcDbEntity
  8
0
  6
CONTINUOUS
 62
     7
100
AcDbCircle
 10
242.1408934929
 20
370.5088832691
 30
0.0
 40
10.0038943179354
100
AcDbArc
 50
181.598422012
 51
358.401577988
  0
LINE
  5
B0
330
1F
100
AcDbEntity
  8
0
  6
CONTINUOUS
 62
     7
100
AcDbLine
 10
232.1408918538
 20
370.2298335569
 30
0.0
 11
232.1408918538
 21
370.7474775451
 31
0.0
  0
LINE
  5
B1
330
1F
100
AcDbEntity
  8
0
  6
CONTINUOUS
 62
     7
100
AcDbLine
 10
439.1408941188
 20
370.2298335569
 30
0.0
 11
439.1408941188
 21
370.7474775451
 31
0.0
  0
ARC
  5
B2
330
1F
100
AcDbEntity
  8
0
  6
CONTINUOUS
 62
     7
100
AcDbCircle
 10
429.1408924797
 20
370.5088832691
 30
0.0
 40
10.00389431793552
100
AcDbArc
 50
181.598422012
 51
358.401577988
  0
LINE
  5
B3
330
1F
100
AcDbEntity
  8
0
  6
CONTINUOUS
 62
     7
100
AcDbLine
 10
419.1408908405
 20
370.2298335569
 30
0.0
 11
419.1408908405
 21
370.7474775451
 31
0.0
  0
LINE
  5
B4
330
1F
100
AcDbEntity
  8
0
  6
CONTINUOUS
 62
     7
100
AcDbLine
 10
439.1408941188
 20
370.7474775451
 30
0.0
 11
450.5357822814
 21
370.7474775451
 31
0.0
  0
LINE
  5
B5
330
1F
100
AcDbEntity
  8
0
  6
CONTINUOUS
 62
     7
100
AcDbLine
 10
252.1408951321
 20
370.7474775451
 30
0.0
 11
419.1408908405
 21
370.7474775451
 31
0.0
  0
LINE
  5
B6
330
1F
100
AcDbEntity
  8
0
  6
CONTINUOUS
 62
     7
100
AcDbLine
 10
220.7460036912
 20
370.7474775451
 30
0.0
 11
232.1408918538
 21
370.7474775451
 31
0.0
  0
LINE
  5
B7
330
1F
100
AcDbEntity
  8
0
  6
CONTINUOUS
 62
     7
100
AcDbLine
 10
212.0463034549
 20
385.8157925146
 30
0.0
 11
220.7460036912
 21
370.7474775451
 31
0.0
  0
CIRCLE
  5
B8
330
1F
100
AcDbEntity
  8
0
  6
CONTINUOUS
 62
     7
100
AcDbCircle
 10
335.6408929863
 20
377.2474749225
 30
0.0
 40
1.100000000000023
  0
LINE
  5
B9
330
1F
100
AcDbEntity
  8
0
  6
CONTINUOUS
 62
     7
100
AcDbLine
 10
450.5357822814
 20
370.7474775451
 30
0.0
 11
459.2354825177
 21
385.8157925146
 31
0.0
  0
LINE
  5
BA
330
1F
100
AcDbEntity
  8
0
  6
CONTINUOUS
 62
     7
100
AcDbLine
 10
239.1408911386
 20
588.7474722999
 30
0.0
 11
239.1408911386
 21
583.1474743622
 31
0.0
  0
LINE
  5
BB
330
1F
100
AcDbEntity
  8
0
  6
CONTINUOUS
 62
     7
100
AcDbLine
 10
330.1408930161
 20
583.1474743622
 30
0.0
 11
341.1408929565
 21
583.1474743622
 31
0.0
  0
LINE
  5
BC
330
1F
100
AcDbEntity
  8
0
  6
CONTINUOUS
 62
     7
100
AcDbLine
 10
341.1408929565
 20
588.7474722999
 30
0.0
 11
341.1408929565
 21
583.1474743622
 31
0.0
  0
LINE
  5
BD
330
1F
100
AcDbEntity
  8
0
  6
CONTINUOUS
 62
     7
100
AcDbLine
 10
443.1408947744
 20
588.7474722999
 30
0.0
 11
443.1408947744
 21
583.1474743622
 31
0.0
  0
LINE
  5
BE
330
1F
100
AcDbEntity
  8
0
  6
CONTINUOUS
 62
     7
100
AcDbLine
 10
228.1408911982
 20
588.7474722999
 30
0.0
 11
228.1408911982
 21
583.1474743622
 31
0.0
  0
LINE
  5
BF
330
1F
100
AcDbEntity
  8
0
  6
CONTINUOUS
 62
     7
100
AcDbLine
 10
330.1408930161
 20
588.7474722999
 30
0.0
 11
330.1408930161
 21
583.1474743622
 31
0.0
  0
LINE
  5
C0
330
1F
100
AcDbEntity
  8
0
  6
CONTINUOUS
 62
     7
100
AcDbLine
 10
228.1408911982
 20
583.1474743622
 30
0.0
 11
239.1408911386
 21
583.1474743622
 31
0.0
  0
LINE
  5
C1
330
1F
100
AcDbEntity
  8
0
  6
CONTINUOUS
 62
     7
100
AcDbLine
 10
459.2354825177
 20
573.6791573303
 30
0.0
 11
450.5357822814
 21
588.7474722999
 31
0.0
  0
LINE
  5
C2
330
1F
100
AcDbEntity
  8
0
  6
CONTINUOUS
 62
     7
100
AcDbLine
 10
432.140894834
 20
588.7474722999
 30
0.0
 11
432.140894834
 21
583.1474743622
 31
0.0
  0
LINE
  5
C3
330
1F
100
AcDbEntity
  8
0
  6
CONTINUOUS
 62
     7
100
AcDbLine
 10
432.140894834
 20
583.1474743622
 30
0.0
 11
443.1408947744
 21
583.1474743622
 31
0.0
  0
LINE
  5
C4
330
1F
100
AcDbEntity
  8
0
  6
CONTINUOUS
 62
     7
100
AcDbLine
 10
220.7460036912
 20
588.7474722999
 30
0.0
 11
212.0463034549
 21
573.6791573303
 31
0.0
  0
LINE
  5
C5
330
1F
100
AcDbEntity
  8
0
  6
CONTINUOUS
 62
     7
100
AcDbLine
 10
330.1408930161
 20
588.7474722999
 30
0.0
 11
239.1408911386
 21
588.7474722999
 31
0.0
  0
LINE
  5
C6
330
1F
100
AcDbEntity
  8
0
  6
CONTINUOUS
 62
     7
100
AcDbLine
 10
228.1408911982
 20
588.7474722999
 30
0.0
 11
220.7460036912
 21
588.7474722999
 31
0.0
  0
LINE
  5
C7
330
1F
100
AcDbEntity
  8
0
  6
CONTINUOUS
 62
     7
100
AcDbLine
 10
450.5357822814
 20
588.7474722999
 30
0.0
 11
443.1408947744
 21
588.7474722999
 31
0.0
  0
LINE
  5
C8
330
1F
100
AcDbEntity
  8
0
  6
CONTINUOUS
 62
     7
100
AcDbLine
 10
432.140894834
 20
588.7474722999
 30
0.0
 11
341.1408929565
 21
588.7474722999
 31
0.0
  0
LINE
  5
C9
330
1F
100
AcDbEntity
  8
0
  6
CONTINUOUS
 62
     7
100
AcDbLine
 10
330.1408930161
 20
585.7474736708
 30
0.0
 11
330.6408930981
 21
585.7474736708
 31
0.0
  0
LINE
  5
CA
330
1F
100
AcDbEntity
  8
0
  6
CONTINUOUS
 62
     7
100
AcDbLine
 10
340.6408928745
 20
585.7474736708
 30
0.0
 11
341.1408929565
 21
585.7474736708
 31
0.0
  0
LINE
  5
CB
330
1F
100
AcDbEntity
  8
0
  6
CONTINUOUS
 62
     7
100
AcDbLine
 10
330.1408930161
 20
588.7474722999
 30
0.0
 11
330.6408930981
 21
588.7474722999
 31
0.0
  0
LINE
  5
CC
330
1F
100
AcDbEntity
  8
0
  6
CONTINUOUS
 62
     7
100
AcDbLine
 10
340.6408928745
 20
588.7474722999
 30
0.0
 11
341.1408929565
 21
588.7474722999
 31
0.0
  0
LINE
  5
CD
330
1F
100
AcDbEntity
  8
0
  6
CONTINUOUS
 62
     7
100
AcDbLine
 10
432.140894834
 20
586.7474756973
 30
0.0
 11
432.6408958473
 21
586.7474756973
 31
0.0
  0
LINE
  5
CE
330
1F
100
AcDbEntity
  8
0
  6
CONTINUOUS
 62
     7
100
AcDbLine
 10
442.6408937612
 20
586.7474756973
 30
0.0
 11
443.1408947744
 21
586.7474756973
 31
0.0
  0
LINE
  5
CF
330
1F
100
AcDbEntity
  8
0
  6
CONTINUOUS
 62
     7
100
AcDbLine
 10
432.140894834
 20
588.7474722999
 30
0.0
 11
432.6408958473
 21
588.7474722999
 31
0.0
  0
LINE
  5
D0
330
1F
100
AcDbEntity
  8
0
  6
CONTINUOUS
 62
     7
100
AcDbLine
 10
442.6408937612
 20
588.7474722999
 30
0.0
 11
443.1408947744
 21
588.7474722999
 31
0.0
  0
LINE
  5
D1
330
1F
100
AcDbEntity
  8
0
  6
CONTINUOUS
 62
     7
100
AcDbLine
 10
228.1408911982
 20
586.7474756973
 30
0.0
 11
228.6408922114
 21
586.7474756973
 31
0.0
  0
LINE
  5
D2
330
1F
100
AcDbEntity
  8
0
  6
CONTINUOUS
 62
     7
100
AcDbLine
 10
238.6408901253
 20
586.7474756973
 30
0.0
 11
239.1408911386
 21
586.7474756973
 31
0.0
  0
LINE
  5
D3
330
1F
100
AcDbEntity
  8
0
  6
CONTINUOUS
 62
     7
100
AcDbLine
 10
228.1408911982
 20
588.7474722999
 30
0.0
 11
228.6408922114
 21
588.7474722999
 31
0.0
  0
LINE
  5
D4
330
1F
100
AcDbEntity
  8
0
  6
CONTINUOUS
 62
     7
100
AcDbLine
 10
238.6408901253
 20
588.7474722999
 30
0.0
 11
239.1408911386
 21
588.7474722999
 31
0.0
  0
LINE
  5
D5
330
1F
100
AcDbEntity
  8
0
  6
CONTINUOUS
 62
     7
100
AcDbLine
 10
432.6408958473
 20
583.7474770682
 30
0.0
 11
432.140894834
 21
583.7474770682
 31
0.0
  0
LINE
  5
D6
330
1F
100
AcDbEntity
  8
0
  6
CONTINUOUS
 62
     7
100
AcDbLine
 10
341.1408929565
 20
583.7474770682
 30
0.0
 11
340.6408928745
 21
583.7474770682
 31
0.0
  0
LINE
  5
D7
330
1F
100
AcDbEntity
  8
0
  6
CONTINUOUS
 62
     7
100
AcDbLine
 10
330.6408930981
 20
583.7474770682
 30
0.0
 11
330.1408930161
 21
583.7474770682
 31
0.0
  0
LINE
  5
D8
330
1F
100
AcDbEntity
  8
0
  6
CONTINUOUS
 62
     7
100
AcDbLine
 10
239.1408911386
 20
583.7474770682
 30
0.0
 11
238.6408901253
 21
583.7474770682
 31
0.0
  0
LINE
  5
D9
330
1F
100
AcDbEntity
  8
0
  6
CONTINUOUS
 62
     7
100
AcDbLine
 10
91.8234924192
 20
385.7474781411
 30
0.0
 11
91.8234924192
 21
383.6330629724
 31
0.0
  0
LINE
  5
DA
330
1F
100
AcDbEntity
  8
0
  6
CONTINUOUS
 62
     7
100
AcDbLine
 10
91.8234924192
 20
575.8618868726
 30
0.0
 11
91.8234924192
 21
573.7474717038
 31
0.0
  0
LINE
  5
DB
330
1F
100
AcDbEntity
  8
0
  6
CONTINUOUS
 62
     7
100
AcDbLine
 10
94.0170923586
 20
578.0395723718
 30
0.0
 11
91.8253438885
 21
575.8478201764
 31
0.0
  0
LINE
  5
DC
330
1F
100
AcDbEntity
  8
0
  6
CONTINUOUS
 62
     7
100
AcDbLine
 10
91.8253438885
 20
383.6471296685
 30
0.0
 11
94.0170923586
 21
381.4553774732
 31
0.0
  0
LINE
  5
DD
330
1F
100
AcDbEntity
  8
0
  6
CONTINUOUS
 62
     7
100
AcDbLine
 10
91.8034931982
 20
573.7474717038
 30
0.0
 11
91.8034931982
 21
385.7474781411
 31
0.0
  0
LINE
  5
DE
330
1F
100
AcDbEntity
  8
0
  6
CONTINUOUS
 62
     7
100
AcDbLine
 10
105.2353030408
 20
361.0882170337
 30
0.0
 11
107.1671547706
 21
360.5705804961
 31
0.0
  0
LINE
  5
DF
330
1F
100
AcDbEntity
  8
0
  6
CONTINUOUS
 62
     7
100
AcDbLine
 10
125.8234933356
 20
390.2474723595
 30
0.0
 11
121.3234932965
 21
390.2474723595
 31
0.0
  0
LINE
  5
E0
330
1F
100
AcDbEntity
  8
0
  6
CONTINUOUS
 62
     7
100
AcDbLine
 10
125.8234933356
 20
371.2474785583
 30
0.0
 11
125.8234933356
 21
390.2474723595
 31
0.0
  0
LINE
  5
E1
330
1F
100
AcDbEntity
  8
0
  6
CONTINUOUS
 62
     7
100
AcDbLine
 10
125.8234933356
 20
371.2474785583
 30
0.0
 11
121.3234932965
 21
371.2474785583
 31
0.0
  0
LINE
  5
E2
330
1F
100
AcDbEntity
  8
0
  6
CONTINUOUS
 62
     7
100
AcDbLine
 10
121.3234932965
 20
371.2474785583
 30
0.0
 11
121.3234932965
 21
390.2474723595
 31
0.0
  0
LINE
  5
E3
330
1F
100
AcDbEntity
  8
0
  6
CONTINUOUS
 62
     7
100
AcDbLine
 10
125.8234933356
 20
588.2474712866
 30
0.0
 11
121.3234932965
 21
588.2474712866
 31
0.0
  0
LINE
  5
E4
330
1F
100
AcDbEntity
  8
0
  6
CONTINUOUS
 62
     7
100
AcDbLine
 10
125.8234933356
 20
569.2474774855
 30
0.0
 11
121.3234932965
 21
569.2474774855
 31
0.0
  0
LINE
  5
E5
330
1F
100
AcDbEntity
  8
0
  6
CONTINUOUS
 62
     7
100
AcDbLine
 10
121.3234932965
 20
569.2474774855
 30
0.0
 11
121.3234932965
 21
588.2474712866
 31
0.0
  0
LINE
  5
E6
330
1F
100
AcDbEntity
  8
0
  6
CONTINUOUS
 62
     7
100
AcDbLine
 10
125.8234933356
 20
569.2474774855
 30
0.0
 11
125.8234933356
 21
588.2474712866
 31
0.0
  0
LINE
  5
E7
330
1F
100
AcDbEntity
  8
0
  6
CONTINUOUS
 62
     7
100
AcDbLine
 10
121.3234932965
 20
390.2474723595
 30
0.0
 11
121.3234932965
 21
569.2474774855
 31
0.0
  0
LINE
  5
E8
330
1F
100
AcDbEntity
  8
0
  6
CONTINUOUS
 62
     7
100
AcDbLine
 10
125.8234933356
 20
390.2474723595
 30
0.0
 11
125.8234933356
 21
569.2474774855
 31
0.0
  0
LINE
  5
E9
330
1F
100
AcDbEntity
  8
0
  6
CONTINUOUS
 62
     7
100
AcDbLine
 10
118.3234932704
 20
373.7474761742
 30
0.0
 11
118.3234932704
 21
387.2474737304
 31
0.0
  0
LINE
  5
EA
330
1F
100
AcDbEntity
  8
0
  6
CONTINUOUS
 62
     7
100
AcDbLine
 10
117.8234931885
 20
373.7474761742
 30
0.0
 11
118.3234932704
 21
373.7474761742
 31
0.0
  0
LINE
  5
EB
330
1F
100
AcDbEntity
  8
0
  6
CONTINUOUS
 62
     7
100
AcDbLine
 10
118.3234932704
 20
387.2474737304
 30
0.0
 11
118.3234932704
 21
572.2474761146
 31
0.0
  0
LINE
  5
EC
330
1F
100
AcDbEntity
  8
0
  6
CONTINUOUS
 62
     7
100
AcDbLine
 10
118.3234932704
 20
572.2474761146
 30
0.0
 11
118.3234932704
 21
585.7474736708
 31
0.0
  0
LINE
  5
ED
330
1F
100
AcDbEntity
  8
0
  6
CONTINUOUS
 62
     7
100
AcDbLine
 10
115.5160979705
 20
585.7474736708
 30
0.0
 11
118.3234932704
 21
585.7474736708
 31
0.0
  0
LINE
  5
EE
330
1F
100
AcDbEntity
  8
0
  6
CONTINUOUS
 62
     7
100
AcDbLine
 10
118.3234932704
 20
569.2474774855
 30
0.0
 11
121.3234932965
 21
569.2474774855
 31
0.0
  0
LINE
  5
EF
330
1F
100
AcDbEntity
  8
0
  6
CONTINUOUS
 62
     7
100
AcDbLine
 10
118.3234932704
 20
574.2474727171
 30
0.0
 11
121.3234932965
 21
574.2474727171
 31
0.0
  0
LINE
  5
F0
330
1F
100
AcDbEntity
  8
0
  6
CONTINUOUS
 62
     7
100
AcDbLine
 10
118.3234932704
 20
385.2474771278
 30
0.0
 11
121.3234932965
 21
385.2474771278
 31
0.0
  0
LINE
  5
F1
330
1F
100
AcDbEntity
  8
0
  6
CONTINUOUS
 62
     7
100
AcDbLine
 10
118.3234932704
 20
390.2474723595
 30
0.0
 11
121.3234932965
 21
390.2474723595
 31
0.0
  0
ARC
  5
F2
330
1F
100
AcDbEntity
  8
0
  6
CONTINUOUS
 62
     7
100
AcDbCircle
 10
112.3234932835
 20
588.3974749225
 30
0.0
 40
2.80000000000001
100
AcDbArc
 50
90.0
 51
172.8192442185
  0
LINE
  5
F3
330
1F
100
AcDbEntity
  8
0
  6
CONTINUOUS
 62
     7
100
AcDbLine
 10
117.8234931885
 20
591.1974765199
 30
0.0
 11
112.3234934511
 21
591.1974765199
 31
0.0
  0
LINE
  5
F4
330
1F
100
AcDbEntity
  8
0
  6
CONTINUOUS
 62
     7
100
AcDbLine
 10
117.8234931885
 20
588.897474839
 30
0.0
 11
117.8234931885
 21
591.1974765199
 31
0.0
  0
LINE
  5
F5
330
1F
100
AcDbEntity
  8
0
  6
CONTINUOUS
 62
     7
100
AcDbLine
 10
112.3234934511
 20
588.897474839
 30
0.0
 11
117.8234931885
 21
588.897474839
 31
0.0
  0
ARC
  5
F6
330
1F
100
AcDbEntity
  8
0
  6
CONTINUOUS
 62
     7
100
AcDbCircle
 10
112.3234932835
 20
588.3974749225
 30
0.0
 40
0.5000000000000012
100
AcDbArc
 50
90.0
 51
135.5729959992
  0
LINE
  5
F7
330
1F
100
AcDbEntity
  8
0
  6
CONTINUOUS
 62
     7
100
AcDbLine
 10
118.3234932704
 20
585.7974745172
 30
0.0
 11
115.5045542272
 21
585.7974745172
 31
0.0
  0
LINE
  5
F8
330
1F
100
AcDbEntity
  8
0
  6
CONTINUOUS
 62
     7
100
AcDbLine
 10
118.3234932704
 20
585.7474736708
 30
0.0
 11
118.3234932704
 21
585.7974745172
 31
0.0
  0
ARC
  5
F9
330
1F
100
AcDbEntity
  8
0
  6
CONTINUOUS
 62
     7
100
AcDbCircle
 10
105.6234932835
 20
375.0474749225
 30
0.0
 40
1.300000000000011
100
AcDbArc
 50
90.0
 51
270.0
  0
LINE
  5
FA
330
1F
100
AcDbEntity
  8
0
  6
CONTINUOUS
 62
     7
100
AcDbLine
 10
107.8234931792
 20
376.3474754827
 30
0.0
 11
105.6234931911
 21
376.3474754827
 31
0.0
  0
LINE
  5
FB
330
1F
100
AcDbEntity
  8
0
  6
CONTINUOUS
 62
     7
100
AcDbLine
 10
105.6234931911
 20
373.7474761742
 30
0.0
 11
107.8234931792
 21
373.7474761742
 31
0.0
  0
LINE
  5
FC
330
1F
100
AcDbEntity
  8
0
  6
CONTINUOUS
 62
     7
100
AcDbLine
 10
107.8234931792
 20
573.6791573303
 30
0.0
 11
107.8234931792
 21
568.3393932717
 31
0.0
  0
LINE
  5
FD
330
1F
100
AcDbEntity
  8
0
  6
CONTINUOUS
 62
     7
100
AcDbLine
 10
107.8234931792
 20
573.6791573303
 30
0.0
 11
117.8234931885
 21
571.2449185389
 31
0.0
  0
LINE
  5
FE
330
1F
100
AcDbEntity
  8
0
  6
CONTINUOUS
 62
     7
100
AcDbLine
 10
117.8234931885
 20
388.2500313061
 30
0.0
 11
117.8234931885
 21
571.2449185389
 31
0.0
  0
LINE
  5
FF
330
1F
100
AcDbEntity
  8
0
  6
CONTINUOUS
 62
     7
100
AcDbLine
 10
107.8234931792
 20
385.8157925146
 30
0.0
 11
117.8234931885
 21
388.2500313061
 31
0.0
  0
LINE
  5
100
330
1F
100
AcDbEntity
  8
0
  6
CONTINUOUS
 62
     7
100
AcDbLine
 10
107.8234931792
 20
391.1555565732
 30
0.0
 11
107.8234931792
 21
385.8157925146
 31
0.0
  0
LINE
  5
101
330
1F
100
AcDbEntity
  8
0
  6
CONTINUOUS
 62
     7
100
AcDbLine
 10
103.0940471555
 20
391.5693320172
 30
0.0
 11
107.8234931792
 21
391.1555565732
 31
0.0
  0
LINE
  5
102
330
1F
100
AcDbEntity
  8
0
  6
CONTINUOUS
 62
     7
100
AcDbLine
 10
103.0940471555
 20
567.9256178277
 30
0.0
 11
103.0940471555
 21
391.5693320172
 31
0.0
  0
LINE
  5
103
330
1F
100
AcDbEntity
  8
0
  6
CONTINUOUS
 62
     7
100
AcDbLine
 10
107.8234931792
 20
568.3393932717
 30
0.0
 11
103.0940471555
 21
567.9256178277
 31
0.0
  0
LINE
  5
104
330
1F
100
AcDbEntity
  8
0
  6
CONTINUOUS
 62
     7
100
AcDbLine
 10
107.8234931792
 20
588.7474722999
 30
0.0
 11
114.8234933952
 21
588.7474722999
 31
0.0
  0
LINE
  5
105
330
1F
100
AcDbEntity
  8
0
  6
CONTINUOUS
 62
     7
100
AcDbLine
 10
117.8234931885
 20
575.7530487912
 30
0.0
 11
114.8234933952
 21
588.7474722999
 31
0.0
  0
LINE
  5
106
330
1F
100
AcDbEntity
  8
0
  6
CONTINUOUS
 62
     7
100
AcDbLine
 10
117.8234931885
 20
571.2449185389
 30
0.0
 11
117.8234931885
 21
575.7530487912
 31
0.0
  0
LINE
  5
107
330
1F
100
AcDbEntity
  8
0
  6
CONTINUOUS
 62
     7
100
AcDbLine
 10
107.8234931792
 20
573.6791573303
 30
0.0
 11
107.8234931792
 21
588.7474722999
 31
0.0
  0
LINE
  5
108
330
1F
100
AcDbEntity
  8
0
  6
CONTINUOUS
 62
     7
100
AcDbLine
 10
117.8234931885
 20
370.7474775451
 30
0.0
 11
117.8234931885
 21
388.2500313061
 31
0.0
  0
LINE
  5
109
330
1F
100
AcDbEntity
  8
0
  6
CONTINUOUS
 62
     7
100
AcDbLine
 10
107.8234931792
 20
370.7474775451
 30
0.0
 11
117.8234931885
 21
370.7474775451
 31
0.0
  0
LINE
  5
10A
330
1F
100
AcDbEntity
  8
0
  6
CONTINUOUS
 62
     7
100
AcDbLine
 10
107.8234931792
 20
370.7474775451
 30
0.0
 11
107.8234931792
 21
385.8157925146
 31
0.0
  0
SPLINE
  5
10B
330
1F
100
AcDbEntity
  8
0
  6
CONTINUOUS
 62
     7
100
AcDbSpline
210
0.0
220
0.0
230
1.0
 70
     8
 71
     3
 72
    15
 73
    11
 74
     0
 42
0.00000001
 43
0.00000001
 40
0.0
 40
0.0
 40
0.0
 40
0.0
 40
0.1358363425500982
 40
0.2577000197996531
 40
0.3742097294418092
 40
0.4976502994895605
 40
0.6260186218443582
 40
0.7523442936302728
 40
0.8769074975258083
 40
1.0
 40
1.0
 40
1.0
 40
1.0
 10
101.8876435572801
 20
578.7281550305321
 30
0.0
 10
101.9563043431862
 20
578.6882369166814
 30
0.0
 10
102.0865631940598
 20
578.6125068245974
 30
0.0
 10
102.2840182737359
 20
577.9709064751124
 30
0.0
 10
102.4710518281698
 20
577.0244025134401
 30
0.0
 10
102.6509285300105
 20
575.7157634508811
 30
0.0
 10
102.8125358132842
 20
574.0557219551675
 30
0.0
 10
102.9447339732624
 20
572.132982914211
 30
0.0
 10
103.0461817393126
 20
570.064055671593
 30
0.0
 10
103.0781553083447
 20
568.6356028237445
 30
0.0
 10
103.0940471554694
 20
567.925617827697
 30
0.0
  0
LINE
  5
10C
330
1F
100
AcDbEntity
  8
0
  6
CONTINUOUS
 62
     7
100
AcDbLine
 10
101.8876435573
 20
578.7281550305
 30
0.0
 11
107.8234931792
 21
579.2474753993
 31
0.0
  0
LINE
  5
10D
330
1F
100
AcDbEntity
  8
0
  6
CONTINUOUS
 62
     7
100
AcDbLine
 10
107.8234931792
 20
380.2474744456
 30
0.0
 11
101.8876435573
 21
380.7667948144
 31
0.0
  0
SPLINE
  5
10E
330
1F
100
AcDbEntity
  8
0
  6
CONTINUOUS
 62
     7
100
AcDbSpline
210
0.0
220
0.0
230
1.0
 70
     8
 71
     3
 72
    16
 73
    12
 74
     0
 42
0.00000001
 43
0.00000001
 40
0.0
 40
0.0
 40
0.0
 40
0.0
 40
0.12294498059664
 40
0.2473616782727708
 40
0.3735421733711491
 40
0.4374647525939054
 40
0.5019337713841562
 40
0.6095641830954031
 40
0.7283966273423135
 40
0.858520424137373
 40
1.0
 40
1.0
 40
1.0
 40
1.0
 10
103.0940471554694
 20
391.5693320172264
 30
0.0
 10
103.0782130863686
 20
390.860082986332
 30
0.0
 10
103.0463554059033
 20
389.4330948348516
 30
0.0
 10
102.9451136432065
 20
387.3663393897292
 30
0.0
 10
102.8354227687663
 20
385.7704306924912
 30
0.0
 10
102.731850253696
 20
384.6098104897689
 30
0.0
 10
102.6278491271584
 20
383.6246449247861
 30
0.0
 10
102.4836439462775
 20
382.5747621478279
 30
0.0
 10
102.2977907938023
 20
381.5992153064643
 30
0.0
 10
102.0955181072234
 20
380.8943855913612
 30
0.0
 10
101.9588399193279
 20
380.8104942434633
 30
0.0
 10
101.8876435572801
 20
380.7667948143912
 30
0.0
  0
SPLINE
  5
10F
330
1F
100
AcDbEntity
  8
0
  6
CONTINUOUS
 62
     7
100
AcDbSpline
210
0.0
220
0.0
230
1.0
 70
     8
 71
     3
 72
    13
 73
     9
 74
     0
 42
0.00000001
 43
0.00000001
 40
0.0
 40
0.0
 40
0.0
 40
0.0
 40
0.1245245389112358
 40
0.2507295187045644
 40
0.3760905835121315
 40
0.500948502331613
 40
0.7502628342978852
 40
1.0
 40
1.0
 40
1.0
 40
1.0
 10
101.0442098940311
 20
567.9256178276969
 30
0.0
 10
101.0393185272114
 20
568.5034392898856
 30
0.0
 10
101.029469785275
 20
569.6668798324358
 30
0.0
 10
100.943575156017
 20
571.3320700695367
 30
0.0
 10
100.8148180298283
 20
572.8612945611867
 30
0.0
 10
100.5853179984662
 20
574.5968686228978
 30
0.0
 10
100.2127953364047
 20
576.2041526398576
 30
0.0
 10
99.88396778623664
 20
576.4255902305749
 30
0.0
 10
99.71941470751146
 20
576.5364028351737
 30
0.0
  0
LINE
  5
110
330
1F
100
AcDbEntity
  8
0
  6
CONTINUOUS
 62
     7
100
AcDbLine
 10
99.7194147075
 20
576.5364028352
 30
0.0
 11
101.8876435573
 21
578.7281550305
 31
0.0
  0
LINE
  5
111
330
1F
100
AcDbEntity
  8
0
  6
CONTINUOUS
 62
     7
100
AcDbLine
 10
103.0940471555
 20
567.9256178277
 30
0.0
 11
101.044209894
 21
567.9256178277
 31
0.0
  0
LINE
  5
112
330
1F
100
AcDbEntity
  8
0
  6
CONTINUOUS
 62
     7
100
AcDbLine
 10
101.8876435573
 20
380.7667948144
 30
0.0
 11
99.7194147075
 21
382.9585470097
 31
0.0
  0
SPLINE
  5
113
330
1F
100
AcDbEntity
  8
0
  6
CONTINUOUS
 62
     7
100
AcDbSpline
210
0.0
220
0.0
230
1.0
 70
     8
 71
     3
 72
    13
 73
     9
 74
     0
 42
0.00000001
 43
0.00000001
 40
0.0
 40
0.0
 40
0.0
 40
0.0
 40
0.2501660474141741
 40
0.4995973272583918
 40
0.6243337251447558
 40
0.7500514107068952
 40
0.8760363644530819
 40
1.0
 40
1.0
 40
1.0
 40
1.0
 10
99.71941470751146
 20
382.9585470097496
 30
0.0
 10
99.88426269310999
 20
383.0693739155937
 30
0.0
 10
100.2134744860781
 20
383.2907022154183
 30
0.0
 10
100.5860559326037
 20
384.9018519693067
 30
0.0
 10
100.815438253682
 20
386.6402886087324
 30
0.0
 10
100.9437456717354
 20
388.1712272982075
 30
0.0
 10
101.029513219073
 20
389.8343420264523
 30
0.0
 10
101.0393374851147
 20
390.9941283929375
 30
0.0
 10
101.0442098940311
 20
391.5693320172264
 30
0.0
  0
LINE
  5
114
330
1F
100
AcDbEntity
  8
0
  6
CONTINUOUS
 62
     7
100
AcDbLine
 10
103.0940471555
 20
391.5693320172
 30
0.0
 11
101.044209894
 21
391.5693320172
 31
0.0
  0
LINE
  5
115
330
1F
100
AcDbEntity
  8
0
  6
CONTINUOUS
 62
     7
100
AcDbLine
 10
101.044209894
 20
391.5693320172
 30
0.0
 11
101.044209894
 21
567.9256178277
 31
0.0
  0
SPLINE
  5
116
330
1F
100
AcDbEntity
  8
0
  6
CONTINUOUS
 62
     7
100
AcDbSpline
210
0.0
220
0.0
230
1.0
 70
     8
 71
     3
 72
    13
 73
     9
 74
     0
 42
0.00000001
 43
0.00000001
 40
0.0
 40
0.0
 40
0.0
 40
0.0
 40
0.0784598657545
 40
0.2901649589360058
 40
0.5023133896461061
 40
0.7159815699605844
 40
0.9315889978580172
 40
1.0
 40
1.0
 40
1.0
 40
1.0
 10
99.28390405723434
 20
386.6974718707038
 30
0.0
 10
99.28370119792338
 20
386.6584182019747
 30
0.0
 10
99.28295097151056
 20
386.5139875931009
 30
0.0
 10
99.27255528931788
 20
386.2696192098621
 30
0.0
 10
99.24678268020918
 20
386.0082327796618
 30
0.0
 10
99.21050274003167
 20
385.8234889655319
 30
0.0
 10
99.17752512493422
 20
385.7531901048238
 30
0.0
 10
99.15842798839236
 20
385.7485869053813
 30
0.0
 10
99.15382809588294
 20
385.7474781411124
 30
0.0
  0
LINE
  5
117
330
1F
100
AcDbEntity
  8
0
  6
CONTINUOUS
 62
     7
100
AcDbLine
 10
99.2839040572
 20
572.7974779742
 30
0.0
 11
99.2839040572
 21
386.6974718707
 31
0.0
  0
SPLINE
  5
118
330
1F
100
AcDbEntity
  8
0
  6
CONTINUOUS
 62
     7
100
AcDbSpline
210
0.0
220
0.0
230
1.0
 70
     8
 71
     3
 72
    12
 73
     8
 74
     0
 42
0.00000001
 43
0.00000001
 40
0.0
 40
0.0
 40
0.0
 40
0.0
 40
0.217198718531784
 40
0.4344337790548277
 40
0.650751878939909
 40
0.8651571281694792
 40
1.0
 40
1.0
 40
1.0
 40
1.0
 10
99.15382809588294
 20
573.7474717038109
 30
0.0
 10
99.1685026053146
 20
573.7368310703358
 30
0.0
 10
99.1978540795372
 20
573.7155480229804
 30
0.0
 10
99.23707711678631
 20
573.549384053827
 30
0.0
 10
99.26655548915976
 20
573.3052650348487
 30
0.0
 10
99.28180544687318
 20
573.0386109018841
 30
0.0
 10
99.28331949224118
 20
572.8646452153719
 30
0.0
 10
99.28390405723434
 20
572.7974779742195
 30
0.0
  0
SPLINE
  5
119
330
1F
100
AcDbEntity
  8
0
  6
CONTINUOUS
 62
     7
100
AcDbSpline
210
0.0
220
0.0
230
1.0
 70
     8
 71
     3
 72
    11
 73
     7
 74
     0
 42
0.00000001
 43
0.00000001
 40
0.0
 40
0.0
 40
0.0
 40
0.0
 40
0.2857230151968594
 40
0.5714373000214055
 40
0.8571463426424761
 40
1.0
 40
1.0
 40
1.0
 40
1.0
 10
99.71941470751146
 20
576.5364028351737
 30
0.0
 10
98.33743285552683
 20
576.4157578355148
 30
0.0
 10
95.57351137852372
 20
576.1744715225492
 30
0.0
 10
93.11846479281276
 20
575.9606020322759
 30
0.0
 10
91.85894399066541
 20
575.8509186883269
 30
0.0
 10
91.95340685289499
 20
575.8591448348031
 30
0.0
 10
91.98489434668441
 20
575.861886872573
 30
0.0
  0
SPLINE
  5
11A
330
1F
100
AcDbEntity
  8
0
  6
CONTINUOUS
 62
     7
100
AcDbSpline
210
0.0
220
0.0
230
1.0
 70
     8
 71
     3
 72
    11
 73
     7
 74
     0
 42
0.00000001
 43
0.00000001
 40
0.0
 40
0.0
 40
0.0
 40
0.0
 40
0.1428536573575239
 40
0.4285626999785945
 40
0.7142769848031406
 40
1.0
 40
1.0
 40
1.0
 40
1.0
 10
91.98489434668441
 20
383.6330629723503
 30
0.0
 10
91.95340685289499
 20
383.6358050101201
 30
0.0
 10
91.85894399066541
 20
383.6440311565963
 30
0.0
 10
93.11846479281276
 20
383.5343478126474
 30
0.0
 10
95.57351137852369
 20
383.3204783223741
 30
0.0
 10
98.33743285552683
 20
383.0791920094085
 30
0.0
 10
99.71941470751146
 20
382.9585470097496
 30
0.0
  0
SPLINE
  5
11B
330
1F
100
AcDbEntity
  8
0
  6
CONTINUOUS
 62
     7
100
AcDbSpline
210
0.0
220
0.0
230
1.0
 70
     8
 71
     3
 72
    11
 73
     7
 74
     0
 42
0.00000001
 43
0.00000001
 40
0.0
 40
0.0
 40
0.0
 40
0.0
 40
0.1431963689934082
 40
0.4290167949288216
 40
0.7144622179108158
 40
0.9999999999999999
 40
0.9999999999999999
 40
0.9999999999999999
 40
0.9999999999999999
 10
94.17771570035836
 20
578.0536241667702
 30
0.0
 10
94.14629599763231
 20
578.0508758169553
 30
0.0
 10
94.05216246438769
 20
578.0426417518238
 30
0.0
 10
95.30415290338813
 20
578.1521780013446
 30
0.0
 10
97.75138172118127
 20
578.366282049707
 30
0.0
 10
100.5087409401529
 20
578.607517696606
 30
0.0
 10
101.8876435572801
 20
578.7281550305321
 30
0.0
  0
SPLINE
  5
11C
330
1F
100
AcDbEntity
  8
0
  6
CONTINUOUS
 62
     7
100
AcDbSpline
210
0.0
220
0.0
230
1.0
 70
     8
 71
     3
 72
    11
 73
     7
 74
     0
 42
0.00000001
 43
0.00000001
 40
0.0
 40
0.0
 40
0.0
 40
0.0
 40
0.2855341691693706
 40
0.5709788956922969
 40
0.8568014665754945
 40
1.0
 40
1.0
 40
1.0
 40
1.0
 10
101.8876435572801
 20
380.7667948143912
 30
0.0
 10
100.5087607303449
 20
380.88743230086
 30
0.0
 10
97.75142700701899
 20
381.1286694844987
 30
0.0
 10
95.30422047253589
 20
381.3427726577535
 30
0.0
 10
94.05220911492546
 20
381.4523081483795
 30
0.0
 10
94.14630755253536
 20
381.4440740522496
 30
0.0
 10
94.17771570035836
 20
381.4413256781531
 30
0.0
  0
LINE
  5
11D
330
1F
100
AcDbEntity
  8
0
  6
CONTINUOUS
 62
     7
100
AcDbLine
 10
99.1336426104
 20
573.7474717038
 30
0.0
 11
91.8034931982
 21
573.7474717038
 31
0.0
  0
SPLINE
  5
11E
330
1F
100
AcDbEntity
  8
0
  6
CONTINUOUS
 62
     7
100
AcDbSpline
210
0.0
220
0.0
230
1.0
 70
     8
 71
     3
 72
    12
 73
     8
 74
     0
 42
0.00000001
 43
0.00000001
 40
0.0
 40
0.0
 40
0.0
 40
0.0
 40
0.2122109113932172
 40
0.4243915157221155
 40
0.6374628892443188
 40
0.8524198527777113
 40
1.0
 40
1.0
 40
1.0
 40
1.0
 10
99.26371670910699
 20
572.7974779742195
 30
0.0
 10
99.26229070710033
 20
572.9035415469575
 30
0.0
 10
99.25943890674263
 20
573.115653544883
 30
0.0
 10
99.23724894750885
 20
573.3986387205358
 30
0.0
 10
99.20460205708011
 20
573.6135317254003
 30
0.0
 10
99.16799480823518
 20
573.7302842166479
 30
0.0
 10
99.14358091837704
 20
573.7424992551312
 30
0.0
 10
99.13364261040073
 20
573.7474717038109
 30
0.0
  0
LINE
  5
11F
330
1F
100
AcDbEntity
  8
0
  6
CONTINUOUS
 62
     7
100
AcDbLine
 10
99.2637167091
 20
386.6974718707
 30
0.0
 11
99.2637167091
 21
572.7974779742
 31
0.0
  0
SPLINE
  5
120
330
1F
100
AcDbEntity
  8
0
  6
CONTINUOUS
 62
     7
100
AcDbSpline
210
0.0
220
0.0
230
1.0
 70
     8
 71
     3
 72
    12
 73
     8
 74
     0
 42
0.00000001
 43
0.00000001
 40
0.0
 40
0.0
 40
0.0
 40
0.0
 40
0.2171985882677428
 40
0.43443368494034
 40
0.6507518208223858
 40
0.8651571057306077
 40
1.0
 40
1.0
 40
1.0
 40
1.0
 10
99.13364261040073
 20
385.7474781411124
 30
0.0
 10
99.14831633522566
 20
385.7581187866838
 30
0.0
 10
99.17766625134777
 20
385.7794018663876
 30
0.0
 10
99.2168898995093
 20
385.9455657905746
 30
0.0
 10
99.24636810601014
 20
386.1896848102141
 30
0.0
 10
99.26161810381448
 20
386.456338943019
 30
0.0
 10
99.26313214552567
 20
386.6303046295458
 30
0.0
 10
99.26371670910699
 20
386.6974718707038
 30
0.0
  0
LINE
  5
121
330
1F
100
AcDbEntity
  8
0
  6
CONTINUOUS
 62
     7
100
AcDbLine
 10
91.8034931982
 20
385.7474781411
 30
0.0
 11
99.1336426104
 21
385.7474781411
 31
0.0
  0
LINE
  5
122
330
1F
100
AcDbEntity
  8
0
  6
CONTINUOUS
 62
     7
100
AcDbLine
 10
99.1336426104
 20
385.7474781411
 30
0.0
 11
99.1538280959
 21
385.7474781411
 31
0.0
  0
LINE
  5
123
330
1F
100
AcDbEntity
  8
0
  6
CONTINUOUS
 62
     7
100
AcDbLine
 10
99.2637167091
 20
386.6974718707
 30
0.0
 11
99.2839040572
 21
386.6974718707
 31
0.0
  0
LINE
  5
124
330
1F
100
AcDbEntity
  8
0
  6
CONTINUOUS
 62
     7
100
AcDbLine
 10
99.2637167091
 20
572.7974779742
 30
0.0
 11
99.2839040572
 21
572.7974779742
 31
0.0
  0
LINE
  5
125
330
1F
100
AcDbEntity
  8
0
  6
CONTINUOUS
 62
     7
100
AcDbLine
 10
99.1336426104
 20
573.7474717038
 30
0.0
 11
99.1538280959
 21
573.7474717038
 31
0.0
  0
LINE
  5
126
330
1F
100
AcDbEntity
  8
0
  6
CONTINUOUS
 62
     7
100
AcDbLine
 10
109.7553449089
 20
370.2298335569
 30
0.0
 11
109.8940458486
 21
370.7474775451
 31
0.0
  0
LINE
  5
127
330
1F
100
AcDbEntity
  8
0
  6
CONTINUOUS
 62
     7
100
AcDbLine
 10
109.7553449089
 20
370.2298335569
 30
0.0
 11
107.8234931792
 21
370.7474775451
 31
0.0
  0
LWPOLYLINE
  5
128
330
1F
100
AcDbEntity
  8
0
  6
CONTINUOUS
 62
     7
100
AcDbPolyline
 90
        9
 70
   128
 43
0.0
 10
107.1671547706
 20
360.5705804961
 10
107.2168855334
 20
360.7561819094
 10
107.3641686107
 20
361.3058484929
 10
107.6033434237
 20
362.1984578507
 10
107.9252178187
 20
363.3997075098
 10
108.3174229006
 20
364.8634411233
 10
108.7648870761
 20
366.5333993571
 10
109.2504144053
 20
368.3454103606
 10
109.7553449089
 20
370.2298335569
  0
LWPOLYLINE
  5
129
330
1F
100
AcDbEntity
  8
0
  6
CONTINUOUS
 62
     7
100
AcDbPolyline
 90
        9
 70
   128
 43
0.0
 10
105.2353030408
 20
361.0882170337
 10
105.2850338037
 20
361.2738184469
 10
105.4323168809
 20
361.8234850305
 10
105.6714916939
 20
362.7160943883
 10
105.993366089
 20
363.9173514979
 10
106.3855721022
 20
365.3810776608
 10
106.8330353464
 20
367.0510358947
 10
107.3185626755
 20
368.8630468982
 10
107.8234931792
 20
370.7474775451
  0
LINE
  5
12A
330
1F
100
AcDbEntity
  8
0
  6
CONTINUOUS
 62
     7
100
AcDbLine
 10
117.8234931885
 20
387.2474737304
 30
0.0
 11
118.3234932704
 21
387.2474737304
 31
0.0
  0
LINE
  5
12B
330
1F
100
AcDbEntity
  8
0
  6
CONTINUOUS
 62
     7
100
AcDbLine
 10
117.8234931885
 20
572.2474761146
 30
0.0
 11
118.3234932704
 21
572.2474761146
 31
0.0
  0
LINE
  5
12C
330
1F
100
AcDbEntity
  8
0
  6
CONTINUOUS
 62
     7
100
AcDbLine
 10
591.6119042518
 20
573.7474717038
 30
0.0
 11
591.6119042518
 21
575.8618868726
 31
0.0
  0
LINE
  5
12D
330
1F
100
AcDbEntity
  8
0
  6
CONTINUOUS
 62
     7
100
AcDbLine
 10
591.6119042518
 20
383.6330629724
 30
0.0
 11
591.6119042518
 21
385.7474781411
 31
0.0
  0
LINE
  5
12E
330
1F
100
AcDbEntity
  8
0
  6
CONTINUOUS
 62
     7
100
AcDbLine
 10
591.6100527825
 20
575.8478201764
 30
0.0
 11
589.4183043124
 21
578.0395723718
 31
0.0
  0
LINE
  5
12F
330
1F
100
AcDbEntity
  8
0
  6
CONTINUOUS
 62
     7
100
AcDbLine
 10
589.4183043124
 20
381.4553774732
 30
0.0
 11
591.6100527825
 21
383.6471296685
 31
0.0
  0
LINE
  5
130
330
1F
100
AcDbEntity
  8
0
  6
CONTINUOUS
 62
     7
100
AcDbLine
 10
591.6319034727
 20
385.7474781411
 30
0.0
 11
591.6319034727
 21
573.7474717038
 31
0.0
  0
LINE
  5
131
330
1F
100
AcDbEntity
  8
0
  6
CONTINUOUS
 62
     7
100
AcDbLine
 10
576.2682419004
 20
360.5705804961
 30
0.0
 11
578.2000936301
 21
361.0882170337
 31
0.0
  0
LINE
  5
132
330
1F
100
AcDbEntity
  8
0
  6
CONTINUOUS
 62
     7
100
AcDbLine
 10
557.6119033353
 20
390.2474723595
 30
0.0
 11
562.1119033745
 21
390.2474723595
 31
0.0
  0
LINE
  5
133
330
1F
100
AcDbEntity
  8
0
  6
CONTINUOUS
 62
     7
100
AcDbLine
 10
557.6119033353
 20
569.2474774855
 30
0.0
 11
557.6119033353
 21
390.2474723595
 31
0.0
  0
LINE
  5
134
330
1F
100
AcDbEntity
  8
0
  6
CONTINUOUS
 62
     7
100
AcDbLine
 10
557.6119033353
 20
569.2474774855
 30
0.0
 11
562.1119033745
 21
569.2474774855
 31
0.0
  0
LINE
  5
135
330
1F
100
AcDbEntity
  8
0
  6
CONTINUOUS
 62
     7
100
AcDbLine
 10
562.1119033745
 20
569.2474774855
 30
0.0
 11
562.1119033745
 21
390.2474723595
 31
0.0
  0
LINE
  5
136
330
1F
100
AcDbEntity
  8
0
  6
CONTINUOUS
 62
     7
100
AcDbLine
 10
557.6119033353
 20
588.2474712866
 30
0.0
 11
557.6119033353
 21
569.2474774855
 31
0.0
  0
LINE
  5
137
330
1F
100
AcDbEntity
  8
0
  6
CONTINUOUS
 62
     7
100
AcDbLine
 10
557.6119033353
 20
588.2474712866
 30
0.0
 11
562.1119033745
 21
588.2474712866
 31
0.0
  0
LINE
  5
138
330
1F
100
AcDbEntity
  8
0
  6
CONTINUOUS
 62
     7
100
AcDbLine
 10
562.1119033745
 20
588.2474712866
 30
0.0
 11
562.1119033745
 21
569.2474774855
 31
0.0
  0
LINE
  5
139
330
1F
100
AcDbEntity
  8
0
  6
CONTINUOUS
 62
     7
100
AcDbLine
 10
557.6119033353
 20
371.2474785583
 30
0.0
 11
562.1119033745
 21
371.2474785583
 31
0.0
  0
LINE
  5
13A
330
1F
100
AcDbEntity
  8
0
  6
CONTINUOUS
 62
     7
100
AcDbLine
 10
562.1119033745
 20
390.2474723595
 30
0.0
 11
562.1119033745
 21
371.2474785583
 31
0.0
  0
LINE
  5
13B
330
1F
100
AcDbEntity
  8
0
  6
CONTINUOUS
 62
     7
100
AcDbLine
 10
557.6119033353
 20
390.2474723595
 30
0.0
 11
557.6119033353
 21
371.2474785583
 31
0.0
  0
LINE
  5
13C
330
1F
100
AcDbEntity
  8
0
  6
CONTINUOUS
 62
     7
100
AcDbLine
 10
565.6119034825
 20
373.7474761742
 30
0.0
 11
565.1119034005
 21
373.7474761742
 31
0.0
  0
LINE
  5
13D
330
1F
100
AcDbEntity
  8
0
  6
CONTINUOUS
 62
     7
100
AcDbLine
 10
565.1119034005
 20
387.2474737304
 30
0.0
 11
565.1119034005
 21
373.7474761742
 31
0.0
  0
LINE
  5
13E
330
1F
100
AcDbEntity
  8
0
  6
CONTINUOUS
 62
     7
100
AcDbLine
 10
565.1119034005
 20
572.2474761146
 30
0.0
 11
565.1119034005
 21
387.2474737304
 31
0.0
  0
LINE
  5
13F
330
1F
100
AcDbEntity
  8
0
  6
CONTINUOUS
 62
     7
100
AcDbLine
 10
567.9192987004
 20
585.7474736708
 30
0.0
 11
565.1119034005
 21
585.7474736708
 31
0.0
  0
LINE
  5
140
330
1F
100
AcDbEntity
  8
0
  6
CONTINUOUS
 62
     7
100
AcDbLine
 10
565.1119034005
 20
585.7474736708
 30
0.0
 11
565.1119034005
 21
572.2474761146
 31
0.0
  0
LINE
  5
141
330
1F
100
AcDbEntity
  8
0
  6
CONTINUOUS
 62
     7
100
AcDbLine
 10
565.1119034005
 20
390.2474723595
 30
0.0
 11
562.1119033745
 21
390.2474723595
 31
0.0
  0
LINE
  5
142
330
1F
100
AcDbEntity
  8
0
  6
CONTINUOUS
 62
     7
100
AcDbLine
 10
565.1119034005
 20
385.2474771278
 30
0.0
 11
562.1119033745
 21
385.2474771278
 31
0.0
  0
LINE
  5
143
330
1F
100
AcDbEntity
  8
0
  6
CONTINUOUS
 62
     7
100
AcDbLine
 10
565.1119034005
 20
574.2474727171
 30
0.0
 11
562.1119033745
 21
574.2474727171
 31
0.0
  0
LINE
  5
144
330
1F
100
AcDbEntity
  8
0
  6
CONTINUOUS
 62
     7
100
AcDbLine
 10
565.1119034005
 20
569.2474774855
 30
0.0
 11
562.1119033745
 21
569.2474774855
 31
0.0
  0
ARC
  5
145
330
1F
100
AcDbEntity
  8
0
  6
CONTINUOUS
 62
     7
100
AcDbCircle
 10
571.1119033875
 20
588.3974749225
 30
0.0
 40
0.5
100
AcDbArc
 50
44.4270040008
 51
90.0
  0
LINE
  5
146
330
1F
100
AcDbEntity
  8
0
  6
CONTINUOUS
 62
     7
100
AcDbLine
 10
571.1119032199
 20
588.897474839
 30
0.0
 11
565.6119034825
 21
588.897474839
 31
0.0
  0
LINE
  5
147
330
1F
100
AcDbEntity
  8
0
  6
CONTINUOUS
 62
     7
100
AcDbLine
 10
565.6119034825
 20
588.897474839
 30
0.0
 11
565.6119034825
 21
591.1974765199
 31
0.0
  0
LINE
  5
148
330
1F
100
AcDbEntity
  8
0
  6
CONTINUOUS
 62
     7
100
AcDbLine
 10
565.6119034825
 20
591.1974765199
 30
0.0
 11
571.1119032199
 21
591.1974765199
 31
0.0
  0
ARC
  5
149
330
1F
100
AcDbEntity
  8
0
  6
CONTINUOUS
 62
     7
100
AcDbCircle
 10
571.1119033875
 20
588.3974749225
 30
0.0
 40
2.799999999999955
100
AcDbArc
 50
7.1807557815
 51
90.0
  0
LINE
  5
14A
330
1F
100
AcDbEntity
  8
0
  6
CONTINUOUS
 62
     7
100
AcDbLine
 10
565.1119034005
 20
585.7974745172
 30
0.0
 11
567.9308424437
 21
585.7974745172
 31
0.0
  0
LINE
  5
14B
330
1F
100
AcDbEntity
  8
0
  6
CONTINUOUS
 62
     7
100
AcDbLine
 10
565.1119034005
 20
585.7474736708
 30
0.0
 11
565.1119034005
 21
585.7974745172
 31
0.0
  0
ARC
  5
14C
330
1F
100
AcDbEntity
  8
0
  6
CONTINUOUS
 62
     7
100
AcDbCircle
 10
577.8119033875
 20
375.0474749225
 30
0.0
 40
1.300000000000011
100
AcDbArc
 50
270.0
 51
90.0
  0
LINE
  5
14D
330
1F
100
AcDbEntity
  8
0
  6
CONTINUOUS
 62
     7
100
AcDbLine
 10
575.6119034918
 20
376.3474754827
 30
0.0
 11
577.8119034799
 21
376.3474754827
 31
0.0
  0
LINE
  5
14E
330
1F
100
AcDbEntity
  8
0
  6
CONTINUOUS
 62
     7
100
AcDbLine
 10
577.8119034799
 20
373.7474761742
 30
0.0
 11
575.6119034918
 21
373.7474761742
 31
0.0
  0
LINE
  5
14F
330
1F
100
AcDbEntity
  8
0
  6
CONTINUOUS
 62
     7
100
AcDbLine
 10
575.6119034918
 20
370.7474775451
 30
0.0
 11
565.6119034825
 21
370.7474775451
 31
0.0
  0
LINE
  5
150
330
1F
100
AcDbEntity
  8
0
  6
CONTINUOUS
 62
     7
100
AcDbLine
 10
565.6119034825
 20
388.2500313061
 30
0.0
 11
565.6119034825
 21
370.7474775451
 31
0.0
  0
LINE
  5
151
330
1F
100
AcDbEntity
  8
0
  6
CONTINUOUS
 62
     7
100
AcDbLine
 10
575.6119034918
 20
385.8157925146
 30
0.0
 11
565.6119034825
 21
388.2500313061
 31
0.0
  0
LINE
  5
152
330
1F
100
AcDbEntity
  8
0
  6
CONTINUOUS
 62
     7
100
AcDbLine
 10
575.6119034918
 20
385.8157925146
 30
0.0
 11
575.6119034918
 21
370.7474775451
 31
0.0
  0
LINE
  5
153
330
1F
100
AcDbEntity
  8
0
  6
CONTINUOUS
 62
     7
100
AcDbLine
 10
575.6119034918
 20
385.8157925146
 30
0.0
 11
575.6119034918
 21
391.1555565732
 31
0.0
  0
LINE
  5
154
330
1F
100
AcDbEntity
  8
0
  6
CONTINUOUS
 62
     7
100
AcDbLine
 10
565.6119034825
 20
571.2449185389
 30
0.0
 11
565.6119034825
 21
388.2500313061
 31
0.0
  0
LINE
  5
155
330
1F
100
AcDbEntity
  8
0
  6
CONTINUOUS
 62
     7
100
AcDbLine
 10
575.6119034918
 20
573.6791573303
 30
0.0
 11
565.6119034825
 21
571.2449185389
 31
0.0
  0
LINE
  5
156
330
1F
100
AcDbEntity
  8
0
  6
CONTINUOUS
 62
     7
100
AcDbLine
 10
575.6119034918
 20
568.3393932717
 30
0.0
 11
575.6119034918
 21
573.6791573303
 31
0.0
  0
LINE
  5
157
330
1F
100
AcDbEntity
  8
0
  6
CONTINUOUS
 62
     7
100
AcDbLine
 10
580.3413495155
 20
567.9256178277
 30
0.0
 11
575.6119034918
 21
568.3393932717
 31
0.0
  0
LINE
  5
158
330
1F
100
AcDbEntity
  8
0
  6
CONTINUOUS
 62
     7
100
AcDbLine
 10
580.3413495155
 20
391.5693320172
 30
0.0
 11
580.3413495155
 21
567.9256178277
 31
0.0
  0
LINE
  5
159
330
1F
100
AcDbEntity
  8
0
  6
CONTINUOUS
 62
     7
100
AcDbLine
 10
575.6119034918
 20
391.1555565732
 30
0.0
 11
580.3413495155
 21
391.5693320172
 31
0.0
  0
LINE
  5
15A
330
1F
100
AcDbEntity
  8
0
  6
CONTINUOUS
 62
     7
100
AcDbLine
 10
565.6119034825
 20
575.7530487912
 30
0.0
 11
565.6119034825
 21
571.2449185389
 31
0.0
  0
LINE
  5
15B
330
1F
100
AcDbEntity
  8
0
  6
CONTINUOUS
 62
     7
100
AcDbLine
 10
568.6119032757
 20
588.7474722999
 30
0.0
 11
565.6119034825
 21
575.7530487912
 31
0.0
  0
LINE
  5
15C
330
1F
100
AcDbEntity
  8
0
  6
CONTINUOUS
 62
     7
100
AcDbLine
 10
575.6119034918
 20
588.7474722999
 30
0.0
 11
568.6119032757
 21
588.7474722999
 31
0.0
  0
LINE
  5
15D
330
1F
100
AcDbEntity
  8
0
  6
CONTINUOUS
 62
     7
100
AcDbLine
 10
575.6119034918
 20
588.7474722999
 30
0.0
 11
575.6119034918
 21
573.6791573303
 31
0.0
  0
LINE
  5
15E
330
1F
100
AcDbEntity
  8
0
  6
CONTINUOUS
 62
     7
100
AcDbLine
 10
575.6119034918
 20
579.2474753993
 30
0.0
 11
581.5477531137
 21
578.7281550305
 31
0.0
  0
SPLINE
  5
15F
330
1F
100
AcDbEntity
  8
0
  6
CONTINUOUS
 62
     7
100
AcDbSpline
210
0.0
220
0.0
230
1.0
 70
     8
 71
     3
 72
    16
 73
    12
 74
     0
 42
0.00000001
 43
0.00000001
 40
0.0
 40
0.0
 40
0.0
 40
0.0
 40
0.12294498059664
 40
0.2473616782727708
 40
0.3735421733711491
 40
0.4374647525939054
 40
0.5019337713841562
 40
0.6095641830954031
 40
0.7283966273423135
 40
0.858520424137373
 40
1.0
 40
1.0
 40
1.0
 40
1.0
 10
580.3413495155033
 20
567.9256178276969
 30
0.0
 10
580.3571835846041
 20
568.6348668585914
 30
0.0
 10
580.3890412650695
 20
570.0618550100718
 30
0.0
 10
580.4902830277663
 20
572.1286104551941
 30
0.0
 10
580.5999739022064
 20
573.7245191524321
 30
0.0
 10
580.7035464172768
 20
574.8851393551544
 30
0.0
 10
580.8075475438143
 20
575.8703049201372
 30
0.0
 10
580.9517527246952
 20
576.9201876970955
 30
0.0
 10
581.1376058771705
 20
577.8957345384591
 30
0.0
 10
581.3398785637494
 20
578.600564253562
 30
0.0
 10
581.4765567516449
 20
578.6844556014601
 30
0.0
 10
581.5477531136927
 20
578.7281550305321
 30
0.0
  0
SPLINE
  5
160
330
1F
100
AcDbEntity
  8
0
  6
CONTINUOUS
 62
     7
100
AcDbSpline
210
0.0
220
0.0
230
1.0
 70
     8
 71
     3
 72
    15
 73
    11
 74
     0
 42
0.00000001
 43
0.00000001
 40
0.0
 40
0.0
 40
0.0
 40
0.0
 40
0.1358363425500982
 40
0.2577000197996531
 40
0.3742097294418092
 40
0.4976502994895605
 40
0.6260186218443582
 40
0.7523442936302728
 40
0.8769074975258083
 40
1.0
 40
1.0
 40
1.0
 40
1.0
 10
581.5477531136927
 20
380.7667948143912
 30
0.0
 10
581.4790923277866
 20
380.806712928242
 30
0.0
 10
581.348833476913
 20
380.8824430203259
 30
0.0
 10
581.1513783972368
 20
381.524043369811
 30
0.0
 10
580.964344842803
 20
382.4705473314832
 30
0.0
 10
580.7844681409623
 20
383.7791863940421
 30
0.0
 10
580.6228608576886
 20
385.4392278897559
 30
0.0
 10
580.4906626977104
 20
387.3619669307124
 30
0.0
 10
580.3892149316603
 20
389.4308941733303
 30
0.0
 10
580.3572413626281
 20
390.8593470211788
 30
0.0
 10
580.3413495155033
 20
391.5693320172264
 30
0.0
  0
LINE
  5
161
330
1F
100
AcDbEntity
  8
0
  6
CONTINUOUS
 62
     7
100
AcDbLine
 10
581.5477531137
 20
380.7667948144
 30
0.0
 11
575.6119034918
 21
380.2474744456
 31
0.0
  0
SPLINE
  5
162
330
1F
100
AcDbEntity
  8
0
  6
CONTINUOUS
 62
     7
100
AcDbSpline
210
0.0
220
0.0
230
1.0
 70
     8
 71
     3
 72
    13
 73
     9
 74
     0
 42
0.00000001
 43
0.00000001
 40
0.0
 40
0.0
 40
0.0
 40
0.0
 40
0.1245245389112358
 40
0.2507295187045644
 40
0.3760905835121315
 40
0.500948502331613
 40
0.7502628342978852
 40
1.0
 40
1.0
 40
1.0
 40
1.0
 10
582.3911867769417
 20
391.5693320172264
 30
0.0
 10
582.3960781437613
 20
390.9915105550378
 30
0.0
 10
582.4059268856978
 20
389.8280700124874
 30
0.0
 10
582.4918215149557
 20
388.1628797753866
 30
0.0
 10
582.6205786411444
 20
386.6336552837367
 30
0.0
 10
582.8500786725066
 20
384.8980812220256
 30
0.0
 10
583.222601334568
 20
383.2907972050656
 30
0.0
 10
583.5514288847361
 20
383.0693596143484
 30
0.0
 10
583.7159819634613
 20
382.9585470097496
 30
0.0
  0
LINE
  5
163
330
1F
100
AcDbEntity
  8
0
  6
CONTINUOUS
 62
     7
100
AcDbLine
 10
581.5477531137
 20
380.7667948144
 30
0.0
 11
583.7159819635
 21
382.9585470097
 31
0.0
  0
LINE
  5
164
330
1F
100
AcDbEntity
  8
0
  6
CONTINUOUS
 62
     7
100
AcDbLine
 10
582.3911867769
 20
391.5693320172
 30
0.0
 11
580.3413495155
 21
391.5693320172
 31
0.0
  0
SPLINE
  5
165
330
1F
100
AcDbEntity
  8
0
  6
CONTINUOUS
 62
     7
100
AcDbSpline
210
0.0
220
0.0
230
1.0
 70
     8
 71
     3
 72
    13
 73
     9
 74
     0
 42
0.00000001
 43
0.00000001
 40
0.0
 40
0.0
 40
0.0
 40
0.0
 40
0.2501660474141741
 40
0.4995973272583918
 40
0.6243337251447558
 40
0.7500514107068952
 40
0.8760363644530819
 40
1.0
 40
1.0
 40
1.0
 40
1.0
 10
583.7159819634613
 20
576.5364028351737
 30
0.0
 10
583.5511339778628
 20
576.4255759293296
 30
0.0
 10
583.2219221848947
 20
576.204247629505
 30
0.0
 10
582.849340738369
 20
574.5930978756165
 30
0.0
 10
582.6199584172908
 20
572.8546612361909
 30
0.0
 10
582.4916509992373
 20
571.3237225467158
 30
0.0
 10
582.4058834518999
 20
569.660607818471
 30
0.0
 10
582.396059185858
 20
568.5008214519858
 30
0.0
 10
582.3911867769417
 20
567.9256178276969
 30
0.0
  0
LINE
  5
166
330
1F
100
AcDbEntity
  8
0
  6
CONTINUOUS
 62
     7
100
AcDbLine
 10
582.3911867769
 20
567.9256178277
 30
0.0
 11
580.3413495155
 21
567.9256178277
 31
0.0
  0
LINE
  5
167
330
1F
100
AcDbEntity
  8
0
  6
CONTINUOUS
 62
     7
100
AcDbLine
 10
583.7159819635
 20
576.5364028352
 30
0.0
 11
581.5477531137
 21
578.7281550305
 31
0.0
  0
LINE
  5
168
330
1F
100
AcDbEntity
  8
0
  6
CONTINUOUS
 62
     7
100
AcDbLine
 10
582.3911867769
 20
567.9256178277
 30
0.0
 11
582.3911867769
 21
391.5693320172
 31
0.0
  0
SPLINE
  5
169
330
1F
100
AcDbEntity
  8
0
  6
CONTINUOUS
 62
     7
100
AcDbSpline
210
0.0
220
0.0
230
1.0
 70
     8
 71
     3
 72
    13
 73
     9
 74
     0
 42
0.00000001
 43
0.00000001
 40
0.0
 40
0.0
 40
0.0
 40
0.0
 40
0.0120084255688717
 40
0.2238800126538701
 40
0.4357863477758472
 40
0.6489341277766631
 40
0.8639786349364822
 40
1.0
 40
1.0
 40
1.0
 40
1.0
 10
584.1514926137384
 20
572.7974779742195
 30
0.0
 10
584.1514973410023
 20
572.8034528914701
 30
0.0
 10
584.1515854741122
 20
572.9148467242431
 30
0.0
 10
584.1572846217324
 20
573.132586868048
 30
0.0
 10
584.1792856965772
 20
573.4121541728263
 30
0.0
 10
584.212679092436
 20
573.622812225516
 30
0.0
 10
584.2487685821558
 20
573.7322796980671
 30
0.0
 10
584.2724090252773
 20
573.7432292659042
 30
0.0
 10
584.2815685750898
 20
573.7474717038109
 30
0.0
  0
LINE
  5
16A
330
1F
100
AcDbEntity
  8
0
  6
CONTINUOUS
 62
     7
100
AcDbLine
 10
584.1514926137
 20
386.6974718707
 30
0.0
 11
584.1514926137
 21
572.7974779742
 31
0.0
  0
SPLINE
  5
16B
330
1F
100
AcDbEntity
  8
0
  6
CONTINUOUS
 62
     7
100
AcDbSpline
210
0.0
220
0.0
230
1.0
 70
     8
 71
     3
 72
    12
 73
     8
 74
     0
 42
0.00000001
 43
0.00000001
 40
0.0
 40
0.0
 40
0.0
 40
0.0
 40
0.217198718531784
 40
0.4344337790548277
 40
0.650751878939909
 40
0.8651571281694792
 40
1.0
 40
1.0
 40
1.0
 40
1.0
 10
584.2815685750898
 20
385.7474781411124
 30
0.0
 10
584.2668940656582
 20
385.7581187745874
 30
0.0
 10
584.2375425914356
 20
385.7794018219428
 30
0.0
 10
584.1983195541865
 20
385.9455657910962
 30
0.0
 10
584.168841181813
 20
386.1896848100745
 30
0.0
 10
584.1535912240996
 20
386.4563389430392
 30
0.0
 10
584.1520771787316
 20
386.6303046295514
 30
0.0
 10
584.1514926137384
 20
386.6974718707038
 30
0.0
  0
SPLINE
  5
16C
330
1F
100
AcDbEntity
  8
0
  6
CONTINUOUS
 62
     7
100
AcDbSpline
210
0.0
220
0.0
230
1.0
 70
     8
 71
     3
 72
    11
 73
     7
 74
     0
 42
0.00000001
 43
0.00000001
 40
0.0
 40
0.0
 40
0.0
 40
0.0
 40
0.142853657357524
 40
0.4285626999785946
 40
0.7142769848031406
 40
1.0
 40
1.0
 40
1.0
 40
1.0
 10
591.4505023242883
 20
575.861886872573
 30
0.0
 10
591.4819898180779
 20
575.8591448348031
 30
0.0
 10
591.5764526803073
 20
575.8509186883269
 30
0.0
 10
590.31693187816
 20
575.9606020322759
 30
0.0
 10
587.8618852924491
 20
576.1744715225493
 30
0.0
 10
585.097963815446
 20
576.4157578355148
 30
0.0
 10
583.7159819634613
 20
576.5364028351737
 30
0.0
  0
SPLINE
  5
16D
330
1F
100
AcDbEntity
  8
0
  6
CONTINUOUS
 62
     7
100
AcDbSpline
210
0.0
220
0.0
230
1.0
 70
     8
 71
     3
 72
    11
 73
     7
 74
     0
 42
0.00000001
 43
0.00000001
 40
0.0
 40
0.0
 40
0.0
 40
0.0
 40
0.2857230151968594
 40
0.5714373000214055
 40
0.8571463426424761
 40
1.0
 40
1.0
 40
1.0
 40
1.0
 10
583.7159819634613
 20
382.9585470097496
 30
0.0
 10
585.097963815446
 20
383.0791920094085
 30
0.0
 10
587.8618852924491
 20
383.3204783223741
 30
0.0
 10
590.31693187816
 20
383.5343478126474
 30
0.0
 10
591.5764526803073
 20
383.6440311565963
 30
0.0
 10
591.4819898180779
 20
383.6358050101201
 30
0.0
 10
591.4505023242883
 20
383.6330629723503
 30
0.0
  0
SPLINE
  5
16E
330
1F
100
AcDbEntity
  8
0
  6
CONTINUOUS
 62
     7
100
AcDbSpline
210
0.0
220
0.0
230
1.0
 70
     8
 71
     3
 72
    11
 73
     7
 74
     0
 42
0.00000001
 43
0.00000001
 40
0.0
 40
0.0
 40
0.0
 40
0.0
 40
0.2855341691693749
 40
0.5709788956923055
 40
0.8568014665755074
 40
0.9999999999999999
 40
0.9999999999999999
 40
0.9999999999999999
 40
0.9999999999999999
 10
581.5477531136927
 20
578.7281550305321
 30
0.0
 10
582.9266359406279
 20
578.6075175440633
 30
0.0
 10
585.6839696639538
 20
578.3662803604248
 30
0.0
 10
588.1311761984368
 20
578.1521771871697
 30
0.0
 10
589.3831875560472
 20
578.0426416965438
 30
0.0
 10
589.2890891184373
 20
578.0508757926738
 30
0.0
 10
589.2576809706144
 20
578.0536241667702
 30
0.0
  0
SPLINE
  5
16F
330
1F
100
AcDbEntity
  8
0
  6
CONTINUOUS
 62
     7
100
AcDbSpline
210
0.0
220
0.0
230
1.0
 70
     8
 71
     3
 72
    11
 73
     7
 74
     0
 42
0.00000001
 43
0.00000001
 40
0.0
 40
0.0
 40
0.0
 40
0.0
 40
0.1431963689933865
 40
0.4290167949288071
 40
0.7144622179108086
 40
1.0
 40
1.0
 40
1.0
 40
1.0
 10
589.2576809706144
 20
381.4413256781531
 30
0.0
 10
589.2891006733404
 20
381.4440740279679
 30
0.0
 10
589.383234206585
 20
381.4523080930994
 30
0.0
 10
588.1312437675846
 20
381.3427718435788
 30
0.0
 10
585.6840149497915
 20
381.1286677952162
 30
0.0
 10
582.9266557308199
 20
380.8874321483173
 30
0.0
 10
581.5477531136927
 20
380.7667948143912
 30
0.0
  0
LINE
  5
170
330
1F
100
AcDbEntity
  8
0
  6
CONTINUOUS
 62
     7
100
AcDbLine
 10
584.1716799619
 20
386.6974718707
 30
0.0
 11
584.1514926137
 21
386.6974718707
 31
0.0
  0
SPLINE
  5
171
330
1F
100
AcDbEntity
  8
0
  6
CONTINUOUS
 62
     7
100
AcDbSpline
210
0.0
220
0.0
230
1.0
 70
     8
 71
     3
 72
    12
 73
     8
 74
     0
 42
0.00000001
 43
0.00000001
 40
0.0
 40
0.0
 40
0.0
 40
0.0
 40
0.2122109113932172
 40
0.4243915157221155
 40
0.6374628892443188
 40
0.8524198527777113
 40
1.0
 40
1.0
 40
1.0
 40
1.0
 10
584.1716799618658
 20
386.6974718707038
 30
0.0
 10
584.1731059638724
 20
386.5914082979658
 30
0.0
 10
584.1759577642301
 20
386.3792963000403
 30
0.0
 10
584.1981477234639
 20
386.0963111243875
 30
0.0
 10
584.2307946138926
 20
385.881418119523
 30
0.0
 10
584.2674018627375
 20
385.7646656282755
 30
0.0
 10
584.2918157525958
 20
385.7524505897921
 30
0.0
 10
584.3017540605721
 20
385.7474781411124
 30
0.0
  0
LINE
  5
172
330
1F
100
AcDbEntity
  8
0
  6
CONTINUOUS
 62
     7
100
AcDbLine
 10
584.3017540606
 20
385.7474781411
 30
0.0
 11
584.2815685751
 21
385.7474781411
 31
0.0
  0
LINE
  5
173
330
1F
100
AcDbEntity
  8
0
  6
CONTINUOUS
 62
     7
100
AcDbLine
 10
584.1716799619
 20
572.7974779742
 30
0.0
 11
584.1716799619
 21
386.6974718707
 31
0.0
  0
SPLINE
  5
174
330
1F
100
AcDbEntity
  8
0
  6
CONTINUOUS
 62
     7
100
AcDbSpline
210
0.0
220
0.0
230
1.0
 70
     8
 71
     3
 72
    12
 73
     8
 74
     0
 42
0.00000001
 43
0.00000001
 40
0.0
 40
0.0
 40
0.0
 40
0.0
 40
0.2171985882677428
 40
0.43443368494034
 40
0.6507518208223858
 40
0.8651571057306077
 40
1.0
 40
1.0
 40
1.0
 40
1.0
 10
584.3017540605721
 20
573.7474717038109
 30
0.0
 10
584.2870803357471
 20
573.7368310582397
 30
0.0
 10
584.257730419625
 20
573.7155479785357
 30
0.0
 10
584.2185067714635
 20
573.5493840543488
 30
0.0
 10
584.1890285649627
 20
573.3052650347092
 30
0.0
 10
584.1737785671584
 20
573.0386109019042
 30
0.0
 10
584.1722645254471
 20
572.8646452153775
 30
0.0
 10
584.1716799618658
 20
572.7974779742195
 30
0.0
  0
LINE
  5
175
330
1F
100
AcDbEntity
  8
0
  6
CONTINUOUS
 62
     7
100
AcDbLine
 10
591.6319034727
 20
573.7474717038
 30
0.0
 11
584.3017540606
 21
573.7474717038
 31
0.0
  0
LINE
  5
176
330
1F
100
AcDbEntity
  8
0
  6
CONTINUOUS
 62
     7
100
AcDbLine
 10
584.3017540606
 20
385.7474781411
 30
0.0
 11
591.6319034727
 21
385.7474781411
 31
0.0
  0
LINE
  5
177
330
1F
100
AcDbEntity
  8
0
  6
CONTINUOUS
 62
     7
100
AcDbLine
 10
584.1716799619
 20
572.7974779742
 30
0.0
 11
584.1514926137
 21
572.7974779742
 31
0.0
  0
LINE
  5
178
330
1F
100
AcDbEntity
  8
0
  6
CONTINUOUS
 62
     7
100
AcDbLine
 10
584.3017540606
 20
573.7474717038
 30
0.0
 11
584.2815685751
 21
573.7474717038
 31
0.0
  0
LINE
  5
179
330
1F
100
AcDbEntity
  8
0
  6
CONTINUOUS
 62
     7
100
AcDbLine
 10
573.6800517621
 20
370.2298335569
 30
0.0
 11
575.6119034918
 21
370.7474775451
 31
0.0
  0
LINE
  5
17A
330
1F
100
AcDbEntity
  8
0
  6
CONTINUOUS
 62
     7
100
AcDbLine
 10
573.5413508223
 20
370.7474775451
 30
0.0
 11
573.6800517621
 21
370.2298335569
 31
0.0
  0
LWPOLYLINE
  5
17B
330
1F
100
AcDbEntity
  8
0
  6
CONTINUOUS
 62
     7
100
AcDbPolyline
 90
        9
 70
   128
 43
0.0
 10
575.6119034918
 20
370.7474775451
 10
576.1168339955
 20
368.8630468982
 10
576.6023613246
 20
367.0510358947
 10
577.0498245688
 20
365.3810776608
 10
577.442030582
 20
363.9173514979
 10
577.763904977
 20
362.7160943883
 10
578.0030797901
 20
361.8234850305
 10
578.1503628673
 20
361.2738184469
 10
578.2000936301
 20
361.0882170337
  0
LWPOLYLINE
  5
17C
330
1F
100
AcDbEntity
  8
0
  6
CONTINUOUS
 62
     7
100
AcDbPolyline
 90
        9
 70
   128
 43
0.0
 10
573.6800517621
 20
370.2298335569
 10
574.1849822657
 20
368.3454103606
 10
574.6705095949
 20
366.5333993571
 10
575.1179737704
 20
364.8634411233
 10
575.5101788523
 20
363.3997075098
 10
575.8320532473
 20
362.1984578507
 10
576.0712280603
 20
361.3058484929
 10
576.2185111376
 20
360.7561819094
 10
576.2682419004
 20
360.5705804961
  0
LINE
  5
17D
330
1F
100
AcDbEntity
  8
0
  6
CONTINUOUS
 62
     7
100
AcDbLine
 10
565.6119034825
 20
387.2474737304
 30
0.0
 11
565.1119034005
 21
387.2474737304
 31
0.0
  0
LINE
  5
17E
330
1F
100
AcDbEntity
  8
0
  6
CONTINUOUS
 62
     7
100
AcDbLine
 10
565.6119034825
 20
572.2474761146
 30
0.0
 11
565.1119034005
 21
572.2474761146
 31
0.0
  0
LINE
  5
17F
330
1F
100
AcDbEntity
  8
0
  6
CONTINUOUS
 62
     7
100
AcDbLine
 10
433.6408904233
 20
678.8430012326
 30
0.0
 11
424.640894536
 21
678.8430012326
 31
0.0
  0
LINE
  5
180
330
1F
100
AcDbEntity
  8
0
  6
CONTINUOUS
 62
     7
100
AcDbLine
 10
246.6408914366
 20
678.8430012326
 30
0.0
 11
237.6408955493
 21
678.8430012326
 31
0.0
  0
LINE
  5
181
330
1F
100
AcDbEntity
  8
0
  6
CONTINUOUS
 62
     7
100
AcDbLine
 10
214.5287400522
 20
682.1222625236
 30
0.0
 11
212.7122885027
 21
680.0758264522
 31
0.0
  0
LINE
  5
182
330
1F
100
AcDbEntity
  8
0
  6
CONTINUOUS
 62
     7
100
AcDbLine
 10
458.5695272722
 20
680.0758264522
 30
0.0
 11
456.753053371
 21
682.1222606609
 31
0.0
  0
LINE
  5
183
330
1F
100
AcDbEntity
  8
0
  6
CONTINUOUS
 62
     7
100
AcDbLine
 10
214.5287326016
 20
682.1222606609
 30
0.0
 11
212.7122587004
 21
680.0758264522
 31
0.0
  0
LINE
  5
184
330
1F
100
AcDbEntity
  8
0
  6
CONTINUOUS
 62
     7
100
AcDbLine
 10
231.1408898273
 20
657.3430014337
 30
0.0
 11
231.1408898273
 21
661.8430014728
 31
0.0
  0
LINE
  5
185
330
1F
100
AcDbEntity
  8
0
  6
CONTINUOUS
 62
     7
100
AcDbLine
 10
212.1408960261
 20
657.3430014337
 30
0.0
 11
231.1408898273
 21
657.3430014337
 31
0.0
  0
LINE
  5
186
330
1F
100
AcDbEntity
  8
0
  6
CONTINUOUS
 62
     7
100
AcDbLine
 10
212.1408960261
 20
657.3430014337
 30
0.0
 11
212.1408960261
 21
661.8430014728
 31
0.0
  0
LINE
  5
187
330
1F
100
AcDbEntity
  8
0
  6
CONTINUOUS
 62
     7
100
AcDbLine
 10
212.1408960261
 20
661.8430014728
 30
0.0
 11
231.1408898273
 21
661.8430014728
 31
0.0
  0
LINE
  5
188
330
1F
100
AcDbEntity
  8
0
  6
CONTINUOUS
 62
     7
100
AcDbLine
 10
440.1408961453
 20
657.3430014337
 30
0.0
 11
440.1408961453
 21
661.8430014728
 31
0.0
  0
LINE
  5
189
330
1F
100
AcDbEntity
  8
0
  6
CONTINUOUS
 62
     7
100
AcDbLine
 10
231.1408898273
 20
657.3430014337
 30
0.0
 11
440.1408961453
 21
657.3430014337
 31
0.0
  0
LINE
  5
18A
330
1F
100
AcDbEntity
  8
0
  6
CONTINUOUS
 62
     7
100
AcDbLine
 10
231.1408898273
 20
661.8430014728
 30
0.0
 11
440.1408961453
 21
661.8430014728
 31
0.0
  0
LINE
  5
18B
330
1F
100
AcDbEntity
  8
0
  6
CONTINUOUS
 62
     7
100
AcDbLine
 10
459.1408899465
 20
657.3430014337
 30
0.0
 11
459.1408899465
 21
661.8430014728
 31
0.0
  0
LINE
  5
18C
330
1F
100
AcDbEntity
  8
0
  6
CONTINUOUS
 62
     7
100
AcDbLine
 10
440.1408961453
 20
657.3430014337
 30
0.0
 11
459.1408899465
 21
657.3430014337
 31
0.0
  0
LINE
  5
18D
330
1F
100
AcDbEntity
  8
0
  6
CONTINUOUS
 62
     7
100
AcDbLine
 10
440.1408961453
 20
661.8430014728
 30
0.0
 11
459.1408899465
 21
661.8430014728
 31
0.0
  0
LINE
  5
18E
330
1F
100
AcDbEntity
  8
0
  6
CONTINUOUS
 62
     7
100
AcDbLine
 10
228.1408911982
 20
664.8430014989
 30
0.0
 11
443.1408947744
 21
664.8430014989
 31
0.0
  0
LINE
  5
18F
330
1F
100
AcDbEntity
  8
0
  6
CONTINUOUS
 62
     7
100
AcDbLine
 10
214.640893642
 20
664.8430014989
 30
0.0
 11
228.1408911982
 21
664.8430014989
 31
0.0
  0
LINE
  5
190
330
1F
100
AcDbEntity
  8
0
  6
CONTINUOUS
 62
     7
100
AcDbLine
 10
214.640893642
 20
665.3430015809
 30
0.0
 11
214.640893642
 21
664.8430014989
 31
0.0
  0
LINE
  5
191
330
1F
100
AcDbEntity
  8
0
  6
CONTINUOUS
 62
     7
100
AcDbLine
 10
456.6408923307
 20
665.3430015809
 30
0.0
 11
456.6408923307
 21
664.8430014989
 31
0.0
  0
LINE
  5
192
330
1F
100
AcDbEntity
  8
0
  6
CONTINUOUS
 62
     7
100
AcDbLine
 10
443.1408947744
 20
664.8430014989
 30
0.0
 11
456.6408923307
 21
664.8430014989
 31
0.0
  0
LINE
  5
193
330
1F
100
AcDbEntity
  8
0
  6
CONTINUOUS
 62
     7
100
AcDbLine
 10
424.640894536
 20
678.8430012326
 30
0.0
 11
424.640894536
 21
677.6543290849
 31
0.0
  0
LINE
  5
194
330
1F
100
AcDbEntity
  8
0
  6
CONTINUOUS
 62
     7
100
AcDbLine
 10
433.6408904233
 20
678.8430012326
 30
0.0
 11
433.6408904233
 21
677.6543290849
 31
0.0
  0
LINE
  5
195
330
1F
100
AcDbEntity
  8
0
  6
CONTINUOUS
 62
     7
100
AcDbLine
 10
246.6408914366
 20
678.8430012326
 30
0.0
 11
246.6408914366
 21
677.6543290849
 31
0.0
  0
LINE
  5
196
330
1F
100
AcDbEntity
  8
0
  6
CONTINUOUS
 62
     7
100
AcDbLine
 10
237.6408955493
 20
678.8430012326
 30
0.0
 11
237.6408955493
 21
677.6543290849
 31
0.0
  0
LINE
  5
197
330
1F
100
AcDbEntity
  8
0
  6
CONTINUOUS
 62
     7
100
AcDbLine
 10
440.1408961453
 20
664.8430014989
 30
0.0
 11
440.1408961453
 21
661.8430014728
 31
0.0
  0
LINE
  5
198
330
1F
100
AcDbEntity
  8
0
  6
CONTINUOUS
 62
     7
100
AcDbLine
 10
231.1408898273
 20
664.8430014989
 30
0.0
 11
231.1408898273
 21
661.8430014728
 31
0.0
  0
LINE
  5
199
330
1F
100
AcDbEntity
  8
0
  6
CONTINUOUS
 62
     7
100
AcDbLine
 10
226.1408945956
 20
664.8430014989
 30
0.0
 11
226.1408945956
 21
661.8430014728
 31
0.0
  0
LINE
  5
19A
330
1F
100
AcDbEntity
  8
0
  6
CONTINUOUS
 62
     7
100
AcDbLine
 10
445.140891377
 20
664.8430014989
 30
0.0
 11
445.140891377
 21
661.8430014728
 31
0.0
  0
LINE
  5
19B
330
1F
100
AcDbEntity
  8
0
  6
CONTINUOUS
 62
     7
100
AcDbLine
 10
252.1408951321
 20
673.4111498604
 30
0.0
 11
252.1408951321
 21
675.3430015902
 31
0.0
  0
LWPOLYLINE
  5
19C
330
1F
100
AcDbEntity
  8
0
  6
CONTINUOUS
 62
     7
100
AcDbPolyline
 90
       17
 70
   128
 43
0.0
 10
232.1408918538
 20
673.4111498604
 10
232.3330423274
 20
673.9160803641
 10
232.9020953217
 20
674.4016076933
 10
233.8261982837
 20
674.8490718688
 10
235.0698268452
 20
675.2412769507
 10
236.5851929822
 20
675.5631513457
 10
238.3140555062
 20
675.8023261587
 10
240.1899924913
 20
675.9496092359
 10
242.1408897677
 20
675.9993399988
 10
244.0917944946
 20
675.9496092359
 10
245.9677240291
 20
675.8023261587
 10
247.6965940037
 20
675.5631513457
 10
249.2119601407
 20
675.2412769507
 10
250.4555887022
 20
674.8490718688
 10
251.3796916642
 20
674.4016076933
 10
251.9487446585
 20
673.9160803641
 10
252.1408951321
 20
673.4111498604
  0
LINE
  5
19D
330
1F
100
AcDbEntity
  8
0
  6
CONTINUOUS
 62
     7
100
AcDbLine
 10
232.1408918538
 20
673.4111498604
 30
0.0
 11
232.1408918538
 21
675.3430015902
 31
0.0
  0
LWPOLYLINE
  5
19E
330
1F
100
AcDbEntity
  8
0
  6
CONTINUOUS
 62
     7
100
AcDbPolyline
 90
       17
 70
   128
 43
0.0
 10
232.1408918538
 20
675.3430015902
 10
232.3330423274
 20
675.8479320939
 10
232.9020953217
 20
676.333459423
 10
233.8261982837
 20
676.7809226672
 10
235.0698268452
 20
677.1731286804
 10
236.5851929822
 20
677.4950030754
 10
238.3140555062
 20
677.7341778885
 10
240.1899924913
 20
677.8814609657
 10
242.1408897677
 20
677.9311917285
 10
244.0917944946
 20
677.8814609657
 10
245.9677240291
 20
677.7341778885
 10
247.6965940037
 20
677.4950030754
 10
249.2119601407
 20
677.1731286804
 10
250.4555887022
 20
676.7809226672
 10
251.3796916642
 20
676.333459423
 10
251.9487446585
 20
675.8479320939
 10
252.1408951321
 20
675.3430015902
  0
LINE
  5
19F
330
1F
100
AcDbEntity
  8
0
  6
CONTINUOUS
 62
     7
100
AcDbLine
 10
439.1408941188
 20
673.4111498604
 30
0.0
 11
439.1408941188
 21
675.3430015902
 31
0.0
  0
LWPOLYLINE
  5
1A0
330
1F
100
AcDbEntity
  8
0
  6
CONTINUOUS
 62
     7
100
AcDbPolyline
 90
       17
 70
   128
 43
0.0
 10
419.1408908405
 20
673.4111498604
 10
419.3330413141
 20
673.9160803641
 10
419.9020943084
 20
674.4016076933
 10
420.8261972704
 20
674.8490718688
 10
422.0698258319
 20
675.2412769507
 10
423.5851919689
 20
675.5631513457
 10
425.3140619435
 20
675.8023261587
 10
427.189991478
 20
675.9496092359
 10
429.140896205
 20
675.9993399988
 10
431.0917934814
 20
675.9496092359
 10
432.9677304664
 20
675.8023261587
 10
434.6965929904
 20
675.5631513457
 10
436.2119591274
 20
675.2412769507
 10
437.4555876889
 20
674.8490718688
 10
438.3796906509
 20
674.4016076933
 10
438.9487436452
 20
673.9160803641
 10
439.1408941188
 20
673.4111498604
  0
LINE
  5
1A1
330
1F
100
AcDbEntity
  8
0
  6
CONTINUOUS
 62
     7
100
AcDbLine
 10
419.1408908405
 20
673.4111498604
 30
0.0
 11
419.1408908405
 21
675.3430015902
 31
0.0
  0
LWPOLYLINE
  5
1A2
330
1F
100
AcDbEntity
  8
0
  6
CONTINUOUS
 62
     7
100
AcDbPolyline
 90
       17
 70
   128
 43
0.0
 10
419.1408908405
 20
675.3430015902
 10
419.3330413141
 20
675.8479320939
 10
419.9020943084
 20
676.333459423
 10
420.8261972704
 20
676.7809226672
 10
422.0698258319
 20
677.1731286804
 10
423.5851919689
 20
677.4950030754
 10
425.3140619435
 20
677.7341778885
 10
427.189991478
 20
677.8814609657
 10
429.140896205
 20
677.9311917285
 10
431.0917934814
 20
677.8814609657
 10
432.9677304664
 20
677.7341778885
 10
434.6965929904
 20
677.4950030754
 10
436.2119591274
 20
677.1731286804
 10
437.4555876889
 20
676.7809226672
 10
438.3796906509
 20
676.333459423
 10
438.9487436452
 20
675.8479320939
 10
439.1408941188
 20
675.3430015902
  0
LINE
  5
1A3
330
1F
100
AcDbEntity
  8
0
  6
CONTINUOUS
 62
     7
100
AcDbLine
 10
232.1408918538
 20
673.2724489207
 30
0.0
 11
232.1408918538
 21
673.4111498604
 31
0.0
  0
LINE
  5
1A4
330
1F
100
AcDbEntity
  8
0
  6
CONTINUOUS
 62
     7
100
AcDbLine
 10
252.1408951321
 20
673.4111498604
 30
0.0
 11
252.1408951321
 21
673.2724489207
 31
0.0
  0
LINE
  5
1A5
330
1F
100
AcDbEntity
  8
0
  6
CONTINUOUS
 62
     7
100
AcDbLine
 10
252.1408951321
 20
673.2724489207
 30
0.0
 11
232.1408918538
 21
673.2724489207
 31
0.0
  0
LINE
  5
1A6
330
1F
100
AcDbEntity
  8
0
  6
CONTINUOUS
 62
     7
100
AcDbLine
 10
439.1408941188
 20
673.4111498604
 30
0.0
 11
439.1408941188
 21
673.2724489207
 31
0.0
  0
LINE
  5
1A7
330
1F
100
AcDbEntity
  8
0
  6
CONTINUOUS
 62
     7
100
AcDbLine
 10
419.1408908405
 20
673.2724489207
 30
0.0
 11
439.1408941188
 21
673.2724489207
 31
0.0
  0
LINE
  5
1A8
330
1F
100
AcDbEntity
  8
0
  6
CONTINUOUS
 62
     7
100
AcDbLine
 10
419.1408908405
 20
673.2724489207
 30
0.0
 11
419.1408908405
 21
673.4111498604
 31
0.0
  0
LINE
  5
1A9
330
1F
100
AcDbEntity
  8
0
  6
CONTINUOUS
 62
     7
100
AcDbLine
 10
252.1408951321
 20
675.3430015902
 30
0.0
 11
419.1408908405
 21
675.3430015902
 31
0.0
  0
LINE
  5
1AA
330
1F
100
AcDbEntity
  8
0
  6
CONTINUOUS
 62
     7
100
AcDbLine
 10
439.1408941188
 20
675.3430015902
 30
0.0
 11
450.5357822814
 21
675.3430015902
 31
0.0
  0
LINE
  5
1AB
330
1F
100
AcDbEntity
  8
0
  6
CONTINUOUS
 62
     7
100
AcDbLine
 10
450.5357822814
 20
675.3430015902
 30
0.0
 11
450.5357822814
 21
665.3430015809
 31
0.0
  0
LINE
  5
1AC
330
1F
100
AcDbEntity
  8
0
  6
CONTINUOUS
 62
     7
100
AcDbLine
 10
220.7460036912
 20
665.3430015809
 30
0.0
 11
450.5357822814
 21
665.3430015809
 31
0.0
  0
LINE
  5
1AD
330
1F
100
AcDbEntity
  8
0
  6
CONTINUOUS
 62
     7
100
AcDbLine
 10
220.7460036912
 20
675.3430015902
 30
0.0
 11
220.7460036912
 21
665.3430015809
 31
0.0
  0
LINE
  5
1AE
330
1F
100
AcDbEntity
  8
0
  6
CONTINUOUS
 62
     7
100
AcDbLine
 10
220.7460036912
 20
675.3430015902
 30
0.0
 11
232.1408918538
 21
675.3430015902
 31
0.0
  0
LINE
  5
1AF
330
1F
100
AcDbEntity
  8
0
  6
CONTINUOUS
 62
     7
100
AcDbLine
 10
210.6408929863
 20
665.3430015809
 30
0.0
 11
220.7460036912
 21
665.3430015809
 31
0.0
  0
LINE
  5
1B0
330
1F
100
AcDbEntity
  8
0
  6
CONTINUOUS
 62
     7
100
AcDbLine
 10
212.0463034549
 20
675.3430015902
 30
0.0
 11
210.6408929863
 21
665.3430015809
 31
0.0
  0
LINE
  5
1B1
330
1F
100
AcDbEntity
  8
0
  6
CONTINUOUS
 62
     7
100
AcDbLine
 10
212.0463034549
 20
675.3430015902
 30
0.0
 11
220.7460036912
 21
675.3430015902
 31
0.0
  0
LINE
  5
1B2
330
1F
100
AcDbEntity
  8
0
  6
CONTINUOUS
 62
     7
100
AcDbLine
 10
450.5357822814
 20
665.3430015809
 30
0.0
 11
460.6408929863
 21
665.3430015809
 31
0.0
  0
LINE
  5
1B3
330
1F
100
AcDbEntity
  8
0
  6
CONTINUOUS
 62
     7
100
AcDbLine
 10
459.2354825177
 20
675.3430015902
 30
0.0
 11
460.6408929863
 21
665.3430015809
 31
0.0
  0
LINE
  5
1B4
330
1F
100
AcDbEntity
  8
0
  6
CONTINUOUS
 62
     7
100
AcDbLine
 10
450.5357822814
 20
675.3430015902
 30
0.0
 11
459.2354825177
 21
675.3430015902
 31
0.0
  0
LINE
  5
1B5
330
1F
100
AcDbEntity
  8
0
  6
CONTINUOUS
 62
     7
100
AcDbLine
 10
223.8538941779
 20
681.2788512121
 30
0.0
 11
223.0196675696
 21
675.3430015902
 31
0.0
  0
SPLINE
  5
1B6
330
1F
100
AcDbEntity
  8
0
  6
CONTINUOUS
 62
     7
100
AcDbSpline
210
0.0
220
0.0
230
1.0
 70
     8
 71
     3
 72
    14
 73
    10
 74
     0
 42
0.00000001
 43
0.00000001
 40
0.0
 40
0.0
 40
0.0
 40
0.0
 40
0.1427670825459981
 40
0.2854894437694127
 40
0.428400727170265
 40
0.5715981783792213
 40
0.7145083933876542
 40
0.8572311069166999
 40
0.9999999999999999
 40
0.9999999999999999
 40
0.9999999999999999
 40
0.9999999999999999
 10
447.4278917946876
 20
681.278851212084
 30
0.0
 10
436.8417055661066
 20
682.6542114302356
 30
0.0
 10
415.6726491972252
 20
685.4045010394401
 30
0.0
 10
383.7271083596763
 20
687.9045490450577
 30
0.0
 10
351.6845158470335
 20
689.2063186957326
 30
0.0
 10
319.5975924635157
 20
689.2063653224681
 30
0.0
 10
287.5550516240313
 20
687.9046171694331
 30
0.0
 10
255.6094305256582
 20
685.4045460167658
 30
0.0
 10
234.440214365878
 20
682.6542311055894
 30
0.0
 10
223.8538941779197
 20
681.278851212084
 30
0.0
  0
LINE
  5
1B7
330
1F
100
AcDbEntity
  8
0
  6
CONTINUOUS
 62
     7
100
AcDbLine
 10
448.262118403
 20
675.3430015902
 30
0.0
 11
447.4278917947
 21
681.2788512121
 31
0.0
  0
LINE
  5
1B8
330
1F
100
AcDbEntity
  8
0
  6
CONTINUOUS
 62
     7
100
AcDbLine
 10
212.0463034549
 20
675.3430015902
 30
0.0
 11
212.7109846511
 21
680.0724476139
 31
0.0
  0
SPLINE
  5
1B9
330
1F
100
AcDbEntity
  8
0
  6
CONTINUOUS
 62
     7
100
AcDbSpline
210
0.0
220
0.0
230
1.0
 70
     8
 71
     3
 72
    15
 73
    11
 74
     0
 42
0.00000001
 43
0.00000001
 40
0.0
 40
0.0
 40
0.0
 40
0.0
 40
0.1358363425500982
 40
0.2577000197996531
 40
0.3742097294418092
 40
0.4976502994895605
 40
0.6260186218443582
 40
0.7523442936302728
 40
0.8769074975258083
 40
1.0
 40
1.0
 40
1.0
 40
1.0
 10
223.8538941779197
 20
681.278851212084
 30
0.0
 10
223.072667044011
 20
681.2101904261779
 30
0.0
 10
221.5905728997136
 20
681.0799315753043
 30
0.0
 10
219.5218346670401
 20
680.8824764956281
 30
0.0
 10
217.6647514180387
 20
680.6954429411943
 30
0.0
 10
215.9865036082985
 20
680.5155662393536
 30
0.0
 10
214.5603183828276
 20
680.3539589560799
 30
0.0
 10
213.5061827141769
 20
680.2217607961015
 30
0.0
 10
212.8384886700631
 20
680.1203130300514
 30
0.0
 10
212.7533173944389
 20
680.0883394610194
 30
0.0
 10
212.7109846510947
 20
680.0724476138946
 30
0.0
  0
SPLINE
  5
1BA
330
1F
100
AcDbEntity
  8
0
  6
CONTINUOUS
 62
     7
100
AcDbSpline
210
0.0
220
0.0
230
1.0
 70
     8
 71
     3
 72
    16
 73
    12
 74
     0
 42
0.00000001
 43
0.00000001
 40
0.0
 40
0.0
 40
0.0
 40
0.0
 40
0.12294498059664
 40
0.2473616782727708
 40
0.3735421733711491
 40
0.4374647525939054
 40
0.5019337713841562
 40
0.6095641830954031
 40
0.7283966273423135
 40
0.858520424137373
 40
1.0
 40
1.0
 40
1.0
 40
1.0
 10
458.5708013215125
 20
680.0724476138946
 30
0.0
 10
458.5285560437075
 20
680.0882816829953
 30
0.0
 10
458.44355978956
 20
680.1201393634607
 30
0.0
 10
457.777329124691
 20
680.2213811261576
 30
0.0
 10
456.9035744077208
 20
680.3310720005977
 30
0.0
 10
456.0084624475326
 20
680.434644515668
 30
0.0
 10
455.0741115483706
 20
680.5386456422056
 30
0.0
 10
453.7633992242451
 20
680.6828508230865
 30
0.0
 10
451.9553243675374
 20
680.8687039755617
 30
0.0
 10
449.8044235543006
 20
681.0709766621407
 30
0.0
 10
448.2418462476091
 20
681.2076548500362
 30
0.0
 10
447.4278917946876
 20
681.278851212084
 30
0.0
  0
LINE
  5
1BB
330
1F
100
AcDbEntity
  8
0
  6
CONTINUOUS
 62
     7
100
AcDbLine
 10
458.5708013215
 20
680.0724476139
 30
0.0
 11
459.2354825177
 21
675.3430015902
 31
0.0
  0
SPLINE
  5
1BC
330
1F
100
AcDbEntity
  8
0
  6
CONTINUOUS
 62
     7
100
AcDbSpline
210
0.0
220
0.0
230
1.0
 70
     8
 71
     3
 72
    13
 73
     9
 74
     0
 42
0.00000001
 43
0.00000001
 40
0.0
 40
0.0
 40
0.0
 40
0.0
 40
0.1245245389112358
 40
0.2507295187045644
 40
0.3760905835121315
 40
0.500948502331613
 40
0.7502628342978852
 40
1.0
 40
1.0
 40
1.0
 40
1.0
 10
214.5288592615188
 20
682.122284875333
 30
0.0
 10
214.5607626644713
 20
682.1271762421526
 30
0.0
 10
214.6250000022463
 20
682.1370249840891
 30
0.0
 10
215.1870791910589
 20
682.222919613347
 30
0.0
 10
216.0347439858894
 20
682.3516767395357
 30
0.0
 10
217.5593645191853
 20
682.5811767708979
 30
0.0
 10
220.0667849040235
 20
682.9536994329593
 30
0.0
 10
222.368176595551
 20
683.2825269831274
 30
0.0
 10
223.5198473968565
 20
683.4470800618526
 30
0.0
  0
LINE
  5
1BD
330
1F
100
AcDbEntity
  8
0
  6
CONTINUOUS
 62
     7
100
AcDbLine
 10
223.8538941779
 20
681.2788512121
 30
0.0
 11
223.5198473969
 21
683.4470800619
 31
0.0
  0
LINE
  5
1BE
330
1F
100
AcDbEntity
  8
0
  6
CONTINUOUS
 62
     7
100
AcDbLine
 10
447.4278917947
 20
681.2788512121
 30
0.0
 11
447.7619385758
 21
683.4470800619
 31
0.0
  0
SPLINE
  5
1BF
330
1F
100
AcDbEntity
  8
0
  6
CONTINUOUS
 62
     7
100
AcDbSpline
210
0.0
220
0.0
230
1.0
 70
     8
 71
     3
 72
    13
 73
     9
 74
     0
 42
0.00000001
 43
0.00000001
 40
0.0
 40
0.0
 40
0.0
 40
0.0
 40
0.2501660474141741
 40
0.4995973272583918
 40
0.6243337251447558
 40
0.7500514107068952
 40
0.8760363644530819
 40
1.0
 40
1.0
 40
1.0
 40
1.0
 10
447.7619385757507
 20
683.4470800618526
 30
0.0
 10
448.9156553084189
 20
683.2822320762541
 30
0.0
 10
451.2197001698709
 20
682.9530202832859
 30
0.0
 10
453.7273424125431
 20
682.5804388367604
 30
0.0
 10
455.2511585959205
 20
682.3510565156821
 30
0.0
 10
456.095797479537
 20
682.2227490976286
 30
0.0
 10
456.6570749126232
 20
682.136981550291
 30
0.0
 10
456.7211488321583
 20
682.1271572842493
 30
0.0
 10
456.7529267110885
 20
682.122284875333
 30
0.0
  0
SPLINE
  5
1C0
330
1F
100
AcDbEntity
  8
0
  6
CONTINUOUS
 62
     7
100
AcDbSpline
210
0.0
220
0.0
230
1.0
 70
     8
 71
     3
 72
    14
 73
    10
 74
     0
 42
0.00000001
 43
0.00000001
 40
0.0
 40
0.0
 40
0.0
 40
0.0
 40
0.1428615075984262
 40
0.2857186500106956
 40
0.4285731713212275
 40
0.5714268286787726
 40
0.7142813499893045
 40
0.8571384924015739
 40
1.0
 40
1.0
 40
1.0
 40
1.0
 10
223.5198473968566
 20
683.4470800618526
 30
0.0
 10
234.1449090178311
 20
684.8255137352469
 30
0.0
 10
255.3947076070961
 20
687.5823389634851
 30
0.0
 10
287.4484406455947
 20
690.0906058426809
 30
0.0
 10
319.5666128747139
 20
691.3997958898284
 30
0.0
 10
351.7151730978933
 20
691.3997958898284
 30
0.0
 10
383.8333453270125
 20
690.0906058426809
 30
0.0
 10
415.8870783655111
 20
687.5823389634851
 30
0.0
 10
437.1368769547761
 20
684.8255137352469
 30
0.0
 10
447.7619385757507
 20
683.4470800618526
 30
0.0
  0
LINE
  5
1C1
330
1F
100
AcDbEntity
  8
0
  6
CONTINUOUS
 62
     7
100
AcDbLine
 10
226.6408956089
 20
683.9027780603
 30
0.0
 11
226.6408956089
 21
683.8825907121
 31
0.0
  0
LINE
  5
1C2
330
1F
100
AcDbEntity
  8
0
  6
CONTINUOUS
 62
     7
100
AcDbLine
 10
227.5908893385
 20
684.032852159
 30
0.0
 11
227.5908893385
 21
684.0126666735
 31
0.0
  0
SPLINE
  5
1C3
330
1F
100
AcDbEntity
  8
0
  6
CONTINUOUS
 62
     7
100
AcDbSpline
210
0.0
220
0.0
230
1.0
 70
     8
 71
     3
 72
    12
 73
     8
 74
     0
 42
0.00000001
 43
0.00000001
 40
0.0
 40
0.0
 40
0.0
 40
0.0
 40
0.2122109113932172
 40
0.4243915157221155
 40
0.6374628892443188
 40
0.8524198527777113
 40
1.0
 40
1.0
 40
1.0
 40
1.0
 10
226.640895608908
 20
683.9027780602571
 30
0.0
 10
226.6512606329868
 20
683.9042040622637
 30
0.0
 10
226.6719892008555
 20
683.9070558626214
 30
0.0
 10
226.8334389796358
 20
683.9292458218553
 30
0.0
 10
227.0714821559044
 20
683.9618927122839
 30
0.0
 10
227.3390292467007
 20
683.9984999611289
 30
0.0
 10
227.5180246219155
 20
684.022913850987
 30
0.0
 10
227.5908893384994
 20
684.0328521589634
 30
0.0
  0
LINE
  5
1C4
330
1F
100
AcDbEntity
  8
0
  6
CONTINUOUS
 62
     7
100
AcDbLine
 10
443.6908966341
 20
684.032852159
 30
0.0
 11
443.6908966341
 21
684.0126666735
 31
0.0
  0
LINE
  5
1C5
330
1F
100
AcDbEntity
  8
0
  6
CONTINUOUS
 62
     7
100
AcDbLine
 10
444.6408903637
 20
683.9027780603
 30
0.0
 11
444.6408903637
 21
683.8825907121
 31
0.0
  0
SPLINE
  5
1C6
330
1F
100
AcDbEntity
  8
0
  6
CONTINUOUS
 62
     7
100
AcDbSpline
210
0.0
220
0.0
230
1.0
 70
     8
 71
     3
 72
    12
 73
     8
 74
     0
 42
0.00000001
 43
0.00000001
 40
0.0
 40
0.0
 40
0.0
 40
0.0
 40
0.2171985882677428
 40
0.43443368494034
 40
0.6507518208223858
 40
0.8651571057306077
 40
1.0
 40
1.0
 40
1.0
 40
1.0
 10
443.6908966341078
 20
684.0328521589634
 30
0.0
 10
443.7984477079659
 20
684.0181784341385
 30
0.0
 10
444.0135679336914
 20
683.9888285180162
 30
0.0
 10
444.2999595581607
 20
683.9496048698547
 30
0.0
 10
444.5147250787634
 20
683.9201266633539
 30
0.0
 10
444.6256364413643
 20
683.9048766655496
 30
0.0
 10
444.6366414048784
 20
683.9033626238385
 30
0.0
 10
444.6408903636992
 20
683.9027780602571
 30
0.0
  0
LINE
  5
1C7
330
1F
100
AcDbEntity
  8
0
  6
CONTINUOUS
 62
     7
100
AcDbLine
 10
443.1408947744
 20
665.3430015809
 30
0.0
 11
443.1408947744
 21
664.8430014989
 31
0.0
  0
LINE
  5
1C8
330
1F
100
AcDbEntity
  8
0
  6
CONTINUOUS
 62
     7
100
AcDbLine
 10
228.1408911982
 20
665.3430015809
 30
0.0
 11
228.1408911982
 21
664.8430014989
 31
0.0
  0
LINE
  5
1C9
330
1F
100
AcDbEntity
  8
0
  6
CONTINUOUS
 62
     7
100
AcDbLine
 10
432.140894834
 20
273.6730456824
 30
0.0
 11
432.6408958473
 21
273.6730456824
 31
0.0
  0
LINE
  5
1CA
330
1F
100
AcDbEntity
  8
0
  6
CONTINUOUS
 62
     7
100
AcDbLine
 10
442.6408937612
 20
273.6730456824
 30
0.0
 11
443.1408947744
 21
273.6730456824
 31
0.0
  0
LINE
  5
1CB
330
1F
100
AcDbEntity
  8
0
  6
CONTINUOUS
 62
     7
100
AcDbLine
 10
228.1408911982
 20
273.6730456824
 30
0.0
 11
228.6408922114
 21
273.6730456824
 31
0.0
  0
LINE
  5
1CC
330
1F
100
AcDbEntity
  8
0
  6
CONTINUOUS
 62
     7
100
AcDbLine
 10
238.6408901253
 20
273.6730456824
 30
0.0
 11
239.1408911386
 21
273.6730456824
 31
0.0
  0
LINE
  5
1CD
330
1F
100
AcDbEntity
  8
0
  6
CONTINUOUS
 62
     7
100
AcDbLine
 10
330.1408930161
 20
273.6730456824
 30
0.0
 11
330.6408930981
 21
273.6730456824
 31
0.0
  0
LINE
  5
1CE
330
1F
100
AcDbEntity
  8
0
  6
CONTINUOUS
 62
     7
100
AcDbLine
 10
340.6408928745
 20
273.6730456824
 30
0.0
 11
341.1408929565
 21
273.6730456824
 31
0.0
  0
LINE
  5
1CF
330
1F
100
AcDbEntity
  8
0
  6
CONTINUOUS
 62
     7
100
AcDbLine
 10
456.7530459204
 20
262.8937850247
 30
0.0
 11
458.5694974699
 21
264.9402210961
 31
0.0
  0
LINE
  5
1D0
330
1F
100
AcDbEntity
  8
0
  6
CONTINUOUS
 62
     7
100
AcDbLine
 10
212.7122587004
 20
264.9402210961
 30
0.0
 11
214.5287326016
 21
262.8937868873
 31
0.0
  0
LINE
  5
1D1
330
1F
100
AcDbEntity
  8
0
  6
CONTINUOUS
 62
     7
100
AcDbLine
 10
456.753053371
 20
262.8937868873
 30
0.0
 11
458.5695272722
 21
264.9402210961
 31
0.0
  0
LINE
  5
1D2
330
1F
100
AcDbEntity
  8
0
  6
CONTINUOUS
 62
     7
100
AcDbLine
 10
238.6408901253
 20
279.6730459674
 30
0.0
 11
228.6408922114
 21
279.6730459674
 31
0.0
  0
LINE
  5
1D3
330
1F
100
AcDbEntity
  8
0
  6
CONTINUOUS
 62
     7
100
AcDbLine
 10
238.6408901253
 20
274.17304623
 30
0.0
 11
228.6408922114
 21
274.17304623
 31
0.0
  0
LINE
  5
1D4
330
1F
100
AcDbEntity
  8
0
  6
CONTINUOUS
 62
     7
100
AcDbLine
 10
228.6408922114
 20
279.6730459674
 30
0.0
 11
228.6408922114
 21
274.17304623
 31
0.0
  0
LINE
  5
1D5
330
1F
100
AcDbEntity
  8
0
  6
CONTINUOUS
 62
     7
100
AcDbLine
 10
238.6408901253
 20
279.6730459674
 30
0.0
 11
238.6408901253
 21
274.17304623
 31
0.0
  0
LINE
  5
1D6
330
1F
100
AcDbEntity
  8
0
  6
CONTINUOUS
 62
     7
100
AcDbLine
 10
442.6408937612
 20
279.6730459674
 30
0.0
 11
432.6408958473
 21
279.6730459674
 31
0.0
  0
LINE
  5
1D7
330
1F
100
AcDbEntity
  8
0
  6
CONTINUOUS
 62
     7
100
AcDbLine
 10
442.6408937612
 20
274.17304623
 30
0.0
 11
432.6408958473
 21
274.17304623
 31
0.0
  0
LINE
  5
1D8
330
1F
100
AcDbEntity
  8
0
  6
CONTINUOUS
 62
     7
100
AcDbLine
 10
442.6408937612
 20
279.6730459674
 30
0.0
 11
442.6408937612
 21
274.17304623
 31
0.0
  0
LINE
  5
1D9
330
1F
100
AcDbEntity
  8
0
  6
CONTINUOUS
 62
     7
100
AcDbLine
 10
432.6408958473
 20
279.6730459674
 30
0.0
 11
432.6408958473
 21
274.17304623
 31
0.0
  0
LINE
  5
1DA
330
1F
100
AcDbEntity
  8
0
  6
CONTINUOUS
 62
     7
100
AcDbLine
 10
340.6408928745
 20
274.17304623
 30
0.0
 11
330.6408930981
 21
274.17304623
 31
0.0
  0
LINE
  5
1DB
330
1F
100
AcDbEntity
  8
0
  6
CONTINUOUS
 62
     7
100
AcDbLine
 10
340.6408928745
 20
279.6730459674
 30
0.0
 11
330.6408930981
 21
279.6730459674
 31
0.0
  0
LINE
  5
1DC
330
1F
100
AcDbEntity
  8
0
  6
CONTINUOUS
 62
     7
100
AcDbLine
 10
330.6408930981
 20
279.6730459674
 30
0.0
 11
330.6408930981
 21
274.17304623
 31
0.0
  0
LINE
  5
1DD
330
1F
100
AcDbEntity
  8
0
  6
CONTINUOUS
 62
     7
100
AcDbLine
 10
340.6408928745
 20
279.6730459674
 30
0.0
 11
340.6408928745
 21
274.17304623
 31
0.0
  0
LINE
  5
1DE
330
1F
100
AcDbEntity
  8
0
  6
CONTINUOUS
 62
     7
100
AcDbLine
 10
238.6408901253
 20
271.3730458642
 30
0.0
 11
228.6408922114
 21
271.3730458642
 31
0.0
  0
LINE
  5
1DF
330
1F
100
AcDbEntity
  8
0
  6
CONTINUOUS
 62
     7
100
AcDbLine
 10
228.6408922114
 20
274.17304623
 30
0.0
 11
228.6408922114
 21
271.3730458642
 31
0.0
  0
LINE
  5
1E0
330
1F
100
AcDbEntity
  8
0
  6
CONTINUOUS
 62
     7
100
AcDbLine
 10
238.6408901253
 20
274.17304623
 30
0.0
 11
238.6408901253
 21
271.3730458642
 31
0.0
  0
LINE
  5
1E1
330
1F
100
AcDbEntity
  8
0
  6
CONTINUOUS
 62
     7
100
AcDbLine
 10
442.6408937612
 20
271.3730458642
 30
0.0
 11
432.6408958473
 21
271.3730458642
 31
0.0
  0
LINE
  5
1E2
330
1F
100
AcDbEntity
  8
0
  6
CONTINUOUS
 62
     7
100
AcDbLine
 10
442.6408937612
 20
274.17304623
 30
0.0
 11
442.6408937612
 21
271.3730458642
 31
0.0
  0
LINE
  5
1E3
330
1F
100
AcDbEntity
  8
0
  6
CONTINUOUS
 62
     7
100
AcDbLine
 10
432.6408958473
 20
274.17304623
 30
0.0
 11
432.6408958473
 21
271.3730458642
 31
0.0
  0
LINE
  5
1E4
330
1F
100
AcDbEntity
  8
0
  6
CONTINUOUS
 62
     7
100
AcDbLine
 10
340.6408928745
 20
271.3730458642
 30
0.0
 11
330.6408930981
 21
271.3730458642
 31
0.0
  0
LINE
  5
1E5
330
1F
100
AcDbEntity
  8
0
  6
CONTINUOUS
 62
     7
100
AcDbLine
 10
330.6408930981
 20
274.17304623
 30
0.0
 11
330.6408930981
 21
271.3730458642
 31
0.0
  0
LINE
  5
1E6
330
1F
100
AcDbEntity
  8
0
  6
CONTINUOUS
 62
     7
100
AcDbLine
 10
340.6408928745
 20
274.17304623
 30
0.0
 11
340.6408928745
 21
271.3730458642
 31
0.0
  0
LINE
  5
1E7
330
1F
100
AcDbEntity
  8
0
  6
CONTINUOUS
 62
     7
100
AcDbLine
 10
231.1408898273
 20
287.6730461146
 30
0.0
 11
231.1408898273
 21
283.1730460754
 31
0.0
  0
LINE
  5
1E8
330
1F
100
AcDbEntity
  8
0
  6
CONTINUOUS
 62
     7
100
AcDbLine
 10
440.1408961453
 20
287.6730461146
 30
0.0
 11
231.1408898273
 21
287.6730461146
 31
0.0
  0
LINE
  5
1E9
330
1F
100
AcDbEntity
  8
0
  6
CONTINUOUS
 62
     7
100
AcDbLine
 10
440.1408961453
 20
287.6730461146
 30
0.0
 11
440.1408961453
 21
283.1730460754
 31
0.0
  0
LINE
  5
1EA
330
1F
100
AcDbEntity
  8
0
  6
CONTINUOUS
 62
     7
100
AcDbLine
 10
440.1408961453
 20
283.1730460754
 30
0.0
 11
231.1408898273
 21
283.1730460754
 31
0.0
  0
LINE
  5
1EB
330
1F
100
AcDbEntity
  8
0
  6
CONTINUOUS
 62
     7
100
AcDbLine
 10
212.1408960261
 20
287.6730461146
 30
0.0
 11
212.1408960261
 21
283.1730460754
 31
0.0
  0
LINE
  5
1EC
330
1F
100
AcDbEntity
  8
0
  6
CONTINUOUS
 62
     7
100
AcDbLine
 10
231.1408898273
 20
287.6730461146
 30
0.0
 11
212.1408960261
 21
287.6730461146
 31
0.0
  0
LINE
  5
1ED
330
1F
100
AcDbEntity
  8
0
  6
CONTINUOUS
 62
     7
100
AcDbLine
 10
231.1408898273
 20
283.1730460754
 30
0.0
 11
212.1408960261
 21
283.1730460754
 31
0.0
  0
LINE
  5
1EE
330
1F
100
AcDbEntity
  8
0
  6
CONTINUOUS
 62
     7
100
AcDbLine
 10
459.1408899465
 20
287.6730461146
 30
0.0
 11
459.1408899465
 21
283.1730460754
 31
0.0
  0
LINE
  5
1EF
330
1F
100
AcDbEntity
  8
0
  6
CONTINUOUS
 62
     7
100
AcDbLine
 10
459.1408899465
 20
283.1730460754
 30
0.0
 11
440.1408961453
 21
283.1730460754
 31
0.0
  0
LINE
  5
1F0
330
1F
100
AcDbEntity
  8
0
  6
CONTINUOUS
 62
     7
100
AcDbLine
 10
459.1408899465
 20
287.6730461146
 30
0.0
 11
440.1408961453
 21
287.6730461146
 31
0.0
  0
LINE
  5
1F1
330
1F
100
AcDbEntity
  8
0
  6
CONTINUOUS
 62
     7
100
AcDbLine
 10
442.6408937612
 20
280.1730460494
 30
0.0
 11
432.6408958473
 21
280.1730460494
 31
0.0
  0
LINE
  5
1F2
330
1F
100
AcDbEntity
  8
0
  6
CONTINUOUS
 62
     7
100
AcDbLine
 10
442.6408937612
 20
280.1730460494
 30
0.0
 11
442.6408937612
 21
279.6730459674
 31
0.0
  0
LINE
  5
1F3
330
1F
100
AcDbEntity
  8
0
  6
CONTINUOUS
 62
     7
100
AcDbLine
 10
432.6408958473
 20
280.1730460494
 30
0.0
 11
432.6408958473
 21
279.6730459674
 31
0.0
  0
LINE
  5
1F4
330
1F
100
AcDbEntity
  8
0
  6
CONTINUOUS
 62
     7
100
AcDbLine
 10
238.6408901253
 20
280.1730460494
 30
0.0
 11
228.6408922114
 21
280.1730460494
 31
0.0
  0
LINE
  5
1F5
330
1F
100
AcDbEntity
  8
0
  6
CONTINUOUS
 62
     7
100
AcDbLine
 10
228.6408922114
 20
280.1730460494
 30
0.0
 11
228.6408922114
 21
279.6730459674
 31
0.0
  0
LINE
  5
1F6
330
1F
100
AcDbEntity
  8
0
  6
CONTINUOUS
 62
     7
100
AcDbLine
 10
238.6408901253
 20
280.1730460494
 30
0.0
 11
238.6408901253
 21
279.6730459674
 31
0.0
  0
LINE
  5
1F7
330
1F
100
AcDbEntity
  8
0
  6
CONTINUOUS
 62
     7
100
AcDbLine
 10
340.6408928745
 20
280.1730460494
 30
0.0
 11
330.6408930981
 21
280.1730460494
 31
0.0
  0
LINE
  5
1F8
330
1F
100
AcDbEntity
  8
0
  6
CONTINUOUS
 62
     7
100
AcDbLine
 10
330.6408930981
 20
280.1730460494
 30
0.0
 11
330.6408930981
 21
279.6730459674
 31
0.0
  0
LINE
  5
1F9
330
1F
100
AcDbEntity
  8
0
  6
CONTINUOUS
 62
     7
100
AcDbLine
 10
340.6408928745
 20
280.1730460494
 30
0.0
 11
340.6408928745
 21
279.6730459674
 31
0.0
  0
LINE
  5
1FA
330
1F
100
AcDbEntity
  8
0
  6
CONTINUOUS
 62
     7
100
AcDbLine
 10
330.6408930981
 20
280.1730460494
 30
0.0
 11
238.6408901253
 21
280.1730460494
 31
0.0
  0
LINE
  5
1FB
330
1F
100
AcDbEntity
  8
0
  6
CONTINUOUS
 62
     7
100
AcDbLine
 10
214.640893642
 20
279.6730459674
 30
0.0
 11
214.640893642
 21
280.1730460494
 31
0.0
  0
LINE
  5
1FC
330
1F
100
AcDbEntity
  8
0
  6
CONTINUOUS
 62
     7
100
AcDbLine
 10
228.1408911982
 20
280.1730460494
 30
0.0
 11
214.640893642
 21
280.1730460494
 31
0.0
  0
LINE
  5
1FD
330
1F
100
AcDbEntity
  8
0
  6
CONTINUOUS
 62
     7
100
AcDbLine
 10
228.6408922114
 20
280.1730460494
 30
0.0
 11
228.1408911982
 21
280.1730460494
 31
0.0
  0
LINE
  5
1FE
330
1F
100
AcDbEntity
  8
0
  6
CONTINUOUS
 62
     7
100
AcDbLine
 10
432.6408958473
 20
280.1730460494
 30
0.0
 11
340.6408928745
 21
280.1730460494
 31
0.0
  0
LINE
  5
1FF
330
1F
100
AcDbEntity
  8
0
  6
CONTINUOUS
 62
     7
100
AcDbLine
 10
330.6408930981
 20
273.1730456005
 30
0.0
 11
330.1408930161
 21
273.1730456005
 31
0.0
  0
LINE
  5
200
330
1F
100
AcDbEntity
  8
0
  6
CONTINUOUS
 62
     7
100
AcDbLine
 10
239.1408911386
 20
273.1730456005
 30
0.0
 11
238.6408901253
 21
273.1730456005
 31
0.0
  0
LINE
  5
201
330
1F
100
AcDbEntity
  8
0
  6
CONTINUOUS
 62
     7
100
AcDbLine
 10
443.1408947744
 20
280.1730460494
 30
0.0
 11
442.6408937612
 21
280.1730460494
 31
0.0
  0
LINE
  5
202
330
1F
100
AcDbEntity
  8
0
  6
CONTINUOUS
 62
     7
100
AcDbLine
 10
228.6408922114
 20
273.1730456005
 30
0.0
 11
228.1408911982
 21
273.1730456005
 31
0.0
  0
LINE
  5
203
330
1F
100
AcDbEntity
  8
0
  6
CONTINUOUS
 62
     7
100
AcDbLine
 10
456.6408923307
 20
279.6730459674
 30
0.0
 11
456.6408923307
 21
280.1730460494
 31
0.0
  0
LINE
  5
204
330
1F
100
AcDbEntity
  8
0
  6
CONTINUOUS
 62
     7
100
AcDbLine
 10
456.6408923307
 20
280.1730460494
 30
0.0
 11
443.1408947744
 21
280.1730460494
 31
0.0
  0
LINE
  5
205
330
1F
100
AcDbEntity
  8
0
  6
CONTINUOUS
 62
     7
100
AcDbLine
 10
432.6408958473
 20
273.1730456005
 30
0.0
 11
432.140894834
 21
273.1730456005
 31
0.0
  0
LINE
  5
206
330
1F
100
AcDbEntity
  8
0
  6
CONTINUOUS
 62
     7
100
AcDbLine
 10
341.1408929565
 20
273.1730456005
 30
0.0
 11
340.6408928745
 21
273.1730456005
 31
0.0
  0
LINE
  5
207
330
1F
100
AcDbEntity
  8
0
  6
CONTINUOUS
 62
     7
100
AcDbLine
 10
443.1408947744
 20
273.1730456005
 30
0.0
 11
442.6408937612
 21
273.1730456005
 31
0.0
  0
LINE
  5
208
330
1F
100
AcDbEntity
  8
0
  6
CONTINUOUS
 62
     7
100
AcDbLine
 10
445.140891377
 20
280.1730460494
 30
0.0
 11
445.140891377
 21
283.1730460754
 31
0.0
  0
LINE
  5
209
330
1F
100
AcDbEntity
  8
0
  6
CONTINUOUS
 62
     7
100
AcDbLine
 10
440.1408961453
 20
280.1730460494
 30
0.0
 11
440.1408961453
 21
283.1730460754
 31
0.0
  0
LINE
  5
20A
330
1F
100
AcDbEntity
  8
0
  6
CONTINUOUS
 62
     7
100
AcDbLine
 10
231.1408898273
 20
280.1730460494
 30
0.0
 11
231.1408898273
 21
283.1730460754
 31
0.0
  0
LINE
  5
20B
330
1F
100
AcDbEntity
  8
0
  6
CONTINUOUS
 62
     7
100
AcDbLine
 10
226.1408945956
 20
280.1730460494
 30
0.0
 11
226.1408945956
 21
283.1730460754
 31
0.0
  0
LINE
  5
20C
330
1F
100
AcDbEntity
  8
0
  6
CONTINUOUS
 62
     7
100
AcDbLine
 10
330.1408930161
 20
269.6730459581
 30
0.0
 11
239.1408911386
 21
269.6730459581
 31
0.0
  0
LINE
  5
20D
330
1F
100
AcDbEntity
  8
0
  6
CONTINUOUS
 62
     7
100
AcDbLine
 10
239.1408911386
 20
269.6730459581
 30
0.0
 11
239.1408911386
 21
275.1730459283
 31
0.0
  0
LINE
  5
20E
330
1F
100
AcDbEntity
  8
0
  6
CONTINUOUS
 62
     7
100
AcDbLine
 10
228.1408911982
 20
269.6730459581
 30
0.0
 11
228.1408911982
 21
275.1730459283
 31
0.0
  0
LINE
  5
20F
330
1F
100
AcDbEntity
  8
0
  6
CONTINUOUS
 62
     7
100
AcDbLine
 10
228.1408911982
 20
269.6730459581
 30
0.0
 11
220.7460036912
 21
269.6730459581
 31
0.0
  0
LINE
  5
210
330
1F
100
AcDbEntity
  8
0
  6
CONTINUOUS
 62
     7
100
AcDbLine
 10
220.7460036912
 20
269.6730459581
 30
0.0
 11
220.7460036912
 21
276.6730461742
 31
0.0
  0
LINE
  5
211
330
1F
100
AcDbEntity
  8
0
  6
CONTINUOUS
 62
     7
100
AcDbLine
 10
220.7460036912
 20
276.6730461742
 30
0.0
 11
228.1408911982
 21
276.6730461742
 31
0.0
  0
LINE
  5
212
330
1F
100
AcDbEntity
  8
0
  6
CONTINUOUS
 62
     7
100
AcDbLine
 10
228.1408911982
 20
276.6730461742
 30
0.0
 11
228.6408922114
 21
276.6730461742
 31
0.0
  0
LINE
  5
213
330
1F
100
AcDbEntity
  8
0
  6
CONTINUOUS
 62
     7
100
AcDbLine
 10
238.6408901253
 20
276.6730461742
 30
0.0
 11
239.1408911386
 21
276.6730461742
 31
0.0
  0
LINE
  5
214
330
1F
100
AcDbEntity
  8
0
  6
CONTINUOUS
 62
     7
100
AcDbLine
 10
239.1408911386
 20
276.6730461742
 30
0.0
 11
330.1408930161
 21
276.6730461742
 31
0.0
  0
LINE
  5
215
330
1F
100
AcDbEntity
  8
0
  6
CONTINUOUS
 62
     7
100
AcDbLine
 10
330.1408930161
 20
276.6730461742
 30
0.0
 11
330.6408930981
 21
276.6730461742
 31
0.0
  0
LINE
  5
216
330
1F
100
AcDbEntity
  8
0
  6
CONTINUOUS
 62
     7
100
AcDbLine
 10
340.6408928745
 20
276.6730461742
 30
0.0
 11
341.1408929565
 21
276.6730461742
 31
0.0
  0
LINE
  5
217
330
1F
100
AcDbEntity
  8
0
  6
CONTINUOUS
 62
     7
100
AcDbLine
 10
341.1408929565
 20
276.6730461742
 30
0.0
 11
432.140894834
 21
276.6730461742
 31
0.0
  0
LINE
  5
218
330
1F
100
AcDbEntity
  8
0
  6
CONTINUOUS
 62
     7
100
AcDbLine
 10
432.140894834
 20
276.6730461742
 30
0.0
 11
432.6408958473
 21
276.6730461742
 31
0.0
  0
LINE
  5
219
330
1F
100
AcDbEntity
  8
0
  6
CONTINUOUS
 62
     7
100
AcDbLine
 10
442.6408937612
 20
276.6730461742
 30
0.0
 11
443.1408947744
 21
276.6730461742
 31
0.0
  0
LINE
  5
21A
330
1F
100
AcDbEntity
  8
0
  6
CONTINUOUS
 62
     7
100
AcDbLine
 10
443.1408947744
 20
276.6730461742
 30
0.0
 11
450.5357822814
 21
276.6730461742
 31
0.0
  0
LINE
  5
21B
330
1F
100
AcDbEntity
  8
0
  6
CONTINUOUS
 62
     7
100
AcDbLine
 10
450.5357822814
 20
269.6730459581
 30
0.0
 11
450.5357822814
 21
276.6730461742
 31
0.0
  0
LINE
  5
21C
330
1F
100
AcDbEntity
  8
0
  6
CONTINUOUS
 62
     7
100
AcDbLine
 10
450.5357822814
 20
269.6730459581
 30
0.0
 11
443.1408947744
 21
269.6730459581
 31
0.0
  0
LINE
  5
21D
330
1F
100
AcDbEntity
  8
0
  6
CONTINUOUS
 62
     7
100
AcDbLine
 10
443.1408947744
 20
269.6730459581
 30
0.0
 11
443.1408947744
 21
275.1730459283
 31
0.0
  0
LINE
  5
21E
330
1F
100
AcDbEntity
  8
0
  6
CONTINUOUS
 62
     7
100
AcDbLine
 10
432.140894834
 20
269.6730459581
 30
0.0
 11
432.140894834
 21
275.1730459283
 31
0.0
  0
LINE
  5
21F
330
1F
100
AcDbEntity
  8
0
  6
CONTINUOUS
 62
     7
100
AcDbLine
 10
432.140894834
 20
269.6730459581
 30
0.0
 11
341.1408929565
 21
269.6730459581
 31
0.0
  0
LINE
  5
220
330
1F
100
AcDbEntity
  8
0
  6
CONTINUOUS
 62
     7
100
AcDbLine
 10
341.1408929565
 20
269.6730459581
 30
0.0
 11
341.1408929565
 21
275.1730459283
 31
0.0
  0
LINE
  5
221
330
1F
100
AcDbEntity
  8
0
  6
CONTINUOUS
 62
     7
100
AcDbLine
 10
330.1408930161
 20
269.6730459581
 30
0.0
 11
330.1408930161
 21
275.1730459283
 31
0.0
  0
LINE
  5
222
330
1F
100
AcDbEntity
  8
0
  6
CONTINUOUS
 62
     7
100
AcDbLine
 10
458.0381220617
 20
279.6730459674
 30
0.0
 11
450.5357822814
 21
276.6730461742
 31
0.0
  0
LINE
  5
223
330
1F
100
AcDbEntity
  8
0
  6
CONTINUOUS
 62
     7
100
AcDbLine
 10
460.6408929863
 20
279.6730459674
 30
0.0
 11
458.0381220617
 21
279.6730459674
 31
0.0
  0
LINE
  5
224
330
1F
100
AcDbEntity
  8
0
  6
CONTINUOUS
 62
     7
100
AcDbLine
 10
459.2354825177
 20
269.6730459581
 30
0.0
 11
460.6408929863
 21
279.6730459674
 31
0.0
  0
LINE
  5
225
330
1F
100
AcDbEntity
  8
0
  6
CONTINUOUS
 62
     7
100
AcDbLine
 10
459.2354825177
 20
269.6730459581
 30
0.0
 11
450.5357822814
 21
269.6730459581
 31
0.0
  0
LINE
  5
226
330
1F
100
AcDbEntity
  8
0
  6
CONTINUOUS
 62
     7
100
AcDbLine
 10
443.1408947744
 20
277.1347824025
 30
0.0
 11
449.3810838499
 21
277.1347824025
 31
0.0
  0
LINE
  5
227
330
1F
100
AcDbEntity
  8
0
  6
CONTINUOUS
 62
     7
100
AcDbLine
 10
449.3810838499
 20
277.1347824025
 30
0.0
 11
451.7480140963
 21
278.0812592252
 31
0.0
  0
LINE
  5
228
330
1F
100
AcDbEntity
  8
0
  6
CONTINUOUS
 62
     7
100
AcDbLine
 10
456.1778014937
 20
279.6730459674
 30
0.0
 11
458.0381220617
 21
279.6730459674
 31
0.0
  0
LINE
  5
229
330
1F
100
AcDbEntity
  8
0
  6
CONTINUOUS
 62
     7
100
AcDbLine
 10
443.1408947744
 20
276.6730461742
 30
0.0
 11
443.1408947744
 21
277.1347824025
 31
0.0
  0
LINE
  5
22A
330
1F
100
AcDbEntity
  8
0
  6
CONTINUOUS
 62
     7
100
AcDbLine
 10
239.1408911386
 20
277.1347824025
 30
0.0
 11
328.1408931539
 21
277.1347824025
 31
0.0
  0
LINE
  5
22B
330
1F
100
AcDbEntity
  8
0
  6
CONTINUOUS
 62
     7
100
AcDbLine
 10
328.1408931539
 20
277.1347824025
 30
0.0
 11
328.1408931539
 21
277.3656507495
 31
0.0
  0
LINE
  5
22C
330
1F
100
AcDbEntity
  8
0
  6
CONTINUOUS
 62
     7
100
AcDbLine
 10
330.1408930161
 20
277.3656507495
 30
0.0
 11
328.1408931539
 21
277.3656507495
 31
0.0
  0
LINE
  5
22D
330
1F
100
AcDbEntity
  8
0
  6
CONTINUOUS
 62
     7
100
AcDbLine
 10
330.1408930161
 20
277.3656507495
 30
0.0
 11
330.1408930161
 21
276.6730461742
 31
0.0
  0
LINE
  5
22E
330
1F
100
AcDbEntity
  8
0
  6
CONTINUOUS
 62
     7
100
AcDbLine
 10
239.1408911386
 20
276.6730461742
 30
0.0
 11
239.1408911386
 21
277.1347824025
 31
0.0
  0
LINE
  5
22F
330
1F
100
AcDbEntity
  8
0
  6
CONTINUOUS
 62
     7
100
AcDbLine
 10
343.1408928187
 20
277.3656507495
 30
0.0
 11
341.1408929565
 21
277.3656507495
 31
0.0
  0
LINE
  5
230
330
1F
100
AcDbEntity
  8
0
  6
CONTINUOUS
 62
     7
100
AcDbLine
 10
343.1408928187
 20
277.3656507495
 30
0.0
 11
343.1408928187
 21
277.1347824025
 31
0.0
  0
LINE
  5
231
330
1F
100
AcDbEntity
  8
0
  6
CONTINUOUS
 62
     7
100
AcDbLine
 10
343.1408928187
 20
277.1347824025
 30
0.0
 11
432.140894834
 21
277.1347824025
 31
0.0
  0
LINE
  5
232
330
1F
100
AcDbEntity
  8
0
  6
CONTINUOUS
 62
     7
100
AcDbLine
 10
341.1408929565
 20
277.3656507495
 30
0.0
 11
341.1408929565
 21
276.6730461742
 31
0.0
  0
LINE
  5
233
330
1F
100
AcDbEntity
  8
0
  6
CONTINUOUS
 62
     7
100
AcDbLine
 10
432.140894834
 20
276.6730461742
 30
0.0
 11
432.140894834
 21
277.1347824025
 31
0.0
  0
LINE
  5
234
330
1F
100
AcDbEntity
  8
0
  6
CONTINUOUS
 62
     7
100
AcDbLine
 10
220.7460036912
 20
276.6730461742
 30
0.0
 11
213.2436639109
 21
279.6730459674
 31
0.0
  0
LINE
  5
235
330
1F
100
AcDbEntity
  8
0
  6
CONTINUOUS
 62
     7
100
AcDbLine
 10
213.2436639109
 20
279.6730459674
 30
0.0
 11
215.103984479
 21
279.6730459674
 31
0.0
  0
LINE
  5
236
330
1F
100
AcDbEntity
  8
0
  6
CONTINUOUS
 62
     7
100
AcDbLine
 10
219.5337718763
 20
278.0812592252
 30
0.0
 11
221.9007021227
 21
277.1347824025
 31
0.0
  0
LINE
  5
237
330
1F
100
AcDbEntity
  8
0
  6
CONTINUOUS
 62
     7
100
AcDbLine
 10
221.9007021227
 20
277.1347824025
 30
0.0
 11
228.1408911982
 21
277.1347824025
 31
0.0
  0
LINE
  5
238
330
1F
100
AcDbEntity
  8
0
  6
CONTINUOUS
 62
     7
100
AcDbLine
 10
228.1408911982
 20
276.6730461742
 30
0.0
 11
228.1408911982
 21
277.1347824025
 31
0.0
  0
LINE
  5
239
330
1F
100
AcDbEntity
  8
0
  6
CONTINUOUS
 62
     7
100
AcDbLine
 10
213.2436639109
 20
279.6730459674
 30
0.0
 11
210.6408929863
 21
279.6730459674
 31
0.0
  0
LINE
  5
23A
330
1F
100
AcDbEntity
  8
0
  6
CONTINUOUS
 62
     7
100
AcDbLine
 10
220.7460036912
 20
269.6730459581
 30
0.0
 11
212.0463034549
 21
269.6730459581
 31
0.0
  0
LINE
  5
23B
330
1F
100
AcDbEntity
  8
0
  6
CONTINUOUS
 62
     7
100
AcDbLine
 10
212.0463034549
 20
269.6730459581
 30
0.0
 11
210.6408929863
 21
279.6730459674
 31
0.0
  0
LINE
  5
23C
330
1F
100
AcDbEntity
  8
0
  6
CONTINUOUS
 62
     7
100
AcDbLine
 10
239.1408911386
 20
271.6730462859
 30
0.0
 11
238.6408901253
 21
271.6730462859
 31
0.0
  0
LINE
  5
23D
330
1F
100
AcDbEntity
  8
0
  6
CONTINUOUS
 62
     7
100
AcDbLine
 10
228.6408922114
 20
271.6730462859
 30
0.0
 11
228.1408911982
 21
271.6730462859
 31
0.0
  0
LINE
  5
23E
330
1F
100
AcDbEntity
  8
0
  6
CONTINUOUS
 62
     7
100
AcDbLine
 10
228.1408911982
 20
269.6730459581
 30
0.0
 11
239.1408911386
 21
269.6730459581
 31
0.0
  0
LINE
  5
23F
330
1F
100
AcDbEntity
  8
0
  6
CONTINUOUS
 62
     7
100
AcDbLine
 10
330.1408930161
 20
271.6730462859
 30
0.0
 11
330.6408930981
 21
271.6730462859
 31
0.0
  0
LINE
  5
240
330
1F
100
AcDbEntity
  8
0
  6
CONTINUOUS
 62
     7
100
AcDbLine
 10
340.6408928745
 20
271.6730462859
 30
0.0
 11
341.1408929565
 21
271.6730462859
 31
0.0
  0
LINE
  5
241
330
1F
100
AcDbEntity
  8
0
  6
CONTINUOUS
 62
     7
100
AcDbLine
 10
330.1408930161
 20
269.6730459581
 30
0.0
 11
341.1408929565
 21
269.6730459581
 31
0.0
  0
LINE
  5
242
330
1F
100
AcDbEntity
  8
0
  6
CONTINUOUS
 62
     7
100
AcDbLine
 10
443.1408947744
 20
271.6730462859
 30
0.0
 11
442.6408937612
 21
271.6730462859
 31
0.0
  0
LINE
  5
243
330
1F
100
AcDbEntity
  8
0
  6
CONTINUOUS
 62
     7
100
AcDbLine
 10
432.6408958473
 20
271.6730462859
 30
0.0
 11
432.140894834
 21
271.6730462859
 31
0.0
  0
LINE
  5
244
330
1F
100
AcDbEntity
  8
0
  6
CONTINUOUS
 62
     7
100
AcDbLine
 10
432.140894834
 20
269.6730459581
 30
0.0
 11
443.1408947744
 21
269.6730459581
 31
0.0
  0
LINE
  5
245
330
1F
100
AcDbEntity
  8
0
  6
CONTINUOUS
 62
     7
100
AcDbLine
 10
223.0196675696
 20
269.6730459581
 30
0.0
 11
223.8538941779
 21
263.7371963362
 31
0.0
  0
SPLINE
  5
246
330
1F
100
AcDbEntity
  8
0
  6
CONTINUOUS
 62
     7
100
AcDbSpline
210
0.0
220
0.0
230
1.0
 70
     8
 71
     3
 72
    16
 73
    12
 74
     0
 42
0.00000001
 43
0.00000001
 40
0.0
 40
0.0
 40
0.0
 40
0.0
 40
0.12294498059664
 40
0.2473616782727708
 40
0.3735421733711491
 40
0.4374647525939054
 40
0.5019337713841562
 40
0.6095641830954031
 40
0.7283966273423135
 40
0.858520424137373
 40
1.0
 40
1.0
 40
1.0
 40
1.0
 10
212.7109846510947
 20
264.9435999343962
 30
0.0
 10
212.7532299288997
 20
264.9277658652953
 30
0.0
 10
212.8382261830471
 20
264.89590818483
 30
0.0
 10
213.5044568479161
 20
264.7946664221332
 30
0.0
 10
214.3782115648863
 20
264.6849755476931
 30
0.0
 10
215.2733235250746
 20
264.5814030326227
 30
0.0
 10
216.2076744242365
 20
264.4774019060851
 30
0.0
 10
217.5183867483621
 20
264.3331967252042
 30
0.0
 10
219.3264616050698
 20
264.1473435727289
 30
0.0
 10
221.4773624183066
 20
263.94507088615
 30
0.0
 10
223.039939724998
 20
263.8083926982545
 30
0.0
 10
223.8538941779197
 20
263.7371963362068
 30
0.0
  0
LINE
  5
247
330
1F
100
AcDbEntity
  8
0
  6
CONTINUOUS
 62
     7
100
AcDbLine
 10
212.7109846511
 20
264.9435999344
 30
0.0
 11
212.0463034549
 21
269.6730459581
 31
0.0
  0
LINE
  5
248
330
1F
100
AcDbEntity
  8
0
  6
CONTINUOUS
 62
     7
100
AcDbLine
 10
447.4278917947
 20
263.7371963362
 30
0.0
 11
448.262118403
 21
269.6730459581
 31
0.0
  0
SPLINE
  5
249
330
1F
100
AcDbEntity
  8
0
  6
CONTINUOUS
 62
     7
100
AcDbSpline
210
0.0
220
0.0
230
1.0
 70
     8
 71
     3
 72
    14
 73
    10
 74
     0
 42
0.00000001
 43
0.00000001
 40
0.0
 40
0.0
 40
0.0
 40
0.0
 40
0.1427670825459981
 40
0.2854894437694127
 40
0.428400727170265
 40
0.5715981783792213
 40
0.7145083933876542
 40
0.8572311069166999
 40
0.9999999999999999
 40
0.9999999999999999
 40
0.9999999999999999
 40
0.9999999999999999
 10
223.8538941779197
 20
263.7371963362068
 30
0.0
 10
234.4400804065006
 20
262.3618361180551
 30
0.0
 10
255.609136775382
 20
259.6115465088505
 30
0.0
 10
287.5546776129308
 20
257.1114985032331
 30
0.0
 10
319.5972701255737
 20
255.8097288525581
 30
0.0
 10
351.6841935090915
 20
255.8096822258226
 30
0.0
 10
383.7267343485759
 20
257.1114303788576
 30
0.0
 10
415.672355446949
 20
259.6115015315249
 30
0.0
 10
436.8415716067292
 20
262.3618164427014
 30
0.0
 10
447.4278917946876
 20
263.7371963362068
 30
0.0
  0
LINE
  5
24A
330
1F
100
AcDbEntity
  8
0
  6
CONTINUOUS
 62
     7
100
AcDbLine
 10
459.2354825177
 20
269.6730459581
 30
0.0
 11
458.5708013215
 21
264.9435999344
 31
0.0
  0
SPLINE
  5
24B
330
1F
100
AcDbEntity
  8
0
  6
CONTINUOUS
 62
     7
100
AcDbSpline
210
0.0
220
0.0
230
1.0
 70
     8
 71
     3
 72
    15
 73
    11
 74
     0
 42
0.00000001
 43
0.00000001
 40
0.0
 40
0.0
 40
0.0
 40
0.0
 40
0.1358363425500982
 40
0.2577000197996531
 40
0.3742097294418092
 40
0.4976502994895605
 40
0.6260186218443582
 40
0.7523442936302728
 40
0.8769074975258083
 40
1.0
 40
1.0
 40
1.0
 40
1.0
 10
447.4278917946876
 20
263.7371963362068
 30
0.0
 10
448.2091189285962
 20
263.8058571221128
 30
0.0
 10
449.6912130728936
 20
263.9361159729865
 30
0.0
 10
451.7599513055671
 20
264.1335710526625
 30
0.0
 10
453.6170345545684
 20
264.3206046070965
 30
0.0
 10
455.2952823643087
 20
264.5004813089371
 30
0.0
 10
456.7214675897796
 20
264.6620885922109
 30
0.0
 10
457.7756032584302
 20
264.7942867521891
 30
0.0
 10
458.4432973025441
 20
264.8957345182393
 30
0.0
 10
458.5284685781683
 20
264.9277080872714
 30
0.0
 10
458.5708013215125
 20
264.9435999343962
 30
0.0
  0
SPLINE
  5
24C
330
1F
100
AcDbEntity
  8
0
  6
CONTINUOUS
 62
     7
100
AcDbSpline
210
0.0
220
0.0
230
1.0
 70
     8
 71
     3
 72
    13
 73
     9
 74
     0
 42
0.00000001
 43
0.00000001
 40
0.0
 40
0.0
 40
0.0
 40
0.0
 40
0.1245245389112358
 40
0.2507295187045644
 40
0.3760905835121315
 40
0.500948502331613
 40
0.7502628342978852
 40
1.0
 40
1.0
 40
1.0
 40
1.0
 10
456.7529267110885
 20
262.8937626729578
 30
0.0
 10
456.7210233081358
 20
262.8888713061382
 30
0.0
 10
456.6567859703609
 20
262.8790225642016
 30
0.0
 10
456.0947067815483
 20
262.7931279349436
 30
0.0
 10
455.2470419867178
 20
262.6643708087549
 30
0.0
 10
453.7224214534219
 20
262.4348707773929
 30
0.0
 10
451.2150010685837
 20
262.0623481153314
 30
0.0
 10
448.9136093770562
 20
261.7335205651633
 30
0.0
 10
447.7619385757507
 20
261.5689674864381
 30
0.0
  0
LINE
  5
24D
330
1F
100
AcDbEntity
  8
0
  6
CONTINUOUS
 62
     7
100
AcDbLine
 10
447.7619385758
 20
261.5689674864
 30
0.0
 11
447.4278917947
 21
263.7371963362
 31
0.0
  0
SPLINE
  5
24E
330
1F
100
AcDbEntity
  8
0
  6
CONTINUOUS
 62
     7
100
AcDbSpline
210
0.0
220
0.0
230
1.0
 70
     8
 71
     3
 72
    13
 73
     9
 74
     0
 42
0.00000001
 43
0.00000001
 40
0.0
 40
0.0
 40
0.0
 40
0.0
 40
0.2501660474141741
 40
0.4995973272583918
 40
0.6243337251447558
 40
0.7500514107068952
 40
0.8760363644530819
 40
1.0
 40
1.0
 40
1.0
 40
1.0
 10
223.5198473968566
 20
261.5689674864381
 30
0.0
 10
222.3661306641883
 20
261.7338154720367
 30
0.0
 10
220.0620858027363
 20
262.0630272650047
 30
0.0
 10
217.5544435600641
 20
262.4356087115303
 30
0.0
 10
216.0306273766866
 20
262.6649910326087
 30
0.0
 10
215.1859884930702
 20
262.7932984506621
 30
0.0
 10
214.624711059984
 20
262.8790659979997
 30
0.0
 10
214.5606371404489
 20
262.8888902640414
 30
0.0
 10
214.5288592615188
 20
262.8937626729578
 30
0.0
  0
LINE
  5
24F
330
1F
100
AcDbEntity
  8
0
  6
CONTINUOUS
 62
     7
100
AcDbLine
 10
223.5198473969
 20
261.5689674864
 30
0.0
 11
223.8538941779
 21
263.7371963362
 31
0.0
  0
SPLINE
  5
250
330
1F
100
AcDbEntity
  8
0
  6
CONTINUOUS
 62
     7
100
AcDbSpline
210
0.0
220
0.0
230
1.0
 70
     8
 71
     3
 72
    14
 73
    10
 74
     0
 42
0.00000001
 43
0.00000001
 40
0.0
 40
0.0
 40
0.0
 40
0.0
 40
0.1428615075984262
 40
0.2857186500106956
 40
0.4285731713212275
 40
0.5714268286787726
 40
0.7142813499893045
 40
0.8571384924015739
 40
1.0
 40
1.0
 40
1.0
 40
1.0
 10
447.7619385757507
 20
261.5689674864381
 30
0.0
 10
437.1368769547761
 20
260.1905338130438
 30
0.0
 10
415.8870783655111
 20
257.4337085848055
 30
0.0
 10
383.8333453270125
 20
254.9254417056098
 30
0.0
 10
351.7151730978933
 20
253.6162516584622
 30
0.0
 10
319.5666128747139
 20
253.6162516584622
 30
0.0
 10
287.4484406455947
 20
254.9254417056098
 30
0.0
 10
255.3947076070961
 20
257.4337085848055
 30
0.0
 10
234.1449090178311
 20
260.1905338130438
 30
0.0
 10
223.5198473968566
 20
261.5689674864381
 30
0.0
  0
LINE
  5
251
330
1F
100
AcDbEntity
  8
0
  6
CONTINUOUS
 62
     7
100
AcDbLine
 10
443.6908966341
 20
260.9831953893
 30
0.0
 11
443.6908966341
 21
261.0033808748
 31
0.0
  0
LINE
  5
252
330
1F
100
AcDbEntity
  8
0
  6
CONTINUOUS
 62
     7
100
AcDbLine
 10
227.5908893385
 20
260.9831953893
 30
0.0
 11
227.5908893385
 21
261.0033808748
 31
0.0
  0
LINE
  5
253
330
1F
100
AcDbEntity
  8
0
  6
CONTINUOUS
 62
     7
100
AcDbLine
 10
226.6408956089
 20
261.113269488
 30
0.0
 11
226.6408956089
 21
261.1334568362
 31
0.0
  0
SPLINE
  5
254
330
1F
100
AcDbEntity
  8
0
  6
CONTINUOUS
 62
     7
100
AcDbSpline
210
0.0
220
0.0
230
1.0
 70
     8
 71
     3
 72
    12
 73
     8
 74
     0
 42
0.00000001
 43
0.00000001
 40
0.0
 40
0.0
 40
0.0
 40
0.0
 40
0.2171985882677428
 40
0.43443368494034
 40
0.6507518208223858
 40
0.8651571057306077
 40
1.0
 40
1.0
 40
1.0
 40
1.0
 10
227.5908893384993
 20
260.9831953893274
 30
0.0
 10
227.4833382646413
 20
260.9978691141523
 30
0.0
 10
227.2682180389158
 20
261.0272190302744
 30
0.0
 10
226.9818264144465
 20
261.066442678436
 30
0.0
 10
226.7670608938438
 20
261.0959208849368
 30
0.0
 10
226.6561495312428
 20
261.1111708827411
 30
0.0
 10
226.6451445677288
 20
261.1126849244523
 30
0.0
 10
226.640895608908
 20
261.1132694880336
 30
0.0
  0
LINE
  5
255
330
1F
100
AcDbEntity
  8
0
  6
CONTINUOUS
 62
     7
100
AcDbLine
 10
444.6408903637
 20
261.113269488
 30
0.0
 11
444.6408903637
 21
261.1334568362
 31
0.0
  0
SPLINE
  5
256
330
1F
100
AcDbEntity
  8
0
  6
CONTINUOUS
 62
     7
100
AcDbSpline
210
0.0
220
0.0
230
1.0
 70
     8
 71
     3
 72
    12
 73
     8
 74
     0
 42
0.00000001
 43
0.00000001
 40
0.0
 40
0.0
 40
0.0
 40
0.0
 40
0.2122109113932172
 40
0.4243915157221155
 40
0.6374628892443188
 40
0.8524198527777113
 40
1.0
 40
1.0
 40
1.0
 40
1.0
 10
444.6408903636992
 20
261.1132694880336
 30
0.0
 10
444.6305253396204
 20
261.111843486027
 30
0.0
 10
444.6097967717517
 20
261.1089916856693
 30
0.0
 10
444.4483469929714
 20
261.0868017264355
 30
0.0
 10
444.2103038167027
 20
261.0541548360068
 30
0.0
 10
443.9427567259066
 20
261.0175475871618
 30
0.0
 10
443.7637613506917
 20
260.9931336973037
 30
0.0
 10
443.6908966341078
 20
260.9831953893274
 30
0.0
  0
LINE
  5
257
330
1F
100
AcDbEntity
  8
0
  6
CONTINUOUS
 62
     7
100
AcDbLine
 10
228.1408911982
 20
277.1347824025
 30
0.0
 11
228.1408911982
 21
280.1730460494
 31
0.0
  0
LINE
  5
258
330
1F
100
AcDbEntity
  8
0
  6
CONTINUOUS
 62
     7
100
AcDbLine
 10
443.1408947744
 20
277.1347824025
 30
0.0
 11
443.1408947744
 21
280.1730460494
 31
0.0
  0
LINE
  5
259
330
1F
100
AcDbEntity
  8
0
  6
CONTINUOUS
 62
     7
100
AcDbLine
 10
228.1408911982
 20
275.1730459283
 30
0.0
 11
228.6408922114
 21
275.1730459283
 31
0.0
  0
LINE
  5
25A
330
1F
100
AcDbEntity
  8
0
  6
CONTINUOUS
 62
     7
100
AcDbLine
 10
238.6408901253
 20
275.1730459283
 30
0.0
 11
239.1408911386
 21
275.1730459283
 31
0.0
  0
LINE
  5
25B
330
1F
100
AcDbEntity
  8
0
  6
CONTINUOUS
 62
     7
100
AcDbLine
 10
432.140894834
 20
275.1730459283
 30
0.0
 11
432.6408958473
 21
275.1730459283
 31
0.0
  0
LINE
  5
25C
330
1F
100
AcDbEntity
  8
0
  6
CONTINUOUS
 62
     7
100
AcDbLine
 10
442.6408937612
 20
275.1730459283
 30
0.0
 11
443.1408947744
 21
275.1730459283
 31
0.0
  0
LINE
  5
25D
330
1F
100
AcDbEntity
  8
0
  6
CONTINUOUS
 62
     7
100
AcDbLine
 10
330.1408930161
 20
275.1730459283
 30
0.0
 11
330.6408930981
 21
275.1730459283
 31
0.0
  0
LINE
  5
25E
330
1F
100
AcDbEntity
  8
0
  6
CONTINUOUS
 62
     7
100
AcDbLine
 10
340.6408928745
 20
275.1730459283
 30
0.0
 11
341.1408929565
 21
275.1730459283
 31
0.0
  0
LINE
  5
25F
330
1F
100
AcDbEntity
  8
0
  6
CONTINUOUS
 62
     7
100
AcDbLine
 10
792.9077843295
 20
571.247474088
 30
0.0
 11
1001.9077906476
 21
571.247474088
 31
0.0
  0
ARC
  5
260
330
1F
100
AcDbEntity
  8
0
  6
CONTINUOUS
 62
     7
100
AcDbCircle
 10
792.9077874885
 20
569.2474749225
 30
0.0
 40
2.000000000000114
100
AcDbArc
 50
90.0
 51
180.0
  0
LINE
  5
261
330
1F
100
AcDbEntity
  8
0
  6
CONTINUOUS
 62
     7
100
AcDbLine
 10
790.907787727
 20
390.2474723595
 30
0.0
 11
790.907787727
 21
569.2474774855
 31
0.0
  0
ARC
  5
262
330
1F
100
AcDbEntity
  8
0
  6
CONTINUOUS
 62
     7
100
AcDbCircle
 10
792.9077874885
 20
390.2474749225
 30
0.0
 40
2.000000000000114
100
AcDbArc
 50
180.0
 51
270.0
  0
LINE
  5
263
330
1F
100
AcDbEntity
  8
0
  6
CONTINUOUS
 62
     7
100
AcDbLine
 10
1001.9077906476
 20
388.2474757569
 30
0.0
 11
792.9077843295
 21
388.2474757569
 31
0.0
  0
ARC
  5
264
330
1F
100
AcDbEntity
  8
0
  6
CONTINUOUS
 62
     7
100
AcDbCircle
 10
1001.9077874885
 20
390.2474749225
 30
0.0
 40
2.0
100
AcDbArc
 50
270.0
 51
0.0
  0
LINE
  5
265
330
1F
100
AcDbEntity
  8
0
  6
CONTINUOUS
 62
     7
100
AcDbLine
 10
1003.9077872501
 20
569.2474774855
 30
0.0
 11
1003.9077872501
 21
390.2474723595
 31
0.0
  0
ARC
  5
266
330
1F
100
AcDbEntity
  8
0
  6
CONTINUOUS
 62
     7
100
AcDbCircle
 10
1001.9077874885
 20
569.2474749225
 30
0.0
 40
2.0
100
AcDbArc
 50
0.0
 51
90.0
  0
LINE
  5
267
330
1F
100
AcDbEntity
  8
0
  6
CONTINUOUS
 62
     7
100
AcDbLine
 10
1020.9077844487
 20
569.2474774855
 30
0.0
 11
1020.9077844487
 21
390.2474723595
 31
0.0
  0
ARC
  5
268
330
1F
100
AcDbEntity
  8
0
  6
CONTINUOUS
 62
     7
100
AcDbCircle
 10
1001.9077874885
 20
390.2474749225
 30
0.0
 40
19.0
100
AcDbArc
 50
270.0
 51
0.0
  0
LINE
  5
269
330
1F
100
AcDbEntity
  8
0
  6
CONTINUOUS
 62
     7
100
AcDbLine
 10
1001.9077906476
 20
371.2474785583
 30
0.0
 11
792.9077843295
 21
371.2474785583
 31
0.0
  0
ARC
  5
26A
330
1F
100
AcDbEntity
  8
0
  6
CONTINUOUS
 62
     7
100
AcDbCircle
 10
792.9077874885
 20
390.2474749225
 30
0.0
 40
19.00000000000011
100
AcDbArc
 50
180.0
 51
270.0
  0
LINE
  5
26B
330
1F
100
AcDbEntity
  8
0
  6
CONTINUOUS
 62
     7
100
AcDbLine
 10
773.9077905284
 20
390.2474723595
 30
0.0
 11
773.9077905284
 21
569.2474774855
 31
0.0
  0
ARC
  5
26C
330
1F
100
AcDbEntity
  8
0
  6
CONTINUOUS
 62
     7
100
AcDbCircle
 10
792.9077874885
 20
569.2474749225
 30
0.0
 40
19.00000000000011
100
AcDbArc
 50
90.0
 51
180.0
  0
LINE
  5
26D
330
1F
100
AcDbEntity
  8
0
  6
CONTINUOUS
 62
     7
100
AcDbLine
 10
792.9077843295
 20
588.2474712866
 30
0.0
 11
1001.9077906476
 21
588.2474712866
 31
0.0
  0
ARC
  5
26E
330
1F
100
AcDbEntity
  8
0
  6
CONTINUOUS
 62
     7
100
AcDbCircle
 10
1001.9077874885
 20
569.2474749225
 30
0.0
 40
19.0
100
AcDbArc
 50
0.0
 51
90.0
  0
CIRCLE
  5
26F
330
1F
100
AcDbEntity
  8
0
  6
CONTINUOUS
 62
     7
100
AcDbCircle
 10
897.4077874885
 20
582.2474749225
 30
0.0
 40
1.600000000000023
  0
CIRCLE
  5
270
330
1F
100
AcDbEntity
  8
0
  6
CONTINUOUS
 62
     7
100
AcDbCircle
 10
897.4077874885
 20
377.2474749225
 30
0.0
 40
1.599999999999966
  0
CIRCLE
  5
271
330
1F
100
AcDbEntity
  8
0
  6
CONTINUOUS
 62
     7
100
AcDbCircle
 10
795.4077874885
 20
377.2474749225
 30
0.0
 40
1.599999999999966
  0
CIRCLE
  5
272
330
1F
100
AcDbEntity
  8
0
  6
CONTINUOUS
 62
     7
100
AcDbCircle
 10
999.4077874885
 20
377.2474749225
 30
0.0
 40
1.599999999999966
  0
CIRCLE
  5
273
330
1F
100
AcDbEntity
  8
0
  6
CONTINUOUS
 62
     7
100
AcDbCircle
 10
999.4077874885
 20
582.2474749225
 30
0.0
 40
1.600000000000023
  0
CIRCLE
  5
274
330
1F
100
AcDbEntity
  8
0
  6
CONTINUOUS
 62
     7
100
AcDbCircle
 10
795.4077874885
 20
582.2474749225
 30
0.0
 40
1.600000000000023
  0
CIRCLE
  5
275
330
1F
100
AcDbEntity
  8
0
  6
CONTINUOUS
 62
     7
100
AcDbCircle
 10
779.9077874885
 20
479.7474749225
 30
0.0
 40
1.600000000000023
  0
CIRCLE
  5
276
330
1F
100
AcDbEntity
  8
0
  6
CONTINUOUS
 62
     7
100
AcDbCircle
 10
1014.9077874885
 20
479.7474749225
 30
0.0
 40
1.600000000000023
  0
CIRCLE
  5
277
330
1F
100
AcDbEntity
  8
0
  6
CONTINUOUS
 62
     7
100
AcDbCircle
 10
999.4077874885
 20
377.2474749225
 30
0.0
 40
1.200000000000045
  0
CIRCLE
  5
278
330
1F
100
AcDbEntity
  8
0
  6
CONTINUOUS
 62
     7
100
AcDbCircle
 10
897.4077874885
 20
377.2474749225
 30
0.0
 40
1.200000000000045
  0
CIRCLE
  5
279
330
1F
100
AcDbEntity
  8
0
  6
CONTINUOUS
 62
     7
100
AcDbCircle
 10
795.4077874885
 20
377.2474749225
 30
0.0
 40
1.200000000000045
  0
CIRCLE
  5
27A
330
1F
100
AcDbEntity
  8
0
  6
CONTINUOUS
 62
     7
100
AcDbCircle
 10
999.4077874885
 20
582.2474749225
 30
0.0
 40
1.200000000000045
  0
CIRCLE
  5
27B
330
1F
100
AcDbEntity
  8
0
  6
CONTINUOUS
 62
     7
100
AcDbCircle
 10
897.4077874885
 20
582.2474749225
 30
0.0
 40
1.199999999999932
  0
CIRCLE
  5
27C
330
1F
100
AcDbEntity
  8
0
  6
CONTINUOUS
 62
     7
100
AcDbCircle
 10
795.4077874885
 20
582.2474749225
 30
0.0
 40
1.199999999999932
  0
CIRCLE
  5
27D
330
1F
100
AcDbEntity
  8
0
  6
CONTINUOUS
 62
     7
100
AcDbCircle
 10
1014.9077874885
 20
479.7474749225
 30
0.0
 40
1.199999999999932
  0
CIRCLE
  5
27E
330
1F
100
AcDbEntity
  8
0
  6
CONTINUOUS
 62
     7
100
AcDbCircle
 10
779.9077874885
 20
479.7474749225
 30
0.0
 40
1.199999999999989
  0
LINE
  5
27F
330
1F
100
AcDbEntity
  8
0
  6
CONTINUOUS
 62
     7
100
AcDbLine
 10
790.4077867137
 20
588.897474839
 30
0.0
 11
800.4077846275
 21
588.897474839
 31
0.0
  0
LINE
  5
280
330
1F
100
AcDbEntity
  8
0
  6
CONTINUOUS
 62
     7
100
AcDbLine
 10
790.4077867137
 20
591.1974765199
 30
0.0
 11
800.4077846275
 21
591.1974765199
 31
0.0
  0
LINE
  5
281
330
1F
100
AcDbEntity
  8
0
  6
CONTINUOUS
 62
     7
100
AcDbLine
 10
800.4077846275
 20
588.897474839
 30
0.0
 11
800.4077846275
 21
591.1974765199
 31
0.0
  0
LINE
  5
282
330
1F
100
AcDbEntity
  8
0
  6
CONTINUOUS
 62
     7
100
AcDbLine
 10
790.4077867137
 20
588.897474839
 30
0.0
 11
790.4077867137
 21
591.1974765199
 31
0.0
  0
LINE
  5
283
330
1F
100
AcDbEntity
  8
0
  6
CONTINUOUS
 62
     7
100
AcDbLine
 10
892.4077876003
 20
588.897474839
 30
0.0
 11
902.4077873768
 21
588.897474839
 31
0.0
  0
LINE
  5
284
330
1F
100
AcDbEntity
  8
0
  6
CONTINUOUS
 62
     7
100
AcDbLine
 10
892.4077876003
 20
591.1974765199
 30
0.0
 11
902.4077873768
 21
591.1974765199
 31
0.0
  0
LINE
  5
285
330
1F
100
AcDbEntity
  8
0
  6
CONTINUOUS
 62
     7
100
AcDbLine
 10
902.4077873768
 20
588.897474839
 30
0.0
 11
902.4077873768
 21
591.1974765199
 31
0.0
  0
LINE
  5
286
330
1F
100
AcDbEntity
  8
0
  6
CONTINUOUS
 62
     7
100
AcDbLine
 10
892.4077876003
 20
588.897474839
 30
0.0
 11
892.4077876003
 21
591.1974765199
 31
0.0
  0
LINE
  5
287
330
1F
100
AcDbEntity
  8
0
  6
CONTINUOUS
 62
     7
100
AcDbLine
 10
994.4077903496
 20
591.1974765199
 30
0.0
 11
1004.4077882634
 21
591.1974765199
 31
0.0
  0
LINE
  5
288
330
1F
100
AcDbEntity
  8
0
  6
CONTINUOUS
 62
     7
100
AcDbLine
 10
994.4077903496
 20
588.897474839
 30
0.0
 11
1004.4077882634
 21
588.897474839
 31
0.0
  0
LINE
  5
289
330
1F
100
AcDbEntity
  8
0
  6
CONTINUOUS
 62
     7
100
AcDbLine
 10
1004.4077882634
 20
588.897474839
 30
0.0
 11
1004.4077882634
 21
591.1974765199
 31
0.0
  0
LINE
  5
28A
330
1F
100
AcDbEntity
  8
0
  6
CONTINUOUS
 62
     7
100
AcDbLine
 10
994.4077903496
 20
588.897474839
 30
0.0
 11
994.4077903496
 21
591.1974765199
 31
0.0
  0
LINE
  5
28B
330
1F
100
AcDbEntity
  8
0
  6
CONTINUOUS
 62
     7
100
AcDbLine
 10
800.4077846275
 20
588.7474722999
 30
0.0
 11
800.4077846275
 21
588.897474839
 31
0.0
  0
LINE
  5
28C
330
1F
100
AcDbEntity
  8
0
  6
CONTINUOUS
 62
     7
100
AcDbLine
 10
790.4077867137
 20
588.7474722999
 30
0.0
 11
790.4077867137
 21
588.897474839
 31
0.0
  0
LINE
  5
28D
330
1F
100
AcDbEntity
  8
0
  6
CONTINUOUS
 62
     7
100
AcDbLine
 10
902.4077873768
 20
588.7474722999
 30
0.0
 11
902.4077873768
 21
588.897474839
 31
0.0
  0
LINE
  5
28E
330
1F
100
AcDbEntity
  8
0
  6
CONTINUOUS
 62
     7
100
AcDbLine
 10
892.4077876003
 20
588.7474722999
 30
0.0
 11
892.4077876003
 21
588.897474839
 31
0.0
  0
LINE
  5
28F
330
1F
100
AcDbEntity
  8
0
  6
CONTINUOUS
 62
     7
100
AcDbLine
 10
1004.4077882634
 20
588.7474722999
 30
0.0
 11
1004.4077882634
 21
588.897474839
 31
0.0
  0
LINE
  5
290
330
1F
100
AcDbEntity
  8
0
  6
CONTINUOUS
 62
     7
100
AcDbLine
 10
994.4077903496
 20
588.7474722999
 30
0.0
 11
994.4077903496
 21
588.897474839
 31
0.0
  0
LINE
  5
291
330
1F
100
AcDbEntity
  8
0
  6
CONTINUOUS
 62
     7
100
AcDbLine
 10
782.8821787701
 20
374.1078607576
 30
0.0
 11
783.6675966249
 21
372.7474741476
 31
0.0
  0
LINE
  5
292
330
1F
100
AcDbEntity
  8
0
  6
CONTINUOUS
 62
     7
100
AcDbLine
 10
783.6675966249
 20
372.7474741476
 30
0.0
 11
785.5084637271
 21
372.7474741476
 31
0.0
  0
LINE
  5
293
330
1F
100
AcDbEntity
  8
0
  6
CONTINUOUS
 62
     7
100
AcDbLine
 10
1009.30711125
 20
372.7474741476
 30
0.0
 11
1011.1479783521
 21
372.7474741476
 31
0.0
  0
LINE
  5
294
330
1F
100
AcDbEntity
  8
0
  6
CONTINUOUS
 62
     7
100
AcDbLine
 10
1011.1479783521
 20
372.7474741476
 30
0.0
 11
1011.9333962069
 21
374.1078607576
 31
0.0
  0
LINE
  5
295
330
1F
100
AcDbEntity
  8
0
  6
CONTINUOUS
 62
     7
100
AcDbLine
 10
1019.805016564
 20
575.7530487912
 30
0.0
 11
1019.7593296037
 21
575.7530487912
 31
0.0
  0
LINE
  5
296
330
1F
100
AcDbEntity
  8
0
  6
CONTINUOUS
 62
     7
100
AcDbLine
 10
1019.805016564
 20
575.7530487912
 30
0.0
 11
1022.4077874885
 21
571.2449185389
 31
0.0
  0
LINE
  5
297
330
1F
100
AcDbEntity
  8
0
  6
CONTINUOUS
 62
     7
100
AcDbLine
 10
1022.4077874885
 20
571.2449185389
 30
0.0
 11
1022.4077874885
 21
388.2500313061
 31
0.0
  0
LINE
  5
298
330
1F
100
AcDbEntity
  8
0
  6
CONTINUOUS
 62
     7
100
AcDbLine
 10
1022.4077874885
 20
388.2500313061
 30
0.0
 11
1019.6768740283
 21
383.5199557083
 31
0.0
  0
LINE
  5
299
330
1F
100
AcDbEntity
  8
0
  6
CONTINUOUS
 62
     7
100
AcDbLine
 10
1016.6185373531
 20
378.2227568167
 30
0.0
 11
1012.3026767836
 21
370.7474775451
 31
0.0
  0
LINE
  5
29A
330
1F
100
AcDbEntity
  8
0
  6
CONTINUOUS
 62
     7
100
AcDbLine
 10
1012.3026767836
 20
370.7474775451
 30
0.0
 11
782.5128981934
 21
370.7474775451
 31
0.0
  0
LINE
  5
29B
330
1F
100
AcDbEntity
  8
0
  6
CONTINUOUS
 62
     7
100
AcDbLine
 10
782.5128981934
 20
370.7474775451
 30
0.0
 11
778.197037624
 21
378.2227568167
 31
0.0
  0
LINE
  5
29C
330
1F
100
AcDbEntity
  8
0
  6
CONTINUOUS
 62
     7
100
AcDbLine
 10
775.1387009488
 20
383.5199557083
 30
0.0
 11
772.4077874885
 21
388.2500313061
 31
0.0
  0
LINE
  5
29D
330
1F
100
AcDbEntity
  8
0
  6
CONTINUOUS
 62
     7
100
AcDbLine
 10
772.4077874885
 20
388.2500313061
 30
0.0
 11
772.4077874885
 21
571.2449185389
 31
0.0
  0
LINE
  5
29E
330
1F
100
AcDbEntity
  8
0
  6
CONTINUOUS
 62
     7
100
AcDbLine
 10
772.4077874885
 20
571.2449185389
 30
0.0
 11
775.0105584131
 21
575.7530487912
 31
0.0
  0
LINE
  5
29F
330
1F
100
AcDbEntity
  8
0
  6
CONTINUOUS
 62
     7
100
AcDbLine
 10
775.0562453733
 20
575.7530487912
 30
0.0
 11
775.0105584131
 21
575.7530487912
 31
0.0
  0
LINE
  5
2A0
330
1F
100
AcDbEntity
  8
0
  6
CONTINUOUS
 62
     7
100
AcDbLine
 10
785.5084637271
 20
586.7474756973
 30
0.0
 11
783.6675966249
 21
586.7474756973
 31
0.0
  0
LINE
  5
2A1
330
1F
100
AcDbEntity
  8
0
  6
CONTINUOUS
 62
     7
100
AcDbLine
 10
775.0105584131
 20
575.7530487912
 30
0.0
 11
775.1387009488
 21
575.9749941366
 31
0.0
  0
LINE
  5
2A2
330
1F
100
AcDbEntity
  8
0
  6
CONTINUOUS
 62
     7
100
AcDbLine
 10
778.197037624
 20
581.2721930283
 30
0.0
 11
782.5128981934
 21
588.7474722999
 31
0.0
  0
LINE
  5
2A3
330
1F
100
AcDbEntity
  8
0
  6
CONTINUOUS
 62
     7
100
AcDbLine
 10
789.9077857004
 20
588.7474722999
 30
0.0
 11
782.5128981934
 21
588.7474722999
 31
0.0
  0
LINE
  5
2A4
330
1F
100
AcDbEntity
  8
0
  6
CONTINUOUS
 62
     7
100
AcDbLine
 10
789.9077857004
 20
588.7474722999
 30
0.0
 11
789.9077857004
 21
588.0091346639
 31
0.0
  0
LINE
  5
2A5
330
1F
100
AcDbEntity
  8
0
  6
CONTINUOUS
 62
     7
100
AcDbLine
 10
783.6675966249
 20
586.7474756973
 30
0.0
 11
782.8821787701
 21
585.3870890873
 31
0.0
  0
LINE
  5
2A6
330
1F
100
AcDbEntity
  8
0
  6
CONTINUOUS
 62
     7
100
AcDbLine
 10
1012.3026767836
 20
588.7474722999
 30
0.0
 11
1016.6185373531
 21
581.2721930283
 31
0.0
  0
LINE
  5
2A7
330
1F
100
AcDbEntity
  8
0
  6
CONTINUOUS
 62
     7
100
AcDbLine
 10
1019.6768740283
 20
575.9749941366
 30
0.0
 11
1019.805016564
 21
575.7530487912
 31
0.0
  0
LINE
  5
2A8
330
1F
100
AcDbEntity
  8
0
  6
CONTINUOUS
 62
     7
100
AcDbLine
 10
1011.9333962069
 20
585.3870890873
 30
0.0
 11
1011.1479783521
 21
586.7474756973
 31
0.0
  0
LINE
  5
2A9
330
1F
100
AcDbEntity
  8
0
  6
CONTINUOUS
 62
     7
100
AcDbLine
 10
1011.1479783521
 20
586.7474756973
 30
0.0
 11
1009.30711125
 21
586.7474756973
 31
0.0
  0
LINE
  5
2AA
330
1F
100
AcDbEntity
  8
0
  6
CONTINUOUS
 62
     7
100
AcDbLine
 10
1004.9077892767
 20
588.7474722999
 30
0.0
 11
1004.9077892767
 21
588.0091346639
 31
0.0
  0
LINE
  5
2AB
330
1F
100
AcDbEntity
  8
0
  6
CONTINUOUS
 62
     7
100
AcDbLine
 10
1012.3026767836
 20
588.7474722999
 30
0.0
 11
1004.9077892767
 21
588.7474722999
 31
0.0
  0
LINE
  5
2AC
330
1F
100
AcDbEntity
  8
0
  6
CONTINUOUS
 62
     7
100
AcDbLine
 10
891.9077875183
 20
588.2474712866
 30
0.0
 11
891.9077875183
 21
588.7474722999
 31
0.0
  0
LINE
  5
2AD
330
1F
100
AcDbEntity
  8
0
  6
CONTINUOUS
 62
     7
100
AcDbLine
 10
800.9077856408
 20
588.7474722999
 30
0.0
 11
800.9077856408
 21
588.2474712866
 31
0.0
  0
LINE
  5
2AE
330
1F
100
AcDbEntity
  8
0
  6
CONTINUOUS
 62
     7
100
AcDbLine
 10
891.9077875183
 20
588.7474722999
 30
0.0
 11
800.9077856408
 21
588.7474722999
 31
0.0
  0
LINE
  5
2AF
330
1F
100
AcDbEntity
  8
0
  6
CONTINUOUS
 62
     7
100
AcDbLine
 10
902.9077874587
 20
588.2474712866
 30
0.0
 11
902.9077874587
 21
588.7474722999
 31
0.0
  0
LINE
  5
2B0
330
1F
100
AcDbEntity
  8
0
  6
CONTINUOUS
 62
     7
100
AcDbLine
 10
993.9077893363
 20
588.7474722999
 30
0.0
 11
902.9077874587
 21
588.7474722999
 31
0.0
  0
LINE
  5
2B1
330
1F
100
AcDbEntity
  8
0
  6
CONTINUOUS
 62
     7
100
AcDbLine
 10
993.9077893363
 20
588.7474722999
 30
0.0
 11
993.9077893363
 21
588.2474712866
 31
0.0
  0
LINE
  5
2B2
330
1F
100
AcDbEntity
  8
0
  6
CONTINUOUS
 62
     7
100
AcDbLine
 10
800.9077856408
 20
588.7474722999
 30
0.0
 11
789.9077857004
 21
588.7474722999
 31
0.0
  0
LINE
  5
2B3
330
1F
100
AcDbEntity
  8
0
  6
CONTINUOUS
 62
     7
100
AcDbLine
 10
902.9077874587
 20
588.7474722999
 30
0.0
 11
891.9077875183
 21
588.7474722999
 31
0.0
  0
LINE
  5
2B4
330
1F
100
AcDbEntity
  8
0
  6
CONTINUOUS
 62
     7
100
AcDbLine
 10
1004.9077892767
 20
588.7474722999
 30
0.0
 11
993.9077893363
 21
588.7474722999
 31
0.0
  0
ARC
  5
2B5
330
1F
100
AcDbEntity
  8
0
  6
CONTINUOUS
 62
     7
100
AcDbCircle
 10
803.9077879952
 20
370.5088832691
 30
0.0
 40
10.00389431793563
100
AcDbArc
 50
181.598422012
 51
358.401577988
  0
LINE
  5
2B6
330
1F
100
AcDbEntity
  8
0
  6
CONTINUOUS
 62
     7
100
AcDbLine
 10
793.907786356
 20
370.2298335569
 30
0.0
 11
793.907786356
 21
370.7474775451
 31
0.0
  0
LINE
  5
2B7
330
1F
100
AcDbEntity
  8
0
  6
CONTINUOUS
 62
     7
100
AcDbLine
 10
813.9077896343
 20
370.7474775451
 30
0.0
 11
813.9077896343
 21
370.2298335569
 31
0.0
  0
LINE
  5
2B8
330
1F
100
AcDbEntity
  8
0
  6
CONTINUOUS
 62
     7
100
AcDbLine
 10
1000.907788621
 20
370.7474775451
 30
0.0
 11
1000.907788621
 21
370.2298335569
 31
0.0
  0
ARC
  5
2B9
330
1F
100
AcDbEntity
  8
0
  6
CONTINUOUS
 62
     7
100
AcDbCircle
 10
990.9077869819
 20
370.5088832691
 30
0.0
 40
10.0038943179354
100
AcDbArc
 50
181.598422012
 51
358.401577988
  0
LINE
  5
2BA
330
1F
100
AcDbEntity
  8
0
  6
CONTINUOUS
 62
     7
100
AcDbLine
 10
980.9077853428
 20
370.2298335569
 30
0.0
 11
980.9077853428
 21
370.7474775451
 31
0.0
  0
ENDSEC
  0
SECTION
  2
OBJECTS
  0
DICTIONARY
  5
C
330
0
100
AcDbDictionary
  3
ACAD_GROUP
350
D
  3
ACAD_LAYOUT
350
1A
  3
ACAD_MLEADERSTYLE
350
2DC
  3
ACAD_MLINESTYLE
350
17
  3
ACAD_PLOTSETTINGS
350
19
  3
ACAD_TABLESTYLE
350
2DB
  3
ACAD_VISUALSTYLE
350
2A
  3
ACDBHEADERROUNDTRIPXREC
350
2BB
  3
ACDBVARIABLEDICTIONARY
350
2DD
  0
DICTIONARY
  5
D
102
{ACAD_REACTORS
330
C
102
}
330
C
100
AcDbDictionary
  0
DICTIONARY
  5
1A
102
{ACAD_REACTORS
330
C
102
}
330
C
100
AcDbDictionary
  0
DICTIONARY
  5
2DC
102
{ACAD_REACTORS
330
C
102
}
330
C
100
AcDbDictionary
  0
DICTIONARY
  5
17
102
{ACAD_REACTORS
330
C
102
}
330
C
100
AcDbDictionary
  3
STANDARD
350
18
  0
DICTIONARY
  5
19
102
{ACAD_REACTORS
330
C
102
}
330
C
100
AcDbDictionary
  0
DICTIONARY
  5
2DB
102
{ACAD_REACTORS
330
C
102
}
330
C
100
AcDbDictionary
  0
DICTIONARY
  5
2A
102
{ACAD_REACTORS
330
C
102
}
330
C
100
AcDbDictionary
  3
2DWIREFRAME
350
2F
  3
3D_HIDDEN
350
31
  3
3DWIREFRAME
350
30
  3
BASIC
350
32
  3
BRIGHTEN
350
36
  3
COLORCHANGE
350
3A
  3
CONCEPTUAL
350
34
  3
DIM
350
35
  3
FACEPATTERN
350
39
  3
FLAT
350
2B
  3
FLATWITHEDGES
350
2C
  3
GOURAUD
350
2D
  3
GOURAUDWITHEDGES
350
2E
  3
LINEPATTERN
350
38
  3
REALISTIC
350
33
  3
THICKEN
350
37
  0
DICTIONARY
  5
2BB
102
{ACAD_REACTORS
330
C
102
}
330
C
100
AcDbDictionary
  3
CEPSNTYPE
350
2C4
  3
DIMSTYLEDATA
350
2DA
  3
FINGERPRINTGUID
350
2C5
  3
HYPERLINKBASE
350
2BE
  3
INSUNITS
350
2C3
  3
LAYOUTDICT
350
2C0
  3
LWETCUNION
350
2C2
  3
PLOTSETDICT
350
2C1
  3
PSVPSCALE
350
2C7
  3
PUCSBASE
350
2CA
  3
PUCSORGBACK
350
2D0
  3
PUCSORGBOTTOM
350
2CC
  3
PUCSORGFRONT
350
2CF
  3
PUCSORGLEFT
350
2CD
  3
PUCSORGRIGHT
350
2CE
  3
PUCSORGTOP
350
2CB
  3
PUCSORTHOREF
350
2C8
  3
PUCSORTHOVIEW
350
2C9
  3
STYLESHEET
350
2BF
  3
TSTACKALIGN
350
2BC
  3
TSTACKSIZE
350
2BD
  3
UCSBASE
350
2D3
  3
UCSORGBACK
350
2D9
  3
UCSORGBOTTOM
350
2D5
  3
UCSORGFRONT
350
2D8
  3
UCSORGLEFT
350
2D6
  3
UCSORGRIGHT
350
2D7
  3
UCSORGTOP
350
2D4
  3
UCSORTHOREF
350
2D1
  3
UCSORTHOVIEW
350
2D2
  3
VERSIONGUID
350
2C6
  0
DICTIONARY
  5
2DD
102
{ACAD_REACTORS
330
C
102
}
330
C
100
AcDbDictionary
  3
PSOLHEIGHT
350
2DF
  3
PSOLWIDTH
350
2DE
  0
MLINESTYLE
  5
18
102
{ACAD_REACTORS
330
17
102
}
330
17
100
AcDbMlineStyle
  2
Standard
 70
     0
  3

 62
   256
 51
90.0
 52
90.0
 71
     2
 49
0.5
 62
   256
  6
BYLAYER
 49
-0.5
 62
   256
  6
BYLAYER
  0
VISUALSTYLE
  5
2F
102
{ACAD_REACTORS
330
2A
102
}
330
2A
100
AcDbVisualStyle
  2
2dWireframe
 70
     4
 71
     0
 72
     2
 73
     0
 90
        0
 40
-0.6
 41
-30.0
 62
     5
 63
     7
 74
     1
 91
        4
 64
     7
 65
   257
 75
     1
175
     1
 42
1.0
 92
        0
 66
   257
 43
1.0
 76
     1
 77
     6
 78
     2
 67
     7
 79
     5
170
     0
171
     0
290
     0
174
     0
 93
        1
 44
0.0
173
     0
291
     0
 45
0.0
1001
ACAD
1000
AcDbSavedByObjectVersion
1070
     0
  0
VISUALSTYLE
  5
31
102
{ACAD_REACTORS
330
2A
102
}
330
2A
100
AcDbVisualStyle
  2
3D Hidden
 70
     6
 71
     1
 72
     2
 73
     2
 90
        0
 40
-0.6
 41
-30.0
 62
     5
 63
     7
 74
     2
 91
        2
 64
     7
 65
   257
 75
     2
175
     1
 42
40.0
 92
        0
 66
   257
 43
1.0
 76
     1
 77
     6
 78
     2
 67
     7
 79
     3
170
     0
171
     0
290
     0
174
     0
 93
        1
 44
0.0
173
     0
291
     0
 45
0.0
1001
ACAD
1000
AcDbSavedByObjectVersion
1070
     0
  0
VISUALSTYLE
  5
30
102
{ACAD_REACTORS
330
2A
102
}
330
2A
100
AcDbVisualStyle
  2
3dWireframe
 70
     5
 71
     0
 72
     2
 73
     0
 90
        0
 40
-0.6
 41
-30.0
 62
     5
 63
     7
 74
     1
 91
        4
 64
     7
 65
   257
 75
     1
175
     1
 42
1.0
 92
        0
 66
   257
 43
1.0
 76
     1
 77
     6
 78
     2
 67
     7
 79
     5
170
     0
171
     0
290
     0
174
     0
 93
        1
 44
0.0
173
     0
291
     0
 45
0.0
1001
ACAD
1000
AcDbSavedByObjectVersion
1070
     0
  0
VISUALSTYLE
  5
32
102
{ACAD_REACTORS
330
2A
102
}
330
2A
100
AcDbVisualStyle
  2
Basic
 70
     7
 71
     1
 72
     0
 73
     1
 90
        0
 40
-0.6
 41
-30.0
 62
     5
 63
     7
 74
     0
 91
        4
 64
     7
 65
   257
 75
     1
175
     1
 42
1.0
 92
        8
 66
     7
 43
1.0
 76
     1
 77
     6
 78
     2
 67
     7
 79
     5
170
     0
171
     0
290
     0
174
     0
 93
        1
 44
0.0
173
     0
291
     1
 45
0.0
1001
ACAD
1000
AcDbSavedByObjectVersion
1070
     0
  0
VISUALSTYLE
  5
36
102
{ACAD_REACTORS
330
2A
102
}
330
2A
100
AcDbVisualStyle
  2
Brighten
 70
    12
 71
     2
 72
     2
 73
     0
 90
        0
 40
-0.6
 41
-30.0
 62
     5
 63
     7
 74
     1
 91
        4
 64
     7
 65
   257
 75
     1
175
     1
 42
1.0
 92
        8
 66
     7
 43
1.0
 76
     1
 77
     6
 78
     2
 67
     7
 79
     5
170
     0
171
     0
290
     0
174
     0
 93
        1
 44
50.0
173
     0
291
     1
 45
0.0
1001
ACAD
1000
AcDbSavedByObjectVersion
1070
     0
  0
VISUALSTYLE
  5
3A
102
{ACAD_REACTORS
330
2A
102
}
330
2A
100
AcDbVisualStyle
  2
ColorChange
 70
    16
 71
     2
 72
     2
 73
     3
 90
        0
 40
-0.6
 41
-30.0
 62
     5
 63
     8
 74
     1
 91
        4
 64
     7
 65
   257
 75
     1
175
     1
 42
1.0
 92
        8
 66
     8
 43
1.0
 76
     1
 77
     6
 78
     2
 67
     7
 79
     5
170
     0
171
     0
290
     0
174
     0
 93
        1
 44
0.0
173
     0
291
     1
 45
0.0
1001
ACAD
1000
AcDbSavedByObjectVersion
1070
     0
  0
VISUALSTYLE
  5
34
102
{ACAD_REACTORS
330
2A
102
}
330
2A
100
AcDbVisualStyle
  2
Conceptual
 70
     9
 71
     3
 72
     2
 73
     0
 90
        0
 40
-0.6
 41
-30.0
 62
     5
 63
     7
 74
     2
 91
        2
 64
     7
 65
   257
 75
     1
175
     1
 42
40.0
 92
        8
 66
     7
 43
1.0
 76
     1
 77
     6
 78
     2
 67
     7
 79
     3
170
     0
171
     0
290
     0
174
     0
 93
        1
 44
0.0
173
     0
291
     0
 45
0.0
1001
ACAD
1000
AcDbSavedByObjectVersion
1070
     0
  0
VISUALSTYLE
  5
35
102
{ACAD_REACTORS
330
2A
102
}
330
2A
100
AcDbVisualStyle
  2
Dim
 70
    11
 71
     2
 72
     2
 73
     0
 90
        0
 40
-0.6
 41
-30.0
 62
     5
 63
     7
 74
     1
 91
        4
 64
     7
 65
   257
 75
     1
175
     1
 42
1.0
 92
        8
 66
     7
 43
1.0
 76
     1
 77
     6
 78
     2
 67
     7
 79
     5
170
     0
171
     0
290
     0
174
     0
 93
        1
 44
-50.0
173
     0
291
     1
 45
0.0
1001
ACAD
1000
AcDbSavedByObjectVersion
1070
     0
  0
VISUALSTYLE
  5
39
102
{ACAD_REACTORS
330
2A
102
}
330
2A
100
AcDbVisualStyle
  2
Facepattern
 70
    15
 71
     2
 72
     2
 73
     0
 90
        0
 40
-0.6
 41
-30.0
 62
     5
 63
     7
 74
     1
 91
        4
 64
     7
 65
   257
 75
     1
175
     1
 42
1.0
 92
        8
 66
     7
 43
1.0
 76
     1
 77
     6
 78
     2
 67
     7
 79
     5
170
     0
171
     0
290
     0
174
     0
 93
        1
 44
0.0
173
     0
291
     1
 45
0.0
1001
ACAD
1000
AcDbSavedByObjectVersion
1070
     0
  0
VISUALSTYLE
  5
2B
102
{ACAD_REACTORS
330
2A
102
}
330
2A
100
AcDbVisualStyle
  2
Flat
 70
     0
 71
     2
 72
     1
 73
     1
 90
        2
 40
-0.6
 41
30.0
 62
     5
 63
     7
 74
     0
 91
        4
 64
     7
 65
   257
 75
     1
175
     1
 42
1.0
 92
        8
 66
     7
 43
1.0
 76
     1
 77
     6
 78
     2
 67
     7
 79
     5
170
     0
171
     0
290
     0
174
     0
 93
       13
 44
0.0
173
     0
291
     1
 45
0.0
1001
ACAD
1000
AcDbSavedByObjectVersion
1070
     0
  0
VISUALSTYLE
  5
2C
102
{ACAD_REACTORS
330
2A
102
}
330
2A
100
AcDbVisualStyle
  2
FlatWithEdges
 70
     1
 71
     2
 72
     1
 73
     1
 90
        2
 40
-0.6
 41
30.0
 62
     5
 63
     7
 74
     1
 91
        4
 64
     7
 65
   257
 75
     1
175
     1
 42
1.0
 92
        0
 66
   257
 43
1.0
 76
     1
 77
     6
 78
     2
 67
     7
 79
     5
170
     0
171
     0
290
     0
174
     0
 93
       13
 44
0.0
173
     0
291
     1
 45
0.0
1001
ACAD
1000
AcDbSavedByObjectVersion
1070
     0
  0
VISUALSTYLE
  5
2D
102
{ACAD_REACTORS
330
2A
102
}
330
2A
100
AcDbVisualStyle
  2
Gouraud
 70
     2
 71
     2
 72
     2
 73
     1
 90
        2
 40
-0.6
 41
30.0
 62
     5
 63
     7
 74
     0
 91
        4
 64
     7
 65
   257
 75
     1
175
     1
 42
1.0
 92
        0
 66
     7
 43
1.0
 76
     1
 77
     6
 78
     2
 67
     7
 79
     5
170
     0
171
     0
290
     0
174
     0
 93
       13
 44
0.0
173
     0
291
     1
 45
0.0
1001
ACAD
1000
AcDbSavedByObjectVersion
1070
     0
  0
VISUALSTYLE
  5
2E
102
{ACAD_REACTORS
330
2A
102
}
330
2A
100
AcDbVisualStyle
  2
GouraudWithEdges
 70
     3
 71
     2
 72
     2
 73
     1
 90
        2
 40
-0.6
 41
30.0
 62
     5
 63
     7
 74
     1
 91
        4
 64
     7
 65
   257
 75
     1
175
     1
 42
1.0
 92
        0
 66
   257
 43
1.0
 76
     1
 77
     6
 78
     2
 67
     7
 79
     5
170
     0
171
     0
290
     0
174
     0
 93
       13
 44
0.0
173
     0
291
     1
 45
0.0
1001
ACAD
1000
AcDbSavedByObjectVersion
1070
     0
  0
VISUALSTYLE
  5
38
102
{ACAD_REACTORS
330
2A
102
}
330
2A
100
AcDbVisualStyle
  2
Linepattern
 70
    14
 71
     2
 72
     2
 73
     0
 90
        0
 40
-0.6
 41
-30.0
 62
     5
 63
     7
 74
     1
 91
        4
 64
     7
 65
   257
 75
     7
175
     7
 42
1.0
 92
        8
 66
     7
 43
1.0
 76
     1
 77
     6
 78
     2
 67
     7
 79
     5
170
     0
171
     0
290
     0
174
     0
 93
        1
 44
0.0
173
     0
291
     1
 45
0.0
1001
ACAD
1000
AcDbSavedByObjectVersion
1070
     0
  0
VISUALSTYLE
  5
33
102
{ACAD_REACTORS
330
2A
102
}
330
2A
100
AcDbVisualStyle
  2
Realistic
 70
     8
 71
     2
 72
     2
 73
     0
 90
        0
 40
-0.6
 41
-30.0
 62
     5
 63
     7
 74
     1
 91
        0
 64
     7
 65
   257
 75
     1
175
     1
 42
1.0
 92
        8
 66
     8
 43
1.0
 76
     1
 77
     6
 78
     2
 67
     7
 79
     5
170
     0
171
     0
290
     0
174
     0
 93
       13
 44
0.0
173
     0
291
     0
 45
0.0
1001
ACAD
1000
AcDbSavedByObjectVersion
1070
     0
  0
VISUALSTYLE
  5
37
102
{ACAD_REACTORS
330
2A
102
}
330
2A
100
AcDbVisualStyle
  2
Thicken
 70
    13
 71
     2
 72
     2
 73
     0
 90
        0
 40
-0.6
 41
-30.0
 62
     5
 63
     7
 74
     1
 91
        4
 64
     7
 65
   257
 75
     1
175
     1
 42
1.0
 92
       12
 66
     7
 43
1.0
 76
     1
 77
     6
 78
     2
 67
     7
 79
     5
170
     0
171
     0
290
     0
174
     0
 93
        1
 44
0.0
173
     0
291
     1
 45
0.0
1001
ACAD
1000
AcDbSavedByObjectVersion
1070
     0
  0
XRECORD
  5
2C4
102
{ACAD_REACTORS
330
2BB
102
}
330
2BB
100
AcDbXrecord
 90
        0
  0
XRECORD
  5
2DA
102
{ACAD_REACTORS
330
2BB
102
}
330
2BB
100
AcDbXrecord
1000
DSTYLE
1002
{
1070
   179
 70
     2
1070
   143
 40
0.0393700787
1070
    41
 40
18.0
1070
    44
 40
3.0
1070
    42
 40
3.0
1070
   147
 40
4.572
1070
    73
 70
     1
1070
    74
 70
     1
1070
   340
340
11
1070
   140
 40
10.5
1070
   284
 70
     0
1070
    78
 70
     0
1002
}
  0
XRECORD
  5
2C5
102
{ACAD_REACTORS
330
2BB
102
}
330
2BB
100
AcDbXrecord
  1
{29434EF4-0BBF-4EFA-AFB5-4DFC39A7B261}
  0
XRECORD
  5
2BE
102
{ACAD_REACTORS
330
2BB
102
}
330
2BB
100
AcDbXrecord
  1

  0
XRECORD
  5
2C3
102
{ACAD_REACTORS
330
2BB
102
}
330
2BB
100
AcDbXrecord
 90
        4
  0
XRECORD
  5
2C0
102
{ACAD_REACTORS
330
2BB
102
}
330
2BB
100
AcDbXrecord
340
1A
  0
XRECORD
  5
2C2
102
{ACAD_REACTORS
330
2BB
102
}
330
2BB
100
AcDbXrecord
 90
    10269
  0
XRECORD
  5
2C1
102
{ACAD_REACTORS
330
2BB
102
}
330
2BB
100
AcDbXrecord
340
19
  0
XRECORD
  5
2C7
102
{ACAD_REACTORS
330
2BB
102
}
330
2BB
100
AcDbXrecord
 40
0.0
  0
XRECORD
  5
2CA
102
{ACAD_REACTORS
330
2BB
102
}
330
2BB
100
AcDbXrecord
340
0
  0
XRECORD
  5
2D0
102
{ACAD_REACTORS
330
2BB
102
}
330
2BB
100
AcDbXrecord
 10
0.0
 20
0.0
 30
0.0
  0
XRECORD
  5
2CC
102
{ACAD_REACTORS
330
2BB
102
}
330
2BB
100
AcDbXrecord
 10
0.0
 20
0.0
 30
0.0
  0
XRECORD
  5
2CF
102
{ACAD_REACTORS
330
2BB
102
}
330
2BB
100
AcDbXrecord
 10
0.0
 20
0.0
 30
0.0
  0
XRECORD
  5
2CD
102
{ACAD_REACTORS
330
2BB
102
}
330
2BB
100
AcDbXrecord
 10
0.0
 20
0.0
 30
0.0
  0
XRECORD
  5
2CE
102
{ACAD_REACTORS
330
2BB
102
}
330
2BB
100
AcDbXrecord
 10
0.0
 20
0.0
 30
0.0
  0
XRECORD
  5
2CB
102
{ACAD_REACTORS
330
2BB
102
}
330
2BB
100
AcDbXrecord
 10
0.0
 20
0.0
 30
0.0
  0
XRECORD
  5
2C8
102
{ACAD_REACTORS
330
2BB
102
}
330
2BB
100
AcDbXrecord
340
0
  0
XRECORD
  5
2C9
102
{ACAD_REACTORS
330
2BB
102
}
330
2BB
100
AcDbXrecord
 70
     0
  0
XRECORD
  5
2BF
102
{ACAD_REACTORS
330
2BB
102
}
330
2BB
100
AcDbXrecord
  1

  0
XRECORD
  5
2BC
102
{ACAD_REACTORS
330
2BB
102
}
330
2BB
100
AcDbXrecord
 90
        1
  0
XRECORD
  5
2BD
102
{ACAD_REACTORS
330
2BB
102
}
330
2BB
100
AcDbXrecord
 90
       70
  0
XRECORD
  5
2D3
102
{ACAD_REACTORS
330
2BB
102
}
330
2BB
100
AcDbXrecord
340
0
  0
XRECORD
  5
2D9
102
{ACAD_REACTORS
330
2BB
102
}
330
2BB
100
AcDbXrecord
 10
0.0
 20
0.0
 30
0.0
  0
XRECORD
  5
2D5
102
{ACAD_REACTORS
330
2BB
102
}
330
2BB
100
AcDbXrecord
 10
0.0
 20
0.0
 30
0.0
  0
XRECORD
  5
2D8
102
{ACAD_REACTORS
330
2BB
102
}
330
2BB
100
AcDbXrecord
 10
0.0
 20
0.0
 30
0.0
  0
XRECORD
  5
2D6
102
{ACAD_REACTORS
330
2BB
102
}
330
2BB
100
AcDbXrecord
 10
0.0
 20
0.0
 30
0.0
  0
XRECORD
  5
2D7
102
{ACAD_REACTORS
330
2BB
102
}
330
2BB
100
AcDbXrecord
 10
0.0
 20
0.0
 30
0.0
  0
XRECORD
  5
2D4
102
{ACAD_REACTORS
330
2BB
102
}
330
2BB
100
AcDbXrecord
 10
0.0
 20
0.0
 30
0.0
  0
XRECORD
  5
2D1
102
{ACAD_REACTORS
330
2BB
102
}
330
2BB
100
AcDbXrecord
340
0
  0
XRECORD
  5
2D2
102
{ACAD_REACTORS
330
2BB
102
}
330
2BB
100
AcDbXrecord
 70
     0
  0
XRECORD
  5
2C6
102
{ACAD_REACTORS
330
2BB
102
}
330
2BB
100
AcDbXrecord
  1
{FAEB1C32-E019-11D5-929B-00C0DF256EC4}
  0
DICTIONARYVAR
  5
2DF
102
{ACAD_REACTORS
330
2DD
102
}
330
2DD
100
DictionaryVariables
280
     0
  1
80.000000
  0
DICTIONARYVAR
  5
2DE
102
{ACAD_REACTORS
330
2DD
102
}
330
2DD
100
DictionaryVariables
280
     0
  1
5.000000
  0
ENDSEC
  0
EOF
