  0
SECTION
  2
HEADER
  9
$ACADVER
  1
AC1014
  9
$ACADMAINTVER
 70
     9
  9
$DWGCODEPAGE
  3
ANSI_1252
  9
$INSBASE
 10
0.0
 20
0.0
 30
0.0
  9
$EXTMIN
 10
0.0
 20
0.0
 30
0.0
  9
$EXTMAX
 10
840.0
 20
594.0
 30
0.0
  9
$LIMMIN
 10
0.0
 20
0.0
  9
$LIMMAX
 10
840.0
 20
594.0
  9
$ORTHOMODE
 70
     0
  9
$REGENMODE
 70
     1
  9
$FILLMODE
 70
     1
  9
$QTEXTMODE
 70
     0
  9
$MIRRTEXT
 70
     1
  9
$DRAGMODE
 70
     2
  9
$LTSCALE
 40
2.0
  9
$OSMODE
 70
    37
  9
$ATTMODE
 70
     1
  9
$TEXTSIZE
 40
7.0
  9
$TRACEWID
 40
1.0
  9
$TEXTSTYLE
  7
STANDARD
  9
$CLAYER
  8
0
  9
$CELTYPE
  6
BYLAYER
  9
$CECOLOR
 62
   256
  9
$CELTSCALE
 40
1.0
  9
$DELOBJ
 70
     1
  9
$DISPSILH
 70
     0
  9
$DIMSCALE
 40
1.0
  9
$DIMASZ
 40
12.0
  9
$DIMEXO
 40
2.0
  9
$DIMDLI
 40
3.75
  9
$DIMRND
 40
0.0
  9
$DIMDLE
 40
0.0
  9
$DIMEXE
 40
2.0
  9
$DIMTP
 40
0.0
  9
$DIMTM
 40
0.0
  9
$DIMTXT
 40
7.0
  9
$DIMCEN
 40
2.5
  9
$DIMTSZ
 40
0.0
  9
$DIMTOL
 70
     0
  9
$DIMLIM
 70
     0
  9
$DIMTIH
 70
     1
  9
$DIMTOH
 70
     1
  9
$DIMSE1
 70
     0
  9
$DIMSE2
 70
     0
  9
$DIMTAD
 70
     1
  9
$DIMZIN
 70
     0
  9
$DIMBLK
  1

  9
$DIMASO
 70
     1
  9
$DIMSHO
 70
     1
  9
$DIMPOST
  1

  9
$DIMAPOST
  1

  9
$DIMALT
 70
     0
  9
$DIMALTD
 70
     3
  9
$DIMALTF
 40
0.0393700787
  9
$DIMLFAC
 40
1.0
  9
$DIMTOFL
 70
     1
  9
$DIMTVP
 40
0.0
  9
$DIMTIX
 70
     0
  9
$DIMSOXD
 70
     0
  9
$DIMSAH
 70
     0
  9
$DIMBLK1
  1

  9
$DIMBLK2
  1

  9
$DIMSTYLE
  2
ISO-25
  9
$DIMCLRD
 70
     0
  9
$DIMCLRE
 70
     0
  9
$DIMCLRT
 70
     0
  9
$DIMTFAC
 40
1.0
  9
$DIMGAP
 40
3.048
  9
$DIMJUST
 70
     0
  9
$DIMSD1
 70
     0
  9
$DIMSD2
 70
     0
  9
$DIMTOLJ
 70
     0
  9
$DIMTZIN
 70
     0
  9
$DIMALTZ
 70
     0
  9
$DIMALTTZ
 70
     0
  9
$DIMFIT
 70
     3
  9
$DIMUPT
 70
     0
  9
$DIMUNIT
 70
     2
  9
$DIMDEC
 70
     2
  9
$DIMTDEC
 70
     2
  9
$DIMALTU
 70
     2
  9
$DIMALTTD
 70
     3
  9
$DIMTXSTY
  7
STANDARD
  9
$DIMAUNIT
 70
     0
  9
$LUNITS
 70
     2
  9
$LUPREC
 70
     2
  9
$SKETCHINC
 40
1.0
  9
$FILLETRAD
 40
10.0
  9
$AUNITS
 70
     0
  9
$AUPREC
 70
     2
  9
$MENU
  1
.
  9
$ELEVATION
 40
0.0
  9
$PELEVATION
 40
0.0
  9
$THICKNESS
 40
0.0
  9
$LIMCHECK
 70
     0
  9
$CHAMFERA
 40
10.0
  9
$CHAMFERB
 40
10.0
  9
$CHAMFERC
 40
20.0
  9
$CHAMFERD
 40
0.0
  9
$SKPOLY
 70
     0
  9
$TDCREATE
 40
2455439.462656134
  9
$TDUPDATE
 40
2455439.462656146
  9
$TDINDWG
 40
0.0000000116
  9
$TDUSRTIMER
 40
0.0000000116
  9
$USRTIMER
 70
     1
  9
$ANGBASE
 50
0.0
  9
$ANGDIR
 70
     0
  9
$PDMODE
 70
     0
  9
$PDSIZE
 40
-1.0
  9
$PLINEWID
 40
0.0
  9
$COORDS
 70
     1
  9
$SPLFRAME
 70
     0
  9
$SPLINETYPE
 70
     6
  9
$SPLINESEGS
 70
     8
  9
$ATTDIA
 70
     0
  9
$ATTREQ
 70
     1
  9
$HANDLING
 70
     1
  9
$HANDSEED
  5
1FF
  9
$SURFTAB1
 70
     6
  9
$SURFTAB2
 70
     6
  9
$SURFTYPE
 70
     6
  9
$SURFU
 70
     6
  9
$SURFV
 70
     6
  9
$UCSNAME
  2

  9
$UCSORG
 10
0.0
 20
0.0
 30
0.0
  9
$UCSXDIR
 10
1.0
 20
0.0
 30
0.0
  9
$UCSYDIR
 10
0.0
 20
1.0
 30
0.0
  9
$PUCSNAME
  2

  9
$PUCSORG
 10
0.0
 20
0.0
 30
0.0
  9
$PUCSXDIR
 10
1.0
 20
0.0
 30
0.0
  9
$PUCSYDIR
 10
0.0
 20
1.0
 30
0.0
  9
$USERI1
 70
     0
  9
$USERI2
 70
     0
  9
$USERI3
 70
     0
  9
$USERI4
 70
     0
  9
$USERI5
 70
     0
  9
$USERR1
 40
0.0
  9
$USERR2
 40
0.0
  9
$USERR3
 40
0.0
  9
$USERR4
 40
0.0
  9
$USERR5
 40
0.0
  9
$WORLDVIEW
 70
     1
  9
$SHADEDGE
 70
     3
  9
$SHADEDIF
 70
    70
  9
$TILEMODE
 70
     1
  9
$MAXACTVP
 70
    64
  9
$PINSBASE
 10
0.0
 20
0.0
 30
0.0
  9
$PLIMCHECK
 70
     0
  9
$PEXTMIN
 10
1.0000000000E+20
 20
1.0000000000E+20
 30
1.0000000000E+20
  9
$PEXTMAX
 10
-1.0000000000E+20
 20
-1.0000000000E+20
 30
-1.0000000000E+20
  9
$PLIMMIN
 10
0.0
 20
0.0
  9
$PLIMMAX
 10
420.0
 20
297.0
  9
$UNITMODE
 70
     0
  9
$VISRETAIN
 70
     1
  9
$PLINEGEN
 70
     0
  9
$PSLTSCALE
 70
     1
  9
$TREEDEPTH
 70
  3020
  9
$PICKSTYLE
 70
     1
  9
$CMLSTYLE
  2
STANDARD
  9
$CMLJUST
 70
     0
  9
$CMLSCALE
 40
20.0
  9
$PROXYGRAPHICS
 70
     1
  9
$MEASUREMENT
 70
     1
  0
ENDSEC
  0
SECTION
  2
CLASSES
  0
CLASS
  1
ACDBDICTIONARYWDFLT
  2
AcDbDictionaryWithDefault
  3
ObjectDBX Classes
 90
        0
280
     0
281
     0
  0
CLASS
  1
VISUALSTYLE
  2
AcDbVisualStyle
  3
ObjectDBX Classes
 90
     4095
280
     0
281
     0
  0
CLASS
  1
MATERIAL
  2
AcDbMaterial
  3
ObjectDBX Classes
 90
     1153
280
     0
281
     0
  0
CLASS
  1
XRECORD
  2
AcDbXrecord
  3
AutoCAD 2000
 90
        0
280
     0
281
     0
  0
CLASS
  1
LWPOLYLINE
  2
AcDbPolyline
  3
AutoCAD 2000
 90
        0
280
     0
281
     1
  0
CLASS
  1
HATCH
  2
AcDbHatch
  3
AutoCAD 2000
 90
        0
280
     0
281
     1
  0
ENDSEC
  0
SECTION
  2
TABLES
  0
TABLE
  2
VPORT
  5
8
330
0
100
AcDbSymbolTable
 70
     1
  0
VPORT
  5
29
330
8
100
AcDbSymbolTableRecord
100
AcDbViewportTableRecord
  2
*ACTIVE
 70
     0
 10
0.0
 20
0.0
 11
1.0
 21
1.0
 12
420.0
 22
297.0
 13
0.0
 23
0.0
 14
10.0
 24
10.0
 15
10.0
 25
10.0
 16
0.0
 26
0.0
 36
1.0
 17
0.0
 27
0.0
 37
0.0
 40
594.0
 41
1.4141414141
 42
50.0
 43
0.0
 44
0.0
 50
0.0
 51
0.0
 71
     0
 72
  2000
 73
     1
 74
     3
 75
     0
 76
     0
 77
     0
 78
     0
  0
ENDTAB
  0
TABLE
  2
LTYPE
  5
5
330
0
100
AcDbSymbolTable
 70
     6
  0
LTYPE
  5
14
330
5
100
AcDbSymbolTableRecord
100
AcDbLinetypeTableRecord
  2
BYBLOCK
 70
     0
  3

 72
    65
 73
     0
 40
0.0
  0
LTYPE
  5
15
330
5
100
AcDbSymbolTableRecord
100
AcDbLinetypeTableRecord
  2
BYLAYER
 70
     0
  3

 72
    65
 73
     0
 40
0.0
  0
LTYPE
  5
16
330
5
100
AcDbSymbolTableRecord
100
AcDbLinetypeTableRecord
  2
CONTINUOUS
 70
     0
  3
Solid line
 72
    65
 73
     0
 40
0.0
  0
LTYPE
  5
3F
330
5
100
AcDbSymbolTableRecord
100
AcDbLinetypeTableRecord
  2
HIDDEN
 70
     0
  3
Hidden __ __ __ __ __ __ __ __ __ __ __ __ __ __
 72
    65
 73
     2
 40
1.905
 49
1.27
 74
     0
 49
-0.635
 74
     0
  0
LTYPE
  5
40
330
5
100
AcDbSymbolTableRecord
100
AcDbLinetypeTableRecord
  2
PHANTOM
 70
     0
  3
Phantom ______  __  __  ______  __  __  ______
 72
    65
 73
     6
 40
12.7
 49
6.35
 74
     0
 49
-1.27
 74
     0
 49
1.27
 74
     0
 49
-1.27
 74
     0
 49
1.27
 74
     0
 49
-1.27
 74
     0
  0
LTYPE
  5
41
330
5
100
AcDbSymbolTableRecord
100
AcDbLinetypeTableRecord
  2
CENTER
 70
     0
  3
Center ____ _ ____ _ ____ _ ____ _ ____ _ ____
 72
    65
 73
     4
 40
10.16
 49
6.35
 74
     0
 49
-1.27
 74
     0
 49
1.27
 74
     0
 49
-1.27
 74
     0
  0
LTYPE
  5
42
330
5
100
AcDbSymbolTableRecord
100
AcDbLinetypeTableRecord
  2
CENTERX2
 70
     0
  3
Center (2x) ________  __  ________  __  _____
 72
    65
 73
     4
 40
20.32
 49
12.7
 74
     0
 49
-2.54
 74
     0
 49
2.54
 74
     0
 49
-2.54
 74
     0
  0
LTYPE
  5
43
330
5
100
AcDbSymbolTableRecord
100
AcDbLinetypeTableRecord
  2
DOT2
 70
     0
  3
Dot (.5x) ........................................
 72
    65
 73
     2
 40
0.635
 49
0.0
 74
     0
 49
-0.635
 74
     0
  0
ENDTAB
  0
TABLE
  2
LAYER
  5
2
330
0
100
AcDbSymbolTable
 70
     1
  0
LAYER
  5
10
330
2
100
AcDbSymbolTableRecord
100
AcDbLayerTableRecord
  2
0
 70
     0
 62
     7
  6
CONTINUOUS
  0
ENDTAB
  0
TABLE
  2
STYLE
  5
3
330
0
100
AcDbSymbolTable
 70
     1
  0
STYLE
  5
11
330
3
100
AcDbSymbolTableRecord
100
AcDbTextStyleTableRecord
  2
STANDARD
 70
     0
 40
0.0
 41
1.0
 50
0.0
 71
     0
 42
2.5
  3
txt
  4

  0
ENDTAB
  0
TABLE
  2
VIEW
  5
6
330
0
100
AcDbSymbolTable
 70
     0
  0
ENDTAB
  0
TABLE
  2
UCS
  5
7
330
0
100
AcDbSymbolTable
 70
     0
  0
ENDTAB
  0
TABLE
  2
APPID
  5
9
330
0
100
AcDbSymbolTable
 70
     1
  0
APPID
  5
12
330
9
100
AcDbSymbolTableRecord
100
AcDbRegAppTableRecord
  2
ACAD
 70
     0
  0
ENDTAB
  0
TABLE
  2
DIMSTYLE
  5
A
330
0
100
AcDbSymbolTable
 70
     1
  0
DIMSTYLE
105
27
330
A
100
AcDbSymbolTableRecord
100
AcDbDimStyleTableRecord
  2
ISO-25
 70
     0
  3

  4

  5

  6

  7

 40
1.0
 41
2.5
 42
0.625
 43
3.75
 44
1.25
 45
0.0
 46
0.0
 47
0.0
 48
0.0
140
2.5
141
2.5
142
0.0
143
0.0393700787
144
1.0
145
0.0
146
1.0
147
0.625
 71
     0
 72
     0
 73
     0
 74
     0
 75
     0
 76
     0
 77
     1
 78
     8
170
     0
171
     3
172
     1
173
     0
174
     0
175
     0
176
     0
177
     0
178
     0
270
     2
271
     2
272
     2
273
     2
274
     3
340
11
275
     0
280
     0
281
     0
282
     0
283
     0
284
     8
285
     0
286
     0
287
     3
288
     0
  0
ENDTAB
  0
TABLE
  2
BLOCK_RECORD
  5
1
330
0
100
AcDbSymbolTable
 70
     1
  0
BLOCK_RECORD
  5
1F
330
1
100
AcDbSymbolTableRecord
100
AcDbBlockTableRecord
  2
*MODEL_SPACE
  0
BLOCK_RECORD
  5
1B
330
1
100
AcDbSymbolTableRecord
100
AcDbBlockTableRecord
  2
*PAPER_SPACE
  0
BLOCK_RECORD
  5
23
330
1
100
AcDbSymbolTableRecord
100
AcDbBlockTableRecord
  2
*PAPER_SPACE0
  0
ENDTAB
  0
ENDSEC
  0
SECTION
  2
BLOCKS
  0
BLOCK
  5
20
330
1F
100
AcDbEntity
  8
0
100
AcDbBlockBegin
  2
*MODEL_SPACE
 70
     0
 10
0.0
 20
0.0
 30
0.0
  3
*MODEL_SPACE
  1

  0
ENDBLK
  5
21
330
1F
100
AcDbEntity
  8
0
100
AcDbBlockEnd
  0
BLOCK
  5
1C
330
1B
100
AcDbEntity
 67
     1
  8
0
100
AcDbBlockBegin
  2
*PAPER_SPACE
 70
     0
 10
0.0
 20
0.0
 30
0.0
  3
*PAPER_SPACE
  1

  0
ENDBLK
  5
1D
330
1B
100
AcDbEntity
 67
     1
  8
0
100
AcDbBlockEnd
  0
BLOCK
  5
24
330
23
100
AcDbEntity
  8
0
100
AcDbBlockBegin
  2
*PAPER_SPACE0
 70
     0
 10
0.0
 20
0.0
 30
0.0
  3
*PAPER_SPACE0
  1

  0
ENDBLK
  5
25
330
23
100
AcDbEntity
  8
0
100
AcDbBlockEnd
  0
ENDSEC
  0
SECTION
  2
ENTITIES
  0
LINE
  5
44
330
1F
100
AcDbEntity
  8
0
  6
CONTINUOUS
 62
     7
100
AcDbLine
 10
200.9900693075
 20
197.428071981
 30
0.0
 11
200.9900693075
 21
197.3280777388
 31
0.0
  0
CIRCLE
  5
45
330
1F
100
AcDbEntity
  8
0
  6
CONTINUOUS
 62
     7
100
AcDbCircle
 10
352.9900696056
 20
361.4280742459
 30
0.0
 40
8.0
  0
CIRCLE
  5
46
330
1F
100
AcDbEntity
  8
0
  6
CONTINUOUS
 62
     7
100
AcDbCircle
 10
352.9900696056
 20
197.4280742459
 30
0.0
 40
8.000000000000028
  0
CIRCLE
  5
47
330
1F
100
AcDbEntity
  8
0
  6
CONTINUOUS
 62
     7
100
AcDbCircle
 10
188.9900696056
 20
197.4280742459
 30
0.0
 40
8.000000000000028
  0
CIRCLE
  5
48
330
1F
100
AcDbEntity
  8
0
  6
CONTINUOUS
 62
     7
100
AcDbCircle
 10
188.9900696056
 20
361.4280742459
 30
0.0
 40
8.0
  0
LINE
  5
49
330
1F
100
AcDbEntity
  8
0
  6
CONTINUOUS
 62
     7
100
AcDbLine
 10
188.9900673406
 20
185.4280774646
 30
0.0
 11
352.9900718705
 21
185.4280774646
 31
0.0
  0
ARC
  5
4A
330
1F
100
AcDbEntity
  8
0
  6
CONTINUOUS
 62
     7
100
AcDbCircle
 10
352.9900696056
 20
197.4280742459
 30
0.0
 40
12.00000000078211
100
AcDbArc
 50
270.0
 51
0.0
  0
LINE
  5
4B
330
1F
100
AcDbEntity
  8
0
  6
CONTINUOUS
 62
     7
100
AcDbLine
 10
364.9900663869
 20
197.428071981
 30
0.0
 11
364.9900663869
 21
361.4280765109
 31
0.0
  0
ARC
  5
4C
330
1F
100
AcDbEntity
  8
0
  6
CONTINUOUS
 62
     7
100
AcDbCircle
 10
352.9900696056
 20
361.4280742459
 30
0.0
 40
11.99999999921789
100
AcDbArc
 50
0.0
 51
90.0
  0
LINE
  5
4D
330
1F
100
AcDbEntity
  8
0
  6
CONTINUOUS
 62
     7
100
AcDbLine
 10
352.9900718705
 20
373.4280710273
 30
0.0
 11
188.9900673406
 21
373.4280710273
 31
0.0
  0
ARC
  5
4E
330
1F
100
AcDbEntity
  8
0
  6
CONTINUOUS
 62
     7
100
AcDbCircle
 10
188.9900696056
 20
361.4280742459
 30
0.0
 40
11.99999999921789
100
AcDbArc
 50
90.0
 51
180.0
  0
LINE
  5
4F
330
1F
100
AcDbEntity
  8
0
  6
CONTINUOUS
 62
     7
100
AcDbLine
 10
176.9900728242
 20
361.4280765109
 30
0.0
 11
176.9900728242
 21
197.428071981
 31
0.0
  0
ARC
  5
50
330
1F
100
AcDbEntity
  8
0
  6
CONTINUOUS
 62
     7
100
AcDbCircle
 10
188.9900696056
 20
197.4280742459
 30
0.0
 40
12.00000000078211
100
AcDbArc
 50
180.0
 51
270.0
  0
ARC
  5
51
330
1F
100
AcDbEntity
  8
0
  6
CONTINUOUS
 62
     7
100
AcDbCircle
 10
188.9900696056
 20
197.4280742459
 30
0.0
 40
12.0
100
AcDbArc
 50
0.0
 51
90.0
  0
LINE
  5
52
330
1F
100
AcDbEntity
  8
0
  6
CONTINUOUS
 62
     7
100
AcDbLine
 10
358.4900681155
 20
214.8280759506
 30
0.0
 11
358.4900681155
 21
344.0280725412
 31
0.0
  0
LINE
  5
53
330
1F
100
AcDbEntity
  8
0
  6
CONTINUOUS
 62
     7
100
AcDbLine
 10
353.0900661127
 20
349.428074544
 30
0.0
 11
352.9900718705
 21
349.428074544
 31
0.0
  0
ARC
  5
54
330
1F
100
AcDbEntity
  8
0
  6
CONTINUOUS
 62
     7
100
AcDbCircle
 10
352.9900696056
 20
361.4280742459
 30
0.0
 40
12.00000000000006
100
AcDbArc
 50
180.0
 51
270.0
  0
LINE
  5
55
330
1F
100
AcDbEntity
  8
0
  6
CONTINUOUS
 62
     7
100
AcDbLine
 10
340.9900699036
 20
361.4280765109
 30
0.0
 11
340.9900699036
 21
361.5280707531
 31
0.0
  0
LINE
  5
56
330
1F
100
AcDbEntity
  8
0
  6
CONTINUOUS
 62
     7
100
AcDbLine
 10
335.5900679009
 20
366.9280727558
 30
0.0
 11
206.3900713103
 21
366.9280727558
 31
0.0
  0
LINE
  5
57
330
1F
100
AcDbEntity
  8
0
  6
CONTINUOUS
 62
     7
100
AcDbLine
 10
200.9900693075
 20
361.5280707531
 30
0.0
 11
200.9900693075
 21
361.4280765109
 31
0.0
  0
ARC
  5
58
330
1F
100
AcDbEntity
  8
0
  6
CONTINUOUS
 62
     7
100
AcDbCircle
 10
188.9900696056
 20
361.4280742459
 30
0.0
 40
12.00000000000003
100
AcDbArc
 50
270.0
 51
0.0
  0
LINE
  5
59
330
1F
100
AcDbEntity
  8
0
  6
CONTINUOUS
 62
     7
100
AcDbLine
 10
188.9900673406
 20
349.428074544
 30
0.0
 11
188.8900730984
 21
349.428074544
 31
0.0
  0
LINE
  5
5A
330
1F
100
AcDbEntity
  8
0
  6
CONTINUOUS
 62
     7
100
AcDbLine
 10
183.4900710957
 20
344.0280725412
 30
0.0
 11
183.4900710957
 21
214.8280759506
 31
0.0
  0
LINE
  5
5B
330
1F
100
AcDbEntity
  8
0
  6
CONTINUOUS
 62
     7
100
AcDbLine
 10
188.8900730984
 20
209.4280739479
 30
0.0
 11
188.9900673406
 21
209.4280739479
 31
0.0
  0
ARC
  5
5C
330
1F
100
AcDbEntity
  8
0
  6
CONTINUOUS
 62
     7
100
AcDbCircle
 10
188.8900696056
 20
344.0280742459
 30
0.0
 40
5.400000000000034
100
AcDbArc
 50
90.0
 51
180.0
  0
ARC
  5
5D
330
1F
100
AcDbEntity
  8
0
  6
CONTINUOUS
 62
     7
100
AcDbCircle
 10
206.3900696056
 20
361.5280742467
 30
0.0
 40
5.400000000000006
100
AcDbArc
 50
90.0
 51
180.0
  0
ARC
  5
5E
330
1F
100
AcDbEntity
  8
0
  6
CONTINUOUS
 62
     7
100
AcDbCircle
 10
335.5900696056
 20
361.5280742467
 30
0.0
 40
5.399999999999977
100
AcDbArc
 50
0.0
 51
90.0
  0
ARC
  5
5F
330
1F
100
AcDbEntity
  8
0
  6
CONTINUOUS
 62
     7
100
AcDbCircle
 10
353.0900696056
 20
344.0280742459
 30
0.0
 40
5.400000000000034
100
AcDbArc
 50
0.0
 51
90.0
  0
ARC
  5
60
330
1F
100
AcDbEntity
  8
0
  6
CONTINUOUS
 62
     7
100
AcDbCircle
 10
188.8900696056
 20
214.8280742459
 30
0.0
 40
5.400000000000006
100
AcDbArc
 50
180.0
 51
270.0
  0
ARC
  5
61
330
1F
100
AcDbEntity
  8
0
  6
CONTINUOUS
 62
     7
100
AcDbCircle
 10
206.3900696056
 20
197.3280742452
 30
0.0
 40
5.400000000000006
100
AcDbArc
 50
180.0
 51
270.0
  0
ARC
  5
62
330
1F
100
AcDbEntity
  8
0
  6
CONTINUOUS
 62
     7
100
AcDbCircle
 10
353.0900696056
 20
214.8280742459
 30
0.0
 40
5.400000000000006
100
AcDbArc
 50
270.0
 51
0.0
  0
ARC
  5
63
330
1F
100
AcDbEntity
  8
0
  6
CONTINUOUS
 62
     7
100
AcDbCircle
 10
335.5900696056
 20
197.3280742452
 30
0.0
 40
5.400000000000034
100
AcDbArc
 50
270.0
 51
0.0
  0
LINE
  5
64
330
1F
100
AcDbEntity
  8
0
  6
CONTINUOUS
 62
     7
100
AcDbLine
 10
206.3900713103
 20
191.9280757361
 30
0.0
 11
335.5900679009
 21
191.9280757361
 31
0.0
  0
LINE
  5
65
330
1F
100
AcDbEntity
  8
0
  6
CONTINUOUS
 62
     7
100
AcDbLine
 10
340.9900699036
 20
197.3280777388
 30
0.0
 11
340.9900699036
 21
197.428071981
 31
0.0
  0
ARC
  5
66
330
1F
100
AcDbEntity
  8
0
  6
CONTINUOUS
 62
     7
100
AcDbCircle
 10
352.9900696056
 20
197.4280742459
 30
0.0
 40
12.00000000000006
100
AcDbArc
 50
90.0
 51
180.0
  0
LINE
  5
67
330
1F
100
AcDbEntity
  8
0
  6
CONTINUOUS
 62
     7
100
AcDbLine
 10
352.9900718705
 20
209.4280739479
 30
0.0
 11
353.0900661127
 21
209.4280739479
 31
0.0
  0
CIRCLE
  5
68
330
1F
100
AcDbEntity
  8
0
  6
CONTINUOUS
 62
     7
100
AcDbCircle
 10
188.9900696056
 20
197.4280742459
 30
0.0
 40
5.400000000000006
  0
CIRCLE
  5
69
330
1F
100
AcDbEntity
  8
0
  6
CONTINUOUS
 62
     7
100
AcDbCircle
 10
188.9900696056
 20
361.4280742459
 30
0.0
 40
5.399999999999977
  0
CIRCLE
  5
6A
330
1F
100
AcDbEntity
  8
0
  6
CONTINUOUS
 62
     7
100
AcDbCircle
 10
352.9900696056
 20
197.4280742459
 30
0.0
 40
5.400000000000006
  0
CIRCLE
  5
6B
330
1F
100
AcDbEntity
  8
0
  6
CONTINUOUS
 62
     7
100
AcDbCircle
 10
352.9900696056
 20
361.4280742459
 30
0.0
 40
5.399999999999977
  0
LINE
  5
6C
330
1F
100
AcDbEntity
  8
0
  6
CONTINUOUS
 62
     7
100
AcDbLine
 10
206.3900713103
 20
365.3920312576
 30
0.0
 11
206.3900713103
 21
366.9280727558
 31
0.0
  0
LINE
  5
6D
330
1F
100
AcDbEntity
  8
0
  6
CONTINUOUS
 62
     7
100
AcDbLine
 10
335.5900679009
 20
365.3920312576
 30
0.0
 11
335.5900679009
 21
366.9280727558
 31
0.0
  0
LINE
  5
6E
330
1F
100
AcDbEntity
  8
0
  6
CONTINUOUS
 62
     7
100
AcDbLine
 10
206.3900713103
 20
365.3920312576
 30
0.0
 11
335.5900679009
 21
365.3920312576
 31
0.0
  0
LINE
  5
6F
330
1F
100
AcDbEntity
  8
0
  6
CONTINUOUS
 62
     7
100
AcDbLine
 10
185.0261125939
 20
214.8280759506
 30
0.0
 11
183.4900710957
 21
214.8280759506
 31
0.0
  0
LINE
  5
70
330
1F
100
AcDbEntity
  8
0
  6
CONTINUOUS
 62
     7
100
AcDbLine
 10
185.0261125939
 20
344.0280725412
 30
0.0
 11
183.4900710957
 21
344.0280725412
 31
0.0
  0
LINE
  5
71
330
1F
100
AcDbEntity
  8
0
  6
CONTINUOUS
 62
     7
100
AcDbLine
 10
185.0261125939
 20
214.8280759506
 30
0.0
 11
185.0261125939
 21
344.0280725412
 31
0.0
  0
LINE
  5
72
330
1F
100
AcDbEntity
  8
0
  6
CONTINUOUS
 62
     7
100
AcDbLine
 10
339.4540209548
 20
361.5280707531
 30
0.0
 11
340.9900699036
 21
361.5280707531
 31
0.0
  0
LINE
  5
73
330
1F
100
AcDbEntity
  8
0
  6
CONTINUOUS
 62
     7
100
AcDbLine
 10
339.4540209548
 20
361.4280765109
 30
0.0
 11
340.9900699036
 21
361.4280765109
 31
0.0
  0
LINE
  5
74
330
1F
100
AcDbEntity
  8
0
  6
CONTINUOUS
 62
     7
100
AcDbLine
 10
339.4540209548
 20
361.5280707531
 30
0.0
 11
339.4540209548
 21
361.4280765109
 31
0.0
  0
ARC
  5
75
330
1F
100
AcDbEntity
  8
0
  6
CONTINUOUS
 62
     7
100
AcDbCircle
 10
335.5900696056
 20
361.5280742467
 30
0.0
 40
3.863954286316869
100
AcDbArc
 50
0.0
 51
90.0
  0
LINE
  5
76
330
1F
100
AcDbEntity
  8
0
  6
CONTINUOUS
 62
     7
100
AcDbLine
 10
352.9900718705
 20
347.8920255952
 30
0.0
 11
352.9900718705
 21
349.428074544
 31
0.0
  0
LINE
  5
77
330
1F
100
AcDbEntity
  8
0
  6
CONTINUOUS
 62
     7
100
AcDbLine
 10
353.0900661127
 20
347.8920255952
 30
0.0
 11
353.0900661127
 21
349.428074544
 31
0.0
  0
LINE
  5
78
330
1F
100
AcDbEntity
  8
0
  6
CONTINUOUS
 62
     7
100
AcDbLine
 10
352.9900718705
 20
347.8920255952
 30
0.0
 11
353.0900661127
 21
347.8920255952
 31
0.0
  0
LINE
  5
79
330
1F
100
AcDbEntity
  8
0
  6
CONTINUOUS
 62
     7
100
AcDbLine
 10
356.9540266173
 20
344.0280725412
 30
0.0
 11
358.4900681155
 21
344.0280725412
 31
0.0
  0
ARC
  5
7A
330
1F
100
AcDbEntity
  8
0
  6
CONTINUOUS
 62
     7
100
AcDbCircle
 10
353.0900696056
 20
344.0280742459
 30
0.0
 40
3.863954286316869
100
AcDbArc
 50
0.0
 51
90.0
  0
LINE
  5
7B
330
1F
100
AcDbEntity
  8
0
  6
CONTINUOUS
 62
     7
100
AcDbLine
 10
356.9540266173
 20
214.8280759506
 30
0.0
 11
358.4900681155
 21
214.8280759506
 31
0.0
  0
LINE
  5
7C
330
1F
100
AcDbEntity
  8
0
  6
CONTINUOUS
 62
     7
100
AcDbLine
 10
356.9540266173
 20
344.0280725412
 30
0.0
 11
356.9540266173
 21
214.8280759506
 31
0.0
  0
LINE
  5
7D
330
1F
100
AcDbEntity
  8
0
  6
CONTINUOUS
 62
     7
100
AcDbLine
 10
188.8900730984
 20
347.8920255952
 30
0.0
 11
188.8900730984
 21
349.428074544
 31
0.0
  0
LINE
  5
7E
330
1F
100
AcDbEntity
  8
0
  6
CONTINUOUS
 62
     7
100
AcDbLine
 10
188.9900673406
 20
347.8920255952
 30
0.0
 11
188.9900673406
 21
349.428074544
 31
0.0
  0
LINE
  5
7F
330
1F
100
AcDbEntity
  8
0
  6
CONTINUOUS
 62
     7
100
AcDbLine
 10
188.8900730984
 20
347.8920255952
 30
0.0
 11
188.9900673406
 21
347.8920255952
 31
0.0
  0
ARC
  5
80
330
1F
100
AcDbEntity
  8
0
  6
CONTINUOUS
 62
     7
100
AcDbCircle
 10
352.9900696056
 20
361.4280742459
 30
0.0
 40
13.53604571368317
100
AcDbArc
 50
180.0
 51
270.0
  0
LINE
  5
81
330
1F
100
AcDbEntity
  8
0
  6
CONTINUOUS
 62
     7
100
AcDbLine
 10
202.5261182563
 20
361.4280765109
 30
0.0
 11
200.9900693075
 21
361.4280765109
 31
0.0
  0
LINE
  5
82
330
1F
100
AcDbEntity
  8
0
  6
CONTINUOUS
 62
     7
100
AcDbLine
 10
202.5261182563
 20
361.5280707531
 30
0.0
 11
200.9900693075
 21
361.5280707531
 31
0.0
  0
LINE
  5
83
330
1F
100
AcDbEntity
  8
0
  6
CONTINUOUS
 62
     7
100
AcDbLine
 10
202.5261182563
 20
361.4280765109
 30
0.0
 11
202.5261182563
 21
361.5280707531
 31
0.0
  0
ARC
  5
84
330
1F
100
AcDbEntity
  8
0
  6
CONTINUOUS
 62
     7
100
AcDbCircle
 10
206.3900696056
 20
361.5280742467
 30
0.0
 40
3.86395428631684
100
AcDbArc
 50
90.0
 51
180.0
  0
LINE
  5
85
330
1F
100
AcDbEntity
  8
0
  6
CONTINUOUS
 62
     7
100
AcDbLine
 10
206.3900713103
 20
193.4641172342
 30
0.0
 11
206.3900713103
 21
191.9280757361
 31
0.0
  0
LINE
  5
86
330
1F
100
AcDbEntity
  8
0
  6
CONTINUOUS
 62
     7
100
AcDbLine
 10
202.5261182563
 20
197.3280777388
 30
0.0
 11
200.9900693075
 21
197.3280777388
 31
0.0
  0
ARC
  5
87
330
1F
100
AcDbEntity
  8
0
  6
CONTINUOUS
 62
     7
100
AcDbCircle
 10
206.3900696056
 20
197.3280742452
 30
0.0
 40
3.86395428631684
100
AcDbArc
 50
180.0
 51
270.0
  0
LINE
  5
88
330
1F
100
AcDbEntity
  8
0
  6
CONTINUOUS
 62
     7
100
AcDbLine
 10
202.5261182563
 20
197.428071981
 30
0.0
 11
200.9900693075
 21
197.428071981
 31
0.0
  0
LINE
  5
89
330
1F
100
AcDbEntity
  8
0
  6
CONTINUOUS
 62
     7
100
AcDbLine
 10
202.5261182563
 20
197.3280777388
 30
0.0
 11
202.5261182563
 21
197.428071981
 31
0.0
  0
LINE
  5
8A
330
1F
100
AcDbEntity
  8
0
  6
CONTINUOUS
 62
     7
100
AcDbLine
 10
188.9900673406
 20
210.9641228967
 30
0.0
 11
188.9900673406
 21
209.4280739479
 31
0.0
  0
ARC
  5
8B
330
1F
100
AcDbEntity
  8
0
  6
CONTINUOUS
 62
     7
100
AcDbCircle
 10
188.9900696056
 20
197.4280742459
 30
0.0
 40
13.53604571368317
100
AcDbArc
 50
0.0
 51
90.0
  0
LINE
  5
8C
330
1F
100
AcDbEntity
  8
0
  6
CONTINUOUS
 62
     7
100
AcDbLine
 10
188.8900730984
 20
210.9641228967
 30
0.0
 11
188.8900730984
 21
209.4280739479
 31
0.0
  0
LINE
  5
8D
330
1F
100
AcDbEntity
  8
0
  6
CONTINUOUS
 62
     7
100
AcDbLine
 10
188.9900673406
 20
210.9641228967
 30
0.0
 11
188.8900730984
 21
210.9641228967
 31
0.0
  0
ARC
  5
8E
330
1F
100
AcDbEntity
  8
0
  6
CONTINUOUS
 62
     7
100
AcDbCircle
 10
188.8900696056
 20
214.8280742459
 30
0.0
 40
3.863954286316869
100
AcDbArc
 50
180.0
 51
270.0
  0
LINE
  5
8F
330
1F
100
AcDbEntity
  8
0
  6
CONTINUOUS
 62
     7
100
AcDbLine
 10
352.9900718705
 20
210.9641228967
 30
0.0
 11
352.9900718705
 21
209.4280739479
 31
0.0
  0
LINE
  5
90
330
1F
100
AcDbEntity
  8
0
  6
CONTINUOUS
 62
     7
100
AcDbLine
 10
339.4540209548
 20
197.428071981
 30
0.0
 11
340.9900699036
 21
197.428071981
 31
0.0
  0
ARC
  5
91
330
1F
100
AcDbEntity
  8
0
  6
CONTINUOUS
 62
     7
100
AcDbCircle
 10
352.9900696056
 20
197.4280742459
 30
0.0
 40
13.53604571368322
100
AcDbArc
 50
90.0
 51
180.0
  0
ARC
  5
92
330
1F
100
AcDbEntity
  8
0
  6
CONTINUOUS
 62
     7
100
AcDbCircle
 10
188.8900696056
 20
344.0280742459
 30
0.0
 40
3.863954286316869
100
AcDbArc
 50
90.0
 51
180.0
  0
LINE
  5
93
330
1F
100
AcDbEntity
  8
0
  6
CONTINUOUS
 62
     7
100
AcDbLine
 10
339.4540209548
 20
197.3280777388
 30
0.0
 11
340.9900699036
 21
197.3280777388
 31
0.0
  0
LINE
  5
94
330
1F
100
AcDbEntity
  8
0
  6
CONTINUOUS
 62
     7
100
AcDbLine
 10
335.5900679009
 20
193.4641172342
 30
0.0
 11
335.5900679009
 21
191.9280757361
 31
0.0
  0
ARC
  5
95
330
1F
100
AcDbEntity
  8
0
  6
CONTINUOUS
 62
     7
100
AcDbCircle
 10
335.5900696056
 20
197.3280742452
 30
0.0
 40
3.863954286316869
100
AcDbArc
 50
270.0
 51
0.0
  0
ARC
  5
96
330
1F
100
AcDbEntity
  8
0
  6
CONTINUOUS
 62
     7
100
AcDbCircle
 10
188.9900696056
 20
361.4280742459
 30
0.0
 40
13.53604571368319
100
AcDbArc
 50
270.0
 51
0.0
  0
LINE
  5
97
330
1F
100
AcDbEntity
  8
0
  6
CONTINUOUS
 62
     7
100
AcDbLine
 10
353.0900661127
 20
210.9641228967
 30
0.0
 11
353.0900661127
 21
209.4280739479
 31
0.0
  0
LINE
  5
98
330
1F
100
AcDbEntity
  8
0
  6
CONTINUOUS
 62
     7
100
AcDbLine
 10
353.0900661127
 20
210.9641228967
 30
0.0
 11
352.9900718705
 21
210.9641228967
 31
0.0
  0
ARC
  5
99
330
1F
100
AcDbEntity
  8
0
  6
CONTINUOUS
 62
     7
100
AcDbCircle
 10
353.0900696056
 20
214.8280742459
 30
0.0
 40
3.863954286316869
100
AcDbArc
 50
270.0
 51
0.0
  0
LINE
  5
9A
330
1F
100
AcDbEntity
  8
0
  6
CONTINUOUS
 62
     7
100
AcDbLine
 10
339.4540209548
 20
197.428071981
 30
0.0
 11
339.4540209548
 21
197.3280777388
 31
0.0
  0
LINE
  5
9B
330
1F
100
AcDbEntity
  8
0
  6
CONTINUOUS
 62
     7
100
AcDbLine
 10
335.5900679009
 20
193.4641172342
 30
0.0
 11
206.3900713103
 21
193.4641172342
 31
0.0
  0
LINE
  5
9C
330
1F
100
AcDbEntity
  8
0
  6
CONTINUOUS
 62
     7
100
AcDbLine
 10
195.2400688307
 20
261.9846445673
 30
0.0
 11
195.2400688307
 21
246.8715031796
 31
0.0
  0
ARC
  5
9D
330
1F
100
AcDbEntity
  8
0
  6
CONTINUOUS
 62
     7
100
AcDbCircle
 10
195.9900696056
 20
266.9280742459
 30
0.0
 40
5.000000000000026
100
AcDbArc
 50
98.6269265587
 51
261.3730734413
  0
LINE
  5
9E
330
1F
100
AcDbEntity
  8
0
  6
CONTINUOUS
 62
     7
100
AcDbLine
 10
195.2400688307
 20
274.4846442879
 30
0.0
 11
195.2400688307
 21
271.8715040178
 31
0.0
  0
ARC
  5
9F
330
1F
100
AcDbEntity
  8
0
  6
CONTINUOUS
 62
     7
100
AcDbCircle
 10
195.9900696056
 20
279.4280742459
 30
0.0
 40
5.000000000000026
100
AcDbArc
 50
98.6269265587
 51
261.3730734413
  0
LINE
  5
A0
330
1F
100
AcDbEntity
  8
0
  6
CONTINUOUS
 62
     7
100
AcDbLine
 10
195.2400688307
 20
286.9846444741
 30
0.0
 11
195.2400688307
 21
284.371504204
 31
0.0
  0
ARC
  5
A1
330
1F
100
AcDbEntity
  8
0
  6
CONTINUOUS
 62
     7
100
AcDbCircle
 10
195.9900696056
 20
291.9280742459
 30
0.0
 40
5.000000000000021
100
AcDbArc
 50
98.6269265587
 51
261.3730734413
  0
LINE
  5
A2
330
1F
100
AcDbEntity
  8
0
  6
CONTINUOUS
 62
     7
100
AcDbLine
 10
195.2400688307
 20
311.9846453123
 30
0.0
 11
195.2400688307
 21
296.8715039246
 31
0.0
  0
ARC
  5
A3
330
1F
100
AcDbEntity
  8
0
  6
CONTINUOUS
 62
     7
100
AcDbCircle
 10
195.9900696056
 20
316.9280742459
 30
0.0
 40
5.000000000000021
100
AcDbArc
 50
278.6269265587
 51
261.3730734413
  0
LINE
  5
A4
330
1F
100
AcDbEntity
  8
0
  6
CONTINUOUS
 62
     7
100
AcDbLine
 10
196.7400718705
 20
311.9846453123
 30
0.0
 11
196.7400718705
 21
296.8715039246
 31
0.0
  0
ARC
  5
A5
330
1F
100
AcDbEntity
  8
0
  6
CONTINUOUS
 62
     7
100
AcDbCircle
 10
195.9900696056
 20
291.9280742459
 30
0.0
 40
5.00000000000003
100
AcDbArc
 50
278.6269265587
 51
81.3730734413
  0
LINE
  5
A6
330
1F
100
AcDbEntity
  8
0
  6
CONTINUOUS
 62
     7
100
AcDbLine
 10
196.7400718705
 20
286.9846444741
 30
0.0
 11
196.7400718705
 21
284.371504204
 31
0.0
  0
ARC
  5
A7
330
1F
100
AcDbEntity
  8
0
  6
CONTINUOUS
 62
     7
100
AcDbCircle
 10
195.9900696056
 20
279.4280742459
 30
0.0
 40
4.999999999999973
100
AcDbArc
 50
278.6269265587
 51
81.3730734413
  0
LINE
  5
A8
330
1F
100
AcDbEntity
  8
0
  6
CONTINUOUS
 62
     7
100
AcDbLine
 10
196.7400718705
 20
274.4846442879
 30
0.0
 11
196.7400718705
 21
271.8715040178
 31
0.0
  0
ARC
  5
A9
330
1F
100
AcDbEntity
  8
0
  6
CONTINUOUS
 62
     7
100
AcDbCircle
 10
195.9900696056
 20
266.9280742459
 30
0.0
 40
5.00000000000003
100
AcDbArc
 50
278.6269265587
 51
81.3730734413
  0
LINE
  5
AA
330
1F
100
AcDbEntity
  8
0
  6
CONTINUOUS
 62
     7
100
AcDbLine
 10
196.7400718705
 20
261.9846445673
 30
0.0
 11
196.7400718705
 21
246.8715031796
 31
0.0
  0
ARC
  5
AB
330
1F
100
AcDbEntity
  8
0
  6
CONTINUOUS
 62
     7
100
AcDbCircle
 10
195.9900696056
 20
241.9280742459
 30
0.0
 40
5.000000000000002
100
AcDbArc
 50
98.6269265587
 51
81.3730734413
  0
CIRCLE
  5
AC
330
1F
100
AcDbEntity
  8
0
  6
CONTINUOUS
 62
     7
100
AcDbCircle
 10
195.9900696056
 20
279.4280742459
 30
0.0
 40
2.400000000000034
  0
CIRCLE
  5
AD
330
1F
100
AcDbEntity
  8
0
  6
CONTINUOUS
 62
     7
100
AcDbCircle
 10
195.9900696056
 20
241.9280742459
 30
0.0
 40
2.400000000000006
  0
CIRCLE
  5
AE
330
1F
100
AcDbEntity
  8
0
  6
CONTINUOUS
 62
     7
100
AcDbCircle
 10
195.9900696056
 20
291.9280742459
 30
0.0
 40
2.399999999999977
  0
CIRCLE
  5
AF
330
1F
100
AcDbEntity
  8
0
  6
CONTINUOUS
 62
     7
100
AcDbCircle
 10
195.9900696056
 20
316.9280742459
 30
0.0
 40
2.400000000000034
  0
CIRCLE
  5
B0
330
1F
100
AcDbEntity
  8
0
  6
CONTINUOUS
 62
     7
100
AcDbCircle
 10
195.9900696056
 20
266.9280742459
 30
0.0
 40
2.399999999999977
  0
LINE
  5
B1
330
1F
100
AcDbEntity
  8
0
  6
CONTINUOUS
 62
     7
100
AcDbLine
 10
253.5466399269
 20
355.1780750208
 30
0.0
 11
238.4334985392
 21
355.1780750208
 31
0.0
  0
ARC
  5
B2
330
1F
100
AcDbEntity
  8
0
  6
CONTINUOUS
 62
     7
100
AcDbCircle
 10
258.4900696056
 20
354.4280742459
 30
0.0
 40
5.000000000000026
100
AcDbArc
 50
8.6269265587
 51
171.3730734413
  0
LINE
  5
B3
330
1F
100
AcDbEntity
  8
0
  6
CONTINUOUS
 62
     7
100
AcDbLine
 10
266.0466396475
 20
355.1780750208
 30
0.0
 11
263.4334993774
 21
355.1780750208
 31
0.0
  0
ARC
  5
B4
330
1F
100
AcDbEntity
  8
0
  6
CONTINUOUS
 62
     7
100
AcDbCircle
 10
270.9900696056
 20
354.4280742459
 30
0.0
 40
5.000000000000026
100
AcDbArc
 50
8.6269265587
 51
171.3730734413
  0
LINE
  5
B5
330
1F
100
AcDbEntity
  8
0
  6
CONTINUOUS
 62
     7
100
AcDbLine
 10
278.5466398338
 20
355.1780750208
 30
0.0
 11
275.9334995636
 21
355.1780750208
 31
0.0
  0
ARC
  5
B6
330
1F
100
AcDbEntity
  8
0
  6
CONTINUOUS
 62
     7
100
AcDbCircle
 10
283.4900696056
 20
354.4280742459
 30
0.0
 40
5.000000000000026
100
AcDbArc
 50
8.6269265587
 51
171.3730734413
  0
LINE
  5
B7
330
1F
100
AcDbEntity
  8
0
  6
CONTINUOUS
 62
     7
100
AcDbLine
 10
303.5466406719
 20
355.1780750208
 30
0.0
 11
288.4334992842
 21
355.1780750208
 31
0.0
  0
ARC
  5
B8
330
1F
100
AcDbEntity
  8
0
  6
CONTINUOUS
 62
     7
100
AcDbCircle
 10
308.4900696056
 20
354.4280742459
 30
0.0
 40
5.000000000000026
100
AcDbArc
 50
188.6269265587
 51
171.3730734413
  0
LINE
  5
B9
330
1F
100
AcDbEntity
  8
0
  6
CONTINUOUS
 62
     7
100
AcDbLine
 10
303.5466406719
 20
353.678071981
 30
0.0
 11
288.4334992842
 21
353.678071981
 31
0.0
  0
ARC
  5
BA
330
1F
100
AcDbEntity
  8
0
  6
CONTINUOUS
 62
     7
100
AcDbCircle
 10
283.4900696056
 20
354.4280742459
 30
0.0
 40
5.000000000000026
100
AcDbArc
 50
188.6269265587
 51
351.3730734413
  0
LINE
  5
BB
330
1F
100
AcDbEntity
  8
0
  6
CONTINUOUS
 62
     7
100
AcDbLine
 10
278.5466398338
 20
353.678071981
 30
0.0
 11
275.9334995636
 21
353.678071981
 31
0.0
  0
ARC
  5
BC
330
1F
100
AcDbEntity
  8
0
  6
CONTINUOUS
 62
     7
100
AcDbCircle
 10
270.9900696056
 20
354.4280742459
 30
0.0
 40
5.000000000000026
100
AcDbArc
 50
188.6269265587
 51
351.3730734413
  0
LINE
  5
BD
330
1F
100
AcDbEntity
  8
0
  6
CONTINUOUS
 62
     7
100
AcDbLine
 10
266.0466396475
 20
353.678071981
 30
0.0
 11
263.4334993774
 21
353.678071981
 31
0.0
  0
ARC
  5
BE
330
1F
100
AcDbEntity
  8
0
  6
CONTINUOUS
 62
     7
100
AcDbCircle
 10
258.4900696056
 20
354.4280742459
 30
0.0
 40
5.000000000000026
100
AcDbArc
 50
188.6269265587
 51
351.3730734413
  0
LINE
  5
BF
330
1F
100
AcDbEntity
  8
0
  6
CONTINUOUS
 62
     7
100
AcDbLine
 10
253.5466399269
 20
353.678071981
 30
0.0
 11
238.4334985392
 21
353.678071981
 31
0.0
  0
ARC
  5
C0
330
1F
100
AcDbEntity
  8
0
  6
CONTINUOUS
 62
     7
100
AcDbCircle
 10
233.4900696056
 20
354.4280742459
 30
0.0
 40
4.99999999999997
100
AcDbArc
 50
8.6269265587
 51
351.3730734413
  0
CIRCLE
  5
C1
330
1F
100
AcDbEntity
  8
0
  6
CONTINUOUS
 62
     7
100
AcDbCircle
 10
233.4900696056
 20
354.4280742459
 30
0.0
 40
2.399999999999977
  0
CIRCLE
  5
C2
330
1F
100
AcDbEntity
  8
0
  6
CONTINUOUS
 62
     7
100
AcDbCircle
 10
308.4900696056
 20
354.4280742459
 30
0.0
 40
2.399999999999977
  0
CIRCLE
  5
C3
330
1F
100
AcDbEntity
  8
0
  6
CONTINUOUS
 62
     7
100
AcDbCircle
 10
283.4900696056
 20
354.4280742459
 30
0.0
 40
2.399999999999977
  0
CIRCLE
  5
C4
330
1F
100
AcDbEntity
  8
0
  6
CONTINUOUS
 62
     7
100
AcDbCircle
 10
258.4900696056
 20
354.4280742459
 30
0.0
 40
2.399999999999977
  0
CIRCLE
  5
C5
330
1F
100
AcDbEntity
  8
0
  6
CONTINUOUS
 62
     7
100
AcDbCircle
 10
270.9900696056
 20
354.4280742459
 30
0.0
 40
2.399999999999977
  0
CIRCLE
  5
C6
330
1F
100
AcDbEntity
  8
0
  6
CONTINUOUS
 62
     7
100
AcDbCircle
 10
210.9900696056
 20
339.4280742459
 30
0.0
 40
3.0
  0
CIRCLE
  5
C7
330
1F
100
AcDbEntity
  8
0
  6
CONTINUOUS
 62
     7
100
AcDbCircle
 10
210.9900696056
 20
339.4280742459
 30
0.0
 40
6.0
  0
CIRCLE
  5
C8
330
1F
100
AcDbEntity
  8
0
  6
CONTINUOUS
 62
     7
100
AcDbCircle
 10
210.9900696056
 20
219.4280742459
 30
0.0
 40
3.0
  0
CIRCLE
  5
C9
330
1F
100
AcDbEntity
  8
0
  6
CONTINUOUS
 62
     7
100
AcDbCircle
 10
210.9900696056
 20
219.4280742459
 30
0.0
 40
5.999999999999972
  0
CIRCLE
  5
CA
330
1F
100
AcDbEntity
  8
0
  6
CONTINUOUS
 62
     7
100
AcDbCircle
 10
330.9900696056
 20
219.4280742459
 30
0.0
 40
3.0
  0
CIRCLE
  5
CB
330
1F
100
AcDbEntity
  8
0
  6
CONTINUOUS
 62
     7
100
AcDbCircle
 10
330.9900696056
 20
219.4280742459
 30
0.0
 40
5.999999999999943
  0
CIRCLE
  5
CC
330
1F
100
AcDbEntity
  8
0
  6
CONTINUOUS
 62
     7
100
AcDbCircle
 10
330.9900696056
 20
339.4280742459
 30
0.0
 40
6.0
  0
CIRCLE
  5
CD
330
1F
100
AcDbEntity
  8
0
  6
CONTINUOUS
 62
     7
100
AcDbCircle
 10
330.9900696056
 20
339.4280742459
 30
0.0
 40
3.0
  0
ARC
  5
CE
330
1F
100
AcDbEntity
  8
0
  6
CONTINUOUS
 62
     7
100
AcDbCircle
 10
258.4900696056
 20
204.4280742459
 30
0.0
 40
5.00000000000003
100
AcDbArc
 50
8.6269265587
 51
171.3730734413
  0
LINE
  5
CF
330
1F
100
AcDbEntity
  8
0
  6
CONTINUOUS
 62
     7
100
AcDbLine
 10
266.0466396475
 20
205.1780765109
 30
0.0
 11
263.4334993774
 21
205.1780765109
 31
0.0
  0
ARC
  5
D0
330
1F
100
AcDbEntity
  8
0
  6
CONTINUOUS
 62
     7
100
AcDbCircle
 10
270.9900696056
 20
204.4280742459
 30
0.0
 40
5.00000000000003
100
AcDbArc
 50
8.6269265587
 51
171.3730734413
  0
LINE
  5
D1
330
1F
100
AcDbEntity
  8
0
  6
CONTINUOUS
 62
     7
100
AcDbLine
 10
278.5466398338
 20
205.1780765109
 30
0.0
 11
275.9334995636
 21
205.1780765109
 31
0.0
  0
ARC
  5
D2
330
1F
100
AcDbEntity
  8
0
  6
CONTINUOUS
 62
     7
100
AcDbCircle
 10
283.4900696056
 20
204.4280742459
 30
0.0
 40
5.00000000000003
100
AcDbArc
 50
8.6269265587
 51
171.3730734413
  0
LINE
  5
D3
330
1F
100
AcDbEntity
  8
0
  6
CONTINUOUS
 62
     7
100
AcDbLine
 10
303.5466406719
 20
205.1780765109
 30
0.0
 11
288.4334992842
 21
205.1780765109
 31
0.0
  0
ARC
  5
D4
330
1F
100
AcDbEntity
  8
0
  6
CONTINUOUS
 62
     7
100
AcDbCircle
 10
308.4900696056
 20
204.4280742459
 30
0.0
 40
5.00000000000003
100
AcDbArc
 50
188.6269265587
 51
171.3730734413
  0
LINE
  5
D5
330
1F
100
AcDbEntity
  8
0
  6
CONTINUOUS
 62
     7
100
AcDbLine
 10
303.5466406719
 20
203.6780734711
 30
0.0
 11
288.4334992842
 21
203.6780734711
 31
0.0
  0
ARC
  5
D6
330
1F
100
AcDbEntity
  8
0
  6
CONTINUOUS
 62
     7
100
AcDbCircle
 10
283.4900696056
 20
204.4280742459
 30
0.0
 40
5.000000000000021
100
AcDbArc
 50
188.6269265587
 51
351.3730734413
  0
LINE
  5
D7
330
1F
100
AcDbEntity
  8
0
  6
CONTINUOUS
 62
     7
100
AcDbLine
 10
278.5466398338
 20
203.6780734711
 30
0.0
 11
275.9334995636
 21
203.6780734711
 31
0.0
  0
ARC
  5
D8
330
1F
100
AcDbEntity
  8
0
  6
CONTINUOUS
 62
     7
100
AcDbCircle
 10
270.9900696056
 20
204.4280742459
 30
0.0
 40
5.000000000000021
100
AcDbArc
 50
188.6269265587
 51
351.3730734413
  0
LINE
  5
D9
330
1F
100
AcDbEntity
  8
0
  6
CONTINUOUS
 62
     7
100
AcDbLine
 10
253.5466399269
 20
203.6780734711
 30
0.0
 11
238.4334985392
 21
203.6780734711
 31
0.0
  0
CIRCLE
  5
DA
330
1F
100
AcDbEntity
  8
0
  6
CONTINUOUS
 62
     7
100
AcDbCircle
 10
283.4900696056
 20
204.4280742459
 30
0.0
 40
2.400000000000006
  0
CIRCLE
  5
DB
330
1F
100
AcDbEntity
  8
0
  6
CONTINUOUS
 62
     7
100
AcDbCircle
 10
308.4900696056
 20
204.4280742459
 30
0.0
 40
2.400000000000034
  0
CIRCLE
  5
DC
330
1F
100
AcDbEntity
  8
0
  6
CONTINUOUS
 62
     7
100
AcDbCircle
 10
258.4900696056
 20
204.4280742459
 30
0.0
 40
2.400000000000006
  0
CIRCLE
  5
DD
330
1F
100
AcDbEntity
  8
0
  6
CONTINUOUS
 62
     7
100
AcDbCircle
 10
233.4900696056
 20
204.4280742459
 30
0.0
 40
2.400000000000034
  0
CIRCLE
  5
DE
330
1F
100
AcDbEntity
  8
0
  6
CONTINUOUS
 62
     7
100
AcDbCircle
 10
270.9900696056
 20
204.4280742459
 30
0.0
 40
2.400000000000006
  0
ARC
  5
DF
330
1F
100
AcDbEntity
  8
0
  6
CONTINUOUS
 62
     7
100
AcDbCircle
 10
233.4900696056
 20
204.4280742459
 30
0.0
 40
4.999999999999973
100
AcDbArc
 50
8.6269265587
 51
351.3730734413
  0
LINE
  5
E0
330
1F
100
AcDbEntity
  8
0
  6
CONTINUOUS
 62
     7
100
AcDbLine
 10
266.0466396475
 20
203.6780734711
 30
0.0
 11
263.4334993774
 21
203.6780734711
 31
0.0
  0
LINE
  5
E1
330
1F
100
AcDbEntity
  8
0
  6
CONTINUOUS
 62
     7
100
AcDbLine
 10
253.5466399269
 20
205.1780765109
 30
0.0
 11
238.4334985392
 21
205.1780765109
 31
0.0
  0
ARC
  5
E2
330
1F
100
AcDbEntity
  8
0
  6
CONTINUOUS
 62
     7
100
AcDbCircle
 10
258.4900696056
 20
204.4280742459
 30
0.0
 40
5.000000000000021
100
AcDbArc
 50
188.6269265587
 51
351.3730734413
  0
LINE
  5
E3
330
1F
100
AcDbEntity
  8
0
  6
CONTINUOUS
 62
     7
100
AcDbLine
 10
346.7400703804
 20
311.9846453123
 30
0.0
 11
346.7400703804
 21
296.8715039246
 31
0.0
  0
ARC
  5
E4
330
1F
100
AcDbEntity
  8
0
  6
CONTINUOUS
 62
     7
100
AcDbCircle
 10
345.9900696056
 20
279.4280742459
 30
0.0
 40
5.000000000000017
100
AcDbArc
 50
278.6269265587
 51
81.3730734413
  0
CIRCLE
  5
E5
330
1F
100
AcDbEntity
  8
0
  6
CONTINUOUS
 62
     7
100
AcDbCircle
 10
345.9900696056
 20
279.4280742459
 30
0.0
 40
2.400000000000034
  0
LINE
  5
E6
330
1F
100
AcDbEntity
  8
0
  6
CONTINUOUS
 62
     7
100
AcDbLine
 10
346.7400703804
 20
286.9846444741
 30
0.0
 11
346.7400703804
 21
284.371504204
 31
0.0
  0
ARC
  5
E7
330
1F
100
AcDbEntity
  8
0
  6
CONTINUOUS
 62
     7
100
AcDbCircle
 10
345.9900696056
 20
291.9280742459
 30
0.0
 40
5.000000000000034
100
AcDbArc
 50
98.6269265587
 51
261.3730734413
  0
ARC
  5
E8
330
1F
100
AcDbEntity
  8
0
  6
CONTINUOUS
 62
     7
100
AcDbCircle
 10
345.9900696056
 20
291.9280742459
 30
0.0
 40
5.000000000000017
100
AcDbArc
 50
278.6269265587
 51
81.3730734413
  0
ARC
  5
E9
330
1F
100
AcDbEntity
  8
0
  6
CONTINUOUS
 62
     7
100
AcDbCircle
 10
345.9900696056
 20
241.9280742459
 30
0.0
 40
5.000000000000006
100
AcDbArc
 50
98.6269265587
 51
81.3730734413
  0
ARC
  5
EA
330
1F
100
AcDbEntity
  8
0
  6
CONTINUOUS
 62
     7
100
AcDbCircle
 10
345.9900696056
 20
279.4280742459
 30
0.0
 40
4.999999999999978
100
AcDbArc
 50
98.6269265587
 51
261.3730734413
  0
ARC
  5
EB
330
1F
100
AcDbEntity
  8
0
  6
CONTINUOUS
 62
     7
100
AcDbCircle
 10
345.9900696056
 20
316.9280742459
 30
0.0
 40
5.000000000000017
100
AcDbArc
 50
278.6269265587
 51
261.3730734413
  0
LINE
  5
EC
330
1F
100
AcDbEntity
  8
0
  6
CONTINUOUS
 62
     7
100
AcDbLine
 10
345.2400673406
 20
311.9846453123
 30
0.0
 11
345.2400673406
 21
296.8715039246
 31
0.0
  0
CIRCLE
  5
ED
330
1F
100
AcDbEntity
  8
0
  6
CONTINUOUS
 62
     7
100
AcDbCircle
 10
345.9900696056
 20
291.9280742459
 30
0.0
 40
2.399999999999977
  0
CIRCLE
  5
EE
330
1F
100
AcDbEntity
  8
0
  6
CONTINUOUS
 62
     7
100
AcDbCircle
 10
345.9900696056
 20
266.9280742459
 30
0.0
 40
2.399999999999977
  0
CIRCLE
  5
EF
330
1F
100
AcDbEntity
  8
0
  6
CONTINUOUS
 62
     7
100
AcDbCircle
 10
345.9900696056
 20
241.9280742459
 30
0.0
 40
2.400000000000006
  0
LINE
  5
F0
330
1F
100
AcDbEntity
  8
0
  6
CONTINUOUS
 62
     7
100
AcDbLine
 10
345.2400673406
 20
261.9846445673
 30
0.0
 11
345.2400673406
 21
246.8715031796
 31
0.0
  0
LINE
  5
F1
330
1F
100
AcDbEntity
  8
0
  6
CONTINUOUS
 62
     7
100
AcDbLine
 10
346.7400703804
 20
261.9846445673
 30
0.0
 11
346.7400703804
 21
246.8715031796
 31
0.0
  0
ARC
  5
F2
330
1F
100
AcDbEntity
  8
0
  6
CONTINUOUS
 62
     7
100
AcDbCircle
 10
345.9900696056
 20
266.9280742459
 30
0.0
 40
5.000000000000017
100
AcDbArc
 50
278.6269265587
 51
81.3730734413
  0
ARC
  5
F3
330
1F
100
AcDbEntity
  8
0
  6
CONTINUOUS
 62
     7
100
AcDbCircle
 10
345.9900696056
 20
266.9280742459
 30
0.0
 40
5.000000000000034
100
AcDbArc
 50
98.6269265587
 51
261.3730734413
  0
LINE
  5
F4
330
1F
100
AcDbEntity
  8
0
  6
CONTINUOUS
 62
     7
100
AcDbLine
 10
346.7400703804
 20
274.4846442879
 30
0.0
 11
346.7400703804
 21
271.8715040178
 31
0.0
  0
LINE
  5
F5
330
1F
100
AcDbEntity
  8
0
  6
CONTINUOUS
 62
     7
100
AcDbLine
 10
345.2400673406
 20
274.4846442879
 30
0.0
 11
345.2400673406
 21
271.8715040178
 31
0.0
  0
LINE
  5
F6
330
1F
100
AcDbEntity
  8
0
  6
CONTINUOUS
 62
     7
100
AcDbLine
 10
345.2400673406
 20
286.9846444741
 30
0.0
 11
345.2400673406
 21
284.371504204
 31
0.0
  0
CIRCLE
  5
F7
330
1F
100
AcDbEntity
  8
0
  6
CONTINUOUS
 62
     7
100
AcDbCircle
 10
345.9900696056
 20
316.9280742459
 30
0.0
 40
2.400000000000034
  0
CIRCLE
  5
F8
330
1F
100
AcDbEntity
  8
0
  6
CONTINUOUS
 62
     7
100
AcDbCircle
 10
195.9900696056
 20
241.9280742459
 30
0.0
 40
2.150000000000006
  0
CIRCLE
  5
F9
330
1F
100
AcDbEntity
  8
0
  6
CONTINUOUS
 62
     7
100
AcDbCircle
 10
270.9900696056
 20
204.4280742459
 30
0.0
 40
2.150000000000006
  0
CIRCLE
  5
FA
330
1F
100
AcDbEntity
  8
0
  6
CONTINUOUS
 62
     7
100
AcDbCircle
 10
210.9900696056
 20
219.4280742459
 30
0.0
 40
2.599999999999994
  0
CIRCLE
  5
FB
330
1F
100
AcDbEntity
  8
0
  6
CONTINUOUS
 62
     7
100
AcDbCircle
 10
195.9900696056
 20
279.4280742459
 30
0.0
 40
2.150000000000034
  0
CIRCLE
  5
FC
330
1F
100
AcDbEntity
  8
0
  6
CONTINUOUS
 62
     7
100
AcDbCircle
 10
270.9900696056
 20
354.4280742459
 30
0.0
 40
2.150000000000034
  0
CIRCLE
  5
FD
330
1F
100
AcDbEntity
  8
0
  6
CONTINUOUS
 62
     7
100
AcDbCircle
 10
258.4900696056
 20
204.4280742459
 30
0.0
 40
2.150000000000006
  0
CIRCLE
  5
FE
330
1F
100
AcDbEntity
  8
0
  6
CONTINUOUS
 62
     7
100
AcDbCircle
 10
210.9900696056
 20
339.4280742459
 30
0.0
 40
2.599999999999966
  0
CIRCLE
  5
FF
330
1F
100
AcDbEntity
  8
0
  6
CONTINUOUS
 62
     7
100
AcDbCircle
 10
345.9900696056
 20
266.9280742459
 30
0.0
 40
2.149999999999977
  0
CIRCLE
  5
100
330
1F
100
AcDbEntity
  8
0
  6
CONTINUOUS
 62
     7
100
AcDbCircle
 10
330.9900696056
 20
339.4280742459
 30
0.0
 40
2.599999999999966
  0
CIRCLE
  5
101
330
1F
100
AcDbEntity
  8
0
  6
CONTINUOUS
 62
     7
100
AcDbCircle
 10
345.9900696056
 20
291.9280742459
 30
0.0
 40
2.150000000000034
  0
CIRCLE
  5
102
330
1F
100
AcDbEntity
  8
0
  6
CONTINUOUS
 62
     7
100
AcDbCircle
 10
345.9900696056
 20
279.4280742459
 30
0.0
 40
2.150000000000034
  0
CIRCLE
  5
103
330
1F
100
AcDbEntity
  8
0
  6
CONTINUOUS
 62
     7
100
AcDbCircle
 10
345.9900696056
 20
316.9280742459
 30
0.0
 40
2.149999999999977
  0
CIRCLE
  5
104
330
1F
100
AcDbEntity
  8
0
  6
CONTINUOUS
 62
     7
100
AcDbCircle
 10
308.4900696056
 20
354.4280742459
 30
0.0
 40
2.150000000000034
  0
CIRCLE
  5
105
330
1F
100
AcDbEntity
  8
0
  6
CONTINUOUS
 62
     7
100
AcDbCircle
 10
283.4900696056
 20
354.4280742459
 30
0.0
 40
2.149999999999977
  0
CIRCLE
  5
106
330
1F
100
AcDbEntity
  8
0
  6
CONTINUOUS
 62
     7
100
AcDbCircle
 10
195.9900696056
 20
266.9280742459
 30
0.0
 40
2.149999999999977
  0
CIRCLE
  5
107
330
1F
100
AcDbEntity
  8
0
  6
CONTINUOUS
 62
     7
100
AcDbCircle
 10
345.9900696056
 20
241.9280742459
 30
0.0
 40
2.150000000000006
  0
CIRCLE
  5
108
330
1F
100
AcDbEntity
  8
0
  6
CONTINUOUS
 62
     7
100
AcDbCircle
 10
233.4900696056
 20
204.4280742459
 30
0.0
 40
2.150000000000006
  0
CIRCLE
  5
109
330
1F
100
AcDbEntity
  8
0
  6
CONTINUOUS
 62
     7
100
AcDbCircle
 10
258.4900696056
 20
354.4280742459
 30
0.0
 40
2.149999999999977
  0
CIRCLE
  5
10A
330
1F
100
AcDbEntity
  8
0
  6
CONTINUOUS
 62
     7
100
AcDbCircle
 10
195.9900696056
 20
316.9280742459
 30
0.0
 40
2.149999999999977
  0
CIRCLE
  5
10B
330
1F
100
AcDbEntity
  8
0
  6
CONTINUOUS
 62
     7
100
AcDbCircle
 10
283.4900696056
 20
204.4280742459
 30
0.0
 40
2.150000000000006
  0
CIRCLE
  5
10C
330
1F
100
AcDbEntity
  8
0
  6
CONTINUOUS
 62
     7
100
AcDbCircle
 10
308.4900696056
 20
204.4280742459
 30
0.0
 40
2.150000000000006
  0
CIRCLE
  5
10D
330
1F
100
AcDbEntity
  8
0
  6
CONTINUOUS
 62
     7
100
AcDbCircle
 10
233.4900696056
 20
354.4280742459
 30
0.0
 40
2.150000000000034
  0
CIRCLE
  5
10E
330
1F
100
AcDbEntity
  8
0
  6
CONTINUOUS
 62
     7
100
AcDbCircle
 10
195.9900696056
 20
291.9280742459
 30
0.0
 40
2.150000000000034
  0
CIRCLE
  5
10F
330
1F
100
AcDbEntity
  8
0
  6
CONTINUOUS
 62
     7
100
AcDbCircle
 10
330.9900696056
 20
219.4280742459
 30
0.0
 40
2.599999999999994
  0
CIRCLE
  5
110
330
1F
100
AcDbEntity
  8
0
  6
CONTINUOUS
 62
     7
100
AcDbCircle
 10
352.9900696056
 20
361.4280742459
 30
0.0
 40
3.25
  0
CIRCLE
  5
111
330
1F
100
AcDbEntity
  8
0
  6
CONTINUOUS
 62
     7
100
AcDbCircle
 10
352.9900696056
 20
197.4280742459
 30
0.0
 40
3.25
  0
CIRCLE
  5
112
330
1F
100
AcDbEntity
  8
0
  6
CONTINUOUS
 62
     7
100
AcDbCircle
 10
188.9900696056
 20
361.4280742459
 30
0.0
 40
3.25
  0
CIRCLE
  5
113
330
1F
100
AcDbEntity
  8
0
  6
CONTINUOUS
 62
     7
100
AcDbCircle
 10
188.9900696056
 20
197.4280742459
 30
0.0
 40
3.25
  0
LINE
  5
114
330
1F
100
AcDbEntity
  8
0
  6
CONTINUOUS
 62
     7
100
AcDbLine
 10
293.4199810253
 20
309.276938548
 30
0.0
 11
297.7554980891
 21
314.2769393675
 31
0.0
  0
LINE
  5
115
330
1F
100
AcDbEntity
  8
0
  6
CONTINUOUS
 62
     7
100
AcDbLine
 10
297.7554980891
 20
304.2769377284
 30
0.0
 11
293.4199810253
 21
309.276938548
 31
0.0
  0
LINE
  5
116
330
1F
100
AcDbEntity
  8
0
  6
CONTINUOUS
 62
     7
100
AcDbLine
 10
294.7122488396
 20
304.2769377284
 30
0.0
 11
297.7554980891
 21
304.2769377284
 31
0.0
  0
LINE
  5
117
330
1F
100
AcDbEntity
  8
0
  6
CONTINUOUS
 62
     7
100
AcDbLine
 10
291.8983545379
 20
307.2933406733
 30
0.0
 11
294.7122488396
 21
304.2769377284
 31
0.0
  0
LINE
  5
118
330
1F
100
AcDbEntity
  8
0
  6
CONTINUOUS
 62
     7
100
AcDbLine
 10
289.0844620989
 20
304.2769377284
 30
0.0
 11
291.8983545379
 21
307.2933406733
 31
0.0
  0
LINE
  5
119
330
1F
100
AcDbEntity
  8
0
  6
CONTINUOUS
 62
     7
100
AcDbLine
 10
286.0412128495
 20
304.2769377284
 30
0.0
 11
289.0844620989
 21
304.2769377284
 31
0.0
  0
LINE
  5
11A
330
1F
100
AcDbEntity
  8
0
  6
CONTINUOUS
 62
     7
100
AcDbLine
 10
290.3767299132
 20
309.276938548
 30
0.0
 11
286.0412128495
 21
304.2769377284
 31
0.0
  0
LINE
  5
11B
330
1F
100
AcDbEntity
  8
0
  6
CONTINUOUS
 62
     7
100
AcDbLine
 10
286.0412128495
 20
314.2769393675
 30
0.0
 11
290.3767299132
 21
309.276938548
 31
0.0
  0
LINE
  5
11C
330
1F
100
AcDbEntity
  8
0
  6
CONTINUOUS
 62
     7
100
AcDbLine
 10
289.0844620989
 20
314.2769393675
 30
0.0
 11
286.0412128495
 21
314.2769393675
 31
0.0
  0
LINE
  5
11D
330
1F
100
AcDbEntity
  8
0
  6
CONTINUOUS
 62
     7
100
AcDbLine
 10
291.8983545379
 20
311.26053456
 30
0.0
 11
289.0844620989
 21
314.2769393675
 31
0.0
  0
LINE
  5
11E
330
1F
100
AcDbEntity
  8
0
  6
CONTINUOUS
 62
     7
100
AcDbLine
 10
294.7122488396
 20
314.2769393675
 30
0.0
 11
291.8983545379
 21
311.26053456
 31
0.0
  0
LINE
  5
11F
330
1F
100
AcDbEntity
  8
0
  6
CONTINUOUS
 62
     7
100
AcDbLine
 10
297.7554980891
 20
314.2769393675
 30
0.0
 11
294.7122488396
 21
314.2769393675
 31
0.0
  0
LINE
  5
120
330
1F
100
AcDbEntity
  8
0
  6
CONTINUOUS
 62
     7
100
AcDbLine
 10
259.5769265892
 20
314.2769393675
 30
0.0
 11
257.0769271107
 21
314.2769393675
 31
0.0
  0
LINE
  5
121
330
1F
100
AcDbEntity
  8
0
  6
CONTINUOUS
 62
     7
100
AcDbLine
 10
257.0769271107
 20
304.2769377284
 30
0.0
 11
259.5769265892
 21
304.2769377284
 31
0.0
  0
LINE
  5
122
330
1F
100
AcDbEntity
  8
0
  6
CONTINUOUS
 62
     7
100
AcDbLine
 10
259.5769265892
 20
304.2769377284
 30
0.0
 11
259.5769265892
 21
314.2769393675
 31
0.0
  0
LINE
  5
123
330
1F
100
AcDbEntity
  8
0
  6
CONTINUOUS
 62
     7
100
AcDbLine
 10
257.0769271107
 20
314.2769393675
 30
0.0
 11
257.0769271107
 21
304.2769377284
 31
0.0
  0
LINE
  5
124
330
1F
100
AcDbEntity
  8
0
  6
CONTINUOUS
 62
     7
100
AcDbLine
 10
278.2455120461
 20
306.1562367879
 30
0.0
 11
282.751198508
 21
306.1562367879
 31
0.0
  0
LINE
  5
125
330
1F
100
AcDbEntity
  8
0
  6
CONTINUOUS
 62
     7
100
AcDbLine
 10
283.148355432
 20
314.2769393675
 30
0.0
 11
277.8483555877
 21
314.2769393675
 31
0.0
  0
LINE
  5
126
330
1F
100
AcDbEntity
  8
0
  6
CONTINUOUS
 62
     7
100
AcDbLine
 10
286.0054984914
 20
307.1340807878
 30
0.0
 11
286.0054984914
 21
311.4197944455
 31
0.0
  0
LINE
  5
127
330
1F
100
AcDbEntity
  8
0
  6
CONTINUOUS
 62
     7
100
AcDbLine
 10
277.8483555877
 20
304.2769377284
 30
0.0
 11
283.148355432
 21
304.2769377284
 31
0.0
  0
LINE
  5
128
330
1F
100
AcDbEntity
  8
0
  6
CONTINUOUS
 62
     7
100
AcDbLine
 10
274.9912125284
 20
311.4197944455
 30
0.0
 11
274.9912125284
 21
307.1340807878
 31
0.0
  0
LINE
  5
129
330
1F
100
AcDbEntity
  8
0
  6
CONTINUOUS
 62
     7
100
AcDbLine
 10
277.1783830823
 20
311.3305104129
 30
0.0
 11
277.1783830823
 21
307.223366683
 31
0.0
  0
LINE
  5
12A
330
1F
100
AcDbEntity
  8
0
  6
CONTINUOUS
 62
     7
100
AcDbLine
 10
282.751198508
 20
312.3976384454
 30
0.0
 11
278.2455120461
 21
312.3976384454
 31
0.0
  0
LINE
  5
12B
330
1F
100
AcDbEntity
  8
0
  6
CONTINUOUS
 62
     7
100
AcDbLine
 10
283.8183274718
 20
307.223366683
 30
0.0
 11
283.8183274718
 21
311.3305104129
 31
0.0
  0
ARC
  5
12C
330
1F
100
AcDbEntity
  8
0
  6
CONTINUOUS
 62
     7
100
AcDbCircle
 10
283.1483553898
 20
311.4197952308
 30
0.0
 40
2.85714285714289
100
AcDbArc
 50
0.0
 51
90.0
  0
ARC
  5
12D
330
1F
100
AcDbEntity
  8
0
  6
CONTINUOUS
 62
     7
100
AcDbCircle
 10
278.2455121385
 20
307.2233666594
 30
0.0
 40
1.067128965565985
100
AcDbArc
 50
180.0
 51
270.0
  0
ARC
  5
12E
330
1F
100
AcDbEntity
  8
0
  6
CONTINUOUS
 62
     7
100
AcDbCircle
 10
277.8483553898
 20
307.1340809451
 30
0.0
 40
2.85714285714289
100
AcDbArc
 50
180.0
 51
270.0
  0
ARC
  5
12F
330
1F
100
AcDbEntity
  8
0
  6
CONTINUOUS
 62
     7
100
AcDbCircle
 10
277.8483553898
 20
311.4197952308
 30
0.0
 40
2.85714285714289
100
AcDbArc
 50
90.0
 51
180.0
  0
ARC
  5
130
330
1F
100
AcDbEntity
  8
0
  6
CONTINUOUS
 62
     7
100
AcDbCircle
 10
282.7511986411
 20
307.2233666594
 30
0.0
 40
1.067128965565985
100
AcDbArc
 50
270.0
 51
0.0
  0
ARC
  5
131
330
1F
100
AcDbEntity
  8
0
  6
CONTINUOUS
 62
     7
100
AcDbCircle
 10
278.2455121385
 20
311.3305095165
 30
0.0
 40
1.067128965565928
100
AcDbArc
 50
90.0
 51
180.0
  0
ARC
  5
132
330
1F
100
AcDbEntity
  8
0
  6
CONTINUOUS
 62
     7
100
AcDbCircle
 10
283.1483553898
 20
307.1340809451
 30
0.0
 40
2.85714285714289
100
AcDbArc
 50
270.0
 51
0.0
  0
ARC
  5
133
330
1F
100
AcDbEntity
  8
0
  6
CONTINUOUS
 62
     7
100
AcDbCircle
 10
282.7511986411
 20
311.3305095165
 30
0.0
 40
1.067128965565985
100
AcDbArc
 50
0.0
 51
90.0
  0
LINE
  5
134
330
1F
100
AcDbEntity
  8
0
  6
CONTINUOUS
 62
     7
100
AcDbLine
 10
247.0769264029
 20
308.3840814583
 30
0.0
 11
254.21978312
 21
308.3840814583
 31
0.0
  0
LINE
  5
135
330
1F
100
AcDbEntity
  8
0
  6
CONTINUOUS
 62
     7
100
AcDbLine
 10
247.0769264029
 20
312.4912251883
 30
0.0
 11
255.2912120001
 21
312.4912251883
 31
0.0
  0
LINE
  5
136
330
1F
100
AcDbEntity
  8
0
  6
CONTINUOUS
 62
     7
100
AcDbLine
 10
254.21978312
 20
308.3840814583
 30
0.0
 11
254.21978312
 21
310.1697956376
 31
0.0
  0
LINE
  5
137
330
1F
100
AcDbEntity
  8
0
  6
CONTINUOUS
 62
     7
100
AcDbLine
 10
254.21978312
 20
310.1697956376
 30
0.0
 11
247.0769264029
 21
310.1697956376
 31
0.0
  0
LINE
  5
138
330
1F
100
AcDbEntity
  8
0
  6
CONTINUOUS
 62
     7
100
AcDbLine
 10
247.0769264029
 20
304.2769377284
 30
0.0
 11
247.0769264029
 21
308.3840814583
 31
0.0
  0
LINE
  5
139
330
1F
100
AcDbEntity
  8
0
  6
CONTINUOUS
 62
     7
100
AcDbLine
 10
255.2912120001
 20
312.4912251883
 30
0.0
 11
255.2912120001
 21
314.2769393675
 31
0.0
  0
LINE
  5
13A
330
1F
100
AcDbEntity
  8
0
  6
CONTINUOUS
 62
     7
100
AcDbLine
 10
247.0769264029
 20
310.1697956376
 30
0.0
 11
247.0769264029
 21
312.4912251883
 31
0.0
  0
LINE
  5
13B
330
1F
100
AcDbEntity
  8
0
  6
CONTINUOUS
 62
     7
100
AcDbLine
 10
244.5769269244
 20
314.2769393675
 30
0.0
 11
244.5769269244
 21
304.2769377284
 31
0.0
  0
LINE
  5
13C
330
1F
100
AcDbEntity
  8
0
  6
CONTINUOUS
 62
     7
100
AcDbLine
 10
244.5769269244
 20
304.2769377284
 30
0.0
 11
247.0769264029
 21
304.2769377284
 31
0.0
  0
LINE
  5
13D
330
1F
100
AcDbEntity
  8
0
  6
CONTINUOUS
 62
     7
100
AcDbLine
 10
255.2912120001
 20
314.2769393675
 30
0.0
 11
244.5769269244
 21
314.2769393675
 31
0.0
  0
LINE
  5
13E
330
1F
100
AcDbEntity
  8
0
  6
CONTINUOUS
 62
     7
100
AcDbLine
 10
261.3626407684
 20
304.2769377284
 30
0.0
 11
270.6483553913
 21
304.2769377284
 31
0.0
  0
ARC
  5
13F
330
1F
100
AcDbEntity
  8
0
  6
CONTINUOUS
 62
     7
100
AcDbCircle
 10
269.5769268184
 20
311.3305095165
 30
0.0
 40
1.160714285714278
100
AcDbArc
 50
270.0
 51
90.0
  0
LINE
  5
140
330
1F
100
AcDbEntity
  8
0
  6
CONTINUOUS
 62
     7
100
AcDbLine
 10
270.6483553913
 20
314.2769393675
 30
0.0
 11
261.3626407684
 21
314.2769393675
 31
0.0
  0
LINE
  5
141
330
1F
100
AcDbEntity
  8
0
  6
CONTINUOUS
 62
     7
100
AcDbLine
 10
263.8626411782
 20
308.3840814583
 30
0.0
 11
263.8626411782
 21
306.0626519077
 31
0.0
  0
ARC
  5
142
330
1F
100
AcDbEntity
  8
0
  6
CONTINUOUS
 62
     7
100
AcDbCircle
 10
269.5769268184
 20
307.2233666594
 30
0.0
 40
1.160714285714334
100
AcDbArc
 50
270.0
 51
90.0
  0
LINE
  5
143
330
1F
100
AcDbEntity
  8
0
  6
CONTINUOUS
 62
     7
100
AcDbLine
 10
263.8626411782
 20
312.4912251883
 30
0.0
 11
263.8626411782
 21
310.1697956376
 31
0.0
  0
LINE
  5
144
330
1F
100
AcDbEntity
  8
0
  6
CONTINUOUS
 62
     7
100
AcDbLine
 10
269.5769268313
 20
312.4912251883
 30
0.0
 11
263.8626411782
 21
312.4912251883
 31
0.0
  0
ARC
  5
145
330
1F
100
AcDbEntity
  8
0
  6
CONTINUOUS
 62
     7
100
AcDbCircle
 10
270.6483553898
 20
307.1340809451
 30
0.0
 40
2.85714285714296
100
AcDbArc
 50
270.0
 51
48.5903778907
  0
LINE
  5
146
330
1F
100
AcDbEntity
  8
0
  6
CONTINUOUS
 62
     7
100
AcDbLine
 10
261.3626407684
 20
314.2769393675
 30
0.0
 11
261.3626407684
 21
304.2769377284
 31
0.0
  0
LINE
  5
147
330
1F
100
AcDbEntity
  8
0
  6
CONTINUOUS
 62
     7
100
AcDbLine
 10
263.8626411782
 20
306.0626519077
 30
0.0
 11
269.5769268313
 21
306.0626519077
 31
0.0
  0
ARC
  5
148
330
1F
100
AcDbEntity
  8
0
  6
CONTINUOUS
 62
     7
100
AcDbCircle
 10
270.6483553898
 20
311.4197952308
 30
0.0
 40
2.857142857142833
100
AcDbArc
 50
311.4096221093
 51
90.0
  0
LINE
  5
149
330
1F
100
AcDbEntity
  8
0
  6
CONTINUOUS
 62
     7
100
AcDbLine
 10
269.5769268313
 20
308.3840814583
 30
0.0
 11
263.8626411782
 21
308.3840814583
 31
0.0
  0
LINE
  5
14A
330
1F
100
AcDbEntity
  8
0
  6
CONTINUOUS
 62
     7
100
AcDbLine
 10
263.8626411782
 20
310.1697956376
 30
0.0
 11
269.5769268313
 21
310.1697956376
 31
0.0
  0
LINE
  5
14B
330
1F
100
AcDbEntity
  8
0
  6
CONTINUOUS
 62
     7
100
AcDbLine
 10
27.1672367618
 20
185.6040378265
 30
0.0
 11
117.9672389791
 21
187.8231411033
 31
0.0
  0
LINE
  5
14C
330
1F
100
AcDbEntity
  8
0
  6
CONTINUOUS
 62
     7
100
AcDbLine
 10
117.9672389791
 20
371.0330073886
 30
0.0
 11
27.1672367618
 21
373.2521106653
 31
0.0
  0
LINE
  5
14D
330
1F
100
AcDbEntity
  8
0
  6
CONTINUOUS
 62
     7
100
AcDbLine
 10
117.9672389791
 20
189.9280716829
 30
0.0
 11
119.9672390741
 21
189.9280716829
 31
0.0
  0
LINE
  5
14E
330
1F
100
AcDbEntity
  8
0
  6
CONTINUOUS
 62
     7
100
AcDbLine
 10
119.9672390741
 20
204.928072279
 30
0.0
 11
117.9672389791
 21
204.928072279
 31
0.0
  0
LINE
  5
14F
330
1F
100
AcDbEntity
  8
0
  6
CONTINUOUS
 62
     7
100
AcDbLine
 10
117.9672389791
 20
353.9280762129
 30
0.0
 11
119.9672390741
 21
353.9280762129
 31
0.0
  0
LINE
  5
150
330
1F
100
AcDbEntity
  8
0
  6
CONTINUOUS
 62
     7
100
AcDbLine
 10
119.9672390741
 20
368.9280768089
 30
0.0
 11
117.9672389791
 21
368.9280768089
 31
0.0
  0
LINE
  5
151
330
1F
100
AcDbEntity
  8
0
  6
CONTINUOUS
 62
     7
100
AcDbLine
 10
27.1672367618
 20
361.4280765109
 30
0.0
 11
19.9672415421
 21
361.4280765109
 31
0.0
  0
LINE
  5
152
330
1F
100
AcDbEntity
  8
0
  6
CONTINUOUS
 62
     7
100
AcDbLine
 10
27.1672367618
 20
197.428071981
 30
0.0
 11
19.9672415421
 21
197.428071981
 31
0.0
  0
LINE
  5
153
330
1F
100
AcDbEntity
  8
0
  6
CONTINUOUS
 62
     7
100
AcDbLine
 10
19.9672415421
 20
197.428071981
 30
0.0
 11
19.9672415421
 21
361.4280765109
 31
0.0
  0
LINE
  5
154
330
1F
100
AcDbEntity
  8
0
  6
CONTINUOUS
 62
     7
100
AcDbLine
 10
27.1672367618
 20
197.428071981
 30
0.0
 11
27.1672367618
 21
361.4280765109
 31
0.0
  0
LINE
  5
155
330
1F
100
AcDbEntity
  8
0
  6
CONTINUOUS
 62
     7
100
AcDbLine
 10
27.1672367618
 20
185.4280774646
 30
0.0
 11
19.9672415421
 21
185.4280774646
 31
0.0
  0
LINE
  5
156
330
1F
100
AcDbEntity
  8
0
  6
CONTINUOUS
 62
     7
100
AcDbLine
 10
19.9672415421
 20
185.4280774646
 30
0.0
 11
19.9672415421
 21
197.428071981
 31
0.0
  0
LINE
  5
157
330
1F
100
AcDbEntity
  8
0
  6
CONTINUOUS
 62
     7
100
AcDbLine
 10
27.1672367618
 20
185.4280774646
 30
0.0
 11
27.1672367618
 21
197.428071981
 31
0.0
  0
LINE
  5
158
330
1F
100
AcDbEntity
  8
0
  6
CONTINUOUS
 62
     7
100
AcDbLine
 10
27.1672367618
 20
373.4280710273
 30
0.0
 11
19.9672415421
 21
373.4280710273
 31
0.0
  0
LINE
  5
159
330
1F
100
AcDbEntity
  8
0
  6
CONTINUOUS
 62
     7
100
AcDbLine
 10
19.9672415421
 20
361.4280765109
 30
0.0
 11
19.9672415421
 21
373.4280710273
 31
0.0
  0
LINE
  5
15A
330
1F
100
AcDbEntity
  8
0
  6
CONTINUOUS
 62
     7
100
AcDbLine
 10
27.1672367618
 20
361.4280765109
 30
0.0
 11
27.1672367618
 21
373.4280710273
 31
0.0
  0
ELLIPSE
  5
15B
330
1F
100
AcDbEntity
  8
0
  6
CONTINUOUS
 62
     7
100
AcDbEllipse
 10
-759.9864644324
 20
197.4280742459
 30
0.0
 11
1186.196859672716
 21
0.0
 31
0.0
210
0.0
220
0.0
230
1.0
 40
0.0094029048
 41
0.7375153424507795
 42
0.8451828661900552
  0
LINE
  5
15C
330
1F
100
AcDbEntity
  8
0
  6
CONTINUOUS
 62
     7
100
AcDbLine
 10
117.9672389791
 20
204.9283852034
 30
0.0
 11
117.9672389791
 21
187.8231411033
 31
0.0
  0
LINE
  5
15D
330
1F
100
AcDbEntity
  8
0
  6
CONTINUOUS
 62
     7
100
AcDbLine
 10
117.9672389791
 20
371.0330073886
 30
0.0
 11
117.9672389791
 21
353.9277632885
 31
0.0
  0
ELLIPSE
  5
15E
330
1F
100
AcDbEntity
  8
0
  6
CONTINUOUS
 62
     7
100
AcDbEllipse
 10
-759.986464
 20
361.4280742459
 30
0.0
 11
1186.196859209436
 21
0.0
 31
0.0
210
0.0
220
0.0
230
1.0
 40
0.0094029048
 41
5.438002440849395
 42
5.545669964617407
  0
LINE
  5
15F
330
1F
100
AcDbEntity
  8
0
  6
CONTINUOUS
 62
     7
100
AcDbLine
 10
117.9672389791
 20
204.9283852034
 30
0.0
 11
117.9672389791
 21
353.9277632885
 31
0.0
  0
LINE
  5
160
330
1F
100
AcDbEntity
  8
0
  6
CONTINUOUS
 62
     7
100
AcDbLine
 10
119.9672390741
 20
204.928072279
 30
0.0
 11
119.9672390741
 21
189.9280716829
 31
0.0
  0
LINE
  5
161
330
1F
100
AcDbEntity
  8
0
  6
CONTINUOUS
 62
     7
100
AcDbLine
 10
119.9672390741
 20
368.9280768089
 30
0.0
 11
119.9672390741
 21
353.9280762129
 31
0.0
  0
LINE
  5
162
330
1F
100
AcDbEntity
  8
0
  6
CONTINUOUS
 62
     7
100
AcDbLine
 10
112.9672390909
 20
185.4280774646
 30
0.0
 11
103.967238547
 21
185.4280774646
 31
0.0
  0
LINE
  5
163
330
1F
100
AcDbEntity
  8
0
  6
CONTINUOUS
 62
     7
100
AcDbLine
 10
112.9672390909
 20
187.7009441309
 30
0.0
 11
112.9672390909
 21
185.4280774646
 31
0.0
  0
LINE
  5
164
330
1F
100
AcDbEntity
  8
0
  6
CONTINUOUS
 62
     7
100
AcDbLine
 10
103.967238547
 20
185.4280774646
 30
0.0
 11
73.9672392175
 21
185.4280774646
 31
0.0
  0
LINE
  5
165
330
1F
100
AcDbEntity
  8
0
  6
CONTINUOUS
 62
     7
100
AcDbLine
 10
64.967239605
 20
186.5278502159
 30
0.0
 11
64.967239605
 21
185.4280774646
 31
0.0
  0
LINE
  5
166
330
1F
100
AcDbEntity
  8
0
  6
CONTINUOUS
 62
     7
100
AcDbLine
 10
73.9672392175
 20
185.4280774646
 30
0.0
 11
64.967239605
 21
185.4280774646
 31
0.0
  0
LINE
  5
167
330
1F
100
AcDbEntity
  8
0
  6
CONTINUOUS
 62
     8
100
AcDbLine
 10
103.967238547
 20
187.4809880905
 30
0.0
 11
103.967238547
 21
185.4280774646
 31
0.0
  0
LINE
  5
168
330
1F
100
AcDbEntity
  8
0
  6
CONTINUOUS
 62
     8
100
AcDbLine
 10
73.9672392175
 20
186.7478062563
 30
0.0
 11
73.9672392175
 21
185.4280774646
 31
0.0
  0
LINE
  5
169
330
1F
100
AcDbEntity
  8
0
  6
CONTINUOUS
 62
     7
100
AcDbLine
 10
177.1660331862
 20
534.4969395723
 30
0.0
 11
179.3851364629
 21
443.696937355
 31
0.0
  0
LINE
  5
16A
330
1F
100
AcDbEntity
  8
0
  6
CONTINUOUS
 62
     7
100
AcDbLine
 10
362.5950027482
 20
443.696937355
 30
0.0
 11
364.814106025
 21
534.4969395723
 31
0.0
  0
LINE
  5
16B
330
1F
100
AcDbEntity
  8
0
  6
CONTINUOUS
 62
     7
100
AcDbLine
 10
345.4900715725
 20
443.696937355
 30
0.0
 11
345.4900715725
 21
441.69693726
 31
0.0
  0
LINE
  5
16C
330
1F
100
AcDbEntity
  8
0
  6
CONTINUOUS
 62
     7
100
AcDbLine
 10
360.4900721686
 20
441.69693726
 30
0.0
 11
360.4900721686
 21
443.696937355
 31
0.0
  0
LINE
  5
16D
330
1F
100
AcDbEntity
  8
0
  6
CONTINUOUS
 62
     7
100
AcDbLine
 10
181.4900670426
 20
443.696937355
 30
0.0
 11
181.4900670426
 21
441.69693726
 31
0.0
  0
LINE
  5
16E
330
1F
100
AcDbEntity
  8
0
  6
CONTINUOUS
 62
     7
100
AcDbLine
 10
196.4900676386
 20
441.69693726
 30
0.0
 11
196.4900676386
 21
443.696937355
 31
0.0
  0
LINE
  5
16F
330
1F
100
AcDbEntity
  8
0
  6
CONTINUOUS
 62
     7
100
AcDbLine
 10
188.9900673406
 20
534.4969395723
 30
0.0
 11
188.9900673406
 21
541.696934792
 31
0.0
  0
LINE
  5
170
330
1F
100
AcDbEntity
  8
0
  6
CONTINUOUS
 62
     7
100
AcDbLine
 10
176.9900728242
 20
534.4969395723
 30
0.0
 11
176.9900728242
 21
541.696934792
 31
0.0
  0
LINE
  5
171
330
1F
100
AcDbEntity
  8
0
  6
CONTINUOUS
 62
     7
100
AcDbLine
 10
176.9900728242
 20
541.696934792
 30
0.0
 11
188.9900673406
 21
541.696934792
 31
0.0
  0
LINE
  5
172
330
1F
100
AcDbEntity
  8
0
  6
CONTINUOUS
 62
     7
100
AcDbLine
 10
176.9900728242
 20
534.4969395723
 30
0.0
 11
188.9900673406
 21
534.4969395723
 31
0.0
  0
LINE
  5
173
330
1F
100
AcDbEntity
  8
0
  6
CONTINUOUS
 62
     7
100
AcDbLine
 10
364.9900663869
 20
534.4969395723
 30
0.0
 11
364.9900663869
 21
541.696934792
 31
0.0
  0
LINE
  5
174
330
1F
100
AcDbEntity
  8
0
  6
CONTINUOUS
 62
     7
100
AcDbLine
 10
352.9900718705
 20
534.4969395723
 30
0.0
 11
352.9900718705
 21
541.696934792
 31
0.0
  0
LINE
  5
175
330
1F
100
AcDbEntity
  8
0
  6
CONTINUOUS
 62
     7
100
AcDbLine
 10
352.9900718705
 20
541.696934792
 30
0.0
 11
364.9900663869
 21
541.696934792
 31
0.0
  0
LINE
  5
176
330
1F
100
AcDbEntity
  8
0
  6
CONTINUOUS
 62
     7
100
AcDbLine
 10
352.9900718705
 20
534.4969395723
 30
0.0
 11
364.9900663869
 21
534.4969395723
 31
0.0
  0
LINE
  5
177
330
1F
100
AcDbEntity
  8
0
  6
CONTINUOUS
 62
     7
100
AcDbLine
 10
188.9900673406
 20
541.696934792
 30
0.0
 11
352.9900718705
 21
541.696934792
 31
0.0
  0
LINE
  5
178
330
1F
100
AcDbEntity
  8
0
  6
CONTINUOUS
 62
     7
100
AcDbLine
 10
188.9900673406
 20
534.4969395723
 30
0.0
 11
352.9900718705
 21
534.4969395723
 31
0.0
  0
ARC
  5
179
330
1F
100
AcDbEntity
  8
0
  6
CONTINUOUS
 62
     7
100
AcDbCircle
 10
330.9900696056
 20
457.696937355
 30
0.0
 40
9.0
100
AcDbArc
 50
270.0
 51
0.0
  0
LINE
  5
17A
330
1F
100
AcDbEntity
  8
0
  6
CONTINUOUS
 62
     7
100
AcDbLine
 10
210.9900709467
 20
448.6969372432
 30
0.0
 11
330.9900682645
 21
448.6969372432
 31
0.0
  0
ARC
  5
17B
330
1F
100
AcDbEntity
  8
0
  6
CONTINUOUS
 62
     7
100
AcDbCircle
 10
210.9900696056
 20
457.696937355
 30
0.0
 40
9.0
100
AcDbArc
 50
180.0
 51
270.0
  0
LINE
  5
17C
330
1F
100
AcDbEntity
  8
0
  6
CONTINUOUS
 62
     7
100
AcDbLine
 10
201.9900713341
 20
487.6969371166
 30
0.0
 11
201.9900713341
 21
457.6969377871
 31
0.0
  0
ARC
  5
17D
330
1F
100
AcDbEntity
  8
0
  6
CONTINUOUS
 62
     7
100
AcDbCircle
 10
210.9900696056
 20
487.696937355
 30
0.0
 40
9.0
100
AcDbArc
 50
90.0
 51
180.0
  0
CIRCLE
  5
17E
330
1F
100
AcDbEntity
  8
0
  6
CONTINUOUS
 62
     7
100
AcDbCircle
 10
210.9900696056
 20
487.696937355
 30
0.0
 40
3.25
  0
LINE
  5
17F
330
1F
100
AcDbEntity
  8
0
  6
CONTINUOUS
 62
     7
100
AcDbLine
 10
210.4900699334
 20
480.4642003204
 30
0.0
 11
210.4900699334
 21
464.9296745833
 31
0.0
  0
ARC
  5
180
330
1F
100
AcDbEntity
  8
0
  6
CONTINUOUS
 62
     7
100
AcDbCircle
 10
210.9900696056
 20
457.696937355
 30
0.0
 40
7.250000000000001
100
AcDbArc
 50
348.0594560394
 51
93.9545721221
  0
LINE
  5
181
330
1F
100
AcDbEntity
  8
0
  6
CONTINUOUS
 62
     7
100
AcDbLine
 10
218.0831987636
 20
456.1969375413
 30
0.0
 11
323.8969404475
 21
456.1969375413
 31
0.0
  0
ARC
  5
182
330
1F
100
AcDbEntity
  8
0
  6
CONTINUOUS
 62
     7
100
AcDbCircle
 10
330.9900696056
 20
457.696937355
 30
0.0
 40
7.250000000000001
100
AcDbArc
 50
86.0454278779
 51
191.9405439606
  0
LINE
  5
183
330
1F
100
AcDbEntity
  8
0
  6
CONTINUOUS
 62
     7
100
AcDbLine
 10
331.4900692777
 20
464.9296745833
 30
0.0
 11
331.4900692777
 21
480.4642003204
 31
0.0
  0
ARC
  5
184
330
1F
100
AcDbEntity
  8
0
  6
CONTINUOUS
 62
     7
100
AcDbCircle
 10
330.9900696056
 20
487.696937355
 30
0.0
 40
7.250000000000001
100
AcDbArc
 50
168.0594560394
 51
273.9545721221
  0
LINE
  5
185
330
1F
100
AcDbEntity
  8
0
  6
CONTINUOUS
 62
     7
100
AcDbLine
 10
323.8969404475
 20
489.1969364311
 30
0.0
 11
218.0831987636
 21
489.1969364311
 31
0.0
  0
ARC
  5
186
330
1F
100
AcDbEntity
  8
0
  6
CONTINUOUS
 62
     7
100
AcDbCircle
 10
210.9900696056
 20
487.696937355
 30
0.0
 40
7.250000000000001
100
AcDbArc
 50
266.0454278779
 51
11.9405439606
  0
CIRCLE
  5
187
330
1F
100
AcDbEntity
  8
0
  6
CONTINUOUS
 62
     7
100
AcDbCircle
 10
210.9900696056
 20
457.696937355
 30
0.0
 40
3.25
  0
CIRCLE
  5
188
330
1F
100
AcDbEntity
  8
0
  6
CONTINUOUS
 62
     7
100
AcDbCircle
 10
330.9900696056
 20
457.696937355
 30
0.0
 40
3.25
  0
CIRCLE
  5
189
330
1F
100
AcDbEntity
  8
0
  6
CONTINUOUS
 62
     7
100
AcDbCircle
 10
330.9900696056
 20
487.696937355
 30
0.0
 40
3.25
  0
LINE
  5
18A
330
1F
100
AcDbEntity
  8
0
  6
CONTINUOUS
 62
     7
100
AcDbLine
 10
339.990067877
 20
457.6969377871
 30
0.0
 11
339.990067877
 21
487.6969371166
 31
0.0
  0
LINE
  5
18B
330
1F
100
AcDbEntity
  8
0
  6
CONTINUOUS
 62
     7
100
AcDbLine
 10
330.9900682645
 20
496.6969367291
 30
0.0
 11
210.9900709467
 21
496.6969367291
 31
0.0
  0
ARC
  5
18C
330
1F
100
AcDbEntity
  8
0
  6
CONTINUOUS
 62
     7
100
AcDbCircle
 10
330.9900696056
 20
487.696937355
 30
0.0
 40
9.0
100
AcDbArc
 50
0.0
 51
90.0
  0
ELLIPSE
  5
18D
330
1F
100
AcDbEntity
  8
0
  6
CONTINUOUS
 62
     7
100
AcDbEllipse
 10
188.9900696056
 20
1321.6506407685
 30
0.0
 11
0.0
 21
1186.196859675703
 31
0.0
210
0.0
220
0.0
230
1.0
 40
0.0094029048
 41
3.879107996040906
 42
3.986775519779882
  0
LINE
  5
18E
330
1F
100
AcDbEntity
  8
0
  6
CONTINUOUS
 62
     7
100
AcDbLine
 10
196.490380563
 20
443.696937355
 30
0.0
 11
179.3851364629
 21
443.696937355
 31
0.0
  0
LINE
  5
18F
330
1F
100
AcDbEntity
  8
0
  6
CONTINUOUS
 62
     7
100
AcDbLine
 10
362.5950027482
 20
443.696937355
 30
0.0
 11
345.4897586481
 21
443.696937355
 31
0.0
  0
ELLIPSE
  5
190
330
1F
100
AcDbEntity
  8
0
  6
CONTINUOUS
 62
     7
100
AcDbEllipse
 10
352.9900696056
 20
1321.6506407685
 30
0.0
 11
0.0
 21
1186.196859675703
 31
0.0
210
0.0
220
0.0
230
1.0
 40
0.0094029048
 41
2.296409787400358
 42
2.404077311139495
  0
LINE
  5
191
330
1F
100
AcDbEntity
  8
0
  6
CONTINUOUS
 62
     7
100
AcDbLine
 10
196.490380563
 20
443.696937355
 30
0.0
 11
345.4897586481
 21
443.696937355
 31
0.0
  0
LINE
  5
192
330
1F
100
AcDbEntity
  8
0
  6
CONTINUOUS
 62
     7
100
AcDbLine
 10
360.4900721686
 20
441.69693726
 30
0.0
 11
345.4900715725
 21
441.69693726
 31
0.0
  0
LINE
  5
193
330
1F
100
AcDbEntity
  8
0
  6
CONTINUOUS
 62
     7
100
AcDbLine
 10
188.9900673406
 20
441.69693726
 30
0.0
 11
181.4900670426
 21
441.69693726
 31
0.0
  0
LINE
  5
194
330
1F
100
AcDbEntity
  8
0
  6
CONTINUOUS
 62
     7
100
AcDbLine
 10
196.4900676386
 20
441.69693726
 30
0.0
 11
188.9900673406
 21
441.69693726
 31
0.0
  0
LINE
  5
195
330
1F
100
AcDbEntity
  8
0
  6
CONTINUOUS
 62
     7
100
AcDbLine
 10
364.814106025
 20
32.7937332815
 30
0.0
 11
362.5950027482
 21
123.5937354988
 31
0.0
  0
LINE
  5
196
330
1F
100
AcDbEntity
  8
0
  6
CONTINUOUS
 62
     7
100
AcDbLine
 10
179.3851364629
 20
123.5937354988
 30
0.0
 11
177.1660331862
 21
32.7937332815
 31
0.0
  0
LINE
  5
197
330
1F
100
AcDbEntity
  8
0
  6
CONTINUOUS
 62
     7
100
AcDbLine
 10
360.4900721686
 20
123.5937354988
 30
0.0
 11
360.4900721686
 21
125.5937355938
 31
0.0
  0
LINE
  5
198
330
1F
100
AcDbEntity
  8
0
  6
CONTINUOUS
 62
     7
100
AcDbLine
 10
345.4900715725
 20
125.5937355938
 30
0.0
 11
345.4900715725
 21
123.5937354988
 31
0.0
  0
LINE
  5
199
330
1F
100
AcDbEntity
  8
0
  6
CONTINUOUS
 62
     7
100
AcDbLine
 10
196.4900676386
 20
123.5937354988
 30
0.0
 11
196.4900676386
 21
125.5937355938
 31
0.0
  0
LINE
  5
19A
330
1F
100
AcDbEntity
  8
0
  6
CONTINUOUS
 62
     7
100
AcDbLine
 10
181.4900670426
 20
125.5937355938
 30
0.0
 11
181.4900670426
 21
123.5937354988
 31
0.0
  0
LINE
  5
19B
330
1F
100
AcDbEntity
  8
0
  6
CONTINUOUS
 62
     7
100
AcDbLine
 10
176.9900728242
 20
32.7937332815
 30
0.0
 11
176.9900728242
 21
25.5937380618
 31
0.0
  0
LINE
  5
19C
330
1F
100
AcDbEntity
  8
0
  6
CONTINUOUS
 62
     7
100
AcDbLine
 10
188.9900673406
 20
32.7937332815
 30
0.0
 11
188.9900673406
 21
25.5937380618
 31
0.0
  0
LINE
  5
19D
330
1F
100
AcDbEntity
  8
0
  6
CONTINUOUS
 62
     7
100
AcDbLine
 10
188.9900673406
 20
25.5937380618
 30
0.0
 11
176.9900728242
 21
25.5937380618
 31
0.0
  0
LINE
  5
19E
330
1F
100
AcDbEntity
  8
0
  6
CONTINUOUS
 62
     7
100
AcDbLine
 10
188.9900673406
 20
32.7937332815
 30
0.0
 11
176.9900728242
 21
32.7937332815
 31
0.0
  0
LINE
  5
19F
330
1F
100
AcDbEntity
  8
0
  6
CONTINUOUS
 62
     7
100
AcDbLine
 10
352.9900718705
 20
32.7937332815
 30
0.0
 11
352.9900718705
 21
25.5937380618
 31
0.0
  0
LINE
  5
1A0
330
1F
100
AcDbEntity
  8
0
  6
CONTINUOUS
 62
     7
100
AcDbLine
 10
352.9900718705
 20
25.5937380618
 30
0.0
 11
188.9900673406
 21
25.5937380618
 31
0.0
  0
LINE
  5
1A1
330
1F
100
AcDbEntity
  8
0
  6
CONTINUOUS
 62
     7
100
AcDbLine
 10
352.9900718705
 20
32.7937332815
 30
0.0
 11
188.9900673406
 21
32.7937332815
 31
0.0
  0
LINE
  5
1A2
330
1F
100
AcDbEntity
  8
0
  6
CONTINUOUS
 62
     7
100
AcDbLine
 10
364.9900663869
 20
32.7937332815
 30
0.0
 11
364.9900663869
 21
25.5937380618
 31
0.0
  0
LINE
  5
1A3
330
1F
100
AcDbEntity
  8
0
  6
CONTINUOUS
 62
     7
100
AcDbLine
 10
364.9900663869
 20
25.5937380618
 30
0.0
 11
352.9900718705
 21
25.5937380618
 31
0.0
  0
LINE
  5
1A4
330
1F
100
AcDbEntity
  8
0
  6
CONTINUOUS
 62
     7
100
AcDbLine
 10
364.9900663869
 20
32.7937332815
 30
0.0
 11
352.9900718705
 21
32.7937332815
 31
0.0
  0
ELLIPSE
  5
1A5
330
1F
100
AcDbEntity
  8
0
  6
CONTINUOUS
 62
     7
100
AcDbEllipse
 10
352.9900696056
 20
-754.3599674823
 30
0.0
 11
0.0
 21
1186.196859212423
 31
0.0
210
0.0
220
0.0
230
1.0
 40
0.0094029048
 41
0.7375153425624822
 42
0.8451828663302492
  0
LINE
  5
1A6
330
1F
100
AcDbEntity
  8
0
  6
CONTINUOUS
 62
     7
100
AcDbLine
 10
345.4897586481
 20
123.5937354988
 30
0.0
 11
362.5950027482
 21
123.5937354988
 31
0.0
  0
LINE
  5
1A7
330
1F
100
AcDbEntity
  8
0
  6
CONTINUOUS
 62
     7
100
AcDbLine
 10
179.3851364629
 20
123.5937354988
 30
0.0
 11
196.490380563
 21
123.5937354988
 31
0.0
  0
ELLIPSE
  5
1A8
330
1F
100
AcDbEntity
  8
0
  6
CONTINUOUS
 62
     7
100
AcDbEllipse
 10
188.9900696056
 20
-754.3599674823
 30
0.0
 11
0.0
 21
1186.196859212419
 31
0.0
210
0.0
220
0.0
230
1.0
 40
0.0094029048
 41
5.438002440849974
 42
5.545669964617917
  0
LINE
  5
1A9
330
1F
100
AcDbEntity
  8
0
  6
CONTINUOUS
 62
     7
100
AcDbLine
 10
345.4897586481
 20
123.5937354988
 30
0.0
 11
196.490380563
 21
123.5937354988
 31
0.0
  0
LINE
  5
1AA
330
1F
100
AcDbEntity
  8
0
  6
CONTINUOUS
 62
     7
100
AcDbLine
 10
345.4900715725
 20
125.5937355938
 30
0.0
 11
360.4900721686
 21
125.5937355938
 31
0.0
  0
LINE
  5
1AB
330
1F
100
AcDbEntity
  8
0
  6
CONTINUOUS
 62
     7
100
AcDbLine
 10
188.9900673406
 20
125.5937355938
 30
0.0
 11
196.4900676386
 21
125.5937355938
 31
0.0
  0
LINE
  5
1AC
330
1F
100
AcDbEntity
  8
0
  6
CONTINUOUS
 62
     7
100
AcDbLine
 10
181.4900670426
 20
125.5937355938
 30
0.0
 11
188.9900673406
 21
125.5937355938
 31
0.0
  0
LINE
  5
1AD
330
1F
100
AcDbEntity
  8
0
  6
CONTINUOUS
 62
     7
100
AcDbLine
 10
419.795638051
 20
187.8231411033
 30
0.0
 11
510.5956402683
 21
185.6040378265
 31
0.0
  0
LINE
  5
1AE
330
1F
100
AcDbEntity
  8
0
  6
CONTINUOUS
 62
     7
100
AcDbLine
 10
510.5956402683
 20
373.2521106653
 30
0.0
 11
419.795638051
 21
371.0330073886
 31
0.0
  0
LINE
  5
1AF
330
1F
100
AcDbEntity
  8
0
  6
CONTINUOUS
 62
     7
100
AcDbLine
 10
419.795638051
 20
368.9280768089
 30
0.0
 11
417.795637956
 21
368.9280768089
 31
0.0
  0
LINE
  5
1B0
330
1F
100
AcDbEntity
  8
0
  6
CONTINUOUS
 62
     7
100
AcDbLine
 10
417.795637956
 20
353.9280762129
 30
0.0
 11
419.795638051
 21
353.9280762129
 31
0.0
  0
LINE
  5
1B1
330
1F
100
AcDbEntity
  8
0
  6
CONTINUOUS
 62
     7
100
AcDbLine
 10
419.795638051
 20
204.928072279
 30
0.0
 11
417.795637956
 21
204.928072279
 31
0.0
  0
LINE
  5
1B2
330
1F
100
AcDbEntity
  8
0
  6
CONTINUOUS
 62
     7
100
AcDbLine
 10
417.795637956
 20
189.9280716829
 30
0.0
 11
419.795638051
 21
189.9280716829
 31
0.0
  0
LINE
  5
1B3
330
1F
100
AcDbEntity
  8
0
  6
CONTINUOUS
 62
     7
100
AcDbLine
 10
510.5956402683
 20
185.4280774646
 30
0.0
 11
517.795635488
 21
185.4280774646
 31
0.0
  0
LINE
  5
1B4
330
1F
100
AcDbEntity
  8
0
  6
CONTINUOUS
 62
     7
100
AcDbLine
 10
510.5956402683
 20
197.428071981
 30
0.0
 11
517.795635488
 21
197.428071981
 31
0.0
  0
LINE
  5
1B5
330
1F
100
AcDbEntity
  8
0
  6
CONTINUOUS
 62
     7
100
AcDbLine
 10
517.795635488
 20
197.428071981
 30
0.0
 11
517.795635488
 21
185.4280774646
 31
0.0
  0
LINE
  5
1B6
330
1F
100
AcDbEntity
  8
0
  6
CONTINUOUS
 62
     7
100
AcDbLine
 10
510.5956402683
 20
197.428071981
 30
0.0
 11
510.5956402683
 21
185.4280774646
 31
0.0
  0
LINE
  5
1B7
330
1F
100
AcDbEntity
  8
0
  6
CONTINUOUS
 62
     7
100
AcDbLine
 10
510.5956402683
 20
361.4280765109
 30
0.0
 11
517.795635488
 21
361.4280765109
 31
0.0
  0
LINE
  5
1B8
330
1F
100
AcDbEntity
  8
0
  6
CONTINUOUS
 62
     7
100
AcDbLine
 10
517.795635488
 20
361.4280765109
 30
0.0
 11
517.795635488
 21
197.428071981
 31
0.0
  0
LINE
  5
1B9
330
1F
100
AcDbEntity
  8
0
  6
CONTINUOUS
 62
     7
100
AcDbLine
 10
510.5956402683
 20
361.4280765109
 30
0.0
 11
510.5956402683
 21
197.428071981
 31
0.0
  0
LINE
  5
1BA
330
1F
100
AcDbEntity
  8
0
  6
CONTINUOUS
 62
     7
100
AcDbLine
 10
510.5956402683
 20
373.4280710273
 30
0.0
 11
517.795635488
 21
373.4280710273
 31
0.0
  0
LINE
  5
1BB
330
1F
100
AcDbEntity
  8
0
  6
CONTINUOUS
 62
     7
100
AcDbLine
 10
517.795635488
 20
373.4280710273
 30
0.0
 11
517.795635488
 21
361.4280765109
 31
0.0
  0
LINE
  5
1BC
330
1F
100
AcDbEntity
  8
0
  6
CONTINUOUS
 62
     7
100
AcDbLine
 10
510.5956402683
 20
373.4280710273
 30
0.0
 11
510.5956402683
 21
361.4280765109
 31
0.0
  0
LINE
  5
1BD
330
1F
100
AcDbEntity
  8
0
  6
CONTINUOUS
 62
     7
100
AcDbLine
 10
419.795638051
 20
187.8231411033
 30
0.0
 11
419.795638051
 21
204.9283852034
 31
0.0
  0
ELLIPSE
  5
1BE
330
1F
100
AcDbEntity
  8
0
  6
CONTINUOUS
 62
     7
100
AcDbEllipse
 10
1297.7493414626
 20
197.4280742459
 30
0.0
 11
1186.196859672716
 21
0.0
 31
0.0
210
0.0
220
0.0
230
1.0
 40
0.0094029048
 41
2.296409787399736
 42
2.404077311139009
  0
ELLIPSE
  5
1BF
330
1F
100
AcDbEntity
  8
0
  6
CONTINUOUS
 62
     7
100
AcDbEllipse
 10
1297.7493410302
 20
361.4280742459
 30
0.0
 11
1186.196859209429
 21
0.0
 31
0.0
210
0.0
220
0.0
230
1.0
 40
0.0094029048
 41
3.87910799615358
 42
3.986775519921318
  0
LINE
  5
1C0
330
1F
100
AcDbEntity
  8
0
  6
CONTINUOUS
 62
     7
100
AcDbLine
 10
419.795638051
 20
353.9277632885
 30
0.0
 11
419.795638051
 21
371.0330073886
 31
0.0
  0
LINE
  5
1C1
330
1F
100
AcDbEntity
  8
0
  6
CONTINUOUS
 62
     7
100
AcDbLine
 10
419.795638051
 20
353.9277632885
 30
0.0
 11
419.795638051
 21
204.9283852034
 31
0.0
  0
LINE
  5
1C2
330
1F
100
AcDbEntity
  8
0
  6
CONTINUOUS
 62
     7
100
AcDbLine
 10
417.795637956
 20
353.9280762129
 30
0.0
 11
417.795637956
 21
368.9280768089
 31
0.0
  0
LINE
  5
1C3
330
1F
100
AcDbEntity
  8
0
  6
CONTINUOUS
 62
     7
100
AcDbLine
 10
417.795637956
 20
189.9280716829
 30
0.0
 11
417.795637956
 21
204.928072279
 31
0.0
  0
LINE
  5
1C4
330
1F
100
AcDbEntity
  8
0
  6
CONTINUOUS
 62
     7
100
AcDbLine
 10
433.7956384832
 20
185.4280774646
 30
0.0
 11
424.7956379393
 21
185.4280774646
 31
0.0
  0
LINE
  5
1C5
330
1F
100
AcDbEntity
  8
0
  6
CONTINUOUS
 62
     7
100
AcDbLine
 10
424.7956379393
 20
187.7009441309
 30
0.0
 11
424.7956379393
 21
185.4280774646
 31
0.0
  0
LINE
  5
1C6
330
1F
100
AcDbEntity
  8
0
  6
CONTINUOUS
 62
     7
100
AcDbLine
 10
463.7956378126
 20
185.4280774646
 30
0.0
 11
433.7956384832
 21
185.4280774646
 31
0.0
  0
LINE
  5
1C7
330
1F
100
AcDbEntity
  8
0
  6
CONTINUOUS
 62
     7
100
AcDbLine
 10
472.7956374252
 20
186.5278502159
 30
0.0
 11
472.7956374252
 21
185.4280774646
 31
0.0
  0
LINE
  5
1C8
330
1F
100
AcDbEntity
  8
0
  6
CONTINUOUS
 62
     7
100
AcDbLine
 10
472.7956374252
 20
185.4280774646
 30
0.0
 11
463.7956378126
 21
185.4280774646
 31
0.0
  0
LINE
  5
1C9
330
1F
100
AcDbEntity
  8
0
  6
CONTINUOUS
 62
     8
100
AcDbLine
 10
433.7956384832
 20
187.4809880905
 30
0.0
 11
433.7956384832
 21
185.4280774646
 31
0.0
  0
LINE
  5
1CA
330
1F
100
AcDbEntity
  8
0
  6
CONTINUOUS
 62
     8
100
AcDbLine
 10
463.7956378126
 20
186.7478062563
 30
0.0
 11
463.7956378126
 21
185.4280774646
 31
0.0
  0
CIRCLE
  5
1CB
330
1F
100
AcDbEntity
  8
0
  6
CONTINUOUS
 62
     7
100
AcDbCircle
 10
598.0645011601
 20
197.4280742459
 30
0.0
 40
3.250000000000028
  0
CIRCLE
  5
1CC
330
1F
100
AcDbEntity
  8
0
  6
CONTINUOUS
 62
     7
100
AcDbCircle
 10
598.0645011601
 20
197.4280742459
 30
0.0
 40
7.500000000000028
  0
CIRCLE
  5
1CD
330
1F
100
AcDbEntity
  8
0
  6
CONTINUOUS
 62
     7
100
AcDbCircle
 10
598.0645011601
 20
361.4280742459
 30
0.0
 40
3.25
  0
CIRCLE
  5
1CE
330
1F
100
AcDbEntity
  8
0
  6
CONTINUOUS
 62
     7
100
AcDbCircle
 10
598.0645011601
 20
361.4280742459
 30
0.0
 40
7.500000000000057
  0
CIRCLE
  5
1CF
330
1F
100
AcDbEntity
  8
0
  6
CONTINUOUS
 62
     7
100
AcDbCircle
 10
762.0645011601
 20
361.4280742459
 30
0.0
 40
3.25
  0
CIRCLE
  5
1D0
330
1F
100
AcDbEntity
  8
0
  6
CONTINUOUS
 62
     7
100
AcDbCircle
 10
762.0645011601
 20
361.4280742459
 30
0.0
 40
7.5
  0
CIRCLE
  5
1D1
330
1F
100
AcDbEntity
  8
0
  6
CONTINUOUS
 62
     7
100
AcDbCircle
 10
762.0645011601
 20
197.4280742459
 30
0.0
 40
3.25
  0
CIRCLE
  5
1D2
330
1F
100
AcDbEntity
  8
0
  6
CONTINUOUS
 62
     7
100
AcDbCircle
 10
762.0645011601
 20
197.4280742459
 30
0.0
 40
7.500000000000028
  0
ELLIPSE
  5
1D3
330
1F
100
AcDbEntity
  8
0
  6
CONTINUOUS
 62
     7
100
AcDbEllipse
 10
598.0645011601
 20
390.4181010536
 30
0.0
 11
0.0
 21
31.06165792095243
 31
0.0
210
0.0
220
0.0
230
1.0
 40
0.3590824485
 41
3.879107996152277
 42
3.986775519920047
  0
ARC
  5
1D4
330
1F
100
AcDbEntity
  8
0
  6
CONTINUOUS
 62
     7
100
AcDbCircle
 10
598.0645011601
 20
361.4280742459
 30
0.0
 40
9.604931587862339
100
AcDbArc
 50
38.6586379697
 51
231.3413620303
  0
ELLIPSE
  5
1D5
330
1F
100
AcDbEntity
  8
0
  6
CONTINUOUS
 62
     7
100
AcDbEllipse
 10
569.0744743525
 20
361.4280742459
 30
0.0
 11
31.06165792087427
 21
0.0
 31
0.0
210
0.0
220
0.0
230
1.0
 40
0.3590824485
 41
5.438002440848749
 42
5.545669964616644
  0
ARC
  5
1D6
330
1F
100
AcDbEntity
  8
0
  6
CONTINUOUS
 62
     7
100
AcDbCircle
 10
598.0645011601
 20
361.4280742459
 30
0.0
 40
11.82403578940399
100
AcDbArc
 50
45.1154211328
 51
224.8845788672
  0
ELLIPSE
  5
1D7
330
1F
100
AcDbEntity
  8
0
  6
CONTINUOUS
 62
     7
100
AcDbEllipse
 10
569.0744743412
 20
197.4280742459
 30
0.0
 11
31.06165793300568
 21
0.0
 31
0.0
210
0.0
220
0.0
230
1.0
 40
0.3590824485
 41
0.7375153424507777
 42
0.8451828661900533
  0
ARC
  5
1D8
330
1F
100
AcDbEntity
  8
0
  6
CONTINUOUS
 62
     7
100
AcDbCircle
 10
598.0645011601
 20
197.4280742459
 30
0.0
 40
9.604931589426549
100
AcDbArc
 50
128.6586379622
 51
321.3413620378
  0
ELLIPSE
  5
1D9
330
1F
100
AcDbEntity
  8
0
  6
CONTINUOUS
 62
     7
100
AcDbEllipse
 10
598.0645011601
 20
168.438047427
 30
0.0
 11
0.0
 21
31.06165793308386
 31
0.0
210
0.0
220
0.0
230
1.0
 40
0.3590824485
 41
5.438002440990171
 42
5.545669964729322
  0
ARC
  5
1DA
330
1F
100
AcDbEntity
  8
0
  6
CONTINUOUS
 62
     7
100
AcDbCircle
 10
598.0645011601
 20
197.4280742459
 30
0.0
 40
11.82403579096825
100
AcDbArc
 50
135.1154211252
 51
314.8845788748
  0
ARC
  5
1DB
330
1F
100
AcDbEntity
  8
0
  6
CONTINUOUS
 62
     7
100
AcDbCircle
 10
762.0645011601
 20
361.4280742459
 30
0.0
 40
9.604931587862295
100
AcDbArc
 50
308.6586379697
 51
141.3413620303
  0
LINE
  5
1DC
330
1F
100
AcDbEntity
  8
0
  6
CONTINUOUS
 62
     7
100
AcDbLine
 10
768.0645006833
 20
353.9277632885
 30
0.0
 11
768.0645006833
 21
204.9283852034
 31
0.0
  0
ARC
  5
1DD
330
1F
100
AcDbEntity
  8
0
  6
CONTINUOUS
 62
     7
100
AcDbCircle
 10
762.0645011601
 20
197.4280742459
 30
0.0
 40
9.604931589426549
100
AcDbArc
 50
218.6586379622
 51
51.3413620378
  0
LINE
  5
1DE
330
1F
100
AcDbEntity
  8
0
  6
CONTINUOUS
 62
     7
100
AcDbLine
 10
754.5641902027
 20
191.4280747228
 30
0.0
 11
605.5648121175
 21
191.4280747228
 31
0.0
  0
LINE
  5
1DF
330
1F
100
AcDbEntity
  8
0
  6
CONTINUOUS
 62
     7
100
AcDbLine
 10
592.0645016369
 20
204.9283852034
 30
0.0
 11
592.0645016369
 21
353.9277632885
 31
0.0
  0
LINE
  5
1E0
330
1F
100
AcDbEntity
  8
0
  6
CONTINUOUS
 62
     7
100
AcDbLine
 10
605.5648121175
 20
367.4280737691
 30
0.0
 11
754.5641902027
 21
367.4280737691
 31
0.0
  0
LINE
  5
1E1
330
1F
100
AcDbEntity
  8
0
  6
CONTINUOUS
 62
     7
100
AcDbLine
 10
589.6868202028
 20
205.772074049
 30
0.0
 11
589.6868202028
 21
353.0840744429
 31
0.0
  0
ELLIPSE
  5
1E2
330
1F
100
AcDbEntity
  8
0
  6
CONTINUOUS
 62
     7
100
AcDbEllipse
 10
762.0645011601
 20
390.4181010536
 30
0.0
 11
0.0
 21
31.06165792095237
 31
0.0
210
0.0
220
0.0
230
1.0
 40
0.3590824485
 41
2.296409787259541
 42
2.404077311027313
  0
LINE
  5
1E3
330
1F
100
AcDbEntity
  8
0
  6
CONTINUOUS
 62
     7
100
AcDbLine
 10
606.4085009632
 20
369.8057552033
 30
0.0
 11
753.720501357
 21
369.8057552033
 31
0.0
  0
ELLIPSE
  5
1E4
330
1F
100
AcDbEntity
  8
0
  6
CONTINUOUS
 62
     7
100
AcDbEllipse
 10
762.0645011601
 20
168.438047427
 30
0.0
 11
0.0
 21
31.06165793308386
 31
0.0
210
0.0
220
0.0
230
1.0
 40
0.3590824485
 41
0.7375153424502872
 42
0.8451828661894338
  0
LINE
  5
1E5
330
1F
100
AcDbEntity
  8
0
  6
CONTINUOUS
 62
     7
100
AcDbLine
 10
753.720501357
 20
189.0503932886
 30
0.0
 11
749.0644994316
 21
189.0503932886
 31
0.0
  0
LINE
  5
1E6
330
1F
100
AcDbEntity
  8
0
  6
CONTINUOUS
 62
     7
100
AcDbLine
 10
611.0645028886
 20
189.0503932886
 30
0.0
 11
606.4085009632
 21
189.0503932886
 31
0.0
  0
LINE
  5
1E7
330
1F
100
AcDbEntity
  8
0
  6
CONTINUOUS
 62
     7
100
AcDbLine
 10
740.064499819
 20
191.2971456699
 30
0.0
 11
620.0645025012
 21
191.2971456699
 31
0.0
  0
ELLIPSE
  5
1E8
330
1F
100
AcDbEntity
  8
0
  6
CONTINUOUS
 62
     7
100
AcDbEllipse
 10
620.0645011601
 20
191.0614713439
 30
0.0
 11
9.0
 21
0.0
 31
0.0
210
0.0
220
0.0
230
1.0
 40
0.0261859216
 41
1.570796326794897
 42
3.141592652812893
  0
ELLIPSE
  5
1E9
330
1F
100
AcDbEntity
  8
0
  6
CONTINUOUS
 62
     7
100
AcDbEllipse
 10
740.0645011601
 20
191.0614713439
 30
0.0
 11
9.0
 21
0.0
 31
0.0
210
0.0
220
0.0
230
1.0
 40
0.0261859216
 41
0.0
 42
1.570796326794897
  0
ELLIPSE
  5
1EA
330
1F
100
AcDbEntity
  8
0
  6
CONTINUOUS
 62
     7
100
AcDbEllipse
 10
791.0545279677
 20
361.4280742459
 30
0.0
 11
31.06165792087415
 21
0.0
 31
0.0
210
0.0
220
0.0
230
1.0
 40
0.3590824485
 41
3.879107996152787
 42
3.986775519920679
  0
ARC
  5
1EB
330
1F
100
AcDbEntity
  8
0
  6
CONTINUOUS
 62
     7
100
AcDbCircle
 10
762.0645011601
 20
361.4280742459
 30
0.0
 40
11.82403578940403
100
AcDbArc
 50
315.1154211328
 51
134.8845788672
  0
ELLIPSE
  5
1EC
330
1F
100
AcDbEntity
  8
0
  6
CONTINUOUS
 62
     7
100
AcDbEllipse
 10
791.054527979
 20
197.4280742459
 30
0.0
 11
31.06165793300579
 21
0.0
 31
0.0
210
0.0
220
0.0
230
1.0
 40
0.3590824485
 41
2.296409787399735
 42
2.404077311139011
  0
ARC
  5
1ED
330
1F
100
AcDbEntity
  8
0
  6
CONTINUOUS
 62
     7
100
AcDbCircle
 10
762.0645011601
 20
197.4280742459
 30
0.0
 40
11.82403579096825
100
AcDbArc
 50
225.1154211252
 51
44.8845788748
  0
LINE
  5
1EE
330
1F
100
AcDbEntity
  8
0
  6
CONTINUOUS
 62
     7
100
AcDbLine
 10
770.4421821174
 20
353.0840744429
 30
0.0
 11
770.4421821174
 21
205.772074049
 31
0.0
  0
LINE
  5
1EF
330
1F
100
AcDbEntity
  8
0
  6
CONTINUOUS
 62
     7
100
AcDbLine
 10
611.0645028886
 20
191.0614689045
 30
0.0
 11
611.0645028886
 21
185.4280774646
 31
0.0
  0
LINE
  5
1F0
330
1F
100
AcDbEntity
  8
0
  6
CONTINUOUS
 62
     7
100
AcDbLine
 10
620.0645025012
 20
191.2971456699
 30
0.0
 11
620.0645025012
 21
185.4280774646
 31
0.0
  0
LINE
  5
1F1
330
1F
100
AcDbEntity
  8
0
  6
CONTINUOUS
 62
     7
100
AcDbLine
 10
620.0645025012
 20
185.4280774646
 30
0.0
 11
611.0645028886
 21
185.4280774646
 31
0.0
  0
LINE
  5
1F2
330
1F
100
AcDbEntity
  8
0
  6
CONTINUOUS
 62
     7
100
AcDbLine
 10
740.064499819
 20
191.2971456699
 30
0.0
 11
740.064499819
 21
185.4280774646
 31
0.0
  0
LINE
  5
1F3
330
1F
100
AcDbEntity
  8
0
  6
CONTINUOUS
 62
     7
100
AcDbLine
 10
740.064499819
 20
185.4280774646
 30
0.0
 11
620.0645025012
 21
185.4280774646
 31
0.0
  0
LINE
  5
1F4
330
1F
100
AcDbEntity
  8
0
  6
CONTINUOUS
 62
     7
100
AcDbLine
 10
749.0644994316
 20
191.0614689045
 30
0.0
 11
749.0644994316
 21
185.4280774646
 31
0.0
  0
LINE
  5
1F5
330
1F
100
AcDbEntity
  8
0
  6
CONTINUOUS
 62
     7
100
AcDbLine
 10
749.0644994316
 20
185.4280774646
 30
0.0
 11
740.064499819
 21
185.4280774646
 31
0.0
  0
LINE
  5
1F6
330
1F
100
AcDbEntity
  8
0
  6
CONTINUOUS
 62
     7
100
AcDbLine
 10
762.0645034251
 20
185.4280774646
 30
0.0
 11
749.0644994316
 21
185.4280774646
 31
0.0
  0
LINE
  5
1F7
330
1F
100
AcDbEntity
  8
0
  6
CONTINUOUS
 62
     7
100
AcDbLine
 10
611.0645028886
 20
185.4280774646
 30
0.0
 11
598.0644988951
 21
185.4280774646
 31
0.0
  0
LINE
  5
1F8
330
1F
100
AcDbEntity
  8
0
  6
CONTINUOUS
 62
     7
100
AcDbLine
 10
586.0645043787
 20
197.428071981
 30
0.0
 11
586.0645043787
 21
361.4280765109
 31
0.0
  0
ARC
  5
1F9
330
1F
100
AcDbEntity
  8
0
  6
CONTINUOUS
 62
     7
100
AcDbCircle
 10
598.0645011601
 20
361.4280742459
 30
0.0
 40
12.00000000078217
100
AcDbArc
 50
90.0
 51
180.0
  0
LINE
  5
1FA
330
1F
100
AcDbEntity
  8
0
  6
CONTINUOUS
 62
     7
100
AcDbLine
 10
598.0644988951
 20
373.4280710273
 30
0.0
 11
762.0645034251
 21
373.4280710273
 31
0.0
  0
ARC
  5
1FB
330
1F
100
AcDbEntity
  8
0
  6
CONTINUOUS
 62
     7
100
AcDbCircle
 10
762.0645011601
 20
361.4280742459
 30
0.0
 40
12.00000000078217
100
AcDbArc
 50
0.0
 51
90.0
  0
LINE
  5
1FC
330
1F
100
AcDbEntity
  8
0
  6
CONTINUOUS
 62
     7
100
AcDbLine
 10
774.0644979414
 20
361.4280765109
 30
0.0
 11
774.0644979414
 21
197.428071981
 31
0.0
  0
ARC
  5
1FD
330
1F
100
AcDbEntity
  8
0
  6
CONTINUOUS
 62
     7
100
AcDbCircle
 10
762.0645011601
 20
197.4280742459
 30
0.0
 40
12.00000000078217
100
AcDbArc
 50
270.0
 51
0.0
  0
ARC
  5
1FE
330
1F
100
AcDbEntity
  8
0
  6
CONTINUOUS
 62
     7
100
AcDbCircle
 10
598.0645011601
 20
197.4280742459
 30
0.0
 40
12.00000000078217
100
AcDbArc
 50
180.0
 51
270.0
  0
ENDSEC
  0
SECTION
  2
OBJECTS
  0
DICTIONARY
  5
C
330
0
100
AcDbDictionary
  3
ACAD_GROUP
350
D
  3
ACAD_MLINESTYLE
350
17
  0
DICTIONARY
  5
D
102
{ACAD_REACTORS
330
C
102
}
330
C
100
AcDbDictionary
  0
DICTIONARY
  5
17
102
{ACAD_REACTORS
330
C
102
}
330
C
100
AcDbDictionary
  3
STANDARD
350
18
  0
MLINESTYLE
  5
18
102
{ACAD_REACTORS
330
17
102
}
330
17
100
AcDbMlineStyle
  2
Standard
 70
     0
  3

 62
   256
 51
90.0
 52
90.0
 71
     2
 49
0.5
 62
   256
  6
BYLAYER
 49
-0.5
 62
   256
  6
BYLAYER
  0
ENDSEC
  0
EOF
