  0
SECTION
  2
HEADER
  9
$ACADVER
  1
AC1014
  9
$ACADMAINTVER
 70
     9
  9
$DWGCODEPAGE
  3
ANSI_1252
  9
$INSBASE
 10
0.0
 20
0.0
 30
0.0
  9
$EXTMIN
 10
0.0
 20
0.0
 30
0.0
  9
$EXTMAX
 10
840.0
 20
594.0
 30
0.0
  9
$LIMMIN
 10
0.0
 20
0.0
  9
$LIMMAX
 10
840.0
 20
594.0
  9
$ORTHOMODE
 70
     0
  9
$REGENMODE
 70
     1
  9
$FILLMODE
 70
     1
  9
$QTEXTMODE
 70
     0
  9
$MIRRTEXT
 70
     1
  9
$DRAGMODE
 70
     2
  9
$LTSCALE
 40
2.0
  9
$OSMODE
 70
    37
  9
$ATTMODE
 70
     1
  9
$TEXTSIZE
 40
7.0
  9
$TRACEWID
 40
1.0
  9
$TEXTSTYLE
  7
STANDARD
  9
$CLAYER
  8
0
  9
$CELTYPE
  6
BYLAYER
  9
$CECOLOR
 62
   256
  9
$CELTSCALE
 40
1.0
  9
$DELOBJ
 70
     1
  9
$DISPSILH
 70
     0
  9
$DIMSCALE
 40
1.0
  9
$DIMASZ
 40
12.0
  9
$DIMEXO
 40
2.0
  9
$DIMDLI
 40
3.75
  9
$DIMRND
 40
0.0
  9
$DIMDLE
 40
0.0
  9
$DIMEXE
 40
2.0
  9
$DIMTP
 40
0.0
  9
$DIMTM
 40
0.0
  9
$DIMTXT
 40
7.0
  9
$DIMCEN
 40
2.5
  9
$DIMTSZ
 40
0.0
  9
$DIMTOL
 70
     0
  9
$DIMLIM
 70
     0
  9
$DIMTIH
 70
     1
  9
$DIMTOH
 70
     1
  9
$DIMSE1
 70
     0
  9
$DIMSE2
 70
     0
  9
$DIMTAD
 70
     1
  9
$DIMZIN
 70
     0
  9
$DIMBLK
  1

  9
$DIMASO
 70
     1
  9
$DIMSHO
 70
     1
  9
$DIMPOST
  1

  9
$DIMAPOST
  1

  9
$DIMALT
 70
     0
  9
$DIMALTD
 70
     3
  9
$DIMALTF
 40
0.0393700787
  9
$DIMLFAC
 40
1.0
  9
$DIMTOFL
 70
     1
  9
$DIMTVP
 40
0.0
  9
$DIMTIX
 70
     0
  9
$DIMSOXD
 70
     0
  9
$DIMSAH
 70
     0
  9
$DIMBLK1
  1

  9
$DIMBLK2
  1

  9
$DIMSTYLE
  2
ISO-25
  9
$DIMCLRD
 70
     0
  9
$DIMCLRE
 70
     0
  9
$DIMCLRT
 70
     0
  9
$DIMTFAC
 40
1.0
  9
$DIMGAP
 40
3.048
  9
$DIMJUST
 70
     0
  9
$DIMSD1
 70
     0
  9
$DIMSD2
 70
     0
  9
$DIMTOLJ
 70
     0
  9
$DIMTZIN
 70
     0
  9
$DIMALTZ
 70
     0
  9
$DIMALTTZ
 70
     0
  9
$DIMFIT
 70
     3
  9
$DIMUPT
 70
     0
  9
$DIMUNIT
 70
     2
  9
$DIMDEC
 70
     2
  9
$DIMTDEC
 70
     2
  9
$DIMALTU
 70
     2
  9
$DIMALTTD
 70
     3
  9
$DIMTXSTY
  7
STANDARD
  9
$DIMAUNIT
 70
     0
  9
$LUNITS
 70
     2
  9
$LUPREC
 70
     2
  9
$SKETCHINC
 40
1.0
  9
$FILLETRAD
 40
10.0
  9
$AUNITS
 70
     0
  9
$AUPREC
 70
     2
  9
$MENU
  1
.
  9
$ELEVATION
 40
0.0
  9
$PELEVATION
 40
0.0
  9
$THICKNESS
 40
0.0
  9
$LIMCHECK
 70
     0
  9
$CHAMFERA
 40
10.0
  9
$CHAMFERB
 40
10.0
  9
$CHAMFERC
 40
20.0
  9
$CHAMFERD
 40
0.0
  9
$SKPOLY
 70
     0
  9
$TDCREATE
 40
2455439.461591829
  9
$TDUPDATE
 40
2455439.46159184
  9
$TDINDWG
 40
0.0000000116
  9
$TDUSRTIMER
 40
0.0000000116
  9
$USRTIMER
 70
     1
  9
$ANGBASE
 50
0.0
  9
$ANGDIR
 70
     0
  9
$PDMODE
 70
     0
  9
$PDSIZE
 40
-1.0
  9
$PLINEWID
 40
0.0
  9
$COORDS
 70
     1
  9
$SPLFRAME
 70
     0
  9
$SPLINETYPE
 70
     6
  9
$SPLINESEGS
 70
     8
  9
$ATTDIA
 70
     0
  9
$ATTREQ
 70
     1
  9
$HANDLING
 70
     1
  9
$HANDSEED
  5
301
  9
$SURFTAB1
 70
     6
  9
$SURFTAB2
 70
     6
  9
$SURFTYPE
 70
     6
  9
$SURFU
 70
     6
  9
$SURFV
 70
     6
  9
$UCSNAME
  2

  9
$UCSORG
 10
0.0
 20
0.0
 30
0.0
  9
$UCSXDIR
 10
1.0
 20
0.0
 30
0.0
  9
$UCSYDIR
 10
0.0
 20
1.0
 30
0.0
  9
$PUCSNAME
  2

  9
$PUCSORG
 10
0.0
 20
0.0
 30
0.0
  9
$PUCSXDIR
 10
1.0
 20
0.0
 30
0.0
  9
$PUCSYDIR
 10
0.0
 20
1.0
 30
0.0
  9
$USERI1
 70
     0
  9
$USERI2
 70
     0
  9
$USERI3
 70
     0
  9
$USERI4
 70
     0
  9
$USERI5
 70
     0
  9
$USERR1
 40
0.0
  9
$USERR2
 40
0.0
  9
$USERR3
 40
0.0
  9
$USERR4
 40
0.0
  9
$USERR5
 40
0.0
  9
$WORLDVIEW
 70
     1
  9
$SHADEDGE
 70
     3
  9
$SHADEDIF
 70
    70
  9
$TILEMODE
 70
     1
  9
$MAXACTVP
 70
    64
  9
$PINSBASE
 10
0.0
 20
0.0
 30
0.0
  9
$PLIMCHECK
 70
     0
  9
$PEXTMIN
 10
1.0000000000E+20
 20
1.0000000000E+20
 30
1.0000000000E+20
  9
$PEXTMAX
 10
-1.0000000000E+20
 20
-1.0000000000E+20
 30
-1.0000000000E+20
  9
$PLIMMIN
 10
0.0
 20
0.0
  9
$PLIMMAX
 10
420.0
 20
297.0
  9
$UNITMODE
 70
     0
  9
$VISRETAIN
 70
     1
  9
$PLINEGEN
 70
     0
  9
$PSLTSCALE
 70
     1
  9
$TREEDEPTH
 70
  3020
  9
$PICKSTYLE
 70
     1
  9
$CMLSTYLE
  2
STANDARD
  9
$CMLJUST
 70
     0
  9
$CMLSCALE
 40
20.0
  9
$PROXYGRAPHICS
 70
     1
  9
$MEASUREMENT
 70
     1
  0
ENDSEC
  0
SECTION
  2
CLASSES
  0
CLASS
  1
ACDBDICTIONARYWDFLT
  2
AcDbDictionaryWithDefault
  3
ObjectDBX Classes
 90
        0
280
     0
281
     0
  0
CLASS
  1
VISUALSTYLE
  2
AcDbVisualStyle
  3
ObjectDBX Classes
 90
     4095
280
     0
281
     0
  0
CLASS
  1
MATERIAL
  2
AcDbMaterial
  3
ObjectDBX Classes
 90
     1153
280
     0
281
     0
  0
CLASS
  1
XRECORD
  2
AcDbXrecord
  3
AutoCAD 2000
 90
        0
280
     0
281
     0
  0
CLASS
  1
LWPOLYLINE
  2
AcDbPolyline
  3
AutoCAD 2000
 90
        0
280
     0
281
     1
  0
CLASS
  1
HATCH
  2
AcDbHatch
  3
AutoCAD 2000
 90
        0
280
     0
281
     1
  0
ENDSEC
  0
SECTION
  2
TABLES
  0
TABLE
  2
VPORT
  5
8
330
0
100
AcDbSymbolTable
 70
     1
  0
VPORT
  5
29
330
8
100
AcDbSymbolTableRecord
100
AcDbViewportTableRecord
  2
*ACTIVE
 70
     0
 10
0.0
 20
0.0
 11
1.0
 21
1.0
 12
420.0
 22
297.0
 13
0.0
 23
0.0
 14
10.0
 24
10.0
 15
10.0
 25
10.0
 16
0.0
 26
0.0
 36
1.0
 17
0.0
 27
0.0
 37
0.0
 40
594.0
 41
1.4141414141
 42
50.0
 43
0.0
 44
0.0
 50
0.0
 51
0.0
 71
     0
 72
  2000
 73
     1
 74
     3
 75
     0
 76
     0
 77
     0
 78
     0
  0
ENDTAB
  0
TABLE
  2
LTYPE
  5
5
330
0
100
AcDbSymbolTable
 70
     6
  0
LTYPE
  5
14
330
5
100
AcDbSymbolTableRecord
100
AcDbLinetypeTableRecord
  2
BYBLOCK
 70
     0
  3

 72
    65
 73
     0
 40
0.0
  0
LTYPE
  5
15
330
5
100
AcDbSymbolTableRecord
100
AcDbLinetypeTableRecord
  2
BYLAYER
 70
     0
  3

 72
    65
 73
     0
 40
0.0
  0
LTYPE
  5
16
330
5
100
AcDbSymbolTableRecord
100
AcDbLinetypeTableRecord
  2
CONTINUOUS
 70
     0
  3
Solid line
 72
    65
 73
     0
 40
0.0
  0
LTYPE
  5
3F
330
5
100
AcDbSymbolTableRecord
100
AcDbLinetypeTableRecord
  2
HIDDEN
 70
     0
  3
Hidden __ __ __ __ __ __ __ __ __ __ __ __ __ __
 72
    65
 73
     2
 40
1.905
 49
1.27
 74
     0
 49
-0.635
 74
     0
  0
LTYPE
  5
40
330
5
100
AcDbSymbolTableRecord
100
AcDbLinetypeTableRecord
  2
PHANTOM
 70
     0
  3
Phantom ______  __  __  ______  __  __  ______
 72
    65
 73
     6
 40
12.7
 49
6.35
 74
     0
 49
-1.27
 74
     0
 49
1.27
 74
     0
 49
-1.27
 74
     0
 49
1.27
 74
     0
 49
-1.27
 74
     0
  0
LTYPE
  5
41
330
5
100
AcDbSymbolTableRecord
100
AcDbLinetypeTableRecord
  2
CENTER
 70
     0
  3
Center ____ _ ____ _ ____ _ ____ _ ____ _ ____
 72
    65
 73
     4
 40
10.16
 49
6.35
 74
     0
 49
-1.27
 74
     0
 49
1.27
 74
     0
 49
-1.27
 74
     0
  0
LTYPE
  5
42
330
5
100
AcDbSymbolTableRecord
100
AcDbLinetypeTableRecord
  2
CENTERX2
 70
     0
  3
Center (2x) ________  __  ________  __  _____
 72
    65
 73
     4
 40
20.32
 49
12.7
 74
     0
 49
-2.54
 74
     0
 49
2.54
 74
     0
 49
-2.54
 74
     0
  0
LTYPE
  5
43
330
5
100
AcDbSymbolTableRecord
100
AcDbLinetypeTableRecord
  2
DOT2
 70
     0
  3
Dot (.5x) ........................................
 72
    65
 73
     2
 40
0.635
 49
0.0
 74
     0
 49
-0.635
 74
     0
  0
ENDTAB
  0
TABLE
  2
LAYER
  5
2
330
0
100
AcDbSymbolTable
 70
     1
  0
LAYER
  5
10
330
2
100
AcDbSymbolTableRecord
100
AcDbLayerTableRecord
  2
0
 70
     0
 62
     7
  6
CONTINUOUS
  0
ENDTAB
  0
TABLE
  2
STYLE
  5
3
330
0
100
AcDbSymbolTable
 70
     1
  0
STYLE
  5
11
330
3
100
AcDbSymbolTableRecord
100
AcDbTextStyleTableRecord
  2
STANDARD
 70
     0
 40
0.0
 41
1.0
 50
0.0
 71
     0
 42
2.5
  3
txt
  4

  0
ENDTAB
  0
TABLE
  2
VIEW
  5
6
330
0
100
AcDbSymbolTable
 70
     0
  0
ENDTAB
  0
TABLE
  2
UCS
  5
7
330
0
100
AcDbSymbolTable
 70
     0
  0
ENDTAB
  0
TABLE
  2
APPID
  5
9
330
0
100
AcDbSymbolTable
 70
     1
  0
APPID
  5
12
330
9
100
AcDbSymbolTableRecord
100
AcDbRegAppTableRecord
  2
ACAD
 70
     0
  0
ENDTAB
  0
TABLE
  2
DIMSTYLE
  5
A
330
0
100
AcDbSymbolTable
 70
     1
  0
DIMSTYLE
105
27
330
A
100
AcDbSymbolTableRecord
100
AcDbDimStyleTableRecord
  2
ISO-25
 70
     0
  3

  4

  5

  6

  7

 40
1.0
 41
2.5
 42
0.625
 43
3.75
 44
1.25
 45
0.0
 46
0.0
 47
0.0
 48
0.0
140
2.5
141
2.5
142
0.0
143
0.0393700787
144
1.0
145
0.0
146
1.0
147
0.625
 71
     0
 72
     0
 73
     0
 74
     0
 75
     0
 76
     0
 77
     1
 78
     8
170
     0
171
     3
172
     1
173
     0
174
     0
175
     0
176
     0
177
     0
178
     0
270
     2
271
     2
272
     2
273
     2
274
     3
340
11
275
     0
280
     0
281
     0
282
     0
283
     0
284
     8
285
     0
286
     0
287
     3
288
     0
  0
ENDTAB
  0
TABLE
  2
BLOCK_RECORD
  5
1
330
0
100
AcDbSymbolTable
 70
     1
  0
BLOCK_RECORD
  5
1F
330
1
100
AcDbSymbolTableRecord
100
AcDbBlockTableRecord
  2
*MODEL_SPACE
  0
BLOCK_RECORD
  5
1B
330
1
100
AcDbSymbolTableRecord
100
AcDbBlockTableRecord
  2
*PAPER_SPACE
  0
BLOCK_RECORD
  5
23
330
1
100
AcDbSymbolTableRecord
100
AcDbBlockTableRecord
  2
*PAPER_SPACE0
  0
ENDTAB
  0
ENDSEC
  0
SECTION
  2
BLOCKS
  0
BLOCK
  5
20
330
1F
100
AcDbEntity
  8
0
100
AcDbBlockBegin
  2
*MODEL_SPACE
 70
     0
 10
0.0
 20
0.0
 30
0.0
  3
*MODEL_SPACE
  1

  0
ENDBLK
  5
21
330
1F
100
AcDbEntity
  8
0
100
AcDbBlockEnd
  0
BLOCK
  5
1C
330
1B
100
AcDbEntity
 67
     1
  8
0
100
AcDbBlockBegin
  2
*PAPER_SPACE
 70
     0
 10
0.0
 20
0.0
 30
0.0
  3
*PAPER_SPACE
  1

  0
ENDBLK
  5
1D
330
1B
100
AcDbEntity
 67
     1
  8
0
100
AcDbBlockEnd
  0
BLOCK
  5
24
330
23
100
AcDbEntity
  8
0
100
AcDbBlockBegin
  2
*PAPER_SPACE0
 70
     0
 10
0.0
 20
0.0
 30
0.0
  3
*PAPER_SPACE0
  1

  0
ENDBLK
  5
25
330
23
100
AcDbEntity
  8
0
100
AcDbBlockEnd
  0
ENDSEC
  0
SECTION
  2
ENTITIES
  0
LINE
  5
44
330
1F
100
AcDbEntity
  8
0
  6
CONTINUOUS
 62
     7
100
AcDbLine
 10
192.4533674878
 20
353.3154764725
 30
0.0
 11
191.9533664745
 21
353.3154764725
 31
0.0
  0
LINE
  5
45
330
1F
100
AcDbEntity
  8
0
  6
CONTINUOUS
 62
     7
100
AcDbLine
 10
191.9533664745
 20
343.8154758467
 30
0.0
 11
192.4533674878
 21
343.8154758467
 31
0.0
  0
LINE
  5
46
330
1F
100
AcDbEntity
  8
0
  6
CONTINUOUS
 62
     7
100
AcDbLine
 10
341.7033644778
 20
194.5654788567
 30
0.0
 11
341.7033644778
 21
194.0654778434
 31
0.0
  0
LINE
  5
47
330
1F
100
AcDbEntity
  8
0
  6
CONTINUOUS
 62
     7
100
AcDbLine
 10
351.2033651036
 20
194.0654778434
 30
0.0
 11
351.2033651036
 21
194.5654788567
 31
0.0
  0
LINE
  5
48
330
1F
100
AcDbEntity
  8
0
  6
CONTINUOUS
 62
     7
100
AcDbLine
 10
192.4533674878
 20
233.3154754294
 30
0.0
 11
191.9533664745
 21
233.3154754294
 31
0.0
  0
LINE
  5
49
330
1F
100
AcDbEntity
  8
0
  6
CONTINUOUS
 62
     7
100
AcDbLine
 10
191.9533664745
 20
223.8154748036
 30
0.0
 11
192.4533674878
 21
223.8154748036
 31
0.0
  0
LINE
  5
4A
330
1F
100
AcDbEntity
  8
0
  6
CONTINUOUS
 62
     7
100
AcDbLine
 10
380.4533610505
 20
223.8154748036
 30
0.0
 11
380.9533620638
 21
223.8154748036
 31
0.0
  0
LINE
  5
4B
330
1F
100
AcDbEntity
  8
0
  6
CONTINUOUS
 62
     7
100
AcDbLine
 10
380.9533620638
 20
233.3154754294
 30
0.0
 11
380.4533610505
 21
233.3154754294
 31
0.0
  0
LINE
  5
4C
330
1F
100
AcDbEntity
  8
0
  6
CONTINUOUS
 62
     7
100
AcDbLine
 10
351.2033651036
 20
382.5654724194
 30
0.0
 11
351.2033651036
 21
383.0654734327
 31
0.0
  0
LINE
  5
4D
330
1F
100
AcDbEntity
  8
0
  6
CONTINUOUS
 62
     7
100
AcDbLine
 10
341.7033644778
 20
383.0654734327
 30
0.0
 11
341.7033644778
 21
382.5654724194
 31
0.0
  0
LINE
  5
4E
330
1F
100
AcDbEntity
  8
0
  6
CONTINUOUS
 62
     7
100
AcDbLine
 10
231.2033640605
 20
382.5654724194
 30
0.0
 11
231.2033640605
 21
383.0654734327
 31
0.0
  0
LINE
  5
4F
330
1F
100
AcDbEntity
  8
0
  6
CONTINUOUS
 62
     7
100
AcDbLine
 10
221.7033634347
 20
383.0654734327
 30
0.0
 11
221.7033634347
 21
382.5654724194
 31
0.0
  0
LINE
  5
50
330
1F
100
AcDbEntity
  8
0
  6
CONTINUOUS
 62
     7
100
AcDbLine
 10
380.4533610505
 20
343.8154758467
 30
0.0
 11
380.9533620638
 21
343.8154758467
 31
0.0
  0
LINE
  5
51
330
1F
100
AcDbEntity
  8
0
  6
CONTINUOUS
 62
     7
100
AcDbLine
 10
380.9533620638
 20
353.3154764725
 30
0.0
 11
380.4533610505
 21
353.3154764725
 31
0.0
  0
LINE
  5
52
330
1F
100
AcDbEntity
  8
0
  6
CONTINUOUS
 62
     7
100
AcDbLine
 10
221.7033634347
 20
194.5654788567
 30
0.0
 11
221.7033634347
 21
194.0654778434
 31
0.0
  0
LINE
  5
53
330
1F
100
AcDbEntity
  8
0
  6
CONTINUOUS
 62
     7
100
AcDbLine
 10
231.2033640605
 20
194.0654778434
 30
0.0
 11
231.2033640605
 21
194.5654788567
 31
0.0
  0
ARC
  5
54
330
1F
100
AcDbEntity
  8
0
  6
CONTINUOUS
 62
     7
100
AcDbCircle
 10
204.4533642691
 20
206.5654756381
 30
0.0
 40
12.00000000078214
100
AcDbArc
 50
180.0
 51
270.0
  0
LINE
  5
55
330
1F
100
AcDbEntity
  8
0
  6
CONTINUOUS
 62
     7
100
AcDbLine
 10
192.4533674878
 20
370.565477903
 30
0.0
 11
192.4533674878
 21
206.5654733731
 31
0.0
  0
ARC
  5
56
330
1F
100
AcDbEntity
  8
0
  6
CONTINUOUS
 62
     7
100
AcDbCircle
 10
204.4533642691
 20
370.5654756381
 30
0.0
 40
11.99999999921789
100
AcDbArc
 50
90.0
 51
180.0
  0
LINE
  5
57
330
1F
100
AcDbEntity
  8
0
  6
CONTINUOUS
 62
     7
100
AcDbLine
 10
368.4533665341
 20
382.5654724194
 30
0.0
 11
204.4533620042
 21
382.5654724194
 31
0.0
  0
ARC
  5
58
330
1F
100
AcDbEntity
  8
0
  6
CONTINUOUS
 62
     7
100
AcDbCircle
 10
221.8533642691
 20
206.4654756373
 30
0.0
 40
5.399999999999977
100
AcDbArc
 50
180.0
 51
270.0
  0
LINE
  5
59
330
1F
100
AcDbEntity
  8
0
  6
CONTINUOUS
 62
     7
100
AcDbLine
 10
221.8533659738
 20
201.0654771282
 30
0.0
 11
351.0533625644
 21
201.0654771282
 31
0.0
  0
ARC
  5
5A
330
1F
100
AcDbEntity
  8
0
  6
CONTINUOUS
 62
     7
100
AcDbCircle
 10
351.0533642691
 20
206.4654756373
 30
0.0
 40
5.400000000000034
100
AcDbArc
 50
270.0
 51
0.0
  0
LINE
  5
5B
330
1F
100
AcDbEntity
  8
0
  6
CONTINUOUS
 62
     7
100
AcDbLine
 10
356.4533645672
 20
206.4654791309
 30
0.0
 11
356.4533645672
 21
206.5654733731
 31
0.0
  0
ARC
  5
5C
330
1F
100
AcDbEntity
  8
0
  6
CONTINUOUS
 62
     7
100
AcDbCircle
 10
368.4533642691
 20
206.5654756381
 30
0.0
 40
12.00000000000003
100
AcDbArc
 50
90.0
 51
180.0
  0
LINE
  5
5D
330
1F
100
AcDbEntity
  8
0
  6
CONTINUOUS
 62
     7
100
AcDbLine
 10
368.4533665341
 20
218.56547534
 30
0.0
 11
368.5533607763
 21
218.56547534
 31
0.0
  0
ARC
  5
5E
330
1F
100
AcDbEntity
  8
0
  6
CONTINUOUS
 62
     7
100
AcDbCircle
 10
368.5533642691
 20
223.9654756381
 30
0.0
 40
5.400000000000034
100
AcDbArc
 50
270.0
 51
0.0
  0
LINE
  5
5F
330
1F
100
AcDbEntity
  8
0
  6
CONTINUOUS
 62
     7
100
AcDbLine
 10
373.953362779
 20
223.9654773427
 30
0.0
 11
373.953362779
 21
353.1654739334
 31
0.0
  0
ARC
  5
60
330
1F
100
AcDbEntity
  8
0
  6
CONTINUOUS
 62
     7
100
AcDbCircle
 10
368.5533642691
 20
353.1654756381
 30
0.0
 40
5.400000000000034
100
AcDbArc
 50
0.0
 51
90.0
  0
LINE
  5
61
330
1F
100
AcDbEntity
  8
0
  6
CONTINUOUS
 62
     7
100
AcDbLine
 10
368.5533607763
 20
358.5654759361
 30
0.0
 11
368.4533665341
 21
358.5654759361
 31
0.0
  0
ARC
  5
62
330
1F
100
AcDbEntity
  8
0
  6
CONTINUOUS
 62
     7
100
AcDbCircle
 10
368.4533642691
 20
370.5654756381
 30
0.0
 40
12.0
100
AcDbArc
 50
180.0
 51
270.0
  0
LINE
  5
63
330
1F
100
AcDbEntity
  8
0
  6
CONTINUOUS
 62
     7
100
AcDbLine
 10
356.4533645672
 20
370.565477903
 30
0.0
 11
356.4533645672
 21
370.6654721452
 31
0.0
  0
ARC
  5
64
330
1F
100
AcDbEntity
  8
0
  6
CONTINUOUS
 62
     7
100
AcDbCircle
 10
351.0533642691
 20
370.6654756388
 30
0.0
 40
5.400000000000034
100
AcDbArc
 50
0.0
 51
90.0
  0
LINE
  5
65
330
1F
100
AcDbEntity
  8
0
  6
CONTINUOUS
 62
     7
100
AcDbLine
 10
351.0533625644
 20
376.0654741479
 30
0.0
 11
221.8533659738
 21
376.0654741479
 31
0.0
  0
LINE
  5
66
330
1F
100
AcDbEntity
  8
0
  6
CONTINUOUS
 62
     7
100
AcDbLine
 10
216.4533639711
 20
370.6654721452
 30
0.0
 11
216.4533639711
 21
370.565477903
 31
0.0
  0
ARC
  5
67
330
1F
100
AcDbEntity
  8
0
  6
CONTINUOUS
 62
     7
100
AcDbCircle
 10
204.4533642691
 20
370.5654756381
 30
0.0
 40
12.0
100
AcDbArc
 50
270.0
 51
0.0
  0
LINE
  5
68
330
1F
100
AcDbEntity
  8
0
  6
CONTINUOUS
 62
     7
100
AcDbLine
 10
204.4533620042
 20
358.5654759361
 30
0.0
 11
204.353367762
 21
358.5654759361
 31
0.0
  0
LINE
  5
69
330
1F
100
AcDbEntity
  8
0
  6
CONTINUOUS
 62
     7
100
AcDbLine
 10
198.9533657593
 20
353.1654739334
 30
0.0
 11
198.9533657593
 21
223.9654773427
 31
0.0
  0
ARC
  5
6A
330
1F
100
AcDbEntity
  8
0
  6
CONTINUOUS
 62
     7
100
AcDbCircle
 10
204.3533642691
 20
223.9654756381
 30
0.0
 40
5.400000000000006
100
AcDbArc
 50
180.0
 51
270.0
  0
LINE
  5
6B
330
1F
100
AcDbEntity
  8
0
  6
CONTINUOUS
 62
     7
100
AcDbLine
 10
204.353367762
 20
218.56547534
 30
0.0
 11
204.4533620042
 21
218.56547534
 31
0.0
  0
ARC
  5
6C
330
1F
100
AcDbEntity
  8
0
  6
CONTINUOUS
 62
     7
100
AcDbCircle
 10
204.4533642691
 20
206.5654756381
 30
0.0
 40
12.00000000000003
100
AcDbArc
 50
0.0
 51
90.0
  0
LINE
  5
6D
330
1F
100
AcDbEntity
  8
0
  6
CONTINUOUS
 62
     7
100
AcDbLine
 10
216.4533639711
 20
206.5654733731
 30
0.0
 11
216.4533639711
 21
206.4654791309
 31
0.0
  0
CIRCLE
  5
6E
330
1F
100
AcDbEntity
  8
0
  6
CONTINUOUS
 62
     7
100
AcDbCircle
 10
368.4533642691
 20
370.5654756381
 30
0.0
 40
8.0
  0
CIRCLE
  5
6F
330
1F
100
AcDbEntity
  8
0
  6
CONTINUOUS
 62
     7
100
AcDbCircle
 10
368.4533642691
 20
206.5654756381
 30
0.0
 40
8.0
  0
CIRCLE
  5
70
330
1F
100
AcDbEntity
  8
0
  6
CONTINUOUS
 62
     7
100
AcDbCircle
 10
204.4533642691
 20
206.5654756381
 30
0.0
 40
8.0
  0
CIRCLE
  5
71
330
1F
100
AcDbEntity
  8
0
  6
CONTINUOUS
 62
     7
100
AcDbCircle
 10
204.4533642691
 20
370.5654756381
 30
0.0
 40
8.0
  0
LINE
  5
72
330
1F
100
AcDbEntity
  8
0
  6
CONTINUOUS
 62
     7
100
AcDbLine
 10
204.4533620042
 20
194.5654788567
 30
0.0
 11
368.4533665341
 21
194.5654788567
 31
0.0
  0
ARC
  5
73
330
1F
100
AcDbEntity
  8
0
  6
CONTINUOUS
 62
     7
100
AcDbCircle
 10
368.4533642691
 20
206.5654756381
 30
0.0
 40
12.00000000078211
100
AcDbArc
 50
270.0
 51
0.0
  0
LINE
  5
74
330
1F
100
AcDbEntity
  8
0
  6
CONTINUOUS
 62
     7
100
AcDbLine
 10
380.4533610505
 20
206.5654733731
 30
0.0
 11
380.4533610505
 21
370.565477903
 31
0.0
  0
ARC
  5
75
330
1F
100
AcDbEntity
  8
0
  6
CONTINUOUS
 62
     7
100
AcDbCircle
 10
368.4533642691
 20
370.5654756381
 30
0.0
 40
11.99999999921783
100
AcDbArc
 50
0.0
 51
90.0
  0
ARC
  5
76
330
1F
100
AcDbEntity
  8
0
  6
CONTINUOUS
 62
     7
100
AcDbCircle
 10
204.3533642691
 20
353.1654756381
 30
0.0
 40
5.400000000000034
100
AcDbArc
 50
90.0
 51
180.0
  0
ARC
  5
77
330
1F
100
AcDbEntity
  8
0
  6
CONTINUOUS
 62
     7
100
AcDbCircle
 10
221.8533642691
 20
370.6654756388
 30
0.0
 40
5.400000000000034
100
AcDbArc
 50
90.0
 51
180.0
  0
CIRCLE
  5
78
330
1F
100
AcDbEntity
  8
0
  6
CONTINUOUS
 62
     7
100
AcDbCircle
 10
368.4533642691
 20
370.5654756381
 30
0.0
 40
5.400000000000034
  0
CIRCLE
  5
79
330
1F
100
AcDbEntity
  8
0
  6
CONTINUOUS
 62
     7
100
AcDbCircle
 10
368.4533642691
 20
206.5654756381
 30
0.0
 40
5.399999999999977
  0
CIRCLE
  5
7A
330
1F
100
AcDbEntity
  8
0
  6
CONTINUOUS
 62
     7
100
AcDbCircle
 10
204.4533642691
 20
370.5654756381
 30
0.0
 40
5.400000000000034
  0
CIRCLE
  5
7B
330
1F
100
AcDbEntity
  8
0
  6
CONTINUOUS
 62
     7
100
AcDbCircle
 10
204.4533642691
 20
206.5654756381
 30
0.0
 40
5.399999999999977
  0
LINE
  5
7C
330
1F
100
AcDbEntity
  8
0
  6
CONTINUOUS
 62
     7
100
AcDbLine
 10
204.353367762
 20
220.1015242888
 30
0.0
 11
204.353367762
 21
218.56547534
 31
0.0
  0
LINE
  5
7D
330
1F
100
AcDbEntity
  8
0
  6
CONTINUOUS
 62
     7
100
AcDbLine
 10
200.4894072574
 20
223.9654773427
 30
0.0
 11
198.9533657593
 21
223.9654773427
 31
0.0
  0
ARC
  5
7E
330
1F
100
AcDbEntity
  8
0
  6
CONTINUOUS
 62
     7
100
AcDbCircle
 10
204.3533642691
 20
223.9654756381
 30
0.0
 40
3.863954286316869
100
AcDbArc
 50
180.0
 51
270.0
  0
LINE
  5
7F
330
1F
100
AcDbEntity
  8
0
  6
CONTINUOUS
 62
     7
100
AcDbLine
 10
217.9894129199
 20
206.5654733731
 30
0.0
 11
216.4533639711
 21
206.5654733731
 31
0.0
  0
LINE
  5
80
330
1F
100
AcDbEntity
  8
0
  6
CONTINUOUS
 62
     7
100
AcDbLine
 10
204.4533620042
 20
220.1015242888
 30
0.0
 11
204.4533620042
 21
218.56547534
 31
0.0
  0
ARC
  5
81
330
1F
100
AcDbEntity
  8
0
  6
CONTINUOUS
 62
     7
100
AcDbCircle
 10
204.4533642691
 20
206.5654756381
 30
0.0
 40
13.53604571368317
100
AcDbArc
 50
0.0
 51
90.0
  0
LINE
  5
82
330
1F
100
AcDbEntity
  8
0
  6
CONTINUOUS
 62
     7
100
AcDbLine
 10
368.5533607763
 20
357.0294269873
 30
0.0
 11
368.5533607763
 21
358.5654759361
 31
0.0
  0
LINE
  5
83
330
1F
100
AcDbEntity
  8
0
  6
CONTINUOUS
 62
     7
100
AcDbLine
 10
372.4173212808
 20
353.1654739334
 30
0.0
 11
373.953362779
 21
353.1654739334
 31
0.0
  0
ARC
  5
84
330
1F
100
AcDbEntity
  8
0
  6
CONTINUOUS
 62
     7
100
AcDbCircle
 10
368.5533642691
 20
353.1654756381
 30
0.0
 40
3.863954286316869
100
AcDbArc
 50
0.0
 51
90.0
  0
LINE
  5
85
330
1F
100
AcDbEntity
  8
0
  6
CONTINUOUS
 62
     7
100
AcDbLine
 10
372.4173212808
 20
223.9654773427
 30
0.0
 11
373.953362779
 21
223.9654773427
 31
0.0
  0
LINE
  5
86
330
1F
100
AcDbEntity
  8
0
  6
CONTINUOUS
 62
     7
100
AcDbLine
 10
372.4173212808
 20
353.1654739334
 30
0.0
 11
372.4173212808
 21
223.9654773427
 31
0.0
  0
LINE
  5
87
330
1F
100
AcDbEntity
  8
0
  6
CONTINUOUS
 62
     7
100
AcDbLine
 10
368.4533665341
 20
357.0294269873
 30
0.0
 11
368.4533665341
 21
358.5654759361
 31
0.0
  0
LINE
  5
88
330
1F
100
AcDbEntity
  8
0
  6
CONTINUOUS
 62
     7
100
AcDbLine
 10
368.4533665341
 20
357.0294269873
 30
0.0
 11
368.5533607763
 21
357.0294269873
 31
0.0
  0
LINE
  5
89
330
1F
100
AcDbEntity
  8
0
  6
CONTINUOUS
 62
     7
100
AcDbLine
 10
368.5533607763
 20
220.1015242888
 30
0.0
 11
368.5533607763
 21
218.56547534
 31
0.0
  0
LINE
  5
8A
330
1F
100
AcDbEntity
  8
0
  6
CONTINUOUS
 62
     7
100
AcDbLine
 10
368.4533665341
 20
220.1015242888
 30
0.0
 11
368.4533665341
 21
218.56547534
 31
0.0
  0
LINE
  5
8B
330
1F
100
AcDbEntity
  8
0
  6
CONTINUOUS
 62
     7
100
AcDbLine
 10
368.5533607763
 20
220.1015242888
 30
0.0
 11
368.4533665341
 21
220.1015242888
 31
0.0
  0
LINE
  5
8C
330
1F
100
AcDbEntity
  8
0
  6
CONTINUOUS
 62
     7
100
AcDbLine
 10
200.4894072574
 20
353.1654739334
 30
0.0
 11
198.9533657593
 21
353.1654739334
 31
0.0
  0
LINE
  5
8D
330
1F
100
AcDbEntity
  8
0
  6
CONTINUOUS
 62
     7
100
AcDbLine
 10
204.353367762
 20
357.0294269873
 30
0.0
 11
204.353367762
 21
358.5654759361
 31
0.0
  0
ARC
  5
8E
330
1F
100
AcDbEntity
  8
0
  6
CONTINUOUS
 62
     7
100
AcDbCircle
 10
204.3533642691
 20
353.1654756381
 30
0.0
 40
3.863954286316869
100
AcDbArc
 50
90.0
 51
180.0
  0
ARC
  5
8F
330
1F
100
AcDbEntity
  8
0
  6
CONTINUOUS
 62
     7
100
AcDbCircle
 10
368.5533642691
 20
223.9654756381
 30
0.0
 40
3.863954286316869
100
AcDbArc
 50
270.0
 51
0.0
  0
LINE
  5
90
330
1F
100
AcDbEntity
  8
0
  6
CONTINUOUS
 62
     7
100
AcDbLine
 10
204.4533620042
 20
357.0294269873
 30
0.0
 11
204.4533620042
 21
358.5654759361
 31
0.0
  0
LINE
  5
91
330
1F
100
AcDbEntity
  8
0
  6
CONTINUOUS
 62
     7
100
AcDbLine
 10
217.9894129199
 20
370.565477903
 30
0.0
 11
216.4533639711
 21
370.565477903
 31
0.0
  0
ARC
  5
92
330
1F
100
AcDbEntity
  8
0
  6
CONTINUOUS
 62
     7
100
AcDbCircle
 10
204.4533642691
 20
370.5654756381
 30
0.0
 40
13.53604571368317
100
AcDbArc
 50
270.0
 51
0.0
  0
LINE
  5
93
330
1F
100
AcDbEntity
  8
0
  6
CONTINUOUS
 62
     7
100
AcDbLine
 10
217.9894129199
 20
370.6654721452
 30
0.0
 11
216.4533639711
 21
370.6654721452
 31
0.0
  0
LINE
  5
94
330
1F
100
AcDbEntity
  8
0
  6
CONTINUOUS
 62
     7
100
AcDbLine
 10
217.9894129199
 20
370.565477903
 30
0.0
 11
217.9894129199
 21
370.6654721452
 31
0.0
  0
LINE
  5
95
330
1F
100
AcDbEntity
  8
0
  6
CONTINUOUS
 62
     7
100
AcDbLine
 10
221.8533659738
 20
374.5294326498
 30
0.0
 11
221.8533659738
 21
376.0654741479
 31
0.0
  0
ARC
  5
96
330
1F
100
AcDbEntity
  8
0
  6
CONTINUOUS
 62
     7
100
AcDbCircle
 10
221.8533642691
 20
370.6654756388
 30
0.0
 40
3.863954286316869
100
AcDbArc
 50
90.0
 51
180.0
  0
LINE
  5
97
330
1F
100
AcDbEntity
  8
0
  6
CONTINUOUS
 62
     7
100
AcDbLine
 10
351.0533625644
 20
374.5294326498
 30
0.0
 11
351.0533625644
 21
376.0654741479
 31
0.0
  0
LINE
  5
98
330
1F
100
AcDbEntity
  8
0
  6
CONTINUOUS
 62
     7
100
AcDbLine
 10
221.8533659738
 20
374.5294326498
 30
0.0
 11
351.0533625644
 21
374.5294326498
 31
0.0
  0
LINE
  5
99
330
1F
100
AcDbEntity
  8
0
  6
CONTINUOUS
 62
     7
100
AcDbLine
 10
354.9173156184
 20
370.6654721452
 30
0.0
 11
356.4533645672
 21
370.6654721452
 31
0.0
  0
ARC
  5
9A
330
1F
100
AcDbEntity
  8
0
  6
CONTINUOUS
 62
     7
100
AcDbCircle
 10
351.0533642691
 20
370.6654756388
 30
0.0
 40
3.863954286316869
100
AcDbArc
 50
0.0
 51
90.0
  0
LINE
  5
9B
330
1F
100
AcDbEntity
  8
0
  6
CONTINUOUS
 62
     7
100
AcDbLine
 10
354.9173156184
 20
206.5654733731
 30
0.0
 11
356.4533645672
 21
206.5654733731
 31
0.0
  0
ARC
  5
9C
330
1F
100
AcDbEntity
  8
0
  6
CONTINUOUS
 62
     7
100
AcDbCircle
 10
368.4533642691
 20
206.5654756381
 30
0.0
 40
13.53604571368319
100
AcDbArc
 50
90.0
 51
180.0
  0
LINE
  5
9D
330
1F
100
AcDbEntity
  8
0
  6
CONTINUOUS
 62
     7
100
AcDbLine
 10
354.9173156184
 20
370.565477903
 30
0.0
 11
356.4533645672
 21
370.565477903
 31
0.0
  0
ARC
  5
9E
330
1F
100
AcDbEntity
  8
0
  6
CONTINUOUS
 62
     7
100
AcDbCircle
 10
368.4533642691
 20
370.5654756381
 30
0.0
 40
13.53604571368317
100
AcDbArc
 50
180.0
 51
270.0
  0
LINE
  5
9F
330
1F
100
AcDbEntity
  8
0
  6
CONTINUOUS
 62
     7
100
AcDbLine
 10
221.8533659738
 20
202.6015186264
 30
0.0
 11
221.8533659738
 21
201.0654771282
 31
0.0
  0
LINE
  5
A0
330
1F
100
AcDbEntity
  8
0
  6
CONTINUOUS
 62
     7
100
AcDbLine
 10
217.9894129199
 20
206.4654791309
 30
0.0
 11
216.4533639711
 21
206.4654791309
 31
0.0
  0
ARC
  5
A1
330
1F
100
AcDbEntity
  8
0
  6
CONTINUOUS
 62
     7
100
AcDbCircle
 10
221.8533642691
 20
206.4654756373
 30
0.0
 40
3.86395428631684
100
AcDbArc
 50
180.0
 51
270.0
  0
LINE
  5
A2
330
1F
100
AcDbEntity
  8
0
  6
CONTINUOUS
 62
     7
100
AcDbLine
 10
217.9894129199
 20
206.4654791309
 30
0.0
 11
217.9894129199
 21
206.5654733731
 31
0.0
  0
LINE
  5
A3
330
1F
100
AcDbEntity
  8
0
  6
CONTINUOUS
 62
     7
100
AcDbLine
 10
351.0533625644
 20
202.6015186264
 30
0.0
 11
351.0533625644
 21
201.0654771282
 31
0.0
  0
LINE
  5
A4
330
1F
100
AcDbEntity
  8
0
  6
CONTINUOUS
 62
     7
100
AcDbLine
 10
351.0533625644
 20
202.6015186264
 30
0.0
 11
221.8533659738
 21
202.6015186264
 31
0.0
  0
LINE
  5
A5
330
1F
100
AcDbEntity
  8
0
  6
CONTINUOUS
 62
     7
100
AcDbLine
 10
204.4533620042
 20
220.1015242888
 30
0.0
 11
204.353367762
 21
220.1015242888
 31
0.0
  0
LINE
  5
A6
330
1F
100
AcDbEntity
  8
0
  6
CONTINUOUS
 62
     7
100
AcDbLine
 10
204.353367762
 20
357.0294269873
 30
0.0
 11
204.4533620042
 21
357.0294269873
 31
0.0
  0
LINE
  5
A7
330
1F
100
AcDbEntity
  8
0
  6
CONTINUOUS
 62
     7
100
AcDbLine
 10
200.4894072574
 20
223.9654773427
 30
0.0
 11
200.4894072574
 21
353.1654739334
 31
0.0
  0
LINE
  5
A8
330
1F
100
AcDbEntity
  8
0
  6
CONTINUOUS
 62
     7
100
AcDbLine
 10
354.9173156184
 20
370.6654721452
 30
0.0
 11
354.9173156184
 21
370.565477903
 31
0.0
  0
LINE
  5
A9
330
1F
100
AcDbEntity
  8
0
  6
CONTINUOUS
 62
     7
100
AcDbLine
 10
354.9173156184
 20
206.4654791309
 30
0.0
 11
356.4533645672
 21
206.4654791309
 31
0.0
  0
ARC
  5
AA
330
1F
100
AcDbEntity
  8
0
  6
CONTINUOUS
 62
     7
100
AcDbCircle
 10
351.0533642691
 20
206.4654756373
 30
0.0
 40
3.863954286316869
100
AcDbArc
 50
270.0
 51
0.0
  0
LINE
  5
AB
330
1F
100
AcDbEntity
  8
0
  6
CONTINUOUS
 62
     7
100
AcDbLine
 10
354.9173156184
 20
206.5654733731
 30
0.0
 11
354.9173156184
 21
206.4654791309
 31
0.0
  0
LINE
  5
AC
330
1F
100
AcDbEntity
  8
0
  6
CONTINUOUS
 62
     7
100
AcDbLine
 10
191.9533664745
 20
343.8154758467
 30
0.0
 11
191.9533664745
 21
353.3154764725
 31
0.0
  0
LINE
  5
AD
330
1F
100
AcDbEntity
  8
0
  6
CONTINUOUS
 62
     7
100
AcDbLine
 10
351.2033651036
 20
194.0654778434
 30
0.0
 11
341.7033644778
 21
194.0654778434
 31
0.0
  0
LINE
  5
AE
330
1F
100
AcDbEntity
  8
0
  6
CONTINUOUS
 62
     7
100
AcDbLine
 10
191.9533664745
 20
223.8154748036
 30
0.0
 11
191.9533664745
 21
233.3154754294
 31
0.0
  0
LINE
  5
AF
330
1F
100
AcDbEntity
  8
0
  6
CONTINUOUS
 62
     7
100
AcDbLine
 10
380.9533620638
 20
233.3154754294
 30
0.0
 11
380.9533620638
 21
223.8154748036
 31
0.0
  0
LINE
  5
B0
330
1F
100
AcDbEntity
  8
0
  6
CONTINUOUS
 62
     7
100
AcDbLine
 10
341.7033644778
 20
383.0654734327
 30
0.0
 11
351.2033651036
 21
383.0654734327
 31
0.0
  0
LINE
  5
B1
330
1F
100
AcDbEntity
  8
0
  6
CONTINUOUS
 62
     7
100
AcDbLine
 10
221.7033634347
 20
383.0654734327
 30
0.0
 11
231.2033640605
 21
383.0654734327
 31
0.0
  0
LINE
  5
B2
330
1F
100
AcDbEntity
  8
0
  6
CONTINUOUS
 62
     7
100
AcDbLine
 10
380.9533620638
 20
353.3154764725
 30
0.0
 11
380.9533620638
 21
343.8154758467
 31
0.0
  0
LINE
  5
B3
330
1F
100
AcDbEntity
  8
0
  6
CONTINUOUS
 62
     7
100
AcDbLine
 10
231.2033640605
 20
194.0654778434
 30
0.0
 11
221.7033634347
 21
194.0654778434
 31
0.0
  0
LINE
  5
B4
330
1F
100
AcDbEntity
  8
0
  6
CONTINUOUS
 62
     7
100
AcDbLine
 10
269.0099345905
 20
214.315477903
 30
0.0
 11
253.8967932028
 21
214.315477903
 31
0.0
  0
ARC
  5
B5
330
1F
100
AcDbEntity
  8
0
  6
CONTINUOUS
 62
     7
100
AcDbCircle
 10
273.9533642691
 20
213.5654756381
 30
0.0
 40
5.000000000000034
100
AcDbArc
 50
8.6269265587
 51
171.3730734413
  0
LINE
  5
B6
330
1F
100
AcDbEntity
  8
0
  6
CONTINUOUS
 62
     7
100
AcDbLine
 10
281.5099343111
 20
214.315477903
 30
0.0
 11
278.896794041
 21
214.315477903
 31
0.0
  0
ARC
  5
B7
330
1F
100
AcDbEntity
  8
0
  6
CONTINUOUS
 62
     7
100
AcDbCircle
 10
286.4533642691
 20
213.5654756381
 30
0.0
 40
5.000000000000034
100
AcDbArc
 50
8.6269265587
 51
171.3730734413
  0
LINE
  5
B8
330
1F
100
AcDbEntity
  8
0
  6
CONTINUOUS
 62
     7
100
AcDbLine
 10
294.0099344973
 20
214.315477903
 30
0.0
 11
291.3967942272
 21
214.315477903
 31
0.0
  0
ARC
  5
B9
330
1F
100
AcDbEntity
  8
0
  6
CONTINUOUS
 62
     7
100
AcDbCircle
 10
298.9533642691
 20
213.5654756381
 30
0.0
 40
5.000000000000034
100
AcDbArc
 50
8.6269265587
 51
171.3730734413
  0
LINE
  5
BA
330
1F
100
AcDbEntity
  8
0
  6
CONTINUOUS
 62
     7
100
AcDbLine
 10
319.0099353355
 20
214.315477903
 30
0.0
 11
303.8967939478
 21
214.315477903
 31
0.0
  0
ARC
  5
BB
330
1F
100
AcDbEntity
  8
0
  6
CONTINUOUS
 62
     7
100
AcDbCircle
 10
323.9533642691
 20
213.5654756381
 30
0.0
 40
4.999999999999978
100
AcDbArc
 50
188.6269265587
 51
171.3730734413
  0
LINE
  5
BC
330
1F
100
AcDbEntity
  8
0
  6
CONTINUOUS
 62
     7
100
AcDbLine
 10
319.0099353355
 20
212.8154748632
 30
0.0
 11
303.8967939478
 21
212.8154748632
 31
0.0
  0
ARC
  5
BD
330
1F
100
AcDbEntity
  8
0
  6
CONTINUOUS
 62
     7
100
AcDbCircle
 10
298.9533642691
 20
213.5654756381
 30
0.0
 40
5.000000000000021
100
AcDbArc
 50
188.6269265587
 51
351.3730734413
  0
LINE
  5
BE
330
1F
100
AcDbEntity
  8
0
  6
CONTINUOUS
 62
     7
100
AcDbLine
 10
294.0099344973
 20
212.8154748632
 30
0.0
 11
291.3967942272
 21
212.8154748632
 31
0.0
  0
LINE
  5
BF
330
1F
100
AcDbEntity
  8
0
  6
CONTINUOUS
 62
     7
100
AcDbLine
 10
281.5099343111
 20
212.8154748632
 30
0.0
 11
278.896794041
 21
212.8154748632
 31
0.0
  0
ARC
  5
C0
330
1F
100
AcDbEntity
  8
0
  6
CONTINUOUS
 62
     7
100
AcDbCircle
 10
273.9533642691
 20
213.5654756381
 30
0.0
 40
5.000000000000021
100
AcDbArc
 50
188.6269265587
 51
351.3730734413
  0
LINE
  5
C1
330
1F
100
AcDbEntity
  8
0
  6
CONTINUOUS
 62
     7
100
AcDbLine
 10
269.0099345905
 20
212.8154748632
 30
0.0
 11
253.8967932028
 21
212.8154748632
 31
0.0
  0
ARC
  5
C2
330
1F
100
AcDbEntity
  8
0
  6
CONTINUOUS
 62
     7
100
AcDbCircle
 10
248.9533642691
 20
213.5654756381
 30
0.0
 40
5.000000000000034
100
AcDbArc
 50
8.6269265587
 51
351.3730734413
  0
CIRCLE
  5
C3
330
1F
100
AcDbEntity
  8
0
  6
CONTINUOUS
 62
     7
100
AcDbCircle
 10
298.9533642691
 20
213.5654756381
 30
0.0
 40
2.399999999999977
  0
CIRCLE
  5
C4
330
1F
100
AcDbEntity
  8
0
  6
CONTINUOUS
 62
     7
100
AcDbCircle
 10
323.9533642691
 20
213.5654756381
 30
0.0
 40
2.400000000000006
  0
CIRCLE
  5
C5
330
1F
100
AcDbEntity
  8
0
  6
CONTINUOUS
 62
     7
100
AcDbCircle
 10
273.9533642691
 20
213.5654756381
 30
0.0
 40
2.399999999999977
  0
CIRCLE
  5
C6
330
1F
100
AcDbEntity
  8
0
  6
CONTINUOUS
 62
     7
100
AcDbCircle
 10
248.9533642691
 20
213.5654756381
 30
0.0
 40
2.400000000000006
  0
CIRCLE
  5
C7
330
1F
100
AcDbEntity
  8
0
  6
CONTINUOUS
 62
     7
100
AcDbCircle
 10
286.4533642691
 20
213.5654756381
 30
0.0
 40
2.399999999999977
  0
ARC
  5
C8
330
1F
100
AcDbEntity
  8
0
  6
CONTINUOUS
 62
     7
100
AcDbCircle
 10
286.4533642691
 20
213.5654756381
 30
0.0
 40
5.000000000000021
100
AcDbArc
 50
188.6269265587
 51
351.3730734413
  0
CIRCLE
  5
C9
330
1F
100
AcDbEntity
  8
0
  6
CONTINUOUS
 62
     7
100
AcDbCircle
 10
226.4533642691
 20
348.5654756381
 30
0.0
 40
6.0
  0
CIRCLE
  5
CA
330
1F
100
AcDbEntity
  8
0
  6
CONTINUOUS
 62
     7
100
AcDbCircle
 10
226.4533642691
 20
348.5654756381
 30
0.0
 40
3.0
  0
LINE
  5
CB
330
1F
100
AcDbEntity
  8
0
  6
CONTINUOUS
 62
     7
100
AcDbLine
 10
269.0099345905
 20
364.3154764129
 30
0.0
 11
253.8967932028
 21
364.3154764129
 31
0.0
  0
ARC
  5
CC
330
1F
100
AcDbEntity
  8
0
  6
CONTINUOUS
 62
     7
100
AcDbCircle
 10
273.9533642691
 20
363.5654756381
 30
0.0
 40
5.000000000000017
100
AcDbArc
 50
8.6269265587
 51
171.3730734413
  0
LINE
  5
CD
330
1F
100
AcDbEntity
  8
0
  6
CONTINUOUS
 62
     7
100
AcDbLine
 10
281.5099343111
 20
364.3154764129
 30
0.0
 11
278.896794041
 21
364.3154764129
 31
0.0
  0
ARC
  5
CE
330
1F
100
AcDbEntity
  8
0
  6
CONTINUOUS
 62
     7
100
AcDbCircle
 10
286.4533642691
 20
363.5654756381
 30
0.0
 40
5.000000000000017
100
AcDbArc
 50
8.6269265587
 51
171.3730734413
  0
LINE
  5
CF
330
1F
100
AcDbEntity
  8
0
  6
CONTINUOUS
 62
     7
100
AcDbLine
 10
294.0099344973
 20
364.3154764129
 30
0.0
 11
291.3967942272
 21
364.3154764129
 31
0.0
  0
ARC
  5
D0
330
1F
100
AcDbEntity
  8
0
  6
CONTINUOUS
 62
     7
100
AcDbCircle
 10
298.9533642691
 20
363.5654756381
 30
0.0
 40
5.000000000000017
100
AcDbArc
 50
8.6269265587
 51
171.3730734413
  0
LINE
  5
D1
330
1F
100
AcDbEntity
  8
0
  6
CONTINUOUS
 62
     7
100
AcDbLine
 10
319.0099353355
 20
364.3154764129
 30
0.0
 11
303.8967939478
 21
364.3154764129
 31
0.0
  0
ARC
  5
D2
330
1F
100
AcDbEntity
  8
0
  6
CONTINUOUS
 62
     7
100
AcDbCircle
 10
323.9533642691
 20
363.5654756381
 30
0.0
 40
4.999999999999978
100
AcDbArc
 50
188.6269265587
 51
171.3730734413
  0
LINE
  5
D3
330
1F
100
AcDbEntity
  8
0
  6
CONTINUOUS
 62
     7
100
AcDbLine
 10
319.0099353355
 20
362.8154733731
 30
0.0
 11
303.8967939478
 21
362.8154733731
 31
0.0
  0
ARC
  5
D4
330
1F
100
AcDbEntity
  8
0
  6
CONTINUOUS
 62
     7
100
AcDbCircle
 10
298.9533642691
 20
363.5654756381
 30
0.0
 40
5.000000000000034
100
AcDbArc
 50
188.6269265587
 51
351.3730734413
  0
LINE
  5
D5
330
1F
100
AcDbEntity
  8
0
  6
CONTINUOUS
 62
     7
100
AcDbLine
 10
294.0099344973
 20
362.8154733731
 30
0.0
 11
291.3967942272
 21
362.8154733731
 31
0.0
  0
ARC
  5
D6
330
1F
100
AcDbEntity
  8
0
  6
CONTINUOUS
 62
     7
100
AcDbCircle
 10
286.4533642691
 20
363.5654756381
 30
0.0
 40
5.000000000000034
100
AcDbArc
 50
188.6269265587
 51
351.3730734413
  0
LINE
  5
D7
330
1F
100
AcDbEntity
  8
0
  6
CONTINUOUS
 62
     7
100
AcDbLine
 10
281.5099343111
 20
362.8154733731
 30
0.0
 11
278.896794041
 21
362.8154733731
 31
0.0
  0
LINE
  5
D8
330
1F
100
AcDbEntity
  8
0
  6
CONTINUOUS
 62
     7
100
AcDbLine
 10
269.0099345905
 20
362.8154733731
 30
0.0
 11
253.8967932028
 21
362.8154733731
 31
0.0
  0
CIRCLE
  5
D9
330
1F
100
AcDbEntity
  8
0
  6
CONTINUOUS
 62
     7
100
AcDbCircle
 10
248.9533642691
 20
363.5654756381
 30
0.0
 40
2.400000000000034
  0
CIRCLE
  5
DA
330
1F
100
AcDbEntity
  8
0
  6
CONTINUOUS
 62
     7
100
AcDbCircle
 10
323.9533642691
 20
363.5654756381
 30
0.0
 40
2.400000000000034
  0
CIRCLE
  5
DB
330
1F
100
AcDbEntity
  8
0
  6
CONTINUOUS
 62
     7
100
AcDbCircle
 10
298.9533642691
 20
363.5654756381
 30
0.0
 40
2.400000000000034
  0
CIRCLE
  5
DC
330
1F
100
AcDbEntity
  8
0
  6
CONTINUOUS
 62
     7
100
AcDbCircle
 10
273.9533642691
 20
363.5654756381
 30
0.0
 40
2.400000000000034
  0
CIRCLE
  5
DD
330
1F
100
AcDbEntity
  8
0
  6
CONTINUOUS
 62
     7
100
AcDbCircle
 10
286.4533642691
 20
363.5654756381
 30
0.0
 40
2.400000000000034
  0
ARC
  5
DE
330
1F
100
AcDbEntity
  8
0
  6
CONTINUOUS
 62
     7
100
AcDbCircle
 10
248.9533642691
 20
363.5654756381
 30
0.0
 40
5.000000000000034
100
AcDbArc
 50
8.6269265587
 51
351.3730734413
  0
ARC
  5
DF
330
1F
100
AcDbEntity
  8
0
  6
CONTINUOUS
 62
     7
100
AcDbCircle
 10
273.9533642691
 20
363.5654756381
 30
0.0
 40
5.000000000000034
100
AcDbArc
 50
188.6269265587
 51
351.3730734413
  0
LINE
  5
E0
330
1F
100
AcDbEntity
  8
0
  6
CONTINUOUS
 62
     7
100
AcDbLine
 10
362.203365044
 20
321.1220467044
 30
0.0
 11
362.203365044
 21
306.0089053167
 31
0.0
  0
ARC
  5
E1
330
1F
100
AcDbEntity
  8
0
  6
CONTINUOUS
 62
     7
100
AcDbCircle
 10
361.4533642691
 20
301.0654756381
 30
0.0
 40
5.000000000000017
100
AcDbArc
 50
278.6269265587
 51
81.3730734413
  0
ARC
  5
E2
330
1F
100
AcDbEntity
  8
0
  6
CONTINUOUS
 62
     7
100
AcDbCircle
 10
361.4533642691
 20
288.5654756381
 30
0.0
 40
5.000000000000017
100
AcDbArc
 50
278.6269265587
 51
81.3730734413
  0
LINE
  5
E3
330
1F
100
AcDbEntity
  8
0
  6
CONTINUOUS
 62
     7
100
AcDbLine
 10
362.203365044
 20
283.62204568
 30
0.0
 11
362.203365044
 21
281.0089054099
 31
0.0
  0
ARC
  5
E4
330
1F
100
AcDbEntity
  8
0
  6
CONTINUOUS
 62
     7
100
AcDbCircle
 10
361.4533642691
 20
288.5654756381
 30
0.0
 40
4.999999999999978
100
AcDbArc
 50
98.6269265587
 51
261.3730734413
  0
LINE
  5
E5
330
1F
100
AcDbEntity
  8
0
  6
CONTINUOUS
 62
     7
100
AcDbLine
 10
360.7033620042
 20
296.1220458662
 30
0.0
 11
360.7033620042
 21
293.5089055961
 31
0.0
  0
ARC
  5
E6
330
1F
100
AcDbEntity
  8
0
  6
CONTINUOUS
 62
     7
100
AcDbCircle
 10
361.4533642691
 20
301.0654756381
 30
0.0
 40
5.000000000000034
100
AcDbArc
 50
98.6269265587
 51
261.3730734413
  0
CIRCLE
  5
E7
330
1F
100
AcDbEntity
  8
0
  6
CONTINUOUS
 62
     7
100
AcDbCircle
 10
361.4533642691
 20
288.5654756381
 30
0.0
 40
2.399999999999977
  0
CIRCLE
  5
E8
330
1F
100
AcDbEntity
  8
0
  6
CONTINUOUS
 62
     7
100
AcDbCircle
 10
361.4533642691
 20
301.0654756381
 30
0.0
 40
2.400000000000034
  0
CIRCLE
  5
E9
330
1F
100
AcDbEntity
  8
0
  6
CONTINUOUS
 62
     7
100
AcDbCircle
 10
361.4533642691
 20
326.0654756381
 30
0.0
 40
2.400000000000034
  0
CIRCLE
  5
EA
330
1F
100
AcDbEntity
  8
0
  6
CONTINUOUS
 62
     7
100
AcDbCircle
 10
361.4533642691
 20
276.0654756381
 30
0.0
 40
2.39999999999992
  0
CIRCLE
  5
EB
330
1F
100
AcDbEntity
  8
0
  6
CONTINUOUS
 62
     7
100
AcDbCircle
 10
361.4533642691
 20
251.0654756381
 30
0.0
 40
2.400000000000034
  0
ARC
  5
EC
330
1F
100
AcDbEntity
  8
0
  6
CONTINUOUS
 62
     7
100
AcDbCircle
 10
361.4533642691
 20
326.0654756381
 30
0.0
 40
5.000000000000017
100
AcDbArc
 50
278.6269265587
 51
261.3730734413
  0
LINE
  5
ED
330
1F
100
AcDbEntity
  8
0
  6
CONTINUOUS
 62
     7
100
AcDbLine
 10
360.7033620042
 20
271.1220459594
 30
0.0
 11
360.7033620042
 21
256.0089045717
 31
0.0
  0
ARC
  5
EE
330
1F
100
AcDbEntity
  8
0
  6
CONTINUOUS
 62
     7
100
AcDbCircle
 10
361.4533642691
 20
251.0654756381
 30
0.0
 40
5.000000000000017
100
AcDbArc
 50
98.6269265587
 51
81.3730734413
  0
ARC
  5
EF
330
1F
100
AcDbEntity
  8
0
  6
CONTINUOUS
 62
     7
100
AcDbCircle
 10
361.4533642691
 20
276.0654756381
 30
0.0
 40
5.000000000000017
100
AcDbArc
 50
278.6269265587
 51
81.3730734413
  0
ARC
  5
F0
330
1F
100
AcDbEntity
  8
0
  6
CONTINUOUS
 62
     7
100
AcDbCircle
 10
361.4533642691
 20
276.0654756381
 30
0.0
 40
5.000000000000034
100
AcDbArc
 50
98.6269265587
 51
261.3730734413
  0
LINE
  5
F1
330
1F
100
AcDbEntity
  8
0
  6
CONTINUOUS
 62
     7
100
AcDbLine
 10
362.203365044
 20
271.1220459594
 30
0.0
 11
362.203365044
 21
256.0089045717
 31
0.0
  0
LINE
  5
F2
330
1F
100
AcDbEntity
  8
0
  6
CONTINUOUS
 62
     7
100
AcDbLine
 10
362.203365044
 20
296.1220458662
 30
0.0
 11
362.203365044
 21
293.5089055961
 31
0.0
  0
LINE
  5
F3
330
1F
100
AcDbEntity
  8
0
  6
CONTINUOUS
 62
     7
100
AcDbLine
 10
360.7033620042
 20
321.1220467044
 30
0.0
 11
360.7033620042
 21
306.0089053167
 31
0.0
  0
LINE
  5
F4
330
1F
100
AcDbEntity
  8
0
  6
CONTINUOUS
 62
     7
100
AcDbLine
 10
360.7033620042
 20
283.62204568
 30
0.0
 11
360.7033620042
 21
281.0089054099
 31
0.0
  0
CIRCLE
  5
F5
330
1F
100
AcDbEntity
  8
0
  6
CONTINUOUS
 62
     7
100
AcDbCircle
 10
226.4533642691
 20
228.5654756381
 30
0.0
 40
3.0
  0
CIRCLE
  5
F6
330
1F
100
AcDbEntity
  8
0
  6
CONTINUOUS
 62
     7
100
AcDbCircle
 10
226.4533642691
 20
228.5654756381
 30
0.0
 40
5.999999999999972
  0
CIRCLE
  5
F7
330
1F
100
AcDbEntity
  8
0
  6
CONTINUOUS
 62
     7
100
AcDbCircle
 10
346.4533642691
 20
228.5654756381
 30
0.0
 40
3.0
  0
CIRCLE
  5
F8
330
1F
100
AcDbEntity
  8
0
  6
CONTINUOUS
 62
     7
100
AcDbCircle
 10
346.4533642691
 20
228.5654756381
 30
0.0
 40
5.999999999999943
  0
CIRCLE
  5
F9
330
1F
100
AcDbEntity
  8
0
  6
CONTINUOUS
 62
     7
100
AcDbCircle
 10
346.4533642691
 20
348.5654756381
 30
0.0
 40
3.0
  0
CIRCLE
  5
FA
330
1F
100
AcDbEntity
  8
0
  6
CONTINUOUS
 62
     7
100
AcDbCircle
 10
346.4533642691
 20
348.5654756381
 30
0.0
 40
6.000000000000057
  0
ARC
  5
FB
330
1F
100
AcDbEntity
  8
0
  6
CONTINUOUS
 62
     7
100
AcDbCircle
 10
211.4533642691
 20
276.0654756381
 30
0.0
 40
5.00000000000003
100
AcDbArc
 50
98.6269265587
 51
261.3730734413
  0
LINE
  5
FC
330
1F
100
AcDbEntity
  8
0
  6
CONTINUOUS
 62
     7
100
AcDbLine
 10
210.7033634943
 20
283.62204568
 30
0.0
 11
210.7033634943
 21
281.0089054099
 31
0.0
  0
ARC
  5
FD
330
1F
100
AcDbEntity
  8
0
  6
CONTINUOUS
 62
     7
100
AcDbCircle
 10
211.4533642691
 20
288.5654756381
 30
0.0
 40
5.000000000000026
100
AcDbArc
 50
98.6269265587
 51
261.3730734413
  0
LINE
  5
FE
330
1F
100
AcDbEntity
  8
0
  6
CONTINUOUS
 62
     7
100
AcDbLine
 10
210.7033634943
 20
296.1220458662
 30
0.0
 11
210.7033634943
 21
293.5089055961
 31
0.0
  0
ARC
  5
FF
330
1F
100
AcDbEntity
  8
0
  6
CONTINUOUS
 62
     7
100
AcDbCircle
 10
211.4533642691
 20
301.0654756381
 30
0.0
 40
5.000000000000026
100
AcDbArc
 50
98.6269265587
 51
261.3730734413
  0
LINE
  5
100
330
1F
100
AcDbEntity
  8
0
  6
CONTINUOUS
 62
     7
100
AcDbLine
 10
210.7033634943
 20
321.1220467044
 30
0.0
 11
210.7033634943
 21
306.0089053167
 31
0.0
  0
ARC
  5
101
330
1F
100
AcDbEntity
  8
0
  6
CONTINUOUS
 62
     7
100
AcDbCircle
 10
211.4533642691
 20
326.0654756381
 30
0.0
 40
5.000000000000021
100
AcDbArc
 50
278.6269265587
 51
261.3730734413
  0
ARC
  5
102
330
1F
100
AcDbEntity
  8
0
  6
CONTINUOUS
 62
     7
100
AcDbCircle
 10
211.4533642691
 20
301.0654756381
 30
0.0
 40
5.00000000000003
100
AcDbArc
 50
278.6269265587
 51
81.3730734413
  0
LINE
  5
103
330
1F
100
AcDbEntity
  8
0
  6
CONTINUOUS
 62
     7
100
AcDbLine
 10
212.2033665341
 20
296.1220458662
 30
0.0
 11
212.2033665341
 21
293.5089055961
 31
0.0
  0
ARC
  5
104
330
1F
100
AcDbEntity
  8
0
  6
CONTINUOUS
 62
     7
100
AcDbCircle
 10
211.4533642691
 20
288.5654756381
 30
0.0
 40
4.999999999999973
100
AcDbArc
 50
278.6269265587
 51
81.3730734413
  0
LINE
  5
105
330
1F
100
AcDbEntity
  8
0
  6
CONTINUOUS
 62
     7
100
AcDbLine
 10
212.2033665341
 20
283.62204568
 30
0.0
 11
212.2033665341
 21
281.0089054099
 31
0.0
  0
LINE
  5
106
330
1F
100
AcDbEntity
  8
0
  6
CONTINUOUS
 62
     7
100
AcDbLine
 10
212.2033665341
 20
271.1220459594
 30
0.0
 11
212.2033665341
 21
256.0089045717
 31
0.0
  0
CIRCLE
  5
107
330
1F
100
AcDbEntity
  8
0
  6
CONTINUOUS
 62
     7
100
AcDbCircle
 10
211.4533642691
 20
251.0654756381
 30
0.0
 40
2.400000000000034
  0
CIRCLE
  5
108
330
1F
100
AcDbEntity
  8
0
  6
CONTINUOUS
 62
     7
100
AcDbCircle
 10
211.4533642691
 20
276.0654756381
 30
0.0
 40
2.39999999999992
  0
CIRCLE
  5
109
330
1F
100
AcDbEntity
  8
0
  6
CONTINUOUS
 62
     7
100
AcDbCircle
 10
211.4533642691
 20
301.0654756381
 30
0.0
 40
2.400000000000034
  0
CIRCLE
  5
10A
330
1F
100
AcDbEntity
  8
0
  6
CONTINUOUS
 62
     7
100
AcDbCircle
 10
211.4533642691
 20
326.0654756381
 30
0.0
 40
2.400000000000034
  0
LINE
  5
10B
330
1F
100
AcDbEntity
  8
0
  6
CONTINUOUS
 62
     7
100
AcDbLine
 10
212.2033665341
 20
321.1220467044
 30
0.0
 11
212.2033665341
 21
306.0089053167
 31
0.0
  0
CIRCLE
  5
10C
330
1F
100
AcDbEntity
  8
0
  6
CONTINUOUS
 62
     7
100
AcDbCircle
 10
211.4533642691
 20
288.5654756381
 30
0.0
 40
2.399999999999977
  0
ARC
  5
10D
330
1F
100
AcDbEntity
  8
0
  6
CONTINUOUS
 62
     7
100
AcDbCircle
 10
211.4533642691
 20
276.0654756381
 30
0.0
 40
5.00000000000003
100
AcDbArc
 50
278.6269265587
 51
81.3730734413
  0
ARC
  5
10E
330
1F
100
AcDbEntity
  8
0
  6
CONTINUOUS
 62
     7
100
AcDbCircle
 10
211.4533642691
 20
251.0654756381
 30
0.0
 40
5.00000000000003
100
AcDbArc
 50
98.6269265587
 51
81.3730734413
  0
LINE
  5
10F
330
1F
100
AcDbEntity
  8
0
  6
CONTINUOUS
 62
     7
100
AcDbLine
 10
210.7033634943
 20
271.1220459594
 30
0.0
 11
210.7033634943
 21
256.0089045717
 31
0.0
  0
CIRCLE
  5
110
330
1F
100
AcDbEntity
  8
0
  6
CONTINUOUS
 62
     7
100
AcDbCircle
 10
226.4533642691
 20
348.5654756381
 30
0.0
 40
2.599999999999966
  0
CIRCLE
  5
111
330
1F
100
AcDbEntity
  8
0
  6
CONTINUOUS
 62
     7
100
AcDbCircle
 10
211.4533642691
 20
288.5654756381
 30
0.0
 40
2.150000000000034
  0
CIRCLE
  5
112
330
1F
100
AcDbEntity
  8
0
  6
CONTINUOUS
 62
     7
100
AcDbCircle
 10
346.4533642691
 20
228.5654756381
 30
0.0
 40
2.599999999999994
  0
CIRCLE
  5
113
330
1F
100
AcDbEntity
  8
0
  6
CONTINUOUS
 62
     7
100
AcDbCircle
 10
361.4533642691
 20
276.0654756381
 30
0.0
 40
2.149999999999977
  0
CIRCLE
  5
114
330
1F
100
AcDbEntity
  8
0
  6
CONTINUOUS
 62
     7
100
AcDbCircle
 10
361.4533642691
 20
288.5654756381
 30
0.0
 40
2.150000000000034
  0
CIRCLE
  5
115
330
1F
100
AcDbEntity
  8
0
  6
CONTINUOUS
 62
     7
100
AcDbCircle
 10
226.4533642691
 20
228.5654756381
 30
0.0
 40
2.599999999999994
  0
CIRCLE
  5
116
330
1F
100
AcDbEntity
  8
0
  6
CONTINUOUS
 62
     7
100
AcDbCircle
 10
273.9533642691
 20
363.5654756381
 30
0.0
 40
2.149999999999977
  0
CIRCLE
  5
117
330
1F
100
AcDbEntity
  8
0
  6
CONTINUOUS
 62
     7
100
AcDbCircle
 10
298.9533642691
 20
363.5654756381
 30
0.0
 40
2.149999999999977
  0
CIRCLE
  5
118
330
1F
100
AcDbEntity
  8
0
  6
CONTINUOUS
 62
     7
100
AcDbCircle
 10
361.4533642691
 20
251.0654756381
 30
0.0
 40
2.150000000000034
  0
CIRCLE
  5
119
330
1F
100
AcDbEntity
  8
0
  6
CONTINUOUS
 62
     7
100
AcDbCircle
 10
273.9533642691
 20
213.5654756381
 30
0.0
 40
2.149999999999977
  0
CIRCLE
  5
11A
330
1F
100
AcDbEntity
  8
0
  6
CONTINUOUS
 62
     7
100
AcDbCircle
 10
248.9533642691
 20
213.5654756381
 30
0.0
 40
2.149999999999977
  0
CIRCLE
  5
11B
330
1F
100
AcDbEntity
  8
0
  6
CONTINUOUS
 62
     7
100
AcDbCircle
 10
286.4533642691
 20
363.5654756381
 30
0.0
 40
2.150000000000034
  0
CIRCLE
  5
11C
330
1F
100
AcDbEntity
  8
0
  6
CONTINUOUS
 62
     7
100
AcDbCircle
 10
248.9533642691
 20
363.5654756381
 30
0.0
 40
2.150000000000034
  0
CIRCLE
  5
11D
330
1F
100
AcDbEntity
  8
0
  6
CONTINUOUS
 62
     7
100
AcDbCircle
 10
211.4533642691
 20
301.0654756381
 30
0.0
 40
2.150000000000034
  0
CIRCLE
  5
11E
330
1F
100
AcDbEntity
  8
0
  6
CONTINUOUS
 62
     7
100
AcDbCircle
 10
298.9533642691
 20
213.5654756381
 30
0.0
 40
2.149999999999977
  0
CIRCLE
  5
11F
330
1F
100
AcDbEntity
  8
0
  6
CONTINUOUS
 62
     7
100
AcDbCircle
 10
323.9533642691
 20
213.5654756381
 30
0.0
 40
2.149999999999977
  0
CIRCLE
  5
120
330
1F
100
AcDbEntity
  8
0
  6
CONTINUOUS
 62
     7
100
AcDbCircle
 10
211.4533642691
 20
251.0654756381
 30
0.0
 40
2.150000000000034
  0
CIRCLE
  5
121
330
1F
100
AcDbEntity
  8
0
  6
CONTINUOUS
 62
     7
100
AcDbCircle
 10
361.4533642691
 20
301.0654756381
 30
0.0
 40
2.150000000000034
  0
CIRCLE
  5
122
330
1F
100
AcDbEntity
  8
0
  6
CONTINUOUS
 62
     7
100
AcDbCircle
 10
361.4533642691
 20
326.0654756381
 30
0.0
 40
2.149999999999977
  0
CIRCLE
  5
123
330
1F
100
AcDbEntity
  8
0
  6
CONTINUOUS
 62
     7
100
AcDbCircle
 10
346.4533642691
 20
348.5654756381
 30
0.0
 40
2.599999999999966
  0
CIRCLE
  5
124
330
1F
100
AcDbEntity
  8
0
  6
CONTINUOUS
 62
     7
100
AcDbCircle
 10
211.4533642691
 20
276.0654756381
 30
0.0
 40
2.149999999999977
  0
CIRCLE
  5
125
330
1F
100
AcDbEntity
  8
0
  6
CONTINUOUS
 62
     7
100
AcDbCircle
 10
323.9533642691
 20
363.5654756381
 30
0.0
 40
2.150000000000034
  0
CIRCLE
  5
126
330
1F
100
AcDbEntity
  8
0
  6
CONTINUOUS
 62
     7
100
AcDbCircle
 10
211.4533642691
 20
326.0654756381
 30
0.0
 40
2.149999999999977
  0
CIRCLE
  5
127
330
1F
100
AcDbEntity
  8
0
  6
CONTINUOUS
 62
     7
100
AcDbCircle
 10
286.4533642691
 20
213.5654756381
 30
0.0
 40
2.149999999999977
  0
CIRCLE
  5
128
330
1F
100
AcDbEntity
  8
0
  6
CONTINUOUS
 62
     7
100
AcDbCircle
 10
368.4533642691
 20
206.5654756381
 30
0.0
 40
3.249999999999972
  0
CIRCLE
  5
129
330
1F
100
AcDbEntity
  8
0
  6
CONTINUOUS
 62
     7
100
AcDbCircle
 10
368.4533642691
 20
370.5654756381
 30
0.0
 40
3.250000000000057
  0
CIRCLE
  5
12A
330
1F
100
AcDbEntity
  8
0
  6
CONTINUOUS
 62
     7
100
AcDbCircle
 10
204.4533642691
 20
206.5654756381
 30
0.0
 40
3.249999999999972
  0
CIRCLE
  5
12B
330
1F
100
AcDbEntity
  8
0
  6
CONTINUOUS
 62
     7
100
AcDbCircle
 10
204.4533642691
 20
370.5654756381
 30
0.0
 40
3.250000000000057
  0
LINE
  5
12C
330
1F
100
AcDbEntity
  8
0
  6
CONTINUOUS
 62
     7
100
AcDbLine
 10
279.3259358418
 20
317.5214828505
 30
0.0
 11
279.3259358418
 21
315.2000532998
 31
0.0
  0
LINE
  5
12D
330
1F
100
AcDbEntity
  8
0
  6
CONTINUOUS
 62
     7
100
AcDbLine
 10
279.3259358418
 20
315.2000532998
 30
0.0
 11
285.0402214949
 21
315.2000532998
 31
0.0
  0
ARC
  5
12E
330
1F
100
AcDbEntity
  8
0
  6
CONTINUOUS
 62
     7
100
AcDbCircle
 10
285.040221482
 20
316.3607680515
 30
0.0
 40
1.160714285714278
100
AcDbArc
 50
270.0
 51
90.0
  0
LINE
  5
12F
330
1F
100
AcDbEntity
  8
0
  6
CONTINUOUS
 62
     7
100
AcDbLine
 10
285.0402214949
 20
317.5214828505
 30
0.0
 11
279.3259358418
 21
317.5214828505
 31
0.0
  0
ARC
  5
130
330
1F
100
AcDbEntity
  8
0
  6
CONTINUOUS
 62
     7
100
AcDbCircle
 10
286.1116500534
 20
316.2714823372
 30
0.0
 40
2.85714285714296
100
AcDbArc
 50
270.0
 51
48.5903778907
  0
LINE
  5
131
330
1F
100
AcDbEntity
  8
0
  6
CONTINUOUS
 62
     7
100
AcDbLine
 10
276.825935432
 20
313.4143391205
 30
0.0
 11
286.1116500548
 21
313.4143391205
 31
0.0
  0
LINE
  5
132
330
1F
100
AcDbEntity
  8
0
  6
CONTINUOUS
 62
     7
100
AcDbLine
 10
276.825935432
 20
323.4143407597
 30
0.0
 11
276.825935432
 21
313.4143391205
 31
0.0
  0
LINE
  5
133
330
1F
100
AcDbEntity
  8
0
  6
CONTINUOUS
 62
     7
100
AcDbLine
 10
286.1116500548
 20
323.4143407597
 30
0.0
 11
276.825935432
 21
323.4143407597
 31
0.0
  0
ARC
  5
134
330
1F
100
AcDbEntity
  8
0
  6
CONTINUOUS
 62
     7
100
AcDbCircle
 10
286.1116500534
 20
320.5571966229
 30
0.0
 40
2.857142857142833
100
AcDbArc
 50
311.4096221093
 51
90.0
  0
LINE
  5
135
330
1F
100
AcDbEntity
  8
0
  6
CONTINUOUS
 62
     7
100
AcDbLine
 10
279.3259358418
 20
319.3071970297
 30
0.0
 11
285.0402214949
 21
319.3071970297
 31
0.0
  0
ARC
  5
136
330
1F
100
AcDbEntity
  8
0
  6
CONTINUOUS
 62
     7
100
AcDbCircle
 10
285.040221482
 20
320.4679109086
 30
0.0
 40
1.160714285714334
100
AcDbArc
 50
270.0
 51
90.0
  0
LINE
  5
137
330
1F
100
AcDbEntity
  8
0
  6
CONTINUOUS
 62
     7
100
AcDbLine
 10
279.3259358418
 20
321.6286265804
 30
0.0
 11
279.3259358418
 21
319.3071970297
 31
0.0
  0
LINE
  5
138
330
1F
100
AcDbEntity
  8
0
  6
CONTINUOUS
 62
     7
100
AcDbLine
 10
285.0402214949
 20
321.6286265804
 30
0.0
 11
279.3259358418
 21
321.6286265804
 31
0.0
  0
LINE
  5
139
330
1F
100
AcDbEntity
  8
0
  6
CONTINUOUS
 62
     7
100
AcDbLine
 10
262.5402210665
 20
317.5214828505
 30
0.0
 11
269.6830777836
 21
317.5214828505
 31
0.0
  0
LINE
  5
13A
330
1F
100
AcDbEntity
  8
0
  6
CONTINUOUS
 62
     7
100
AcDbLine
 10
262.5402210665
 20
313.4143391205
 30
0.0
 11
262.5402210665
 21
317.5214828505
 31
0.0
  0
LINE
  5
13B
330
1F
100
AcDbEntity
  8
0
  6
CONTINUOUS
 62
     7
100
AcDbLine
 10
260.040221588
 20
313.4143391205
 30
0.0
 11
262.5402210665
 21
313.4143391205
 31
0.0
  0
LINE
  5
13C
330
1F
100
AcDbEntity
  8
0
  6
CONTINUOUS
 62
     7
100
AcDbLine
 10
260.040221588
 20
323.4143407597
 30
0.0
 11
260.040221588
 21
313.4143391205
 31
0.0
  0
LINE
  5
13D
330
1F
100
AcDbEntity
  8
0
  6
CONTINUOUS
 62
     7
100
AcDbLine
 10
270.7545066637
 20
323.4143407597
 30
0.0
 11
260.040221588
 21
323.4143407597
 31
0.0
  0
LINE
  5
13E
330
1F
100
AcDbEntity
  8
0
  6
CONTINUOUS
 62
     7
100
AcDbLine
 10
270.7545066637
 20
321.6286265804
 30
0.0
 11
270.7545066637
 21
323.4143407597
 31
0.0
  0
LINE
  5
13F
330
1F
100
AcDbEntity
  8
0
  6
CONTINUOUS
 62
     7
100
AcDbLine
 10
262.5402210665
 20
321.6286265804
 30
0.0
 11
270.7545066637
 21
321.6286265804
 31
0.0
  0
LINE
  5
140
330
1F
100
AcDbEntity
  8
0
  6
CONTINUOUS
 62
     7
100
AcDbLine
 10
262.5402210665
 20
319.3071970297
 30
0.0
 11
262.5402210665
 21
321.6286265804
 31
0.0
  0
LINE
  5
141
330
1F
100
AcDbEntity
  8
0
  6
CONTINUOUS
 62
     7
100
AcDbLine
 10
269.6830777836
 20
319.3071970297
 30
0.0
 11
262.5402210665
 21
319.3071970297
 31
0.0
  0
LINE
  5
142
330
1F
100
AcDbEntity
  8
0
  6
CONTINUOUS
 62
     7
100
AcDbLine
 10
269.6830777836
 20
317.5214828505
 30
0.0
 11
269.6830777836
 21
319.3071970297
 31
0.0
  0
LINE
  5
143
330
1F
100
AcDbEntity
  8
0
  6
CONTINUOUS
 62
     7
100
AcDbLine
 10
308.8832756889
 20
318.4143399401
 30
0.0
 11
313.2187927526
 21
323.4143407597
 31
0.0
  0
LINE
  5
144
330
1F
100
AcDbEntity
  8
0
  6
CONTINUOUS
 62
     7
100
AcDbLine
 10
310.1755435032
 20
313.4143391205
 30
0.0
 11
313.2187927526
 21
313.4143391205
 31
0.0
  0
LINE
  5
145
330
1F
100
AcDbEntity
  8
0
  6
CONTINUOUS
 62
     7
100
AcDbLine
 10
305.8400245768
 20
318.4143399401
 30
0.0
 11
301.5045075131
 21
313.4143391205
 31
0.0
  0
LINE
  5
146
330
1F
100
AcDbEntity
  8
0
  6
CONTINUOUS
 62
     7
100
AcDbLine
 10
310.1755435032
 20
323.4143407597
 30
0.0
 11
307.3616492015
 21
320.3979359521
 31
0.0
  0
LINE
  5
147
330
1F
100
AcDbEntity
  8
0
  6
CONTINUOUS
 62
     7
100
AcDbLine
 10
313.2187927526
 20
313.4143391205
 30
0.0
 11
308.8832756889
 21
318.4143399401
 31
0.0
  0
LINE
  5
148
330
1F
100
AcDbEntity
  8
0
  6
CONTINUOUS
 62
     7
100
AcDbLine
 10
307.3616492015
 20
316.4307420654
 30
0.0
 11
310.1755435032
 21
313.4143391205
 31
0.0
  0
LINE
  5
149
330
1F
100
AcDbEntity
  8
0
  6
CONTINUOUS
 62
     7
100
AcDbLine
 10
304.5477567625
 20
313.4143391205
 30
0.0
 11
307.3616492015
 21
316.4307420654
 31
0.0
  0
LINE
  5
14A
330
1F
100
AcDbEntity
  8
0
  6
CONTINUOUS
 62
     7
100
AcDbLine
 10
301.5045075131
 20
313.4143391205
 30
0.0
 11
304.5477567625
 21
313.4143391205
 31
0.0
  0
LINE
  5
14B
330
1F
100
AcDbEntity
  8
0
  6
CONTINUOUS
 62
     7
100
AcDbLine
 10
307.3616492015
 20
320.3979359521
 30
0.0
 11
304.5477567625
 21
323.4143407597
 31
0.0
  0
LINE
  5
14C
330
1F
100
AcDbEntity
  8
0
  6
CONTINUOUS
 62
     7
100
AcDbLine
 10
313.2187927526
 20
323.4143407597
 30
0.0
 11
310.1755435032
 21
323.4143407597
 31
0.0
  0
LINE
  5
14D
330
1F
100
AcDbEntity
  8
0
  6
CONTINUOUS
 62
     7
100
AcDbLine
 10
304.5477567625
 20
323.4143407597
 30
0.0
 11
301.5045075131
 21
323.4143407597
 31
0.0
  0
LINE
  5
14E
330
1F
100
AcDbEntity
  8
0
  6
CONTINUOUS
 62
     7
100
AcDbLine
 10
301.5045075131
 20
323.4143407597
 30
0.0
 11
305.8400245768
 21
318.4143399401
 31
0.0
  0
LINE
  5
14F
330
1F
100
AcDbEntity
  8
0
  6
CONTINUOUS
 62
     7
100
AcDbLine
 10
275.0402212527
 20
313.4143391205
 30
0.0
 11
275.0402212527
 21
323.4143407597
 31
0.0
  0
LINE
  5
150
330
1F
100
AcDbEntity
  8
0
  6
CONTINUOUS
 62
     7
100
AcDbLine
 10
272.5402217743
 20
323.4143407597
 30
0.0
 11
272.5402217743
 21
313.4143391205
 31
0.0
  0
LINE
  5
151
330
1F
100
AcDbEntity
  8
0
  6
CONTINUOUS
 62
     7
100
AcDbLine
 10
275.0402212527
 20
323.4143407597
 30
0.0
 11
272.5402217743
 21
323.4143407597
 31
0.0
  0
LINE
  5
152
330
1F
100
AcDbEntity
  8
0
  6
CONTINUOUS
 62
     7
100
AcDbLine
 10
272.5402217743
 20
313.4143391205
 30
0.0
 11
275.0402212527
 21
313.4143391205
 31
0.0
  0
LINE
  5
153
330
1F
100
AcDbEntity
  8
0
  6
CONTINUOUS
 62
     7
100
AcDbLine
 10
298.2144931716
 20
321.5350398375
 30
0.0
 11
293.7088067097
 21
321.5350398375
 31
0.0
  0
LINE
  5
154
330
1F
100
AcDbEntity
  8
0
  6
CONTINUOUS
 62
     7
100
AcDbLine
 10
301.468793155
 20
316.2714821799
 30
0.0
 11
301.468793155
 21
320.5571958376
 31
0.0
  0
ARC
  5
155
330
1F
100
AcDbEntity
  8
0
  6
CONTINUOUS
 62
     7
100
AcDbCircle
 10
298.6116500534
 20
316.2714823372
 30
0.0
 40
2.857142857142946
100
AcDbArc
 50
270.0
 51
0.0
  0
LINE
  5
156
330
1F
100
AcDbEntity
  8
0
  6
CONTINUOUS
 62
     7
100
AcDbLine
 10
293.3116502513
 20
313.4143391205
 30
0.0
 11
298.6116500956
 21
313.4143391205
 31
0.0
  0
LINE
  5
157
330
1F
100
AcDbEntity
  8
0
  6
CONTINUOUS
 62
     7
100
AcDbLine
 10
299.2816221353
 20
316.3607680751
 30
0.0
 11
299.2816221353
 21
320.4679118051
 31
0.0
  0
LINE
  5
158
330
1F
100
AcDbEntity
  8
0
  6
CONTINUOUS
 62
     7
100
AcDbLine
 10
293.7088067097
 20
315.29363818
 30
0.0
 11
298.2144931716
 21
315.29363818
 31
0.0
  0
LINE
  5
159
330
1F
100
AcDbEntity
  8
0
  6
CONTINUOUS
 62
     7
100
AcDbLine
 10
290.4545071919
 20
320.5571958376
 30
0.0
 11
290.4545071919
 21
316.2714821799
 31
0.0
  0
ARC
  5
15A
330
1F
100
AcDbEntity
  8
0
  6
CONTINUOUS
 62
     7
100
AcDbCircle
 10
293.3116500534
 20
320.5571966229
 30
0.0
 40
2.857142857142833
100
AcDbArc
 50
90.0
 51
180.0
  0
LINE
  5
15B
330
1F
100
AcDbEntity
  8
0
  6
CONTINUOUS
 62
     7
100
AcDbLine
 10
298.6116500956
 20
323.4143407597
 30
0.0
 11
293.3116502513
 21
323.4143407597
 31
0.0
  0
ARC
  5
15C
330
1F
100
AcDbEntity
  8
0
  6
CONTINUOUS
 62
     7
100
AcDbCircle
 10
298.6116500534
 20
320.5571966229
 30
0.0
 40
2.85714285714289
100
AcDbArc
 50
0.0
 51
90.0
  0
ARC
  5
15D
330
1F
100
AcDbEntity
  8
0
  6
CONTINUOUS
 62
     7
100
AcDbCircle
 10
293.3116500534
 20
316.2714823372
 30
0.0
 40
2.85714285714289
100
AcDbArc
 50
180.0
 51
270.0
  0
LINE
  5
15E
330
1F
100
AcDbEntity
  8
0
  6
CONTINUOUS
 62
     7
100
AcDbLine
 10
292.6416777459
 20
320.4679118051
 30
0.0
 11
292.6416777459
 21
316.3607680751
 31
0.0
  0
ARC
  5
15F
330
1F
100
AcDbEntity
  8
0
  6
CONTINUOUS
 62
     7
100
AcDbCircle
 10
298.2144933047
 20
316.3607680515
 30
0.0
 40
1.067128965566042
100
AcDbArc
 50
270.0
 51
0.0
  0
ARC
  5
160
330
1F
100
AcDbEntity
  8
0
  6
CONTINUOUS
 62
     7
100
AcDbCircle
 10
293.7088068021
 20
316.3607680515
 30
0.0
 40
1.067128965565985
100
AcDbArc
 50
180.0
 51
270.0
  0
ARC
  5
161
330
1F
100
AcDbEntity
  8
0
  6
CONTINUOUS
 62
     7
100
AcDbCircle
 10
298.2144933047
 20
320.4679109086
 30
0.0
 40
1.067128965566042
100
AcDbArc
 50
0.0
 51
90.0
  0
ARC
  5
162
330
1F
100
AcDbEntity
  8
0
  6
CONTINUOUS
 62
     7
100
AcDbCircle
 10
293.7088068021
 20
320.4679109086
 30
0.0
 40
1.067128965565985
100
AcDbArc
 50
90.0
 51
180.0
  0
LINE
  5
163
330
1F
100
AcDbEntity
  8
0
  6
CONTINUOUS
 62
     7
100
AcDbLine
 10
31.3844989428
 20
194.7414392187
 30
0.0
 11
122.1845011601
 21
196.9605424954
 31
0.0
  0
LINE
  5
164
330
1F
100
AcDbEntity
  8
0
  6
CONTINUOUS
 62
     7
100
AcDbLine
 10
122.1845011601
 20
380.1704087807
 30
0.0
 11
31.3844989428
 21
382.3895120574
 31
0.0
  0
LINE
  5
165
330
1F
100
AcDbEntity
  8
0
  6
CONTINUOUS
 62
     7
100
AcDbLine
 10
122.1845011601
 20
199.0654730751
 30
0.0
 11
124.1845012551
 21
199.0654730751
 31
0.0
  0
LINE
  5
166
330
1F
100
AcDbEntity
  8
0
  6
CONTINUOUS
 62
     7
100
AcDbLine
 10
124.1845012551
 20
214.0654736711
 30
0.0
 11
122.1845011601
 21
214.0654736711
 31
0.0
  0
LINE
  5
167
330
1F
100
AcDbEntity
  8
0
  6
CONTINUOUS
 62
     7
100
AcDbLine
 10
122.1845011601
 20
363.065477605
 30
0.0
 11
124.1845012551
 21
363.065477605
 31
0.0
  0
LINE
  5
168
330
1F
100
AcDbEntity
  8
0
  6
CONTINUOUS
 62
     7
100
AcDbLine
 10
124.1845012551
 20
378.0654782011
 30
0.0
 11
122.1845011601
 21
378.0654782011
 31
0.0
  0
LINE
  5
169
330
1F
100
AcDbEntity
  8
0
  6
CONTINUOUS
 62
     7
100
AcDbLine
 10
112.9345010409
 20
382.5654724194
 30
0.0
 11
112.9345010409
 21
383.0654734327
 31
0.0
  0
LINE
  5
16A
330
1F
100
AcDbEntity
  8
0
  6
CONTINUOUS
 62
     7
100
AcDbLine
 10
103.434500415
 20
383.0654734327
 30
0.0
 11
103.434500415
 21
382.5654724194
 31
0.0
  0
LINE
  5
16B
330
1F
100
AcDbEntity
  8
0
  6
CONTINUOUS
 62
     7
100
AcDbLine
 10
82.9344998488
 20
382.5654724194
 30
0.0
 11
82.9344998488
 21
383.0654734327
 31
0.0
  0
LINE
  5
16C
330
1F
100
AcDbEntity
  8
0
  6
CONTINUOUS
 62
     7
100
AcDbLine
 10
73.4345029482
 20
383.0654734327
 30
0.0
 11
73.4345029482
 21
382.5654724194
 31
0.0
  0
LINE
  5
16D
330
1F
100
AcDbEntity
  8
0
  6
CONTINUOUS
 62
     7
100
AcDbLine
 10
103.434500415
 20
194.5654788567
 30
0.0
 11
103.434500415
 21
194.0654778434
 31
0.0
  0
LINE
  5
16E
330
1F
100
AcDbEntity
  8
0
  6
CONTINUOUS
 62
     7
100
AcDbLine
 10
112.9345010409
 20
194.0654778434
 30
0.0
 11
112.9345010409
 21
194.5654788567
 31
0.0
  0
LINE
  5
16F
330
1F
100
AcDbEntity
  8
0
  6
CONTINUOUS
 62
     7
100
AcDbLine
 10
73.4345029482
 20
194.5654788567
 30
0.0
 11
73.4345029482
 21
194.0654778434
 31
0.0
  0
LINE
  5
170
330
1F
100
AcDbEntity
  8
0
  6
CONTINUOUS
 62
     7
100
AcDbLine
 10
82.9344998488
 20
194.0654778434
 30
0.0
 11
82.9344998488
 21
194.5654788567
 31
0.0
  0
CIRCLE
  5
171
330
1F
100
AcDbEntity
  8
0
  6
CONTINUOUS
 62
     7
100
AcDbCircle
 10
108.1845011601
 20
348.565475638
 30
0.0
 40
3.25
  0
CIRCLE
  5
172
330
1F
100
AcDbEntity
  8
0
  6
CONTINUOUS
 62
     7
100
AcDbCircle
 10
108.1845011601
 20
348.565475638
 30
0.0
 40
4.75
  0
CIRCLE
  5
173
330
1F
100
AcDbEntity
  8
0
  6
CONTINUOUS
 62
     7
100
AcDbCircle
 10
78.1845011601
 20
348.565475638
 30
0.0
 40
3.25
  0
CIRCLE
  5
174
330
1F
100
AcDbEntity
  8
0
  6
CONTINUOUS
 62
     7
100
AcDbCircle
 10
78.1845011601
 20
348.565475638
 30
0.0
 40
4.75
  0
CIRCLE
  5
175
330
1F
100
AcDbEntity
  8
0
  6
CONTINUOUS
 62
     7
100
AcDbCircle
 10
108.1845011601
 20
228.565475638
 30
0.0
 40
3.25
  0
CIRCLE
  5
176
330
1F
100
AcDbEntity
  8
0
  6
CONTINUOUS
 62
     7
100
AcDbCircle
 10
108.1845011601
 20
228.565475638
 30
0.0
 40
4.75
  0
CIRCLE
  5
177
330
1F
100
AcDbEntity
  8
0
  6
CONTINUOUS
 62
     7
100
AcDbCircle
 10
78.1845011601
 20
228.565475638
 30
0.0
 40
3.25
  0
CIRCLE
  5
178
330
1F
100
AcDbEntity
  8
0
  6
CONTINUOUS
 62
     7
100
AcDbCircle
 10
78.1845011601
 20
228.565475638
 30
0.0
 40
4.75
  0
LINE
  5
179
330
1F
100
AcDbEntity
  8
0
  6
CONTINUOUS
 62
     7
100
AcDbLine
 10
69.1845017859
 20
348.5654742969
 30
0.0
 11
69.1845017859
 21
228.5654769792
 31
0.0
  0
ARC
  5
17A
330
1F
100
AcDbEntity
  8
0
  6
CONTINUOUS
 62
     7
100
AcDbCircle
 10
78.1845011601
 20
348.565475638
 30
0.0
 40
9.000000000000014
100
AcDbArc
 50
90.0
 51
180.0
  0
LINE
  5
17B
330
1F
100
AcDbEntity
  8
0
  6
CONTINUOUS
 62
     7
100
AcDbLine
 10
108.184500728
 20
357.5654739095
 30
0.0
 11
78.1845013985
 21
357.5654739095
 31
0.0
  0
LINE
  5
17C
330
1F
100
AcDbEntity
  8
0
  6
CONTINUOUS
 62
     7
100
AcDbLine
 10
117.1845012719
 20
228.5654769792
 30
0.0
 11
117.1845012719
 21
348.5654742969
 31
0.0
  0
ARC
  5
17D
330
1F
100
AcDbEntity
  8
0
  6
CONTINUOUS
 62
     7
100
AcDbCircle
 10
108.1845011601
 20
228.565475638
 30
0.0
 40
9.0
100
AcDbArc
 50
270.0
 51
0.0
  0
LINE
  5
17E
330
1F
100
AcDbEntity
  8
0
  6
CONTINUOUS
 62
     7
100
AcDbLine
 10
78.1845013985
 20
219.5654773666
 30
0.0
 11
108.184500728
 21
219.5654773666
 31
0.0
  0
ARC
  5
17F
330
1F
100
AcDbEntity
  8
0
  6
CONTINUOUS
 62
     7
100
AcDbCircle
 10
78.1845011601
 20
228.565475638
 30
0.0
 40
9.000000000000014
100
AcDbArc
 50
180.0
 51
270.0
  0
LINE
  5
180
330
1F
100
AcDbEntity
  8
0
  6
CONTINUOUS
 62
     7
100
AcDbLine
 10
85.4172381947
 20
228.0654759659
 30
0.0
 11
100.9517639318
 21
228.0654759659
 31
0.0
  0
ARC
  5
181
330
1F
100
AcDbEntity
  8
0
  6
CONTINUOUS
 62
     7
100
AcDbCircle
 10
108.1845011601
 20
228.565475638
 30
0.0
 40
7.250000000000027
100
AcDbArc
 50
78.0594560394
 51
183.9545721221
  0
LINE
  5
182
330
1F
100
AcDbEntity
  8
0
  6
CONTINUOUS
 62
     7
100
AcDbLine
 10
109.6845009738
 20
235.6586047961
 30
0.0
 11
109.6845009738
 21
341.47234648
 31
0.0
  0
ARC
  5
183
330
1F
100
AcDbEntity
  8
0
  6
CONTINUOUS
 62
     7
100
AcDbCircle
 10
108.1845011601
 20
348.565475638
 30
0.0
 40
7.250000000000028
100
AcDbArc
 50
176.0454278779
 51
281.9405439606
  0
LINE
  5
184
330
1F
100
AcDbEntity
  8
0
  6
CONTINUOUS
 62
     7
100
AcDbLine
 10
100.9517639318
 20
349.0654753102
 30
0.0
 11
85.4172381947
 21
349.0654753102
 31
0.0
  0
ARC
  5
185
330
1F
100
AcDbEntity
  8
0
  6
CONTINUOUS
 62
     7
100
AcDbCircle
 10
78.1845011601
 20
348.565475638
 30
0.0
 40
7.25
100
AcDbArc
 50
258.0594560394
 51
3.9545721221
  0
LINE
  5
186
330
1F
100
AcDbEntity
  8
0
  6
CONTINUOUS
 62
     7
100
AcDbLine
 10
76.684502084
 20
341.47234648
 30
0.0
 11
76.684502084
 21
235.6586047961
 31
0.0
  0
ARC
  5
187
330
1F
100
AcDbEntity
  8
0
  6
CONTINUOUS
 62
     7
100
AcDbCircle
 10
78.1845011601
 20
228.565475638
 30
0.0
 40
7.250000000000001
100
AcDbArc
 50
356.0454278779
 51
101.9405439606
  0
ARC
  5
188
330
1F
100
AcDbEntity
  8
0
  6
CONTINUOUS
 62
     7
100
AcDbCircle
 10
108.1845011601
 20
348.565475638
 30
0.0
 40
9.0
100
AcDbArc
 50
0.0
 51
90.0
  0
LINE
  5
189
330
1F
100
AcDbEntity
  8
0
  6
CONTINUOUS
 62
     7
100
AcDbLine
 10
31.3844989428
 20
206.5654733731
 30
0.0
 11
24.1845037231
 21
206.5654733731
 31
0.0
  0
LINE
  5
18A
330
1F
100
AcDbEntity
  8
0
  6
CONTINUOUS
 62
     7
100
AcDbLine
 10
31.3844989428
 20
194.5654788567
 30
0.0
 11
31.3844989428
 21
206.5654733731
 31
0.0
  0
LINE
  5
18B
330
1F
100
AcDbEntity
  8
0
  6
CONTINUOUS
 62
     7
100
AcDbLine
 10
31.3844989428
 20
194.5654788567
 30
0.0
 11
24.1845037231
 21
194.5654788567
 31
0.0
  0
LINE
  5
18C
330
1F
100
AcDbEntity
  8
0
  6
CONTINUOUS
 62
     7
100
AcDbLine
 10
24.1845037231
 20
194.5654788567
 30
0.0
 11
24.1845037231
 21
206.5654733731
 31
0.0
  0
LINE
  5
18D
330
1F
100
AcDbEntity
  8
0
  6
CONTINUOUS
 62
     7
100
AcDbLine
 10
31.3844989428
 20
370.565477903
 30
0.0
 11
24.1845037231
 21
370.565477903
 31
0.0
  0
LINE
  5
18E
330
1F
100
AcDbEntity
  8
0
  6
CONTINUOUS
 62
     7
100
AcDbLine
 10
24.1845037231
 20
206.5654733731
 30
0.0
 11
24.1845037231
 21
370.565477903
 31
0.0
  0
LINE
  5
18F
330
1F
100
AcDbEntity
  8
0
  6
CONTINUOUS
 62
     7
100
AcDbLine
 10
31.3844989428
 20
206.5654733731
 30
0.0
 11
31.3844989428
 21
370.565477903
 31
0.0
  0
LINE
  5
190
330
1F
100
AcDbEntity
  8
0
  6
CONTINUOUS
 62
     7
100
AcDbLine
 10
31.3844989428
 20
382.5654724194
 30
0.0
 11
24.1845037231
 21
382.5654724194
 31
0.0
  0
LINE
  5
191
330
1F
100
AcDbEntity
  8
0
  6
CONTINUOUS
 62
     7
100
AcDbLine
 10
24.1845037231
 20
370.565477903
 30
0.0
 11
24.1845037231
 21
382.5654724194
 31
0.0
  0
LINE
  5
192
330
1F
100
AcDbEntity
  8
0
  6
CONTINUOUS
 62
     7
100
AcDbLine
 10
31.3844989428
 20
370.565477903
 30
0.0
 11
31.3844989428
 21
382.5654724194
 31
0.0
  0
ELLIPSE
  5
193
330
1F
100
AcDbEntity
  8
0
  6
CONTINUOUS
 62
     7
100
AcDbEllipse
 10
-755.7692022514
 20
206.5654756381
 30
0.0
 11
1186.196859672717
 21
0.0
 31
0.0
210
0.0
220
0.0
230
1.0
 40
0.0094029048
 41
0.7375153424507801
 42
0.8451828661900556
  0
LINE
  5
194
330
1F
100
AcDbEntity
  8
0
  6
CONTINUOUS
 62
     7
100
AcDbLine
 10
122.1845011601
 20
214.0657865955
 30
0.0
 11
122.1845011601
 21
196.9605424954
 31
0.0
  0
LINE
  5
195
330
1F
100
AcDbEntity
  8
0
  6
CONTINUOUS
 62
     7
100
AcDbLine
 10
122.1845011601
 20
380.1704087807
 30
0.0
 11
122.1845011601
 21
363.0651646806
 31
0.0
  0
ELLIPSE
  5
196
330
1F
100
AcDbEntity
  8
0
  6
CONTINUOUS
 62
     7
100
AcDbEllipse
 10
-755.769201819
 20
370.5654756381
 30
0.0
 11
1186.196859209436
 21
0.0
 31
0.0
210
0.0
220
0.0
230
1.0
 40
0.0094029048
 41
5.438002440849393
 42
5.545669964617405
  0
LINE
  5
197
330
1F
100
AcDbEntity
  8
0
  6
CONTINUOUS
 62
     7
100
AcDbLine
 10
122.1845011601
 20
214.0657865955
 30
0.0
 11
122.1845011601
 21
363.0651646806
 31
0.0
  0
LINE
  5
198
330
1F
100
AcDbEntity
  8
0
  6
CONTINUOUS
 62
     7
100
AcDbLine
 10
124.1845012551
 20
214.0654736711
 30
0.0
 11
124.1845012551
 21
199.0654730751
 31
0.0
  0
LINE
  5
199
330
1F
100
AcDbEntity
  8
0
  6
CONTINUOUS
 62
     7
100
AcDbLine
 10
124.1845012551
 20
378.0654782011
 30
0.0
 11
124.1845012551
 21
363.065477605
 31
0.0
  0
LINE
  5
19A
330
1F
100
AcDbEntity
  8
0
  6
CONTINUOUS
 62
     7
100
AcDbLine
 10
117.1845012719
 20
380.2926057531
 30
0.0
 11
117.1845012719
 21
382.5654724194
 31
0.0
  0
LINE
  5
19B
330
1F
100
AcDbEntity
  8
0
  6
CONTINUOUS
 62
     7
100
AcDbLine
 10
108.184500728
 20
382.5654724194
 30
0.0
 11
117.1845012719
 21
382.5654724194
 31
0.0
  0
LINE
  5
19C
330
1F
100
AcDbEntity
  8
0
  6
CONTINUOUS
 62
     7
100
AcDbLine
 10
78.1845013985
 20
382.5654724194
 30
0.0
 11
108.184500728
 21
382.5654724194
 31
0.0
  0
LINE
  5
19D
330
1F
100
AcDbEntity
  8
0
  6
CONTINUOUS
 62
     7
100
AcDbLine
 10
69.1845017859
 20
381.4656996681
 30
0.0
 11
69.1845017859
 21
382.5654724194
 31
0.0
  0
LINE
  5
19E
330
1F
100
AcDbEntity
  8
0
  6
CONTINUOUS
 62
     7
100
AcDbLine
 10
69.1845017859
 20
382.5654724194
 30
0.0
 11
78.1845013985
 21
382.5654724194
 31
0.0
  0
LINE
  5
19F
330
1F
100
AcDbEntity
  8
0
  6
CONTINUOUS
 62
     7
100
AcDbLine
 10
117.1845012719
 20
194.5654788567
 30
0.0
 11
108.184500728
 21
194.5654788567
 31
0.0
  0
LINE
  5
1A0
330
1F
100
AcDbEntity
  8
0
  6
CONTINUOUS
 62
     7
100
AcDbLine
 10
117.1845012719
 20
196.838345523
 30
0.0
 11
117.1845012719
 21
194.5654788567
 31
0.0
  0
LINE
  5
1A1
330
1F
100
AcDbEntity
  8
0
  6
CONTINUOUS
 62
     7
100
AcDbLine
 10
108.184500728
 20
194.5654788567
 30
0.0
 11
78.1845013985
 21
194.5654788567
 31
0.0
  0
LINE
  5
1A2
330
1F
100
AcDbEntity
  8
0
  6
CONTINUOUS
 62
     7
100
AcDbLine
 10
69.1845017859
 20
195.665251608
 30
0.0
 11
69.1845017859
 21
194.5654788567
 31
0.0
  0
LINE
  5
1A3
330
1F
100
AcDbEntity
  8
0
  6
CONTINUOUS
 62
     7
100
AcDbLine
 10
78.1845013985
 20
194.5654788567
 30
0.0
 11
69.1845017859
 21
194.5654788567
 31
0.0
  0
LINE
  5
1A4
330
1F
100
AcDbEntity
  8
0
  6
CONTINUOUS
 62
     7
100
AcDbLine
 10
103.434500415
 20
383.0654734327
 30
0.0
 11
112.9345010409
 21
383.0654734327
 31
0.0
  0
LINE
  5
1A5
330
1F
100
AcDbEntity
  8
0
  6
CONTINUOUS
 62
     7
100
AcDbLine
 10
73.4345029482
 20
383.0654734327
 30
0.0
 11
82.9344998488
 21
383.0654734327
 31
0.0
  0
LINE
  5
1A6
330
1F
100
AcDbEntity
  8
0
  6
CONTINUOUS
 62
     7
100
AcDbLine
 10
108.184500728
 20
194.0654778434
 30
0.0
 11
103.434500415
 21
194.0654778434
 31
0.0
  0
LINE
  5
1A7
330
1F
100
AcDbEntity
  8
0
  6
CONTINUOUS
 62
     7
100
AcDbLine
 10
112.9345010409
 20
194.0654778434
 30
0.0
 11
108.184500728
 21
194.0654778434
 31
0.0
  0
LINE
  5
1A8
330
1F
100
AcDbEntity
  8
0
  6
CONTINUOUS
 62
     7
100
AcDbLine
 10
78.1845013985
 20
194.0654778434
 30
0.0
 11
73.4345029482
 21
194.0654778434
 31
0.0
  0
LINE
  5
1A9
330
1F
100
AcDbEntity
  8
0
  6
CONTINUOUS
 62
     7
100
AcDbLine
 10
82.9344998488
 20
194.0654778434
 30
0.0
 11
78.1845013985
 21
194.0654778434
 31
0.0
  0
LINE
  5
1AA
330
1F
100
AcDbEntity
  8
0
  6
CONTINUOUS
 62
     8
100
AcDbLine
 10
108.184500728
 20
380.5125617935
 30
0.0
 11
108.184500728
 21
382.5654724194
 31
0.0
  0
LINE
  5
1AB
330
1F
100
AcDbEntity
  8
0
  6
CONTINUOUS
 62
     8
100
AcDbLine
 10
78.1845013985
 20
381.2457436277
 30
0.0
 11
78.1845013985
 21
382.5654724194
 31
0.0
  0
LINE
  5
1AC
330
1F
100
AcDbEntity
  8
0
  6
CONTINUOUS
 62
     8
100
AcDbLine
 10
108.184500728
 20
196.6183894826
 30
0.0
 11
108.184500728
 21
194.5654788567
 31
0.0
  0
LINE
  5
1AD
330
1F
100
AcDbEntity
  8
0
  6
CONTINUOUS
 62
     8
100
AcDbLine
 10
78.1845013985
 20
195.8852076484
 30
0.0
 11
78.1845013985
 21
194.5654788567
 31
0.0
  0
LINE
  5
1AE
330
1F
100
AcDbEntity
  8
0
  6
CONTINUOUS
 62
     7
100
AcDbLine
 10
378.0582974118
 20
459.1602320186
 30
0.0
 11
380.2774006885
 21
549.9602342359
 31
0.0
  0
LINE
  5
1AF
330
1F
100
AcDbEntity
  8
0
  6
CONTINUOUS
 62
     7
100
AcDbLine
 10
192.6293278497
 20
549.9602342359
 30
0.0
 11
194.8484311265
 21
459.1602320186
 31
0.0
  0
LINE
  5
1B0
330
1F
100
AcDbEntity
  8
0
  6
CONTINUOUS
 62
     7
100
AcDbLine
 10
196.9533617061
 20
459.1602320186
 30
0.0
 11
196.9533617061
 21
457.1602319236
 31
0.0
  0
LINE
  5
1B1
330
1F
100
AcDbEntity
  8
0
  6
CONTINUOUS
 62
     7
100
AcDbLine
 10
211.9533623022
 20
457.1602319236
 30
0.0
 11
211.9533623022
 21
459.1602320186
 31
0.0
  0
LINE
  5
1B2
330
1F
100
AcDbEntity
  8
0
  6
CONTINUOUS
 62
     7
100
AcDbLine
 10
360.9533662361
 20
459.1602320186
 30
0.0
 11
360.9533662361
 21
457.1602319236
 31
0.0
  0
LINE
  5
1B3
330
1F
100
AcDbEntity
  8
0
  6
CONTINUOUS
 62
     7
100
AcDbLine
 10
375.9533668321
 20
457.1602319236
 30
0.0
 11
375.9533668321
 21
459.1602320186
 31
0.0
  0
LINE
  5
1B4
330
1F
100
AcDbEntity
  8
0
  6
CONTINUOUS
 62
     7
100
AcDbLine
 10
380.4533610505
 20
498.4102333299
 30
0.0
 11
380.9533620638
 21
498.4102333299
 31
0.0
  0
LINE
  5
1B5
330
1F
100
AcDbEntity
  8
0
  6
CONTINUOUS
 62
     7
100
AcDbLine
 10
380.9533620638
 20
507.9102302304
 30
0.0
 11
380.4533610505
 21
507.9102302304
 31
0.0
  0
LINE
  5
1B6
330
1F
100
AcDbEntity
  8
0
  6
CONTINUOUS
 62
     7
100
AcDbLine
 10
380.4533610505
 20
468.4102321378
 30
0.0
 11
380.9533620638
 21
468.4102321378
 31
0.0
  0
LINE
  5
1B7
330
1F
100
AcDbEntity
  8
0
  6
CONTINUOUS
 62
     7
100
AcDbLine
 10
380.9533620638
 20
477.9102327636
 30
0.0
 11
380.4533610505
 21
477.9102327636
 31
0.0
  0
LINE
  5
1B8
330
1F
100
AcDbEntity
  8
0
  6
CONTINUOUS
 62
     7
100
AcDbLine
 10
192.4533674878
 20
477.9102327636
 30
0.0
 11
191.9533664745
 21
477.9102327636
 31
0.0
  0
LINE
  5
1B9
330
1F
100
AcDbEntity
  8
0
  6
CONTINUOUS
 62
     7
100
AcDbLine
 10
191.9533664745
 20
468.4102321378
 30
0.0
 11
192.4533674878
 21
468.4102321378
 31
0.0
  0
LINE
  5
1BA
330
1F
100
AcDbEntity
  8
0
  6
CONTINUOUS
 62
     7
100
AcDbLine
 10
192.4533674878
 20
507.9102302304
 30
0.0
 11
191.9533664745
 21
507.9102302304
 31
0.0
  0
LINE
  5
1BB
330
1F
100
AcDbEntity
  8
0
  6
CONTINUOUS
 62
     7
100
AcDbLine
 10
191.9533664745
 20
498.4102333299
 30
0.0
 11
192.4533674878
 21
498.4102333299
 31
0.0
  0
CIRCLE
  5
1BC
330
1F
100
AcDbEntity
  8
0
  6
CONTINUOUS
 62
     7
100
AcDbCircle
 10
226.4533642691
 20
473.1602320186
 30
0.0
 40
3.249999999999972
  0
CIRCLE
  5
1BD
330
1F
100
AcDbEntity
  8
0
  6
CONTINUOUS
 62
     7
100
AcDbCircle
 10
226.4533642691
 20
473.1602320186
 30
0.0
 40
4.749999999999972
  0
CIRCLE
  5
1BE
330
1F
100
AcDbEntity
  8
0
  6
CONTINUOUS
 62
     7
100
AcDbCircle
 10
226.4533642691
 20
503.1602320186
 30
0.0
 40
3.249999999999972
  0
CIRCLE
  5
1BF
330
1F
100
AcDbEntity
  8
0
  6
CONTINUOUS
 62
     7
100
AcDbCircle
 10
226.4533642691
 20
503.1602320186
 30
0.0
 40
4.749999999999972
  0
CIRCLE
  5
1C0
330
1F
100
AcDbEntity
  8
0
  6
CONTINUOUS
 62
     7
100
AcDbCircle
 10
346.4533642691
 20
503.1602320186
 30
0.0
 40
3.249999999999943
  0
CIRCLE
  5
1C1
330
1F
100
AcDbEntity
  8
0
  6
CONTINUOUS
 62
     7
100
AcDbCircle
 10
346.4533642691
 20
503.1602320186
 30
0.0
 40
4.749999999999943
  0
CIRCLE
  5
1C2
330
1F
100
AcDbEntity
  8
0
  6
CONTINUOUS
 62
     7
100
AcDbCircle
 10
346.4533642691
 20
473.1602320186
 30
0.0
 40
4.749999999999943
  0
CIRCLE
  5
1C3
330
1F
100
AcDbEntity
  8
0
  6
CONTINUOUS
 62
     7
100
AcDbCircle
 10
346.4533642691
 20
473.1602320186
 30
0.0
 40
3.249999999999943
  0
LINE
  5
1C4
330
1F
100
AcDbEntity
  8
0
  6
CONTINUOUS
 62
     7
100
AcDbLine
 10
368.4533665341
 20
549.9602342359
 30
0.0
 11
368.4533665341
 21
557.1602294556
 31
0.0
  0
LINE
  5
1C5
330
1F
100
AcDbEntity
  8
0
  6
CONTINUOUS
 62
     7
100
AcDbLine
 10
204.4533620042
 20
549.9602342359
 30
0.0
 11
368.4533665341
 21
549.9602342359
 31
0.0
  0
LINE
  5
1C6
330
1F
100
AcDbEntity
  8
0
  6
CONTINUOUS
 62
     7
100
AcDbLine
 10
204.4533620042
 20
549.9602342359
 30
0.0
 11
204.4533620042
 21
557.1602294556
 31
0.0
  0
LINE
  5
1C7
330
1F
100
AcDbEntity
  8
0
  6
CONTINUOUS
 62
     7
100
AcDbLine
 10
204.4533620042
 20
557.1602294556
 30
0.0
 11
368.4533665341
 21
557.1602294556
 31
0.0
  0
LINE
  5
1C8
330
1F
100
AcDbEntity
  8
0
  6
CONTINUOUS
 62
     7
100
AcDbLine
 10
192.4533674878
 20
549.9602342359
 30
0.0
 11
204.4533620042
 21
549.9602342359
 31
0.0
  0
LINE
  5
1C9
330
1F
100
AcDbEntity
  8
0
  6
CONTINUOUS
 62
     7
100
AcDbLine
 10
192.4533674878
 20
549.9602342359
 30
0.0
 11
192.4533674878
 21
557.1602294556
 31
0.0
  0
LINE
  5
1CA
330
1F
100
AcDbEntity
  8
0
  6
CONTINUOUS
 62
     7
100
AcDbLine
 10
192.4533674878
 20
557.1602294556
 30
0.0
 11
204.4533620042
 21
557.1602294556
 31
0.0
  0
LINE
  5
1CB
330
1F
100
AcDbEntity
  8
0
  6
CONTINUOUS
 62
     7
100
AcDbLine
 10
380.4533610505
 20
549.9602342359
 30
0.0
 11
380.4533610505
 21
557.1602294556
 31
0.0
  0
LINE
  5
1CC
330
1F
100
AcDbEntity
  8
0
  6
CONTINUOUS
 62
     7
100
AcDbLine
 10
368.4533665341
 20
549.9602342359
 30
0.0
 11
380.4533610505
 21
549.9602342359
 31
0.0
  0
LINE
  5
1CD
330
1F
100
AcDbEntity
  8
0
  6
CONTINUOUS
 62
     7
100
AcDbLine
 10
368.4533665341
 20
557.1602294556
 30
0.0
 11
380.4533610505
 21
557.1602294556
 31
0.0
  0
ARC
  5
1CE
330
1F
100
AcDbEntity
  8
0
  6
CONTINUOUS
 62
     7
100
AcDbCircle
 10
346.4533642691
 20
503.1602320186
 30
0.0
 40
9.0
100
AcDbArc
 50
0.0
 51
90.0
  0
LINE
  5
1CF
330
1F
100
AcDbEntity
  8
0
  6
CONTINUOUS
 62
     7
100
AcDbLine
 10
355.4533625406
 20
473.1602324507
 30
0.0
 11
355.4533625406
 21
503.1602317801
 31
0.0
  0
ARC
  5
1D0
330
1F
100
AcDbEntity
  8
0
  6
CONTINUOUS
 62
     7
100
AcDbCircle
 10
346.4533642691
 20
473.1602320186
 30
0.0
 40
9.0
100
AcDbArc
 50
270.0
 51
0.0
  0
ARC
  5
1D1
330
1F
100
AcDbEntity
  8
0
  6
CONTINUOUS
 62
     7
100
AcDbCircle
 10
226.4533642691
 20
473.1602320186
 30
0.0
 40
9.0
100
AcDbArc
 50
180.0
 51
270.0
  0
LINE
  5
1D2
330
1F
100
AcDbEntity
  8
0
  6
CONTINUOUS
 62
     7
100
AcDbLine
 10
233.5464934272
 20
471.6602322048
 30
0.0
 11
339.3602351111
 21
471.6602322048
 31
0.0
  0
ARC
  5
1D3
330
1F
100
AcDbEntity
  8
0
  6
CONTINUOUS
 62
     7
100
AcDbCircle
 10
346.4533642691
 20
473.1602320186
 30
0.0
 40
7.250000000000056
100
AcDbArc
 50
86.0454278779
 51
191.9405439606
  0
LINE
  5
1D4
330
1F
100
AcDbEntity
  8
0
  6
CONTINUOUS
 62
     7
100
AcDbLine
 10
346.9533639413
 20
480.3929692468
 30
0.0
 11
346.9533639413
 21
495.927494984
 31
0.0
  0
ARC
  5
1D5
330
1F
100
AcDbEntity
  8
0
  6
CONTINUOUS
 62
     7
100
AcDbCircle
 10
346.4533642691
 20
503.1602320186
 30
0.0
 40
7.250000000000068
100
AcDbArc
 50
168.0594560394
 51
273.9545721221
  0
LINE
  5
1D6
330
1F
100
AcDbEntity
  8
0
  6
CONTINUOUS
 62
     7
100
AcDbLine
 10
339.3602351111
 20
504.6602310947
 30
0.0
 11
233.5464934272
 21
504.6602310947
 31
0.0
  0
ARC
  5
1D7
330
1F
100
AcDbEntity
  8
0
  6
CONTINUOUS
 62
     7
100
AcDbCircle
 10
226.4533642691
 20
503.1602320186
 30
0.0
 40
8.999999999999972
100
AcDbArc
 50
90.0
 51
180.0
  0
LINE
  5
1D8
330
1F
100
AcDbEntity
  8
0
  6
CONTINUOUS
 62
     7
100
AcDbLine
 10
346.453362928
 20
512.1602313927
 30
0.0
 11
226.4533656102
 21
512.1602313927
 31
0.0
  0
ARC
  5
1D9
330
1F
100
AcDbEntity
  8
0
  6
CONTINUOUS
 62
     7
100
AcDbCircle
 10
226.4533642691
 20
473.1602320186
 30
0.0
 40
7.250000000000001
100
AcDbArc
 50
348.0594560394
 51
93.9545721221
  0
LINE
  5
1DA
330
1F
100
AcDbEntity
  8
0
  6
CONTINUOUS
 62
     7
100
AcDbLine
 10
226.4533656102
 20
464.1602319068
 30
0.0
 11
346.453362928
 21
464.1602319068
 31
0.0
  0
LINE
  5
1DB
330
1F
100
AcDbEntity
  8
0
  6
CONTINUOUS
 62
     7
100
AcDbLine
 10
217.4533659977
 20
503.1602317801
 30
0.0
 11
217.4533659977
 21
473.1602324507
 31
0.0
  0
LINE
  5
1DC
330
1F
100
AcDbEntity
  8
0
  6
CONTINUOUS
 62
     7
100
AcDbLine
 10
225.953364597
 20
495.927494984
 30
0.0
 11
225.953364597
 21
480.3929692468
 31
0.0
  0
ARC
  5
1DD
330
1F
100
AcDbEntity
  8
0
  6
CONTINUOUS
 62
     7
100
AcDbCircle
 10
226.4533642691
 20
503.1602320186
 30
0.0
 40
7.250000000000028
100
AcDbArc
 50
266.0454278779
 51
11.9405439606
  0
LINE
  5
1DE
330
1F
100
AcDbEntity
  8
0
  6
CONTINUOUS
 62
     7
100
AcDbLine
 10
378.0582974118
 20
459.1602320186
 30
0.0
 11
360.9530533117
 21
459.1602320186
 31
0.0
  0
ELLIPSE
  5
1DF
330
1F
100
AcDbEntity
  8
0
  6
CONTINUOUS
 62
     7
100
AcDbEllipse
 10
368.4533642691
 20
1337.113935432
 30
0.0
 11
0.0
 21
1186.196859675704
 31
0.0
210
0.0
220
0.0
230
1.0
 40
0.0094029048
 41
2.296409787400361
 42
2.404077311139497
  0
ELLIPSE
  5
1E0
330
1F
100
AcDbEntity
  8
0
  6
CONTINUOUS
 62
     7
100
AcDbEllipse
 10
204.4533642691
 20
1337.113935432
 30
0.0
 11
0.0
 21
1186.196859675704
 31
0.0
210
0.0
220
0.0
230
1.0
 40
0.0094029048
 41
3.879107996040904
 42
3.986775519779881
  0
LINE
  5
1E1
330
1F
100
AcDbEntity
  8
0
  6
CONTINUOUS
 62
     7
100
AcDbLine
 10
211.9536752266
 20
459.1602320186
 30
0.0
 11
194.8484311265
 21
459.1602320186
 31
0.0
  0
LINE
  5
1E2
330
1F
100
AcDbEntity
  8
0
  6
CONTINUOUS
 62
     7
100
AcDbLine
 10
211.9536752266
 20
459.1602320186
 30
0.0
 11
360.9530533117
 21
459.1602320186
 31
0.0
  0
LINE
  5
1E3
330
1F
100
AcDbEntity
  8
0
  6
CONTINUOUS
 62
     7
100
AcDbLine
 10
204.4533620042
 20
457.1602319236
 30
0.0
 11
196.9533617061
 21
457.1602319236
 31
0.0
  0
LINE
  5
1E4
330
1F
100
AcDbEntity
  8
0
  6
CONTINUOUS
 62
     7
100
AcDbLine
 10
211.9533623022
 20
457.1602319236
 30
0.0
 11
204.4533620042
 21
457.1602319236
 31
0.0
  0
LINE
  5
1E5
330
1F
100
AcDbEntity
  8
0
  6
CONTINUOUS
 62
     7
100
AcDbLine
 10
375.9533668321
 20
457.1602319236
 30
0.0
 11
360.9533662361
 21
457.1602319236
 31
0.0
  0
LINE
  5
1E6
330
1F
100
AcDbEntity
  8
0
  6
CONTINUOUS
 62
     7
100
AcDbLine
 10
379.3535882992
 20
512.1602313927
 30
0.0
 11
380.4533610505
 21
512.1602313927
 31
0.0
  0
LINE
  5
1E7
330
1F
100
AcDbEntity
  8
0
  6
CONTINUOUS
 62
     7
100
AcDbLine
 10
380.4533610505
 20
512.1602313927
 30
0.0
 11
380.4533610505
 21
503.1602317801
 31
0.0
  0
LINE
  5
1E8
330
1F
100
AcDbEntity
  8
0
  6
CONTINUOUS
 62
     7
100
AcDbLine
 10
378.1804943842
 20
464.1602319068
 30
0.0
 11
380.4533610505
 21
464.1602319068
 31
0.0
  0
LINE
  5
1E9
330
1F
100
AcDbEntity
  8
0
  6
CONTINUOUS
 62
     7
100
AcDbLine
 10
380.4533610505
 20
473.1602324507
 30
0.0
 11
380.4533610505
 21
464.1602319068
 31
0.0
  0
LINE
  5
1EA
330
1F
100
AcDbEntity
  8
0
  6
CONTINUOUS
 62
     7
100
AcDbLine
 10
380.4533610505
 20
503.1602317801
 30
0.0
 11
380.4533610505
 21
473.1602324507
 31
0.0
  0
LINE
  5
1EB
330
1F
100
AcDbEntity
  8
0
  6
CONTINUOUS
 62
     7
100
AcDbLine
 10
192.4533674878
 20
473.1602324507
 30
0.0
 11
192.4533674878
 21
503.1602317801
 31
0.0
  0
LINE
  5
1EC
330
1F
100
AcDbEntity
  8
0
  6
CONTINUOUS
 62
     7
100
AcDbLine
 10
192.4533674878
 20
503.1602317801
 30
0.0
 11
192.4533674878
 21
512.1602313927
 31
0.0
  0
LINE
  5
1ED
330
1F
100
AcDbEntity
  8
0
  6
CONTINUOUS
 62
     7
100
AcDbLine
 10
193.5531402391
 20
512.1602313927
 30
0.0
 11
192.4533674878
 21
512.1602313927
 31
0.0
  0
LINE
  5
1EE
330
1F
100
AcDbEntity
  8
0
  6
CONTINUOUS
 62
     7
100
AcDbLine
 10
192.4533674878
 20
464.1602319068
 30
0.0
 11
192.4533674878
 21
473.1602324507
 31
0.0
  0
LINE
  5
1EF
330
1F
100
AcDbEntity
  8
0
  6
CONTINUOUS
 62
     7
100
AcDbLine
 10
194.7262341541
 20
464.1602319068
 30
0.0
 11
192.4533674878
 21
464.1602319068
 31
0.0
  0
LINE
  5
1F0
330
1F
100
AcDbEntity
  8
0
  6
CONTINUOUS
 62
     7
100
AcDbLine
 10
380.9533620638
 20
507.9102302304
 30
0.0
 11
380.9533620638
 21
498.4102333299
 31
0.0
  0
LINE
  5
1F1
330
1F
100
AcDbEntity
  8
0
  6
CONTINUOUS
 62
     7
100
AcDbLine
 10
380.9533620638
 20
477.9102327636
 30
0.0
 11
380.9533620638
 21
468.4102321378
 31
0.0
  0
LINE
  5
1F2
330
1F
100
AcDbEntity
  8
0
  6
CONTINUOUS
 62
     7
100
AcDbLine
 10
191.9533664745
 20
473.1602324507
 30
0.0
 11
191.9533664745
 21
477.9102327636
 31
0.0
  0
LINE
  5
1F3
330
1F
100
AcDbEntity
  8
0
  6
CONTINUOUS
 62
     7
100
AcDbLine
 10
191.9533664745
 20
468.4102321378
 30
0.0
 11
191.9533664745
 21
473.1602324507
 31
0.0
  0
LINE
  5
1F4
330
1F
100
AcDbEntity
  8
0
  6
CONTINUOUS
 62
     7
100
AcDbLine
 10
191.9533664745
 20
503.1602317801
 30
0.0
 11
191.9533664745
 21
507.9102302304
 31
0.0
  0
LINE
  5
1F5
330
1F
100
AcDbEntity
  8
0
  6
CONTINUOUS
 62
     7
100
AcDbLine
 10
191.9533664745
 20
498.4102333299
 30
0.0
 11
191.9533664745
 21
503.1602317801
 31
0.0
  0
LINE
  5
1F6
330
1F
100
AcDbEntity
  8
0
  6
CONTINUOUS
 62
     8
100
AcDbLine
 10
379.1336322588
 20
503.1602317801
 30
0.0
 11
380.4533610505
 21
503.1602317801
 31
0.0
  0
LINE
  5
1F7
330
1F
100
AcDbEntity
  8
0
  6
CONTINUOUS
 62
     8
100
AcDbLine
 10
378.4004504246
 20
473.1602324507
 30
0.0
 11
380.4533610505
 21
473.1602324507
 31
0.0
  0
LINE
  5
1F8
330
1F
100
AcDbEntity
  8
0
  6
CONTINUOUS
 62
     8
100
AcDbLine
 10
193.7730962795
 20
503.1602317801
 30
0.0
 11
192.4533674878
 21
503.1602317801
 31
0.0
  0
LINE
  5
1F9
330
1F
100
AcDbEntity
  8
0
  6
CONTINUOUS
 62
     8
100
AcDbLine
 10
194.5062781137
 20
473.1602324507
 30
0.0
 11
192.4533674878
 21
473.1602324507
 31
0.0
  0
LINE
  5
1FA
330
1F
100
AcDbEntity
  8
0
  6
CONTINUOUS
 62
     7
100
AcDbLine
 10
380.2774006885
 20
29.9822251609
 30
0.0
 11
378.0582974118
 21
120.7822273782
 31
0.0
  0
LINE
  5
1FB
330
1F
100
AcDbEntity
  8
0
  6
CONTINUOUS
 62
     7
100
AcDbLine
 10
194.8484311265
 20
120.7822273782
 30
0.0
 11
192.6293278497
 21
29.9822251609
 31
0.0
  0
LINE
  5
1FC
330
1F
100
AcDbEntity
  8
0
  6
CONTINUOUS
 62
     7
100
AcDbLine
 10
211.9533623022
 20
120.7822273782
 30
0.0
 11
211.9533623022
 21
122.7822274732
 31
0.0
  0
LINE
  5
1FD
330
1F
100
AcDbEntity
  8
0
  6
CONTINUOUS
 62
     7
100
AcDbLine
 10
196.9533617061
 20
122.7822274732
 30
0.0
 11
196.9533617061
 21
120.7822273782
 31
0.0
  0
LINE
  5
1FE
330
1F
100
AcDbEntity
  8
0
  6
CONTINUOUS
 62
     7
100
AcDbLine
 10
375.9533668321
 20
120.7822273782
 30
0.0
 11
375.9533668321
 21
122.7822274732
 31
0.0
  0
LINE
  5
1FF
330
1F
100
AcDbEntity
  8
0
  6
CONTINUOUS
 62
     7
100
AcDbLine
 10
360.9533662361
 20
122.7822274732
 30
0.0
 11
360.9533662361
 21
120.7822273782
 31
0.0
  0
LINE
  5
200
330
1F
100
AcDbEntity
  8
0
  6
CONTINUOUS
 62
     7
100
AcDbLine
 10
192.4533674878
 20
111.532227259
 30
0.0
 11
191.9533664745
 21
111.532227259
 31
0.0
  0
LINE
  5
201
330
1F
100
AcDbEntity
  8
0
  6
CONTINUOUS
 62
     7
100
AcDbLine
 10
191.9533664745
 20
102.0322266331
 30
0.0
 11
192.4533674878
 21
102.0322266331
 31
0.0
  0
LINE
  5
202
330
1F
100
AcDbEntity
  8
0
  6
CONTINUOUS
 62
     7
100
AcDbLine
 10
192.4533674878
 20
81.5322260669
 30
0.0
 11
191.9533664745
 21
81.5322260669
 31
0.0
  0
LINE
  5
203
330
1F
100
AcDbEntity
  8
0
  6
CONTINUOUS
 62
     7
100
AcDbLine
 10
191.9533664745
 20
72.0322291663
 30
0.0
 11
192.4533674878
 21
72.0322291663
 31
0.0
  0
LINE
  5
204
330
1F
100
AcDbEntity
  8
0
  6
CONTINUOUS
 62
     7
100
AcDbLine
 10
380.4533610505
 20
102.0322266331
 30
0.0
 11
380.9533620638
 21
102.0322266331
 31
0.0
  0
LINE
  5
205
330
1F
100
AcDbEntity
  8
0
  6
CONTINUOUS
 62
     7
100
AcDbLine
 10
380.9533620638
 20
111.532227259
 30
0.0
 11
380.4533610505
 21
111.532227259
 31
0.0
  0
LINE
  5
206
330
1F
100
AcDbEntity
  8
0
  6
CONTINUOUS
 62
     7
100
AcDbLine
 10
380.4533610505
 20
72.0322291663
 30
0.0
 11
380.9533620638
 21
72.0322291663
 31
0.0
  0
LINE
  5
207
330
1F
100
AcDbEntity
  8
0
  6
CONTINUOUS
 62
     7
100
AcDbLine
 10
380.9533620638
 20
81.5322260669
 30
0.0
 11
380.4533610505
 21
81.5322260669
 31
0.0
  0
CIRCLE
  5
208
330
1F
100
AcDbEntity
  8
0
  6
CONTINUOUS
 62
     7
100
AcDbCircle
 10
226.4533642691
 20
106.7822273782
 30
0.0
 40
3.250000000000028
  0
CIRCLE
  5
209
330
1F
100
AcDbEntity
  8
0
  6
CONTINUOUS
 62
     7
100
AcDbCircle
 10
226.4533642691
 20
106.7822273782
 30
0.0
 40
4.750000000000028
  0
CIRCLE
  5
20A
330
1F
100
AcDbEntity
  8
0
  6
CONTINUOUS
 62
     7
100
AcDbCircle
 10
226.4533642691
 20
76.7822273782
 30
0.0
 40
3.250000000000028
  0
CIRCLE
  5
20B
330
1F
100
AcDbEntity
  8
0
  6
CONTINUOUS
 62
     7
100
AcDbCircle
 10
226.4533642691
 20
76.7822273782
 30
0.0
 40
4.750000000000028
  0
CIRCLE
  5
20C
330
1F
100
AcDbEntity
  8
0
  6
CONTINUOUS
 62
     7
100
AcDbCircle
 10
346.4533642691
 20
106.7822273782
 30
0.0
 40
3.25
  0
CIRCLE
  5
20D
330
1F
100
AcDbEntity
  8
0
  6
CONTINUOUS
 62
     7
100
AcDbCircle
 10
346.4533642691
 20
106.7822273782
 30
0.0
 40
4.75
  0
CIRCLE
  5
20E
330
1F
100
AcDbEntity
  8
0
  6
CONTINUOUS
 62
     7
100
AcDbCircle
 10
346.4533642691
 20
76.7822273782
 30
0.0
 40
4.75
  0
CIRCLE
  5
20F
330
1F
100
AcDbEntity
  8
0
  6
CONTINUOUS
 62
     7
100
AcDbCircle
 10
346.4533642691
 20
76.7822273782
 30
0.0
 40
3.25
  0
LINE
  5
210
330
1F
100
AcDbEntity
  8
0
  6
CONTINUOUS
 62
     7
100
AcDbLine
 10
226.4533656102
 20
67.782228004
 30
0.0
 11
346.453362928
 21
67.782228004
 31
0.0
  0
ARC
  5
211
330
1F
100
AcDbEntity
  8
0
  6
CONTINUOUS
 62
     7
100
AcDbCircle
 10
226.4533642691
 20
76.7822273782
 30
0.0
 40
9.000000000000028
100
AcDbArc
 50
180.0
 51
270.0
  0
LINE
  5
212
330
1F
100
AcDbEntity
  8
0
  6
CONTINUOUS
 62
     7
100
AcDbLine
 10
217.4533659977
 20
106.7822269461
 30
0.0
 11
217.4533659977
 21
76.7822276166
 31
0.0
  0
LINE
  5
213
330
1F
100
AcDbEntity
  8
0
  6
CONTINUOUS
 62
     7
100
AcDbLine
 10
346.453362928
 20
115.7822274899
 30
0.0
 11
226.4533656102
 21
115.7822274899
 31
0.0
  0
ARC
  5
214
330
1F
100
AcDbEntity
  8
0
  6
CONTINUOUS
 62
     7
100
AcDbCircle
 10
346.4533642691
 20
106.7822273782
 30
0.0
 40
9.0
100
AcDbArc
 50
0.0
 51
90.0
  0
LINE
  5
215
330
1F
100
AcDbEntity
  8
0
  6
CONTINUOUS
 62
     7
100
AcDbLine
 10
355.4533625406
 20
76.7822276166
 30
0.0
 11
355.4533625406
 21
106.7822269461
 31
0.0
  0
ARC
  5
216
330
1F
100
AcDbEntity
  8
0
  6
CONTINUOUS
 62
     7
100
AcDbCircle
 10
346.4533642691
 20
76.7822273782
 30
0.0
 40
9.000000000000014
100
AcDbArc
 50
270.0
 51
0.0
  0
LINE
  5
217
330
1F
100
AcDbEntity
  8
0
  6
CONTINUOUS
 62
     7
100
AcDbLine
 10
346.9533639413
 20
84.0149644127
 30
0.0
 11
346.9533639413
 21
99.5494901499
 31
0.0
  0
ARC
  5
218
330
1F
100
AcDbEntity
  8
0
  6
CONTINUOUS
 62
     7
100
AcDbCircle
 10
346.4533642691
 20
106.7822273782
 30
0.0
 40
7.250000000000011
100
AcDbArc
 50
168.0594560394
 51
273.9545721221
  0
LINE
  5
219
330
1F
100
AcDbEntity
  8
0
  6
CONTINUOUS
 62
     7
100
AcDbLine
 10
339.3602351111
 20
108.2822271919
 30
0.0
 11
233.5464934272
 21
108.2822271919
 31
0.0
  0
ARC
  5
21A
330
1F
100
AcDbEntity
  8
0
  6
CONTINUOUS
 62
     7
100
AcDbCircle
 10
226.4533642691
 20
106.7822273782
 30
0.0
 40
7.250000000000012
100
AcDbArc
 50
266.0454278779
 51
11.9405439606
  0
LINE
  5
21B
330
1F
100
AcDbEntity
  8
0
  6
CONTINUOUS
 62
     7
100
AcDbLine
 10
225.953364597
 20
99.5494901499
 30
0.0
 11
225.953364597
 21
84.0149644127
 31
0.0
  0
ARC
  5
21C
330
1F
100
AcDbEntity
  8
0
  6
CONTINUOUS
 62
     7
100
AcDbCircle
 10
226.4533642691
 20
76.7822273782
 30
0.0
 40
7.250000000000001
100
AcDbArc
 50
348.0594560394
 51
93.9545721221
  0
LINE
  5
21D
330
1F
100
AcDbEntity
  8
0
  6
CONTINUOUS
 62
     7
100
AcDbLine
 10
233.5464934272
 20
75.2822283021
 30
0.0
 11
339.3602351111
 21
75.2822283021
 31
0.0
  0
ARC
  5
21E
330
1F
100
AcDbEntity
  8
0
  6
CONTINUOUS
 62
     7
100
AcDbCircle
 10
346.4533642691
 20
76.7822273782
 30
0.0
 40
7.250000000000001
100
AcDbArc
 50
86.0454278779
 51
191.9405439606
  0
ARC
  5
21F
330
1F
100
AcDbEntity
  8
0
  6
CONTINUOUS
 62
     7
100
AcDbCircle
 10
226.4533642691
 20
106.7822273782
 30
0.0
 40
9.000000000000028
100
AcDbArc
 50
90.0
 51
180.0
  0
LINE
  5
220
330
1F
100
AcDbEntity
  8
0
  6
CONTINUOUS
 62
     7
100
AcDbLine
 10
192.4533674878
 20
29.9822251609
 30
0.0
 11
192.4533674878
 21
22.7822299412
 31
0.0
  0
LINE
  5
221
330
1F
100
AcDbEntity
  8
0
  6
CONTINUOUS
 62
     7
100
AcDbLine
 10
204.4533620042
 20
29.9822251609
 30
0.0
 11
192.4533674878
 21
29.9822251609
 31
0.0
  0
LINE
  5
222
330
1F
100
AcDbEntity
  8
0
  6
CONTINUOUS
 62
     7
100
AcDbLine
 10
204.4533620042
 20
29.9822251609
 30
0.0
 11
204.4533620042
 21
22.7822299412
 31
0.0
  0
LINE
  5
223
330
1F
100
AcDbEntity
  8
0
  6
CONTINUOUS
 62
     7
100
AcDbLine
 10
204.4533620042
 20
22.7822299412
 30
0.0
 11
192.4533674878
 21
22.7822299412
 31
0.0
  0
LINE
  5
224
330
1F
100
AcDbEntity
  8
0
  6
CONTINUOUS
 62
     7
100
AcDbLine
 10
368.4533665341
 20
29.9822251609
 30
0.0
 11
368.4533665341
 21
22.7822299412
 31
0.0
  0
LINE
  5
225
330
1F
100
AcDbEntity
  8
0
  6
CONTINUOUS
 62
     7
100
AcDbLine
 10
380.4533610505
 20
29.9822251609
 30
0.0
 11
380.4533610505
 21
22.7822299412
 31
0.0
  0
LINE
  5
226
330
1F
100
AcDbEntity
  8
0
  6
CONTINUOUS
 62
     7
100
AcDbLine
 10
380.4533610505
 20
22.7822299412
 30
0.0
 11
368.4533665341
 21
22.7822299412
 31
0.0
  0
LINE
  5
227
330
1F
100
AcDbEntity
  8
0
  6
CONTINUOUS
 62
     7
100
AcDbLine
 10
380.4533610505
 20
29.9822251609
 30
0.0
 11
368.4533665341
 21
29.9822251609
 31
0.0
  0
LINE
  5
228
330
1F
100
AcDbEntity
  8
0
  6
CONTINUOUS
 62
     7
100
AcDbLine
 10
368.4533665341
 20
22.7822299412
 30
0.0
 11
204.4533620042
 21
22.7822299412
 31
0.0
  0
LINE
  5
229
330
1F
100
AcDbEntity
  8
0
  6
CONTINUOUS
 62
     7
100
AcDbLine
 10
368.4533665341
 20
29.9822251609
 30
0.0
 11
204.4533620042
 21
29.9822251609
 31
0.0
  0
ELLIPSE
  5
22A
330
1F
100
AcDbEntity
  8
0
  6
CONTINUOUS
 62
     7
100
AcDbEllipse
 10
368.4533642691
 20
-757.1714756029
 30
0.0
 11
0.0
 21
1186.196859212423
 31
0.0
210
0.0
220
0.0
230
1.0
 40
0.0094029048
 41
0.7375153425624846
 42
0.8451828663302517
  0
LINE
  5
22B
330
1F
100
AcDbEntity
  8
0
  6
CONTINUOUS
 62
     7
100
AcDbLine
 10
360.9530533117
 20
120.7822273782
 30
0.0
 11
378.0582974118
 21
120.7822273782
 31
0.0
  0
LINE
  5
22C
330
1F
100
AcDbEntity
  8
0
  6
CONTINUOUS
 62
     7
100
AcDbLine
 10
194.8484311265
 20
120.7822273782
 30
0.0
 11
211.9536752266
 21
120.7822273782
 31
0.0
  0
ELLIPSE
  5
22D
330
1F
100
AcDbEntity
  8
0
  6
CONTINUOUS
 62
     7
100
AcDbEllipse
 10
204.4533642691
 20
-757.1714756029
 30
0.0
 11
0.0
 21
1186.196859212419
 31
0.0
210
0.0
220
0.0
230
1.0
 40
0.0094029048
 41
5.438002440849976
 42
5.545669964617918
  0
LINE
  5
22E
330
1F
100
AcDbEntity
  8
0
  6
CONTINUOUS
 62
     7
100
AcDbLine
 10
360.9530533117
 20
120.7822273782
 30
0.0
 11
211.9536752266
 21
120.7822273782
 31
0.0
  0
LINE
  5
22F
330
1F
100
AcDbEntity
  8
0
  6
CONTINUOUS
 62
     7
100
AcDbLine
 10
204.4533620042
 20
122.7822274732
 30
0.0
 11
211.9533623022
 21
122.7822274732
 31
0.0
  0
LINE
  5
230
330
1F
100
AcDbEntity
  8
0
  6
CONTINUOUS
 62
     7
100
AcDbLine
 10
196.9533617061
 20
122.7822274732
 30
0.0
 11
204.4533620042
 21
122.7822274732
 31
0.0
  0
LINE
  5
231
330
1F
100
AcDbEntity
  8
0
  6
CONTINUOUS
 62
     7
100
AcDbLine
 10
360.9533662361
 20
122.7822274732
 30
0.0
 11
375.9533668321
 21
122.7822274732
 31
0.0
  0
LINE
  5
232
330
1F
100
AcDbEntity
  8
0
  6
CONTINUOUS
 62
     7
100
AcDbLine
 10
192.4533674878
 20
106.7822269461
 30
0.0
 11
192.4533674878
 21
115.7822274899
 31
0.0
  0
LINE
  5
233
330
1F
100
AcDbEntity
  8
0
  6
CONTINUOUS
 62
     7
100
AcDbLine
 10
194.7262341541
 20
115.7822274899
 30
0.0
 11
192.4533674878
 21
115.7822274899
 31
0.0
  0
LINE
  5
234
330
1F
100
AcDbEntity
  8
0
  6
CONTINUOUS
 62
     7
100
AcDbLine
 10
192.4533674878
 20
76.7822276166
 30
0.0
 11
192.4533674878
 21
106.7822269461
 31
0.0
  0
LINE
  5
235
330
1F
100
AcDbEntity
  8
0
  6
CONTINUOUS
 62
     7
100
AcDbLine
 10
193.5531402391
 20
67.782228004
 30
0.0
 11
192.4533674878
 21
67.782228004
 31
0.0
  0
LINE
  5
236
330
1F
100
AcDbEntity
  8
0
  6
CONTINUOUS
 62
     7
100
AcDbLine
 10
192.4533674878
 20
67.782228004
 30
0.0
 11
192.4533674878
 21
76.7822276166
 31
0.0
  0
LINE
  5
237
330
1F
100
AcDbEntity
  8
0
  6
CONTINUOUS
 62
     7
100
AcDbLine
 10
380.4533610505
 20
115.7822274899
 30
0.0
 11
380.4533610505
 21
106.7822269461
 31
0.0
  0
LINE
  5
238
330
1F
100
AcDbEntity
  8
0
  6
CONTINUOUS
 62
     7
100
AcDbLine
 10
378.1804943842
 20
115.7822274899
 30
0.0
 11
380.4533610505
 21
115.7822274899
 31
0.0
  0
LINE
  5
239
330
1F
100
AcDbEntity
  8
0
  6
CONTINUOUS
 62
     7
100
AcDbLine
 10
380.4533610505
 20
106.7822269461
 30
0.0
 11
380.4533610505
 21
76.7822276166
 31
0.0
  0
LINE
  5
23A
330
1F
100
AcDbEntity
  8
0
  6
CONTINUOUS
 62
     7
100
AcDbLine
 10
379.3535882992
 20
67.782228004
 30
0.0
 11
380.4533610505
 21
67.782228004
 31
0.0
  0
LINE
  5
23B
330
1F
100
AcDbEntity
  8
0
  6
CONTINUOUS
 62
     7
100
AcDbLine
 10
380.4533610505
 20
76.7822276166
 30
0.0
 11
380.4533610505
 21
67.782228004
 31
0.0
  0
LINE
  5
23C
330
1F
100
AcDbEntity
  8
0
  6
CONTINUOUS
 62
     7
100
AcDbLine
 10
191.9533664745
 20
102.0322266331
 30
0.0
 11
191.9533664745
 21
111.532227259
 31
0.0
  0
LINE
  5
23D
330
1F
100
AcDbEntity
  8
0
  6
CONTINUOUS
 62
     7
100
AcDbLine
 10
191.9533664745
 20
72.0322291663
 30
0.0
 11
191.9533664745
 21
81.5322260669
 31
0.0
  0
LINE
  5
23E
330
1F
100
AcDbEntity
  8
0
  6
CONTINUOUS
 62
     7
100
AcDbLine
 10
380.9533620638
 20
106.7822269461
 30
0.0
 11
380.9533620638
 21
102.0322266331
 31
0.0
  0
LINE
  5
23F
330
1F
100
AcDbEntity
  8
0
  6
CONTINUOUS
 62
     7
100
AcDbLine
 10
380.9533620638
 20
111.532227259
 30
0.0
 11
380.9533620638
 21
106.7822269461
 31
0.0
  0
LINE
  5
240
330
1F
100
AcDbEntity
  8
0
  6
CONTINUOUS
 62
     7
100
AcDbLine
 10
380.9533620638
 20
76.7822276166
 30
0.0
 11
380.9533620638
 21
72.0322291663
 31
0.0
  0
LINE
  5
241
330
1F
100
AcDbEntity
  8
0
  6
CONTINUOUS
 62
     7
100
AcDbLine
 10
380.9533620638
 20
81.5322260669
 30
0.0
 11
380.9533620638
 21
76.7822276166
 31
0.0
  0
LINE
  5
242
330
1F
100
AcDbEntity
  8
0
  6
CONTINUOUS
 62
     8
100
AcDbLine
 10
194.5062781137
 20
106.7822269461
 30
0.0
 11
192.4533674878
 21
106.7822269461
 31
0.0
  0
LINE
  5
243
330
1F
100
AcDbEntity
  8
0
  6
CONTINUOUS
 62
     8
100
AcDbLine
 10
193.7730962795
 20
76.7822276166
 30
0.0
 11
192.4533674878
 21
76.7822276166
 31
0.0
  0
LINE
  5
244
330
1F
100
AcDbEntity
  8
0
  6
CONTINUOUS
 62
     8
100
AcDbLine
 10
378.4004504246
 20
106.7822269461
 30
0.0
 11
380.4533610505
 21
106.7822269461
 31
0.0
  0
LINE
  5
245
330
1F
100
AcDbEntity
  8
0
  6
CONTINUOUS
 62
     8
100
AcDbLine
 10
379.1336322588
 20
76.7822276166
 30
0.0
 11
380.4533610505
 21
76.7822276166
 31
0.0
  0
LINE
  5
246
330
1F
100
AcDbEntity
  8
0
  6
CONTINUOUS
 62
     7
100
AcDbLine
 10
457.7509976798
 20
196.9605424954
 30
0.0
 11
548.5509998971
 21
194.7414392187
 31
0.0
  0
LINE
  5
247
330
1F
100
AcDbEntity
  8
0
  6
CONTINUOUS
 62
     7
100
AcDbLine
 10
548.5509998971
 20
382.3895120574
 30
0.0
 11
457.7509976798
 21
380.1704087807
 31
0.0
  0
LINE
  5
248
330
1F
100
AcDbEntity
  8
0
  6
CONTINUOUS
 62
     7
100
AcDbLine
 10
457.7509976798
 20
214.0654736711
 30
0.0
 11
455.7509975848
 21
214.0654736711
 31
0.0
  0
LINE
  5
249
330
1F
100
AcDbEntity
  8
0
  6
CONTINUOUS
 62
     7
100
AcDbLine
 10
455.7509975848
 20
199.0654730751
 30
0.0
 11
457.7509976798
 21
199.0654730751
 31
0.0
  0
LINE
  5
24A
330
1F
100
AcDbEntity
  8
0
  6
CONTINUOUS
 62
     7
100
AcDbLine
 10
457.7509976798
 20
378.0654782011
 30
0.0
 11
455.7509975848
 21
378.0654782011
 31
0.0
  0
LINE
  5
24B
330
1F
100
AcDbEntity
  8
0
  6
CONTINUOUS
 62
     7
100
AcDbLine
 10
455.7509975848
 20
363.065477605
 30
0.0
 11
457.7509976798
 21
363.065477605
 31
0.0
  0
LINE
  5
24C
330
1F
100
AcDbEntity
  8
0
  6
CONTINUOUS
 62
     7
100
AcDbLine
 10
467.000997799
 20
194.5654788567
 30
0.0
 11
467.000997799
 21
194.0654778434
 31
0.0
  0
LINE
  5
24D
330
1F
100
AcDbEntity
  8
0
  6
CONTINUOUS
 62
     7
100
AcDbLine
 10
476.5009984249
 20
194.0654778434
 30
0.0
 11
476.5009984249
 21
194.5654788567
 31
0.0
  0
LINE
  5
24E
330
1F
100
AcDbEntity
  8
0
  6
CONTINUOUS
 62
     7
100
AcDbLine
 10
497.0009989911
 20
194.5654788567
 30
0.0
 11
497.0009989911
 21
194.0654778434
 31
0.0
  0
LINE
  5
24F
330
1F
100
AcDbEntity
  8
0
  6
CONTINUOUS
 62
     7
100
AcDbLine
 10
506.5009958917
 20
194.0654778434
 30
0.0
 11
506.5009958917
 21
194.5654788567
 31
0.0
  0
LINE
  5
250
330
1F
100
AcDbEntity
  8
0
  6
CONTINUOUS
 62
     7
100
AcDbLine
 10
476.5009984249
 20
382.5654724194
 30
0.0
 11
476.5009984249
 21
383.0654734327
 31
0.0
  0
LINE
  5
251
330
1F
100
AcDbEntity
  8
0
  6
CONTINUOUS
 62
     7
100
AcDbLine
 10
467.000997799
 20
383.0654734327
 30
0.0
 11
467.000997799
 21
382.5654724194
 31
0.0
  0
LINE
  5
252
330
1F
100
AcDbEntity
  8
0
  6
CONTINUOUS
 62
     7
100
AcDbLine
 10
506.5009958917
 20
382.5654724194
 30
0.0
 11
506.5009958917
 21
383.0654734327
 31
0.0
  0
LINE
  5
253
330
1F
100
AcDbEntity
  8
0
  6
CONTINUOUS
 62
     7
100
AcDbLine
 10
497.0009989911
 20
383.0654734327
 30
0.0
 11
497.0009989911
 21
382.5654724194
 31
0.0
  0
CIRCLE
  5
254
330
1F
100
AcDbEntity
  8
0
  6
CONTINUOUS
 62
     7
100
AcDbCircle
 10
471.7509976798
 20
228.5654756381
 30
0.0
 40
3.250000000000028
  0
CIRCLE
  5
255
330
1F
100
AcDbEntity
  8
0
  6
CONTINUOUS
 62
     7
100
AcDbCircle
 10
471.7509976798
 20
228.5654756381
 30
0.0
 40
4.750000000000028
  0
CIRCLE
  5
256
330
1F
100
AcDbEntity
  8
0
  6
CONTINUOUS
 62
     7
100
AcDbCircle
 10
501.7509976798
 20
228.5654756381
 30
0.0
 40
4.750000000000028
  0
CIRCLE
  5
257
330
1F
100
AcDbEntity
  8
0
  6
CONTINUOUS
 62
     7
100
AcDbCircle
 10
501.7509976798
 20
228.5654756381
 30
0.0
 40
3.250000000000028
  0
CIRCLE
  5
258
330
1F
100
AcDbEntity
  8
0
  6
CONTINUOUS
 62
     7
100
AcDbCircle
 10
471.7509976798
 20
348.5654756381
 30
0.0
 40
3.25
  0
CIRCLE
  5
259
330
1F
100
AcDbEntity
  8
0
  6
CONTINUOUS
 62
     7
100
AcDbCircle
 10
471.7509976798
 20
348.5654756381
 30
0.0
 40
4.75
  0
CIRCLE
  5
25A
330
1F
100
AcDbEntity
  8
0
  6
CONTINUOUS
 62
     7
100
AcDbCircle
 10
501.7509976798
 20
348.5654756381
 30
0.0
 40
3.25
  0
CIRCLE
  5
25B
330
1F
100
AcDbEntity
  8
0
  6
CONTINUOUS
 62
     7
100
AcDbCircle
 10
501.7509976798
 20
348.5654756381
 30
0.0
 40
4.75
  0
LINE
  5
25C
330
1F
100
AcDbEntity
  8
0
  6
CONTINUOUS
 62
     7
100
AcDbLine
 10
510.750997054
 20
228.5654769792
 30
0.0
 11
510.750997054
 21
348.5654742969
 31
0.0
  0
ARC
  5
25D
330
1F
100
AcDbEntity
  8
0
  6
CONTINUOUS
 62
     7
100
AcDbCircle
 10
501.7509976798
 20
228.5654756381
 30
0.0
 40
9.0
100
AcDbArc
 50
270.0
 51
0.0
  0
LINE
  5
25E
330
1F
100
AcDbEntity
  8
0
  6
CONTINUOUS
 62
     7
100
AcDbLine
 10
471.7509981119
 20
219.5654773666
 30
0.0
 11
501.7509974414
 21
219.5654773666
 31
0.0
  0
LINE
  5
25F
330
1F
100
AcDbEntity
  8
0
  6
CONTINUOUS
 62
     7
100
AcDbLine
 10
462.7509975681
 20
348.5654742969
 30
0.0
 11
462.7509975681
 21
228.5654769792
 31
0.0
  0
ARC
  5
260
330
1F
100
AcDbEntity
  8
0
  6
CONTINUOUS
 62
     7
100
AcDbCircle
 10
471.7509976798
 20
348.5654756381
 30
0.0
 40
9.0
100
AcDbArc
 50
90.0
 51
180.0
  0
LINE
  5
261
330
1F
100
AcDbEntity
  8
0
  6
CONTINUOUS
 62
     7
100
AcDbLine
 10
501.7509974414
 20
357.5654739095
 30
0.0
 11
471.7509981119
 21
357.5654739095
 31
0.0
  0
ARC
  5
262
330
1F
100
AcDbEntity
  8
0
  6
CONTINUOUS
 62
     7
100
AcDbCircle
 10
501.7509976798
 20
348.5654756381
 30
0.0
 40
9.0
100
AcDbArc
 50
0.0
 51
90.0
  0
LINE
  5
263
330
1F
100
AcDbEntity
  8
0
  6
CONTINUOUS
 62
     7
100
AcDbLine
 10
494.5182606453
 20
349.0654753102
 30
0.0
 11
478.9837349081
 21
349.0654753102
 31
0.0
  0
ARC
  5
264
330
1F
100
AcDbEntity
  8
0
  6
CONTINUOUS
 62
     7
100
AcDbCircle
 10
471.7509976798
 20
348.5654756381
 30
0.0
 40
7.250000000000001
100
AcDbArc
 50
258.0594560394
 51
3.9545721221
  0
LINE
  5
265
330
1F
100
AcDbEntity
  8
0
  6
CONTINUOUS
 62
     7
100
AcDbLine
 10
470.2509978661
 20
341.47234648
 30
0.0
 11
470.2509978661
 21
235.6586047961
 31
0.0
  0
ARC
  5
266
330
1F
100
AcDbEntity
  8
0
  6
CONTINUOUS
 62
     7
100
AcDbCircle
 10
471.7509976798
 20
228.5654756381
 30
0.0
 40
7.249999999999973
100
AcDbArc
 50
356.0454278779
 51
101.9405439606
  0
LINE
  5
267
330
1F
100
AcDbEntity
  8
0
  6
CONTINUOUS
 62
     7
100
AcDbLine
 10
478.9837349081
 20
228.0654759659
 30
0.0
 11
494.5182606453
 21
228.0654759659
 31
0.0
  0
ARC
  5
268
330
1F
100
AcDbEntity
  8
0
  6
CONTINUOUS
 62
     7
100
AcDbCircle
 10
501.7509976798
 20
228.5654756381
 30
0.0
 40
7.250000000000028
100
AcDbArc
 50
78.0594560394
 51
183.9545721221
  0
LINE
  5
269
330
1F
100
AcDbEntity
  8
0
  6
CONTINUOUS
 62
     7
100
AcDbLine
 10
503.2509967559
 20
235.6586047961
 30
0.0
 11
503.2509967559
 21
341.47234648
 31
0.0
  0
ARC
  5
26A
330
1F
100
AcDbEntity
  8
0
  6
CONTINUOUS
 62
     7
100
AcDbCircle
 10
501.7509976798
 20
348.5654756381
 30
0.0
 40
7.250000000000028
100
AcDbArc
 50
176.0454278779
 51
281.9405439606
  0
ARC
  5
26B
330
1F
100
AcDbEntity
  8
0
  6
CONTINUOUS
 62
     7
100
AcDbCircle
 10
471.7509976798
 20
228.5654756381
 30
0.0
 40
9.0
100
AcDbArc
 50
180.0
 51
270.0
  0
LINE
  5
26C
330
1F
100
AcDbEntity
  8
0
  6
CONTINUOUS
 62
     7
100
AcDbLine
 10
548.5509998971
 20
194.5654788567
 30
0.0
 11
555.7509951168
 21
194.5654788567
 31
0.0
  0
LINE
  5
26D
330
1F
100
AcDbEntity
  8
0
  6
CONTINUOUS
 62
     7
100
AcDbLine
 10
548.5509998971
 20
206.5654733731
 30
0.0
 11
548.5509998971
 21
194.5654788567
 31
0.0
  0
LINE
  5
26E
330
1F
100
AcDbEntity
  8
0
  6
CONTINUOUS
 62
     7
100
AcDbLine
 10
548.5509998971
 20
206.5654733731
 30
0.0
 11
555.7509951168
 21
206.5654733731
 31
0.0
  0
LINE
  5
26F
330
1F
100
AcDbEntity
  8
0
  6
CONTINUOUS
 62
     7
100
AcDbLine
 10
555.7509951168
 20
206.5654733731
 30
0.0
 11
555.7509951168
 21
194.5654788567
 31
0.0
  0
LINE
  5
270
330
1F
100
AcDbEntity
  8
0
  6
CONTINUOUS
 62
     7
100
AcDbLine
 10
548.5509998971
 20
370.565477903
 30
0.0
 11
555.7509951168
 21
370.565477903
 31
0.0
  0
LINE
  5
271
330
1F
100
AcDbEntity
  8
0
  6
CONTINUOUS
 62
     7
100
AcDbLine
 10
548.5509998971
 20
382.5654724194
 30
0.0
 11
548.5509998971
 21
370.565477903
 31
0.0
  0
LINE
  5
272
330
1F
100
AcDbEntity
  8
0
  6
CONTINUOUS
 62
     7
100
AcDbLine
 10
548.5509998971
 20
382.5654724194
 30
0.0
 11
555.7509951168
 21
382.5654724194
 31
0.0
  0
LINE
  5
273
330
1F
100
AcDbEntity
  8
0
  6
CONTINUOUS
 62
     7
100
AcDbLine
 10
555.7509951168
 20
382.5654724194
 30
0.0
 11
555.7509951168
 21
370.565477903
 31
0.0
  0
LINE
  5
274
330
1F
100
AcDbEntity
  8
0
  6
CONTINUOUS
 62
     7
100
AcDbLine
 10
555.7509951168
 20
370.565477903
 30
0.0
 11
555.7509951168
 21
206.5654733731
 31
0.0
  0
LINE
  5
275
330
1F
100
AcDbEntity
  8
0
  6
CONTINUOUS
 62
     7
100
AcDbLine
 10
548.5509998971
 20
370.565477903
 30
0.0
 11
548.5509998971
 21
206.5654733731
 31
0.0
  0
LINE
  5
276
330
1F
100
AcDbEntity
  8
0
  6
CONTINUOUS
 62
     7
100
AcDbLine
 10
457.7509976798
 20
196.9605424954
 30
0.0
 11
457.7509976798
 21
214.0657865955
 31
0.0
  0
ELLIPSE
  5
277
330
1F
100
AcDbEntity
  8
0
  6
CONTINUOUS
 62
     7
100
AcDbEllipse
 10
1335.7047010913
 20
206.5654756381
 30
0.0
 11
1186.196859672716
 21
0.0
 31
0.0
210
0.0
220
0.0
230
1.0
 40
0.0094029048
 41
2.296409787399737
 42
2.40407731113901
  0
ELLIPSE
  5
278
330
1F
100
AcDbEntity
  8
0
  6
CONTINUOUS
 62
     7
100
AcDbEllipse
 10
1335.7047006589
 20
370.5654756381
 30
0.0
 11
1186.196859209429
 21
0.0
 31
0.0
210
0.0
220
0.0
230
1.0
 40
0.0094029048
 41
3.879107996153583
 42
3.98677551992132
  0
LINE
  5
279
330
1F
100
AcDbEntity
  8
0
  6
CONTINUOUS
 62
     7
100
AcDbLine
 10
457.7509976798
 20
363.0651646806
 30
0.0
 11
457.7509976798
 21
380.1704087807
 31
0.0
  0
LINE
  5
27A
330
1F
100
AcDbEntity
  8
0
  6
CONTINUOUS
 62
     7
100
AcDbLine
 10
457.7509976798
 20
363.0651646806
 30
0.0
 11
457.7509976798
 21
214.0657865955
 31
0.0
  0
LINE
  5
27B
330
1F
100
AcDbEntity
  8
0
  6
CONTINUOUS
 62
     7
100
AcDbLine
 10
455.7509975848
 20
199.0654730751
 30
0.0
 11
455.7509975848
 21
214.0654736711
 31
0.0
  0
LINE
  5
27C
330
1F
100
AcDbEntity
  8
0
  6
CONTINUOUS
 62
     7
100
AcDbLine
 10
455.7509975848
 20
363.065477605
 30
0.0
 11
455.7509975848
 21
378.0654782011
 31
0.0
  0
LINE
  5
27D
330
1F
100
AcDbEntity
  8
0
  6
CONTINUOUS
 62
     7
100
AcDbLine
 10
462.7509975681
 20
196.838345523
 30
0.0
 11
462.7509975681
 21
194.5654788567
 31
0.0
  0
LINE
  5
27E
330
1F
100
AcDbEntity
  8
0
  6
CONTINUOUS
 62
     7
100
AcDbLine
 10
471.7509981119
 20
194.5654788567
 30
0.0
 11
462.7509975681
 21
194.5654788567
 31
0.0
  0
LINE
  5
27F
330
1F
100
AcDbEntity
  8
0
  6
CONTINUOUS
 62
     7
100
AcDbLine
 10
501.7509974414
 20
194.5654788567
 30
0.0
 11
471.7509981119
 21
194.5654788567
 31
0.0
  0
LINE
  5
280
330
1F
100
AcDbEntity
  8
0
  6
CONTINUOUS
 62
     7
100
AcDbLine
 10
510.750997054
 20
195.665251608
 30
0.0
 11
510.750997054
 21
194.5654788567
 31
0.0
  0
LINE
  5
281
330
1F
100
AcDbEntity
  8
0
  6
CONTINUOUS
 62
     7
100
AcDbLine
 10
510.750997054
 20
194.5654788567
 30
0.0
 11
501.7509974414
 21
194.5654788567
 31
0.0
  0
LINE
  5
282
330
1F
100
AcDbEntity
  8
0
  6
CONTINUOUS
 62
     7
100
AcDbLine
 10
462.7509975681
 20
382.5654724194
 30
0.0
 11
471.7509981119
 21
382.5654724194
 31
0.0
  0
LINE
  5
283
330
1F
100
AcDbEntity
  8
0
  6
CONTINUOUS
 62
     7
100
AcDbLine
 10
462.7509975681
 20
380.2926057531
 30
0.0
 11
462.7509975681
 21
382.5654724194
 31
0.0
  0
LINE
  5
284
330
1F
100
AcDbEntity
  8
0
  6
CONTINUOUS
 62
     7
100
AcDbLine
 10
471.7509981119
 20
382.5654724194
 30
0.0
 11
501.7509974414
 21
382.5654724194
 31
0.0
  0
LINE
  5
285
330
1F
100
AcDbEntity
  8
0
  6
CONTINUOUS
 62
     7
100
AcDbLine
 10
510.750997054
 20
381.4656996681
 30
0.0
 11
510.750997054
 21
382.5654724194
 31
0.0
  0
LINE
  5
286
330
1F
100
AcDbEntity
  8
0
  6
CONTINUOUS
 62
     7
100
AcDbLine
 10
501.7509974414
 20
382.5654724194
 30
0.0
 11
510.750997054
 21
382.5654724194
 31
0.0
  0
LINE
  5
287
330
1F
100
AcDbEntity
  8
0
  6
CONTINUOUS
 62
     7
100
AcDbLine
 10
476.5009984249
 20
194.0654778434
 30
0.0
 11
467.000997799
 21
194.0654778434
 31
0.0
  0
LINE
  5
288
330
1F
100
AcDbEntity
  8
0
  6
CONTINUOUS
 62
     7
100
AcDbLine
 10
506.5009958917
 20
194.0654778434
 30
0.0
 11
497.0009989911
 21
194.0654778434
 31
0.0
  0
LINE
  5
289
330
1F
100
AcDbEntity
  8
0
  6
CONTINUOUS
 62
     7
100
AcDbLine
 10
471.7509981119
 20
383.0654734327
 30
0.0
 11
476.5009984249
 21
383.0654734327
 31
0.0
  0
LINE
  5
28A
330
1F
100
AcDbEntity
  8
0
  6
CONTINUOUS
 62
     7
100
AcDbLine
 10
467.000997799
 20
383.0654734327
 30
0.0
 11
471.7509981119
 21
383.0654734327
 31
0.0
  0
LINE
  5
28B
330
1F
100
AcDbEntity
  8
0
  6
CONTINUOUS
 62
     7
100
AcDbLine
 10
501.7509974414
 20
383.0654734327
 30
0.0
 11
506.5009958917
 21
383.0654734327
 31
0.0
  0
LINE
  5
28C
330
1F
100
AcDbEntity
  8
0
  6
CONTINUOUS
 62
     7
100
AcDbLine
 10
497.0009989911
 20
383.0654734327
 30
0.0
 11
501.7509974414
 21
383.0654734327
 31
0.0
  0
LINE
  5
28D
330
1F
100
AcDbEntity
  8
0
  6
CONTINUOUS
 62
     8
100
AcDbLine
 10
471.7509981119
 20
196.6183894826
 30
0.0
 11
471.7509981119
 21
194.5654788567
 31
0.0
  0
LINE
  5
28E
330
1F
100
AcDbEntity
  8
0
  6
CONTINUOUS
 62
     8
100
AcDbLine
 10
501.7509974414
 20
195.8852076484
 30
0.0
 11
501.7509974414
 21
194.5654788567
 31
0.0
  0
LINE
  5
28F
330
1F
100
AcDbEntity
  8
0
  6
CONTINUOUS
 62
     8
100
AcDbLine
 10
471.7509981119
 20
380.5125617935
 30
0.0
 11
471.7509981119
 21
382.5654724194
 31
0.0
  0
LINE
  5
290
330
1F
100
AcDbEntity
  8
0
  6
CONTINUOUS
 62
     8
100
AcDbLine
 10
501.7509974414
 20
381.2457436277
 30
0.0
 11
501.7509974414
 21
382.5654724194
 31
0.0
  0
LINE
  5
291
330
1F
100
AcDbEntity
  8
0
  6
CONTINUOUS
 62
     7
100
AcDbLine
 10
621.2083558869
 20
353.3154764725
 30
0.0
 11
620.7083548736
 21
353.3154764725
 31
0.0
  0
LINE
  5
292
330
1F
100
AcDbEntity
  8
0
  6
CONTINUOUS
 62
     7
100
AcDbLine
 10
620.7083548736
 20
343.8154758467
 30
0.0
 11
621.2083558869
 21
343.8154758467
 31
0.0
  0
LINE
  5
293
330
1F
100
AcDbEntity
  8
0
  6
CONTINUOUS
 62
     7
100
AcDbLine
 10
621.2083558869
 20
233.3154754294
 30
0.0
 11
620.7083548736
 21
233.3154754294
 31
0.0
  0
LINE
  5
294
330
1F
100
AcDbEntity
  8
0
  6
CONTINUOUS
 62
     7
100
AcDbLine
 10
620.7083548736
 20
223.8154748036
 30
0.0
 11
621.2083558869
 21
223.8154748036
 31
0.0
  0
LINE
  5
295
330
1F
100
AcDbEntity
  8
0
  6
CONTINUOUS
 62
     7
100
AcDbLine
 10
659.9583524596
 20
382.5654724194
 30
0.0
 11
659.9583524596
 21
383.0654734327
 31
0.0
  0
LINE
  5
296
330
1F
100
AcDbEntity
  8
0
  6
CONTINUOUS
 62
     7
100
AcDbLine
 10
650.4583518337
 20
383.0654734327
 30
0.0
 11
650.4583518337
 21
382.5654724194
 31
0.0
  0
LINE
  5
297
330
1F
100
AcDbEntity
  8
0
  6
CONTINUOUS
 62
     7
100
AcDbLine
 10
650.4583518337
 20
194.5654788567
 30
0.0
 11
650.4583518337
 21
194.0654778434
 31
0.0
  0
LINE
  5
298
330
1F
100
AcDbEntity
  8
0
  6
CONTINUOUS
 62
     7
100
AcDbLine
 10
659.9583524596
 20
194.0654778434
 30
0.0
 11
659.9583524596
 21
194.5654788567
 31
0.0
  0
LINE
  5
299
330
1F
100
AcDbEntity
  8
0
  6
CONTINUOUS
 62
     7
100
AcDbLine
 10
779.9583535027
 20
382.5654724194
 30
0.0
 11
779.9583535027
 21
383.0654734327
 31
0.0
  0
LINE
  5
29A
330
1F
100
AcDbEntity
  8
0
  6
CONTINUOUS
 62
     7
100
AcDbLine
 10
770.4583528768
 20
383.0654734327
 30
0.0
 11
770.4583528768
 21
382.5654724194
 31
0.0
  0
LINE
  5
29B
330
1F
100
AcDbEntity
  8
0
  6
CONTINUOUS
 62
     7
100
AcDbLine
 10
770.4583528768
 20
194.5654788567
 30
0.0
 11
770.4583528768
 21
194.0654778434
 31
0.0
  0
LINE
  5
29C
330
1F
100
AcDbEntity
  8
0
  6
CONTINUOUS
 62
     7
100
AcDbLine
 10
779.9583535027
 20
194.0654778434
 30
0.0
 11
779.9583535027
 21
194.5654788567
 31
0.0
  0
LINE
  5
29D
330
1F
100
AcDbEntity
  8
0
  6
CONTINUOUS
 62
     7
100
AcDbLine
 10
809.2083494496
 20
343.8154758467
 30
0.0
 11
809.7083504628
 21
343.8154758467
 31
0.0
  0
LINE
  5
29E
330
1F
100
AcDbEntity
  8
0
  6
CONTINUOUS
 62
     7
100
AcDbLine
 10
809.7083504628
 20
353.3154764725
 30
0.0
 11
809.2083494496
 21
353.3154764725
 31
0.0
  0
LINE
  5
29F
330
1F
100
AcDbEntity
  8
0
  6
CONTINUOUS
 62
     7
100
AcDbLine
 10
809.2083494496
 20
223.8154748036
 30
0.0
 11
809.7083504628
 21
223.8154748036
 31
0.0
  0
LINE
  5
2A0
330
1F
100
AcDbEntity
  8
0
  6
CONTINUOUS
 62
     7
100
AcDbLine
 10
809.7083504628
 20
233.3154754294
 30
0.0
 11
809.2083494496
 21
233.3154754294
 31
0.0
  0
CIRCLE
  5
2A1
330
1F
100
AcDbEntity
  8
0
  6
CONTINUOUS
 62
     7
100
AcDbCircle
 10
633.2083526682
 20
370.5654756381
 30
0.0
 40
3.250000000000057
  0
CIRCLE
  5
2A2
330
1F
100
AcDbEntity
  8
0
  6
CONTINUOUS
 62
     7
100
AcDbCircle
 10
633.2083526682
 20
370.5654756381
 30
0.0
 40
7.500000000000057
  0
CIRCLE
  5
2A3
330
1F
100
AcDbEntity
  8
0
  6
CONTINUOUS
 62
     7
100
AcDbCircle
 10
633.2083526682
 20
206.5654756381
 30
0.0
 40
3.250000000000028
  0
CIRCLE
  5
2A4
330
1F
100
AcDbEntity
  8
0
  6
CONTINUOUS
 62
     7
100
AcDbCircle
 10
633.2083526682
 20
206.5654756381
 30
0.0
 40
7.500000000000028
  0
CIRCLE
  5
2A5
330
1F
100
AcDbEntity
  8
0
  6
CONTINUOUS
 62
     7
100
AcDbCircle
 10
797.2083526682
 20
370.5654756381
 30
0.0
 40
3.249999999999943
  0
CIRCLE
  5
2A6
330
1F
100
AcDbEntity
  8
0
  6
CONTINUOUS
 62
     7
100
AcDbCircle
 10
797.2083526682
 20
370.5654756381
 30
0.0
 40
7.5
  0
CIRCLE
  5
2A7
330
1F
100
AcDbEntity
  8
0
  6
CONTINUOUS
 62
     7
100
AcDbCircle
 10
797.2083526682
 20
206.5654756381
 30
0.0
 40
3.249999999999972
  0
CIRCLE
  5
2A8
330
1F
100
AcDbEntity
  8
0
  6
CONTINUOUS
 62
     7
100
AcDbCircle
 10
797.2083526682
 20
206.5654756381
 30
0.0
 40
7.5
  0
ELLIPSE
  5
2A9
330
1F
100
AcDbEntity
  8
0
  6
CONTINUOUS
 62
     7
100
AcDbEllipse
 10
633.2083526682
 20
399.5555024457
 30
0.0
 11
0.0
 21
31.06165792095243
 31
0.0
210
0.0
220
0.0
230
1.0
 40
0.3590824485
 41
3.879107996152299
 42
3.986775519920059
  0
ARC
  5
2AA
330
1F
100
AcDbEntity
  8
0
  6
CONTINUOUS
 62
     7
100
AcDbCircle
 10
633.2083526682
 20
370.5654756381
 30
0.0
 40
9.604931587862383
100
AcDbArc
 50
38.6586379697
 51
231.3413620303
  0
ELLIPSE
  5
2AB
330
1F
100
AcDbEntity
  8
0
  6
CONTINUOUS
 62
     7
100
AcDbEllipse
 10
604.2183258606
 20
370.5654756381
 30
0.0
 11
31.06165792087415
 21
0.0
 31
0.0
210
0.0
220
0.0
230
1.0
 40
0.3590824485
 41
5.438002440848742
 42
5.545669964616636
  0
ARC
  5
2AC
330
1F
100
AcDbEntity
  8
0
  6
CONTINUOUS
 62
     7
100
AcDbCircle
 10
633.2083526682
 20
370.5654756381
 30
0.0
 40
11.82403578940403
100
AcDbArc
 50
45.1154211328
 51
224.8845788672
  0
ELLIPSE
  5
2AD
330
1F
100
AcDbEntity
  8
0
  6
CONTINUOUS
 62
     7
100
AcDbEllipse
 10
604.2183258493
 20
206.5654756381
 30
0.0
 11
31.06165793300568
 21
0.0
 31
0.0
210
0.0
220
0.0
230
1.0
 40
0.3590824485
 41
0.7375153424507808
 42
0.8451828661900566
  0
ARC
  5
2AE
330
1F
100
AcDbEntity
  8
0
  6
CONTINUOUS
 62
     7
100
AcDbCircle
 10
633.2083526682
 20
206.5654756381
 30
0.0
 40
9.60493158942657
100
AcDbArc
 50
128.6586379622
 51
321.3413620378
  0
ELLIPSE
  5
2AF
330
1F
100
AcDbEntity
  8
0
  6
CONTINUOUS
 62
     7
100
AcDbEllipse
 10
633.2083526682
 20
177.5754488191
 30
0.0
 11
0.0
 21
31.06165793308384
 31
0.0
210
0.0
220
0.0
230
1.0
 40
0.3590824485
 41
5.438002440990167
 42
5.545669964729318
  0
ARC
  5
2B0
330
1F
100
AcDbEntity
  8
0
  6
CONTINUOUS
 62
     7
100
AcDbCircle
 10
633.2083526682
 20
206.5654756381
 30
0.0
 40
11.82403579096827
100
AcDbArc
 50
135.1154211252
 51
314.8845788748
  0
ARC
  5
2B1
330
1F
100
AcDbEntity
  8
0
  6
CONTINUOUS
 62
     7
100
AcDbCircle
 10
797.2083526682
 20
370.5654756381
 30
0.0
 40
9.604931587862339
100
AcDbArc
 50
308.6586379697
 51
141.3413620303
  0
LINE
  5
2B2
330
1F
100
AcDbEntity
  8
0
  6
CONTINUOUS
 62
     7
100
AcDbLine
 10
803.2083521914
 20
363.0651646806
 30
0.0
 11
803.2083521914
 21
214.0657865955
 31
0.0
  0
ARC
  5
2B3
330
1F
100
AcDbEntity
  8
0
  6
CONTINUOUS
 62
     7
100
AcDbCircle
 10
797.2083526682
 20
206.5654756381
 30
0.0
 40
9.60493158942657
100
AcDbArc
 50
218.6586379622
 51
51.3413620378
  0
LINE
  5
2B4
330
1F
100
AcDbEntity
  8
0
  6
CONTINUOUS
 62
     7
100
AcDbLine
 10
789.7080417108
 20
200.5654761149
 30
0.0
 11
640.7086636256
 21
200.5654761149
 31
0.0
  0
LINE
  5
2B5
330
1F
100
AcDbEntity
  8
0
  6
CONTINUOUS
 62
     7
100
AcDbLine
 10
627.2083531451
 20
214.0657865955
 30
0.0
 11
627.2083531451
 21
363.0651646806
 31
0.0
  0
LINE
  5
2B6
330
1F
100
AcDbEntity
  8
0
  6
CONTINUOUS
 62
     7
100
AcDbLine
 10
640.7086636256
 20
376.5654751612
 30
0.0
 11
789.7080417108
 21
376.5654751612
 31
0.0
  0
LINE
  5
2B7
330
1F
100
AcDbEntity
  8
0
  6
CONTINUOUS
 62
     7
100
AcDbLine
 10
624.8306717109
 20
214.9094754411
 30
0.0
 11
624.8306717109
 21
219.5654773666
 31
0.0
  0
LINE
  5
2B8
330
1F
100
AcDbEntity
  8
0
  6
CONTINUOUS
 62
     7
100
AcDbLine
 10
624.8306717109
 20
357.5654739095
 30
0.0
 11
624.8306717109
 21
362.221475835
 31
0.0
  0
LINE
  5
2B9
330
1F
100
AcDbEntity
  8
0
  6
CONTINUOUS
 62
     7
100
AcDbLine
 10
627.0774240922
 20
228.5654769792
 30
0.0
 11
627.0774240922
 21
348.5654742969
 31
0.0
  0
ELLIPSE
  5
2BA
330
1F
100
AcDbEntity
  8
0
  6
CONTINUOUS
 62
     7
100
AcDbEllipse
 10
626.8417497662
 20
348.565475638
 30
0.0
 11
0.0
 21
9.0
 31
0.0
210
0.0
220
0.0
230
1.0
 40
0.0261859216
 41
4.71238898038469
 42
6.283185307179586
  0
ELLIPSE
  5
2BB
330
1F
100
AcDbEntity
  8
0
  6
CONTINUOUS
 62
     7
100
AcDbEllipse
 10
626.8417497662
 20
228.565475638
 30
0.0
 11
0.0
 21
9.0
 31
0.0
210
0.0
220
0.0
230
1.0
 40
0.0261859216
 41
3.141592653589789
 42
4.71238898038469
  0
ELLIPSE
  5
2BC
330
1F
100
AcDbEntity
  8
0
  6
CONTINUOUS
 62
     7
100
AcDbEllipse
 10
797.2083526682
 20
177.5754488191
 30
0.0
 11
0.0
 21
31.06165793308384
 31
0.0
210
0.0
220
0.0
230
1.0
 40
0.3590824485
 41
0.7375153424502866
 42
0.8451828661894341
  0
LINE
  5
2BD
330
1F
100
AcDbEntity
  8
0
  6
CONTINUOUS
 62
     7
100
AcDbLine
 10
788.8643528651
 20
198.1877946807
 30
0.0
 11
784.2083509397
 21
198.1877946807
 31
0.0
  0
LINE
  5
2BE
330
1F
100
AcDbEntity
  8
0
  6
CONTINUOUS
 62
     7
100
AcDbLine
 10
646.2083543967
 20
198.1877946807
 30
0.0
 11
641.5523524713
 21
198.1877946807
 31
0.0
  0
LINE
  5
2BF
330
1F
100
AcDbEntity
  8
0
  6
CONTINUOUS
 62
     7
100
AcDbLine
 10
775.2083513271
 20
200.4345470621
 30
0.0
 11
655.2083540093
 21
200.4345470621
 31
0.0
  0
ELLIPSE
  5
2C0
330
1F
100
AcDbEntity
  8
0
  6
CONTINUOUS
 62
     7
100
AcDbEllipse
 10
655.2083526682
 20
200.1988727361
 30
0.0
 11
8.999999999999886
 21
0.0
 31
0.0
210
0.0
220
0.0
230
1.0
 40
0.0261859216
 41
1.570796326794897
 42
3.141592652812893
  0
ELLIPSE
  5
2C1
330
1F
100
AcDbEntity
  8
0
  6
CONTINUOUS
 62
     7
100
AcDbEllipse
 10
775.2083526682
 20
200.1988727361
 30
0.0
 11
9.0
 21
0.0
 31
0.0
210
0.0
220
0.0
230
1.0
 40
0.0261859216
 41
0.0
 42
1.570796326794897
  0
ELLIPSE
  5
2C2
330
1F
100
AcDbEntity
  8
0
  6
CONTINUOUS
 62
     7
100
AcDbEllipse
 10
797.2083526682
 20
399.5555024457
 30
0.0
 11
0.0
 21
31.06165792095237
 31
0.0
210
0.0
220
0.0
230
1.0
 40
0.3590824485
 41
2.296409787259539
 42
2.404077311027312
  0
LINE
  5
2C3
330
1F
100
AcDbEntity
  8
0
  6
CONTINUOUS
 62
     7
100
AcDbLine
 10
641.5523524713
 20
378.9431565954
 30
0.0
 11
646.2083543967
 21
378.9431565954
 31
0.0
  0
LINE
  5
2C4
330
1F
100
AcDbEntity
  8
0
  6
CONTINUOUS
 62
     7
100
AcDbLine
 10
784.2083509397
 20
378.9431565954
 30
0.0
 11
788.8643528651
 21
378.9431565954
 31
0.0
  0
LINE
  5
2C5
330
1F
100
AcDbEntity
  8
0
  6
CONTINUOUS
 62
     7
100
AcDbLine
 10
655.2083540093
 20
376.696404214
 30
0.0
 11
775.2083513271
 21
376.696404214
 31
0.0
  0
ELLIPSE
  5
2C6
330
1F
100
AcDbEntity
  8
0
  6
CONTINUOUS
 62
     7
100
AcDbEllipse
 10
775.2083526682
 20
376.93207854
 30
0.0
 11
9.000000000000114
 21
0.0
 31
0.0
210
0.0
220
0.0
230
1.0
 40
0.0261859216
 41
4.71238898038469
 42
6.283185307179586
  0
ELLIPSE
  5
2C7
330
1F
100
AcDbEntity
  8
0
  6
CONTINUOUS
 62
     7
100
AcDbEllipse
 10
655.2083526682
 20
376.93207854
 30
0.0
 11
9.0
 21
0.0
 31
0.0
210
0.0
220
0.0
230
1.0
 40
0.0261859216
 41
3.141592653589789
 42
4.71238898038469
  0
ELLIPSE
  5
2C8
330
1F
100
AcDbEntity
  8
0
  6
CONTINUOUS
 62
     7
100
AcDbEllipse
 10
826.1983794758
 20
370.5654756381
 30
0.0
 11
31.06165792087415
 21
0.0
 31
0.0
210
0.0
220
0.0
230
1.0
 40
0.3590824485
 41
3.879107996152793
 42
3.986775519920685
  0
ARC
  5
2C9
330
1F
100
AcDbEntity
  8
0
  6
CONTINUOUS
 62
     7
100
AcDbCircle
 10
797.2083526682
 20
370.5654756381
 30
0.0
 40
11.82403578940403
100
AcDbArc
 50
315.1154211328
 51
134.8845788672
  0
ELLIPSE
  5
2CA
330
1F
100
AcDbEntity
  8
0
  6
CONTINUOUS
 62
     7
100
AcDbEllipse
 10
826.1983794871
 20
206.5654756381
 30
0.0
 11
31.06165793300556
 21
0.0
 31
0.0
210
0.0
220
0.0
230
1.0
 40
0.3590824485
 41
2.296409787399741
 42
2.404077311139017
  0
ARC
  5
2CB
330
1F
100
AcDbEntity
  8
0
  6
CONTINUOUS
 62
     7
100
AcDbCircle
 10
797.2083526682
 20
206.5654756381
 30
0.0
 40
11.82403579096827
100
AcDbArc
 50
225.1154211252
 51
44.8845788748
  0
LINE
  5
2CC
330
1F
100
AcDbEntity
  8
0
  6
CONTINUOUS
 62
     7
100
AcDbLine
 10
805.5860336255
 20
362.221475835
 30
0.0
 11
805.5860336255
 21
357.5654739095
 31
0.0
  0
LINE
  5
2CD
330
1F
100
AcDbEntity
  8
0
  6
CONTINUOUS
 62
     7
100
AcDbLine
 10
805.5860336255
 20
219.5654773666
 30
0.0
 11
805.5860336255
 21
214.9094754411
 31
0.0
  0
LINE
  5
2CE
330
1F
100
AcDbEntity
  8
0
  6
CONTINUOUS
 62
     7
100
AcDbLine
 10
803.3392812442
 20
348.5654742969
 30
0.0
 11
803.3392812442
 21
228.5654769792
 31
0.0
  0
ELLIPSE
  5
2CF
330
1F
100
AcDbEntity
  8
0
  6
CONTINUOUS
 62
     7
100
AcDbEllipse
 10
803.5749555702
 20
228.5654756381
 30
0.0
 11
0.0
 21
9.0
 31
0.0
210
0.0
220
0.0
230
1.0
 40
0.0261859216
 41
1.570796326794897
 42
3.141592653295532
  0
ELLIPSE
  5
2D0
330
1F
100
AcDbEntity
  8
0
  6
CONTINUOUS
 62
     7
100
AcDbEllipse
 10
803.5749555702
 20
348.5654756381
 30
0.0
 11
0.0
 21
9.0
 31
0.0
210
0.0
220
0.0
230
1.0
 40
0.0261859216
 41
0.0
 42
1.570796326794897
  0
LINE
  5
2D1
330
1F
100
AcDbEntity
  8
0
  6
CONTINUOUS
 62
     7
100
AcDbLine
 10
621.2083558869
 20
228.5654769792
 30
0.0
 11
621.2083558869
 21
348.5654742969
 31
0.0
  0
LINE
  5
2D2
330
1F
100
AcDbEntity
  8
0
  6
CONTINUOUS
 62
     7
100
AcDbLine
 10
627.0774240922
 20
348.5654742969
 30
0.0
 11
621.2083558869
 21
348.5654742969
 31
0.0
  0
LINE
  5
2D3
330
1F
100
AcDbEntity
  8
0
  6
CONTINUOUS
 62
     7
100
AcDbLine
 10
627.0774240922
 20
228.5654769792
 30
0.0
 11
621.2083558869
 21
228.5654769792
 31
0.0
  0
LINE
  5
2D4
330
1F
100
AcDbEntity
  8
0
  6
CONTINUOUS
 62
     7
100
AcDbLine
 10
626.8417473268
 20
219.5654773666
 30
0.0
 11
621.2083558869
 21
219.5654773666
 31
0.0
  0
LINE
  5
2D5
330
1F
100
AcDbEntity
  8
0
  6
CONTINUOUS
 62
     7
100
AcDbLine
 10
621.2083558869
 20
219.5654773666
 30
0.0
 11
621.2083558869
 21
228.5654769792
 31
0.0
  0
LINE
  5
2D6
330
1F
100
AcDbEntity
  8
0
  6
CONTINUOUS
 62
     7
100
AcDbLine
 10
626.8417473268
 20
357.5654739095
 30
0.0
 11
621.2083558869
 21
357.5654739095
 31
0.0
  0
LINE
  5
2D7
330
1F
100
AcDbEntity
  8
0
  6
CONTINUOUS
 62
     7
100
AcDbLine
 10
621.2083558869
 20
348.5654742969
 30
0.0
 11
621.2083558869
 21
357.5654739095
 31
0.0
  0
LINE
  5
2D8
330
1F
100
AcDbEntity
  8
0
  6
CONTINUOUS
 62
     7
100
AcDbLine
 10
655.2083540093
 20
376.696404214
 30
0.0
 11
655.2083540093
 21
382.5654724194
 31
0.0
  0
LINE
  5
2D9
330
1F
100
AcDbEntity
  8
0
  6
CONTINUOUS
 62
     7
100
AcDbLine
 10
646.2083543967
 20
376.9320809795
 30
0.0
 11
646.2083543967
 21
382.5654724194
 31
0.0
  0
LINE
  5
2DA
330
1F
100
AcDbEntity
  8
0
  6
CONTINUOUS
 62
     7
100
AcDbLine
 10
646.2083543967
 20
382.5654724194
 30
0.0
 11
655.2083540093
 21
382.5654724194
 31
0.0
  0
LINE
  5
2DB
330
1F
100
AcDbEntity
  8
0
  6
CONTINUOUS
 62
     7
100
AcDbLine
 10
646.2083543967
 20
200.1988702966
 30
0.0
 11
646.2083543967
 21
194.5654788567
 31
0.0
  0
LINE
  5
2DC
330
1F
100
AcDbEntity
  8
0
  6
CONTINUOUS
 62
     7
100
AcDbLine
 10
655.2083540093
 20
200.4345470621
 30
0.0
 11
655.2083540093
 21
194.5654788567
 31
0.0
  0
LINE
  5
2DD
330
1F
100
AcDbEntity
  8
0
  6
CONTINUOUS
 62
     7
100
AcDbLine
 10
655.2083540093
 20
194.5654788567
 30
0.0
 11
646.2083543967
 21
194.5654788567
 31
0.0
  0
LINE
  5
2DE
330
1F
100
AcDbEntity
  8
0
  6
CONTINUOUS
 62
     7
100
AcDbLine
 10
775.2083513271
 20
376.696404214
 30
0.0
 11
775.2083513271
 21
382.5654724194
 31
0.0
  0
LINE
  5
2DF
330
1F
100
AcDbEntity
  8
0
  6
CONTINUOUS
 62
     7
100
AcDbLine
 10
655.2083540093
 20
382.5654724194
 30
0.0
 11
775.2083513271
 21
382.5654724194
 31
0.0
  0
LINE
  5
2E0
330
1F
100
AcDbEntity
  8
0
  6
CONTINUOUS
 62
     7
100
AcDbLine
 10
775.2083513271
 20
200.4345470621
 30
0.0
 11
775.2083513271
 21
194.5654788567
 31
0.0
  0
LINE
  5
2E1
330
1F
100
AcDbEntity
  8
0
  6
CONTINUOUS
 62
     7
100
AcDbLine
 10
775.2083513271
 20
194.5654788567
 30
0.0
 11
655.2083540093
 21
194.5654788567
 31
0.0
  0
LINE
  5
2E2
330
1F
100
AcDbEntity
  8
0
  6
CONTINUOUS
 62
     7
100
AcDbLine
 10
784.2083509397
 20
200.1988702966
 30
0.0
 11
784.2083509397
 21
194.5654788567
 31
0.0
  0
LINE
  5
2E3
330
1F
100
AcDbEntity
  8
0
  6
CONTINUOUS
 62
     7
100
AcDbLine
 10
784.2083509397
 20
194.5654788567
 30
0.0
 11
775.2083513271
 21
194.5654788567
 31
0.0
  0
LINE
  5
2E4
330
1F
100
AcDbEntity
  8
0
  6
CONTINUOUS
 62
     7
100
AcDbLine
 10
784.2083509397
 20
376.9320809795
 30
0.0
 11
784.2083509397
 21
382.5654724194
 31
0.0
  0
LINE
  5
2E5
330
1F
100
AcDbEntity
  8
0
  6
CONTINUOUS
 62
     7
100
AcDbLine
 10
775.2083513271
 20
382.5654724194
 30
0.0
 11
784.2083509397
 21
382.5654724194
 31
0.0
  0
LINE
  5
2E6
330
1F
100
AcDbEntity
  8
0
  6
CONTINUOUS
 62
     7
100
AcDbLine
 10
809.2083494496
 20
357.5654739095
 30
0.0
 11
809.2083494496
 21
348.5654742969
 31
0.0
  0
LINE
  5
2E7
330
1F
100
AcDbEntity
  8
0
  6
CONTINUOUS
 62
     7
100
AcDbLine
 10
803.3392812442
 20
348.5654742969
 30
0.0
 11
809.2083494496
 21
348.5654742969
 31
0.0
  0
LINE
  5
2E8
330
1F
100
AcDbEntity
  8
0
  6
CONTINUOUS
 62
     7
100
AcDbLine
 10
803.5749580096
 20
357.5654739095
 30
0.0
 11
809.2083494496
 21
357.5654739095
 31
0.0
  0
LINE
  5
2E9
330
1F
100
AcDbEntity
  8
0
  6
CONTINUOUS
 62
     7
100
AcDbLine
 10
809.2083494496
 20
348.5654742969
 30
0.0
 11
809.2083494496
 21
228.5654769792
 31
0.0
  0
LINE
  5
2EA
330
1F
100
AcDbEntity
  8
0
  6
CONTINUOUS
 62
     7
100
AcDbLine
 10
803.3392812442
 20
228.5654769792
 30
0.0
 11
809.2083494496
 21
228.5654769792
 31
0.0
  0
LINE
  5
2EB
330
1F
100
AcDbEntity
  8
0
  6
CONTINUOUS
 62
     7
100
AcDbLine
 10
809.2083494496
 20
228.5654769792
 30
0.0
 11
809.2083494496
 21
219.5654773666
 31
0.0
  0
LINE
  5
2EC
330
1F
100
AcDbEntity
  8
0
  6
CONTINUOUS
 62
     7
100
AcDbLine
 10
803.5749580096
 20
219.5654773666
 30
0.0
 11
809.2083494496
 21
219.5654773666
 31
0.0
  0
LINE
  5
2ED
330
1F
100
AcDbEntity
  8
0
  6
CONTINUOUS
 62
     7
100
AcDbLine
 10
620.7083548736
 20
343.8154758467
 30
0.0
 11
620.7083548736
 21
353.3154764725
 31
0.0
  0
LINE
  5
2EE
330
1F
100
AcDbEntity
  8
0
  6
CONTINUOUS
 62
     7
100
AcDbLine
 10
620.7083548736
 20
223.8154748036
 30
0.0
 11
620.7083548736
 21
233.3154754294
 31
0.0
  0
LINE
  5
2EF
330
1F
100
AcDbEntity
  8
0
  6
CONTINUOUS
 62
     7
100
AcDbLine
 10
650.4583518337
 20
383.0654734327
 30
0.0
 11
659.9583524596
 21
383.0654734327
 31
0.0
  0
LINE
  5
2F0
330
1F
100
AcDbEntity
  8
0
  6
CONTINUOUS
 62
     7
100
AcDbLine
 10
659.9583524596
 20
194.0654778434
 30
0.0
 11
650.4583518337
 21
194.0654778434
 31
0.0
  0
LINE
  5
2F1
330
1F
100
AcDbEntity
  8
0
  6
CONTINUOUS
 62
     7
100
AcDbLine
 10
770.4583528768
 20
383.0654734327
 30
0.0
 11
779.9583535027
 21
383.0654734327
 31
0.0
  0
LINE
  5
2F2
330
1F
100
AcDbEntity
  8
0
  6
CONTINUOUS
 62
     7
100
AcDbLine
 10
779.9583535027
 20
194.0654778434
 30
0.0
 11
770.4583528768
 21
194.0654778434
 31
0.0
  0
LINE
  5
2F3
330
1F
100
AcDbEntity
  8
0
  6
CONTINUOUS
 62
     7
100
AcDbLine
 10
809.7083504628
 20
353.3154764725
 30
0.0
 11
809.7083504628
 21
343.8154758467
 31
0.0
  0
LINE
  5
2F4
330
1F
100
AcDbEntity
  8
0
  6
CONTINUOUS
 62
     7
100
AcDbLine
 10
809.7083504628
 20
233.3154754294
 30
0.0
 11
809.7083504628
 21
223.8154748036
 31
0.0
  0
LINE
  5
2F5
330
1F
100
AcDbEntity
  8
0
  6
CONTINUOUS
 62
     7
100
AcDbLine
 10
797.2083549332
 20
194.5654788567
 30
0.0
 11
784.2083509397
 21
194.5654788567
 31
0.0
  0
LINE
  5
2F6
330
1F
100
AcDbEntity
  8
0
  6
CONTINUOUS
 62
     7
100
AcDbLine
 10
646.2083543967
 20
194.5654788567
 30
0.0
 11
633.2083504032
 21
194.5654788567
 31
0.0
  0
ARC
  5
2F7
330
1F
100
AcDbEntity
  8
0
  6
CONTINUOUS
 62
     7
100
AcDbCircle
 10
633.2083526682
 20
206.5654756381
 30
0.0
 40
12.00000000078217
100
AcDbArc
 50
180.0
 51
270.0
  0
LINE
  5
2F8
330
1F
100
AcDbEntity
  8
0
  6
CONTINUOUS
 62
     7
100
AcDbLine
 10
621.2083558869
 20
206.5654733731
 30
0.0
 11
621.2083558869
 21
219.5654773666
 31
0.0
  0
LINE
  5
2F9
330
1F
100
AcDbEntity
  8
0
  6
CONTINUOUS
 62
     7
100
AcDbLine
 10
621.2083558869
 20
357.5654739095
 30
0.0
 11
621.2083558869
 21
370.565477903
 31
0.0
  0
ARC
  5
2FA
330
1F
100
AcDbEntity
  8
0
  6
CONTINUOUS
 62
     7
100
AcDbCircle
 10
633.2083526682
 20
370.5654756381
 30
0.0
 40
12.00000000078217
100
AcDbArc
 50
90.0
 51
180.0
  0
LINE
  5
2FB
330
1F
100
AcDbEntity
  8
0
  6
CONTINUOUS
 62
     7
100
AcDbLine
 10
633.2083504032
 20
382.5654724194
 30
0.0
 11
646.2083543967
 21
382.5654724194
 31
0.0
  0
LINE
  5
2FC
330
1F
100
AcDbEntity
  8
0
  6
CONTINUOUS
 62
     7
100
AcDbLine
 10
784.2083509397
 20
382.5654724194
 30
0.0
 11
797.2083549332
 21
382.5654724194
 31
0.0
  0
ARC
  5
2FD
330
1F
100
AcDbEntity
  8
0
  6
CONTINUOUS
 62
     7
100
AcDbCircle
 10
797.2083526682
 20
370.5654756381
 30
0.0
 40
12.00000000078217
100
AcDbArc
 50
0.0
 51
90.0
  0
LINE
  5
2FE
330
1F
100
AcDbEntity
  8
0
  6
CONTINUOUS
 62
     7
100
AcDbLine
 10
809.2083494496
 20
370.565477903
 30
0.0
 11
809.2083494496
 21
357.5654739095
 31
0.0
  0
LINE
  5
2FF
330
1F
100
AcDbEntity
  8
0
  6
CONTINUOUS
 62
     7
100
AcDbLine
 10
809.2083494496
 20
219.5654773666
 30
0.0
 11
809.2083494496
 21
206.5654733731
 31
0.0
  0
ARC
  5
300
330
1F
100
AcDbEntity
  8
0
  6
CONTINUOUS
 62
     7
100
AcDbCircle
 10
797.2083526682
 20
206.5654756381
 30
0.0
 40
12.00000000078217
100
AcDbArc
 50
270.0
 51
0.0
  0
ENDSEC
  0
SECTION
  2
OBJECTS
  0
DICTIONARY
  5
C
330
0
100
AcDbDictionary
  3
ACAD_GROUP
350
D
  3
ACAD_MLINESTYLE
350
17
  0
DICTIONARY
  5
D
102
{ACAD_REACTORS
330
C
102
}
330
C
100
AcDbDictionary
  0
DICTIONARY
  5
17
102
{ACAD_REACTORS
330
C
102
}
330
C
100
AcDbDictionary
  3
STANDARD
350
18
  0
MLINESTYLE
  5
18
102
{ACAD_REACTORS
330
17
102
}
330
17
100
AcDbMlineStyle
  2
Standard
 70
     0
  3

 62
   256
 51
90.0
 52
90.0
 71
     2
 49
0.5
 62
   256
  6
BYLAYER
 49
-0.5
 62
   256
  6
BYLAYER
  0
ENDSEC
  0
EOF
