  0
SECTION
  2
HEADER
  9
$ACADVER
  1
AC1014
  9
$ACADMAINTVER
 70
     9
  9
$DWGCODEPAGE
  3
ANSI_1252
  9
$INSBASE
 10
0.0
 20
0.0
 30
0.0
  9
$EXTMIN
 10
0.0
 20
0.0
 30
0.0
  9
$EXTMAX
 10
840.0
 20
594.0
 30
0.0
  9
$LIMMIN
 10
0.0
 20
0.0
  9
$LIMMAX
 10
840.0
 20
594.0
  9
$ORTHOMODE
 70
     0
  9
$REGENMODE
 70
     1
  9
$FILLMODE
 70
     1
  9
$QTEXTMODE
 70
     0
  9
$MIRRTEXT
 70
     1
  9
$DRAGMODE
 70
     2
  9
$LTSCALE
 40
2.0
  9
$OSMODE
 70
    37
  9
$ATTMODE
 70
     1
  9
$TEXTSIZE
 40
7.0
  9
$TRACEWID
 40
1.0
  9
$TEXTSTYLE
  7
STANDARD
  9
$CLAYER
  8
0
  9
$CELTYPE
  6
BYLAYER
  9
$CECOLOR
 62
   256
  9
$CELTSCALE
 40
1.0
  9
$DELOBJ
 70
     1
  9
$DISPSILH
 70
     0
  9
$DIMSCALE
 40
1.0
  9
$DIMASZ
 40
12.0
  9
$DIMEXO
 40
2.0
  9
$DIMDLI
 40
3.75
  9
$DIMRND
 40
0.0
  9
$DIMDLE
 40
0.0
  9
$DIMEXE
 40
2.0
  9
$DIMTP
 40
0.0
  9
$DIMTM
 40
0.0
  9
$DIMTXT
 40
7.0
  9
$DIMCEN
 40
2.5
  9
$DIMTSZ
 40
0.0
  9
$DIMTOL
 70
     0
  9
$DIMLIM
 70
     0
  9
$DIMTIH
 70
     1
  9
$DIMTOH
 70
     1
  9
$DIMSE1
 70
     0
  9
$DIMSE2
 70
     0
  9
$DIMTAD
 70
     1
  9
$DIMZIN
 70
     0
  9
$DIMBLK
  1

  9
$DIMASO
 70
     1
  9
$DIMSHO
 70
     1
  9
$DIMPOST
  1

  9
$DIMAPOST
  1

  9
$DIMALT
 70
     0
  9
$DIMALTD
 70
     3
  9
$DIMALTF
 40
0.0393700787
  9
$DIMLFAC
 40
1.0
  9
$DIMTOFL
 70
     1
  9
$DIMTVP
 40
0.0
  9
$DIMTIX
 70
     0
  9
$DIMSOXD
 70
     0
  9
$DIMSAH
 70
     0
  9
$DIMBLK1
  1

  9
$DIMBLK2
  1

  9
$DIMSTYLE
  2
ISO-25
  9
$DIMCLRD
 70
     0
  9
$DIMCLRE
 70
     0
  9
$DIMCLRT
 70
     0
  9
$DIMTFAC
 40
1.0
  9
$DIMGAP
 40
3.048
  9
$DIMJUST
 70
     0
  9
$DIMSD1
 70
     0
  9
$DIMSD2
 70
     0
  9
$DIMTOLJ
 70
     0
  9
$DIMTZIN
 70
     0
  9
$DIMALTZ
 70
     0
  9
$DIMALTTZ
 70
     0
  9
$DIMFIT
 70
     3
  9
$DIMUPT
 70
     0
  9
$DIMUNIT
 70
     2
  9
$DIMDEC
 70
     2
  9
$DIMTDEC
 70
     2
  9
$DIMALTU
 70
     2
  9
$DIMALTTD
 70
     3
  9
$DIMTXSTY
  7
STANDARD
  9
$DIMAUNIT
 70
     0
  9
$LUNITS
 70
     2
  9
$LUPREC
 70
     2
  9
$SKETCHINC
 40
1.0
  9
$FILLETRAD
 40
10.0
  9
$AUNITS
 70
     0
  9
$AUPREC
 70
     2
  9
$MENU
  1
.
  9
$ELEVATION
 40
0.0
  9
$PELEVATION
 40
0.0
  9
$THICKNESS
 40
0.0
  9
$LIMCHECK
 70
     0
  9
$CHAMFERA
 40
10.0
  9
$CHAMFERB
 40
10.0
  9
$CHAMFERC
 40
20.0
  9
$CHAMFERD
 40
0.0
  9
$SKPOLY
 70
     0
  9
$TDCREATE
 40
2456120.614843287
  9
$TDUPDATE
 40
2456120.614843299
  9
$TDINDWG
 40
0.0000000116
  9
$TDUSRTIMER
 40
0.0000000116
  9
$USRTIMER
 70
     1
  9
$ANGBASE
 50
0.0
  9
$ANGDIR
 70
     0
  9
$PDMODE
 70
     0
  9
$PDSIZE
 40
-1.0
  9
$PLINEWID
 40
0.0
  9
$COORDS
 70
     1
  9
$SPLFRAME
 70
     0
  9
$SPLINETYPE
 70
     6
  9
$SPLINESEGS
 70
     8
  9
$ATTDIA
 70
     0
  9
$ATTREQ
 70
     1
  9
$HANDLING
 70
     1
  9
$HANDSEED
  5
634
  9
$SURFTAB1
 70
     6
  9
$SURFTAB2
 70
     6
  9
$SURFTYPE
 70
     6
  9
$SURFU
 70
     6
  9
$SURFV
 70
     6
  9
$UCSNAME
  2

  9
$UCSORG
 10
0.0
 20
0.0
 30
0.0
  9
$UCSXDIR
 10
1.0
 20
0.0
 30
0.0
  9
$UCSYDIR
 10
0.0
 20
1.0
 30
0.0
  9
$PUCSNAME
  2

  9
$PUCSORG
 10
0.0
 20
0.0
 30
0.0
  9
$PUCSXDIR
 10
1.0
 20
0.0
 30
0.0
  9
$PUCSYDIR
 10
0.0
 20
1.0
 30
0.0
  9
$USERI1
 70
     0
  9
$USERI2
 70
     0
  9
$USERI3
 70
     0
  9
$USERI4
 70
     0
  9
$USERI5
 70
     0
  9
$USERR1
 40
0.0
  9
$USERR2
 40
0.0
  9
$USERR3
 40
0.0
  9
$USERR4
 40
0.0
  9
$USERR5
 40
0.0
  9
$WORLDVIEW
 70
     1
  9
$SHADEDGE
 70
     3
  9
$SHADEDIF
 70
    70
  9
$TILEMODE
 70
     1
  9
$MAXACTVP
 70
    64
  9
$PINSBASE
 10
0.0
 20
0.0
 30
0.0
  9
$PLIMCHECK
 70
     0
  9
$PEXTMIN
 10
1.0000000000E+20
 20
1.0000000000E+20
 30
1.0000000000E+20
  9
$PEXTMAX
 10
-1.0000000000E+20
 20
-1.0000000000E+20
 30
-1.0000000000E+20
  9
$PLIMMIN
 10
0.0
 20
0.0
  9
$PLIMMAX
 10
420.0
 20
297.0
  9
$UNITMODE
 70
     0
  9
$VISRETAIN
 70
     1
  9
$PLINEGEN
 70
     0
  9
$PSLTSCALE
 70
     1
  9
$TREEDEPTH
 70
  3020
  9
$PICKSTYLE
 70
     1
  9
$CMLSTYLE
  2
STANDARD
  9
$CMLJUST
 70
     0
  9
$CMLSCALE
 40
20.0
  9
$PROXYGRAPHICS
 70
     1
  9
$MEASUREMENT
 70
     1
  0
ENDSEC
  0
SECTION
  2
CLASSES
  0
CLASS
  1
ACDBDICTIONARYWDFLT
  2
AcDbDictionaryWithDefault
  3
ObjectDBX Classes
 90
        0
280
     0
281
     0
  0
CLASS
  1
VISUALSTYLE
  2
AcDbVisualStyle
  3
ObjectDBX Classes
 90
     4095
280
     0
281
     0
  0
CLASS
  1
MATERIAL
  2
AcDbMaterial
  3
ObjectDBX Classes
 90
     1153
280
     0
281
     0
  0
CLASS
  1
XRECORD
  2
AcDbXrecord
  3
AutoCAD 2000
 90
        0
280
     0
281
     0
  0
CLASS
  1
LWPOLYLINE
  2
AcDbPolyline
  3
AutoCAD 2000
 90
        0
280
     0
281
     1
  0
CLASS
  1
HATCH
  2
AcDbHatch
  3
AutoCAD 2000
 90
        0
280
     0
281
     1
  0
ENDSEC
  0
SECTION
  2
TABLES
  0
TABLE
  2
VPORT
  5
8
330
0
100
AcDbSymbolTable
 70
     1
  0
VPORT
  5
29
330
8
100
AcDbSymbolTableRecord
100
AcDbViewportTableRecord
  2
*ACTIVE
 70
     0
 10
0.0
 20
0.0
 11
1.0
 21
1.0
 12
420.0
 22
297.0
 13
0.0
 23
0.0
 14
10.0
 24
10.0
 15
10.0
 25
10.0
 16
0.0
 26
0.0
 36
1.0
 17
0.0
 27
0.0
 37
0.0
 40
594.0
 41
1.4141414141
 42
50.0
 43
0.0
 44
0.0
 50
0.0
 51
0.0
 71
     0
 72
  2000
 73
     1
 74
     3
 75
     0
 76
     0
 77
     0
 78
     0
  0
ENDTAB
  0
TABLE
  2
LTYPE
  5
5
330
0
100
AcDbSymbolTable
 70
     6
  0
LTYPE
  5
14
330
5
100
AcDbSymbolTableRecord
100
AcDbLinetypeTableRecord
  2
BYBLOCK
 70
     0
  3

 72
    65
 73
     0
 40
0.0
  0
LTYPE
  5
15
330
5
100
AcDbSymbolTableRecord
100
AcDbLinetypeTableRecord
  2
BYLAYER
 70
     0
  3

 72
    65
 73
     0
 40
0.0
  0
LTYPE
  5
16
330
5
100
AcDbSymbolTableRecord
100
AcDbLinetypeTableRecord
  2
CONTINUOUS
 70
     0
  3
Solid line
 72
    65
 73
     0
 40
0.0
  0
LTYPE
  5
3F
330
5
100
AcDbSymbolTableRecord
100
AcDbLinetypeTableRecord
  2
HIDDEN
 70
     0
  3
Hidden __ __ __ __ __ __ __ __ __ __ __ __ __ __
 72
    65
 73
     2
 40
1.905
 49
1.27
 74
     0
 49
-0.635
 74
     0
  0
LTYPE
  5
40
330
5
100
AcDbSymbolTableRecord
100
AcDbLinetypeTableRecord
  2
PHANTOM
 70
     0
  3
Phantom ______  __  __  ______  __  __  ______
 72
    65
 73
     6
 40
12.7
 49
6.35
 74
     0
 49
-1.27
 74
     0
 49
1.27
 74
     0
 49
-1.27
 74
     0
 49
1.27
 74
     0
 49
-1.27
 74
     0
  0
LTYPE
  5
41
330
5
100
AcDbSymbolTableRecord
100
AcDbLinetypeTableRecord
  2
CENTER
 70
     0
  3
Center ____ _ ____ _ ____ _ ____ _ ____ _ ____
 72
    65
 73
     4
 40
10.16
 49
6.35
 74
     0
 49
-1.27
 74
     0
 49
1.27
 74
     0
 49
-1.27
 74
     0
  0
LTYPE
  5
42
330
5
100
AcDbSymbolTableRecord
100
AcDbLinetypeTableRecord
  2
CENTERX2
 70
     0
  3
Center (2x) ________  __  ________  __  _____
 72
    65
 73
     4
 40
20.32
 49
12.7
 74
     0
 49
-2.54
 74
     0
 49
2.54
 74
     0
 49
-2.54
 74
     0
  0
LTYPE
  5
43
330
5
100
AcDbSymbolTableRecord
100
AcDbLinetypeTableRecord
  2
DOT2
 70
     0
  3
Dot (.5x) ........................................
 72
    65
 73
     2
 40
0.635
 49
0.0
 74
     0
 49
-0.635
 74
     0
  0
ENDTAB
  0
TABLE
  2
LAYER
  5
2
330
0
100
AcDbSymbolTable
 70
     1
  0
LAYER
  5
10
330
2
100
AcDbSymbolTableRecord
100
AcDbLayerTableRecord
  2
0
 70
     0
 62
     7
  6
CONTINUOUS
  0
ENDTAB
  0
TABLE
  2
STYLE
  5
3
330
0
100
AcDbSymbolTable
 70
     1
  0
STYLE
  5
11
330
3
100
AcDbSymbolTableRecord
100
AcDbTextStyleTableRecord
  2
STANDARD
 70
     0
 40
0.0
 41
1.0
 50
0.0
 71
     0
 42
2.5
  3
txt
  4

  0
ENDTAB
  0
TABLE
  2
VIEW
  5
6
330
0
100
AcDbSymbolTable
 70
     0
  0
ENDTAB
  0
TABLE
  2
UCS
  5
7
330
0
100
AcDbSymbolTable
 70
     0
  0
ENDTAB
  0
TABLE
  2
APPID
  5
9
330
0
100
AcDbSymbolTable
 70
     1
  0
APPID
  5
12
330
9
100
AcDbSymbolTableRecord
100
AcDbRegAppTableRecord
  2
ACAD
 70
     0
  0
ENDTAB
  0
TABLE
  2
DIMSTYLE
  5
A
330
0
100
AcDbSymbolTable
 70
     1
  0
DIMSTYLE
105
27
330
A
100
AcDbSymbolTableRecord
100
AcDbDimStyleTableRecord
  2
ISO-25
 70
     0
  3

  4

  5

  6

  7

 40
1.0
 41
2.5
 42
0.625
 43
3.75
 44
1.25
 45
0.0
 46
0.0
 47
0.0
 48
0.0
140
2.5
141
2.5
142
0.0
143
0.0393700787
144
1.0
145
0.0
146
1.0
147
0.625
 71
     0
 72
     0
 73
     0
 74
     0
 75
     0
 76
     0
 77
     1
 78
     8
170
     0
171
     3
172
     1
173
     0
174
     0
175
     0
176
     0
177
     0
178
     0
270
     2
271
     2
272
     2
273
     2
274
     3
340
11
275
     0
280
     0
281
     0
282
     0
283
     0
284
     8
285
     0
286
     0
287
     3
288
     0
  0
ENDTAB
  0
TABLE
  2
BLOCK_RECORD
  5
1
330
0
100
AcDbSymbolTable
 70
     1
  0
BLOCK_RECORD
  5
1F
330
1
100
AcDbSymbolTableRecord
100
AcDbBlockTableRecord
  2
*MODEL_SPACE
  0
BLOCK_RECORD
  5
1B
330
1
100
AcDbSymbolTableRecord
100
AcDbBlockTableRecord
  2
*PAPER_SPACE
  0
BLOCK_RECORD
  5
23
330
1
100
AcDbSymbolTableRecord
100
AcDbBlockTableRecord
  2
*PAPER_SPACE0
  0
ENDTAB
  0
ENDSEC
  0
SECTION
  2
BLOCKS
  0
BLOCK
  5
20
330
1F
100
AcDbEntity
  8
0
100
AcDbBlockBegin
  2
*MODEL_SPACE
 70
     0
 10
0.0
 20
0.0
 30
0.0
  3
*MODEL_SPACE
  1

  0
ENDBLK
  5
21
330
1F
100
AcDbEntity
  8
0
100
AcDbBlockEnd
  0
BLOCK
  5
1C
330
1B
100
AcDbEntity
 67
     1
  8
0
100
AcDbBlockBegin
  2
*PAPER_SPACE
 70
     0
 10
0.0
 20
0.0
 30
0.0
  3
*PAPER_SPACE
  1

  0
ENDBLK
  5
1D
330
1B
100
AcDbEntity
 67
     1
  8
0
100
AcDbBlockEnd
  0
BLOCK
  5
24
330
23
100
AcDbEntity
  8
0
100
AcDbBlockBegin
  2
*PAPER_SPACE0
 70
     0
 10
0.0
 20
0.0
 30
0.0
  3
*PAPER_SPACE0
  1

  0
ENDBLK
  5
25
330
23
100
AcDbEntity
  8
0
100
AcDbBlockEnd
  0
ENDSEC
  0
SECTION
  2
ENTITIES
  0
LINE
  5
44
330
1F
100
AcDbEntity
  8
0
  6
CONTINUOUS
 62
     7
100
AcDbLine
 10
538.0451748544
 20
490.9828685639
 30
0.0
 11
538.0451748544
 21
483.1812240598
 31
0.0
  0
LINE
  5
45
330
1F
100
AcDbEntity
  8
0
  6
CONTINUOUS
 62
     7
100
AcDbLine
 10
543.7673325116
 20
490.9828685639
 30
0.0
 11
538.0451748544
 21
490.9828685639
 31
0.0
  0
LINE
  5
46
330
1F
100
AcDbEntity
  8
0
  6
CONTINUOUS
 62
     7
100
AcDbLine
 10
543.7673325116
 20
490.9828685639
 30
0.0
 11
544.176198023
 21
483.1812240598
 31
0.0
  0
LINE
  5
47
330
1F
100
AcDbEntity
  8
0
  6
CONTINUOUS
 62
     7
100
AcDbLine
 10
544.176198023
 20
483.1812240598
 30
0.0
 11
538.0451748544
 21
483.1812240598
 31
0.0
  0
LINE
  5
48
330
1F
100
AcDbEntity
  8
0
  6
CONTINUOUS
 62
     7
100
AcDbLine
 10
400.0451783115
 20
490.9828685639
 30
0.0
 11
400.0451783115
 21
484.6812239564
 31
0.0
  0
LINE
  5
49
330
1F
100
AcDbEntity
  8
0
  6
CONTINUOUS
 62
     7
100
AcDbLine
 10
538.0451748544
 20
490.9828685639
 30
0.0
 11
400.0451783115
 21
490.9828685639
 31
0.0
  0
LINE
  5
4A
330
1F
100
AcDbEntity
  8
0
  6
CONTINUOUS
 62
     7
100
AcDbLine
 10
400.3096664721
 20
484.6812239564
 30
0.0
 11
400.0451783115
 21
484.6812239564
 31
0.0
  0
LINE
  5
4B
330
1F
100
AcDbEntity
  8
0
  6
CONTINUOUS
 62
     7
100
AcDbLine
 10
538.0451748544
 20
483.1812240598
 30
0.0
 11
401.8096695119
 21
483.1812240598
 31
0.0
  0
LINE
  5
4C
330
1F
100
AcDbEntity
  8
0
  6
CONTINUOUS
 62
     7
100
AcDbLine
 10
400.3096664721
 20
484.6812239564
 30
0.0
 11
401.8096695119
 21
483.1812240598
 31
0.0
  0
LINE
  5
4D
330
1F
100
AcDbEntity
  8
0
  6
CONTINUOUS
 62
     7
100
AcDbLine
 10
394.3230206543
 20
490.9828685639
 30
0.0
 11
393.9927662188
 21
484.6812239564
 31
0.0
  0
LINE
  5
4E
330
1F
100
AcDbEntity
  8
0
  6
CONTINUOUS
 62
     7
100
AcDbLine
 10
400.0451783115
 20
490.9828685639
 30
0.0
 11
394.3230206543
 21
490.9828685639
 31
0.0
  0
LINE
  5
4F
330
1F
100
AcDbEntity
  8
0
  6
CONTINUOUS
 62
     7
100
AcDbLine
 10
400.0451783115
 20
484.6812239564
 30
0.0
 11
393.9927662188
 21
484.6812239564
 31
0.0
  0
LINE
  5
50
330
1F
100
AcDbEntity
  8
0
  6
CONTINUOUS
 62
     7
100
AcDbLine
 10
541.0646791035
 20
491.8091523876
 30
0.0
 11
543.7673325116
 21
490.9828685639
 31
0.0
  0
LINE
  5
51
330
1F
100
AcDbEntity
  8
0
  6
CONTINUOUS
 62
     7
100
AcDbLine
 10
538.0451748544
 20
491.8091523876
 30
0.0
 11
538.0451748544
 21
490.9828685639
 31
0.0
  0
LINE
  5
52
330
1F
100
AcDbEntity
  8
0
  6
CONTINUOUS
 62
     7
100
AcDbLine
 10
539.0701735789
 20
491.7566169468
 30
0.0
 11
538.0451748544
 21
491.8091523876
 31
0.0
  0
ARC
  5
53
330
1F
100
AcDbEntity
  8
0
  6
CONTINUOUS
 62
     7
100
AcDbCircle
 10
540.0688009733
 20
497.5471489798
 30
0.0
 40
5.876012074340435
100
AcDbArc
 50
260.2150965209
 51
279.7849034791
  0
LINE
  5
54
330
1F
100
AcDbEntity
  8
0
  6
CONTINUOUS
 62
     7
100
AcDbLine
 10
397.0256740624
 20
491.8091523876
 30
0.0
 11
394.3230206543
 21
490.9828685639
 31
0.0
  0
ARC
  5
55
330
1F
100
AcDbEntity
  8
0
  6
CONTINUOUS
 62
     7
100
AcDbCircle
 10
398.0215521926
 20
496.0895437479
 30
0.0
 40
4.446516764464283
100
AcDbArc
 50
257.0214391369
 51
282.9785608631
  0
LINE
  5
56
330
1F
100
AcDbEntity
  8
0
  6
CONTINUOUS
 62
     7
100
AcDbLine
 10
400.0451783115
 20
491.8091523876
 30
0.0
 11
399.020179587
 21
491.7566169468
 31
0.0
  0
LINE
  5
57
330
1F
100
AcDbEntity
  8
0
  6
CONTINUOUS
 62
     7
100
AcDbLine
 10
400.0451783115
 20
491.8091523876
 30
0.0
 11
400.0451783115
 21
490.9828685639
 31
0.0
  0
LINE
  5
58
330
1F
100
AcDbEntity
  8
0
  6
CONTINUOUS
 62
     7
100
AcDbLine
 10
538.0451748544
 20
491.8091523876
 30
0.0
 11
400.0451783115
 21
491.8091523876
 31
0.0
  0
LINE
  5
59
330
1F
100
AcDbEntity
  8
0
  6
CONTINUOUS
 62
     7
100
AcDbLine
 10
397.0229247981
 20
491.7566169468
 30
0.0
 11
398.4834919149
 21
519.6259164666
 31
0.0
  0
ARC
  5
5A
330
1F
100
AcDbEntity
  8
0
  6
CONTINUOUS
 62
     7
100
AcDbCircle
 10
399.4821230346
 20
501.8030682805
 30
0.0
 40
17.85080338752162
100
AcDbArc
 50
86.7930162981
 51
93.2069837019
  0
LINE
  5
5B
330
1F
100
AcDbEntity
  8
0
  6
CONTINUOUS
 62
     7
100
AcDbLine
 10
400.4807541543
 20
519.6259164666
 30
0.0
 11
399.020179587
 21
491.7566169468
 31
0.0
  0
LINE
  5
5C
330
1F
100
AcDbEntity
  8
0
  6
CONTINUOUS
 62
     7
100
AcDbLine
 10
539.0701735789
 20
491.7566169468
 30
0.0
 11
537.6095990116
 21
519.6259164666
 31
0.0
  0
ARC
  5
5D
330
1F
100
AcDbEntity
  8
0
  6
CONTINUOUS
 62
     7
100
AcDbCircle
 10
538.6082301313
 20
501.8030682805
 30
0.0
 40
17.85080338752161
100
AcDbArc
 50
86.7930162981
 51
93.2069837019
  0
LINE
  5
5E
330
1F
100
AcDbEntity
  8
0
  6
CONTINUOUS
 62
     7
100
AcDbLine
 10
539.606861251
 20
519.6259164666
 30
0.0
 11
541.0674283678
 21
491.7566169468
 31
0.0
  0
LINE
  5
5F
330
1F
100
AcDbEntity
  8
0
  6
CONTINUOUS
 62
     7
100
AcDbLine
 10
537.6095990116
 20
519.6259164666
 30
0.0
 11
400.4807541543
 21
519.6259164666
 31
0.0
  0
LINE
  5
60
330
1F
100
AcDbEntity
  8
0
  6
CONTINUOUS
 62
     7
100
AcDbLine
 10
398.4834919149
 20
519.6259164666
 30
0.0
 11
399.5387996012
 21
520.6812241529
 31
0.0
  0
LINE
  5
61
330
1F
100
AcDbEntity
  8
0
  6
CONTINUOUS
 62
     7
100
AcDbLine
 10
399.5387996012
 20
520.6812241529
 30
0.0
 11
400.4807541543
 21
520.6812241529
 31
0.0
  0
LINE
  5
62
330
1F
100
AcDbEntity
  8
0
  6
CONTINUOUS
 62
     7
100
AcDbLine
 10
400.4807541543
 20
519.6259164666
 30
0.0
 11
400.4807541543
 21
520.6812241529
 31
0.0
  0
LINE
  5
63
330
1F
100
AcDbEntity
  8
0
  6
CONTINUOUS
 62
     7
100
AcDbLine
 10
537.6095990116
 20
520.6812241529
 30
0.0
 11
538.5515535647
 21
520.6812241529
 31
0.0
  0
LINE
  5
64
330
1F
100
AcDbEntity
  8
0
  6
CONTINUOUS
 62
     7
100
AcDbLine
 10
538.5515535647
 20
520.6812241529
 30
0.0
 11
539.606861251
 21
519.6259164666
 31
0.0
  0
LINE
  5
65
330
1F
100
AcDbEntity
  8
0
  6
CONTINUOUS
 62
     7
100
AcDbLine
 10
537.6095990116
 20
520.6812241529
 30
0.0
 11
537.6095990116
 21
519.6259164666
 31
0.0
  0
LINE
  5
66
330
1F
100
AcDbEntity
  8
0
  6
CONTINUOUS
 62
     7
100
AcDbLine
 10
400.4807541543
 20
520.6812241529
 30
0.0
 11
537.6095990116
 21
520.6812241529
 31
0.0
  0
ARC
  5
67
330
1F
100
AcDbEntity
  8
0
  6
CONTINUOUS
 62
     7
100
AcDbCircle
 10
389.0451765829
 20
487.6812240039
 30
0.0
 40
4.000000000000046
100
AcDbArc
 50
296.8500581989
 51
319.4798749986
  0
LINE
  5
68
330
1F
100
AcDbEntity
  8
0
  6
CONTINUOUS
 62
     7
100
AcDbLine
 10
390.7145554596
 20
485.6812240039
 30
0.0
 11
390.8518026048
 21
484.1124578095
 31
0.0
  0
LINE
  5
69
330
1F
100
AcDbEntity
  8
0
  6
CONTINUOUS
 62
     7
100
AcDbLine
 10
390.7145554596
 20
485.6812240039
 30
0.0
 11
392.5977269584
 21
485.6812240039
 31
0.0
  0
LINE
  5
6A
330
1F
100
AcDbEntity
  8
0
  6
CONTINUOUS
 62
     7
100
AcDbLine
 10
392.0858869726
 20
485.0823636232
 30
0.0
 11
392.5977269584
 21
485.6812240039
 31
0.0
  0
LINE
  5
6B
330
1F
100
AcDbEntity
  8
0
  6
CONTINUOUS
 62
     7
100
AcDbLine
 10
385.581075626
 20
485.6812240039
 30
0.0
 11
387.375793832
 21
485.6812240039
 31
0.0
  0
LINE
  5
6C
330
1F
100
AcDbEntity
  8
0
  6
CONTINUOUS
 62
     7
100
AcDbLine
 10
387.2385466868
 20
484.1124578095
 30
0.0
 11
387.375793832
 21
485.6812240039
 31
0.0
  0
ARC
  5
6D
330
1F
100
AcDbEntity
  8
0
  6
CONTINUOUS
 62
     7
100
AcDbCircle
 10
389.0451765829
 20
487.6812240039
 30
0.0
 40
4.000000000000046
100
AcDbArc
 50
210.0
 51
243.1499418011
  0
ARC
  5
6E
330
1F
100
AcDbEntity
  8
0
  6
CONTINUOUS
 62
     7
100
AcDbCircle
 10
389.0451765829
 20
487.7812240039
 30
0.0
 40
1.480000000000029
100
AcDbArc
 50
5.0
 51
175.0
  0
LINE
  5
6F
330
1F
100
AcDbEntity
  8
0
  6
CONTINUOUS
 62
     7
100
AcDbLine
 10
389.0451783711
 20
491.6812240561
 30
0.0
 11
390.0451729471
 21
491.6812240561
 31
0.0
  0
LINE
  5
70
330
1F
100
AcDbEntity
  8
0
  6
CONTINUOUS
 62
     7
100
AcDbLine
 10
390.0451729471
 20
491.6812240561
 30
0.0
 11
391.6528741294
 21
497.6812241082
 31
0.0
  0
LINE
  5
71
330
1F
100
AcDbEntity
  8
0
  6
CONTINUOUS
 62
     7
100
AcDbLine
 10
391.6528741294
 20
497.6812241082
 30
0.0
 11
392.5527478033
 21
498.853965052
 31
0.0
  0
LINE
  5
72
330
1F
100
AcDbEntity
  8
0
  6
CONTINUOUS
 62
     7
100
AcDbLine
 10
392.5527478033
 20
498.853965052
 30
0.0
 11
397.5459630066
 21
501.7367986446
 31
0.0
  0
LINE
  5
73
330
1F
100
AcDbEntity
  8
0
  6
CONTINUOUS
 62
     7
100
AcDbLine
 10
394.0744022304
 20
486.2389463531
 30
0.0
 11
393.0744076544
 21
486.2389463531
 31
0.0
  0
LINE
  5
74
330
1F
100
AcDbEntity
  8
0
  6
CONTINUOUS
 62
     7
100
AcDbLine
 10
393.0744076544
 20
486.2389463531
 30
0.0
 11
392.5977269584
 21
485.6812240039
 31
0.0
  0
ARC
  5
75
330
1F
100
AcDbEntity
  8
0
  6
CONTINUOUS
 62
     7
100
AcDbCircle
 10
389.0451765829
 20
487.6812240039
 30
0.0
 40
3.999999999999984
100
AcDbArc
 50
90.0
 51
210.0
  0
LINE
  5
76
330
1F
100
AcDbEntity
  8
0
  6
CONTINUOUS
 62
     7
100
AcDbLine
 10
387.375793832
 20
485.6812240039
 30
0.0
 11
387.5708053285
 21
487.9102144339
 31
0.0
  0
LINE
  5
77
330
1F
100
AcDbEntity
  8
0
  6
CONTINUOUS
 62
     7
100
AcDbLine
 10
390.5195439631
 20
487.9102144339
 30
0.0
 11
390.7145554596
 21
485.6812240039
 31
0.0
  0
ARC
  5
78
330
1F
100
AcDbEntity
  8
0
  6
CONTINUOUS
 62
     7
100
AcDbCircle
 10
389.0451765829
 20
487.7812240039
 30
0.0
 40
1.479999999999985
100
AcDbArc
 50
182.5
 51
357.5
  0
LINE
  5
79
330
1F
100
AcDbEntity
  8
0
  6
CONTINUOUS
 62
     7
100
AcDbLine
 10
387.5665882999
 20
487.7166672093
 30
0.0
 11
387.5623563701
 21
487.8135792394
 31
0.0
  0
LINE
  5
7A
330
1F
100
AcDbEntity
  8
0
  6
CONTINUOUS
 62
     7
100
AcDbLine
 10
390.5280003721
 20
487.8135792394
 30
0.0
 11
390.5237684423
 21
487.7166672093
 31
0.0
  0
ARC
  5
7B
330
1F
100
AcDbEntity
  8
0
  6
CONTINUOUS
 62
     7
100
AcDbCircle
 10
389.0451765829
 20
487.6812240039
 30
0.0
 40
4.000000000000046
100
AcDbArc
 50
243.1499418011
 51
296.8500581989
  0
ARC
  5
7C
330
1F
100
AcDbEntity
  8
0
  6
CONTINUOUS
 62
     7
100
AcDbCircle
 10
389.0451765829
 20
487.6812240039
 30
0.0
 40
1.488715574274833
100
AcDbArc
 50
5.0999857329
 51
6.9201875373
  0
ARC
  5
7D
330
1F
100
AcDbEntity
  8
0
  6
CONTINUOUS
 62
     7
100
AcDbCircle
 10
389.0451765829
 20
487.6812240039
 30
0.0
 40
1.488715574274776
100
AcDbArc
 50
173.0798124627
 51
174.9000142671
  0
LINE
  5
7E
330
1F
100
AcDbEntity
  8
0
  6
CONTINUOUS
 62
     7
100
AcDbLine
 10
550.490810948
 20
487.181224017
 30
0.0
 11
548.1799537713
 21
487.181224017
 31
0.0
  0
LINE
  5
7F
330
1F
100
AcDbEntity
  8
0
  6
CONTINUOUS
 62
     7
100
AcDbLine
 10
547.6570049697
 20
497.1597281699
 30
0.0
 11
548.1799537713
 21
487.181224017
 31
0.0
  0
ARC
  5
80
330
1F
100
AcDbEntity
  8
0
  6
CONTINUOUS
 62
     7
100
AcDbCircle
 10
546.1590598937
 20
497.0812240039
 30
0.0
 40
1.500000000000045
100
AcDbArc
 50
3.0
 51
176.9284477254
  0
LINE
  5
81
330
1F
100
AcDbEntity
  8
0
  6
CONTINUOUS
 62
     7
100
AcDbLine
 10
544.1256681854
 20
487.181224017
 30
0.0
 11
543.9665684873
 21
487.181224017
 31
0.0
  0
LINE
  5
82
330
1F
100
AcDbEntity
  8
0
  6
CONTINUOUS
 62
     7
100
AcDbLine
 10
540.5096182996
 20
502.4003138249
 30
0.0
 11
549.0840295726
 21
500.8884131392
 31
0.0
  0
ARC
  5
83
330
1F
100
AcDbEntity
  8
0
  6
CONTINUOUS
 62
     7
100
AcDbCircle
 10
548.8235604406
 20
499.4112013705
 30
0.0
 40
1.499999999999968
100
AcDbArc
 50
3.0
 51
80.0
  0
LINE
  5
84
330
1F
100
AcDbEntity
  8
0
  6
CONTINUOUS
 62
     7
100
AcDbLine
 10
550.3215039545
 20
499.4897053992
 30
0.0
 11
550.9403938824
 21
487.6805388783
 31
0.0
  0
LINE
  5
85
330
1F
100
AcDbEntity
  8
0
  6
CONTINUOUS
 62
     7
100
AcDbLine
 10
550.490810948
 20
487.181224017
 30
0.0
 11
550.9403938824
 21
487.6805388783
 31
0.0
  0
LINE
  5
86
330
1F
100
AcDbEntity
  8
0
  6
CONTINUOUS
 62
     7
100
AcDbLine
 10
544.1256681854
 20
487.181224017
 30
0.0
 11
544.6612159187
 21
497.1615982657
 31
0.0
  0
ARC
  5
87
330
1F
100
AcDbEntity
  8
0
  6
CONTINUOUS
 62
     7
100
AcDbCircle
 10
546.1590598937
 20
497.0812240039
 30
0.0
 40
1.500000000000114
100
AcDbArc
 50
180.0
 51
0.0
  0
LINE
  5
88
330
1F
100
AcDbEntity
  8
0
  6
CONTINUOUS
 62
     7
100
AcDbLine
 10
547.65906133
 20
497.0812241962
 30
0.0
 11
547.6611176902
 21
497.0812241962
 31
0.0
  0
LINE
  5
89
330
1F
100
AcDbEntity
  8
0
  6
CONTINUOUS
 62
     7
100
AcDbLine
 10
544.6590627009
 20
497.0812241962
 30
0.0
 11
544.6569020325
 21
497.0812241962
 31
0.0
  0
LINE
  5
8A
330
1F
100
AcDbEntity
  8
0
  6
CONTINUOUS
 62
     7
100
AcDbLine
 10
548.1799537713
 20
487.181224017
 30
0.0
 11
544.1256681854
 21
487.181224017
 31
0.0
  0
LINE
  5
8B
330
1F
100
AcDbEntity
  8
0
  6
CONTINUOUS
 62
     7
100
AcDbLine
 10
553.6263281876
 20
487.9686698267
 30
0.0
 11
554.045177477
 21
483.1812240598
 31
0.0
  0
LINE
  5
8C
330
1F
100
AcDbEntity
  8
0
  6
CONTINUOUS
 62
     7
100
AcDbLine
 10
554.045177477
 20
483.1812240598
 30
0.0
 11
549.0489745909
 21
483.1812240598
 31
0.0
  0
LWPOLYLINE
  5
8D
330
1F
100
AcDbEntity
  8
0
  6
CONTINUOUS
 62
     7
100
AcDbPolyline
 90
        7
 70
   128
 43
0.0
 10
550.8813107783
 20
488.8079050877
 10
551.3465995366
 20
488.6656527822
 10
552.12417193
 20
488.427924546
 10
552.7621055418
 20
488.2328893007
 10
553.2360220725
 20
488.087999024
 10
553.5278091604
 20
487.99878973
 10
553.6263281876
 20
487.9686698267
  0
LINE
  5
8E
330
1F
100
AcDbEntity
  8
0
  6
CONTINUOUS
 62
     7
100
AcDbLine
 10
549.0489745909
 20
483.1812240598
 30
0.0
 11
544.176198023
 21
483.1812240598
 31
0.0
  0
LINE
  5
8F
330
1F
100
AcDbEntity
  8
0
  6
CONTINUOUS
 62
     7
100
AcDbLine
 10
547.6570049697
 20
497.1597281699
 30
0.0
 11
547.65906133
 21
497.0812241962
 31
0.0
  0
LINE
  5
90
330
1F
100
AcDbEntity
  8
0
  6
CONTINUOUS
 62
     7
100
AcDbLine
 10
544.6590627009
 20
497.0812241962
 30
0.0
 11
544.6612159187
 21
497.1615982657
 31
0.0
  0
LINE
  5
91
330
1F
100
AcDbEntity
  8
0
  6
CONTINUOUS
 62
     8
100
AcDbLine
 10
549.0489745909
 20
483.1812240598
 30
0.0
 11
548.6990133697
 21
487.181224017
 31
0.0
  0
LINE
  5
92
330
1F
100
AcDbEntity
  8
0
  6
CONTINUOUS
 62
     7
100
AcDbLine
 10
385.0451777154
 20
388.5146193121
 30
0.0
 11
385.0451777154
 21
379.3345279907
 31
0.0
  0
LINE
  5
93
330
1F
100
AcDbEntity
  8
0
  6
CONTINUOUS
 62
     7
100
AcDbLine
 10
385.0451777154
 20
360.904347143
 30
0.0
 11
385.0451777154
 21
351.7242520963
 31
0.0
  0
LINE
  5
94
330
1F
100
AcDbEntity
  8
0
  6
CONTINUOUS
 62
     7
100
AcDbLine
 10
385.0451777154
 20
238.5146245275
 30
0.0
 11
385.0451777154
 21
229.3345294808
 31
0.0
  0
LINE
  5
95
330
1F
100
AcDbEntity
  8
0
  6
CONTINUOUS
 62
     7
100
AcDbLine
 10
385.0451777154
 20
210.9043486331
 30
0.0
 11
385.0451777154
 21
201.7242573117
 31
0.0
  0
ARC
  5
96
330
1F
100
AcDbEntity
  8
0
  6
CONTINUOUS
 62
     7
100
AcDbCircle
 10
400.4837524121
 20
413.6808594913
 30
0.0
 40
2.000262755522708
100
AcDbArc
 50
90.0858825073
 51
179.9139037563
  0
LINE
  5
97
330
1F
100
AcDbEntity
  8
0
  6
CONTINUOUS
 62
     7
100
AcDbLine
 10
400.4807541543
 20
415.6811199997
 30
0.0
 11
400.4807541543
 21
414.625819764
 31
0.0
  0
ARC
  5
98
330
1F
100
AcDbEntity
  8
0
  6
CONTINUOUS
 62
     7
100
AcDbCircle
 10
400.4670553904
 20
413.6975639748
 30
0.0
 40
0.9283568636732195
100
AcDbArc
 50
89.1545171112
 51
180.8454828888
  0
LINE
  5
99
330
1F
100
AcDbEntity
  8
0
  6
CONTINUOUS
 62
     7
100
AcDbLine
 10
398.4834919149
 20
413.6838652108
 30
0.0
 11
399.5387996012
 21
413.6838652108
 31
0.0
  0
ARC
  5
9A
330
1F
100
AcDbEntity
  8
0
  6
CONTINUOUS
 62
     7
100
AcDbCircle
 10
537.6232977929
 20
413.6975639922
 30
0.0
 40
0.9283568464987743
100
AcDbArc
 50
359.1545160195
 51
90.8454839805
  0
LINE
  5
9B
330
1F
100
AcDbEntity
  8
0
  6
CONTINUOUS
 62
     7
100
AcDbLine
 10
537.6095990116
 20
414.625819764
 30
0.0
 11
537.6095990116
 21
415.6811199997
 31
0.0
  0
ARC
  5
9C
330
1F
100
AcDbEntity
  8
0
  6
CONTINUOUS
 62
     7
100
AcDbCircle
 10
537.6065975004
 20
413.6808562379
 30
0.0
 40
2.000266013833852
100
AcDbArc
 50
0.0861892952
 51
89.9140244412
  0
LINE
  5
9D
330
1F
100
AcDbEntity
  8
0
  6
CONTINUOUS
 62
     7
100
AcDbLine
 10
538.5515535647
 20
413.6838652108
 30
0.0
 11
539.606861251
 21
413.6838652108
 31
0.0
  0
LINE
  5
9E
330
1F
100
AcDbEntity
  8
0
  6
CONTINUOUS
 62
     7
100
AcDbLine
 10
537.6095990116
 20
414.625819764
 30
0.0
 11
400.4807541543
 21
414.625819764
 31
0.0
  0
LINE
  5
9F
330
1F
100
AcDbEntity
  8
0
  6
CONTINUOUS
 62
     7
100
AcDbLine
 10
400.4807541543
 20
415.6811199997
 30
0.0
 11
537.6095990116
 21
415.6811199997
 31
0.0
  0
LINE
  5
A0
330
1F
100
AcDbEntity
  8
0
  6
CONTINUOUS
 62
     7
100
AcDbLine
 10
398.4834919149
 20
176.5550114129
 30
0.0
 11
398.4834919149
 21
413.6838652108
 31
0.0
  0
LINE
  5
A1
330
1F
100
AcDbEntity
  8
0
  6
CONTINUOUS
 62
     7
100
AcDbLine
 10
399.5387996012
 20
413.6838652108
 30
0.0
 11
399.5387996012
 21
176.5550114129
 31
0.0
  0
LINE
  5
A2
330
1F
100
AcDbEntity
  8
0
  6
CONTINUOUS
 62
     7
100
AcDbLine
 10
398.4834919149
 20
176.5550114129
 30
0.0
 11
399.5387996012
 21
176.5550114129
 31
0.0
  0
LINE
  5
A3
330
1F
100
AcDbEntity
  8
0
  6
CONTINUOUS
 62
     7
100
AcDbLine
 10
538.5515535647
 20
176.5550114129
 30
0.0
 11
538.5515535647
 21
413.6838652108
 31
0.0
  0
LINE
  5
A4
330
1F
100
AcDbEntity
  8
0
  6
CONTINUOUS
 62
     7
100
AcDbLine
 10
539.606861251
 20
413.6838652108
 30
0.0
 11
539.606861251
 21
176.5550114129
 31
0.0
  0
LINE
  5
A5
330
1F
100
AcDbEntity
  8
0
  6
CONTINUOUS
 62
     7
100
AcDbLine
 10
538.5515535647
 20
176.5550114129
 30
0.0
 11
539.606861251
 21
176.5550114129
 31
0.0
  0
ARC
  5
A6
330
1F
100
AcDbEntity
  8
0
  6
CONTINUOUS
 62
     7
100
AcDbCircle
 10
537.6232977755
 20
176.541312649
 30
0.0
 40
0.9283568636732755
100
AcDbArc
 50
269.1545171112
 51
0.8454828888
  0
LINE
  5
A7
330
1F
100
AcDbEntity
  8
0
  6
CONTINUOUS
 62
     7
100
AcDbLine
 10
400.4807541543
 20
175.6130568598
 30
0.0
 11
537.6095990116
 21
175.6130568598
 31
0.0
  0
ARC
  5
A8
330
1F
100
AcDbEntity
  8
0
  6
CONTINUOUS
 62
     7
100
AcDbCircle
 10
400.467055373
 20
176.5413126316
 30
0.0
 40
0.9283568464987466
100
AcDbArc
 50
179.1545160195
 51
270.8454839806
  0
ARC
  5
A9
330
1F
100
AcDbEntity
  8
0
  6
CONTINUOUS
 62
     7
100
AcDbCircle
 10
400.4837524125
 20
176.5580171329
 30
0.0
 40
2.000262755925455
100
AcDbArc
 50
180.0860962552
 51
269.9141174812
  0
LINE
  5
AA
330
1F
100
AcDbEntity
  8
0
  6
CONTINUOUS
 62
     7
100
AcDbLine
 10
400.4807541543
 20
174.5577566241
 30
0.0
 11
400.4807541543
 21
175.6130568598
 31
0.0
  0
ARC
  5
AB
330
1F
100
AcDbEntity
  8
0
  6
CONTINUOUS
 62
     7
100
AcDbCircle
 10
537.6066007534
 20
176.5580171329
 30
0.0
 40
2.000262755925478
100
AcDbArc
 50
270.0858825188
 51
359.9139037448
  0
LINE
  5
AC
330
1F
100
AcDbEntity
  8
0
  6
CONTINUOUS
 62
     7
100
AcDbLine
 10
537.6095990116
 20
175.6130568598
 30
0.0
 11
537.6095990116
 21
174.5577566241
 31
0.0
  0
LINE
  5
AD
330
1F
100
AcDbEntity
  8
0
  6
CONTINUOUS
 62
     7
100
AcDbLine
 10
537.6095990116
 20
174.5577566241
 30
0.0
 11
400.4807541543
 21
174.5577566241
 31
0.0
  0
ARC
  5
AE
330
1F
100
AcDbEntity
  8
0
  6
CONTINUOUS
 62
     7
100
AcDbCircle
 10
399.0063677442
 20
415.1582515694
 30
0.0
 40
1.983491086909722
100
AcDbArc
 50
89.6010233172
 51
180.3991904192
  0
LINE
  5
AF
330
1F
100
AcDbEntity
  8
0
  6
CONTINUOUS
 62
     7
100
AcDbLine
 10
399.020179587
 20
417.141694567
 30
0.0
 11
400.4807541543
 21
415.6811199997
 31
0.0
  0
LINE
  5
B0
330
1F
100
AcDbEntity
  8
0
  6
CONTINUOUS
 62
     7
100
AcDbLine
 10
398.4834919149
 20
413.6838652108
 30
0.0
 11
397.0229247981
 21
415.1444323276
 31
0.0
  0
ARC
  5
B1
330
1F
100
AcDbEntity
  8
0
  6
CONTINUOUS
 62
     7
100
AcDbCircle
 10
539.0839742021
 20
415.1582403499
 30
0.0
 40
1.983502228034662
100
AcDbArc
 50
359.601135919
 51
90.3986503446
  0
LINE
  5
B2
330
1F
100
AcDbEntity
  8
0
  6
CONTINUOUS
 62
     7
100
AcDbLine
 10
541.0674283678
 20
415.1444323276
 30
0.0
 11
539.606861251
 21
413.6838652108
 31
0.0
  0
LINE
  5
B3
330
1F
100
AcDbEntity
  8
0
  6
CONTINUOUS
 62
     7
100
AcDbLine
 10
537.6095990116
 20
415.6811199997
 30
0.0
 11
539.0701735789
 21
417.141694567
 31
0.0
  0
ARC
  5
B4
330
1F
100
AcDbEntity
  8
0
  6
CONTINUOUS
 62
     7
100
AcDbCircle
 10
539.0839854217
 20
175.0806250544
 30
0.0
 40
1.983491086909789
100
AcDbArc
 50
269.6010233172
 51
0.3991904192
  0
LINE
  5
B5
330
1F
100
AcDbEntity
  8
0
  6
CONTINUOUS
 62
     7
100
AcDbLine
 10
539.0701735789
 20
173.0971820567
 30
0.0
 11
537.6095990116
 21
174.5577566241
 31
0.0
  0
LINE
  5
B6
330
1F
100
AcDbEntity
  8
0
  6
CONTINUOUS
 62
     7
100
AcDbLine
 10
539.606861251
 20
176.5550114129
 30
0.0
 11
541.0674283678
 21
175.0944442962
 31
0.0
  0
ARC
  5
B7
330
1F
100
AcDbEntity
  8
0
  6
CONTINUOUS
 62
     7
100
AcDbCircle
 10
399.0063789638
 20
175.0806362739
 30
0.0
 40
1.983502228034668
100
AcDbArc
 50
179.601135919
 51
270.3986503446
  0
LINE
  5
B8
330
1F
100
AcDbEntity
  8
0
  6
CONTINUOUS
 62
     7
100
AcDbLine
 10
397.0229247981
 20
175.0944442962
 30
0.0
 11
398.4834919149
 21
176.5550114129
 31
0.0
  0
LINE
  5
B9
330
1F
100
AcDbEntity
  8
0
  6
CONTINUOUS
 62
     7
100
AcDbLine
 10
400.4807541543
 20
174.5577566241
 30
0.0
 11
399.020179587
 21
173.0971820567
 31
0.0
  0
LINE
  5
BA
330
1F
100
AcDbEntity
  8
0
  6
CONTINUOUS
 62
     7
100
AcDbLine
 10
399.020179587
 20
417.141694567
 30
0.0
 11
400.0451783115
 21
417.1389378522
 31
0.0
  0
LINE
  5
BB
330
1F
100
AcDbEntity
  8
0
  6
CONTINUOUS
 62
     7
100
AcDbLine
 10
400.0451783115
 20
417.1389378522
 30
0.0
 11
538.0451748544
 21
417.1389378522
 31
0.0
  0
LINE
  5
BC
330
1F
100
AcDbEntity
  8
0
  6
CONTINUOUS
 62
     7
100
AcDbLine
 10
538.0451748544
 20
417.1389378522
 30
0.0
 11
539.0701735789
 21
417.141694567
 31
0.0
  0
LINE
  5
BD
330
1F
100
AcDbEntity
  8
0
  6
CONTINUOUS
 62
     7
100
AcDbLine
 10
397.0256740624
 20
205.6397236799
 30
0.0
 11
397.5459630066
 21
205.1194347356
 31
0.0
  0
LINE
  5
BE
330
1F
100
AcDbEntity
  8
0
  6
CONTINUOUS
 62
     7
100
AcDbLine
 10
397.0256740624
 20
205.6397236799
 30
0.0
 11
397.0256740624
 21
218.5991518114
 31
0.0
  0
LINE
  5
BF
330
1F
100
AcDbEntity
  8
0
  6
CONTINUOUS
 62
     7
100
AcDbLine
 10
397.0256740624
 20
218.5991518114
 30
0.0
 11
397.5459630066
 21
219.1194407557
 31
0.0
  0
LINE
  5
C0
330
1F
100
AcDbEntity
  8
0
  6
CONTINUOUS
 62
     7
100
AcDbLine
 10
397.5459630066
 20
219.1194407557
 30
0.0
 11
397.5459630066
 21
221.1194373582
 31
0.0
  0
LINE
  5
C1
330
1F
100
AcDbEntity
  8
0
  6
CONTINUOUS
 62
     7
100
AcDbLine
 10
397.0256740624
 20
221.6397263025
 30
0.0
 11
397.5459630066
 21
221.1194373582
 31
0.0
  0
LINE
  5
C2
330
1F
100
AcDbEntity
  8
0
  6
CONTINUOUS
 62
     7
100
AcDbLine
 10
397.0256740624
 20
221.6397263025
 30
0.0
 11
397.0256740624
 21
234.5991507088
 31
0.0
  0
LINE
  5
C3
330
1F
100
AcDbEntity
  8
0
  6
CONTINUOUS
 62
     7
100
AcDbLine
 10
397.0256740624
 20
234.5991507088
 30
0.0
 11
397.5459630066
 21
235.119439653
 31
0.0
  0
LINE
  5
C4
330
1F
100
AcDbEntity
  8
0
  6
CONTINUOUS
 62
     7
100
AcDbLine
 10
397.5459630066
 20
235.119439653
 30
0.0
 11
397.5459630066
 21
237.7780005251
 31
0.0
  0
LINE
  5
C5
330
1F
100
AcDbEntity
  8
0
  6
CONTINUOUS
 62
     7
100
AcDbLine
 10
397.5459630066
 20
237.7780005251
 30
0.0
 11
397.0256740624
 21
238.298285744
 31
0.0
  0
LINE
  5
C6
330
1F
100
AcDbEntity
  8
0
  6
CONTINUOUS
 62
     7
100
AcDbLine
 10
397.0256740624
 20
238.298285744
 30
0.0
 11
397.0256740624
 21
351.9405908798
 31
0.0
  0
LINE
  5
C7
330
1F
100
AcDbEntity
  8
0
  6
CONTINUOUS
 62
     7
100
AcDbLine
 10
397.5459630066
 20
352.4608760987
 30
0.0
 11
397.0256740624
 21
351.9405908798
 31
0.0
  0
LINE
  5
C8
330
1F
100
AcDbEntity
  8
0
  6
CONTINUOUS
 62
     7
100
AcDbLine
 10
397.5459630066
 20
355.1194369708
 30
0.0
 11
397.5459630066
 21
352.4608760987
 31
0.0
  0
LINE
  5
C9
330
1F
100
AcDbEntity
  8
0
  6
CONTINUOUS
 62
     7
100
AcDbLine
 10
397.0256740624
 20
355.639725915
 30
0.0
 11
397.5459630066
 21
355.1194369708
 31
0.0
  0
LINE
  5
CA
330
1F
100
AcDbEntity
  8
0
  6
CONTINUOUS
 62
     7
100
AcDbLine
 10
397.0256740624
 20
368.5991503213
 30
0.0
 11
397.0256740624
 21
355.639725915
 31
0.0
  0
LINE
  5
CB
330
1F
100
AcDbEntity
  8
0
  6
CONTINUOUS
 62
     7
100
AcDbLine
 10
397.0256740624
 20
368.5991503213
 30
0.0
 11
397.5459630066
 21
369.1194392656
 31
0.0
  0
LINE
  5
CC
330
1F
100
AcDbEntity
  8
0
  6
CONTINUOUS
 62
     7
100
AcDbLine
 10
397.5459630066
 20
371.1194358681
 30
0.0
 11
397.5459630066
 21
369.1194392656
 31
0.0
  0
LINE
  5
CD
330
1F
100
AcDbEntity
  8
0
  6
CONTINUOUS
 62
     7
100
AcDbLine
 10
397.0256740624
 20
371.6397248123
 30
0.0
 11
397.5459630066
 21
371.1194358681
 31
0.0
  0
LINE
  5
CE
330
1F
100
AcDbEntity
  8
0
  6
CONTINUOUS
 62
     7
100
AcDbLine
 10
397.0256740624
 20
384.5991529439
 30
0.0
 11
397.0256740624
 21
371.6397248123
 31
0.0
  0
LINE
  5
CF
330
1F
100
AcDbEntity
  8
0
  6
CONTINUOUS
 62
     7
100
AcDbLine
 10
397.0256740624
 20
384.5991529439
 30
0.0
 11
397.5459630066
 21
385.1194418882
 31
0.0
  0
LINE
  5
D0
330
1F
100
AcDbEntity
  8
0
  6
CONTINUOUS
 62
     7
100
AcDbLine
 10
397.5459630066
 20
387.7780027602
 30
0.0
 11
397.5459630066
 21
385.1194418882
 31
0.0
  0
LINE
  5
D1
330
1F
100
AcDbEntity
  8
0
  6
CONTINUOUS
 62
     7
100
AcDbLine
 10
397.5459630066
 20
387.7780027602
 30
0.0
 11
397.0256740624
 21
388.2982842539
 31
0.0
  0
LINE
  5
D2
330
1F
100
AcDbEntity
  8
0
  6
CONTINUOUS
 62
     7
100
AcDbLine
 10
397.0256740624
 20
388.2982842539
 30
0.0
 11
397.0256740624
 21
414.1194410537
 31
0.0
  0
LINE
  5
D3
330
1F
100
AcDbEntity
  8
0
  6
CONTINUOUS
 62
     7
100
AcDbLine
 10
397.0256740624
 20
414.1194410537
 30
0.0
 11
397.0229247981
 21
415.1444323276
 31
0.0
  0
LINE
  5
D4
330
1F
100
AcDbEntity
  8
0
  6
CONTINUOUS
 62
     7
100
AcDbLine
 10
397.0229247981
 20
175.0944442962
 30
0.0
 11
397.0256740624
 21
176.1194355701
 31
0.0
  0
LINE
  5
D5
330
1F
100
AcDbEntity
  8
0
  6
CONTINUOUS
 62
     7
100
AcDbLine
 10
397.0256740624
 20
176.1194355701
 30
0.0
 11
397.0256740624
 21
201.9405923699
 31
0.0
  0
LINE
  5
D6
330
1F
100
AcDbEntity
  8
0
  6
CONTINUOUS
 62
     7
100
AcDbLine
 10
397.5459630066
 20
202.4608738635
 30
0.0
 11
397.0256740624
 21
201.9405923699
 31
0.0
  0
LINE
  5
D7
330
1F
100
AcDbEntity
  8
0
  6
CONTINUOUS
 62
     7
100
AcDbLine
 10
397.5459630066
 20
202.4608738635
 30
0.0
 11
397.5459630066
 21
205.1194347356
 31
0.0
  0
LINE
  5
D8
330
1F
100
AcDbEntity
  8
0
  6
CONTINUOUS
 62
     7
100
AcDbLine
 10
541.0646791035
 20
210.1396284912
 30
0.0
 11
541.0646791035
 21
176.1194355701
 31
0.0
  0
LINE
  5
D9
330
1F
100
AcDbEntity
  8
0
  6
CONTINUOUS
 62
     7
100
AcDbLine
 10
541.0646791035
 20
176.1194355701
 30
0.0
 11
541.0674283678
 21
175.0944442962
 31
0.0
  0
LINE
  5
DA
330
1F
100
AcDbEntity
  8
0
  6
CONTINUOUS
 62
     7
100
AcDbLine
 10
541.0674283678
 20
415.1444323276
 30
0.0
 11
541.0646791035
 21
414.1194410537
 31
0.0
  0
LINE
  5
DB
330
1F
100
AcDbEntity
  8
0
  6
CONTINUOUS
 62
     7
100
AcDbLine
 10
541.0646791035
 20
414.1194410537
 30
0.0
 11
541.0646791035
 21
380.119439206
 31
0.0
  0
LINE
  5
DC
330
1F
100
AcDbEntity
  8
0
  6
CONTINUOUS
 62
     7
100
AcDbLine
 10
540.5096182996
 20
380.119439206
 30
0.0
 11
540.5096182996
 21
378.1194351528
 31
0.0
  0
LINE
  5
DD
330
1F
100
AcDbEntity
  8
0
  6
CONTINUOUS
 62
     7
100
AcDbLine
 10
541.0646791035
 20
362.1194399808
 30
0.0
 11
541.0646791035
 21
378.1194351528
 31
0.0
  0
LINE
  5
DE
330
1F
100
AcDbEntity
  8
0
  6
CONTINUOUS
 62
     7
100
AcDbLine
 10
540.5096182996
 20
362.1194399808
 30
0.0
 11
540.5096182996
 21
360.1194359277
 31
0.0
  0
LINE
  5
DF
330
1F
100
AcDbEntity
  8
0
  6
CONTINUOUS
 62
     7
100
AcDbLine
 10
541.0646791035
 20
360.1194359277
 30
0.0
 11
541.0646791035
 21
230.0992421721
 31
0.0
  0
LINE
  5
E0
330
1F
100
AcDbEntity
  8
0
  6
CONTINUOUS
 62
     7
100
AcDbLine
 10
541.0646791035
 20
230.0992421721
 30
0.0
 11
540.5096182996
 21
230.0530336712
 31
0.0
  0
LINE
  5
E1
330
1F
100
AcDbEntity
  8
0
  6
CONTINUOUS
 62
     7
100
AcDbLine
 10
540.5096182996
 20
228.6509014581
 30
0.0
 11
540.5096182996
 21
230.0530336712
 31
0.0
  0
LINE
  5
E2
330
1F
100
AcDbEntity
  8
0
  6
CONTINUOUS
 62
     7
100
AcDbLine
 10
541.0646791035
 20
228.2810471867
 30
0.0
 11
540.5096182996
 21
228.6509014581
 31
0.0
  0
LINE
  5
E3
330
1F
100
AcDbEntity
  8
0
  6
CONTINUOUS
 62
     7
100
AcDbLine
 10
541.0646791035
 20
228.2810471867
 30
0.0
 11
541.0646791035
 21
211.9578309272
 31
0.0
  0
LINE
  5
E4
330
1F
100
AcDbEntity
  8
0
  6
CONTINUOUS
 62
     7
100
AcDbLine
 10
541.0646791035
 20
211.9578309272
 30
0.0
 11
540.5096182996
 21
211.5879766558
 31
0.0
  0
LINE
  5
E5
330
1F
100
AcDbEntity
  8
0
  6
CONTINUOUS
 62
     7
100
AcDbLine
 10
540.5096182996
 20
210.1858444427
 30
0.0
 11
540.5096182996
 21
211.5879766558
 31
0.0
  0
LINE
  5
E6
330
1F
100
AcDbEntity
  8
0
  6
CONTINUOUS
 62
     7
100
AcDbLine
 10
541.0646791035
 20
210.1396284912
 30
0.0
 11
540.5096182996
 21
210.1858444427
 31
0.0
  0
LINE
  5
E7
330
1F
100
AcDbEntity
  8
0
  6
CONTINUOUS
 62
     7
100
AcDbLine
 10
539.0701735789
 20
173.0971820567
 30
0.0
 11
538.0451748544
 21
173.0999387716
 31
0.0
  0
LINE
  5
E8
330
1F
100
AcDbEntity
  8
0
  6
CONTINUOUS
 62
     7
100
AcDbLine
 10
538.0451748544
 20
173.0999387716
 30
0.0
 11
400.0451783115
 21
173.0999387716
 31
0.0
  0
LINE
  5
E9
330
1F
100
AcDbEntity
  8
0
  6
CONTINUOUS
 62
     7
100
AcDbLine
 10
400.0451783115
 20
173.0999387716
 30
0.0
 11
399.020179587
 21
173.0971820567
 31
0.0
  0
LINE
  5
EA
330
1F
100
AcDbEntity
  8
0
  6
CONTINUOUS
 62
     7
100
AcDbLine
 10
540.5096182996
 20
362.1194399808
 30
0.0
 11
548.7818489248
 21
362.1194399808
 31
0.0
  0
LINE
  5
EB
330
1F
100
AcDbEntity
  8
0
  6
CONTINUOUS
 62
     7
100
AcDbLine
 10
548.7818489248
 20
362.1194399808
 30
0.0
 11
548.7818489248
 21
378.1194351528
 31
0.0
  0
LINE
  5
EC
330
1F
100
AcDbEntity
  8
0
  6
CONTINUOUS
 62
     7
100
AcDbLine
 10
540.5096182996
 20
378.1194351528
 30
0.0
 11
548.7818489248
 21
378.1194351528
 31
0.0
  0
LINE
  5
ED
330
1F
100
AcDbEntity
  8
0
  6
CONTINUOUS
 62
     7
100
AcDbLine
 10
540.5096182996
 20
380.119439206
 30
0.0
 11
549.0840295726
 21
380.119439206
 31
0.0
  0
LINE
  5
EE
330
1F
100
AcDbEntity
  8
0
  6
CONTINUOUS
 62
     7
100
AcDbLine
 10
549.0840295726
 20
360.1194359277
 30
0.0
 11
549.0840295726
 21
380.119439206
 31
0.0
  0
LINE
  5
EF
330
1F
100
AcDbEntity
  8
0
  6
CONTINUOUS
 62
     7
100
AcDbLine
 10
540.5096182996
 20
360.1194359277
 30
0.0
 11
549.0840295726
 21
360.1194359277
 31
0.0
  0
LINE
  5
F0
330
1F
100
AcDbEntity
  8
0
  6
CONTINUOUS
 62
     7
100
AcDbLine
 10
540.5096182996
 20
211.5879766558
 30
0.0
 11
548.7818489248
 21
211.6389088248
 31
0.0
  0
LINE
  5
F1
330
1F
100
AcDbEntity
  8
0
  6
CONTINUOUS
 62
     7
100
AcDbLine
 10
548.7818489248
 20
228.5999618386
 30
0.0
 11
548.7818489248
 21
211.6389088248
 31
0.0
  0
LINE
  5
F2
330
1F
100
AcDbEntity
  8
0
  6
CONTINUOUS
 62
     7
100
AcDbLine
 10
540.5096182996
 20
228.6509014581
 30
0.0
 11
548.7818489248
 21
228.5999618386
 31
0.0
  0
LINE
  5
F3
330
1F
100
AcDbEntity
  8
0
  6
CONTINUOUS
 62
     7
100
AcDbLine
 10
540.5096182996
 20
230.0530336712
 30
0.0
 11
549.0840295726
 21
230.059627435
 31
0.0
  0
LINE
  5
F4
330
1F
100
AcDbEntity
  8
0
  6
CONTINUOUS
 62
     7
100
AcDbLine
 10
549.0840295726
 20
210.1792506789
 30
0.0
 11
549.0840295726
 21
230.059627435
 31
0.0
  0
LINE
  5
F5
330
1F
100
AcDbEntity
  8
0
  6
CONTINUOUS
 62
     7
100
AcDbLine
 10
540.5096182996
 20
210.1858444427
 30
0.0
 11
549.0840295726
 21
210.1792506789
 31
0.0
  0
LINE
  5
F6
330
1F
100
AcDbEntity
  8
0
  6
CONTINUOUS
 62
     7
100
AcDbLine
 10
543.7673325116
 20
230.1028482531
 30
0.0
 11
541.0646791035
 21
230.0992421721
 31
0.0
  0
LINE
  5
F7
330
1F
100
AcDbEntity
  8
0
  6
CONTINUOUS
 62
     7
100
AcDbLine
 10
543.9665684873
 20
230.1194406961
 30
0.0
 11
543.7673325116
 21
230.1028482531
 31
0.0
  0
LINE
  5
F8
330
1F
100
AcDbEntity
  8
0
  6
CONTINUOUS
 62
     7
100
AcDbLine
 10
544.1256681854
 20
230.1194406961
 30
0.0
 11
543.9665684873
 21
230.1194406961
 31
0.0
  0
LINE
  5
F9
330
1F
100
AcDbEntity
  8
0
  6
CONTINUOUS
 62
     7
100
AcDbLine
 10
544.1256681854
 20
230.1194406961
 30
0.0
 11
544.6612159187
 21
230.0758920525
 31
0.0
  0
ELLIPSE
  5
FA
330
1F
100
AcDbEntity
  8
0
  6
CONTINUOUS
 62
     7
100
AcDbEllipse
 10
546.1590598937
 20
230.0762411388
 30
0.0
 11
1.499999999999886
 21
0.0
 31
0.0
210
0.0
220
0.0
230
1.0
 40
0.0043633508
 41
3.195201353932269
 42
6.230825429617101
  0
LINE
  5
FB
330
1F
100
AcDbEntity
  8
0
  6
CONTINUOUS
 62
     7
100
AcDbLine
 10
547.6570049697
 20
230.0758995031
 30
0.0
 11
548.1799537713
 21
230.1194406961
 31
0.0
  0
LINE
  5
FC
330
1F
100
AcDbEntity
  8
0
  6
CONTINUOUS
 62
     7
100
AcDbLine
 10
550.490810948
 20
230.1194406961
 30
0.0
 11
548.1799537713
 21
230.1194406961
 31
0.0
  0
LINE
  5
FD
330
1F
100
AcDbEntity
  8
0
  6
CONTINUOUS
 62
     7
100
AcDbLine
 10
550.9403938824
 20
230.117257676
 30
0.0
 11
550.490810948
 21
230.1194406961
 31
0.0
  0
LINE
  5
FE
330
1F
100
AcDbEntity
  8
0
  6
CONTINUOUS
 62
     7
100
AcDbLine
 10
550.3215039545
 20
230.0657294606
 30
0.0
 11
550.9403938824
 21
230.117257676
 31
0.0
  0
ELLIPSE
  5
FF
330
1F
100
AcDbEntity
  8
0
  6
CONTINUOUS
 62
     7
100
AcDbEllipse
 10
548.8235604406
 20
230.0660746301
 30
0.0
 11
1.499999999999886
 21
0.0
 31
0.0
210
0.0
220
0.0
230
1.0
 40
0.0043633508
 41
4.886921905585505
 42
6.230825429626284
  0
ELLIPSE
  5
100
330
1F
100
AcDbEntity
  8
0
  6
CONTINUOUS
 62
     7
100
AcDbEllipse
 10
546.1590598937
 20
228.4651539299
 30
0.0
 11
1.499999999999886
 21
0.0
 31
0.0
210
0.0
220
0.0
230
1.0
 40
0.0349207695
 41
0.0523598775597429
 42
3.087983953250429
  0
LINE
  5
101
330
1F
100
AcDbEntity
  8
0
  6
CONTINUOUS
 62
     7
100
AcDbLine
 10
544.6569020325
 20
228.4651510332
 30
0.0
 11
544.6612159187
 21
228.4679599021
 31
0.0
  0
LINE
  5
102
330
1F
100
AcDbEntity
  8
0
  6
CONTINUOUS
 62
     7
100
AcDbLine
 10
544.6569020325
 20
228.4651510332
 30
0.0
 11
543.7020505244
 21
228.4651510332
 31
0.0
  0
LINE
  5
103
330
1F
100
AcDbEntity
  8
0
  6
CONTINUOUS
 62
     7
100
AcDbLine
 10
543.7020505244
 20
228.4651510332
 30
0.0
 11
543.3811465675
 21
228.2563187097
 31
0.0
  0
LINE
  5
104
330
1F
100
AcDbEntity
  8
0
  6
CONTINUOUS
 62
     7
100
AcDbLine
 10
543.3811465675
 20
228.2563187097
 30
0.0
 11
541.0646791035
 21
228.2810471867
 31
0.0
  0
LINE
  5
105
330
1F
100
AcDbEntity
  8
0
  6
CONTINUOUS
 62
     7
100
AcDbLine
 10
548.7818489248
 20
228.5999618386
 30
0.0
 11
548.5795284087
 21
228.4651510332
 31
0.0
  0
LINE
  5
106
330
1F
100
AcDbEntity
  8
0
  6
CONTINUOUS
 62
     7
100
AcDbLine
 10
548.5795284087
 20
228.4651510332
 30
0.0
 11
547.6611176902
 21
228.4651510332
 31
0.0
  0
LINE
  5
107
330
1F
100
AcDbEntity
  8
0
  6
CONTINUOUS
 62
     7
100
AcDbLine
 10
547.6611176902
 20
228.4651510332
 30
0.0
 11
547.6570049697
 21
228.4678928469
 31
0.0
  0
ELLIPSE
  5
108
330
1F
100
AcDbEntity
  8
0
  6
CONTINUOUS
 62
     7
100
AcDbEllipse
 10
546.1590598937
 20
211.7737226939
 30
0.0
 11
1.499999999999886
 21
0.0
 31
0.0
210
0.0
220
0.0
230
1.0
 40
0.0349207695
 41
3.195201353929556
 42
6.230825429620772
  0
LINE
  5
109
330
1F
100
AcDbEntity
  8
0
  6
CONTINUOUS
 62
     7
100
AcDbLine
 10
547.6611176902
 20
211.7737196301
 30
0.0
 11
547.6570049697
 21
211.7709778164
 31
0.0
  0
LINE
  5
10A
330
1F
100
AcDbEntity
  8
0
  6
CONTINUOUS
 62
     7
100
AcDbLine
 10
548.5795284087
 20
211.7737196301
 30
0.0
 11
547.6611176902
 21
211.7737196301
 31
0.0
  0
LINE
  5
10B
330
1F
100
AcDbEntity
  8
0
  6
CONTINUOUS
 62
     7
100
AcDbLine
 10
548.7818489248
 20
211.6389088248
 30
0.0
 11
548.5795284087
 21
211.7737196301
 31
0.0
  0
LINE
  5
10C
330
1F
100
AcDbEntity
  8
0
  6
CONTINUOUS
 62
     7
100
AcDbLine
 10
543.3811465675
 20
211.9825594042
 30
0.0
 11
541.0646791035
 21
211.9578309272
 31
0.0
  0
LINE
  5
10D
330
1F
100
AcDbEntity
  8
0
  6
CONTINUOUS
 62
     7
100
AcDbLine
 10
543.7020505244
 20
211.7737196301
 30
0.0
 11
543.3811465675
 21
211.9825594042
 31
0.0
  0
LINE
  5
10E
330
1F
100
AcDbEntity
  8
0
  6
CONTINUOUS
 62
     7
100
AcDbLine
 10
544.6569020325
 20
211.7737196301
 30
0.0
 11
543.7020505244
 21
211.7737196301
 31
0.0
  0
LINE
  5
10F
330
1F
100
AcDbEntity
  8
0
  6
CONTINUOUS
 62
     7
100
AcDbLine
 10
544.6569020325
 20
211.7737196301
 30
0.0
 11
544.6612159187
 21
211.7709182118
 31
0.0
  0
LINE
  5
110
330
1F
100
AcDbEntity
  8
0
  6
CONTINUOUS
 62
     7
100
AcDbLine
 10
550.490810948
 20
210.1194374178
 30
0.0
 11
550.9403938824
 21
210.1216204379
 31
0.0
  0
LINE
  5
111
330
1F
100
AcDbEntity
  8
0
  6
CONTINUOUS
 62
     7
100
AcDbLine
 10
550.490810948
 20
210.1194374178
 30
0.0
 11
548.1799537713
 21
210.1194374178
 31
0.0
  0
LINE
  5
112
330
1F
100
AcDbEntity
  8
0
  6
CONTINUOUS
 62
     7
100
AcDbLine
 10
547.6570049697
 20
210.1629786108
 30
0.0
 11
548.1799537713
 21
210.1194374178
 31
0.0
  0
ELLIPSE
  5
113
330
1F
100
AcDbEntity
  8
0
  6
CONTINUOUS
 62
     7
100
AcDbEllipse
 10
546.1590598937
 20
210.162635485
 30
0.0
 11
1.499999999999886
 21
0.0
 31
0.0
210
0.0
220
0.0
230
1.0
 40
0.0043633508
 41
0.0523598775609051
 42
3.087983953250973
  0
LINE
  5
114
330
1F
100
AcDbEntity
  8
0
  6
CONTINUOUS
 62
     7
100
AcDbLine
 10
544.1256681854
 20
210.1194374178
 30
0.0
 11
544.6612159187
 21
210.1629860614
 31
0.0
  0
LINE
  5
115
330
1F
100
AcDbEntity
  8
0
  6
CONTINUOUS
 62
     7
100
AcDbLine
 10
544.1256681854
 20
210.1194374178
 30
0.0
 11
543.9665684873
 21
210.1194374178
 31
0.0
  0
LINE
  5
116
330
1F
100
AcDbEntity
  8
0
  6
CONTINUOUS
 62
     7
100
AcDbLine
 10
543.9665684873
 20
210.1194374178
 30
0.0
 11
543.7673325116
 21
210.1360298608
 31
0.0
  0
LINE
  5
117
330
1F
100
AcDbEntity
  8
0
  6
CONTINUOUS
 62
     7
100
AcDbLine
 10
543.7673325116
 20
210.1360298608
 30
0.0
 11
541.0646791035
 21
210.1396284912
 31
0.0
  0
ELLIPSE
  5
118
330
1F
100
AcDbEntity
  8
0
  6
CONTINUOUS
 62
     7
100
AcDbEllipse
 10
548.8235604406
 20
210.1728019937
 30
0.0
 11
1.499999999999886
 21
0.0
 31
0.0
210
0.0
220
0.0
230
1.0
 40
0.0043633508
 41
0.0523598775570185
 42
1.39626340159642
  0
LINE
  5
119
330
1F
100
AcDbEntity
  8
0
  6
CONTINUOUS
 62
     7
100
AcDbLine
 10
550.3215039545
 20
210.1731412028
 30
0.0
 11
550.9403938824
 21
210.1216204379
 31
0.0
  0
LINE
  5
11A
330
1F
100
AcDbEntity
  8
0
  6
CONTINUOUS
 62
     7
100
AcDbLine
 10
394.0744022304
 20
388.5902129029
 30
0.0
 11
393.0744076544
 21
388.5902129029
 31
0.0
  0
LINE
  5
11B
330
1F
100
AcDbEntity
  8
0
  6
CONTINUOUS
 62
     7
100
AcDbLine
 10
394.3230206543
 20
388.3415944789
 30
0.0
 11
394.0744022304
 21
388.5902129029
 31
0.0
  0
LINE
  5
11C
330
1F
100
AcDbEntity
  8
0
  6
CONTINUOUS
 62
     7
100
AcDbLine
 10
397.0256740624
 20
388.2982842539
 30
0.0
 11
394.3230206543
 21
388.3415944789
 31
0.0
  0
LINE
  5
11D
330
1F
100
AcDbEntity
  8
0
  6
CONTINUOUS
 62
     7
100
AcDbLine
 10
392.5527478033
 20
387.9290856336
 30
0.0
 11
397.5459630066
 21
387.7780027602
 31
0.0
  0
LINE
  5
11E
330
1F
100
AcDbEntity
  8
0
  6
CONTINUOUS
 62
     7
100
AcDbLine
 10
391.6528741294
 20
387.9905454729
 30
0.0
 11
392.5527478033
 21
387.9290856336
 31
0.0
  0
LINE
  5
11F
330
1F
100
AcDbEntity
  8
0
  6
CONTINUOUS
 62
     7
100
AcDbLine
 10
390.0451729471
 20
388.3049897764
 30
0.0
 11
391.6528741294
 21
387.9905454729
 31
0.0
  0
LINE
  5
120
330
1F
100
AcDbEntity
  8
0
  6
CONTINUOUS
 62
     7
100
AcDbLine
 10
389.0451783711
 20
388.3049897764
 30
0.0
 11
390.0451729471
 21
388.3049897764
 31
0.0
  0
ELLIPSE
  5
121
330
1F
100
AcDbEntity
  8
0
  6
CONTINUOUS
 62
     7
100
AcDbEllipse
 10
389.0451765829
 20
388.5146227533
 30
0.0
 11
4.0
 21
0.0
 31
0.0
210
0.0
220
0.0
230
1.0
 40
0.0524077793
 41
2.617993877991494
 42
4.712388980384691
  0
LINE
  5
122
330
1F
100
AcDbEntity
  8
0
  6
CONTINUOUS
 62
     7
100
AcDbLine
 10
385.581075626
 20
388.6194415305
 30
0.0
 11
387.375793832
 21
388.6194415305
 31
0.0
  0
LINE
  5
123
330
1F
100
AcDbEntity
  8
0
  6
CONTINUOUS
 62
     7
100
AcDbLine
 10
387.375793832
 20
388.6194415305
 30
0.0
 11
387.5708053285
 21
388.5026238774
 31
0.0
  0
ELLIPSE
  5
124
330
1F
100
AcDbEntity
  8
0
  6
CONTINUOUS
 62
     7
100
AcDbEllipse
 10
389.0451765829
 20
388.5093819754
 30
0.0
 11
1.479999999999961
 21
0.0
 31
0.0
210
0.0
220
0.0
230
1.0
 40
0.0524077793
 41
3.228859116189826
 42
6.195918844580085
  0
LINE
  5
125
330
1F
100
AcDbEntity
  8
0
  6
CONTINUOUS
 62
     7
100
AcDbLine
 10
390.5195439631
 20
388.5026238774
 30
0.0
 11
390.7145554596
 21
388.6194415305
 31
0.0
  0
LINE
  5
126
330
1F
100
AcDbEntity
  8
0
  6
CONTINUOUS
 62
     7
100
AcDbLine
 10
390.7145554596
 20
388.6194415305
 30
0.0
 11
392.5977269584
 21
388.6194415305
 31
0.0
  0
LINE
  5
127
330
1F
100
AcDbEntity
  8
0
  6
CONTINUOUS
 62
     7
100
AcDbLine
 10
393.0744076544
 20
388.5902129029
 30
0.0
 11
392.5977269584
 21
388.6194415305
 31
0.0
  0
LINE
  5
128
330
1F
100
AcDbEntity
  8
0
  6
CONTINUOUS
 62
     7
100
AcDbLine
 10
397.5459630066
 20
355.1194369708
 30
0.0
 11
394.9244985753
 21
355.1987595771
 31
0.0
  0
LINE
  5
129
330
1F
100
AcDbEntity
  8
0
  6
CONTINUOUS
 62
     7
100
AcDbLine
 10
392.5527478033
 20
352.3097932254
 30
0.0
 11
397.5459630066
 21
352.4608760987
 31
0.0
  0
LINE
  5
12A
330
1F
100
AcDbEntity
  8
0
  6
CONTINUOUS
 62
     7
100
AcDbLine
 10
392.5527478033
 20
387.9290856336
 30
0.0
 11
392.5527478033
 21
352.3097932254
 31
0.0
  0
LINE
  5
12B
330
1F
100
AcDbEntity
  8
0
  6
CONTINUOUS
 62
     7
100
AcDbLine
 10
394.9244985753
 20
385.0401155566
 30
0.0
 11
397.5459630066
 21
385.1194418882
 31
0.0
  0
LINE
  5
12C
330
1F
100
AcDbEntity
  8
0
  6
CONTINUOUS
 62
     7
100
AcDbLine
 10
394.9244985753
 20
371.1987547491
 30
0.0
 11
394.9244985753
 21
385.0401155566
 31
0.0
  0
LINE
  5
12D
330
1F
100
AcDbEntity
  8
0
  6
CONTINUOUS
 62
     7
100
AcDbLine
 10
397.5459630066
 20
371.1194358681
 30
0.0
 11
394.9244985753
 21
371.1987547491
 31
0.0
  0
LINE
  5
12E
330
1F
100
AcDbEntity
  8
0
  6
CONTINUOUS
 62
     7
100
AcDbLine
 10
394.9244985753
 20
369.0401203845
 30
0.0
 11
397.5459630066
 21
369.1194392656
 31
0.0
  0
LINE
  5
12F
330
1F
100
AcDbEntity
  8
0
  6
CONTINUOUS
 62
     7
100
AcDbLine
 10
394.9244985753
 20
355.1987595771
 30
0.0
 11
394.9244985753
 21
369.0401203845
 31
0.0
  0
LINE
  5
130
330
1F
100
AcDbEntity
  8
0
  6
CONTINUOUS
 62
     7
100
AcDbLine
 10
395.3916425282
 20
384.5729716037
 30
0.0
 11
397.0256740624
 21
384.5991529439
 31
0.0
  0
LINE
  5
131
330
1F
100
AcDbEntity
  8
0
  6
CONTINUOUS
 62
     7
100
AcDbLine
 10
395.3916425282
 20
384.5729716037
 30
0.0
 11
394.9244985753
 21
385.0401155566
 31
0.0
  0
LINE
  5
132
330
1F
100
AcDbEntity
  8
0
  6
CONTINUOUS
 62
     7
100
AcDbLine
 10
395.3916425282
 20
371.6659061526
 30
0.0
 11
394.9244985753
 21
371.1987547491
 31
0.0
  0
LINE
  5
133
330
1F
100
AcDbEntity
  8
0
  6
CONTINUOUS
 62
     7
100
AcDbLine
 10
397.0256740624
 20
371.6397248123
 30
0.0
 11
395.3916425282
 21
371.6659061526
 31
0.0
  0
LINE
  5
134
330
1F
100
AcDbEntity
  8
0
  6
CONTINUOUS
 62
     7
100
AcDbLine
 10
395.3916425282
 20
368.5729689811
 30
0.0
 11
397.0256740624
 21
368.5991503213
 31
0.0
  0
LINE
  5
135
330
1F
100
AcDbEntity
  8
0
  6
CONTINUOUS
 62
     7
100
AcDbLine
 10
395.3916425282
 20
368.5729689811
 30
0.0
 11
394.9244985753
 21
369.0401203845
 31
0.0
  0
LINE
  5
136
330
1F
100
AcDbEntity
  8
0
  6
CONTINUOUS
 62
     7
100
AcDbLine
 10
395.3916425282
 20
355.6659072552
 30
0.0
 11
394.9244985753
 21
355.1987595771
 31
0.0
  0
LINE
  5
137
330
1F
100
AcDbEntity
  8
0
  6
CONTINUOUS
 62
     7
100
AcDbLine
 10
397.0256740624
 20
355.639725915
 30
0.0
 11
395.3916425282
 21
355.6659072552
 31
0.0
  0
LINE
  5
138
330
1F
100
AcDbEntity
  8
0
  6
CONTINUOUS
 62
     7
100
AcDbLine
 10
389.0451783711
 20
351.9338853572
 30
0.0
 11
390.0451729471
 21
351.9338853572
 31
0.0
  0
LINE
  5
139
330
1F
100
AcDbEntity
  8
0
  6
CONTINUOUS
 62
     7
100
AcDbLine
 10
390.0451729471
 20
351.9338853572
 30
0.0
 11
391.6528741294
 21
352.248333386
 31
0.0
  0
LINE
  5
13A
330
1F
100
AcDbEntity
  8
0
  6
CONTINUOUS
 62
     7
100
AcDbLine
 10
391.6528741294
 20
352.248333386
 30
0.0
 11
392.5527478033
 21
352.3097932254
 31
0.0
  0
LINE
  5
13B
330
1F
100
AcDbEntity
  8
0
  6
CONTINUOUS
 62
     7
100
AcDbLine
 10
397.0256740624
 20
351.9405908798
 30
0.0
 11
394.3230206543
 21
351.89728438
 31
0.0
  0
LINE
  5
13C
330
1F
100
AcDbEntity
  8
0
  6
CONTINUOUS
 62
     7
100
AcDbLine
 10
394.3230206543
 20
351.89728438
 30
0.0
 11
394.0744022304
 21
351.6486659561
 31
0.0
  0
LINE
  5
13D
330
1F
100
AcDbEntity
  8
0
  6
CONTINUOUS
 62
     7
100
AcDbLine
 10
394.0744022304
 20
351.6486659561
 30
0.0
 11
393.0744076544
 21
351.6486659561
 31
0.0
  0
LINE
  5
13E
330
1F
100
AcDbEntity
  8
0
  6
CONTINUOUS
 62
     7
100
AcDbLine
 10
393.0744076544
 20
351.6486659561
 30
0.0
 11
392.5977269584
 21
351.6194373284
 31
0.0
  0
LINE
  5
13F
330
1F
100
AcDbEntity
  8
0
  6
CONTINUOUS
 62
     7
100
AcDbLine
 10
390.7145554596
 20
351.6194373284
 30
0.0
 11
392.5977269584
 21
351.6194373284
 31
0.0
  0
LINE
  5
140
330
1F
100
AcDbEntity
  8
0
  6
CONTINUOUS
 62
     7
100
AcDbLine
 10
390.5195439631
 20
351.7362549816
 30
0.0
 11
390.7145554596
 21
351.6194373284
 31
0.0
  0
ELLIPSE
  5
141
330
1F
100
AcDbEntity
  8
0
  6
CONTINUOUS
 62
     7
100
AcDbEllipse
 10
389.0451765829
 20
351.7294946484
 30
0.0
 11
1.479999999999961
 21
0.0
 31
0.0
210
0.0
220
0.0
230
1.0
 40
0.0524077793
 41
0.0872664625997027
 42
3.054326190990089
  0
LINE
  5
142
330
1F
100
AcDbEntity
  8
0
  6
CONTINUOUS
 62
     7
100
AcDbLine
 10
387.375793832
 20
351.6194373284
 30
0.0
 11
387.5708053285
 21
351.7362549816
 31
0.0
  0
LINE
  5
143
330
1F
100
AcDbEntity
  8
0
  6
CONTINUOUS
 62
     7
100
AcDbLine
 10
385.581075626
 20
351.6194373284
 30
0.0
 11
387.375793832
 21
351.6194373284
 31
0.0
  0
ELLIPSE
  5
144
330
1F
100
AcDbEntity
  8
0
  6
CONTINUOUS
 62
     7
100
AcDbEllipse
 10
389.0451765829
 20
351.7242538705
 30
0.0
 11
4.0
 21
0.0
 31
0.0
210
0.0
220
0.0
230
1.0
 40
0.0524077793
 41
1.570796326794897
 42
3.665191429188397
  0
LINE
  5
145
330
1F
100
AcDbEntity
  8
0
  6
CONTINUOUS
 62
     7
100
AcDbLine
 10
387.375793832
 20
238.6194392954
 30
0.0
 11
387.5708053285
 21
238.5026216422
 31
0.0
  0
ELLIPSE
  5
146
330
1F
100
AcDbEntity
  8
0
  6
CONTINUOUS
 62
     7
100
AcDbEllipse
 10
389.0451765829
 20
238.5093819754
 30
0.0
 11
1.479999999999961
 21
0.0
 31
0.0
210
0.0
220
0.0
230
1.0
 40
0.0524077793
 41
3.228859116189794
 42
6.195918844580117
  0
LINE
  5
147
330
1F
100
AcDbEntity
  8
0
  6
CONTINUOUS
 62
     7
100
AcDbLine
 10
390.5195439631
 20
238.5026216422
 30
0.0
 11
390.7145554596
 21
238.6194392954
 31
0.0
  0
LINE
  5
148
330
1F
100
AcDbEntity
  8
0
  6
CONTINUOUS
 62
     7
100
AcDbLine
 10
390.7145554596
 20
238.6194392954
 30
0.0
 11
392.5977269584
 21
238.6194392954
 31
0.0
  0
LINE
  5
149
330
1F
100
AcDbEntity
  8
0
  6
CONTINUOUS
 62
     7
100
AcDbLine
 10
393.0744076544
 20
238.5902106677
 30
0.0
 11
392.5977269584
 21
238.6194392954
 31
0.0
  0
LINE
  5
14A
330
1F
100
AcDbEntity
  8
0
  6
CONTINUOUS
 62
     7
100
AcDbLine
 10
394.0744022304
 20
238.5902106677
 30
0.0
 11
393.0744076544
 21
238.5902106677
 31
0.0
  0
LINE
  5
14B
330
1F
100
AcDbEntity
  8
0
  6
CONTINUOUS
 62
     7
100
AcDbLine
 10
394.3230206543
 20
238.3415922437
 30
0.0
 11
394.0744022304
 21
238.5902106677
 31
0.0
  0
LINE
  5
14C
330
1F
100
AcDbEntity
  8
0
  6
CONTINUOUS
 62
     7
100
AcDbLine
 10
397.0256740624
 20
238.298285744
 30
0.0
 11
394.3230206543
 21
238.3415922437
 31
0.0
  0
LINE
  5
14D
330
1F
100
AcDbEntity
  8
0
  6
CONTINUOUS
 62
     7
100
AcDbLine
 10
392.5527478033
 20
237.9290833984
 30
0.0
 11
397.5459630066
 21
237.7780005251
 31
0.0
  0
LINE
  5
14E
330
1F
100
AcDbEntity
  8
0
  6
CONTINUOUS
 62
     7
100
AcDbLine
 10
391.6528741294
 20
237.9905432378
 30
0.0
 11
392.5527478033
 21
237.9290833984
 31
0.0
  0
LINE
  5
14F
330
1F
100
AcDbEntity
  8
0
  6
CONTINUOUS
 62
     7
100
AcDbLine
 10
390.0451729471
 20
238.3049912666
 30
0.0
 11
391.6528741294
 21
237.9905432378
 31
0.0
  0
LINE
  5
150
330
1F
100
AcDbEntity
  8
0
  6
CONTINUOUS
 62
     7
100
AcDbLine
 10
389.0451783711
 20
238.3049912666
 30
0.0
 11
390.0451729471
 21
238.3049912666
 31
0.0
  0
ELLIPSE
  5
151
330
1F
100
AcDbEntity
  8
0
  6
CONTINUOUS
 62
     7
100
AcDbEllipse
 10
389.0451765829
 20
238.5146227533
 30
0.0
 11
4.0
 21
0.0
 31
0.0
210
0.0
220
0.0
230
1.0
 40
0.0524077793
 41
2.617993877991553
 42
4.712388980384691
  0
LINE
  5
152
330
1F
100
AcDbEntity
  8
0
  6
CONTINUOUS
 62
     7
100
AcDbLine
 10
385.581075626
 20
238.6194392954
 30
0.0
 11
387.375793832
 21
238.6194392954
 31
0.0
  0
LINE
  5
153
330
1F
100
AcDbEntity
  8
0
  6
CONTINUOUS
 62
     7
100
AcDbLine
 10
394.9244985753
 20
219.0401218746
 30
0.0
 11
397.5459630066
 21
219.1194407557
 31
0.0
  0
LINE
  5
154
330
1F
100
AcDbEntity
  8
0
  6
CONTINUOUS
 62
     7
100
AcDbLine
 10
394.9244985753
 20
205.1987610672
 30
0.0
 11
394.9244985753
 21
219.0401218746
 31
0.0
  0
LINE
  5
155
330
1F
100
AcDbEntity
  8
0
  6
CONTINUOUS
 62
     7
100
AcDbLine
 10
397.5459630066
 20
205.1194347356
 30
0.0
 11
394.9244985753
 21
205.1987610672
 31
0.0
  0
LINE
  5
156
330
1F
100
AcDbEntity
  8
0
  6
CONTINUOUS
 62
     7
100
AcDbLine
 10
392.5527478033
 20
202.3097909902
 30
0.0
 11
397.5459630066
 21
202.4608738635
 31
0.0
  0
LINE
  5
157
330
1F
100
AcDbEntity
  8
0
  6
CONTINUOUS
 62
     7
100
AcDbLine
 10
392.5527478033
 20
202.3097909902
 30
0.0
 11
392.5527478033
 21
237.9290833984
 31
0.0
  0
LINE
  5
158
330
1F
100
AcDbEntity
  8
0
  6
CONTINUOUS
 62
     7
100
AcDbLine
 10
394.9244985753
 20
235.0401170467
 30
0.0
 11
397.5459630066
 21
235.119439653
 31
0.0
  0
LINE
  5
159
330
1F
100
AcDbEntity
  8
0
  6
CONTINUOUS
 62
     7
100
AcDbLine
 10
394.9244985753
 20
221.1987562393
 30
0.0
 11
394.9244985753
 21
235.0401170467
 31
0.0
  0
LINE
  5
15A
330
1F
100
AcDbEntity
  8
0
  6
CONTINUOUS
 62
     7
100
AcDbLine
 10
397.5459630066
 20
221.1194373582
 30
0.0
 11
394.9244985753
 21
221.1987562393
 31
0.0
  0
LINE
  5
15B
330
1F
100
AcDbEntity
  8
0
  6
CONTINUOUS
 62
     7
100
AcDbLine
 10
397.0256740624
 20
234.5991507088
 30
0.0
 11
395.3916425282
 21
234.5729693685
 31
0.0
  0
LINE
  5
15C
330
1F
100
AcDbEntity
  8
0
  6
CONTINUOUS
 62
     7
100
AcDbLine
 10
395.3916425282
 20
234.5729693685
 30
0.0
 11
394.9244985753
 21
235.0401170467
 31
0.0
  0
LINE
  5
15D
330
1F
100
AcDbEntity
  8
0
  6
CONTINUOUS
 62
     7
100
AcDbLine
 10
395.3916425282
 20
221.6659076427
 30
0.0
 11
394.9244985753
 21
221.1987562393
 31
0.0
  0
LINE
  5
15E
330
1F
100
AcDbEntity
  8
0
  6
CONTINUOUS
 62
     7
100
AcDbLine
 10
395.3916425282
 20
221.6659076427
 30
0.0
 11
397.0256740624
 21
221.6397263025
 31
0.0
  0
LINE
  5
15F
330
1F
100
AcDbEntity
  8
0
  6
CONTINUOUS
 62
     7
100
AcDbLine
 10
397.0256740624
 20
218.5991518114
 30
0.0
 11
395.3916425282
 21
218.5729704712
 31
0.0
  0
LINE
  5
160
330
1F
100
AcDbEntity
  8
0
  6
CONTINUOUS
 62
     7
100
AcDbLine
 10
395.3916425282
 20
218.5729704712
 30
0.0
 11
394.9244985753
 21
219.0401218746
 31
0.0
  0
LINE
  5
161
330
1F
100
AcDbEntity
  8
0
  6
CONTINUOUS
 62
     7
100
AcDbLine
 10
395.3916425282
 20
205.6659050201
 30
0.0
 11
394.9244985753
 21
205.1987610672
 31
0.0
  0
LINE
  5
162
330
1F
100
AcDbEntity
  8
0
  6
CONTINUOUS
 62
     7
100
AcDbLine
 10
395.3916425282
 20
205.6659050201
 30
0.0
 11
397.0256740624
 21
205.6397236799
 31
0.0
  0
LINE
  5
163
330
1F
100
AcDbEntity
  8
0
  6
CONTINUOUS
 62
     7
100
AcDbLine
 10
390.5195439631
 20
201.7362527464
 30
0.0
 11
390.7145554596
 21
201.6194350932
 31
0.0
  0
ELLIPSE
  5
164
330
1F
100
AcDbEntity
  8
0
  6
CONTINUOUS
 62
     7
100
AcDbEllipse
 10
389.0451765829
 20
201.7294946484
 30
0.0
 11
1.479999999999961
 21
0.0
 31
0.0
210
0.0
220
0.0
230
1.0
 40
0.0524077793
 41
0.0872664626000995
 42
3.054326190989687
  0
LINE
  5
165
330
1F
100
AcDbEntity
  8
0
  6
CONTINUOUS
 62
     7
100
AcDbLine
 10
387.375793832
 20
201.6194350932
 30
0.0
 11
387.5708053285
 21
201.7362527464
 31
0.0
  0
LINE
  5
166
330
1F
100
AcDbEntity
  8
0
  6
CONTINUOUS
 62
     7
100
AcDbLine
 10
385.581075626
 20
201.6194350932
 30
0.0
 11
387.375793832
 21
201.6194350932
 31
0.0
  0
ELLIPSE
  5
167
330
1F
100
AcDbEntity
  8
0
  6
CONTINUOUS
 62
     7
100
AcDbEllipse
 10
389.0451765829
 20
201.7242538705
 30
0.0
 11
4.0
 21
0.0
 31
0.0
210
0.0
220
0.0
230
1.0
 40
0.0524077793
 41
1.570796326794897
 42
3.665191429188237
  0
LINE
  5
168
330
1F
100
AcDbEntity
  8
0
  6
CONTINUOUS
 62
     7
100
AcDbLine
 10
389.0451783711
 20
201.9338868473
 30
0.0
 11
390.0451729471
 21
201.9338868473
 31
0.0
  0
LINE
  5
169
330
1F
100
AcDbEntity
  8
0
  6
CONTINUOUS
 62
     7
100
AcDbLine
 10
390.0451729471
 20
201.9338868473
 30
0.0
 11
391.6528741294
 21
202.2483311508
 31
0.0
  0
LINE
  5
16A
330
1F
100
AcDbEntity
  8
0
  6
CONTINUOUS
 62
     7
100
AcDbLine
 10
391.6528741294
 20
202.2483311508
 30
0.0
 11
392.5527478033
 21
202.3097909902
 31
0.0
  0
LINE
  5
16B
330
1F
100
AcDbEntity
  8
0
  6
CONTINUOUS
 62
     7
100
AcDbLine
 10
397.0256740624
 20
201.9405923699
 30
0.0
 11
394.3230206543
 21
201.8972821449
 31
0.0
  0
LINE
  5
16C
330
1F
100
AcDbEntity
  8
0
  6
CONTINUOUS
 62
     7
100
AcDbLine
 10
394.3230206543
 20
201.8972821449
 30
0.0
 11
394.0744022304
 21
201.6486637209
 31
0.0
  0
LINE
  5
16D
330
1F
100
AcDbEntity
  8
0
  6
CONTINUOUS
 62
     7
100
AcDbLine
 10
394.0744022304
 20
201.6486637209
 30
0.0
 11
393.0744076544
 21
201.6486637209
 31
0.0
  0
LINE
  5
16E
330
1F
100
AcDbEntity
  8
0
  6
CONTINUOUS
 62
     7
100
AcDbLine
 10
393.0744076544
 20
201.6486637209
 30
0.0
 11
392.5977269584
 21
201.6194350932
 31
0.0
  0
LINE
  5
16F
330
1F
100
AcDbEntity
  8
0
  6
CONTINUOUS
 62
     7
100
AcDbLine
 10
390.7145554596
 20
201.6194350932
 30
0.0
 11
392.5977269584
 21
201.6194350932
 31
0.0
  0
LINE
  5
170
330
1F
100
AcDbEntity
  8
0
  6
CONTINUOUS
 62
     7
100
AcDbLine
 10
548.5795284087
 20
362.1194399808
 30
0.0
 11
548.5795284087
 21
378.1194351528
 31
0.0
  0
LINE
  5
171
330
1F
100
AcDbEntity
  8
0
  6
CONTINUOUS
 62
     7
100
AcDbLine
 10
548.5795284087
 20
228.4651510332
 30
0.0
 11
548.5795284087
 21
211.7737196301
 31
0.0
  0
LINE
  5
172
330
1F
100
AcDbEntity
  8
0
  6
CONTINUOUS
 62
     7
100
AcDbLine
 10
550.3215039545
 20
380.119439206
 30
0.0
 11
550.3215039545
 21
360.1194359277
 31
0.0
  0
LINE
  5
173
330
1F
100
AcDbEntity
  8
0
  6
CONTINUOUS
 62
     7
100
AcDbLine
 10
550.3215039545
 20
360.1194359277
 30
0.0
 11
549.0840295726
 21
360.1194359277
 31
0.0
  0
LINE
  5
174
330
1F
100
AcDbEntity
  8
0
  6
CONTINUOUS
 62
     7
100
AcDbLine
 10
549.0840295726
 20
380.119439206
 30
0.0
 11
550.3215039545
 21
380.119439206
 31
0.0
  0
LINE
  5
175
330
1F
100
AcDbEntity
  8
0
  6
CONTINUOUS
 62
     7
100
AcDbLine
 10
550.3215039545
 20
230.0657294606
 30
0.0
 11
550.3215039545
 21
210.1731412028
 31
0.0
  0
LINE
  5
176
330
1F
100
AcDbEntity
  8
0
  6
CONTINUOUS
 62
     7
100
AcDbLine
 10
395.3916425282
 20
371.6659061526
 30
0.0
 11
395.3916425282
 21
384.5729716037
 31
0.0
  0
LINE
  5
177
330
1F
100
AcDbEntity
  8
0
  6
CONTINUOUS
 62
     7
100
AcDbLine
 10
395.3916425282
 20
355.6659072552
 30
0.0
 11
395.3916425282
 21
368.5729689811
 31
0.0
  0
LINE
  5
178
330
1F
100
AcDbEntity
  8
0
  6
CONTINUOUS
 62
     7
100
AcDbLine
 10
395.3916425282
 20
234.5729693685
 30
0.0
 11
395.3916425282
 21
221.6659076427
 31
0.0
  0
LINE
  5
179
330
1F
100
AcDbEntity
  8
0
  6
CONTINUOUS
 62
     7
100
AcDbLine
 10
395.3916425282
 20
218.5729704712
 30
0.0
 11
395.3916425282
 21
205.6659050201
 31
0.0
  0
LINE
  5
17A
330
1F
100
AcDbEntity
  8
0
  6
CONTINUOUS
 62
     7
100
AcDbLine
 10
550.9403938824
 20
360.1194359277
 30
0.0
 11
550.9403938824
 21
380.119439206
 31
0.0
  0
LINE
  5
17B
330
1F
100
AcDbEntity
  8
0
  6
CONTINUOUS
 62
     7
100
AcDbLine
 10
550.3215039545
 20
360.1194359277
 30
0.0
 11
550.9403938824
 21
360.1194359277
 31
0.0
  0
LINE
  5
17C
330
1F
100
AcDbEntity
  8
0
  6
CONTINUOUS
 62
     7
100
AcDbLine
 10
550.3215039545
 20
380.119439206
 30
0.0
 11
550.9403938824
 21
380.119439206
 31
0.0
  0
LINE
  5
17D
330
1F
100
AcDbEntity
  8
0
  6
CONTINUOUS
 62
     7
100
AcDbLine
 10
550.9403938824
 20
210.1216204379
 30
0.0
 11
550.9403938824
 21
230.117257676
 31
0.0
  0
LINE
  5
17E
330
1F
100
AcDbEntity
  8
0
  6
CONTINUOUS
 62
     7
100
AcDbLine
 10
391.6528741294
 20
387.9905454729
 30
0.0
 11
391.6528741294
 21
352.248333386
 31
0.0
  0
LINE
  5
17F
330
1F
100
AcDbEntity
  8
0
  6
CONTINUOUS
 62
     7
100
AcDbLine
 10
391.6528741294
 20
202.2483311508
 30
0.0
 11
391.6528741294
 21
237.9905432378
 31
0.0
  0
LINE
  5
180
330
1F
100
AcDbEntity
  8
0
  6
CONTINUOUS
 62
     7
100
AcDbLine
 10
544.6590627009
 20
378.1194351528
 30
0.0
 11
544.6590627009
 21
362.1194399808
 31
0.0
  0
LINE
  5
181
330
1F
100
AcDbEntity
  8
0
  6
CONTINUOUS
 62
     7
100
AcDbLine
 10
547.65906133
 20
362.1194399808
 30
0.0
 11
547.65906133
 21
378.1194351528
 31
0.0
  0
LINE
  5
182
330
1F
100
AcDbEntity
  8
0
  6
CONTINUOUS
 62
     7
100
AcDbLine
 10
390.0451729471
 20
380.8049894784
 30
0.0
 11
390.8237213665
 21
380.6527145122
 31
0.0
  0
LINE
  5
183
330
1F
100
AcDbEntity
  8
0
  6
CONTINUOUS
 62
     7
100
AcDbLine
 10
390.8237213665
 20
386.0861621712
 30
0.0
 11
390.8237213665
 21
380.6527145122
 31
0.0
  0
LINE
  5
184
330
1F
100
AcDbEntity
  8
0
  6
CONTINUOUS
 62
     7
100
AcDbLine
 10
390.0451729471
 20
385.933887205
 30
0.0
 11
390.8237213665
 21
386.0861621712
 31
0.0
  0
LINE
  5
185
330
1F
100
AcDbEntity
  8
0
  6
CONTINUOUS
 62
     7
100
AcDbLine
 10
390.0451729471
 20
388.3049897764
 30
0.0
 11
390.0451729471
 21
385.933887205
 31
0.0
  0
LINE
  5
186
330
1F
100
AcDbEntity
  8
0
  6
CONTINUOUS
 62
     7
100
AcDbLine
 10
390.0451729471
 20
354.304991654
 30
0.0
 11
390.0451729471
 21
351.9338853572
 31
0.0
  0
LINE
  5
187
330
1F
100
AcDbEntity
  8
0
  6
CONTINUOUS
 62
     7
100
AcDbLine
 10
390.8237213665
 20
354.1527166878
 30
0.0
 11
390.0451729471
 21
354.304991654
 31
0.0
  0
LINE
  5
188
330
1F
100
AcDbEntity
  8
0
  6
CONTINUOUS
 62
     7
100
AcDbLine
 10
390.8237213665
 20
354.1527166878
 30
0.0
 11
390.8237213665
 21
359.5861606215
 31
0.0
  0
LINE
  5
189
330
1F
100
AcDbEntity
  8
0
  6
CONTINUOUS
 62
     7
100
AcDbLine
 10
390.8237213665
 20
359.5861606215
 30
0.0
 11
390.0451729471
 21
359.4338856552
 31
0.0
  0
LINE
  5
18A
330
1F
100
AcDbEntity
  8
0
  6
CONTINUOUS
 62
     7
100
AcDbLine
 10
390.0451729471
 20
360.9741665338
 30
0.0
 11
390.0451729471
 21
359.4338856552
 31
0.0
  0
LINE
  5
18B
330
1F
100
AcDbEntity
  8
0
  6
CONTINUOUS
 62
     7
100
AcDbLine
 10
390.1678169543
 20
360.9821610068
 30
0.0
 11
390.1678169543
 21
379.2567215775
 31
0.0
  0
LINE
  5
18C
330
1F
100
AcDbEntity
  8
0
  6
CONTINUOUS
 62
     7
100
AcDbLine
 10
390.0451729471
 20
380.8049894784
 30
0.0
 11
390.0451729471
 21
379.2647085999
 31
0.0
  0
LINE
  5
18D
330
1F
100
AcDbEntity
  8
0
  6
CONTINUOUS
 62
     7
100
AcDbLine
 10
390.0451729471
 20
360.9741665338
 30
0.0
 11
390.1678169543
 21
360.9821610068
 31
0.0
  0
LINE
  5
18E
330
1F
100
AcDbEntity
  8
0
  6
CONTINUOUS
 62
     7
100
AcDbLine
 10
390.0451729471
 20
379.2647085999
 30
0.0
 11
390.1678169543
 21
379.2567215775
 31
0.0
  0
LINE
  5
18F
330
1F
100
AcDbEntity
  8
0
  6
CONTINUOUS
 62
     7
100
AcDbLine
 10
390.1678169543
 20
210.9821550463
 30
0.0
 11
390.1678169543
 21
229.256715617
 31
0.0
  0
LINE
  5
190
330
1F
100
AcDbEntity
  8
0
  6
CONTINUOUS
 62
     7
100
AcDbLine
 10
390.0451729471
 20
229.26471009
 30
0.0
 11
390.0451729471
 21
230.8049909685
 31
0.0
  0
LINE
  5
191
330
1F
100
AcDbEntity
  8
0
  6
CONTINUOUS
 62
     7
100
AcDbLine
 10
390.8237213665
 20
230.6527160023
 30
0.0
 11
390.0451729471
 21
230.8049909685
 31
0.0
  0
LINE
  5
192
330
1F
100
AcDbEntity
  8
0
  6
CONTINUOUS
 62
     7
100
AcDbLine
 10
390.8237213665
 20
230.6527160023
 30
0.0
 11
390.8237213665
 21
236.086159936
 31
0.0
  0
LINE
  5
193
330
1F
100
AcDbEntity
  8
0
  6
CONTINUOUS
 62
     7
100
AcDbLine
 10
390.8237213665
 20
236.086159936
 30
0.0
 11
390.0451729471
 21
235.9338849698
 31
0.0
  0
LINE
  5
194
330
1F
100
AcDbEntity
  8
0
  6
CONTINUOUS
 62
     7
100
AcDbLine
 10
390.0451729471
 20
235.9338849698
 30
0.0
 11
390.0451729471
 21
238.3049912666
 31
0.0
  0
LINE
  5
195
330
1F
100
AcDbEntity
  8
0
  6
CONTINUOUS
 62
     7
100
AcDbLine
 10
390.0451729471
 20
201.9338868473
 30
0.0
 11
390.0451729471
 21
204.3049894188
 31
0.0
  0
LINE
  5
196
330
1F
100
AcDbEntity
  8
0
  6
CONTINUOUS
 62
     7
100
AcDbLine
 10
390.0451729471
 20
204.3049894188
 30
0.0
 11
390.8237213665
 21
204.1527144526
 31
0.0
  0
LINE
  5
197
330
1F
100
AcDbEntity
  8
0
  6
CONTINUOUS
 62
     7
100
AcDbLine
 10
390.8237213665
 20
209.5861621116
 30
0.0
 11
390.8237213665
 21
204.1527144526
 31
0.0
  0
LINE
  5
198
330
1F
100
AcDbEntity
  8
0
  6
CONTINUOUS
 62
     7
100
AcDbLine
 10
390.0451729471
 20
209.4338871454
 30
0.0
 11
390.8237213665
 21
209.5861621116
 31
0.0
  0
LINE
  5
199
330
1F
100
AcDbEntity
  8
0
  6
CONTINUOUS
 62
     7
100
AcDbLine
 10
390.0451729471
 20
209.4338871454
 30
0.0
 11
390.0451729471
 21
210.9741680239
 31
0.0
  0
LINE
  5
19A
330
1F
100
AcDbEntity
  8
0
  6
CONTINUOUS
 62
     7
100
AcDbLine
 10
390.0451729471
 20
210.9741680239
 30
0.0
 11
390.1678169543
 21
210.9821550463
 31
0.0
  0
LINE
  5
19B
330
1F
100
AcDbEntity
  8
0
  6
CONTINUOUS
 62
     7
100
AcDbLine
 10
390.0451729471
 20
229.26471009
 30
0.0
 11
390.1678169543
 21
229.256715617
 31
0.0
  0
LINE
  5
19C
330
1F
100
AcDbEntity
  8
0
  6
CONTINUOUS
 62
     7
100
AcDbLine
 10
543.7020505244
 20
362.1194399808
 30
0.0
 11
543.7020505244
 21
378.1194351528
 31
0.0
  0
LINE
  5
19D
330
1F
100
AcDbEntity
  8
0
  6
CONTINUOUS
 62
     7
100
AcDbLine
 10
543.3811465675
 20
362.1194399808
 30
0.0
 11
543.3811465675
 21
378.1194351528
 31
0.0
  0
LINE
  5
19E
330
1F
100
AcDbEntity
  8
0
  6
CONTINUOUS
 62
     7
100
AcDbLine
 10
547.65906133
 20
211.8466310118
 30
0.0
 11
547.6611176902
 21
211.8466310118
 31
0.0
  0
LINE
  5
19F
330
1F
100
AcDbEntity
  8
0
  6
CONTINUOUS
 62
     7
100
AcDbLine
 10
547.65906133
 20
211.8466310118
 30
0.0
 11
547.65906133
 21
228.3922471021
 31
0.0
  0
LINE
  5
1A0
330
1F
100
AcDbEntity
  8
0
  6
CONTINUOUS
 62
     7
100
AcDbLine
 10
547.65906133
 20
228.3922471021
 30
0.0
 11
547.6611176902
 21
228.3922471021
 31
0.0
  0
LINE
  5
1A1
330
1F
100
AcDbEntity
  8
0
  6
CONTINUOUS
 62
     7
100
AcDbLine
 10
547.6611176902
 20
211.8466310118
 30
0.0
 11
547.6611176902
 21
211.7737196301
 31
0.0
  0
LINE
  5
1A2
330
1F
100
AcDbEntity
  8
0
  6
CONTINUOUS
 62
     7
100
AcDbLine
 10
547.6611176902
 20
228.3922471021
 30
0.0
 11
547.6611176902
 21
228.4651510332
 31
0.0
  0
LINE
  5
1A3
330
1F
100
AcDbEntity
  8
0
  6
CONTINUOUS
 62
     7
100
AcDbLine
 10
544.6590627009
 20
228.3922471021
 30
0.0
 11
544.6590627009
 21
211.8466310118
 31
0.0
  0
ELLIPSE
  5
1A4
330
1F
100
AcDbEntity
  8
0
  6
CONTINUOUS
 62
     7
100
AcDbEllipse
 10
546.1590598937
 20
211.8466331691
 30
0.0
 11
1.499999999999886
 21
0.0
 31
0.0
210
0.0
220
0.0
230
1.0
 40
0.0174550649
 41
0.0
 42
3.141592653589786
  0
ELLIPSE
  5
1A5
330
1F
100
AcDbEntity
  8
0
  6
CONTINUOUS
 62
     7
100
AcDbEllipse
 10
546.1590598937
 20
228.3922434547
 30
0.0
 11
1.499999999999886
 21
0.0
 31
0.0
210
0.0
220
0.0
230
1.0
 40
0.0174550649
 41
3.141592653589786
 42
6.283185307179586
  0
LINE
  5
1A6
330
1F
100
AcDbEntity
  8
0
  6
CONTINUOUS
 62
     7
100
AcDbLine
 10
544.6590627009
 20
211.8466310118
 30
0.0
 11
544.6569020325
 21
211.8466310118
 31
0.0
  0
LINE
  5
1A7
330
1F
100
AcDbEntity
  8
0
  6
CONTINUOUS
 62
     7
100
AcDbLine
 10
543.7020505244
 20
228.4651510332
 30
0.0
 11
543.7020505244
 21
211.7737196301
 31
0.0
  0
LINE
  5
1A8
330
1F
100
AcDbEntity
  8
0
  6
CONTINUOUS
 62
     7
100
AcDbLine
 10
544.6590627009
 20
228.3922471021
 30
0.0
 11
544.6569020325
 21
228.3922471021
 31
0.0
  0
LINE
  5
1A9
330
1F
100
AcDbEntity
  8
0
  6
CONTINUOUS
 62
     7
100
AcDbLine
 10
544.6569020325
 20
211.7737196301
 30
0.0
 11
544.6569020325
 21
211.8466310118
 31
0.0
  0
LINE
  5
1AA
330
1F
100
AcDbEntity
  8
0
  6
CONTINUOUS
 62
     7
100
AcDbLine
 10
544.6569020325
 20
228.4651510332
 30
0.0
 11
544.6569020325
 21
228.3922471021
 31
0.0
  0
LINE
  5
1AB
330
1F
100
AcDbEntity
  8
0
  6
CONTINUOUS
 62
     7
100
AcDbLine
 10
543.3811465675
 20
228.2563187097
 30
0.0
 11
543.3811465675
 21
211.9825594042
 31
0.0
  0
LINE
  5
1AC
330
1F
100
AcDbEntity
  8
0
  6
CONTINUOUS
 62
     7
100
AcDbLine
 10
390.5237684423
 20
381.2627680515
 30
0.0
 11
390.5237684423
 21
385.7261128639
 31
0.0
  0
LINE
  5
1AD
330
1F
100
AcDbEntity
  8
0
  6
CONTINUOUS
 62
     7
100
AcDbLine
 10
390.5280003721
 20
385.7311867092
 30
0.0
 11
390.5237684423
 21
385.7261128639
 31
0.0
  0
LINE
  5
1AE
330
1F
100
AcDbEntity
  8
0
  6
CONTINUOUS
 62
     7
100
AcDbLine
 10
390.8237213665
 20
386.0861621712
 30
0.0
 11
390.5280003721
 21
385.7311867092
 31
0.0
  0
LINE
  5
1AF
330
1F
100
AcDbEntity
  8
0
  6
CONTINUOUS
 62
     7
100
AcDbLine
 10
390.8237213665
 20
380.6527145122
 30
0.0
 11
390.5280003721
 21
381.0076899741
 31
0.0
  0
LINE
  5
1B0
330
1F
100
AcDbEntity
  8
0
  6
CONTINUOUS
 62
     7
100
AcDbLine
 10
390.5280003721
 20
381.2576867555
 30
0.0
 11
390.5280003721
 21
381.0076899741
 31
0.0
  0
LINE
  5
1B1
330
1F
100
AcDbEntity
  8
0
  6
CONTINUOUS
 62
     7
100
AcDbLine
 10
390.5280003721
 20
381.2576867555
 30
0.0
 11
390.5237684423
 21
381.2627680515
 31
0.0
  0
LINE
  5
1B2
330
1F
100
AcDbEntity
  8
0
  6
CONTINUOUS
 62
     7
100
AcDbLine
 10
387.5623563701
 20
385.7311867092
 30
0.0
 11
387.5708053285
 21
385.736253104
 31
0.0
  0
LINE
  5
1B3
330
1F
100
AcDbEntity
  8
0
  6
CONTINUOUS
 62
     7
100
AcDbLine
 10
387.5623563701
 20
385.7311867092
 30
0.0
 11
387.4087701017
 21
385.915536425
 31
0.0
  0
ELLIPSE
  5
1B4
330
1F
100
AcDbEntity
  8
0
  6
CONTINUOUS
 62
     7
100
AcDbEllipse
 10
389.0451765829
 20
385.7242538705
 30
0.0
 11
4.0
 21
0.0
 31
0.0
210
0.0
220
0.0
230
1.0
 40
0.0524077793
 41
1.570796326794897
 42
1.992265066517976
  0
LINE
  5
1B5
330
1F
100
AcDbEntity
  8
0
  6
CONTINUOUS
 62
     7
100
AcDbLine
 10
389.0451783711
 20
385.933887205
 30
0.0
 11
390.0451729471
 21
385.933887205
 31
0.0
  0
LINE
  5
1B6
330
1F
100
AcDbEntity
  8
0
  6
CONTINUOUS
 62
     7
100
AcDbLine
 10
390.5195439631
 20
385.736253104
 30
0.0
 11
390.5280003721
 21
385.7311867092
 31
0.0
  0
ELLIPSE
  5
1B7
330
1F
100
AcDbEntity
  8
0
  6
CONTINUOUS
 62
     7
100
AcDbEllipse
 10
389.0451765829
 20
385.7294946484
 30
0.0
 11
1.479999999999961
 21
0.0
 31
0.0
210
0.0
220
0.0
230
1.0
 40
0.0524077793
 41
0.0872664625997027
 42
3.054326190990089
  0
ELLIPSE
  5
1B8
330
1F
100
AcDbEntity
  8
0
  6
CONTINUOUS
 62
     7
100
AcDbEllipse
 10
389.0451765829
 20
381.0093819754
 30
0.0
 11
1.479999999999961
 21
0.0
 31
0.0
210
0.0
220
0.0
230
1.0
 40
0.0524077793
 41
3.195246977866997
 42
6.229530982902925
  0
ELLIPSE
  5
1B9
330
1F
100
AcDbEntity
  8
0
  6
CONTINUOUS
 62
     7
100
AcDbEllipse
 10
389.0451765829
 20
381.0146227533
 30
0.0
 11
1.488715574274806
 21
0.0
 31
0.0
210
0.0
220
0.0
230
1.0
 40
0.0524077793
 41
6.162405249799207
 42
6.194173764336888
  0
LINE
  5
1BA
330
1F
100
AcDbEntity
  8
0
  6
CONTINUOUS
 62
     7
100
AcDbLine
 10
389.0451783711
 20
380.8049894784
 30
0.0
 11
390.0451729471
 21
380.8049894784
 31
0.0
  0
ELLIPSE
  5
1BB
330
1F
100
AcDbEntity
  8
0
  6
CONTINUOUS
 62
     7
100
AcDbEllipse
 10
389.0451765829
 20
381.0146227533
 30
0.0
 11
4.0
 21
0.0
 31
0.0
210
0.0
220
0.0
230
1.0
 40
0.0524077793
 41
4.290920240661766
 42
4.712388980384691
  0
LINE
  5
1BC
330
1F
100
AcDbEntity
  8
0
  6
CONTINUOUS
 62
     7
100
AcDbLine
 10
387.5623563701
 20
381.0076899741
 30
0.0
 11
387.4087701017
 21
380.8233402584
 31
0.0
  0
ELLIPSE
  5
1BD
330
1F
100
AcDbEntity
  8
0
  6
CONTINUOUS
 62
     7
100
AcDbEllipse
 10
389.0451765829
 20
381.0146227533
 30
0.0
 11
1.488715574274806
 21
0.0
 31
0.0
210
0.0
220
0.0
230
1.0
 40
0.0524077793
 41
3.230604196433022
 42
3.262372710970708
  0
ELLIPSE
  5
1BE
330
1F
100
AcDbEntity
  8
0
  6
CONTINUOUS
 62
     7
100
AcDbEllipse
 10
389.0451765829
 20
359.2242538705
 30
0.0
 11
4.0
 21
0.0
 31
0.0
210
0.0
220
0.0
230
1.0
 40
0.0524077793
 41
1.570796326794897
 42
1.992265066517865
  0
LINE
  5
1BF
330
1F
100
AcDbEntity
  8
0
  6
CONTINUOUS
 62
     7
100
AcDbLine
 10
390.0451729471
 20
359.4338856552
 30
0.0
 11
389.0451783711
 21
359.4338856552
 31
0.0
  0
LINE
  5
1C0
330
1F
100
AcDbEntity
  8
0
  6
CONTINUOUS
 62
     7
100
AcDbLine
 10
390.8237213665
 20
359.5861606215
 30
0.0
 11
390.5280003721
 21
359.2311926101
 31
0.0
  0
ELLIPSE
  5
1C1
330
1F
100
AcDbEntity
  8
0
  6
CONTINUOUS
 62
     7
100
AcDbEllipse
 10
389.0451765829
 20
359.2242538705
 30
0.0
 11
1.488715574274806
 21
0.0
 31
0.0
210
0.0
220
0.0
230
1.0
 40
0.0524077793
 41
0.0890115428436928
 42
0.12078005738137
  0
ELLIPSE
  5
1C2
330
1F
100
AcDbEntity
  8
0
  6
CONTINUOUS
 62
     7
100
AcDbEllipse
 10
389.0451765829
 20
359.2294946484
 30
0.0
 11
1.479999999999961
 21
0.0
 31
0.0
210
0.0
220
0.0
230
1.0
 40
0.0524077793
 41
0.0536543242769337
 42
3.087938329312855
  0
ELLIPSE
  5
1C3
330
1F
100
AcDbEntity
  8
0
  6
CONTINUOUS
 62
     7
100
AcDbEllipse
 10
389.0451765829
 20
359.2242538705
 30
0.0
 11
1.488715574274806
 21
0.0
 31
0.0
210
0.0
220
0.0
230
1.0
 40
0.0524077793
 41
3.020812596208423
 42
3.052581110746097
  0
LINE
  5
1C4
330
1F
100
AcDbEntity
  8
0
  6
CONTINUOUS
 62
     7
100
AcDbLine
 10
387.5623563701
 20
359.2311926101
 30
0.0
 11
387.4087701017
 21
359.4155423258
 31
0.0
  0
LINE
  5
1C5
330
1F
100
AcDbEntity
  8
0
  6
CONTINUOUS
 62
     7
100
AcDbLine
 10
390.8237213665
 20
354.1527166878
 30
0.0
 11
390.5280003721
 21
354.5076846991
 31
0.0
  0
LINE
  5
1C6
330
1F
100
AcDbEntity
  8
0
  6
CONTINUOUS
 62
     7
100
AcDbLine
 10
390.5280003721
 20
354.5076846991
 30
0.0
 11
390.5280003721
 21
354.6194396828
 31
0.0
  0
LINE
  5
1C7
330
1F
100
AcDbEntity
  8
0
  6
CONTINUOUS
 62
     7
100
AcDbLine
 10
390.5280003721
 20
354.6194396828
 30
0.0
 11
390.5237684423
 21
354.6194396828
 31
0.0
  0
LINE
  5
1C8
330
1F
100
AcDbEntity
  8
0
  6
CONTINUOUS
 62
     7
100
AcDbLine
 10
390.5237684423
 20
358.9761145328
 30
0.0
 11
390.5237684423
 21
354.6194396828
 31
0.0
  0
LINE
  5
1C9
330
1F
100
AcDbEntity
  8
0
  6
CONTINUOUS
 62
     7
100
AcDbLine
 10
390.5280003721
 20
358.9811883782
 30
0.0
 11
390.5237684423
 21
358.9761145328
 31
0.0
  0
LINE
  5
1CA
330
1F
100
AcDbEntity
  8
0
  6
CONTINUOUS
 62
     7
100
AcDbLine
 10
390.5280003721
 20
359.2311926101
 30
0.0
 11
390.5280003721
 21
358.9811883782
 31
0.0
  0
ELLIPSE
  5
1CB
330
1F
100
AcDbEntity
  8
0
  6
CONTINUOUS
 62
     7
100
AcDbEllipse
 10
389.0451765829
 20
354.5093819754
 30
0.0
 11
1.479999999999961
 21
0.0
 31
0.0
210
0.0
220
0.0
230
1.0
 40
0.0524077793
 41
3.228859116189826
 42
6.195918844580085
  0
LINE
  5
1CC
330
1F
100
AcDbEntity
  8
0
  6
CONTINUOUS
 62
     7
100
AcDbLine
 10
390.5195439631
 20
354.5026220296
 30
0.0
 11
390.5280003721
 21
354.5076846991
 31
0.0
  0
LINE
  5
1CD
330
1F
100
AcDbEntity
  8
0
  6
CONTINUOUS
 62
     7
100
AcDbLine
 10
390.0451729471
 20
354.304991654
 30
0.0
 11
389.0451783711
 21
354.304991654
 31
0.0
  0
ELLIPSE
  5
1CE
330
1F
100
AcDbEntity
  8
0
  6
CONTINUOUS
 62
     7
100
AcDbEllipse
 10
389.0451765829
 20
354.5146227533
 30
0.0
 11
4.0
 21
0.0
 31
0.0
210
0.0
220
0.0
230
1.0
 40
0.0524077793
 41
4.290920240661555
 42
4.712388980384691
  0
LINE
  5
1CF
330
1F
100
AcDbEntity
  8
0
  6
CONTINUOUS
 62
     7
100
AcDbLine
 10
387.5623563701
 20
354.5076846991
 30
0.0
 11
387.4087701017
 21
354.3233349834
 31
0.0
  0
LINE
  5
1D0
330
1F
100
AcDbEntity
  8
0
  6
CONTINUOUS
 62
     7
100
AcDbLine
 10
387.5623563701
 20
354.5076846991
 30
0.0
 11
387.5708053285
 21
354.5026220296
 31
0.0
  0
LINE
  5
1D1
330
1F
100
AcDbEntity
  8
0
  6
CONTINUOUS
 62
     7
100
AcDbLine
 10
390.5237684423
 20
231.262762091
 30
0.0
 11
390.5237684423
 21
235.7261106287
 31
0.0
  0
LINE
  5
1D2
330
1F
100
AcDbEntity
  8
0
  6
CONTINUOUS
 62
     7
100
AcDbLine
 10
390.5237684423
 20
235.7261106287
 30
0.0
 11
390.5280003721
 21
235.7311919246
 31
0.0
  0
LINE
  5
1D3
330
1F
100
AcDbEntity
  8
0
  6
CONTINUOUS
 62
     7
100
AcDbLine
 10
390.8237213665
 20
236.086159936
 30
0.0
 11
390.5280003721
 21
235.7311919246
 31
0.0
  0
LINE
  5
1D4
330
1F
100
AcDbEntity
  8
0
  6
CONTINUOUS
 62
     7
100
AcDbLine
 10
390.8237213665
 20
230.6527160023
 30
0.0
 11
390.5280003721
 21
231.0076840137
 31
0.0
  0
LINE
  5
1D5
330
1F
100
AcDbEntity
  8
0
  6
CONTINUOUS
 62
     7
100
AcDbLine
 10
390.5280003721
 20
231.2576882456
 30
0.0
 11
390.5280003721
 21
231.0076840137
 31
0.0
  0
LINE
  5
1D6
330
1F
100
AcDbEntity
  8
0
  6
CONTINUOUS
 62
     7
100
AcDbLine
 10
390.5280003721
 20
231.2576882456
 30
0.0
 11
390.5237684423
 21
231.262762091
 31
0.0
  0
LINE
  5
1D7
330
1F
100
AcDbEntity
  8
0
  6
CONTINUOUS
 62
     7
100
AcDbLine
 10
387.5623563701
 20
235.7311919246
 30
0.0
 11
387.5708053285
 21
235.7362545942
 31
0.0
  0
LINE
  5
1D8
330
1F
100
AcDbEntity
  8
0
  6
CONTINUOUS
 62
     7
100
AcDbLine
 10
387.5623563701
 20
235.7311919246
 30
0.0
 11
387.4087701017
 21
235.9155416404
 31
0.0
  0
ELLIPSE
  5
1D9
330
1F
100
AcDbEntity
  8
0
  6
CONTINUOUS
 62
     7
100
AcDbEllipse
 10
389.0451765829
 20
235.7242538705
 30
0.0
 11
4.0
 21
0.0
 31
0.0
210
0.0
220
0.0
230
1.0
 40
0.0524077793
 41
1.570796326794897
 42
1.992265066517976
  0
LINE
  5
1DA
330
1F
100
AcDbEntity
  8
0
  6
CONTINUOUS
 62
     7
100
AcDbLine
 10
390.0451729471
 20
235.9338849698
 30
0.0
 11
389.0451783711
 21
235.9338849698
 31
0.0
  0
LINE
  5
1DB
330
1F
100
AcDbEntity
  8
0
  6
CONTINUOUS
 62
     7
100
AcDbLine
 10
390.5195439631
 20
235.7362545942
 30
0.0
 11
390.5280003721
 21
235.7311919246
 31
0.0
  0
ELLIPSE
  5
1DC
330
1F
100
AcDbEntity
  8
0
  6
CONTINUOUS
 62
     7
100
AcDbEllipse
 10
389.0451765829
 20
235.7294946484
 30
0.0
 11
1.479999999999961
 21
0.0
 31
0.0
210
0.0
220
0.0
230
1.0
 40
0.0524077793
 41
0.0872664626000995
 42
3.054326190989687
  0
ELLIPSE
  5
1DD
330
1F
100
AcDbEntity
  8
0
  6
CONTINUOUS
 62
     7
100
AcDbEllipse
 10
389.0451765829
 20
231.0093819754
 30
0.0
 11
1.479999999999961
 21
0.0
 31
0.0
210
0.0
220
0.0
230
1.0
 40
0.0524077793
 41
3.195246977866977
 42
6.229530982902944
  0
ELLIPSE
  5
1DE
330
1F
100
AcDbEntity
  8
0
  6
CONTINUOUS
 62
     7
100
AcDbEllipse
 10
389.0451765829
 20
231.0146227533
 30
0.0
 11
1.488715574274806
 21
0.0
 31
0.0
210
0.0
220
0.0
230
1.0
 40
0.0524077793
 41
6.162405249799251
 42
6.19417376433692
  0
LINE
  5
1DF
330
1F
100
AcDbEntity
  8
0
  6
CONTINUOUS
 62
     7
100
AcDbLine
 10
390.0451729471
 20
230.8049909685
 30
0.0
 11
389.0451783711
 21
230.8049909685
 31
0.0
  0
ELLIPSE
  5
1E0
330
1F
100
AcDbEntity
  8
0
  6
CONTINUOUS
 62
     7
100
AcDbEllipse
 10
389.0451765829
 20
231.0146227533
 30
0.0
 11
4.0
 21
0.0
 31
0.0
210
0.0
220
0.0
230
1.0
 40
0.0524077793
 41
4.290920240661656
 42
4.712388980384691
  0
LINE
  5
1E1
330
1F
100
AcDbEntity
  8
0
  6
CONTINUOUS
 62
     7
100
AcDbLine
 10
387.5623563701
 20
231.0076840137
 30
0.0
 11
387.4087701017
 21
230.823334298
 31
0.0
  0
ELLIPSE
  5
1E2
330
1F
100
AcDbEntity
  8
0
  6
CONTINUOUS
 62
     7
100
AcDbEllipse
 10
389.0451765829
 20
231.0146227533
 30
0.0
 11
1.488715574274806
 21
0.0
 31
0.0
210
0.0
220
0.0
230
1.0
 40
0.0524077793
 41
3.23060419643299
 42
3.262372710970664
  0
ELLIPSE
  5
1E3
330
1F
100
AcDbEntity
  8
0
  6
CONTINUOUS
 62
     7
100
AcDbEllipse
 10
389.0451765829
 20
209.2242538705
 30
0.0
 11
4.0
 21
0.0
 31
0.0
210
0.0
220
0.0
230
1.0
 40
0.0524077793
 41
1.570796326794897
 42
1.992265066517921
  0
LINE
  5
1E4
330
1F
100
AcDbEntity
  8
0
  6
CONTINUOUS
 62
     7
100
AcDbLine
 10
389.0451783711
 20
209.4338871454
 30
0.0
 11
390.0451729471
 21
209.4338871454
 31
0.0
  0
LINE
  5
1E5
330
1F
100
AcDbEntity
  8
0
  6
CONTINUOUS
 62
     7
100
AcDbLine
 10
390.8237213665
 20
209.5861621116
 30
0.0
 11
390.5280003721
 21
209.2311866496
 31
0.0
  0
ELLIPSE
  5
1E6
330
1F
100
AcDbEntity
  8
0
  6
CONTINUOUS
 62
     7
100
AcDbEllipse
 10
389.0451765829
 20
209.2242538705
 30
0.0
 11
1.488715574274806
 21
0.0
 31
0.0
210
0.0
220
0.0
230
1.0
 40
0.0524077793
 41
0.08901154284333
 42
0.1207800573806467
  0
ELLIPSE
  5
1E7
330
1F
100
AcDbEntity
  8
0
  6
CONTINUOUS
 62
     7
100
AcDbEllipse
 10
389.0451765829
 20
209.2294946484
 30
0.0
 11
1.479999999999961
 21
0.0
 31
0.0
210
0.0
220
0.0
230
1.0
 40
0.0524077793
 41
0.0536543242765482
 42
3.087938329313246
  0
ELLIPSE
  5
1E8
330
1F
100
AcDbEntity
  8
0
  6
CONTINUOUS
 62
     7
100
AcDbEllipse
 10
389.0451765829
 20
209.2242538705
 30
0.0
 11
1.488715574274806
 21
0.0
 31
0.0
210
0.0
220
0.0
230
1.0
 40
0.0524077793
 41
3.020812596209141
 42
3.052581110746467
  0
LINE
  5
1E9
330
1F
100
AcDbEntity
  8
0
  6
CONTINUOUS
 62
     7
100
AcDbLine
 10
387.5623563701
 20
209.2311866496
 30
0.0
 11
387.4087701017
 21
209.4155363653
 31
0.0
  0
LINE
  5
1EA
330
1F
100
AcDbEntity
  8
0
  6
CONTINUOUS
 62
     7
100
AcDbLine
 10
390.8237213665
 20
204.1527144526
 30
0.0
 11
390.5280003721
 21
204.5076899145
 31
0.0
  0
LINE
  5
1EB
330
1F
100
AcDbEntity
  8
0
  6
CONTINUOUS
 62
     7
100
AcDbLine
 10
390.5280003721
 20
204.5076899145
 30
0.0
 11
390.5280003721
 21
204.6194411729
 31
0.0
  0
LINE
  5
1EC
330
1F
100
AcDbEntity
  8
0
  6
CONTINUOUS
 62
     7
100
AcDbLine
 10
390.5280003721
 20
204.6194411729
 30
0.0
 11
390.5237684423
 21
204.6194411729
 31
0.0
  0
LINE
  5
1ED
330
1F
100
AcDbEntity
  8
0
  6
CONTINUOUS
 62
     7
100
AcDbLine
 10
390.5237684423
 20
208.9761085723
 30
0.0
 11
390.5237684423
 21
204.6194411729
 31
0.0
  0
LINE
  5
1EE
330
1F
100
AcDbEntity
  8
0
  6
CONTINUOUS
 62
     7
100
AcDbLine
 10
390.5280003721
 20
208.9811898683
 30
0.0
 11
390.5237684423
 21
208.9761085723
 31
0.0
  0
LINE
  5
1EF
330
1F
100
AcDbEntity
  8
0
  6
CONTINUOUS
 62
     7
100
AcDbLine
 10
390.5280003721
 20
209.2311866496
 30
0.0
 11
390.5280003721
 21
208.9811898683
 31
0.0
  0
ELLIPSE
  5
1F0
330
1F
100
AcDbEntity
  8
0
  6
CONTINUOUS
 62
     7
100
AcDbEllipse
 10
389.0451765829
 20
204.5093819754
 30
0.0
 11
1.479999999999961
 21
0.0
 31
0.0
210
0.0
220
0.0
230
1.0
 40
0.0524077793
 41
3.228859116189794
 42
6.195918844580117
  0
LINE
  5
1F1
330
1F
100
AcDbEntity
  8
0
  6
CONTINUOUS
 62
     7
100
AcDbLine
 10
390.5195439631
 20
204.5026235197
 30
0.0
 11
390.5280003721
 21
204.5076899145
 31
0.0
  0
LINE
  5
1F2
330
1F
100
AcDbEntity
  8
0
  6
CONTINUOUS
 62
     7
100
AcDbLine
 10
389.0451783711
 20
204.3049894188
 30
0.0
 11
390.0451729471
 21
204.3049894188
 31
0.0
  0
ELLIPSE
  5
1F3
330
1F
100
AcDbEntity
  8
0
  6
CONTINUOUS
 62
     7
100
AcDbEllipse
 10
389.0451765829
 20
204.5146227533
 30
0.0
 11
4.0
 21
0.0
 31
0.0
210
0.0
220
0.0
230
1.0
 40
0.0524077793
 41
4.290920240661761
 42
4.712388980384691
  0
LINE
  5
1F4
330
1F
100
AcDbEntity
  8
0
  6
CONTINUOUS
 62
     7
100
AcDbLine
 10
387.5623563701
 20
204.5076899145
 30
0.0
 11
387.4087701017
 21
204.3233401988
 31
0.0
  0
LINE
  5
1F5
330
1F
100
AcDbEntity
  8
0
  6
CONTINUOUS
 62
     7
100
AcDbLine
 10
387.5708053285
 20
204.5026235197
 30
0.0
 11
387.5623563701
 21
204.5076899145
 31
0.0
  0
LINE
  5
1F6
330
1F
100
AcDbEntity
  8
0
  6
CONTINUOUS
 62
     7
100
AcDbLine
 10
538.0451748544
 20
419.8415912603
 30
0.0
 11
538.0451748544
 21
417.1389378522
 31
0.0
  0
ARC
  5
1F7
330
1F
100
AcDbEntity
  8
0
  6
CONTINUOUS
 62
     7
100
AcDbCircle
 10
538.0451765829
 20
414.1194383119
 30
0.0
 40
5.722152582151807
100
AcDbArc
 50
0.0
 51
90.0
  0
LINE
  5
1F8
330
1F
100
AcDbEntity
  8
0
  6
CONTINUOUS
 62
     7
100
AcDbLine
 10
543.7673325116
 20
414.1194410537
 30
0.0
 11
541.0646791035
 21
414.1194410537
 31
0.0
  0
LINE
  5
1F9
330
1F
100
AcDbEntity
  8
0
  6
CONTINUOUS
 62
     7
100
AcDbLine
 10
394.3230206543
 20
414.1194410537
 30
0.0
 11
397.0256740624
 21
414.1194410537
 31
0.0
  0
ARC
  5
1FA
330
1F
100
AcDbEntity
  8
0
  6
CONTINUOUS
 62
     7
100
AcDbCircle
 10
400.0451765829
 20
414.1194383119
 30
0.0
 40
5.72215258215175
100
AcDbArc
 50
90.0
 51
180.0
  0
LINE
  5
1FB
330
1F
100
AcDbEntity
  8
0
  6
CONTINUOUS
 62
     7
100
AcDbLine
 10
400.0451783115
 20
419.8415912603
 30
0.0
 11
400.0451783115
 21
417.1389378522
 31
0.0
  0
LINE
  5
1FC
330
1F
100
AcDbEntity
  8
0
  6
CONTINUOUS
 62
     7
100
AcDbLine
 10
541.0646791035
 20
176.1194355701
 30
0.0
 11
543.7673325116
 21
176.1194355701
 31
0.0
  0
ARC
  5
1FD
330
1F
100
AcDbEntity
  8
0
  6
CONTINUOUS
 62
     7
100
AcDbCircle
 10
538.0451765829
 20
176.1194383119
 30
0.0
 40
5.722152582151807
100
AcDbArc
 50
270.0
 51
0.0
  0
LINE
  5
1FE
330
1F
100
AcDbEntity
  8
0
  6
CONTINUOUS
 62
     7
100
AcDbLine
 10
538.0451748544
 20
173.0999387716
 30
0.0
 11
538.0451748544
 21
170.3972853635
 31
0.0
  0
ARC
  5
1FF
330
1F
100
AcDbEntity
  8
0
  6
CONTINUOUS
 62
     7
100
AcDbCircle
 10
400.0451765829
 20
176.1194383119
 30
0.0
 40
5.72215258215175
100
AcDbArc
 50
180.0
 51
270.0
  0
LINE
  5
200
330
1F
100
AcDbEntity
  8
0
  6
CONTINUOUS
 62
     7
100
AcDbLine
 10
397.0256740624
 20
176.1194355701
 30
0.0
 11
394.3230206543
 21
176.1194355701
 31
0.0
  0
LINE
  5
201
330
1F
100
AcDbEntity
  8
0
  6
CONTINUOUS
 62
     7
100
AcDbLine
 10
400.0451783115
 20
173.0999387716
 30
0.0
 11
400.0451783115
 21
170.3972853635
 31
0.0
  0
LINE
  5
202
330
1F
100
AcDbEntity
  8
0
  6
CONTINUOUS
 62
     7
100
AcDbLine
 10
400.0451783115
 20
419.8415912603
 30
0.0
 11
538.0451748544
 21
419.8415912603
 31
0.0
  0
LINE
  5
203
330
1F
100
AcDbEntity
  8
0
  6
CONTINUOUS
 62
     7
100
AcDbLine
 10
543.7673325116
 20
414.1194410537
 30
0.0
 11
543.7673325116
 21
380.119439206
 31
0.0
  0
LINE
  5
204
330
1F
100
AcDbEntity
  8
0
  6
CONTINUOUS
 62
     7
100
AcDbLine
 10
394.3230206543
 20
388.3415944789
 30
0.0
 11
394.3230206543
 21
414.1194410537
 31
0.0
  0
CIRCLE
  5
205
330
1F
100
AcDbEntity
  8
0
  6
CONTINUOUS
 62
     7
100
AcDbCircle
 10
548.5451765829
 20
295.1194383119
 30
0.0
 40
3.499999999999886
  0
LINE
  5
206
330
1F
100
AcDbEntity
  8
0
  6
CONTINUOUS
 62
     7
100
AcDbLine
 10
543.7673325116
 20
282.8680565496
 30
0.0
 11
543.7673325116
 21
230.1028482531
 31
0.0
  0
LINE
  5
207
330
1F
100
AcDbEntity
  8
0
  6
CONTINUOUS
 62
     7
100
AcDbLine
 10
543.7673325116
 20
360.1194359277
 30
0.0
 11
543.7673325116
 21
307.3708200742
 31
0.0
  0
LINE
  5
208
330
1F
100
AcDbEntity
  8
0
  6
CONTINUOUS
 62
     7
100
AcDbLine
 10
543.7673325116
 20
307.3708200742
 30
0.0
 11
548.4928111011
 21
307.4465347369
 31
0.0
  0
ELLIPSE
  5
209
330
1F
100
AcDbEntity
  8
0
  6
CONTINUOUS
 62
     7
100
AcDbEllipse
 10
548.4692898365
 20
302.4392960998
 30
0.0
 11
4.9253964045879
 21
1.584454102473444
 31
0.0
210
0.0
220
0.0
230
1.0
 40
0.9645234038
 41
5.982325860482078
 42
7.548560792320592
  0
LINE
  5
20A
330
1F
100
AcDbEntity
  8
0
  6
CONTINUOUS
 62
     7
100
AcDbLine
 10
553.6263281876
 20
302.5447637689
 30
0.0
 11
553.6263281876
 21
287.6941128549
 31
0.0
  0
ELLIPSE
  5
20B
330
1F
100
AcDbEntity
  8
0
  6
CONTINUOUS
 62
     7
100
AcDbEllipse
 10
548.4692898365
 20
287.799580524
 30
0.0
 11
4.9253964045879
 21
-1.584454102473501
 31
0.0
210
0.0
220
0.0
230
1.0
 40
0.9645234038
 41
5.017809822038606
 42
6.584044753877106
  0
LINE
  5
20C
330
1F
100
AcDbEntity
  8
0
  6
CONTINUOUS
 62
     7
100
AcDbLine
 10
543.7673325116
 20
282.8680565496
 30
0.0
 11
548.4928111011
 21
282.7923418869
 31
0.0
  0
LINE
  5
20D
330
1F
100
AcDbEntity
  8
0
  6
CONTINUOUS
 62
     7
100
AcDbLine
 10
394.3230206543
 20
238.3415922437
 30
0.0
 11
394.3230206543
 21
351.89728438
 31
0.0
  0
LINE
  5
20E
330
1F
100
AcDbEntity
  8
0
  6
CONTINUOUS
 62
     7
100
AcDbLine
 10
543.7673325116
 20
210.1360298608
 30
0.0
 11
543.7673325116
 21
176.1194355701
 31
0.0
  0
LINE
  5
20F
330
1F
100
AcDbEntity
  8
0
  6
CONTINUOUS
 62
     7
100
AcDbLine
 10
394.3230206543
 20
176.1194355701
 30
0.0
 11
394.3230206543
 21
201.8972821449
 31
0.0
  0
LINE
  5
210
330
1F
100
AcDbEntity
  8
0
  6
CONTINUOUS
 62
     7
100
AcDbLine
 10
538.0451748544
 20
170.3972853635
 30
0.0
 11
400.0451783115
 21
170.3972853635
 31
0.0
  0
LINE
  5
211
330
1F
100
AcDbEntity
  8
0
  6
CONTINUOUS
 62
     7
100
AcDbLine
 10
389.0451783711
 20
388.3049897764
 30
0.0
 11
389.0451783711
 21
385.933887205
 31
0.0
  0
LINE
  5
212
330
1F
100
AcDbEntity
  8
0
  6
CONTINUOUS
 62
     7
100
AcDbLine
 10
387.4087701017
 20
380.8233402584
 30
0.0
 11
387.4087701017
 21
385.915536425
 31
0.0
  0
LINE
  5
213
330
1F
100
AcDbEntity
  8
0
  6
CONTINUOUS
 62
     7
100
AcDbLine
 10
389.0451783711
 20
380.8049894784
 30
0.0
 11
389.0451783711
 21
379.2647085999
 31
0.0
  0
ELLIPSE
  5
214
330
1F
100
AcDbEntity
  8
0
  6
CONTINUOUS
 62
     7
100
AcDbEllipse
 10
389.0451765829
 20
379.334528182
 30
0.0
 11
4.0
 21
0.0
 31
0.0
210
0.0
220
0.0
230
1.0
 40
0.0174550649
 41
3.141592653589786
 42
4.71238898038469
  0
LINE
  5
215
330
1F
100
AcDbEntity
  8
0
  6
CONTINUOUS
 62
     7
100
AcDbLine
 10
389.0451783711
 20
379.2647085999
 30
0.0
 11
390.0451729471
 21
379.2647085999
 31
0.0
  0
LINE
  5
216
330
1F
100
AcDbEntity
  8
0
  6
CONTINUOUS
 62
     7
100
AcDbLine
 10
389.0451783711
 20
360.9741665338
 30
0.0
 11
389.0451783711
 21
359.4338856552
 31
0.0
  0
LINE
  5
217
330
1F
100
AcDbEntity
  8
0
  6
CONTINUOUS
 62
     7
100
AcDbLine
 10
389.0451783711
 20
360.9741665338
 30
0.0
 11
390.0451729471
 21
360.9741665338
 31
0.0
  0
LINE
  5
218
330
1F
100
AcDbEntity
  8
0
  6
CONTINUOUS
 62
     7
100
AcDbLine
 10
387.4087701017
 20
359.4155423258
 30
0.0
 11
387.4087701017
 21
354.3233349834
 31
0.0
  0
LINE
  5
219
330
1F
100
AcDbEntity
  8
0
  6
CONTINUOUS
 62
     7
100
AcDbLine
 10
389.0451783711
 20
354.304991654
 30
0.0
 11
389.0451783711
 21
351.9338853572
 31
0.0
  0
ELLIPSE
  5
21A
330
1F
100
AcDbEntity
  8
0
  6
CONTINUOUS
 62
     7
100
AcDbEllipse
 10
389.0451765829
 20
360.9043484417
 30
0.0
 11
4.0
 21
0.0
 31
0.0
210
0.0
220
0.0
230
1.0
 40
0.0174550649
 41
1.570796326794897
 42
3.141592653589786
  0
LINE
  5
21B
330
1F
100
AcDbEntity
  8
0
  6
CONTINUOUS
 62
     7
100
AcDbLine
 10
389.0451783711
 20
235.9338849698
 30
0.0
 11
389.0451783711
 21
238.3049912666
 31
0.0
  0
LINE
  5
21C
330
1F
100
AcDbEntity
  8
0
  6
CONTINUOUS
 62
     7
100
AcDbLine
 10
387.4087701017
 20
235.9155416404
 30
0.0
 11
387.4087701017
 21
230.823334298
 31
0.0
  0
LINE
  5
21D
330
1F
100
AcDbEntity
  8
0
  6
CONTINUOUS
 62
     7
100
AcDbLine
 10
389.0451783711
 20
229.26471009
 30
0.0
 11
389.0451783711
 21
230.8049909685
 31
0.0
  0
ELLIPSE
  5
21E
330
1F
100
AcDbEntity
  8
0
  6
CONTINUOUS
 62
     7
100
AcDbEllipse
 10
389.0451765829
 20
229.334528182
 30
0.0
 11
4.0
 21
0.0
 31
0.0
210
0.0
220
0.0
230
1.0
 40
0.0174550649
 41
3.141592653589786
 42
4.712388980384704
  0
LINE
  5
21F
330
1F
100
AcDbEntity
  8
0
  6
CONTINUOUS
 62
     7
100
AcDbLine
 10
389.0451783711
 20
229.26471009
 30
0.0
 11
390.0451729471
 21
229.26471009
 31
0.0
  0
LINE
  5
220
330
1F
100
AcDbEntity
  8
0
  6
CONTINUOUS
 62
     7
100
AcDbLine
 10
389.0451783711
 20
209.4338871454
 30
0.0
 11
389.0451783711
 21
210.9741680239
 31
0.0
  0
LINE
  5
221
330
1F
100
AcDbEntity
  8
0
  6
CONTINUOUS
 62
     7
100
AcDbLine
 10
389.0451783711
 20
210.9741680239
 30
0.0
 11
390.0451729471
 21
210.9741680239
 31
0.0
  0
LINE
  5
222
330
1F
100
AcDbEntity
  8
0
  6
CONTINUOUS
 62
     7
100
AcDbLine
 10
387.4087701017
 20
204.3233401988
 30
0.0
 11
387.4087701017
 21
209.4155363653
 31
0.0
  0
LINE
  5
223
330
1F
100
AcDbEntity
  8
0
  6
CONTINUOUS
 62
     7
100
AcDbLine
 10
389.0451783711
 20
201.9338868473
 30
0.0
 11
389.0451783711
 21
204.3049894188
 31
0.0
  0
ELLIPSE
  5
224
330
1F
100
AcDbEntity
  8
0
  6
CONTINUOUS
 62
     7
100
AcDbEllipse
 10
389.0451765829
 20
210.9043484417
 30
0.0
 11
4.0
 21
0.0
 31
0.0
210
0.0
220
0.0
230
1.0
 40
0.0174550649
 41
1.570796326794897
 42
3.141592653589786
  0
LINE
  5
225
330
1F
100
AcDbEntity
  8
0
  6
CONTINUOUS
 62
     7
100
AcDbLine
 10
387.5665882999
 20
385.7261128639
 30
0.0
 11
387.5623563701
 21
385.7311867092
 31
0.0
  0
LINE
  5
226
330
1F
100
AcDbEntity
  8
0
  6
CONTINUOUS
 62
     7
100
AcDbLine
 10
387.5665882999
 20
381.2627680515
 30
0.0
 11
387.5665882999
 21
385.7261128639
 31
0.0
  0
LINE
  5
227
330
1F
100
AcDbEntity
  8
0
  6
CONTINUOUS
 62
     7
100
AcDbLine
 10
387.5665882999
 20
381.2627680515
 30
0.0
 11
387.5623563701
 21
381.2576867555
 31
0.0
  0
LINE
  5
228
330
1F
100
AcDbEntity
  8
0
  6
CONTINUOUS
 62
     7
100
AcDbLine
 10
387.5623563701
 20
381.0076899741
 30
0.0
 11
387.5623563701
 21
381.2576867555
 31
0.0
  0
LINE
  5
229
330
1F
100
AcDbEntity
  8
0
  6
CONTINUOUS
 62
     7
100
AcDbLine
 10
387.5665882999
 20
358.9761145328
 30
0.0
 11
387.5665882999
 21
354.6194396828
 31
0.0
  0
LINE
  5
22A
330
1F
100
AcDbEntity
  8
0
  6
CONTINUOUS
 62
     7
100
AcDbLine
 10
387.5665882999
 20
354.6194396828
 30
0.0
 11
387.5623563701
 21
354.6194396828
 31
0.0
  0
LINE
  5
22B
330
1F
100
AcDbEntity
  8
0
  6
CONTINUOUS
 62
     7
100
AcDbLine
 10
387.5623563701
 20
354.5076846991
 30
0.0
 11
387.5623563701
 21
354.6194396828
 31
0.0
  0
LINE
  5
22C
330
1F
100
AcDbEntity
  8
0
  6
CONTINUOUS
 62
     7
100
AcDbLine
 10
387.5623563701
 20
358.9811883782
 30
0.0
 11
387.5623563701
 21
359.2311926101
 31
0.0
  0
LINE
  5
22D
330
1F
100
AcDbEntity
  8
0
  6
CONTINUOUS
 62
     7
100
AcDbLine
 10
387.5665882999
 20
358.9761145328
 30
0.0
 11
387.5623563701
 21
358.9811883782
 31
0.0
  0
LINE
  5
22E
330
1F
100
AcDbEntity
  8
0
  6
CONTINUOUS
 62
     7
100
AcDbLine
 10
387.5665882999
 20
235.7261106287
 30
0.0
 11
387.5623563701
 21
235.7311919246
 31
0.0
  0
LINE
  5
22F
330
1F
100
AcDbEntity
  8
0
  6
CONTINUOUS
 62
     7
100
AcDbLine
 10
387.5665882999
 20
231.262762091
 30
0.0
 11
387.5665882999
 21
235.7261106287
 31
0.0
  0
LINE
  5
230
330
1F
100
AcDbEntity
  8
0
  6
CONTINUOUS
 62
     7
100
AcDbLine
 10
387.5665882999
 20
231.262762091
 30
0.0
 11
387.5623563701
 21
231.2576882456
 31
0.0
  0
LINE
  5
231
330
1F
100
AcDbEntity
  8
0
  6
CONTINUOUS
 62
     7
100
AcDbLine
 10
387.5623563701
 20
231.0076840137
 30
0.0
 11
387.5623563701
 21
231.2576882456
 31
0.0
  0
LINE
  5
232
330
1F
100
AcDbEntity
  8
0
  6
CONTINUOUS
 62
     7
100
AcDbLine
 10
387.5665882999
 20
208.9761085723
 30
0.0
 11
387.5665882999
 21
204.6194411729
 31
0.0
  0
LINE
  5
233
330
1F
100
AcDbEntity
  8
0
  6
CONTINUOUS
 62
     7
100
AcDbLine
 10
387.5665882999
 20
204.6194411729
 30
0.0
 11
387.5623563701
 21
204.6194411729
 31
0.0
  0
LINE
  5
234
330
1F
100
AcDbEntity
  8
0
  6
CONTINUOUS
 62
     7
100
AcDbLine
 10
387.5623563701
 20
204.5076899145
 30
0.0
 11
387.5623563701
 21
204.6194411729
 31
0.0
  0
LINE
  5
235
330
1F
100
AcDbEntity
  8
0
  6
CONTINUOUS
 62
     7
100
AcDbLine
 10
387.5623563701
 20
208.9811898683
 30
0.0
 11
387.5623563701
 21
209.2311866496
 31
0.0
  0
LINE
  5
236
330
1F
100
AcDbEntity
  8
0
  6
CONTINUOUS
 62
     7
100
AcDbLine
 10
387.5665882999
 20
208.9761085723
 30
0.0
 11
387.5623563701
 21
208.9811898683
 31
0.0
  0
LINE
  5
237
330
1F
100
AcDbEntity
  8
0
  6
CONTINUOUS
 62
     7
100
AcDbLine
 10
538.0451748544
 20
419.8415912603
 30
0.0
 11
538.0451748544
 21
420.2504642223
 31
0.0
  0
LINE
  5
238
330
1F
100
AcDbEntity
  8
0
  6
CONTINUOUS
 62
     7
100
AcDbLine
 10
400.0451783115
 20
419.8415912603
 30
0.0
 11
400.0451783115
 21
420.1718456958
 31
0.0
  0
LINE
  5
239
330
1F
100
AcDbEntity
  8
0
  6
CONTINUOUS
 62
     7
100
AcDbLine
 10
400.0451783115
 20
420.1718456958
 30
0.0
 11
400.3096664721
 21
420.1718456958
 31
0.0
  0
LINE
  5
23A
330
1F
100
AcDbEntity
  8
0
  6
CONTINUOUS
 62
     7
100
AcDbLine
 10
401.8096695119
 20
420.2504642223
 30
0.0
 11
400.3096664721
 21
420.1718456958
 31
0.0
  0
LINE
  5
23B
330
1F
100
AcDbEntity
  8
0
  6
CONTINUOUS
 62
     7
100
AcDbLine
 10
401.8096695119
 20
420.2504642223
 30
0.0
 11
538.0451748544
 21
420.2504642223
 31
0.0
  0
LINE
  5
23C
330
1F
100
AcDbEntity
  8
0
  6
CONTINUOUS
 62
     7
100
AcDbLine
 10
394.3230206543
 20
414.1194410537
 30
0.0
 11
393.9927662188
 21
414.1194410537
 31
0.0
  0
ARC
  5
23D
330
1F
100
AcDbEntity
  8
0
  6
CONTINUOUS
 62
     7
100
AcDbCircle
 10
400.0451765829
 20
414.1194383119
 30
0.0
 40
6.052407779282987
100
AcDbArc
 50
90.0
 51
180.0
  0
ARC
  5
23E
330
1F
100
AcDbEntity
  8
0
  6
CONTINUOUS
 62
     7
100
AcDbCircle
 10
538.0451765829
 20
414.1194383119
 30
0.0
 40
6.13101944820778
100
AcDbArc
 50
0.0
 51
90.0
  0
LINE
  5
23F
330
1F
100
AcDbEntity
  8
0
  6
CONTINUOUS
 62
     7
100
AcDbLine
 10
543.7673325116
 20
414.1194410537
 30
0.0
 11
544.176198023
 21
414.1194410537
 31
0.0
  0
LINE
  5
240
330
1F
100
AcDbEntity
  8
0
  6
CONTINUOUS
 62
     7
100
AcDbLine
 10
394.3230206543
 20
176.1194355701
 30
0.0
 11
393.9927662188
 21
176.1194355701
 31
0.0
  0
LINE
  5
241
330
1F
100
AcDbEntity
  8
0
  6
CONTINUOUS
 62
     7
100
AcDbLine
 10
393.9927662188
 20
176.1194355701
 30
0.0
 11
393.9927662188
 21
200.4131562923
 31
0.0
  0
LINE
  5
242
330
1F
100
AcDbEntity
  8
0
  6
CONTINUOUS
 62
     7
100
AcDbLine
 10
393.9927662188
 20
200.4131562923
 30
0.0
 11
394.0451736027
 21
200.5894817327
 31
0.0
  0
LINE
  5
243
330
1F
100
AcDbEntity
  8
0
  6
CONTINUOUS
 62
     7
100
AcDbLine
 10
394.0451736027
 20
239.6493926559
 30
0.0
 11
394.0451736027
 21
238.5902106677
 31
0.0
  0
LINE
  5
244
330
1F
100
AcDbEntity
  8
0
  6
CONTINUOUS
 62
     7
100
AcDbLine
 10
394.0451736027
 20
201.6486637209
 30
0.0
 11
394.0451736027
 21
200.5894817327
 31
0.0
  0
LINE
  5
245
330
1F
100
AcDbEntity
  8
0
  6
CONTINUOUS
 62
     7
100
AcDbLine
 10
394.0451736027
 20
239.6493926559
 30
0.0
 11
393.9927662188
 21
239.8257180963
 31
0.0
  0
LINE
  5
246
330
1F
100
AcDbEntity
  8
0
  6
CONTINUOUS
 62
     7
100
AcDbLine
 10
393.9927662188
 20
239.8257180963
 30
0.0
 11
393.9927662188
 21
350.4131585274
 31
0.0
  0
LINE
  5
247
330
1F
100
AcDbEntity
  8
0
  6
CONTINUOUS
 62
     7
100
AcDbLine
 10
394.0451736027
 20
350.5894839679
 30
0.0
 11
393.9927662188
 21
350.4131585274
 31
0.0
  0
LINE
  5
248
330
1F
100
AcDbEntity
  8
0
  6
CONTINUOUS
 62
     7
100
AcDbLine
 10
394.0451736027
 20
389.6493948911
 30
0.0
 11
394.0451736027
 21
388.5902129029
 31
0.0
  0
LINE
  5
249
330
1F
100
AcDbEntity
  8
0
  6
CONTINUOUS
 62
     7
100
AcDbLine
 10
394.0451736027
 20
351.6486659561
 30
0.0
 11
394.0451736027
 21
350.5894839679
 31
0.0
  0
LINE
  5
24A
330
1F
100
AcDbEntity
  8
0
  6
CONTINUOUS
 62
     7
100
AcDbLine
 10
393.9927662188
 20
389.8257203315
 30
0.0
 11
394.0451736027
 21
389.6493948911
 31
0.0
  0
LINE
  5
24B
330
1F
100
AcDbEntity
  8
0
  6
CONTINUOUS
 62
     7
100
AcDbLine
 10
393.9927662188
 20
389.8257203315
 30
0.0
 11
393.9927662188
 21
414.1194410537
 31
0.0
  0
LINE
  5
24C
330
1F
100
AcDbEntity
  8
0
  6
CONTINUOUS
 62
     7
100
AcDbLine
 10
544.176198023
 20
357.6194383119
 30
0.0
 11
544.0451795632
 21
358.0602593635
 31
0.0
  0
LINE
  5
24D
330
1F
100
AcDbEntity
  8
0
  6
CONTINUOUS
 62
     7
100
AcDbLine
 10
544.176198023
 20
307.779686517
 30
0.0
 11
544.176198023
 21
357.6194383119
 31
0.0
  0
LINE
  5
24E
330
1F
100
AcDbEntity
  8
0
  6
CONTINUOUS
 62
     7
100
AcDbLine
 10
543.7673325116
 20
307.3708200742
 30
0.0
 11
544.176198023
 21
307.779686517
 31
0.0
  0
LINE
  5
24F
330
1F
100
AcDbEntity
  8
0
  6
CONTINUOUS
 62
     7
100
AcDbLine
 10
544.176198023
 20
382.6194368218
 30
0.0
 11
544.176198023
 21
414.1194410537
 31
0.0
  0
LINE
  5
250
330
1F
100
AcDbEntity
  8
0
  6
CONTINUOUS
 62
     7
100
AcDbLine
 10
544.0451795632
 20
382.1786232208
 30
0.0
 11
544.176198023
 21
382.6194368218
 31
0.0
  0
LINE
  5
251
330
1F
100
AcDbEntity
  8
0
  6
CONTINUOUS
 62
     7
100
AcDbLine
 10
544.0451795632
 20
358.0602593635
 30
0.0
 11
544.0451795632
 21
360.1194359277
 31
0.0
  0
LINE
  5
252
330
1F
100
AcDbEntity
  8
0
  6
CONTINUOUS
 62
     7
100
AcDbLine
 10
544.0451795632
 20
380.119439206
 30
0.0
 11
544.0451795632
 21
382.1786232208
 31
0.0
  0
LINE
  5
253
330
1F
100
AcDbEntity
  8
0
  6
CONTINUOUS
 62
     7
100
AcDbLine
 10
548.4928111011
 20
307.4465347369
 30
0.0
 11
549.0489745909
 21
307.779686517
 31
0.0
  0
LINE
  5
254
330
1F
100
AcDbEntity
  8
0
  6
CONTINUOUS
 62
     7
100
AcDbLine
 10
549.0489745909
 20
307.779686517
 30
0.0
 11
544.176198023
 21
307.779686517
 31
0.0
  0
LINE
  5
255
330
1F
100
AcDbEntity
  8
0
  6
CONTINUOUS
 62
     7
100
AcDbLine
 10
544.176198023
 20
176.1194355701
 30
0.0
 11
544.176198023
 21
207.619439802
 31
0.0
  0
LINE
  5
256
330
1F
100
AcDbEntity
  8
0
  6
CONTINUOUS
 62
     7
100
AcDbLine
 10
543.7673325116
 20
176.1194355701
 30
0.0
 11
544.176198023
 21
176.1194355701
 31
0.0
  0
LINE
  5
257
330
1F
100
AcDbEntity
  8
0
  6
CONTINUOUS
 62
     7
100
AcDbLine
 10
543.7673325116
 20
282.8680565496
 30
0.0
 11
544.176198023
 21
282.4591901068
 31
0.0
  0
LINE
  5
258
330
1F
100
AcDbEntity
  8
0
  6
CONTINUOUS
 62
     7
100
AcDbLine
 10
544.176198023
 20
232.6194383119
 30
0.0
 11
544.176198023
 21
282.4591901068
 31
0.0
  0
LINE
  5
259
330
1F
100
AcDbEntity
  8
0
  6
CONTINUOUS
 62
     7
100
AcDbLine
 10
544.176198023
 20
232.6194383119
 30
0.0
 11
544.0451795632
 21
232.1786172603
 31
0.0
  0
LINE
  5
25A
330
1F
100
AcDbEntity
  8
0
  6
CONTINUOUS
 62
     7
100
AcDbLine
 10
544.0451795632
 20
208.060253403
 30
0.0
 11
544.0451795632
 21
210.1194374178
 31
0.0
  0
LINE
  5
25B
330
1F
100
AcDbEntity
  8
0
  6
CONTINUOUS
 62
     7
100
AcDbLine
 10
544.0451795632
 20
230.1194406961
 30
0.0
 11
544.0451795632
 21
232.1786172603
 31
0.0
  0
LINE
  5
25C
330
1F
100
AcDbEntity
  8
0
  6
CONTINUOUS
 62
     7
100
AcDbLine
 10
544.0451795632
 20
208.060253403
 30
0.0
 11
544.176198023
 21
207.619439802
 31
0.0
  0
LINE
  5
25D
330
1F
100
AcDbEntity
  8
0
  6
CONTINUOUS
 62
     7
100
AcDbLine
 10
549.0489745909
 20
282.4591901068
 30
0.0
 11
548.4928111011
 21
282.7923418869
 31
0.0
  0
LINE
  5
25E
330
1F
100
AcDbEntity
  8
0
  6
CONTINUOUS
 62
     7
100
AcDbLine
 10
549.0489745909
 20
282.4591901068
 30
0.0
 11
544.176198023
 21
282.4591901068
 31
0.0
  0
ARC
  5
25F
330
1F
100
AcDbEntity
  8
0
  6
CONTINUOUS
 62
     7
100
AcDbCircle
 10
538.0451765829
 20
176.1194383119
 30
0.0
 40
6.13101944820778
100
AcDbArc
 50
270.0
 51
0.0
  0
LINE
  5
260
330
1F
100
AcDbEntity
  8
0
  6
CONTINUOUS
 62
     7
100
AcDbLine
 10
538.0451748544
 20
170.3972853635
 30
0.0
 11
538.0451748544
 21
169.9884124015
 31
0.0
  0
LINE
  5
261
330
1F
100
AcDbEntity
  8
0
  6
CONTINUOUS
 62
     7
100
AcDbLine
 10
400.0451783115
 20
170.3972853635
 30
0.0
 11
400.0451783115
 21
170.067030928
 31
0.0
  0
ARC
  5
262
330
1F
100
AcDbEntity
  8
0
  6
CONTINUOUS
 62
     7
100
AcDbCircle
 10
400.0451765829
 20
176.1194383119
 30
0.0
 40
6.052407779282987
100
AcDbArc
 50
180.0
 51
270.0
  0
LINE
  5
263
330
1F
100
AcDbEntity
  8
0
  6
CONTINUOUS
 62
     7
100
AcDbLine
 10
538.0451748544
 20
169.9884124015
 30
0.0
 11
401.8096695119
 21
169.9884124015
 31
0.0
  0
LINE
  5
264
330
1F
100
AcDbEntity
  8
0
  6
CONTINUOUS
 62
     7
100
AcDbLine
 10
400.3096664721
 20
170.067030928
 30
0.0
 11
401.8096695119
 21
169.9884124015
 31
0.0
  0
LINE
  5
265
330
1F
100
AcDbEntity
  8
0
  6
CONTINUOUS
 62
     7
100
AcDbLine
 10
400.3096664721
 20
170.067030928
 30
0.0
 11
400.0451783115
 21
170.067030928
 31
0.0
  0
ELLIPSE
  5
266
330
1F
100
AcDbEntity
  8
0
  6
CONTINUOUS
 62
     7
100
AcDbEllipse
 10
549.0260773952
 20
302.7728250201
 30
0.0
 11
-4.311559617731518
 21
-2.582726215091611
 31
0.0
210
0.0
220
0.0
230
0.9999999999999999
 40
0.9948397973
 41
2.604169274588107
 42
4.170404206426662
  0
LINE
  5
267
330
1F
100
AcDbEntity
  8
0
  6
CONTINUOUS
 62
     7
100
AcDbLine
 10
554.045177477
 20
302.7956630018
 30
0.0
 11
553.6263281876
 21
302.5447637689
 31
0.0
  0
LINE
  5
268
330
1F
100
AcDbEntity
  8
0
  6
CONTINUOUS
 62
     7
100
AcDbLine
 10
553.6263281876
 20
287.6941128549
 30
0.0
 11
554.045177477
 21
287.443213622
 31
0.0
  0
ELLIPSE
  5
269
330
1F
100
AcDbEntity
  8
0
  6
CONTINUOUS
 62
     7
100
AcDbEllipse
 10
549.0260773952
 20
287.4660516037
 30
0.0
 11
-4.311559617731518
 21
2.582726215091611
 31
0.0
210
0.0
220
0.0
230
1.0
 40
0.9948397973
 41
2.112781100752937
 42
3.679016032591494
  0
LINE
  5
26A
330
1F
100
AcDbEntity
  8
0
  6
CONTINUOUS
 62
     7
100
AcDbLine
 10
554.045177477
 20
302.7956630018
 30
0.0
 11
554.045177477
 21
287.443213622
 31
0.0
  0
ELLIPSE
  5
26B
330
1F
100
AcDbEntity
  8
0
  6
CONTINUOUS
 62
     7
100
AcDbEllipse
 10
389.0451765829
 20
381.2593819754
 30
0.0
 11
1.479999999999961
 21
0.0
 31
0.0
210
0.0
220
0.0
230
1.0
 40
0.0524077793
 41
0.0436332313002425
 42
3.097959422289553
  0
ELLIPSE
  5
26C
330
1F
100
AcDbEntity
  8
0
  6
CONTINUOUS
 62
     7
100
AcDbEllipse
 10
389.0451765829
 20
385.7294946484
 30
0.0
 11
1.479999999999961
 21
0.0
 31
0.0
210
0.0
220
0.0
230
1.0
 40
0.0524077793
 41
3.185225884890267
 42
6.239552075879637
  0
ELLIPSE
  5
26D
330
1F
100
AcDbEntity
  8
0
  6
CONTINUOUS
 62
     7
100
AcDbEllipse
 10
389.0451765829
 20
358.9794946484
 30
0.0
 11
1.479999999999961
 21
0.0
 31
0.0
210
0.0
220
0.0
230
1.0
 40
0.0524077793
 41
3.185225884888836
 42
6.239552075881077
  0
LINE
  5
26E
330
1F
100
AcDbEntity
  8
0
  6
CONTINUOUS
 62
     7
100
AcDbLine
 10
387.5665882999
 20
354.6194396828
 30
0.0
 11
390.5237684423
 21
354.6194396828
 31
0.0
  0
ELLIPSE
  5
26F
330
1F
100
AcDbEntity
  8
0
  6
CONTINUOUS
 62
     7
100
AcDbEllipse
 10
389.0451765829
 20
231.2593819754
 30
0.0
 11
1.479999999999961
 21
0.0
 31
0.0
210
0.0
220
0.0
230
1.0
 40
0.0524077793
 41
0.0436332312995103
 42
3.09795942229028
  0
ELLIPSE
  5
270
330
1F
100
AcDbEntity
  8
0
  6
CONTINUOUS
 62
     7
100
AcDbEllipse
 10
389.0451765829
 20
235.7294946484
 30
0.0
 11
1.479999999999961
 21
0.0
 31
0.0
210
0.0
220
0.0
230
1.0
 40
0.0524077793
 41
3.18522588488992
 42
6.239552075879994
  0
ELLIPSE
  5
271
330
1F
100
AcDbEntity
  8
0
  6
CONTINUOUS
 62
     7
100
AcDbEllipse
 10
389.0451765829
 20
208.9794946484
 30
0.0
 11
1.479999999999961
 21
0.0
 31
0.0
210
0.0
220
0.0
230
1.0
 40
0.0524077793
 41
3.185225884890299
 42
6.239552075879605
  0
LINE
  5
272
330
1F
100
AcDbEntity
  8
0
  6
CONTINUOUS
 62
     7
100
AcDbLine
 10
390.5237684423
 20
204.6194411729
 30
0.0
 11
387.5665882999
 21
204.6194411729
 31
0.0
  0
LINE
  5
273
330
1F
100
AcDbEntity
  8
0
  6
CONTINUOUS
 62
     7
100
AcDbLine
 10
538.0451748544
 20
90.229311957
 30
0.0
 11
538.0451748544
 21
98.030956461
 31
0.0
  0
LINE
  5
274
330
1F
100
AcDbEntity
  8
0
  6
CONTINUOUS
 62
     7
100
AcDbLine
 10
400.0451783115
 20
90.229311957
 30
0.0
 11
538.0451748544
 21
90.229311957
 31
0.0
  0
LINE
  5
275
330
1F
100
AcDbEntity
  8
0
  6
CONTINUOUS
 62
     7
100
AcDbLine
 10
400.0451783115
 20
90.229311957
 30
0.0
 11
400.0451783115
 21
96.5309565644
 31
0.0
  0
LINE
  5
276
330
1F
100
AcDbEntity
  8
0
  6
CONTINUOUS
 62
     7
100
AcDbLine
 10
400.0451783115
 20
96.5309565644
 30
0.0
 11
400.3096664721
 21
96.5309565644
 31
0.0
  0
LINE
  5
277
330
1F
100
AcDbEntity
  8
0
  6
CONTINUOUS
 62
     7
100
AcDbLine
 10
401.8096695119
 20
98.030956461
 30
0.0
 11
538.0451748544
 21
98.030956461
 31
0.0
  0
LINE
  5
278
330
1F
100
AcDbEntity
  8
0
  6
CONTINUOUS
 62
     7
100
AcDbLine
 10
401.8096695119
 20
98.030956461
 30
0.0
 11
400.3096664721
 21
96.5309565644
 31
0.0
  0
LINE
  5
279
330
1F
100
AcDbEntity
  8
0
  6
CONTINUOUS
 62
     7
100
AcDbLine
 10
543.7673325116
 20
90.229311957
 30
0.0
 11
544.176198023
 21
98.030956461
 31
0.0
  0
LINE
  5
27A
330
1F
100
AcDbEntity
  8
0
  6
CONTINUOUS
 62
     7
100
AcDbLine
 10
538.0451748544
 20
90.229311957
 30
0.0
 11
543.7673325116
 21
90.229311957
 31
0.0
  0
LINE
  5
27B
330
1F
100
AcDbEntity
  8
0
  6
CONTINUOUS
 62
     7
100
AcDbLine
 10
538.0451748544
 20
98.030956461
 30
0.0
 11
544.176198023
 21
98.030956461
 31
0.0
  0
LINE
  5
27C
330
1F
100
AcDbEntity
  8
0
  6
CONTINUOUS
 62
     7
100
AcDbLine
 10
394.3230206543
 20
90.229311957
 30
0.0
 11
400.0451783115
 21
90.229311957
 31
0.0
  0
LINE
  5
27D
330
1F
100
AcDbEntity
  8
0
  6
CONTINUOUS
 62
     7
100
AcDbLine
 10
394.3230206543
 20
90.229311957
 30
0.0
 11
393.9927662188
 21
96.5309565644
 31
0.0
  0
LINE
  5
27E
330
1F
100
AcDbEntity
  8
0
  6
CONTINUOUS
 62
     7
100
AcDbLine
 10
393.9927662188
 20
96.5309565644
 30
0.0
 11
400.0451783115
 21
96.5309565644
 31
0.0
  0
LINE
  5
27F
330
1F
100
AcDbEntity
  8
0
  6
CONTINUOUS
 62
     7
100
AcDbLine
 10
394.3230206543
 20
90.229311957
 30
0.0
 11
397.0256740624
 21
89.4030281333
 31
0.0
  0
LINE
  5
280
330
1F
100
AcDbEntity
  8
0
  6
CONTINUOUS
 62
     7
100
AcDbLine
 10
400.0451783115
 20
90.229311957
 30
0.0
 11
400.0451783115
 21
89.4030281333
 31
0.0
  0
LINE
  5
281
330
1F
100
AcDbEntity
  8
0
  6
CONTINUOUS
 62
     7
100
AcDbLine
 10
399.020179587
 20
89.455563574
 30
0.0
 11
400.0451783115
 21
89.4030281333
 31
0.0
  0
ARC
  5
282
330
1F
100
AcDbEntity
  8
0
  6
CONTINUOUS
 62
     7
100
AcDbCircle
 10
398.0215521926
 20
83.6650315411
 30
0.0
 40
5.876012074340418
100
AcDbArc
 50
80.2150965209
 51
99.7849034791
  0
LINE
  5
283
330
1F
100
AcDbEntity
  8
0
  6
CONTINUOUS
 62
     7
100
AcDbLine
 10
538.0451748544
 20
90.229311957
 30
0.0
 11
538.0451748544
 21
89.4030281333
 31
0.0
  0
LINE
  5
284
330
1F
100
AcDbEntity
  8
0
  6
CONTINUOUS
 62
     7
100
AcDbLine
 10
400.0451783115
 20
89.4030281333
 30
0.0
 11
538.0451748544
 21
89.4030281333
 31
0.0
  0
LINE
  5
285
330
1F
100
AcDbEntity
  8
0
  6
CONTINUOUS
 62
     7
100
AcDbLine
 10
543.7673325116
 20
90.229311957
 30
0.0
 11
541.0646791035
 21
89.4030281333
 31
0.0
  0
ARC
  5
286
330
1F
100
AcDbEntity
  8
0
  6
CONTINUOUS
 62
     7
100
AcDbCircle
 10
540.0688009733
 20
85.1226367729
 30
0.0
 40
4.446516764464298
100
AcDbArc
 50
77.0214391369
 51
102.9785608631
  0
LINE
  5
287
330
1F
100
AcDbEntity
  8
0
  6
CONTINUOUS
 62
     7
100
AcDbLine
 10
538.0451748544
 20
89.4030281333
 30
0.0
 11
539.0701735789
 21
89.455563574
 31
0.0
  0
LINE
  5
288
330
1F
100
AcDbEntity
  8
0
  6
CONTINUOUS
 62
     7
100
AcDbLine
 10
541.0674283678
 20
89.455563574
 30
0.0
 11
539.606861251
 21
61.5862640542
 31
0.0
  0
ARC
  5
289
330
1F
100
AcDbEntity
  8
0
  6
CONTINUOUS
 62
     7
100
AcDbCircle
 10
538.6082301313
 20
79.4103288181
 30
0.0
 40
17.85201806010685
100
AcDbArc
 50
266.7932347332
 51
273.2067652668
  0
LINE
  5
28A
330
1F
100
AcDbEntity
  8
0
  6
CONTINUOUS
 62
     7
100
AcDbLine
 10
537.6095990116
 20
61.5862640542
 30
0.0
 11
539.0701735789
 21
89.455563574
 31
0.0
  0
LINE
  5
28B
330
1F
100
AcDbEntity
  8
0
  6
CONTINUOUS
 62
     7
100
AcDbLine
 10
399.020179587
 20
89.455563574
 30
0.0
 11
400.4807541543
 21
61.5862640542
 31
0.0
  0
ARC
  5
28C
330
1F
100
AcDbEntity
  8
0
  6
CONTINUOUS
 62
     7
100
AcDbCircle
 10
399.4821230346
 20
79.4099015281
 30
0.0
 40
17.85159143919778
100
AcDbArc
 50
266.7931580171
 51
273.2068419829
  0
LINE
  5
28D
330
1F
100
AcDbEntity
  8
0
  6
CONTINUOUS
 62
     7
100
AcDbLine
 10
398.4834919149
 20
61.5862640542
 30
0.0
 11
397.0229247981
 21
89.455563574
 31
0.0
  0
LINE
  5
28E
330
1F
100
AcDbEntity
  8
0
  6
CONTINUOUS
 62
     7
100
AcDbLine
 10
400.4807541543
 20
61.5862640542
 30
0.0
 11
537.6095990116
 21
61.5862640542
 31
0.0
  0
LINE
  5
28F
330
1F
100
AcDbEntity
  8
0
  6
CONTINUOUS
 62
     7
100
AcDbLine
 10
400.4807541543
 20
61.5862640542
 30
0.0
 11
400.4807541543
 21
60.5309563679
 31
0.0
  0
LINE
  5
290
330
1F
100
AcDbEntity
  8
0
  6
CONTINUOUS
 62
     7
100
AcDbLine
 10
400.4807541543
 20
60.5309563679
 30
0.0
 11
399.5387996012
 21
60.5309563679
 31
0.0
  0
LINE
  5
291
330
1F
100
AcDbEntity
  8
0
  6
CONTINUOUS
 62
     7
100
AcDbLine
 10
398.4834919149
 20
61.5862640542
 30
0.0
 11
399.5387996012
 21
60.5309563679
 31
0.0
  0
LINE
  5
292
330
1F
100
AcDbEntity
  8
0
  6
CONTINUOUS
 62
     7
100
AcDbLine
 10
538.5515535647
 20
60.5309563679
 30
0.0
 11
537.6095990116
 21
60.5309563679
 31
0.0
  0
LINE
  5
293
330
1F
100
AcDbEntity
  8
0
  6
CONTINUOUS
 62
     7
100
AcDbLine
 10
537.6095990116
 20
60.5309563679
 30
0.0
 11
537.6095990116
 21
61.5862640542
 31
0.0
  0
LINE
  5
294
330
1F
100
AcDbEntity
  8
0
  6
CONTINUOUS
 62
     7
100
AcDbLine
 10
538.5515535647
 20
60.5309563679
 30
0.0
 11
539.606861251
 21
61.5862640542
 31
0.0
  0
LINE
  5
295
330
1F
100
AcDbEntity
  8
0
  6
CONTINUOUS
 62
     7
100
AcDbLine
 10
537.6095990116
 20
60.5309563679
 30
0.0
 11
400.4807541543
 21
60.5309563679
 31
0.0
  0
LINE
  5
296
330
1F
100
AcDbEntity
  8
0
  6
CONTINUOUS
 62
     7
100
AcDbLine
 10
385.581075626
 20
95.5309565169
 30
0.0
 11
387.375793832
 21
95.5309565169
 31
0.0
  0
ARC
  5
297
330
1F
100
AcDbEntity
  8
0
  6
CONTINUOUS
 62
     7
100
AcDbCircle
 10
389.0451765829
 20
93.5309565169
 30
0.0
 40
4.000000000000008
100
AcDbArc
 50
116.8500581989
 51
150.0
  0
LINE
  5
298
330
1F
100
AcDbEntity
  8
0
  6
CONTINUOUS
 62
     7
100
AcDbLine
 10
387.375793832
 20
95.5309565169
 30
0.0
 11
387.2385466868
 21
97.0997227113
 31
0.0
  0
LINE
  5
299
330
1F
100
AcDbEntity
  8
0
  6
CONTINUOUS
 62
     7
100
AcDbLine
 10
394.0744022304
 20
94.9732341677
 30
0.0
 11
393.0744076544
 21
94.9732341677
 31
0.0
  0
LINE
  5
29A
330
1F
100
AcDbEntity
  8
0
  6
CONTINUOUS
 62
     7
100
AcDbLine
 10
392.5527478033
 20
82.3582154689
 30
0.0
 11
397.5459630066
 21
79.4753818763
 31
0.0
  0
LINE
  5
29B
330
1F
100
AcDbEntity
  8
0
  6
CONTINUOUS
 62
     7
100
AcDbLine
 10
391.6528741294
 20
83.5309564126
 30
0.0
 11
392.5527478033
 21
82.3582154689
 31
0.0
  0
LINE
  5
29C
330
1F
100
AcDbEntity
  8
0
  6
CONTINUOUS
 62
     7
100
AcDbLine
 10
390.0451729471
 20
89.5309564648
 30
0.0
 11
391.6528741294
 21
83.5309564126
 31
0.0
  0
LINE
  5
29D
330
1F
100
AcDbEntity
  8
0
  6
CONTINUOUS
 62
     7
100
AcDbLine
 10
389.0451783711
 20
89.5309564648
 30
0.0
 11
390.0451729471
 21
89.5309564648
 31
0.0
  0
ARC
  5
29E
330
1F
100
AcDbEntity
  8
0
  6
CONTINUOUS
 62
     7
100
AcDbCircle
 10
389.0451765829
 20
93.4309565169
 30
0.0
 40
1.480000000000032
100
AcDbArc
 50
185.0
 51
355.0
  0
LINE
  5
29F
330
1F
100
AcDbEntity
  8
0
  6
CONTINUOUS
 62
     7
100
AcDbLine
 10
390.5195439631
 20
93.3019660869
 30
0.0
 11
390.7145554596
 21
95.5309565169
 31
0.0
  0
LINE
  5
2A0
330
1F
100
AcDbEntity
  8
0
  6
CONTINUOUS
 62
     7
100
AcDbLine
 10
390.7145554596
 20
95.5309565169
 30
0.0
 11
392.5977269584
 21
95.5309565169
 31
0.0
  0
LINE
  5
2A1
330
1F
100
AcDbEntity
  8
0
  6
CONTINUOUS
 62
     7
100
AcDbLine
 10
393.0744076544
 20
94.9732341677
 30
0.0
 11
392.5977269584
 21
95.5309565169
 31
0.0
  0
ARC
  5
2A2
330
1F
100
AcDbEntity
  8
0
  6
CONTINUOUS
 62
     7
100
AcDbCircle
 10
389.0451765829
 20
93.5309565169
 30
0.0
 40
4.0
100
AcDbArc
 50
150.0
 51
270.0
  0
LINE
  5
2A3
330
1F
100
AcDbEntity
  8
0
  6
CONTINUOUS
 62
     7
100
AcDbLine
 10
387.375793832
 20
95.5309565169
 30
0.0
 11
387.5708053285
 21
93.3019660869
 31
0.0
  0
LINE
  5
2A4
330
1F
100
AcDbEntity
  8
0
  6
CONTINUOUS
 62
     7
100
AcDbLine
 10
390.8518026048
 20
97.0997227113
 30
0.0
 11
390.7145554596
 21
95.5309565169
 31
0.0
  0
LINE
  5
2A5
330
1F
100
AcDbEntity
  8
0
  6
CONTINUOUS
 62
     7
100
AcDbLine
 10
392.5977269584
 20
95.5309565169
 30
0.0
 11
392.0858869726
 21
96.1298168976
 31
0.0
  0
ARC
  5
2A6
330
1F
100
AcDbEntity
  8
0
  6
CONTINUOUS
 62
     7
100
AcDbCircle
 10
389.0451765829
 20
93.5309565169
 30
0.0
 40
4.000000000000039
100
AcDbArc
 50
40.5201250014
 51
63.1499418011
  0
ARC
  5
2A7
330
1F
100
AcDbEntity
  8
0
  6
CONTINUOUS
 62
     7
100
AcDbCircle
 10
389.0451765829
 20
93.4309565169
 30
0.0
 40
1.479999999999986
100
AcDbArc
 50
2.5
 51
177.5
  0
LINE
  5
2A8
330
1F
100
AcDbEntity
  8
0
  6
CONTINUOUS
 62
     7
100
AcDbLine
 10
387.5665882999
 20
93.4955133115
 30
0.0
 11
387.5623563701
 21
93.3986012814
 31
0.0
  0
LINE
  5
2A9
330
1F
100
AcDbEntity
  8
0
  6
CONTINUOUS
 62
     7
100
AcDbLine
 10
390.5280003721
 20
93.3986012814
 30
0.0
 11
390.5237684423
 21
93.4955133115
 31
0.0
  0
ARC
  5
2AA
330
1F
100
AcDbEntity
  8
0
  6
CONTINUOUS
 62
     7
100
AcDbCircle
 10
389.0451765829
 20
93.5309565169
 30
0.0
 40
4.000000000000008
100
AcDbArc
 50
63.1499418011
 51
116.8500581989
  0
ARC
  5
2AB
330
1F
100
AcDbEntity
  8
0
  6
CONTINUOUS
 62
     7
100
AcDbCircle
 10
389.0451765829
 20
93.5309565169
 30
0.0
 40
1.488715574274836
100
AcDbArc
 50
353.0798124627
 51
354.9000142671
  0
ARC
  5
2AC
330
1F
100
AcDbEntity
  8
0
  6
CONTINUOUS
 62
     7
100
AcDbCircle
 10
389.0451765829
 20
93.5309565169
 30
0.0
 40
1.48871557427478
100
AcDbArc
 50
185.0999857329
 51
186.9201875373
  0
ARC
  5
2AD
330
1F
100
AcDbEntity
  8
0
  6
CONTINUOUS
 62
     7
100
AcDbCircle
 10
546.1590598937
 20
84.1309565169
 30
0.0
 40
1.500000000000044
100
AcDbArc
 50
183.0715522746
 51
357.0
  0
ARC
  5
2AE
330
1F
100
AcDbEntity
  8
0
  6
CONTINUOUS
 62
     7
100
AcDbCircle
 10
548.8235604406
 20
81.8009791504
 30
0.0
 40
1.499999999999994
100
AcDbArc
 50
280.0
 51
357.0
  0
LINE
  5
2AF
330
1F
100
AcDbEntity
  8
0
  6
CONTINUOUS
 62
     7
100
AcDbLine
 10
540.5096182996
 20
78.8118666959
 30
0.0
 11
549.0840295726
 21
80.3237673817
 31
0.0
  0
LINE
  5
2B0
330
1F
100
AcDbEntity
  8
0
  6
CONTINUOUS
 62
     7
100
AcDbLine
 10
547.6570049697
 20
84.0524523509
 30
0.0
 11
548.1799537713
 21
94.0309565039
 31
0.0
  0
LINE
  5
2B1
330
1F
100
AcDbEntity
  8
0
  6
CONTINUOUS
 62
     7
100
AcDbLine
 10
550.3215039545
 20
81.7224751217
 30
0.0
 11
550.9403938824
 21
93.5316416425
 31
0.0
  0
LINE
  5
2B2
330
1F
100
AcDbEntity
  8
0
  6
CONTINUOUS
 62
     7
100
AcDbLine
 10
550.9403938824
 20
93.5316416425
 30
0.0
 11
550.490810948
 21
94.0309565039
 31
0.0
  0
LINE
  5
2B3
330
1F
100
AcDbEntity
  8
0
  6
CONTINUOUS
 62
     7
100
AcDbLine
 10
544.1256681854
 20
94.0309565039
 30
0.0
 11
543.9665684873
 21
94.0309565039
 31
0.0
  0
LINE
  5
2B4
330
1F
100
AcDbEntity
  8
0
  6
CONTINUOUS
 62
     7
100
AcDbLine
 10
550.490810948
 20
94.0309565039
 30
0.0
 11
548.1799537713
 21
94.0309565039
 31
0.0
  0
LINE
  5
2B5
330
1F
100
AcDbEntity
  8
0
  6
CONTINUOUS
 62
     7
100
AcDbLine
 10
544.1256681854
 20
94.0309565039
 30
0.0
 11
544.6612159187
 21
84.0505822552
 31
0.0
  0
ARC
  5
2B6
330
1F
100
AcDbEntity
  8
0
  6
CONTINUOUS
 62
     7
100
AcDbCircle
 10
546.1590598937
 20
84.1309565169
 30
0.0
 40
1.500000000000044
100
AcDbArc
 50
357.0
 51
183.0715522746
  0
LINE
  5
2B7
330
1F
100
AcDbEntity
  8
0
  6
CONTINUOUS
 62
     7
100
AcDbLine
 10
548.1799537713
 20
94.0309565039
 30
0.0
 11
544.1256681854
 21
94.0309565039
 31
0.0
  0
LINE
  5
2B8
330
1F
100
AcDbEntity
  8
0
  6
CONTINUOUS
 62
     7
100
AcDbLine
 10
554.045177477
 20
98.030956461
 30
0.0
 11
553.6263281876
 21
93.2435106942
 31
0.0
  0
LINE
  5
2B9
330
1F
100
AcDbEntity
  8
0
  6
CONTINUOUS
 62
     7
100
AcDbLine
 10
549.0489745909
 20
98.030956461
 30
0.0
 11
554.045177477
 21
98.030956461
 31
0.0
  0
LWPOLYLINE
  5
2BA
330
1F
100
AcDbEntity
  8
0
  6
CONTINUOUS
 62
     7
100
AcDbPolyline
 90
        7
 70
   128
 43
0.0
 10
553.6263281876
 20
93.2435106942
 10
553.5278091604
 20
93.2133907908
 10
553.2360220725
 20
93.1241814969
 10
552.7621055418
 20
92.9792912201
 10
552.12417193
 20
92.7842559749
 10
551.3465995366
 20
92.5465277386
 10
550.8813107783
 20
92.4042754331
  0
LINE
  5
2BB
330
1F
100
AcDbEntity
  8
0
  6
CONTINUOUS
 62
     7
100
AcDbLine
 10
549.0489745909
 20
98.030956461
 30
0.0
 11
544.176198023
 21
98.030956461
 31
0.0
  0
LINE
  5
2BC
330
1F
100
AcDbEntity
  8
0
  6
CONTINUOUS
 62
     8
100
AcDbLine
 10
548.6990133697
 20
94.0309565039
 30
0.0
 11
549.0489745909
 21
98.030956461
 31
0.0
  0
LINE
  5
2BD
330
1F
100
AcDbEntity
  8
0
  6
CONTINUOUS
 62
     7
100
AcDbLine
 10
291.5145364393
 20
231.4742542718
 30
0.0
 11
291.5145364393
 21
232.5312755917
 31
0.0
  0
LINE
  5
2BE
330
1F
100
AcDbEntity
  8
0
  6
CONTINUOUS
 62
     7
100
AcDbLine
 10
291.5145364393
 20
357.7076010321
 30
0.0
 11
291.5145364393
 21
358.764622352
 31
0.0
  0
LINE
  5
2BF
330
1F
100
AcDbEntity
  8
0
  6
CONTINUOUS
 62
     7
100
AcDbLine
 10
291.5145364393
 20
207.7076025222
 30
0.0
 11
291.5145364393
 21
208.7646238421
 31
0.0
  0
LINE
  5
2C0
330
1F
100
AcDbEntity
  8
0
  6
CONTINUOUS
 62
     7
100
AcDbLine
 10
291.5145364393
 20
381.4742527817
 30
0.0
 11
291.5145364393
 21
382.5312741016
 31
0.0
  0
LINE
  5
2C1
330
1F
100
AcDbEntity
  8
0
  6
CONTINUOUS
 62
     7
100
AcDbLine
 10
292.0145362884
 20
302.7956630018
 30
0.0
 11
287.2270905216
 21
302.5447637689
 31
0.0
  0
LINE
  5
2C2
330
1F
100
AcDbEntity
  8
0
  6
CONTINUOUS
 62
     7
100
AcDbLine
 10
292.0145362884
 20
302.7956630018
 30
0.0
 11
292.0145362884
 21
287.443213622
 31
0.0
  0
LINE
  5
2C3
330
1F
100
AcDbEntity
  8
0
  6
CONTINUOUS
 62
     7
100
AcDbLine
 10
287.2270905216
 20
287.6941128549
 30
0.0
 11
292.0145362884
 21
287.443213622
 31
0.0
  0
LINE
  5
2C4
330
1F
100
AcDbEntity
  8
0
  6
CONTINUOUS
 62
     7
100
AcDbLine
 10
287.2270905216
 20
302.5447637689
 30
0.0
 11
287.2270905216
 21
287.6941128549
 31
0.0
  0
LINE
  5
2C5
330
1F
100
AcDbEntity
  8
0
  6
CONTINUOUS
 62
     7
100
AcDbLine
 10
292.0145362884
 20
287.443213622
 30
0.0
 11
292.0145362884
 21
282.4591901068
 31
0.0
  0
LINE
  5
2C6
330
1F
100
AcDbEntity
  8
0
  6
CONTINUOUS
 62
     7
100
AcDbLine
 10
292.0145362884
 20
282.4591901068
 30
0.0
 11
285.6576171041
 21
282.7923418869
 31
0.0
  0
ELLIPSE
  5
2C7
330
1F
100
AcDbEntity
  8
0
  6
CONTINUOUS
 62
     7
100
AcDbEllipse
 10
285.6504254263
 20
287.799580524
 30
0.0
 11
-0.03685617780183748
 21
5.007906914963939
 31
0.0
210
0.0
220
0.0
230
1.0
 40
0.3147491355
 41
3.122775886155371
 42
4.689010817993855
  0
LINE
  5
2C8
330
1F
100
AcDbEntity
  8
0
  6
CONTINUOUS
 62
     7
100
AcDbLine
 10
285.6576171041
 20
307.4465347369
 30
0.0
 11
292.0145362884
 21
307.779686517
 31
0.0
  0
ELLIPSE
  5
2C9
330
1F
100
AcDbEntity
  8
0
  6
CONTINUOUS
 62
     7
100
AcDbEllipse
 10
285.6504254263
 20
302.4392960998
 30
0.0
 11
0.03685617780189432
 21
5.007906914963939
 31
0.0
210
0.0
220
0.0
230
1.0
 40
0.3147491355
 41
4.735767142775525
 42
6.302002074614044
  0
LINE
  5
2CA
330
1F
100
AcDbEntity
  8
0
  6
CONTINUOUS
 62
     7
100
AcDbLine
 10
292.0145362884
 20
307.779686517
 30
0.0
 11
292.0145362884
 21
302.7956630018
 31
0.0
  0
ELLIPSE
  5
2CB
330
1F
100
AcDbEntity
  8
0
  6
CONTINUOUS
 62
     7
100
AcDbEllipse
 10
285.673626333
 20
295.1194383119
 30
0.0
 11
0.0
 21
3.5
 31
0.0
210
0.0
220
0.0
230
1.0
 40
0.3057306815
 41
0.0
 42
6.283185307179586
  0
LINE
  5
2CC
330
1F
100
AcDbEntity
  8
0
  6
CONTINUOUS
 62
     7
100
AcDbLine
 10
284.2128917844
 20
282.8680565496
 30
0.0
 11
284.2128917844
 21
230.1028482531
 31
0.0
  0
LINE
  5
2CD
330
1F
100
AcDbEntity
  8
0
  6
CONTINUOUS
 62
     7
100
AcDbLine
 10
283.3866079607
 20
360.1194359277
 30
0.0
 11
283.3866079607
 21
230.0992421721
 31
0.0
  0
LINE
  5
2CE
330
1F
100
AcDbEntity
  8
0
  6
CONTINUOUS
 62
     7
100
AcDbLine
 10
284.2128917844
 20
360.1194359277
 30
0.0
 11
284.2128917844
 21
307.3708200742
 31
0.0
  0
LINE
  5
2CF
330
1F
100
AcDbEntity
  8
0
  6
CONTINUOUS
 62
     7
100
AcDbLine
 10
284.2128917844
 20
307.3708200742
 30
0.0
 11
285.6576171041
 21
307.4465347369
 31
0.0
  0
LINE
  5
2D0
330
1F
100
AcDbEntity
  8
0
  6
CONTINUOUS
 62
     7
100
AcDbLine
 10
284.2128917844
 20
282.8680565496
 30
0.0
 11
285.6576171041
 21
282.7923418869
 31
0.0
  0
LINE
  5
2D1
330
1F
100
AcDbEntity
  8
0
  6
CONTINUOUS
 62
     7
100
AcDbLine
 10
288.0145363313
 20
380.119439206
 30
0.0
 11
288.0145363313
 21
360.1194359277
 31
0.0
  0
LINE
  5
2D2
330
1F
100
AcDbEntity
  8
0
  6
CONTINUOUS
 62
     7
100
AcDbLine
 10
287.5152214699
 20
360.1194359277
 30
0.0
 11
287.5152214699
 21
380.119439206
 31
0.0
  0
LINE
  5
2D3
330
1F
100
AcDbEntity
  8
0
  6
CONTINUOUS
 62
     7
100
AcDbLine
 10
287.5152214699
 20
380.119439206
 30
0.0
 11
288.0145363313
 21
380.119439206
 31
0.0
  0
LINE
  5
2D4
330
1F
100
AcDbEntity
  8
0
  6
CONTINUOUS
 62
     7
100
AcDbLine
 10
288.0145363313
 20
360.1194359277
 30
0.0
 11
287.5152214699
 21
360.1194359277
 31
0.0
  0
LINE
  5
2D5
330
1F
100
AcDbEntity
  8
0
  6
CONTINUOUS
 62
     7
100
AcDbLine
 10
287.5152214699
 20
210.1216204379
 30
0.0
 11
287.5152214699
 21
230.117257676
 31
0.0
  0
LINE
  5
2D6
330
1F
100
AcDbEntity
  8
0
  6
CONTINUOUS
 62
     7
100
AcDbLine
 10
287.5152214699
 20
230.117257676
 30
0.0
 11
288.0145363313
 21
230.1194406961
 31
0.0
  0
LINE
  5
2D7
330
1F
100
AcDbEntity
  8
0
  6
CONTINUOUS
 62
     7
100
AcDbLine
 10
288.0145363313
 20
230.1194406961
 30
0.0
 11
288.0145363313
 21
210.1194374178
 31
0.0
  0
LINE
  5
2D8
330
1F
100
AcDbEntity
  8
0
  6
CONTINUOUS
 62
     7
100
AcDbLine
 10
288.0145363313
 20
210.1194374178
 30
0.0
 11
287.5152214699
 21
210.1216204379
 31
0.0
  0
LINE
  5
2D9
330
1F
100
AcDbEntity
  8
0
  6
CONTINUOUS
 62
     7
100
AcDbLine
 10
275.7060549491
 20
380.119439206
 30
0.0
 11
275.7060549491
 21
360.1194359277
 31
0.0
  0
LINE
  5
2DA
330
1F
100
AcDbEntity
  8
0
  6
CONTINUOUS
 62
     7
100
AcDbLine
 10
275.7060549491
 20
380.119439206
 30
0.0
 11
287.5152214699
 21
380.119439206
 31
0.0
  0
LINE
  5
2DB
330
1F
100
AcDbEntity
  8
0
  6
CONTINUOUS
 62
     7
100
AcDbLine
 10
275.7060549491
 20
360.1194359277
 30
0.0
 11
287.5152214699
 21
360.1194359277
 31
0.0
  0
LINE
  5
2DC
330
1F
100
AcDbEntity
  8
0
  6
CONTINUOUS
 62
     7
100
AcDbLine
 10
275.7060549491
 20
230.0657294606
 30
0.0
 11
275.7060549491
 21
210.1731412028
 31
0.0
  0
LINE
  5
2DD
330
1F
100
AcDbEntity
  8
0
  6
CONTINUOUS
 62
     7
100
AcDbLine
 10
275.7060549491
 20
210.1731412028
 30
0.0
 11
287.5152214699
 21
210.1216204379
 31
0.0
  0
LINE
  5
2DE
330
1F
100
AcDbEntity
  8
0
  6
CONTINUOUS
 62
     7
100
AcDbLine
 10
275.7060549491
 20
230.0657294606
 30
0.0
 11
287.5152214699
 21
230.117257676
 31
0.0
  0
LINE
  5
2DF
330
1F
100
AcDbEntity
  8
0
  6
CONTINUOUS
 62
     7
100
AcDbLine
 10
274.3073472091
 20
210.1792506789
 30
0.0
 11
274.3073472091
 21
230.059627435
 31
0.0
  0
LWPOLYLINE
  5
2E0
330
1F
100
AcDbEntity
  8
0
  6
CONTINUOUS
 62
     7
100
AcDbPolyline
 90
        8
 70
   128
 43
0.0
 10
275.7060549491
 20
210.1731412028
 10
275.4216765322
 20
210.1743854497
 10
275.1506318607
 20
210.175570092
 10
274.9028814294
 20
210.1766504262
 10
274.6875279852
 20
210.1775891994
 10
274.5124868386
 20
210.1783491586
 10
274.3841887721
 20
210.1789154027
 10
274.3073472091
 20
210.1792506789
  0
LWPOLYLINE
  5
2E1
330
1F
100
AcDbEntity
  8
0
  6
CONTINUOUS
 62
     7
100
AcDbPolyline
 90
        8
 70
   128
 43
0.0
 10
274.3073472091
 20
230.059627435
 10
274.3841887721
 20
230.0599627112
 10
274.5124868386
 20
230.0605215047
 10
274.6875279852
 20
230.0612889145
 10
274.9028814294
 20
230.0622276877
 10
275.1506318607
 20
230.0633080219
 10
275.4216765322
 20
230.0644926642
 10
275.7060549491
 20
230.0657294606
  0
LINE
  5
2E2
330
1F
100
AcDbEntity
  8
0
  6
CONTINUOUS
 62
     7
100
AcDbLine
 10
274.3073472091
 20
360.1194359277
 30
0.0
 11
274.3073472091
 21
380.119439206
 31
0.0
  0
LINE
  5
2E3
330
1F
100
AcDbEntity
  8
0
  6
CONTINUOUS
 62
     7
100
AcDbLine
 10
274.3073472091
 20
380.119439206
 30
0.0
 11
275.7060549491
 21
380.119439206
 31
0.0
  0
LINE
  5
2E4
330
1F
100
AcDbEntity
  8
0
  6
CONTINUOUS
 62
     7
100
AcDbLine
 10
275.7060549491
 20
360.1194359277
 30
0.0
 11
274.3073472091
 21
360.1194359277
 31
0.0
  0
LINE
  5
2E5
330
1F
100
AcDbEntity
  8
0
  6
CONTINUOUS
 62
     7
100
AcDbLine
 10
272.7954465233
 20
210.1858444427
 30
0.0
 11
272.7954465233
 21
211.5879766558
 31
0.0
  0
LINE
  5
2E6
330
1F
100
AcDbEntity
  8
0
  6
CONTINUOUS
 62
     7
100
AcDbLine
 10
272.7954465233
 20
211.5879766558
 30
0.0
 11
274.2540643819
 21
211.6389088248
 31
0.0
  0
LINE
  5
2E7
330
1F
100
AcDbEntity
  8
0
  6
CONTINUOUS
 62
     7
100
AcDbLine
 10
274.2540643819
 20
228.5999618386
 30
0.0
 11
274.2540643819
 21
211.6389088248
 31
0.0
  0
LINE
  5
2E8
330
1F
100
AcDbEntity
  8
0
  6
CONTINUOUS
 62
     7
100
AcDbLine
 10
272.7954465233
 20
228.6509014581
 30
0.0
 11
274.2540643819
 21
228.5999618386
 31
0.0
  0
LINE
  5
2E9
330
1F
100
AcDbEntity
  8
0
  6
CONTINUOUS
 62
     7
100
AcDbLine
 10
272.7954465233
 20
228.6509014581
 30
0.0
 11
272.7954465233
 21
230.0530336712
 31
0.0
  0
LINE
  5
2EA
330
1F
100
AcDbEntity
  8
0
  6
CONTINUOUS
 62
     7
100
AcDbLine
 10
272.7954465233
 20
210.1858444427
 30
0.0
 11
274.3073472091
 21
210.1792506789
 31
0.0
  0
LINE
  5
2EB
330
1F
100
AcDbEntity
  8
0
  6
CONTINUOUS
 62
     7
100
AcDbLine
 10
272.7954465233
 20
230.0530336712
 30
0.0
 11
274.3073472091
 21
230.059627435
 31
0.0
  0
LINE
  5
2EC
330
1F
100
AcDbEntity
  8
0
  6
CONTINUOUS
 62
     7
100
AcDbLine
 10
272.7954465233
 20
362.1194399808
 30
0.0
 11
272.7954465233
 21
360.1194359277
 31
0.0
  0
LINE
  5
2ED
330
1F
100
AcDbEntity
  8
0
  6
CONTINUOUS
 62
     7
100
AcDbLine
 10
272.7954465233
 20
362.1194399808
 30
0.0
 11
274.2540643819
 21
362.1194399808
 31
0.0
  0
LINE
  5
2EE
330
1F
100
AcDbEntity
  8
0
  6
CONTINUOUS
 62
     7
100
AcDbLine
 10
274.2540643819
 20
362.1194399808
 30
0.0
 11
274.2540643819
 21
378.1194351528
 31
0.0
  0
LINE
  5
2EF
330
1F
100
AcDbEntity
  8
0
  6
CONTINUOUS
 62
     7
100
AcDbLine
 10
272.7954465233
 20
378.1194351528
 30
0.0
 11
274.2540643819
 21
378.1194351528
 31
0.0
  0
LINE
  5
2F0
330
1F
100
AcDbEntity
  8
0
  6
CONTINUOUS
 62
     7
100
AcDbLine
 10
272.7954465233
 20
380.119439206
 30
0.0
 11
272.7954465233
 21
378.1194351528
 31
0.0
  0
LINE
  5
2F1
330
1F
100
AcDbEntity
  8
0
  6
CONTINUOUS
 62
     7
100
AcDbLine
 10
272.7954465233
 20
380.119439206
 30
0.0
 11
274.3073472091
 21
380.119439206
 31
0.0
  0
LINE
  5
2F2
330
1F
100
AcDbEntity
  8
0
  6
CONTINUOUS
 62
     7
100
AcDbLine
 10
272.7954465233
 20
360.1194359277
 30
0.0
 11
274.3073472091
 21
360.1194359277
 31
0.0
  0
LINE
  5
2F3
330
1F
100
AcDbEntity
  8
0
  6
CONTINUOUS
 62
     7
100
AcDbLine
 10
284.2128917844
 20
176.1194355701
 30
0.0
 11
292.0145362884
 21
176.1194355701
 31
0.0
  0
LINE
  5
2F4
330
1F
100
AcDbEntity
  8
0
  6
CONTINUOUS
 62
     7
100
AcDbLine
 10
284.2128917844
 20
210.1360298608
 30
0.0
 11
284.2128917844
 21
176.1194355701
 31
0.0
  0
LINE
  5
2F5
330
1F
100
AcDbEntity
  8
0
  6
CONTINUOUS
 62
     7
100
AcDbLine
 10
292.0145362884
 20
232.6194383119
 30
0.0
 11
289.5145363443
 21
232.1786172603
 31
0.0
  0
LINE
  5
2F6
330
1F
100
AcDbEntity
  8
0
  6
CONTINUOUS
 62
     7
100
AcDbLine
 10
289.5145363443
 20
208.060253403
 30
0.0
 11
289.5145363443
 21
232.1786172603
 31
0.0
  0
LINE
  5
2F7
330
1F
100
AcDbEntity
  8
0
  6
CONTINUOUS
 62
     7
100
AcDbLine
 10
289.5145363443
 20
208.060253403
 30
0.0
 11
292.0145362884
 21
207.619439802
 31
0.0
  0
LINE
  5
2F8
330
1F
100
AcDbEntity
  8
0
  6
CONTINUOUS
 62
     7
100
AcDbLine
 10
292.0145362884
 20
176.1194355701
 30
0.0
 11
292.0145362884
 21
207.619439802
 31
0.0
  0
LINE
  5
2F9
330
1F
100
AcDbEntity
  8
0
  6
CONTINUOUS
 62
     7
100
AcDbLine
 10
292.0145362884
 20
232.6194383119
 30
0.0
 11
292.0145362884
 21
282.4591901068
 31
0.0
  0
LINE
  5
2FA
330
1F
100
AcDbEntity
  8
0
  6
CONTINUOUS
 62
     7
100
AcDbLine
 10
292.0145362884
 20
357.6194383119
 30
0.0
 11
289.5145363443
 21
358.0602593635
 31
0.0
  0
LINE
  5
2FB
330
1F
100
AcDbEntity
  8
0
  6
CONTINUOUS
 62
     7
100
AcDbLine
 10
284.2128917844
 20
414.1194410537
 30
0.0
 11
284.2128917844
 21
380.119439206
 31
0.0
  0
LINE
  5
2FC
330
1F
100
AcDbEntity
  8
0
  6
CONTINUOUS
 62
     7
100
AcDbLine
 10
284.2128917844
 20
414.1194410537
 30
0.0
 11
292.0145362884
 21
414.1194410537
 31
0.0
  0
LINE
  5
2FD
330
1F
100
AcDbEntity
  8
0
  6
CONTINUOUS
 62
     7
100
AcDbLine
 10
292.0145362884
 20
382.6194368218
 30
0.0
 11
292.0145362884
 21
414.1194410537
 31
0.0
  0
LINE
  5
2FE
330
1F
100
AcDbEntity
  8
0
  6
CONTINUOUS
 62
     7
100
AcDbLine
 10
289.5145363443
 20
382.1786232208
 30
0.0
 11
292.0145362884
 21
382.6194368218
 31
0.0
  0
LINE
  5
2FF
330
1F
100
AcDbEntity
  8
0
  6
CONTINUOUS
 62
     7
100
AcDbLine
 10
289.5145363443
 20
358.0602593635
 30
0.0
 11
289.5145363443
 21
382.1786232208
 31
0.0
  0
LINE
  5
300
330
1F
100
AcDbEntity
  8
0
  6
CONTINUOUS
 62
     7
100
AcDbLine
 10
292.0145362884
 20
307.779686517
 30
0.0
 11
292.0145362884
 21
357.6194383119
 31
0.0
  0
LINE
  5
301
330
1F
100
AcDbEntity
  8
0
  6
CONTINUOUS
 62
     7
100
AcDbLine
 10
292.0145362884
 20
420.2504642223
 30
0.0
 11
292.0145362884
 21
414.1194410537
 31
0.0
  0
LINE
  5
302
330
1F
100
AcDbEntity
  8
0
  6
CONTINUOUS
 62
     7
100
AcDbLine
 10
284.2128917844
 20
419.8415912603
 30
0.0
 11
284.2128917844
 21
414.1194410537
 31
0.0
  0
LINE
  5
303
330
1F
100
AcDbEntity
  8
0
  6
CONTINUOUS
 62
     7
100
AcDbLine
 10
284.2128917844
 20
419.8415912603
 30
0.0
 11
292.0145362884
 21
420.2504642223
 31
0.0
  0
LINE
  5
304
330
1F
100
AcDbEntity
  8
0
  6
CONTINUOUS
 62
     7
100
AcDbLine
 10
284.2128917844
 20
170.3972853635
 30
0.0
 11
292.0145362884
 21
169.9884124015
 31
0.0
  0
LINE
  5
305
330
1F
100
AcDbEntity
  8
0
  6
CONTINUOUS
 62
     7
100
AcDbLine
 10
284.2128917844
 20
176.1194355701
 30
0.0
 11
284.2128917844
 21
170.3972853635
 31
0.0
  0
LINE
  5
306
330
1F
100
AcDbEntity
  8
0
  6
CONTINUOUS
 62
     7
100
AcDbLine
 10
292.0145362884
 20
176.1194355701
 30
0.0
 11
292.0145362884
 21
169.9884124015
 31
0.0
  0
LINE
  5
307
330
1F
100
AcDbEntity
  8
0
  6
CONTINUOUS
 62
     7
100
AcDbLine
 10
283.3866079607
 20
176.1194355701
 30
0.0
 11
284.2128917844
 21
176.1194355701
 31
0.0
  0
LINE
  5
308
330
1F
100
AcDbEntity
  8
0
  6
CONTINUOUS
 62
     7
100
AcDbLine
 10
283.3866079607
 20
173.0999387716
 30
0.0
 11
284.2128917844
 21
170.3972853635
 31
0.0
  0
ARC
  5
309
330
1F
100
AcDbEntity
  8
0
  6
CONTINUOUS
 62
     7
100
AcDbCircle
 10
279.1061785908
 20
174.0958131765
 30
0.0
 40
4.446554639685425
100
AcDbArc
 50
347.0215023568
 51
12.9784976432
  0
LINE
  5
30A
330
1F
100
AcDbEntity
  8
0
  6
CONTINUOUS
 62
     7
100
AcDbLine
 10
283.3866079607
 20
176.1194355701
 30
0.0
 11
283.4391434014
 21
175.0944442962
 31
0.0
  0
LINE
  5
30B
330
1F
100
AcDbEntity
  8
0
  6
CONTINUOUS
 62
     7
100
AcDbLine
 10
283.3866079607
 20
210.1396284912
 30
0.0
 11
283.3866079607
 21
176.1194355701
 31
0.0
  0
LINE
  5
30C
330
1F
100
AcDbEntity
  8
0
  6
CONTINUOUS
 62
     7
100
AcDbLine
 10
284.2128917844
 20
419.8415912603
 30
0.0
 11
283.3866079607
 21
417.1389378522
 31
0.0
  0
LINE
  5
30D
330
1F
100
AcDbEntity
  8
0
  6
CONTINUOUS
 62
     7
100
AcDbLine
 10
284.2128917844
 20
414.1194410537
 30
0.0
 11
283.3866079607
 21
414.1194410537
 31
0.0
  0
LINE
  5
30E
330
1F
100
AcDbEntity
  8
0
  6
CONTINUOUS
 62
     7
100
AcDbLine
 10
283.4391434014
 20
415.1444323276
 30
0.0
 11
283.3866079607
 21
414.1194410537
 31
0.0
  0
ARC
  5
30F
330
1F
100
AcDbEntity
  8
0
  6
CONTINUOUS
 62
     7
100
AcDbCircle
 10
277.6485375244
 20
416.1430634473
 30
0.0
 40
5.876085477303604
100
AcDbArc
 50
350.2151830941
 51
9.7848169059
  0
LINE
  5
310
330
1F
100
AcDbEntity
  8
0
  6
CONTINUOUS
 62
     7
100
AcDbLine
 10
283.3866079607
 20
414.1194410537
 30
0.0
 11
283.3866079607
 21
380.119439206
 31
0.0
  0
LINE
  5
311
330
1F
100
AcDbEntity
  8
0
  6
CONTINUOUS
 62
     7
100
AcDbLine
 10
283.4391434014
 20
173.0971820567
 30
0.0
 11
255.5698438816
 21
174.5577566241
 31
0.0
  0
ARC
  5
312
330
1F
100
AcDbEntity
  8
0
  6
CONTINUOUS
 62
     7
100
AcDbCircle
 10
273.3925602327
 20
175.5563840185
 30
0.0
 40
17.85067155050259
100
AcDbArc
 50
176.7930045639
 51
183.2069954361
  0
LINE
  5
313
330
1F
100
AcDbEntity
  8
0
  6
CONTINUOUS
 62
     7
100
AcDbLine
 10
255.5698438816
 20
176.5550114129
 30
0.0
 11
283.4391434014
 21
175.0944442962
 31
0.0
  0
LINE
  5
314
330
1F
100
AcDbEntity
  8
0
  6
CONTINUOUS
 62
     7
100
AcDbLine
 10
283.4391434014
 20
415.1444323276
 30
0.0
 11
255.5698438816
 21
413.6838652108
 31
0.0
  0
ARC
  5
315
330
1F
100
AcDbEntity
  8
0
  6
CONTINUOUS
 62
     7
100
AcDbCircle
 10
273.3933056297
 20
414.6824926053
 30
0.0
 40
17.85141578017691
100
AcDbArc
 50
176.793138404
 51
183.206861596
  0
LINE
  5
316
330
1F
100
AcDbEntity
  8
0
  6
CONTINUOUS
 62
     7
100
AcDbLine
 10
255.5698438816
 20
415.6811199997
 30
0.0
 11
283.4391434014
 21
417.141694567
 31
0.0
  0
LINE
  5
317
330
1F
100
AcDbEntity
  8
0
  6
CONTINUOUS
 62
     7
100
AcDbLine
 10
255.5698438816
 20
413.6838652108
 30
0.0
 11
255.5698438816
 21
176.5550114129
 31
0.0
  0
LINE
  5
318
330
1F
100
AcDbEntity
  8
0
  6
CONTINUOUS
 62
     7
100
AcDbLine
 10
254.5145361953
 20
413.6838652108
 30
0.0
 11
254.5145361953
 21
414.625819764
 31
0.0
  0
LINE
  5
319
330
1F
100
AcDbEntity
  8
0
  6
CONTINUOUS
 62
     7
100
AcDbLine
 10
254.5145361953
 20
414.625819764
 30
0.0
 11
255.5698438816
 21
415.6811199997
 31
0.0
  0
LINE
  5
31A
330
1F
100
AcDbEntity
  8
0
  6
CONTINUOUS
 62
     7
100
AcDbLine
 10
254.5145361953
 20
413.6838652108
 30
0.0
 11
255.5698438816
 21
413.6838652108
 31
0.0
  0
LINE
  5
31B
330
1F
100
AcDbEntity
  8
0
  6
CONTINUOUS
 62
     7
100
AcDbLine
 10
254.5145361953
 20
175.6130568598
 30
0.0
 11
254.5145361953
 21
176.5550114129
 31
0.0
  0
LINE
  5
31C
330
1F
100
AcDbEntity
  8
0
  6
CONTINUOUS
 62
     7
100
AcDbLine
 10
254.5145361953
 20
176.5550114129
 30
0.0
 11
255.5698438816
 21
176.5550114129
 31
0.0
  0
LINE
  5
31D
330
1F
100
AcDbEntity
  8
0
  6
CONTINUOUS
 62
     7
100
AcDbLine
 10
254.5145361953
 20
175.6130568598
 30
0.0
 11
255.5698438816
 21
174.5577566241
 31
0.0
  0
LINE
  5
31E
330
1F
100
AcDbEntity
  8
0
  6
CONTINUOUS
 62
     7
100
AcDbLine
 10
254.5145361953
 20
176.5550114129
 30
0.0
 11
254.5145361953
 21
413.6838652108
 31
0.0
  0
LINE
  5
31F
330
1F
100
AcDbEntity
  8
0
  6
CONTINUOUS
 62
     7
100
AcDbLine
 10
290.113396725
 20
360.8170412396
 30
0.0
 11
289.5145363443
 21
360.8694411729
 31
0.0
  0
LINE
  5
320
330
1F
100
AcDbEntity
  8
0
  6
CONTINUOUS
 62
     7
100
AcDbLine
 10
290.113396725
 20
360.8170412396
 30
0.0
 11
290.113396725
 21
358.8746674274
 31
0.0
  0
LINE
  5
321
330
1F
100
AcDbEntity
  8
0
  6
CONTINUOUS
 62
     7
100
AcDbLine
 10
289.5145363443
 20
358.8694371198
 30
0.0
 11
290.113396725
 21
358.8746674274
 31
0.0
  0
LINE
  5
322
330
1F
100
AcDbEntity
  8
0
  6
CONTINUOUS
 62
     7
100
AcDbLine
 10
290.113396725
 20
229.4218353842
 30
0.0
 11
290.113396725
 21
231.3642091964
 31
0.0
  0
LINE
  5
323
330
1F
100
AcDbEntity
  8
0
  6
CONTINUOUS
 62
     7
100
AcDbLine
 10
289.5145363443
 20
229.3694354509
 30
0.0
 11
290.113396725
 21
229.4218353842
 31
0.0
  0
LINE
  5
324
330
1F
100
AcDbEntity
  8
0
  6
CONTINUOUS
 62
     7
100
AcDbLine
 10
289.5145363443
 20
231.369439504
 30
0.0
 11
290.113396725
 21
231.3642091964
 31
0.0
  0
LINE
  5
325
330
1F
100
AcDbEntity
  8
0
  6
CONTINUOUS
 62
     7
100
AcDbLine
 10
290.113396725
 20
381.3642151569
 30
0.0
 11
290.113396725
 21
379.4218338941
 31
0.0
  0
LINE
  5
326
330
1F
100
AcDbEntity
  8
0
  6
CONTINUOUS
 62
     7
100
AcDbLine
 10
290.113396725
 20
379.4218338941
 30
0.0
 11
289.5145363443
 21
379.3694414113
 31
0.0
  0
LINE
  5
327
330
1F
100
AcDbEntity
  8
0
  6
CONTINUOUS
 62
     7
100
AcDbLine
 10
289.5145363443
 20
381.3694380139
 30
0.0
 11
290.113396725
 21
381.3642151569
 31
0.0
  0
LINE
  5
328
330
1F
100
AcDbEntity
  8
0
  6
CONTINUOUS
 62
     7
100
AcDbLine
 10
290.113396725
 20
208.8746614669
 30
0.0
 11
290.113396725
 21
210.8170427297
 31
0.0
  0
LINE
  5
329
330
1F
100
AcDbEntity
  8
0
  6
CONTINUOUS
 62
     7
100
AcDbLine
 10
289.5145363443
 20
210.8694352124
 30
0.0
 11
290.113396725
 21
210.8170427297
 31
0.0
  0
LINE
  5
32A
330
1F
100
AcDbEntity
  8
0
  6
CONTINUOUS
 62
     7
100
AcDbLine
 10
290.113396725
 20
208.8746614669
 30
0.0
 11
289.5145363443
 21
208.8694386099
 31
0.0
  0
LINE
  5
32B
330
1F
100
AcDbEntity
  8
0
  6
CONTINUOUS
 62
     7
100
AcDbLine
 10
290.1667273407
 20
382.2936229323
 30
0.0
 11
290.1667273407
 21
381.3637457703
 31
0.0
  0
LINE
  5
32C
330
1F
100
AcDbEntity
  8
0
  6
CONTINUOUS
 62
     7
100
AcDbLine
 10
290.1667273407
 20
358.8751293634
 30
0.0
 11
290.1667273407
 21
357.945259652
 31
0.0
  0
LINE
  5
32D
330
1F
100
AcDbEntity
  8
0
  6
CONTINUOUS
 62
     7
100
AcDbLine
 10
290.1667273407
 20
232.2936169718
 30
0.0
 11
290.1667273407
 21
231.3637472604
 31
0.0
  0
LINE
  5
32E
330
1F
100
AcDbEntity
  8
0
  6
CONTINUOUS
 62
     7
100
AcDbLine
 10
290.1667273407
 20
208.8751308535
 30
0.0
 11
290.1667273407
 21
207.9452536915
 31
0.0
  0
LWPOLYLINE
  5
32F
330
1F
100
AcDbEntity
  8
0
  6
CONTINUOUS
 62
     7
100
AcDbPolyline
 90
        4
 70
   128
 43
0.0
 10
291.0833025387
 20
231.4516566609
 10
291.3574586426
 20
231.4660213803
 10
291.496980776
 20
231.4733303998
 10
291.5145364393
 20
231.4742542718
  0
LINE
  5
330
330
1F
100
AcDbEntity
  8
0
  6
CONTINUOUS
 62
     7
100
AcDbLine
 10
291.0833025387
 20
231.4516566609
 30
0.0
 11
291.0833025387
 21
229.5066900466
 31
0.0
  0
LWPOLYLINE
  5
331
330
1F
100
AcDbEntity
  8
0
  6
CONTINUOUS
 62
     7
100
AcDbPolyline
 90
        4
 70
   128
 43
0.0
 10
290.113396725
 20
229.4218353842
 10
290.490075379
 20
229.4547893022
 10
290.8152533498
 20
229.4832356189
 10
291.0833025387
 20
229.5066900466
  0
LINE
  5
332
330
1F
100
AcDbEntity
  8
0
  6
CONTINUOUS
 62
     7
100
AcDbLine
 10
290.1667273407
 20
231.3637472604
 30
0.0
 11
290.113396725
 21
231.3642091964
 31
0.0
  0
LINE
  5
333
330
1F
100
AcDbEntity
  8
0
  6
CONTINUOUS
 62
     7
100
AcDbLine
 10
291.0833025387
 20
360.7321865772
 30
0.0
 11
291.0833025387
 21
358.7872199629
 31
0.0
  0
LWPOLYLINE
  5
334
330
1F
100
AcDbEntity
  8
0
  6
CONTINUOUS
 62
     7
100
AcDbPolyline
 90
        4
 70
   128
 43
0.0
 10
291.0833025387
 20
358.7872199629
 10
291.3574586426
 20
358.7728552435
 10
291.496980776
 20
358.765546224
 10
291.5145364393
 20
358.764622352
  0
LWPOLYLINE
  5
335
330
1F
100
AcDbEntity
  8
0
  6
CONTINUOUS
 62
     7
100
AcDbPolyline
 90
        4
 70
   128
 43
0.0
 10
291.0833025387
 20
360.7321865772
 10
290.8152533498
 20
360.7556410049
 10
290.490075379
 20
360.7840873216
 10
290.113396725
 20
360.8170412396
  0
LINE
  5
336
330
1F
100
AcDbEntity
  8
0
  6
CONTINUOUS
 62
     7
100
AcDbLine
 10
290.113396725
 20
358.8746674274
 30
0.0
 11
290.1667273407
 21
358.8751293634
 31
0.0
  0
LINE
  5
337
330
1F
100
AcDbEntity
  8
0
  6
CONTINUOUS
 62
     7
100
AcDbLine
 10
291.0833025387
 20
208.787221453
 30
0.0
 11
291.0833025387
 21
210.7321880673
 31
0.0
  0
LWPOLYLINE
  5
338
330
1F
100
AcDbEntity
  8
0
  6
CONTINUOUS
 62
     7
100
AcDbPolyline
 90
        4
 70
   128
 43
0.0
 10
291.5145364393
 20
208.7646238421
 10
291.496980776
 20
208.7655402635
 10
291.3574586426
 20
208.7728567336
 10
291.0833025387
 20
208.787221453
  0
LWPOLYLINE
  5
339
330
1F
100
AcDbEntity
  8
0
  6
CONTINUOUS
 62
     7
100
AcDbPolyline
 90
        4
 70
   128
 43
0.0
 10
290.113396725
 20
210.8170427297
 10
290.490075379
 20
210.7840888117
 10
290.8152533498
 20
210.755642495
 10
291.0833025387
 20
210.7321880673
  0
LINE
  5
33A
330
1F
100
AcDbEntity
  8
0
  6
CONTINUOUS
 62
     7
100
AcDbLine
 10
290.113396725
 20
208.8746614669
 30
0.0
 11
290.1667273407
 21
208.8751308535
 31
0.0
  0
LWPOLYLINE
  5
33B
330
1F
100
AcDbEntity
  8
0
  6
CONTINUOUS
 62
     7
100
AcDbPolyline
 90
        4
 70
   128
 43
0.0
 10
291.5145364393
 20
381.4742527817
 10
291.496980776
 20
381.4733363603
 10
291.3574586426
 20
381.4660198901
 10
291.0833025387
 20
381.4516551708
  0
LINE
  5
33C
330
1F
100
AcDbEntity
  8
0
  6
CONTINUOUS
 62
     7
100
AcDbLine
 10
291.0833025387
 20
379.5066885565
 30
0.0
 11
291.0833025387
 21
381.4516551708
 31
0.0
  0
LWPOLYLINE
  5
33D
330
1F
100
AcDbEntity
  8
0
  6
CONTINUOUS
 62
     7
100
AcDbPolyline
 90
        4
 70
   128
 43
0.0
 10
291.0833025387
 20
379.5066885565
 10
290.8152533498
 20
379.4832341288
 10
290.490075379
 20
379.4547878121
 10
290.113396725
 20
379.4218338941
  0
LINE
  5
33E
330
1F
100
AcDbEntity
  8
0
  6
CONTINUOUS
 62
     7
100
AcDbLine
 10
290.1667273407
 20
381.3637457703
 30
0.0
 11
290.113396725
 21
381.3642151569
 31
0.0
  0
LINE
  5
33F
330
1F
100
AcDbEntity
  8
0
  6
CONTINUOUS
 62
     7
100
AcDbLine
 10
655.8502881543
 20
358.764622352
 30
0.0
 11
655.8502881543
 21
354.6194396828
 31
0.0
  0
LINE
  5
340
330
1F
100
AcDbEntity
  8
0
  6
CONTINUOUS
 62
     7
100
AcDbLine
 10
655.8502881543
 20
208.7646238421
 30
0.0
 11
655.8502881543
 21
204.6194411729
 31
0.0
  0
LINE
  5
341
330
1F
100
AcDbEntity
  8
0
  6
CONTINUOUS
 62
     7
100
AcDbLine
 10
655.8502881543
 20
235.5146221731
 30
0.0
 11
655.8502881543
 21
231.4742542718
 31
0.0
  0
LINE
  5
342
330
1F
100
AcDbEntity
  8
0
  6
CONTINUOUS
 62
     7
100
AcDbLine
 10
655.8502881543
 20
385.514620683
 30
0.0
 11
655.8502881543
 21
381.4742527817
 31
0.0
  0
LWPOLYLINE
  5
343
330
1F
100
AcDbEntity
  8
0
  6
CONTINUOUS
 62
     7
100
AcDbPolyline
 90
        4
 70
   128
 43
0.0
 10
655.8502881543
 20
358.764622352
 10
655.8678438176
 20
358.765546224
 10
656.007365951
 20
358.7728552435
 10
656.2815220549
 20
358.7872199629
  0
LINE
  5
344
330
1F
100
AcDbEntity
  8
0
  6
CONTINUOUS
 62
     7
100
AcDbLine
 10
656.2815220549
 20
358.7872199629
 30
0.0
 11
656.2815220549
 21
360.7321865772
 31
0.0
  0
LWPOLYLINE
  5
345
330
1F
100
AcDbEntity
  8
0
  6
CONTINUOUS
 62
     7
100
AcDbPolyline
 90
        4
 70
   128
 43
0.0
 10
657.8502882493
 20
360.8694411729
 10
657.2234197391
 20
360.8145974491
 10
656.6939536004
 20
360.768269739
 10
656.2815220549
 20
360.7321865772
  0
LWPOLYLINE
  5
346
330
1F
100
AcDbEntity
  8
0
  6
CONTINUOUS
 62
     7
100
AcDbPolyline
 90
       12
 70
   128
 43
0.0
 10
657.8502882493
 20
360.8694411729
 10
658.5420163918
 20
360.8815111135
 10
659.2810289456
 20
360.8944155191
 10
660.0406159867
 20
360.907670102
 10
660.7933239301
 20
360.9208054755
 10
661.5119482611
 20
360.9333522533
 10
662.1705157903
 20
360.9448484991
 10
662.7452242409
 20
360.9548769806
 10
663.2153023255
 20
360.9630875204
 10
663.5637599264
 20
360.9691671942
 10
663.7780032341
 20
360.9729073857
 10
663.8502883014
 20
360.9741665338
  0
LINE
  5
347
330
1F
100
AcDbEntity
  8
0
  6
CONTINUOUS
 62
     7
100
AcDbLine
 10
663.8502883014
 20
360.9741665338
 30
0.0
 11
663.8502883014
 21
359.4338856552
 31
0.0
  0
LWPOLYLINE
  5
348
330
1F
100
AcDbEntity
  8
0
  6
CONTINUOUS
 62
     7
100
AcDbPolyline
 90
        4
 70
   128
 43
0.0
 10
663.8502883014
 20
359.4338856552
 10
663.8108784553
 20
359.4318218444
 10
663.6934256402
 20
359.4256676648
 10
663.5002446581
 20
359.4155423258
  0
LINE
  5
349
330
1F
100
AcDbEntity
  8
0
  6
CONTINUOUS
 62
     7
100
AcDbLine
 10
663.5002446581
 20
359.4155423258
 30
0.0
 11
663.5002446581
 21
354.3233349834
 31
0.0
  0
LWPOLYLINE
  5
34A
330
1F
100
AcDbEntity
  8
0
  6
CONTINUOUS
 62
     7
100
AcDbPolyline
 90
        4
 70
   128
 43
0.0
 10
663.8502883014
 20
354.304991654
 10
663.8108784553
 20
354.3070554648
 10
663.6934256402
 20
354.3132133697
 10
663.5002446581
 20
354.3233349834
  0
LINE
  5
34B
330
1F
100
AcDbEntity
  8
0
  6
CONTINUOUS
 62
     7
100
AcDbLine
 10
663.8502883014
 20
354.304991654
 30
0.0
 11
663.8502883014
 21
351.9338853572
 31
0.0
  0
LWPOLYLINE
  5
34C
330
1F
100
AcDbEntity
  8
0
  6
CONTINUOUS
 62
     7
100
AcDbPolyline
 90
       12
 70
   128
 43
0.0
 10
657.8502882493
 20
351.6194373284
 10
658.5420163918
 20
351.6556918536
 10
659.2810289456
 20
351.6944199715
 10
660.0406159867
 20
351.7342284237
 10
660.7933239301
 20
351.7736755226
 10
661.5119482611
 20
351.8113382076
 10
662.1705157903
 20
351.8458530222
 10
662.7452242409
 20
351.8759719942
 10
663.2153023255
 20
351.900607339
 10
663.5637599264
 20
351.918868712
 10
663.7780032341
 20
351.930096737
 10
663.8502883014
 20
351.9338853572
  0
LWPOLYLINE
  5
34D
330
1F
100
AcDbEntity
  8
0
  6
CONTINUOUS
 62
     7
100
AcDbPolyline
 90
        4
 70
   128
 43
0.0
 10
656.2815220549
 20
351.7566881989
 10
656.6939536004
 20
351.720605037
 10
657.2234197391
 20
351.6742810522
 10
657.8502882493
 20
351.6194373284
  0
LINE
  5
34E
330
1F
100
AcDbEntity
  8
0
  6
CONTINUOUS
 62
     7
100
AcDbLine
 10
656.2815220549
 20
351.7566881989
 30
0.0
 11
656.2815220549
 21
354.6194396828
 31
0.0
  0
LINE
  5
34F
330
1F
100
AcDbEntity
  8
0
  6
CONTINUOUS
 62
     7
100
AcDbLine
 10
656.2815220549
 20
354.6194396828
 30
0.0
 11
655.8502881543
 21
354.6194396828
 31
0.0
  0
LWPOLYLINE
  5
350
330
1F
100
AcDbEntity
  8
0
  6
CONTINUOUS
 62
     7
100
AcDbPolyline
 90
        4
 70
   128
 43
0.0
 10
656.2815220549
 20
208.787221453
 10
656.007365951
 20
208.7728567336
 10
655.8678438176
 20
208.7655402635
 10
655.8502881543
 20
208.7646238421
  0
LINE
  5
351
330
1F
100
AcDbEntity
  8
0
  6
CONTINUOUS
 62
     7
100
AcDbLine
 10
656.2815220549
 20
210.7321880673
 30
0.0
 11
656.2815220549
 21
208.787221453
 31
0.0
  0
LWPOLYLINE
  5
352
330
1F
100
AcDbEntity
  8
0
  6
CONTINUOUS
 62
     7
100
AcDbPolyline
 90
        4
 70
   128
 43
0.0
 10
656.2815220549
 20
210.7321880673
 10
656.6939536004
 20
210.7682712291
 10
657.2234197391
 20
210.8145914887
 10
657.8502882493
 20
210.8694352124
  0
LWPOLYLINE
  5
353
330
1F
100
AcDbEntity
  8
0
  6
CONTINUOUS
 62
     7
100
AcDbPolyline
 90
       13
 70
   128
 43
0.0
 10
657.8502882493
 20
210.8694352124
 10
658.482207671
 20
210.8804695223
 10
659.1556955117
 20
210.8922265385
 10
659.8502883443
 20
210.9043486331
 10
660.5448810604
 20
210.9164707278
 10
661.2183688429
 20
210.9282277439
 10
661.8502884392
 20
210.9392620538
 10
662.4214387719
 20
210.9492309306
 10
662.9144660418
 20
210.9578363512
 10
663.3143899252
 20
210.9648175453
 10
663.6090585251
 20
210.9699584459
 10
663.7895190378
 20
210.9731100415
 10
663.8502883014
 20
210.9741680239
  0
LINE
  5
354
330
1F
100
AcDbEntity
  8
0
  6
CONTINUOUS
 62
     7
100
AcDbLine
 10
663.8502883014
 20
209.4338871454
 30
0.0
 11
663.8502883014
 21
210.9741680239
 31
0.0
  0
LWPOLYLINE
  5
355
330
1F
100
AcDbEntity
  8
0
  6
CONTINUOUS
 62
     7
100
AcDbPolyline
 90
        4
 70
   128
 43
0.0
 10
663.5002446581
 20
209.4155363653
 10
663.6934256402
 20
209.4256617044
 10
663.8108784553
 20
209.4318233345
 10
663.8502883014
 20
209.4338871454
  0
LINE
  5
356
330
1F
100
AcDbEntity
  8
0
  6
CONTINUOUS
 62
     7
100
AcDbLine
 10
663.5002446581
 20
204.3233401988
 30
0.0
 11
663.5002446581
 21
209.4155363653
 31
0.0
  0
LWPOLYLINE
  5
357
330
1F
100
AcDbEntity
  8
0
  6
CONTINUOUS
 62
     7
100
AcDbPolyline
 90
        4
 70
   128
 43
0.0
 10
663.5002446581
 20
204.3233401988
 10
663.6934256402
 20
204.3132148598
 10
663.8108784553
 20
204.3070606802
 10
663.8502883014
 20
204.3049894188
  0
LINE
  5
358
330
1F
100
AcDbEntity
  8
0
  6
CONTINUOUS
 62
     7
100
AcDbLine
 10
663.8502883014
 20
201.9338868473
 30
0.0
 11
663.8502883014
 21
204.3049894188
 31
0.0
  0
LWPOLYLINE
  5
359
330
1F
100
AcDbEntity
  8
0
  6
CONTINUOUS
 62
     7
100
AcDbPolyline
 90
       12
 70
   128
 43
0.0
 10
657.8502882493
 20
201.6194350932
 10
658.5420163918
 20
201.6556896184
 10
659.2810289456
 20
201.6944177364
 10
660.0406159867
 20
201.7342261885
 10
660.7933239301
 20
201.7736770128
 10
661.5119482611
 20
201.8113396977
 10
662.1705157903
 20
201.845850787
 10
662.7452242409
 20
201.8759734844
 10
663.2153023255
 20
201.9006051038
 10
663.5637599264
 20
201.9188664768
 10
663.7780032341
 20
201.9300945018
 10
663.8502883014
 20
201.9338868473
  0
LWPOLYLINE
  5
35A
330
1F
100
AcDbEntity
  8
0
  6
CONTINUOUS
 62
     7
100
AcDbPolyline
 90
        4
 70
   128
 43
0.0
 10
657.8502882493
 20
201.6194350932
 10
657.2234197391
 20
201.674278817
 10
656.6939536004
 20
201.7206065272
 10
656.2815220549
 20
201.756689689
  0
LINE
  5
35B
330
1F
100
AcDbEntity
  8
0
  6
CONTINUOUS
 62
     7
100
AcDbLine
 10
656.2815220549
 20
204.6194411729
 30
0.0
 11
656.2815220549
 21
201.756689689
 31
0.0
  0
LINE
  5
35C
330
1F
100
AcDbEntity
  8
0
  6
CONTINUOUS
 62
     7
100
AcDbLine
 10
655.8502881543
 20
204.6194411729
 30
0.0
 11
656.2815220549
 21
204.6194411729
 31
0.0
  0
LWPOLYLINE
  5
35D
330
1F
100
AcDbEntity
  8
0
  6
CONTINUOUS
 62
     7
100
AcDbPolyline
 90
        4
 70
   128
 43
0.0
 10
655.8502881543
 20
231.4742542718
 10
655.8678438176
 20
231.4733303998
 10
656.007365951
 20
231.4660213803
 10
656.2815220549
 20
231.4516566609
  0
LWPOLYLINE
  5
35E
330
1F
100
AcDbEntity
  8
0
  6
CONTINUOUS
 62
     7
100
AcDbPolyline
 90
        4
 70
   128
 43
0.0
 10
656.2815220549
 20
235.5372235094
 10
656.007365951
 20
235.5228550647
 10
655.8678438176
 20
235.5155423198
 10
655.8502881543
 20
235.5146221731
  0
LINE
  5
35F
330
1F
100
AcDbEntity
  8
0
  6
CONTINUOUS
 62
     7
100
AcDbLine
 10
656.2815220549
 20
235.5372235094
 30
0.0
 11
656.2815220549
 21
238.4821884249
 31
0.0
  0
LWPOLYLINE
  5
360
330
1F
100
AcDbEntity
  8
0
  6
CONTINUOUS
 62
     7
100
AcDbPolyline
 90
        4
 70
   128
 43
0.0
 10
657.8502882493
 20
238.6194392954
 10
657.2234197391
 20
238.5645955716
 10
656.6939536004
 20
238.5182715867
 10
656.2815220549
 20
238.4821884249
  0
LWPOLYLINE
  5
361
330
1F
100
AcDbEntity
  8
0
  6
CONTINUOUS
 62
     7
100
AcDbPolyline
 90
       12
 70
   128
 43
0.0
 10
657.8502882493
 20
238.6194392954
 10
658.5420163918
 20
238.5831847702
 10
659.2810289456
 20
238.5444566522
 10
660.0406159867
 20
238.5046482001
 10
660.7933239301
 20
238.4652011011
 10
661.5119482611
 20
238.4275384162
 10
662.1705157903
 20
238.3930236016
 10
662.7452242409
 20
238.3629046295
 10
663.2153023255
 20
238.3382692848
 10
663.5637599264
 20
238.3200079118
 10
663.7780032341
 20
238.3087798868
 10
663.8502883014
 20
238.3049912666
  0
LINE
  5
362
330
1F
100
AcDbEntity
  8
0
  6
CONTINUOUS
 62
     7
100
AcDbLine
 10
663.8502883014
 20
235.9338849698
 30
0.0
 11
663.8502883014
 21
238.3049912666
 31
0.0
  0
LWPOLYLINE
  5
363
330
1F
100
AcDbEntity
  8
0
  6
CONTINUOUS
 62
     7
100
AcDbPolyline
 90
        4
 70
   128
 43
0.0
 10
663.8502883014
 20
235.9338849698
 10
663.8108784553
 20
235.931821159
 10
663.6934256402
 20
235.9256632541
 10
663.5002446581
 20
235.9155416404
  0
LINE
  5
364
330
1F
100
AcDbEntity
  8
0
  6
CONTINUOUS
 62
     7
100
AcDbLine
 10
663.5002446581
 20
235.9155416404
 30
0.0
 11
663.5002446581
 21
230.823334298
 31
0.0
  0
LWPOLYLINE
  5
365
330
1F
100
AcDbEntity
  8
0
  6
CONTINUOUS
 62
     7
100
AcDbPolyline
 90
        4
 70
   128
 43
0.0
 10
663.8502883014
 20
230.8049909685
 10
663.8108784553
 20
230.8070547794
 10
663.6934256402
 20
230.8132089589
 10
663.5002446581
 20
230.823334298
  0
LINE
  5
366
330
1F
100
AcDbEntity
  8
0
  6
CONTINUOUS
 62
     7
100
AcDbLine
 10
663.8502883014
 20
229.26471009
 30
0.0
 11
663.8502883014
 21
230.8049909685
 31
0.0
  0
LWPOLYLINE
  5
367
330
1F
100
AcDbEntity
  8
0
  6
CONTINUOUS
 62
     7
100
AcDbPolyline
 90
       13
 70
   128
 43
0.0
 10
657.8502882493
 20
229.3694354509
 10
658.482207671
 20
229.3584085916
 10
659.1556955117
 20
229.3466515754
 10
659.8502883443
 20
229.3345294808
 10
660.5448810604
 20
229.3224073861
 10
661.2183688429
 20
229.31065037
 10
661.8502884392
 20
229.2996160601
 10
662.4214387719
 20
229.2896471833
 10
662.9144660418
 20
229.2810417627
 10
663.3143899252
 20
229.2740605686
 10
663.6090585251
 20
229.268919668
 10
663.7895190378
 20
229.2657680724
 10
663.8502883014
 20
229.26471009
  0
LWPOLYLINE
  5
368
330
1F
100
AcDbEntity
  8
0
  6
CONTINUOUS
 62
     7
100
AcDbPolyline
 90
        4
 70
   128
 43
0.0
 10
656.2815220549
 20
229.5066900466
 10
656.6939536004
 20
229.4706068848
 10
657.2234197391
 20
229.4242791746
 10
657.8502882493
 20
229.3694354509
  0
LINE
  5
369
330
1F
100
AcDbEntity
  8
0
  6
CONTINUOUS
 62
     7
100
AcDbLine
 10
656.2815220549
 20
229.5066900466
 30
0.0
 11
656.2815220549
 21
231.4516566609
 31
0.0
  0
LINE
  5
36A
330
1F
100
AcDbEntity
  8
0
  6
CONTINUOUS
 62
     7
100
AcDbLine
 10
656.2815220549
 20
381.4516551708
 30
0.0
 11
656.2815220549
 21
379.5066885565
 31
0.0
  0
LWPOLYLINE
  5
36B
330
1F
100
AcDbEntity
  8
0
  6
CONTINUOUS
 62
     7
100
AcDbPolyline
 90
        4
 70
   128
 43
0.0
 10
656.2815220549
 20
381.4516551708
 10
656.007365951
 20
381.4660198901
 10
655.8678438176
 20
381.4733363603
 10
655.8502881543
 20
381.4742527817
  0
LWPOLYLINE
  5
36C
330
1F
100
AcDbEntity
  8
0
  6
CONTINUOUS
 62
     7
100
AcDbPolyline
 90
        4
 70
   128
 43
0.0
 10
655.8502881543
 20
385.514620683
 10
655.8678438176
 20
385.515544555
 10
656.007365951
 20
385.5228535746
 10
656.2815220549
 20
385.5372257446
  0
LINE
  5
36D
330
1F
100
AcDbEntity
  8
0
  6
CONTINUOUS
 62
     7
100
AcDbLine
 10
656.2815220549
 20
388.4821869348
 30
0.0
 11
656.2815220549
 21
385.5372257446
 31
0.0
  0
LWPOLYLINE
  5
36E
330
1F
100
AcDbEntity
  8
0
  6
CONTINUOUS
 62
     7
100
AcDbPolyline
 90
        4
 70
   128
 43
0.0
 10
656.2815220549
 20
388.4821869348
 10
656.6939536004
 20
388.5182700966
 10
657.2234197391
 20
388.5645978068
 10
657.8502882493
 20
388.6194415305
  0
LWPOLYLINE
  5
36F
330
1F
100
AcDbEntity
  8
0
  6
CONTINUOUS
 62
     7
100
AcDbPolyline
 90
       12
 70
   128
 43
0.0
 10
657.8502882493
 20
388.6194415305
 10
658.5420163918
 20
388.5831870054
 10
659.2810289456
 20
388.5444588874
 10
660.0406159867
 20
388.5046504353
 10
660.7933239301
 20
388.465199611
 10
661.5119482611
 20
388.4275369261
 10
662.1705157903
 20
388.3930258368
 10
662.7452242409
 20
388.3629031394
 10
663.2153023255
 20
388.33827152
 10
663.5637599264
 20
388.3200101469
 10
663.7780032341
 20
388.308782122
 10
663.8502883014
 20
388.3049897764
  0
LINE
  5
370
330
1F
100
AcDbEntity
  8
0
  6
CONTINUOUS
 62
     7
100
AcDbLine
 10
663.8502883014
 20
388.3049897764
 30
0.0
 11
663.8502883014
 21
385.933887205
 31
0.0
  0
LWPOLYLINE
  5
371
330
1F
100
AcDbEntity
  8
0
  6
CONTINUOUS
 62
     7
100
AcDbPolyline
 90
        4
 70
   128
 43
0.0
 10
663.5002446581
 20
385.915536425
 10
663.6934256402
 20
385.925661764
 10
663.8108784553
 20
385.9318159436
 10
663.8502883014
 20
385.933887205
  0
LINE
  5
372
330
1F
100
AcDbEntity
  8
0
  6
CONTINUOUS
 62
     7
100
AcDbLine
 10
663.5002446581
 20
380.8233402584
 30
0.0
 11
663.5002446581
 21
385.915536425
 31
0.0
  0
LWPOLYLINE
  5
373
330
1F
100
AcDbEntity
  8
0
  6
CONTINUOUS
 62
     7
100
AcDbPolyline
 90
        4
 70
   128
 43
0.0
 10
663.5002446581
 20
380.8233402584
 10
663.6934256402
 20
380.8132149194
 10
663.8108784553
 20
380.8070532893
 10
663.8502883014
 20
380.8049894784
  0
LINE
  5
374
330
1F
100
AcDbEntity
  8
0
  6
CONTINUOUS
 62
     7
100
AcDbLine
 10
663.8502883014
 20
380.8049894784
 30
0.0
 11
663.8502883014
 21
379.2647085999
 31
0.0
  0
LWPOLYLINE
  5
375
330
1F
100
AcDbEntity
  8
0
  6
CONTINUOUS
 62
     7
100
AcDbPolyline
 90
       13
 70
   128
 43
0.0
 10
657.8502882493
 20
379.3694414113
 10
658.482207671
 20
379.3584071015
 10
659.1556955117
 20
379.3466500853
 10
659.8502883443
 20
379.3345279907
 10
660.5448810604
 20
379.322405896
 10
661.2183688429
 20
379.3106488798
 10
661.8502884392
 20
379.29961457
 10
662.4214387719
 20
379.2896456931
 10
662.9144660418
 20
379.2810402725
 10
663.3143899252
 20
379.2740590785
 10
663.6090585251
 20
379.2689181779
 10
663.7895190378
 20
379.2657665823
 10
663.8502883014
 20
379.2647085999
  0
LWPOLYLINE
  5
376
330
1F
100
AcDbEntity
  8
0
  6
CONTINUOUS
 62
     7
100
AcDbPolyline
 90
        4
 70
   128
 43
0.0
 10
657.8502882493
 20
379.3694414113
 10
657.2234197391
 20
379.4242851351
 10
656.6939536004
 20
379.4706053947
 10
656.2815220549
 20
379.5066885565
  0
LINE
  5
377
330
1F
100
AcDbEntity
  8
0
  6
CONTINUOUS
 62
     7
100
AcDbLine
 10
666.7558694479
 20
386.0861621712
 30
0.0
 11
666.7558694479
 21
380.6527145122
 31
0.0
  0
LINE
  5
378
330
1F
100
AcDbEntity
  8
0
  6
CONTINUOUS
 62
     7
100
AcDbLine
 10
669.8502883536
 20
387.9905454729
 30
0.0
 11
669.8502883536
 21
352.248333386
 31
0.0
  0
LINE
  5
379
330
1F
100
AcDbEntity
  8
0
  6
CONTINUOUS
 62
     7
100
AcDbLine
 10
666.7558694479
 20
354.1527166878
 30
0.0
 11
666.7558694479
 21
359.5861606215
 31
0.0
  0
LINE
  5
37A
330
1F
100
AcDbEntity
  8
0
  6
CONTINUOUS
 62
     7
100
AcDbLine
 10
664.3080021475
 20
360.9821610068
 30
0.0
 11
664.3080021475
 21
379.2567215775
 31
0.0
  0
LINE
  5
37B
330
1F
100
AcDbEntity
  8
0
  6
CONTINUOUS
 62
     7
100
AcDbLine
 10
666.7558694479
 20
359.5861606215
 30
0.0
 11
663.8502883014
 21
359.4338856552
 31
0.0
  0
LINE
  5
37C
330
1F
100
AcDbEntity
  8
0
  6
CONTINUOUS
 62
     7
100
AcDbLine
 10
666.7558694479
 20
354.1527166878
 30
0.0
 11
663.8502883014
 21
354.304991654
 31
0.0
  0
LINE
  5
37D
330
1F
100
AcDbEntity
  8
0
  6
CONTINUOUS
 62
     7
100
AcDbLine
 10
663.8502883014
 20
380.8049894784
 30
0.0
 11
666.7558694479
 21
380.6527145122
 31
0.0
  0
LINE
  5
37E
330
1F
100
AcDbEntity
  8
0
  6
CONTINUOUS
 62
     7
100
AcDbLine
 10
663.8502883014
 20
385.933887205
 30
0.0
 11
666.7558694479
 21
386.0861621712
 31
0.0
  0
LINE
  5
37F
330
1F
100
AcDbEntity
  8
0
  6
CONTINUOUS
 62
     7
100
AcDbLine
 10
663.8502883014
 20
360.9741665338
 30
0.0
 11
664.3080021475
 21
360.9821610068
 31
0.0
  0
LINE
  5
380
330
1F
100
AcDbEntity
  8
0
  6
CONTINUOUS
 62
     7
100
AcDbLine
 10
663.8502883014
 20
388.3049897764
 30
0.0
 11
669.8502883536
 21
387.9905454729
 31
0.0
  0
LINE
  5
381
330
1F
100
AcDbEntity
  8
0
  6
CONTINUOUS
 62
     7
100
AcDbLine
 10
663.8502883014
 20
379.2647085999
 30
0.0
 11
664.3080021475
 21
379.2567215775
 31
0.0
  0
LINE
  5
382
330
1F
100
AcDbEntity
  8
0
  6
CONTINUOUS
 62
     7
100
AcDbLine
 10
663.8502883014
 20
351.9338853572
 30
0.0
 11
669.8502883536
 21
352.248333386
 31
0.0
  0
LINE
  5
383
330
1F
100
AcDbEntity
  8
0
  6
CONTINUOUS
 62
     7
100
AcDbLine
 10
664.3080021475
 20
210.9821550463
 30
0.0
 11
664.3080021475
 21
229.256715617
 31
0.0
  0
LINE
  5
384
330
1F
100
AcDbEntity
  8
0
  6
CONTINUOUS
 62
     7
100
AcDbLine
 10
666.7558694479
 20
230.6527160023
 30
0.0
 11
666.7558694479
 21
236.086159936
 31
0.0
  0
LINE
  5
385
330
1F
100
AcDbEntity
  8
0
  6
CONTINUOUS
 62
     7
100
AcDbLine
 10
669.8502883536
 20
202.2483311508
 30
0.0
 11
669.8502883536
 21
237.9905432378
 31
0.0
  0
LINE
  5
386
330
1F
100
AcDbEntity
  8
0
  6
CONTINUOUS
 62
     7
100
AcDbLine
 10
666.7558694479
 20
209.5861621116
 30
0.0
 11
666.7558694479
 21
204.1527144526
 31
0.0
  0
LINE
  5
387
330
1F
100
AcDbEntity
  8
0
  6
CONTINUOUS
 62
     7
100
AcDbLine
 10
666.7558694479
 20
230.6527160023
 30
0.0
 11
663.8502883014
 21
230.8049909685
 31
0.0
  0
LINE
  5
388
330
1F
100
AcDbEntity
  8
0
  6
CONTINUOUS
 62
     7
100
AcDbLine
 10
663.8502883014
 20
204.3049894188
 30
0.0
 11
666.7558694479
 21
204.1527144526
 31
0.0
  0
LINE
  5
389
330
1F
100
AcDbEntity
  8
0
  6
CONTINUOUS
 62
     7
100
AcDbLine
 10
666.7558694479
 20
236.086159936
 30
0.0
 11
663.8502883014
 21
235.9338849698
 31
0.0
  0
LINE
  5
38A
330
1F
100
AcDbEntity
  8
0
  6
CONTINUOUS
 62
     7
100
AcDbLine
 10
663.8502883014
 20
209.4338871454
 30
0.0
 11
666.7558694479
 21
209.5861621116
 31
0.0
  0
LINE
  5
38B
330
1F
100
AcDbEntity
  8
0
  6
CONTINUOUS
 62
     7
100
AcDbLine
 10
663.8502883014
 20
201.9338868473
 30
0.0
 11
669.8502883536
 21
202.2483311508
 31
0.0
  0
LINE
  5
38C
330
1F
100
AcDbEntity
  8
0
  6
CONTINUOUS
 62
     7
100
AcDbLine
 10
663.8502883014
 20
210.9741680239
 30
0.0
 11
664.3080021475
 21
210.9821550463
 31
0.0
  0
LINE
  5
38D
330
1F
100
AcDbEntity
  8
0
  6
CONTINUOUS
 62
     7
100
AcDbLine
 10
663.8502883014
 20
238.3049912666
 30
0.0
 11
669.8502883536
 21
237.9905432378
 31
0.0
  0
LINE
  5
38E
330
1F
100
AcDbEntity
  8
0
  6
CONTINUOUS
 62
     7
100
AcDbLine
 10
663.8502883014
 20
229.26471009
 30
0.0
 11
664.3080021475
 21
229.256715617
 31
0.0
  0
LINE
  5
38F
330
1F
100
AcDbEntity
  8
0
  6
CONTINUOUS
 62
     7
100
AcDbLine
 10
663.8516154361
 20
379.2646862481
 30
0.0
 11
663.8516154361
 21
360.9741888855
 31
0.0
  0
LINE
  5
390
330
1F
100
AcDbEntity
  8
0
  6
CONTINUOUS
 62
     7
100
AcDbLine
 10
663.8516154361
 20
210.9741903756
 30
0.0
 11
663.8516154361
 21
229.2646877383
 31
0.0
  0
LINE
  5
391
330
1F
100
AcDbEntity
  8
0
  6
CONTINUOUS
 62
     7
100
AcDbLine
 10
671.0230292973
 20
202.3097909902
 30
0.0
 11
671.0230292973
 21
237.9290833984
 31
0.0
  0
LINE
  5
392
330
1F
100
AcDbEntity
  8
0
  6
CONTINUOUS
 62
     7
100
AcDbLine
 10
669.8502883536
 20
202.2483311508
 30
0.0
 11
671.0230292973
 21
202.3097909902
 31
0.0
  0
LINE
  5
393
330
1F
100
AcDbEntity
  8
0
  6
CONTINUOUS
 62
     7
100
AcDbLine
 10
669.8502883536
 20
237.9905432378
 30
0.0
 11
671.0230292973
 21
237.9290833984
 31
0.0
  0
LINE
  5
394
330
1F
100
AcDbEntity
  8
0
  6
CONTINUOUS
 62
     7
100
AcDbLine
 10
671.0230292973
 20
387.9290856336
 30
0.0
 11
671.0230292973
 21
352.3097932254
 31
0.0
  0
LINE
  5
395
330
1F
100
AcDbEntity
  8
0
  6
CONTINUOUS
 62
     7
100
AcDbLine
 10
669.8502883536
 20
387.9905454729
 30
0.0
 11
671.0230292973
 21
387.9290856336
 31
0.0
  0
LINE
  5
396
330
1F
100
AcDbEntity
  8
0
  6
CONTINUOUS
 62
     7
100
AcDbLine
 10
669.8502883536
 20
352.248333386
 30
0.0
 11
671.0230292973
 21
352.3097932254
 31
0.0
  0
LINE
  5
397
330
1F
100
AcDbEntity
  8
0
  6
CONTINUOUS
 62
     7
100
AcDbLine
 10
673.9058628899
 20
355.1194369708
 30
0.0
 11
672.3923584667
 21
355.1987595771
 31
0.0
  0
LINE
  5
398
330
1F
100
AcDbEntity
  8
0
  6
CONTINUOUS
 62
     7
100
AcDbLine
 10
673.9058628899
 20
355.1194369708
 30
0.0
 11
673.9058628899
 21
352.4608760987
 31
0.0
  0
LINE
  5
399
330
1F
100
AcDbEntity
  8
0
  6
CONTINUOUS
 62
     7
100
AcDbLine
 10
673.9058628899
 20
387.7780027602
 30
0.0
 11
673.9058628899
 21
385.1194418882
 31
0.0
  0
LINE
  5
39A
330
1F
100
AcDbEntity
  8
0
  6
CONTINUOUS
 62
     7
100
AcDbLine
 10
672.3923584667
 20
385.0401155566
 30
0.0
 11
673.9058628899
 21
385.1194418882
 31
0.0
  0
LINE
  5
39B
330
1F
100
AcDbEntity
  8
0
  6
CONTINUOUS
 62
     7
100
AcDbLine
 10
672.3923584667
 20
371.1987547491
 30
0.0
 11
672.3923584667
 21
385.0401155566
 31
0.0
  0
LINE
  5
39C
330
1F
100
AcDbEntity
  8
0
  6
CONTINUOUS
 62
     7
100
AcDbLine
 10
673.9058628899
 20
371.1194358681
 30
0.0
 11
672.3923584667
 21
371.1987547491
 31
0.0
  0
LINE
  5
39D
330
1F
100
AcDbEntity
  8
0
  6
CONTINUOUS
 62
     7
100
AcDbLine
 10
673.9058628899
 20
371.1194358681
 30
0.0
 11
673.9058628899
 21
369.1194392656
 31
0.0
  0
LINE
  5
39E
330
1F
100
AcDbEntity
  8
0
  6
CONTINUOUS
 62
     7
100
AcDbLine
 10
672.3923584667
 20
369.0401203845
 30
0.0
 11
673.9058628899
 21
369.1194392656
 31
0.0
  0
LINE
  5
39F
330
1F
100
AcDbEntity
  8
0
  6
CONTINUOUS
 62
     7
100
AcDbLine
 10
672.3923584667
 20
355.1987595771
 30
0.0
 11
672.3923584667
 21
369.0401203845
 31
0.0
  0
LINE
  5
3A0
330
1F
100
AcDbEntity
  8
0
  6
CONTINUOUS
 62
     7
100
AcDbLine
 10
671.0230292973
 20
387.9290856336
 30
0.0
 11
673.9058628899
 21
387.7780027602
 31
0.0
  0
LINE
  5
3A1
330
1F
100
AcDbEntity
  8
0
  6
CONTINUOUS
 62
     7
100
AcDbLine
 10
671.0230292973
 20
352.3097932254
 30
0.0
 11
673.9058628899
 21
352.4608760987
 31
0.0
  0
LINE
  5
3A2
330
1F
100
AcDbEntity
  8
0
  6
CONTINUOUS
 62
     7
100
AcDbLine
 10
672.3923584667
 20
219.0401218746
 30
0.0
 11
673.9058628899
 21
219.1194407557
 31
0.0
  0
LINE
  5
3A3
330
1F
100
AcDbEntity
  8
0
  6
CONTINUOUS
 62
     7
100
AcDbLine
 10
672.3923584667
 20
205.1987610672
 30
0.0
 11
672.3923584667
 21
219.0401218746
 31
0.0
  0
LINE
  5
3A4
330
1F
100
AcDbEntity
  8
0
  6
CONTINUOUS
 62
     7
100
AcDbLine
 10
673.9058628899
 20
205.1194347356
 30
0.0
 11
672.3923584667
 21
205.1987610672
 31
0.0
  0
LINE
  5
3A5
330
1F
100
AcDbEntity
  8
0
  6
CONTINUOUS
 62
     7
100
AcDbLine
 10
673.9058628899
 20
202.4608738635
 30
0.0
 11
673.9058628899
 21
205.1194347356
 31
0.0
  0
LINE
  5
3A6
330
1F
100
AcDbEntity
  8
0
  6
CONTINUOUS
 62
     7
100
AcDbLine
 10
673.9058628899
 20
235.119439653
 30
0.0
 11
673.9058628899
 21
237.7780005251
 31
0.0
  0
LINE
  5
3A7
330
1F
100
AcDbEntity
  8
0
  6
CONTINUOUS
 62
     7
100
AcDbLine
 10
672.3923584667
 20
235.0401170467
 30
0.0
 11
673.9058628899
 21
235.119439653
 31
0.0
  0
LINE
  5
3A8
330
1F
100
AcDbEntity
  8
0
  6
CONTINUOUS
 62
     7
100
AcDbLine
 10
672.3923584667
 20
221.1987562393
 30
0.0
 11
672.3923584667
 21
235.0401170467
 31
0.0
  0
LINE
  5
3A9
330
1F
100
AcDbEntity
  8
0
  6
CONTINUOUS
 62
     7
100
AcDbLine
 10
673.9058628899
 20
221.1194373582
 30
0.0
 11
672.3923584667
 21
221.1987562393
 31
0.0
  0
LINE
  5
3AA
330
1F
100
AcDbEntity
  8
0
  6
CONTINUOUS
 62
     7
100
AcDbLine
 10
673.9058628899
 20
219.1194407557
 30
0.0
 11
673.9058628899
 21
221.1194373582
 31
0.0
  0
LINE
  5
3AB
330
1F
100
AcDbEntity
  8
0
  6
CONTINUOUS
 62
     7
100
AcDbLine
 10
671.0230292973
 20
202.3097909902
 30
0.0
 11
673.9058628899
 21
202.4608738635
 31
0.0
  0
LINE
  5
3AC
330
1F
100
AcDbEntity
  8
0
  6
CONTINUOUS
 62
     7
100
AcDbLine
 10
671.0230292973
 20
237.9290833984
 30
0.0
 11
673.9058628899
 21
237.7780005251
 31
0.0
  0
LINE
  5
3AD
330
1F
100
AcDbEntity
  8
0
  6
CONTINUOUS
 62
     7
100
AcDbLine
 10
658.4080105984
 20
379.3597035025
 30
0.0
 11
658.4080105984
 21
360.8791716312
 31
0.0
  0
LINE
  5
3AE
330
1F
100
AcDbEntity
  8
0
  6
CONTINUOUS
 62
     7
100
AcDbLine
 10
658.4080105984
 20
229.3597049926
 30
0.0
 11
658.4080105984
 21
210.8791731213
 31
0.0
  0
LINE
  5
3AF
330
1F
100
AcDbEntity
  8
0
  6
CONTINUOUS
 62
     7
100
AcDbLine
 10
663.1519328092
 20
419.8415912603
 30
0.0
 11
656.8502882018
 21
420.1718456958
 31
0.0
  0
LINE
  5
3B0
330
1F
100
AcDbEntity
  8
0
  6
CONTINUOUS
 62
     7
100
AcDbLine
 10
663.1519328092
 20
414.1194410537
 30
0.0
 11
663.1519328092
 21
419.8415912603
 31
0.0
  0
LINE
  5
3B1
330
1F
100
AcDbEntity
  8
0
  6
CONTINUOUS
 62
     7
100
AcDbLine
 10
663.1519328092
 20
414.1194410537
 30
0.0
 11
656.8502882018
 21
414.1194410537
 31
0.0
  0
LINE
  5
3B2
330
1F
100
AcDbEntity
  8
0
  6
CONTINUOUS
 62
     7
100
AcDbLine
 10
656.8502882018
 20
414.1194410537
 30
0.0
 11
656.8502882018
 21
420.1718456958
 31
0.0
  0
LINE
  5
3B3
330
1F
100
AcDbEntity
  8
0
  6
CONTINUOUS
 62
     7
100
AcDbLine
 10
663.1519328092
 20
388.3415944789
 30
0.0
 11
663.1519328092
 21
414.1194410537
 31
0.0
  0
LINE
  5
3B4
330
1F
100
AcDbEntity
  8
0
  6
CONTINUOUS
 62
     7
100
AcDbLine
 10
663.1519328092
 20
238.3415922437
 30
0.0
 11
663.1519328092
 21
351.89728438
 31
0.0
  0
LINE
  5
3B5
330
1F
100
AcDbEntity
  8
0
  6
CONTINUOUS
 62
     7
100
AcDbLine
 10
663.1519328092
 20
176.1194355701
 30
0.0
 11
663.1519328092
 21
201.8972821449
 31
0.0
  0
LINE
  5
3B6
330
1F
100
AcDbEntity
  8
0
  6
CONTINUOUS
 62
     7
100
AcDbLine
 10
663.1519328092
 20
176.1194355701
 30
0.0
 11
656.8502882018
 21
176.1194355701
 31
0.0
  0
LINE
  5
3B7
330
1F
100
AcDbEntity
  8
0
  6
CONTINUOUS
 62
     7
100
AcDbLine
 10
656.8502882018
 20
176.1194355701
 30
0.0
 11
656.8502882018
 21
200.4131562923
 31
0.0
  0
LINE
  5
3B8
330
1F
100
AcDbEntity
  8
0
  6
CONTINUOUS
 62
     7
100
AcDbLine
 10
656.8502882018
 20
200.4131562923
 30
0.0
 11
657.8502882493
 21
200.5894817327
 31
0.0
  0
LINE
  5
3B9
330
1F
100
AcDbEntity
  8
0
  6
CONTINUOUS
 62
     7
100
AcDbLine
 10
657.8502882493
 20
239.6493926559
 30
0.0
 11
657.8502882493
 21
238.6194392954
 31
0.0
  0
LINE
  5
3BA
330
1F
100
AcDbEntity
  8
0
  6
CONTINUOUS
 62
     7
100
AcDbLine
 10
657.8502882493
 20
229.3694354509
 30
0.0
 11
657.8502882493
 21
210.8694352124
 31
0.0
  0
LINE
  5
3BB
330
1F
100
AcDbEntity
  8
0
  6
CONTINUOUS
 62
     7
100
AcDbLine
 10
657.8502882493
 20
201.6194350932
 30
0.0
 11
657.8502882493
 21
200.5894817327
 31
0.0
  0
LINE
  5
3BC
330
1F
100
AcDbEntity
  8
0
  6
CONTINUOUS
 62
     7
100
AcDbLine
 10
657.8502882493
 20
389.6493948911
 30
0.0
 11
657.8502882493
 21
388.6194415305
 31
0.0
  0
LINE
  5
3BD
330
1F
100
AcDbEntity
  8
0
  6
CONTINUOUS
 62
     7
100
AcDbLine
 10
657.8502882493
 20
379.3694414113
 30
0.0
 11
657.8502882493
 21
360.8694411729
 31
0.0
  0
LINE
  5
3BE
330
1F
100
AcDbEntity
  8
0
  6
CONTINUOUS
 62
     7
100
AcDbLine
 10
657.8502882493
 20
351.6194373284
 30
0.0
 11
657.8502882493
 21
350.5894839679
 31
0.0
  0
LINE
  5
3BF
330
1F
100
AcDbEntity
  8
0
  6
CONTINUOUS
 62
     7
100
AcDbLine
 10
657.8502882493
 20
239.6493926559
 30
0.0
 11
656.8502882018
 21
239.8257180963
 31
0.0
  0
LINE
  5
3C0
330
1F
100
AcDbEntity
  8
0
  6
CONTINUOUS
 62
     7
100
AcDbLine
 10
656.8502882018
 20
239.8257180963
 30
0.0
 11
656.8502882018
 21
350.4131585274
 31
0.0
  0
LINE
  5
3C1
330
1F
100
AcDbEntity
  8
0
  6
CONTINUOUS
 62
     7
100
AcDbLine
 10
657.8502882493
 20
350.5894839679
 30
0.0
 11
656.8502882018
 21
350.4131585274
 31
0.0
  0
LINE
  5
3C2
330
1F
100
AcDbEntity
  8
0
  6
CONTINUOUS
 62
     7
100
AcDbLine
 10
656.8502882018
 20
389.8257203315
 30
0.0
 11
657.8502882493
 21
389.6493948911
 31
0.0
  0
LINE
  5
3C3
330
1F
100
AcDbEntity
  8
0
  6
CONTINUOUS
 62
     7
100
AcDbLine
 10
656.8502882018
 20
389.8257203315
 30
0.0
 11
656.8502882018
 21
414.1194410537
 31
0.0
  0
LINE
  5
3C4
330
1F
100
AcDbEntity
  8
0
  6
CONTINUOUS
 62
     7
100
AcDbLine
 10
663.1519328092
 20
170.3972853635
 30
0.0
 11
663.1519328092
 21
176.1194355701
 31
0.0
  0
LINE
  5
3C5
330
1F
100
AcDbEntity
  8
0
  6
CONTINUOUS
 62
     7
100
AcDbLine
 10
663.1519328092
 20
170.3972853635
 30
0.0
 11
656.8502882018
 21
170.067030928
 31
0.0
  0
LINE
  5
3C6
330
1F
100
AcDbEntity
  8
0
  6
CONTINUOUS
 62
     7
100
AcDbLine
 10
656.8502882018
 20
170.067030928
 30
0.0
 11
656.8502882018
 21
176.1194355701
 31
0.0
  0
LINE
  5
3C7
330
1F
100
AcDbEntity
  8
0
  6
CONTINUOUS
 62
     7
100
AcDbLine
 10
663.1519328092
 20
414.1194410537
 30
0.0
 11
663.9782166329
 21
414.1194410537
 31
0.0
  0
LINE
  5
3C8
330
1F
100
AcDbEntity
  8
0
  6
CONTINUOUS
 62
     7
100
AcDbLine
 10
663.1519328092
 20
419.8415912603
 30
0.0
 11
663.9782166329
 21
417.1389378522
 31
0.0
  0
ARC
  5
3C9
330
1F
100
AcDbEntity
  8
0
  6
CONTINUOUS
 62
     7
100
AcDbCircle
 10
668.2586460028
 20
416.1430634473
 30
0.0
 40
4.446554639685314
100
AcDbArc
 50
167.0215023568
 51
192.9784976432
  0
LINE
  5
3CA
330
1F
100
AcDbEntity
  8
0
  6
CONTINUOUS
 62
     7
100
AcDbLine
 10
663.9782166329
 20
414.1194410537
 30
0.0
 11
663.9256811921
 21
415.1444323276
 31
0.0
  0
LINE
  5
3CB
330
1F
100
AcDbEntity
  8
0
  6
CONTINUOUS
 62
     7
100
AcDbLine
 10
663.9782166329
 20
388.2982842539
 30
0.0
 11
663.9782166329
 21
414.1194410537
 31
0.0
  0
LINE
  5
3CC
330
1F
100
AcDbEntity
  8
0
  6
CONTINUOUS
 62
     7
100
AcDbLine
 10
663.9782166329
 20
238.298285744
 30
0.0
 11
663.9782166329
 21
351.9405908798
 31
0.0
  0
LINE
  5
3CD
330
1F
100
AcDbEntity
  8
0
  6
CONTINUOUS
 62
     7
100
AcDbLine
 10
663.9782166329
 20
176.1194355701
 30
0.0
 11
663.9782166329
 21
201.9405923699
 31
0.0
  0
LINE
  5
3CE
330
1F
100
AcDbEntity
  8
0
  6
CONTINUOUS
 62
     7
100
AcDbLine
 10
663.9782166329
 20
176.1194355701
 30
0.0
 11
663.1519328092
 21
176.1194355701
 31
0.0
  0
LINE
  5
3CF
330
1F
100
AcDbEntity
  8
0
  6
CONTINUOUS
 62
     7
100
AcDbLine
 10
663.9256811921
 20
175.0944442962
 30
0.0
 11
663.9782166329
 21
176.1194355701
 31
0.0
  0
ARC
  5
3D0
330
1F
100
AcDbEntity
  8
0
  6
CONTINUOUS
 62
     7
100
AcDbCircle
 10
669.7162870692
 20
174.0958131765
 30
0.0
 40
5.876085477303493
100
AcDbArc
 50
170.2151830941
 51
189.7848169059
  0
LINE
  5
3D1
330
1F
100
AcDbEntity
  8
0
  6
CONTINUOUS
 62
     7
100
AcDbLine
 10
663.9782166329
 20
173.0999387716
 30
0.0
 11
663.1519328092
 21
170.3972853635
 31
0.0
  0
LINE
  5
3D2
330
1F
100
AcDbEntity
  8
0
  6
CONTINUOUS
 62
     7
100
AcDbLine
 10
663.9256811921
 20
417.141694567
 30
0.0
 11
691.7949807119
 21
415.6811199997
 31
0.0
  0
ARC
  5
3D3
330
1F
100
AcDbEntity
  8
0
  6
CONTINUOUS
 62
     7
100
AcDbCircle
 10
673.9711706652
 20
414.6824926053
 30
0.0
 40
17.85176353347376
100
AcDbArc
 50
356.7932009392
 51
3.2067990608
  0
LINE
  5
3D4
330
1F
100
AcDbEntity
  8
0
  6
CONTINUOUS
 62
     7
100
AcDbLine
 10
691.7949807119
 20
413.6838652108
 30
0.0
 11
663.9256811921
 21
415.1444323276
 31
0.0
  0
LINE
  5
3D5
330
1F
100
AcDbEntity
  8
0
  6
CONTINUOUS
 62
     7
100
AcDbLine
 10
663.9256811921
 20
175.0944442962
 30
0.0
 11
691.7949807119
 21
176.5550114129
 31
0.0
  0
ARC
  5
3D6
330
1F
100
AcDbEntity
  8
0
  6
CONTINUOUS
 62
     7
100
AcDbCircle
 10
673.9722643609
 20
175.5563840185
 30
0.0
 40
17.85067155050259
100
AcDbArc
 50
356.7930045639
 51
3.2069954361
  0
LINE
  5
3D7
330
1F
100
AcDbEntity
  8
0
  6
CONTINUOUS
 62
     7
100
AcDbLine
 10
691.7949807119
 20
174.5577566241
 30
0.0
 11
663.9256811921
 21
173.0971820567
 31
0.0
  0
LINE
  5
3D8
330
1F
100
AcDbEntity
  8
0
  6
CONTINUOUS
 62
     7
100
AcDbLine
 10
691.7949807119
 20
176.5550114129
 30
0.0
 11
691.7949807119
 21
413.6838652108
 31
0.0
  0
LINE
  5
3D9
330
1F
100
AcDbEntity
  8
0
  6
CONTINUOUS
 62
     7
100
AcDbLine
 10
691.7949807119
 20
415.6811199997
 30
0.0
 11
692.8502883983
 21
414.625819764
 31
0.0
  0
LINE
  5
3DA
330
1F
100
AcDbEntity
  8
0
  6
CONTINUOUS
 62
     7
100
AcDbLine
 10
692.8502883983
 20
414.625819764
 30
0.0
 11
692.8502883983
 21
413.6838652108
 31
0.0
  0
LINE
  5
3DB
330
1F
100
AcDbEntity
  8
0
  6
CONTINUOUS
 62
     7
100
AcDbLine
 10
691.7949807119
 20
413.6838652108
 30
0.0
 11
692.8502883983
 21
413.6838652108
 31
0.0
  0
LINE
  5
3DC
330
1F
100
AcDbEntity
  8
0
  6
CONTINUOUS
 62
     7
100
AcDbLine
 10
691.7949807119
 20
176.5550114129
 30
0.0
 11
692.8502883983
 21
176.5550114129
 31
0.0
  0
LINE
  5
3DD
330
1F
100
AcDbEntity
  8
0
  6
CONTINUOUS
 62
     7
100
AcDbLine
 10
692.8502883983
 20
176.5550114129
 30
0.0
 11
692.8502883983
 21
175.6130568598
 31
0.0
  0
LINE
  5
3DE
330
1F
100
AcDbEntity
  8
0
  6
CONTINUOUS
 62
     7
100
AcDbLine
 10
691.7949807119
 20
174.5577566241
 30
0.0
 11
692.8502883983
 21
175.6130568598
 31
0.0
  0
LINE
  5
3DF
330
1F
100
AcDbEntity
  8
0
  6
CONTINUOUS
 62
     7
100
AcDbLine
 10
692.8502883983
 20
413.6838652108
 30
0.0
 11
692.8502883983
 21
176.5550114129
 31
0.0
  0
LINE
  5
3E0
330
1F
100
AcDbEntity
  8
0
  6
CONTINUOUS
 62
     7
100
AcDbLine
 10
655.3502883051
 20
420.2504642223
 30
0.0
 11
655.3502883051
 21
419.2504547451
 31
0.0
  0
LINE
  5
3E1
330
1F
100
AcDbEntity
  8
0
  6
CONTINUOUS
 62
     7
100
AcDbLine
 10
656.8502882018
 20
419.1718436693
 30
0.0
 11
655.3502883051
 21
419.2504547451
 31
0.0
  0
LINE
  5
3E2
330
1F
100
AcDbEntity
  8
0
  6
CONTINUOUS
 62
     7
100
AcDbLine
 10
655.3502883051
 20
420.2504642223
 30
0.0
 11
656.8502882018
 21
420.1718456958
 31
0.0
  0
LINE
  5
3E3
330
1F
100
AcDbEntity
  8
0
  6
CONTINUOUS
 62
     7
100
AcDbLine
 10
655.3502883051
 20
170.9884218787
 30
0.0
 11
655.3502883051
 21
169.9884124015
 31
0.0
  0
LINE
  5
3E4
330
1F
100
AcDbEntity
  8
0
  6
CONTINUOUS
 62
     7
100
AcDbLine
 10
655.3502883051
 20
170.9884218787
 30
0.0
 11
656.8502882018
 21
171.0670329545
 31
0.0
  0
LINE
  5
3E5
330
1F
100
AcDbEntity
  8
0
  6
CONTINUOUS
 62
     7
100
AcDbLine
 10
656.8502882018
 20
170.067030928
 30
0.0
 11
655.3502883051
 21
169.9884124015
 31
0.0
  0
LINE
  5
3E6
330
1F
100
AcDbEntity
  8
0
  6
CONTINUOUS
 62
     7
100
AcDbLine
 10
655.3502883051
 20
419.2504547451
 30
0.0
 11
655.3502883051
 21
414.1194410537
 31
0.0
  0
LINE
  5
3E7
330
1F
100
AcDbEntity
  8
0
  6
CONTINUOUS
 62
     7
100
AcDbLine
 10
655.3502883051
 20
176.1194355701
 30
0.0
 11
655.3502883051
 21
170.9884218787
 31
0.0
  0
LINE
  5
3E8
330
1F
100
AcDbEntity
  8
0
  6
CONTINUOUS
 62
     7
100
AcDbLine
 10
655.8502881543
 20
232.5312755917
 30
0.0
 11
655.3502883051
 21
232.6194383119
 31
0.0
  0
LINE
  5
3E9
330
1F
100
AcDbEntity
  8
0
  6
CONTINUOUS
 62
     7
100
AcDbLine
 10
655.3502883051
 20
357.6194383119
 30
0.0
 11
655.3502883051
 21
232.6194383119
 31
0.0
  0
LINE
  5
3EA
330
1F
100
AcDbEntity
  8
0
  6
CONTINUOUS
 62
     7
100
AcDbLine
 10
655.8502881543
 20
357.7076010321
 30
0.0
 11
655.3502883051
 21
357.6194383119
 31
0.0
  0
LINE
  5
3EB
330
1F
100
AcDbEntity
  8
0
  6
CONTINUOUS
 62
     7
100
AcDbLine
 10
655.3502883051
 20
382.6194368218
 30
0.0
 11
655.8502881543
 21
382.5312741016
 31
0.0
  0
LINE
  5
3EC
330
1F
100
AcDbEntity
  8
0
  6
CONTINUOUS
 62
     7
100
AcDbLine
 10
655.3502883051
 20
207.619439802
 30
0.0
 11
655.8502881543
 21
207.7076025222
 31
0.0
  0
LINE
  5
3ED
330
1F
100
AcDbEntity
  8
0
  6
CONTINUOUS
 62
     7
100
AcDbLine
 10
655.3502883051
 20
414.1194410537
 30
0.0
 11
655.3502883051
 21
382.6194368218
 31
0.0
  0
LINE
  5
3EE
330
1F
100
AcDbEntity
  8
0
  6
CONTINUOUS
 62
     7
100
AcDbLine
 10
655.3502883051
 20
207.619439802
 30
0.0
 11
655.3502883051
 21
176.1194355701
 31
0.0
  0
LINE
  5
3EF
330
1F
100
AcDbEntity
  8
0
  6
CONTINUOUS
 62
     8
100
AcDbLine
 10
656.8502882018
 20
414.1194410537
 30
0.0
 11
655.3502883051
 21
414.1194410537
 31
0.0
  0
LINE
  5
3F0
330
1F
100
AcDbEntity
  8
0
  6
CONTINUOUS
 62
     8
100
AcDbLine
 10
656.8502882018
 20
176.1194355701
 30
0.0
 11
655.3502883051
 21
176.1194355701
 31
0.0
  0
LINE
  5
3F1
330
1F
100
AcDbEntity
  8
0
  6
CONTINUOUS
 62
     7
100
AcDbLine
 10
174.1717144523
 20
201.7242573117
 30
0.0
 11
174.1717144523
 21
210.9043486331
 31
0.0
  0
LINE
  5
3F2
330
1F
100
AcDbEntity
  8
0
  6
CONTINUOUS
 62
     7
100
AcDbLine
 10
174.1717144523
 20
229.3345294808
 30
0.0
 11
174.1717144523
 21
238.5146245275
 31
0.0
  0
LINE
  5
3F3
330
1F
100
AcDbEntity
  8
0
  6
CONTINUOUS
 62
     7
100
AcDbLine
 10
174.1717144523
 20
351.7242520963
 30
0.0
 11
174.1717144523
 21
360.904347143
 31
0.0
  0
LINE
  5
3F4
330
1F
100
AcDbEntity
  8
0
  6
CONTINUOUS
 62
     7
100
AcDbLine
 10
174.1717144523
 20
379.3345279907
 30
0.0
 11
174.1717144523
 21
388.5146193121
 31
0.0
  0
LINE
  5
3F5
330
1F
100
AcDbEntity
  8
0
  6
CONTINUOUS
 62
     7
100
AcDbLine
 10
157.4072226559
 20
170.9884218787
 30
0.0
 11
157.4072226559
 21
169.9884124015
 31
0.0
  0
LINE
  5
3F6
330
1F
100
AcDbEntity
  8
0
  6
CONTINUOUS
 62
     7
100
AcDbLine
 10
157.4072226559
 20
170.9884218787
 30
0.0
 11
158.9072256957
 21
171.0670329545
 31
0.0
  0
LINE
  5
3F7
330
1F
100
AcDbEntity
  8
0
  6
CONTINUOUS
 62
     7
100
AcDbLine
 10
158.9072256957
 20
171.0670329545
 30
0.0
 11
158.9072256957
 21
170.067030928
 31
0.0
  0
LINE
  5
3F8
330
1F
100
AcDbEntity
  8
0
  6
CONTINUOUS
 62
     7
100
AcDbLine
 10
158.9072256957
 20
170.067030928
 30
0.0
 11
157.4072226559
 21
169.9884124015
 31
0.0
  0
LINE
  5
3F9
330
1F
100
AcDbEntity
  8
0
  6
CONTINUOUS
 62
     7
100
AcDbLine
 10
21.1717173134
 20
171.3500358079
 30
0.0
 11
21.1717173134
 21
170.9884218787
 31
0.0
  0
LINE
  5
3FA
330
1F
100
AcDbEntity
  8
0
  6
CONTINUOUS
 62
     7
100
AcDbLine
 10
21.1717173134
 20
171.3500358079
 30
0.0
 11
159.1717138563
 21
171.3500358079
 31
0.0
  0
LINE
  5
3FB
330
1F
100
AcDbEntity
  8
0
  6
CONTINUOUS
 62
     7
100
AcDbLine
 10
159.1717138563
 20
171.3500358079
 30
0.0
 11
159.1717138563
 21
171.0670329545
 31
0.0
  0
LINE
  5
3FC
330
1F
100
AcDbEntity
  8
0
  6
CONTINUOUS
 62
     7
100
AcDbLine
 10
159.1717138563
 20
171.0670329545
 30
0.0
 11
158.9072256957
 21
171.0670329545
 31
0.0
  0
LINE
  5
3FD
330
1F
100
AcDbEntity
  8
0
  6
CONTINUOUS
 62
     7
100
AcDbLine
 10
21.1717173134
 20
170.9884218787
 30
0.0
 11
157.4072226559
 21
170.9884218787
 31
0.0
  0
ARC
  5
3FE
330
1F
100
AcDbEntity
  8
0
  6
CONTINUOUS
 62
     7
100
AcDbCircle
 10
21.1717155848
 20
176.1194383119
 30
0.0
 40
6.13101944820764
100
AcDbArc
 50
180.0
 51
270.0
  0
LINE
  5
3FF
330
1F
100
AcDbEntity
  8
0
  6
CONTINUOUS
 62
     7
100
AcDbLine
 10
15.0406941448
 20
176.1194355701
 30
0.0
 11
15.0406941448
 21
207.619439802
 31
0.0
  0
LINE
  5
400
330
1F
100
AcDbEntity
  8
0
  6
CONTINUOUS
 62
     7
100
AcDbLine
 10
16.0406961714
 20
207.619439802
 30
0.0
 11
15.0406941448
 21
207.619439802
 31
0.0
  0
LINE
  5
401
330
1F
100
AcDbEntity
  8
0
  6
CONTINUOUS
 62
     7
100
AcDbLine
 10
16.0406961714
 20
207.619439802
 30
0.0
 11
16.0406961714
 21
176.1194355701
 31
0.0
  0
ARC
  5
402
330
1F
100
AcDbEntity
  8
0
  6
CONTINUOUS
 62
     7
100
AcDbCircle
 10
21.1717155848
 20
176.1194383119
 30
0.0
 40
5.131019448207571
100
AcDbArc
 50
180.0
 51
270.0
  0
LINE
  5
403
330
1F
100
AcDbEntity
  8
0
  6
CONTINUOUS
 62
     7
100
AcDbLine
 10
21.1717173134
 20
169.9884124015
 30
0.0
 11
157.4072226559
 21
169.9884124015
 31
0.0
  0
ARC
  5
404
330
1F
100
AcDbEntity
  8
0
  6
CONTINUOUS
 62
     7
100
AcDbCircle
 10
21.1717155848
 20
414.1194383119
 30
0.0
 40
5.131019448207553
100
AcDbArc
 50
90.0
 51
180.0
  0
LINE
  5
405
330
1F
100
AcDbEntity
  8
0
  6
CONTINUOUS
 62
     7
100
AcDbLine
 10
16.0406961714
 20
414.1194410537
 30
0.0
 11
16.0406961714
 21
382.6194368218
 31
0.0
  0
LINE
  5
406
330
1F
100
AcDbEntity
  8
0
  6
CONTINUOUS
 62
     7
100
AcDbLine
 10
16.0406961714
 20
382.6194368218
 30
0.0
 11
15.0406941448
 21
382.6194368218
 31
0.0
  0
LINE
  5
407
330
1F
100
AcDbEntity
  8
0
  6
CONTINUOUS
 62
     7
100
AcDbLine
 10
15.0406941448
 20
382.6194368218
 30
0.0
 11
15.0406941448
 21
414.1194410537
 31
0.0
  0
ARC
  5
408
330
1F
100
AcDbEntity
  8
0
  6
CONTINUOUS
 62
     7
100
AcDbCircle
 10
21.1717155848
 20
414.1194383119
 30
0.0
 40
6.131019448207667
100
AcDbArc
 50
90.0
 51
180.0
  0
LINE
  5
409
330
1F
100
AcDbEntity
  8
0
  6
CONTINUOUS
 62
     7
100
AcDbLine
 10
157.4072226559
 20
420.2504642223
 30
0.0
 11
21.1717173134
 21
420.2504642223
 31
0.0
  0
LINE
  5
40A
330
1F
100
AcDbEntity
  8
0
  6
CONTINUOUS
 62
     7
100
AcDbLine
 10
157.4072226559
 20
420.2504642223
 30
0.0
 11
157.4072226559
 21
419.2504547451
 31
0.0
  0
LINE
  5
40B
330
1F
100
AcDbEntity
  8
0
  6
CONTINUOUS
 62
     7
100
AcDbLine
 10
157.4072226559
 20
419.2504547451
 30
0.0
 11
21.1717173134
 21
419.2504547451
 31
0.0
  0
LINE
  5
40C
330
1F
100
AcDbEntity
  8
0
  6
CONTINUOUS
 62
     7
100
AcDbLine
 10
159.1717138563
 20
418.8888408159
 30
0.0
 11
159.1717138563
 21
419.1718436693
 31
0.0
  0
LINE
  5
40D
330
1F
100
AcDbEntity
  8
0
  6
CONTINUOUS
 62
     7
100
AcDbLine
 10
159.1717138563
 20
418.8888408159
 30
0.0
 11
21.1717173134
 21
418.8888408159
 31
0.0
  0
LINE
  5
40E
330
1F
100
AcDbEntity
  8
0
  6
CONTINUOUS
 62
     7
100
AcDbLine
 10
21.1717173134
 20
418.8888408159
 30
0.0
 11
21.1717173134
 21
419.2504547451
 31
0.0
  0
LINE
  5
40F
330
1F
100
AcDbEntity
  8
0
  6
CONTINUOUS
 62
     7
100
AcDbLine
 10
158.9072256957
 20
419.1718436693
 30
0.0
 11
157.4072226559
 21
419.2504547451
 31
0.0
  0
LINE
  5
410
330
1F
100
AcDbEntity
  8
0
  6
CONTINUOUS
 62
     7
100
AcDbLine
 10
158.9072256957
 20
419.1718436693
 30
0.0
 11
159.1717138563
 21
419.1718436693
 31
0.0
  0
LINE
  5
411
330
1F
100
AcDbEntity
  8
0
  6
CONTINUOUS
 62
     7
100
AcDbLine
 10
157.4072226559
 20
420.2504642223
 30
0.0
 11
158.9072256957
 21
420.1718456958
 31
0.0
  0
LINE
  5
412
330
1F
100
AcDbEntity
  8
0
  6
CONTINUOUS
 62
     7
100
AcDbLine
 10
158.9072256957
 20
420.1718456958
 30
0.0
 11
158.9072256957
 21
419.1718436693
 31
0.0
  0
ARC
  5
413
330
1F
100
AcDbEntity
  8
0
  6
CONTINUOUS
 62
     7
100
AcDbCircle
 10
21.1717155848
 20
176.1194383119
 30
0.0
 40
4.769405771154617
100
AcDbArc
 50
180.0
 51
270.0
  0
LINE
  5
414
330
1F
100
AcDbEntity
  8
0
  6
CONTINUOUS
 62
     7
100
AcDbLine
 10
16.4023101006
 20
176.1194355701
 30
0.0
 11
16.0406961714
 21
176.1194355701
 31
0.0
  0
LINE
  5
415
330
1F
100
AcDbEntity
  8
0
  6
CONTINUOUS
 62
     7
100
AcDbLine
 10
16.1717146312
 20
232.1786172603
 30
0.0
 11
16.1717146312
 21
208.060253403
 31
0.0
  0
LINE
  5
416
330
1F
100
AcDbEntity
  8
0
  6
CONTINUOUS
 62
     7
100
AcDbLine
 10
16.1717146312
 20
232.1786172603
 30
0.0
 11
16.0406961714
 21
232.6194383119
 31
0.0
  0
LINE
  5
417
330
1F
100
AcDbEntity
  8
0
  6
CONTINUOUS
 62
     7
100
AcDbLine
 10
16.0406961714
 20
357.6194383119
 30
0.0
 11
16.0406961714
 21
232.6194383119
 31
0.0
  0
LINE
  5
418
330
1F
100
AcDbEntity
  8
0
  6
CONTINUOUS
 62
     7
100
AcDbLine
 10
16.1717146312
 20
358.0602593635
 30
0.0
 11
16.0406961714
 21
357.6194383119
 31
0.0
  0
LINE
  5
419
330
1F
100
AcDbEntity
  8
0
  6
CONTINUOUS
 62
     7
100
AcDbLine
 10
16.1717146312
 20
382.1786232208
 30
0.0
 11
16.1717146312
 21
358.0602593635
 31
0.0
  0
LINE
  5
41A
330
1F
100
AcDbEntity
  8
0
  6
CONTINUOUS
 62
     7
100
AcDbLine
 10
16.0406961714
 20
382.6194368218
 30
0.0
 11
16.1717146312
 21
382.1786232208
 31
0.0
  0
LINE
  5
41B
330
1F
100
AcDbEntity
  8
0
  6
CONTINUOUS
 62
     7
100
AcDbLine
 10
16.4023101006
 20
414.1194410537
 30
0.0
 11
16.0406961714
 21
414.1194410537
 31
0.0
  0
LINE
  5
41C
330
1F
100
AcDbEntity
  8
0
  6
CONTINUOUS
 62
     7
100
AcDbLine
 10
16.4023101006
 20
414.1194410537
 30
0.0
 11
16.4023101006
 21
176.1194355701
 31
0.0
  0
LINE
  5
41D
330
1F
100
AcDbEntity
  8
0
  6
CONTINUOUS
 62
     7
100
AcDbLine
 10
16.0406961714
 20
207.619439802
 30
0.0
 11
16.1717146312
 21
208.060253403
 31
0.0
  0
LINE
  5
41E
330
1F
100
AcDbEntity
  8
0
  6
CONTINUOUS
 62
     7
100
AcDbLine
 10
16.1717146312
 20
208.060253403
 30
0.0
 11
15.1717126046
 21
208.060253403
 31
0.0
  0
LINE
  5
41F
330
1F
100
AcDbEntity
  8
0
  6
CONTINUOUS
 62
     7
100
AcDbLine
 10
15.1717126046
 20
208.060253403
 30
0.0
 11
15.0406941448
 21
207.619439802
 31
0.0
  0
LINE
  5
420
330
1F
100
AcDbEntity
  8
0
  6
CONTINUOUS
 62
     7
100
AcDbLine
 10
15.0406941448
 20
232.6194383119
 30
0.0
 11
16.0406961714
 21
232.6194383119
 31
0.0
  0
LINE
  5
421
330
1F
100
AcDbEntity
  8
0
  6
CONTINUOUS
 62
     7
100
AcDbLine
 10
15.1717126046
 20
232.1786172603
 30
0.0
 11
16.1717146312
 21
232.1786172603
 31
0.0
  0
LINE
  5
422
330
1F
100
AcDbEntity
  8
0
  6
CONTINUOUS
 62
     7
100
AcDbLine
 10
15.0406941448
 20
232.6194383119
 30
0.0
 11
15.1717126046
 21
232.1786172603
 31
0.0
  0
LINE
  5
423
330
1F
100
AcDbEntity
  8
0
  6
CONTINUOUS
 62
     7
100
AcDbLine
 10
10.1679175769
 20
282.4591901068
 30
0.0
 11
15.0406941448
 21
282.4591901068
 31
0.0
  0
ELLIPSE
  5
424
330
1F
100
AcDbEntity
  8
0
  6
CONTINUOUS
 62
     7
100
AcDbEllipse
 10
10.1908147726
 20
287.4660516037
 30
0.0
 11
4.311559617731401
 21
2.582726215091611
 31
0.0
210
0.0
220
0.0
230
1.0
 40
0.9948397973
 41
2.604169274588106
 42
4.17040420642663
  0
LINE
  5
425
330
1F
100
AcDbEntity
  8
0
  6
CONTINUOUS
 62
     7
100
AcDbLine
 10
5.1717146908
 20
302.7956630018
 30
0.0
 11
5.1717146908
 21
287.443213622
 31
0.0
  0
ELLIPSE
  5
426
330
1F
100
AcDbEntity
  8
0
  6
CONTINUOUS
 62
     7
100
AcDbEllipse
 10
10.1908147726
 20
302.7728250201
 30
0.0
 11
4.311559617731401
 21
-2.582726215091611
 31
0.0
210
0.0
220
0.0
230
0.9999999999999998
 40
0.9948397973
 41
2.112781100752966
 42
3.679016032591498
  0
LINE
  5
427
330
1F
100
AcDbEntity
  8
0
  6
CONTINUOUS
 62
     7
100
AcDbLine
 10
10.1679175769
 20
307.779686517
 30
0.0
 11
15.0406941448
 21
307.779686517
 31
0.0
  0
LINE
  5
428
330
1F
100
AcDbEntity
  8
0
  6
CONTINUOUS
 62
     7
100
AcDbLine
 10
15.0406941448
 20
307.779686517
 30
0.0
 11
15.0406941448
 21
357.6194383119
 31
0.0
  0
LINE
  5
429
330
1F
100
AcDbEntity
  8
0
  6
CONTINUOUS
 62
     7
100
AcDbLine
 10
15.0406941448
 20
357.6194383119
 30
0.0
 11
16.0406961714
 21
357.6194383119
 31
0.0
  0
CIRCLE
  5
42A
330
1F
100
AcDbEntity
  8
0
  6
CONTINUOUS
 62
     7
100
AcDbCircle
 10
10.6717155848
 20
295.1194383119
 30
0.0
 40
3.500000000000003
  0
LINE
  5
42B
330
1F
100
AcDbEntity
  8
0
  6
CONTINUOUS
 62
     7
100
AcDbLine
 10
15.0406941448
 20
232.6194383119
 30
0.0
 11
15.0406941448
 21
282.4591901068
 31
0.0
  0
LINE
  5
42C
330
1F
100
AcDbEntity
  8
0
  6
CONTINUOUS
 62
     7
100
AcDbLine
 10
15.1717126046
 20
358.0602593635
 30
0.0
 11
16.1717146312
 21
358.0602593635
 31
0.0
  0
LINE
  5
42D
330
1F
100
AcDbEntity
  8
0
  6
CONTINUOUS
 62
     7
100
AcDbLine
 10
15.0406941448
 20
357.6194383119
 30
0.0
 11
15.1717126046
 21
358.0602593635
 31
0.0
  0
LINE
  5
42E
330
1F
100
AcDbEntity
  8
0
  6
CONTINUOUS
 62
     7
100
AcDbLine
 10
16.1717146312
 20
382.1786232208
 30
0.0
 11
15.1717126046
 21
382.1786232208
 31
0.0
  0
LINE
  5
42F
330
1F
100
AcDbEntity
  8
0
  6
CONTINUOUS
 62
     7
100
AcDbLine
 10
15.1717126046
 20
382.1786232208
 30
0.0
 11
15.0406941448
 21
382.6194368218
 31
0.0
  0
ARC
  5
430
330
1F
100
AcDbEntity
  8
0
  6
CONTINUOUS
 62
     7
100
AcDbCircle
 10
21.1717155848
 20
414.1194383119
 30
0.0
 40
4.769405771154577
100
AcDbArc
 50
90.0
 51
180.0
  0
LINE
  5
431
330
1F
100
AcDbEntity
  8
0
  6
CONTINUOUS
 62
     7
100
AcDbLine
 10
167.1310051952
 20
201.6718350266
 30
0.0
 11
167.1310051952
 21
203.7539370273
 31
0.0
  0
ELLIPSE
  5
432
330
1F
100
AcDbEntity
  8
0
  6
CONTINUOUS
 62
     7
100
AcDbEllipse
 10
170.1717155848
 20
203.7766177359
 30
0.0
 11
4.0
 21
0.0
 31
0.0
210
0.0
220
0.0
230
1.0
 40
0.0087268678
 41
3.848802248183841
 42
3.866475502549549
  0
LINE
  5
433
330
1F
100
AcDbEntity
  8
0
  6
CONTINUOUS
 62
     7
100
AcDbLine
 10
167.1774074112
 20
208.8751308535
 30
0.0
 11
167.1774074112
 21
203.7534750913
 31
0.0
  0
ELLIPSE
  5
434
330
1F
100
AcDbEntity
  8
0
  6
CONTINUOUS
 62
     7
100
AcDbEllipse
 10
170.1717155848
 20
208.8519845763
 30
0.0
 11
4.0
 21
0.0
 31
0.0
210
0.0
220
0.0
230
1.0
 40
0.0087268678
 41
2.416709804630935
 42
2.43438305899667
  0
LINE
  5
435
330
1F
100
AcDbEntity
  8
0
  6
CONTINUOUS
 62
     7
100
AcDbLine
 10
167.1310051952
 20
208.8746614669
 30
0.0
 11
167.1310051952
 21
210.8170427297
 31
0.0
  0
ELLIPSE
  5
436
330
1F
100
AcDbEntity
  8
0
  6
CONTINUOUS
 62
     7
100
AcDbEllipse
 10
170.1717155848
 20
211.0444156389
 30
0.0
 11
4.0
 21
0.0
 31
0.0
210
0.0
220
0.0
230
1.0
 40
0.0874886635
 41
3.848802248183353
 42
4.243767060462345
  0
LINE
  5
437
330
1F
100
AcDbEntity
  8
0
  6
CONTINUOUS
 62
     7
100
AcDbLine
 10
168.365089563
 20
208.787221453
 30
0.0
 11
168.365089563
 21
210.7321880673
 31
0.0
  0
ELLIPSE
  5
438
330
1F
100
AcDbEntity
  8
0
  6
CONTINUOUS
 62
     7
100
AcDbEllipse
 10
170.1717155848
 20
208.9742538705
 30
0.0
 11
4.0
 21
0.0
 31
0.0
210
0.0
220
0.0
230
1.0
 40
0.0524077793
 41
4.243767060462345
 42
5.181010900307158
  0
LINE
  5
439
330
1F
100
AcDbEntity
  8
0
  6
CONTINUOUS
 62
     7
100
AcDbLine
 10
171.978345481
 20
210.7321880673
 30
0.0
 11
171.978345481
 21
208.787221453
 31
0.0
  0
ELLIPSE
  5
43A
330
1F
100
AcDbEntity
  8
0
  6
CONTINUOUS
 62
     7
100
AcDbEllipse
 10
170.1717155848
 20
211.0444156389
 30
0.0
 11
4.0
 21
0.0
 31
0.0
210
0.0
220
0.0
230
1.0
 40
0.0874886635
 41
5.181010900307113
 42
5.759586531581347
  0
ELLIPSE
  5
43B
330
1F
100
AcDbEntity
  8
0
  6
CONTINUOUS
 62
     7
100
AcDbEllipse
 10
170.1717155848
 20
210.9043484417
 30
0.0
 11
4.0
 21
0.0
 31
0.0
210
0.0
220
0.0
230
1.0
 40
0.0174550649
 41
5.759586531581864
 42
7.853981633974483
  0
ELLIPSE
  5
43C
330
1F
100
AcDbEntity
  8
0
  6
CONTINUOUS
 62
     7
100
AcDbEllipse
 10
170.1717155848
 20
201.7242538705
 30
0.0
 11
4.0
 21
0.0
 31
0.0
210
0.0
220
0.0
230
1.0
 40
0.0524077793
 41
5.759586531581668
 42
6.283185307179586
  0
ELLIPSE
  5
43D
330
1F
100
AcDbEntity
  8
0
  6
CONTINUOUS
 62
     7
100
AcDbEllipse
 10
170.1717155848
 20
201.4444609848
 30
0.0
 11
4.0
 21
0.0
 31
0.0
210
0.0
220
0.0
230
1.0
 40
0.0874886635
 41
0.5235987755982625
 42
1.102174406872506
  0
LINE
  5
43E
330
1F
100
AcDbEntity
  8
0
  6
CONTINUOUS
 62
     7
100
AcDbLine
 10
171.978345481
 20
204.6194411729
 30
0.0
 11
171.978345481
 21
201.756689689
 31
0.0
  0
LINE
  5
43F
330
1F
100
AcDbEntity
  8
0
  6
CONTINUOUS
 62
     7
100
AcDbLine
 10
168.365089563
 20
204.6194411729
 30
0.0
 11
171.978345481
 21
204.6194411729
 31
0.0
  0
LINE
  5
440
330
1F
100
AcDbEntity
  8
0
  6
CONTINUOUS
 62
     7
100
AcDbLine
 10
168.365089563
 20
201.756689689
 30
0.0
 11
168.365089563
 21
204.6194411729
 31
0.0
  0
ELLIPSE
  5
441
330
1F
100
AcDbEntity
  8
0
  6
CONTINUOUS
 62
     7
100
AcDbEllipse
 10
170.1717155848
 20
201.4444609848
 30
0.0
 11
4.0
 21
0.0
 31
0.0
210
0.0
220
0.0
230
1.0
 40
0.0874886635
 41
2.039418246717275
 42
2.434383058996388
  0
LINE
  5
442
330
1F
100
AcDbEntity
  8
0
  6
CONTINUOUS
 62
     7
100
AcDbLine
 10
168.365089563
 20
208.787221453
 30
0.0
 11
168.6886682783
 21
208.9810557578
 31
0.0
  0
ELLIPSE
  5
443
330
1F
100
AcDbEntity
  8
0
  6
CONTINUOUS
 62
     7
100
AcDbEllipse
 10
170.1717155848
 20
208.9742538705
 30
0.0
 11
1.488715574274806
 21
0.0
 31
0.0
210
0.0
220
0.0
230
1.0
 40
0.0524077793
 41
3.052581110746499
 42
3.054326190990298
  0
LINE
  5
444
330
1F
100
AcDbEntity
  8
0
  6
CONTINUOUS
 62
     7
100
AcDbLine
 10
168.6888917957
 20
208.9811898683
 30
0.0
 11
168.6931237255
 21
208.9761085723
 31
0.0
  0
ELLIPSE
  5
445
330
1F
100
AcDbEntity
  8
0
  6
CONTINUOUS
 62
     7
100
AcDbEllipse
 10
170.1717155848
 20
208.9794946484
 30
0.0
 11
1.480000000000018
 21
0.0
 31
0.0
210
0.0
220
0.0
230
1.0
 40
0.0524077793
 41
3.185225884890269
 42
6.239552075879637
  0
LINE
  5
446
330
1F
100
AcDbEntity
  8
0
  6
CONTINUOUS
 62
     7
100
AcDbLine
 10
171.6503038679
 20
208.9761085723
 30
0.0
 11
171.6545357977
 21
208.9811898683
 31
0.0
  0
ELLIPSE
  5
447
330
1F
100
AcDbEntity
  8
0
  6
CONTINUOUS
 62
     7
100
AcDbEllipse
 10
170.1717155848
 20
208.9742538705
 30
0.0
 11
1.488715574274806
 21
0.0
 31
0.0
210
0.0
220
0.0
230
1.0
 40
0.0524077793
 41
0.0872664625994953
 42
0.089011542843296
  0
LINE
  5
448
330
1F
100
AcDbEntity
  8
0
  6
CONTINUOUS
 62
     7
100
AcDbLine
 10
171.6547667657
 20
208.9810557578
 30
0.0
 11
171.978345481
 21
208.787221453
 31
0.0
  0
ELLIPSE
  5
449
330
1F
100
AcDbEntity
  8
0
  6
CONTINUOUS
 62
     7
100
AcDbEllipse
 10
170.1717155848
 20
231.2646227533
 30
0.0
 11
4.0
 21
0.0
 31
0.0
210
0.0
220
0.0
230
1.0
 40
0.0524077793
 41
1.102174406872485
 42
2.039418246717296
  0
LINE
  5
44A
330
1F
100
AcDbEntity
  8
0
  6
CONTINUOUS
 62
     7
100
AcDbLine
 10
168.365089563
 20
231.4516566609
 30
0.0
 11
168.365089563
 21
229.5066900466
 31
0.0
  0
ELLIPSE
  5
44B
330
1F
100
AcDbEntity
  8
0
  6
CONTINUOUS
 62
     7
100
AcDbEllipse
 10
170.1717155848
 20
229.1944609848
 30
0.0
 11
4.0
 21
0.0
 31
0.0
210
0.0
220
0.0
230
1.0
 40
0.0874886635
 41
2.039418246717381
 42
2.43438305899649
  0
LINE
  5
44C
330
1F
100
AcDbEntity
  8
0
  6
CONTINUOUS
 62
     7
100
AcDbLine
 10
167.1310051952
 20
229.4218353842
 30
0.0
 11
167.1310051952
 21
231.3642091964
 31
0.0
  0
ELLIPSE
  5
44D
330
1F
100
AcDbEntity
  8
0
  6
CONTINUOUS
 62
     7
100
AcDbEllipse
 10
170.1717155848
 20
231.3868920475
 30
0.0
 11
4.0
 21
0.0
 31
0.0
210
0.0
220
0.0
230
1.0
 40
0.0087268678
 41
3.848802248183223
 42
3.866475502549549
  0
LINE
  5
44E
330
1F
100
AcDbEntity
  8
0
  6
CONTINUOUS
 62
     7
100
AcDbLine
 10
167.1774074112
 20
236.4854030226
 30
0.0
 11
167.1774074112
 21
231.3637472604
 31
0.0
  0
ELLIPSE
  5
44F
330
1F
100
AcDbEntity
  8
0
  6
CONTINUOUS
 62
     7
100
AcDbEllipse
 10
170.1717155848
 20
236.4622588879
 30
0.0
 11
4.0
 21
0.0
 31
0.0
210
0.0
220
0.0
230
1.0
 40
0.0087268678
 41
2.416709804629903
 42
2.434383058996268
  0
LINE
  5
450
330
1F
100
AcDbEntity
  8
0
  6
CONTINUOUS
 62
     7
100
AcDbLine
 10
167.1310051952
 20
236.4849373613
 30
0.0
 11
167.1310051952
 21
238.5670430873
 31
0.0
  0
ELLIPSE
  5
451
330
1F
100
AcDbEntity
  8
0
  6
CONTINUOUS
 62
     7
100
AcDbEllipse
 10
170.1717155848
 20
238.7944156389
 30
0.0
 11
4.0
 21
0.0
 31
0.0
210
0.0
220
0.0
230
1.0
 40
0.0874886635
 41
3.848802248183353
 42
4.243767060462307
  0
LINE
  5
452
330
1F
100
AcDbEntity
  8
0
  6
CONTINUOUS
 62
     7
100
AcDbLine
 10
168.365089563
 20
238.4821884249
 30
0.0
 11
168.365089563
 21
235.5372235094
 31
0.0
  0
ELLIPSE
  5
453
330
1F
100
AcDbEntity
  8
0
  6
CONTINUOUS
 62
     7
100
AcDbEllipse
 10
170.1717155848
 20
235.7242538705
 30
0.0
 11
4.0
 21
0.0
 31
0.0
210
0.0
220
0.0
230
1.0
 40
0.0524077793
 41
4.243767060462284
 42
5.181010900307218
  0
LINE
  5
454
330
1F
100
AcDbEntity
  8
0
  6
CONTINUOUS
 62
     7
100
AcDbLine
 10
171.978345481
 20
235.5372235094
 30
0.0
 11
171.978345481
 21
238.4821884249
 31
0.0
  0
ELLIPSE
  5
455
330
1F
100
AcDbEntity
  8
0
  6
CONTINUOUS
 62
     7
100
AcDbEllipse
 10
170.1717155848
 20
238.7944156389
 30
0.0
 11
4.0
 21
0.0
 31
0.0
210
0.0
220
0.0
230
1.0
 40
0.0874886635
 41
5.181010900307152
 42
5.759586531581377
  0
ELLIPSE
  5
456
330
1F
100
AcDbEntity
  8
0
  6
CONTINUOUS
 62
     7
100
AcDbEllipse
 10
170.1717155848
 20
238.5146227533
 30
0.0
 11
4.0
 21
0.0
 31
0.0
210
0.0
220
0.0
230
1.0
 40
0.0524077793
 41
0.0
 42
0.5235987755983563
  0
ELLIPSE
  5
457
330
1F
100
AcDbEntity
  8
0
  6
CONTINUOUS
 62
     7
100
AcDbEllipse
 10
170.1717155848
 20
229.334528182
 30
0.0
 11
4.0
 21
0.0
 31
0.0
210
0.0
220
0.0
230
1.0
 40
0.0174550649
 41
4.71238898038469
 42
6.806784082777721
  0
ELLIPSE
  5
458
330
1F
100
AcDbEntity
  8
0
  6
CONTINUOUS
 62
     7
100
AcDbEllipse
 10
170.1717155848
 20
229.1944609848
 30
0.0
 11
4.0
 21
0.0
 31
0.0
210
0.0
220
0.0
230
1.0
 40
0.0874886635
 41
0.5235987755982415
 42
1.1021744068724
  0
LINE
  5
459
330
1F
100
AcDbEntity
  8
0
  6
CONTINUOUS
 62
     7
100
AcDbLine
 10
171.978345481
 20
229.5066900466
 30
0.0
 11
171.978345481
 21
231.4516566609
 31
0.0
  0
LINE
  5
45A
330
1F
100
AcDbEntity
  8
0
  6
CONTINUOUS
 62
     7
100
AcDbLine
 10
171.6547667657
 20
231.2578223561
 30
0.0
 11
171.978345481
 21
231.4516566609
 31
0.0
  0
ELLIPSE
  5
45B
330
1F
100
AcDbEntity
  8
0
  6
CONTINUOUS
 62
     7
100
AcDbEllipse
 10
170.1717155848
 20
231.2646227533
 30
0.0
 11
1.488715574274806
 21
0.0
 31
0.0
210
0.0
220
0.0
230
1.0
 40
0.0524077793
 41
6.194173764336888
 42
6.195918844579957
  0
LINE
  5
45C
330
1F
100
AcDbEntity
  8
0
  6
CONTINUOUS
 62
     7
100
AcDbLine
 10
171.6503038679
 20
231.262762091
 30
0.0
 11
171.6545357977
 21
231.2576882456
 31
0.0
  0
ELLIPSE
  5
45D
330
1F
100
AcDbEntity
  8
0
  6
CONTINUOUS
 62
     7
100
AcDbEllipse
 10
170.1717155848
 20
231.2593819754
 30
0.0
 11
1.480000000000018
 21
0.0
 31
0.0
210
0.0
220
0.0
230
1.0
 40
0.0524077793
 41
0.0436332312994792
 42
3.097959422290311
  0
LINE
  5
45E
330
1F
100
AcDbEntity
  8
0
  6
CONTINUOUS
 62
     7
100
AcDbLine
 10
168.6888917957
 20
231.2576882456
 30
0.0
 11
168.6931237255
 21
231.262762091
 31
0.0
  0
ELLIPSE
  5
45F
330
1F
100
AcDbEntity
  8
0
  6
CONTINUOUS
 62
     7
100
AcDbEllipse
 10
170.1717155848
 20
231.2646227533
 30
0.0
 11
1.488715574274806
 21
0.0
 31
0.0
210
0.0
220
0.0
230
1.0
 40
0.0524077793
 41
3.228859116189954
 42
3.230604196433022
  0
LINE
  5
460
330
1F
100
AcDbEntity
  8
0
  6
CONTINUOUS
 62
     7
100
AcDbLine
 10
168.365089563
 20
231.4516566609
 30
0.0
 11
168.6886682783
 21
231.2578223561
 31
0.0
  0
LINE
  5
461
330
1F
100
AcDbEntity
  8
0
  6
CONTINUOUS
 62
     7
100
AcDbLine
 10
168.6888917957
 20
235.7311919246
 30
0.0
 11
168.365089563
 21
235.5372235094
 31
0.0
  0
LINE
  5
462
330
1F
100
AcDbEntity
  8
0
  6
CONTINUOUS
 62
     7
100
AcDbLine
 10
168.6931237255
 20
235.7261106287
 30
0.0
 11
168.6888917957
 21
235.7311919246
 31
0.0
  0
ELLIPSE
  5
463
330
1F
100
AcDbEntity
  8
0
  6
CONTINUOUS
 62
     7
100
AcDbEllipse
 10
170.1717155848
 20
235.7294946484
 30
0.0
 11
1.480000000000018
 21
0.0
 31
0.0
210
0.0
220
0.0
230
1.0
 40
0.0524077793
 41
3.185225884889921
 42
6.239552075879993
  0
LINE
  5
464
330
1F
100
AcDbEntity
  8
0
  6
CONTINUOUS
 62
     7
100
AcDbLine
 10
171.6503038679
 20
235.7261106287
 30
0.0
 11
171.6545357977
 21
235.7311919246
 31
0.0
  0
LINE
  5
465
330
1F
100
AcDbEntity
  8
0
  6
CONTINUOUS
 62
     7
100
AcDbLine
 10
171.978345481
 20
235.5372235094
 30
0.0
 11
171.6545357977
 21
235.7311919246
 31
0.0
  0
ELLIPSE
  5
466
330
1F
100
AcDbEntity
  8
0
  6
CONTINUOUS
 62
     7
100
AcDbEllipse
 10
170.1717155848
 20
353.7766177359
 30
0.0
 11
4.0
 21
0.0
 31
0.0
210
0.0
220
0.0
230
1.0
 40
0.0087268678
 41
3.84880224818486
 42
3.86647550255058
  0
LINE
  5
467
330
1F
100
AcDbEntity
  8
0
  6
CONTINUOUS
 62
     7
100
AcDbLine
 10
167.1774074112
 20
358.8751293634
 30
0.0
 11
167.1774074112
 21
353.7534736012
 31
0.0
  0
ELLIPSE
  5
468
330
1F
100
AcDbEntity
  8
0
  6
CONTINUOUS
 62
     7
100
AcDbEllipse
 10
170.1717155848
 20
358.8519845763
 30
0.0
 11
4.0
 21
0.0
 31
0.0
210
0.0
220
0.0
230
1.0
 40
0.0087268678
 41
2.416709804629903
 42
2.434383058995651
  0
LINE
  5
469
330
1F
100
AcDbEntity
  8
0
  6
CONTINUOUS
 62
     7
100
AcDbLine
 10
167.1310051952
 20
360.8170412396
 30
0.0
 11
167.1310051952
 21
358.8746674274
 31
0.0
  0
ELLIPSE
  5
46A
330
1F
100
AcDbEntity
  8
0
  6
CONTINUOUS
 62
     7
100
AcDbEllipse
 10
170.1717155848
 20
361.0444156389
 30
0.0
 11
4.0
 21
0.0
 31
0.0
210
0.0
220
0.0
230
1.0
 40
0.0874886635
 41
3.848802248183145
 42
4.243767060462304
  0
LINE
  5
46B
330
1F
100
AcDbEntity
  8
0
  6
CONTINUOUS
 62
     7
100
AcDbLine
 10
168.365089563
 20
360.7321865772
 30
0.0
 11
168.365089563
 21
358.7872199629
 31
0.0
  0
ELLIPSE
  5
46C
330
1F
100
AcDbEntity
  8
0
  6
CONTINUOUS
 62
     7
100
AcDbEllipse
 10
170.1717155848
 20
358.9742538705
 30
0.0
 11
4.0
 21
0.0
 31
0.0
210
0.0
220
0.0
230
1.0
 40
0.0524077793
 41
4.243767060462284
 42
5.181010900307218
  0
LINE
  5
46D
330
1F
100
AcDbEntity
  8
0
  6
CONTINUOUS
 62
     7
100
AcDbLine
 10
171.978345481
 20
358.7872199629
 30
0.0
 11
171.978345481
 21
360.7321865772
 31
0.0
  0
ELLIPSE
  5
46E
330
1F
100
AcDbEntity
  8
0
  6
CONTINUOUS
 62
     7
100
AcDbEllipse
 10
170.1717155848
 20
361.0444156389
 30
0.0
 11
4.0
 21
0.0
 31
0.0
210
0.0
220
0.0
230
1.0
 40
0.0874886635
 41
5.181010900307156
 42
5.759586531581479
  0
ELLIPSE
  5
46F
330
1F
100
AcDbEntity
  8
0
  6
CONTINUOUS
 62
     7
100
AcDbEllipse
 10
170.1717155848
 20
360.9043484417
 30
0.0
 11
4.0
 21
0.0
 31
0.0
210
0.0
220
0.0
230
1.0
 40
0.0174550649
 41
5.759586531581903
 42
7.853981633974483
  0
ELLIPSE
  5
470
330
1F
100
AcDbEntity
  8
0
  6
CONTINUOUS
 62
     7
100
AcDbEllipse
 10
170.1717155848
 20
351.7242538705
 30
0.0
 11
4.0
 21
0.0
 31
0.0
210
0.0
220
0.0
230
1.0
 40
0.0524077793
 41
5.759586531581136
 42
6.283185307179586
  0
ELLIPSE
  5
471
330
1F
100
AcDbEntity
  8
0
  6
CONTINUOUS
 62
     7
100
AcDbEllipse
 10
170.1717155848
 20
351.4444609848
 30
0.0
 11
4.0
 21
0.0
 31
0.0
210
0.0
220
0.0
230
1.0
 40
0.0874886635
 41
0.5235987755982202
 42
1.102174406872465
  0
LINE
  5
472
330
1F
100
AcDbEntity
  8
0
  6
CONTINUOUS
 62
     7
100
AcDbLine
 10
171.978345481
 20
351.7566881989
 30
0.0
 11
171.978345481
 21
354.6194396828
 31
0.0
  0
LINE
  5
473
330
1F
100
AcDbEntity
  8
0
  6
CONTINUOUS
 62
     7
100
AcDbLine
 10
171.978345481
 20
354.6194396828
 30
0.0
 11
168.365089563
 21
354.6194396828
 31
0.0
  0
LINE
  5
474
330
1F
100
AcDbEntity
  8
0
  6
CONTINUOUS
 62
     7
100
AcDbLine
 10
168.365089563
 20
354.6194396828
 30
0.0
 11
168.365089563
 21
351.7566881989
 31
0.0
  0
ELLIPSE
  5
475
330
1F
100
AcDbEntity
  8
0
  6
CONTINUOUS
 62
     7
100
AcDbEllipse
 10
170.1717155848
 20
351.4444609848
 30
0.0
 11
4.0
 21
0.0
 31
0.0
210
0.0
220
0.0
230
1.0
 40
0.0874886635
 41
2.039418246717315
 42
2.434383058996409
  0
LINE
  5
476
330
1F
100
AcDbEntity
  8
0
  6
CONTINUOUS
 62
     7
100
AcDbLine
 10
167.1310051952
 20
353.7539392625
 30
0.0
 11
167.1310051952
 21
351.6718335365
 31
0.0
  0
LINE
  5
477
330
1F
100
AcDbEntity
  8
0
  6
CONTINUOUS
 62
     7
100
AcDbLine
 10
168.365089563
 20
358.7872199629
 30
0.0
 11
168.6886682783
 21
358.9810542677
 31
0.0
  0
ELLIPSE
  5
478
330
1F
100
AcDbEntity
  8
0
  6
CONTINUOUS
 62
     7
100
AcDbEllipse
 10
170.1717155848
 20
358.9742538705
 30
0.0
 11
1.488715574274806
 21
0.0
 31
0.0
210
0.0
220
0.0
230
1.0
 40
0.0524077793
 41
3.052581110746828
 42
3.054326190990267
  0
LINE
  5
479
330
1F
100
AcDbEntity
  8
0
  6
CONTINUOUS
 62
     7
100
AcDbLine
 10
168.6888917957
 20
358.9811883782
 30
0.0
 11
168.6931237255
 21
358.9761145328
 31
0.0
  0
ELLIPSE
  5
47A
330
1F
100
AcDbEntity
  8
0
  6
CONTINUOUS
 62
     7
100
AcDbEllipse
 10
170.1717155848
 20
358.9794946484
 30
0.0
 11
1.480000000000018
 21
0.0
 31
0.0
210
0.0
220
0.0
230
1.0
 40
0.0524077793
 41
3.185225884888806
 42
6.239552075881107
  0
LINE
  5
47B
330
1F
100
AcDbEntity
  8
0
  6
CONTINUOUS
 62
     7
100
AcDbLine
 10
171.6503038679
 20
358.9761145328
 30
0.0
 11
171.6545357977
 21
358.9811883782
 31
0.0
  0
ELLIPSE
  5
47C
330
1F
100
AcDbEntity
  8
0
  6
CONTINUOUS
 62
     7
100
AcDbEllipse
 10
170.1717155848
 20
358.9742538705
 30
0.0
 11
1.488715574274806
 21
0.0
 31
0.0
210
0.0
220
0.0
230
1.0
 40
0.0524077793
 41
0.0872664625995269
 42
0.0890115428429654
  0
LINE
  5
47D
330
1F
100
AcDbEntity
  8
0
  6
CONTINUOUS
 62
     7
100
AcDbLine
 10
171.6547667657
 20
358.9810542677
 30
0.0
 11
171.978345481
 21
358.7872199629
 31
0.0
  0
LINE
  5
47E
330
1F
100
AcDbEntity
  8
0
  6
CONTINUOUS
 62
     7
100
AcDbLine
 10
171.978345481
 20
381.4516551708
 30
0.0
 11
171.978345481
 21
379.5066885565
 31
0.0
  0
ELLIPSE
  5
47F
330
1F
100
AcDbEntity
  8
0
  6
CONTINUOUS
 62
     7
100
AcDbEllipse
 10
170.1717155848
 20
381.2646227533
 30
0.0
 11
4.0
 21
0.0
 31
0.0
210
0.0
220
0.0
230
1.0
 40
0.0524077793
 41
1.102174406872436
 42
2.039418246717344
  0
LINE
  5
480
330
1F
100
AcDbEntity
  8
0
  6
CONTINUOUS
 62
     7
100
AcDbLine
 10
168.365089563
 20
379.5066885565
 30
0.0
 11
168.365089563
 21
381.4516551708
 31
0.0
  0
ELLIPSE
  5
481
330
1F
100
AcDbEntity
  8
0
  6
CONTINUOUS
 62
     7
100
AcDbEllipse
 10
170.1717155848
 20
379.1944609848
 30
0.0
 11
4.0
 21
0.0
 31
0.0
210
0.0
220
0.0
230
1.0
 40
0.0874886635
 41
2.039418246717307
 42
2.434383058996366
  0
LINE
  5
482
330
1F
100
AcDbEntity
  8
0
  6
CONTINUOUS
 62
     7
100
AcDbLine
 10
167.1310051952
 20
381.3642151569
 30
0.0
 11
167.1310051952
 21
379.4218338941
 31
0.0
  0
ELLIPSE
  5
483
330
1F
100
AcDbEntity
  8
0
  6
CONTINUOUS
 62
     7
100
AcDbEllipse
 10
170.1717155848
 20
381.3868920475
 30
0.0
 11
4.0
 21
0.0
 31
0.0
210
0.0
220
0.0
230
1.0
 40
0.0087268678
 41
3.848802248184056
 42
3.866475502549771
  0
LINE
  5
484
330
1F
100
AcDbEntity
  8
0
  6
CONTINUOUS
 62
     7
100
AcDbLine
 10
167.1774074112
 20
386.4854015325
 30
0.0
 11
167.1774074112
 21
381.3637457703
 31
0.0
  0
ELLIPSE
  5
485
330
1F
100
AcDbEntity
  8
0
  6
CONTINUOUS
 62
     7
100
AcDbEllipse
 10
170.1717155848
 20
386.4622588879
 30
0.0
 11
4.0
 21
0.0
 31
0.0
210
0.0
220
0.0
230
1.0
 40
0.0087268678
 41
2.416709804631129
 42
2.434383058996886
  0
LINE
  5
486
330
1F
100
AcDbEntity
  8
0
  6
CONTINUOUS
 62
     7
100
AcDbLine
 10
167.1310051952
 20
388.5670415972
 30
0.0
 11
167.1310051952
 21
386.4849395965
 31
0.0
  0
ELLIPSE
  5
487
330
1F
100
AcDbEntity
  8
0
  6
CONTINUOUS
 62
     7
100
AcDbEllipse
 10
170.1717155848
 20
388.7944156389
 30
0.0
 11
4.0
 21
0.0
 31
0.0
210
0.0
220
0.0
230
1.0
 40
0.0874886635
 41
3.848802248183189
 42
4.243767060462313
  0
LINE
  5
488
330
1F
100
AcDbEntity
  8
0
  6
CONTINUOUS
 62
     7
100
AcDbLine
 10
168.365089563
 20
385.5372257446
 30
0.0
 11
168.365089563
 21
388.4821869348
 31
0.0
  0
ELLIPSE
  5
489
330
1F
100
AcDbEntity
  8
0
  6
CONTINUOUS
 62
     7
100
AcDbEllipse
 10
170.1717155848
 20
385.7242538705
 30
0.0
 11
4.0
 21
0.0
 31
0.0
210
0.0
220
0.0
230
1.0
 40
0.0524077793
 41
4.243767060462394
 42
5.181010900307109
  0
LINE
  5
48A
330
1F
100
AcDbEntity
  8
0
  6
CONTINUOUS
 62
     7
100
AcDbLine
 10
171.978345481
 20
388.4821869348
 30
0.0
 11
171.978345481
 21
385.5372257446
 31
0.0
  0
ELLIPSE
  5
48B
330
1F
100
AcDbEntity
  8
0
  6
CONTINUOUS
 62
     7
100
AcDbEllipse
 10
170.1717155848
 20
388.7944156389
 30
0.0
 11
4.0
 21
0.0
 31
0.0
210
0.0
220
0.0
230
1.0
 40
0.0874886635
 41
5.181010900307146
 42
5.759586531581549
  0
ELLIPSE
  5
48C
330
1F
100
AcDbEntity
  8
0
  6
CONTINUOUS
 62
     7
100
AcDbEllipse
 10
170.1717155848
 20
388.5146227533
 30
0.0
 11
4.0
 21
0.0
 31
0.0
210
0.0
220
0.0
230
1.0
 40
0.0524077793
 41
0.0
 42
0.5235987755982977
  0
ELLIPSE
  5
48D
330
1F
100
AcDbEntity
  8
0
  6
CONTINUOUS
 62
     7
100
AcDbEllipse
 10
170.1717155848
 20
379.334528182
 30
0.0
 11
4.0
 21
0.0
 31
0.0
210
0.0
220
0.0
230
1.0
 40
0.0174550649
 41
4.71238898038469
 42
6.806784082777898
  0
ELLIPSE
  5
48E
330
1F
100
AcDbEntity
  8
0
  6
CONTINUOUS
 62
     7
100
AcDbEllipse
 10
170.1717155848
 20
379.1944609848
 30
0.0
 11
4.0
 21
0.0
 31
0.0
210
0.0
220
0.0
230
1.0
 40
0.0874886635
 41
0.5235987755983226
 42
1.102174406872473
  0
LINE
  5
48F
330
1F
100
AcDbEntity
  8
0
  6
CONTINUOUS
 62
     7
100
AcDbLine
 10
171.6547667657
 20
381.2578208659
 30
0.0
 11
171.978345481
 21
381.4516551708
 31
0.0
  0
ELLIPSE
  5
490
330
1F
100
AcDbEntity
  8
0
  6
CONTINUOUS
 62
     7
100
AcDbEllipse
 10
170.1717155848
 20
381.2646227533
 30
0.0
 11
1.488715574274806
 21
0.0
 31
0.0
210
0.0
220
0.0
230
1.0
 40
0.0524077793
 41
6.194173764336952
 42
6.195918844581113
  0
LINE
  5
491
330
1F
100
AcDbEntity
  8
0
  6
CONTINUOUS
 62
     7
100
AcDbLine
 10
171.6503038679
 20
381.2627680515
 30
0.0
 11
171.6545357977
 21
381.2576867555
 31
0.0
  0
ELLIPSE
  5
492
330
1F
100
AcDbEntity
  8
0
  6
CONTINUOUS
 62
     7
100
AcDbEllipse
 10
170.1717155848
 20
381.2593819754
 30
0.0
 11
1.480000000000018
 21
0.0
 31
0.0
210
0.0
220
0.0
230
1.0
 40
0.0524077793
 41
0.0436332313002114
 42
3.097959422289583
  0
LINE
  5
493
330
1F
100
AcDbEntity
  8
0
  6
CONTINUOUS
 62
     7
100
AcDbLine
 10
168.6888917957
 20
381.2576867555
 30
0.0
 11
168.6931237255
 21
381.2627680515
 31
0.0
  0
ELLIPSE
  5
494
330
1F
100
AcDbEntity
  8
0
  6
CONTINUOUS
 62
     7
100
AcDbEllipse
 10
170.1717155848
 20
381.2646227533
 30
0.0
 11
1.488715574274806
 21
0.0
 31
0.0
210
0.0
220
0.0
230
1.0
 40
0.0524077793
 41
3.228859116188798
 42
3.230604196432958
  0
LINE
  5
495
330
1F
100
AcDbEntity
  8
0
  6
CONTINUOUS
 62
     7
100
AcDbLine
 10
168.365089563
 20
381.4516551708
 30
0.0
 11
168.6886682783
 21
381.2578208659
 31
0.0
  0
ELLIPSE
  5
496
330
1F
100
AcDbEntity
  8
0
  6
CONTINUOUS
 62
     7
100
AcDbEllipse
 10
170.1717155848
 20
385.7294946484
 30
0.0
 11
1.480000000000018
 21
0.0
 31
0.0
210
0.0
220
0.0
230
1.0
 40
0.0524077793
 41
3.185225884890301
 42
6.239552075879605
  0
LINE
  5
497
330
1F
100
AcDbEntity
  8
0
  6
CONTINUOUS
 62
     7
100
AcDbLine
 10
171.6503038679
 20
385.7261128639
 30
0.0
 11
171.6545357977
 21
385.7311867092
 31
0.0
  0
LINE
  5
498
330
1F
100
AcDbEntity
  8
0
  6
CONTINUOUS
 62
     7
100
AcDbLine
 10
171.978345481
 20
385.5372257446
 30
0.0
 11
171.6545357977
 21
385.7311867092
 31
0.0
  0
LINE
  5
499
330
1F
100
AcDbEntity
  8
0
  6
CONTINUOUS
 62
     7
100
AcDbLine
 10
168.6888917957
 20
385.7311867092
 30
0.0
 11
168.365089563
 21
385.5372257446
 31
0.0
  0
LINE
  5
49A
330
1F
100
AcDbEntity
  8
0
  6
CONTINUOUS
 62
     7
100
AcDbLine
 10
168.6888917957
 20
385.7311867092
 30
0.0
 11
168.6931237255
 21
385.7261128639
 31
0.0
  0
LINE
  5
49B
330
1F
100
AcDbEntity
  8
0
  6
CONTINUOUS
 62
     7
100
AcDbLine
 10
173.6358165418
 20
201.6194350932
 30
0.0
 11
171.8410983358
 21
201.6194350932
 31
0.0
  0
LINE
  5
49C
330
1F
100
AcDbEntity
  8
0
  6
CONTINUOUS
 62
     7
100
AcDbLine
 10
171.978345481
 20
201.756689689
 30
0.0
 11
171.8410983358
 21
201.6194350932
 31
0.0
  0
LINE
  5
49D
330
1F
100
AcDbEntity
  8
0
  6
CONTINUOUS
 62
     7
100
AcDbLine
 10
171.8410983358
 20
201.6194350932
 30
0.0
 11
171.6460868393
 21
201.7362527464
 31
0.0
  0
LINE
  5
49E
330
1F
100
AcDbEntity
  8
0
  6
CONTINUOUS
 62
     7
100
AcDbLine
 10
171.6460868393
 20
204.5026235197
 30
0.0
 11
171.6460868393
 21
201.7362527464
 31
0.0
  0
LINE
  5
49F
330
1F
100
AcDbEntity
  8
0
  6
CONTINUOUS
 62
     7
100
AcDbLine
 10
171.6460868393
 20
204.5026235197
 30
0.0
 11
171.6545357977
 21
204.5076899145
 31
0.0
  0
LINE
  5
4A0
330
1F
100
AcDbEntity
  8
0
  6
CONTINUOUS
 62
     7
100
AcDbLine
 10
171.6545357977
 20
204.5076899145
 30
0.0
 11
171.6545357977
 21
204.6194411729
 31
0.0
  0
LINE
  5
4A1
330
1F
100
AcDbEntity
  8
0
  6
CONTINUOUS
 62
     7
100
AcDbLine
 10
168.6888917957
 20
204.5076899145
 30
0.0
 11
168.6888917957
 21
204.6194411729
 31
0.0
  0
LINE
  5
4A2
330
1F
100
AcDbEntity
  8
0
  6
CONTINUOUS
 62
     7
100
AcDbLine
 10
168.6973482047
 20
204.5026235197
 30
0.0
 11
168.6888917957
 21
204.5076899145
 31
0.0
  0
LINE
  5
4A3
330
1F
100
AcDbEntity
  8
0
  6
CONTINUOUS
 62
     7
100
AcDbLine
 10
168.6973482047
 20
204.5026235197
 30
0.0
 11
168.6973482047
 21
201.7362527464
 31
0.0
  0
LINE
  5
4A4
330
1F
100
AcDbEntity
  8
0
  6
CONTINUOUS
 62
     7
100
AcDbLine
 10
168.6973482047
 20
201.7362527464
 30
0.0
 11
168.5023367082
 21
201.6194350932
 31
0.0
  0
LINE
  5
4A5
330
1F
100
AcDbEntity
  8
0
  6
CONTINUOUS
 62
     7
100
AcDbLine
 10
168.5023367082
 20
201.6194350932
 30
0.0
 11
168.365089563
 21
201.756689689
 31
0.0
  0
LINE
  5
4A6
330
1F
100
AcDbEntity
  8
0
  6
CONTINUOUS
 62
     7
100
AcDbLine
 10
168.5023367082
 20
201.6194350932
 30
0.0
 11
166.6191652094
 21
201.6194350932
 31
0.0
  0
LINE
  5
4A7
330
1F
100
AcDbEntity
  8
0
  6
CONTINUOUS
 62
     7
100
AcDbLine
 10
167.1310051952
 20
201.6718350266
 30
0.0
 11
166.6191652094
 21
201.6194350932
 31
0.0
  0
LINE
  5
4A8
330
1F
100
AcDbEntity
  8
0
  6
CONTINUOUS
 62
     7
100
AcDbLine
 10
171.8410983358
 20
210.8694352124
 30
0.0
 11
171.978345481
 21
210.7321880673
 31
0.0
  0
LINE
  5
4A9
330
1F
100
AcDbEntity
  8
0
  6
CONTINUOUS
 62
     7
100
AcDbLine
 10
173.6358165418
 20
210.8694352124
 30
0.0
 11
171.8410983358
 21
210.8694352124
 31
0.0
  0
LINE
  5
4AA
330
1F
100
AcDbEntity
  8
0
  6
CONTINUOUS
 62
     7
100
AcDbLine
 10
171.6547667657
 20
208.9810557578
 30
0.0
 11
171.6547667657
 21
210.9066136096
 31
0.0
  0
LINE
  5
4AB
330
1F
100
AcDbEntity
  8
0
  6
CONTINUOUS
 62
     7
100
AcDbLine
 10
171.6547667657
 20
210.9066136096
 30
0.0
 11
171.8410983358
 21
210.8694352124
 31
0.0
  0
LINE
  5
4AC
330
1F
100
AcDbEntity
  8
0
  6
CONTINUOUS
 62
     7
100
AcDbLine
 10
168.6886682783
 20
210.9066136096
 30
0.0
 11
168.5023367082
 21
210.8694352124
 31
0.0
  0
LINE
  5
4AD
330
1F
100
AcDbEntity
  8
0
  6
CONTINUOUS
 62
     7
100
AcDbLine
 10
168.6886682783
 20
208.9810557578
 30
0.0
 11
168.6886682783
 21
210.9066136096
 31
0.0
  0
LINE
  5
4AE
330
1F
100
AcDbEntity
  8
0
  6
CONTINUOUS
 62
     7
100
AcDbLine
 10
168.365089563
 20
210.7321880673
 30
0.0
 11
168.5023367082
 21
210.8694352124
 31
0.0
  0
LINE
  5
4AF
330
1F
100
AcDbEntity
  8
0
  6
CONTINUOUS
 62
     7
100
AcDbLine
 10
168.5023367082
 20
210.8694352124
 30
0.0
 11
166.6191652094
 21
210.8694352124
 31
0.0
  0
LINE
  5
4B0
330
1F
100
AcDbEntity
  8
0
  6
CONTINUOUS
 62
     7
100
AcDbLine
 10
166.6191652094
 20
210.8694352124
 30
0.0
 11
167.1310051952
 21
210.8170427297
 31
0.0
  0
LINE
  5
4B1
330
1F
100
AcDbEntity
  8
0
  6
CONTINUOUS
 62
     7
100
AcDbLine
 10
173.6358165418
 20
229.3694354509
 30
0.0
 11
171.8410983358
 21
229.3694354509
 31
0.0
  0
LINE
  5
4B2
330
1F
100
AcDbEntity
  8
0
  6
CONTINUOUS
 62
     7
100
AcDbLine
 10
171.978345481
 20
229.5066900466
 30
0.0
 11
171.8410983358
 21
229.3694354509
 31
0.0
  0
LINE
  5
4B3
330
1F
100
AcDbEntity
  8
0
  6
CONTINUOUS
 62
     7
100
AcDbLine
 10
171.6547667657
 20
229.3322645043
 30
0.0
 11
171.8410983358
 21
229.3694354509
 31
0.0
  0
LINE
  5
4B4
330
1F
100
AcDbEntity
  8
0
  6
CONTINUOUS
 62
     7
100
AcDbLine
 10
171.6547667657
 20
231.2578223561
 30
0.0
 11
171.6547667657
 21
229.3322645043
 31
0.0
  0
LINE
  5
4B5
330
1F
100
AcDbEntity
  8
0
  6
CONTINUOUS
 62
     7
100
AcDbLine
 10
171.8410983358
 20
238.6194392954
 30
0.0
 11
171.978345481
 21
238.4821884249
 31
0.0
  0
LINE
  5
4B6
330
1F
100
AcDbEntity
  8
0
  6
CONTINUOUS
 62
     7
100
AcDbLine
 10
173.6358165418
 20
238.6194392954
 30
0.0
 11
171.8410983358
 21
238.6194392954
 31
0.0
  0
LINE
  5
4B7
330
1F
100
AcDbEntity
  8
0
  6
CONTINUOUS
 62
     7
100
AcDbLine
 10
171.6545357977
 20
235.7311919246
 30
0.0
 11
171.6460868393
 21
235.7362545942
 31
0.0
  0
LINE
  5
4B8
330
1F
100
AcDbEntity
  8
0
  6
CONTINUOUS
 62
     7
100
AcDbLine
 10
171.6460868393
 20
235.7362545942
 30
0.0
 11
171.6460868393
 21
238.5026216422
 31
0.0
  0
LINE
  5
4B9
330
1F
100
AcDbEntity
  8
0
  6
CONTINUOUS
 62
     7
100
AcDbLine
 10
171.8410983358
 20
238.6194392954
 30
0.0
 11
171.6460868393
 21
238.5026216422
 31
0.0
  0
LINE
  5
4BA
330
1F
100
AcDbEntity
  8
0
  6
CONTINUOUS
 62
     7
100
AcDbLine
 10
168.6886682783
 20
231.2578223561
 30
0.0
 11
168.6886682783
 21
229.3322645043
 31
0.0
  0
LINE
  5
4BB
330
1F
100
AcDbEntity
  8
0
  6
CONTINUOUS
 62
     7
100
AcDbLine
 10
168.5023367082
 20
229.3694354509
 30
0.0
 11
168.6886682783
 21
229.3322645043
 31
0.0
  0
LINE
  5
4BC
330
1F
100
AcDbEntity
  8
0
  6
CONTINUOUS
 62
     7
100
AcDbLine
 10
168.5023367082
 20
229.3694354509
 30
0.0
 11
168.365089563
 21
229.5066900466
 31
0.0
  0
LINE
  5
4BD
330
1F
100
AcDbEntity
  8
0
  6
CONTINUOUS
 62
     7
100
AcDbLine
 10
166.6191652094
 20
229.3694354509
 30
0.0
 11
167.1310051952
 21
229.4218353842
 31
0.0
  0
LINE
  5
4BE
330
1F
100
AcDbEntity
  8
0
  6
CONTINUOUS
 62
     7
100
AcDbLine
 10
168.5023367082
 20
229.3694354509
 30
0.0
 11
166.6191652094
 21
229.3694354509
 31
0.0
  0
LINE
  5
4BF
330
1F
100
AcDbEntity
  8
0
  6
CONTINUOUS
 62
     7
100
AcDbLine
 10
168.6973482047
 20
238.5026216422
 30
0.0
 11
168.5023367082
 21
238.6194392954
 31
0.0
  0
LINE
  5
4C0
330
1F
100
AcDbEntity
  8
0
  6
CONTINUOUS
 62
     7
100
AcDbLine
 10
168.6973482047
 20
235.7362545942
 30
0.0
 11
168.6973482047
 21
238.5026216422
 31
0.0
  0
LINE
  5
4C1
330
1F
100
AcDbEntity
  8
0
  6
CONTINUOUS
 62
     7
100
AcDbLine
 10
168.6973482047
 20
235.7362545942
 30
0.0
 11
168.6888917957
 21
235.7311919246
 31
0.0
  0
LINE
  5
4C2
330
1F
100
AcDbEntity
  8
0
  6
CONTINUOUS
 62
     7
100
AcDbLine
 10
168.365089563
 20
238.4821884249
 30
0.0
 11
168.5023367082
 21
238.6194392954
 31
0.0
  0
LINE
  5
4C3
330
1F
100
AcDbEntity
  8
0
  6
CONTINUOUS
 62
     7
100
AcDbLine
 10
167.1310051952
 20
238.5670430873
 30
0.0
 11
166.6191652094
 21
238.6194392954
 31
0.0
  0
LINE
  5
4C4
330
1F
100
AcDbEntity
  8
0
  6
CONTINUOUS
 62
     7
100
AcDbLine
 10
168.5023367082
 20
238.6194392954
 30
0.0
 11
166.6191652094
 21
238.6194392954
 31
0.0
  0
LINE
  5
4C5
330
1F
100
AcDbEntity
  8
0
  6
CONTINUOUS
 62
     7
100
AcDbLine
 10
173.6358165418
 20
351.6194373284
 30
0.0
 11
171.8410983358
 21
351.6194373284
 31
0.0
  0
LINE
  5
4C6
330
1F
100
AcDbEntity
  8
0
  6
CONTINUOUS
 62
     7
100
AcDbLine
 10
171.978345481
 20
351.7566881989
 30
0.0
 11
171.8410983358
 21
351.6194373284
 31
0.0
  0
LINE
  5
4C7
330
1F
100
AcDbEntity
  8
0
  6
CONTINUOUS
 62
     7
100
AcDbLine
 10
171.8410983358
 20
351.6194373284
 30
0.0
 11
171.6460868393
 21
351.7362549816
 31
0.0
  0
LINE
  5
4C8
330
1F
100
AcDbEntity
  8
0
  6
CONTINUOUS
 62
     7
100
AcDbLine
 10
171.6460868393
 20
354.5026220296
 30
0.0
 11
171.6460868393
 21
351.7362549816
 31
0.0
  0
LINE
  5
4C9
330
1F
100
AcDbEntity
  8
0
  6
CONTINUOUS
 62
     7
100
AcDbLine
 10
171.6545357977
 20
354.5076846991
 30
0.0
 11
171.6460868393
 21
354.5026220296
 31
0.0
  0
LINE
  5
4CA
330
1F
100
AcDbEntity
  8
0
  6
CONTINUOUS
 62
     7
100
AcDbLine
 10
171.6545357977
 20
354.5076846991
 30
0.0
 11
171.6545357977
 21
354.6194396828
 31
0.0
  0
LINE
  5
4CB
330
1F
100
AcDbEntity
  8
0
  6
CONTINUOUS
 62
     7
100
AcDbLine
 10
168.6888917957
 20
354.5076846991
 30
0.0
 11
168.6888917957
 21
354.6194396828
 31
0.0
  0
LINE
  5
4CC
330
1F
100
AcDbEntity
  8
0
  6
CONTINUOUS
 62
     7
100
AcDbLine
 10
168.6973482047
 20
354.5026220296
 30
0.0
 11
168.6888917957
 21
354.5076846991
 31
0.0
  0
LINE
  5
4CD
330
1F
100
AcDbEntity
  8
0
  6
CONTINUOUS
 62
     7
100
AcDbLine
 10
168.6973482047
 20
354.5026220296
 30
0.0
 11
168.6973482047
 21
351.7362549816
 31
0.0
  0
LINE
  5
4CE
330
1F
100
AcDbEntity
  8
0
  6
CONTINUOUS
 62
     7
100
AcDbLine
 10
168.6973482047
 20
351.7362549816
 30
0.0
 11
168.5023367082
 21
351.6194373284
 31
0.0
  0
LINE
  5
4CF
330
1F
100
AcDbEntity
  8
0
  6
CONTINUOUS
 62
     7
100
AcDbLine
 10
168.5023367082
 20
351.6194373284
 30
0.0
 11
168.365089563
 21
351.7566881989
 31
0.0
  0
LINE
  5
4D0
330
1F
100
AcDbEntity
  8
0
  6
CONTINUOUS
 62
     7
100
AcDbLine
 10
166.6191652094
 20
351.6194373284
 30
0.0
 11
167.1310051952
 21
351.6718335365
 31
0.0
  0
LINE
  5
4D1
330
1F
100
AcDbEntity
  8
0
  6
CONTINUOUS
 62
     7
100
AcDbLine
 10
168.5023367082
 20
351.6194373284
 30
0.0
 11
166.6191652094
 21
351.6194373284
 31
0.0
  0
LINE
  5
4D2
330
1F
100
AcDbEntity
  8
0
  6
CONTINUOUS
 62
     7
100
AcDbLine
 10
171.8410983358
 20
360.8694411729
 30
0.0
 11
171.978345481
 21
360.7321865772
 31
0.0
  0
LINE
  5
4D3
330
1F
100
AcDbEntity
  8
0
  6
CONTINUOUS
 62
     7
100
AcDbLine
 10
173.6358165418
 20
360.8694411729
 30
0.0
 11
171.8410983358
 21
360.8694411729
 31
0.0
  0
LINE
  5
4D4
330
1F
100
AcDbEntity
  8
0
  6
CONTINUOUS
 62
     7
100
AcDbLine
 10
171.6547667657
 20
358.9810542677
 30
0.0
 11
171.6547667657
 21
360.9066121195
 31
0.0
  0
LINE
  5
4D5
330
1F
100
AcDbEntity
  8
0
  6
CONTINUOUS
 62
     7
100
AcDbLine
 10
171.6547667657
 20
360.9066121195
 30
0.0
 11
171.8410983358
 21
360.8694411729
 31
0.0
  0
LINE
  5
4D6
330
1F
100
AcDbEntity
  8
0
  6
CONTINUOUS
 62
     7
100
AcDbLine
 10
168.5023367082
 20
360.8694411729
 30
0.0
 11
168.6886682783
 21
360.9066121195
 31
0.0
  0
LINE
  5
4D7
330
1F
100
AcDbEntity
  8
0
  6
CONTINUOUS
 62
     7
100
AcDbLine
 10
168.6886682783
 20
358.9810542677
 30
0.0
 11
168.6886682783
 21
360.9066121195
 31
0.0
  0
LINE
  5
4D8
330
1F
100
AcDbEntity
  8
0
  6
CONTINUOUS
 62
     7
100
AcDbLine
 10
168.365089563
 20
360.7321865772
 30
0.0
 11
168.5023367082
 21
360.8694411729
 31
0.0
  0
LINE
  5
4D9
330
1F
100
AcDbEntity
  8
0
  6
CONTINUOUS
 62
     7
100
AcDbLine
 10
167.1310051952
 20
360.8170412396
 30
0.0
 11
166.6191652094
 21
360.8694411729
 31
0.0
  0
LINE
  5
4DA
330
1F
100
AcDbEntity
  8
0
  6
CONTINUOUS
 62
     7
100
AcDbLine
 10
168.5023367082
 20
360.8694411729
 30
0.0
 11
166.6191652094
 21
360.8694411729
 31
0.0
  0
LINE
  5
4DB
330
1F
100
AcDbEntity
  8
0
  6
CONTINUOUS
 62
     7
100
AcDbLine
 10
173.6358165418
 20
379.3694414113
 30
0.0
 11
171.8410983358
 21
379.3694414113
 31
0.0
  0
LINE
  5
4DC
330
1F
100
AcDbEntity
  8
0
  6
CONTINUOUS
 62
     7
100
AcDbLine
 10
171.978345481
 20
379.5066885565
 30
0.0
 11
171.8410983358
 21
379.3694414113
 31
0.0
  0
LINE
  5
4DD
330
1F
100
AcDbEntity
  8
0
  6
CONTINUOUS
 62
     7
100
AcDbLine
 10
171.6547667657
 20
379.3322630142
 30
0.0
 11
171.8410983358
 21
379.3694414113
 31
0.0
  0
LINE
  5
4DE
330
1F
100
AcDbEntity
  8
0
  6
CONTINUOUS
 62
     7
100
AcDbLine
 10
171.6547667657
 20
381.2578208659
 30
0.0
 11
171.6547667657
 21
379.3322630142
 31
0.0
  0
LINE
  5
4DF
330
1F
100
AcDbEntity
  8
0
  6
CONTINUOUS
 62
     7
100
AcDbLine
 10
171.8410983358
 20
388.6194415305
 30
0.0
 11
171.978345481
 21
388.4821869348
 31
0.0
  0
LINE
  5
4E0
330
1F
100
AcDbEntity
  8
0
  6
CONTINUOUS
 62
     7
100
AcDbLine
 10
173.6358165418
 20
388.6194415305
 30
0.0
 11
171.8410983358
 21
388.6194415305
 31
0.0
  0
LINE
  5
4E1
330
1F
100
AcDbEntity
  8
0
  6
CONTINUOUS
 62
     7
100
AcDbLine
 10
171.6545357977
 20
385.7311867092
 30
0.0
 11
171.6460868393
 21
385.736253104
 31
0.0
  0
LINE
  5
4E2
330
1F
100
AcDbEntity
  8
0
  6
CONTINUOUS
 62
     7
100
AcDbLine
 10
171.6460868393
 20
385.736253104
 30
0.0
 11
171.6460868393
 21
388.5026238774
 31
0.0
  0
LINE
  5
4E3
330
1F
100
AcDbEntity
  8
0
  6
CONTINUOUS
 62
     7
100
AcDbLine
 10
171.8410983358
 20
388.6194415305
 30
0.0
 11
171.6460868393
 21
388.5026238774
 31
0.0
  0
LINE
  5
4E4
330
1F
100
AcDbEntity
  8
0
  6
CONTINUOUS
 62
     7
100
AcDbLine
 10
168.6886682783
 20
381.2578208659
 30
0.0
 11
168.6886682783
 21
379.3322630142
 31
0.0
  0
LINE
  5
4E5
330
1F
100
AcDbEntity
  8
0
  6
CONTINUOUS
 62
     7
100
AcDbLine
 10
168.6886682783
 20
379.3322630142
 30
0.0
 11
168.5023367082
 21
379.3694414113
 31
0.0
  0
LINE
  5
4E6
330
1F
100
AcDbEntity
  8
0
  6
CONTINUOUS
 62
     7
100
AcDbLine
 10
168.5023367082
 20
379.3694414113
 30
0.0
 11
168.365089563
 21
379.5066885565
 31
0.0
  0
LINE
  5
4E7
330
1F
100
AcDbEntity
  8
0
  6
CONTINUOUS
 62
     7
100
AcDbLine
 10
168.5023367082
 20
379.3694414113
 30
0.0
 11
166.6191652094
 21
379.3694414113
 31
0.0
  0
LINE
  5
4E8
330
1F
100
AcDbEntity
  8
0
  6
CONTINUOUS
 62
     7
100
AcDbLine
 10
167.1310051952
 20
379.4218338941
 30
0.0
 11
166.6191652094
 21
379.3694414113
 31
0.0
  0
LINE
  5
4E9
330
1F
100
AcDbEntity
  8
0
  6
CONTINUOUS
 62
     7
100
AcDbLine
 10
168.6973482047
 20
388.5026238774
 30
0.0
 11
168.5023367082
 21
388.6194415305
 31
0.0
  0
LINE
  5
4EA
330
1F
100
AcDbEntity
  8
0
  6
CONTINUOUS
 62
     7
100
AcDbLine
 10
168.6973482047
 20
385.736253104
 30
0.0
 11
168.6973482047
 21
388.5026238774
 31
0.0
  0
LINE
  5
4EB
330
1F
100
AcDbEntity
  8
0
  6
CONTINUOUS
 62
     7
100
AcDbLine
 10
168.6973482047
 20
385.736253104
 30
0.0
 11
168.6888917957
 21
385.7311867092
 31
0.0
  0
LINE
  5
4EC
330
1F
100
AcDbEntity
  8
0
  6
CONTINUOUS
 62
     7
100
AcDbLine
 10
168.365089563
 20
388.4821869348
 30
0.0
 11
168.5023367082
 21
388.6194415305
 31
0.0
  0
LINE
  5
4ED
330
1F
100
AcDbEntity
  8
0
  6
CONTINUOUS
 62
     7
100
AcDbLine
 10
168.5023367082
 20
388.6194415305
 30
0.0
 11
166.6191652094
 21
388.6194415305
 31
0.0
  0
LINE
  5
4EE
330
1F
100
AcDbEntity
  8
0
  6
CONTINUOUS
 62
     7
100
AcDbLine
 10
166.6191652094
 20
388.6194415305
 30
0.0
 11
167.1310051952
 21
388.5670415972
 31
0.0
  0
ARC
  5
4EF
330
1F
100
AcDbEntity
  8
0
  6
CONTINUOUS
 62
     7
100
AcDbCircle
 10
159.1717155848
 20
176.1194383119
 30
0.0
 40
5.052407779283044
100
AcDbArc
 50
270.0
 51
0.0
  0
LINE
  5
4F0
330
1F
100
AcDbEntity
  8
0
  6
CONTINUOUS
 62
     7
100
AcDbLine
 10
164.2241239224
 20
200.4131562923
 30
0.0
 11
164.2241239224
 21
176.1194355701
 31
0.0
  0
LINE
  5
4F1
330
1F
100
AcDbEntity
  8
0
  6
CONTINUOUS
 62
     7
100
AcDbLine
 10
164.2241239224
 20
200.4131562923
 30
0.0
 11
165.224125949
 21
200.4131562923
 31
0.0
  0
LINE
  5
4F2
330
1F
100
AcDbEntity
  8
0
  6
CONTINUOUS
 62
     7
100
AcDbLine
 10
165.224125949
 20
176.1194355701
 30
0.0
 11
165.224125949
 21
200.4131562923
 31
0.0
  0
ARC
  5
4F3
330
1F
100
AcDbEntity
  8
0
  6
CONTINUOUS
 62
     7
100
AcDbCircle
 10
159.1717155848
 20
176.1194383119
 30
0.0
 40
6.052407779283044
100
AcDbArc
 50
270.0
 51
0.0
  0
LINE
  5
4F4
330
1F
100
AcDbEntity
  8
0
  6
CONTINUOUS
 62
     7
100
AcDbLine
 10
158.9072256957
 20
170.067030928
 30
0.0
 11
159.1717138563
 21
170.067030928
 31
0.0
  0
ARC
  5
4F5
330
1F
100
AcDbEntity
  8
0
  6
CONTINUOUS
 62
     7
100
AcDbCircle
 10
159.1717155848
 20
176.1194383119
 30
0.0
 40
4.769405771154624
100
AcDbArc
 50
270.0
 51
0.0
  0
LINE
  5
4F6
330
1F
100
AcDbEntity
  8
0
  6
CONTINUOUS
 62
     7
100
AcDbLine
 10
163.941121069
 20
176.1194355701
 30
0.0
 11
164.2241239224
 21
176.1194355701
 31
0.0
  0
LINE
  5
4F7
330
1F
100
AcDbEntity
  8
0
  6
CONTINUOUS
 62
     7
100
AcDbLine
 10
164.1717165385
 20
389.6493948911
 30
0.0
 11
164.2241239224
 21
389.8257203315
 31
0.0
  0
LINE
  5
4F8
330
1F
100
AcDbEntity
  8
0
  6
CONTINUOUS
 62
     7
100
AcDbLine
 10
164.1717165385
 20
350.5894839679
 30
0.0
 11
164.1717165385
 21
389.6493948911
 31
0.0
  0
LINE
  5
4F9
330
1F
100
AcDbEntity
  8
0
  6
CONTINUOUS
 62
     7
100
AcDbLine
 10
164.2241239224
 20
350.4131585274
 30
0.0
 11
164.1717165385
 21
350.5894839679
 31
0.0
  0
LINE
  5
4FA
330
1F
100
AcDbEntity
  8
0
  6
CONTINUOUS
 62
     7
100
AcDbLine
 10
164.2241239224
 20
350.4131585274
 30
0.0
 11
164.2241239224
 21
239.8257180963
 31
0.0
  0
LINE
  5
4FB
330
1F
100
AcDbEntity
  8
0
  6
CONTINUOUS
 62
     7
100
AcDbLine
 10
164.2241239224
 20
239.8257180963
 30
0.0
 11
164.1717165385
 21
239.6493926559
 31
0.0
  0
LINE
  5
4FC
330
1F
100
AcDbEntity
  8
0
  6
CONTINUOUS
 62
     7
100
AcDbLine
 10
164.1717165385
 20
200.5894817327
 30
0.0
 11
164.1717165385
 21
239.6493926559
 31
0.0
  0
LINE
  5
4FD
330
1F
100
AcDbEntity
  8
0
  6
CONTINUOUS
 62
     7
100
AcDbLine
 10
164.1717165385
 20
200.5894817327
 30
0.0
 11
164.2241239224
 21
200.4131562923
 31
0.0
  0
LINE
  5
4FE
330
1F
100
AcDbEntity
  8
0
  6
CONTINUOUS
 62
     7
100
AcDbLine
 10
163.941121069
 20
176.1194355701
 30
0.0
 11
163.941121069
 21
414.1194410537
 31
0.0
  0
LINE
  5
4FF
330
1F
100
AcDbEntity
  8
0
  6
CONTINUOUS
 62
     7
100
AcDbLine
 10
163.941121069
 20
414.1194410537
 30
0.0
 11
164.2241239224
 21
414.1194410537
 31
0.0
  0
LINE
  5
500
330
1F
100
AcDbEntity
  8
0
  6
CONTINUOUS
 62
     7
100
AcDbLine
 10
164.2241239224
 20
414.1194410537
 30
0.0
 11
164.2241239224
 21
389.8257203315
 31
0.0
  0
LINE
  5
501
330
1F
100
AcDbEntity
  8
0
  6
CONTINUOUS
 62
     7
100
AcDbLine
 10
165.1717185651
 20
200.5894817327
 30
0.0
 11
164.1717165385
 21
200.5894817327
 31
0.0
  0
LINE
  5
502
330
1F
100
AcDbEntity
  8
0
  6
CONTINUOUS
 62
     7
100
AcDbLine
 10
165.224125949
 20
200.4131562923
 30
0.0
 11
165.1717185651
 21
200.5894817327
 31
0.0
  0
LINE
  5
503
330
1F
100
AcDbEntity
  8
0
  6
CONTINUOUS
 62
     7
100
AcDbLine
 10
164.1717165385
 20
239.6493926559
 30
0.0
 11
165.1717185651
 21
239.6493926559
 31
0.0
  0
LINE
  5
504
330
1F
100
AcDbEntity
  8
0
  6
CONTINUOUS
 62
     7
100
AcDbLine
 10
165.224125949
 20
239.8257180963
 30
0.0
 11
164.2241239224
 21
239.8257180963
 31
0.0
  0
LINE
  5
505
330
1F
100
AcDbEntity
  8
0
  6
CONTINUOUS
 62
     7
100
AcDbLine
 10
165.1717185651
 20
239.6493926559
 30
0.0
 11
165.224125949
 21
239.8257180963
 31
0.0
  0
LINE
  5
506
330
1F
100
AcDbEntity
  8
0
  6
CONTINUOUS
 62
     7
100
AcDbLine
 10
165.224125949
 20
350.4131585274
 30
0.0
 11
164.2241239224
 21
350.4131585274
 31
0.0
  0
LINE
  5
507
330
1F
100
AcDbEntity
  8
0
  6
CONTINUOUS
 62
     7
100
AcDbLine
 10
165.224125949
 20
239.8257180963
 30
0.0
 11
165.224125949
 21
350.4131585274
 31
0.0
  0
LINE
  5
508
330
1F
100
AcDbEntity
  8
0
  6
CONTINUOUS
 62
     7
100
AcDbLine
 10
164.1717165385
 20
350.5894839679
 30
0.0
 11
165.1717185651
 21
350.5894839679
 31
0.0
  0
LINE
  5
509
330
1F
100
AcDbEntity
  8
0
  6
CONTINUOUS
 62
     7
100
AcDbLine
 10
165.1717185651
 20
350.5894839679
 30
0.0
 11
165.224125949
 21
350.4131585274
 31
0.0
  0
LINE
  5
50A
330
1F
100
AcDbEntity
  8
0
  6
CONTINUOUS
 62
     7
100
AcDbLine
 10
165.1717185651
 20
389.6493948911
 30
0.0
 11
164.1717165385
 21
389.6493948911
 31
0.0
  0
LINE
  5
50B
330
1F
100
AcDbEntity
  8
0
  6
CONTINUOUS
 62
     7
100
AcDbLine
 10
164.2241239224
 20
389.8257203315
 30
0.0
 11
165.224125949
 21
389.8257203315
 31
0.0
  0
LINE
  5
50C
330
1F
100
AcDbEntity
  8
0
  6
CONTINUOUS
 62
     7
100
AcDbLine
 10
165.224125949
 20
389.8257203315
 30
0.0
 11
165.1717185651
 21
389.6493948911
 31
0.0
  0
ARC
  5
50D
330
1F
100
AcDbEntity
  8
0
  6
CONTINUOUS
 62
     7
100
AcDbCircle
 10
159.1717155848
 20
414.1194383119
 30
0.0
 40
5.052407779283044
100
AcDbArc
 50
0.0
 51
90.0
  0
ARC
  5
50E
330
1F
100
AcDbEntity
  8
0
  6
CONTINUOUS
 62
     7
100
AcDbCircle
 10
159.1717155848
 20
414.1194383119
 30
0.0
 40
6.052407779283044
100
AcDbArc
 50
0.0
 51
90.0
  0
LINE
  5
50F
330
1F
100
AcDbEntity
  8
0
  6
CONTINUOUS
 62
     7
100
AcDbLine
 10
165.224125949
 20
389.8257203315
 30
0.0
 11
165.224125949
 21
414.1194410537
 31
0.0
  0
LINE
  5
510
330
1F
100
AcDbEntity
  8
0
  6
CONTINUOUS
 62
     7
100
AcDbLine
 10
159.1717138563
 20
420.1718456958
 30
0.0
 11
158.9072256957
 21
420.1718456958
 31
0.0
  0
ARC
  5
511
330
1F
100
AcDbEntity
  8
0
  6
CONTINUOUS
 62
     7
100
AcDbCircle
 10
159.1717155848
 20
414.1194383119
 30
0.0
 40
4.769405771154652
100
AcDbArc
 50
0.0
 51
90.0
  0
LINE
  5
512
330
1F
100
AcDbEntity
  8
0
  6
CONTINUOUS
 62
     7
100
AcDbLine
 10
167.1774074112
 20
203.7534750913
 30
0.0
 11
167.0709013615
 21
203.8599811409
 31
0.0
  0
LINE
  5
513
330
1F
100
AcDbEntity
  8
0
  6
CONTINUOUS
 62
     7
100
AcDbLine
 10
167.0709013615
 20
203.8599811409
 30
0.0
 11
167.0709013615
 21
208.7686248039
 31
0.0
  0
LINE
  5
514
330
1F
100
AcDbEntity
  8
0
  6
CONTINUOUS
 62
     7
100
AcDbLine
 10
167.1774074112
 20
208.8751308535
 30
0.0
 11
167.0709013615
 21
208.7686248039
 31
0.0
  0
LINE
  5
515
330
1F
100
AcDbEntity
  8
0
  6
CONTINUOUS
 62
     7
100
AcDbLine
 10
165.1765837942
 20
203.764032564
 30
0.0
 11
166.1424845134
 21
203.764032564
 31
0.0
  0
LINE
  5
516
330
1F
100
AcDbEntity
  8
0
  6
CONTINUOUS
 62
     7
100
AcDbLine
 10
165.2815475736
 20
203.8689963434
 30
0.0
 11
165.1765837942
 21
203.764032564
 31
0.0
  0
LINE
  5
517
330
1F
100
AcDbEntity
  8
0
  6
CONTINUOUS
 62
     7
100
AcDbLine
 10
165.2815475736
 20
203.8689963434
 30
0.0
 11
167.0709013615
 21
203.8599811409
 31
0.0
  0
LINE
  5
518
330
1F
100
AcDbEntity
  8
0
  6
CONTINUOUS
 62
     7
100
AcDbLine
 10
166.1424845134
 20
203.764032564
 30
0.0
 11
167.1310051952
 21
203.7539370273
 31
0.0
  0
LINE
  5
519
330
1F
100
AcDbEntity
  8
0
  6
CONTINUOUS
 62
     7
100
AcDbLine
 10
167.0709013615
 20
208.7686248039
 30
0.0
 11
165.2815475736
 21
208.7596096013
 31
0.0
  0
LINE
  5
51A
330
1F
100
AcDbEntity
  8
0
  6
CONTINUOUS
 62
     7
100
AcDbLine
 10
165.2815475736
 20
208.7596096013
 30
0.0
 11
165.1765837942
 21
208.8645733808
 31
0.0
  0
LINE
  5
51B
330
1F
100
AcDbEntity
  8
0
  6
CONTINUOUS
 62
     7
100
AcDbLine
 10
166.1424845134
 20
208.8645733808
 30
0.0
 11
165.1765837942
 21
208.8645733808
 31
0.0
  0
LINE
  5
51C
330
1F
100
AcDbEntity
  8
0
  6
CONTINUOUS
 62
     7
100
AcDbLine
 10
167.1310051952
 20
208.8746614669
 30
0.0
 11
166.1424845134
 21
208.8645733808
 31
0.0
  0
LINE
  5
51D
330
1F
100
AcDbEntity
  8
0
  6
CONTINUOUS
 62
     7
100
AcDbLine
 10
167.1774074112
 20
231.3637472604
 30
0.0
 11
167.0709013615
 21
231.47025331
 31
0.0
  0
LINE
  5
51E
330
1F
100
AcDbEntity
  8
0
  6
CONTINUOUS
 62
     7
100
AcDbLine
 10
167.0709013615
 20
231.47025331
 30
0.0
 11
167.0709013615
 21
236.378896973
 31
0.0
  0
LINE
  5
51F
330
1F
100
AcDbEntity
  8
0
  6
CONTINUOUS
 62
     7
100
AcDbLine
 10
167.1774074112
 20
236.4854030226
 30
0.0
 11
167.0709013615
 21
236.378896973
 31
0.0
  0
LINE
  5
520
330
1F
100
AcDbEntity
  8
0
  6
CONTINUOUS
 62
     7
100
AcDbLine
 10
165.1765837942
 20
231.3743047331
 30
0.0
 11
166.1424845134
 21
231.3743047331
 31
0.0
  0
LINE
  5
521
330
1F
100
AcDbEntity
  8
0
  6
CONTINUOUS
 62
     7
100
AcDbLine
 10
165.2815475736
 20
231.4792685126
 30
0.0
 11
165.1765837942
 21
231.3743047331
 31
0.0
  0
LINE
  5
522
330
1F
100
AcDbEntity
  8
0
  6
CONTINUOUS
 62
     7
100
AcDbLine
 10
165.2815475736
 20
231.4792685126
 30
0.0
 11
167.0709013615
 21
231.47025331
 31
0.0
  0
LINE
  5
523
330
1F
100
AcDbEntity
  8
0
  6
CONTINUOUS
 62
     7
100
AcDbLine
 10
166.1424845134
 20
231.3743047331
 30
0.0
 11
167.1310051952
 21
231.3642091964
 31
0.0
  0
LINE
  5
524
330
1F
100
AcDbEntity
  8
0
  6
CONTINUOUS
 62
     7
100
AcDbLine
 10
167.0709013615
 20
236.378896973
 30
0.0
 11
165.2815475736
 21
236.3698817704
 31
0.0
  0
LINE
  5
525
330
1F
100
AcDbEntity
  8
0
  6
CONTINUOUS
 62
     7
100
AcDbLine
 10
165.2815475736
 20
236.3698817704
 30
0.0
 11
165.1765837942
 21
236.4748455499
 31
0.0
  0
LINE
  5
526
330
1F
100
AcDbEntity
  8
0
  6
CONTINUOUS
 62
     7
100
AcDbLine
 10
166.1424845134
 20
236.4748455499
 30
0.0
 11
165.1765837942
 21
236.4748455499
 31
0.0
  0
LINE
  5
527
330
1F
100
AcDbEntity
  8
0
  6
CONTINUOUS
 62
     7
100
AcDbLine
 10
167.1310051952
 20
236.4849373613
 30
0.0
 11
166.1424845134
 21
236.4748455499
 31
0.0
  0
LINE
  5
528
330
1F
100
AcDbEntity
  8
0
  6
CONTINUOUS
 62
     7
100
AcDbLine
 10
167.1774074112
 20
353.7534736012
 30
0.0
 11
167.0709013615
 21
353.8599796508
 31
0.0
  0
LINE
  5
529
330
1F
100
AcDbEntity
  8
0
  6
CONTINUOUS
 62
     7
100
AcDbLine
 10
167.0709013615
 20
358.7686233137
 30
0.0
 11
167.0709013615
 21
353.8599796508
 31
0.0
  0
LINE
  5
52A
330
1F
100
AcDbEntity
  8
0
  6
CONTINUOUS
 62
     7
100
AcDbLine
 10
167.1774074112
 20
358.8751293634
 30
0.0
 11
167.0709013615
 21
358.7686233137
 31
0.0
  0
LINE
  5
52B
330
1F
100
AcDbEntity
  8
0
  6
CONTINUOUS
 62
     7
100
AcDbLine
 10
165.2815475736
 20
353.8689948533
 30
0.0
 11
165.1765837942
 21
353.7640310739
 31
0.0
  0
LINE
  5
52C
330
1F
100
AcDbEntity
  8
0
  6
CONTINUOUS
 62
     7
100
AcDbLine
 10
167.0709013615
 20
353.8599796508
 30
0.0
 11
165.2815475736
 21
353.8689948533
 31
0.0
  0
LINE
  5
52D
330
1F
100
AcDbEntity
  8
0
  6
CONTINUOUS
 62
     7
100
AcDbLine
 10
167.1310051952
 20
353.7539392625
 30
0.0
 11
166.1424845134
 21
353.7640310739
 31
0.0
  0
LINE
  5
52E
330
1F
100
AcDbEntity
  8
0
  6
CONTINUOUS
 62
     7
100
AcDbLine
 10
165.1765837942
 20
353.7640310739
 30
0.0
 11
166.1424845134
 21
353.7640310739
 31
0.0
  0
LINE
  5
52F
330
1F
100
AcDbEntity
  8
0
  6
CONTINUOUS
 62
     7
100
AcDbLine
 10
166.1424845134
 20
358.8645718907
 30
0.0
 11
167.1310051952
 21
358.8746674274
 31
0.0
  0
LINE
  5
530
330
1F
100
AcDbEntity
  8
0
  6
CONTINUOUS
 62
     7
100
AcDbLine
 10
165.2815475736
 20
358.7596081112
 30
0.0
 11
167.0709013615
 21
358.7686233137
 31
0.0
  0
LINE
  5
531
330
1F
100
AcDbEntity
  8
0
  6
CONTINUOUS
 62
     7
100
AcDbLine
 10
165.2815475736
 20
358.7596081112
 30
0.0
 11
165.1765837942
 21
358.8645718907
 31
0.0
  0
LINE
  5
532
330
1F
100
AcDbEntity
  8
0
  6
CONTINUOUS
 62
     7
100
AcDbLine
 10
166.1424845134
 20
358.8645718907
 30
0.0
 11
165.1765837942
 21
358.8645718907
 31
0.0
  0
LINE
  5
533
330
1F
100
AcDbEntity
  8
0
  6
CONTINUOUS
 62
     7
100
AcDbLine
 10
165.2815475736
 20
381.4792670224
 30
0.0
 11
165.1765837942
 21
381.374303243
 31
0.0
  0
LINE
  5
534
330
1F
100
AcDbEntity
  8
0
  6
CONTINUOUS
 62
     7
100
AcDbLine
 10
167.0709013615
 20
381.4702518199
 30
0.0
 11
165.2815475736
 21
381.4792670224
 31
0.0
  0
LINE
  5
535
330
1F
100
AcDbEntity
  8
0
  6
CONTINUOUS
 62
     7
100
AcDbLine
 10
167.1774074112
 20
381.3637457703
 30
0.0
 11
167.0709013615
 21
381.4702518199
 31
0.0
  0
LINE
  5
536
330
1F
100
AcDbEntity
  8
0
  6
CONTINUOUS
 62
     7
100
AcDbLine
 10
166.1424845134
 20
381.374303243
 30
0.0
 11
167.1310051952
 21
381.3642151569
 31
0.0
  0
LINE
  5
537
330
1F
100
AcDbEntity
  8
0
  6
CONTINUOUS
 62
     7
100
AcDbLine
 10
165.1765837942
 20
381.374303243
 30
0.0
 11
166.1424845134
 21
381.374303243
 31
0.0
  0
LINE
  5
538
330
1F
100
AcDbEntity
  8
0
  6
CONTINUOUS
 62
     7
100
AcDbLine
 10
167.0709013615
 20
386.3788954829
 30
0.0
 11
167.0709013615
 21
381.4702518199
 31
0.0
  0
LINE
  5
539
330
1F
100
AcDbEntity
  8
0
  6
CONTINUOUS
 62
     7
100
AcDbLine
 10
167.1774074112
 20
386.4854015325
 30
0.0
 11
167.0709013615
 21
386.3788954829
 31
0.0
  0
LINE
  5
53A
330
1F
100
AcDbEntity
  8
0
  6
CONTINUOUS
 62
     7
100
AcDbLine
 10
167.1310051952
 20
386.4849395965
 30
0.0
 11
166.1424845134
 21
386.4748440598
 31
0.0
  0
LINE
  5
53B
330
1F
100
AcDbEntity
  8
0
  6
CONTINUOUS
 62
     7
100
AcDbLine
 10
165.2815475736
 20
386.3698802803
 30
0.0
 11
167.0709013615
 21
386.3788954829
 31
0.0
  0
LINE
  5
53C
330
1F
100
AcDbEntity
  8
0
  6
CONTINUOUS
 62
     7
100
AcDbLine
 10
165.2815475736
 20
386.3698802803
 30
0.0
 11
165.1765837942
 21
386.4748440598
 31
0.0
  0
LINE
  5
53D
330
1F
100
AcDbEntity
  8
0
  6
CONTINUOUS
 62
     7
100
AcDbLine
 10
166.1424845134
 20
386.4748440598
 30
0.0
 11
165.1765837942
 21
386.4748440598
 31
0.0
  0
LINE
  5
53E
330
1F
100
AcDbEntity
  8
0
  6
CONTINUOUS
 62
     7
100
AcDbLine
 10
166.1424845134
 20
201.6486637209
 30
0.0
 11
166.6191652094
 21
201.6194350932
 31
0.0
  0
LINE
  5
53F
330
1F
100
AcDbEntity
  8
0
  6
CONTINUOUS
 62
     7
100
AcDbLine
 10
166.1424845134
 20
201.6486637209
 30
0.0
 11
166.1424845134
 21
203.764032564
 31
0.0
  0
LINE
  5
540
330
1F
100
AcDbEntity
  8
0
  6
CONTINUOUS
 62
     7
100
AcDbLine
 10
166.1424845134
 20
208.8645733808
 30
0.0
 11
166.1424845134
 21
210.8791731213
 31
0.0
  0
LINE
  5
541
330
1F
100
AcDbEntity
  8
0
  6
CONTINUOUS
 62
     7
100
AcDbLine
 10
166.1424845134
 20
210.8791731213
 30
0.0
 11
166.6191652094
 21
210.8694352124
 31
0.0
  0
LINE
  5
542
330
1F
100
AcDbEntity
  8
0
  6
CONTINUOUS
 62
     7
100
AcDbLine
 10
166.1424845134
 20
229.3597049926
 30
0.0
 11
166.1424845134
 21
231.3743047331
 31
0.0
  0
LINE
  5
543
330
1F
100
AcDbEntity
  8
0
  6
CONTINUOUS
 62
     7
100
AcDbLine
 10
166.1424845134
 20
229.3597049926
 30
0.0
 11
166.6191652094
 21
229.3694354509
 31
0.0
  0
LINE
  5
544
330
1F
100
AcDbEntity
  8
0
  6
CONTINUOUS
 62
     7
100
AcDbLine
 10
166.1424845134
 20
236.4748455499
 30
0.0
 11
166.1424845134
 21
238.5902106677
 31
0.0
  0
LINE
  5
545
330
1F
100
AcDbEntity
  8
0
  6
CONTINUOUS
 62
     7
100
AcDbLine
 10
166.1424845134
 20
238.5902106677
 30
0.0
 11
166.6191652094
 21
238.6194392954
 31
0.0
  0
LINE
  5
546
330
1F
100
AcDbEntity
  8
0
  6
CONTINUOUS
 62
     7
100
AcDbLine
 10
166.1424845134
 20
353.7640310739
 30
0.0
 11
166.1424845134
 21
351.6486659561
 31
0.0
  0
LINE
  5
547
330
1F
100
AcDbEntity
  8
0
  6
CONTINUOUS
 62
     7
100
AcDbLine
 10
166.1424845134
 20
351.6486659561
 30
0.0
 11
166.6191652094
 21
351.6194373284
 31
0.0
  0
LINE
  5
548
330
1F
100
AcDbEntity
  8
0
  6
CONTINUOUS
 62
     7
100
AcDbLine
 10
166.1424845134
 20
360.8791716312
 30
0.0
 11
166.1424845134
 21
358.8645718907
 31
0.0
  0
LINE
  5
549
330
1F
100
AcDbEntity
  8
0
  6
CONTINUOUS
 62
     7
100
AcDbLine
 10
166.1424845134
 20
360.8791716312
 30
0.0
 11
166.6191652094
 21
360.8694411729
 31
0.0
  0
LINE
  5
54A
330
1F
100
AcDbEntity
  8
0
  6
CONTINUOUS
 62
     7
100
AcDbLine
 10
166.1424845134
 20
379.3597035025
 30
0.0
 11
166.6191652094
 21
379.3694414113
 31
0.0
  0
LINE
  5
54B
330
1F
100
AcDbEntity
  8
0
  6
CONTINUOUS
 62
     7
100
AcDbLine
 10
166.1424845134
 20
381.374303243
 30
0.0
 11
166.1424845134
 21
379.3597035025
 31
0.0
  0
LINE
  5
54C
330
1F
100
AcDbEntity
  8
0
  6
CONTINUOUS
 62
     7
100
AcDbLine
 10
166.1424845134
 20
388.5902129029
 30
0.0
 11
166.1424845134
 21
386.4748440598
 31
0.0
  0
LINE
  5
54D
330
1F
100
AcDbEntity
  8
0
  6
CONTINUOUS
 62
     7
100
AcDbLine
 10
166.1424845134
 20
388.5902129029
 30
0.0
 11
166.6191652094
 21
388.6194415305
 31
0.0
  0
LINE
  5
54E
330
1F
100
AcDbEntity
  8
0
  6
CONTINUOUS
 62
     7
100
AcDbLine
 10
165.1911943828
 20
210.8791731213
 30
0.0
 11
166.1424845134
 21
210.8791731213
 31
0.0
  0
LINE
  5
54F
330
1F
100
AcDbEntity
  8
0
  6
CONTINUOUS
 62
     7
100
AcDbLine
 10
165.6046867047
 20
211.0858596776
 30
0.0
 11
165.1911943828
 21
210.8791731213
 31
0.0
  0
LINE
  5
550
330
1F
100
AcDbEntity
  8
0
  6
CONTINUOUS
 62
     7
100
AcDbLine
 10
166.3264989529
 20
211.078587911
 30
0.0
 11
165.6046867047
 21
211.0858596776
 31
0.0
  0
LINE
  5
551
330
1F
100
AcDbEntity
  8
0
  6
CONTINUOUS
 62
     7
100
AcDbLine
 10
167.9290294324
 20
210.9741903756
 30
0.0
 11
166.3264989529
 21
211.078587911
 31
0.0
  0
ELLIPSE
  5
552
330
1F
100
AcDbEntity
  8
0
  6
CONTINUOUS
 62
     7
100
AcDbEllipse
 10
170.1717155848
 20
210.9060939482
 30
0.0
 11
4.5
 21
0.0
 31
0.0
210
0.0
220
0.0
230
1.0
 40
0.0174550649
 41
1.822935908896553
 42
2.092519617001935
  0
LINE
  5
553
330
1F
100
AcDbEntity
  8
0
  6
CONTINUOUS
 62
     7
100
AcDbLine
 10
169.1717192207
 20
210.9741680239
 30
0.0
 11
169.0490752135
 21
210.9821550463
 31
0.0
  0
LINE
  5
554
330
1F
100
AcDbEntity
  8
0
  6
CONTINUOUS
 62
     7
100
AcDbLine
 10
170.1717137967
 20
210.9741680239
 30
0.0
 11
169.1717192207
 21
210.9741680239
 31
0.0
  0
ELLIPSE
  5
555
330
1F
100
AcDbEntity
  8
0
  6
CONTINUOUS
 62
     7
100
AcDbEllipse
 10
170.1717155848
 20
210.9043484417
 30
0.0
 11
1.488715574274806
 21
0.0
 31
0.0
210
0.0
220
0.0
230
1.0
 40
0.0174550649
 41
0.0872664625991446
 42
0.1207800573802507
  0
ELLIPSE
  5
556
330
1F
100
AcDbEntity
  8
0
  6
CONTINUOUS
 62
     7
100
AcDbEllipse
 10
170.1717155848
 20
210.9060939482
 30
0.0
 11
1.480000000000018
 21
0.0
 31
0.0
210
0.0
220
0.0
230
1.0
 40
0.0174550649
 41
0.0536543242772444
 42
3.08793832931254
  0
ELLIPSE
  5
557
330
1F
100
AcDbEntity
  8
0
  6
CONTINUOUS
 62
     7
100
AcDbEllipse
 10
170.1717155848
 20
210.9043484417
 30
0.0
 11
1.488715574274806
 21
0.0
 31
0.0
210
0.0
220
0.0
230
1.0
 40
0.0174550649
 41
3.020812596209661
 42
3.054326190990737
  0
LINE
  5
558
330
1F
100
AcDbEntity
  8
0
  6
CONTINUOUS
 62
     7
100
AcDbLine
 10
170.1717137967
 20
229.26471009
 30
0.0
 11
169.1717192207
 21
229.26471009
 31
0.0
  0
LINE
  5
559
330
1F
100
AcDbEntity
  8
0
  6
CONTINUOUS
 62
     7
100
AcDbLine
 10
169.1717192207
 20
229.26471009
 30
0.0
 11
169.0490752135
 21
229.256715617
 31
0.0
  0
ELLIPSE
  5
55A
330
1F
100
AcDbEntity
  8
0
  6
CONTINUOUS
 62
     7
100
AcDbEllipse
 10
170.1717155848
 20
229.3327826755
 30
0.0
 11
4.5
 21
0.0
 31
0.0
210
0.0
220
0.0
230
1.0
 40
0.0174550649
 41
4.190665690177673
 42
4.460249398282992
  0
LINE
  5
55B
330
1F
100
AcDbEntity
  8
0
  6
CONTINUOUS
 62
     7
100
AcDbLine
 10
167.9290294324
 20
229.2646877383
 30
0.0
 11
166.3264989529
 21
229.1602902029
 31
0.0
  0
LINE
  5
55C
330
1F
100
AcDbEntity
  8
0
  6
CONTINUOUS
 62
     7
100
AcDbLine
 10
166.3264989529
 20
229.1602902029
 30
0.0
 11
165.6046867047
 21
229.1530184363
 31
0.0
  0
LINE
  5
55D
330
1F
100
AcDbEntity
  8
0
  6
CONTINUOUS
 62
     7
100
AcDbLine
 10
165.6046867047
 20
229.1530184363
 30
0.0
 11
165.1911943828
 21
229.3597049926
 31
0.0
  0
LINE
  5
55E
330
1F
100
AcDbEntity
  8
0
  6
CONTINUOUS
 62
     7
100
AcDbLine
 10
165.1911943828
 20
229.3597049926
 30
0.0
 11
166.1424845134
 21
229.3597049926
 31
0.0
  0
ELLIPSE
  5
55F
330
1F
100
AcDbEntity
  8
0
  6
CONTINUOUS
 62
     7
100
AcDbEllipse
 10
170.1717155848
 20
229.334528182
 30
0.0
 11
1.488715574274806
 21
0.0
 31
0.0
210
0.0
220
0.0
230
1.0
 40
0.0174550649
 41
3.228859116190729
 42
3.262372710971792
  0
ELLIPSE
  5
560
330
1F
100
AcDbEntity
  8
0
  6
CONTINUOUS
 62
     7
100
AcDbEllipse
 10
170.1717155848
 20
229.3327826755
 30
0.0
 11
1.480000000000018
 21
0.0
 31
0.0
210
0.0
220
0.0
230
1.0
 40
0.0174550649
 41
3.195246977867845
 42
6.229530982903137
  0
ELLIPSE
  5
561
330
1F
100
AcDbEntity
  8
0
  6
CONTINUOUS
 62
     7
100
AcDbEllipse
 10
170.1717155848
 20
229.334528182
 30
0.0
 11
1.488715574274806
 21
0.0
 31
0.0
210
0.0
220
0.0
230
1.0
 40
0.0174550649
 41
6.162405249799171
 42
6.195918844580246
  0
LINE
  5
562
330
1F
100
AcDbEntity
  8
0
  6
CONTINUOUS
 62
     7
100
AcDbLine
 10
165.1717185651
 20
239.6493926559
 30
0.0
 11
165.1717185651
 21
200.5894817327
 31
0.0
  0
ELLIPSE
  5
563
330
1F
100
AcDbEntity
  8
0
  6
CONTINUOUS
 62
     7
100
AcDbEllipse
 10
170.1717155848
 20
379.334528182
 30
0.0
 11
1.488715574274806
 21
0.0
 31
0.0
210
0.0
220
0.0
230
1.0
 40
0.0174550649
 41
3.228859116189549
 42
3.262372710969479
  0
ELLIPSE
  5
564
330
1F
100
AcDbEntity
  8
0
  6
CONTINUOUS
 62
     7
100
AcDbEllipse
 10
170.1717155848
 20
379.3327826755
 30
0.0
 11
1.480000000000018
 21
0.0
 31
0.0
210
0.0
220
0.0
230
1.0
 40
0.0174550649
 41
3.195246977868876
 42
6.22953098290208
  0
ELLIPSE
  5
565
330
1F
100
AcDbEntity
  8
0
  6
CONTINUOUS
 62
     7
100
AcDbEllipse
 10
170.1717155848
 20
379.334528182
 30
0.0
 11
1.488715574274806
 21
0.0
 31
0.0
210
0.0
220
0.0
230
1.0
 40
0.0174550649
 41
6.162405249801197
 42
6.195918844581211
  0
LINE
  5
566
330
1F
100
AcDbEntity
  8
0
  6
CONTINUOUS
 62
     7
100
AcDbLine
 10
170.1717137967
 20
379.2647085999
 30
0.0
 11
169.1717192207
 21
379.2647085999
 31
0.0
  0
LINE
  5
567
330
1F
100
AcDbEntity
  8
0
  6
CONTINUOUS
 62
     7
100
AcDbLine
 10
169.1717192207
 20
379.2647085999
 30
0.0
 11
169.0490752135
 21
379.2567215775
 31
0.0
  0
ELLIPSE
  5
568
330
1F
100
AcDbEntity
  8
0
  6
CONTINUOUS
 62
     7
100
AcDbEllipse
 10
170.1717155848
 20
379.3327826755
 30
0.0
 11
4.5
 21
0.0
 31
0.0
210
0.0
220
0.0
230
1.0
 40
0.0174550649
 41
4.190665690177878
 42
4.460249398283087
  0
LINE
  5
569
330
1F
100
AcDbEntity
  8
0
  6
CONTINUOUS
 62
     7
100
AcDbLine
 10
167.9290294324
 20
379.2646862481
 30
0.0
 11
166.3264989529
 21
379.1602887128
 31
0.0
  0
LINE
  5
56A
330
1F
100
AcDbEntity
  8
0
  6
CONTINUOUS
 62
     7
100
AcDbLine
 10
166.3264989529
 20
379.1602887128
 30
0.0
 11
165.6046867047
 21
379.1530169462
 31
0.0
  0
LINE
  5
56B
330
1F
100
AcDbEntity
  8
0
  6
CONTINUOUS
 62
     7
100
AcDbLine
 10
165.6046867047
 20
379.1530169462
 30
0.0
 11
165.1911943828
 21
379.3597035025
 31
0.0
  0
LINE
  5
56C
330
1F
100
AcDbEntity
  8
0
  6
CONTINUOUS
 62
     7
100
AcDbLine
 10
165.1911943828
 20
379.3597035025
 30
0.0
 11
166.1424845134
 21
379.3597035025
 31
0.0
  0
ELLIPSE
  5
56D
330
1F
100
AcDbEntity
  8
0
  6
CONTINUOUS
 62
     7
100
AcDbEllipse
 10
170.1717155848
 20
360.9043484417
 30
0.0
 11
1.488715574274806
 21
0.0
 31
0.0
210
0.0
220
0.0
230
1.0
 40
0.0174550649
 41
0.0872664625991446
 42
0.1207800573813365
  0
ELLIPSE
  5
56E
330
1F
100
AcDbEntity
  8
0
  6
CONTINUOUS
 62
     7
100
AcDbEllipse
 10
170.1717155848
 20
360.9060939482
 30
0.0
 11
1.480000000000018
 21
0.0
 31
0.0
210
0.0
220
0.0
230
1.0
 40
0.0174550649
 41
0.0536543242762047
 42
3.087938329313597
  0
ELLIPSE
  5
56F
330
1F
100
AcDbEntity
  8
0
  6
CONTINUOUS
 62
     7
100
AcDbEllipse
 10
170.1717155848
 20
360.9043484417
 30
0.0
 11
1.488715574274806
 21
0.0
 31
0.0
210
0.0
220
0.0
230
1.0
 40
0.0174550649
 41
3.020812596208452
 42
3.054326190990642
  0
LINE
  5
570
330
1F
100
AcDbEntity
  8
0
  6
CONTINUOUS
 62
     7
100
AcDbLine
 10
165.1911943828
 20
360.8791716312
 30
0.0
 11
166.1424845134
 21
360.8791716312
 31
0.0
  0
LINE
  5
571
330
1F
100
AcDbEntity
  8
0
  6
CONTINUOUS
 62
     7
100
AcDbLine
 10
165.6046867047
 20
361.0858581875
 30
0.0
 11
165.1911943828
 21
360.8791716312
 31
0.0
  0
LINE
  5
572
330
1F
100
AcDbEntity
  8
0
  6
CONTINUOUS
 62
     7
100
AcDbLine
 10
166.3264989529
 20
361.0785864208
 30
0.0
 11
165.6046867047
 21
361.0858581875
 31
0.0
  0
LINE
  5
573
330
1F
100
AcDbEntity
  8
0
  6
CONTINUOUS
 62
     7
100
AcDbLine
 10
167.9290294324
 20
360.9741888855
 30
0.0
 11
166.3264989529
 21
361.0785864208
 31
0.0
  0
ELLIPSE
  5
574
330
1F
100
AcDbEntity
  8
0
  6
CONTINUOUS
 62
     7
100
AcDbEllipse
 10
170.1717155848
 20
360.9060939482
 30
0.0
 11
4.5
 21
0.0
 31
0.0
210
0.0
220
0.0
230
1.0
 40
0.0174550649
 41
1.822935908896731
 42
2.092519617002268
  0
LINE
  5
575
330
1F
100
AcDbEntity
  8
0
  6
CONTINUOUS
 62
     7
100
AcDbLine
 10
169.1717192207
 20
360.9741665338
 30
0.0
 11
169.0490752135
 21
360.9821610068
 31
0.0
  0
LINE
  5
576
330
1F
100
AcDbEntity
  8
0
  6
CONTINUOUS
 62
     7
100
AcDbLine
 10
170.1717137967
 20
360.9741665338
 30
0.0
 11
169.1717192207
 21
360.9741665338
 31
0.0
  0
LINE
  5
577
330
1F
100
AcDbEntity
  8
0
  6
CONTINUOUS
 62
     7
100
AcDbLine
 10
165.1717185651
 20
389.6493948911
 30
0.0
 11
165.1717185651
 21
350.5894839679
 31
0.0
  0
LINE
  5
578
330
1F
100
AcDbEntity
  8
0
  6
CONTINUOUS
 62
     7
100
AcDbLine
 10
15.1717126046
 20
208.060253403
 30
0.0
 11
15.1717126046
 21
232.1786172603
 31
0.0
  0
LINE
  5
579
330
1F
100
AcDbEntity
  8
0
  6
CONTINUOUS
 62
     7
100
AcDbLine
 10
15.1717126046
 20
358.0602593635
 30
0.0
 11
15.1717126046
 21
382.1786232208
 31
0.0
  0
LINE
  5
57A
330
1F
100
AcDbEntity
  8
0
  6
CONTINUOUS
 62
     7
100
AcDbLine
 10
165.1765837942
 20
231.3743047331
 30
0.0
 11
165.1765837942
 21
236.4748455499
 31
0.0
  0
LINE
  5
57B
330
1F
100
AcDbEntity
  8
0
  6
CONTINUOUS
 62
     7
100
AcDbLine
 10
165.1911943828
 20
229.3597049926
 30
0.0
 11
165.1911943828
 21
210.8791731213
 31
0.0
  0
LINE
  5
57C
330
1F
100
AcDbEntity
  8
0
  6
CONTINUOUS
 62
     7
100
AcDbLine
 10
165.1765837942
 20
203.764032564
 30
0.0
 11
165.1765837942
 21
208.8645733808
 31
0.0
  0
LINE
  5
57D
330
1F
100
AcDbEntity
  8
0
  6
CONTINUOUS
 62
     7
100
AcDbLine
 10
165.1717185651
 20
238.5902106677
 30
0.0
 11
166.1424845134
 21
238.5902106677
 31
0.0
  0
LINE
  5
57E
330
1F
100
AcDbEntity
  8
0
  6
CONTINUOUS
 62
     7
100
AcDbLine
 10
165.1717185651
 20
201.6486637209
 30
0.0
 11
166.1424845134
 21
201.6486637209
 31
0.0
  0
LINE
  5
57F
330
1F
100
AcDbEntity
  8
0
  6
CONTINUOUS
 62
     7
100
AcDbLine
 10
165.2815475736
 20
208.7596096013
 30
0.0
 11
165.2815475736
 21
203.8689963434
 31
0.0
  0
LINE
  5
580
330
1F
100
AcDbEntity
  8
0
  6
CONTINUOUS
 62
     7
100
AcDbLine
 10
165.6046867047
 20
211.0858596776
 30
0.0
 11
165.6046867047
 21
229.1530184363
 31
0.0
  0
LINE
  5
581
330
1F
100
AcDbEntity
  8
0
  6
CONTINUOUS
 62
     7
100
AcDbLine
 10
165.2815475736
 20
236.3698817704
 30
0.0
 11
165.2815475736
 21
231.4792685126
 31
0.0
  0
LINE
  5
582
330
1F
100
AcDbEntity
  8
0
  6
CONTINUOUS
 62
     7
100
AcDbLine
 10
165.1765837942
 20
381.374303243
 30
0.0
 11
165.1765837942
 21
386.4748440598
 31
0.0
  0
LINE
  5
583
330
1F
100
AcDbEntity
  8
0
  6
CONTINUOUS
 62
     7
100
AcDbLine
 10
165.1911943828
 20
379.3597035025
 30
0.0
 11
165.1911943828
 21
360.8791716312
 31
0.0
  0
LINE
  5
584
330
1F
100
AcDbEntity
  8
0
  6
CONTINUOUS
 62
     7
100
AcDbLine
 10
165.1765837942
 20
353.7640310739
 30
0.0
 11
165.1765837942
 21
358.8645718907
 31
0.0
  0
LINE
  5
585
330
1F
100
AcDbEntity
  8
0
  6
CONTINUOUS
 62
     7
100
AcDbLine
 10
165.1717185651
 20
388.5902129029
 30
0.0
 11
166.1424845134
 21
388.5902129029
 31
0.0
  0
LINE
  5
586
330
1F
100
AcDbEntity
  8
0
  6
CONTINUOUS
 62
     7
100
AcDbLine
 10
165.1717185651
 20
351.6486659561
 30
0.0
 11
166.1424845134
 21
351.6486659561
 31
0.0
  0
LINE
  5
587
330
1F
100
AcDbEntity
  8
0
  6
CONTINUOUS
 62
     7
100
AcDbLine
 10
165.2815475736
 20
353.8689948533
 30
0.0
 11
165.2815475736
 21
358.7596081112
 31
0.0
  0
LINE
  5
588
330
1F
100
AcDbEntity
  8
0
  6
CONTINUOUS
 62
     7
100
AcDbLine
 10
165.6046867047
 20
379.1530169462
 30
0.0
 11
165.6046867047
 21
361.0858581875
 31
0.0
  0
LINE
  5
589
330
1F
100
AcDbEntity
  8
0
  6
CONTINUOUS
 62
     7
100
AcDbLine
 10
165.2815475736
 20
381.4792670224
 30
0.0
 11
165.2815475736
 21
386.3698802803
 31
0.0
  0
ARC
  5
58A
330
1F
100
AcDbEntity
  8
0
  6
CONTINUOUS
 62
     7
100
AcDbCircle
 10
159.1921977387
 20
176.0989516876
 30
0.0
 40
0.6562375207183188
100
AcDbArc
 50
269.9737844797
 51
0.0262155203
  0
LINE
  5
58B
330
1F
100
AcDbEntity
  8
0
  6
CONTINUOUS
 62
     7
100
AcDbLine
 10
159.1918974791
 20
175.4427142356
 30
0.0
 11
159.1918974791
 21
175.5999363874
 31
0.0
  0
ARC
  5
58C
330
1F
100
AcDbEntity
  8
0
  6
CONTINUOUS
 62
     7
100
AcDbCircle
 10
159.1920525285
 20
176.0990968978
 30
0.0
 40
0.4991605345495006
100
AcDbArc
 50
269.9822027675
 51
0.0177972325
  0
LINE
  5
58D
330
1F
100
AcDbEntity
  8
0
  6
CONTINUOUS
 62
     7
100
AcDbLine
 10
159.8484351908
 20
176.0992519472
 30
0.0
 11
159.691213039
 21
176.0992519472
 31
0.0
  0
ARC
  5
58E
330
1F
100
AcDbEntity
  8
0
  6
CONTINUOUS
 62
     7
100
AcDbCircle
 10
159.1921916299
 20
414.1399188273
 30
0.0
 40
0.6562436267726303
100
AcDbArc
 50
359.9743180769
 51
90.0256819231
  0
LINE
  5
58F
330
1F
100
AcDbEntity
  8
0
  6
CONTINUOUS
 62
     7
100
AcDbLine
 10
159.8484351908
 20
414.1396246765
 30
0.0
 11
159.691213039
 21
414.1396246765
 31
0.0
  0
ARC
  5
590
330
1F
100
AcDbEntity
  8
0
  6
CONTINUOUS
 62
     7
100
AcDbCircle
 10
159.1920525285
 20
414.1397797259
 30
0.0
 40
0.4991605345495006
100
AcDbArc
 50
359.9822027675
 51
90.0177972325
  0
LINE
  5
591
330
1F
100
AcDbEntity
  8
0
  6
CONTINUOUS
 62
     7
100
AcDbLine
 10
159.1918974791
 20
414.7961623882
 30
0.0
 11
159.1918974791
 21
414.6389402364
 31
0.0
  0
ARC
  5
592
330
1F
100
AcDbEntity
  8
0
  6
CONTINUOUS
 62
     7
100
AcDbCircle
 10
21.1512395398
 20
176.0989577965
 30
0.0
 40
0.6562436267725947
100
AcDbArc
 50
179.9743180769
 51
270.0256819231
  0
LINE
  5
593
330
1F
100
AcDbEntity
  8
0
  6
CONTINUOUS
 62
     7
100
AcDbLine
 10
20.4949959789
 20
176.0992519472
 30
0.0
 11
20.6522181307
 21
176.0992519472
 31
0.0
  0
ARC
  5
594
330
1F
100
AcDbEntity
  8
0
  6
CONTINUOUS
 62
     7
100
AcDbCircle
 10
21.1513786204
 20
176.0990968771
 30
0.0
 40
0.4991605138004842
100
AcDbArc
 50
179.9822003843
 51
270.0177996157
  0
LINE
  5
595
330
1F
100
AcDbEntity
  8
0
  6
CONTINUOUS
 62
     7
100
AcDbLine
 10
21.1515336905
 20
175.4427142356
 30
0.0
 11
21.1515336905
 21
175.5999363874
 31
0.0
  0
ARC
  5
596
330
1F
100
AcDbEntity
  8
0
  6
CONTINUOUS
 62
     7
100
AcDbCircle
 10
21.1512334309
 20
414.1399249361
 30
0.0
 40
0.6562375207183188
100
AcDbArc
 50
89.9737844797
 51
180.0262155203
  0
LINE
  5
597
330
1F
100
AcDbEntity
  8
0
  6
CONTINUOUS
 62
     7
100
AcDbLine
 10
21.1515336905
 20
414.7961623882
 30
0.0
 11
21.1515336905
 21
414.6389402364
 31
0.0
  0
ARC
  5
598
330
1F
100
AcDbEntity
  8
0
  6
CONTINUOUS
 62
     7
100
AcDbCircle
 10
21.1513786204
 20
414.1397797467
 30
0.0
 40
0.4991605138004842
100
AcDbArc
 50
89.9822003843
 51
180.0177996157
  0
LINE
  5
599
330
1F
100
AcDbEntity
  8
0
  6
CONTINUOUS
 62
     7
100
AcDbLine
 10
20.4949959789
 20
414.1396246765
 30
0.0
 11
20.6522181307
 21
414.1396246765
 31
0.0
  0
LINE
  5
59A
330
1F
100
AcDbEntity
  8
0
  6
CONTINUOUS
 62
     7
100
AcDbLine
 10
158.2290365969
 20
177.5614283894
 30
0.0
 11
158.2290365969
 21
412.6774482344
 31
0.0
  0
LINE
  5
59B
330
1F
100
AcDbEntity
  8
0
  6
CONTINUOUS
 62
     7
100
AcDbLine
 10
159.691213039
 20
414.1396246765
 30
0.0
 11
158.2290365969
 21
412.6774482344
 31
0.0
  0
LINE
  5
59C
330
1F
100
AcDbEntity
  8
0
  6
CONTINUOUS
 62
     7
100
AcDbLine
 10
159.8484351908
 20
414.1396246765
 30
0.0
 11
159.8484351908
 21
176.0992519472
 31
0.0
  0
LINE
  5
59D
330
1F
100
AcDbEntity
  8
0
  6
CONTINUOUS
 62
     7
100
AcDbLine
 10
158.2290365969
 20
177.5614283894
 30
0.0
 11
159.691213039
 21
176.0992519472
 31
0.0
  0
LINE
  5
59E
330
1F
100
AcDbEntity
  8
0
  6
CONTINUOUS
 62
     7
100
AcDbLine
 10
159.1918974791
 20
175.5999363874
 30
0.0
 11
157.729721037
 21
177.0621128295
 31
0.0
  0
LINE
  5
59F
330
1F
100
AcDbEntity
  8
0
  6
CONTINUOUS
 62
     7
100
AcDbLine
 10
159.1918974791
 20
175.4427142356
 30
0.0
 11
21.1515336905
 21
175.4427142356
 31
0.0
  0
LINE
  5
5A0
330
1F
100
AcDbEntity
  8
0
  6
CONTINUOUS
 62
     7
100
AcDbLine
 10
22.6137101327
 20
177.0621128295
 30
0.0
 11
21.1515336905
 21
175.5999363874
 31
0.0
  0
LINE
  5
5A1
330
1F
100
AcDbEntity
  8
0
  6
CONTINUOUS
 62
     7
100
AcDbLine
 10
22.6137101327
 20
177.0621128295
 30
0.0
 11
157.729721037
 21
177.0621128295
 31
0.0
  0
LINE
  5
5A2
330
1F
100
AcDbEntity
  8
0
  6
CONTINUOUS
 62
     7
100
AcDbLine
 10
157.729721037
 20
413.1767637943
 30
0.0
 11
22.6137101327
 21
413.1767637943
 31
0.0
  0
LINE
  5
5A3
330
1F
100
AcDbEntity
  8
0
  6
CONTINUOUS
 62
     7
100
AcDbLine
 10
21.1515336905
 20
414.6389402364
 30
0.0
 11
22.6137101327
 21
413.1767637943
 31
0.0
  0
LINE
  5
5A4
330
1F
100
AcDbEntity
  8
0
  6
CONTINUOUS
 62
     7
100
AcDbLine
 10
21.1515336905
 20
414.7961623882
 30
0.0
 11
159.1918974791
 21
414.7961623882
 31
0.0
  0
LINE
  5
5A5
330
1F
100
AcDbEntity
  8
0
  6
CONTINUOUS
 62
     7
100
AcDbLine
 10
157.729721037
 20
413.1767637943
 30
0.0
 11
159.1918974791
 21
414.6389402364
 31
0.0
  0
LINE
  5
5A6
330
1F
100
AcDbEntity
  8
0
  6
CONTINUOUS
 62
     7
100
AcDbLine
 10
20.6522181307
 20
176.0992519472
 30
0.0
 11
22.1143945728
 21
177.5614283894
 31
0.0
  0
LINE
  5
5A7
330
1F
100
AcDbEntity
  8
0
  6
CONTINUOUS
 62
     7
100
AcDbLine
 10
20.4949959789
 20
414.1396246765
 30
0.0
 11
20.4949959789
 21
176.0992519472
 31
0.0
  0
LINE
  5
5A8
330
1F
100
AcDbEntity
  8
0
  6
CONTINUOUS
 62
     7
100
AcDbLine
 10
22.1143945728
 20
412.6774482344
 30
0.0
 11
20.6522181307
 21
414.1396246765
 31
0.0
  0
LINE
  5
5A9
330
1F
100
AcDbEntity
  8
0
  6
CONTINUOUS
 62
     7
100
AcDbLine
 10
22.1143945728
 20
412.6774482344
 30
0.0
 11
22.1143945728
 21
177.5614283894
 31
0.0
  0
ARC
  5
5AA
330
1F
100
AcDbEntity
  8
0
  6
CONTINUOUS
 62
     7
100
AcDbCircle
 10
159.1921901073
 20
176.0989667684
 30
0.0
 40
1.699028367748861
100
AcDbArc
 50
269.9901317963
 51
0.0096169929
  0
LINE
  5
5AB
330
1F
100
AcDbEntity
  8
0
  6
CONTINUOUS
 62
     7
100
AcDbLine
 10
159.1918974791
 20
174.3999384259
 30
0.0
 11
159.1918974791
 21
174.6427155946
 31
0.0
  0
ARC
  5
5AC
330
1F
100
AcDbEntity
  8
0
  6
CONTINUOUS
 62
     7
100
AcDbCircle
 10
159.1921912761
 20
176.0989655994
 30
0.0
 40
1.456250034428799
100
AcDbArc
 50
269.9884406356
 51
0.0112662816
  0
LINE
  5
5AD
330
1F
100
AcDbEntity
  8
0
  6
CONTINUOUS
 62
     7
100
AcDbLine
 10
160.8912184511
 20
176.0992519472
 30
0.0
 11
160.6484412824
 21
176.0992519472
 31
0.0
  0
ARC
  5
5AE
330
1F
100
AcDbEntity
  8
0
  6
CONTINUOUS
 62
     7
100
AcDbCircle
 10
21.1512398936
 20
414.1399110244
 30
0.0
 40
1.456250034428811
100
AcDbArc
 50
89.9884406356
 51
180.0112662816
  0
LINE
  5
5AF
330
1F
100
AcDbEntity
  8
0
  6
CONTINUOUS
 62
     7
100
AcDbLine
 10
21.1515336905
 20
415.5961610292
 30
0.0
 11
159.1918974791
 21
415.5961610292
 31
0.0
  0
ARC
  5
5B0
330
1F
100
AcDbEntity
  8
0
  6
CONTINUOUS
 62
     7
100
AcDbCircle
 10
159.1921912763
 20
414.1399110246
 30
0.0
 40
1.456250034246083
100
AcDbArc
 50
359.9887337112
 51
90.0115593716
  0
LINE
  5
5B1
330
1F
100
AcDbEntity
  8
0
  6
CONTINUOUS
 62
     7
100
AcDbLine
 10
160.6484412824
 20
414.1396246765
 30
0.0
 11
160.6484412824
 21
176.0992519472
 31
0.0
  0
LINE
  5
5B2
330
1F
100
AcDbEntity
  8
0
  6
CONTINUOUS
 62
     7
100
AcDbLine
 10
159.1918974791
 20
174.6427155946
 30
0.0
 11
21.1515336905
 21
174.6427155946
 31
0.0
  0
ARC
  5
5B3
330
1F
100
AcDbEntity
  8
0
  6
CONTINUOUS
 62
     7
100
AcDbCircle
 10
21.1512398934
 20
176.0989655992
 30
0.0
 40
1.456250034246062
100
AcDbArc
 50
179.9887337112
 51
270.0115593716
  0
LINE
  5
5B4
330
1F
100
AcDbEntity
  8
0
  6
CONTINUOUS
 62
     7
100
AcDbLine
 10
19.6949898873
 20
414.1396246765
 30
0.0
 11
19.6949898873
 21
176.0992519472
 31
0.0
  0
LINE
  5
5B5
330
1F
100
AcDbEntity
  8
0
  6
CONTINUOUS
 62
     7
100
AcDbLine
 10
160.8912184511
 20
414.1396246765
 30
0.0
 11
160.8912184511
 21
176.0992519472
 31
0.0
  0
LINE
  5
5B6
330
1F
100
AcDbEntity
  8
0
  6
CONTINUOUS
 62
     7
100
AcDbLine
 10
160.8912184511
 20
414.1396246765
 30
0.0
 11
160.6484412824
 21
414.1396246765
 31
0.0
  0
LINE
  5
5B7
330
1F
100
AcDbEntity
  8
0
  6
CONTINUOUS
 62
     7
100
AcDbLine
 10
159.1918974791
 20
174.3999384259
 30
0.0
 11
21.1515336905
 21
174.3999384259
 31
0.0
  0
LINE
  5
5B8
330
1F
100
AcDbEntity
  8
0
  6
CONTINUOUS
 62
     7
100
AcDbLine
 10
21.1515336905
 20
174.3999384259
 30
0.0
 11
21.1515336905
 21
174.6427155946
 31
0.0
  0
ARC
  5
5B9
330
1F
100
AcDbEntity
  8
0
  6
CONTINUOUS
 62
     7
100
AcDbCircle
 10
159.1921901075
 20
414.1399098556
 30
0.0
 40
1.699028367568172
100
AcDbArc
 50
359.990383001
 51
90.0098682098
  0
LINE
  5
5BA
330
1F
100
AcDbEntity
  8
0
  6
CONTINUOUS
 62
     7
100
AcDbLine
 10
159.1918974791
 20
415.8389381979
 30
0.0
 11
159.1918974791
 21
415.5961610292
 31
0.0
  0
LINE
  5
5BB
330
1F
100
AcDbEntity
  8
0
  6
CONTINUOUS
 62
     7
100
AcDbLine
 10
21.1515336905
 20
415.8389381979
 30
0.0
 11
159.1918974791
 21
415.8389381979
 31
0.0
  0
LINE
  5
5BC
330
1F
100
AcDbEntity
  8
0
  6
CONTINUOUS
 62
     7
100
AcDbLine
 10
21.1515336905
 20
415.8389381979
 30
0.0
 11
21.1515336905
 21
415.5961610292
 31
0.0
  0
ARC
  5
5BD
330
1F
100
AcDbEntity
  8
0
  6
CONTINUOUS
 62
     7
100
AcDbCircle
 10
21.1512410622
 20
176.0989667682
 30
0.0
 40
1.699028367568143
100
AcDbArc
 50
179.990383001
 51
270.0098682098
  0
LINE
  5
5BE
330
1F
100
AcDbEntity
  8
0
  6
CONTINUOUS
 62
     7
100
AcDbLine
 10
19.4522127186
 20
176.0992519472
 30
0.0
 11
19.6949898873
 21
176.0992519472
 31
0.0
  0
LINE
  5
5BF
330
1F
100
AcDbEntity
  8
0
  6
CONTINUOUS
 62
     7
100
AcDbLine
 10
19.4522127186
 20
414.1396246765
 30
0.0
 11
19.6949898873
 21
414.1396246765
 31
0.0
  0
LINE
  5
5C0
330
1F
100
AcDbEntity
  8
0
  6
CONTINUOUS
 62
     7
100
AcDbLine
 10
19.4522127186
 20
414.1396246765
 30
0.0
 11
19.4522127186
 21
176.0992519472
 31
0.0
  0
ARC
  5
5C1
330
1F
100
AcDbEntity
  8
0
  6
CONTINUOUS
 62
     7
100
AcDbCircle
 10
21.1512410624
 20
414.1399098554
 30
0.0
 40
1.699028367748832
100
AcDbArc
 50
89.9901317963
 51
180.0096169929
  0
LINE
  5
5C2
330
1F
100
AcDbEntity
  8
0
  6
CONTINUOUS
 62
     7
100
AcDbLine
 10
11.0369383965
 20
230.1194406961
 30
0.0
 11
11.0369383965
 21
228.2194383357
 31
0.0
  0
LINE
  5
5C3
330
1F
100
AcDbEntity
  8
0
  6
CONTINUOUS
 62
     7
100
AcDbLine
 10
15.0912239824
 20
228.2194383357
 30
0.0
 11
11.0369383965
 21
228.2194383357
 31
0.0
  0
LINE
  5
5C4
330
1F
100
AcDbEntity
  8
0
  6
CONTINUOUS
 62
     7
100
AcDbLine
 10
15.0912239824
 20
228.2194383357
 30
0.0
 11
15.0912239824
 21
230.1194406961
 31
0.0
  0
LINE
  5
5C5
330
1F
100
AcDbEntity
  8
0
  6
CONTINUOUS
 62
     7
100
AcDbLine
 10
15.0912239824
 20
230.1194406961
 30
0.0
 11
15.1717126046
 21
230.1194406961
 31
0.0
  0
LINE
  5
5C6
330
1F
100
AcDbEntity
  8
0
  6
CONTINUOUS
 62
     7
100
AcDbLine
 10
15.0912239824
 20
212.0194397782
 30
0.0
 11
15.0912239824
 21
210.1194374178
 31
0.0
  0
LINE
  5
5C7
330
1F
100
AcDbEntity
  8
0
  6
CONTINUOUS
 62
     7
100
AcDbLine
 10
11.0369383965
 20
212.0194397782
 30
0.0
 11
15.0912239824
 21
212.0194397782
 31
0.0
  0
LINE
  5
5C8
330
1F
100
AcDbEntity
  8
0
  6
CONTINUOUS
 62
     7
100
AcDbLine
 10
11.0369383965
 20
210.1194374178
 30
0.0
 11
11.0369383965
 21
212.0194397782
 31
0.0
  0
LINE
  5
5C9
330
1F
100
AcDbEntity
  8
0
  6
CONTINUOUS
 62
     7
100
AcDbLine
 10
8.7260812198
 20
230.1194406961
 30
0.0
 11
8.7260812198
 21
210.1194374178
 31
0.0
  0
LINE
  5
5CA
330
1F
100
AcDbEntity
  8
0
  6
CONTINUOUS
 62
     7
100
AcDbLine
 10
8.7260812198
 20
230.1194406961
 30
0.0
 11
11.0369383965
 21
230.1194406961
 31
0.0
  0
LINE
  5
5CB
330
1F
100
AcDbEntity
  8
0
  6
CONTINUOUS
 62
     7
100
AcDbLine
 10
8.7260812198
 20
210.1194374178
 30
0.0
 11
11.0369383965
 21
210.1194374178
 31
0.0
  0
LINE
  5
5CC
330
1F
100
AcDbEntity
  8
0
  6
CONTINUOUS
 62
     7
100
AcDbLine
 10
15.0912239824
 20
210.1194374178
 30
0.0
 11
15.1717126046
 21
210.1194374178
 31
0.0
  0
LINE
  5
5CD
330
1F
100
AcDbEntity
  8
0
  6
CONTINUOUS
 62
     7
100
AcDbLine
 10
15.0912239824
 20
212.0194397782
 30
0.0
 11
14.5599901353
 21
211.8466310118
 31
0.0
  0
LINE
  5
5CE
330
1F
100
AcDbEntity
  8
0
  6
CONTINUOUS
 62
     7
100
AcDbLine
 10
14.5556762491
 20
211.7709182118
 30
0.0
 11
14.5556762491
 21
210.1629860614
 31
0.0
  0
LINE
  5
5CF
330
1F
100
AcDbEntity
  8
0
  6
CONTINUOUS
 62
     7
100
AcDbLine
 10
14.5599901353
 20
211.7737196301
 30
0.0
 11
14.5556762491
 21
211.7709182118
 31
0.0
  0
LINE
  5
5D0
330
1F
100
AcDbEntity
  8
0
  6
CONTINUOUS
 62
     7
100
AcDbLine
 10
14.5599901353
 20
211.7737196301
 30
0.0
 11
14.5599901353
 21
211.8466310118
 31
0.0
  0
LINE
  5
5D1
330
1F
100
AcDbEntity
  8
0
  6
CONTINUOUS
 62
     7
100
AcDbLine
 10
15.0912239824
 20
210.1194374178
 30
0.0
 11
14.5556762491
 21
210.1629860614
 31
0.0
  0
LINE
  5
5D2
330
1F
100
AcDbEntity
  8
0
  6
CONTINUOUS
 62
     7
100
AcDbLine
 10
11.5578308378
 20
211.8466310118
 30
0.0
 11
11.5557744776
 21
211.8466310118
 31
0.0
  0
LINE
  5
5D3
330
1F
100
AcDbEntity
  8
0
  6
CONTINUOUS
 62
     7
100
AcDbLine
 10
11.5557744776
 20
211.8466310118
 30
0.0
 11
11.0369383965
 21
212.0194397782
 31
0.0
  0
LINE
  5
5D4
330
1F
100
AcDbEntity
  8
0
  6
CONTINUOUS
 62
     7
100
AcDbLine
 10
14.5578294669
 20
211.8466310118
 30
0.0
 11
14.5599901353
 21
211.8466310118
 31
0.0
  0
ELLIPSE
  5
5D5
330
1F
100
AcDbEntity
  8
0
  6
CONTINUOUS
 62
     7
100
AcDbEllipse
 10
13.0578322741
 20
211.8466331691
 30
0.0
 11
1.500000000000002
 21
0.0
 31
0.0
210
0.0
220
0.0
230
1.0
 40
0.0174550649
 41
0.0
 42
3.141592653589786
  0
LINE
  5
5D6
330
1F
100
AcDbEntity
  8
0
  6
CONTINUOUS
 62
     7
100
AcDbLine
 10
11.5557744776
 20
211.7737196301
 30
0.0
 11
11.5598871981
 21
211.7709778164
 31
0.0
  0
LINE
  5
5D7
330
1F
100
AcDbEntity
  8
0
  6
CONTINUOUS
 62
     7
100
AcDbLine
 10
11.5598871981
 20
211.7709778164
 30
0.0
 11
11.5598871981
 21
210.1629786108
 31
0.0
  0
LINE
  5
5D8
330
1F
100
AcDbEntity
  8
0
  6
CONTINUOUS
 62
     7
100
AcDbLine
 10
11.5557744776
 20
211.8466310118
 30
0.0
 11
11.5557744776
 21
211.7737196301
 31
0.0
  0
LINE
  5
5D9
330
1F
100
AcDbEntity
  8
0
  6
CONTINUOUS
 62
     7
100
AcDbLine
 10
11.5598871981
 20
210.1629786108
 30
0.0
 11
11.0369383965
 21
210.1194374178
 31
0.0
  0
LINE
  5
5DA
330
1F
100
AcDbEntity
  8
0
  6
CONTINUOUS
 62
     7
100
AcDbLine
 10
8.2764982854
 20
210.1216204379
 30
0.0
 11
8.2764982854
 21
230.117257676
 31
0.0
  0
LINE
  5
5DB
330
1F
100
AcDbEntity
  8
0
  6
CONTINUOUS
 62
     7
100
AcDbLine
 10
8.2764982854
 20
230.117257676
 30
0.0
 11
8.7260812198
 21
230.1194406961
 31
0.0
  0
LINE
  5
5DC
330
1F
100
AcDbEntity
  8
0
  6
CONTINUOUS
 62
     7
100
AcDbLine
 10
8.7260812198
 20
210.1194374178
 30
0.0
 11
8.2764982854
 21
210.1216204379
 31
0.0
  0
LINE
  5
5DD
330
1F
100
AcDbEntity
  8
0
  6
CONTINUOUS
 62
     7
100
AcDbLine
 10
15.0912239824
 20
228.2194383357
 30
0.0
 11
14.5599901353
 21
228.3922471021
 31
0.0
  0
LINE
  5
5DE
330
1F
100
AcDbEntity
  8
0
  6
CONTINUOUS
 62
     7
100
AcDbLine
 10
11.5557744776
 20
228.3922471021
 30
0.0
 11
11.0369383965
 21
228.2194383357
 31
0.0
  0
LINE
  5
5DF
330
1F
100
AcDbEntity
  8
0
  6
CONTINUOUS
 62
     7
100
AcDbLine
 10
11.5578308378
 20
228.3922471021
 30
0.0
 11
11.5557744776
 21
228.3922471021
 31
0.0
  0
ELLIPSE
  5
5E0
330
1F
100
AcDbEntity
  8
0
  6
CONTINUOUS
 62
     7
100
AcDbEllipse
 10
13.0578322741
 20
228.3922434547
 30
0.0
 11
1.500000000000002
 21
0.0
 31
0.0
210
0.0
220
0.0
230
1.0
 40
0.0174550649
 41
3.141592653589786
 42
6.283185307179586
  0
LINE
  5
5E1
330
1F
100
AcDbEntity
  8
0
  6
CONTINUOUS
 62
     7
100
AcDbLine
 10
14.5578294669
 20
228.3922471021
 30
0.0
 11
14.5599901353
 21
228.3922471021
 31
0.0
  0
LINE
  5
5E2
330
1F
100
AcDbEntity
  8
0
  6
CONTINUOUS
 62
     7
100
AcDbLine
 10
14.5556762491
 20
228.4679599021
 30
0.0
 11
14.5556762491
 21
230.0758920525
 31
0.0
  0
LINE
  5
5E3
330
1F
100
AcDbEntity
  8
0
  6
CONTINUOUS
 62
     7
100
AcDbLine
 10
14.5599901353
 20
228.4651510332
 30
0.0
 11
14.5599901353
 21
228.3922471021
 31
0.0
  0
LINE
  5
5E4
330
1F
100
AcDbEntity
  8
0
  6
CONTINUOUS
 62
     7
100
AcDbLine
 10
14.5599901353
 20
228.4651510332
 30
0.0
 11
14.5556762491
 21
228.4679599021
 31
0.0
  0
LINE
  5
5E5
330
1F
100
AcDbEntity
  8
0
  6
CONTINUOUS
 62
     7
100
AcDbLine
 10
15.0912239824
 20
230.1194406961
 30
0.0
 11
14.5556762491
 21
230.0758920525
 31
0.0
  0
LINE
  5
5E6
330
1F
100
AcDbEntity
  8
0
  6
CONTINUOUS
 62
     7
100
AcDbLine
 10
11.5598871981
 20
228.4678928469
 30
0.0
 11
11.5598871981
 21
230.0758995031
 31
0.0
  0
LINE
  5
5E7
330
1F
100
AcDbEntity
  8
0
  6
CONTINUOUS
 62
     7
100
AcDbLine
 10
11.5557744776
 20
228.4651510332
 30
0.0
 11
11.5598871981
 21
228.4678928469
 31
0.0
  0
LINE
  5
5E8
330
1F
100
AcDbEntity
  8
0
  6
CONTINUOUS
 62
     7
100
AcDbLine
 10
11.5557744776
 20
228.3922471021
 30
0.0
 11
11.5557744776
 21
228.4651510332
 31
0.0
  0
LINE
  5
5E9
330
1F
100
AcDbEntity
  8
0
  6
CONTINUOUS
 62
     7
100
AcDbLine
 10
11.5598871981
 20
230.0758995031
 30
0.0
 11
11.0369383965
 21
230.1194406961
 31
0.0
  0
LINE
  5
5EA
330
1F
100
AcDbEntity
  8
0
  6
CONTINUOUS
 62
     7
100
AcDbLine
 10
11.0369383965
 20
378.2194368456
 30
0.0
 11
11.0369383965
 21
380.119439206
 31
0.0
  0
LINE
  5
5EB
330
1F
100
AcDbEntity
  8
0
  6
CONTINUOUS
 62
     7
100
AcDbLine
 10
11.0369383965
 20
378.2194368456
 30
0.0
 11
15.0912239824
 21
378.2194368456
 31
0.0
  0
LINE
  5
5EC
330
1F
100
AcDbEntity
  8
0
  6
CONTINUOUS
 62
     7
100
AcDbLine
 10
15.0912239824
 20
380.119439206
 30
0.0
 11
15.0912239824
 21
378.2194368456
 31
0.0
  0
LINE
  5
5ED
330
1F
100
AcDbEntity
  8
0
  6
CONTINUOUS
 62
     7
100
AcDbLine
 10
15.0912239824
 20
380.119439206
 30
0.0
 11
15.1717126046
 21
380.119439206
 31
0.0
  0
LINE
  5
5EE
330
1F
100
AcDbEntity
  8
0
  6
CONTINUOUS
 62
     7
100
AcDbLine
 10
15.0912239824
 20
360.1194359277
 30
0.0
 11
15.0912239824
 21
362.019438288
 31
0.0
  0
LINE
  5
5EF
330
1F
100
AcDbEntity
  8
0
  6
CONTINUOUS
 62
     7
100
AcDbLine
 10
15.0912239824
 20
362.019438288
 30
0.0
 11
11.0369383965
 21
362.019438288
 31
0.0
  0
LINE
  5
5F0
330
1F
100
AcDbEntity
  8
0
  6
CONTINUOUS
 62
     7
100
AcDbLine
 10
11.0369383965
 20
362.019438288
 30
0.0
 11
11.0369383965
 21
360.1194359277
 31
0.0
  0
LINE
  5
5F1
330
1F
100
AcDbEntity
  8
0
  6
CONTINUOUS
 62
     7
100
AcDbLine
 10
8.7260812198
 20
380.119439206
 30
0.0
 11
8.7260812198
 21
360.1194359277
 31
0.0
  0
LINE
  5
5F2
330
1F
100
AcDbEntity
  8
0
  6
CONTINUOUS
 62
     7
100
AcDbLine
 10
8.7260812198
 20
380.119439206
 30
0.0
 11
11.0369383965
 21
380.119439206
 31
0.0
  0
LINE
  5
5F3
330
1F
100
AcDbEntity
  8
0
  6
CONTINUOUS
 62
     7
100
AcDbLine
 10
8.7260812198
 20
360.1194359277
 30
0.0
 11
11.0369383965
 21
360.1194359277
 31
0.0
  0
LINE
  5
5F4
330
1F
100
AcDbEntity
  8
0
  6
CONTINUOUS
 62
     7
100
AcDbLine
 10
15.0912239824
 20
360.1194359277
 30
0.0
 11
15.1717126046
 21
360.1194359277
 31
0.0
  0
LINE
  5
5F5
330
1F
100
AcDbEntity
  8
0
  6
CONTINUOUS
 62
     7
100
AcDbLine
 10
14.5556762491
 20
362.019438288
 30
0.0
 11
14.5556762491
 21
360.1194359277
 31
0.0
  0
LINE
  5
5F6
330
1F
100
AcDbEntity
  8
0
  6
CONTINUOUS
 62
     7
100
AcDbLine
 10
15.0912239824
 20
360.1194359277
 30
0.0
 11
14.5556762491
 21
360.1194359277
 31
0.0
  0
LINE
  5
5F7
330
1F
100
AcDbEntity
  8
0
  6
CONTINUOUS
 62
     7
100
AcDbLine
 10
11.5598871981
 20
362.019438288
 30
0.0
 11
11.5598871981
 21
360.1194359277
 31
0.0
  0
LINE
  5
5F8
330
1F
100
AcDbEntity
  8
0
  6
CONTINUOUS
 62
     7
100
AcDbLine
 10
11.5598871981
 20
360.1194359277
 30
0.0
 11
11.0369383965
 21
360.1194359277
 31
0.0
  0
LINE
  5
5F9
330
1F
100
AcDbEntity
  8
0
  6
CONTINUOUS
 62
     7
100
AcDbLine
 10
8.2764982854
 20
360.1194359277
 30
0.0
 11
8.2764982854
 21
380.119439206
 31
0.0
  0
LINE
  5
5FA
330
1F
100
AcDbEntity
  8
0
  6
CONTINUOUS
 62
     7
100
AcDbLine
 10
8.2764982854
 20
380.119439206
 30
0.0
 11
8.7260812198
 21
380.119439206
 31
0.0
  0
LINE
  5
5FB
330
1F
100
AcDbEntity
  8
0
  6
CONTINUOUS
 62
     7
100
AcDbLine
 10
8.7260812198
 20
360.1194359277
 30
0.0
 11
8.2764982854
 21
360.1194359277
 31
0.0
  0
LINE
  5
5FC
330
1F
100
AcDbEntity
  8
0
  6
CONTINUOUS
 62
     7
100
AcDbLine
 10
14.5556762491
 20
378.2194368456
 30
0.0
 11
14.5556762491
 21
380.119439206
 31
0.0
  0
LINE
  5
5FD
330
1F
100
AcDbEntity
  8
0
  6
CONTINUOUS
 62
     7
100
AcDbLine
 10
15.0912239824
 20
380.119439206
 30
0.0
 11
14.5556762491
 21
380.119439206
 31
0.0
  0
LINE
  5
5FE
330
1F
100
AcDbEntity
  8
0
  6
CONTINUOUS
 62
     7
100
AcDbLine
 10
11.5598871981
 20
378.2194368456
 30
0.0
 11
11.5598871981
 21
380.119439206
 31
0.0
  0
LINE
  5
5FF
330
1F
100
AcDbEntity
  8
0
  6
CONTINUOUS
 62
     7
100
AcDbLine
 10
11.5598871981
 20
380.119439206
 30
0.0
 11
11.0369383965
 21
380.119439206
 31
0.0
  0
ELLIPSE
  5
600
330
1F
100
AcDbEntity
  8
0
  6
CONTINUOUS
 62
     7
100
AcDbEllipse
 10
170.1717155848
 20
209.2242538705
 30
0.0
 11
1.488715574274806
 21
0.0
 31
0.0
210
0.0
220
0.0
230
1.0
 40
0.0524077793
 41
0.0890115428433283
 42
0.1207800573806513
  0
LINE
  5
601
330
1F
100
AcDbEntity
  8
0
  6
CONTINUOUS
 62
     7
100
AcDbLine
 10
171.6495886122
 20
210.907477877
 30
0.0
 11
171.6495886122
 21
209.2336527918
 31
0.0
  0
LINE
  5
602
330
1F
100
AcDbEntity
  8
0
  6
CONTINUOUS
 62
     7
100
AcDbLine
 10
171.6545357977
 20
208.9811898683
 30
0.0
 11
171.6545357977
 21
209.2311866496
 31
0.0
  0
ELLIPSE
  5
603
330
1F
100
AcDbEntity
  8
0
  6
CONTINUOUS
 62
     7
100
AcDbEllipse
 10
170.1717155848
 20
209.2242538705
 30
0.0
 11
1.488715574274806
 21
0.0
 31
0.0
210
0.0
220
0.0
230
1.0
 40
0.0524077793
 41
3.020812596209141
 42
3.052581110746467
  0
LINE
  5
604
330
1F
100
AcDbEntity
  8
0
  6
CONTINUOUS
 62
     7
100
AcDbLine
 10
168.6938464318
 20
209.2336527918
 30
0.0
 11
168.6938464318
 21
210.907477877
 31
0.0
  0
LINE
  5
605
330
1F
100
AcDbEntity
  8
0
  6
CONTINUOUS
 62
     7
100
AcDbLine
 10
168.6888917957
 20
209.2311866496
 30
0.0
 11
168.6888917957
 21
208.9811898683
 31
0.0
  0
LINE
  5
606
330
1F
100
AcDbEntity
  8
0
  6
CONTINUOUS
 62
     7
100
AcDbLine
 10
171.6495886122
 20
229.3314002369
 30
0.0
 11
171.6495886122
 21
231.0052253221
 31
0.0
  0
ELLIPSE
  5
607
330
1F
100
AcDbEntity
  8
0
  6
CONTINUOUS
 62
     7
100
AcDbEllipse
 10
170.1717155848
 20
231.0146227533
 30
0.0
 11
1.488715574274806
 21
0.0
 31
0.0
210
0.0
220
0.0
230
1.0
 40
0.0524077793
 41
6.162405249799191
 42
6.194173764336888
  0
LINE
  5
608
330
1F
100
AcDbEntity
  8
0
  6
CONTINUOUS
 62
     7
100
AcDbLine
 10
171.6545357977
 20
231.0076840137
 30
0.0
 11
171.6545357977
 21
231.2576882456
 31
0.0
  0
LINE
  5
609
330
1F
100
AcDbEntity
  8
0
  6
CONTINUOUS
 62
     7
100
AcDbLine
 10
168.6938464318
 20
231.0052253221
 30
0.0
 11
168.6938464318
 21
229.3314002369
 31
0.0
  0
ELLIPSE
  5
60A
330
1F
100
AcDbEntity
  8
0
  6
CONTINUOUS
 62
     7
100
AcDbEllipse
 10
170.1717155848
 20
231.0146227533
 30
0.0
 11
1.488715574274806
 21
0.0
 31
0.0
210
0.0
220
0.0
230
1.0
 40
0.0524077793
 41
3.230604196433022
 42
3.262372710970708
  0
LINE
  5
60B
330
1F
100
AcDbEntity
  8
0
  6
CONTINUOUS
 62
     7
100
AcDbLine
 10
168.6888917957
 20
231.2576882456
 30
0.0
 11
168.6888917957
 21
231.0076840137
 31
0.0
  0
LINE
  5
60C
330
1F
100
AcDbEntity
  8
0
  6
CONTINUOUS
 62
     7
100
AcDbLine
 10
171.6495886122
 20
359.2336513017
 30
0.0
 11
171.6495886122
 21
360.9074763869
 31
0.0
  0
ELLIPSE
  5
60D
330
1F
100
AcDbEntity
  8
0
  6
CONTINUOUS
 62
     7
100
AcDbEllipse
 10
170.1717155848
 20
359.2242538705
 30
0.0
 11
1.488715574274806
 21
0.0
 31
0.0
210
0.0
220
0.0
230
1.0
 40
0.0524077793
 41
0.0890115428436266
 42
0.1207800573812874
  0
LINE
  5
60E
330
1F
100
AcDbEntity
  8
0
  6
CONTINUOUS
 62
     7
100
AcDbLine
 10
171.6545357977
 20
358.9811883782
 30
0.0
 11
171.6545357977
 21
359.2311926101
 31
0.0
  0
LINE
  5
60F
330
1F
100
AcDbEntity
  8
0
  6
CONTINUOUS
 62
     7
100
AcDbLine
 10
168.6938464318
 20
360.9074763869
 30
0.0
 11
168.6938464318
 21
359.2336513017
 31
0.0
  0
ELLIPSE
  5
610
330
1F
100
AcDbEntity
  8
0
  6
CONTINUOUS
 62
     7
100
AcDbEllipse
 10
170.1717155848
 20
359.2242538705
 30
0.0
 11
1.488715574274806
 21
0.0
 31
0.0
210
0.0
220
0.0
230
1.0
 40
0.0524077793
 41
3.020812596208502
 42
3.052581110746162
  0
LINE
  5
611
330
1F
100
AcDbEntity
  8
0
  6
CONTINUOUS
 62
     7
100
AcDbLine
 10
168.6888917957
 20
359.2311926101
 30
0.0
 11
168.6888917957
 21
358.9811883782
 31
0.0
  0
ELLIPSE
  5
612
330
1F
100
AcDbEntity
  8
0
  6
CONTINUOUS
 62
     7
100
AcDbEllipse
 10
170.1717155848
 20
381.0146227533
 30
0.0
 11
1.488715574274806
 21
0.0
 31
0.0
210
0.0
220
0.0
230
1.0
 40
0.0524077793
 41
6.162405249799191
 42
6.194173764336888
  0
LINE
  5
613
330
1F
100
AcDbEntity
  8
0
  6
CONTINUOUS
 62
     7
100
AcDbLine
 10
171.6495886122
 20
381.005223832
 30
0.0
 11
171.6495886122
 21
379.3313987468
 31
0.0
  0
LINE
  5
614
330
1F
100
AcDbEntity
  8
0
  6
CONTINUOUS
 62
     7
100
AcDbLine
 10
171.6545357977
 20
381.0076899741
 30
0.0
 11
171.6545357977
 21
381.2576867555
 31
0.0
  0
ELLIPSE
  5
615
330
1F
100
AcDbEntity
  8
0
  6
CONTINUOUS
 62
     7
100
AcDbEllipse
 10
170.1717155848
 20
381.0146227533
 30
0.0
 11
1.488715574274806
 21
0.0
 31
0.0
210
0.0
220
0.0
230
1.0
 40
0.0524077793
 41
3.230604196433022
 42
3.262372710970708
  0
LINE
  5
616
330
1F
100
AcDbEntity
  8
0
  6
CONTINUOUS
 62
     7
100
AcDbLine
 10
168.6938464318
 20
379.3313987468
 30
0.0
 11
168.6938464318
 21
381.005223832
 31
0.0
  0
LINE
  5
617
330
1F
100
AcDbEntity
  8
0
  6
CONTINUOUS
 62
     7
100
AcDbLine
 10
168.6888917957
 20
381.2576867555
 30
0.0
 11
168.6888917957
 21
381.0076899741
 31
0.0
  0
ELLIPSE
  5
618
330
1F
100
AcDbEntity
  8
0
  6
CONTINUOUS
 62
     7
100
AcDbEllipse
 10
170.1717155848
 20
209.2294946484
 30
0.0
 11
1.480000000000018
 21
0.0
 31
0.0
210
0.0
220
0.0
230
1.0
 40
0.0524077793
 41
0.0536543242765523
 42
3.087938329313236
  0
ELLIPSE
  5
619
330
1F
100
AcDbEntity
  8
0
  6
CONTINUOUS
 62
     7
100
AcDbEllipse
 10
170.1717155848
 20
231.0093819754
 30
0.0
 11
1.480000000000018
 21
0.0
 31
0.0
210
0.0
220
0.0
230
1.0
 40
0.0524077793
 41
3.195246977866979
 42
6.229530982902943
  0
ELLIPSE
  5
61A
330
1F
100
AcDbEntity
  8
0
  6
CONTINUOUS
 62
     7
100
AcDbEllipse
 10
170.1717155848
 20
359.2294946484
 30
0.0
 11
1.480000000000018
 21
0.0
 31
0.0
210
0.0
220
0.0
230
1.0
 40
0.0524077793
 41
0.0536543242768986
 42
3.087938329312892
  0
ELLIPSE
  5
61B
330
1F
100
AcDbEntity
  8
0
  6
CONTINUOUS
 62
     7
100
AcDbEllipse
 10
170.1717155848
 20
381.0093819754
 30
0.0
 11
1.480000000000018
 21
0.0
 31
0.0
210
0.0
220
0.0
230
1.0
 40
0.0524077793
 41
3.195246977866959
 42
6.229530982902962
  0
ELLIPSE
  5
61C
330
1F
100
AcDbEntity
  8
0
  6
CONTINUOUS
 62
     7
100
AcDbEllipse
 10
170.1717155848
 20
204.5093819754
 30
0.0
 11
1.480000000000018
 21
0.0
 31
0.0
210
0.0
220
0.0
230
1.0
 40
0.0524077793
 41
3.228859116189797
 42
6.195918844580113
  0
ELLIPSE
  5
61D
330
1F
100
AcDbEntity
  8
0
  6
CONTINUOUS
 62
     7
100
AcDbEllipse
 10
170.1717155848
 20
201.7294946484
 30
0.0
 11
1.480000000000018
 21
0.0
 31
0.0
210
0.0
220
0.0
230
1.0
 40
0.0524077793
 41
0.0872664626001028
 42
3.054326190989692
  0
ELLIPSE
  5
61E
330
1F
100
AcDbEntity
  8
0
  6
CONTINUOUS
 62
     7
100
AcDbEllipse
 10
170.1717155848
 20
235.7294946484
 30
0.0
 11
1.480000000000018
 21
0.0
 31
0.0
210
0.0
220
0.0
230
1.0
 40
0.0524077793
 41
0.0872664626001028
 42
3.054326190989692
  0
ELLIPSE
  5
61F
330
1F
100
AcDbEntity
  8
0
  6
CONTINUOUS
 62
     7
100
AcDbEllipse
 10
170.1717155848
 20
238.5093819754
 30
0.0
 11
1.480000000000018
 21
0.0
 31
0.0
210
0.0
220
0.0
230
1.0
 40
0.0524077793
 41
3.228859116189797
 42
6.195918844580113
  0
ELLIPSE
  5
620
330
1F
100
AcDbEntity
  8
0
  6
CONTINUOUS
 62
     7
100
AcDbEllipse
 10
170.1717155848
 20
354.5093819754
 30
0.0
 11
1.480000000000018
 21
0.0
 31
0.0
210
0.0
220
0.0
230
1.0
 40
0.0524077793
 41
3.228859116189765
 42
6.195918844580145
  0
ELLIPSE
  5
621
330
1F
100
AcDbEntity
  8
0
  6
CONTINUOUS
 62
     7
100
AcDbEllipse
 10
170.1717155848
 20
351.7294946484
 30
0.0
 11
1.480000000000018
 21
0.0
 31
0.0
210
0.0
220
0.0
230
1.0
 40
0.0524077793
 41
0.0872664625997696
 42
3.054326190990022
  0
ELLIPSE
  5
622
330
1F
100
AcDbEntity
  8
0
  6
CONTINUOUS
 62
     7
100
AcDbEllipse
 10
170.1717155848
 20
385.7294946484
 30
0.0
 11
1.480000000000018
 21
0.0
 31
0.0
210
0.0
220
0.0
230
1.0
 40
0.0524077793
 41
0.0872664625997696
 42
3.054326190990022
  0
ELLIPSE
  5
623
330
1F
100
AcDbEntity
  8
0
  6
CONTINUOUS
 62
     7
100
AcDbEllipse
 10
170.1717155848
 20
388.5093819754
 30
0.0
 11
1.480000000000018
 21
0.0
 31
0.0
210
0.0
220
0.0
230
1.0
 40
0.0524077793
 41
3.228859116189765
 42
6.195918844580145
  0
ELLIPSE
  5
624
330
1F
100
AcDbEntity
  8
0
  6
CONTINUOUS
 62
     7
100
AcDbEllipse
 10
22.6150793612
 20
177.5628020882
 30
0.0
 11
0.3545231217175342
 21
0.3545231217175342
 31
0.0
210
0.0
220
0.0
230
0.9999999999999998
 40
0.9972646886
 41
2.357564018062738
 42
3.925621289116876
  0
ELLIPSE
  5
625
330
1F
100
AcDbEntity
  8
0
  6
CONTINUOUS
 62
     7
100
AcDbEllipse
 10
22.6150793612
 20
412.6760745356
 30
0.0
 11
0.3545231217175342
 21
-0.3545231217175342
 31
0.0
210
0.0
220
0.0
230
0.9999999999999998
 40
0.9972646886
 41
2.357564018062742
 42
3.925621289116958
  0
ELLIPSE
  5
626
330
1F
100
AcDbEntity
  8
0
  6
CONTINUOUS
 62
     7
100
AcDbEllipse
 10
157.7283518085
 20
177.5628020882
 30
0.0
 11
-0.3545231217175342
 21
0.3545231217175342
 31
0.0
210
0.0
220
0.0
230
0.9999999999999998
 40
0.9972646886
 41
2.357564018062684
 42
3.92562128911686
  0
ELLIPSE
  5
627
330
1F
100
AcDbEntity
  8
0
  6
CONTINUOUS
 62
     7
100
AcDbEllipse
 10
157.7283518085
 20
412.6760745356
 30
0.0
 11
-0.3545231217175058
 21
-0.3545231217175911
 31
0.0
210
0.0
220
0.0
230
1.0
 40
0.9972646886
 41
2.357564018062527
 42
3.925621289116775
  0
LINE
  5
628
330
1F
100
AcDbEntity
  8
0
  6
CONTINUOUS
 62
     7
100
AcDbLine
 10
167.9290294324
 20
210.9741903756
 30
0.0
 11
167.9290294324
 21
229.2646877383
 31
0.0
  0
LINE
  5
629
330
1F
100
AcDbEntity
  8
0
  6
CONTINUOUS
 62
     7
100
AcDbLine
 10
169.0490752135
 20
210.9821550463
 30
0.0
 11
169.0490752135
 21
229.256715617
 31
0.0
  0
LINE
  5
62A
330
1F
100
AcDbEntity
  8
0
  6
CONTINUOUS
 62
     7
100
AcDbLine
 10
166.3264989529
 20
211.078587911
 30
0.0
 11
166.3264989529
 21
229.1602902029
 31
0.0
  0
LINE
  5
62B
330
1F
100
AcDbEntity
  8
0
  6
CONTINUOUS
 62
     7
100
AcDbLine
 10
167.9290294324
 20
379.2646862481
 30
0.0
 11
167.9290294324
 21
360.9741888855
 31
0.0
  0
LINE
  5
62C
330
1F
100
AcDbEntity
  8
0
  6
CONTINUOUS
 62
     7
100
AcDbLine
 10
169.0490752135
 20
360.9821610068
 30
0.0
 11
169.0490752135
 21
379.2567215775
 31
0.0
  0
LINE
  5
62D
330
1F
100
AcDbEntity
  8
0
  6
CONTINUOUS
 62
     7
100
AcDbLine
 10
166.3264989529
 20
379.1602887128
 30
0.0
 11
166.3264989529
 21
361.0785864208
 31
0.0
  0
LINE
  5
62E
330
1F
100
AcDbEntity
  8
0
  6
CONTINUOUS
 62
     7
100
AcDbLine
 10
14.5556762491
 20
380.119439206
 30
0.0
 11
11.5598871981
 21
380.119439206
 31
0.0
  0
LINE
  5
62F
330
1F
100
AcDbEntity
  8
0
  6
CONTINUOUS
 62
     7
100
AcDbLine
 10
14.5556762491
 20
360.1194359277
 30
0.0
 11
11.5598871981
 21
360.1194359277
 31
0.0
  0
ELLIPSE
  5
630
330
1F
100
AcDbEntity
  8
0
  6
CONTINUOUS
 62
     7
100
AcDbEllipse
 10
13.0578322741
 20
211.7737226939
 30
0.0
 11
1.500000000000002
 21
0.0
 31
0.0
210
0.0
220
0.0
230
1.0
 40
0.0349207695
 41
3.193952531149359
 42
6.229576606840637
  0
ELLIPSE
  5
631
330
1F
100
AcDbEntity
  8
0
  6
CONTINUOUS
 62
     7
100
AcDbEllipse
 10
13.0578322741
 20
210.162635485
 30
0.0
 11
1.500000000000002
 21
0.0
 31
0.0
210
0.0
220
0.0
230
1.0
 40
0.0043633508
 41
0.053608700339097
 42
3.089232776028676
  0
ELLIPSE
  5
632
330
1F
100
AcDbEntity
  8
0
  6
CONTINUOUS
 62
     7
100
AcDbEllipse
 10
13.0578322741
 20
228.4651539299
 30
0.0
 11
1.500000000000002
 21
0.0
 31
0.0
210
0.0
220
0.0
230
1.0
 40
0.0349207695
 41
0.0536087003393361
 42
3.089232776030081
  0
ELLIPSE
  5
633
330
1F
100
AcDbEntity
  8
0
  6
CONTINUOUS
 62
     7
100
AcDbEllipse
 10
13.0578322741
 20
230.0762411388
 30
0.0
 11
1.500000000000002
 21
0.0
 31
0.0
210
0.0
220
0.0
230
1.0
 40
0.0043633508
 41
3.193952531158466
 42
6.229576606843648
  0
ENDSEC
  0
SECTION
  2
OBJECTS
  0
DICTIONARY
  5
C
330
0
100
AcDbDictionary
  3
ACAD_GROUP
350
D
  3
ACAD_MLINESTYLE
350
17
  0
DICTIONARY
  5
D
102
{ACAD_REACTORS
330
C
102
}
330
C
100
AcDbDictionary
  0
DICTIONARY
  5
17
102
{ACAD_REACTORS
330
C
102
}
330
C
100
AcDbDictionary
  3
STANDARD
350
18
  0
MLINESTYLE
  5
18
102
{ACAD_REACTORS
330
17
102
}
330
17
100
AcDbMlineStyle
  2
Standard
 70
     0
  3

 62
   256
 51
90.0
 52
90.0
 71
     2
 49
0.5
 62
   256
  6
BYLAYER
 49
-0.5
 62
   256
  6
BYLAYER
  0
ENDSEC
  0
EOF
