  0
SECTION
  2
HEADER
  9
$ACADVER
  1
AC1015
  9
$ACADMAINTVER
 70
     6
  9
$DWGCODEPAGE
  3
ANSI_1252
  9
$INSBASE
 10
0.0
 20
0.0
 30
0.0
  9
$EXTMIN
 10
0.0
 20
0.0
 30
0.0
  9
$EXTMAX
 10
840.0
 20
594.0
 30
0.0
  9
$LIMMIN
 10
0.0
 20
0.0
  9
$LIMMAX
 10
840.0
 20
594.0
  9
$ORTHOMODE
 70
     0
  9
$REGENMODE
 70
     1
  9
$FILLMODE
 70
     1
  9
$QTEXTMODE
 70
     0
  9
$MIRRTEXT
 70
     1
  9
$LTSCALE
 40
2.0
  9
$ATTMODE
 70
     1
  9
$TEXTSIZE
 40
7.0
  9
$TRACEWID
 40
1.0
  9
$TEXTSTYLE
  7
Standard
  9
$CLAYER
  8
0
  9
$CELTYPE
  6
ByLayer
  9
$CECOLOR
 62
   256
  9
$CELTSCALE
 40
1.0
  9
$DISPSILH
 70
     0
  9
$DIMSCALE
 40
1.0
  9
$DIMASZ
 40
12.0
  9
$DIMEXO
 40
2.0
  9
$DIMDLI
 40
3.75
  9
$DIMRND
 40
0.0
  9
$DIMDLE
 40
0.0
  9
$DIMEXE
 40
2.0
  9
$DIMTP
 40
0.0
  9
$DIMTM
 40
0.0
  9
$DIMTXT
 40
7.0
  9
$DIMCEN
 40
2.5
  9
$DIMTSZ
 40
0.0
  9
$DIMTOL
 70
     0
  9
$DIMLIM
 70
     0
  9
$DIMTIH
 70
     1
  9
$DIMTOH
 70
     1
  9
$DIMSE1
 70
     0
  9
$DIMSE2
 70
     0
  9
$DIMTAD
 70
     1
  9
$DIMZIN
 70
     0
  9
$DIMBLK
  1

  9
$DIMASO
 70
     1
  9
$DIMSHO
 70
     1
  9
$DIMPOST
  1

  9
$DIMAPOST
  1

  9
$DIMALT
 70
     0
  9
$DIMALTD
 70
     3
  9
$DIMALTF
 40
0.0393700787
  9
$DIMLFAC
 40
1.0
  9
$DIMTOFL
 70
     1
  9
$DIMTVP
 40
0.0
  9
$DIMTIX
 70
     0
  9
$DIMSOXD
 70
     0
  9
$DIMSAH
 70
     0
  9
$DIMBLK1
  1

  9
$DIMBLK2
  1

  9
$DIMSTYLE
  2
ISO-25
  9
$DIMCLRD
 70
     0
  9
$DIMCLRE
 70
     0
  9
$DIMCLRT
 70
     0
  9
$DIMTFAC
 40
1.0
  9
$DIMGAP
 40
3.048
  9
$DIMJUST
 70
     0
  9
$DIMSD1
 70
     0
  9
$DIMSD2
 70
     0
  9
$DIMTOLJ
 70
     0
  9
$DIMTZIN
 70
     0
  9
$DIMALTZ
 70
     0
  9
$DIMALTTZ
 70
     0
  9
$DIMUPT
 70
     0
  9
$DIMDEC
 70
     2
  9
$DIMTDEC
 70
     2
  9
$DIMALTU
 70
     2
  9
$DIMALTTD
 70
     3
  9
$DIMTXSTY
  7
Standard
  9
$DIMAUNIT
 70
     0
  9
$DIMADEC
 70
     2
  9
$DIMALTRND
 40
0.0
  9
$DIMAZIN
 70
     0
  9
$DIMDSEP
 70
    44
  9
$DIMATFIT
 70
     3
  9
$DIMFRAC
 70
     0
  9
$DIMLDRBLK
  1

  9
$DIMLUNIT
 70
     2
  9
$DIMLWD
 70
    -2
  9
$DIMLWE
 70
    -2
  9
$DIMTMOVE
 70
     0
  9
$LUNITS
 70
     2
  9
$LUPREC
 70
     2
  9
$SKETCHINC
 40
1.0
  9
$FILLETRAD
 40
10.0
  9
$AUNITS
 70
     0
  9
$AUPREC
 70
     2
  9
$MENU
  1
.
  9
$ELEVATION
 40
0.0
  9
$PELEVATION
 40
0.0
  9
$THICKNESS
 40
0.0
  9
$LIMCHECK
 70
     0
  9
$CHAMFERA
 40
0.0
  9
$CHAMFERB
 40
0.0
  9
$CHAMFERC
 40
0.0
  9
$CHAMFERD
 40
0.0
  9
$SKPOLY
 70
     0
  9
$TDCREATE
 40
2457633.497156516
  9
$TDUCREATE
 40
2457633.372156516
  9
$TDUPDATE
 40
2457633.497156956
  9
$TDUUPDATE
 40
2457633.372156956
  9
$TDINDWG
 40
0.0000000116
  9
$TDUSRTIMER
 40
0.0000000116
  9
$USRTIMER
 70
     1
  9
$ANGBASE
 50
0.0
  9
$ANGDIR
 70
     0
  9
$PDMODE
 70
     0
  9
$PDSIZE
 40
-1.0
  9
$PLINEWID
 40
0.0
  9
$SPLFRAME
 70
     0
  9
$SPLINETYPE
 70
     6
  9
$SPLINESEGS
 70
     8
  9
$HANDSEED
  5
347
  9
$SURFTAB1
 70
     6
  9
$SURFTAB2
 70
     6
  9
$SURFTYPE
 70
     6
  9
$SURFU
 70
     6
  9
$SURFV
 70
     6
  9
$UCSBASE
  2

  9
$UCSNAME
  2

  9
$UCSORG
 10
0.0
 20
0.0
 30
0.0
  9
$UCSXDIR
 10
1.0
 20
0.0
 30
0.0
  9
$UCSYDIR
 10
0.0
 20
1.0
 30
0.0
  9
$UCSORTHOREF
  2

  9
$UCSORTHOVIEW
 70
     0
  9
$UCSORGTOP
 10
0.0
 20
0.0
 30
0.0
  9
$UCSORGBOTTOM
 10
0.0
 20
0.0
 30
0.0
  9
$UCSORGLEFT
 10
0.0
 20
0.0
 30
0.0
  9
$UCSORGRIGHT
 10
0.0
 20
0.0
 30
0.0
  9
$UCSORGFRONT
 10
0.0
 20
0.0
 30
0.0
  9
$UCSORGBACK
 10
0.0
 20
0.0
 30
0.0
  9
$PUCSBASE
  2

  9
$PUCSNAME
  2

  9
$PUCSORG
 10
0.0
 20
0.0
 30
0.0
  9
$PUCSXDIR
 10
1.0
 20
0.0
 30
0.0
  9
$PUCSYDIR
 10
0.0
 20
1.0
 30
0.0
  9
$PUCSORTHOREF
  2

  9
$PUCSORTHOVIEW
 70
     0
  9
$PUCSORGTOP
 10
0.0
 20
0.0
 30
0.0
  9
$PUCSORGBOTTOM
 10
0.0
 20
0.0
 30
0.0
  9
$PUCSORGLEFT
 10
0.0
 20
0.0
 30
0.0
  9
$PUCSORGRIGHT
 10
0.0
 20
0.0
 30
0.0
  9
$PUCSORGFRONT
 10
0.0
 20
0.0
 30
0.0
  9
$PUCSORGBACK
 10
0.0
 20
0.0
 30
0.0
  9
$USERI1
 70
     0
  9
$USERI2
 70
     0
  9
$USERI3
 70
     0
  9
$USERI4
 70
     0
  9
$USERI5
 70
     0
  9
$USERR1
 40
0.0
  9
$USERR2
 40
0.0
  9
$USERR3
 40
0.0
  9
$USERR4
 40
0.0
  9
$USERR5
 40
0.0
  9
$WORLDVIEW
 70
     1
  9
$SHADEDGE
 70
     3
  9
$SHADEDIF
 70
    70
  9
$TILEMODE
 70
     1
  9
$MAXACTVP
 70
    64
  9
$PINSBASE
 10
0.0
 20
0.0
 30
0.0
  9
$PLIMCHECK
 70
     0
  9
$PEXTMIN
 10
1.0000000000E+20
 20
1.0000000000E+20
 30
1.0000000000E+20
  9
$PEXTMAX
 10
-1.0000000000E+20
 20
-1.0000000000E+20
 30
-1.0000000000E+20
  9
$PLIMMIN
 10
0.0
 20
0.0
  9
$PLIMMAX
 10
420.0
 20
297.0
  9
$UNITMODE
 70
     0
  9
$VISRETAIN
 70
     1
  9
$PLINEGEN
 70
     0
  9
$PSLTSCALE
 70
     1
  9
$TREEDEPTH
 70
  3020
  9
$CMLSTYLE
  2
Standard
  9
$CMLJUST
 70
     0
  9
$CMLSCALE
 40
20.0
  9
$PROXYGRAPHICS
 70
     1
  9
$MEASUREMENT
 70
     1
  9
$CELWEIGHT
370
    -1
  9
$ENDCAPS
280
     0
  9
$JOINSTYLE
280
     0
  9
$LWDISPLAY
290
     1
  9
$INSUNITS
 70
     4
  9
$HYPERLINKBASE
  1

  9
$STYLESHEET
  1

  9
$XEDIT
290
     1
  9
$CEPSNTYPE
380
     0
  9
$PSTYLEMODE
290
     1
  9
$FINGERPRINTGUID
  2
{A76040E7-6E79-498E-BD16-84FE78C27F6F}
  9
$VERSIONGUID
  2
{FAEB1C32-E019-11D5-929B-00C0DF256EC4}
  9
$EXTNAMES
290
     1
  9
$PSVPSCALE
 40
0.0
  9
$OLESTARTUP
290
     0
  0
ENDSEC
  0
SECTION
  2
CLASSES
  0
CLASS
  1
ACDBDICTIONARYWDFLT
  2
AcDbDictionaryWithDefault
  3
ObjectDBX Classes
 90
        0
280
     0
281
     0
  0
CLASS
  1
VISUALSTYLE
  2
AcDbVisualStyle
  3
ObjectDBX Classes
 90
     4095
280
     0
281
     0
  0
CLASS
  1
MATERIAL
  2
AcDbMaterial
  3
ObjectDBX Classes
 90
     1153
280
     0
281
     0
  0
CLASS
  1
SCALE
  2
AcDbScale
  3
ObjectDBX Classes
 90
     1153
280
     0
281
     0
  0
CLASS
  1
TABLESTYLE
  2
AcDbTableStyle
  3
ObjectDBX Classes
 90
     4095
280
     0
281
     0
  0
CLASS
  1
MLEADERSTYLE
  2
AcDbMLeaderStyle
  3
ACDB_MLEADERSTYLE_CLASS
 90
     4095
280
     0
281
     0
  0
CLASS
  1
SUN
  2
AcDbSun
  3
SCENEOE
 90
     1153
280
     0
281
     0
  0
CLASS
  1
ACDBPLACEHOLDER
  2
AcDbPlaceHolder
  3
ObjectDBX Classes
 90
        0
280
     0
281
     0
  0
CLASS
  1
LAYOUT
  2
AcDbLayout
  3
ObjectDBX Classes
 90
        0
280
     0
281
     0
  0
ENDSEC
  0
SECTION
  2
TABLES
  0
TABLE
  2
VPORT
  5
8
330
0
100
AcDbSymbolTable
 70
     1
  0
VPORT
  5
29
330
8
100
AcDbSymbolTableRecord
100
AcDbViewportTableRecord
  2
*Active
 70
     0
 10
0.0
 20
0.0
 11
1.0
 21
1.0
 12
420.0
 22
297.0
 13
0.0
 23
0.0
 14
10.0
 24
10.0
 15
10.0
 25
10.0
 16
0.0
 26
0.0
 36
1.0
 17
0.0
 27
0.0
 37
0.0
 40
594.0
 41
1.4141414141
 42
50.0
 43
0.0
 44
0.0
 50
0.0
 51
0.0
 71
     0
 72
  2000
 73
     1
 74
     3
 75
     0
 76
     0
 77
     0
 78
     0
281
     0
 65
     1
110
0.0
120
0.0
130
0.0
111
1.0
121
0.0
131
0.0
112
0.0
122
1.0
132
0.0
 79
     0
146
0.0
  0
ENDTAB
  0
TABLE
  2
LTYPE
  5
5
330
0
100
AcDbSymbolTable
 70
     6
  0
LTYPE
  5
14
330
5
100
AcDbSymbolTableRecord
100
AcDbLinetypeTableRecord
  2
ByBlock
 70
     0
  3

 72
    65
 73
     0
 40
0.0
  0
LTYPE
  5
15
330
5
100
AcDbSymbolTableRecord
100
AcDbLinetypeTableRecord
  2
ByLayer
 70
     0
  3

 72
    65
 73
     0
 40
0.0
  0
LTYPE
  5
16
330
5
100
AcDbSymbolTableRecord
100
AcDbLinetypeTableRecord
  2
Continuous
 70
     0
  3
Solid line
 72
    65
 73
     0
 40
0.0
  0
LTYPE
  5
6E
330
5
100
AcDbSymbolTableRecord
100
AcDbLinetypeTableRecord
  2
HIDDEN
 70
     0
  3
Hidden __ __ __ __ __ __ __ __ __ __ __ __ __ __
 72
    65
 73
     2
 40
1.905
 49
1.27
 74
     0
 49
-0.635
 74
     0
  0
LTYPE
  5
6F
330
5
100
AcDbSymbolTableRecord
100
AcDbLinetypeTableRecord
  2
PHANTOM
 70
     0
  3
Phantom ______  __  __  ______  __  __  ______
 72
    65
 73
     6
 40
12.7
 49
6.35
 74
     0
 49
-1.27
 74
     0
 49
1.27
 74
     0
 49
-1.27
 74
     0
 49
1.27
 74
     0
 49
-1.27
 74
     0
  0
LTYPE
  5
70
330
5
100
AcDbSymbolTableRecord
100
AcDbLinetypeTableRecord
  2
CENTER
 70
     0
  3
Center ____ _ ____ _ ____ _ ____ _ ____ _ ____
 72
    65
 73
     4
 40
10.16
 49
6.35
 74
     0
 49
-1.27
 74
     0
 49
1.27
 74
     0
 49
-1.27
 74
     0
  0
LTYPE
  5
71
330
5
100
AcDbSymbolTableRecord
100
AcDbLinetypeTableRecord
  2
CENTERX2
 70
     0
  3
Center (2x) ________  __  ________  __  _____
 72
    65
 73
     4
 40
20.32
 49
12.7
 74
     0
 49
-2.54
 74
     0
 49
2.54
 74
     0
 49
-2.54
 74
     0
  0
LTYPE
  5
72
330
5
100
AcDbSymbolTableRecord
100
AcDbLinetypeTableRecord
  2
DOT2
 70
     0
  3
Dot (.5x) ........................................
 72
    65
 73
     2
 40
0.635
 49
0.0
 74
     0
 49
-0.635
 74
     0
  0
ENDTAB
  0
TABLE
  2
LAYER
  5
2
330
0
100
AcDbSymbolTable
 70
     1
  0
LAYER
  5
10
330
2
100
AcDbSymbolTableRecord
100
AcDbLayerTableRecord
  2
0
 70
     0
 62
     7
  6
Continuous
370
    -3
390
F
  0
ENDTAB
  0
TABLE
  2
STYLE
  5
3
330
0
100
AcDbSymbolTable
 70
     1
  0
STYLE
  5
11
330
3
100
AcDbSymbolTableRecord
100
AcDbTextStyleTableRecord
  2
Standard
 70
     0
 40
0.0
 41
1.0
 50
0.0
 71
     0
 42
7.0
  3
txt
  4

  0
ENDTAB
  0
TABLE
  2
VIEW
  5
6
330
0
100
AcDbSymbolTable
 70
     0
  0
ENDTAB
  0
TABLE
  2
UCS
  5
7
330
0
100
AcDbSymbolTable
 70
     0
  0
ENDTAB
  0
TABLE
  2
APPID
  5
9
330
0
100
AcDbSymbolTable
 70
     1
  0
APPID
  5
12
330
9
100
AcDbSymbolTableRecord
100
AcDbRegAppTableRecord
  2
ACAD
 70
     0
  0
ENDTAB
  0
TABLE
  2
DIMSTYLE
  5
A
330
0
100
AcDbSymbolTable
 70
     1
100
AcDbDimStyleTable
  0
DIMSTYLE
105
27
330
A
100
AcDbSymbolTableRecord
100
AcDbDimStyleTableRecord
  2
ISO-25
 70
     0
 41
2.5
 42
0.625
 43
3.75
 44
1.25
 73
     0
 74
     0
 77
     1
 78
     8
140
2.5
141
2.5
143
0.0393700787
147
0.625
171
     3
172
     1
178
     0
271
     2
272
     2
274
     3
278
    44
283
     0
284
     8
340
11
  0
ENDTAB
  0
TABLE
  2
BLOCK_RECORD
  5
1
330
0
100
AcDbSymbolTable
 70
     1
  0
BLOCK_RECORD
  5
1F
330
1
100
AcDbSymbolTableRecord
100
AcDbBlockTableRecord
  2
*Model_Space
340
22
  0
BLOCK_RECORD
  5
1B
330
1
100
AcDbSymbolTableRecord
100
AcDbBlockTableRecord
  2
*Paper_Space
340
1E
  0
BLOCK_RECORD
  5
23
330
1
100
AcDbSymbolTableRecord
100
AcDbBlockTableRecord
  2
*Paper_Space0
340
26
  0
ENDTAB
  0
ENDSEC
  0
SECTION
  2
BLOCKS
  0
BLOCK
  5
20
330
1F
100
AcDbEntity
  8
0
100
AcDbBlockBegin
  2
*Model_Space
 70
     0
 10
0.0
 20
0.0
 30
0.0
  3
*Model_Space
  1

  0
ENDBLK
  5
21
330
1F
100
AcDbEntity
  8
0
100
AcDbBlockEnd
  0
BLOCK
  5
1C
330
1B
100
AcDbEntity
 67
     1
  8
0
100
AcDbBlockBegin
  2
*Paper_Space
 70
     0
 10
0.0
 20
0.0
 30
0.0
  3
*Paper_Space
  1

  0
ENDBLK
  5
1D
330
1B
100
AcDbEntity
 67
     1
  8
0
100
AcDbBlockEnd
  0
BLOCK
  5
24
330
23
100
AcDbEntity
  8
0
100
AcDbBlockBegin
  2
*Paper_Space0
 70
     0
 10
0.0
 20
0.0
 30
0.0
  3
*Paper_Space0
  1

  0
ENDBLK
  5
25
330
23
100
AcDbEntity
  8
0
100
AcDbBlockEnd
  0
ENDSEC
  0
SECTION
  2
ENTITIES
  0
LINE
  5
73
330
1F
100
AcDbEntity
  8
0
  6
Continuous
 62
     7
370
    15
100
AcDbLine
 10
216.0957907051
 20
357.6374800687
 30
0.0
 11
216.0957907051
 21
354.1570829039
 31
0.0
  0
LINE
  5
74
330
1F
100
AcDbEntity
  8
0
  6
Continuous
 62
     7
370
    15
100
AcDbLine
 10
216.0957907051
 20
354.1570829039
 30
0.0
 11
215.4761780709
 21
354.1570829039
 31
0.0
  0
LINE
  5
75
330
1F
100
AcDbEntity
  8
0
  6
Continuous
 62
     7
370
    15
100
AcDbLine
 10
215.4761780709
 20
358.2570852523
 30
0.0
 11
215.4761780709
 21
354.1570829039
 31
0.0
  0
LINE
  5
76
330
1F
100
AcDbEntity
  8
0
  6
Continuous
 62
     7
370
    15
100
AcDbLine
 10
216.0957907051
 20
357.6374800687
 30
0.0
 11
215.4761780709
 21
358.2570852523
 31
0.0
  0
LINE
  5
77
330
1F
100
AcDbEntity
  8
0
  6
Continuous
 62
     7
370
    15
100
AcDbLine
 10
206.4761821836
 20
344.5374743824
 30
0.0
 11
206.4761821836
 21
345.1570870166
 31
0.0
  0
ARC
  5
78
330
1F
100
AcDbEntity
  8
0
  6
Continuous
 62
     7
370
    15
100
AcDbCircle
 10
206.4761802166
 20
354.1570848708
 30
0.0
 40
9.0
100
AcDbArc
 50
270.0
 51
0.0
  0
ARC
  5
79
330
1F
100
AcDbEntity
  8
0
  6
Continuous
 62
     7
370
    15
100
AcDbCircle
 10
206.4761802166
 20
354.1570848708
 30
0.0
 40
9.619607613143899
100
AcDbArc
 50
323.3812908034
 51
0.0
  0
SPLINE
  5
7A
330
1F
100
AcDbEntity
  8
0
  6
Continuous
 62
     7
370
    15
100
AcDbSpline
210
0.0
220
0.0
230
1.0
 70
     8
 71
     3
 72
    11
 73
     7
 74
     0
 42
0.000000001
 43
0.00000001
 40
0.0000002000132931
 40
0.0000002000132931
 40
0.0000002000132931
 40
0.0000002000132931
 40
0.0190727794621035
 40
0.0190727794621035
 40
0.0190727794621035
 40
0.0690049021101202
 40
0.0690049021101202
 40
0.0690049021101202
 40
0.0690049021101202
 10
214.1970960643744
 20
348.4191140532975
 30
0.0
 10
214.1239950832503
 20
348.4137578521168
 30
0.0
 10
214.050638466369
 20
348.4086573201751
 30
0.0
 10
213.9770141795621
 20
348.4038244940332
 30
0.0
 10
213.7842653756427
 20
348.3911721275546
 30
0.0
 10
213.5896857277619
 20
348.3803508463527
 30
0.0
 10
213.3930258455744
 20
348.3716100918134
 30
0.0
  0
ARC
  5
7B
330
1F
100
AcDbEntity
  8
0
  6
Continuous
 62
     7
370
    15
100
AcDbCircle
 10
206.4761802166
 20
354.1570848708
 30
0.0
 40
9.017453735581523
100
AcDbArc
 50
309.9102078627
 51
320.0897921373
  0
SPLINE
  5
7C
330
1F
100
AcDbEntity
  8
0
  6
Continuous
 62
     7
370
    15
100
AcDbSpline
210
0.0
220
0.0
230
1.0
 70
     8
 71
     3
 72
    11
 73
     7
 74
     0
 42
0.000000001
 43
0.00000001
 40
0.0000002000139896
 40
0.0000002000139896
 40
0.0000002000139896
 40
0.0000002000139896
 40
0.0178788833057404
 40
0.0178788833057404
 40
0.0178788833057404
 40
0.0690049021471707
 40
0.0690049021471707
 40
0.0690049021471707
 40
0.0690049021471707
 10
212.2616549956759
 20
347.2402392419149
 30
0.0
 10
212.2585252832653
 20
347.1698232530921
 30
0.0
 10
212.2551283301746
 20
347.0996744675795
 30
0.0
 10
212.2514763901636
 20
347.0297806341586
 30
0.0
 10
212.2410332748318
 20
346.8299116984168
 30
0.0
 10
212.2285088844221
 20
346.6321237498453
 30
0.0
 10
212.2141510341917
 20
346.4361690231148
 30
0.0
  0
ARC
  5
7D
330
1F
100
AcDbEntity
  8
0
  6
Continuous
 62
     7
370
    15
100
AcDbCircle
 10
206.4761802166
 20
354.1570848708
 30
0.0
 40
9.619607613143899
100
AcDbArc
 50
270.0
 51
306.6187091966
  0
LINE
  5
7E
330
1F
100
AcDbEntity
  8
0
  6
Continuous
 62
     7
370
    15
100
AcDbLine
 10
206.4761821836
 20
344.5374743824
 30
0.0
 11
202.9957850188
 21
344.5374743824
 31
0.0
  0
LINE
  5
7F
330
1F
100
AcDbEntity
  8
0
  6
Continuous
 62
     7
370
    15
100
AcDbLine
 10
202.9957850188
 20
344.5374743824
 30
0.0
 11
202.3761798352
 21
345.1570870166
 31
0.0
  0
LINE
  5
80
330
1F
100
AcDbEntity
  8
0
  6
Continuous
 62
     7
370
    15
100
AcDbLine
 10
206.4761821836
 20
345.1570870166
 30
0.0
 11
202.3761798352
 21
345.1570870166
 31
0.0
  0
LINE
  5
81
330
1F
100
AcDbEntity
  8
0
  6
Continuous
 62
     7
370
    15
100
AcDbLine
 10
216.0957907051
 20
187.176689673
 30
0.0
 11
360.3565697282
 21
187.176689673
 31
0.0
  0
LINE
  5
82
330
1F
100
AcDbEntity
  8
0
  6
Continuous
 62
     7
370
    15
100
AcDbLine
 10
360.3565697282
 20
187.176689673
 30
0.0
 11
360.9761823624
 21
186.5570844894
 31
0.0
  0
LINE
  5
83
330
1F
100
AcDbEntity
  8
0
  6
Continuous
 62
     7
370
    15
100
AcDbLine
 10
215.4761780709
 20
186.5570844894
 30
0.0
 11
360.9761823624
 21
186.5570844894
 31
0.0
  0
LINE
  5
84
330
1F
100
AcDbEntity
  8
0
  6
Continuous
 62
     7
370
    15
100
AcDbLine
 10
216.0957907051
 20
187.176689673
 30
0.0
 11
215.4761780709
 21
186.5570844894
 31
0.0
  0
CIRCLE
  5
85
330
1F
100
AcDbEntity
  8
0
  6
Continuous
 62
     7
370
    15
100
AcDbCircle
 10
206.4761802166
 20
190.6570848708
 30
0.0
 40
4.0
  0
CIRCLE
  5
86
330
1F
100
AcDbEntity
  8
0
  6
Continuous
 62
     7
370
    15
100
AcDbCircle
 10
206.4761802166
 20
354.1570848708
 30
0.0
 40
3.999999999999943
  0
LINE
  5
87
330
1F
100
AcDbEntity
  8
0
  6
Continuous
 62
     7
370
    15
100
AcDbLine
 10
202.3761798352
 20
345.1570870166
 30
0.0
 11
202.3761798352
 21
199.6570827251
 31
0.0
  0
LINE
  5
88
330
1F
100
AcDbEntity
  8
0
  6
Continuous
 62
     7
370
    15
100
AcDbLine
 10
202.3761798352
 20
199.6570827251
 30
0.0
 11
206.4761821836
 21
199.6570827251
 31
0.0
  0
ARC
  5
89
330
1F
100
AcDbEntity
  8
0
  6
Continuous
 62
     7
370
    15
100
AcDbCircle
 10
206.4761802166
 20
190.6570848708
 30
0.0
 40
9.000000000000028
100
AcDbArc
 50
0.0
 51
90.0
  0
LINE
  5
8A
330
1F
100
AcDbEntity
  8
0
  6
Continuous
 62
     7
370
    15
100
AcDbLine
 10
215.4761780709
 20
190.6570868378
 30
0.0
 11
215.4761780709
 21
186.5570844894
 31
0.0
  0
LINE
  5
8B
330
1F
100
AcDbEntity
  8
0
  6
Continuous
 62
     7
370
    15
100
AcDbLine
 10
360.9761823624
 20
186.5570844894
 30
0.0
 11
360.9761823624
 21
190.6570868378
 31
0.0
  0
ARC
  5
8C
330
1F
100
AcDbEntity
  8
0
  6
Continuous
 62
     7
370
    15
100
AcDbCircle
 10
369.9761802166
 20
190.6570848708
 30
0.0
 40
9.0
100
AcDbArc
 50
90.0
 51
180.0
  0
LINE
  5
8D
330
1F
100
AcDbEntity
  8
0
  6
Continuous
 62
     7
370
    15
100
AcDbLine
 10
369.9761782497
 20
199.6570827251
 30
0.0
 11
374.0761805981
 21
199.6570827251
 31
0.0
  0
LINE
  5
8E
330
1F
100
AcDbEntity
  8
0
  6
Continuous
 62
     7
370
    15
100
AcDbLine
 10
374.0761805981
 20
199.6570827251
 30
0.0
 11
374.0761805981
 21
345.1570870166
 31
0.0
  0
LINE
  5
8F
330
1F
100
AcDbEntity
  8
0
  6
Continuous
 62
     7
370
    15
100
AcDbLine
 10
374.0761805981
 20
345.1570870166
 30
0.0
 11
369.9761782497
 21
345.1570870166
 31
0.0
  0
ARC
  5
90
330
1F
100
AcDbEntity
  8
0
  6
Continuous
 62
     7
370
    15
100
AcDbCircle
 10
369.9761802166
 20
354.1570848708
 30
0.0
 40
9.000000000000057
100
AcDbArc
 50
180.0
 51
270.0
  0
LINE
  5
91
330
1F
100
AcDbEntity
  8
0
  6
Continuous
 62
     7
370
    15
100
AcDbLine
 10
360.9761823624
 20
354.1570829039
 30
0.0
 11
360.9761823624
 21
358.2570852523
 31
0.0
  0
LINE
  5
92
330
1F
100
AcDbEntity
  8
0
  6
Continuous
 62
     7
370
    15
100
AcDbLine
 10
360.9761823624
 20
358.2570852523
 30
0.0
 11
215.4761780709
 21
358.2570852523
 31
0.0
  0
LINE
  5
93
330
1F
100
AcDbEntity
  8
0
  6
Continuous
 62
     7
370
    15
100
AcDbLine
 10
198.1761832446
 20
358.9570822006
 30
0.0
 11
198.1761832446
 21
185.8570875411
 31
0.0
  0
CIRCLE
  5
94
330
1F
100
AcDbEntity
  8
0
  6
Continuous
 62
     7
370
    15
100
AcDbCircle
 10
369.9761802166
 20
354.1570848708
 30
0.0
 40
4.0
  0
CIRCLE
  5
95
330
1F
100
AcDbEntity
  8
0
  6
Continuous
 62
     7
370
    15
100
AcDbCircle
 10
369.9761802166
 20
190.6570848708
 30
0.0
 40
4.0
  0
ARC
  5
96
330
1F
100
AcDbEntity
  8
0
  6
Continuous
 62
     7
370
    15
100
AcDbCircle
 10
374.7761802166
 20
358.9570848708
 30
0.0
 40
3.5
100
AcDbArc
 50
0.0
 51
90.0
  0
LINE
  5
97
330
1F
100
AcDbEntity
  8
0
  6
Continuous
 62
     7
370
    15
100
AcDbLine
 10
374.7761775464
 20
362.4570818429
 30
0.0
 11
201.6761828869
 21
362.4570818429
 31
0.0
  0
ARC
  5
98
330
1F
100
AcDbEntity
  8
0
  6
Continuous
 62
     7
370
    15
100
AcDbCircle
 10
201.6761802166
 20
358.9570848708
 30
0.0
 40
3.500000000000057
100
AcDbArc
 50
90.0
 51
180.0
  0
ARC
  5
99
330
1F
100
AcDbEntity
  8
0
  6
Continuous
 62
     7
370
    15
100
AcDbCircle
 10
201.6761802166
 20
185.8570848708
 30
0.0
 40
3.499999999999972
100
AcDbArc
 50
180.0
 51
270.0
  0
LINE
  5
9A
330
1F
100
AcDbEntity
  8
0
  6
Continuous
 62
     7
370
    15
100
AcDbLine
 10
201.6761828869
 20
182.3570878988
 30
0.0
 11
374.7761775464
 21
182.3570878988
 31
0.0
  0
ARC
  5
9B
330
1F
100
AcDbEntity
  8
0
  6
Continuous
 62
     7
370
    15
100
AcDbCircle
 10
374.7761802166
 20
185.8570848708
 30
0.0
 40
3.5
100
AcDbArc
 50
270.0
 51
0.0
  0
LINE
  5
9C
330
1F
100
AcDbEntity
  8
0
  6
Continuous
 62
     7
370
    15
100
AcDbLine
 10
378.2761771887
 20
185.8570875411
 30
0.0
 11
378.2761771887
 21
358.9570822006
 31
0.0
  0
LINE
  5
9D
330
1F
100
AcDbEntity
  8
0
  6
Continuous
 62
     7
370
    15
100
AcDbLine
 10
373.4565754145
 20
344.5374743824
 30
0.0
 11
369.9761782497
 21
344.5374743824
 31
0.0
  0
LINE
  5
9E
330
1F
100
AcDbEntity
  8
0
  6
Continuous
 62
     7
370
    15
100
AcDbLine
 10
369.9761782497
 20
344.5374743824
 30
0.0
 11
369.9761782497
 21
345.1570870166
 31
0.0
  0
LINE
  5
9F
330
1F
100
AcDbEntity
  8
0
  6
Continuous
 62
     7
370
    15
100
AcDbLine
 10
373.4565754145
 20
344.5374743824
 30
0.0
 11
374.0761805981
 21
345.1570870166
 31
0.0
  0
LINE
  5
A0
330
1F
100
AcDbEntity
  8
0
  6
Continuous
 62
     7
370
    15
100
AcDbLine
 10
360.3565697282
 20
354.1570829039
 30
0.0
 11
360.9761823624
 21
354.1570829039
 31
0.0
  0
ARC
  5
A1
330
1F
100
AcDbEntity
  8
0
  6
Continuous
 62
     7
370
    15
100
AcDbCircle
 10
369.9761802166
 20
354.1570848708
 30
0.0
 40
9.619607613143955
100
AcDbArc
 50
233.3812908034
 51
270.0
  0
SPLINE
  5
A2
330
1F
100
AcDbEntity
  8
0
  6
Continuous
 62
     7
370
    15
100
AcDbSpline
210
0.0
220
0.0
230
1.0
 70
     8
 71
     3
 72
    11
 73
     7
 74
     0
 42
0.000000001
 43
0.00000001
 40
0.0000002000132931
 40
0.0000002000132931
 40
0.0000002000132931
 40
0.0000002000132931
 40
0.0190727794621035
 40
0.0190727794621035
 40
0.0190727794621035
 40
0.0690049021101202
 40
0.0690049021101202
 40
0.0690049021101202
 40
0.0690049021101202
 10
364.2382093990893
 20
346.4361690231148
 30
0.0
 10
364.2328531979086
 20
346.5092700042389
 30
0.0
 10
364.227752665967
 20
346.5826266211202
 30
0.0
 10
364.222919839825
 20
346.6562509079271
 30
0.0
 10
364.2102674733464
 20
346.8489997118465
 30
0.0
 10
364.1994461921446
 20
347.0435793597273
 30
0.0
 10
364.1907054376052
 20
347.2402392419148
 30
0.0
  0
ARC
  5
A3
330
1F
100
AcDbEntity
  8
0
  6
Continuous
 62
     7
370
    15
100
AcDbCircle
 10
369.9761802166
 20
354.1570848708
 30
0.0
 40
9.017453735581558
100
AcDbArc
 50
219.9102078627
 51
230.0897921373
  0
SPLINE
  5
A4
330
1F
100
AcDbEntity
  8
0
  6
Continuous
 62
     7
370
    15
100
AcDbSpline
210
0.0
220
0.0
230
1.0
 70
     8
 71
     3
 72
    11
 73
     7
 74
     0
 42
0.000000001
 43
0.00000001
 40
0.0000002000139896
 40
0.0000002000139896
 40
0.0000002000139896
 40
0.0000002000139896
 40
0.0178788833057404
 40
0.0178788833057404
 40
0.0178788833057404
 40
0.0690049021471707
 40
0.0690049021471707
 40
0.0690049021471707
 40
0.0690049021471707
 10
363.0593345877067
 20
348.3716100918134
 30
0.0
 10
362.9889185988839
 20
348.374739804224
 30
0.0
 10
362.9187698133714
 20
348.3781367573146
 30
0.0
 10
362.8488759799504
 20
348.3817886973256
 30
0.0
 10
362.6490070442087
 20
348.3922318126575
 30
0.0
 10
362.4512190956372
 20
348.4047562030671
 30
0.0
 10
362.2552643689066
 20
348.4191140532975
 30
0.0
  0
ARC
  5
A5
330
1F
100
AcDbEntity
  8
0
  6
Continuous
 62
     7
370
    15
100
AcDbCircle
 10
369.9761802166
 20
354.1570848708
 30
0.0
 40
9.619607613143858
100
AcDbArc
 50
180.0
 51
216.6187091966
  0
LINE
  5
A6
330
1F
100
AcDbEntity
  8
0
  6
Continuous
 62
     7
370
    15
100
AcDbLine
 10
360.3565697282
 20
354.1570829039
 30
0.0
 11
360.3565697282
 21
357.6374800687
 31
0.0
  0
LINE
  5
A7
330
1F
100
AcDbEntity
  8
0
  6
Continuous
 62
     7
370
    15
100
AcDbLine
 10
360.3565697282
 20
357.6374800687
 30
0.0
 11
360.9761823624
 21
358.2570852523
 31
0.0
  0
LINE
  5
A8
330
1F
100
AcDbEntity
  8
0
  6
Continuous
 62
     7
370
    15
100
AcDbLine
 10
360.3565697282
 20
357.6374800687
 30
0.0
 11
216.0957907051
 21
357.6374800687
 31
0.0
  0
LINE
  5
A9
330
1F
100
AcDbEntity
  8
0
  6
Continuous
 62
     7
370
    15
100
AcDbLine
 10
216.0957907051
 20
190.6570868378
 30
0.0
 11
215.4761780709
 21
190.6570868378
 31
0.0
  0
LINE
  5
AA
330
1F
100
AcDbEntity
  8
0
  6
Continuous
 62
     7
370
    15
100
AcDbLine
 10
206.4761821836
 20
200.2766953593
 30
0.0
 11
206.4761821836
 21
199.6570827251
 31
0.0
  0
ARC
  5
AB
330
1F
100
AcDbEntity
  8
0
  6
Continuous
 62
     7
370
    15
100
AcDbCircle
 10
206.4761802166
 20
190.6570848708
 30
0.0
 40
9.619607613143915
100
AcDbArc
 50
53.3812908034
 51
90.0
  0
SPLINE
  5
AC
330
1F
100
AcDbEntity
  8
0
  6
Continuous
 62
     7
370
    15
100
AcDbSpline
210
0.0
220
0.0
230
1.0
 70
     8
 71
     3
 72
    11
 73
     7
 74
     0
 42
0.000000001
 43
0.00000001
 40
0.0000002000132931
 40
0.0000002000132931
 40
0.0000002000132931
 40
0.0000002000132931
 40
0.0190727794621035
 40
0.0190727794621035
 40
0.0190727794621035
 40
0.0690049021101202
 40
0.0690049021101202
 40
0.0690049021101202
 40
0.0690049021101202
 10
212.2141510341917
 20
198.3780007185824
 30
0.0
 10
212.2195072353724
 20
198.3048997374583
 30
0.0
 10
212.2246077673141
 20
198.231543120577
 30
0.0
 10
212.229440593456
 20
198.1579188337701
 30
0.0
 10
212.2420929599347
 20
197.9651700298506
 30
0.0
 10
212.2529142411365
 20
197.7705903819699
 30
0.0
 10
212.2616549956759
 20
197.5739304997823
 30
0.0
  0
ARC
  5
AD
330
1F
100
AcDbEntity
  8
0
  6
Continuous
 62
     7
370
    15
100
AcDbCircle
 10
206.4761802166
 20
190.6570848708
 30
0.0
 40
9.017453735581554
100
AcDbArc
 50
39.9102078627
 51
50.0897921373
  0
SPLINE
  5
AE
330
1F
100
AcDbEntity
  8
0
  6
Continuous
 62
     7
370
    15
100
AcDbSpline
210
0.0
220
0.0
230
1.0
 70
     8
 71
     3
 72
    11
 73
     7
 74
     0
 42
0.000000001
 43
0.00000001
 40
0.0000002000139896
 40
0.0000002000139896
 40
0.0000002000139896
 40
0.0000002000139896
 40
0.0178788833057404
 40
0.0178788833057404
 40
0.0178788833057404
 40
0.0690049021471707
 40
0.0690049021471707
 40
0.0690049021471707
 40
0.0690049021471707
 10
213.3930258455744
 20
196.4425596498838
 30
0.0
 10
213.4634418343971
 20
196.4394299374732
 30
0.0
 10
213.5335906199097
 20
196.4360329843826
 30
0.0
 10
213.6034844533306
 20
196.4323810443715
 30
0.0
 10
213.8033533890724
 20
196.4219379290397
 30
0.0
 10
214.0011413376439
 20
196.40941353863
 30
0.0
 10
214.1970960643744
 20
196.3950556883997
 30
0.0
  0
ARC
  5
AF
330
1F
100
AcDbEntity
  8
0
  6
Continuous
 62
     7
370
    15
100
AcDbCircle
 10
206.4761802166
 20
190.6570848708
 30
0.0
 40
9.619607613143902
100
AcDbArc
 50
0.0
 51
36.6187091966
  0
LINE
  5
B0
330
1F
100
AcDbEntity
  8
0
  6
Continuous
 62
     7
370
    15
100
AcDbLine
 10
373.4565754145
 20
200.2766953593
 30
0.0
 11
373.4565754145
 21
344.5374743824
 31
0.0
  0
LINE
  5
B1
330
1F
100
AcDbEntity
  8
0
  6
Continuous
 62
     7
370
    15
100
AcDbLine
 10
373.4565754145
 20
200.2766953593
 30
0.0
 11
374.0761805981
 21
199.6570827251
 31
0.0
  0
LINE
  5
B2
330
1F
100
AcDbEntity
  8
0
  6
Continuous
 62
     7
370
    15
100
AcDbLine
 10
216.0957907051
 20
190.6570868378
 30
0.0
 11
216.0957907051
 21
187.176689673
 31
0.0
  0
LINE
  5
B3
330
1F
100
AcDbEntity
  8
0
  6
Continuous
 62
     7
370
    15
100
AcDbLine
 10
202.9957850188
 20
344.5374743824
 30
0.0
 11
202.9957850188
 21
200.2766953593
 31
0.0
  0
LINE
  5
B4
330
1F
100
AcDbEntity
  8
0
  6
Continuous
 62
     7
370
    15
100
AcDbLine
 10
202.9957850188
 20
200.2766953593
 30
0.0
 11
202.3761798352
 21
199.6570827251
 31
0.0
  0
SPLINE
  5
B5
330
1F
100
AcDbEntity
  8
0
  6
Continuous
 62
     7
370
    15
100
AcDbSpline
210
0.0
220
0.0
230
1.0
 70
     8
 71
     3
 72
    11
 73
     7
 74
     0
 42
0.000000001
 43
0.00000001
 40
0.0000002000139896
 40
0.0000002000139896
 40
0.0000002000139896
 40
0.0000002000139896
 40
0.0178788833057404
 40
0.0178788833057404
 40
0.0178788833057404
 40
0.0690049021471707
 40
0.0690049021471707
 40
0.0690049021471707
 40
0.0690049021471707
 10
364.1907054376052
 20
197.5739304997823
 30
0.0
 10
364.1938351500158
 20
197.6443464886051
 30
0.0
 10
364.1972321031064
 20
197.7144952741176
 30
0.0
 10
364.2008840431175
 20
197.7843891075386
 30
0.0
 10
364.2113271584494
 20
197.9842580432803
 30
0.0
 10
364.223851548859
 20
198.1820459918519
 30
0.0
 10
364.2382093990893
 20
198.3780007185824
 30
0.0
  0
ARC
  5
B6
330
1F
100
AcDbEntity
  8
0
  6
Continuous
 62
     7
370
    15
100
AcDbCircle
 10
369.9761802166
 20
190.6570848708
 30
0.0
 40
9.619607613143891
100
AcDbArc
 50
90.0
 51
126.6187091966
  0
LINE
  5
B7
330
1F
100
AcDbEntity
  8
0
  6
Continuous
 62
     7
370
    15
100
AcDbLine
 10
369.9761782497
 20
200.2766953593
 30
0.0
 11
369.9761782497
 21
199.6570827251
 31
0.0
  0
LINE
  5
B8
330
1F
100
AcDbEntity
  8
0
  6
Continuous
 62
     7
370
    15
100
AcDbLine
 10
360.3565697282
 20
190.6570868378
 30
0.0
 11
360.9761823624
 21
190.6570868378
 31
0.0
  0
ARC
  5
B9
330
1F
100
AcDbEntity
  8
0
  6
Continuous
 62
     7
370
    15
100
AcDbCircle
 10
369.9761802166
 20
190.6570848708
 30
0.0
 40
9.619607613143899
100
AcDbArc
 50
143.3812908034
 51
180.0
  0
SPLINE
  5
BA
330
1F
100
AcDbEntity
  8
0
  6
Continuous
 62
     7
370
    15
100
AcDbSpline
210
0.0
220
0.0
230
1.0
 70
     8
 71
     3
 72
    11
 73
     7
 74
     0
 42
0.000000001
 43
0.00000001
 40
0.0000002000132931
 40
0.0000002000132931
 40
0.0000002000132931
 40
0.0000002000132931
 40
0.0190727794621035
 40
0.0190727794621035
 40
0.0190727794621035
 40
0.0690049021101202
 40
0.0690049021101202
 40
0.0690049021101202
 40
0.0690049021101202
 10
362.2552643689066
 20
196.3950556883997
 30
0.0
 10
362.3283653500308
 20
196.4004118895803
 30
0.0
 10
362.4017219669121
 20
196.405512421522
 30
0.0
 10
362.475346253719
 20
196.410345247664
 30
0.0
 10
362.6680950576384
 20
196.4229976141426
 30
0.0
 10
362.8626747055191
 20
196.4338188953444
 30
0.0
 10
363.0593345877068
 20
196.4425596498838
 30
0.0
  0
ARC
  5
BB
330
1F
100
AcDbEntity
  8
0
  6
Continuous
 62
     7
370
    15
100
AcDbCircle
 10
369.9761802166
 20
190.6570848708
 30
0.0
 40
9.017453735581496
100
AcDbArc
 50
129.9102078627
 51
140.0897921373
  0
LINE
  5
BC
330
1F
100
AcDbEntity
  8
0
  6
Continuous
 62
     7
370
    15
100
AcDbLine
 10
369.9761782497
 20
200.2766953593
 30
0.0
 11
373.4565754145
 21
200.2766953593
 31
0.0
  0
LINE
  5
BD
330
1F
100
AcDbEntity
  8
0
  6
Continuous
 62
     7
370
    15
100
AcDbLine
 10
360.3565697282
 20
187.176689673
 30
0.0
 11
360.3565697282
 21
190.6570868378
 31
0.0
  0
LINE
  5
BE
330
1F
100
AcDbEntity
  8
0
  6
Continuous
 62
     7
370
    15
100
AcDbLine
 10
202.9957850188
 20
200.2766953593
 30
0.0
 11
206.4761821836
 21
200.2766953593
 31
0.0
  0
LINE
  5
BF
330
1F
100
AcDbEntity
  8
0
  6
Continuous
 62
     7
370
    15
100
AcDbLine
 10
364.1907055586
 20
197.5739301925
 30
0.0
 11
362.7842892617
 21
198.9803464895
 31
0.0
  0
SPLINE
  5
C0
330
1F
100
AcDbEntity
  8
0
  6
Continuous
 62
     7
370
    15
100
AcDbSpline
210
0.0
220
0.0
230
1.0
 70
     8
 71
     3
 72
    11
 73
     7
 74
     0
 42
0.000000001
 43
0.00000001
 40
0.0040012715206372
 40
0.0040012715206372
 40
0.0040012715206372
 40
0.0040012715206372
 40
0.0230727946320661
 40
0.0230727946320661
 40
0.0230727946320661
 40
0.0730060616497417
 40
0.0730060616497417
 40
0.0730060616497417
 40
0.0730060616497417
 10
362.823822579332
 20
199.7923875383397
 30
0.0
 10
362.8193365922039
 20
199.7184208043841
 30
0.0
 10
362.8150728555355
 20
199.6442318498419
 30
0.0
 10
362.811040183998
 20
199.5698118618367
 30
0.0
 10
362.8004818000712
 20
199.3749646500311
 30
0.0
 10
362.7915051176319
 20
199.1785359505689
 30
0.0
 10
362.7842887003019
 20
198.9803472370856
 30
0.0
  0
LINE
  5
C1
330
1F
100
AcDbEntity
  8
0
  6
Continuous
 62
     7
370
    15
100
AcDbLine
 10
364.2382104605
 20
198.3780043011
 30
0.0
 11
362.8238220423
 21
199.7923852687
 31
0.0
  0
ARC
  5
C2
330
1F
100
AcDbEntity
  8
0
  6
Continuous
 62
     7
370
    15
100
AcDbCircle
 10
369.9761802166
 20
190.6570848708
 30
0.0
 40
11.00000000000001
100
AcDbArc
 50
130.8293520881
 51
139.1706479119
  0
LINE
  5
C3
330
1F
100
AcDbEntity
  8
0
  6
Continuous
 62
     7
370
    15
100
AcDbLine
 10
361.652918598
 20
197.8489758258
 30
0.0
 11
363.059334895
 21
196.4425595289
 31
0.0
  0
LINE
  5
C4
330
1F
100
AcDbEntity
  8
0
  6
Continuous
 62
     7
370
    15
100
AcDbLine
 10
362.7842892617
 20
345.8338232522
 30
0.0
 11
364.1907055586
 21
347.2402395492
 31
0.0
  0
ARC
  5
C5
330
1F
100
AcDbEntity
  8
0
  6
Continuous
 62
     7
370
    15
100
AcDbCircle
 10
369.9761802166
 20
354.1570848708
 30
0.0
 40
11.00000000000001
100
AcDbArc
 50
220.8293520881
 51
229.1706479119
  0
LINE
  5
C6
330
1F
100
AcDbEntity
  8
0
  6
Continuous
 62
     7
370
    15
100
AcDbLine
 10
363.059334895
 20
348.3716102128
 30
0.0
 11
361.652918598
 21
346.9651939159
 31
0.0
  0
ARC
  5
C7
330
1F
100
AcDbEntity
  8
0
  6
Continuous
 62
     7
370
    15
100
AcDbCircle
 10
206.4761802166
 20
354.1570848708
 30
0.0
 40
10.99999999999999
100
AcDbArc
 50
310.8293520881
 51
319.1706479119
  0
LINE
  5
C8
330
1F
100
AcDbEntity
  8
0
  6
Continuous
 62
     7
370
    15
100
AcDbLine
 10
212.2616548747
 20
347.2402395492
 30
0.0
 11
213.6680711716
 21
345.8338232522
 31
0.0
  0
LINE
  5
C9
330
1F
100
AcDbEntity
  8
0
  6
Continuous
 62
     7
370
    15
100
AcDbLine
 10
214.7994418353
 20
346.9651939159
 30
0.0
 11
213.3930255383
 21
348.3716102128
 31
0.0
  0
LINE
  5
CA
330
1F
100
AcDbEntity
  8
0
  6
Continuous
 62
     7
370
    15
100
AcDbLine
 10
215.6114806145
 20
347.0047266965
 30
0.0
 11
214.1970996469
 21
348.4191151147
 31
0.0
  0
SPLINE
  5
CB
330
1F
100
AcDbEntity
  8
0
  6
Continuous
 62
     7
370
    15
100
AcDbSpline
210
0.0
220
0.0
230
1.0
 70
     8
 71
     3
 72
    11
 73
     7
 74
     0
 42
0.000000001
 43
0.00000001
 40
0.0040012715206372
 40
0.0040012715206372
 40
0.0040012715206372
 40
0.0040012715206372
 40
0.0230727946320661
 40
0.0230727946320661
 40
0.0230727946320661
 40
0.0730060616497417
 40
0.0730060616497417
 40
0.0730060616497417
 40
0.0730060616497417
 10
215.6114828841317
 20
347.0047272335402
 30
0.0
 10
215.5375161501762
 20
347.000241246412
 30
0.0
 10
215.4633271956339
 20
346.9959775097436
 30
0.0
 10
215.3889072076288
 20
346.9919448382062
 30
0.0
 10
215.1940599958232
 20
346.9813864542794
 30
0.0
 10
214.9976312963609
 20
346.9724097718401
 30
0.0
 10
214.7994425828776
 20
346.9651933545101
 30
0.0
  0
LINE
  5
CC
330
1F
100
AcDbEntity
  8
0
  6
Continuous
 62
     7
370
    15
100
AcDbLine
 10
213.6680711716
 20
198.9803464895
 30
0.0
 11
212.2616548747
 21
197.5739301925
 31
0.0
  0
ARC
  5
CD
330
1F
100
AcDbEntity
  8
0
  6
Continuous
 62
     7
370
    15
100
AcDbCircle
 10
206.4761802166
 20
190.6570848708
 30
0.0
 40
10.99999999999999
100
AcDbArc
 50
40.8293520881
 51
49.1706479119
  0
LINE
  5
CE
330
1F
100
AcDbEntity
  8
0
  6
Continuous
 62
     7
370
    15
100
AcDbLine
 10
213.3930255383
 20
196.4425595289
 30
0.0
 11
214.7994418353
 21
197.8489758258
 31
0.0
  0
ARC
  5
CF
330
1F
100
AcDbEntity
  8
0
  6
Continuous
 62
     7
370
    15
100
AcDbCircle
 10
206.4761802166
 20
354.1570848708
 30
0.0
 40
11.60215387756238
100
AcDbArc
 50
308.0586719179
 51
321.9413280821
  0
SPLINE
  5
D0
330
1F
100
AcDbEntity
  8
0
  6
Continuous
 62
     7
370
    15
100
AcDbSpline
210
0.0
220
0.0
230
1.0
 70
     8
 71
     3
 72
    11
 73
     7
 74
     0
 42
0.000000001
 43
0.00000001
 40
0.0040012715206372
 40
0.0040012715206372
 40
0.0040012715206372
 40
0.0040012715206372
 40
0.0230727946320661
 40
0.0230727946320661
 40
0.0230727946320661
 40
0.0730060616497417
 40
0.0730060616497417
 40
0.0730060616497417
 40
0.0730060616497417
 10
213.628537853949
 20
345.0217822033575
 30
0.0
 10
213.6330238410772
 20
345.095748937313
 30
0.0
 10
213.6372875777456
 20
345.1699378918552
 30
0.0
 10
213.641320249283
 20
345.2443578798604
 30
0.0
 10
213.6518786332098
 20
345.4392050916661
 30
0.0
 10
213.6608553156491
 20
345.6356337911283
 30
0.0
 10
213.6680717329791
 20
345.8338225046116
 30
0.0
  0
SPLINE
  5
D1
330
1F
100
AcDbEntity
  8
0
  6
Continuous
 62
     7
370
    15
100
AcDbSpline
210
0.0
220
0.0
230
1.0
 70
     8
 71
     3
 72
    11
 73
     7
 74
     0
 42
0.000000001
 43
0.00000001
 40
0.0040012715206372
 40
0.0040012715206372
 40
0.0040012715206372
 40
0.0040012715206372
 40
0.0230727946320661
 40
0.0230727946320661
 40
0.0230727946320661
 40
0.0730060616497417
 40
0.0730060616497417
 40
0.0730060616497417
 40
0.0730060616497417
 10
360.8408775491494
 20
347.0047272335402
 30
0.0
 10
360.9148442831049
 20
347.000241246412
 30
0.0
 10
360.9890332376472
 20
346.9959775097436
 30
0.0
 10
361.0634532256523
 20
346.9919448382062
 30
0.0
 10
361.2583004374579
 20
346.9813864542794
 30
0.0
 10
361.4547291369201
 20
346.9724097718401
 30
0.0
 10
361.6529178504034
 20
346.9651933545101
 30
0.0
  0
LINE
  5
D2
330
1F
100
AcDbEntity
  8
0
  6
Continuous
 62
     7
370
    15
100
AcDbLine
 10
362.2552607864
 20
348.4191151147
 30
0.0
 11
360.8408798188
 21
347.0047266965
 31
0.0
  0
SPLINE
  5
D3
330
1F
100
AcDbEntity
  8
0
  6
Continuous
 62
     7
370
    15
100
AcDbSpline
210
0.0
220
0.0
230
1.0
 70
     8
 71
     3
 72
    11
 73
     7
 74
     0
 42
0.000000001
 43
0.00000001
 40
0.0040012715206372
 40
0.0040012715206372
 40
0.0040012715206372
 40
0.0040012715206372
 40
0.0230727946320661
 40
0.0230727946320661
 40
0.0230727946320661
 40
0.0730060616497417
 40
0.0730060616497417
 40
0.0730060616497417
 40
0.0730060616497417
 10
360.8408775491494
 20
197.809442508157
 30
0.0
 10
360.9148442831049
 20
197.8139284952851
 30
0.0
 10
360.9890332376472
 20
197.8181922319535
 30
0.0
 10
361.0634532256523
 20
197.8222249034909
 30
0.0
 10
361.2583004374579
 20
197.8327832874178
 30
0.0
 10
361.4547291369201
 20
197.8417599698571
 30
0.0
 10
361.6529178504034
 20
197.8489763871871
 30
0.0
  0
ARC
  5
D4
330
1F
100
AcDbEntity
  8
0
  6
Continuous
 62
     7
370
    15
100
AcDbCircle
 10
369.9761802166
 20
190.6570848708
 30
0.0
 40
11.60215387756233
100
AcDbArc
 50
128.0586719179
 51
141.9413280821
  0
LINE
  5
D5
330
1F
100
AcDbEntity
  8
0
  6
Continuous
 62
     7
370
    15
100
AcDbLine
 10
362.8238220423
 20
345.021784473
 30
0.0
 11
364.2382104605
 21
346.4361654406
 31
0.0
  0
SPLINE
  5
D6
330
1F
100
AcDbEntity
  8
0
  6
Continuous
 62
     7
370
    15
100
AcDbSpline
210
0.0
220
0.0
230
1.0
 70
     8
 71
     3
 72
    11
 73
     7
 74
     0
 42
0.000000001
 43
0.00000001
 40
0.0040012715206372
 40
0.0040012715206372
 40
0.0040012715206372
 40
0.0040012715206372
 40
0.0230727946320661
 40
0.0230727946320661
 40
0.0230727946320661
 40
0.0730060616497417
 40
0.0730060616497417
 40
0.0730060616497417
 40
0.0730060616497417
 10
362.823822579332
 20
345.0217822033575
 30
0.0
 10
362.8193365922039
 20
345.095748937313
 30
0.0
 10
362.8150728555355
 20
345.1699378918552
 30
0.0
 10
362.811040183998
 20
345.2443578798604
 30
0.0
 10
362.8004818000712
 20
345.4392050916661
 30
0.0
 10
362.7915051176319
 20
345.6356337911283
 30
0.0
 10
362.7842887003019
 20
345.8338225046116
 30
0.0
  0
LINE
  5
D7
330
1F
100
AcDbEntity
  8
0
  6
Continuous
 62
     7
370
    15
100
AcDbLine
 10
360.8408798188
 20
197.8094430452
 30
0.0
 11
362.2552607864
 21
196.395054627
 31
0.0
  0
LINE
  5
D8
330
1F
100
AcDbEntity
  8
0
  6
Continuous
 62
     7
370
    15
100
AcDbLine
 10
212.2141499728
 20
346.4361654406
 30
0.0
 11
213.628538391
 21
345.021784473
 31
0.0
  0
LINE
  5
D9
330
1F
100
AcDbEntity
  8
0
  6
Continuous
 62
     7
370
    15
100
AcDbLine
 10
213.628538391
 20
199.7923852687
 30
0.0
 11
212.2141499728
 21
198.3780043011
 31
0.0
  0
SPLINE
  5
DA
330
1F
100
AcDbEntity
  8
0
  6
Continuous
 62
     7
370
    15
100
AcDbSpline
210
0.0
220
0.0
230
1.0
 70
     8
 71
     3
 72
    11
 73
     7
 74
     0
 42
0.000000001
 43
0.00000001
 40
0.0040012715206372
 40
0.0040012715206372
 40
0.0040012715206372
 40
0.0040012715206372
 40
0.0230727946320661
 40
0.0230727946320661
 40
0.0230727946320661
 40
0.0730060616497417
 40
0.0730060616497417
 40
0.0730060616497417
 40
0.0730060616497417
 10
213.628537853949
 20
199.7923875383397
 30
0.0
 10
213.6330238410772
 20
199.7184208043841
 30
0.0
 10
213.6372875777456
 20
199.6442318498419
 30
0.0
 10
213.641320249283
 20
199.5698118618367
 30
0.0
 10
213.6518786332098
 20
199.3749646500311
 30
0.0
 10
213.6608553156491
 20
199.1785359505689
 30
0.0
 10
213.6680717329791
 20
198.9803472370856
 30
0.0
  0
ARC
  5
DB
330
1F
100
AcDbEntity
  8
0
  6
Continuous
 62
     7
370
    15
100
AcDbCircle
 10
206.4761802166
 20
190.6570848708
 30
0.0
 40
11.60215387756235
100
AcDbArc
 50
38.0586719179
 51
51.9413280821
  0
SPLINE
  5
DC
330
1F
100
AcDbEntity
  8
0
  6
Continuous
 62
     7
370
    15
100
AcDbSpline
210
0.0
220
0.0
230
1.0
 70
     8
 71
     3
 72
    11
 73
     7
 74
     0
 42
0.000000001
 43
0.00000001
 40
0.0040012715206372
 40
0.0040012715206372
 40
0.0040012715206372
 40
0.0040012715206372
 40
0.0230727946320661
 40
0.0230727946320661
 40
0.0230727946320661
 40
0.0730060616497417
 40
0.0730060616497417
 40
0.0730060616497417
 40
0.0730060616497417
 10
215.6114828841317
 20
197.809442508157
 30
0.0
 10
215.5375161501762
 20
197.8139284952851
 30
0.0
 10
215.4633271956339
 20
197.8181922319535
 30
0.0
 10
215.3889072076288
 20
197.8222249034909
 30
0.0
 10
215.1940599958232
 20
197.8327832874178
 30
0.0
 10
214.9976312963609
 20
197.8417599698571
 30
0.0
 10
214.7994425828776
 20
197.8489763871871
 30
0.0
  0
ARC
  5
DD
330
1F
100
AcDbEntity
  8
0
  6
Continuous
 62
     7
370
    15
100
AcDbCircle
 10
369.9761802166
 20
354.1570848708
 30
0.0
 40
11.60215387756237
100
AcDbArc
 50
218.0586719179
 51
231.9413280821
  0
LINE
  5
DE
330
1F
100
AcDbEntity
  8
0
  6
Continuous
 62
     7
370
    15
100
AcDbLine
 10
214.1970996469
 20
196.395054627
 30
0.0
 11
215.6114806145
 21
197.8094430452
 31
0.0
  0
CIRCLE
  5
DF
330
1F
100
AcDbEntity
  8
0
  6
Continuous
 62
     7
370
    15
100
AcDbCircle
 10
218.2261802166
 20
322.4070848708
 30
0.0
 40
4.0
  0
CIRCLE
  5
E0
330
1F
100
AcDbEntity
  8
0
  6
Continuous
 62
     7
370
    15
100
AcDbCircle
 10
218.2261802166
 20
322.4070848708
 30
0.0
 40
2.0
  0
CIRCLE
  5
E1
330
1F
100
AcDbEntity
  8
0
  6
Continuous
 62
     7
370
    15
100
AcDbCircle
 10
338.2261802166
 20
342.4070848708
 30
0.0
 40
4.0
  0
CIRCLE
  5
E2
330
1F
100
AcDbEntity
  8
0
  6
Continuous
 62
     7
370
    15
100
AcDbCircle
 10
338.2261802166
 20
342.4070848708
 30
0.0
 40
2.0
  0
CIRCLE
  5
E3
330
1F
100
AcDbEntity
  8
0
  6
Continuous
 62
     7
370
    15
100
AcDbCircle
 10
358.2261802166
 20
272.4070848708
 30
0.0
 40
4.0
  0
CIRCLE
  5
E4
330
1F
100
AcDbEntity
  8
0
  6
Continuous
 62
     7
370
    15
100
AcDbCircle
 10
358.2261802166
 20
272.4070848708
 30
0.0
 40
2.0
  0
CIRCLE
  5
E5
330
1F
100
AcDbEntity
  8
0
  6
Continuous
 62
     7
370
    15
100
AcDbCircle
 10
218.2261802166
 20
272.4070848708
 30
0.0
 40
2.0
  0
CIRCLE
  5
E6
330
1F
100
AcDbEntity
  8
0
  6
Continuous
 62
     7
370
    15
100
AcDbCircle
 10
218.2261802166
 20
272.4070848708
 30
0.0
 40
4.0
  0
CIRCLE
  5
E7
330
1F
100
AcDbEntity
  8
0
  6
Continuous
 62
     7
370
    15
100
AcDbCircle
 10
358.2261802166
 20
322.4070848708
 30
0.0
 40
2.0
  0
CIRCLE
  5
E8
330
1F
100
AcDbEntity
  8
0
  6
Continuous
 62
     7
370
    15
100
AcDbCircle
 10
358.2261802166
 20
322.4070848708
 30
0.0
 40
4.0
  0
CIRCLE
  5
E9
330
1F
100
AcDbEntity
  8
0
  6
Continuous
 62
     7
370
    15
100
AcDbCircle
 10
238.2261802166
 20
342.4070848708
 30
0.0
 40
2.0
  0
CIRCLE
  5
EA
330
1F
100
AcDbEntity
  8
0
  6
Continuous
 62
     7
370
    15
100
AcDbCircle
 10
238.2261802166
 20
342.4070848708
 30
0.0
 40
4.0
  0
CIRCLE
  5
EB
330
1F
100
AcDbEntity
  8
0
  6
Continuous
 62
     7
370
    15
100
AcDbCircle
 10
358.2261802166
 20
222.4070848708
 30
0.0
 40
2.0
  0
CIRCLE
  5
EC
330
1F
100
AcDbEntity
  8
0
  6
Continuous
 62
     7
370
    15
100
AcDbCircle
 10
358.2261802166
 20
222.4070848708
 30
0.0
 40
4.0
  0
CIRCLE
  5
ED
330
1F
100
AcDbEntity
  8
0
  6
Continuous
 62
     7
370
    15
100
AcDbCircle
 10
298.2261802166
 20
342.4070848708
 30
0.0
 40
1.249999999999943
  0
CIRCLE
  5
EE
330
1F
100
AcDbEntity
  8
0
  6
Continuous
 62
     7
370
    15
100
AcDbCircle
 10
218.2261802166
 20
222.4070848708
 30
0.0
 40
2.0
  0
CIRCLE
  5
EF
330
1F
100
AcDbEntity
  8
0
  6
Continuous
 62
     7
370
    15
100
AcDbCircle
 10
218.2261802166
 20
222.4070848708
 30
0.0
 40
4.0
  0
CIRCLE
  5
F0
330
1F
100
AcDbEntity
  8
0
  6
Continuous
 62
     7
370
    15
100
AcDbCircle
 10
238.2261802166
 20
202.4070848708
 30
0.0
 40
4.0
  0
CIRCLE
  5
F1
330
1F
100
AcDbEntity
  8
0
  6
Continuous
 62
     7
370
    15
100
AcDbCircle
 10
238.2261802166
 20
202.4070848708
 30
0.0
 40
2.0
  0
CIRCLE
  5
F2
330
1F
100
AcDbEntity
  8
0
  6
Continuous
 62
     7
370
    15
100
AcDbCircle
 10
288.2261802166
 20
202.4070848708
 30
0.0
 40
2.0
  0
CIRCLE
  5
F3
330
1F
100
AcDbEntity
  8
0
  6
Continuous
 62
     7
370
    15
100
AcDbCircle
 10
288.2261802166
 20
202.4070848708
 30
0.0
 40
4.0
  0
CIRCLE
  5
F4
330
1F
100
AcDbEntity
  8
0
  6
Continuous
 62
     7
370
    15
100
AcDbCircle
 10
358.2261802166
 20
262.4070848708
 30
0.0
 40
1.249999999999943
  0
CIRCLE
  5
F5
330
1F
100
AcDbEntity
  8
0
  6
Continuous
 62
     7
370
    15
100
AcDbCircle
 10
288.2261802166
 20
342.4070848708
 30
0.0
 40
4.0
  0
CIRCLE
  5
F6
330
1F
100
AcDbEntity
  8
0
  6
Continuous
 62
     7
370
    15
100
AcDbCircle
 10
288.2261802166
 20
342.4070848708
 30
0.0
 40
2.0
  0
CIRCLE
  5
F7
330
1F
100
AcDbEntity
  8
0
  6
Continuous
 62
     7
370
    15
100
AcDbCircle
 10
358.2261802166
 20
282.4070848708
 30
0.0
 40
1.25
  0
CIRCLE
  5
F8
330
1F
100
AcDbEntity
  8
0
  6
Continuous
 62
     7
370
    15
100
AcDbCircle
 10
298.2261802166
 20
202.4070848708
 30
0.0
 40
1.25
  0
CIRCLE
  5
F9
330
1F
100
AcDbEntity
  8
0
  6
Continuous
 62
     7
370
    15
100
AcDbCircle
 10
338.2261802166
 20
202.4070848708
 30
0.0
 40
2.0
  0
CIRCLE
  5
FA
330
1F
100
AcDbEntity
  8
0
  6
Continuous
 62
     7
370
    15
100
AcDbCircle
 10
338.2261802166
 20
202.4070848708
 30
0.0
 40
4.0
  0
CIRCLE
  5
FB
330
1F
100
AcDbEntity
  8
0
  6
Continuous
 62
     7
370
    15
100
AcDbCircle
 10
278.2261802166
 20
202.4070848708
 30
0.0
 40
1.25
  0
CIRCLE
  5
FC
330
1F
100
AcDbEntity
  8
0
  6
Continuous
 62
     7
370
    15
100
AcDbCircle
 10
218.2261802166
 20
262.4070848708
 30
0.0
 40
1.249999999999943
  0
CIRCLE
  5
FD
330
1F
100
AcDbEntity
  8
0
  6
Continuous
 62
     7
370
    15
100
AcDbCircle
 10
278.2261802166
 20
342.4070848708
 30
0.0
 40
1.249999999999943
  0
CIRCLE
  5
FE
330
1F
100
AcDbEntity
  8
0
  6
Continuous
 62
     7
370
    15
100
AcDbCircle
 10
218.2261802166
 20
282.4070848708
 30
0.0
 40
1.25
  0
CIRCLE
  5
FF
330
1F
100
AcDbEntity
  8
0
  6
Continuous
 62
     7
370
    15
100
AcDbCircle
 10
218.2261802166
 20
322.4070848708
 30
0.0
 40
1.599999999999966
  0
CIRCLE
  5
100
330
1F
100
AcDbEntity
  8
0
  6
Continuous
 62
     7
370
    15
100
AcDbCircle
 10
338.2261802166
 20
202.4070848708
 30
0.0
 40
1.599999999999966
  0
CIRCLE
  5
101
330
1F
100
AcDbEntity
  8
0
  6
Continuous
 62
     7
370
    15
100
AcDbCircle
 10
238.2261802166
 20
202.4070848708
 30
0.0
 40
1.599999999999994
  0
CIRCLE
  5
102
330
1F
100
AcDbEntity
  8
0
  6
Continuous
 62
     7
370
    15
100
AcDbCircle
 10
358.2261802166
 20
322.4070848708
 30
0.0
 40
1.599999999999966
  0
CIRCLE
  5
103
330
1F
100
AcDbEntity
  8
0
  6
Continuous
 62
     7
370
    15
100
AcDbCircle
 10
358.2261802166
 20
272.4070848708
 30
0.0
 40
1.599999999999966
  0
CIRCLE
  5
104
330
1F
100
AcDbEntity
  8
0
  6
Continuous
 62
     7
370
    15
100
AcDbCircle
 10
338.2261802166
 20
342.4070848708
 30
0.0
 40
1.599999999999966
  0
CIRCLE
  5
105
330
1F
100
AcDbEntity
  8
0
  6
Continuous
 62
     7
370
    15
100
AcDbCircle
 10
288.2261802166
 20
342.4070848708
 30
0.0
 40
1.599999999999966
  0
CIRCLE
  5
106
330
1F
100
AcDbEntity
  8
0
  6
Continuous
 62
     7
370
    15
100
AcDbCircle
 10
218.2261802166
 20
272.4070848708
 30
0.0
 40
1.599999999999966
  0
CIRCLE
  5
107
330
1F
100
AcDbEntity
  8
0
  6
Continuous
 62
     7
370
    15
100
AcDbCircle
 10
218.2261802166
 20
222.4070848708
 30
0.0
 40
1.600000000000023
  0
CIRCLE
  5
108
330
1F
100
AcDbEntity
  8
0
  6
Continuous
 62
     7
370
    15
100
AcDbCircle
 10
358.2261802166
 20
222.4070848708
 30
0.0
 40
1.600000000000023
  0
CIRCLE
  5
109
330
1F
100
AcDbEntity
  8
0
  6
Continuous
 62
     7
370
    15
100
AcDbCircle
 10
288.2261802166
 20
202.4070848708
 30
0.0
 40
1.599999999999966
  0
CIRCLE
  5
10A
330
1F
100
AcDbEntity
  8
0
  6
Continuous
 62
     7
370
    15
100
AcDbCircle
 10
238.2261802166
 20
342.4070848708
 30
0.0
 40
1.599999999999966
  0
CIRCLE
  5
10B
330
1F
100
AcDbEntity
  8
0
  6
Continuous
 62
     7
370
    15
100
AcDbCircle
 10
369.9761802166
 20
354.1570848708
 30
0.0
 40
2.250000000000057
  0
CIRCLE
  5
10C
330
1F
100
AcDbEntity
  8
0
  6
Continuous
 62
     7
370
    15
100
AcDbCircle
 10
206.4761802166
 20
190.6570848708
 30
0.0
 40
2.250000000000028
  0
CIRCLE
  5
10D
330
1F
100
AcDbEntity
  8
0
  6
Continuous
 62
     7
370
    15
100
AcDbCircle
 10
369.9761802166
 20
190.6570848708
 30
0.0
 40
2.250000000000028
  0
CIRCLE
  5
10E
330
1F
100
AcDbEntity
  8
0
  6
Continuous
 62
     7
370
    15
100
AcDbCircle
 10
206.4761802166
 20
354.1570848708
 30
0.0
 40
2.250000000000057
  0
LINE
  5
10F
330
1F
100
AcDbEntity
  8
0
  6
Continuous
 62
     7
370
    15
100
AcDbLine
 10
263.5913588762
 20
317.2304184919
 30
0.0
 11
266.0913583547
 21
317.2304184919
 31
0.0
  0
LINE
  5
110
330
1F
100
AcDbEntity
  8
0
  6
Continuous
 62
     7
370
    15
100
AcDbLine
 10
263.5913588762
 20
327.230420131
 30
0.0
 11
263.5913588762
 21
317.2304184919
 31
0.0
  0
LINE
  5
111
330
1F
100
AcDbEntity
  8
0
  6
Continuous
 62
     7
370
    15
100
AcDbLine
 10
274.3056439519
 20
327.230420131
 30
0.0
 11
263.5913588762
 21
327.230420131
 31
0.0
  0
LINE
  5
112
330
1F
100
AcDbEntity
  8
0
  6
Continuous
 62
     7
370
    15
100
AcDbLine
 10
274.3056439519
 20
325.4447059517
 30
0.0
 11
274.3056439519
 21
327.230420131
 31
0.0
  0
LINE
  5
113
330
1F
100
AcDbEntity
  8
0
  6
Continuous
 62
     7
370
    15
100
AcDbLine
 10
266.0913583547
 20
325.4447059517
 30
0.0
 11
274.3056439519
 21
325.4447059517
 31
0.0
  0
LINE
  5
114
330
1F
100
AcDbEntity
  8
0
  6
Continuous
 62
     7
370
    15
100
AcDbLine
 10
266.0913583547
 20
323.1232764011
 30
0.0
 11
266.0913583547
 21
325.4447059517
 31
0.0
  0
LINE
  5
115
330
1F
100
AcDbEntity
  8
0
  6
Continuous
 62
     7
370
    15
100
AcDbLine
 10
273.2342160031
 20
323.1232764011
 30
0.0
 11
266.0913583547
 21
323.1232764011
 31
0.0
  0
LINE
  5
116
330
1F
100
AcDbEntity
  8
0
  6
Continuous
 62
     7
370
    15
100
AcDbLine
 10
273.2342160031
 20
321.3375622218
 30
0.0
 11
273.2342160031
 21
323.1232764011
 31
0.0
  0
LINE
  5
117
330
1F
100
AcDbEntity
  8
0
  6
Continuous
 62
     7
370
    15
100
AcDbLine
 10
266.0913583547
 20
321.3375622218
 30
0.0
 11
273.2342160031
 21
321.3375622218
 31
0.0
  0
LINE
  5
118
330
1F
100
AcDbEntity
  8
0
  6
Continuous
 62
     7
370
    15
100
AcDbLine
 10
266.0913583547
 20
317.2304184919
 30
0.0
 11
266.0913583547
 21
321.3375622218
 31
0.0
  0
LINE
  5
119
330
1F
100
AcDbEntity
  8
0
  6
Continuous
 62
     7
370
    15
100
AcDbLine
 10
310.9127864897
 20
320.2468232994
 30
0.0
 11
313.7266807913
 21
317.2304184919
 31
0.0
  0
LINE
  5
11A
330
1F
100
AcDbEntity
  8
0
  6
Continuous
 62
     7
370
    15
100
AcDbLine
 10
305.0556448012
 20
317.2304184919
 30
0.0
 11
308.0988940507
 21
317.2304184919
 31
0.0
  0
LINE
  5
11B
330
1F
100
AcDbEntity
  8
0
  6
Continuous
 62
     7
370
    15
100
AcDbLine
 10
305.0556448012
 20
327.230420131
 30
0.0
 11
309.391161865
 21
322.2304211741
 31
0.0
  0
LINE
  5
11C
330
1F
100
AcDbEntity
  8
0
  6
Continuous
 62
     7
370
    15
100
AcDbLine
 10
310.9127864897
 20
324.2140153234
 30
0.0
 11
308.0988940507
 21
327.230420131
 31
0.0
  0
LINE
  5
11D
330
1F
100
AcDbEntity
  8
0
  6
Continuous
 62
     7
370
    15
100
AcDbLine
 10
316.7699300408
 20
327.230420131
 30
0.0
 11
313.7266807913
 21
327.230420131
 31
0.0
  0
LINE
  5
11E
330
1F
100
AcDbEntity
  8
0
  6
Continuous
 62
     7
370
    15
100
AcDbLine
 10
308.0988940507
 20
317.2304184919
 30
0.0
 11
310.9127864897
 21
320.2468232994
 31
0.0
  0
LINE
  5
11F
330
1F
100
AcDbEntity
  8
0
  6
Continuous
 62
     7
370
    15
100
AcDbLine
 10
313.7266807913
 20
317.2304184919
 30
0.0
 11
316.7699300408
 21
317.2304184919
 31
0.0
  0
LINE
  5
120
330
1F
100
AcDbEntity
  8
0
  6
Continuous
 62
     7
370
    15
100
AcDbLine
 10
309.391161865
 20
322.2304211741
 30
0.0
 11
305.0556448012
 21
317.2304184919
 31
0.0
  0
LINE
  5
121
330
1F
100
AcDbEntity
  8
0
  6
Continuous
 62
     7
370
    15
100
AcDbLine
 10
308.0988940507
 20
327.230420131
 30
0.0
 11
305.0556448012
 21
327.230420131
 31
0.0
  0
LINE
  5
122
330
1F
100
AcDbEntity
  8
0
  6
Continuous
 62
     7
370
    15
100
AcDbLine
 10
313.7266807913
 20
327.230420131
 30
0.0
 11
310.9127864897
 21
324.2140153234
 31
0.0
  0
LINE
  5
123
330
1F
100
AcDbEntity
  8
0
  6
Continuous
 62
     7
370
    15
100
AcDbLine
 10
316.7699300408
 20
317.2304184919
 30
0.0
 11
312.4344111144
 21
322.2304211741
 31
0.0
  0
LINE
  5
124
330
1F
100
AcDbEntity
  8
0
  6
Continuous
 62
     7
370
    15
100
AcDbLine
 10
312.4344111144
 20
322.2304211741
 30
0.0
 11
316.7699300408
 21
327.230420131
 31
0.0
  0
ARC
  5
125
330
1F
100
AcDbEntity
  8
0
  6
Continuous
 62
     7
370
    15
100
AcDbCircle
 10
297.2599438765
 20
320.176848075
 30
0.0
 40
1.067128965566042
100
AcDbArc
 50
180.0
 51
270.0
  0
LINE
  5
126
330
1F
100
AcDbEntity
  8
0
  6
Continuous
 62
     7
370
    15
100
AcDbLine
 10
297.2599439978
 20
319.109719414
 30
0.0
 11
301.7656304598
 21
319.109719414
 31
0.0
  0
ARC
  5
127
330
1F
100
AcDbEntity
  8
0
  6
Continuous
 62
     7
370
    15
100
AcDbCircle
 10
297.2599438765
 20
324.2839909321
 30
0.0
 40
1.067128965566042
100
AcDbArc
 50
90.0
 51
180.0
  0
LINE
  5
128
330
1F
100
AcDbEntity
  8
0
  6
Continuous
 62
     7
370
    15
100
AcDbLine
 10
296.1928150341
 20
324.2839911764
 30
0.0
 11
296.1928150341
 21
320.1768474465
 31
0.0
  0
LINE
  5
129
330
1F
100
AcDbEntity
  8
0
  6
Continuous
 62
     7
370
    15
100
AcDbLine
 10
294.0056444801
 20
324.373275209
 30
0.0
 11
294.0056444801
 21
320.0875634139
 31
0.0
  0
ARC
  5
12A
330
1F
100
AcDbEntity
  8
0
  6
Continuous
 62
     7
370
    15
100
AcDbCircle
 10
296.8627871278
 20
324.3732766464
 30
0.0
 40
2.857142857142833
100
AcDbArc
 50
90.0
 51
180.0
  0
LINE
  5
12B
330
1F
100
AcDbEntity
  8
0
  6
Continuous
 62
     7
370
    15
100
AcDbLine
 10
302.1627873838
 20
327.230420131
 30
0.0
 11
296.8627870738
 21
327.230420131
 31
0.0
  0
ARC
  5
12C
330
1F
100
AcDbEntity
  8
0
  6
Continuous
 62
     7
370
    15
100
AcDbCircle
 10
302.1627871278
 20
324.3732766464
 30
0.0
 40
2.85714285714289
100
AcDbArc
 50
0.0
 51
90.0
  0
LINE
  5
12D
330
1F
100
AcDbEntity
  8
0
  6
Continuous
 62
     7
370
    15
100
AcDbLine
 10
305.0199304431
 20
320.0875634139
 30
0.0
 11
305.0199304431
 21
324.373275209
 31
0.0
  0
ARC
  5
12E
330
1F
100
AcDbEntity
  8
0
  6
Continuous
 62
     7
370
    15
100
AcDbCircle
 10
302.1627871278
 20
320.0875623607
 30
0.0
 40
2.857142857142946
100
AcDbArc
 50
270.0
 51
0.0
  0
LINE
  5
12F
330
1F
100
AcDbEntity
  8
0
  6
Continuous
 62
     7
370
    15
100
AcDbLine
 10
296.8627870738
 20
317.2304184919
 30
0.0
 11
302.1627873838
 21
317.2304184919
 31
0.0
  0
ARC
  5
130
330
1F
100
AcDbEntity
  8
0
  6
Continuous
 62
     7
370
    15
100
AcDbCircle
 10
296.8627871278
 20
320.0875623607
 30
0.0
 40
2.85714285714289
100
AcDbArc
 50
180.0
 51
270.0
  0
ARC
  5
131
330
1F
100
AcDbEntity
  8
0
  6
Continuous
 62
     7
370
    15
100
AcDbCircle
 10
301.7656303791
 20
324.2839909321
 30
0.0
 40
1.067128965566042
100
AcDbArc
 50
0.0
 51
90.0
  0
LINE
  5
132
330
1F
100
AcDbEntity
  8
0
  6
Continuous
 62
     7
370
    15
100
AcDbLine
 10
302.8327594235
 20
320.1768474465
 30
0.0
 11
302.8327594235
 21
324.2839911764
 31
0.0
  0
ARC
  5
133
330
1F
100
AcDbEntity
  8
0
  6
Continuous
 62
     7
370
    15
100
AcDbCircle
 10
301.7656303791
 20
320.176848075
 30
0.0
 40
1.067128965565985
100
AcDbArc
 50
270.0
 51
0.0
  0
LINE
  5
134
330
1F
100
AcDbEntity
  8
0
  6
Continuous
 62
     7
370
    15
100
AcDbLine
 10
301.7656304598
 20
325.3511192088
 30
0.0
 11
297.2599439978
 21
325.3511192088
 31
0.0
  0
LINE
  5
135
330
1F
100
AcDbEntity
  8
0
  6
Continuous
 62
     7
370
    15
100
AcDbLine
 10
276.0913581311
 20
317.2304184919
 30
0.0
 11
278.5913585409
 21
317.2304184919
 31
0.0
  0
LINE
  5
136
330
1F
100
AcDbEntity
  8
0
  6
Continuous
 62
     7
370
    15
100
AcDbLine
 10
276.0913581311
 20
327.230420131
 30
0.0
 11
276.0913581311
 21
317.2304184919
 31
0.0
  0
LINE
  5
137
330
1F
100
AcDbEntity
  8
0
  6
Continuous
 62
     7
370
    15
100
AcDbLine
 10
278.5913585409
 20
327.230420131
 30
0.0
 11
276.0913581311
 21
327.230420131
 31
0.0
  0
LINE
  5
138
330
1F
100
AcDbEntity
  8
0
  6
Continuous
 62
     7
370
    15
100
AcDbLine
 10
278.5913585409
 20
317.2304184919
 30
0.0
 11
278.5913585409
 21
327.230420131
 31
0.0
  0
LINE
  5
139
330
1F
100
AcDbEntity
  8
0
  6
Continuous
 62
     7
370
    15
100
AcDbLine
 10
282.8770726643
 20
321.3375622218
 30
0.0
 11
282.8770726643
 21
319.0161326712
 31
0.0
  0
LINE
  5
13A
330
1F
100
AcDbEntity
  8
0
  6
Continuous
 62
     7
370
    15
100
AcDbLine
 10
282.8770726643
 20
319.0161326712
 30
0.0
 11
288.5913585502
 21
319.0161326712
 31
0.0
  0
ARC
  5
13B
330
1F
100
AcDbEntity
  8
0
  6
Continuous
 62
     7
370
    15
100
AcDbCircle
 10
288.5913585564
 20
320.176848075
 30
0.0
 40
1.160714285714278
100
AcDbArc
 50
270.0
 51
90.0
  0
LINE
  5
13C
330
1F
100
AcDbEntity
  8
0
  6
Continuous
 62
     7
370
    15
100
AcDbLine
 10
288.5913585502
 20
321.3375622218
 30
0.0
 11
282.8770726643
 21
321.3375622218
 31
0.0
  0
ARC
  5
13D
330
1F
100
AcDbEntity
  8
0
  6
Continuous
 62
     7
370
    15
100
AcDbCircle
 10
289.6627871278
 20
320.0875623607
 30
0.0
 40
2.85714285714296
100
AcDbArc
 50
270.0
 51
48.5903778907
  0
LINE
  5
13E
330
1F
100
AcDbEntity
  8
0
  6
Continuous
 62
     7
370
    15
100
AcDbLine
 10
280.3770727202
 20
327.230420131
 30
0.0
 11
280.3770727202
 21
317.2304184919
 31
0.0
  0
LINE
  5
13F
330
1F
100
AcDbEntity
  8
0
  6
Continuous
 62
     7
370
    15
100
AcDbLine
 10
289.6627870811
 20
327.230420131
 30
0.0
 11
280.3770727202
 21
327.230420131
 31
0.0
  0
ARC
  5
140
330
1F
100
AcDbEntity
  8
0
  6
Continuous
 62
     7
370
    15
100
AcDbCircle
 10
289.6627871278
 20
324.3732766464
 30
0.0
 40
2.857142857142875
100
AcDbArc
 50
311.4096221093
 51
90.0
  0
LINE
  5
141
330
1F
100
AcDbEntity
  8
0
  6
Continuous
 62
     7
370
    15
100
AcDbLine
 10
282.8770726643
 20
325.4447059517
 30
0.0
 11
282.8770726643
 21
323.1232764011
 31
0.0
  0
ARC
  5
142
330
1F
100
AcDbEntity
  8
0
  6
Continuous
 62
     7
370
    15
100
AcDbCircle
 10
288.5913585564
 20
324.2839909321
 30
0.0
 40
1.160714285714334
100
AcDbArc
 50
270.0
 51
90.0
  0
LINE
  5
143
330
1F
100
AcDbEntity
  8
0
  6
Continuous
 62
     7
370
    15
100
AcDbLine
 10
280.3770727202
 20
317.2304184919
 30
0.0
 11
289.6627870811
 21
317.2304184919
 31
0.0
  0
LINE
  5
144
330
1F
100
AcDbEntity
  8
0
  6
Continuous
 62
     7
370
    15
100
AcDbLine
 10
282.8770726643
 20
323.1232764011
 30
0.0
 11
288.5913585502
 21
323.1232764011
 31
0.0
  0
LINE
  5
145
330
1F
100
AcDbEntity
  8
0
  6
Continuous
 62
     7
370
    15
100
AcDbLine
 10
288.5913585502
 20
325.4447059517
 30
0.0
 11
282.8770726643
 21
325.4447059517
 31
0.0
  0
LINE
  5
146
330
1F
100
AcDbEntity
  8
0
  6
Continuous
 62
     7
370
    15
100
AcDbLine
 10
74.5410268038
 20
300.1570852285
 30
0.0
 11
74.5392815053
 21
300.1570852285
 31
0.0
  0
LINE
  5
147
330
1F
100
AcDbEntity
  8
0
  6
Continuous
 62
     7
370
    15
100
AcDbLine
 10
74.5392815053
 20
279.6570846622
 30
0.0
 11
74.5410268038
 21
279.6570846622
 31
0.0
  0
LINE
  5
148
330
1F
100
AcDbEntity
  8
0
  6
Continuous
 62
     7
370
    15
100
AcDbLine
 10
74.5410268038
 20
335.1570816522
 30
0.0
 11
74.5392815053
 21
335.1570816522
 31
0.0
  0
LINE
  5
149
330
1F
100
AcDbEntity
  8
0
  6
Continuous
 62
     7
370
    15
100
AcDbLine
 10
74.5392815053
 20
314.6570848112
 30
0.0
 11
74.5410268038
 21
314.6570848112
 31
0.0
  0
LINE
  5
14A
330
1F
100
AcDbEntity
  8
0
  6
Continuous
 62
     7
370
    15
100
AcDbLine
 10
74.5410268038
 20
230.1570849305
 30
0.0
 11
74.5392815053
 21
230.1570849305
 31
0.0
  0
LINE
  5
14B
330
1F
100
AcDbEntity
  8
0
  6
Continuous
 62
     7
370
    15
100
AcDbLine
 10
74.5392815053
 20
209.6570880895
 30
0.0
 11
74.5410268038
 21
209.6570880895
 31
0.0
  0
LINE
  5
14C
330
1F
100
AcDbEntity
  8
0
  6
Continuous
 62
     7
370
    15
100
AcDbLine
 10
74.5410268038
 20
265.1570850795
 30
0.0
 11
74.5392815053
 21
265.1570850795
 31
0.0
  0
LINE
  5
14D
330
1F
100
AcDbEntity
  8
0
  6
Continuous
 62
     7
370
    15
100
AcDbLine
 10
74.5392815053
 20
244.6570845132
 30
0.0
 11
74.5410268038
 21
244.6570845132
 31
0.0
  0
LINE
  5
14E
330
1F
100
AcDbEntity
  8
0
  6
Continuous
 62
     7
370
    15
100
AcDbLine
 10
105.5398472428
 20
318.9070859735
 30
0.0
 11
105.5381000817
 21
318.9070859735
 31
0.0
  0
LINE
  5
14F
330
1F
100
AcDbEntity
  8
0
  6
Continuous
 62
     7
370
    15
100
AcDbLine
 10
105.5398472428
 20
250.9070841407
 30
0.0
 11
105.5381000817
 21
250.9070841407
 31
0.0
  0
LINE
  5
150
330
1F
100
AcDbEntity
  8
0
  6
Continuous
 62
     7
370
    15
100
AcDbLine
 10
105.5398472428
 20
282.657085154
 30
0.0
 11
105.5381000817
 21
282.657085154
 31
0.0
  0
LINE
  5
151
330
1F
100
AcDbEntity
  8
0
  6
Continuous
 62
     7
370
    15
100
AcDbLine
 10
115.539465177
 20
218.4070834701
 30
0.0
 11
115.5377217412
 21
218.4070834701
 31
0.0
  0
LINE
  5
152
330
1F
100
AcDbEntity
  8
0
  6
Continuous
 62
     7
370
    15
100
AcDbLine
 10
115.539465177
 20
338.4070845132
 30
0.0
 11
115.5377217412
 21
338.4070845132
 31
0.0
  0
ARC
  5
153
330
1F
100
AcDbEntity
  8
0
  6
Continuous
 62
     7
370
    15
100
AcDbCircle
 10
60.5417890727
 20
194.8744624497
 30
0.0
 40
2.000000000000068
100
AcDbArc
 50
90.5
 51
180.0
  0
LINE
  5
154
330
1F
100
AcDbEntity
  8
0
  6
Continuous
 62
     7
370
    15
100
AcDbLine
 10
58.5417892627
 20
194.8744656329
 30
0.0
 11
58.5417892627
 21
185.8570875411
 31
0.0
  0
LINE
  5
155
330
1F
100
AcDbEntity
  8
0
  6
Continuous
 62
     7
370
    15
100
AcDbLine
 10
58.5417892627
 20
185.8570875411
 30
0.0
 11
54.5417890727
 21
185.8570875411
 31
0.0
  0
LINE
  5
156
330
1F
100
AcDbEntity
  8
0
  6
Continuous
 62
     7
370
    15
100
AcDbLine
 10
54.5417890727
 20
185.8570875411
 30
0.0
 11
54.5417890727
 21
358.9570822006
 31
0.0
  0
LINE
  5
157
330
1F
100
AcDbEntity
  8
0
  6
Continuous
 62
     7
370
    15
100
AcDbLine
 10
58.5417892627
 20
358.9570822006
 30
0.0
 11
54.5417890727
 21
358.9570822006
 31
0.0
  0
LINE
  5
158
330
1F
100
AcDbEntity
  8
0
  6
Continuous
 62
     7
370
    15
100
AcDbLine
 10
58.5417892627
 20
358.9570822006
 30
0.0
 11
58.5417892627
 21
349.9397041087
 31
0.0
  0
ARC
  5
159
330
1F
100
AcDbEntity
  8
0
  6
Continuous
 62
     7
370
    15
100
AcDbCircle
 10
60.5417890727
 20
349.939707292
 30
0.0
 40
2.000000000000011
100
AcDbArc
 50
180.0
 51
269.5
  0
LINE
  5
15A
330
1F
100
AcDbEntity
  8
0
  6
Continuous
 62
     7
370
    15
100
AcDbLine
 10
60.5243361398
 20
347.939782012
 30
0.0
 11
128.5417900264
 21
347.3462017064
 31
0.0
  0
LINE
  5
15B
330
1F
100
AcDbEntity
  8
0
  6
Continuous
 62
     7
370
    15
100
AcDbLine
 10
128.5417900264
 20
197.4679680353
 30
0.0
 11
128.5417900264
 21
347.3462017064
 31
0.0
  0
LINE
  5
15C
330
1F
100
AcDbEntity
  8
0
  6
Continuous
 62
     7
370
    15
100
AcDbLine
 10
128.5417900264
 20
197.4679680353
 30
0.0
 11
60.5243361398
 21
196.8743877297
 31
0.0
  0
CIRCLE
  5
15D
330
1F
100
AcDbEntity
  8
0
  6
Continuous
 62
     7
370
    15
100
AcDbCircle
 10
74.5413076404
 20
219.9071263388
 30
0.0
 40
10.24988996425303
  0
CIRCLE
  5
15E
330
1F
100
AcDbEntity
  8
0
  6
Continuous
 62
     7
370
    15
100
AcDbCircle
 10
74.5413075146
 20
254.9071246356
 30
0.0
 40
10.24988983847762
  0
CIRCLE
  5
15F
330
1F
100
AcDbEntity
  8
0
  6
Continuous
 62
     7
370
    15
100
AcDbCircle
 10
105.5401748534
 20
238.4071396721
 30
0.0
 40
12.49985002855155
  0
CIRCLE
  5
160
330
1F
100
AcDbEntity
  8
0
  6
Continuous
 62
     7
370
    15
100
AcDbCircle
 10
105.5401259792
 20
272.4071247194
 30
0.0
 40
10.24988972678298
  0
CIRCLE
  5
161
330
1F
100
AcDbEntity
  8
0
  6
Continuous
 62
     7
370
    15
100
AcDbCircle
 10
115.5396250057
 20
212.4071141907
 30
0.0
 40
5.999929844199336
  0
CIRCLE
  5
162
330
1F
100
AcDbEntity
  8
0
  6
Continuous
 62
     7
370
    15
100
AcDbCircle
 10
105.5395202539
 20
306.4070300241
 30
0.0
 40
12.49984940683625
  0
CIRCLE
  5
163
330
1F
100
AcDbEntity
  8
0
  6
Continuous
 62
     7
370
    15
100
AcDbCircle
 10
115.539305827
 20
332.4070554989
 30
0.0
 40
5.999929365626167
  0
CIRCLE
  5
164
330
1F
100
AcDbEntity
  8
0
  6
Continuous
 62
     7
370
    15
100
AcDbCircle
 10
74.5407479557
 20
289.9070451061
 30
0.0
 40
10.24988983847762
  0
CIRCLE
  5
165
330
1F
100
AcDbEntity
  8
0
  6
Continuous
 62
     7
370
    15
100
AcDbCircle
 10
74.5407478299
 20
324.9070434029
 30
0.0
 40
10.24988996425303
  0
LINE
  5
166
330
1F
100
AcDbEntity
  8
0
  6
Continuous
 62
     7
370
    15
100
AcDbLine
 10
58.5417892627
 20
182.3919938689
 30
0.0
 11
54.5417890727
 21
182.3570878988
 31
0.0
  0
LINE
  5
167
330
1F
100
AcDbEntity
  8
0
  6
Continuous
 62
     7
370
    15
100
AcDbLine
 10
54.5417890727
 20
182.3570878988
 30
0.0
 11
54.5417890727
 21
185.8570875411
 31
0.0
  0
LINE
  5
168
330
1F
100
AcDbEntity
  8
0
  6
Continuous
 62
     7
370
    15
100
AcDbLine
 10
58.5417892627
 20
185.8570875411
 30
0.0
 11
58.5417892627
 21
182.3919938689
 31
0.0
  0
LINE
  5
169
330
1F
100
AcDbEntity
  8
0
  6
Continuous
 62
     7
370
    15
100
AcDbLine
 10
54.5417890727
 20
358.9570822006
 30
0.0
 11
54.5417890727
 21
362.4570818429
 31
0.0
  0
LINE
  5
16A
330
1F
100
AcDbEntity
  8
0
  6
Continuous
 62
     7
370
    15
100
AcDbLine
 10
58.5417892627
 20
362.4221758728
 30
0.0
 11
54.5417890727
 21
362.4570818429
 31
0.0
  0
LINE
  5
16B
330
1F
100
AcDbEntity
  8
0
  6
Continuous
 62
     7
370
    15
100
AcDbLine
 10
58.5417892627
 20
362.4221758728
 30
0.0
 11
58.5417892627
 21
358.9570822006
 31
0.0
  0
ARC
  5
16C
330
1F
100
AcDbEntity
  8
0
  6
Continuous
 62
     7
370
    15
100
AcDbCircle
 10
74.5390959784
 20
289.9072887109
 30
0.0
 40
10.2497965192385
100
AcDbArc
 50
359.9988609621
 51
89.998962915
  0
ARC
  5
16D
330
1F
100
AcDbEntity
  8
0
  6
Continuous
 62
     7
370
    15
100
AcDbCircle
 10
74.5390956508
 20
289.9068815074
 30
0.0
 40
10.24979684684378
100
AcDbArc
 50
270.0010389163
 51
0.0011372066
  0
ARC
  5
16E
330
1F
100
AcDbEntity
  8
0
  6
Continuous
 62
     7
370
    15
100
AcDbCircle
 10
74.5391052829
 20
324.9072944388
 30
0.0
 40
10.24978721487465
100
AcDbArc
 50
359.9988193632
 51
89.9990149258
  0
ARC
  5
16F
330
1F
100
AcDbEntity
  8
0
  6
Continuous
 62
     7
370
    15
100
AcDbCircle
 10
74.5390959784
 20
324.9068813287
 30
0.0
 40
10.24979651918055
100
AcDbArc
 50
270.0010370849
 51
0.0011286261
  0
ARC
  5
170
330
1F
100
AcDbEntity
  8
0
  6
Continuous
 62
     7
370
    15
100
AcDbCircle
 10
74.5389778377
 20
219.90708651
 30
0.0
 40
10.24999842497516
100
AcDbArc
 50
270.0016974512
 51
89.9983025488
  0
ARC
  5
171
330
1F
100
AcDbEntity
  8
0
  6
Continuous
 62
     7
370
    15
100
AcDbCircle
 10
74.5389753833
 20
254.9070847963
 30
0.0
 40
10.25000028769334
100
AcDbArc
 50
270.0017111707
 51
89.9982888293
  0
ARC
  5
172
330
1F
100
AcDbEntity
  8
0
  6
Continuous
 62
     7
370
    15
100
AcDbCircle
 10
105.5378886864
 20
306.4073484343
 30
0.0
 40
12.49973754105059
100
AcDbArc
 50
359.9988003585
 51
89.9990310153
  0
ARC
  5
173
330
1F
100
AcDbEntity
  8
0
  6
Continuous
 62
     7
370
    15
100
AcDbCircle
 10
105.5378450781
 20
306.406866747
 30
0.0
 40
12.49978114861584
100
AcDbArc
 50
270.0011688709
 51
0.0010082931
  0
ARC
  5
174
330
1F
100
AcDbEntity
  8
0
  6
Continuous
 62
     7
370
    15
100
AcDbCircle
 10
105.5377402537
 20
238.4070839544
 30
0.0
 40
12.50000019144356
100
AcDbArc
 50
270.0016493297
 51
89.9983506703
  0
ARC
  5
175
330
1F
100
AcDbEntity
  8
0
  6
Continuous
 62
     7
370
    15
100
AcDbCircle
 10
105.5377948642
 20
272.4070848708
 30
0.0
 40
10.2500002876664
100
AcDbArc
 50
270.0017061143
 51
89.9982938857
  0
ARC
  5
176
330
1F
100
AcDbEntity
  8
0
  6
Continuous
 62
     7
370
    15
100
AcDbCircle
 10
115.5375495154
 20
212.4070843493
 30
0.0
 40
5.999999123303298
100
AcDbArc
 50
270.0016446348
 51
89.9983553652
  0
ARC
  5
177
330
1F
100
AcDbEntity
  8
0
  6
Continuous
 62
     7
370
    15
100
AcDbCircle
 10
115.5376263842
 20
332.40721914
 30
0.0
 40
5.999865373941344
100
AcDbArc
 50
359.998704988
 51
89.999089388
  0
ARC
  5
178
330
1F
100
AcDbEntity
  8
0
  6
Continuous
 62
     7
370
    15
100
AcDbCircle
 10
115.5376263843
 20
332.4069516446
 30
0.0
 40
5.999865373812255
100
AcDbArc
 50
270.0009106116
 51
0.0012594385
  0
LINE
  5
179
330
1F
100
AcDbEntity
  8
0
  6
Continuous
 62
     7
370
    15
100
AcDbLine
 10
129.541792053
 20
197.6592393403
 30
0.0
 11
128.5417900264
 21
197.6679639702
 31
0.0
  0
LINE
  5
17A
330
1F
100
AcDbEntity
  8
0
  6
Continuous
 62
     7
370
    15
100
AcDbLine
 10
129.541792053
 20
197.6592393403
 30
0.0
 11
129.541792053
 21
185.8570875411
 31
0.0
  0
LINE
  5
17B
330
1F
100
AcDbEntity
  8
0
  6
Continuous
 62
     7
370
    15
100
AcDbLine
 10
129.541792053
 20
185.8570875411
 30
0.0
 11
58.5417892627
 21
185.8570875411
 31
0.0
  0
LINE
  5
17C
330
1F
100
AcDbEntity
  8
0
  6
Continuous
 62
     7
370
    15
100
AcDbLine
 10
129.541792053
 20
361.1374797111
 30
0.0
 11
58.5417892627
 21
361.7570848947
 31
0.0
  0
LINE
  5
17D
330
1F
100
AcDbEntity
  8
0
  6
Continuous
 62
     7
370
    15
100
AcDbLine
 10
129.541792053
 20
361.1374797111
 30
0.0
 11
129.541792053
 21
358.9570822006
 31
0.0
  0
LINE
  5
17E
330
1F
100
AcDbEntity
  8
0
  6
Continuous
 62
     7
370
    15
100
AcDbLine
 10
129.541792053
 20
358.9570822006
 30
0.0
 11
58.5417892627
 21
358.9570822006
 31
0.0
  0
LINE
  5
17F
330
1F
100
AcDbEntity
  8
0
  6
Continuous
 62
     7
370
    15
100
AcDbLine
 10
129.541792053
 20
358.9570822006
 30
0.0
 11
129.541792053
 21
347.1549304014
 31
0.0
  0
LINE
  5
180
330
1F
100
AcDbEntity
  8
0
  6
Continuous
 62
     7
370
    15
100
AcDbLine
 10
129.541792053
 20
347.1549304014
 30
0.0
 11
128.5417900264
 21
347.1462057715
 31
0.0
  0
LINE
  5
181
330
1F
100
AcDbEntity
  8
0
  6
Continuous
 62
     7
370
    15
100
AcDbLine
 10
129.541792053
 20
185.8570875411
 30
0.0
 11
129.541792053
 21
183.6766900306
 31
0.0
  0
LINE
  5
182
330
1F
100
AcDbEntity
  8
0
  6
Continuous
 62
     7
370
    15
100
AcDbLine
 10
129.541792053
 20
183.6766900306
 30
0.0
 11
58.5417892627
 21
183.057084847
 31
0.0
  0
LINE
  5
183
330
1F
100
AcDbEntity
  8
0
  6
Continuous
 62
     7
370
    15
100
AcDbLine
 10
60.5243361398
 20
362.4048756247
 30
0.0
 11
60.5243361398
 21
361.7397846465
 31
0.0
  0
LWPOLYLINE
  5
184
330
1F
100
AcDbEntity
  8
0
  6
Continuous
 62
     7
370
    15
100
AcDbPolyline
 90
        9
 70
   128
 43
0.0
 10
58.5417892627
 20
362.4221758728
 10
58.5797942087
 20
362.4218480473
 10
58.6923645653
 20
362.4208645707
 10
58.8752227679
 20
362.4192701464
 10
59.1214183561
 20
362.4171169286
 10
59.4215952635
 20
362.4145017748
 10
59.764345254
 20
362.4115066414
 10
60.1366419188
 20
362.4082581883
 10
60.5243361398
 20
362.4048756247
  0
LINE
  5
185
330
1F
100
AcDbEntity
  8
0
  6
Continuous
 62
     7
370
    15
100
AcDbLine
 10
60.5243361398
 20
183.0743850952
 30
0.0
 11
60.5243361398
 21
182.409294117
 31
0.0
  0
LWPOLYLINE
  5
186
330
1F
100
AcDbEntity
  8
0
  6
Continuous
 62
     7
370
    15
100
AcDbPolyline
 90
        9
 70
   128
 43
0.0
 10
60.5243361398
 20
182.409294117
 10
60.1366419188
 20
182.4059115534
 10
59.764345254
 20
182.4026631003
 10
59.4215952635
 20
182.3996679669
 10
59.1214183561
 20
182.3970528131
 10
58.8752227679
 20
182.3948995953
 10
58.6923645653
 20
182.393305171
 10
58.5797942087
 20
182.3923216944
 10
58.5417892627
 20
182.3919938689
  0
LINE
  5
187
330
1F
100
AcDbEntity
  8
0
  6
Continuous
 62
     7
370
    15
100
AcDbLine
 10
60.5243361398
 20
182.409294117
 30
0.0
 11
128.5417900264
 21
183.0028744226
 31
0.0
  0
LINE
  5
188
330
1F
100
AcDbEntity
  8
0
  6
Continuous
 62
     7
370
    15
100
AcDbLine
 10
128.5417900264
 20
183.6679654007
 30
0.0
 11
128.5417900264
 21
183.0028744226
 31
0.0
  0
LINE
  5
189
330
1F
100
AcDbEntity
  8
0
  6
Continuous
 62
     7
370
    15
100
AcDbLine
 10
128.5417900264
 20
361.8112953191
 30
0.0
 11
60.5243361398
 21
362.4048756247
 31
0.0
  0
LINE
  5
18A
330
1F
100
AcDbEntity
  8
0
  6
Continuous
 62
     7
370
    15
100
AcDbLine
 10
128.5417900264
 20
361.146204341
 30
0.0
 11
128.5417900264
 21
361.8112953191
 31
0.0
  0
LINE
  5
18B
330
1F
100
AcDbEntity
  8
0
  6
Continuous
 62
     7
370
    15
100
AcDbLine
 10
251.4761802464
 20
492.7993969552
 30
0.0
 11
251.4761802464
 21
492.8011422538
 31
0.0
  0
LINE
  5
18C
330
1F
100
AcDbEntity
  8
0
  6
Continuous
 62
     7
370
    15
100
AcDbLine
 10
230.9761796802
 20
492.8011422538
 30
0.0
 11
230.9761796802
 21
492.7993969552
 31
0.0
  0
LINE
  5
18D
330
1F
100
AcDbEntity
  8
0
  6
Continuous
 62
     7
370
    15
100
AcDbLine
 10
345.4761807531
 20
492.7993969552
 30
0.0
 11
345.4761807531
 21
492.8011422538
 31
0.0
  0
LINE
  5
18E
330
1F
100
AcDbEntity
  8
0
  6
Continuous
 62
     7
370
    15
100
AcDbLine
 10
324.9761801868
 20
492.8011422538
 30
0.0
 11
324.9761801868
 21
492.7993969552
 31
0.0
  0
LINE
  5
18F
330
1F
100
AcDbEntity
  8
0
  6
Continuous
 62
     7
370
    15
100
AcDbLine
 10
308.4761802762
 20
476.8000071429
 30
0.0
 11
308.4761802762
 21
476.8017505788
 31
0.0
  0
LINE
  5
190
330
1F
100
AcDbEntity
  8
0
  6
Continuous
 62
     7
370
    15
100
AcDbLine
 10
267.976180157
 20
476.8017505788
 30
0.0
 11
267.976180157
 21
476.8000071429
 31
0.0
  0
LINE
  5
191
330
1F
100
AcDbEntity
  8
0
  6
Continuous
 62
     7
370
    15
100
AcDbLine
 10
251.4761802464
 20
460.8006154679
 30
0.0
 11
251.4761802464
 21
460.8023589038
 31
0.0
  0
LINE
  5
192
330
1F
100
AcDbEntity
  8
0
  6
Continuous
 62
     7
370
    15
100
AcDbLine
 10
345.4761807531
 20
460.8006154679
 30
0.0
 11
345.4761807531
 21
460.8023589038
 31
0.0
  0
LINE
  5
193
330
1F
100
AcDbEntity
  8
0
  6
Continuous
 62
     7
370
    15
100
AcDbLine
 10
304.4761796206
 20
476.8017505788
 30
0.0
 11
304.4761796206
 21
476.8034977399
 31
0.0
  0
LINE
  5
194
330
1F
100
AcDbEntity
  8
0
  6
Continuous
 62
     7
370
    15
100
AcDbLine
 10
271.9761808127
 20
476.8034977399
 30
0.0
 11
271.9761808127
 21
476.8017505788
 31
0.0
  0
LINE
  5
195
330
1F
100
AcDbEntity
  8
0
  6
Continuous
 62
     7
370
    15
100
AcDbLine
 10
213.287063381
 20
438.7986337327
 30
0.0
 11
363.1652970522
 21
438.7986337327
 31
0.0
  0
LINE
  5
196
330
1F
100
AcDbEntity
  8
0
  6
Continuous
 62
     7
370
    15
100
AcDbLine
 10
213.287063381
 20
438.7986337327
 30
0.0
 11
212.6934830755
 21
506.8160876192
 31
0.0
  0
ARC
  5
197
330
1F
100
AcDbEntity
  8
0
  6
Continuous
 62
     7
370
    15
100
AcDbCircle
 10
210.6935577955
 20
506.7986346863
 30
0.0
 40
2.000000000000012
100
AcDbArc
 50
0.5
 51
90.0
  0
LINE
  5
198
330
1F
100
AcDbEntity
  8
0
  6
Continuous
 62
     7
370
    15
100
AcDbLine
 10
201.6761828869
 20
508.7986344964
 30
0.0
 11
210.6935609787
 21
508.7986344964
 31
0.0
  0
LINE
  5
199
330
1F
100
AcDbEntity
  8
0
  6
Continuous
 62
     7
370
    15
100
AcDbLine
 10
201.6761828869
 20
508.7986344964
 30
0.0
 11
201.6761828869
 21
512.7986346863
 31
0.0
  0
LINE
  5
19A
330
1F
100
AcDbEntity
  8
0
  6
Continuous
 62
     7
370
    15
100
AcDbLine
 10
201.6761828869
 20
512.7986346863
 30
0.0
 11
374.7761775464
 21
512.7986346863
 31
0.0
  0
LINE
  5
19B
330
1F
100
AcDbEntity
  8
0
  6
Continuous
 62
     7
370
    15
100
AcDbLine
 10
374.7761775464
 20
508.7986344964
 30
0.0
 11
374.7761775464
 21
512.7986346863
 31
0.0
  0
LINE
  5
19C
330
1F
100
AcDbEntity
  8
0
  6
Continuous
 62
     7
370
    15
100
AcDbLine
 10
374.7761775464
 20
508.7986344964
 30
0.0
 11
365.7587994545
 21
508.7986344964
 31
0.0
  0
ARC
  5
19D
330
1F
100
AcDbEntity
  8
0
  6
Continuous
 62
     7
370
    15
100
AcDbCircle
 10
365.7588026378
 20
506.7986346863
 30
0.0
 40
2.000000000000012
100
AcDbArc
 50
90.0
 51
179.5
  0
LINE
  5
19E
330
1F
100
AcDbEntity
  8
0
  6
Continuous
 62
     7
370
    15
100
AcDbLine
 10
363.7588773578
 20
506.8160876192
 30
0.0
 11
363.1652970522
 21
438.7986337327
 31
0.0
  0
CIRCLE
  5
19F
330
1F
100
AcDbEntity
  8
0
  6
Continuous
 62
     7
370
    15
100
AcDbCircle
 10
288.2261013233
 20
476.8005482369
 30
0.0
 40
20.24977001871398
  0
CIRCLE
  5
1A0
330
1F
100
AcDbEntity
  8
0
  6
Continuous
 62
     7
370
    15
100
AcDbCircle
 10
241.2261419149
 20
492.7996749364
 30
0.0
 40
10.24988897150501
  0
CIRCLE
  5
1A1
330
1F
100
AcDbEntity
  8
0
  6
Continuous
 62
     7
370
    15
100
AcDbCircle
 10
241.2261418985
 20
460.8008932513
 30
0.0
 40
10.24988877380685
  0
CIRCLE
  5
1A2
330
1F
100
AcDbEntity
  8
0
  6
Continuous
 62
     7
370
    15
100
AcDbCircle
 10
335.2261386759
 20
492.7996746916
 30
0.0
 40
10.249888726681
  0
CIRCLE
  5
1A3
330
1F
100
AcDbEntity
  8
0
  6
Continuous
 62
     7
370
    15
100
AcDbCircle
 10
335.2261386596
 20
460.8008930065
 30
0.0
 40
10.24988852898278
  0
LINE
  5
1A4
330
1F
100
AcDbEntity
  8
0
  6
Continuous
 62
     7
370
    15
100
AcDbLine
 10
374.7761775464
 20
512.7986346863
 30
0.0
 11
378.2761771887
 21
512.7986346863
 31
0.0
  0
LINE
  5
1A5
330
1F
100
AcDbEntity
  8
0
  6
Continuous
 62
     7
370
    15
100
AcDbLine
 10
378.2412712186
 20
508.7986344964
 30
0.0
 11
378.2761771887
 21
512.7986346863
 31
0.0
  0
LINE
  5
1A6
330
1F
100
AcDbEntity
  8
0
  6
Continuous
 62
     7
370
    15
100
AcDbLine
 10
378.2412712186
 20
508.7986344964
 30
0.0
 11
374.7761775464
 21
508.7986344964
 31
0.0
  0
LINE
  5
1A7
330
1F
100
AcDbEntity
  8
0
  6
Continuous
 62
     7
370
    15
100
AcDbLine
 10
198.2110892147
 20
508.7986344964
 30
0.0
 11
201.6761828869
 21
508.7986344964
 31
0.0
  0
LINE
  5
1A8
330
1F
100
AcDbEntity
  8
0
  6
Continuous
 62
     7
370
    15
100
AcDbLine
 10
198.2110892147
 20
508.7986344964
 30
0.0
 11
198.1761832446
 21
512.7986346863
 31
0.0
  0
LINE
  5
1A9
330
1F
100
AcDbEntity
  8
0
  6
Continuous
 62
     7
370
    15
100
AcDbLine
 10
198.1761832446
 20
512.7986346863
 30
0.0
 11
201.6761828869
 21
512.7986346863
 31
0.0
  0
ARC
  5
1AA
330
1F
100
AcDbEntity
  8
0
  6
Continuous
 62
     7
370
    15
100
AcDbCircle
 10
241.2263837289
 20
492.8013277807
 30
0.0
 40
10.24979651918053
100
AcDbArc
 50
269.9988713739
 51
359.9989629151
  0
ARC
  5
1AB
330
1F
100
AcDbEntity
  8
0
  6
Continuous
 62
     7
370
    15
100
AcDbCircle
 10
241.2259761978
 20
492.8013277807
 30
0.0
 40
10.24979651929718
100
AcDbArc
 50
180.0010370851
 51
270.0011494497
  0
ARC
  5
1AC
330
1F
100
AcDbEntity
  8
0
  6
Continuous
 62
     7
370
    15
100
AcDbCircle
 10
335.2263842355
 20
492.8013277807
 30
0.0
 40
10.24979651929718
100
AcDbArc
 50
269.9988505503
 51
359.9989629149
  0
ARC
  5
1AD
330
1F
100
AcDbEntity
  8
0
  6
Continuous
 62
     7
370
    15
100
AcDbCircle
 10
335.2259767043
 20
492.8013277807
 30
0.0
 40
10.24979651918059
100
AcDbArc
 50
180.0010370849
 51
270.0011286261
  0
ARC
  5
1AE
330
1F
100
AcDbEntity
  8
0
  6
Continuous
 62
     7
370
    15
100
AcDbCircle
 10
288.2265828841
 20
476.8021190457
 30
0.0
 40
20.24959739544962
100
AcDbArc
 50
269.9988606614
 51
359.9989574311
  0
ARC
  5
1AF
330
1F
100
AcDbEntity
  8
0
  6
Continuous
 62
     7
370
    15
100
AcDbCircle
 10
288.2257775491
 20
476.8021190457
 30
0.0
 40
20.24959739544968
100
AcDbArc
 50
180.0010425689
 51
270.0011393386
  0
CIRCLE
  5
1B0
330
1F
100
AcDbEntity
  8
0
  6
Continuous
 62
     7
370
    15
100
AcDbCircle
 10
288.2261217925
 20
476.8021739502
 30
0.0
 40
16.24980437734221
  0
ARC
  5
1B1
330
1F
100
AcDbEntity
  8
0
  6
Continuous
 62
     7
370
    15
100
AcDbCircle
 10
241.2263869179
 20
460.802544967
 30
0.0
 40
10.24979333027324
100
AcDbArc
 50
269.9988535476
 51
359.9989599168
  0
ARC
  5
1B2
330
1F
100
AcDbEntity
  8
0
  6
Continuous
 62
     7
370
    15
100
AcDbCircle
 10
241.2259730089
 20
460.802544967
 30
0.0
 40
10.24979333039325
100
AcDbArc
 50
180.0010400834
 51
270.0011672759
  0
ARC
  5
1B3
330
1F
100
AcDbEntity
  8
0
  6
Continuous
 62
     7
370
    15
100
AcDbCircle
 10
335.2263874244
 20
460.802544967
 30
0.0
 40
10.24979333039325
100
AcDbArc
 50
269.9988327241
 51
359.9989599166
  0
ARC
  5
1B4
330
1F
100
AcDbEntity
  8
0
  6
Continuous
 62
     7
370
    15
100
AcDbCircle
 10
335.2259735154
 20
460.802544967
 30
0.0
 40
10.24979333027324
100
AcDbArc
 50
180.0010400832
 51
270.0011464524
  0
ARC
  5
1B5
330
1F
100
AcDbEntity
  8
0
  6
Continuous
 62
     7
370
    15
100
AcDbCircle
 10
288.2265162431
 20
476.8037763852
 30
0.0
 40
16.24966337986196
100
AcDbArc
 50
269.9988151817
 51
359.9990175057
  0
ARC
  5
1B6
330
1F
100
AcDbEntity
  8
0
  6
Continuous
 62
     7
370
    15
100
AcDbCircle
 10
288.2258627157
 20
476.8037949115
 30
0.0
 40
16.24968190569924
100
AcDbArc
 50
180.0010478159
 51
270.0011194967
  0
LINE
  5
1B7
330
1F
100
AcDbEntity
  8
0
  6
Continuous
 62
     7
370
    15
100
AcDbLine
 10
201.6761828869
 20
437.7986317061
 30
0.0
 11
201.6761828869
 21
508.7986344964
 31
0.0
  0
LINE
  5
1B8
330
1F
100
AcDbEntity
  8
0
  6
Continuous
 62
     7
370
    15
100
AcDbLine
 10
201.6761828869
 20
437.7986317061
 30
0.0
 11
199.4957853764
 21
437.7986317061
 31
0.0
  0
LINE
  5
1B9
330
1F
100
AcDbEntity
  8
0
  6
Continuous
 62
     7
370
    15
100
AcDbLine
 10
199.4957853764
 20
437.7986317061
 30
0.0
 11
198.8761801928
 21
508.7986344964
 31
0.0
  0
LINE
  5
1BA
330
1F
100
AcDbEntity
  8
0
  6
Continuous
 62
     7
370
    15
100
AcDbLine
 10
213.4783346861
 20
437.7986317061
 30
0.0
 11
213.487059316
 21
438.7986337327
 31
0.0
  0
LINE
  5
1BB
330
1F
100
AcDbEntity
  8
0
  6
Continuous
 62
     7
370
    15
100
AcDbLine
 10
213.4783346861
 20
437.7986317061
 30
0.0
 11
201.6761828869
 21
437.7986317061
 31
0.0
  0
LINE
  5
1BC
330
1F
100
AcDbEntity
  8
0
  6
Continuous
 62
     7
370
    15
100
AcDbLine
 10
376.9565750569
 20
437.7986317061
 30
0.0
 11
377.5761802405
 21
508.7986344964
 31
0.0
  0
LINE
  5
1BD
330
1F
100
AcDbEntity
  8
0
  6
Continuous
 62
     7
370
    15
100
AcDbLine
 10
376.9565750569
 20
437.7986317061
 30
0.0
 11
374.7761775464
 21
437.7986317061
 31
0.0
  0
LINE
  5
1BE
330
1F
100
AcDbEntity
  8
0
  6
Continuous
 62
     7
370
    15
100
AcDbLine
 10
374.7761775464
 20
437.7986317061
 30
0.0
 11
374.7761775464
 21
508.7986344964
 31
0.0
  0
LINE
  5
1BF
330
1F
100
AcDbEntity
  8
0
  6
Continuous
 62
     7
370
    15
100
AcDbLine
 10
374.7761775464
 20
437.7986317061
 30
0.0
 11
362.9740257472
 21
437.7986317061
 31
0.0
  0
LINE
  5
1C0
330
1F
100
AcDbEntity
  8
0
  6
Continuous
 62
     7
370
    15
100
AcDbLine
 10
362.9740257472
 20
437.7986317061
 30
0.0
 11
362.9653011173
 21
438.7986337327
 31
0.0
  0
LINE
  5
1C1
330
1F
100
AcDbEntity
  8
0
  6
Continuous
 62
     7
370
    15
100
AcDbLine
 10
198.8934804409
 20
506.8160876192
 30
0.0
 11
198.2283894628
 21
506.8160876192
 31
0.0
  0
LWPOLYLINE
  5
1C2
330
1F
100
AcDbEntity
  8
0
  6
Continuous
 62
     7
370
    15
100
AcDbPolyline
 90
        9
 70
   128
 43
0.0
 10
198.2283894628
 20
506.8160876192
 10
198.2250068992
 20
507.2037818402
 10
198.2217584461
 20
507.5760785051
 10
198.2187633127
 20
507.9188284956
 10
198.2161481589
 20
508.2190054029
 10
198.2139949411
 20
508.4652009912
 10
198.2124005168
 20
508.6480591938
 10
198.2114170402
 20
508.7606295504
 10
198.2110892147
 20
508.7986344964
  0
LINE
  5
1C3
330
1F
100
AcDbEntity
  8
0
  6
Continuous
 62
     7
370
    15
100
AcDbLine
 10
378.2239709705
 20
506.8160876192
 30
0.0
 11
377.5588799923
 21
506.8160876192
 31
0.0
  0
LWPOLYLINE
  5
1C4
330
1F
100
AcDbEntity
  8
0
  6
Continuous
 62
     7
370
    15
100
AcDbPolyline
 90
        9
 70
   128
 43
0.0
 10
378.2412712186
 20
508.7986344964
 10
378.2409433931
 20
508.7606295504
 10
378.2399599164
 20
508.6480591938
 10
378.2383654922
 20
508.4652009912
 10
378.2362122744
 20
508.2190054029
 10
378.2335971206
 20
507.9188284956
 10
378.2306019872
 20
507.5760785051
 10
378.2273535341
 20
507.2037818402
 10
378.2239709705
 20
506.8160876192
  0
LINE
  5
1C5
330
1F
100
AcDbEntity
  8
0
  6
Continuous
 62
     7
370
    15
100
AcDbLine
 10
377.6303906649
 20
438.7986337327
 30
0.0
 11
378.2239709705
 21
506.8160876192
 31
0.0
  0
LINE
  5
1C6
330
1F
100
AcDbEntity
  8
0
  6
Continuous
 62
     7
370
    15
100
AcDbLine
 10
376.9652996868
 20
438.7986337327
 30
0.0
 11
377.6303906649
 21
438.7986337327
 31
0.0
  0
LINE
  5
1C7
330
1F
100
AcDbEntity
  8
0
  6
Continuous
 62
     7
370
    15
100
AcDbLine
 10
198.2283894628
 20
506.8160876192
 30
0.0
 11
198.8219697684
 21
438.7986337327
 31
0.0
  0
LINE
  5
1C8
330
1F
100
AcDbEntity
  8
0
  6
Continuous
 62
     7
370
    15
100
AcDbLine
 10
199.4870607465
 20
438.7986337327
 30
0.0
 11
198.8219697684
 21
438.7986337327
 31
0.0
  0
LINE
  5
1C9
330
1F
100
AcDbEntity
  8
0
  6
Continuous
 62
     7
370
    15
100
AcDbLine
 10
225.7261802166
 20
49.22012334
 30
0.0
 11
225.7261802166
 21
49.2183780415
 31
0.0
  0
LINE
  5
1CA
330
1F
100
AcDbEntity
  8
0
  6
Continuous
 62
     7
370
    15
100
AcDbLine
 10
245.7261797696
 20
49.2183780415
 30
0.0
 11
245.7261797696
 21
49.22012334
 31
0.0
  0
LINE
  5
1CB
330
1F
100
AcDbEntity
  8
0
  6
Continuous
 62
     7
370
    15
100
AcDbLine
 10
330.7261806637
 20
49.22012334
 30
0.0
 11
330.7261806637
 21
49.2183780415
 31
0.0
  0
LINE
  5
1CC
330
1F
100
AcDbEntity
  8
0
  6
Continuous
 62
     7
370
    15
100
AcDbLine
 10
350.7261802166
 20
49.2183780415
 30
0.0
 11
350.7261802166
 21
49.22012334
 31
0.0
  0
LINE
  5
1CD
330
1F
100
AcDbEntity
  8
0
  6
Continuous
 62
     7
370
    15
100
AcDbLine
 10
260.7261803657
 20
49.22012334
 30
0.0
 11
260.7261803657
 21
49.2183780415
 31
0.0
  0
LINE
  5
1CE
330
1F
100
AcDbEntity
  8
0
  6
Continuous
 62
     7
370
    15
100
AcDbLine
 10
280.7261803843
 20
49.2183780415
 30
0.0
 11
280.7261803843
 21
49.22012334
 31
0.0
  0
LINE
  5
1CF
330
1F
100
AcDbEntity
  8
0
  6
Continuous
 62
     7
370
    15
100
AcDbLine
 10
295.726180049
 20
49.22012334
 30
0.0
 11
295.726180049
 21
49.2183780415
 31
0.0
  0
LINE
  5
1D0
330
1F
100
AcDbEntity
  8
0
  6
Continuous
 62
     7
370
    15
100
AcDbLine
 10
315.7261800676
 20
49.2183780415
 30
0.0
 11
315.7261800676
 21
49.22012334
 31
0.0
  0
LINE
  5
1D1
330
1F
100
AcDbEntity
  8
0
  6
Continuous
 62
     7
370
    15
100
AcDbLine
 10
229.4761803657
 20
49.2183780415
 30
0.0
 11
229.4761803657
 21
49.2166327429
 31
0.0
  0
LINE
  5
1D2
330
1F
100
AcDbEntity
  8
0
  6
Continuous
 62
     7
370
    15
100
AcDbLine
 10
241.9761796206
 20
49.2166327429
 30
0.0
 11
241.9761796206
 21
49.2183780415
 31
0.0
  0
LINE
  5
1D3
330
1F
100
AcDbEntity
  8
0
  6
Continuous
 62
     7
370
    15
100
AcDbLine
 10
334.4761808127
 20
49.2183780415
 30
0.0
 11
334.4761808127
 21
49.2166327429
 31
0.0
  0
LINE
  5
1D4
330
1F
100
AcDbEntity
  8
0
  6
Continuous
 62
     7
370
    15
100
AcDbLine
 10
346.9761800676
 20
49.2166327429
 30
0.0
 11
346.9761800676
 21
49.2183780415
 31
0.0
  0
LINE
  5
1D5
330
1F
100
AcDbEntity
  8
0
  6
Continuous
 62
     7
370
    15
100
AcDbLine
 10
225.7261802166
 20
81.2189048273
 30
0.0
 11
225.7261802166
 21
81.2171613914
 31
0.0
  0
LINE
  5
1D6
330
1F
100
AcDbEntity
  8
0
  6
Continuous
 62
     7
370
    15
100
AcDbLine
 10
330.7261806637
 20
81.2189048273
 30
0.0
 11
330.7261806637
 21
81.2171613914
 31
0.0
  0
LINE
  5
1D7
330
1F
100
AcDbEntity
  8
0
  6
Continuous
 62
     7
370
    15
100
AcDbLine
 10
295.726180049
 20
81.2189048273
 30
0.0
 11
295.726180049
 21
81.2171613914
 31
0.0
  0
LINE
  5
1D8
330
1F
100
AcDbEntity
  8
0
  6
Continuous
 62
     7
370
    15
100
AcDbLine
 10
260.7261803657
 20
81.2189048273
 30
0.0
 11
260.7261803657
 21
81.2171613914
 31
0.0
  0
ARC
  5
1D9
330
1F
100
AcDbEntity
  8
0
  6
Continuous
 62
     7
370
    15
100
AcDbCircle
 10
365.7588026378
 20
35.2208856089
 30
0.0
 40
2.000000000000011
100
AcDbArc
 50
180.5
 51
270.0
  0
LINE
  5
1DA
330
1F
100
AcDbEntity
  8
0
  6
Continuous
 62
     7
370
    15
100
AcDbLine
 10
365.7587994545
 20
33.2208857988
 30
0.0
 11
374.7761775464
 21
33.2208857988
 31
0.0
  0
LINE
  5
1DB
330
1F
100
AcDbEntity
  8
0
  6
Continuous
 62
     7
370
    15
100
AcDbLine
 10
374.7761775464
 20
33.2208857988
 30
0.0
 11
374.7761775464
 21
29.2208856089
 31
0.0
  0
LINE
  5
1DC
330
1F
100
AcDbEntity
  8
0
  6
Continuous
 62
     7
370
    15
100
AcDbLine
 10
374.7761775464
 20
29.2208856089
 30
0.0
 11
201.6761828869
 21
29.2208856089
 31
0.0
  0
LINE
  5
1DD
330
1F
100
AcDbEntity
  8
0
  6
Continuous
 62
     7
370
    15
100
AcDbLine
 10
201.6761828869
 20
33.2208857988
 30
0.0
 11
201.6761828869
 21
29.2208856089
 31
0.0
  0
LINE
  5
1DE
330
1F
100
AcDbEntity
  8
0
  6
Continuous
 62
     7
370
    15
100
AcDbLine
 10
210.6935609787
 20
33.2208857988
 30
0.0
 11
201.6761828869
 21
33.2208857988
 31
0.0
  0
ARC
  5
1DF
330
1F
100
AcDbEntity
  8
0
  6
Continuous
 62
     7
370
    15
100
AcDbCircle
 10
210.6935577955
 20
35.2208856089
 30
0.0
 40
2.000000000000011
100
AcDbArc
 50
270.0
 51
359.5
  0
LINE
  5
1E0
330
1F
100
AcDbEntity
  8
0
  6
Continuous
 62
     7
370
    15
100
AcDbLine
 10
212.6934830755
 20
35.203432676
 30
0.0
 11
213.287063381
 21
103.2208865625
 31
0.0
  0
LINE
  5
1E1
330
1F
100
AcDbEntity
  8
0
  6
Continuous
 62
     7
370
    15
100
AcDbLine
 10
363.1652970522
 20
103.2208865625
 30
0.0
 11
213.287063381
 21
103.2208865625
 31
0.0
  0
LINE
  5
1E2
330
1F
100
AcDbEntity
  8
0
  6
Continuous
 62
     7
370
    15
100
AcDbLine
 10
363.1652970522
 20
103.2208865625
 30
0.0
 11
363.7588773578
 21
35.203432676
 31
0.0
  0
CIRCLE
  5
1E3
330
1F
100
AcDbEntity
  8
0
  6
Continuous
 62
     7
370
    15
100
AcDbCircle
 10
305.7261402898
 20
49.2203964735
 30
0.0
 40
9.999891999165106
  0
CIRCLE
  5
1E4
330
1F
100
AcDbEntity
  8
0
  6
Continuous
 62
     7
370
    15
100
AcDbCircle
 10
340.7261405361
 20
49.2203976482
 30
0.0
 40
9.999893173841823
  0
CIRCLE
  5
1E5
330
1F
100
AcDbEntity
  8
0
  6
Continuous
 62
     7
370
    15
100
AcDbCircle
 10
340.7261461745
 20
81.219180758
 30
0.0
 40
9.999893864946873
  0
CIRCLE
  5
1E6
330
1F
100
AcDbEntity
  8
0
  6
Continuous
 62
     7
370
    15
100
AcDbCircle
 10
305.7261459282
 20
81.2191795833
 30
0.0
 40
9.999892690268561
  0
CIRCLE
  5
1E7
330
1F
100
AcDbEntity
  8
0
  6
Continuous
 62
     7
370
    15
100
AcDbCircle
 10
270.7262145238
 20
81.2186340221
 30
0.0
 40
9.999892464782793
  0
CIRCLE
  5
1E8
330
1F
100
AcDbEntity
  8
0
  6
Continuous
 62
     7
370
    15
100
AcDbCircle
 10
235.7262142775
 20
81.2186328474
 30
0.0
 40
9.999893639460588
  0
CIRCLE
  5
1E9
330
1F
100
AcDbEntity
  8
0
  6
Continuous
 62
     7
370
    15
100
AcDbCircle
 10
235.7262255039
 20
49.2198502735
 30
0.0
 40
9.999892863451539
  0
CIRCLE
  5
1EA
330
1F
100
AcDbEntity
  8
0
  6
Continuous
 62
     7
370
    15
100
AcDbCircle
 10
270.7262257502
 20
49.2198514482
 30
0.0
 40
9.9998916887759
  0
LINE
  5
1EB
330
1F
100
AcDbEntity
  8
0
  6
Continuous
 62
     7
370
    15
100
AcDbLine
 10
201.6761828869
 20
29.2208856089
 30
0.0
 11
198.1761832446
 21
29.2208856089
 31
0.0
  0
LINE
  5
1EC
330
1F
100
AcDbEntity
  8
0
  6
Continuous
 62
     7
370
    15
100
AcDbLine
 10
198.2110892147
 20
33.2208857988
 30
0.0
 11
198.1761832446
 21
29.2208856089
 31
0.0
  0
LINE
  5
1ED
330
1F
100
AcDbEntity
  8
0
  6
Continuous
 62
     7
370
    15
100
AcDbLine
 10
201.6761828869
 20
33.2208857988
 30
0.0
 11
198.2110892147
 21
33.2208857988
 31
0.0
  0
LINE
  5
1EE
330
1F
100
AcDbEntity
  8
0
  6
Continuous
 62
     7
370
    15
100
AcDbLine
 10
378.2412712186
 20
33.2208857988
 30
0.0
 11
378.2761771887
 21
29.2208856089
 31
0.0
  0
LINE
  5
1EF
330
1F
100
AcDbEntity
  8
0
  6
Continuous
 62
     7
370
    15
100
AcDbLine
 10
374.7761775464
 20
33.2208857988
 30
0.0
 11
378.2412712186
 21
33.2208857988
 31
0.0
  0
LINE
  5
1F0
330
1F
100
AcDbEntity
  8
0
  6
Continuous
 62
     7
370
    15
100
AcDbLine
 10
378.2761771887
 20
29.2208856089
 30
0.0
 11
374.7761775464
 21
29.2208856089
 31
0.0
  0
ARC
  5
1F1
330
1F
100
AcDbEntity
  8
0
  6
Continuous
 62
     7
370
    15
100
AcDbCircle
 10
235.7259816751
 20
49.2181963802
 30
0.0
 40
9.999801460088353
100
AcDbArc
 50
89.9988530264
 51
179.9989591373
  0
ARC
  5
1F2
330
1F
100
AcDbEntity
  8
0
  6
Continuous
 62
     7
370
    15
100
AcDbCircle
 10
235.726383913
 20
49.2182019822
 30
0.0
 40
9.99979585817037
100
AcDbArc
 50
0.0010087658
 51
90.0011577262
  0
ARC
  5
1F3
330
1F
100
AcDbEntity
  8
0
  6
Continuous
 62
     7
370
    15
100
AcDbCircle
 10
340.7261804402
 20
49.2180796401
 30
0.0
 40
9.999999780934752
100
AcDbArc
 50
0.0017097141
 51
179.9982902859
  0
ARC
  5
1F4
330
1F
100
AcDbEntity
  8
0
  6
Continuous
 62
     7
370
    15
100
AcDbCircle
 10
270.7259779172
 20
49.2182002873
 30
0.0
 40
9.999797553105354
100
AcDbArc
 50
89.9988413129
 51
179.9989815229
  0
ARC
  5
1F5
330
1F
100
AcDbEntity
  8
0
  6
Continuous
 62
     7
370
    15
100
AcDbCircle
 10
270.7263811167
 20
49.2181985712
 30
0.0
 40
9.999799269170499
100
AcDbArc
 50
0.0010283096
 51
90.0011515227
  0
ARC
  5
1F6
330
1F
100
AcDbEntity
  8
0
  6
Continuous
 62
     7
370
    15
100
AcDbCircle
 10
305.7261800583
 20
49.218080345
 30
0.0
 40
10.00000001374439
100
AcDbArc
 50
0.0017056752
 51
179.9982943248
  0
CIRCLE
  5
1F7
330
1F
100
AcDbEntity
  8
0
  6
Continuous
 62
     7
370
    15
100
AcDbCircle
 10
340.7261490137
 20
49.2185512592
 30
0.0
 40
6.249934426675527
  0
CIRCLE
  5
1F8
330
1F
100
AcDbEntity
  8
0
  6
Continuous
 62
     7
370
    15
100
AcDbCircle
 10
235.7261485668
 20
49.2185512592
 30
0.0
 40
6.249934426695304
  0
ARC
  5
1F9
330
1F
100
AcDbEntity
  8
0
  6
Continuous
 62
     7
370
    15
100
AcDbCircle
 10
235.7261799931
 20
49.2164500605
 30
0.0
 40
6.2499996301408
100
AcDbArc
 50
0.0016747093
 51
179.9983252907
  0
ARC
  5
1FA
330
1F
100
AcDbEntity
  8
0
  6
Continuous
 62
     7
370
    15
100
AcDbCircle
 10
340.7261804402
 20
49.2164500605
 30
0.0
 40
6.2499996301408
100
AcDbArc
 50
0.0016747093
 51
179.9983252907
  0
ARC
  5
1FB
330
1F
100
AcDbEntity
  8
0
  6
Continuous
 62
     7
370
    15
100
AcDbCircle
 10
235.725981984
 20
81.2169775586
 30
0.0
 40
9.99980176903095
100
AcDbArc
 50
89.9988547963
 51
179.9989466947
  0
ARC
  5
1FC
330
1F
100
AcDbEntity
  8
0
  6
Continuous
 62
     7
370
    15
100
AcDbCircle
 10
235.7263836041
 20
81.2169831606
 30
0.0
 40
9.999796167114463
100
AcDbArc
 50
0.0010212084
 51
90.0011559562
  0
ARC
  5
1FD
330
1F
100
AcDbEntity
  8
0
  6
Continuous
 62
     7
370
    15
100
AcDbCircle
 10
340.7261804402
 20
81.2168598855
 30
0.0
 40
9.999999781027874
100
AcDbArc
 50
0.0017275018
 51
179.9982724982
  0
ARC
  5
1FE
330
1F
100
AcDbEntity
  8
0
  6
Continuous
 62
     7
370
    15
100
AcDbCircle
 10
305.7261800583
 20
81.2168605904
 30
0.0
 40
10.00000001383729
100
AcDbArc
 50
0.0017234628
 51
179.9982765372
  0
ARC
  5
1FF
330
1F
100
AcDbEntity
  8
0
  6
Continuous
 62
     7
370
    15
100
AcDbCircle
 10
270.7259782261
 20
81.2169814657
 30
0.0
 40
9.999797862047354
100
AcDbArc
 50
89.9988430828
 51
179.9989690804
  0
ARC
  5
200
330
1F
100
AcDbEntity
  8
0
  6
Continuous
 62
     7
370
    15
100
AcDbCircle
 10
270.7263808078
 20
81.2169797496
 30
0.0
 40
9.999799578113437
100
AcDbArc
 50
0.0010407521
 51
90.0011497527
  0
LINE
  5
201
330
1F
100
AcDbEntity
  8
0
  6
Continuous
 62
     7
370
    15
100
AcDbLine
 10
362.9740257472
 20
104.2208885891
 30
0.0
 11
362.9653011173
 21
103.2208865625
 31
0.0
  0
LINE
  5
202
330
1F
100
AcDbEntity
  8
0
  6
Continuous
 62
     7
370
    15
100
AcDbLine
 10
362.9740257472
 20
104.2208885891
 30
0.0
 11
374.7761775464
 21
104.2208885891
 31
0.0
  0
LINE
  5
203
330
1F
100
AcDbEntity
  8
0
  6
Continuous
 62
     7
370
    15
100
AcDbLine
 10
374.7761775464
 20
104.2208885891
 30
0.0
 11
374.7761775464
 21
33.2208857988
 31
0.0
  0
LINE
  5
204
330
1F
100
AcDbEntity
  8
0
  6
Continuous
 62
     7
370
    15
100
AcDbLine
 10
374.7761775464
 20
104.2208885891
 30
0.0
 11
376.9565750569
 21
104.2208885891
 31
0.0
  0
LINE
  5
205
330
1F
100
AcDbEntity
  8
0
  6
Continuous
 62
     7
370
    15
100
AcDbLine
 10
376.9565750569
 20
104.2208885891
 30
0.0
 11
377.5761802405
 21
33.2208857988
 31
0.0
  0
LINE
  5
206
330
1F
100
AcDbEntity
  8
0
  6
Continuous
 62
     7
370
    15
100
AcDbLine
 10
201.6761828869
 20
104.2208885891
 30
0.0
 11
201.6761828869
 21
33.2208857988
 31
0.0
  0
LINE
  5
207
330
1F
100
AcDbEntity
  8
0
  6
Continuous
 62
     7
370
    15
100
AcDbLine
 10
201.6761828869
 20
104.2208885891
 30
0.0
 11
213.4783346861
 21
104.2208885891
 31
0.0
  0
LINE
  5
208
330
1F
100
AcDbEntity
  8
0
  6
Continuous
 62
     7
370
    15
100
AcDbLine
 10
213.4783346861
 20
104.2208885891
 30
0.0
 11
213.487059316
 21
103.2208865625
 31
0.0
  0
LINE
  5
209
330
1F
100
AcDbEntity
  8
0
  6
Continuous
 62
     7
370
    15
100
AcDbLine
 10
199.4957853764
 20
104.2208885891
 30
0.0
 11
198.8761801928
 21
33.2208857988
 31
0.0
  0
LINE
  5
20A
330
1F
100
AcDbEntity
  8
0
  6
Continuous
 62
     7
370
    15
100
AcDbLine
 10
199.4957853764
 20
104.2208885891
 30
0.0
 11
201.6761828869
 21
104.2208885891
 31
0.0
  0
LINE
  5
20B
330
1F
100
AcDbEntity
  8
0
  6
Continuous
 62
     7
370
    15
100
AcDbLine
 10
377.5588799923
 20
35.203432676
 30
0.0
 11
378.2239709705
 21
35.203432676
 31
0.0
  0
LWPOLYLINE
  5
20C
330
1F
100
AcDbEntity
  8
0
  6
Continuous
 62
     7
370
    15
100
AcDbPolyline
 90
        9
 70
   128
 43
0.0
 10
378.2239709705
 20
35.203432676
 10
378.2273535341
 20
34.815738455
 10
378.2306019872
 20
34.4434417901
 10
378.2335971206
 20
34.1006917996
 10
378.2362122744
 20
33.8005148923
 10
378.2383654922
 20
33.554319304
 10
378.2399599164
 20
33.3714611014
 10
378.2409433931
 20
33.2588907448
 10
378.2412712186
 20
33.2208857988
  0
LINE
  5
20D
330
1F
100
AcDbEntity
  8
0
  6
Continuous
 62
     7
370
    15
100
AcDbLine
 10
198.2283894628
 20
35.203432676
 30
0.0
 11
198.8934804409
 21
35.203432676
 31
0.0
  0
LWPOLYLINE
  5
20E
330
1F
100
AcDbEntity
  8
0
  6
Continuous
 62
     7
370
    15
100
AcDbPolyline
 90
        9
 70
   128
 43
0.0
 10
198.2110892147
 20
33.2208857988
 10
198.2114170402
 20
33.2588907448
 10
198.2124005168
 20
33.3714611014
 10
198.2139949411
 20
33.554319304
 10
198.2161481589
 20
33.8005148923
 10
198.2187633127
 20
34.1006917996
 10
198.2217584461
 20
34.4434417901
 10
198.2250068992
 20
34.815738455
 10
198.2283894628
 20
35.203432676
  0
LINE
  5
20F
330
1F
100
AcDbEntity
  8
0
  6
Continuous
 62
     7
370
    15
100
AcDbLine
 10
378.2239709705
 20
35.203432676
 30
0.0
 11
377.6303906649
 21
103.2208865625
 31
0.0
  0
LINE
  5
210
330
1F
100
AcDbEntity
  8
0
  6
Continuous
 62
     7
370
    15
100
AcDbLine
 10
376.9652996868
 20
103.2208865625
 30
0.0
 11
377.6303906649
 21
103.2208865625
 31
0.0
  0
LINE
  5
211
330
1F
100
AcDbEntity
  8
0
  6
Continuous
 62
     7
370
    15
100
AcDbLine
 10
198.8219697684
 20
103.2208865625
 30
0.0
 11
198.2283894628
 21
35.203432676
 31
0.0
  0
LINE
  5
212
330
1F
100
AcDbEntity
  8
0
  6
Continuous
 62
     7
370
    15
100
AcDbLine
 10
199.4870607465
 20
103.2208865625
 30
0.0
 11
198.8219697684
 21
103.2208865625
 31
0.0
  0
LINE
  5
213
330
1F
100
AcDbEntity
  8
0
  6
Continuous
 62
     7
370
    15
100
AcDbLine
 10
518.6792303084
 20
279.6570846622
 30
0.0
 11
518.6809756069
 21
279.6570846622
 31
0.0
  0
LINE
  5
214
330
1F
100
AcDbEntity
  8
0
  6
Continuous
 62
     7
370
    15
100
AcDbLine
 10
518.6809756069
 20
300.1570852285
 30
0.0
 11
518.6792303084
 21
300.1570852285
 31
0.0
  0
LINE
  5
215
330
1F
100
AcDbEntity
  8
0
  6
Continuous
 62
     7
370
    15
100
AcDbLine
 10
518.6792303084
 20
244.6570845132
 30
0.0
 11
518.6809756069
 21
244.6570845132
 31
0.0
  0
LINE
  5
216
330
1F
100
AcDbEntity
  8
0
  6
Continuous
 62
     7
370
    15
100
AcDbLine
 10
518.6809756069
 20
265.1570850795
 30
0.0
 11
518.6792303084
 21
265.1570850795
 31
0.0
  0
LINE
  5
217
330
1F
100
AcDbEntity
  8
0
  6
Continuous
 62
     7
370
    15
100
AcDbLine
 10
518.6792303084
 20
314.6570848112
 30
0.0
 11
518.6809756069
 21
314.6570848112
 31
0.0
  0
LINE
  5
218
330
1F
100
AcDbEntity
  8
0
  6
Continuous
 62
     7
370
    15
100
AcDbLine
 10
518.6809756069
 20
335.1570816522
 30
0.0
 11
518.6792303084
 21
335.1570816522
 31
0.0
  0
LINE
  5
219
330
1F
100
AcDbEntity
  8
0
  6
Continuous
 62
     7
370
    15
100
AcDbLine
 10
518.6792303084
 20
209.6570880895
 30
0.0
 11
518.6809756069
 21
209.6570880895
 31
0.0
  0
LINE
  5
21A
330
1F
100
AcDbEntity
  8
0
  6
Continuous
 62
     7
370
    15
100
AcDbLine
 10
518.6809756069
 20
230.1570849305
 30
0.0
 11
518.6792303084
 21
230.1570849305
 31
0.0
  0
LINE
  5
21B
330
1F
100
AcDbEntity
  8
0
  6
Continuous
 62
     7
370
    15
100
AcDbLine
 10
487.6821570306
 20
250.9070841407
 30
0.0
 11
487.6804098694
 21
250.9070841407
 31
0.0
  0
LINE
  5
21C
330
1F
100
AcDbEntity
  8
0
  6
Continuous
 62
     7
370
    15
100
AcDbLine
 10
487.6821570306
 20
318.9070859735
 30
0.0
 11
487.6804098694
 21
318.9070859735
 31
0.0
  0
LINE
  5
21D
330
1F
100
AcDbEntity
  8
0
  6
Continuous
 62
     7
370
    15
100
AcDbLine
 10
487.6821570306
 20
282.657085154
 30
0.0
 11
487.6804098694
 21
282.657085154
 31
0.0
  0
LINE
  5
21E
330
1F
100
AcDbEntity
  8
0
  6
Continuous
 62
     7
370
    15
100
AcDbLine
 10
477.6825353711
 20
218.4070834701
 30
0.0
 11
477.6807919352
 21
218.4070834701
 31
0.0
  0
LINE
  5
21F
330
1F
100
AcDbEntity
  8
0
  6
Continuous
 62
     7
370
    15
100
AcDbLine
 10
477.6825353711
 20
338.4070845132
 30
0.0
 11
477.6807919352
 21
338.4070845132
 31
0.0
  0
LINE
  5
220
330
1F
100
AcDbEntity
  8
0
  6
Continuous
 62
     7
370
    15
100
AcDbLine
 10
464.6784670858
 20
347.3462017064
 30
0.0
 11
464.6784670858
 21
197.4679680353
 31
0.0
  0
LINE
  5
221
330
1F
100
AcDbEntity
  8
0
  6
Continuous
 62
     7
370
    15
100
AcDbLine
 10
464.6784670858
 20
347.3462017064
 30
0.0
 11
532.6959209724
 21
347.939782012
 31
0.0
  0
ARC
  5
222
330
1F
100
AcDbEntity
  8
0
  6
Continuous
 62
     7
370
    15
100
AcDbCircle
 10
532.6784680395
 20
349.939707292
 30
0.0
 40
2.000000000000012
100
AcDbArc
 50
270.5
 51
0.0
  0
LINE
  5
223
330
1F
100
AcDbEntity
  8
0
  6
Continuous
 62
     7
370
    15
100
AcDbLine
 10
534.6784678495
 20
358.9570822006
 30
0.0
 11
534.6784678495
 21
349.9397041087
 31
0.0
  0
LINE
  5
224
330
1F
100
AcDbEntity
  8
0
  6
Continuous
 62
     7
370
    15
100
AcDbLine
 10
534.6784678495
 20
358.9570822006
 30
0.0
 11
538.6784680395
 21
358.9570822006
 31
0.0
  0
LINE
  5
225
330
1F
100
AcDbEntity
  8
0
  6
Continuous
 62
     7
370
    15
100
AcDbLine
 10
538.6784680395
 20
358.9570822006
 30
0.0
 11
538.6784680395
 21
185.8570875411
 31
0.0
  0
LINE
  5
226
330
1F
100
AcDbEntity
  8
0
  6
Continuous
 62
     7
370
    15
100
AcDbLine
 10
534.6784678495
 20
185.8570875411
 30
0.0
 11
538.6784680395
 21
185.8570875411
 31
0.0
  0
LINE
  5
227
330
1F
100
AcDbEntity
  8
0
  6
Continuous
 62
     7
370
    15
100
AcDbLine
 10
534.6784678495
 20
194.8744656329
 30
0.0
 11
534.6784678495
 21
185.8570875411
 31
0.0
  0
ARC
  5
228
330
1F
100
AcDbEntity
  8
0
  6
Continuous
 62
     7
370
    15
100
AcDbCircle
 10
532.6784680395
 20
194.8744624497
 30
0.0
 40
2.000000000000012
100
AcDbArc
 50
0.0
 51
89.5
  0
LINE
  5
229
330
1F
100
AcDbEntity
  8
0
  6
Continuous
 62
     7
370
    15
100
AcDbLine
 10
532.6959209724
 20
196.8743877297
 30
0.0
 11
464.6784670858
 21
197.4679680353
 31
0.0
  0
CIRCLE
  5
22A
330
1F
100
AcDbEntity
  8
0
  6
Continuous
 62
     7
370
    15
100
AcDbCircle
 10
518.6789494719
 20
219.9071263388
 30
0.0
 40
10.24988996425312
  0
CIRCLE
  5
22B
330
1F
100
AcDbEntity
  8
0
  6
Continuous
 62
     7
370
    15
100
AcDbCircle
 10
518.6789495977
 20
254.9071246356
 30
0.0
 40
10.24988983847754
  0
CIRCLE
  5
22C
330
1F
100
AcDbEntity
  8
0
  6
Continuous
 62
     7
370
    15
100
AcDbCircle
 10
487.6800822588
 20
238.4071396721
 30
0.0
 40
12.49985002855153
  0
CIRCLE
  5
22D
330
1F
100
AcDbEntity
  8
0
  6
Continuous
 62
     7
370
    15
100
AcDbCircle
 10
487.680131133
 20
272.4071247194
 30
0.0
 40
10.24988972678299
  0
CIRCLE
  5
22E
330
1F
100
AcDbEntity
  8
0
  6
Continuous
 62
     7
370
    15
100
AcDbCircle
 10
477.6806321066
 20
212.4071141907
 30
0.0
 40
5.999929844199279
  0
CIRCLE
  5
22F
330
1F
100
AcDbEntity
  8
0
  6
Continuous
 62
     7
370
    15
100
AcDbCircle
 10
487.6807368584
 20
306.4070300241
 30
0.0
 40
12.49984940683628
  0
CIRCLE
  5
230
330
1F
100
AcDbEntity
  8
0
  6
Continuous
 62
     7
370
    15
100
AcDbCircle
 10
477.6809512853
 20
332.4070554989
 30
0.0
 40
5.99992936562631
  0
CIRCLE
  5
231
330
1F
100
AcDbEntity
  8
0
  6
Continuous
 62
     7
370
    15
100
AcDbCircle
 10
518.6795091565
 20
289.9070451061
 30
0.0
 40
10.2498898384776
  0
CIRCLE
  5
232
330
1F
100
AcDbEntity
  8
0
  6
Continuous
 62
     7
370
    15
100
AcDbCircle
 10
518.6795092823
 20
324.9070434029
 30
0.0
 40
10.24988996425306
  0
LINE
  5
233
330
1F
100
AcDbEntity
  8
0
  6
Continuous
 62
     7
370
    15
100
AcDbLine
 10
538.6784680395
 20
362.4570818429
 30
0.0
 11
538.6784680395
 21
358.9570822006
 31
0.0
  0
LINE
  5
234
330
1F
100
AcDbEntity
  8
0
  6
Continuous
 62
     7
370
    15
100
AcDbLine
 10
534.6784678495
 20
362.4221758728
 30
0.0
 11
534.6784678495
 21
358.9570822006
 31
0.0
  0
LINE
  5
235
330
1F
100
AcDbEntity
  8
0
  6
Continuous
 62
     7
370
    15
100
AcDbLine
 10
534.6784678495
 20
362.4221758728
 30
0.0
 11
538.6784680395
 21
362.4570818429
 31
0.0
  0
LINE
  5
236
330
1F
100
AcDbEntity
  8
0
  6
Continuous
 62
     7
370
    15
100
AcDbLine
 10
538.6784680395
 20
185.8570875411
 30
0.0
 11
538.6784680395
 21
182.3570878988
 31
0.0
  0
LINE
  5
237
330
1F
100
AcDbEntity
  8
0
  6
Continuous
 62
     7
370
    15
100
AcDbLine
 10
534.6784678495
 20
182.3919938689
 30
0.0
 11
538.6784680395
 21
182.3570878988
 31
0.0
  0
LINE
  5
238
330
1F
100
AcDbEntity
  8
0
  6
Continuous
 62
     7
370
    15
100
AcDbLine
 10
534.6784678495
 20
185.8570875411
 30
0.0
 11
534.6784678495
 21
182.3919938689
 31
0.0
  0
ARC
  5
239
330
1F
100
AcDbEntity
  8
0
  6
Continuous
 62
     7
370
    15
100
AcDbCircle
 10
518.6811611339
 20
289.9072887109
 30
0.0
 40
10.24979651923847
100
AcDbArc
 50
90.001037085
 51
180.0011390379
  0
ARC
  5
23A
330
1F
100
AcDbEntity
  8
0
  6
Continuous
 62
     7
370
    15
100
AcDbCircle
 10
518.6811614615
 20
289.9068815074
 30
0.0
 40
10.24979684684378
100
AcDbArc
 50
179.9988627934
 51
269.9989610837
  0
ARC
  5
23B
330
1F
100
AcDbEntity
  8
0
  6
Continuous
 62
     7
370
    15
100
AcDbCircle
 10
518.6812817289
 20
254.9070847963
 30
0.0
 40
10.25000028769334
100
AcDbArc
 50
90.0017111707
 51
269.9982888293
  0
ARC
  5
23C
330
1F
100
AcDbEntity
  8
0
  6
Continuous
 62
     7
370
    15
100
AcDbCircle
 10
518.6811518293
 20
324.9072944388
 30
0.0
 40
10.24978721487457
100
AcDbArc
 50
90.0009850742
 51
180.0011806368
  0
ARC
  5
23D
330
1F
100
AcDbEntity
  8
0
  6
Continuous
 62
     7
370
    15
100
AcDbCircle
 10
518.6811611338
 20
324.9068813287
 30
0.0
 40
10.24979651918048
100
AcDbArc
 50
179.9988713739
 51
269.9989629151
  0
ARC
  5
23E
330
1F
100
AcDbEntity
  8
0
  6
Continuous
 62
     7
370
    15
100
AcDbCircle
 10
518.6812792745
 20
219.90708651
 30
0.0
 40
10.24999842497516
100
AcDbArc
 50
90.0016974512
 51
269.9983025488
  0
ARC
  5
23F
330
1F
100
AcDbEntity
  8
0
  6
Continuous
 62
     7
370
    15
100
AcDbCircle
 10
487.6825168585
 20
238.4070839544
 30
0.0
 40
12.50000019144356
100
AcDbArc
 50
90.0016493297
 51
269.9983506703
  0
ARC
  5
240
330
1F
100
AcDbEntity
  8
0
  6
Continuous
 62
     7
370
    15
100
AcDbCircle
 10
487.6823684258
 20
306.4073484343
 30
0.0
 40
12.4997375410506
100
AcDbArc
 50
90.0009689847
 51
180.0011996415
  0
ARC
  5
241
330
1F
100
AcDbEntity
  8
0
  6
Continuous
 62
     7
370
    15
100
AcDbCircle
 10
487.6824120342
 20
306.406866747
 30
0.0
 40
12.49978114861593
100
AcDbArc
 50
179.9989917069
 51
269.9988311291
  0
ARC
  5
242
330
1F
100
AcDbEntity
  8
0
  6
Continuous
 62
     7
370
    15
100
AcDbCircle
 10
487.682462248
 20
272.4070848708
 30
0.0
 40
10.2500002876664
100
AcDbArc
 50
90.0017061143
 51
269.9982938857
  0
ARC
  5
243
330
1F
100
AcDbEntity
  8
0
  6
Continuous
 62
     7
370
    15
100
AcDbCircle
 10
477.6827075968
 20
212.4070843493
 30
0.0
 40
5.999999123303298
100
AcDbArc
 50
90.0016446348
 51
269.9983553652
  0
ARC
  5
244
330
1F
100
AcDbEntity
  8
0
  6
Continuous
 62
     7
370
    15
100
AcDbCircle
 10
477.682630728
 20
332.40721914
 30
0.0
 40
5.999865373941353
100
AcDbArc
 50
90.000910612
 51
180.001295012
  0
ARC
  5
245
330
1F
100
AcDbEntity
  8
0
  6
Continuous
 62
     7
370
    15
100
AcDbCircle
 10
477.682630728
 20
332.4069516446
 30
0.0
 40
5.999865373812269
100
AcDbArc
 50
179.9987405615
 51
269.9990893884
  0
LINE
  5
246
330
1F
100
AcDbEntity
  8
0
  6
Continuous
 62
     7
370
    15
100
AcDbLine
 10
463.6784650593
 20
358.9570822006
 30
0.0
 11
534.6784678495
 21
358.9570822006
 31
0.0
  0
LINE
  5
247
330
1F
100
AcDbEntity
  8
0
  6
Continuous
 62
     7
370
    15
100
AcDbLine
 10
463.6784650593
 20
358.9570822006
 30
0.0
 11
463.6784650593
 21
361.1374797111
 31
0.0
  0
LINE
  5
248
330
1F
100
AcDbEntity
  8
0
  6
Continuous
 62
     7
370
    15
100
AcDbLine
 10
463.6784650593
 20
361.1374797111
 30
0.0
 11
534.6784678495
 21
361.7570848947
 31
0.0
  0
LINE
  5
249
330
1F
100
AcDbEntity
  8
0
  6
Continuous
 62
     7
370
    15
100
AcDbLine
 10
463.6784650593
 20
183.6766900306
 30
0.0
 11
534.6784678495
 21
183.057084847
 31
0.0
  0
LINE
  5
24A
330
1F
100
AcDbEntity
  8
0
  6
Continuous
 62
     7
370
    15
100
AcDbLine
 10
463.6784650593
 20
183.6766900306
 30
0.0
 11
463.6784650593
 21
185.8570875411
 31
0.0
  0
LINE
  5
24B
330
1F
100
AcDbEntity
  8
0
  6
Continuous
 62
     7
370
    15
100
AcDbLine
 10
463.6784650593
 20
185.8570875411
 30
0.0
 11
534.6784678495
 21
185.8570875411
 31
0.0
  0
LINE
  5
24C
330
1F
100
AcDbEntity
  8
0
  6
Continuous
 62
     7
370
    15
100
AcDbLine
 10
463.6784650593
 20
347.1549304014
 30
0.0
 11
464.6784670858
 21
347.1462057715
 31
0.0
  0
LINE
  5
24D
330
1F
100
AcDbEntity
  8
0
  6
Continuous
 62
     7
370
    15
100
AcDbLine
 10
463.6784650593
 20
347.1549304014
 30
0.0
 11
463.6784650593
 21
358.9570822006
 31
0.0
  0
LINE
  5
24E
330
1F
100
AcDbEntity
  8
0
  6
Continuous
 62
     7
370
    15
100
AcDbLine
 10
463.6784650593
 20
185.8570875411
 30
0.0
 11
463.6784650593
 21
197.6592393403
 31
0.0
  0
LINE
  5
24F
330
1F
100
AcDbEntity
  8
0
  6
Continuous
 62
     7
370
    15
100
AcDbLine
 10
463.6784650593
 20
197.6592393403
 30
0.0
 11
464.6784670858
 21
197.6679639702
 31
0.0
  0
LINE
  5
250
330
1F
100
AcDbEntity
  8
0
  6
Continuous
 62
     7
370
    15
100
AcDbLine
 10
532.6959209724
 20
361.7397846465
 30
0.0
 11
532.6959209724
 21
362.4048756247
 31
0.0
  0
LWPOLYLINE
  5
251
330
1F
100
AcDbEntity
  8
0
  6
Continuous
 62
     7
370
    15
100
AcDbPolyline
 90
        9
 70
   128
 43
0.0
 10
532.6959209724
 20
362.4048756247
 10
533.0836151934
 20
362.4082581883
 10
533.4559118583
 20
362.4115066414
 10
533.7986618488
 20
362.4145017748
 10
534.0988387561
 20
362.4171169286
 10
534.3450343444
 20
362.4192701464
 10
534.527892547
 20
362.4208645707
 10
534.6404629036
 20
362.4218480473
 10
534.6784678495
 20
362.4221758728
  0
LINE
  5
252
330
1F
100
AcDbEntity
  8
0
  6
Continuous
 62
     7
370
    15
100
AcDbLine
 10
532.6959209724
 20
182.409294117
 30
0.0
 11
532.6959209724
 21
183.0743850952
 31
0.0
  0
LWPOLYLINE
  5
253
330
1F
100
AcDbEntity
  8
0
  6
Continuous
 62
     7
370
    15
100
AcDbPolyline
 90
        9
 70
   128
 43
0.0
 10
534.6784678495
 20
182.3919938689
 10
534.6404629036
 20
182.3923216944
 10
534.527892547
 20
182.393305171
 10
534.3450343444
 20
182.3948995953
 10
534.0988387561
 20
182.3970528131
 10
533.7986618488
 20
182.3996679669
 10
533.4559118583
 20
182.4026631003
 10
533.0836151934
 20
182.4059115534
 10
532.6959209724
 20
182.409294117
  0
LINE
  5
254
330
1F
100
AcDbEntity
  8
0
  6
Continuous
 62
     7
370
    15
100
AcDbLine
 10
532.6959209724
 20
362.4048756247
 30
0.0
 11
464.6784670858
 21
361.8112953191
 31
0.0
  0
LINE
  5
255
330
1F
100
AcDbEntity
  8
0
  6
Continuous
 62
     7
370
    15
100
AcDbLine
 10
464.6784670858
 20
361.146204341
 30
0.0
 11
464.6784670858
 21
361.8112953191
 31
0.0
  0
LINE
  5
256
330
1F
100
AcDbEntity
  8
0
  6
Continuous
 62
     7
370
    15
100
AcDbLine
 10
464.6784670858
 20
183.0028744226
 30
0.0
 11
532.6959209724
 21
182.409294117
 31
0.0
  0
LINE
  5
257
330
1F
100
AcDbEntity
  8
0
  6
Continuous
 62
     7
370
    15
100
AcDbLine
 10
464.6784670858
 20
183.6679654007
 30
0.0
 11
464.6784670858
 21
183.0028744226
 31
0.0
  0
LINE
  5
258
330
1F
100
AcDbEntity
  8
0
  6
Continuous
 62
     7
370
    15
100
AcDbLine
 10
611.1739415753
 20
197.6592393403
 30
0.0
 11
609.1913942325
 21
197.6592393403
 31
0.0
  0
LINE
  5
259
330
1F
100
AcDbEntity
  8
0
  6
Continuous
 62
     7
370
    15
100
AcDbLine
 10
611.1739415753
 20
185.8570875411
 30
0.0
 11
611.1739415753
 21
197.6592393403
 31
0.0
  0
ARC
  5
25A
330
1F
100
AcDbEntity
  8
0
  6
Continuous
 62
     7
370
    15
100
AcDbCircle
 10
611.3717890727
 20
185.8570848708
 30
0.0
 40
0.1978461224375963
100
AcDbArc
 50
180.0
 51
270.0
  0
LINE
  5
25B
330
1F
100
AcDbEntity
  8
0
  6
Continuous
 62
     7
370
    15
100
AcDbLine
 10
623.1739435422
 20
185.6592373734
 30
0.0
 11
611.371791743
 21
185.6592373734
 31
0.0
  0
LINE
  5
25C
330
1F
100
AcDbEntity
  8
0
  6
Continuous
 62
     7
370
    15
100
AcDbLine
 10
623.1739435422
 20
183.6766900306
 30
0.0
 11
623.1739435422
 21
185.6592373734
 31
0.0
  0
LINE
  5
25D
330
1F
100
AcDbEntity
  8
0
  6
Continuous
 62
     7
370
    15
100
AcDbLine
 10
611.371791743
 20
183.6766900306
 30
0.0
 11
623.1739435422
 21
183.6766900306
 31
0.0
  0
ARC
  5
25E
330
1F
100
AcDbEntity
  8
0
  6
Continuous
 62
     7
370
    15
100
AcDbCircle
 10
611.3717890727
 20
185.8570848708
 30
0.0
 40
2.18039238685617
100
AcDbArc
 50
180.0
 51
270.0
  0
LINE
  5
25F
330
1F
100
AcDbEntity
  8
0
  6
Continuous
 62
     7
370
    15
100
AcDbLine
 10
609.1913942325
 20
197.6592393403
 30
0.0
 11
609.1913942325
 21
185.8570875411
 31
0.0
  0
LINE
  5
260
330
1F
100
AcDbEntity
  8
0
  6
Continuous
 62
     7
370
    15
100
AcDbLine
 10
609.1913942325
 20
358.9570822006
 30
0.0
 11
608.5717890489
 21
358.9570822006
 31
0.0
  0
LINE
  5
261
330
1F
100
AcDbEntity
  8
0
  6
Continuous
 62
     7
370
    15
100
AcDbLine
 10
609.1913942325
 20
358.9570822006
 30
0.0
 11
609.1913942325
 21
347.1549304014
 31
0.0
  0
LINE
  5
262
330
1F
100
AcDbEntity
  8
0
  6
Continuous
 62
     7
370
    15
100
AcDbLine
 10
609.1913942325
 20
347.1549304014
 30
0.0
 11
609.1826696026
 21
347.1462057715
 31
0.0
  0
LINE
  5
263
330
1F
100
AcDbEntity
  8
0
  6
Continuous
 62
     7
370
    15
100
AcDbLine
 10
609.1826696026
 20
347.3462017064
 30
0.0
 11
609.1826696026
 21
347.1462057715
 31
0.0
  0
LINE
  5
264
330
1F
100
AcDbEntity
  8
0
  6
Continuous
 62
     7
370
    15
100
AcDbLine
 10
609.1826696026
 20
347.3462017064
 30
0.0
 11
608.589089297
 21
347.939782012
 31
0.0
  0
ELLIPSE
  5
265
330
1F
100
AcDbEntity
  8
0
  6
Continuous
 62
     7
370
    15
100
AcDbEllipse
 10
608.5892428083
 20
349.939707292
 30
0.0
 11
-1.136868377216160E-13
 21
2.0
 31
0.0
210
0.0
220
0.0
230
1.0
 40
0.0087268678
 41
1.570796326794896
 42
3.132866007318501
  0
LINE
  5
266
330
1F
100
AcDbEntity
  8
0
  6
Continuous
 62
     7
370
    15
100
AcDbLine
 10
608.5717890489
 20
358.9570822006
 30
0.0
 11
608.5717890489
 21
349.9397041087
 31
0.0
  0
LINE
  5
267
330
1F
100
AcDbEntity
  8
0
  6
Continuous
 62
     7
370
    15
100
AcDbLine
 10
611.371791743
 20
361.1374797111
 30
0.0
 11
611.371791743
 21
361.7570848947
 31
0.0
  0
ARC
  5
268
330
1F
100
AcDbEntity
  8
0
  6
Continuous
 62
     7
370
    15
100
AcDbCircle
 10
611.3717890727
 20
358.9570848708
 30
0.0
 40
2.18039238685617
100
AcDbArc
 50
90.0
 51
180.0
  0
ARC
  5
269
330
1F
100
AcDbEntity
  8
0
  6
Continuous
 62
     7
370
    15
100
AcDbCircle
 10
611.3717890727
 20
358.9570848708
 30
0.0
 40
2.800000000000068
100
AcDbArc
 50
90.0
 51
180.0
  0
LINE
  5
26A
330
1F
100
AcDbEntity
  8
0
  6
Continuous
 62
     7
370
    15
100
AcDbLine
 10
609.1826696026
 20
197.6679639702
 30
0.0
 11
609.1826696026
 21
197.4679680353
 31
0.0
  0
LINE
  5
26B
330
1F
100
AcDbEntity
  8
0
  6
Continuous
 62
     7
370
    15
100
AcDbLine
 10
609.1913942325
 20
197.6592393403
 30
0.0
 11
609.1826696026
 21
197.6679639702
 31
0.0
  0
LINE
  5
26C
330
1F
100
AcDbEntity
  8
0
  6
Continuous
 62
     7
370
    15
100
AcDbLine
 10
609.1913942325
 20
185.8570875411
 30
0.0
 11
608.5717890489
 21
185.8570875411
 31
0.0
  0
LINE
  5
26D
330
1F
100
AcDbEntity
  8
0
  6
Continuous
 62
     7
370
    15
100
AcDbLine
 10
608.5717890489
 20
194.8744656329
 30
0.0
 11
608.5717890489
 21
185.8570875411
 31
0.0
  0
ELLIPSE
  5
26E
330
1F
100
AcDbEntity
  8
0
  6
Continuous
 62
     7
370
    15
100
AcDbEllipse
 10
608.5892428083
 20
194.8744624497
 30
0.0
 11
0.0
 21
2.0
 31
0.0
210
0.0
220
0.0
230
1.0
 40
0.0087268678
 41
0.0087266462647659
 42
1.570796326794897
  0
LINE
  5
26F
330
1F
100
AcDbEntity
  8
0
  6
Continuous
 62
     7
370
    15
100
AcDbLine
 10
609.1826696026
 20
197.4679680353
 30
0.0
 11
608.589089297
 21
196.8743877297
 31
0.0
  0
LINE
  5
270
330
1F
100
AcDbEntity
  8
0
  6
Continuous
 62
     7
370
    15
100
AcDbLine
 10
611.1739415753
 20
197.6592393403
 30
0.0
 11
611.1826662051
 21
197.6679639702
 31
0.0
  0
LINE
  5
271
330
1F
100
AcDbEntity
  8
0
  6
Continuous
 62
     7
370
    15
100
AcDbLine
 10
611.1826662051
 20
197.6679639702
 30
0.0
 11
609.1826696026
 21
197.6679639702
 31
0.0
  0
LINE
  5
272
330
1F
100
AcDbEntity
  8
0
  6
Continuous
 62
     7
370
    15
100
AcDbLine
 10
623.1739435422
 20
361.1374797111
 30
0.0
 11
611.371791743
 21
361.1374797111
 31
0.0
  0
LINE
  5
273
330
1F
100
AcDbEntity
  8
0
  6
Continuous
 62
     7
370
    15
100
AcDbLine
 10
623.1739435422
 20
359.1549323683
 30
0.0
 11
623.1739435422
 21
361.1374797111
 31
0.0
  0
LINE
  5
274
330
1F
100
AcDbEntity
  8
0
  6
Continuous
 62
     7
370
    15
100
AcDbLine
 10
611.371791743
 20
359.1549323683
 30
0.0
 11
623.1739435422
 21
359.1549323683
 31
0.0
  0
ARC
  5
275
330
1F
100
AcDbEntity
  8
0
  6
Continuous
 62
     7
370
    15
100
AcDbCircle
 10
611.3717890727
 20
358.9570848708
 30
0.0
 40
0.1978461224376815
100
AcDbArc
 50
90.0
 51
180.0
  0
LINE
  5
276
330
1F
100
AcDbEntity
  8
0
  6
Continuous
 62
     7
370
    15
100
AcDbLine
 10
611.1739415753
 20
347.1549304014
 30
0.0
 11
611.1739415753
 21
358.9570822006
 31
0.0
  0
LINE
  5
277
330
1F
100
AcDbEntity
  8
0
  6
Continuous
 62
     7
370
    15
100
AcDbLine
 10
609.1913942325
 20
347.1549304014
 30
0.0
 11
611.1739415753
 21
347.1549304014
 31
0.0
  0
LINE
  5
278
330
1F
100
AcDbEntity
  8
0
  6
Continuous
 62
     7
370
    15
100
AcDbLine
 10
611.1739415753
 20
347.1549304014
 30
0.0
 11
611.1826662051
 21
347.1462057715
 31
0.0
  0
LINE
  5
279
330
1F
100
AcDbEntity
  8
0
  6
Continuous
 62
     7
370
    15
100
AcDbLine
 10
609.1826696026
 20
347.1462057715
 30
0.0
 11
611.1826662051
 21
347.1462057715
 31
0.0
  0
LINE
  5
27A
330
1F
100
AcDbEntity
  8
0
  6
Continuous
 62
     7
370
    15
100
AcDbLine
 10
611.371791743
 20
183.6766900306
 30
0.0
 11
611.371791743
 21
183.057084847
 31
0.0
  0
ARC
  5
27B
330
1F
100
AcDbEntity
  8
0
  6
Continuous
 62
     7
370
    15
100
AcDbCircle
 10
611.3717890727
 20
185.8570848708
 30
0.0
 40
2.800000000000068
100
AcDbArc
 50
180.0
 51
270.0
  0
LINE
  5
27C
330
1F
100
AcDbEntity
  8
0
  6
Continuous
 62
     7
370
    15
100
AcDbLine
 10
611.371791743
 20
359.1549323683
 30
0.0
 11
611.371791743
 21
359.1462077384
 31
0.0
  0
LINE
  5
27D
330
1F
100
AcDbEntity
  8
0
  6
Continuous
 62
     7
370
    15
100
AcDbLine
 10
623.1739435422
 20
359.1549323683
 30
0.0
 11
623.1826681721
 21
359.1462077384
 31
0.0
  0
LINE
  5
27E
330
1F
100
AcDbEntity
  8
0
  6
Continuous
 62
     7
370
    15
100
AcDbLine
 10
611.371791743
 20
359.1462077384
 30
0.0
 11
623.1826681721
 21
359.1462077384
 31
0.0
  0
LINE
  5
27F
330
1F
100
AcDbEntity
  8
0
  6
Continuous
 62
     7
370
    15
100
AcDbLine
 10
611.1739415753
 20
358.9570822006
 30
0.0
 11
611.1826662051
 21
358.9570822006
 31
0.0
  0
ARC
  5
280
330
1F
100
AcDbEntity
  8
0
  6
Continuous
 62
     7
370
    15
100
AcDbCircle
 10
611.3717890727
 20
358.9570848708
 30
0.0
 40
0.1891192546469256
100
AcDbArc
 50
90.0
 51
180.0
  0
LINE
  5
281
330
1F
100
AcDbEntity
  8
0
  6
Continuous
 62
     7
370
    15
100
AcDbLine
 10
623.1739435422
 20
185.6592373734
 30
0.0
 11
623.1826681721
 21
185.6679620033
 31
0.0
  0
LINE
  5
282
330
1F
100
AcDbEntity
  8
0
  6
Continuous
 62
     7
370
    15
100
AcDbLine
 10
611.371791743
 20
185.6592373734
 30
0.0
 11
611.371791743
 21
185.6679620033
 31
0.0
  0
LINE
  5
283
330
1F
100
AcDbEntity
  8
0
  6
Continuous
 62
     7
370
    15
100
AcDbLine
 10
623.1826681721
 20
185.6679620033
 30
0.0
 11
611.371791743
 21
185.6679620033
 31
0.0
  0
LINE
  5
284
330
1F
100
AcDbEntity
  8
0
  6
Continuous
 62
     7
370
    15
100
AcDbLine
 10
623.1739435422
 20
183.6766900306
 30
0.0
 11
623.1826681721
 21
183.6679654007
 31
0.0
  0
LINE
  5
285
330
1F
100
AcDbEntity
  8
0
  6
Continuous
 62
     7
370
    15
100
AcDbLine
 10
622.9826722371
 20
183.6679654007
 30
0.0
 11
623.1826681721
 21
183.6679654007
 31
0.0
  0
LINE
  5
286
330
1F
100
AcDbEntity
  8
0
  6
Continuous
 62
     7
370
    15
100
AcDbLine
 10
622.9826722371
 20
183.6679654007
 30
0.0
 11
622.3890919316
 21
183.0743850952
 31
0.0
  0
ELLIPSE
  5
287
330
1F
100
AcDbEntity
  8
0
  6
Continuous
 62
     7
370
    15
100
AcDbEllipse
 10
620.3891666515
 20
183.0745386064
 30
0.0
 11
2.0
 21
-2.842170943040401E-14
 31
0.0
210
0.0
220
0.0
230
1.0
 40
0.0087268678
 41
4.71238898038469
 42
6.274458660921185
  0
LINE
  5
288
330
1F
100
AcDbEntity
  8
0
  6
Continuous
 62
     7
370
    15
100
AcDbLine
 10
611.371791743
 20
183.057084847
 30
0.0
 11
620.3891698348
 21
183.057084847
 31
0.0
  0
LINE
  5
289
330
1F
100
AcDbEntity
  8
0
  6
Continuous
 62
     7
370
    15
100
AcDbLine
 10
611.1826662051
 20
347.1462057715
 30
0.0
 11
611.1826662051
 21
358.9570822006
 31
0.0
  0
LINE
  5
28A
330
1F
100
AcDbEntity
  8
0
  6
Continuous
 62
     7
370
    15
100
AcDbLine
 10
611.1739415753
 20
185.8570875411
 30
0.0
 11
611.1826662051
 21
185.8570875411
 31
0.0
  0
LINE
  5
28B
330
1F
100
AcDbEntity
  8
0
  6
Continuous
 62
     7
370
    15
100
AcDbLine
 10
611.1826662051
 20
185.8570875411
 30
0.0
 11
611.1826662051
 21
197.6679639702
 31
0.0
  0
ARC
  5
28C
330
1F
100
AcDbEntity
  8
0
  6
Continuous
 62
     7
370
    15
100
AcDbCircle
 10
611.3717890727
 20
185.8570848708
 30
0.0
 40
0.1891192546468687
100
AcDbArc
 50
180.0
 51
270.0
  0
LINE
  5
28D
330
1F
100
AcDbEntity
  8
0
  6
Continuous
 62
     7
370
    15
100
AcDbLine
 10
623.1826681721
 20
361.146204341
 30
0.0
 11
622.9826722371
 21
361.146204341
 31
0.0
  0
LINE
  5
28E
330
1F
100
AcDbEntity
  8
0
  6
Continuous
 62
     7
370
    15
100
AcDbLine
 10
623.1739435422
 20
361.1374797111
 30
0.0
 11
623.1826681721
 21
361.146204341
 31
0.0
  0
LINE
  5
28F
330
1F
100
AcDbEntity
  8
0
  6
Continuous
 62
     7
370
    15
100
AcDbLine
 10
620.3891698348
 20
361.7570848947
 30
0.0
 11
611.371791743
 21
361.7570848947
 31
0.0
  0
ELLIPSE
  5
290
330
1F
100
AcDbEntity
  8
0
  6
Continuous
 62
     7
370
    15
100
AcDbEllipse
 10
620.3891666515
 20
361.7396311353
 30
0.0
 11
2.0
 21
0.0
 31
0.0
210
0.0
220
0.0
230
1.0
 40
0.0087268678
 41
0.0087266462583094
 42
1.570796326794897
  0
LINE
  5
291
330
1F
100
AcDbEntity
  8
0
  6
Continuous
 62
     7
370
    15
100
AcDbLine
 10
622.9826722371
 20
361.146204341
 30
0.0
 11
622.3890919316
 21
361.7397846465
 31
0.0
  0
LINE
  5
292
330
1F
100
AcDbEntity
  8
0
  6
Continuous
 62
     7
370
    15
100
AcDbLine
 10
623.1826681721
 20
183.6679654007
 30
0.0
 11
623.1826681721
 21
185.6679620033
 31
0.0
  0
LINE
  5
293
330
1F
100
AcDbEntity
  8
0
  6
Continuous
 62
     7
370
    15
100
AcDbLine
 10
623.1826681721
 20
359.1462077384
 30
0.0
 11
623.1826681721
 21
361.146204341
 31
0.0
  0
LINE
  5
294
330
1F
100
AcDbEntity
  8
0
  6
Continuous
 62
     7
370
    15
100
AcDbLine
 10
772.6696346032
 20
185.6592373734
 30
0.0
 11
772.6609099734
 21
185.6679620033
 31
0.0
  0
LINE
  5
295
330
1F
100
AcDbEntity
  8
0
  6
Continuous
 62
     7
370
    15
100
AcDbLine
 10
772.6696346032
 20
185.6592373734
 30
0.0
 11
772.6696346032
 21
183.6766900306
 31
0.0
  0
LINE
  5
296
330
1F
100
AcDbEntity
  8
0
  6
Continuous
 62
     7
370
    15
100
AcDbLine
 10
772.6696346032
 20
183.6766900306
 30
0.0
 11
772.6609099734
 21
183.6679654007
 31
0.0
  0
LINE
  5
297
330
1F
100
AcDbEntity
  8
0
  6
Continuous
 62
     7
370
    15
100
AcDbLine
 10
772.6609099734
 20
185.6679620033
 30
0.0
 11
772.6609099734
 21
183.6679654007
 31
0.0
  0
LINE
  5
298
330
1F
100
AcDbEntity
  8
0
  6
Continuous
 62
     7
370
    15
100
AcDbLine
 10
772.6609099734
 20
183.6679654007
 30
0.0
 11
772.8609059083
 21
183.6679654007
 31
0.0
  0
LINE
  5
299
330
1F
100
AcDbEntity
  8
0
  6
Continuous
 62
     7
370
    15
100
AcDbLine
 10
772.6696346032
 20
183.6766900306
 30
0.0
 11
784.4717864024
 21
183.6766900306
 31
0.0
  0
LINE
  5
29A
330
1F
100
AcDbEntity
  8
0
  6
Continuous
 62
     7
370
    15
100
AcDbLine
 10
784.4717864024
 20
183.6766900306
 30
0.0
 11
784.4717864024
 21
183.057084847
 31
0.0
  0
LINE
  5
29B
330
1F
100
AcDbEntity
  8
0
  6
Continuous
 62
     7
370
    15
100
AcDbLine
 10
775.4544083106
 20
183.057084847
 30
0.0
 11
784.4717864024
 21
183.057084847
 31
0.0
  0
ELLIPSE
  5
29C
330
1F
100
AcDbEntity
  8
0
  6
Continuous
 62
     7
370
    15
100
AcDbEllipse
 10
775.4544114939
 20
183.0745386064
 30
0.0
 11
2.0
 21
0.0
 31
0.0
210
0.0
220
0.0
230
1.0
 40
0.0087268678
 41
3.150319299851344
 42
4.71238898038469
  0
LINE
  5
29D
330
1F
100
AcDbEntity
  8
0
  6
Continuous
 62
     7
370
    15
100
AcDbLine
 10
772.8609059083
 20
183.6679654007
 30
0.0
 11
773.4544862139
 21
183.0743850952
 31
0.0
  0
LINE
  5
29E
330
1F
100
AcDbEntity
  8
0
  6
Continuous
 62
     7
370
    15
100
AcDbLine
 10
786.652183913
 20
347.1549304014
 30
0.0
 11
786.652183913
 21
358.9570822006
 31
0.0
  0
LINE
  5
29F
330
1F
100
AcDbEntity
  8
0
  6
Continuous
 62
     7
370
    15
100
AcDbLine
 10
784.6696365702
 20
347.1549304014
 30
0.0
 11
786.652183913
 21
347.1549304014
 31
0.0
  0
LINE
  5
2A0
330
1F
100
AcDbEntity
  8
0
  6
Continuous
 62
     7
370
    15
100
AcDbLine
 10
784.6696365702
 20
358.9570822006
 30
0.0
 11
784.6696365702
 21
347.1549304014
 31
0.0
  0
ARC
  5
2A1
330
1F
100
AcDbEntity
  8
0
  6
Continuous
 62
     7
370
    15
100
AcDbCircle
 10
784.4717890727
 20
358.9570848708
 30
0.0
 40
0.1978461224376815
100
AcDbArc
 50
0.0
 51
90.0
  0
LINE
  5
2A2
330
1F
100
AcDbEntity
  8
0
  6
Continuous
 62
     7
370
    15
100
AcDbLine
 10
772.6696346032
 20
359.1549323683
 30
0.0
 11
784.4717864024
 21
359.1549323683
 31
0.0
  0
LINE
  5
2A3
330
1F
100
AcDbEntity
  8
0
  6
Continuous
 62
     7
370
    15
100
AcDbLine
 10
772.6696346032
 20
361.1374797111
 30
0.0
 11
772.6696346032
 21
359.1549323683
 31
0.0
  0
LINE
  5
2A4
330
1F
100
AcDbEntity
  8
0
  6
Continuous
 62
     7
370
    15
100
AcDbLine
 10
784.4717864024
 20
361.1374797111
 30
0.0
 11
772.6696346032
 21
361.1374797111
 31
0.0
  0
ARC
  5
2A5
330
1F
100
AcDbEntity
  8
0
  6
Continuous
 62
     7
370
    15
100
AcDbCircle
 10
784.4717890727
 20
358.9570848708
 30
0.0
 40
2.180392386856226
100
AcDbArc
 50
0.0
 51
90.0
  0
LINE
  5
2A6
330
1F
100
AcDbEntity
  8
0
  6
Continuous
 62
     7
370
    15
100
AcDbLine
 10
772.6696346032
 20
361.1374797111
 30
0.0
 11
772.6609099734
 21
361.146204341
 31
0.0
  0
LINE
  5
2A7
330
1F
100
AcDbEntity
  8
0
  6
Continuous
 62
     7
370
    15
100
AcDbLine
 10
772.6696346032
 20
359.1549323683
 30
0.0
 11
772.6609099734
 21
359.1462077384
 31
0.0
  0
LINE
  5
2A8
330
1F
100
AcDbEntity
  8
0
  6
Continuous
 62
     7
370
    15
100
AcDbLine
 10
772.6609099734
 20
361.146204341
 30
0.0
 11
772.6609099734
 21
359.1462077384
 31
0.0
  0
LINE
  5
2A9
330
1F
100
AcDbEntity
  8
0
  6
Continuous
 62
     7
370
    15
100
AcDbLine
 10
784.4717864024
 20
185.6592373734
 30
0.0
 11
784.4717864024
 21
185.6679620033
 31
0.0
  0
LINE
  5
2AA
330
1F
100
AcDbEntity
  8
0
  6
Continuous
 62
     7
370
    15
100
AcDbLine
 10
784.4717864024
 20
185.6592373734
 30
0.0
 11
772.6696346032
 21
185.6592373734
 31
0.0
  0
LINE
  5
2AB
330
1F
100
AcDbEntity
  8
0
  6
Continuous
 62
     7
370
    15
100
AcDbLine
 10
784.4717864024
 20
185.6679620033
 30
0.0
 11
772.6609099734
 21
185.6679620033
 31
0.0
  0
ARC
  5
2AC
330
1F
100
AcDbEntity
  8
0
  6
Continuous
 62
     7
370
    15
100
AcDbCircle
 10
784.4717890727
 20
185.8570848708
 30
0.0
 40
0.1978461224376815
100
AcDbArc
 50
270.0
 51
0.0
  0
LINE
  5
2AD
330
1F
100
AcDbEntity
  8
0
  6
Continuous
 62
     7
370
    15
100
AcDbLine
 10
784.6696365702
 20
197.6592393403
 30
0.0
 11
784.6696365702
 21
185.8570875411
 31
0.0
  0
LINE
  5
2AE
330
1F
100
AcDbEntity
  8
0
  6
Continuous
 62
     7
370
    15
100
AcDbLine
 10
786.652183913
 20
197.6592393403
 30
0.0
 11
784.6696365702
 21
197.6592393403
 31
0.0
  0
LINE
  5
2AF
330
1F
100
AcDbEntity
  8
0
  6
Continuous
 62
     7
370
    15
100
AcDbLine
 10
786.652183913
 20
185.8570875411
 30
0.0
 11
786.652183913
 21
197.6592393403
 31
0.0
  0
ARC
  5
2B0
330
1F
100
AcDbEntity
  8
0
  6
Continuous
 62
     7
370
    15
100
AcDbCircle
 10
784.4717890727
 20
185.8570848708
 30
0.0
 40
2.18039238685617
100
AcDbArc
 50
270.0
 51
0.0
  0
LINE
  5
2B1
330
1F
100
AcDbEntity
  8
0
  6
Continuous
 62
     7
370
    15
100
AcDbLine
 10
784.4717864024
 20
359.1549323683
 30
0.0
 11
784.4717864024
 21
359.1462077384
 31
0.0
  0
LINE
  5
2B2
330
1F
100
AcDbEntity
  8
0
  6
Continuous
 62
     7
370
    15
100
AcDbLine
 10
772.6609099734
 20
359.1462077384
 30
0.0
 11
784.4717864024
 21
359.1462077384
 31
0.0
  0
LINE
  5
2B3
330
1F
100
AcDbEntity
  8
0
  6
Continuous
 62
     7
370
    15
100
AcDbLine
 10
784.4717864024
 20
361.1374797111
 30
0.0
 11
784.4717864024
 21
361.7570848947
 31
0.0
  0
LINE
  5
2B4
330
1F
100
AcDbEntity
  8
0
  6
Continuous
 62
     7
370
    15
100
AcDbLine
 10
772.8609059083
 20
361.146204341
 30
0.0
 11
772.6609099734
 21
361.146204341
 31
0.0
  0
LINE
  5
2B5
330
1F
100
AcDbEntity
  8
0
  6
Continuous
 62
     7
370
    15
100
AcDbLine
 10
772.8609059083
 20
361.146204341
 30
0.0
 11
773.4544862139
 21
361.7397846465
 31
0.0
  0
ELLIPSE
  5
2B6
330
1F
100
AcDbEntity
  8
0
  6
Continuous
 62
     7
370
    15
100
AcDbEllipse
 10
775.4544114939
 20
361.7396311353
 30
0.0
 11
2.0
 21
0.0
 31
0.0
210
0.0
220
0.0
230
1.0
 40
0.0087268678
 41
1.570796326794897
 42
3.132866007328242
  0
LINE
  5
2B7
330
1F
100
AcDbEntity
  8
0
  6
Continuous
 62
     7
370
    15
100
AcDbLine
 10
784.4717864024
 20
361.7570848947
 30
0.0
 11
775.4544083106
 21
361.7570848947
 31
0.0
  0
LINE
  5
2B8
330
1F
100
AcDbEntity
  8
0
  6
Continuous
 62
     7
370
    15
100
AcDbLine
 10
784.6696365702
 20
347.1549304014
 30
0.0
 11
784.6609119403
 21
347.1462057715
 31
0.0
  0
LINE
  5
2B9
330
1F
100
AcDbEntity
  8
0
  6
Continuous
 62
     7
370
    15
100
AcDbLine
 10
786.652183913
 20
347.1549304014
 30
0.0
 11
786.6609085428
 21
347.1462057715
 31
0.0
  0
LINE
  5
2BA
330
1F
100
AcDbEntity
  8
0
  6
Continuous
 62
     7
370
    15
100
AcDbLine
 10
784.6609119403
 20
347.1462057715
 30
0.0
 11
786.6609085428
 21
347.1462057715
 31
0.0
  0
LINE
  5
2BB
330
1F
100
AcDbEntity
  8
0
  6
Continuous
 62
     7
370
    15
100
AcDbLine
 10
786.652183913
 20
197.6592393403
 30
0.0
 11
786.6609085428
 21
197.6679639702
 31
0.0
  0
LINE
  5
2BC
330
1F
100
AcDbEntity
  8
0
  6
Continuous
 62
     7
370
    15
100
AcDbLine
 10
784.6696365702
 20
197.6592393403
 30
0.0
 11
784.6609119403
 21
197.6679639702
 31
0.0
  0
LINE
  5
2BD
330
1F
100
AcDbEntity
  8
0
  6
Continuous
 62
     7
370
    15
100
AcDbLine
 10
786.6609085428
 20
197.6679639702
 30
0.0
 11
784.6609119403
 21
197.6679639702
 31
0.0
  0
LINE
  5
2BE
330
1F
100
AcDbEntity
  8
0
  6
Continuous
 62
     7
370
    15
100
AcDbLine
 10
784.6696365702
 20
358.9570822006
 30
0.0
 11
784.6609119403
 21
358.9570822006
 31
0.0
  0
LINE
  5
2BF
330
1F
100
AcDbEntity
  8
0
  6
Continuous
 62
     7
370
    15
100
AcDbLine
 10
784.6609119403
 20
358.9570822006
 30
0.0
 11
784.6609119403
 21
347.1462057715
 31
0.0
  0
ARC
  5
2C0
330
1F
100
AcDbEntity
  8
0
  6
Continuous
 62
     7
370
    15
100
AcDbCircle
 10
784.4717890727
 20
358.9570848708
 30
0.0
 40
0.1891192546469256
100
AcDbArc
 50
0.0
 51
90.0
  0
LINE
  5
2C1
330
1F
100
AcDbEntity
  8
0
  6
Continuous
 62
     7
370
    15
100
AcDbLine
 10
784.6696365702
 20
185.8570875411
 30
0.0
 11
784.6609119403
 21
185.8570875411
 31
0.0
  0
ARC
  5
2C2
330
1F
100
AcDbEntity
  8
0
  6
Continuous
 62
     7
370
    15
100
AcDbCircle
 10
784.4717890727
 20
185.8570848708
 30
0.0
 40
0.1891192546468119
100
AcDbArc
 50
270.0
 51
0.0
  0
LINE
  5
2C3
330
1F
100
AcDbEntity
  8
0
  6
Continuous
 62
     7
370
    15
100
AcDbLine
 10
786.652183913
 20
358.9570822006
 30
0.0
 11
787.2717890966
 21
358.9570822006
 31
0.0
  0
ARC
  5
2C4
330
1F
100
AcDbEntity
  8
0
  6
Continuous
 62
     7
370
    15
100
AcDbCircle
 10
784.4717890727
 20
358.9570848708
 30
0.0
 40
2.800000000000068
100
AcDbArc
 50
0.0
 51
90.0
  0
LINE
  5
2C5
330
1F
100
AcDbEntity
  8
0
  6
Continuous
 62
     7
370
    15
100
AcDbLine
 10
784.6609119403
 20
197.6679639702
 30
0.0
 11
784.6609119403
 21
185.8570875411
 31
0.0
  0
LINE
  5
2C6
330
1F
100
AcDbEntity
  8
0
  6
Continuous
 62
     7
370
    15
100
AcDbLine
 10
786.652183913
 20
185.8570875411
 30
0.0
 11
787.2717890966
 21
185.8570875411
 31
0.0
  0
ARC
  5
2C7
330
1F
100
AcDbEntity
  8
0
  6
Continuous
 62
     7
370
    15
100
AcDbCircle
 10
784.4717890727
 20
185.8570848708
 30
0.0
 40
2.800000000000068
100
AcDbArc
 50
270.0
 51
0.0
  0
LINE
  5
2C8
330
1F
100
AcDbEntity
  8
0
  6
Continuous
 62
     7
370
    15
100
AcDbLine
 10
786.6609085428
 20
347.1462057715
 30
0.0
 11
786.6609085428
 21
347.3462017064
 31
0.0
  0
LINE
  5
2C9
330
1F
100
AcDbEntity
  8
0
  6
Continuous
 62
     7
370
    15
100
AcDbLine
 10
787.2717890966
 20
349.9397041087
 30
0.0
 11
787.2717890966
 21
358.9570822006
 31
0.0
  0
ELLIPSE
  5
2CA
330
1F
100
AcDbEntity
  8
0
  6
Continuous
 62
     7
370
    15
100
AcDbEllipse
 10
787.2543353371
 20
349.939707292
 30
0.0
 11
0.0
 21
2.0
 31
0.0
210
0.0
220
0.0
230
1.0
 40
0.0087268678
 41
3.150319299849716
 42
4.71238898038469
  0
LINE
  5
2CB
330
1F
100
AcDbEntity
  8
0
  6
Continuous
 62
     7
370
    15
100
AcDbLine
 10
786.6609085428
 20
347.3462017064
 30
0.0
 11
787.2544888484
 21
347.939782012
 31
0.0
  0
LINE
  5
2CC
330
1F
100
AcDbEntity
  8
0
  6
Continuous
 62
     7
370
    15
100
AcDbLine
 10
786.6609085428
 20
197.4679680353
 30
0.0
 11
786.6609085428
 21
197.6679639702
 31
0.0
  0
LINE
  5
2CD
330
1F
100
AcDbEntity
  8
0
  6
Continuous
 62
     7
370
    15
100
AcDbLine
 10
786.6609085428
 20
197.4679680353
 30
0.0
 11
787.2544888484
 21
196.8743877297
 31
0.0
  0
ELLIPSE
  5
2CE
330
1F
100
AcDbEntity
  8
0
  6
Continuous
 62
     7
370
    15
100
AcDbEllipse
 10
787.2543353371
 20
194.8744624497
 30
0.0
 11
0.0
 21
2.0
 31
0.0
210
0.0
220
0.0
230
1.0
 40
0.0087268678
 41
4.71238898038469
 42
6.274458660916314
  0
LINE
  5
2CF
330
1F
100
AcDbEntity
  8
0
  6
Continuous
 62
     7
370
    15
100
AcDbLine
 10
787.2717890966
 20
185.8570875411
 30
0.0
 11
787.2717890966
 21
194.8744656329
 31
0.0
  0
LINE
  5
2D0
330
1F
100
AcDbEntity
  8
0
  6
Continuous
 62
     7
370
    15
100
AcDbLine
 10
609.1826696026
 20
197.4679680353
 30
0.0
 11
608.5175786245
 21
197.4679680353
 31
0.0
  0
LINE
  5
2D1
330
1F
100
AcDbEntity
  8
0
  6
Continuous
 62
     7
370
    15
100
AcDbLine
 10
607.9239983189
 20
196.8743877297
 30
0.0
 11
608.589089297
 21
196.8743877297
 31
0.0
  0
LINE
  5
2D2
330
1F
100
AcDbEntity
  8
0
  6
Continuous
 62
     7
370
    15
100
AcDbLine
 10
608.5175786245
 20
197.4679680353
 30
0.0
 11
607.9239983189
 21
196.8743877297
 31
0.0
  0
LINE
  5
2D3
330
1F
100
AcDbEntity
  8
0
  6
Continuous
 62
     7
370
    15
100
AcDbLine
 10
622.9826722371
 20
361.146204341
 30
0.0
 11
622.9826722371
 21
361.8112953191
 31
0.0
  0
LINE
  5
2D4
330
1F
100
AcDbEntity
  8
0
  6
Continuous
 62
     7
370
    15
100
AcDbLine
 10
622.9826722371
 20
361.8112953191
 30
0.0
 11
772.8609059083
 21
361.8112953191
 31
0.0
  0
LINE
  5
2D5
330
1F
100
AcDbEntity
  8
0
  6
Continuous
 62
     7
370
    15
100
AcDbLine
 10
772.8609059083
 20
361.146204341
 30
0.0
 11
772.8609059083
 21
361.8112953191
 31
0.0
  0
LINE
  5
2D6
330
1F
100
AcDbEntity
  8
0
  6
Continuous
 62
     7
370
    15
100
AcDbLine
 10
786.6609085428
 20
347.3462017064
 30
0.0
 11
787.325999521
 21
347.3462017064
 31
0.0
  0
LINE
  5
2D7
330
1F
100
AcDbEntity
  8
0
  6
Continuous
 62
     7
370
    15
100
AcDbLine
 10
787.325999521
 20
347.3462017064
 30
0.0
 11
787.325999521
 21
197.4679680353
 31
0.0
  0
LINE
  5
2D8
330
1F
100
AcDbEntity
  8
0
  6
Continuous
 62
     7
370
    15
100
AcDbLine
 10
786.6609085428
 20
197.4679680353
 30
0.0
 11
787.325999521
 21
197.4679680353
 31
0.0
  0
LINE
  5
2D9
330
1F
100
AcDbEntity
  8
0
  6
Continuous
 62
     7
370
    15
100
AcDbLine
 10
772.8609059083
 20
183.6679654007
 30
0.0
 11
772.8609059083
 21
183.0028744226
 31
0.0
  0
LINE
  5
2DA
330
1F
100
AcDbEntity
  8
0
  6
Continuous
 62
     7
370
    15
100
AcDbLine
 10
772.8609059083
 20
183.0028744226
 30
0.0
 11
622.9826722371
 21
183.0028744226
 31
0.0
  0
LINE
  5
2DB
330
1F
100
AcDbEntity
  8
0
  6
Continuous
 62
     7
370
    15
100
AcDbLine
 10
622.9826722371
 20
183.6679654007
 30
0.0
 11
622.9826722371
 21
183.0028744226
 31
0.0
  0
LINE
  5
2DC
330
1F
100
AcDbEntity
  8
0
  6
Continuous
 62
     7
370
    15
100
AcDbLine
 10
608.5175786245
 20
197.4679680353
 30
0.0
 11
608.5175786245
 21
347.3462017064
 31
0.0
  0
LINE
  5
2DD
330
1F
100
AcDbEntity
  8
0
  6
Continuous
 62
     7
370
    15
100
AcDbLine
 10
609.1826696026
 20
347.3462017064
 30
0.0
 11
608.5175786245
 21
347.3462017064
 31
0.0
  0
CIRCLE
  5
2DE
330
1F
100
AcDbEntity
  8
0
  6
Continuous
 62
     7
370
    15
100
AcDbCircle
 10
616.1717890727
 20
354.1570848708
 30
0.0
 40
4.0
  0
CIRCLE
  5
2DF
330
1F
100
AcDbEntity
  8
0
  6
Continuous
 62
     7
370
    15
100
AcDbCircle
 10
779.6717890727
 20
354.1570848708
 30
0.0
 40
4.0
  0
CIRCLE
  5
2E0
330
1F
100
AcDbEntity
  8
0
  6
Continuous
 62
     7
370
    15
100
AcDbCircle
 10
616.1717890727
 20
190.6570848708
 30
0.0
 40
4.0
  0
CIRCLE
  5
2E1
330
1F
100
AcDbEntity
  8
0
  6
Continuous
 62
     7
370
    15
100
AcDbCircle
 10
779.6717890727
 20
190.6570848708
 30
0.0
 40
4.0
  0
LINE
  5
2E2
330
1F
100
AcDbEntity
  8
0
  6
Continuous
 62
     7
370
    15
100
AcDbLine
 10
622.3890919316
 20
182.409294117
 30
0.0
 11
622.9826722371
 21
183.0028744226
 31
0.0
  0
LINE
  5
2E3
330
1F
100
AcDbEntity
  8
0
  6
Continuous
 62
     7
370
    15
100
AcDbLine
 10
622.3890919316
 20
183.0743850952
 30
0.0
 11
622.3890919316
 21
182.409294117
 31
0.0
  0
LINE
  5
2E4
330
1F
100
AcDbEntity
  8
0
  6
Continuous
 62
     7
370
    15
100
AcDbLine
 10
607.9239983189
 20
347.939782012
 30
0.0
 11
608.5175786245
 21
347.3462017064
 31
0.0
  0
LINE
  5
2E5
330
1F
100
AcDbEntity
  8
0
  6
Continuous
 62
     7
370
    15
100
AcDbLine
 10
608.589089297
 20
347.939782012
 30
0.0
 11
607.9239983189
 21
347.939782012
 31
0.0
  0
ELLIPSE
  5
2E6
330
1F
100
AcDbEntity
  8
0
  6
Continuous
 62
     7
370
    15
100
AcDbEllipse
 10
607.9241502795
 20
194.8744624497
 30
0.0
 11
0.0
 21
2.0
 31
0.0
210
0.0
220
0.0
230
1.0
 40
0.0087268678
 41
0.0087266462583091
 42
1.570796326794854
  0
LINE
  5
2E7
330
1F
100
AcDbEntity
  8
0
  6
Continuous
 62
     7
370
    15
100
AcDbLine
 10
607.9066980707
 20
194.8744656329
 30
0.0
 11
607.9066980707
 21
185.8570875411
 31
0.0
  0
LINE
  5
2E8
330
1F
100
AcDbEntity
  8
0
  6
Continuous
 62
     7
370
    15
100
AcDbLine
 10
607.9066980707
 20
185.8570875411
 30
0.0
 11
607.8717921006
 21
185.8570875411
 31
0.0
  0
LINE
  5
2E9
330
1F
100
AcDbEntity
  8
0
  6
Continuous
 62
     7
370
    15
100
AcDbLine
 10
607.8717921006
 20
185.8570875411
 30
0.0
 11
607.8717921006
 21
358.9570822006
 31
0.0
  0
LINE
  5
2EA
330
1F
100
AcDbEntity
  8
0
  6
Continuous
 62
     7
370
    15
100
AcDbLine
 10
607.9066980707
 20
358.9570822006
 30
0.0
 11
607.8717921006
 21
358.9570822006
 31
0.0
  0
LINE
  5
2EB
330
1F
100
AcDbEntity
  8
0
  6
Continuous
 62
     7
370
    15
100
AcDbLine
 10
607.9066980707
 20
358.9570822006
 30
0.0
 11
607.9066980707
 21
349.9397041087
 31
0.0
  0
ELLIPSE
  5
2EC
330
1F
100
AcDbEntity
  8
0
  6
Continuous
 62
     7
370
    15
100
AcDbEllipse
 10
607.9241502795
 20
349.939707292
 30
0.0
 11
0.0
 21
2.0
 31
0.0
210
0.0
220
0.0
230
1.0
 40
0.0087268678
 41
1.570796326794897
 42
3.132866007331471
  0
LWPOLYLINE
  5
2ED
330
1F
100
AcDbEntity
  8
0
  6
Continuous
 62
     7
370
    15
100
AcDbPolyline
 90
       39
 70
   128
 43
0.0
 10
607.9568702805
 20
219.90708651
 10
607.9580921757
 20
218.2199919408
 10
607.9617206085
 20
216.5789158826
 10
607.9676512706
 20
215.028625149
 10
607.9757351506
 20
213.6114055102
 10
607.9857412803
 20
212.3659143036
 10
607.9973939883
 20
211.3261299019
 10
608.0103878009
 20
210.520409215
 10
608.0243650901
 20
209.9707314556
 10
608.0389309752
 20
209.6920909171
 10
608.0537054765
 20
209.6920909171
 10
608.0682788121
 20
209.9707314556
 10
608.0822486508
 20
210.520409215
 10
608.0952424633
 20
211.3261299019
 10
608.106902622
 20
212.3659143036
 10
608.1169087517
 20
213.6114055102
 10
608.1249851811
 20
215.028625149
 10
608.1309232938
 20
216.5789158826
 10
608.134544276
 20
218.2199919408
 10
608.1357661712
 20
219.90708651
 10
608.134544276
 20
221.5941810792
 10
608.1309232938
 20
223.235253412
 10
608.1249851811
 20
224.7855441456
 10
608.1169087517
 20
226.2027637844
 10
608.106902622
 20
227.4482549911
 10
608.0952424633
 20
228.488043118
 10
608.0822486508
 20
229.2937600797
 10
608.0682788121
 20
229.8434378391
 10
608.0537054765
 20
230.1220746522
 10
608.0389309752
 20
230.1220746522
 10
608.0243650901
 20
229.8434378391
 10
608.0103878009
 20
229.2937600797
 10
607.9973939883
 20
228.488043118
 10
607.9857412803
 20
227.4482549911
 10
607.9757351506
 20
226.2027637844
 10
607.9676512706
 20
224.7855441456
 10
607.9617206085
 20
223.235253412
 10
607.9580921757
 20
221.5941810792
 10
607.9568702805
 20
219.90708651
  0
LWPOLYLINE
  5
2EE
330
1F
100
AcDbEntity
  8
0
  6
Continuous
 62
     7
370
    15
100
AcDbPolyline
 90
       39
 70
   128
 43
0.0
 10
607.9568702805
 20
254.9070847963
 10
607.9580921757
 20
253.2199902271
 10
607.9617206085
 20
251.5789160316
 10
607.9676512706
 20
250.0286234354
 10
607.9757351506
 20
248.6114037966
 10
607.9857412803
 20
247.3659144526
 10
607.9973939883
 20
246.3261281883
 10
608.0103878009
 20
245.5204075014
 10
608.0243650901
 20
244.9707316046
 10
608.0389309752
 20
244.6920929288
 10
608.0537054765
 20
244.6920929288
 10
608.0682788121
 20
244.9707316046
 10
608.0822486508
 20
245.5204075014
 10
608.0952424633
 20
246.3261281883
 10
608.106902622
 20
247.3659144526
 10
608.1169087517
 20
248.6114037966
 10
608.1249851811
 20
250.0286234354
 10
608.1309232938
 20
251.5789160316
 10
608.134544276
 20
253.2199902271
 10
608.1357661712
 20
254.9070847963
 10
608.134544276
 20
256.5941793655
 10
608.1309232938
 20
258.2352544924
 10
608.1249851811
 20
259.785545226
 10
608.1169087517
 20
261.2027648648
 10
608.106902622
 20
262.4482551401
 10
608.0952424633
 20
263.4880414044
 10
608.0822486508
 20
264.29376116
 10
608.0682788121
 20
264.8434375224
 10
608.0537054765
 20
265.1220757326
 10
608.0389309752
 20
265.1220757326
 10
608.0243650901
 20
264.8434375224
 10
608.0103878009
 20
264.29376116
 10
607.9973939883
 20
263.4880414044
 10
607.9857412803
 20
262.4482551401
 10
607.9757351506
 20
261.2027648648
 10
607.9676512706
 20
259.785545226
 10
607.9617206085
 20
258.2352544924
 10
607.9580921757
 20
256.5941793655
 10
607.9568702805
 20
254.9070847963
  0
LWPOLYLINE
  5
2EF
330
1F
100
AcDbEntity
  8
0
  6
Continuous
 62
     7
370
    15
100
AcDbPolyline
 90
       44
 70
   128
 43
0.0
 10
608.2077611315
 20
238.4070830231
 10
608.2089234221
 20
236.587070096
 10
608.2123879421
 20
234.8058448916
 10
608.218072735
 20
233.1013755684
 10
608.2258660424
 20
231.5099874323
 10
608.2356039512
 20
230.0655992513
 10
608.2470629442
 20
228.7989968245
 10
608.2600195038
 20
227.7371698802
 10
608.2741830575
 20
226.9027570074
 10
608.2892555821
 20
226.3135390168
 10
608.3049092519
 20
225.9820738619
 10
608.3208236921
 20
225.9154246931
 10
608.3366561758
 20
226.1150145715
 10
608.3520639765
 20
226.5765892153
 10
608.3667192685
 20
227.2903064077
 10
608.3803091275
 20
228.240963239
 10
608.3925504315
 20
229.4082904046
 10
608.40318241
 20
230.7674141412
 10
608.4119666445
 20
232.2893628662
 10
608.4187243211
 20
233.9417004769
 10
608.4233138788
 20
235.6892080789
 10
608.4256310093
 20
237.494643945
 10
608.4256310093
 20
239.3195258265
 10
608.4233138788
 20
241.1249616926
 10
608.4187243211
 20
242.8724711572
 10
608.4119666445
 20
244.5248087679
 10
608.40318241
 20
246.0467556303
 10
608.3925504315
 20
247.4058775043
 10
608.3803091275
 20
248.5732065325
 10
608.3667192685
 20
249.5238615011
 10
608.3520639765
 20
250.2375824188
 10
608.3366561758
 20
250.6991552
 10
608.3208236921
 20
250.8987450784
 10
608.3049092519
 20
250.8320977723
 10
608.2892555821
 20
250.5006307547
 10
608.2741830575
 20
249.9114127641
 10
608.2600195038
 20
249.0769980287
 10
608.2470629442
 20
248.0151748096
 10
608.2356039512
 20
246.7485705202
 10
608.2258660424
 20
245.3041823392
 10
608.218072735
 20
243.7127942031
 10
608.2123879421
 20
242.0083230173
 10
608.2089234221
 20
240.2270996755
 10
608.2077611315
 20
238.4070830231
  0
LWPOLYLINE
  5
2F0
330
1F
100
AcDbEntity
  8
0
  6
Continuous
 62
     7
370
    15
100
AcDbPolyline
 90
       39
 70
   128
 43
0.0
 10
608.2273934114
 20
272.4070848708
 10
608.2286153066
 20
270.7199903016
 10
608.2322437393
 20
269.0789154076
 10
608.2381744015
 20
267.5286239756
 10
608.2462582814
 20
266.1114043368
 10
608.2562644112
 20
264.8659149928
 10
608.2679171192
 20
263.8261282628
 10
608.2809109318
 20
263.0204085072
 10
608.2948807704
 20
262.4707326104
 10
608.3094541061
 20
262.1920939346
 10
608.3242286074
 20
262.1920939346
 10
608.338801943
 20
262.4707326104
 10
608.3527717817
 20
263.0204085072
 10
608.3657655942
 20
263.8261282628
 10
608.3774257529
 20
264.8659149928
 10
608.3874318826
 20
266.1114043368
 10
608.395508312
 20
267.5286239756
 10
608.4014464247
 20
269.0789154076
 10
608.4050674069
 20
270.7199903016
 10
608.4062893021
 20
272.4070848708
 10
608.4050674069
 20
274.0941794401
 10
608.4014464247
 20
275.7352543341
 10
608.395508312
 20
277.2855457661
 10
608.3874318826
 20
278.7027654049
 10
608.3774257529
 20
279.9482547489
 10
608.3657655942
 20
280.9880414789
 10
608.3527717817
 20
281.7937612345
 10
608.338801943
 20
282.3434371313
 10
608.3242286074
 20
282.6220758071
 10
608.3094541061
 20
282.6220758071
 10
608.2948807704
 20
282.3434371313
 10
608.2809109318
 20
281.7937612345
 10
608.2679171192
 20
280.9880414789
 10
608.2562644112
 20
279.9482547489
 10
608.2462582814
 20
278.7027654049
 10
608.2381744015
 20
277.2855457661
 10
608.2322437393
 20
275.7352543341
 10
608.2286153066
 20
274.0941794401
 10
608.2273934114
 20
272.4070848708
  0
LWPOLYLINE
  5
2F1
330
1F
100
AcDbEntity
  8
0
  6
Continuous
 62
     7
370
    15
100
AcDbPolyline
 90
       30
 70
   128
 43
0.0
 10
608.3517510521
 20
212.407086212
 10
608.3529729473
 20
211.1172640508
 10
608.3565864789
 20
209.8877506142
 10
608.3624277341
 20
208.7760420328
 10
608.3702135908
 20
207.8341098314
 10
608.3795789706
 20
207.1060092931
 10
608.3900991905
 20
206.6257821207
 10
608.4012750613
 20
206.4158843642
 10
608.4125775921
 20
206.486128438
 10
608.4234852421
 20
206.8332211857
 10
608.4334913718
 20
207.4409501438
 10
608.4421191442
 20
208.2808913474
 10
608.4489736783
 20
209.3137653356
 10
608.4537271487
 20
210.4912774449
 10
608.4561634886
 20
211.75837161
 10
608.4561634886
 20
213.0558008139
 10
608.4537271487
 20
214.322894979
 10
608.4489736783
 20
215.5004070883
 10
608.4421191442
 20
216.5332810765
 10
608.4334913718
 20
217.3732185548
 10
608.4234852421
 20
217.9809437876
 10
608.4125775921
 20
218.3280439859
 10
608.4012750613
 20
218.3982843345
 10
608.3900991905
 20
218.1883865779
 10
608.3795789706
 20
217.7081556802
 10
608.3702135908
 20
216.9800588672
 10
608.3624277341
 20
216.0381303912
 10
608.3565864789
 20
214.9264180844
 10
608.3529729473
 20
213.6969083732
 10
608.3517510521
 20
212.407086212
  0
LWPOLYLINE
  5
2F2
330
1F
100
AcDbEntity
  8
0
  6
Continuous
 62
     7
370
    15
100
AcDbPolyline
 90
       44
 70
   128
 43
0.0
 10
608.425921582
 20
306.4070867186
 10
608.4247592914
 20
308.2270996456
 10
608.421302222
 20
310.0083248501
 10
608.4156099784
 20
311.7127941733
 10
608.4078166711
 20
313.3041823094
 10
608.3980862129
 20
314.7485704904
 10
608.3866197693
 20
316.0151729172
 10
608.3736706602
 20
317.0769998615
 10
608.3595071065
 20
317.9114127343
 10
608.344434582
 20
318.5006307249
 10
608.3287734616
 20
318.8320958798
 10
608.3128590214
 20
318.8987450486
 10
608.2970265376
 20
318.6991551702
 10
608.281618737
 20
318.2375805264
 10
608.2669634449
 20
317.523863334
 10
608.2533735859
 20
316.5732065027
 10
608.241132282
 20
315.4058793371
 10
608.2305077541
 20
314.0467556005
 10
608.221716069
 20
312.5248068755
 10
608.2149583924
 20
310.8724692648
 10
608.2103688347
 20
309.1249616628
 10
608.2080517041
 20
307.3195257967
 10
608.2080517041
 20
305.4946439152
 10
608.2103688347
 20
303.6892080491
 10
608.2149583924
 20
301.9416985845
 10
608.221716069
 20
300.2893609737
 10
608.2305077541
 20
298.7674141114
 10
608.241132282
 20
297.4082922374
 10
608.2533735859
 20
296.2409632092
 10
608.2669634449
 20
295.2903082406
 10
608.281618737
 20
294.5765873229
 10
608.2970265376
 20
294.1150145417
 10
608.3128590214
 20
293.9154246633
 10
608.3287734616
 20
293.9820719694
 10
608.344434582
 20
294.313538987
 10
608.3595071065
 20
294.9027569776
 10
608.3736706602
 20
295.737171713
 10
608.3866197693
 20
296.7989949321
 10
608.3980862129
 20
298.0655992215
 10
608.4078166711
 20
299.5099874025
 10
608.4156099784
 20
301.1013755386
 10
608.421302222
 20
302.8058467244
 10
608.4247592914
 20
304.5870700662
 10
608.425921582
 20
306.4070867186
  0
LWPOLYLINE
  5
2F3
330
1F
100
AcDbEntity
  8
0
  6
Continuous
 62
     7
370
    15
100
AcDbPolyline
 90
       30
 70
   128
 43
0.0
 10
608.4564689624
 20
332.4070835297
 10
608.4552396166
 20
333.6969056909
 10
608.451626085
 20
334.9264191275
 10
608.4457922804
 20
336.0381277089
 10
608.4380064237
 20
336.9800599103
 10
608.4286335933
 20
337.7081604486
 10
608.4181133735
 20
338.188387621
 10
608.4069449532
 20
338.3982853775
 10
608.3956349718
 20
338.3280413037
 10
608.3847273218
 20
337.980948556
 10
608.3747211921
 20
337.3732195978
 10
608.3660934198
 20
336.5332783943
 10
608.3592463362
 20
335.5004044061
 10
608.3544928658
 20
334.3228922968
 10
608.3520565259
 20
333.0557981317
 10
608.3520565259
 20
331.7583689278
 10
608.3544928658
 20
330.4912747627
 10
608.3592463362
 20
329.3137626534
 10
608.3660934198
 20
328.2808886652
 10
608.3747211921
 20
327.4409511869
 10
608.3847273218
 20
326.8332259541
 10
608.3956349718
 20
326.4861257558
 10
608.4069449532
 20
326.4158854072
 10
608.4181133735
 20
326.6257831638
 10
608.4286335933
 20
327.1060140615
 10
608.4380064237
 20
327.8341108744
 10
608.4457922804
 20
328.7760393505
 10
608.451626085
 20
329.8877516573
 10
608.4552396166
 20
331.1172613685
 10
608.4564689624
 20
332.4070835297
  0
LWPOLYLINE
  5
2F4
330
1F
100
AcDbEntity
  8
0
  6
Continuous
 62
     7
370
    15
100
AcDbPolyline
 90
       39
 70
   128
 43
0.0
 10
608.1357661712
 20
289.9070849454
 10
608.134544276
 20
291.5941795146
 10
608.1309232938
 20
293.2352537101
 10
608.1249851811
 20
294.7855463063
 10
608.1169087517
 20
296.2027659451
 10
608.106902622
 20
297.4482552891
 10
608.0952424633
 20
298.4880415534
 10
608.0822486508
 20
299.2937622403
 10
608.0682788121
 20
299.8434381371
 10
608.0537054765
 20
300.1220768129
 10
608.0389309752
 20
300.1220768129
 10
608.0243650901
 20
299.8434381371
 10
608.0103878009
 20
299.2937622403
 10
607.9973939883
 20
298.4880415534
 10
607.9857412803
 20
297.4482552891
 10
607.9757351506
 20
296.2027659451
 10
607.9676512706
 20
294.7855463063
 10
607.9617206085
 20
293.2352537101
 10
607.9580921757
 20
291.5941795146
 10
607.9568702805
 20
289.9070849454
 10
607.9580921757
 20
288.2199903761
 10
607.9617206085
 20
286.5789152493
 10
607.9676512706
 20
285.0286245157
 10
607.9757351506
 20
283.6114048769
 10
607.9857412803
 20
282.3659146016
 10
607.9973939883
 20
281.3261283373
 10
608.0103878009
 20
280.5204085817
 10
608.0243650901
 20
279.9707322193
 10
608.0389309752
 20
279.6920940091
 10
608.0537054765
 20
279.6920940091
 10
608.0682788121
 20
279.9707322193
 10
608.0822486508
 20
280.5204085817
 10
608.0952424633
 20
281.3261283373
 10
608.106902622
 20
282.3659146016
 10
608.1169087517
 20
283.6114048769
 10
608.1249851811
 20
285.0286245157
 10
608.1309232938
 20
286.5789152493
 10
608.134544276
 20
288.2199903761
 10
608.1357661712
 20
289.9070849454
  0
LWPOLYLINE
  5
2F5
330
1F
100
AcDbEntity
  8
0
  6
Continuous
 62
     7
370
    15
100
AcDbPolyline
 90
       39
 70
   128
 43
0.0
 10
608.1357661712
 20
324.9070832317
 10
608.134544276
 20
326.5941778009
 10
608.1309232938
 20
328.2352538591
 10
608.1249851811
 20
329.7855445927
 10
608.1169087517
 20
331.2027642315
 10
608.106902622
 20
332.4482554381
 10
608.0952424633
 20
333.4880398398
 10
608.0822486508
 20
334.2937605267
 10
608.0682788121
 20
334.8434382861
 10
608.0537054765
 20
335.1220788246
 10
608.0389309752
 20
335.1220788246
 10
608.0243650901
 20
334.8434382861
 10
608.0103878009
 20
334.2937605267
 10
607.9973939883
 20
333.4880398398
 10
607.9857412803
 20
332.4482554381
 10
607.9757351506
 20
331.2027642315
 10
607.9676512706
 20
329.7855445927
 10
607.9617206085
 20
328.2352538591
 10
607.9580921757
 20
326.5941778009
 10
607.9568702805
 20
324.9070832317
 10
607.9580921757
 20
323.2199886625
 10
607.9617206085
 20
321.5789163297
 10
607.9676512706
 20
320.0286255961
 10
607.9757351506
 20
318.6114059573
 10
607.9857412803
 20
317.3659147506
 10
607.9973939883
 20
316.3261266237
 10
608.0103878009
 20
315.520409662
 10
608.0243650901
 20
314.9707319026
 10
608.0389309752
 20
314.6920950895
 10
608.0537054765
 20
314.6920950895
 10
608.0682788121
 20
314.9707319026
 10
608.0822486508
 20
315.520409662
 10
608.0952424633
 20
316.3261266237
 10
608.106902622
 20
317.3659147506
 10
608.1169087517
 20
318.6114059573
 10
608.1249851811
 20
320.0286255961
 10
608.1309232938
 20
321.5789163297
 10
608.134544276
 20
323.2199886625
 10
608.1357661712
 20
324.9070832317
  0
ELLIPSE
  5
2F6
330
1F
100
AcDbEntity
  8
0
  6
Continuous
 62
     7
370
    15
100
AcDbEllipse
 10
620.3891666515
 20
362.4047236641
 30
0.0
 11
2.0
 21
0.0
 31
0.0
210
0.0
220
0.0
230
1.0
 40
0.0087268678
 41
0.008726646258281
 42
1.570796326794897
  0
LINE
  5
2F7
330
1F
100
AcDbEntity
  8
0
  6
Continuous
 62
     7
370
    15
100
AcDbLine
 10
620.3891698348
 20
362.4221758728
 30
0.0
 11
611.371791743
 21
362.4221758728
 31
0.0
  0
LINE
  5
2F8
330
1F
100
AcDbEntity
  8
0
  6
Continuous
 62
     7
370
    15
100
AcDbLine
 10
611.371791743
 20
362.4221758728
 30
0.0
 11
611.371791743
 21
362.4570818429
 31
0.0
  0
LINE
  5
2F9
330
1F
100
AcDbEntity
  8
0
  6
Continuous
 62
     7
370
    15
100
AcDbLine
 10
611.371791743
 20
362.4570818429
 30
0.0
 11
784.4717864024
 21
362.4570818429
 31
0.0
  0
LINE
  5
2FA
330
1F
100
AcDbEntity
  8
0
  6
Continuous
 62
     7
370
    15
100
AcDbLine
 10
784.4717864024
 20
362.4221758728
 30
0.0
 11
784.4717864024
 21
362.4570818429
 31
0.0
  0
LINE
  5
2FB
330
1F
100
AcDbEntity
  8
0
  6
Continuous
 62
     7
370
    15
100
AcDbLine
 10
775.4544083106
 20
362.4221758728
 30
0.0
 11
784.4717864024
 21
362.4221758728
 31
0.0
  0
ELLIPSE
  5
2FC
330
1F
100
AcDbEntity
  8
0
  6
Continuous
 62
     7
370
    15
100
AcDbEllipse
 10
775.4544114939
 20
362.4047236641
 30
0.0
 11
2.0
 21
0.0
 31
0.0
210
0.0
220
0.0
230
1.0
 40
0.0087268678
 41
1.570796326794897
 42
3.132866007331499
  0
LINE
  5
2FD
330
1F
100
AcDbEntity
  8
0
  6
Continuous
 62
     7
370
    15
100
AcDbLine
 10
773.4544862139
 20
362.4048756247
 30
0.0
 11
772.8609059083
 21
361.8112953191
 31
0.0
  0
LINE
  5
2FE
330
1F
100
AcDbEntity
  8
0
  6
Continuous
 62
     7
370
    15
100
AcDbLine
 10
622.9826722371
 20
361.8112953191
 30
0.0
 11
622.3890919316
 21
362.4048756247
 31
0.0
  0
LWPOLYLINE
  5
2FF
330
1F
100
AcDbEntity
  8
0
  6
Continuous
 62
     7
370
    15
100
AcDbPolyline
 90
       39
 70
   128
 43
0.0
 10
680.4217889982
 20
362.369820643
 10
678.7758439857
 20
362.3686285501
 10
677.1747943091
 20
362.3650895243
 10
675.6623152721
 20
362.3593004232
 10
674.2796626019
 20
362.3514177089
 10
673.064549275
 20
362.3416574483
 10
672.0501247871
 20
362.3302804118
 10
671.2640550065
 20
362.3176069742
 10
670.7277864295
 20
362.3039798622
 10
670.4559445458
 20
362.2897641545
 10
670.4559445458
 20
362.275347281
 10
670.7277864295
 20
362.2611315732
 10
671.2640550065
 20
362.2474970107
 10
672.0501247871
 20
362.2348235731
 10
673.064549275
 20
362.2234539872
 10
674.2796626019
 20
362.213686276
 10
675.6623152721
 20
362.2058035617
 10
677.1747943091
 20
362.2000144606
 10
678.7758439857
 20
362.1964754348
 10
680.4217889982
 20
362.1952907925
 10
682.0677358734
 20
362.1964754348
 10
683.6687836873
 20
362.2000144606
 10
685.1812627244
 20
362.2058035617
 10
686.5639163258
 20
362.213686276
 10
687.7790277901
 20
362.2234539872
 10
688.7934541407
 20
362.2348235731
 10
689.5795220586
 20
362.2474970107
 10
690.1157915669
 20
362.2611315732
 10
690.3876339163
 20
362.275347281
 10
690.3876339163
 20
362.2897641545
 10
690.1157915669
 20
362.3039798622
 10
689.5795220586
 20
362.3176069742
 10
688.7934541407
 20
362.3302804118
 10
687.7790277901
 20
362.3416574483
 10
686.5639163258
 20
362.3514177089
 10
685.1812627244
 20
362.3593004232
 10
683.6687836873
 20
362.3650895243
 10
682.0677358734
 20
362.3686285501
 10
680.4217889982
 20
362.369820643
  0
LWPOLYLINE
  5
300
330
1F
100
AcDbEntity
  8
0
  6
Continuous
 62
     7
370
    15
100
AcDbPolyline
 90
       39
 70
   128
 43
0.0
 10
645.4217907119
 20
362.369820643
 10
643.775841974
 20
362.3686285501
 10
642.1747941601
 20
362.3650895243
 10
640.6623151231
 20
362.3593004232
 10
639.2796624529
 20
362.3514177089
 10
638.0645509887
 20
362.3416574483
 10
637.0501246381
 20
362.3302804118
 10
636.2640548575
 20
362.3176069742
 10
635.7277881431
 20
362.3039798622
 10
635.4559425342
 20
362.2897641545
 10
635.4559425342
 20
362.275347281
 10
635.7277881431
 20
362.2611315732
 10
636.2640548575
 20
362.2474970107
 10
637.0501246381
 20
362.2348235731
 10
638.0645509887
 20
362.2234539872
 10
639.2796624529
 20
362.213686276
 10
640.6623151231
 20
362.2058035617
 10
642.1747941601
 20
362.2000144606
 10
643.775841974
 20
362.1964754348
 10
645.4217907119
 20
362.1952907925
 10
647.0677357244
 20
362.1964754348
 10
648.6687835383
 20
362.2000144606
 10
650.1812625754
 20
362.2058035617
 10
651.5639152455
 20
362.213686276
 10
652.7790267098
 20
362.2234539872
 10
653.7934530604
 20
362.2348235731
 10
654.579522841
 20
362.2474970107
 10
655.1157932806
 20
362.2611315732
 10
655.3876351642
 20
362.275347281
 10
655.3876351642
 20
362.2897641545
 10
655.1157932806
 20
362.3039798622
 10
654.579522841
 20
362.3176069742
 10
653.7934530604
 20
362.3302804118
 10
652.7790267098
 20
362.3416574483
 10
651.5639152455
 20
362.3514177089
 10
650.1812625754
 20
362.3593004232
 10
648.6687835383
 20
362.3650895243
 10
647.0677357244
 20
362.3686285501
 10
645.4217907119
 20
362.369820643
  0
LWPOLYLINE
  5
301
330
1F
100
AcDbEntity
  8
0
  6
Continuous
 62
     7
370
    15
100
AcDbPolyline
 90
       39
 70
   128
 43
0.0
 10
645.4217907119
 20
362.0905728822
 10
643.775841974
 20
362.0893807893
 10
642.1747941601
 20
362.0858417635
 10
640.6623151231
 20
362.0800526624
 10
639.2796624529
 20
362.0721699481
 10
638.0645509887
 20
362.0624096876
 10
637.0501246381
 20
362.051032651
 10
636.2640548575
 20
362.0383592134
 10
635.7277881431
 20
362.0247246509
 10
635.4559425342
 20
362.0105089431
 10
635.4559425342
 20
361.9960995202
 10
635.7277881431
 20
361.9818838125
 10
636.2640548575
 20
361.96824925
 10
637.0501246381
 20
361.9555758124
 10
638.0645509887
 20
361.9441987758
 10
639.2796624529
 20
361.9344385152
 10
640.6623151231
 20
361.9265558009
 10
642.1747941601
 20
361.9207666998
 10
643.775841974
 20
361.917227674
 10
645.4217907119
 20
361.9160430317
 10
647.0677357244
 20
361.917227674
 10
648.6687835383
 20
361.9207666998
 10
650.1812625754
 20
361.9265558009
 10
651.5639152455
 20
361.9344385152
 10
652.7790267098
 20
361.9441987758
 10
653.7934530604
 20
361.9555758124
 10
654.579522841
 20
361.96824925
 10
655.1157932806
 20
361.9818838125
 10
655.3876351642
 20
361.9960995202
 10
655.3876351642
 20
362.0105089431
 10
655.1157932806
 20
362.0247246509
 10
654.579522841
 20
362.0383592134
 10
653.7934530604
 20
362.051032651
 10
652.7790267098
 20
362.0624096876
 10
651.5639152455
 20
362.0721699481
 10
650.1812625754
 20
362.0800526624
 10
648.6687835383
 20
362.0858417635
 10
647.0677357244
 20
362.0893807893
 10
645.4217907119
 20
362.0905728822
  0
LWPOLYLINE
  5
302
330
1F
100
AcDbEntity
  8
0
  6
Continuous
 62
     7
370
    15
100
AcDbPolyline
 90
       39
 70
   128
 43
0.0
 10
680.4217889982
 20
362.0905728822
 10
678.7758439857
 20
362.0893807893
 10
677.1747943091
 20
362.0858417635
 10
675.6623152721
 20
362.0800526624
 10
674.2796626019
 20
362.0721699481
 10
673.064549275
 20
362.0624096876
 10
672.0501247871
 20
362.051032651
 10
671.2640550065
 20
362.0383592134
 10
670.7277864295
 20
362.0247246509
 10
670.4559445458
 20
362.0105089431
 10
670.4559445458
 20
361.9960995202
 10
670.7277864295
 20
361.9818838125
 10
671.2640550065
 20
361.96824925
 10
672.0501247871
 20
361.9555758124
 10
673.064549275
 20
361.9441987758
 10
674.2796626019
 20
361.9344385152
 10
675.6623152721
 20
361.9265558009
 10
677.1747943091
 20
361.9207666998
 10
678.7758439857
 20
361.917227674
 10
680.4217889982
 20
361.9160430317
 10
682.0677358734
 20
361.917227674
 10
683.6687836873
 20
361.9207666998
 10
685.1812627244
 20
361.9265558009
 10
686.5639163258
 20
361.9344385152
 10
687.7790277901
 20
361.9441987758
 10
688.7934541407
 20
361.9555758124
 10
689.5795220586
 20
361.96824925
 10
690.1157915669
 20
361.9818838125
 10
690.3876339163
 20
361.9960995202
 10
690.3876339163
 20
362.0105089431
 10
690.1157915669
 20
362.0247246509
 10
689.5795220586
 20
362.0383592134
 10
688.7934541407
 20
362.051032651
 10
687.7790277901
 20
362.0624096876
 10
686.5639163258
 20
362.0721699481
 10
685.1812627244
 20
362.0800526624
 10
683.6687836873
 20
362.0858417635
 10
682.0677358734
 20
362.0893807893
 10
680.4217889982
 20
362.0905728822
  0
LWPOLYLINE
  5
303
330
1F
100
AcDbEntity
  8
0
  6
Continuous
 62
     7
370
    15
100
AcDbPolyline
 90
       39
 70
   128
 43
0.0
 10
715.4217891472
 20
361.9160430317
 10
717.0677341598
 20
361.917227674
 10
718.6687838363
 20
361.9207666998
 10
720.1812628734
 20
361.9265558009
 10
721.5639155435
 20
361.9344385152
 10
722.7790288704
 20
361.9441987758
 10
723.7934533584
 20
361.9555758124
 10
724.579523139
 20
361.96824925
 10
725.115791716
 20
361.9818838125
 10
725.3876335996
 20
361.9960995202
 10
725.3876335996
 20
362.0105089431
 10
725.115791716
 20
362.0247246509
 10
724.579523139
 20
362.0383592134
 10
723.7934533584
 20
362.051032651
 10
722.7790288704
 20
362.0624096876
 10
721.5639155435
 20
362.0721699481
 10
720.1812628734
 20
362.0800526624
 10
718.6687838363
 20
362.0858417635
 10
717.0677341598
 20
362.0893807893
 10
715.4217891472
 20
362.0905728822
 10
713.775842272
 20
362.0893807893
 10
712.1747944581
 20
362.0858417635
 10
710.6623154211
 20
362.0800526624
 10
709.2796618196
 20
362.0721699481
 10
708.0645503554
 20
362.0624096876
 10
707.0501240048
 20
362.051032651
 10
706.2640560868
 20
362.0383592134
 10
705.7277865785
 20
362.0247246509
 10
705.4559442292
 20
362.0105089431
 10
705.4559442292
 20
361.9960995202
 10
705.7277865785
 20
361.9818838125
 10
706.2640560868
 20
361.96824925
 10
707.0501240048
 20
361.9555758124
 10
708.0645503554
 20
361.9441987758
 10
709.2796618196
 20
361.9344385152
 10
710.6623154211
 20
361.9265558009
 10
712.1747944581
 20
361.9207666998
 10
713.775842272
 20
361.917227674
 10
715.4217891472
 20
361.9160430317
  0
LWPOLYLINE
  5
304
330
1F
100
AcDbEntity
  8
0
  6
Continuous
 62
     7
370
    15
100
AcDbPolyline
 90
       39
 70
   128
 43
0.0
 10
750.4217874336
 20
361.9160430317
 10
752.0677361715
 20
361.917227674
 10
753.6687839854
 20
361.9207666998
 10
755.1812630224
 20
361.9265558009
 10
756.5639156925
 20
361.9344385152
 10
757.7790271568
 20
361.9441987758
 10
758.7934535074
 20
361.9555758124
 10
759.579523288
 20
361.96824925
 10
760.1157900023
 20
361.9818838125
 10
760.3876356113
 20
361.9960995202
 10
760.3876356113
 20
362.0105089431
 10
760.1157900023
 20
362.0247246509
 10
759.579523288
 20
362.0383592134
 10
758.7934535074
 20
362.051032651
 10
757.7790271568
 20
362.0624096876
 10
756.5639156925
 20
362.0721699481
 10
755.1812630224
 20
362.0800526624
 10
753.6687839854
 20
362.0858417635
 10
752.0677361715
 20
362.0893807893
 10
750.4217874336
 20
362.0905728822
 10
748.775842421
 20
362.0893807893
 10
747.1747946071
 20
362.0858417635
 10
745.6623155701
 20
362.0800526624
 10
744.2796628999
 20
362.0721699481
 10
743.0645514357
 20
362.0624096876
 10
742.0501250851
 20
362.051032651
 10
741.2640553045
 20
362.0383592134
 10
740.7277848649
 20
362.0247246509
 10
740.4559429812
 20
362.0105089431
 10
740.4559429812
 20
361.9960995202
 10
740.7277848649
 20
361.9818838125
 10
741.2640553045
 20
361.96824925
 10
742.0501250851
 20
361.9555758124
 10
743.0645514357
 20
361.9441987758
 10
744.2796628999
 20
361.9344385152
 10
745.6623155701
 20
361.9265558009
 10
747.1747946071
 20
361.9207666998
 10
748.775842421
 20
361.917227674
 10
750.4217874336
 20
361.9160430317
  0
LWPOLYLINE
  5
305
330
1F
100
AcDbEntity
  8
0
  6
Continuous
 62
     7
370
    15
100
AcDbPolyline
 90
       39
 70
   128
 43
0.0
 10
750.4217874336
 20
362.1952907925
 10
752.0677361715
 20
362.1964754348
 10
753.6687839854
 20
362.2000144606
 10
755.1812630224
 20
362.2058035617
 10
756.5639156925
 20
362.213686276
 10
757.7790271568
 20
362.2234539872
 10
758.7934535074
 20
362.2348235731
 10
759.579523288
 20
362.2474970107
 10
760.1157900023
 20
362.2611315732
 10
760.3876356113
 20
362.275347281
 10
760.3876356113
 20
362.2897641545
 10
760.1157900023
 20
362.3039798622
 10
759.579523288
 20
362.3176069742
 10
758.7934535074
 20
362.3302804118
 10
757.7790271568
 20
362.3416574483
 10
756.5639156925
 20
362.3514177089
 10
755.1812630224
 20
362.3593004232
 10
753.6687839854
 20
362.3650895243
 10
752.0677361715
 20
362.3686285501
 10
750.4217874336
 20
362.369820643
 10
748.775842421
 20
362.3686285501
 10
747.1747946071
 20
362.3650895243
 10
745.6623155701
 20
362.3593004232
 10
744.2796628999
 20
362.3514177089
 10
743.0645514357
 20
362.3416574483
 10
742.0501250851
 20
362.3302804118
 10
741.2640553045
 20
362.3176069742
 10
740.7277848649
 20
362.3039798622
 10
740.4559429812
 20
362.2897641545
 10
740.4559429812
 20
362.275347281
 10
740.7277848649
 20
362.2611315732
 10
741.2640553045
 20
362.2474970107
 10
742.0501250851
 20
362.2348235731
 10
743.0645514357
 20
362.2234539872
 10
744.2796628999
 20
362.213686276
 10
745.6623155701
 20
362.2058035617
 10
747.1747946071
 20
362.2000144606
 10
748.775842421
 20
362.1964754348
 10
750.4217874336
 20
362.1952907925
  0
LWPOLYLINE
  5
306
330
1F
100
AcDbEntity
  8
0
  6
Continuous
 62
     7
370
    15
100
AcDbPolyline
 90
       39
 70
   128
 43
0.0
 10
715.4217891472
 20
362.1952907925
 10
717.0677341598
 20
362.1964754348
 10
718.6687838363
 20
362.2000144606
 10
720.1812628734
 20
362.2058035617
 10
721.5639155435
 20
362.213686276
 10
722.7790288704
 20
362.2234539872
 10
723.7934533584
 20
362.2348235731
 10
724.579523139
 20
362.2474970107
 10
725.115791716
 20
362.2611315732
 10
725.3876335996
 20
362.275347281
 10
725.3876335996
 20
362.2897641545
 10
725.115791716
 20
362.3039798622
 10
724.579523139
 20
362.3176069742
 10
723.7934533584
 20
362.3302804118
 10
722.7790288704
 20
362.3416574483
 10
721.5639155435
 20
362.3514177089
 10
720.1812628734
 20
362.3593004232
 10
718.6687838363
 20
362.3650895243
 10
717.0677341598
 20
362.3686285501
 10
715.4217891472
 20
362.369820643
 10
713.775842272
 20
362.3686285501
 10
712.1747944581
 20
362.3650895243
 10
710.6623154211
 20
362.3593004232
 10
709.2796618196
 20
362.3514177089
 10
708.0645503554
 20
362.3416574483
 10
707.0501240048
 20
362.3302804118
 10
706.2640560868
 20
362.3176069742
 10
705.7277865785
 20
362.3039798622
 10
705.4559442292
 20
362.2897641545
 10
705.4559442292
 20
362.275347281
 10
705.7277865785
 20
362.2611315732
 10
706.2640560868
 20
362.2474970107
 10
707.0501240048
 20
362.2348235731
 10
708.0645503554
 20
362.2234539872
 10
709.2796618196
 20
362.213686276
 10
710.6623154211
 20
362.2058035617
 10
712.1747944581
 20
362.2000144606
 10
713.775842272
 20
362.1964754348
 10
715.4217891472
 20
362.1952907925
  0
LINE
  5
307
330
1F
100
AcDbEntity
  8
0
  6
Continuous
 62
     7
370
    15
100
AcDbLine
 10
772.8609059083
 20
183.0028744226
 30
0.0
 11
773.4544862139
 21
182.409294117
 31
0.0
  0
ELLIPSE
  5
308
330
1F
100
AcDbEntity
  8
0
  6
Continuous
 62
     7
370
    15
100
AcDbEllipse
 10
775.4544114939
 20
182.4094460776
 30
0.0
 11
2.0
 21
0.0
 31
0.0
210
0.0
220
0.0
230
1.0
 40
0.0087268678
 41
3.150319299848102
 42
4.71238898038469
  0
LINE
  5
309
330
1F
100
AcDbEntity
  8
0
  6
Continuous
 62
     7
370
    15
100
AcDbLine
 10
784.4717864024
 20
182.3919938689
 30
0.0
 11
775.4544083106
 21
182.3919938689
 31
0.0
  0
LINE
  5
30A
330
1F
100
AcDbEntity
  8
0
  6
Continuous
 62
     7
370
    15
100
AcDbLine
 10
784.4717864024
 20
182.3919938689
 30
0.0
 11
784.4717864024
 21
182.3570878988
 31
0.0
  0
LINE
  5
30B
330
1F
100
AcDbEntity
  8
0
  6
Continuous
 62
     7
370
    15
100
AcDbLine
 10
784.4717864024
 20
182.3570878988
 30
0.0
 11
611.371791743
 21
182.3570878988
 31
0.0
  0
LINE
  5
30C
330
1F
100
AcDbEntity
  8
0
  6
Continuous
 62
     7
370
    15
100
AcDbLine
 10
611.371791743
 20
182.3919938689
 30
0.0
 11
611.371791743
 21
182.3570878988
 31
0.0
  0
LINE
  5
30D
330
1F
100
AcDbEntity
  8
0
  6
Continuous
 62
     7
370
    15
100
AcDbLine
 10
611.371791743
 20
182.3919938689
 30
0.0
 11
620.3891698348
 21
182.3919938689
 31
0.0
  0
ELLIPSE
  5
30E
330
1F
100
AcDbEntity
  8
0
  6
Continuous
 62
     7
370
    15
100
AcDbEllipse
 10
620.3891666515
 20
182.4094460776
 30
0.0
 11
2.0
 21
0.0
 31
0.0
210
0.0
220
0.0
230
1.0
 40
0.0087268678
 41
4.71238898038469
 42
6.274458660924441
  0
LWPOLYLINE
  5
30F
330
1F
100
AcDbEntity
  8
0
  6
Continuous
 62
     7
370
    15
100
AcDbPolyline
 90
       55
 70
   128
 43
0.0
 10
697.9217890727
 20
182.8479545002
 10
695.5709076098
 20
182.8467549568
 10
693.2518177743
 20
182.8431861286
 10
690.9958811554
 20
182.8372927194
 10
688.8336053195
 20
182.8291566854
 10
686.7942323985
 20
182.8188823347
 10
684.9053397852
 20
182.8066112285
 10
683.1924727264
 20
182.7925072794
 10
681.6787950772
 20
182.7767642026
 10
680.3847745138
 20
182.7595980649
 10
679.3279133814
 20
182.7412323838
 10
678.5225018936
 20
182.7219204789
 10
677.9794327992
 20
182.7019231205
 10
677.7060486454
 20
182.6815159803
 10
677.7060486454
 20
182.660967279
 10
677.9794327992
 20
182.6405526882
 10
678.5225018936
 20
182.6205553298
 10
679.3279133814
 20
182.6012508755
 10
680.3847745138
 20
182.5828851943
 10
681.6787950772
 20
182.5657116061
 10
683.1924727264
 20
182.5499759798
 10
684.9053397852
 20
182.5358720308
 10
686.7942323985
 20
182.5236009245
 10
688.8336053195
 20
182.5133265739
 10
690.9958811554
 20
182.5051830893
 10
693.2518177743
 20
182.49928968
 10
695.5709076098
 20
182.4957208519
 10
697.9217890727
 20
182.494528759
 10
700.2726705356
 20
182.4957208519
 10
702.5917603712
 20
182.49928968
 10
704.84769699
 20
182.5051830893
 10
707.0099728259
 20
182.5133265739
 10
709.0493457469
 20
182.5236009245
 10
710.9382383603
 20
182.5358720308
 10
712.6511054191
 20
182.5499759798
 10
714.1647830683
 20
182.5657116061
 10
715.4588036316
 20
182.5828851943
 10
716.515664764
 20
182.6012508755
 10
717.3210762518
 20
182.6205553298
 10
717.8641453463
 20
182.6405526882
 10
718.1375295001
 20
182.660967279
 10
718.1375295001
 20
182.6815159803
 10
717.8641453463
 20
182.7019231205
 10
717.3210762518
 20
182.7219204789
 10
716.515664764
 20
182.7412323838
 10
715.4588036316
 20
182.7595980649
 10
714.1647830683
 20
182.7767642026
 10
712.6511054191
 20
182.7925072794
 10
710.9382383603
 20
182.8066112285
 10
709.0493457469
 20
182.8188823347
 10
707.0099728259
 20
182.8291566854
 10
704.84769699
 20
182.8372927194
 10
702.5917603712
 20
182.8431861286
 10
700.2726705356
 20
182.8467549568
 10
697.9217890727
 20
182.8479545002
  0
LWPOLYLINE
  5
310
330
1F
100
AcDbEntity
  8
0
  6
Continuous
 62
     7
370
    15
100
AcDbPolyline
 90
       39
 70
   128
 43
0.0
 10
744.9217874634
 20
182.6210619693
 10
743.2346928942
 20
182.6198400741
 10
741.5936205613
 20
182.6162190919
 10
740.0433298278
 20
182.6102809792
 10
738.6261101889
 20
182.6022045498
 10
737.3806189823
 20
182.5921984201
 10
736.3408308553
 20
182.5805382614
 10
735.5351138937
 20
182.5675444489
 10
734.9854361343
 20
182.5535746103
 10
734.7067993212
 20
182.5390012746
 10
734.7067993212
 20
182.5242267733
 10
734.9854361343
 20
182.5096608882
 10
735.5351138937
 20
182.495683599
 10
736.3408308553
 20
182.4826897865
 10
737.3806189823
 20
182.4710370784
 10
738.6261101889
 20
182.4610309487
 10
740.0433298278
 20
182.4529470687
 10
741.5936205613
 20
182.4470164066
 10
743.2346928942
 20
182.4433879738
 10
744.9217874634
 20
182.4421660786
 10
746.6088820326
 20
182.4433879738
 10
748.2499580908
 20
182.4470164066
 10
749.8002488243
 20
182.4529470687
 10
751.2174684632
 20
182.4610309487
 10
752.4629596698
 20
182.4710370784
 10
753.5027440715
 20
182.4826897865
 10
754.3084647584
 20
182.495683599
 10
754.8581425178
 20
182.5096608882
 10
755.1367793309
 20
182.5242267733
 10
755.1367793309
 20
182.5390012746
 10
754.8581425178
 20
182.5535746103
 10
754.3084647584
 20
182.5675444489
 10
753.5027440715
 20
182.5805382614
 10
752.4629596698
 20
182.5921984201
 10
751.2174684632
 20
182.6022045498
 10
749.8002488243
 20
182.6102809792
 10
748.2499580908
 20
182.6162190919
 10
746.6088820326
 20
182.6198400741
 10
744.9217874634
 20
182.6210619693
  0
LWPOLYLINE
  5
311
330
1F
100
AcDbEntity
  8
0
  6
Continuous
 62
     7
370
    15
100
AcDbPolyline
 90
       39
 70
   128
 43
0.0
 10
744.9217874634
 20
182.9003097301
 10
743.2346928942
 20
182.8990952854
 10
741.5936205613
 20
182.8954668527
 10
740.0433298278
 20
182.88952874
 10
738.6261101889
 20
182.8814523106
 10
737.3806189823
 20
182.8714461809
 10
736.3408308553
 20
182.8597860222
 10
735.5351138937
 20
182.8467922097
 10
734.9854361343
 20
182.832822371
 10
734.7067993212
 20
182.8182490354
 10
734.7067993212
 20
182.8034745341
 10
734.9854361343
 20
182.788908649
 10
735.5351138937
 20
182.7749313598
 10
736.3408308553
 20
182.7619449978
 10
737.3806189823
 20
182.7502848392
 10
738.6261101889
 20
182.7402787094
 10
740.0433298278
 20
182.7321948295
 10
741.5936205613
 20
182.7262641673
 10
743.2346928942
 20
182.7226357346
 10
744.9217874634
 20
182.72142129
 10
746.6088820326
 20
182.7226357346
 10
748.2499580908
 20
182.7262641673
 10
749.8002488243
 20
182.7321948295
 10
751.2174684632
 20
182.7402787094
 10
752.4629596698
 20
182.7502848392
 10
753.5027440715
 20
182.7619449978
 10
754.3084647584
 20
182.7749313598
 10
754.8581425178
 20
182.788908649
 10
755.1367793309
 20
182.8034745341
 10
755.1367793309
 20
182.8182490354
 10
754.8581425178
 20
182.832822371
 10
754.3084647584
 20
182.8467922097
 10
753.5027440715
 20
182.8597860222
 10
752.4629596698
 20
182.8714461809
 10
751.2174684632
 20
182.8814523106
 10
749.8002488243
 20
182.88952874
 10
748.2499580908
 20
182.8954668527
 10
746.6088820326
 20
182.8990952854
 10
744.9217874634
 20
182.9003097301
  0
LWPOLYLINE
  5
312
330
1F
100
AcDbEntity
  8
0
  6
Continuous
 62
     7
370
    15
100
AcDbPolyline
 90
       39
 70
   128
 43
0.0
 10
650.9217906821
 20
182.6210619693
 10
649.2346961128
 20
182.6198400741
 10
647.5936200547
 20
182.6162190919
 10
646.0433293211
 20
182.6102809792
 10
644.6261096823
 20
182.6022045498
 10
643.3806184757
 20
182.5921984201
 10
642.340834074
 20
182.5805382614
 10
641.5351133871
 20
182.5675444489
 10
640.9854356277
 20
182.5535746103
 10
640.7067988145
 20
182.5390012746
 10
640.7067988145
 20
182.5242267733
 10
640.9854356277
 20
182.5096608882
 10
641.5351133871
 20
182.495683599
 10
642.340834074
 20
182.4826897865
 10
643.3806184757
 20
182.4710370784
 10
644.6261096823
 20
182.4610309487
 10
646.0433293211
 20
182.4529470687
 10
647.5936200547
 20
182.4470164066
 10
649.2346961128
 20
182.4433879738
 10
650.9217906821
 20
182.4421660786
 10
652.6088852513
 20
182.4433879738
 10
654.2499575841
 20
182.4470164066
 10
655.8002483177
 20
182.4529470687
 10
657.2174679565
 20
182.4610309487
 10
658.4629591632
 20
182.4710370784
 10
659.5027472901
 20
182.4826897865
 10
660.3084642517
 20
182.495683599
 10
660.8581420111
 20
182.5096608882
 10
661.1367788243
 20
182.5242267733
 10
661.1367788243
 20
182.5390012746
 10
660.8581420111
 20
182.5535746103
 10
660.3084642517
 20
182.5675444489
 10
659.5027472901
 20
182.5805382614
 10
658.4629591632
 20
182.5921984201
 10
657.2174679565
 20
182.6022045498
 10
655.8002483177
 20
182.6102809792
 10
654.2499575841
 20
182.6162190919
 10
652.6088852513
 20
182.6198400741
 10
650.9217906821
 20
182.6210619693
  0
LWPOLYLINE
  5
313
330
1F
100
AcDbEntity
  8
0
  6
Continuous
 62
     7
370
    15
100
AcDbPolyline
 90
       39
 70
   128
 43
0.0
 10
650.9217906821
 20
182.9003097301
 10
649.2346961128
 20
182.8990952854
 10
647.5936200547
 20
182.8954668527
 10
646.0433293211
 20
182.88952874
 10
644.6261096823
 20
182.8814523106
 10
643.3806184757
 20
182.8714461809
 10
642.340834074
 20
182.8597860222
 10
641.5351133871
 20
182.8467922097
 10
640.9854356277
 20
182.832822371
 10
640.7067988145
 20
182.8182490354
 10
640.7067988145
 20
182.8034745341
 10
640.9854356277
 20
182.788908649
 10
641.5351133871
 20
182.7749313598
 10
642.340834074
 20
182.7619449978
 10
643.3806184757
 20
182.7502848392
 10
644.6261096823
 20
182.7402787094
 10
646.0433293211
 20
182.7321948295
 10
647.5936200547
 20
182.7262641673
 10
649.2346961128
 20
182.7226357346
 10
650.9217906821
 20
182.72142129
 10
652.6088852513
 20
182.7226357346
 10
654.2499575841
 20
182.7262641673
 10
655.8002483177
 20
182.7321948295
 10
657.2174679565
 20
182.7402787094
 10
658.4629591632
 20
182.7502848392
 10
659.5027472901
 20
182.7619449978
 10
660.3084642517
 20
182.7749313598
 10
660.8581420111
 20
182.788908649
 10
661.1367788243
 20
182.8034745341
 10
661.1367788243
 20
182.8182490354
 10
660.8581420111
 20
182.832822371
 10
660.3084642517
 20
182.8467922097
 10
659.5027472901
 20
182.8597860222
 10
658.4629591632
 20
182.8714461809
 10
657.2174679565
 20
182.8814523106
 10
655.8002483177
 20
182.88952874
 10
654.2499575841
 20
182.8954668527
 10
652.6088852513
 20
182.8990952854
 10
650.9217906821
 20
182.9003097301
  0
LINE
  5
314
330
1F
100
AcDbEntity
  8
0
  6
Continuous
 62
     7
370
    15
100
AcDbLine
 10
622.3890919316
 20
362.4048756247
 30
0.0
 11
622.3890919316
 21
361.7397846465
 31
0.0
  0
LINE
  5
315
330
1F
100
AcDbEntity
  8
0
  6
Continuous
 62
     7
370
    15
100
AcDbLine
 10
773.4544862139
 20
182.409294117
 30
0.0
 11
773.4544862139
 21
183.0743850952
 31
0.0
  0
LINE
  5
316
330
1F
100
AcDbEntity
  8
0
  6
Continuous
 62
     7
370
    15
100
AcDbLine
 10
773.4544862139
 20
361.7397846465
 30
0.0
 11
773.4544862139
 21
362.4048756247
 31
0.0
  0
LINE
  5
317
330
1F
100
AcDbEntity
  8
0
  6
Continuous
 62
     7
370
    15
100
AcDbLine
 10
787.9195798266
 20
347.939782012
 30
0.0
 11
787.2544888484
 21
347.939782012
 31
0.0
  0
LINE
  5
318
330
1F
100
AcDbEntity
  8
0
  6
Continuous
 62
     7
370
    15
100
AcDbLine
 10
787.325999521
 20
347.3462017064
 30
0.0
 11
787.9195798266
 21
347.939782012
 31
0.0
  0
ELLIPSE
  5
319
330
1F
100
AcDbEntity
  8
0
  6
Continuous
 62
     7
370
    15
100
AcDbEllipse
 10
787.919427866
 20
349.939707292
 30
0.0
 11
0.0
 21
2.0
 31
0.0
210
0.0
220
0.0
230
1.0
 40
0.0087268678
 41
3.150319299849716
 42
4.71238898038469
  0
LINE
  5
31A
330
1F
100
AcDbEntity
  8
0
  6
Continuous
 62
     7
370
    15
100
AcDbLine
 10
787.9368800747
 20
358.9570822006
 30
0.0
 11
787.9368800747
 21
349.9397041087
 31
0.0
  0
LINE
  5
31B
330
1F
100
AcDbEntity
  8
0
  6
Continuous
 62
     7
370
    15
100
AcDbLine
 10
787.9368800747
 20
358.9570822006
 30
0.0
 11
787.9717860448
 21
358.9570822006
 31
0.0
  0
LINE
  5
31C
330
1F
100
AcDbEntity
  8
0
  6
Continuous
 62
     7
370
    15
100
AcDbLine
 10
787.9717860448
 20
358.9570822006
 30
0.0
 11
787.9717860448
 21
185.8570875411
 31
0.0
  0
LINE
  5
31D
330
1F
100
AcDbEntity
  8
0
  6
Continuous
 62
     7
370
    15
100
AcDbLine
 10
787.9368800747
 20
185.8570875411
 30
0.0
 11
787.9717860448
 21
185.8570875411
 31
0.0
  0
LINE
  5
31E
330
1F
100
AcDbEntity
  8
0
  6
Continuous
 62
     7
370
    15
100
AcDbLine
 10
787.9368800747
 20
194.8744656329
 30
0.0
 11
787.9368800747
 21
185.8570875411
 31
0.0
  0
ELLIPSE
  5
31F
330
1F
100
AcDbEntity
  8
0
  6
Continuous
 62
     7
370
    15
100
AcDbEllipse
 10
787.919427866
 20
194.8744624497
 30
0.0
 11
0.0
 21
2.0
 31
0.0
210
0.0
220
0.0
230
1.0
 40
0.0087268678
 41
4.712388980384704
 42
6.274458660922827
  0
LINE
  5
320
330
1F
100
AcDbEntity
  8
0
  6
Continuous
 62
     7
370
    15
100
AcDbLine
 10
787.9195798266
 20
196.8743877297
 30
0.0
 11
787.325999521
 21
197.4679680353
 31
0.0
  0
LWPOLYLINE
  5
321
330
1F
100
AcDbEntity
  8
0
  6
Continuous
 62
     7
370
    15
100
AcDbPolyline
 90
       39
 70
   128
 43
0.0
 10
787.886707865
 20
219.90708651
 10
787.8854859698
 20
218.2199919408
 10
787.881857537
 20
216.5789158826
 10
787.8759268749
 20
215.028625149
 10
787.8678429949
 20
213.6114055102
 10
787.8578368652
 20
212.3659143036
 10
787.8461841571
 20
211.3261299019
 10
787.8331903445
 20
210.520409215
 10
787.8192130553
 20
209.9707314556
 10
787.8046471703
 20
209.6920909171
 10
787.789872669
 20
209.6920909171
 10
787.7752993333
 20
209.9707314556
 10
787.7613294947
 20
210.520409215
 10
787.7483356821
 20
211.3261299019
 10
787.7366755235
 20
212.3659143036
 10
787.7266693938
 20
213.6114055102
 10
787.7185929644
 20
215.028625149
 10
787.7126548517
 20
216.5789158826
 10
787.7090338695
 20
218.2199919408
 10
787.7078119743
 20
219.90708651
 10
787.7090338695
 20
221.5941810792
 10
787.7126548517
 20
223.235253412
 10
787.7185929644
 20
224.7855441456
 10
787.7266693938
 20
226.2027637844
 10
787.7366755235
 20
227.4482549911
 10
787.7483356821
 20
228.488043118
 10
787.7613294947
 20
229.2937600797
 10
787.7752993333
 20
229.8434378391
 10
787.789872669
 20
230.1220746522
 10
787.8046471703
 20
230.1220746522
 10
787.8192130553
 20
229.8434378391
 10
787.8331903445
 20
229.2937600797
 10
787.8461841571
 20
228.488043118
 10
787.8578368652
 20
227.4482549911
 10
787.8678429949
 20
226.2027637844
 10
787.8759268749
 20
224.7855441456
 10
787.881857537
 20
223.235253412
 10
787.8854859698
 20
221.5941810792
 10
787.886707865
 20
219.90708651
  0
LWPOLYLINE
  5
322
330
1F
100
AcDbEntity
  8
0
  6
Continuous
 62
     7
370
    15
100
AcDbPolyline
 90
       39
 70
   128
 43
0.0
 10
787.886707865
 20
254.9070847963
 10
787.8854859698
 20
253.2199902271
 10
787.881857537
 20
251.5789160316
 10
787.8759268749
 20
250.0286234354
 10
787.8678429949
 20
248.6114037966
 10
787.8578368652
 20
247.3659144526
 10
787.8461841571
 20
246.3261281883
 10
787.8331903445
 20
245.5204075014
 10
787.8192130553
 20
244.9707316046
 10
787.8046471703
 20
244.6920929288
 10
787.789872669
 20
244.6920929288
 10
787.7752993333
 20
244.9707316046
 10
787.7613294947
 20
245.5204075014
 10
787.7483356821
 20
246.3261281883
 10
787.7366755235
 20
247.3659144526
 10
787.7266693938
 20
248.6114037966
 10
787.7185929644
 20
250.0286234354
 10
787.7126548517
 20
251.5789160316
 10
787.7090338695
 20
253.2199902271
 10
787.7078119743
 20
254.9070847963
 10
787.7090338695
 20
256.5941793655
 10
787.7126548517
 20
258.2352544924
 10
787.7185929644
 20
259.785545226
 10
787.7266693938
 20
261.2027648648
 10
787.7366755235
 20
262.4482551401
 10
787.7483356821
 20
263.4880414044
 10
787.7613294947
 20
264.29376116
 10
787.7752993333
 20
264.8434375224
 10
787.789872669
 20
265.1220757326
 10
787.8046471703
 20
265.1220757326
 10
787.8192130553
 20
264.8434375224
 10
787.8331903445
 20
264.29376116
 10
787.8461841571
 20
263.4880414044
 10
787.8578368652
 20
262.4482551401
 10
787.8678429949
 20
261.2027648648
 10
787.8759268749
 20
259.785545226
 10
787.881857537
 20
258.2352544924
 10
787.8854859698
 20
256.5941793655
 10
787.886707865
 20
254.9070847963
  0
LWPOLYLINE
  5
323
330
1F
100
AcDbEntity
  8
0
  6
Continuous
 62
     7
370
    15
100
AcDbPolyline
 90
       44
 70
   128
 43
0.0
 10
787.635817014
 20
238.4070830231
 10
787.6346547234
 20
236.587070096
 10
787.6311902034
 20
234.8058448916
 10
787.6255054104
 20
233.1013755684
 10
787.6177121031
 20
231.5099874323
 10
787.6079741943
 20
230.0655992513
 10
787.5965152013
 20
228.7989968245
 10
787.5835586416
 20
227.7371698802
 10
787.5693950879
 20
226.9027570074
 10
787.5543225634
 20
226.3135390168
 10
787.5386688936
 20
225.9820738619
 10
787.5227544534
 20
225.9154246931
 10
787.5069219696
 20
226.1150145715
 10
787.491514169
 20
226.5765892153
 10
787.4768588769
 20
227.2903064077
 10
787.4632690179
 20
228.240963239
 10
787.451027714
 20
229.4082904046
 10
787.4403957355
 20
230.7674141412
 10
787.431611501
 20
232.2893628662
 10
787.4248538244
 20
233.9417004769
 10
787.4202642667
 20
235.6892080789
 10
787.4179471361
 20
237.494643945
 10
787.4179471361
 20
239.3195258265
 10
787.4202642667
 20
241.1249616926
 10
787.4248538244
 20
242.8724711572
 10
787.431611501
 20
244.5248087679
 10
787.4403957355
 20
246.0467556303
 10
787.451027714
 20
247.4058775043
 10
787.4632690179
 20
248.5732065325
 10
787.4768588769
 20
249.5238615011
 10
787.491514169
 20
250.2375824188
 10
787.5069219696
 20
250.6991552
 10
787.5227544534
 20
250.8987450784
 10
787.5386688936
 20
250.8320977723
 10
787.5543225634
 20
250.5006307547
 10
787.5693950879
 20
249.9114127641
 10
787.5835586416
 20
249.0769980287
 10
787.5965152013
 20
248.0151748096
 10
787.6079741943
 20
246.7485705202
 10
787.6177121031
 20
245.3041823392
 10
787.6255054104
 20
243.7127942031
 10
787.6311902034
 20
242.0083230173
 10
787.6346547234
 20
240.2270996755
 10
787.635817014
 20
238.4070830231
  0
LWPOLYLINE
  5
324
330
1F
100
AcDbEntity
  8
0
  6
Continuous
 62
     7
370
    15
100
AcDbPolyline
 90
       39
 70
   128
 43
0.0
 10
787.6161847341
 20
272.4070848708
 10
787.6149628389
 20
270.7199903016
 10
787.6113344061
 20
269.0789154076
 10
787.605403744
 20
267.5286239756
 10
787.597319864
 20
266.1114043368
 10
787.5873137343
 20
264.8659149928
 10
787.5756610262
 20
263.8261282628
 10
787.5626672137
 20
263.0204085072
 10
787.548697375
 20
262.4707326104
 10
787.5341240394
 20
262.1920939346
 10
787.5193495381
 20
262.1920939346
 10
787.5047762024
 20
262.4707326104
 10
787.4908063638
 20
263.0204085072
 10
787.4778125512
 20
263.8261282628
 10
787.4661523926
 20
264.8659149928
 10
787.4561462629
 20
266.1114043368
 10
787.4480698335
 20
267.5286239756
 10
787.4421317208
 20
269.0789154076
 10
787.4385107386
 20
270.7199903016
 10
787.4372888434
 20
272.4070848708
 10
787.4385107386
 20
274.0941794401
 10
787.4421317208
 20
275.7352543341
 10
787.4480698335
 20
277.2855457661
 10
787.4561462629
 20
278.7027654049
 10
787.4661523926
 20
279.9482547489
 10
787.4778125512
 20
280.9880414789
 10
787.4908063638
 20
281.7937612345
 10
787.5047762024
 20
282.3434371313
 10
787.5193495381
 20
282.6220758071
 10
787.5341240394
 20
282.6220758071
 10
787.548697375
 20
282.3434371313
 10
787.5626672137
 20
281.7937612345
 10
787.5756610262
 20
280.9880414789
 10
787.5873137343
 20
279.9482547489
 10
787.597319864
 20
278.7027654049
 10
787.605403744
 20
277.2855457661
 10
787.6113344061
 20
275.7352543341
 10
787.6149628389
 20
274.0941794401
 10
787.6161847341
 20
272.4070848708
  0
LWPOLYLINE
  5
325
330
1F
100
AcDbEntity
  8
0
  6
Continuous
 62
     7
370
    15
100
AcDbPolyline
 90
       30
 70
   128
 43
0.0
 10
787.4918270933
 20
212.407086212
 10
787.4906051981
 20
211.1172640508
 10
787.4869916665
 20
209.8877506142
 10
787.4811504113
 20
208.7760420328
 10
787.4733645546
 20
207.8341098314
 10
787.4639991748
 20
207.1060092931
 10
787.453478955
 20
206.6257821207
 10
787.4423030841
 20
206.4158843642
 10
787.4310005533
 20
206.486128438
 10
787.4200929034
 20
206.8332211857
 10
787.4100867736
 20
207.4409501438
 10
787.4014590013
 20
208.2808913474
 10
787.3946044671
 20
209.3137653356
 10
787.3898509967
 20
210.4912774449
 10
787.3874146569
 20
211.75837161
 10
787.3874146569
 20
213.0558008139
 10
787.3898509967
 20
214.322894979
 10
787.3946044671
 20
215.5004070883
 10
787.4014590013
 20
216.5332810765
 10
787.4100867736
 20
217.3732185548
 10
787.4200929034
 20
217.9809437876
 10
787.4310005533
 20
218.3280439859
 10
787.4423030841
 20
218.3982843345
 10
787.453478955
 20
218.1883865779
 10
787.4639991748
 20
217.7081556802
 10
787.4733645546
 20
216.9800588672
 10
787.4811504113
 20
216.0381303912
 10
787.4869916665
 20
214.9264180844
 10
787.4906051981
 20
213.6969083732
 10
787.4918270933
 20
212.407086212
  0
LWPOLYLINE
  5
326
330
1F
100
AcDbEntity
  8
0
  6
Continuous
 62
     7
370
    15
100
AcDbPolyline
 90
       44
 70
   128
 43
0.0
 10
787.4176565635
 20
306.4070867186
 10
787.4188188541
 20
308.2270996456
 10
787.4222759235
 20
310.0083248501
 10
787.427968167
 20
311.7127941733
 10
787.4357614743
 20
313.3041823094
 10
787.4454919326
 20
314.7485704904
 10
787.4569583761
 20
316.0151729172
 10
787.4699074852
 20
317.0769998615
 10
787.4840710389
 20
317.9114127343
 10
787.4991435635
 20
318.5006307249
 10
787.5148046839
 20
318.8320958798
 10
787.5307191241
 20
318.8987450486
 10
787.5465516078
 20
318.6991551702
 10
787.5619594085
 20
318.2375805264
 10
787.5766147005
 20
317.523863334
 10
787.5902045595
 20
316.5732065027
 10
787.6024458635
 20
315.4058793371
 10
787.6130703914
 20
314.0467556005
 10
787.6218620765
 20
312.5248068755
 10
787.6286197531
 20
310.8724692648
 10
787.6332093107
 20
309.1249616628
 10
787.6355264413
 20
307.3195257967
 10
787.6355264413
 20
305.4946439152
 10
787.6332093107
 20
303.6892080491
 10
787.6286197531
 20
301.9416985845
 10
787.6218620765
 20
300.2893609737
 10
787.6130703914
 20
298.7674141114
 10
787.6024458635
 20
297.4082922374
 10
787.5902045595
 20
296.2409632092
 10
787.5766147005
 20
295.2903082406
 10
787.5619594085
 20
294.5765873229
 10
787.5465516078
 20
294.1150145417
 10
787.5307191241
 20
293.9154246633
 10
787.5148046839
 20
293.9820719694
 10
787.4991435635
 20
294.313538987
 10
787.4840710389
 20
294.9027569776
 10
787.4699074852
 20
295.737171713
 10
787.4569583761
 20
296.7989949321
 10
787.4454919326
 20
298.0655992215
 10
787.4357614743
 20
299.5099874025
 10
787.427968167
 20
301.1013755386
 10
787.4222759235
 20
302.8058467244
 10
787.4188188541
 20
304.5870700662
 10
787.4176565635
 20
306.4070867186
  0
LWPOLYLINE
  5
327
330
1F
100
AcDbEntity
  8
0
  6
Continuous
 62
     7
370
    15
100
AcDbPolyline
 90
       30
 70
   128
 43
0.0
 10
787.3871091831
 20
332.4070835297
 10
787.3883385288
 20
333.6969056909
 10
787.3919520604
 20
334.9264191275
 10
787.397785865
 20
336.0381277089
 10
787.4055717218
 20
336.9800599103
 10
787.4149445522
 20
337.7081604486
 10
787.425464772
 20
338.188387621
 10
787.4366331923
 20
338.3982853775
 10
787.4479431736
 20
338.3280413037
 10
787.4588508236
 20
337.980948556
 10
787.4688569534
 20
337.3732195978
 10
787.4774847257
 20
336.5332783943
 10
787.4843318093
 20
335.5004044061
 10
787.4890852797
 20
334.3228922968
 10
787.4915216195
 20
333.0557981317
 10
787.4915216195
 20
331.7583689278
 10
787.4890852797
 20
330.4912747627
 10
787.4843318093
 20
329.3137626534
 10
787.4774847257
 20
328.2808886652
 10
787.4688569534
 20
327.4409511869
 10
787.4588508236
 20
326.8332259541
 10
787.4479431736
 20
326.4861257558
 10
787.4366331923
 20
326.4158854072
 10
787.425464772
 20
326.6257831638
 10
787.4149445522
 20
327.1060140615
 10
787.4055717218
 20
327.8341108744
 10
787.397785865
 20
328.7760393505
 10
787.3919520604
 20
329.8877516573
 10
787.3883385288
 20
331.1172613685
 10
787.3871091831
 20
332.4070835297
  0
LWPOLYLINE
  5
328
330
1F
100
AcDbEntity
  8
0
  6
Continuous
 62
     7
370
    15
100
AcDbPolyline
 90
       39
 70
   128
 43
0.0
 10
787.7078119743
 20
289.9070849454
 10
787.7090338695
 20
291.5941795146
 10
787.7126548517
 20
293.2352537101
 10
787.7185929644
 20
294.7855463063
 10
787.7266693938
 20
296.2027659451
 10
787.7366755235
 20
297.4482552891
 10
787.7483356821
 20
298.4880415534
 10
787.7613294947
 20
299.2937622403
 10
787.7752993333
 20
299.8434381371
 10
787.789872669
 20
300.1220768129
 10
787.8046471703
 20
300.1220768129
 10
787.8192130553
 20
299.8434381371
 10
787.8331903445
 20
299.2937622403
 10
787.8461841571
 20
298.4880415534
 10
787.8578368652
 20
297.4482552891
 10
787.8678429949
 20
296.2027659451
 10
787.8759268749
 20
294.7855463063
 10
787.881857537
 20
293.2352537101
 10
787.8854859698
 20
291.5941795146
 10
787.886707865
 20
289.9070849454
 10
787.8854859698
 20
288.2199903761
 10
787.881857537
 20
286.5789152493
 10
787.8759268749
 20
285.0286245157
 10
787.8678429949
 20
283.6114048769
 10
787.8578368652
 20
282.3659146016
 10
787.8461841571
 20
281.3261283373
 10
787.8331903445
 20
280.5204085817
 10
787.8192130553
 20
279.9707322193
 10
787.8046471703
 20
279.6920940091
 10
787.789872669
 20
279.6920940091
 10
787.7752993333
 20
279.9707322193
 10
787.7613294947
 20
280.5204085817
 10
787.7483356821
 20
281.3261283373
 10
787.7366755235
 20
282.3659146016
 10
787.7266693938
 20
283.6114048769
 10
787.7185929644
 20
285.0286245157
 10
787.7126548517
 20
286.5789152493
 10
787.7090338695
 20
288.2199903761
 10
787.7078119743
 20
289.9070849454
  0
LWPOLYLINE
  5
329
330
1F
100
AcDbEntity
  8
0
  6
Continuous
 62
     7
370
    15
100
AcDbPolyline
 90
       39
 70
   128
 43
0.0
 10
787.7078119743
 20
324.9070832317
 10
787.7090338695
 20
326.5941778009
 10
787.7126548517
 20
328.2352538591
 10
787.7185929644
 20
329.7855445927
 10
787.7266693938
 20
331.2027642315
 10
787.7366755235
 20
332.4482554381
 10
787.7483356821
 20
333.4880398398
 10
787.7613294947
 20
334.2937605267
 10
787.7752993333
 20
334.8434382861
 10
787.789872669
 20
335.1220788246
 10
787.8046471703
 20
335.1220788246
 10
787.8192130553
 20
334.8434382861
 10
787.8331903445
 20
334.2937605267
 10
787.8461841571
 20
333.4880398398
 10
787.8578368652
 20
332.4482554381
 10
787.8678429949
 20
331.2027642315
 10
787.8759268749
 20
329.7855445927
 10
787.881857537
 20
328.2352538591
 10
787.8854859698
 20
326.5941778009
 10
787.886707865
 20
324.9070832317
 10
787.8854859698
 20
323.2199886625
 10
787.881857537
 20
321.5789163297
 10
787.8759268749
 20
320.0286255961
 10
787.8678429949
 20
318.6114059573
 10
787.8578368652
 20
317.3659147506
 10
787.8461841571
 20
316.3261266237
 10
787.8331903445
 20
315.520409662
 10
787.8192130553
 20
314.9707319026
 10
787.8046471703
 20
314.6920950895
 10
787.789872669
 20
314.6920950895
 10
787.7752993333
 20
314.9707319026
 10
787.7613294947
 20
315.520409662
 10
787.7483356821
 20
316.3261266237
 10
787.7366755235
 20
317.3659147506
 10
787.7266693938
 20
318.6114059573
 10
787.7185929644
 20
320.0286255961
 10
787.7126548517
 20
321.5789163297
 10
787.7090338695
 20
323.2199886625
 10
787.7078119743
 20
324.9070832317
  0
LINE
  5
32A
330
1F
100
AcDbEntity
  8
0
  6
Continuous
 62
     7
370
    15
100
AcDbLine
 10
787.2544888484
 20
196.8743877297
 30
0.0
 11
787.9195798266
 21
196.8743877297
 31
0.0
  0
CIRCLE
  5
32B
330
1F
100
AcDbEntity
  8
0
  6
Continuous
 62
     7
370
    15
100
AcDbCircle
 10
616.1717890727
 20
190.6570848708
 30
0.0
 40
2.250000000000028
  0
CIRCLE
  5
32C
330
1F
100
AcDbEntity
  8
0
  6
Continuous
 62
     7
370
    15
100
AcDbCircle
 10
616.1717890727
 20
354.1570848708
 30
0.0
 40
2.250000000000057
  0
CIRCLE
  5
32D
330
1F
100
AcDbEntity
  8
0
  6
Continuous
 62
     7
370
    15
100
AcDbCircle
 10
779.6717890727
 20
354.1570848708
 30
0.0
 40
2.250000000000057
  0
CIRCLE
  5
32E
330
1F
100
AcDbEntity
  8
0
  6
Continuous
 62
     7
370
    15
100
AcDbCircle
 10
779.6717890727
 20
190.6570848708
 30
0.0
 40
2.250000000000028
  0
LWPOLYLINE
  5
32F
330
1F
100
AcDbEntity
  8
0
  6
Continuous
 62
     7
370
    15
100
AcDbPolyline
 90
        4
 70
   128
 43
0.0
 10
608.4077496159
 20
238.4070830231
 10
608.4089119065
 20
236.587070096
 10
608.4123764264
 20
234.8058448916
 10
608.4168393242
 20
233.4126459246
  0
LWPOLYLINE
  5
330
330
1F
100
AcDbEntity
  8
0
  6
Continuous
 62
     7
370
    15
100
AcDbPolyline
 90
        4
 70
   128
 43
0.0
 10
608.4168393242
 20
243.4015238469
 10
608.4123764264
 20
242.0083230173
 10
608.4089119065
 20
240.2270996755
 10
608.4077496159
 20
238.4070830231
  0
LWPOLYLINE
  5
331
330
1F
100
AcDbEntity
  8
0
  6
Continuous
 62
     7
370
    15
100
AcDbPolyline
 90
        8
 70
   128
 43
0.0
 10
608.4168393242
 20
311.4015238171
 10
608.4149543273
 20
310.8724692648
 10
608.4103647697
 20
309.1249616628
 10
608.4080476391
 20
307.3195257967
 10
608.4080476391
 20
305.4946439152
 10
608.4103647697
 20
303.6892080491
 10
608.4149543273
 20
301.9416985845
 10
608.4168393242
 20
301.4126458948
  0
LWPOLYLINE
  5
332
330
1F
100
AcDbEntity
  8
0
  6
Continuous
 62
     7
370
    15
100
AcDbPolyline
 90
        8
 70
   128
 43
0.0
 10
787.4267388212
 20
311.4015238171
 10
787.4286238181
 20
310.8724692648
 10
787.4332133758
 20
309.1249616628
 10
787.4355305063
 20
307.3195257967
 10
787.4355305063
 20
305.4946439152
 10
787.4332133758
 20
303.6892080491
 10
787.4286238181
 20
301.9416985845
 10
787.4267388212
 20
301.4126458948
  0
LWPOLYLINE
  5
333
330
1F
100
AcDbEntity
  8
0
  6
Continuous
 62
     7
370
    15
100
AcDbPolyline
 90
        4
 70
   128
 43
0.0
 10
787.4358285296
 20
238.4070830231
 10
787.434666239
 20
236.587070096
 10
787.431201719
 20
234.8058448916
 10
787.4267388212
 20
233.4126459246
  0
LWPOLYLINE
  5
334
330
1F
100
AcDbEntity
  8
0
  6
Continuous
 62
     7
370
    15
100
AcDbPolyline
 90
        4
 70
   128
 43
0.0
 10
787.4267388212
 20
243.4015238469
 10
787.431201719
 20
242.0083230173
 10
787.434666239
 20
240.2270996755
 10
787.4358285296
 20
238.4070830231
  0
LWPOLYLINE
  5
335
330
1F
100
AcDbEntity
  8
0
  6
Continuous
 62
     7
370
    15
100
AcDbPolyline
 90
       19
 70
   128
 43
0.0
 10
681.2257736999
 20
182.7712358718
 10
681.6787950772
 20
182.765707541
 10
683.1924727264
 20
182.7499644642
 10
684.9053397852
 20
182.7358605152
 10
686.7942323985
 20
182.7235894089
 10
688.8336053195
 20
182.7133150583
 10
690.9958811554
 20
182.7051790243
 10
693.2518177743
 20
182.699285615
 10
695.5709076098
 20
182.6957167869
 10
697.9217890727
 20
182.6945172434
 10
700.2726705356
 20
182.6957167869
 10
702.5917603712
 20
182.699285615
 10
704.84769699
 20
182.7051790243
 10
707.0099728259
 20
182.7133150583
 10
709.0493457469
 20
182.7235894089
 10
710.9382383603
 20
182.7358605152
 10
712.6511054191
 20
182.7499644642
 10
714.1647830683
 20
182.765707541
 10
714.6178044456
 20
182.7712358718
  0
LWPOLYLINE
  5
336
330
1F
100
AcDbEntity
  8
0
  6
Continuous
 62
     7
370
    15
100
AcDbPolyline
 90
       18
 70
   128
 43
0.0
 10
683.9356979432
 20
182.799033988
 10
684.5939902666
 20
182.7901007419
 10
685.8922716307
 20
182.7758924847
 10
687.3880771997
 20
182.7632563
 10
689.056847066
 20
182.7523859029
 10
690.8711784597
 20
182.7434675579
 10
692.8012806999
 20
182.7366502767
 10
694.8154613453
 20
182.7320383673
 10
696.8806479669
 20
182.7297212367
 10
698.9629301785
 20
182.7297212367
 10
701.0281168002
 20
182.7320383673
 10
703.0422974455
 20
182.7366502767
 10
704.9723996858
 20
182.7434675579
 10
706.7867310795
 20
182.7523859029
 10
708.4555009457
 20
182.7632563
 10
709.9513065147
 20
182.7758924847
 10
711.2495878789
 20
182.7901007419
 10
711.9078802022
 20
182.799033988
  0
LINE
  5
337
330
1F
100
AcDbEntity
  8
0
  6
Continuous
 62
     7
370
    15
100
AcDbLine
 10
608.5717890489
 20
194.8744656329
 30
0.0
 11
607.9066980707
 21
194.8744656329
 31
0.0
  0
LINE
  5
338
330
1F
100
AcDbEntity
  8
0
  6
Continuous
 62
     7
370
    15
100
AcDbLine
 10
607.9066980707
 20
349.9397041087
 30
0.0
 11
608.5717890489
 21
349.9397041087
 31
0.0
  0
LINE
  5
339
330
1F
100
AcDbEntity
  8
0
  6
Continuous
 62
     7
370
    15
100
AcDbLine
 10
620.3891698348
 20
182.3919938689
 30
0.0
 11
620.3891698348
 21
183.057084847
 31
0.0
  0
LINE
  5
33A
330
1F
100
AcDbEntity
  8
0
  6
Continuous
 62
     7
370
    15
100
AcDbLine
 10
620.3891698348
 20
361.7570848947
 30
0.0
 11
620.3891698348
 21
362.4221758728
 31
0.0
  0
LINE
  5
33B
330
1F
100
AcDbEntity
  8
0
  6
Continuous
 62
     7
370
    15
100
AcDbLine
 10
775.4544083106
 20
183.057084847
 30
0.0
 11
775.4544083106
 21
182.3919938689
 31
0.0
  0
LINE
  5
33C
330
1F
100
AcDbEntity
  8
0
  6
Continuous
 62
     7
370
    15
100
AcDbLine
 10
775.4544083106
 20
362.4221758728
 30
0.0
 11
775.4544083106
 21
361.7570848947
 31
0.0
  0
LINE
  5
33D
330
1F
100
AcDbEntity
  8
0
  6
Continuous
 62
     7
370
    15
100
AcDbLine
 10
787.2717890966
 20
349.9397041087
 30
0.0
 11
787.9368800747
 21
349.9397041087
 31
0.0
  0
LINE
  5
33E
330
1F
100
AcDbEntity
  8
0
  6
Continuous
 62
     7
370
    15
100
AcDbLine
 10
787.9368800747
 20
194.8744656329
 30
0.0
 11
787.2717890966
 21
194.8744656329
 31
0.0
  0
ARC
  5
33F
330
1F
100
AcDbEntity
  8
0
  6
Continuous
 62
     7
370
    15
100
AcDbCircle
 10
611.3717890727
 20
358.9570848708
 30
0.0
 40
3.465092528836976
100
AcDbArc
 50
90.0
 51
180.0
  0
ARC
  5
340
330
1F
100
AcDbEntity
  8
0
  6
Continuous
 62
     7
370
    15
100
AcDbCircle
 10
611.3717890727
 20
185.8570848708
 30
0.0
 40
3.5
100
AcDbArc
 50
180.0
 51
270.0
  0
ARC
  5
341
330
1F
100
AcDbEntity
  8
0
  6
Continuous
 62
     7
370
    15
100
AcDbCircle
 10
611.3717890727
 20
185.8570848708
 30
0.0
 40
3.465092528836976
100
AcDbArc
 50
180.0
 51
270.0
  0
ARC
  5
342
330
1F
100
AcDbEntity
  8
0
  6
Continuous
 62
     7
370
    15
100
AcDbCircle
 10
611.3717890727
 20
358.9570848708
 30
0.0
 40
3.5
100
AcDbArc
 50
90.0
 51
180.0
  0
ARC
  5
343
330
1F
100
AcDbEntity
  8
0
  6
Continuous
 62
     7
370
    15
100
AcDbCircle
 10
784.4717890727
 20
358.9570848708
 30
0.0
 40
3.465092528836976
100
AcDbArc
 50
0.0
 51
90.0
  0
ARC
  5
344
330
1F
100
AcDbEntity
  8
0
  6
Continuous
 62
     7
370
    15
100
AcDbCircle
 10
784.4717890727
 20
185.8570848708
 30
0.0
 40
3.465092528836948
100
AcDbArc
 50
270.0
 51
0.0
  0
ARC
  5
345
330
1F
100
AcDbEntity
  8
0
  6
Continuous
 62
     7
370
    15
100
AcDbCircle
 10
784.4717890727
 20
185.8570848708
 30
0.0
 40
3.5
100
AcDbArc
 50
270.0
 51
0.0
  0
ARC
  5
346
330
1F
100
AcDbEntity
  8
0
  6
Continuous
 62
     7
370
    15
100
AcDbCircle
 10
784.4717890727
 20
358.9570848708
 30
0.0
 40
3.500000000000057
100
AcDbArc
 50
0.0
 51
90.0
  0
ENDSEC
  0
SECTION
  2
OBJECTS
  0
DICTIONARY
  5
C
330
0
100
AcDbDictionary
281
     1
  3
ACAD_GROUP
350
D
  3
ACAD_LAYOUT
350
1A
  3
ACAD_MLINESTYLE
350
17
  3
ACAD_PLOTSETTINGS
350
19
  3
ACAD_PLOTSTYLENAME
350
E
  3
ACAD_SCALELIST
350
47
  0
DICTIONARY
  5
D
102
{ACAD_REACTORS
330
C
102
}
330
C
100
AcDbDictionary
281
     1
  0
DICTIONARY
  5
1A
102
{ACAD_REACTORS
330
C
102
}
330
C
100
AcDbDictionary
281
     1
  3
Layout1
350
1E
  3
Layout2
350
26
  3
Model
350
22
  0
DICTIONARY
  5
17
102
{ACAD_REACTORS
330
C
102
}
330
C
100
AcDbDictionary
281
     1
  3
Standard
350
18
  0
DICTIONARY
  5
19
102
{ACAD_REACTORS
330
C
102
}
330
C
100
AcDbDictionary
281
     1
  0
ACDBDICTIONARYWDFLT
  5
E
102
{ACAD_REACTORS
330
C
102
}
330
C
100
AcDbDictionary
281
     1
  3
Normal
350
F
100
AcDbDictionaryWithDefault
340
F
  0
DICTIONARY
  5
47
102
{ACAD_REACTORS
330
C
102
}
330
C
100
AcDbDictionary
281
     1
  3
A0
350
48
  3
A1
350
49
  3
A2
350
4A
  3
A3
350
4B
  3
A4
350
4C
  3
A5
350
4D
  3
A6
350
4E
  3
A7
350
4F
  3
A8
350
50
  3
A9
350
51
  3
B0
350
52
  3
B1
350
53
  3
B2
350
54
  3
B3
350
55
  3
B4
350
56
  3
B5
350
57
  3
B6
350
58
  3
B7
350
59
  3
B8
350
5A
  3
B9
350
5B
  3
C0
350
5C
  3
C1
350
5D
  3
C2
350
5E
  3
C3
350
5F
  3
C4
350
60
  3
C5
350
61
  3
C6
350
62
  3
C7
350
63
  3
C8
350
64
  3
C9
350
65
  3
D0
350
66
  3
D1
350
67
  3
D2
350
68
  0
LAYOUT
  5
1E
102
{ACAD_REACTORS
330
1A
102
}
330
1A
100
AcDbPlotSettings
  1

  2
none_device
  4

  6

 40
0.0
 41
0.0
 42
0.0
 43
0.0
 44
0.0
 45
0.0
 46
0.0
 47
0.0
 48
0.0
 49
0.0
140
0.0
141
0.0
142
1.0
143
1.0
 70
   688
 72
     1
 73
     0
 74
     5
  7

 75
    16
147
1.0
148
0.0
149
0.0
100
AcDbLayout
  1
Layout1
 70
     1
 71
     1
 10
0.0
 20
0.0
 11
420.0
 21
297.0
 12
0.0
 22
0.0
 32
0.0
 14
1.0000000000E+20
 24
1.0000000000E+20
 34
1.0000000000E+20
 15
-1.0000000000E+20
 25
-1.0000000000E+20
 35
-1.0000000000E+20
146
0.0
 13
0.0
 23
0.0
 33
0.0
 16
1.0
 26
0.0
 36
0.0
 17
0.0
 27
1.0
 37
0.0
 76
     0
330
1B
  0
LAYOUT
  5
26
102
{ACAD_REACTORS
330
1A
102
}
330
1A
100
AcDbPlotSettings
  1

  2
none_device
  4

  6

 40
0.0
 41
0.0
 42
0.0
 43
0.0
 44
0.0
 45
0.0
 46
0.0
 47
0.0
 48
0.0
 49
0.0
140
0.0
141
0.0
142
1.0
143
1.0
 70
   688
 72
     1
 73
     0
 74
     5
  7

 75
    16
147
1.0
148
0.0
149
0.0
100
AcDbLayout
  1
Layout2
 70
     1
 71
     2
 10
0.0
 20
0.0
 11
0.0
 21
0.0
 12
0.0
 22
0.0
 32
0.0
 14
0.0
 24
0.0
 34
0.0
 15
0.0
 25
0.0
 35
0.0
146
0.0
 13
0.0
 23
0.0
 33
0.0
 16
1.0
 26
0.0
 36
0.0
 17
0.0
 27
1.0
 37
0.0
 76
     0
330
23
  0
LAYOUT
  5
22
102
{ACAD_REACTORS
330
1A
102
}
330
1A
100
AcDbPlotSettings
  1

  2
none_device
  4
Letter_(8.50_x_11.00_Inches)
  6

 40
6.35
 41
6.35
 42
6.35000508
 43
6.35000508
 44
215.9
 45
279.4
 46
0.0
 47
0.0
 48
0.0
 49
0.0
140
0.0
141
0.0
142
1.0
143
1.0
 70
  1712
 72
     1
 73
     0
 74
     0
  7

 75
     0
147
1.0
148
0.0
149
0.0
100
AcDbLayout
  1
Model
 70
     1
 71
     0
 10
0.0
 20
0.0
 11
840.0
 21
594.0
 12
0.0
 22
0.0
 32
0.0
 14
0.0
 24
0.0
 34
0.0
 15
840.0
 25
594.0
 35
0.0
146
0.0
 13
0.0
 23
0.0
 33
0.0
 16
1.0
 26
0.0
 36
0.0
 17
0.0
 27
1.0
 37
0.0
 76
     0
330
1F
331
29
  0
MLINESTYLE
  5
18
102
{ACAD_REACTORS
330
17
102
}
330
17
100
AcDbMlineStyle
  2
Standard
 70
     0
  3

 62
   256
 51
90.0
 52
90.0
 71
     2
 49
0.5
 62
   256
  6
BYLAYER
 49
-0.5
 62
   256
  6
BYLAYER
  0
ACDBPLACEHOLDER
  5
F
102
{ACAD_REACTORS
330
E
102
}
330
E
  0
SCALE
  5
48
102
{ACAD_REACTORS
330
47
102
}
330
47
100
AcDbScale
 70
     0
300
1:1
140
1.0
141
1.0
290
     1
  0
SCALE
  5
49
102
{ACAD_REACTORS
330
47
102
}
330
47
100
AcDbScale
 70
     0
300
1:2
140
1.0
141
2.0
290
     0
  0
SCALE
  5
4A
102
{ACAD_REACTORS
330
47
102
}
330
47
100
AcDbScale
 70
     0
300
1:4
140
1.0
141
4.0
290
     0
  0
SCALE
  5
4B
102
{ACAD_REACTORS
330
47
102
}
330
47
100
AcDbScale
 70
     0
300
1:5
140
1.0
141
5.0
290
     0
  0
SCALE
  5
4C
102
{ACAD_REACTORS
330
47
102
}
330
47
100
AcDbScale
 70
     0
300
1:8
140
1.0
141
8.0
290
     0
  0
SCALE
  5
4D
102
{ACAD_REACTORS
330
47
102
}
330
47
100
AcDbScale
 70
     0
300
1:10
140
1.0
141
10.0
290
     0
  0
SCALE
  5
4E
102
{ACAD_REACTORS
330
47
102
}
330
47
100
AcDbScale
 70
     0
300
1:16
140
1.0
141
16.0
290
     0
  0
SCALE
  5
4F
102
{ACAD_REACTORS
330
47
102
}
330
47
100
AcDbScale
 70
     0
300
1:20
140
1.0
141
20.0
290
     0
  0
SCALE
  5
50
102
{ACAD_REACTORS
330
47
102
}
330
47
100
AcDbScale
 70
     0
300
1:30
140
1.0
141
30.0
290
     0
  0
SCALE
  5
51
102
{ACAD_REACTORS
330
47
102
}
330
47
100
AcDbScale
 70
     0
300
1:40
140
1.0
141
40.0
290
     0
  0
SCALE
  5
52
102
{ACAD_REACTORS
330
47
102
}
330
47
100
AcDbScale
 70
     0
300
1:50
140
1.0
141
50.0
290
     0
  0
SCALE
  5
53
102
{ACAD_REACTORS
330
47
102
}
330
47
100
AcDbScale
 70
     0
300
1:100
140
1.0
141
100.0
290
     0
  0
SCALE
  5
54
102
{ACAD_REACTORS
330
47
102
}
330
47
100
AcDbScale
 70
     0
300
2:1
140
2.0
141
1.0
290
     0
  0
SCALE
  5
55
102
{ACAD_REACTORS
330
47
102
}
330
47
100
AcDbScale
 70
     0
300
4:1
140
4.0
141
1.0
290
     0
  0
SCALE
  5
56
102
{ACAD_REACTORS
330
47
102
}
330
47
100
AcDbScale
 70
     0
300
8:1
140
8.0
141
1.0
290
     0
  0
SCALE
  5
57
102
{ACAD_REACTORS
330
47
102
}
330
47
100
AcDbScale
 70
     0
300
10:1
140
10.0
141
1.0
290
     0
  0
SCALE
  5
58
102
{ACAD_REACTORS
330
47
102
}
330
47
100
AcDbScale
 70
     0
300
100:1
140
100.0
141
1.0
290
     0
  0
SCALE
  5
59
102
{ACAD_REACTORS
330
47
102
}
330
47
100
AcDbScale
 70
     0
300
1/128" = 1'-0"
140
0.0078125
141
12.0
290
     0
  0
SCALE
  5
5A
102
{ACAD_REACTORS
330
47
102
}
330
47
100
AcDbScale
 70
     0
300
1/64" = 1'-0"
140
0.015625
141
12.0
290
     0
  0
SCALE
  5
5B
102
{ACAD_REACTORS
330
47
102
}
330
47
100
AcDbScale
 70
     0
300
1/32" = 1'-0"
140
0.03125
141
12.0
290
     0
  0
SCALE
  5
5C
102
{ACAD_REACTORS
330
47
102
}
330
47
100
AcDbScale
 70
     0
300
1/16" = 1'-0"
140
0.0625
141
12.0
290
     0
  0
SCALE
  5
5D
102
{ACAD_REACTORS
330
47
102
}
330
47
100
AcDbScale
 70
     0
300
3/32" = 1'-0"
140
0.09375
141
12.0
290
     0
  0
SCALE
  5
5E
102
{ACAD_REACTORS
330
47
102
}
330
47
100
AcDbScale
 70
     0
300
1/8" = 1'-0"
140
0.125
141
12.0
290
     0
  0
SCALE
  5
5F
102
{ACAD_REACTORS
330
47
102
}
330
47
100
AcDbScale
 70
     0
300
3/16" = 1'-0"
140
0.1875
141
12.0
290
     0
  0
SCALE
  5
60
102
{ACAD_REACTORS
330
47
102
}
330
47
100
AcDbScale
 70
     0
300
1/4" = 1'-0"
140
0.25
141
12.0
290
     0
  0
SCALE
  5
61
102
{ACAD_REACTORS
330
47
102
}
330
47
100
AcDbScale
 70
     0
300
3/8" = 1'-0"
140
0.375
141
12.0
290
     0
  0
SCALE
  5
62
102
{ACAD_REACTORS
330
47
102
}
330
47
100
AcDbScale
 70
     0
300
1/2" = 1'-0"
140
0.5
141
12.0
290
     0
  0
SCALE
  5
63
102
{ACAD_REACTORS
330
47
102
}
330
47
100
AcDbScale
 70
     0
300
3/4" = 1'-0"
140
0.75
141
12.0
290
     0
  0
SCALE
  5
64
102
{ACAD_REACTORS
330
47
102
}
330
47
100
AcDbScale
 70
     0
300
1" = 1'-0"
140
1.0
141
12.0
290
     0
  0
SCALE
  5
65
102
{ACAD_REACTORS
330
47
102
}
330
47
100
AcDbScale
 70
     0
300
1-1/2" = 1'-0"
140
1.5
141
12.0
290
     0
  0
SCALE
  5
66
102
{ACAD_REACTORS
330
47
102
}
330
47
100
AcDbScale
 70
     0
300
3" = 1'-0"
140
3.0
141
12.0
290
     0
  0
SCALE
  5
67
102
{ACAD_REACTORS
330
47
102
}
330
47
100
AcDbScale
 70
     0
300
6" = 1'-0"
140
6.0
141
12.0
290
     0
  0
SCALE
  5
68
102
{ACAD_REACTORS
330
47
102
}
330
47
100
AcDbScale
 70
     0
300
1'-0" = 1'-0"
140
12.0
141
12.0
290
     0
  0
ENDSEC
  0
EOF
