  0
SECTION
  2
HEADER
  9
$ACADVER
  1
AC1014
  9
$ACADMAINTVER
 70
     9
  9
$DWGCODEPAGE
  3
ANSI_1252
  9
$INSBASE
 10
0.0
 20
0.0
 30
0.0
  9
$EXTMIN
 10
0.0
 20
0.0
 30
0.0
  9
$EXTMAX
 10
210.0
 20
148.5
 30
0.0
  9
$LIMMIN
 10
0.0
 20
0.0
  9
$LIMMAX
 10
210.0
 20
148.5
  9
$ORTHOMODE
 70
     0
  9
$REGENMODE
 70
     1
  9
$FILLMODE
 70
     1
  9
$QTEXTMODE
 70
     0
  9
$MIRRTEXT
 70
     1
  9
$DRAGMODE
 70
     2
  9
$LTSCALE
 40
1.0
  9
$OSMODE
 70
    37
  9
$ATTMODE
 70
     1
  9
$TEXTSIZE
 40
1.75
  9
$TRACEWID
 40
1.0
  9
$TEXTSTYLE
  7
STANDARD
  9
$CLAYER
  8
0
  9
$CELTYPE
  6
BYLAYER
  9
$CECOLOR
 62
   256
  9
$CELTSCALE
 40
1.0
  9
$DELOBJ
 70
     1
  9
$DISPSILH
 70
     0
  9
$DIMSCALE
 40
1.0
  9
$DIMASZ
 40
3.0
  9
$DIMEXO
 40
0.5
  9
$DIMDLI
 40
3.75
  9
$DIMRND
 40
0.0
  9
$DIMDLE
 40
0.0
  9
$DIMEXE
 40
0.5
  9
$DIMTP
 40
0.0
  9
$DIMTM
 40
0.0
  9
$DIMTXT
 40
1.75
  9
$DIMCEN
 40
2.5
  9
$DIMTSZ
 40
0.0
  9
$DIMTOL
 70
     0
  9
$DIMLIM
 70
     0
  9
$DIMTIH
 70
     1
  9
$DIMTOH
 70
     1
  9
$DIMSE1
 70
     0
  9
$DIMSE2
 70
     0
  9
$DIMTAD
 70
     1
  9
$DIMZIN
 70
     0
  9
$DIMBLK
  1

  9
$DIMASO
 70
     1
  9
$DIMSHO
 70
     1
  9
$DIMPOST
  1

  9
$DIMAPOST
  1

  9
$DIMALT
 70
     0
  9
$DIMALTD
 70
     3
  9
$DIMALTF
 40
0.0393700787
  9
$DIMLFAC
 40
1.0
  9
$DIMTOFL
 70
     1
  9
$DIMTVP
 40
0.0
  9
$DIMTIX
 70
     0
  9
$DIMSOXD
 70
     0
  9
$DIMSAH
 70
     0
  9
$DIMBLK1
  1

  9
$DIMBLK2
  1

  9
$DIMSTYLE
  2
ISO-25
  9
$DIMCLRD
 70
     0
  9
$DIMCLRE
 70
     0
  9
$DIMCLRT
 70
     0
  9
$DIMTFAC
 40
1.0
  9
$DIMGAP
 40
0.762
  9
$DIMJUST
 70
     0
  9
$DIMSD1
 70
     0
  9
$DIMSD2
 70
     0
  9
$DIMTOLJ
 70
     0
  9
$DIMTZIN
 70
     0
  9
$DIMALTZ
 70
     0
  9
$DIMALTTZ
 70
     0
  9
$DIMFIT
 70
     3
  9
$DIMUPT
 70
     0
  9
$DIMUNIT
 70
     2
  9
$DIMDEC
 70
     2
  9
$DIMTDEC
 70
     2
  9
$DIMALTU
 70
     2
  9
$DIMALTTD
 70
     3
  9
$DIMTXSTY
  7
STANDARD
  9
$DIMAUNIT
 70
     0
  9
$LUNITS
 70
     2
  9
$LUPREC
 70
     2
  9
$SKETCHINC
 40
1.0
  9
$FILLETRAD
 40
10.0
  9
$AUNITS
 70
     0
  9
$AUPREC
 70
     2
  9
$MENU
  1
.
  9
$ELEVATION
 40
0.0
  9
$PELEVATION
 40
0.0
  9
$THICKNESS
 40
0.0
  9
$LIMCHECK
 70
     0
  9
$CHAMFERA
 40
10.0
  9
$CHAMFERB
 40
10.0
  9
$CHAMFERC
 40
20.0
  9
$CHAMFERD
 40
0.0
  9
$SKPOLY
 70
     0
  9
$TDCREATE
 40
2455264.518465035
  9
$TDUPDATE
 40
2455264.518465046
  9
$TDINDWG
 40
0.0000000116
  9
$TDUSRTIMER
 40
0.0000000116
  9
$USRTIMER
 70
     1
  9
$ANGBASE
 50
0.0
  9
$ANGDIR
 70
     0
  9
$PDMODE
 70
     0
  9
$PDSIZE
 40
-1.0
  9
$PLINEWID
 40
0.0
  9
$COORDS
 70
     1
  9
$SPLFRAME
 70
     0
  9
$SPLINETYPE
 70
     6
  9
$SPLINESEGS
 70
     8
  9
$ATTDIA
 70
     0
  9
$ATTREQ
 70
     1
  9
$HANDLING
 70
     1
  9
$HANDSEED
  5
1B6
  9
$SURFTAB1
 70
     6
  9
$SURFTAB2
 70
     6
  9
$SURFTYPE
 70
     6
  9
$SURFU
 70
     6
  9
$SURFV
 70
     6
  9
$UCSNAME
  2

  9
$UCSORG
 10
0.0
 20
0.0
 30
0.0
  9
$UCSXDIR
 10
1.0
 20
0.0
 30
0.0
  9
$UCSYDIR
 10
0.0
 20
1.0
 30
0.0
  9
$PUCSNAME
  2

  9
$PUCSORG
 10
0.0
 20
0.0
 30
0.0
  9
$PUCSXDIR
 10
1.0
 20
0.0
 30
0.0
  9
$PUCSYDIR
 10
0.0
 20
1.0
 30
0.0
  9
$USERI1
 70
     0
  9
$USERI2
 70
     0
  9
$USERI3
 70
     0
  9
$USERI4
 70
     0
  9
$USERI5
 70
     0
  9
$USERR1
 40
0.0
  9
$USERR2
 40
0.0
  9
$USERR3
 40
0.0
  9
$USERR4
 40
0.0
  9
$USERR5
 40
0.0
  9
$WORLDVIEW
 70
     1
  9
$SHADEDGE
 70
     3
  9
$SHADEDIF
 70
    70
  9
$TILEMODE
 70
     1
  9
$MAXACTVP
 70
    64
  9
$PINSBASE
 10
0.0
 20
0.0
 30
0.0
  9
$PLIMCHECK
 70
     0
  9
$PEXTMIN
 10
1.0000000000E+20
 20
1.0000000000E+20
 30
1.0000000000E+20
  9
$PEXTMAX
 10
-1.0000000000E+20
 20
-1.0000000000E+20
 30
-1.0000000000E+20
  9
$PLIMMIN
 10
0.0
 20
0.0
  9
$PLIMMAX
 10
420.0
 20
297.0
  9
$UNITMODE
 70
     0
  9
$VISRETAIN
 70
     1
  9
$PLINEGEN
 70
     0
  9
$PSLTSCALE
 70
     1
  9
$TREEDEPTH
 70
  3020
  9
$PICKSTYLE
 70
     1
  9
$CMLSTYLE
  2
STANDARD
  9
$CMLJUST
 70
     0
  9
$CMLSCALE
 40
20.0
  9
$PROXYGRAPHICS
 70
     1
  9
$MEASUREMENT
 70
     1
  0
ENDSEC
  0
SECTION
  2
CLASSES
  0
CLASS
  1
ACDBDICTIONARYWDFLT
  2
AcDbDictionaryWithDefault
  3
ObjectDBX Classes
 90
        0
280
     0
281
     0
  0
CLASS
  1
VISUALSTYLE
  2
AcDbVisualStyle
  3
ObjectDBX Classes
 90
     4095
280
     0
281
     0
  0
CLASS
  1
DICTIONARYVAR
  2
AcDbDictionaryVar
  3
ObjectDBX Classes
 90
        0
280
     0
281
     0
  0
CLASS
  1
XRECORD
  2
AcDbXrecord
  3
AutoCAD 2000
 90
        0
280
     0
281
     0
  0
CLASS
  1
LWPOLYLINE
  2
AcDbPolyline
  3
AutoCAD 2000
 90
        0
280
     0
281
     1
  0
CLASS
  1
HATCH
  2
AcDbHatch
  3
AutoCAD 2000
 90
        0
280
     0
281
     1
  0
CLASS
  1
ACDBPLACEHOLDER
  2
AcDbPlaceHolder
  3
ObjectDBX Classes
 90
        0
280
     0
281
     0
  0
CLASS
  1
LAYOUT
  2
AcDbLayout
  3
ObjectDBX Classes
 90
        0
280
     0
281
     0
  0
ENDSEC
  0
SECTION
  2
TABLES
  0
TABLE
  2
VPORT
  5
8
330
0
100
AcDbSymbolTable
 70
     1
  0
VPORT
  5
29
330
8
100
AcDbSymbolTableRecord
100
AcDbViewportTableRecord
  2
*ACTIVE
 70
     0
 10
0.0
 20
0.0
 11
1.0
 21
1.0
 12
105.0
 22
74.25
 13
0.0
 23
0.0
 14
10.0
 24
10.0
 15
10.0
 25
10.0
 16
0.0
 26
0.0
 36
1.0
 17
0.0
 27
0.0
 37
0.0
 40
148.5
 41
1.4141414141
 42
50.0
 43
0.0
 44
0.0
 50
0.0
 51
0.0
 71
     0
 72
  2000
 73
     1
 74
     3
 75
     0
 76
     0
 77
     0
 78
     0
  0
ENDTAB
  0
TABLE
  2
LTYPE
  5
5
330
0
100
AcDbSymbolTable
 70
     6
  0
LTYPE
  5
14
330
5
100
AcDbSymbolTableRecord
100
AcDbLinetypeTableRecord
  2
BYBLOCK
 70
     0
  3

 72
    65
 73
     0
 40
0.0
  0
LTYPE
  5
15
330
5
100
AcDbSymbolTableRecord
100
AcDbLinetypeTableRecord
  2
BYLAYER
 70
     0
  3

 72
    65
 73
     0
 40
0.0
  0
LTYPE
  5
16
330
5
100
AcDbSymbolTableRecord
100
AcDbLinetypeTableRecord
  2
CONTINUOUS
 70
     0
  3
Solid line
 72
    65
 73
     0
 40
0.0
  0
LTYPE
  5
3B
330
5
100
AcDbSymbolTableRecord
100
AcDbLinetypeTableRecord
  2
HIDDEN
 70
     0
  3
Hidden __ __ __ __ __ __ __ __ __ __ __ __ __ __
 72
    65
 73
     2
 40
1.905
 49
1.27
 74
     0
 49
-0.635
 74
     0
  0
LTYPE
  5
3C
330
5
100
AcDbSymbolTableRecord
100
AcDbLinetypeTableRecord
  2
PHANTOM
 70
     0
  3
Phantom ______  __  __  ______  __  __  ______
 72
    65
 73
     6
 40
12.7
 49
6.35
 74
     0
 49
-1.27
 74
     0
 49
1.27
 74
     0
 49
-1.27
 74
     0
 49
1.27
 74
     0
 49
-1.27
 74
     0
  0
LTYPE
  5
3D
330
5
100
AcDbSymbolTableRecord
100
AcDbLinetypeTableRecord
  2
CENTER
 70
     0
  3
Center ____ _ ____ _ ____ _ ____ _ ____ _ ____
 72
    65
 73
     4
 40
10.16
 49
6.35
 74
     0
 49
-1.27
 74
     0
 49
1.27
 74
     0
 49
-1.27
 74
     0
  0
LTYPE
  5
3E
330
5
100
AcDbSymbolTableRecord
100
AcDbLinetypeTableRecord
  2
CENTERX2
 70
     0
  3
Center (2x) ________  __  ________  __  _____
 72
    65
 73
     4
 40
20.32
 49
12.7
 74
     0
 49
-2.54
 74
     0
 49
2.54
 74
     0
 49
-2.54
 74
     0
  0
LTYPE
  5
3F
330
5
100
AcDbSymbolTableRecord
100
AcDbLinetypeTableRecord
  2
DOT2
 70
     0
  3
Dot (.5x) ........................................
 72
    65
 73
     2
 40
0.635
 49
0.0
 74
     0
 49
-0.635
 74
     0
  0
ENDTAB
  0
TABLE
  2
LAYER
  5
2
330
0
100
AcDbSymbolTable
 70
     1
  0
LAYER
  5
10
330
2
100
AcDbSymbolTableRecord
100
AcDbLayerTableRecord
  2
0
 70
     0
 62
     7
  6
CONTINUOUS
  0
ENDTAB
  0
TABLE
  2
STYLE
  5
3
330
0
100
AcDbSymbolTable
 70
     1
  0
STYLE
  5
11
330
3
100
AcDbSymbolTableRecord
100
AcDbTextStyleTableRecord
  2
STANDARD
 70
     0
 40
0.0
 41
1.0
 50
0.0
 71
     0
 42
2.5
  3
txt
  4

  0
ENDTAB
  0
TABLE
  2
VIEW
  5
6
330
0
100
AcDbSymbolTable
 70
     0
  0
ENDTAB
  0
TABLE
  2
UCS
  5
7
330
0
100
AcDbSymbolTable
 70
     0
  0
ENDTAB
  0
TABLE
  2
APPID
  5
9
330
0
100
AcDbSymbolTable
 70
     1
  0
APPID
  5
12
330
9
100
AcDbSymbolTableRecord
100
AcDbRegAppTableRecord
  2
ACAD
 70
     0
  0
ENDTAB
  0
TABLE
  2
DIMSTYLE
  5
A
330
0
100
AcDbSymbolTable
 70
     1
  0
DIMSTYLE
105
27
330
A
100
AcDbSymbolTableRecord
100
AcDbDimStyleTableRecord
  2
ISO-25
 70
     0
  3

  4

  5

  6

  7

 40
1.0
 41
2.5
 42
0.625
 43
3.75
 44
1.25
 45
0.0
 46
0.0
 47
0.0
 48
0.0
140
2.5
141
2.5
142
0.0
143
0.0393700787
144
1.0
145
0.0
146
1.0
147
0.625
 71
     0
 72
     0
 73
     0
 74
     0
 75
     0
 76
     0
 77
     1
 78
     8
170
     0
171
     3
172
     1
173
     0
174
     0
175
     0
176
     0
177
     0
178
     0
270
     2
271
     2
272
     2
273
     2
274
     3
340
11
275
     0
280
     0
281
     0
282
     0
283
     0
284
     8
285
     0
286
     0
287
     3
288
     0
  0
ENDTAB
  0
TABLE
  2
BLOCK_RECORD
  5
1
330
0
100
AcDbSymbolTable
 70
     1
  0
BLOCK_RECORD
  5
1F
330
1
100
AcDbSymbolTableRecord
100
AcDbBlockTableRecord
  2
*MODEL_SPACE
  0
BLOCK_RECORD
  5
1B
330
1
100
AcDbSymbolTableRecord
100
AcDbBlockTableRecord
  2
*PAPER_SPACE
  0
ENDTAB
  0
ENDSEC
  0
SECTION
  2
BLOCKS
  0
BLOCK
  5
20
330
1F
100
AcDbEntity
  8
0
100
AcDbBlockBegin
  2
*MODEL_SPACE
 70
     0
 10
0.0
 20
0.0
 30
0.0
  3
*MODEL_SPACE
  1

  0
ENDBLK
  5
21
330
1F
100
AcDbEntity
  8
0
100
AcDbBlockEnd
  0
BLOCK
  5
1C
330
1B
100
AcDbEntity
 67
     1
  8
0
100
AcDbBlockBegin
  2
*PAPER_SPACE
 70
     0
 10
0.0
 20
0.0
 30
0.0
  3
*PAPER_SPACE
  1

  0
ENDBLK
  5
1D
330
1B
100
AcDbEntity
 67
     1
  8
0
100
AcDbBlockEnd
  0
ENDSEC
  0
SECTION
  2
ENTITIES
  0
SPLINE
  5
40
330
1F
100
AcDbEntity
  8
0
  6
CONTINUOUS
 62
     7
100
AcDbSpline
210
0.0
220
0.0
230
1.0
 70
     8
 71
     3
 72
    10
 73
     6
 74
     0
 42
0.00000001
 43
0.00000001
 40
0.0
 40
0.0
 40
0.0
 40
0.0
 40
0.5
 40
0.5
 40
1.0
 40
1.0
 40
1.0
 40
1.0
 10
78.48099108263483
 20
78.10798871651964
 30
0.0
 10
77.94175171770081
 20
79.12977937281215
 30
0.0
 10
77.39671477401735
 20
80.15733386630735
 30
0.0
 10
76.29643056863041
 20
82.20547966753968
 30
0.0
 10
75.73947397193373
 20
83.22928812211278
 30
0.0
 10
75.18557253014828
 20
84.24275610508398
 30
0.0
  0
ARC
  5
41
330
1F
100
AcDbEntity
  8
0
  6
CONTINUOUS
 62
     7
100
AcDbCircle
 10
75.5289638001
 20
83.7458666211
 30
0.0
 40
0.6040005989944175
100
AcDbArc
 50
90.033535998
 51
124.6476443791
  0
SPLINE
  5
42
330
1F
100
AcDbEntity
  8
0
  6
CONTINUOUS
 62
     7
100
AcDbSpline
210
0.0
220
0.0
230
1.0
 70
    24
 71
     3
 72
    10
 73
     6
 74
     0
 42
0.00000001
 43
0.00000001
 40
0.0
 40
0.0
 40
0.0
 40
0.0
 40
0.5000000000000001
 40
0.5000000000000001
 40
1.0
 40
1.0
 40
1.0
 40
1.0
 10
75.52861027032614
 20
84.34986711659147
 30
0.0
 10
76.06699704642939
 20
83.34735380936473
 30
0.0
 10
76.60544978857503
 20
82.34471766881771
 30
0.0
 10
77.68253205199169
 20
80.33911621280049
 30
0.0
 10
78.22116170113037
 20
79.33615065923193
 30
0.0
 10
78.7598585271265
 20
78.33306001772192
 30
0.0
  0
ARC
  5
43
330
1F
100
AcDbEntity
  8
0
  6
CONTINUOUS
 62
     7
100
AcDbCircle
 10
78.2517342519
 20
78.6773386823
 30
0.0
 40
0.6137736373714898
100
AcDbArc
 50
291.9328795371
 51
325.8804689926
  0
SPLINE
  5
44
330
1F
100
AcDbEntity
  8
0
  6
CONTINUOUS
 62
     7
100
AcDbSpline
210
0.0
220
0.0
230
1.0
 70
     8
 71
     3
 72
    10
 73
     6
 74
     0
 42
0.00000001
 43
0.00000001
 40
0.0
 40
0.0
 40
0.0
 40
0.0
 40
0.5
 40
0.5
 40
1.0
 40
1.0
 40
1.0
 40
1.0
 10
66.45341513784165
 20
69.9748261528072
 30
0.0
 10
67.60793148600754
 20
69.93092581341439
 30
0.0
 10
68.77033825298898
 20
69.88916440589769
 30
0.0
 10
71.09422665020406
 20
69.8179655785294
 30
0.0
 10
72.259349078822
 20
69.78839991278751
 30
0.0
 10
73.41398881888996
 20
69.76135864108092
 30
0.0
  0
ARC
  5
45
330
1F
100
AcDbEntity
  8
0
  6
CONTINUOUS
 62
     7
100
AcDbCircle
 10
72.8119742679
 20
69.7124178199
 30
0.0
 40
0.604000598994295
100
AcDbArc
 50
330.033535998
 51
4.6476443791
  0
SPLINE
  5
46
330
1F
100
AcDbEntity
  8
0
  6
CONTINUOUS
 62
     7
100
AcDbSpline
210
0.0
220
0.0
230
1.0
 70
    24
 71
     3
 72
    10
 73
     6
 74
     0
 42
0.00000001
 43
0.00000001
 40
0.0
 40
0.0
 40
0.0
 40
0.0
 40
0.5
 40
0.5
 40
1.0
 40
1.0
 40
1.0
 40
1.0
 10
73.33523080579155
 20
69.41072373787635
 30
0.0
 10
72.19783542604961
 20
69.4457237663227
 30
0.0
 10
71.0603006865107
 20
69.4807280831607
 30
0.0
 10
68.78485774402441
 20
69.55074820908483
 30
0.0
 10
67.64694927094396
 20
69.58576402648352
 30
0.0
 10
66.50889888009979
 20
69.62078421098785
 30
0.0
  0
ARC
  5
47
330
1F
100
AcDbEntity
  8
0
  6
CONTINUOUS
 62
     7
100
AcDbCircle
 10
67.0611150872
 20
69.8886934093
 30
0.0
 40
0.613773637371397
100
AcDbArc
 50
171.9328795371
 51
205.8804689926
  0
ARC
  5
48
330
1F
100
AcDbEntity
  8
0
  6
CONTINUOUS
 62
     7
100
AcDbCircle
 10
73.1776075378
 20
85.1382456694
 30
0.0
 40
0.6137736373715338
100
AcDbArc
 50
351.9328795371
 51
25.8804689926
  0
SPLINE
  5
49
330
1F
100
AcDbEntity
  8
0
  6
CONTINUOUS
 62
     7
100
AcDbSpline
210
0.0
220
0.0
230
1.0
 70
     8
 71
     3
 72
    10
 73
     6
 74
     0
 42
0.00000001
 43
0.00000001
 40
0.0
 40
0.0
 40
0.0
 40
0.0
 40
0.5
 40
0.5
 40
1.0
 40
1.0
 40
1.0
 40
1.0
 10
73.78530748711246
 20
85.05211292594467
 30
0.0
 10
72.63079113894655
 20
85.09601326533748
 30
0.0
 10
71.46838437196513
 20
85.13777467285418
 30
0.0
 10
69.14449597475004
 20
85.20897350022247
 30
0.0
 10
67.97937354613211
 20
85.23853916596437
 30
0.0
 10
66.82473380606416
 20
85.26558043767095
 30
0.0
  0
ARC
  5
4A
330
1F
100
AcDbEntity
  8
0
  6
CONTINUOUS
 62
     7
100
AcDbCircle
 10
67.4267483571
 20
85.3145212588
 30
0.0
 40
0.6040005989941728
100
AcDbArc
 50
150.033535998
 51
184.6476443791
  0
SPLINE
  5
4B
330
1F
100
AcDbEntity
  8
0
  6
CONTINUOUS
 62
     7
100
AcDbSpline
210
0.0
220
0.0
230
1.0
 70
    24
 71
     3
 72
    10
 73
     6
 74
     0
 42
0.00000001
 43
0.00000001
 40
0.0
 40
0.0
 40
0.0
 40
0.0
 40
0.5
 40
0.5
 40
1.0
 40
1.0
 40
1.0
 40
1.0
 10
66.90349181916255
 20
85.61621534087551
 30
0.0
 10
68.04088719890449
 20
85.58121531242918
 30
0.0
 10
69.1784219384434
 20
85.54621099559118
 30
0.0
 10
71.4538648809297
 20
85.47619086966704
 30
0.0
 10
72.59177335401016
 20
85.44117505226835
 30
0.0
 10
73.7298237448543
 20
85.40615486776404
 30
0.0
  0
SPLINE
  5
4C
330
1F
100
AcDbEntity
  8
0
  6
CONTINUOUS
 62
     7
100
AcDbSpline
210
0.0
220
0.0
230
1.0
 70
     8
 71
     3
 72
    10
 73
     6
 74
     0
 42
0.00000001
 43
0.00000001
 40
0.0
 40
0.0
 40
0.0
 40
0.0
 40
0.5000000000000001
 40
0.5000000000000001
 40
1.0
 40
1.0
 40
1.0
 40
1.0
 10
74.81504490799942
 20
70.56934532995092
 30
0.0
 10
75.43032189123129
 20
71.54723564685062
 30
0.0
 10
76.04769171452926
 20
72.53302873282912
 30
0.0
 10
77.27129590635741
 20
74.50997570669314
 30
0.0
 10
77.87946173827866
 20
75.50421849552436
 30
0.0
 10
78.48020003656117
 20
76.49064520678897
 30
0.0
  0
ARC
  5
4D
330
1F
100
AcDbEntity
  8
0
  6
CONTINUOUS
 62
     7
100
AcDbCircle
 10
78.2215767555
 20
75.9448149016
 30
0.0
 40
0.6040005989943913
100
AcDbArc
 50
30.033535998
 51
64.6476443791
  0
SPLINE
  5
4E
330
1F
100
AcDbEntity
  8
0
  6
CONTINUOUS
 62
     7
100
AcDbSpline
210
0.0
220
0.0
230
1.0
 70
    24
 71
     3
 72
    10
 73
     6
 74
     0
 42
0.00000001
 43
0.00000001
 40
0.0
 40
0.0
 40
0.0
 40
0.0
 40
0.5
 40
0.5
 40
1.0
 40
1.0
 40
1.0
 40
1.0
 10
78.74447976364063
 20
76.24712131509189
 30
0.0
 10
78.14547116000195
 20
75.27960803631149
 30
0.0
 10
77.54638916260868
 20
74.31197621260247
 30
0.0
 10
76.34802848353903
 20
72.3763948825094
 30
0.0
 10
75.74874965959727
 20
71.40844514633953
 30
0.0
 10
75.14939609474924
 20
70.44037468933382
 30
0.0
  0
ARC
  5
4F
330
1F
100
AcDbEntity
  8
0
  6
CONTINUOUS
 62
     7
100
AcDbCircle
 10
75.1934880266
 20
71.0525625522
 30
0.0
 40
0.613773637371666
100
AcDbArc
 50
231.9328795371
 51
265.8804689926
  0
ARC
  5
50
330
1F
100
AcDbEntity
  8
0
  6
CONTINUOUS
 62
     7
100
AcDbCircle
 10
65.0452345983
 20
83.9743765265
 30
0.0
 40
0.6137736373713565
100
AcDbArc
 50
51.9328795371
 51
85.8804689926
  0
SPLINE
  5
51
330
1F
100
AcDbEntity
  8
0
  6
CONTINUOUS
 62
     7
100
AcDbSpline
210
0.0
220
0.0
230
1.0
 70
     8
 71
     3
 72
    10
 73
     6
 74
     0
 42
0.00000001
 43
0.00000001
 40
0.0
 40
0.0
 40
0.0
 40
0.0
 40
0.5
 40
0.5
 40
1.0
 40
1.0
 40
1.0
 40
1.0
 10
65.42367771695467
 20
84.45759374880095
 30
0.0
 10
64.80840073372279
 20
83.47970343190124
 30
0.0
 10
64.19103091042483
 20
82.49391034592274
 30
0.0
 10
62.96742671859668
 20
80.51696337205873
 30
0.0
 10
62.35926088667544
 20
79.52272058322751
 30
0.0
 10
61.75852258839291
 20
78.5362938719629
 30
0.0
  0
ARC
  5
52
330
1F
100
AcDbEntity
  8
0
  6
CONTINUOUS
 62
     7
100
AcDbCircle
 10
62.0171458695
 20
79.0821241772
 30
0.0
 40
0.6040005989947357
100
AcDbArc
 50
210.033535998
 51
244.6476443791
  0
SPLINE
  5
53
330
1F
100
AcDbEntity
  8
0
  6
CONTINUOUS
 62
     7
100
AcDbSpline
210
0.0
220
0.0
230
1.0
 70
    24
 71
     3
 72
    10
 73
     6
 74
     0
 42
0.00000001
 43
0.00000001
 40
0.0
 40
0.0
 40
0.0
 40
0.0
 40
0.5
 40
0.5
 40
1.0
 40
1.0
 40
1.0
 40
1.0
 10
61.49424286131345
 20
78.77981776365998
 30
0.0
 10
62.09325146495214
 20
79.74733104244038
 30
0.0
 10
62.69233346234543
 20
80.71496286614939
 30
0.0
 10
63.89069414141506
 20
82.65054419624248
 30
0.0
 10
64.48997296535683
 20
83.61849393241236
 30
0.0
 10
65.08932653020486
 20
84.58656438941804
 30
0.0
  0
ARC
  5
54
330
1F
100
AcDbEntity
  8
0
  6
CONTINUOUS
 62
     7
100
AcDbCircle
 10
61.9869883731
 20
76.3496003965
 30
0.0
 40
0.6137736373713303
100
AcDbArc
 50
111.9328795371
 51
145.8804689926
  0
SPLINE
  5
55
330
1F
100
AcDbEntity
  8
0
  6
CONTINUOUS
 62
     7
100
AcDbSpline
210
0.0
220
0.0
230
1.0
 70
     8
 71
     3
 72
    10
 73
     6
 74
     0
 42
0.00000001
 43
0.00000001
 40
0.0
 40
0.0
 40
0.0
 40
0.0
 40
0.5
 40
0.5
 40
1.0
 40
1.0
 40
1.0
 40
1.0
 10
61.75773154231927
 20
76.91895036223221
 30
0.0
 10
62.2969709072533
 20
75.8971597059397
 30
0.0
 10
62.84200785093675
 20
74.8696052124445
 30
0.0
 10
63.94229205632368
 20
72.82145941121217
 30
0.0
 10
64.49924865302037
 20
71.79765095663907
 30
0.0
 10
65.0531500948058
 20
70.78418297366788
 30
0.0
  0
ARC
  5
56
330
1F
100
AcDbEntity
  8
0
  6
CONTINUOUS
 62
     7
100
AcDbCircle
 10
64.7097588249
 20
71.2810724577
 30
0.0
 40
0.6040005989944052
100
AcDbArc
 50
270.033535998
 51
304.6476443791
  0
SPLINE
  5
57
330
1F
100
AcDbEntity
  8
0
  6
CONTINUOUS
 62
     7
100
AcDbSpline
210
0.0
220
0.0
230
1.0
 70
    24
 71
     3
 72
    10
 73
     6
 74
     0
 42
0.00000001
 43
0.00000001
 40
0.0
 40
0.0
 40
0.0
 40
0.0
 40
0.5
 40
0.5
 40
1.0
 40
1.0
 40
1.0
 40
1.0
 10
64.71011235462795
 20
70.6770719621604
 30
0.0
 10
64.1717255785247
 20
71.67958526938713
 30
0.0
 10
63.63327283637907
 20
72.68222140993414
 30
0.0
 10
62.55619057296241
 20
74.68782286595136
 30
0.0
 10
62.01756092382372
 20
75.69078841951993
 30
0.0
 10
61.47886409782761
 20
76.69387906102993
 30
0.0
  0
CIRCLE
  5
58
330
1F
100
AcDbEntity
  8
0
  6
CONTINUOUS
 62
     7
100
AcDbCircle
 10
70.1193613125
 20
77.5134695394
 30
0.0
 40
7.200000000000003
  0
SPLINE
  5
59
330
1F
100
AcDbEntity
  8
0
  6
CONTINUOUS
 62
     7
100
AcDbSpline
210
0.0
220
0.0
230
1.0
 70
     8
 71
     3
 72
     8
 73
     4
 74
     0
 42
0.00000001
 43
0.00000001
 40
0.0
 40
0.0
 40
0.0
 40
0.0
 40
1.0
 40
1.0
 40
1.0
 40
1.0
 10
78.48020003656117
 20
76.49064520678897
 30
0.0
 10
78.48144977051908
 20
77.0294777658261
 30
0.0
 10
78.48172839486355
 20
77.56885830862988
 30
0.0
 10
78.48099108263483
 20
78.10798871651964
 30
0.0
  0
SPLINE
  5
5A
330
1F
100
AcDbEntity
  8
0
  6
CONTINUOUS
 62
     7
100
AcDbSpline
210
0.0
220
0.0
230
1.0
 70
     8
 71
     3
 72
     8
 73
     4
 74
     0
 42
0.00000001
 43
0.00000001
 40
0.0
 40
0.0
 40
0.0
 40
0.0
 40
1.0
 40
1.0
 40
1.0
 40
1.0
 10
73.41398881888996
 20
69.76135864108092
 30
0.0
 10
73.88125637038124
 20
70.02969261924397
 30
0.0
 10
74.34851293492859
 20
70.29914159488544
 30
0.0
 10
74.81504490799942
 20
70.56934532995092
 30
0.0
  0
SPLINE
  5
5B
330
1F
100
AcDbEntity
  8
0
  6
CONTINUOUS
 62
     7
100
AcDbSpline
210
0.0
220
0.0
230
1.0
 70
     8
 71
     3
 72
     8
 73
     4
 74
     0
 42
0.00000001
 43
0.00000001
 40
0.0
 40
0.0
 40
0.0
 40
0.0
 40
1.0
 40
1.0
 40
1.0
 40
1.0
 10
65.0531500948058
 20
70.78418297366788
 30
0.0
 10
65.5191679123392
 20
70.5136843927938
 30
0.0
 10
65.9861458525421
 20
70.24375282563147
 30
0.0
 10
66.45341513784165
 20
69.9748261528072
 30
0.0
  0
SPLINE
  5
5C
330
1F
100
AcDbEntity
  8
0
  6
CONTINUOUS
 62
     7
100
AcDbSpline
210
0.0
220
0.0
230
1.0
 70
     8
 71
     3
 72
     8
 73
     4
 74
     0
 42
0.00000001
 43
0.00000001
 40
0.0
 40
0.0
 40
0.0
 40
0.0
 40
1.0
 40
1.0
 40
1.0
 40
1.0
 10
61.75852258839291
 20
78.5362938719629
 30
0.0
 10
61.75727285443502
 20
77.99746131292578
 30
0.0
 10
61.75699423009054
 20
77.45808077012197
 30
0.0
 10
61.75773154231927
 20
76.91895036223221
 30
0.0
  0
SPLINE
  5
5D
330
1F
100
AcDbEntity
  8
0
  6
CONTINUOUS
 62
     7
100
AcDbSpline
210
0.0
220
0.0
230
1.0
 70
     8
 71
     3
 72
     8
 73
     4
 74
     0
 42
0.00000001
 43
0.00000001
 40
0.0
 40
0.0
 40
0.0
 40
0.0
 40
1.0
 40
1.0
 40
1.0
 40
1.0
 10
66.82473380606416
 20
85.26558043767095
 30
0.0
 10
66.35746625457288
 20
84.99724645950789
 30
0.0
 10
65.8902096900255
 20
84.72779748386642
 30
0.0
 10
65.42367771695467
 20
84.45759374880095
 30
0.0
  0
SPLINE
  5
5E
330
1F
100
AcDbEntity
  8
0
  6
CONTINUOUS
 62
     7
100
AcDbSpline
210
0.0
220
0.0
230
1.0
 70
     8
 71
     3
 72
     8
 73
     4
 74
     0
 42
0.00000001
 43
0.00000001
 40
0.0
 40
0.0
 40
0.0
 40
0.0
 40
1.0
 40
1.0
 40
1.0
 40
1.0
 10
75.18557253014828
 20
84.24275610508398
 30
0.0
 10
74.71955471261491
 20
84.51325468595805
 30
0.0
 10
74.25257677241201
 20
84.78318625312039
 30
0.0
 10
73.78530748711246
 20
85.05211292594467
 30
0.0
  0
ARC
  5
5F
330
1F
100
AcDbEntity
  8
0
  6
CONTINUOUS
 62
     7
100
AcDbCircle
 10
63.8163890442
 20
71.419621533
 30
0.0
 40
3.006882157543033
100
AcDbArc
 50
324.8274523833
 51
331.2821868973
  0
SPLINE
  5
60
330
1F
100
AcDbEntity
  8
0
  6
CONTINUOUS
 62
     7
100
AcDbSpline
210
0.0
220
0.0
230
1.0
 70
    24
 71
     3
 72
     8
 73
     4
 74
     0
 42
0.00000001
 43
0.00000001
 40
0.0
 40
0.0
 40
0.0
 40
0.0
 40
1.0
 40
1.0
 40
1.0
 40
1.0
 10
66.27427764358566
 20
69.68753494676753
 30
0.0
 10
65.81625620660907
 20
69.95197374670059
 30
0.0
 10
65.35836757051953
 20
70.21633587400574
 30
0.0
 10
64.9006095692774
 20
70.48062257924659
 30
0.0
  0
ARC
  5
61
330
1F
100
AcDbEntity
  8
0
  6
CONTINUOUS
 62
     7
100
AcDbCircle
 10
66.5554233665
 20
69.8391772281
 30
0.0
 40
1.774784731125942
100
AcDbArc
 50
147.8280342017
 51
158.8124794034
  0
ARC
  5
62
330
1F
100
AcDbEntity
  8
0
  6
CONTINUOUS
 62
     7
100
AcDbCircle
 10
72.2453023587
 20
69.0080114325
 30
0.0
 40
3.006882157541601
100
AcDbArc
 50
24.8274523833
 51
31.2821868973
  0
SPLINE
  5
63
330
1F
100
AcDbEntity
  8
0
  6
CONTINUOUS
 62
     7
100
AcDbSpline
210
0.0
220
0.0
230
1.0
 70
    24
 71
     3
 72
     8
 73
     4
 74
     0
 42
0.00000001
 43
0.00000001
 40
0.0
 40
0.0
 40
0.0
 40
0.0
 40
1.0
 40
1.0
 40
1.0
 40
1.0
 10
74.97427764358565
 20
70.27056210613512
 30
0.0
 10
74.51625620660907
 20
70.00612330620206
 30
0.0
 10
74.05836757051955
 20
69.7417611788969
 30
0.0
 10
73.60060956927742
 20
69.47747447365605
 30
0.0
  0
ARC
  5
64
330
1F
100
AcDbEntity
  8
0
  6
CONTINUOUS
 62
     7
100
AcDbCircle
 10
74.9835244371
 20
70.589862585
 30
0.0
 40
1.774784731123988
100
AcDbArc
 50
207.8280342017
 51
218.8124794034
  0
ARC
  5
65
330
1F
100
AcDbEntity
  8
0
  6
CONTINUOUS
 62
     7
100
AcDbCircle
 10
78.548274627
 20
75.1018594389
 30
0.0
 40
3.006882157543781
100
AcDbArc
 50
84.8274523833
 51
91.2821868973
  0
SPLINE
  5
66
330
1F
100
AcDbEntity
  8
0
  6
CONTINUOUS
 62
     7
100
AcDbSpline
210
0.0
220
0.0
230
1.0
 70
    24
 71
     3
 72
     8
 73
     4
 74
     0
 42
0.00000001
 43
0.00000001
 40
0.0
 40
0.0
 40
0.0
 40
0.0
 40
1.0
 40
1.0
 40
1.0
 40
1.0
 10
78.81936131247704
 20
78.09649669874351
 30
0.0
 10
78.81936131247704
 20
77.56761909887739
 30
0.0
 10
78.81936131247704
 20
77.03889484426708
 30
0.0
 10
78.81936131247704
 20
76.51032143378539
 30
0.0
  0
ARC
  5
67
330
1F
100
AcDbEntity
  8
0
  6
CONTINUOUS
 62
     7
100
AcDbCircle
 10
78.5474623831
 20
78.2641548962
 30
0.0
 40
1.774784731121784
100
AcDbArc
 50
267.8280342017
 51
278.8124794034
  0
SPLINE
  5
68
330
1F
100
AcDbEntity
  8
0
  6
CONTINUOUS
 62
     7
100
AcDbSpline
210
0.0
220
0.0
230
1.0
 70
    24
 71
     3
 72
     8
 73
     4
 74
     0
 42
0.00000001
 43
0.00000001
 40
0.0
 40
0.0
 40
0.0
 40
0.0
 40
1.0
 40
1.0
 40
1.0
 40
1.0
 10
65.26444498136844
 20
84.75637697261676
 30
0.0
 10
65.72246641834505
 20
85.02081577254981
 30
0.0
 10
66.18035505443457
 20
85.28517789985497
 30
0.0
 10
66.6381130556767
 20
85.54946460509582
 30
0.0
  0
ARC
  5
69
330
1F
100
AcDbEntity
  8
0
  6
CONTINUOUS
 62
     7
100
AcDbCircle
 10
65.2551981879
 20
84.4370764937
 30
0.0
 40
1.774784731123519
100
AcDbArc
 50
27.8280342017
 51
38.8124794034
  0
ARC
  5
6A
330
1F
100
AcDbEntity
  8
0
  6
CONTINUOUS
 62
     7
100
AcDbCircle
 10
67.9934202663
 20
86.0189276463
 30
0.0
 40
3.006882157545481
100
AcDbArc
 50
204.8274523833
 51
211.2821868973
  0
SPLINE
  5
6B
330
1F
100
AcDbEntity
  8
0
  6
CONTINUOUS
 62
     7
100
AcDbSpline
210
0.0
220
0.0
230
1.0
 70
    24
 71
     3
 72
     8
 73
     4
 74
     0
 42
0.00000001
 43
0.00000001
 40
0.0
 40
0.0
 40
0.0
 40
0.0
 40
1.0
 40
1.0
 40
1.0
 40
1.0
 10
73.96444498136844
 20
85.33940413198435
 30
0.0
 10
74.42246641834504
 20
85.07496533205128
 30
0.0
 10
74.88035505443456
 20
84.81060320474613
 30
0.0
 10
75.3381130556767
 20
84.54631649950528
 30
0.0
  0
ARC
  5
6C
330
1F
100
AcDbEntity
  8
0
  6
CONTINUOUS
 62
     7
100
AcDbCircle
 10
73.6832992585
 20
85.1877618506
 30
0.0
 40
1.774784731125284
100
AcDbArc
 50
327.8280342017
 51
338.8124794034
  0
ARC
  5
6D
330
1F
100
AcDbEntity
  8
0
  6
CONTINUOUS
 62
     7
100
AcDbCircle
 10
76.4223335808
 20
83.6073175458
 30
0.0
 40
3.006882157548449
100
AcDbArc
 50
144.8274523833
 51
151.2821868973
  0
SPLINE
  5
6E
330
1F
100
AcDbEntity
  8
0
  6
CONTINUOUS
 62
     7
100
AcDbSpline
210
0.0
220
0.0
230
1.0
 70
    24
 71
     3
 72
     8
 73
     4
 74
     0
 42
0.00000001
 43
0.00000001
 40
0.0
 40
0.0
 40
0.0
 40
0.0
 40
1.0
 40
1.0
 40
1.0
 40
1.0
 10
61.41936131247705
 20
76.93044238000834
 30
0.0
 10
61.41936131247705
 20
77.45931997987446
 30
0.0
 10
61.41936131247705
 20
77.98804423448478
 30
0.0
 10
61.41936131247704
 20
78.51661764496647
 30
0.0
  0
ARC
  5
6F
330
1F
100
AcDbEntity
  8
0
  6
CONTINUOUS
 62
     7
100
AcDbCircle
 10
61.6912602419
 20
76.7627841825
 30
0.0
 40
1.774784731123767
100
AcDbArc
 50
87.8280342017
 51
98.8124794034
  0
ARC
  5
70
330
1F
100
AcDbEntity
  8
0
  6
CONTINUOUS
 62
     7
100
AcDbCircle
 10
61.690447998
 20
79.9250796399
 30
0.0
 40
3.006882157551958
100
AcDbArc
 50
264.8274523833
 51
271.2821868973
  0
ARC
  5
71
330
1F
100
AcDbEntity
  8
0
  6
CONTINUOUS
 62
     7
100
AcDbCircle
 10
66.5242776436
 20
70.1205476487
 30
0.0
 40
0.4999999999999918
100
AcDbArc
 50
240.0
 51
268.2374455382
  0
ARC
  5
72
330
1F
100
AcDbEntity
  8
0
  6
CONTINUOUS
 62
     7
100
AcDbCircle
 10
74.7242776436
 20
70.703574808
 30
0.0
 40
0.4999999999999994
100
AcDbArc
 50
300.0
 51
328.2374455382
  0
ARC
  5
73
330
1F
100
AcDbEntity
  8
0
  6
CONTINUOUS
 62
     7
100
AcDbCircle
 10
61.9193613125
 20
76.93044238
 30
0.0
 40
0.5
100
AcDbArc
 50
180.0
 51
208.2374455382
  0
ARC
  5
74
330
1F
100
AcDbEntity
  8
0
  6
CONTINUOUS
 62
     7
100
AcDbCircle
 10
73.7144449814
 20
84.9063914301
 30
0.0
 40
0.5000000000000052
100
AcDbArc
 50
60.0
 51
88.2374455382
  0
ARC
  5
75
330
1F
100
AcDbEntity
  8
0
  6
CONTINUOUS
 62
     7
100
AcDbCircle
 10
78.3193613125
 20
78.0964966987
 30
0.0
 40
0.5000000000000093
100
AcDbArc
 50
0.0
 51
28.2374455382
  0
ARC
  5
76
330
1F
100
AcDbEntity
  8
0
  6
CONTINUOUS
 62
     7
100
AcDbCircle
 10
65.5144449814
 20
84.3233642707
 30
0.0
 40
0.5000000000000114
100
AcDbArc
 50
120.0
 51
148.2374455382
  0
ARC
  5
77
330
1F
100
AcDbEntity
  8
0
  6
CONTINUOUS
 62
     7
100
AcDbCircle
 10
78.3193613125
 20
76.5103214338
 30
0.0
 40
0.5
100
AcDbArc
 50
328.2374455382
 51
0.0
  0
ARC
  5
78
330
1F
100
AcDbEntity
  8
0
  6
CONTINUOUS
 62
     7
100
AcDbCircle
 10
75.0881130557
 20
84.1133037976
 30
0.0
 40
0.5000000000000041
100
AcDbArc
 50
28.2374455382
 51
60.0
  0
ARC
  5
79
330
1F
100
AcDbEntity
  8
0
  6
CONTINUOUS
 62
     7
100
AcDbCircle
 10
66.8881130557
 20
85.1164519032
 30
0.0
 40
0.4999999999999918
100
AcDbArc
 50
88.2374455382
 51
120.0
  0
ARC
  5
7A
330
1F
100
AcDbEntity
  8
0
  6
CONTINUOUS
 62
     7
100
AcDbCircle
 10
61.9193613125
 20
78.516617645
 30
0.0
 40
0.5000000000000054
100
AcDbArc
 50
148.2374455382
 51
180.0
  0
ARC
  5
7B
330
1F
100
AcDbEntity
  8
0
  6
CONTINUOUS
 62
     7
100
AcDbCircle
 10
73.3506095693
 20
69.9104871755
 30
0.0
 40
0.5000000000000112
100
AcDbArc
 50
268.2374455382
 51
300.0
  0
ARC
  5
7C
330
1F
100
AcDbEntity
  8
0
  6
CONTINUOUS
 62
     7
100
AcDbCircle
 10
65.1506095693
 20
70.9136352811
 30
0.0
 40
0.5000000000000093
100
AcDbArc
 50
208.2374455382
 51
240.0
  0
LINE
  5
7D
330
1F
100
AcDbEntity
  8
0
  6
CONTINUOUS
 62
     7
100
AcDbLine
 10
75.0268386006
 20
69.0134695394
 30
0.0
 11
65.2118840244
 21
69.0134695394
 31
0.0
  0
LINE
  5
7E
330
1F
100
AcDbEntity
  8
0
  6
CONTINUOUS
 62
     7
100
AcDbLine
 10
65.2118840244
 20
69.0134695394
 30
0.0
 11
60.3044067363
 21
77.5134695394
 31
0.0
  0
LINE
  5
7F
330
1F
100
AcDbEntity
  8
0
  6
CONTINUOUS
 62
     7
100
AcDbLine
 10
60.3044067363
 20
77.5134695394
 30
0.0
 11
65.2118840244
 21
86.0134695394
 31
0.0
  0
LINE
  5
80
330
1F
100
AcDbEntity
  8
0
  6
CONTINUOUS
 62
     7
100
AcDbLine
 10
75.0268386006
 20
86.0134695394
 30
0.0
 11
79.9343158887
 21
77.5134695394
 31
0.0
  0
LINE
  5
81
330
1F
100
AcDbEntity
  8
0
  6
CONTINUOUS
 62
     7
100
AcDbLine
 10
79.9343158887
 20
77.5134695394
 30
0.0
 11
75.0268386006
 21
69.0134695394
 31
0.0
  0
LINE
  5
82
330
1F
100
AcDbEntity
  8
0
  6
CONTINUOUS
 62
     7
100
AcDbLine
 10
65.2118840244
 20
86.0134695394
 30
0.0
 11
75.0268386006
 21
86.0134695394
 31
0.0
  0
LINE
  5
83
330
1F
100
AcDbEntity
  8
0
  6
CONTINUOUS
 62
     7
100
AcDbLine
 10
78.4814686204
 20
113.7584220857
 30
0.0
 11
77.3193613125
 21
114.1565174467
 31
0.0
  0
LINE
  5
84
330
1F
100
AcDbEntity
  8
0
  6
CONTINUOUS
 62
     7
100
AcDbLine
 10
62.9193613125
 20
114.1565174467
 30
0.0
 11
61.7572540046
 21
113.7584220857
 31
0.0
  0
ARC
  5
85
330
1F
100
AcDbEntity
  8
0
  6
CONTINUOUS
 62
     7
100
AcDbCircle
 10
63.3602348977
 20
107.6868856915
 30
0.0
 40
0.7017665036670309
100
AcDbArc
 50
137.9935935986
 51
270.0
  0
ARC
  5
86
330
1F
100
AcDbEntity
  8
0
  6
CONTINUOUS
 62
     7
100
AcDbCircle
 10
76.8784877273
 20
107.6868856915
 30
0.0
 40
0.7017665036670309
100
AcDbArc
 50
270.0
 51
42.0064064014
  0
LINE
  5
87
330
1F
100
AcDbEntity
  8
0
  6
CONTINUOUS
 62
     7
100
AcDbLine
 10
63.3602348977
 20
106.9851191879
 30
0.0
 11
76.8784877273
 21
106.9851191879
 31
0.0
  0
LINE
  5
88
330
1F
100
AcDbEntity
  8
0
  6
CONTINUOUS
 62
     7
100
AcDbLine
 10
63.8693613125
 20
106.9851191879
 30
0.0
 11
63.8693613125
 21
105.1565174467
 31
0.0
  0
LINE
  5
89
330
1F
100
AcDbEntity
  8
0
  6
CONTINUOUS
 62
     7
100
AcDbLine
 10
76.3693613125
 20
105.1565174467
 30
0.0
 11
76.3693613125
 21
106.9851191879
 31
0.0
  0
LINE
  5
8A
330
1F
100
AcDbEntity
  8
0
  6
CONTINUOUS
 62
     7
100
AcDbLine
 10
63.8693613125
 20
100.1565174467
 30
0.0
 11
63.8693613125
 21
98.1565174467
 31
0.0
  0
LINE
  5
8B
330
1F
100
AcDbEntity
  8
0
  6
CONTINUOUS
 62
     7
100
AcDbLine
 10
76.3693613125
 20
98.1565174467
 30
0.0
 11
76.3693613125
 21
100.1565174467
 31
0.0
  0
ARC
  5
8C
330
1F
100
AcDbEntity
  8
0
  6
CONTINUOUS
 62
     7
100
AcDbCircle
 10
78.3193613647
 20
113.2854275626
 30
0.0
 40
0.4999999477554777
100
AcDbArc
 50
359.9993775306
 51
71.0590045987
  0
ARC
  5
8D
330
1F
100
AcDbEntity
  8
0
  6
CONTINUOUS
 62
     7
100
AcDbCircle
 10
61.9193612602
 20
113.2854275626
 30
0.0
 40
0.499999947765871
100
AcDbArc
 50
108.9330582091
 51
180.0006224689
  0
LINE
  5
8E
330
1F
100
AcDbEntity
  8
0
  6
CONTINUOUS
 62
     7
100
AcDbLine
 10
73.3352308058
 20
111.1565174467
 30
0.0
 11
66.5088988801
 21
111.1565174467
 31
0.0
  0
LINE
  5
8F
330
1F
100
AcDbEntity
  8
0
  6
CONTINUOUS
 62
     7
100
AcDbLine
 10
66.5088988801
 20
113.2783389885
 30
0.0
 11
66.5088988801
 21
111.1565174467
 31
0.0
  0
SPLINE
  5
90
330
1F
100
AcDbEntity
  8
0
  6
CONTINUOUS
 62
     7
100
AcDbSpline
210
0.0
220
0.0
230
1.0
 70
     8
 71
     3
 72
    10
 73
     6
 74
     0
 42
0.00000001
 43
0.00000001
 40
0.0
 40
0.0
 40
0.0
 40
0.0
 40
0.5
 40
0.5
 40
1.0
 40
1.0
 40
1.0
 40
1.0
 10
73.33523080579155
 20
113.264488634186
 30
0.0
 10
72.19783542604961
 20
113.427922503649
 30
0.0
 10
71.0603006865107
 20
113.5226059981046
 30
0.0
 10
68.78485774402441
 20
113.5277322666597
 30
0.0
 10
67.64694927094396
 20
113.438041776005
 30
0.0
 10
66.50889888009979
 20
113.2783389884968
 30
0.0
  0
LINE
  5
91
330
1F
100
AcDbEntity
  8
0
  6
CONTINUOUS
 62
     7
100
AcDbLine
 10
73.3352308058
 20
111.1565174467
 30
0.0
 11
73.3352308058
 21
113.2644886342
 31
0.0
  0
SPLINE
  5
92
330
1F
100
AcDbEntity
  8
0
  6
CONTINUOUS
 62
     7
100
AcDbSpline
210
0.0
220
0.0
230
1.0
 70
     8
 71
     3
 72
    10
 73
     6
 74
     0
 42
0.00000001
 43
0.00000001
 40
0.0
 40
0.0
 40
0.0
 40
0.0
 40
0.5
 40
0.5
 40
1.0
 40
1.0
 40
1.0
 40
1.0
 10
66.45341513784165
 20
113.751354581185
 30
0.0
 10
67.60793148600754
 20
113.910788433672
 30
0.0
 10
68.77033825298898
 20
114.0006614763891
 30
0.0
 10
71.09422665020406
 20
113.9957155850458
 30
0.0
 10
72.259349078822
 20
113.9007394916554
 30
0.0
 10
73.41398881888996
 20
113.7375042268742
 30
0.0
  0
ARC
  5
93
330
1F
100
AcDbEntity
  8
0
  6
CONTINUOUS
 62
     7
100
AcDbCircle
 10
80.5496643437
 20
112.3063359426
 30
0.0
 40
7.277781794811814
100
AcDbArc
 50
168.6589321234
 51
172.4347902398
  0
ARC
  5
94
330
1F
100
AcDbEntity
  8
0
  6
CONTINUOUS
 62
     7
100
AcDbCircle
 10
73.5680424897
 20
114.3461236677
 30
0.0
 40
7.139444839943141
100
AcDbArc
 50
184.7787048141
 51
188.6015043402
  0
LINE
  5
95
330
1F
100
AcDbEntity
  8
0
  6
CONTINUOUS
 62
     7
100
AcDbLine
 10
79.9343158887
 20
100.1565174467
 30
0.0
 11
79.9343158887
 21
105.1565174467
 31
0.0
  0
LINE
  5
96
330
1F
100
AcDbEntity
  8
0
  6
CONTINUOUS
 62
     7
100
AcDbLine
 10
79.9343158887
 20
100.1565174467
 30
0.0
 11
75.0268386006
 21
100.1565174467
 31
0.0
  0
LINE
  5
97
330
1F
100
AcDbEntity
  8
0
  6
CONTINUOUS
 62
     7
100
AcDbLine
 10
75.0268386006
 20
100.1565174467
 30
0.0
 11
75.0268386006
 21
105.1565174467
 31
0.0
  0
LINE
  5
98
330
1F
100
AcDbEntity
  8
0
  6
CONTINUOUS
 62
     7
100
AcDbLine
 10
79.9343158887
 20
105.1565174467
 30
0.0
 11
75.0268386006
 21
105.1565174467
 31
0.0
  0
LINE
  5
99
330
1F
100
AcDbEntity
  8
0
  6
CONTINUOUS
 62
     7
100
AcDbLine
 10
65.2118840244
 20
100.1565174467
 30
0.0
 11
65.2118840244
 21
105.1565174467
 31
0.0
  0
LINE
  5
9A
330
1F
100
AcDbEntity
  8
0
  6
CONTINUOUS
 62
     7
100
AcDbLine
 10
65.2118840244
 20
100.1565174467
 30
0.0
 11
60.3044067363
 21
100.1565174467
 31
0.0
  0
LINE
  5
9B
330
1F
100
AcDbEntity
  8
0
  6
CONTINUOUS
 62
     7
100
AcDbLine
 10
60.3044067363
 20
100.1565174467
 30
0.0
 11
60.3044067363
 21
105.1565174467
 31
0.0
  0
LINE
  5
9C
330
1F
100
AcDbEntity
  8
0
  6
CONTINUOUS
 62
     7
100
AcDbLine
 10
65.2118840244
 20
105.1565174467
 30
0.0
 11
60.3044067363
 21
105.1565174467
 31
0.0
  0
LINE
  5
9D
330
1F
100
AcDbEntity
  8
0
  6
CONTINUOUS
 62
     7
100
AcDbLine
 10
75.0268386006
 20
100.1565174467
 30
0.0
 11
65.2118840244
 21
100.1565174467
 31
0.0
  0
LINE
  5
9E
330
1F
100
AcDbEntity
  8
0
  6
CONTINUOUS
 62
     7
100
AcDbLine
 10
75.0268386006
 20
105.1565174467
 30
0.0
 11
65.2118840244
 21
105.1565174467
 31
0.0
  0
LINE
  5
9F
330
1F
100
AcDbEntity
  8
0
  6
CONTINUOUS
 62
     7
100
AcDbLine
 10
73.6006095693
 20
109.8565174467
 30
0.0
 11
73.6006095693
 21
108.1565174467
 31
0.0
  0
LINE
  5
A0
330
1F
100
AcDbEntity
  8
0
  6
CONTINUOUS
 62
     7
100
AcDbLine
 10
73.3352308058
 20
108.1565174467
 30
0.0
 11
73.3352308058
 21
109.8565174467
 31
0.0
  0
LINE
  5
A1
330
1F
100
AcDbEntity
  8
0
  6
CONTINUOUS
 62
     7
100
AcDbLine
 10
73.3352308058
 20
109.8565174467
 30
0.0
 11
73.6006095693
 21
109.8565174467
 31
0.0
  0
LINE
  5
A2
330
1F
100
AcDbEntity
  8
0
  6
CONTINUOUS
 62
     7
100
AcDbLine
 10
73.6006095693
 20
108.1565174467
 30
0.0
 11
73.3352308058
 21
108.1565174467
 31
0.0
  0
ARC
  5
A3
330
1F
100
AcDbEntity
  8
0
  6
CONTINUOUS
 62
     7
100
AcDbCircle
 10
72.9861334831
 20
113.2953788197
 30
0.0
 40
0.6152520329587815
100
AcDbArc
 50
357.1221197401
 51
45.9397237306
  0
LINE
  5
A4
330
1F
100
AcDbEntity
  8
0
  6
CONTINUOUS
 62
     7
100
AcDbLine
 10
73.6006095693
 20
113.2644886342
 30
0.0
 11
73.3352308058
 21
113.2644886342
 31
0.0
  0
LINE
  5
A5
330
1F
100
AcDbEntity
  8
0
  6
CONTINUOUS
 62
     7
100
AcDbLine
 10
73.6006095693
 20
113.2644886342
 30
0.0
 11
73.6006095693
 21
111.1565174467
 31
0.0
  0
LINE
  5
A6
330
1F
100
AcDbEntity
  8
0
  6
CONTINUOUS
 62
     7
100
AcDbLine
 10
73.6006095693
 20
111.1565174467
 30
0.0
 11
73.3352308058
 21
111.1565174467
 31
0.0
  0
LINE
  5
A7
330
1F
100
AcDbEntity
  8
0
  6
CONTINUOUS
 62
     7
100
AcDbLine
 10
66.5088988801
 20
109.8565174467
 30
0.0
 11
66.5088988801
 21
108.1565174467
 31
0.0
  0
LINE
  5
A8
330
1F
100
AcDbEntity
  8
0
  6
CONTINUOUS
 62
     7
100
AcDbLine
 10
66.5088988801
 20
109.8565174467
 30
0.0
 11
73.3352308058
 21
109.8565174467
 31
0.0
  0
LINE
  5
A9
330
1F
100
AcDbEntity
  8
0
  6
CONTINUOUS
 62
     7
100
AcDbLine
 10
66.5088988801
 20
108.1565174467
 30
0.0
 11
73.3352308058
 21
108.1565174467
 31
0.0
  0
LINE
  5
AA
330
1F
100
AcDbEntity
  8
0
  6
CONTINUOUS
 62
     7
100
AcDbLine
 10
70.1193613125
 20
114.1565174467
 30
0.0
 11
77.3193613125
 21
114.1565174467
 31
0.0
  0
LINE
  5
AB
330
1F
100
AcDbEntity
  8
0
  6
CONTINUOUS
 62
     7
100
AcDbLine
 10
62.9193613125
 20
114.1565174467
 30
0.0
 11
70.1193613125
 21
114.1565174467
 31
0.0
  0
SPLINE
  5
AC
330
1F
100
AcDbEntity
  8
0
  6
CONTINUOUS
 62
     7
100
AcDbSpline
210
0.0
220
0.0
230
1.0
 70
     8
 71
     3
 72
    10
 73
     6
 74
     0
 42
0.00000001
 43
0.00000001
 40
0.0
 40
0.0
 40
0.0
 40
0.0
 40
0.5000000000000001
 40
0.5000000000000001
 40
1.0
 40
1.0
 40
1.0
 40
1.0
 10
74.81504490799942
 20
113.751354581185
 30
0.0
 10
75.43032189123129
 20
113.910788433672
 30
0.0
 10
76.04769171452926
 20
114.0006614763891
 30
0.0
 10
77.27129590635741
 20
113.9957155850458
 30
0.0
 10
77.87946173827866
 20
113.9007394916554
 30
0.0
 10
78.48020003656117
 20
113.7375042268742
 30
0.0
  0
SPLINE
  5
AD
330
1F
100
AcDbEntity
  8
0
  6
CONTINUOUS
 62
     7
100
AcDbSpline
210
0.0
220
0.0
230
1.0
 70
     8
 71
     3
 72
     8
 73
     4
 74
     0
 42
0.00000001
 43
0.00000001
 40
0.0
 40
0.0
 40
0.0
 40
0.0
 40
1.0
 40
1.0
 40
1.0
 40
1.0
 10
73.41398881888996
 20
113.7375042268742
 30
0.0
 10
73.88125637038124
 20
113.7594933246761
 30
0.0
 10
74.34851293492859
 20
113.7642009328042
 30
0.0
 10
74.81504490799942
 20
113.751354581185
 30
0.0
  0
SPLINE
  5
AE
330
1F
100
AcDbEntity
  8
0
  6
CONTINUOUS
 62
     7
100
AcDbSpline
210
0.0
220
0.0
230
1.0
 70
     8
 71
     3
 72
     8
 73
     4
 74
     0
 42
0.00000001
 43
0.00000001
 40
0.0
 40
0.0
 40
0.0
 40
0.0
 40
1.0
 40
1.0
 40
1.0
 40
1.0
 10
65.0531500948058
 20
113.7375042268742
 30
0.0
 10
65.5191679123392
 20
113.7594933246761
 30
0.0
 10
65.9861458525421
 20
113.7642009328042
 30
0.0
 10
66.45341513784165
 20
113.751354581185
 30
0.0
  0
SPLINE
  5
AF
330
1F
100
AcDbEntity
  8
0
  6
CONTINUOUS
 62
     7
100
AcDbSpline
210
0.0
220
0.0
230
1.0
 70
     8
 71
     3
 72
    10
 73
     6
 74
     0
 42
0.00000001
 43
0.00000001
 40
0.0
 40
0.0
 40
0.0
 40
0.0
 40
0.5
 40
0.5
 40
1.0
 40
1.0
 40
1.0
 40
1.0
 10
61.75773154231927
 20
113.751354581185
 30
0.0
 10
62.2969709072533
 20
113.910788433672
 30
0.0
 10
62.84200785093675
 20
114.0006614763891
 30
0.0
 10
63.94229205632368
 20
113.9957155850458
 30
0.0
 10
64.49924865302037
 20
113.9007394916554
 30
0.0
 10
65.0531500948058
 20
113.7375042268742
 30
0.0
  0
LINE
  5
B0
330
1F
100
AcDbEntity
  8
0
  6
CONTINUOUS
 62
     7
100
AcDbLine
 10
61.7573391912
 20
113.7581734116
 30
0.0
 11
61.7577315423
 21
113.7513545812
 31
0.0
  0
ARC
  5
B1
330
1F
100
AcDbEntity
  8
0
  6
CONTINUOUS
 62
     7
100
AcDbCircle
 10
74.3935861522
 20
113.3461682806
 30
0.0
 40
0.5846395650402318
100
AcDbArc
 50
353.3375976651
 51
43.8722818836
  0
SPLINE
  5
B2
330
1F
100
AcDbEntity
  8
0
  6
CONTINUOUS
 62
     7
100
AcDbSpline
210
0.0
220
0.0
230
1.0
 70
     8
 71
     3
 72
     8
 73
     4
 74
     0
 42
0.00000001
 43
0.00000001
 40
0.0
 40
0.0
 40
0.0
 40
0.0
 40
1.0
 40
1.0
 40
1.0
 40
1.0
 10
74.97427764358565
 20
113.2783389884968
 30
0.0
 10
74.51625620660907
 20
113.2911881860137
 30
0.0
 10
74.05836757051955
 20
113.2864759229132
 30
0.0
 10
73.60060956927742
 20
113.264488634186
 30
0.0
  0
LINE
  5
B3
330
1F
100
AcDbEntity
  8
0
  6
CONTINUOUS
 62
     7
100
AcDbLine
 10
74.5835886723
 20
109.8565174467
 30
0.0
 11
74.5835886723
 21
111.1565174467
 31
0.0
  0
LINE
  5
B4
330
1F
100
AcDbEntity
  8
0
  6
CONTINUOUS
 62
     7
100
AcDbLine
 10
74.9742776436
 20
108.1565174467
 30
0.0
 11
74.9742776436
 21
109.8565174467
 31
0.0
  0
LINE
  5
B5
330
1F
100
AcDbEntity
  8
0
  6
CONTINUOUS
 62
     7
100
AcDbLine
 10
73.8789148225
 20
109.8565174467
 30
0.0
 11
73.8789148225
 21
111.1565174467
 31
0.0
  0
LINE
  5
B6
330
1F
100
AcDbEntity
  8
0
  6
CONTINUOUS
 62
     7
100
AcDbLine
 10
74.9742776436
 20
111.1565174467
 30
0.0
 11
74.9742776436
 21
113.2783389885
 31
0.0
  0
LINE
  5
B7
330
1F
100
AcDbEntity
  8
0
  6
CONTINUOUS
 62
     7
100
AcDbLine
 10
73.8789148225
 20
111.1565174467
 30
0.0
 11
73.6006095693
 21
111.1565174467
 31
0.0
  0
LINE
  5
B8
330
1F
100
AcDbEntity
  8
0
  6
CONTINUOUS
 62
     7
100
AcDbLine
 10
74.5835886723
 20
111.1565174467
 30
0.0
 11
74.9742776436
 21
111.1565174467
 31
0.0
  0
LINE
  5
B9
330
1F
100
AcDbEntity
  8
0
  6
CONTINUOUS
 62
     7
100
AcDbLine
 10
74.9742776436
 20
109.8565174467
 30
0.0
 11
74.5835886723
 21
109.8565174467
 31
0.0
  0
LINE
  5
BA
330
1F
100
AcDbEntity
  8
0
  6
CONTINUOUS
 62
     7
100
AcDbLine
 10
73.6006095693
 20
109.8565174467
 30
0.0
 11
73.8789148225
 21
109.8565174467
 31
0.0
  0
LINE
  5
BB
330
1F
100
AcDbEntity
  8
0
  6
CONTINUOUS
 62
     7
100
AcDbLine
 10
74.9742776436
 20
108.1565174467
 30
0.0
 11
73.6006095693
 21
108.1565174467
 31
0.0
  0
LINE
  5
BC
330
1F
100
AcDbEntity
  8
0
  6
CONTINUOUS
 62
     7
100
AcDbLine
 10
66.2742776436
 20
108.1565174467
 30
0.0
 11
66.2742776436
 21
109.8565174467
 31
0.0
  0
LINE
  5
BD
330
1F
100
AcDbEntity
  8
0
  6
CONTINUOUS
 62
     7
100
AcDbLine
 10
66.2742776436
 20
109.8565174467
 30
0.0
 11
66.5088988801
 21
109.8565174467
 31
0.0
  0
LINE
  5
BE
330
1F
100
AcDbEntity
  8
0
  6
CONTINUOUS
 62
     7
100
AcDbLine
 10
66.5088988801
 20
108.1565174467
 30
0.0
 11
66.2742776436
 21
108.1565174467
 31
0.0
  0
LINE
  5
BF
330
1F
100
AcDbEntity
  8
0
  6
CONTINUOUS
 62
     7
100
AcDbLine
 10
66.2742776436
 20
111.1565174467
 30
0.0
 11
66.2742776436
 21
113.2783389885
 31
0.0
  0
LINE
  5
C0
330
1F
100
AcDbEntity
  8
0
  6
CONTINUOUS
 62
     7
100
AcDbLine
 10
66.5088988801
 20
113.2783389885
 30
0.0
 11
66.2742776436
 21
113.2783389885
 31
0.0
  0
LINE
  5
C1
330
1F
100
AcDbEntity
  8
0
  6
CONTINUOUS
 62
     7
100
AcDbLine
 10
66.5088988801
 20
111.1565174467
 30
0.0
 11
66.2742776436
 21
111.1565174467
 31
0.0
  0
ARC
  5
C2
330
1F
100
AcDbEntity
  8
0
  6
CONTINUOUS
 62
     7
100
AcDbCircle
 10
66.8805963314
 20
113.319146493
 30
0.0
 40
0.6076903846650662
100
AcDbArc
 50
134.6648590258
 51
183.8504123775
  0
SPLINE
  5
C3
330
1F
100
AcDbEntity
  8
0
  6
CONTINUOUS
 62
     7
100
AcDbSpline
210
0.0
220
0.0
230
1.0
 70
     8
 71
     3
 72
     8
 73
     4
 74
     0
 42
0.00000001
 43
0.00000001
 40
0.0
 40
0.0
 40
0.0
 40
0.0
 40
1.0
 40
1.0
 40
1.0
 40
1.0
 10
66.27427764358566
 20
113.2783389884968
 30
0.0
 10
65.81625620660907
 20
113.2911881860137
 30
0.0
 10
65.35836757051953
 20
113.2864759229132
 30
0.0
 10
64.9006095692774
 20
113.264488634186
 30
0.0
  0
ARC
  5
C4
330
1F
100
AcDbEntity
  8
0
  6
CONTINUOUS
 62
     7
100
AcDbCircle
 10
65.471226082
 20
113.3415770838
 30
0.0
 40
0.5758001681992687
100
AcDbArc
 50
136.5586208436
 51
187.6938931558
  0
LINE
  5
C5
330
1F
100
AcDbEntity
  8
0
  6
CONTINUOUS
 62
     7
100
AcDbLine
 10
65.8835886723
 20
111.1565174467
 30
0.0
 11
65.8835886723
 21
109.8565174467
 31
0.0
  0
LINE
  5
C6
330
1F
100
AcDbEntity
  8
0
  6
CONTINUOUS
 62
     7
100
AcDbLine
 10
64.9006095693
 20
109.8565174467
 30
0.0
 11
64.9006095693
 21
108.1565174467
 31
0.0
  0
LINE
  5
C7
330
1F
100
AcDbEntity
  8
0
  6
CONTINUOUS
 62
     7
100
AcDbLine
 10
65.1789148225
 20
109.8565174467
 30
0.0
 11
65.1789148225
 21
111.1565174467
 31
0.0
  0
LINE
  5
C8
330
1F
100
AcDbEntity
  8
0
  6
CONTINUOUS
 62
     7
100
AcDbLine
 10
64.9006095693
 20
113.2644886342
 30
0.0
 11
64.9006095693
 21
111.1565174467
 31
0.0
  0
LINE
  5
C9
330
1F
100
AcDbEntity
  8
0
  6
CONTINUOUS
 62
     7
100
AcDbLine
 10
65.1789148225
 20
111.1565174467
 30
0.0
 11
64.9006095693
 21
111.1565174467
 31
0.0
  0
LINE
  5
CA
330
1F
100
AcDbEntity
  8
0
  6
CONTINUOUS
 62
     7
100
AcDbLine
 10
66.2742776436
 20
111.1565174467
 30
0.0
 11
65.8835886723
 21
111.1565174467
 31
0.0
  0
LINE
  5
CB
330
1F
100
AcDbEntity
  8
0
  6
CONTINUOUS
 62
     7
100
AcDbLine
 10
65.8835886723
 20
109.8565174467
 30
0.0
 11
66.2742776436
 21
109.8565174467
 31
0.0
  0
LINE
  5
CC
330
1F
100
AcDbEntity
  8
0
  6
CONTINUOUS
 62
     7
100
AcDbLine
 10
64.9006095693
 20
109.8565174467
 30
0.0
 11
65.1789148225
 21
109.8565174467
 31
0.0
  0
LINE
  5
CD
330
1F
100
AcDbEntity
  8
0
  6
CONTINUOUS
 62
     7
100
AcDbLine
 10
66.2742776436
 20
108.1565174467
 30
0.0
 11
64.9006095693
 21
108.1565174467
 31
0.0
  0
LINE
  5
CE
330
1F
100
AcDbEntity
  8
0
  6
CONTINUOUS
 62
     7
100
AcDbLine
 10
65.9081594134
 20
111.1565174467
 30
0.0
 11
65.9081594134
 21
109.8565174467
 31
0.0
  0
LINE
  5
CF
330
1F
100
AcDbEntity
  8
0
  6
CONTINUOUS
 62
     7
100
AcDbLine
 10
75.1493960947
 20
113.2783389885
 30
0.0
 11
74.9742776436
 21
113.2783389885
 31
0.0
  0
LINE
  5
D0
330
1F
100
AcDbEntity
  8
0
  6
CONTINUOUS
 62
     7
100
AcDbLine
 10
75.1493960947
 20
113.2783389885
 30
0.0
 11
75.1493960947
 21
111.1565174467
 31
0.0
  0
LINE
  5
D1
330
1F
100
AcDbEntity
  8
0
  6
CONTINUOUS
 62
     7
100
AcDbLine
 10
75.1493960947
 20
111.1565174467
 30
0.0
 11
74.9742776436
 21
111.1565174467
 31
0.0
  0
LINE
  5
D2
330
1F
100
AcDbEntity
  8
0
  6
CONTINUOUS
 62
     7
100
AcDbLine
 10
75.1493960947
 20
109.8565174467
 30
0.0
 11
75.1493960947
 21
108.1565174467
 31
0.0
  0
LINE
  5
D3
330
1F
100
AcDbEntity
  8
0
  6
CONTINUOUS
 62
     7
100
AcDbLine
 10
74.9742776436
 20
109.8565174467
 30
0.0
 11
75.1493960947
 21
109.8565174467
 31
0.0
  0
LINE
  5
D4
330
1F
100
AcDbEntity
  8
0
  6
CONTINUOUS
 62
     7
100
AcDbLine
 10
75.1493960947
 20
108.1565174467
 30
0.0
 11
74.9742776436
 21
108.1565174467
 31
0.0
  0
ARC
  5
D5
330
1F
100
AcDbEntity
  8
0
  6
CONTINUOUS
 62
     7
100
AcDbCircle
 10
74.6117168923
 20
113.2529562187
 30
0.0
 40
0.5382780041316088
100
AcDbArc
 50
2.7028135948
 51
67.8063653454
  0
ARC
  5
D6
330
1F
100
AcDbEntity
  8
0
  6
CONTINUOUS
 62
     7
100
AcDbCircle
 10
78.2974477012
 20
113.325062221
 30
0.0
 40
0.4511173065590914
100
AcDbArc
 50
352.2833255367
 51
66.1019512674
  0
SPLINE
  5
D7
330
1F
100
AcDbEntity
  8
0
  6
CONTINUOUS
 62
     7
100
AcDbSpline
210
0.0
220
0.0
230
1.0
 70
     8
 71
     3
 72
    10
 73
     6
 74
     0
 42
0.00000001
 43
0.00000001
 40
0.0
 40
0.0
 40
0.0
 40
0.0
 40
0.5
 40
0.5
 40
1.0
 40
1.0
 40
1.0
 40
1.0
 10
78.74447976364063
 20
113.264488634186
 30
0.0
 10
78.14547116000195
 20
113.427922503649
 30
0.0
 10
77.54638916260868
 20
113.5226059981046
 30
0.0
 10
76.34802848353903
 20
113.5277322666597
 30
0.0
 10
75.74874965959727
 20
113.438041776005
 30
0.0
 10
75.14939609474924
 20
113.2783389884968
 30
0.0
  0
LINE
  5
D8
330
1F
100
AcDbEntity
  8
0
  6
CONTINUOUS
 62
     7
100
AcDbLine
 10
78.7444797636
 20
111.1565174467
 30
0.0
 11
78.7444797636
 21
113.2644886342
 31
0.0
  0
LINE
  5
D9
330
1F
100
AcDbEntity
  8
0
  6
CONTINUOUS
 62
     7
100
AcDbLine
 10
78.7444797636
 20
111.1565174467
 30
0.0
 11
75.1493960947
 21
111.1565174467
 31
0.0
  0
LINE
  5
DA
330
1F
100
AcDbEntity
  8
0
  6
CONTINUOUS
 62
     7
100
AcDbLine
 10
78.7444797636
 20
108.1565174467
 30
0.0
 11
78.7444797636
 21
109.8565174467
 31
0.0
  0
LINE
  5
DB
330
1F
100
AcDbEntity
  8
0
  6
CONTINUOUS
 62
     7
100
AcDbLine
 10
75.1493960947
 20
109.8565174467
 30
0.0
 11
78.7444797636
 21
109.8565174467
 31
0.0
  0
LINE
  5
DC
330
1F
100
AcDbEntity
  8
0
  6
CONTINUOUS
 62
     7
100
AcDbLine
 10
75.1493960947
 20
108.1565174467
 30
0.0
 11
78.7444797636
 21
108.1565174467
 31
0.0
  0
LINE
  5
DD
330
1F
100
AcDbEntity
  8
0
  6
CONTINUOUS
 62
     7
100
AcDbLine
 10
64.7101123546
 20
108.1565174467
 30
0.0
 11
64.7101123546
 21
109.8565174467
 31
0.0
  0
LINE
  5
DE
330
1F
100
AcDbEntity
  8
0
  6
CONTINUOUS
 62
     7
100
AcDbLine
 10
64.7101123546
 20
109.8565174467
 30
0.0
 11
64.9006095693
 21
109.8565174467
 31
0.0
  0
LINE
  5
DF
330
1F
100
AcDbEntity
  8
0
  6
CONTINUOUS
 62
     7
100
AcDbLine
 10
64.9006095693
 20
108.1565174467
 30
0.0
 11
64.7101123546
 21
108.1565174467
 31
0.0
  0
LINE
  5
E0
330
1F
100
AcDbEntity
  8
0
  6
CONTINUOUS
 62
     7
100
AcDbLine
 10
64.7101123546
 20
111.1565174467
 30
0.0
 11
64.7101123546
 21
113.2644886342
 31
0.0
  0
LINE
  5
E1
330
1F
100
AcDbEntity
  8
0
  6
CONTINUOUS
 62
     7
100
AcDbLine
 10
64.9006095693
 20
113.2644886342
 30
0.0
 11
64.7101123546
 21
113.2644886342
 31
0.0
  0
LINE
  5
E2
330
1F
100
AcDbEntity
  8
0
  6
CONTINUOUS
 62
     7
100
AcDbLine
 10
64.9006095693
 20
111.1565174467
 30
0.0
 11
64.7101123546
 21
111.1565174467
 31
0.0
  0
ARC
  5
E3
330
1F
100
AcDbEntity
  8
0
  6
CONTINUOUS
 62
     7
100
AcDbCircle
 10
65.2434106312
 20
113.2386287793
 30
0.0
 40
0.5339248859635128
100
AcDbArc
 50
110.8757923773
 51
177.2238783507
  0
SPLINE
  5
E4
330
1F
100
AcDbEntity
  8
0
  6
CONTINUOUS
 62
     7
100
AcDbSpline
210
0.0
220
0.0
230
1.0
 70
     8
 71
     3
 72
    10
 73
     6
 74
     0
 42
0.00000001
 43
0.00000001
 40
0.0
 40
0.0
 40
0.0
 40
0.0
 40
0.5
 40
0.5
 40
1.0
 40
1.0
 40
1.0
 40
1.0
 10
64.71011235462795
 20
113.264488634186
 30
0.0
 10
64.1717255785247
 20
113.427922503649
 30
0.0
 10
63.63327283637907
 20
113.5226059981046
 30
0.0
 10
62.55619057296241
 20
113.5277322666597
 30
0.0
 10
62.01756092382372
 20
113.438041776005
 30
0.0
 10
61.47886409782761
 20
113.2783389884968
 30
0.0
  0
ARC
  5
E5
330
1F
100
AcDbEntity
  8
0
  6
CONTINUOUS
 62
     7
100
AcDbCircle
 10
61.9312762971
 20
113.3303295947
 30
0.0
 40
0.455389746480965
100
AcDbArc
 50
112.4012537211
 51
186.5555970555
  0
LINE
  5
E6
330
1F
100
AcDbEntity
  8
0
  6
CONTINUOUS
 62
     7
100
AcDbLine
 10
61.4788640978
 20
113.2783389885
 30
0.0
 11
61.4788640978
 21
111.1565174467
 31
0.0
  0
LINE
  5
E7
330
1F
100
AcDbEntity
  8
0
  6
CONTINUOUS
 62
     7
100
AcDbLine
 10
64.7101123546
 20
111.1565174467
 30
0.0
 11
61.4788640978
 21
111.1565174467
 31
0.0
  0
LINE
  5
E8
330
1F
100
AcDbEntity
  8
0
  6
CONTINUOUS
 62
     7
100
AcDbLine
 10
61.4788640978
 20
109.8565174467
 30
0.0
 11
61.4788640978
 21
108.1565174467
 31
0.0
  0
LINE
  5
E9
330
1F
100
AcDbEntity
  8
0
  6
CONTINUOUS
 62
     7
100
AcDbLine
 10
61.4788640978
 20
109.8565174467
 30
0.0
 11
64.7101123546
 21
109.8565174467
 31
0.0
  0
LINE
  5
EA
330
1F
100
AcDbEntity
  8
0
  6
CONTINUOUS
 62
     7
100
AcDbLine
 10
61.4788640978
 20
108.1565174467
 30
0.0
 11
64.7101123546
 21
108.1565174467
 31
0.0
  0
LINE
  5
EB
330
1F
100
AcDbEntity
  8
0
  6
CONTINUOUS
 62
     7
100
AcDbLine
 10
76.3693613125
 20
98.1565174467
 30
0.0
 11
63.8693613125
 21
98.1565174467
 31
0.0
  0
LINE
  5
EC
330
1F
100
AcDbEntity
  8
0
  6
CONTINUOUS
 62
     7
100
AcDbLine
 10
72.8509592303
 20
111.1565174467
 30
0.0
 11
72.8509592303
 21
109.8565174467
 31
0.0
  0
LINE
  5
ED
330
1F
100
AcDbEntity
  8
0
  6
CONTINUOUS
 62
     7
100
AcDbLine
 10
67.0801881249
 20
109.8565174467
 30
0.0
 11
67.0801881249
 21
111.1565174467
 31
0.0
  0
LINE
  5
EE
330
1F
100
AcDbEntity
  8
0
  6
CONTINUOUS
 62
     7
100
AcDbLine
 10
75.8901324179
 20
109.8565174467
 30
0.0
 11
75.8901324179
 21
111.1565174467
 31
0.0
  0
LINE
  5
EF
330
1F
100
AcDbEntity
  8
0
  6
CONTINUOUS
 62
     7
100
AcDbLine
 10
64.3485902071
 20
109.8565174467
 30
0.0
 11
64.3485902071
 21
111.1565174467
 31
0.0
  0
LINE
  5
F0
330
1F
100
AcDbEntity
  8
0
  6
CONTINUOUS
 62
     7
100
AcDbLine
 10
78.8193613125
 20
109.8565174467
 30
0.0
 11
78.8193613125
 21
108.1565174467
 31
0.0
  0
LINE
  5
F1
330
1F
100
AcDbEntity
  8
0
  6
CONTINUOUS
 62
     7
100
AcDbLine
 10
78.7444797636
 20
109.8565174467
 30
0.0
 11
78.8193613125
 21
109.8565174467
 31
0.0
  0
LINE
  5
F2
330
1F
100
AcDbEntity
  8
0
  6
CONTINUOUS
 62
     7
100
AcDbLine
 10
78.8193613125
 20
108.1565174467
 30
0.0
 11
78.7444797636
 21
108.1565174467
 31
0.0
  0
LINE
  5
F3
330
1F
100
AcDbEntity
  8
0
  6
CONTINUOUS
 62
     7
100
AcDbLine
 10
78.8193613125
 20
113.2644886342
 30
0.0
 11
78.7444797636
 21
113.2644886342
 31
0.0
  0
LINE
  5
F4
330
1F
100
AcDbEntity
  8
0
  6
CONTINUOUS
 62
     7
100
AcDbLine
 10
78.8193613125
 20
113.2644886342
 30
0.0
 11
78.8193613125
 21
111.1565174467
 31
0.0
  0
LINE
  5
F5
330
1F
100
AcDbEntity
  8
0
  6
CONTINUOUS
 62
     7
100
AcDbLine
 10
78.8193613125
 20
111.1565174467
 30
0.0
 11
78.7444797636
 21
111.1565174467
 31
0.0
  0
ARC
  5
F6
330
1F
100
AcDbEntity
  8
0
  6
CONTINUOUS
 62
     7
100
AcDbCircle
 10
78.3197560061
 20
113.264362397
 30
0.0
 40
0.4996053223727807
100
AcDbArc
 50
0.0144771486
 51
71.2680246104
  0
LINE
  5
F7
330
1F
100
AcDbEntity
  8
0
  6
CONTINUOUS
 62
     7
100
AcDbLine
 10
61.4193613125
 20
111.1565174467
 30
0.0
 11
61.4193613125
 21
113.2783389885
 31
0.0
  0
LINE
  5
F8
330
1F
100
AcDbEntity
  8
0
  6
CONTINUOUS
 62
     7
100
AcDbLine
 10
61.4788640978
 20
113.2783389885
 30
0.0
 11
61.4193613125
 21
113.2783389885
 31
0.0
  0
LINE
  5
F9
330
1F
100
AcDbEntity
  8
0
  6
CONTINUOUS
 62
     7
100
AcDbLine
 10
61.4788640978
 20
111.1565174467
 30
0.0
 11
61.4193613125
 21
111.1565174467
 31
0.0
  0
LINE
  5
FA
330
1F
100
AcDbEntity
  8
0
  6
CONTINUOUS
 62
     7
100
AcDbLine
 10
61.4193613125
 20
108.1565174467
 30
0.0
 11
61.4193613125
 21
109.8565174467
 31
0.0
  0
LINE
  5
FB
330
1F
100
AcDbEntity
  8
0
  6
CONTINUOUS
 62
     7
100
AcDbLine
 10
61.4193613125
 20
109.8565174467
 30
0.0
 11
61.4788640978
 21
109.8565174467
 31
0.0
  0
LINE
  5
FC
330
1F
100
AcDbEntity
  8
0
  6
CONTINUOUS
 62
     7
100
AcDbLine
 10
61.4788640978
 20
108.1565174467
 30
0.0
 11
61.4193613125
 21
108.1565174467
 31
0.0
  0
ARC
  5
FD
330
1F
100
AcDbEntity
  8
0
  6
CONTINUOUS
 62
     7
100
AcDbCircle
 10
61.9192261946
 20
113.2782960441
 30
0.0
 40
0.4998648839974143
100
AcDbArc
 50
108.8490876536
 51
179.995077602
  0
LINE
  5
FE
330
1F
100
AcDbEntity
  8
0
  6
CONTINUOUS
 62
     7
100
AcDbLine
 10
78.1155763152
 20
111.1565174467
 30
0.0
 11
78.1155763152
 21
109.8565174467
 31
0.0
  0
LINE
  5
FF
330
1F
100
AcDbEntity
  8
0
  6
CONTINUOUS
 62
     7
100
AcDbLine
 10
78.8193613125
 20
109.8565174467
 30
0.0
 11
78.8193613125
 21
111.1565174467
 31
0.0
  0
LINE
  5
100
330
1F
100
AcDbEntity
  8
0
  6
CONTINUOUS
 62
     7
100
AcDbLine
 10
62.1231463097
 20
111.1565174467
 30
0.0
 11
62.1231463097
 21
109.8565174467
 31
0.0
  0
LINE
  5
101
330
1F
100
AcDbEntity
  8
0
  6
CONTINUOUS
 62
     7
100
AcDbLine
 10
61.4193613125
 20
111.1565174467
 30
0.0
 11
61.4193613125
 21
109.8565174467
 31
0.0
  0
SPLINE
  5
102
330
1F
100
AcDbEntity
  8
0
  6
CONTINUOUS
 62
     7
100
AcDbSpline
210
0.0
220
0.0
230
1.0
 70
     8
 71
     3
 72
     9
 73
     5
 74
     0
 42
0.00000001
 43
0.00000001
 40
0.0
 40
0.0
 40
0.0
 40
0.0
 40
0.9776696823438
 40
1.0
 40
1.0
 40
1.0
 40
1.0
 10
78.48020003656117
 20
113.7375042268742
 30
0.0
 10
78.48090236111076
 20
113.7497610517274
 30
0.0
 10
78.48162072699884
 20
113.7622978267491
 30
0.0
 10
78.48138861684126
 20
113.7582634994363
 30
0.0
 10
78.48138343374772
 20
113.7581734116259
 30
0.0
  0
LINE
  5
103
330
1F
100
AcDbEntity
  8
0
  6
CONTINUOUS
 62
     7
100
AcDbLine
 10
26.2090193103
 20
85.1802808536
 30
0.0
 11
26.0491068673
 21
84.7134695394
 31
0.0
  0
LINE
  5
104
330
1F
100
AcDbEntity
  8
0
  6
CONTINUOUS
 62
     7
100
AcDbLine
 10
26.0491068673
 20
70.3134695394
 30
0.0
 11
26.2090193103
 21
69.8466582252
 31
0.0
  0
ARC
  5
105
330
1F
100
AcDbEntity
  8
0
  6
CONTINUOUS
 62
     7
100
AcDbCircle
 10
32.5187386224
 20
70.7543431246
 30
0.0
 40
0.7017665036670238
100
AcDbArc
 50
227.9935935986
 51
0.0
  0
ARC
  5
106
330
1F
100
AcDbEntity
  8
0
  6
CONTINUOUS
 62
     7
100
AcDbCircle
 10
32.5187386224
 20
84.2725959542
 30
0.0
 40
0.7017665036670238
100
AcDbArc
 50
0.0
 51
132.0064064014
  0
LINE
  5
107
330
1F
100
AcDbEntity
  8
0
  6
CONTINUOUS
 62
     7
100
AcDbLine
 10
33.2205051261
 20
70.7543431246
 30
0.0
 11
33.2205051261
 21
84.2725959542
 31
0.0
  0
LINE
  5
108
330
1F
100
AcDbEntity
  8
0
  6
CONTINUOUS
 62
     7
100
AcDbLine
 10
40.0491068673
 20
71.2634695394
 30
0.0
 11
42.0491068673
 21
71.2634695394
 31
0.0
  0
LINE
  5
109
330
1F
100
AcDbEntity
  8
0
  6
CONTINUOUS
 62
     7
100
AcDbLine
 10
42.0491068673
 20
83.7634695394
 30
0.0
 11
40.0491068673
 21
83.7634695394
 31
0.0
  0
LINE
  5
10A
330
1F
100
AcDbEntity
  8
0
  6
CONTINUOUS
 62
     7
100
AcDbLine
 10
33.2205051261
 20
71.2634695394
 30
0.0
 11
35.0491068673
 21
71.2634695394
 31
0.0
  0
LINE
  5
10B
330
1F
100
AcDbEntity
  8
0
  6
CONTINUOUS
 62
     7
100
AcDbLine
 10
35.0491068673
 20
83.7634695394
 30
0.0
 11
33.2205051261
 21
83.7634695394
 31
0.0
  0
SPLINE
  5
10C
330
1F
100
AcDbEntity
  8
0
  6
CONTINUOUS
 62
     7
100
AcDbSpline
210
0.0
220
0.0
230
1.0
 70
     8
 71
     3
 72
    16
 73
    12
 74
     0
 42
0.00000001
 43
0.00000001
 40
0.0
 40
0.0
 40
0.0
 40
0.0
 40
0.0479508252394164
 40
0.3913515558928339
 40
0.5933731870946909
 40
0.6925383046981378
 40
0.7728980752958104
 40
0.8407873898685216
 40
0.9007113528225443
 40
0.9563575201588461
 40
1.0
 40
1.0
 40
1.0
 40
1.0
 10
26.8394134728765
 20
85.60497486621318
 30
0.0
 10
26.83007631284476
 20
85.60315376970132
 30
0.0
 10
26.75387090683149
 20
85.58829085650227
 30
0.0
 10
26.65943942397732
 20
85.56222827049642
 30
0.0
 10
26.54899337844585
 20
85.5232194787015
 30
0.0
 10
26.47172687489435
 20
85.48534115842867
 30
0.0
 10
26.41217242929567
 20
85.44837394517965
 30
0.0
 10
26.35296104922778
 20
85.40156098093925
 30
0.0
 10
26.29539714453102
 20
85.34003496783686
 30
0.0
 10
26.24385146886294
 20
85.26766565938836
 30
0.0
 10
26.22073232820884
 20
85.20664011900733
 30
0.0
 10
26.21057027384891
 20
85.17981624748137
 30
0.0
  0
LINE
  5
10D
330
1F
100
AcDbEntity
  8
0
  6
CONTINUOUS
 62
     7
100
AcDbLine
 10
30.3491068673
 20
69.4104871755
 30
0.0
 11
32.0491068673
 21
69.4104871755
 31
0.0
  0
LINE
  5
10E
330
1F
100
AcDbEntity
  8
0
  6
CONTINUOUS
 62
     7
100
AcDbLine
 10
26.9411356798
 20
69.4104871755
 30
0.0
 11
29.0491068673
 21
69.4104871755
 31
0.0
  0
ARC
  5
10F
330
1F
100
AcDbEntity
  8
0
  6
CONTINUOUS
 62
     7
100
AcDbCircle
 10
26.9411356798
 20
69.9104871755
 30
0.0
 40
0.5000000000000052
100
AcDbArc
 50
257.9124545963
 51
270.0
  0
SPLINE
  5
110
330
1F
100
AcDbEntity
  8
0
  6
CONTINUOUS
 62
     7
100
AcDbSpline
210
0.0
220
0.0
230
1.0
 70
     8
 71
     3
 72
    17
 73
    13
 74
     0
 42
0.00000001
 43
0.00000001
 40
0.0
 40
0.0
 40
0.0
 40
0.0
 40
0.0271877970576368
 40
0.081034641571668
 40
0.1366858729151774
 40
0.1971595221465664
 40
0.2665538818773488
 40
0.3505579773102162
 40
0.4579596516916927
 40
0.6047759596526548
 40
0.8283651896778295
 40
1.0
 40
1.0
 40
1.0
 40
1.0
 10
26.21163817303474
 20
69.84770490308907
 30
0.0
 10
26.21715734098643
 20
69.83025962498895
 30
0.0
 10
26.23360750779439
 20
69.77826306730671
 30
0.0
 10
26.27729459286572
 20
69.71121122165215
 30
0.0
 10
26.33099167488198
 20
69.6465581029629
 30
0.0
 10
26.38664278328265
 20
69.59764387675563
 30
0.0
 10
26.44229320348877
 20
69.55887369367628
 30
0.0
 10
26.5000485118582
 20
69.52695650270405
 30
0.0
 10
26.56417271561171
 20
69.4984701353534
 30
0.0
 10
26.64592781534687
 20
69.46974977014473
 30
0.0
 10
26.73459954006989
 20
69.44436575367612
 30
0.0
 10
26.8085767169518
 20
69.4290294422453
 30
0.0
 10
26.8407029477123
 20
69.42236930866345
 30
0.0
  0
LINE
  5
111
330
1F
100
AcDbEntity
  8
0
  6
CONTINUOUS
 62
     7
100
AcDbLine
 10
32.0491068673
 20
85.6164519032
 30
0.0
 11
30.3491068673
 21
85.6164519032
 31
0.0
  0
LINE
  5
112
330
1F
100
AcDbEntity
  8
0
  6
CONTINUOUS
 62
     7
100
AcDbLine
 10
29.0491068673
 20
85.6164519032
 30
0.0
 11
26.9411356798
 21
85.6164519032
 31
0.0
  0
ARC
  5
113
330
1F
100
AcDbEntity
  8
0
  6
CONTINUOUS
 62
     7
100
AcDbCircle
 10
26.9411356798
 20
85.1164519032
 30
0.0
 40
0.5000000000000046
100
AcDbArc
 50
90.0
 51
102.0875454037
  0
LINE
  5
114
330
1F
100
AcDbEntity
  8
0
  6
CONTINUOUS
 62
     7
100
AcDbLine
 10
40.0491068673
 20
77.5134695394
 30
0.0
 11
35.0491068673
 21
77.5134695394
 31
0.0
  0
LINE
  5
115
330
1F
100
AcDbEntity
  8
0
  6
CONTINUOUS
 62
     7
100
AcDbLine
 10
40.0491068673
 20
77.5134695394
 30
0.0
 11
40.0491068673
 21
69.0134695394
 31
0.0
  0
LINE
  5
116
330
1F
100
AcDbEntity
  8
0
  6
CONTINUOUS
 62
     7
100
AcDbLine
 10
40.0491068673
 20
69.0134695394
 30
0.0
 11
35.0491068673
 21
69.0134695394
 31
0.0
  0
LINE
  5
117
330
1F
100
AcDbEntity
  8
0
  6
CONTINUOUS
 62
     7
100
AcDbLine
 10
35.0491068673
 20
77.5134695394
 30
0.0
 11
35.0491068673
 21
69.0134695394
 31
0.0
  0
LINE
  5
118
330
1F
100
AcDbEntity
  8
0
  6
CONTINUOUS
 62
     7
100
AcDbLine
 10
40.0491068673
 20
86.0134695394
 30
0.0
 11
35.0491068673
 21
86.0134695394
 31
0.0
  0
LINE
  5
119
330
1F
100
AcDbEntity
  8
0
  6
CONTINUOUS
 62
     7
100
AcDbLine
 10
35.0491068673
 20
86.0134695394
 30
0.0
 11
35.0491068673
 21
77.5134695394
 31
0.0
  0
LINE
  5
11A
330
1F
100
AcDbEntity
  8
0
  6
CONTINUOUS
 62
     7
100
AcDbLine
 10
40.0491068673
 20
86.0134695394
 30
0.0
 11
40.0491068673
 21
77.5134695394
 31
0.0
  0
LINE
  5
11B
330
1F
100
AcDbEntity
  8
0
  6
CONTINUOUS
 62
     7
100
AcDbLine
 10
30.3491068673
 20
76.5103214338
 30
0.0
 11
32.0491068673
 21
76.5103214338
 31
0.0
  0
LINE
  5
11C
330
1F
100
AcDbEntity
  8
0
  6
CONTINUOUS
 62
     7
100
AcDbLine
 10
32.0491068673
 20
76.2471213151
 30
0.0
 11
30.3491068673
 21
76.2471213151
 31
0.0
  0
LINE
  5
11D
330
1F
100
AcDbEntity
  8
0
  6
CONTINUOUS
 62
     7
100
AcDbLine
 10
30.3491068673
 20
76.2471213151
 30
0.0
 11
30.3491068673
 21
76.5103214338
 31
0.0
  0
LINE
  5
11E
330
1F
100
AcDbEntity
  8
0
  6
CONTINUOUS
 62
     7
100
AcDbLine
 10
32.0491068673
 20
76.5103214338
 30
0.0
 11
32.0491068673
 21
76.2471213151
 31
0.0
  0
LINE
  5
11F
330
1F
100
AcDbEntity
  8
0
  6
CONTINUOUS
 62
     7
100
AcDbLine
 10
32.0491068673
 20
78.0964966987
 30
0.0
 11
30.3491068673
 21
78.0964966987
 31
0.0
  0
LINE
  5
120
330
1F
100
AcDbEntity
  8
0
  6
CONTINUOUS
 62
     7
100
AcDbLine
 10
30.3491068673
 20
78.0964966987
 30
0.0
 11
30.3491068673
 21
78.3330600177
 31
0.0
  0
LINE
  5
121
330
1F
100
AcDbEntity
  8
0
  6
CONTINUOUS
 62
     7
100
AcDbLine
 10
30.3491068673
 20
78.3330600177
 30
0.0
 11
32.0491068673
 21
78.3330600177
 31
0.0
  0
LINE
  5
122
330
1F
100
AcDbEntity
  8
0
  6
CONTINUOUS
 62
     7
100
AcDbLine
 10
32.0491068673
 20
78.3330600177
 30
0.0
 11
32.0491068673
 21
78.0964966987
 31
0.0
  0
LINE
  5
123
330
1F
100
AcDbEntity
  8
0
  6
CONTINUOUS
 62
     7
100
AcDbLine
 10
29.0491068673
 20
78.0964966987
 30
0.0
 11
29.0491068673
 21
77.6453679332
 31
0.0
  0
LINE
  5
124
330
1F
100
AcDbEntity
  8
0
  6
CONTINUOUS
 62
     7
100
AcDbLine
 10
29.0491068673
 20
77.6453679332
 30
0.0
 11
30.3491068673
 21
77.6453679332
 31
0.0
  0
LINE
  5
125
330
1F
100
AcDbEntity
  8
0
  6
CONTINUOUS
 62
     7
100
AcDbLine
 10
30.3491068673
 20
77.6453679332
 30
0.0
 11
30.3491068673
 21
78.0964966987
 31
0.0
  0
LINE
  5
126
330
1F
100
AcDbEntity
  8
0
  6
CONTINUOUS
 62
     7
100
AcDbLine
 10
30.3491068673
 20
76.5103214338
 30
0.0
 11
30.3491068673
 21
76.8316806595
 31
0.0
  0
LINE
  5
127
330
1F
100
AcDbEntity
  8
0
  6
CONTINUOUS
 62
     7
100
AcDbLine
 10
30.3491068673
 20
76.8316806595
 30
0.0
 11
29.0491068673
 21
76.8316806595
 31
0.0
  0
LINE
  5
128
330
1F
100
AcDbEntity
  8
0
  6
CONTINUOUS
 62
     7
100
AcDbLine
 10
29.0491068673
 20
76.8316806595
 30
0.0
 11
29.0491068673
 21
76.5103214338
 31
0.0
  0
LINE
  5
129
330
1F
100
AcDbEntity
  8
0
  6
CONTINUOUS
 62
     7
100
AcDbLine
 10
26.9411356798
 20
76.5103214338
 30
0.0
 11
29.0491068673
 21
76.5103214338
 31
0.0
  0
SPLINE
  5
12A
330
1F
100
AcDbEntity
  8
0
  6
CONTINUOUS
 62
     7
100
AcDbSpline
210
0.0
220
0.0
230
1.0
 70
     8
 71
     3
 72
     8
 73
     4
 74
     0
 42
0.00000001
 43
0.00000001
 40
0.0
 40
0.0
 40
0.0
 40
0.0
 40
1.0
 40
1.0
 40
1.0
 40
1.0
 10
26.92728532546614
 20
78.09649669874351
 30
0.0
 10
26.91443612794916
 20
77.56761909887739
 30
0.0
 10
26.91914839104966
 20
77.03889484426708
 30
0.0
 10
26.94113567977687
 20
76.51032143378539
 30
0.0
  0
LINE
  5
12B
330
1F
100
AcDbEntity
  8
0
  6
CONTINUOUS
 62
     7
100
AcDbLine
 10
29.0491068673
 20
78.0964966987
 30
0.0
 11
26.9272853255
 21
78.0964966987
 31
0.0
  0
LINE
  5
12C
330
1F
100
AcDbEntity
  8
0
  6
CONTINUOUS
 62
     7
100
AcDbLine
 10
32.0491068673
 20
78.0964966987
 30
0.0
 11
32.0491068673
 21
76.5103214338
 31
0.0
  0
LINE
  5
12D
330
1F
100
AcDbEntity
  8
0
  6
CONTINUOUS
 62
     7
100
AcDbLine
 10
29.0491068673
 20
78.3330600177
 30
0.0
 11
29.0491068673
 21
78.0964966987
 31
0.0
  0
LINE
  5
12E
330
1F
100
AcDbEntity
  8
0
  6
CONTINUOUS
 62
     7
100
AcDbLine
 10
26.9272853255
 20
78.3330600177
 30
0.0
 11
26.9272853255
 21
78.0964966987
 31
0.0
  0
LINE
  5
12F
330
1F
100
AcDbEntity
  8
0
  6
CONTINUOUS
 62
     7
100
AcDbLine
 10
26.9272853255
 20
78.3330600177
 30
0.0
 11
29.0491068673
 21
78.3330600177
 31
0.0
  0
LINE
  5
130
330
1F
100
AcDbEntity
  8
0
  6
CONTINUOUS
 62
     7
100
AcDbLine
 10
29.0491068673
 20
76.5103214338
 30
0.0
 11
29.0491068673
 21
76.2471213151
 31
0.0
  0
LINE
  5
131
330
1F
100
AcDbEntity
  8
0
  6
CONTINUOUS
 62
     7
100
AcDbLine
 10
29.0491068673
 20
76.2471213151
 30
0.0
 11
26.9411356798
 21
76.2471213151
 31
0.0
  0
LINE
  5
132
330
1F
100
AcDbEntity
  8
0
  6
CONTINUOUS
 62
     7
100
AcDbLine
 10
26.9411356798
 20
76.5103214338
 30
0.0
 11
26.9411356798
 21
76.2471213151
 31
0.0
  0
LINE
  5
133
330
1F
100
AcDbEntity
  8
0
  6
CONTINUOUS
 62
     7
100
AcDbLine
 10
26.4681200871
 20
76.4906452068
 30
0.0
 11
26.9411356798
 21
76.5103214338
 31
0.0
  0
ARC
  5
134
330
1F
100
AcDbEntity
  8
0
  6
CONTINUOUS
 62
     7
100
AcDbCircle
 10
26.969050746
 20
76.8824925672
 30
0.0
 40
0.6359841813459017
100
AcDbArc
 50
218.0338941141
 51
267.4843250227
  0
SPLINE
  5
135
330
1F
100
AcDbEntity
  8
0
  6
CONTINUOUS
 62
     7
100
AcDbSpline
210
0.0
220
0.0
230
1.0
 70
     8
 71
     3
 72
     8
 73
     4
 74
     0
 42
0.00000001
 43
0.00000001
 40
0.0
 40
0.0
 40
0.0
 40
0.0
 40
1.0
 40
1.0
 40
1.0
 40
1.0
 10
26.46812008708866
 20
76.49064520678897
 30
0.0
 10
26.44613098928677
 20
77.0294777658261
 30
0.0
 10
26.44142338115868
 20
77.56885830862988
 30
0.0
 10
26.45426973277793
 20
78.10798871651964
 30
0.0
  0
LINE
  5
136
330
1F
100
AcDbEntity
  8
0
  6
CONTINUOUS
 62
     7
100
AcDbLine
 10
26.4542697328
 20
78.1079887165
 30
0.0
 11
26.9272853255
 21
78.0964966987
 31
0.0
  0
ARC
  5
137
330
1F
100
AcDbEntity
  8
0
  6
CONTINUOUS
 62
     7
100
AcDbCircle
 10
26.9556947896
 20
77.6637674891
 30
0.0
 40
0.6698952056469328
100
AcDbArc
 50
92.4305752519
 51
138.4617055268
  0
SPLINE
  5
138
330
1F
100
AcDbEntity
  8
0
  6
CONTINUOUS
 62
     7
100
AcDbSpline
210
0.0
220
0.0
230
1.0
 70
     8
 71
     3
 72
    10
 73
     6
 74
     0
 42
0.00000001
 43
0.00000001
 40
0.0
 40
0.0
 40
0.0
 40
0.0
 40
0.5
 40
0.5
 40
1.0
 40
1.0
 40
1.0
 40
1.0
 10
26.45426973277793
 20
78.10798871651964
 30
0.0
 10
26.29483588029091
 20
79.12977937281215
 30
0.0
 10
26.20496283757379
 20
80.15733386630735
 30
0.0
 10
26.20990872891706
 20
82.20547966753968
 30
0.0
 10
26.30488482230754
 20
83.22928812211278
 30
0.0
 10
26.46812008708867
 20
84.24275610508398
 30
0.0
  0
ARC
  5
139
330
1F
100
AcDbEntity
  8
0
  6
CONTINUOUS
 62
     7
100
AcDbCircle
 10
26.8096211007
 20
83.8326484619
 30
0.0
 40
0.533677075809675
100
AcDbArc
 50
75.733582439
 51
129.7845102368
  0
SPLINE
  5
13A
330
1F
100
AcDbEntity
  8
0
  6
CONTINUOUS
 62
     7
100
AcDbSpline
210
0.0
220
0.0
230
1.0
 70
     8
 71
     3
 72
    10
 73
     6
 74
     0
 42
0.00000001
 43
0.00000001
 40
0.0
 40
0.0
 40
0.0
 40
0.0
 40
0.5000000000000001
 40
0.5000000000000001
 40
1.0
 40
1.0
 40
1.0
 40
1.0
 10
26.94113567977688
 20
84.34986711659147
 30
0.0
 10
26.77770181031395
 20
83.34735380936473
 30
0.0
 10
26.68301831585829
 20
82.34471766881771
 30
0.0
 10
26.67789204730316
 20
80.33911621280049
 30
0.0
 10
26.7675825379579
 20
79.33615065923193
 30
0.0
 10
26.92728532546614
 20
78.33306001772192
 30
0.0
  0
LINE
  5
13B
330
1F
100
AcDbEntity
  8
0
  6
CONTINUOUS
 62
     7
100
AcDbLine
 10
32.0491068673
 20
84.3498671166
 30
0.0
 11
30.3491068673
 21
84.3498671166
 31
0.0
  0
LINE
  5
13C
330
1F
100
AcDbEntity
  8
0
  6
CONTINUOUS
 62
     7
100
AcDbLine
 10
30.3491068673
 20
78.3330600177
 30
0.0
 11
30.3491068673
 21
84.3498671166
 31
0.0
  0
LINE
  5
13D
330
1F
100
AcDbEntity
  8
0
  6
CONTINUOUS
 62
     7
100
AcDbLine
 10
32.0491068673
 20
78.3330600177
 30
0.0
 11
32.0491068673
 21
84.3498671166
 31
0.0
  0
LINE
  5
13E
330
1F
100
AcDbEntity
  8
0
  6
CONTINUOUS
 62
     7
100
AcDbLine
 10
29.0491068673
 20
84.3498671166
 30
0.0
 11
26.9411356798
 21
84.3498671166
 31
0.0
  0
LINE
  5
13F
330
1F
100
AcDbEntity
  8
0
  6
CONTINUOUS
 62
     7
100
AcDbLine
 10
29.0491068673
 20
84.3498671166
 30
0.0
 11
29.0491068673
 21
78.3330600177
 31
0.0
  0
SPLINE
  5
140
330
1F
100
AcDbEntity
  8
0
  6
CONTINUOUS
 62
     7
100
AcDbSpline
210
0.0
220
0.0
230
1.0
 70
     8
 71
     3
 72
    10
 73
     6
 74
     0
 42
0.00000001
 43
0.00000001
 40
0.0
 40
0.0
 40
0.0
 40
0.0
 40
0.5000000000000001
 40
0.5000000000000001
 40
1.0
 40
1.0
 40
1.0
 40
1.0
 10
26.45426973277794
 20
70.56934532995092
 30
0.0
 10
26.29483588029093
 20
71.54723564685062
 30
0.0
 10
26.20496283757379
 20
72.53302873282912
 30
0.0
 10
26.20990872891706
 20
74.50997570669314
 30
0.0
 10
26.30488482230754
 20
75.50421849552436
 30
0.0
 10
26.46812008708866
 20
76.49064520678897
 30
0.0
  0
SPLINE
  5
141
330
1F
100
AcDbEntity
  8
0
  6
CONTINUOUS
 62
     7
100
AcDbSpline
210
0.0
220
0.0
230
1.0
 70
     8
 71
     3
 72
    10
 73
     6
 74
     0
 42
0.00000001
 43
0.00000001
 40
0.0
 40
0.0
 40
0.0
 40
0.0
 40
0.5
 40
0.5
 40
1.0
 40
1.0
 40
1.0
 40
1.0
 10
26.94113567977687
 20
76.24712131509189
 30
0.0
 10
26.77770181031394
 20
75.27960803631149
 30
0.0
 10
26.68301831585829
 20
74.31197621260247
 30
0.0
 10
26.67789204730316
 20
72.3763948825094
 30
0.0
 10
26.7675825379579
 20
71.40844514633953
 30
0.0
 10
26.92728532546615
 20
70.44037468933382
 30
0.0
  0
ARC
  5
142
330
1F
100
AcDbEntity
  8
0
  6
CONTINUOUS
 62
     7
100
AcDbCircle
 10
26.806870268
 20
70.9306443233
 30
0.0
 40
0.5048406679599056
100
AcDbArc
 50
225.6980818105
 51
283.7992599338
  0
LINE
  5
143
330
1F
100
AcDbEntity
  8
0
  6
CONTINUOUS
 62
     7
100
AcDbLine
 10
30.3491068673
 20
70.4403746893
 30
0.0
 11
32.0491068673
 21
70.4403746893
 31
0.0
  0
LINE
  5
144
330
1F
100
AcDbEntity
  8
0
  6
CONTINUOUS
 62
     7
100
AcDbLine
 10
30.3491068673
 20
70.4403746893
 30
0.0
 11
30.3491068673
 21
76.2471213151
 31
0.0
  0
LINE
  5
145
330
1F
100
AcDbEntity
  8
0
  6
CONTINUOUS
 62
     7
100
AcDbLine
 10
32.0491068673
 20
70.4403746893
 30
0.0
 11
32.0491068673
 21
76.2471213151
 31
0.0
  0
LINE
  5
146
330
1F
100
AcDbEntity
  8
0
  6
CONTINUOUS
 62
     7
100
AcDbLine
 10
26.9272853255
 20
70.4403746893
 30
0.0
 11
29.0491068673
 21
70.4403746893
 31
0.0
  0
LINE
  5
147
330
1F
100
AcDbEntity
  8
0
  6
CONTINUOUS
 62
     7
100
AcDbLine
 10
29.0491068673
 20
76.2471213151
 30
0.0
 11
29.0491068673
 21
70.4403746893
 31
0.0
  0
LINE
  5
148
330
1F
100
AcDbEntity
  8
0
  6
CONTINUOUS
 62
     7
100
AcDbLine
 10
26.0491068673
 20
70.3134695394
 30
0.0
 11
26.0491068673
 21
84.7134695394
 31
0.0
  0
SPLINE
  5
149
330
1F
100
AcDbEntity
  8
0
  6
CONTINUOUS
 62
     7
100
AcDbSpline
210
0.0
220
0.0
230
1.0
 70
     8
 71
     3
 72
     8
 73
     4
 74
     0
 42
0.00000001
 43
0.00000001
 40
0.0
 40
0.0
 40
0.0
 40
0.0
 40
1.0
 40
1.0
 40
1.0
 40
1.0
 10
26.46812008708869
 20
69.76135864108092
 30
0.0
 10
26.44613098928679
 20
70.02969261924397
 30
0.0
 10
26.44142338115869
 20
70.29914159488544
 30
0.0
 10
26.45426973277794
 20
70.56934532995092
 30
0.0
  0
SPLINE
  5
14A
330
1F
100
AcDbEntity
  8
0
  6
CONTINUOUS
 62
     7
100
AcDbSpline
210
0.0
220
0.0
230
1.0
 70
     8
 71
     3
 72
     8
 73
     4
 74
     0
 42
0.00000001
 43
0.00000001
 40
0.0
 40
0.0
 40
0.0
 40
0.0
 40
1.0
 40
1.0
 40
1.0
 40
1.0
 10
26.46812008708867
 20
84.24275610508398
 30
0.0
 10
26.44613098928679
 20
84.51325468595805
 30
0.0
 10
26.44142338115869
 20
84.78318625312039
 30
0.0
 10
26.45426973277795
 20
85.05211292594467
 30
0.0
  0
LINE
  5
14B
330
1F
100
AcDbEntity
  8
0
  6
CONTINUOUS
 62
     7
100
AcDbLine
 10
42.0491068673
 20
83.7634695394
 30
0.0
 11
42.0491068673
 21
71.2634695394
 31
0.0
  0
LINE
  5
14C
330
1F
100
AcDbEntity
  8
0
  6
CONTINUOUS
 62
     7
100
AcDbLine
 10
30.3491068673
 20
82.4223145837
 30
0.0
 11
29.0491068673
 21
82.4223145837
 31
0.0
  0
LINE
  5
14D
330
1F
100
AcDbEntity
  8
0
  6
CONTINUOUS
 62
     7
100
AcDbLine
 10
29.0491068673
 20
72.4270458303
 30
0.0
 11
30.3491068673
 21
72.4270458303
 31
0.0
  0
LINE
  5
14E
330
1F
100
AcDbEntity
  8
0
  6
CONTINUOUS
 62
     7
100
AcDbLine
 10
30.3491068673
 20
84.5463164995
 30
0.0
 11
32.0491068673
 21
84.5463164995
 31
0.0
  0
LINE
  5
14F
330
1F
100
AcDbEntity
  8
0
  6
CONTINUOUS
 62
     7
100
AcDbLine
 10
30.3491068673
 20
84.3498671166
 30
0.0
 11
30.3491068673
 21
84.5463164995
 31
0.0
  0
LINE
  5
150
330
1F
100
AcDbEntity
  8
0
  6
CONTINUOUS
 62
     7
100
AcDbLine
 10
32.0491068673
 20
84.5463164995
 30
0.0
 11
32.0491068673
 21
84.3498671166
 31
0.0
  0
LINE
  5
151
330
1F
100
AcDbEntity
  8
0
  6
CONTINUOUS
 62
     7
100
AcDbLine
 10
26.9411356798
 20
84.5463164995
 30
0.0
 11
26.9411356798
 21
84.3498671166
 31
0.0
  0
LINE
  5
152
330
1F
100
AcDbEntity
  8
0
  6
CONTINUOUS
 62
     7
100
AcDbLine
 10
26.9411356798
 20
84.5463164995
 30
0.0
 11
29.0491068673
 21
84.5463164995
 31
0.0
  0
LINE
  5
153
330
1F
100
AcDbEntity
  8
0
  6
CONTINUOUS
 62
     7
100
AcDbLine
 10
29.0491068673
 20
84.5463164995
 30
0.0
 11
29.0491068673
 21
84.3498671166
 31
0.0
  0
ARC
  5
154
330
1F
100
AcDbEntity
  8
0
  6
CONTINUOUS
 62
     7
100
AcDbCircle
 10
26.9353472943
 20
84.0350233985
 30
0.0
 40
0.5113258652825265
100
AcDbArc
 50
89.3513781215
 51
156.0297115464
  0
SPLINE
  5
155
330
1F
100
AcDbEntity
  8
0
  6
CONTINUOUS
 62
     7
100
AcDbSpline
210
0.0
220
0.0
230
1.0
 70
     8
 71
     3
 72
     8
 73
     4
 74
     0
 42
0.00000001
 43
0.00000001
 40
0.0
 40
0.0
 40
0.0
 40
0.0
 40
1.0
 40
1.0
 40
1.0
 40
1.0
 10
26.92728532546615
 20
85.33940413198435
 30
0.0
 10
26.91443612794917
 20
85.07496533205128
 30
0.0
 10
26.91914839104967
 20
84.81060320474613
 30
0.0
 10
26.94113567977688
 20
84.54631649950528
 30
0.0
  0
ARC
  5
156
330
1F
100
AcDbEntity
  8
0
  6
CONTINUOUS
 62
     7
100
AcDbCircle
 10
26.9021225853
 20
84.8477857929
 30
0.0
 40
0.4922618762293287
100
AcDbArc
 50
87.0699591668
 51
155.4757639754
  0
LINE
  5
157
330
1F
100
AcDbEntity
  8
0
  6
CONTINUOUS
 62
     7
100
AcDbLine
 10
29.0491068673
 20
85.1138397492
 30
0.0
 11
30.3491068673
 21
85.1138397492
 31
0.0
  0
LINE
  5
158
330
1F
100
AcDbEntity
  8
0
  6
CONTINUOUS
 62
     7
100
AcDbLine
 10
32.0491068673
 20
85.339404132
 30
0.0
 11
30.3491068673
 21
85.339404132
 31
0.0
  0
LINE
  5
159
330
1F
100
AcDbEntity
  8
0
  6
CONTINUOUS
 62
     7
100
AcDbLine
 10
30.3491068673
 20
84.7069961124
 30
0.0
 11
29.0491068673
 21
84.7069961124
 31
0.0
  0
LINE
  5
15A
330
1F
100
AcDbEntity
  8
0
  6
CONTINUOUS
 62
     7
100
AcDbLine
 10
29.0491068673
 20
85.339404132
 30
0.0
 11
26.9272853255
 21
85.339404132
 31
0.0
  0
LINE
  5
15B
330
1F
100
AcDbEntity
  8
0
  6
CONTINUOUS
 62
     7
100
AcDbLine
 10
29.0491068673
 20
84.7069961124
 30
0.0
 11
29.0491068673
 21
84.5463164995
 31
0.0
  0
LINE
  5
15C
330
1F
100
AcDbEntity
  8
0
  6
CONTINUOUS
 62
     7
100
AcDbLine
 10
29.0491068673
 20
85.339404132
 30
0.0
 11
29.0491068673
 21
85.1138397492
 31
0.0
  0
LINE
  5
15D
330
1F
100
AcDbEntity
  8
0
  6
CONTINUOUS
 62
     7
100
AcDbLine
 10
30.3491068673
 20
85.1138397492
 30
0.0
 11
30.3491068673
 21
85.339404132
 31
0.0
  0
LINE
  5
15E
330
1F
100
AcDbEntity
  8
0
  6
CONTINUOUS
 62
     7
100
AcDbLine
 10
30.3491068673
 20
84.5463164995
 30
0.0
 11
30.3491068673
 21
84.7069961124
 31
0.0
  0
LINE
  5
15F
330
1F
100
AcDbEntity
  8
0
  6
CONTINUOUS
 62
     7
100
AcDbLine
 10
32.0491068673
 20
85.339404132
 30
0.0
 11
32.0491068673
 21
84.5463164995
 31
0.0
  0
LINE
  5
160
330
1F
100
AcDbEntity
  8
0
  6
CONTINUOUS
 62
     7
100
AcDbLine
 10
32.0491068673
 20
70.2705621061
 30
0.0
 11
30.3491068673
 21
70.2705621061
 31
0.0
  0
LINE
  5
161
330
1F
100
AcDbEntity
  8
0
  6
CONTINUOUS
 62
     7
100
AcDbLine
 10
30.3491068673
 20
70.2705621061
 30
0.0
 11
30.3491068673
 21
70.4403746893
 31
0.0
  0
LINE
  5
162
330
1F
100
AcDbEntity
  8
0
  6
CONTINUOUS
 62
     7
100
AcDbLine
 10
32.0491068673
 20
70.4403746893
 30
0.0
 11
32.0491068673
 21
70.2705621061
 31
0.0
  0
LINE
  5
163
330
1F
100
AcDbEntity
  8
0
  6
CONTINUOUS
 62
     7
100
AcDbLine
 10
29.0491068673
 20
70.2705621061
 30
0.0
 11
26.9272853255
 21
70.2705621061
 31
0.0
  0
LINE
  5
164
330
1F
100
AcDbEntity
  8
0
  6
CONTINUOUS
 62
     7
100
AcDbLine
 10
26.9272853255
 20
70.4403746893
 30
0.0
 11
26.9272853255
 21
70.2705621061
 31
0.0
  0
LINE
  5
165
330
1F
100
AcDbEntity
  8
0
  6
CONTINUOUS
 62
     7
100
AcDbLine
 10
29.0491068673
 20
70.4403746893
 30
0.0
 11
29.0491068673
 21
70.2705621061
 31
0.0
  0
ARC
  5
166
330
1F
100
AcDbEntity
  8
0
  6
CONTINUOUS
 62
     7
100
AcDbCircle
 10
26.9162930593
 20
70.776976314
 30
0.0
 40
0.5065334932649481
100
AcDbArc
 50
204.1989133781
 51
271.2434713768
  0
LINE
  5
167
330
1F
100
AcDbEntity
  8
0
  6
CONTINUOUS
 62
     7
100
AcDbLine
 10
29.0491068673
 20
84.315364758
 30
0.0
 11
30.3491068673
 21
84.315364758
 31
0.0
  0
SPLINE
  5
168
330
1F
100
AcDbEntity
  8
0
  6
CONTINUOUS
 62
     7
100
AcDbSpline
210
0.0
220
0.0
230
1.0
 70
     8
 71
     3
 72
     8
 73
     4
 74
     0
 42
0.00000001
 43
0.00000001
 40
0.0
 40
0.0
 40
0.0
 40
0.0
 40
1.0
 40
1.0
 40
1.0
 40
1.0
 10
26.92728532546615
 20
70.27056210613512
 30
0.0
 10
26.91443612794917
 20
70.00612330620206
 30
0.0
 10
26.91914839104968
 20
69.7417611788969
 30
0.0
 10
26.94113567977689
 20
69.47747447365605
 30
0.0
  0
ARC
  5
169
330
1F
100
AcDbEntity
  8
0
  6
CONTINUOUS
 62
     7
100
AcDbCircle
 10
26.9110995032
 20
69.9634452381
 30
0.0
 40
0.4868980959044532
100
AcDbArc
 50
204.5224060623
 51
273.5367555387
  0
LINE
  5
16A
330
1F
100
AcDbEntity
  8
0
  6
CONTINUOUS
 62
     7
100
AcDbLine
 10
30.3491068673
 20
70.0449977234
 30
0.0
 11
29.0491068673
 21
70.0449977234
 31
0.0
  0
LINE
  5
16B
330
1F
100
AcDbEntity
  8
0
  6
CONTINUOUS
 62
     7
100
AcDbLine
 10
30.3491068673
 20
69.4774744737
 30
0.0
 11
32.0491068673
 21
69.4774744737
 31
0.0
  0
LINE
  5
16C
330
1F
100
AcDbEntity
  8
0
  6
CONTINUOUS
 62
     7
100
AcDbLine
 10
30.3491068673
 20
69.6381540865
 30
0.0
 11
29.0491068673
 21
69.6381540865
 31
0.0
  0
LINE
  5
16D
330
1F
100
AcDbEntity
  8
0
  6
CONTINUOUS
 62
     7
100
AcDbLine
 10
26.9411356798
 20
69.4774744737
 30
0.0
 11
29.0491068673
 21
69.4774744737
 31
0.0
  0
LINE
  5
16E
330
1F
100
AcDbEntity
  8
0
  6
CONTINUOUS
 62
     7
100
AcDbLine
 10
29.0491068673
 20
69.6381540865
 30
0.0
 11
29.0491068673
 21
69.4774744737
 31
0.0
  0
LINE
  5
16F
330
1F
100
AcDbEntity
  8
0
  6
CONTINUOUS
 62
     7
100
AcDbLine
 10
29.0491068673
 20
70.0449977234
 30
0.0
 11
29.0491068673
 21
70.2705621061
 31
0.0
  0
LINE
  5
170
330
1F
100
AcDbEntity
  8
0
  6
CONTINUOUS
 62
     7
100
AcDbLine
 10
30.3491068673
 20
70.2705621061
 30
0.0
 11
30.3491068673
 21
70.0449977234
 31
0.0
  0
LINE
  5
171
330
1F
100
AcDbEntity
  8
0
  6
CONTINUOUS
 62
     7
100
AcDbLine
 10
30.3491068673
 20
69.4774744737
 30
0.0
 11
30.3491068673
 21
69.6381540865
 31
0.0
  0
LINE
  5
172
330
1F
100
AcDbEntity
  8
0
  6
CONTINUOUS
 62
     7
100
AcDbLine
 10
32.0491068673
 20
70.2705621061
 30
0.0
 11
32.0491068673
 21
69.4774744737
 31
0.0
  0
LINE
  5
173
330
1F
100
AcDbEntity
  8
0
  6
CONTINUOUS
 62
     7
100
AcDbLine
 10
30.3491068673
 20
70.465514105
 30
0.0
 11
29.0491068673
 21
70.465514105
 31
0.0
  0
LINE
  5
174
330
1F
100
AcDbEntity
  8
0
  6
CONTINUOUS
 62
     7
100
AcDbLine
 10
30.3491068673
 20
85.4061548678
 30
0.0
 11
32.0491068673
 21
85.4061548678
 31
0.0
  0
LINE
  5
175
330
1F
100
AcDbEntity
  8
0
  6
CONTINUOUS
 62
     7
100
AcDbLine
 10
30.3491068673
 20
85.339404132
 30
0.0
 11
30.3491068673
 21
85.4061548678
 31
0.0
  0
LINE
  5
176
330
1F
100
AcDbEntity
  8
0
  6
CONTINUOUS
 62
     7
100
AcDbLine
 10
32.0491068673
 20
85.4061548678
 30
0.0
 11
32.0491068673
 21
85.339404132
 31
0.0
  0
LINE
  5
177
330
1F
100
AcDbEntity
  8
0
  6
CONTINUOUS
 62
     7
100
AcDbLine
 10
26.9272853255
 20
85.4061548678
 30
0.0
 11
26.9272853255
 21
85.339404132
 31
0.0
  0
LINE
  5
178
330
1F
100
AcDbEntity
  8
0
  6
CONTINUOUS
 62
     7
100
AcDbLine
 10
26.9272853255
 20
85.4061548678
 30
0.0
 11
29.0491068673
 21
85.4061548678
 31
0.0
  0
LINE
  5
179
330
1F
100
AcDbEntity
  8
0
  6
CONTINUOUS
 62
     7
100
AcDbLine
 10
29.0491068673
 20
85.4061548678
 30
0.0
 11
29.0491068673
 21
85.339404132
 31
0.0
  0
ARC
  5
17A
330
1F
100
AcDbEntity
  8
0
  6
CONTINUOUS
 62
     7
100
AcDbCircle
 10
26.9312829119
 20
84.9078081364
 30
0.0
 40
0.4983627648227392
100
AcDbArc
 50
90.4595995218
 51
163.1685203423
  0
SPLINE
  5
17B
330
1F
100
AcDbEntity
  8
0
  6
CONTINUOUS
 62
     7
100
AcDbSpline
210
0.0
220
0.0
230
1.0
 70
     8
 71
     3
 72
    10
 73
     6
 74
     0
 42
0.00000001
 43
0.00000001
 40
0.0
 40
0.0
 40
0.0
 40
0.0
 40
0.5
 40
0.5
 40
1.0
 40
1.0
 40
1.0
 40
1.0
 10
26.94113567977691
 20
85.61621534087551
 30
0.0
 10
26.77770181031398
 20
85.58121531242918
 30
0.0
 10
26.68301831585832
 20
85.54621099559118
 30
0.0
 10
26.67789204730318
 20
85.47619086966704
 30
0.0
 10
26.76758253795792
 20
85.44117505226835
 30
0.0
 10
26.92728532546615
 20
85.40615486776404
 30
0.0
  0
LINE
  5
17C
330
1F
100
AcDbEntity
  8
0
  6
CONTINUOUS
 62
     7
100
AcDbLine
 10
32.0491068673
 20
85.6162153409
 30
0.0
 11
30.3491068673
 21
85.6162153409
 31
0.0
  0
LINE
  5
17D
330
1F
100
AcDbEntity
  8
0
  6
CONTINUOUS
 62
     7
100
AcDbLine
 10
30.3491068673
 20
85.4061548678
 30
0.0
 11
30.3491068673
 21
85.6162153409
 31
0.0
  0
LINE
  5
17E
330
1F
100
AcDbEntity
  8
0
  6
CONTINUOUS
 62
     7
100
AcDbLine
 10
32.0491068673
 20
85.4061548678
 30
0.0
 11
32.0491068673
 21
85.6162153409
 31
0.0
  0
LINE
  5
17F
330
1F
100
AcDbEntity
  8
0
  6
CONTINUOUS
 62
     7
100
AcDbLine
 10
29.0491068673
 20
85.6162153409
 30
0.0
 11
26.9411356798
 21
85.6162153409
 31
0.0
  0
LINE
  5
180
330
1F
100
AcDbEntity
  8
0
  6
CONTINUOUS
 62
     7
100
AcDbLine
 10
29.0491068673
 20
85.6162153409
 30
0.0
 11
29.0491068673
 21
85.4061548678
 31
0.0
  0
LINE
  5
181
330
1F
100
AcDbEntity
  8
0
  6
CONTINUOUS
 62
     7
100
AcDbLine
 10
30.3491068673
 20
69.4104871755
 30
0.0
 11
30.3491068673
 21
69.4774744737
 31
0.0
  0
LINE
  5
182
330
1F
100
AcDbEntity
  8
0
  6
CONTINUOUS
 62
     7
100
AcDbLine
 10
32.0491068673
 20
69.4774744737
 30
0.0
 11
32.0491068673
 21
69.4104871755
 31
0.0
  0
LINE
  5
183
330
1F
100
AcDbEntity
  8
0
  6
CONTINUOUS
 62
     7
100
AcDbLine
 10
26.9411356798
 20
69.4104871755
 30
0.0
 11
26.9411356798
 21
69.4107237379
 31
0.0
  0
LINE
  5
184
330
1F
100
AcDbEntity
  8
0
  6
CONTINUOUS
 62
     7
100
AcDbLine
 10
29.0491068673
 20
69.4774744737
 30
0.0
 11
29.0491068673
 21
69.4104871755
 31
0.0
  0
LINE
  5
185
330
1F
100
AcDbEntity
  8
0
  6
CONTINUOUS
 62
     7
100
AcDbLine
 10
30.3491068673
 20
82.5998932485
 30
0.0
 11
29.0491068673
 21
82.5998932485
 31
0.0
  0
LINE
  5
186
330
1F
100
AcDbEntity
  8
0
  6
CONTINUOUS
 62
     7
100
AcDbLine
 10
30.3491068673
 20
85.6162153409
 30
0.0
 11
30.3491068673
 21
85.6164519032
 31
0.0
  0
LINE
  5
187
330
1F
100
AcDbEntity
  8
0
  6
CONTINUOUS
 62
     7
100
AcDbLine
 10
32.0491068673
 20
85.6164519032
 30
0.0
 11
32.0491068673
 21
85.6162153409
 31
0.0
  0
LINE
  5
188
330
1F
100
AcDbEntity
  8
0
  6
CONTINUOUS
 62
     7
100
AcDbLine
 10
26.9411356798
 20
85.6164519032
 30
0.0
 11
26.9411356798
 21
85.6162153409
 31
0.0
  0
LINE
  5
189
330
1F
100
AcDbEntity
  8
0
  6
CONTINUOUS
 62
     7
100
AcDbLine
 10
29.0491068673
 20
85.6164519032
 30
0.0
 11
29.0491068673
 21
85.6162153409
 31
0.0
  0
LINE
  5
18A
330
1F
100
AcDbEntity
  8
0
  6
CONTINUOUS
 62
     7
100
AcDbLine
 10
30.3491068673
 20
85.3887849922
 30
0.0
 11
29.0491068673
 21
85.3887849922
 31
0.0
  0
LINE
  5
18B
330
1F
100
AcDbEntity
  8
0
  6
CONTINUOUS
 62
     7
100
AcDbLine
 10
29.0491068673
 20
70.7115743208
 30
0.0
 11
30.3491068673
 21
70.7115743208
 31
0.0
  0
SPLINE
  5
18C
330
1F
100
AcDbEntity
  8
0
  6
CONTINUOUS
 62
     7
100
AcDbSpline
210
0.0
220
0.0
230
1.0
 70
     8
 71
     3
 72
    11
 73
     7
 74
     0
 42
0.00000001
 43
0.00000001
 40
0.0
 40
0.0
 40
0.0
 40
0.0
 40
0.0997448997285822
 40
0.4048349263078331
 40
0.7022110284789621
 40
1.0
 40
1.0
 40
1.0
 40
1.0
 10
26.21348448596789
 20
69.84818783068967
 30
0.0
 10
26.21325459359224
 20
69.84479044264289
 30
0.0
 10
26.21232152871166
 20
69.8310014534986
 30
0.0
 10
26.25598161572917
 20
69.80992708348
 30
0.0
 10
26.33885304645543
 20
69.78446100381765
 30
0.0
 10
26.42501115075753
 20
69.76906298922286
 30
0.0
 10
26.46812008708869
 20
69.76135864108092
 30
0.0
  0
SPLINE
  5
18D
330
1F
100
AcDbEntity
  8
0
  6
CONTINUOUS
 62
     7
100
AcDbSpline
210
0.0
220
0.0
230
1.0
 70
     8
 71
     3
 72
    11
 73
     7
 74
     0
 42
0.00000001
 43
0.00000001
 40
0.0
 40
0.0
 40
0.0
 40
0.0
 40
0.2718117166233412
 40
0.5436347389925305
 40
0.8159121674440769
 40
1.0
 40
1.0
 40
1.0
 40
1.0
 10
26.45426973277795
 20
85.05211292594467
 30
0.0
 10
26.41175115722273
 20
85.06458410960576
 30
0.0
 10
26.3267122375932
 20
85.08952699565482
 30
0.0
 10
26.2470276914026
 20
85.12503727921886
 30
0.0
 10
26.20532507905324
 20
85.15509886493018
 30
0.0
 10
26.2111391970639
 20
85.17195275494957
 30
0.0
 10
26.21348448596789
 20
85.17875124806221
 30
0.0
  0
LWPOLYLINE
  5
18E
330
1F
100
AcDbEntity
  8
0
  6
CONTINUOUS
 62
     7
100
AcDbPolyline
 90
        3
 70
   128
 43
0.0
 10
26.9411356798
 20
85.6162153409
 10
26.8627645379
 20
85.6102560008
 10
26.8391906778
 20
85.6059486294
  0
LINE
  5
18F
330
1F
100
AcDbEntity
  8
0
  6
CONTINUOUS
 62
     7
100
AcDbLine
 10
26.9411356798
 20
69.4774744737
 30
0.0
 11
26.9411356798
 21
69.4104871755
 31
0.0
  0
ARC
  5
190
330
1F
100
AcDbEntity
  8
0
  6
CONTINUOUS
 62
     7
100
AcDbCircle
 10
26.940574844
 20
69.9039682829
 30
0.0
 40
0.4935088725295989
100
AcDbArc
 50
196.7963479127
 51
257.817637378
  0
ENDSEC
  0
SECTION
  2
OBJECTS
  0
DICTIONARY
  5
C
330
0
100
AcDbDictionary
  3
ACAD_GROUP
350
D
  3
ACAD_LAYOUT
350
1A
  3
ACAD_MLEADERSTYLE
350
1B2
  3
ACAD_MLINESTYLE
350
17
  3
ACAD_PLOTSETTINGS
350
19
  3
ACAD_TABLESTYLE
350
1B1
  3
ACAD_VISUALSTYLE
350
2A
  3
ACDBHEADERROUNDTRIPXREC
350
191
  3
ACDBVARIABLEDICTIONARY
350
1B3
  0
DICTIONARY
  5
D
102
{ACAD_REACTORS
330
C
102
}
330
C
100
AcDbDictionary
  0
DICTIONARY
  5
1A
102
{ACAD_REACTORS
330
C
102
}
330
C
100
AcDbDictionary
  0
DICTIONARY
  5
1B2
102
{ACAD_REACTORS
330
C
102
}
330
C
100
AcDbDictionary
  0
DICTIONARY
  5
17
102
{ACAD_REACTORS
330
C
102
}
330
C
100
AcDbDictionary
  3
STANDARD
350
18
  0
DICTIONARY
  5
19
102
{ACAD_REACTORS
330
C
102
}
330
C
100
AcDbDictionary
  0
DICTIONARY
  5
1B1
102
{ACAD_REACTORS
330
C
102
}
330
C
100
AcDbDictionary
  0
DICTIONARY
  5
2A
102
{ACAD_REACTORS
330
C
102
}
330
C
100
AcDbDictionary
  3
2DWIREFRAME
350
2F
  3
3D_HIDDEN
350
31
  3
3DWIREFRAME
350
30
  3
BASIC
350
32
  3
BRIGHTEN
350
36
  3
COLORCHANGE
350
3A
  3
CONCEPTUAL
350
34
  3
DIM
350
35
  3
FACEPATTERN
350
39
  3
FLAT
350
2B
  3
FLATWITHEDGES
350
2C
  3
GOURAUD
350
2D
  3
GOURAUDWITHEDGES
350
2E
  3
LINEPATTERN
350
38
  3
REALISTIC
350
33
  3
THICKEN
350
37
  0
DICTIONARY
  5
191
102
{ACAD_REACTORS
330
C
102
}
330
C
100
AcDbDictionary
  3
CEPSNTYPE
350
19A
  3
DIMSTYLEDATA
350
1B0
  3
FINGERPRINTGUID
350
19B
  3
HYPERLINKBASE
350
194
  3
INSUNITS
350
199
  3
LAYOUTDICT
350
196
  3
LWETCUNION
350
198
  3
PLOTSETDICT
350
197
  3
PSVPSCALE
350
19D
  3
PUCSBASE
350
1A0
  3
PUCSORGBACK
350
1A6
  3
PUCSORGBOTTOM
350
1A2
  3
PUCSORGFRONT
350
1A5
  3
PUCSORGLEFT
350
1A3
  3
PUCSORGRIGHT
350
1A4
  3
PUCSORGTOP
350
1A1
  3
PUCSORTHOREF
350
19E
  3
PUCSORTHOVIEW
350
19F
  3
STYLESHEET
350
195
  3
TSTACKALIGN
350
192
  3
TSTACKSIZE
350
193
  3
UCSBASE
350
1A9
  3
UCSORGBACK
350
1AF
  3
UCSORGBOTTOM
350
1AB
  3
UCSORGFRONT
350
1AE
  3
UCSORGLEFT
350
1AC
  3
UCSORGRIGHT
350
1AD
  3
UCSORGTOP
350
1AA
  3
UCSORTHOREF
350
1A7
  3
UCSORTHOVIEW
350
1A8
  3
VERSIONGUID
350
19C
  0
DICTIONARY
  5
1B3
102
{ACAD_REACTORS
330
C
102
}
330
C
100
AcDbDictionary
  3
PSOLHEIGHT
350
1B5
  3
PSOLWIDTH
350
1B4
  0
MLINESTYLE
  5
18
102
{ACAD_REACTORS
330
17
102
}
330
17
100
AcDbMlineStyle
  2
Standard
 70
     0
  3

 62
   256
 51
90.0
 52
90.0
 71
     2
 49
0.5
 62
   256
  6
BYLAYER
 49
-0.5
 62
   256
  6
BYLAYER
  0
VISUALSTYLE
  5
2F
102
{ACAD_REACTORS
330
2A
102
}
330
2A
100
AcDbVisualStyle
  2
2dWireframe
 70
     4
 71
     0
 72
     2
 73
     0
 90
        0
 40
-0.6
 41
-30.0
 62
     5
 63
     7
 74
     1
 91
        4
 64
     7
 65
   257
 75
     1
175
     1
 42
1.0
 92
        0
 66
   257
 43
1.0
 76
     1
 77
     6
 78
     2
 67
     7
 79
     5
170
     0
171
     0
290
     0
174
     0
 93
        1
 44
0.0
173
     0
291
     0
 45
0.0
1001
ACAD
1000
AcDbSavedByObjectVersion
1070
     0
  0
VISUALSTYLE
  5
31
102
{ACAD_REACTORS
330
2A
102
}
330
2A
100
AcDbVisualStyle
  2
3D Hidden
 70
     6
 71
     1
 72
     2
 73
     2
 90
        0
 40
-0.6
 41
-30.0
 62
     5
 63
     7
 74
     2
 91
        2
 64
     7
 65
   257
 75
     2
175
     1
 42
40.0
 92
        0
 66
   257
 43
1.0
 76
     1
 77
     6
 78
     2
 67
     7
 79
     3
170
     0
171
     0
290
     0
174
     0
 93
        1
 44
0.0
173
     0
291
     0
 45
0.0
1001
ACAD
1000
AcDbSavedByObjectVersion
1070
     0
  0
VISUALSTYLE
  5
30
102
{ACAD_REACTORS
330
2A
102
}
330
2A
100
AcDbVisualStyle
  2
3dWireframe
 70
     5
 71
     0
 72
     2
 73
     0
 90
        0
 40
-0.6
 41
-30.0
 62
     5
 63
     7
 74
     1
 91
        4
 64
     7
 65
   257
 75
     1
175
     1
 42
1.0
 92
        0
 66
   257
 43
1.0
 76
     1
 77
     6
 78
     2
 67
     7
 79
     5
170
     0
171
     0
290
     0
174
     0
 93
        1
 44
0.0
173
     0
291
     0
 45
0.0
1001
ACAD
1000
AcDbSavedByObjectVersion
1070
     0
  0
VISUALSTYLE
  5
32
102
{ACAD_REACTORS
330
2A
102
}
330
2A
100
AcDbVisualStyle
  2
Basic
 70
     7
 71
     1
 72
     0
 73
     1
 90
        0
 40
-0.6
 41
-30.0
 62
     5
 63
     7
 74
     0
 91
        4
 64
     7
 65
   257
 75
     1
175
     1
 42
1.0
 92
        8
 66
     7
 43
1.0
 76
     1
 77
     6
 78
     2
 67
     7
 79
     5
170
     0
171
     0
290
     0
174
     0
 93
        1
 44
0.0
173
     0
291
     1
 45
0.0
1001
ACAD
1000
AcDbSavedByObjectVersion
1070
     0
  0
VISUALSTYLE
  5
36
102
{ACAD_REACTORS
330
2A
102
}
330
2A
100
AcDbVisualStyle
  2
Brighten
 70
    12
 71
     2
 72
     2
 73
     0
 90
        0
 40
-0.6
 41
-30.0
 62
     5
 63
     7
 74
     1
 91
        4
 64
     7
 65
   257
 75
     1
175
     1
 42
1.0
 92
        8
 66
     7
 43
1.0
 76
     1
 77
     6
 78
     2
 67
     7
 79
     5
170
     0
171
     0
290
     0
174
     0
 93
        1
 44
50.0
173
     0
291
     1
 45
0.0
1001
ACAD
1000
AcDbSavedByObjectVersion
1070
     0
  0
VISUALSTYLE
  5
3A
102
{ACAD_REACTORS
330
2A
102
}
330
2A
100
AcDbVisualStyle
  2
ColorChange
 70
    16
 71
     2
 72
     2
 73
     3
 90
        0
 40
-0.6
 41
-30.0
 62
     5
 63
     8
 74
     1
 91
        4
 64
     7
 65
   257
 75
     1
175
     1
 42
1.0
 92
        8
 66
     8
 43
1.0
 76
     1
 77
     6
 78
     2
 67
     7
 79
     5
170
     0
171
     0
290
     0
174
     0
 93
        1
 44
0.0
173
     0
291
     1
 45
0.0
1001
ACAD
1000
AcDbSavedByObjectVersion
1070
     0
  0
VISUALSTYLE
  5
34
102
{ACAD_REACTORS
330
2A
102
}
330
2A
100
AcDbVisualStyle
  2
Conceptual
 70
     9
 71
     3
 72
     2
 73
     0
 90
        0
 40
-0.6
 41
-30.0
 62
     5
 63
     7
 74
     2
 91
        2
 64
     7
 65
   257
 75
     1
175
     1
 42
40.0
 92
        8
 66
     7
 43
1.0
 76
     1
 77
     6
 78
     2
 67
     7
 79
     3
170
     0
171
     0
290
     0
174
     0
 93
        1
 44
0.0
173
     0
291
     0
 45
0.0
1001
ACAD
1000
AcDbSavedByObjectVersion
1070
     0
  0
VISUALSTYLE
  5
35
102
{ACAD_REACTORS
330
2A
102
}
330
2A
100
AcDbVisualStyle
  2
Dim
 70
    11
 71
     2
 72
     2
 73
     0
 90
        0
 40
-0.6
 41
-30.0
 62
     5
 63
     7
 74
     1
 91
        4
 64
     7
 65
   257
 75
     1
175
     1
 42
1.0
 92
        8
 66
     7
 43
1.0
 76
     1
 77
     6
 78
     2
 67
     7
 79
     5
170
     0
171
     0
290
     0
174
     0
 93
        1
 44
-50.0
173
     0
291
     1
 45
0.0
1001
ACAD
1000
AcDbSavedByObjectVersion
1070
     0
  0
VISUALSTYLE
  5
39
102
{ACAD_REACTORS
330
2A
102
}
330
2A
100
AcDbVisualStyle
  2
Facepattern
 70
    15
 71
     2
 72
     2
 73
     0
 90
        0
 40
-0.6
 41
-30.0
 62
     5
 63
     7
 74
     1
 91
        4
 64
     7
 65
   257
 75
     1
175
     1
 42
1.0
 92
        8
 66
     7
 43
1.0
 76
     1
 77
     6
 78
     2
 67
     7
 79
     5
170
     0
171
     0
290
     0
174
     0
 93
        1
 44
0.0
173
     0
291
     1
 45
0.0
1001
ACAD
1000
AcDbSavedByObjectVersion
1070
     0
  0
VISUALSTYLE
  5
2B
102
{ACAD_REACTORS
330
2A
102
}
330
2A
100
AcDbVisualStyle
  2
Flat
 70
     0
 71
     2
 72
     1
 73
     1
 90
        2
 40
-0.6
 41
30.0
 62
     5
 63
     7
 74
     0
 91
        4
 64
     7
 65
   257
 75
     1
175
     1
 42
1.0
 92
        8
 66
     7
 43
1.0
 76
     1
 77
     6
 78
     2
 67
     7
 79
     5
170
     0
171
     0
290
     0
174
     0
 93
       13
 44
0.0
173
     0
291
     1
 45
0.0
1001
ACAD
1000
AcDbSavedByObjectVersion
1070
     0
  0
VISUALSTYLE
  5
2C
102
{ACAD_REACTORS
330
2A
102
}
330
2A
100
AcDbVisualStyle
  2
FlatWithEdges
 70
     1
 71
     2
 72
     1
 73
     1
 90
        2
 40
-0.6
 41
30.0
 62
     5
 63
     7
 74
     1
 91
        4
 64
     7
 65
   257
 75
     1
175
     1
 42
1.0
 92
        0
 66
   257
 43
1.0
 76
     1
 77
     6
 78
     2
 67
     7
 79
     5
170
     0
171
     0
290
     0
174
     0
 93
       13
 44
0.0
173
     0
291
     1
 45
0.0
1001
ACAD
1000
AcDbSavedByObjectVersion
1070
     0
  0
VISUALSTYLE
  5
2D
102
{ACAD_REACTORS
330
2A
102
}
330
2A
100
AcDbVisualStyle
  2
Gouraud
 70
     2
 71
     2
 72
     2
 73
     1
 90
        2
 40
-0.6
 41
30.0
 62
     5
 63
     7
 74
     0
 91
        4
 64
     7
 65
   257
 75
     1
175
     1
 42
1.0
 92
        0
 66
     7
 43
1.0
 76
     1
 77
     6
 78
     2
 67
     7
 79
     5
170
     0
171
     0
290
     0
174
     0
 93
       13
 44
0.0
173
     0
291
     1
 45
0.0
1001
ACAD
1000
AcDbSavedByObjectVersion
1070
     0
  0
VISUALSTYLE
  5
2E
102
{ACAD_REACTORS
330
2A
102
}
330
2A
100
AcDbVisualStyle
  2
GouraudWithEdges
 70
     3
 71
     2
 72
     2
 73
     1
 90
        2
 40
-0.6
 41
30.0
 62
     5
 63
     7
 74
     1
 91
        4
 64
     7
 65
   257
 75
     1
175
     1
 42
1.0
 92
        0
 66
   257
 43
1.0
 76
     1
 77
     6
 78
     2
 67
     7
 79
     5
170
     0
171
     0
290
     0
174
     0
 93
       13
 44
0.0
173
     0
291
     1
 45
0.0
1001
ACAD
1000
AcDbSavedByObjectVersion
1070
     0
  0
VISUALSTYLE
  5
38
102
{ACAD_REACTORS
330
2A
102
}
330
2A
100
AcDbVisualStyle
  2
Linepattern
 70
    14
 71
     2
 72
     2
 73
     0
 90
        0
 40
-0.6
 41
-30.0
 62
     5
 63
     7
 74
     1
 91
        4
 64
     7
 65
   257
 75
     7
175
     7
 42
1.0
 92
        8
 66
     7
 43
1.0
 76
     1
 77
     6
 78
     2
 67
     7
 79
     5
170
     0
171
     0
290
     0
174
     0
 93
        1
 44
0.0
173
     0
291
     1
 45
0.0
1001
ACAD
1000
AcDbSavedByObjectVersion
1070
     0
  0
VISUALSTYLE
  5
33
102
{ACAD_REACTORS
330
2A
102
}
330
2A
100
AcDbVisualStyle
  2
Realistic
 70
     8
 71
     2
 72
     2
 73
     0
 90
        0
 40
-0.6
 41
-30.0
 62
     5
 63
     7
 74
     1
 91
        0
 64
     7
 65
   257
 75
     1
175
     1
 42
1.0
 92
        8
 66
     8
 43
1.0
 76
     1
 77
     6
 78
     2
 67
     7
 79
     5
170
     0
171
     0
290
     0
174
     0
 93
       13
 44
0.0
173
     0
291
     0
 45
0.0
1001
ACAD
1000
AcDbSavedByObjectVersion
1070
     0
  0
VISUALSTYLE
  5
37
102
{ACAD_REACTORS
330
2A
102
}
330
2A
100
AcDbVisualStyle
  2
Thicken
 70
    13
 71
     2
 72
     2
 73
     0
 90
        0
 40
-0.6
 41
-30.0
 62
     5
 63
     7
 74
     1
 91
        4
 64
     7
 65
   257
 75
     1
175
     1
 42
1.0
 92
       12
 66
     7
 43
1.0
 76
     1
 77
     6
 78
     2
 67
     7
 79
     5
170
     0
171
     0
290
     0
174
     0
 93
        1
 44
0.0
173
     0
291
     1
 45
0.0
1001
ACAD
1000
AcDbSavedByObjectVersion
1070
     0
  0
XRECORD
  5
19A
102
{ACAD_REACTORS
330
191
102
}
330
191
100
AcDbXrecord
 90
        0
  0
XRECORD
  5
1B0
102
{ACAD_REACTORS
330
191
102
}
330
191
100
AcDbXrecord
1000
DSTYLE
1002
{
1070
   179
 70
     2
1070
   143
 40
0.0393700787
1070
    41
 40
3.0
1070
    44
 40
0.5
1070
    42
 40
0.5
1070
   147
 40
0.762
1070
    73
 70
     1
1070
    74
 70
     1
1070
   340
340
11
1070
   140
 40
1.75
1070
   284
 70
     0
1070
    78
 70
     0
1002
}
  0
XRECORD
  5
19B
102
{ACAD_REACTORS
330
191
102
}
330
191
100
AcDbXrecord
  1
{A012ACC0-951F-414E-8D4F-6E8CDBC9DE78}
  0
XRECORD
  5
194
102
{ACAD_REACTORS
330
191
102
}
330
191
100
AcDbXrecord
  1

  0
XRECORD
  5
199
102
{ACAD_REACTORS
330
191
102
}
330
191
100
AcDbXrecord
 90
        4
  0
XRECORD
  5
196
102
{ACAD_REACTORS
330
191
102
}
330
191
100
AcDbXrecord
340
1A
  0
XRECORD
  5
198
102
{ACAD_REACTORS
330
191
102
}
330
191
100
AcDbXrecord
 90
    10269
  0
XRECORD
  5
197
102
{ACAD_REACTORS
330
191
102
}
330
191
100
AcDbXrecord
340
19
  0
XRECORD
  5
19D
102
{ACAD_REACTORS
330
191
102
}
330
191
100
AcDbXrecord
 40
0.0
  0
XRECORD
  5
1A0
102
{ACAD_REACTORS
330
191
102
}
330
191
100
AcDbXrecord
340
0
  0
XRECORD
  5
1A6
102
{ACAD_REACTORS
330
191
102
}
330
191
100
AcDbXrecord
 10
0.0
 20
0.0
 30
0.0
  0
XRECORD
  5
1A2
102
{ACAD_REACTORS
330
191
102
}
330
191
100
AcDbXrecord
 10
0.0
 20
0.0
 30
0.0
  0
XRECORD
  5
1A5
102
{ACAD_REACTORS
330
191
102
}
330
191
100
AcDbXrecord
 10
0.0
 20
0.0
 30
0.0
  0
XRECORD
  5
1A3
102
{ACAD_REACTORS
330
191
102
}
330
191
100
AcDbXrecord
 10
0.0
 20
0.0
 30
0.0
  0
XRECORD
  5
1A4
102
{ACAD_REACTORS
330
191
102
}
330
191
100
AcDbXrecord
 10
0.0
 20
0.0
 30
0.0
  0
XRECORD
  5
1A1
102
{ACAD_REACTORS
330
191
102
}
330
191
100
AcDbXrecord
 10
0.0
 20
0.0
 30
0.0
  0
XRECORD
  5
19E
102
{ACAD_REACTORS
330
191
102
}
330
191
100
AcDbXrecord
340
0
  0
XRECORD
  5
19F
102
{ACAD_REACTORS
330
191
102
}
330
191
100
AcDbXrecord
 70
     0
  0
XRECORD
  5
195
102
{ACAD_REACTORS
330
191
102
}
330
191
100
AcDbXrecord
  1

  0
XRECORD
  5
192
102
{ACAD_REACTORS
330
191
102
}
330
191
100
AcDbXrecord
 90
        1
  0
XRECORD
  5
193
102
{ACAD_REACTORS
330
191
102
}
330
191
100
AcDbXrecord
 90
       70
  0
XRECORD
  5
1A9
102
{ACAD_REACTORS
330
191
102
}
330
191
100
AcDbXrecord
340
0
  0
XRECORD
  5
1AF
102
{ACAD_REACTORS
330
191
102
}
330
191
100
AcDbXrecord
 10
0.0
 20
0.0
 30
0.0
  0
XRECORD
  5
1AB
102
{ACAD_REACTORS
330
191
102
}
330
191
100
AcDbXrecord
 10
0.0
 20
0.0
 30
0.0
  0
XRECORD
  5
1AE
102
{ACAD_REACTORS
330
191
102
}
330
191
100
AcDbXrecord
 10
0.0
 20
0.0
 30
0.0
  0
XRECORD
  5
1AC
102
{ACAD_REACTORS
330
191
102
}
330
191
100
AcDbXrecord
 10
0.0
 20
0.0
 30
0.0
  0
XRECORD
  5
1AD
102
{ACAD_REACTORS
330
191
102
}
330
191
100
AcDbXrecord
 10
0.0
 20
0.0
 30
0.0
  0
XRECORD
  5
1AA
102
{ACAD_REACTORS
330
191
102
}
330
191
100
AcDbXrecord
 10
0.0
 20
0.0
 30
0.0
  0
XRECORD
  5
1A7
102
{ACAD_REACTORS
330
191
102
}
330
191
100
AcDbXrecord
340
0
  0
XRECORD
  5
1A8
102
{ACAD_REACTORS
330
191
102
}
330
191
100
AcDbXrecord
 70
     0
  0
XRECORD
  5
19C
102
{ACAD_REACTORS
330
191
102
}
330
191
100
AcDbXrecord
  1
{FAEB1C32-E019-11D5-929B-00C0DF256EC4}
  0
DICTIONARYVAR
  5
1B5
102
{ACAD_REACTORS
330
1B3
102
}
330
1B3
100
DictionaryVariables
280
     0
  1
80.000000
  0
DICTIONARYVAR
  5
1B4
102
{ACAD_REACTORS
330
1B3
102
}
330
1B3
100
DictionaryVariables
280
     0
  1
5.000000
  0
ENDSEC
  0
EOF
