  0
SECTION
  2
HEADER
  9
$ACADVER
  1
AC1014
  9
$ACADMAINTVER
 70
     9
  9
$DWGCODEPAGE
  3
ANSI_1252
  9
$INSBASE
 10
0.0
 20
0.0
 30
0.0
  9
$EXTMIN
 10
0.0
 20
0.0
 30
0.0
  9
$EXTMAX
 10
840.0
 20
594.0
 30
0.0
  9
$LIMMIN
 10
0.0
 20
0.0
  9
$LIMMAX
 10
840.0
 20
594.0
  9
$ORTHOMODE
 70
     0
  9
$REGENMODE
 70
     1
  9
$FILLMODE
 70
     1
  9
$QTEXTMODE
 70
     0
  9
$MIRRTEXT
 70
     1
  9
$DRAGMODE
 70
     2
  9
$LTSCALE
 40
1.0
  9
$OSMODE
 70
    37
  9
$ATTMODE
 70
     1
  9
$TEXTSIZE
 40
7.0
  9
$TRACEWID
 40
1.0
  9
$TEXTSTYLE
  7
STANDARD
  9
$CLAYER
  8
0
  9
$CELTYPE
  6
BYLAYER
  9
$CECOLOR
 62
   256
  9
$CELTSCALE
 40
1.0
  9
$DELOBJ
 70
     1
  9
$DISPSILH
 70
     0
  9
$DIMSCALE
 40
1.0
  9
$DIMASZ
 40
12.0
  9
$DIMEXO
 40
2.0
  9
$DIMDLI
 40
3.75
  9
$DIMRND
 40
0.0
  9
$DIMDLE
 40
0.0
  9
$DIMEXE
 40
2.0
  9
$DIMTP
 40
0.0
  9
$DIMTM
 40
0.0
  9
$DIMTXT
 40
7.0
  9
$DIMCEN
 40
2.5
  9
$DIMTSZ
 40
0.0
  9
$DIMTOL
 70
     0
  9
$DIMLIM
 70
     0
  9
$DIMTIH
 70
     1
  9
$DIMTOH
 70
     1
  9
$DIMSE1
 70
     0
  9
$DIMSE2
 70
     0
  9
$DIMTAD
 70
     1
  9
$DIMZIN
 70
     0
  9
$DIMBLK
  1

  9
$DIMASO
 70
     1
  9
$DIMSHO
 70
     1
  9
$DIMPOST
  1

  9
$DIMAPOST
  1

  9
$DIMALT
 70
     0
  9
$DIMALTD
 70
     3
  9
$DIMALTF
 40
0.0393700787
  9
$DIMLFAC
 40
1.0
  9
$DIMTOFL
 70
     1
  9
$DIMTVP
 40
0.0
  9
$DIMTIX
 70
     0
  9
$DIMSOXD
 70
     0
  9
$DIMSAH
 70
     0
  9
$DIMBLK1
  1

  9
$DIMBLK2
  1

  9
$DIMSTYLE
  2
ISO-25
  9
$DIMCLRD
 70
     0
  9
$DIMCLRE
 70
     0
  9
$DIMCLRT
 70
     0
  9
$DIMTFAC
 40
1.0
  9
$DIMGAP
 40
3.048
  9
$DIMJUST
 70
     0
  9
$DIMSD1
 70
     0
  9
$DIMSD2
 70
     0
  9
$DIMTOLJ
 70
     0
  9
$DIMTZIN
 70
     0
  9
$DIMALTZ
 70
     0
  9
$DIMALTTZ
 70
     0
  9
$DIMFIT
 70
     3
  9
$DIMUPT
 70
     0
  9
$DIMUNIT
 70
     2
  9
$DIMDEC
 70
     2
  9
$DIMTDEC
 70
     2
  9
$DIMALTU
 70
     2
  9
$DIMALTTD
 70
     3
  9
$DIMTXSTY
  7
STANDARD
  9
$DIMAUNIT
 70
     0
  9
$LUNITS
 70
     2
  9
$LUPREC
 70
     2
  9
$SKETCHINC
 40
1.0
  9
$FILLETRAD
 40
10.0
  9
$AUNITS
 70
     0
  9
$AUPREC
 70
     2
  9
$MENU
  1
.
  9
$ELEVATION
 40
0.0
  9
$PELEVATION
 40
0.0
  9
$THICKNESS
 40
0.0
  9
$LIMCHECK
 70
     0
  9
$CHAMFERA
 40
10.0
  9
$CHAMFERB
 40
10.0
  9
$CHAMFERC
 40
20.0
  9
$CHAMFERD
 40
0.0
  9
$SKPOLY
 70
     0
  9
$TDCREATE
 40
2455260.631761065
  9
$TDUPDATE
 40
2455260.631761076
  9
$TDINDWG
 40
0.0000000116
  9
$TDUSRTIMER
 40
0.0000000116
  9
$USRTIMER
 70
     1
  9
$ANGBASE
 50
0.0
  9
$ANGDIR
 70
     0
  9
$PDMODE
 70
     0
  9
$PDSIZE
 40
-1.0
  9
$PLINEWID
 40
0.0
  9
$COORDS
 70
     1
  9
$SPLFRAME
 70
     0
  9
$SPLINETYPE
 70
     6
  9
$SPLINESEGS
 70
     8
  9
$ATTDIA
 70
     0
  9
$ATTREQ
 70
     1
  9
$HANDLING
 70
     1
  9
$HANDSEED
  5
543
  9
$SURFTAB1
 70
     6
  9
$SURFTAB2
 70
     6
  9
$SURFTYPE
 70
     6
  9
$SURFU
 70
     6
  9
$SURFV
 70
     6
  9
$UCSNAME
  2

  9
$UCSORG
 10
0.0
 20
0.0
 30
0.0
  9
$UCSXDIR
 10
1.0
 20
0.0
 30
0.0
  9
$UCSYDIR
 10
0.0
 20
1.0
 30
0.0
  9
$PUCSNAME
  2

  9
$PUCSORG
 10
0.0
 20
0.0
 30
0.0
  9
$PUCSXDIR
 10
1.0
 20
0.0
 30
0.0
  9
$PUCSYDIR
 10
0.0
 20
1.0
 30
0.0
  9
$USERI1
 70
     0
  9
$USERI2
 70
     0
  9
$USERI3
 70
     0
  9
$USERI4
 70
     0
  9
$USERI5
 70
     0
  9
$USERR1
 40
0.0
  9
$USERR2
 40
0.0
  9
$USERR3
 40
0.0
  9
$USERR4
 40
0.0
  9
$USERR5
 40
0.0
  9
$WORLDVIEW
 70
     1
  9
$SHADEDGE
 70
     3
  9
$SHADEDIF
 70
    70
  9
$TILEMODE
 70
     1
  9
$MAXACTVP
 70
    64
  9
$PINSBASE
 10
0.0
 20
0.0
 30
0.0
  9
$PLIMCHECK
 70
     0
  9
$PEXTMIN
 10
1.0000000000E+20
 20
1.0000000000E+20
 30
1.0000000000E+20
  9
$PEXTMAX
 10
-1.0000000000E+20
 20
-1.0000000000E+20
 30
-1.0000000000E+20
  9
$PLIMMIN
 10
0.0
 20
0.0
  9
$PLIMMAX
 10
420.0
 20
297.0
  9
$UNITMODE
 70
     0
  9
$VISRETAIN
 70
     1
  9
$PLINEGEN
 70
     0
  9
$PSLTSCALE
 70
     1
  9
$TREEDEPTH
 70
  3020
  9
$PICKSTYLE
 70
     1
  9
$CMLSTYLE
  2
STANDARD
  9
$CMLJUST
 70
     0
  9
$CMLSCALE
 40
20.0
  9
$PROXYGRAPHICS
 70
     1
  9
$MEASUREMENT
 70
     1
  0
ENDSEC
  0
SECTION
  2
CLASSES
  0
CLASS
  1
ACDBDICTIONARYWDFLT
  2
AcDbDictionaryWithDefault
  3
ObjectDBX Classes
 90
        0
280
     0
281
     0
  0
CLASS
  1
VISUALSTYLE
  2
AcDbVisualStyle
  3
ObjectDBX Classes
 90
     4095
280
     0
281
     0
  0
CLASS
  1
DICTIONARYVAR
  2
AcDbDictionaryVar
  3
ObjectDBX Classes
 90
        0
280
     0
281
     0
  0
CLASS
  1
XRECORD
  2
AcDbXrecord
  3
AutoCAD 2000
 90
        0
280
     0
281
     0
  0
CLASS
  1
LWPOLYLINE
  2
AcDbPolyline
  3
AutoCAD 2000
 90
        0
280
     0
281
     1
  0
CLASS
  1
HATCH
  2
AcDbHatch
  3
AutoCAD 2000
 90
        0
280
     0
281
     1
  0
CLASS
  1
ACDBPLACEHOLDER
  2
AcDbPlaceHolder
  3
ObjectDBX Classes
 90
        0
280
     0
281
     0
  0
CLASS
  1
LAYOUT
  2
AcDbLayout
  3
ObjectDBX Classes
 90
        0
280
     0
281
     0
  0
ENDSEC
  0
SECTION
  2
TABLES
  0
TABLE
  2
VPORT
  5
8
330
0
100
AcDbSymbolTable
 70
     1
  0
VPORT
  5
29
330
8
100
AcDbSymbolTableRecord
100
AcDbViewportTableRecord
  2
*ACTIVE
 70
     0
 10
0.0
 20
0.0
 11
1.0
 21
1.0
 12
420.0
 22
297.0
 13
0.0
 23
0.0
 14
10.0
 24
10.0
 15
10.0
 25
10.0
 16
0.0
 26
0.0
 36
1.0
 17
0.0
 27
0.0
 37
0.0
 40
594.0
 41
1.4141414141
 42
50.0
 43
0.0
 44
0.0
 50
0.0
 51
0.0
 71
     0
 72
  2000
 73
     1
 74
     3
 75
     0
 76
     0
 77
     0
 78
     0
  0
ENDTAB
  0
TABLE
  2
LTYPE
  5
5
330
0
100
AcDbSymbolTable
 70
     6
  0
LTYPE
  5
14
330
5
100
AcDbSymbolTableRecord
100
AcDbLinetypeTableRecord
  2
BYBLOCK
 70
     0
  3

 72
    65
 73
     0
 40
0.0
  0
LTYPE
  5
15
330
5
100
AcDbSymbolTableRecord
100
AcDbLinetypeTableRecord
  2
BYLAYER
 70
     0
  3

 72
    65
 73
     0
 40
0.0
  0
LTYPE
  5
16
330
5
100
AcDbSymbolTableRecord
100
AcDbLinetypeTableRecord
  2
CONTINUOUS
 70
     0
  3
Solid line
 72
    65
 73
     0
 40
0.0
  0
LTYPE
  5
3B
330
5
100
AcDbSymbolTableRecord
100
AcDbLinetypeTableRecord
  2
HIDDEN
 70
     0
  3
Hidden __ __ __ __ __ __ __ __ __ __ __ __ __ __
 72
    65
 73
     2
 40
1.905
 49
1.27
 74
     0
 49
-0.635
 74
     0
  0
LTYPE
  5
3C
330
5
100
AcDbSymbolTableRecord
100
AcDbLinetypeTableRecord
  2
PHANTOM
 70
     0
  3
Phantom ______  __  __  ______  __  __  ______
 72
    65
 73
     6
 40
12.7
 49
6.35
 74
     0
 49
-1.27
 74
     0
 49
1.27
 74
     0
 49
-1.27
 74
     0
 49
1.27
 74
     0
 49
-1.27
 74
     0
  0
LTYPE
  5
3D
330
5
100
AcDbSymbolTableRecord
100
AcDbLinetypeTableRecord
  2
CENTER
 70
     0
  3
Center ____ _ ____ _ ____ _ ____ _ ____ _ ____
 72
    65
 73
     4
 40
10.16
 49
6.35
 74
     0
 49
-1.27
 74
     0
 49
1.27
 74
     0
 49
-1.27
 74
     0
  0
LTYPE
  5
3E
330
5
100
AcDbSymbolTableRecord
100
AcDbLinetypeTableRecord
  2
CENTERX2
 70
     0
  3
Center (2x) ________  __  ________  __  _____
 72
    65
 73
     4
 40
20.32
 49
12.7
 74
     0
 49
-2.54
 74
     0
 49
2.54
 74
     0
 49
-2.54
 74
     0
  0
LTYPE
  5
3F
330
5
100
AcDbSymbolTableRecord
100
AcDbLinetypeTableRecord
  2
DOT2
 70
     0
  3
Dot (.5x) ........................................
 72
    65
 73
     2
 40
0.635
 49
0.0
 74
     0
 49
-0.635
 74
     0
  0
ENDTAB
  0
TABLE
  2
LAYER
  5
2
330
0
100
AcDbSymbolTable
 70
     1
  0
LAYER
  5
10
330
2
100
AcDbSymbolTableRecord
100
AcDbLayerTableRecord
  2
0
 70
     0
 62
     7
  6
CONTINUOUS
  0
ENDTAB
  0
TABLE
  2
STYLE
  5
3
330
0
100
AcDbSymbolTable
 70
     1
  0
STYLE
  5
11
330
3
100
AcDbSymbolTableRecord
100
AcDbTextStyleTableRecord
  2
STANDARD
 70
     0
 40
0.0
 41
1.0
 50
0.0
 71
     0
 42
2.5
  3
txt
  4

  0
ENDTAB
  0
TABLE
  2
VIEW
  5
6
330
0
100
AcDbSymbolTable
 70
     0
  0
ENDTAB
  0
TABLE
  2
UCS
  5
7
330
0
100
AcDbSymbolTable
 70
     0
  0
ENDTAB
  0
TABLE
  2
APPID
  5
9
330
0
100
AcDbSymbolTable
 70
     1
  0
APPID
  5
12
330
9
100
AcDbSymbolTableRecord
100
AcDbRegAppTableRecord
  2
ACAD
 70
     0
  0
ENDTAB
  0
TABLE
  2
DIMSTYLE
  5
A
330
0
100
AcDbSymbolTable
 70
     1
  0
DIMSTYLE
105
27
330
A
100
AcDbSymbolTableRecord
100
AcDbDimStyleTableRecord
  2
ISO-25
 70
     0
  3

  4

  5

  6

  7

 40
1.0
 41
2.5
 42
0.625
 43
3.75
 44
1.25
 45
0.0
 46
0.0
 47
0.0
 48
0.0
140
2.5
141
2.5
142
0.0
143
0.0393700787
144
1.0
145
0.0
146
1.0
147
0.625
 71
     0
 72
     0
 73
     0
 74
     0
 75
     0
 76
     0
 77
     1
 78
     8
170
     0
171
     3
172
     1
173
     0
174
     0
175
     0
176
     0
177
     0
178
     0
270
     2
271
     2
272
     2
273
     2
274
     3
340
11
275
     0
280
     0
281
     0
282
     0
283
     0
284
     8
285
     0
286
     0
287
     3
288
     0
  0
ENDTAB
  0
TABLE
  2
BLOCK_RECORD
  5
1
330
0
100
AcDbSymbolTable
 70
     1
  0
BLOCK_RECORD
  5
1F
330
1
100
AcDbSymbolTableRecord
100
AcDbBlockTableRecord
  2
*MODEL_SPACE
  0
BLOCK_RECORD
  5
1B
330
1
100
AcDbSymbolTableRecord
100
AcDbBlockTableRecord
  2
*PAPER_SPACE
  0
ENDTAB
  0
ENDSEC
  0
SECTION
  2
BLOCKS
  0
BLOCK
  5
20
330
1F
100
AcDbEntity
  8
0
100
AcDbBlockBegin
  2
*MODEL_SPACE
 70
     0
 10
0.0
 20
0.0
 30
0.0
  3
*MODEL_SPACE
  1

  0
ENDBLK
  5
21
330
1F
100
AcDbEntity
  8
0
100
AcDbBlockEnd
  0
BLOCK
  5
1C
330
1B
100
AcDbEntity
 67
     1
  8
0
100
AcDbBlockBegin
  2
*PAPER_SPACE
 70
     0
 10
0.0
 20
0.0
 30
0.0
  3
*PAPER_SPACE
  1

  0
ENDBLK
  5
1D
330
1B
100
AcDbEntity
 67
     1
  8
0
100
AcDbBlockEnd
  0
ENDSEC
  0
SECTION
  2
ENTITIES
  0
LINE
  5
40
330
1F
100
AcDbEntity
  8
0
  6
CONTINUOUS
 62
     7
100
AcDbLine
 10
366.9878865833
 20
341.2277236992
 30
0.0
 11
367.5939838643
 21
341.2277236992
 31
0.0
  0
LINE
  5
41
330
1F
100
AcDbEntity
  8
0
  6
CONTINUOUS
 62
     7
100
AcDbLine
 10
372.5706811304
 20
341.2277236992
 30
0.0
 11
377.305092966
 21
341.2277236992
 31
0.0
  0
LINE
  5
42
330
1F
100
AcDbEntity
  8
0
  6
CONTINUOUS
 62
     7
100
AcDbLine
 10
382.2817902321
 20
341.2277236992
 30
0.0
 11
383.8878895397
 21
341.2277236992
 31
0.0
  0
LINE
  5
43
330
1F
100
AcDbEntity
  8
0
  6
CONTINUOUS
 62
     7
100
AcDbLine
 10
293.8378888423
 20
341.2277236992
 30
0.0
 11
294.5939849371
 21
341.2277236992
 31
0.0
  0
LINE
  5
44
330
1F
100
AcDbEntity
  8
0
  6
CONTINUOUS
 62
     7
100
AcDbLine
 10
299.5706822032
 20
341.2277236992
 30
0.0
 11
304.3050940389
 21
341.2277236992
 31
0.0
  0
LINE
  5
45
330
1F
100
AcDbEntity
  8
0
  6
CONTINUOUS
 62
     7
100
AcDbLine
 10
309.281791305
 20
341.2277236992
 30
0.0
 11
310.7378880734
 21
341.2277236992
 31
0.0
  0
LINE
  5
46
330
1F
100
AcDbEntity
  8
0
  6
CONTINUOUS
 62
     7
100
AcDbLine
 10
220.1378892416
 20
341.2277236992
 30
0.0
 11
221.59398601
 21
341.2277236992
 31
0.0
  0
LINE
  5
47
330
1F
100
AcDbEntity
  8
0
  6
CONTINUOUS
 62
     7
100
AcDbLine
 10
226.5706832761
 20
341.2277236992
 30
0.0
 11
231.3050951118
 21
341.2277236992
 31
0.0
  0
LINE
  5
48
330
1F
100
AcDbEntity
  8
0
  6
CONTINUOUS
 62
     7
100
AcDbLine
 10
236.2817923779
 20
341.2277236992
 30
0.0
 11
237.0378884727
 21
341.2277236992
 31
0.0
  0
LINE
  5
49
330
1F
100
AcDbEntity
  8
0
  6
CONTINUOUS
 62
     7
100
AcDbLine
 10
146.9878877754
 20
341.2277236992
 30
0.0
 11
148.5939870829
 21
341.2277236992
 31
0.0
  0
LINE
  5
4A
330
1F
100
AcDbEntity
  8
0
  6
CONTINUOUS
 62
     7
100
AcDbLine
 10
153.570684349
 20
341.2277236992
 30
0.0
 11
158.3050961847
 21
341.2277236992
 31
0.0
  0
LINE
  5
4B
330
1F
100
AcDbEntity
  8
0
  6
CONTINUOUS
 62
     7
100
AcDbLine
 10
163.2817934508
 20
341.2277236992
 30
0.0
 11
163.8878907318
 21
341.2277236992
 31
0.0
  0
LINE
  5
4C
330
1F
100
AcDbEntity
  8
0
  6
CONTINUOUS
 62
     7
100
AcDbLine
 10
386.4279638285
 20
344.7277233416
 30
0.0
 11
382.3418344612
 21
344.7277233416
 31
0.0
  0
LINE
  5
4D
330
1F
100
AcDbEntity
  8
0
  6
CONTINUOUS
 62
     7
100
AcDbLine
 10
377.245048737
 20
344.7277233416
 30
0.0
 11
372.6307253594
 21
344.7277233416
 31
0.0
  0
LINE
  5
4E
330
1F
100
AcDbEntity
  8
0
  6
CONTINUOUS
 62
     7
100
AcDbLine
 10
367.5339396352
 20
344.7277233416
 30
0.0
 11
309.3418392593
 21
344.7277233416
 31
0.0
  0
LINE
  5
4F
330
1F
100
AcDbEntity
  8
0
  6
CONTINUOUS
 62
     7
100
AcDbLine
 10
304.2450498099
 20
344.7277233416
 30
0.0
 11
299.6307264323
 21
344.7277233416
 31
0.0
  0
LINE
  5
50
330
1F
100
AcDbEntity
  8
0
  6
CONTINUOUS
 62
     7
100
AcDbLine
 10
294.5339407081
 20
344.7277233416
 30
0.0
 11
236.3418366069
 21
344.7277233416
 31
0.0
  0
LINE
  5
51
330
1F
100
AcDbEntity
  8
0
  6
CONTINUOUS
 62
     7
100
AcDbLine
 10
231.2450508828
 20
344.7277233416
 30
0.0
 11
226.6307275052
 21
344.7277233416
 31
0.0
  0
LINE
  5
52
330
1F
100
AcDbEntity
  8
0
  6
CONTINUOUS
 62
     7
100
AcDbLine
 10
221.5339380557
 20
344.7277233416
 30
0.0
 11
163.3418376798
 21
344.7277233416
 31
0.0
  0
LINE
  5
53
330
1F
100
AcDbEntity
  8
0
  6
CONTINUOUS
 62
     7
100
AcDbLine
 10
158.2450519556
 20
344.7277233416
 30
0.0
 11
153.630728578
 21
344.7277233416
 31
0.0
  0
LINE
  5
54
330
1F
100
AcDbEntity
  8
0
  6
CONTINUOUS
 62
     7
100
AcDbLine
 10
148.5339428539
 20
344.7277233416
 30
0.0
 11
144.4478134865
 21
344.7277233416
 31
0.0
  0
CIRCLE
  5
55
330
1F
100
AcDbEntity
  8
0
  6
CONTINUOUS
 62
     7
100
AcDbCircle
 10
328.4378886575
 20
251.2274575377
 30
0.0
 40
2.749999999999992
  0
ARC
  5
56
330
1F
100
AcDbEntity
  8
0
  6
CONTINUOUS
 62
     7
100
AcDbCircle
 10
328.512295204
 20
253.0259190096
 30
0.0
 40
0.4000000000000314
100
AcDbArc
 50
213.3723583816
 51
267.6308910394
  0
LINE
  5
57
330
1F
100
AcDbEntity
  8
0
  6
CONTINUOUS
 62
     7
100
AcDbLine
 10
328.1782518382
 20
252.8058872038
 30
0.0
 11
328.0152480359
 21
253.0533470624
 31
0.0
  0
LINE
  5
58
330
1F
100
AcDbEntity
  8
0
  6
CONTINUOUS
 62
     7
100
AcDbLine
 10
328.0152480359
 20
253.0533470624
 30
0.0
 11
327.4599003846
 21
252.8262198382
 31
0.0
  0
LINE
  5
59
330
1F
100
AcDbEntity
  8
0
  6
CONTINUOUS
 62
     7
100
AcDbLine
 10
327.4599003846
 20
252.8262198382
 30
0.0
 11
327.5170277113
 21
252.5354572051
 31
0.0
  0
ARC
  5
5A
330
1F
100
AcDbEntity
  8
0
  6
CONTINUOUS
 62
     7
100
AcDbCircle
 10
327.1245295779
 20
252.458346618
 30
0.0
 40
0.3999999999999921
100
AcDbArc
 50
316.8565520151
 51
11.1150846729
  0
ARC
  5
5B
330
1F
100
AcDbEntity
  8
0
  6
CONTINUOUS
 62
     7
100
AcDbCircle
 10
328.4378886575
 20
251.2274575377
 30
0.0
 40
1.400000000000043
100
AcDbArc
 50
136.8565520151
 51
147.6308910394
  0
LINE
  5
5C
330
1F
100
AcDbEntity
  8
0
  6
CONTINUOUS
 62
     7
100
AcDbLine
 10
326.9411090071
 20
251.7918184811
 30
0.0
 11
326.6453023309
 21
251.7743878478
 31
0.0
  0
LINE
  5
5D
330
1F
100
AcDbEntity
  8
0
  6
CONTINUOUS
 62
     7
100
AcDbLine
 10
326.6453023309
 20
251.7743878478
 30
0.0
 11
326.5643256957
 21
251.1798762196
 31
0.0
  0
LINE
  5
5E
330
1F
100
AcDbEntity
  8
0
  6
CONTINUOUS
 62
     7
100
AcDbLine
 10
326.5643256957
 20
251.1798762196
 30
0.0
 11
326.8446947688
 21
251.0839686209
 31
0.0
  0
ARC
  5
5F
330
1F
100
AcDbEntity
  8
0
  6
CONTINUOUS
 62
     7
100
AcDbCircle
 10
328.4378886575
 20
251.2274575377
 30
0.0
 40
1.40000000000003
100
AcDbArc
 50
196.8565520151
 51
207.6308910394
  0
LINE
  5
60
330
1F
100
AcDbEntity
  8
0
  6
CONTINUOUS
 62
     7
100
AcDbLine
 10
327.2007468397
 20
250.2133869046
 30
0.0
 11
327.0679402406
 21
249.9484964126
 31
0.0
  0
LINE
  5
61
330
1F
100
AcDbEntity
  8
0
  6
CONTINUOUS
 62
     7
100
AcDbLine
 10
327.0679402406
 20
249.9484964126
 30
0.0
 11
327.5423149819
 21
249.581115734
 31
0.0
  0
LINE
  5
62
330
1F
100
AcDbEntity
  8
0
  6
CONTINUOUS
 62
     7
100
AcDbLine
 10
327.5423149819
 20
249.581115734
 30
0.0
 11
327.7655567283
 21
249.775967043
 31
0.0
  0
LINE
  5
63
330
1F
100
AcDbEntity
  8
0
  6
CONTINUOUS
 62
     7
100
AcDbLine
 10
328.6975275034
 20
249.6490277761
 30
0.0
 11
328.8605238552
 21
249.4015679174
 31
0.0
  0
LINE
  5
64
330
1F
100
AcDbEntity
  8
0
  6
CONTINUOUS
 62
     7
100
AcDbLine
 10
328.8605238552
 20
249.4015679174
 30
0.0
 11
329.4158752317
 21
249.6286951416
 31
0.0
  0
LINE
  5
65
330
1F
100
AcDbEntity
  8
0
  6
CONTINUOUS
 62
     7
100
AcDbLine
 10
329.4158752317
 20
249.6286951416
 30
0.0
 11
329.3587516302
 21
249.9194577747
 31
0.0
  0
ARC
  5
66
330
1F
100
AcDbEntity
  8
0
  6
CONTINUOUS
 62
     7
100
AcDbCircle
 10
328.4378886575
 20
251.2274575377
 30
0.0
 40
1.400000000000005
100
AcDbArc
 50
316.8565520151
 51
327.6308910394
  0
ARC
  5
67
330
1F
100
AcDbEntity
  8
0
  6
CONTINUOUS
 62
     7
100
AcDbCircle
 10
329.9581987067
 20
250.2637888423
 30
0.0
 40
0.4000000000000093
100
AcDbArc
 50
93.3723583816
 51
147.6308910394
  0
LINE
  5
68
330
1F
100
AcDbEntity
  8
0
  6
CONTINUOUS
 62
     7
100
AcDbLine
 10
329.9346666092
 20
250.6630964988
 30
0.0
 11
330.2304770107
 21
250.6805271321
 31
0.0
  0
LINE
  5
69
330
1F
100
AcDbEntity
  8
0
  6
CONTINUOUS
 62
     7
100
AcDbLine
 10
330.2304770107
 20
250.6805271321
 30
0.0
 11
330.3114499206
 21
251.2750387603
 31
0.0
  0
LINE
  5
6A
330
1F
100
AcDbEntity
  8
0
  6
CONTINUOUS
 62
     7
100
AcDbLine
 10
330.3114499206
 20
251.2750387603
 30
0.0
 11
330.0310845727
 21
251.370946359
 31
0.0
  0
ARC
  5
6B
330
1F
100
AcDbEntity
  8
0
  6
CONTINUOUS
 62
     7
100
AcDbCircle
 10
330.1605494101
 20
251.7494153248
 30
0.0
 40
0.4000000000000355
100
AcDbArc
 50
196.8565520151
 51
251.1150846729
  0
ARC
  5
6C
330
1F
100
AcDbEntity
  8
0
  6
CONTINUOUS
 62
     7
100
AcDbCircle
 10
328.4378886575
 20
251.2274575377
 30
0.0
 40
1.399999999999993
100
AcDbArc
 50
16.8565520151
 51
27.6308910394
  0
ARC
  5
6D
330
1F
100
AcDbEntity
  8
0
  6
CONTINUOUS
 62
     7
100
AcDbCircle
 10
330.0326052531
 20
252.0622503142
 30
0.0
 40
0.400000000000023
100
AcDbArc
 50
153.3723583816
 51
207.6308910394
  0
LINE
  5
6E
330
1F
100
AcDbEntity
  8
0
  6
CONTINUOUS
 62
     7
100
AcDbLine
 10
329.8078353757
 20
252.5064185673
 30
0.0
 11
329.3334643597
 21
252.8737992459
 31
0.0
  0
LINE
  5
6F
330
1F
100
AcDbEntity
  8
0
  6
CONTINUOUS
 62
     7
100
AcDbLine
 10
329.3334643597
 20
252.8737992459
 30
0.0
 11
329.1102226133
 21
252.6789479369
 31
0.0
  0
ARC
  5
70
330
1F
100
AcDbEntity
  8
0
  6
CONTINUOUS
 62
     7
100
AcDbCircle
 10
328.8471903304
 20
252.9803044051
 30
0.0
 40
0.3999999999999947
100
AcDbArc
 50
256.8565520151
 51
311.1150846729
  0
ARC
  5
71
330
1F
100
AcDbEntity
  8
0
  6
CONTINUOUS
 62
     7
100
AcDbCircle
 10
328.4378886575
 20
251.2274575377
 30
0.0
 40
1.400000000000003
100
AcDbArc
 50
76.8565520151
 51
87.6308910394
  0
ARC
  5
72
330
1F
100
AcDbEntity
  8
0
  6
CONTINUOUS
 62
     7
100
AcDbCircle
 10
328.3634821111
 20
249.4289960658
 30
0.0
 40
0.4000000000000449
100
AcDbArc
 50
33.3723583816
 51
87.6308910394
  0
ARC
  5
73
330
1F
100
AcDbEntity
  8
0
  6
CONTINUOUS
 62
     7
100
AcDbCircle
 10
328.0285869846
 20
249.4746106703
 30
0.0
 40
0.4000000000000079
100
AcDbArc
 50
76.8565520151
 51
131.1150846729
  0
ARC
  5
74
330
1F
100
AcDbEntity
  8
0
  6
CONTINUOUS
 62
     7
100
AcDbCircle
 10
326.8431720619
 20
250.3926647612
 30
0.0
 40
0.3999999999999858
100
AcDbArc
 50
333.3723583816
 51
27.6308910394
  0
ARC
  5
75
330
1F
100
AcDbEntity
  8
0
  6
CONTINUOUS
 62
     7
100
AcDbCircle
 10
326.7152279049
 20
250.7054997506
 30
0.0
 40
0.4000000000000171
100
AcDbArc
 50
16.8565520151
 51
71.1150846729
  0
ARC
  5
76
330
1F
100
AcDbEntity
  8
0
  6
CONTINUOUS
 62
     7
100
AcDbCircle
 10
326.9175786084
 20
252.1911262331
 30
0.0
 40
0.4000000000000093
100
AcDbArc
 50
273.3723583816
 51
327.6308910394
  0
ARC
  5
77
330
1F
100
AcDbEntity
  8
0
  6
CONTINUOUS
 62
     7
100
AcDbCircle
 10
329.7512477372
 20
249.9965684574
 30
0.0
 40
0.4000000000000479
100
AcDbArc
 50
136.8565520151
 51
191.1150846729
  0
ARC
  5
78
330
1F
100
AcDbEntity
  8
0
  6
CONTINUOUS
 62
     7
100
AcDbCircle
 10
328.4378886575
 20
251.2274575377
 30
0.0
 40
1.400000000000001
100
AcDbArc
 50
256.8565520151
 51
267.6308910394
  0
LINE
  5
79
330
1F
100
AcDbEntity
  8
0
  6
CONTINUOUS
 62
     7
100
AcDbLine
 10
329.6750287766
 20
252.2415280753
 30
0.0
 11
329.8078353757
 21
252.5064185673
 31
0.0
  0
CIRCLE
  5
7A
330
1F
100
AcDbEntity
  8
0
  6
CONTINUOUS
 62
     7
100
AcDbCircle
 10
328.4378886575
 20
251.2274575377
 30
0.0
 40
3.750000000000003
  0
LINE
  5
7B
330
1F
100
AcDbEntity
  8
0
  6
CONTINUOUS
 62
     7
100
AcDbLine
 10
296.0987898762
 20
241.3154639715
 30
0.0
 11
296.0987898762
 21
242.0365535134
 31
0.0
  0
LINE
  5
7C
330
1F
100
AcDbEntity
  8
0
  6
CONTINUOUS
 62
     7
100
AcDbLine
 10
296.0987898762
 20
241.3154639715
 30
0.0
 11
234.7769874389
 21
241.3154639715
 31
0.0
  0
LINE
  5
7D
330
1F
100
AcDbEntity
  8
0
  6
CONTINUOUS
 62
     7
100
AcDbLine
 10
234.7769874389
 20
242.0365535134
 30
0.0
 11
234.7769874389
 21
241.3154639715
 31
0.0
  0
LINE
  5
7E
330
1F
100
AcDbEntity
  8
0
  6
CONTINUOUS
 62
     7
100
AcDbLine
 10
234.7769874389
 20
242.0365535134
 30
0.0
 11
296.0987898762
 21
242.0365535134
 31
0.0
  0
ARC
  5
7F
330
1F
100
AcDbEntity
  8
0
  6
CONTINUOUS
 62
     7
100
AcDbCircle
 10
234.5843188014
 20
266.873304488
 30
0.0
 40
25.55856672573877
100
AcDbArc
 50
268.2239446406
 51
270.4319179728
  0
ARC
  5
80
330
1F
100
AcDbEntity
  8
0
  6
CONTINUOUS
 62
     7
100
AcDbCircle
 10
234.7778585933
 20
240.9971416914
 30
0.0
 40
1.039412187028772
100
AcDbArc
 50
90.0480208683
 51
161.4962752716
  0
ARC
  5
81
330
1F
100
AcDbEntity
  8
0
  6
CONTINUOUS
 62
     7
100
AcDbCircle
 10
296.2914585137
 20
266.873304488
 30
0.0
 40
25.55856672573877
100
AcDbArc
 50
269.5680820272
 51
271.7760553594
  0
ARC
  5
82
330
1F
100
AcDbEntity
  8
0
  6
CONTINUOUS
 62
     7
100
AcDbCircle
 10
296.0979187218
 20
240.9971416914
 30
0.0
 40
1.039412187028772
100
AcDbArc
 50
18.5037247284
 51
89.9519791317
  0
LINE
  5
83
330
1F
100
AcDbEntity
  8
0
  6
CONTINUOUS
 62
     7
100
AcDbLine
 10
297.0835964436
 20
241.3270160967
 30
0.0
 11
297.0835964436
 21
240.2585357839
 31
0.0
  0
LINE
  5
84
330
1F
100
AcDbEntity
  8
0
  6
CONTINUOUS
 62
     7
100
AcDbLine
 10
297.0835964436
 20
240.2585357839
 30
0.0
 11
296.0987898762
 21
240.2585357839
 31
0.0
  0
LINE
  5
85
330
1F
100
AcDbEntity
  8
0
  6
CONTINUOUS
 62
     7
100
AcDbLine
 10
296.0987898762
 20
240.2585357839
 30
0.0
 11
296.0987898762
 21
241.3154639715
 31
0.0
  0
LINE
  5
86
330
1F
100
AcDbEntity
  8
0
  6
CONTINUOUS
 62
     7
100
AcDbLine
 10
234.7769874389
 20
241.3154639715
 30
0.0
 11
234.7769874389
 21
240.2585357839
 31
0.0
  0
LINE
  5
87
330
1F
100
AcDbEntity
  8
0
  6
CONTINUOUS
 62
     7
100
AcDbLine
 10
234.7769874389
 20
240.2585357839
 30
0.0
 11
233.7921808714
 21
240.2585357839
 31
0.0
  0
LINE
  5
88
330
1F
100
AcDbEntity
  8
0
  6
CONTINUOUS
 62
     7
100
AcDbLine
 10
233.7921808714
 20
240.2585357839
 30
0.0
 11
233.7921808714
 21
241.3270160967
 31
0.0
  0
LINE
  5
89
330
1F
100
AcDbEntity
  8
0
  6
CONTINUOUS
 62
     7
100
AcDbLine
 10
296.0987898762
 20
240.2585357839
 30
0.0
 11
234.7769874389
 21
240.2585357839
 31
0.0
  0
LINE
  5
8A
330
1F
100
AcDbEntity
  8
0
  6
CONTINUOUS
 62
     7
100
AcDbLine
 10
233.7921808714
 20
241.3270160967
 30
0.0
 11
233.1708769555
 21
244.8023431414
 31
0.0
  0
ELLIPSE
  5
8B
330
1F
100
AcDbEntity
  8
0
  6
CONTINUOUS
 62
     7
100
AcDbEllipse
 10
234.2022473664
 20
244.5443234465
 30
0.0
 11
-0.3145630735609473
 21
1.759544073251334
 31
0.0
210
0.0
220
0.0
230
1.0
 40
0.5594590304
 41
6.158421586160542
 42
7.607861403285339
  0
LINE
  5
8C
330
1F
100
AcDbEntity
  8
0
  6
CONTINUOUS
 62
     7
100
AcDbLine
 10
234.0126286501
 20
246.3120915407
 30
0.0
 11
234.7769874389
 21
242.0365535134
 31
0.0
  0
LINE
  5
8D
330
1F
100
AcDbEntity
  8
0
  6
CONTINUOUS
 62
     7
100
AcDbLine
 10
296.0987898762
 20
242.0365535134
 30
0.0
 11
296.8631486649
 21
246.3120915407
 31
0.0
  0
ELLIPSE
  5
8E
330
1F
100
AcDbEntity
  8
0
  6
CONTINUOUS
 62
     7
100
AcDbEllipse
 10
296.6735299486
 20
244.5443234465
 30
0.0
 11
0.3145630735609757
 21
1.759544073251334
 31
0.0
210
0.0
220
0.0
230
1.0
 40
0.5594590304
 41
4.958509211073849
 42
6.407949028198739
  0
LINE
  5
8F
330
1F
100
AcDbEntity
  8
0
  6
CONTINUOUS
 62
     7
100
AcDbLine
 10
297.7049003596
 20
244.8023431414
 30
0.0
 11
297.0835964436
 21
241.3270160967
 31
0.0
  0
LINE
  5
90
330
1F
100
AcDbEntity
  8
0
  6
CONTINUOUS
 62
     7
100
AcDbLine
 10
296.8631486649
 20
246.3120915407
 30
0.0
 11
234.0126286501
 21
246.3120915407
 31
0.0
  0
LINE
  5
91
330
1F
100
AcDbEntity
  8
0
  6
CONTINUOUS
 62
     7
100
AcDbLine
 10
233.673422342
 20
240.2585357839
 30
0.0
 11
233.6733739132
 21
240.2795128935
 31
0.0
  0
LINE
  5
92
330
1F
100
AcDbEntity
  8
0
  6
CONTINUOUS
 62
     7
100
AcDbLine
 10
233.6733739132
 20
240.2795128935
 30
0.0
 11
232.9010355527
 21
240.3407603913
 31
0.0
  0
ELLIPSE
  5
93
330
1F
100
AcDbEntity
  8
0
  6
CONTINUOUS
 62
     7
100
AcDbEllipse
 10
232.5930932427
 20
243.1649079826
 30
0.0
 11
-0.00839747807464164
 21
3.299999667875426
 31
0.0
210
0.0
220
0.0
230
0.9999999999999999
 40
0.1763086354
 41
3.684841126348595
 42
4.711940329490686
  0
LINE
  5
94
330
1F
100
AcDbEntity
  8
0
  6
CONTINUOUS
 62
     7
100
AcDbLine
 10
233.1708769555
 20
244.8023431414
 30
0.0
 11
233.1749151701
 21
243.1649066919
 31
0.0
  0
LINE
  5
95
330
1F
100
AcDbEntity
  8
0
  6
CONTINUOUS
 62
     7
100
AcDbLine
 10
233.673422342
 20
240.2585357839
 30
0.0
 11
233.7921808714
 21
240.2585357839
 31
0.0
  0
LINE
  5
96
330
1F
100
AcDbEntity
  8
0
  6
CONTINUOUS
 62
     7
100
AcDbLine
 10
297.2024034018
 20
240.2795128935
 30
0.0
 11
297.9747417623
 21
240.3407603913
 31
0.0
  0
LINE
  5
97
330
1F
100
AcDbEntity
  8
0
  6
CONTINUOUS
 62
     7
100
AcDbLine
 10
297.202354973
 20
240.2585357839
 30
0.0
 11
297.2024034018
 21
240.2795128935
 31
0.0
  0
LINE
  5
98
330
1F
100
AcDbEntity
  8
0
  6
CONTINUOUS
 62
     7
100
AcDbLine
 10
297.7008621449
 20
243.1649066919
 30
0.0
 11
297.7049003596
 21
244.8023431414
 31
0.0
  0
ELLIPSE
  5
99
330
1F
100
AcDbEntity
  8
0
  6
CONTINUOUS
 62
     7
100
AcDbEllipse
 10
298.2826840723
 20
243.1649079826
 30
0.0
 11
0.00839747807464164
 21
3.299999667875426
 31
0.0
210
0.0
220
0.0
230
0.9999999999999999
 40
0.1763086354
 41
1.571244977688903
 42
2.598344180831175
  0
LINE
  5
9A
330
1F
100
AcDbEntity
  8
0
  6
CONTINUOUS
 62
     7
100
AcDbLine
 10
297.202354973
 20
240.2585357839
 30
0.0
 11
297.0835964436
 21
240.2585357839
 31
0.0
  0
LWPOLYLINE
  5
9B
330
1F
100
AcDbEntity
  8
0
  6
CONTINUOUS
 62
     7
100
AcDbPolyline
 90
        9
 70
   128
 43
0.0
 10
298.1932672913
 20
243.1636922472
 10
298.1064419503
 20
243.1639083141
 10
298.0222541148
 20
243.1641169303
 10
297.9432630593
 20
243.1643106454
 10
297.8718678708
 20
243.1644857341
 10
297.8102403933
 20
243.164638471
 10
297.7602507228
 20
243.1647614056
 10
297.7234187776
 20
243.1648508125
 10
297.7008621449
 20
243.1649066919
  0
ELLIPSE
  5
9C
330
1F
100
AcDbEntity
  8
0
  6
CONTINUOUS
 62
     7
100
AcDbEllipse
 10
298.7750879488
 20
243.163693917
 30
0.0
 11
0.008503609482886532
 21
2.799999442460802
 31
0.0
210
0.0
220
0.0
230
0.9999999999999998
 40
0.2077917903
 41
1.571427391207601
 42
3.124770425482489
  0
ARC
  5
9D
330
1F
100
AcDbEntity
  8
0
  6
CONTINUOUS
 62
     7
100
AcDbCircle
 10
298.7583718281
 20
239.8769429312
 30
0.0
 40
0.4871812931784538
100
AcDbArc
 50
90.1849277609
 51
94.1908810476
  0
SPLINE
  5
9E
330
1F
100
AcDbEntity
  8
0
  6
CONTINUOUS
 62
     7
100
AcDbSpline
210
0.0
220
0.0
230
1.0
 70
     8
 71
     3
 72
     9
 73
     5
 74
     0
 42
0.00000001
 43
0.00000001
 40
0.0
 40
0.0
 40
0.0
 40
0.0
 40
0.521241516682151
 40
1.0
 40
1.0
 40
1.0
 40
1.0
 10
298.7227688784033
 20
240.3628215604734
 30
0.0
 10
298.5546626823176
 20
240.3592393202186
 30
0.0
 10
298.2321515416937
 20
240.3523668050023
 30
0.0
 10
298.0580799929895
 20
240.3445180495718
 30
0.0
 10
297.9747417623431
 20
240.3407603913259
 30
0.0
  0
ARC
  5
9F
330
1F
100
AcDbEntity
  8
0
  6
CONTINUOUS
 62
     7
100
AcDbCircle
 10
232.117405487
 20
239.8769429312
 30
0.0
 40
0.4871812931784552
100
AcDbArc
 50
85.8091189524
 51
89.8150722391
  0
ELLIPSE
  5
A0
330
1F
100
AcDbEntity
  8
0
  6
CONTINUOUS
 62
     7
100
AcDbEllipse
 10
232.1006893662
 20
243.163693917
 30
0.0
 11
-0.008503609482943375
 21
2.799999442460802
 31
0.0
210
0.0
220
0.0
230
0.9999999999999999
 40
0.2077917903
 41
3.158414881697067
 42
4.711757915971984
  0
LWPOLYLINE
  5
A1
330
1F
100
AcDbEntity
  8
0
  6
CONTINUOUS
 62
     7
100
AcDbPolyline
 90
        9
 70
   128
 43
0.0
 10
232.6825100238
 20
243.1636922472
 10
232.7693353648
 20
243.1639083141
 10
232.8535232002
 20
243.1641169303
 10
232.9325142557
 20
243.1643106454
 10
233.0039094443
 20
243.1644857341
 10
233.0655369217
 20
243.164638471
 10
233.1155265922
 20
243.1647614056
 10
233.1523585374
 20
243.1648508125
 10
233.1749151701
 20
243.1649066919
  0
SPLINE
  5
A2
330
1F
100
AcDbEntity
  8
0
  6
CONTINUOUS
 62
     7
100
AcDbSpline
210
0.0
220
0.0
230
1.0
 70
     8
 71
     3
 72
    10
 73
     6
 74
     0
 42
0.00000001
 43
0.00000001
 40
0.0
 40
0.0
 40
0.0
 40
0.0
 40
0.4620483899290563
 40
0.8424458909938882
 40
0.9999999999999999
 40
0.9999999999999999
 40
0.9999999999999999
 40
0.9999999999999999
 10
232.9010355526835
 20
240.3407603913259
 30
0.0
 10
232.8225482694616
 20
240.3443938623815
 30
0.0
 10
232.6794435845699
 20
240.3510187155949
 30
0.0
 10
232.3699562478166
 20
240.3580143846785
 30
0.0
 10
232.2021539981274
 20
240.3617325826571
 30
0.0
 10
232.1530084366232
 20
240.3628215604734
 30
0.0
  0
LINE
  5
A3
330
1F
100
AcDbEntity
  8
0
  6
CONTINUOUS
 62
     7
100
AcDbLine
 10
232.6825100238
 20
243.1636922472
 30
0.0
 11
232.6784755344
 21
244.8011286968
 31
0.0
  0
LWPOLYLINE
  5
A4
330
1F
100
AcDbEntity
  8
0
  6
CONTINUOUS
 62
     7
100
AcDbPolyline
 90
        9
 70
   128
 43
0.0
 10
232.6784755344
 20
244.8011286968
 10
232.7653008754
 20
244.8013410383
 10
232.8494849855
 20
244.8015496546
 10
232.928476041
 20
244.8017433697
 10
232.9998712296
 20
244.8019221836
 10
233.061498707
 20
244.8020711952
 10
233.1114883775
 20
244.8021941298
 10
233.1483203227
 20
244.8022872621
 10
233.1708769555
 20
244.8023431414
  0
ELLIPSE
  5
A5
330
1F
100
AcDbEntity
  8
0
  6
CONTINUOUS
 62
     7
100
AcDbEllipse
 10
234.2022473664
 20
244.5443234465
 30
0.0
 11
-0.3762919523720143
 21
2.104831527468036
 31
0.0
210
0.0
220
0.0
230
1.0
 40
0.7015237145
 41
6.158421586160515
 42
7.607861403285346
  0
LINE
  5
A6
330
1F
100
AcDbEntity
  8
0
  6
CONTINUOUS
 62
     7
100
AcDbLine
 10
234.0126286501
 20
246.6656439417
 30
0.0
 11
234.0126286501
 21
246.3120915407
 31
0.0
  0
LINE
  5
A7
330
1F
100
AcDbEntity
  8
0
  6
CONTINUOUS
 62
     7
100
AcDbLine
 10
298.1973017806
 20
244.8011286968
 30
0.0
 11
298.1932672913
 21
243.1636922472
 31
0.0
  0
LWPOLYLINE
  5
A8
330
1F
100
AcDbEntity
  8
0
  6
CONTINUOUS
 62
     7
100
AcDbPolyline
 90
        9
 70
   128
 43
0.0
 10
298.1973017806
 20
244.8011286968
 10
298.1104764397
 20
244.8013410383
 10
298.0262923295
 20
244.8015496546
 10
297.947301274
 20
244.8017433697
 10
297.8759060854
 20
244.8019221836
 10
297.814278608
 20
244.8020711952
 10
297.7642889375
 20
244.8021941298
 10
297.7274569923
 20
244.8022872621
 10
297.7049003596
 20
244.8023431414
  0
ELLIPSE
  5
A9
330
1F
100
AcDbEntity
  8
0
  6
CONTINUOUS
 62
     7
100
AcDbEllipse
 10
296.6735299486
 20
244.5443234465
 30
0.0
 11
0.3762919523720143
 21
2.104831527468036
 31
0.0
210
0.0
220
0.0
230
1.0
 40
0.7015237145
 41
4.958509211073859
 42
6.407949028198709
  0
LINE
  5
AA
330
1F
100
AcDbEntity
  8
0
  6
CONTINUOUS
 62
     7
100
AcDbLine
 10
296.8631486649
 20
246.6656439417
 30
0.0
 11
296.8631486649
 21
246.3120915407
 31
0.0
  0
LINE
  5
AB
330
1F
100
AcDbEntity
  8
0
  6
CONTINUOUS
 62
     7
100
AcDbLine
 10
234.0126286501
 20
246.6656439417
 30
0.0
 11
296.8631486649
 21
246.6656439417
 31
0.0
  0
ARC
  5
AC
330
1F
100
AcDbEntity
  8
0
  6
CONTINUOUS
 62
     7
100
AcDbCircle
 10
144.4378886575
 20
245.2585370089
 30
0.0
 40
2.094843091907762
100
AcDbArc
 50
180.0
 51
270.0
  0
LINE
  5
AD
330
1F
100
AcDbEntity
  8
0
  6
CONTINUOUS
 62
     7
100
AcDbLine
 10
144.4378893132
 20
240.3641216868
 30
0.0
 11
144.4378893132
 21
243.1636922472
 31
0.0
  0
ARC
  5
AE
330
1F
100
AcDbEntity
  8
0
  6
CONTINUOUS
 62
     7
100
AcDbCircle
 10
144.4378886575
 20
245.2585370089
 30
0.0
 40
4.894416638345632
100
AcDbArc
 50
180.0
 51
270.0
  0
LINE
  5
AF
330
1F
100
AcDbEntity
  8
0
  6
CONTINUOUS
 62
     7
100
AcDbLine
 10
142.3430468196
 20
245.2585384661
 30
0.0
 11
139.5434762592
 21
245.2585384661
 31
0.0
  0
ARC
  5
B0
330
1F
100
AcDbEntity
  8
0
  6
CONTINUOUS
 62
     7
100
AcDbCircle
 10
386.4378886575
 20
245.2585370089
 30
0.0
 40
4.89441663834566
100
AcDbArc
 50
270.0
 51
0.0
  0
LINE
  5
B1
330
1F
100
AcDbEntity
  8
0
  6
CONTINUOUS
 62
     7
100
AcDbLine
 10
386.4378880019
 20
240.3641216868
 30
0.0
 11
386.4378880019
 21
243.1636922472
 31
0.0
  0
ARC
  5
B2
330
1F
100
AcDbEntity
  8
0
  6
CONTINUOUS
 62
     7
100
AcDbCircle
 10
386.4378886575
 20
245.2585370089
 30
0.0
 40
2.094843091907762
100
AcDbArc
 50
270.0
 51
0.0
  0
LINE
  5
B3
330
1F
100
AcDbEntity
  8
0
  6
CONTINUOUS
 62
     7
100
AcDbLine
 10
391.3323010559
 20
245.2585384661
 30
0.0
 11
388.5327304954
 21
245.2585384661
 31
0.0
  0
LINE
  5
B4
330
1F
100
AcDbEntity
  8
0
  6
CONTINUOUS
 62
     7
100
AcDbLine
 10
148.337888276
 20
267.3585363143
 30
0.0
 11
382.537889039
 21
267.3585363143
 31
0.0
  0
ARC
  5
B5
330
1F
100
AcDbEntity
  8
0
  6
CONTINUOUS
 62
     7
100
AcDbCircle
 10
382.5378886575
 20
268.7585370089
 30
0.0
 40
1.399999999999977
100
AcDbArc
 50
270.0
 51
0.0
  0
LINE
  5
B6
330
1F
100
AcDbEntity
  8
0
  6
CONTINUOUS
 62
     7
100
AcDbLine
 10
383.937890386
 20
268.7585376614
 30
0.0
 11
383.937890386
 21
322.9585368597
 31
0.0
  0
ARC
  5
B7
330
1F
100
AcDbEntity
  8
0
  6
CONTINUOUS
 62
     7
100
AcDbCircle
 10
382.5378886575
 20
322.9585370089
 30
0.0
 40
1.400000000000034
100
AcDbArc
 50
0.0
 51
90.0
  0
LINE
  5
B8
330
1F
100
AcDbEntity
  8
0
  6
CONTINUOUS
 62
     7
100
AcDbLine
 10
382.537889039
 20
324.3585363441
 30
0.0
 11
148.337888276
 21
324.3585363441
 31
0.0
  0
ARC
  5
B9
330
1F
100
AcDbEntity
  8
0
  6
CONTINUOUS
 62
     7
100
AcDbCircle
 10
148.3378886575
 20
322.9585370089
 30
0.0
 40
1.400000000000034
100
AcDbArc
 50
90.0
 51
180.0
  0
LINE
  5
BA
330
1F
100
AcDbEntity
  8
0
  6
CONTINUOUS
 62
     7
100
AcDbLine
 10
146.937886929
 20
322.9585368597
 30
0.0
 11
146.937886929
 21
268.7585376614
 31
0.0
  0
ARC
  5
BB
330
1F
100
AcDbEntity
  8
0
  6
CONTINUOUS
 62
     7
100
AcDbCircle
 10
148.3378886575
 20
268.7585370089
 30
0.0
 40
1.400000000000006
100
AcDbArc
 50
180.0
 51
270.0
  0
LINE
  5
BC
330
1F
100
AcDbEntity
  8
0
  6
CONTINUOUS
 62
     7
100
AcDbLine
 10
142.3430468196
 20
339.7585362607
 30
0.0
 11
142.3430468196
 21
245.2585384661
 31
0.0
  0
ARC
  5
BD
330
1F
100
AcDbEntity
  8
0
  6
CONTINUOUS
 62
     7
100
AcDbCircle
 10
144.4378886575
 20
339.7585370089
 30
0.0
 40
2.094843091907734
100
AcDbArc
 50
90.0
 51
180.0
  0
LINE
  5
BE
330
1F
100
AcDbEntity
  8
0
  6
CONTINUOUS
 62
     7
100
AcDbLine
 10
146.9878877754
 20
341.8533787542
 30
0.0
 11
144.4378893132
 21
341.8533787542
 31
0.0
  0
LINE
  5
BF
330
1F
100
AcDbEntity
  8
0
  6
CONTINUOUS
 62
     7
100
AcDbLine
 10
146.9878877754
 20
341.8533787542
 30
0.0
 11
146.9878877754
 21
340.1585355812
 31
0.0
  0
LINE
  5
C0
330
1F
100
AcDbEntity
  8
0
  6
CONTINUOUS
 62
     7
100
AcDbLine
 10
146.9878877754
 20
340.1585355812
 30
0.0
 11
163.8878907318
 21
340.1585355812
 31
0.0
  0
LINE
  5
C1
330
1F
100
AcDbEntity
  8
0
  6
CONTINUOUS
 62
     7
100
AcDbLine
 10
163.8878907318
 20
340.1585355812
 30
0.0
 11
163.8878907318
 21
341.8533787542
 31
0.0
  0
LINE
  5
C2
330
1F
100
AcDbEntity
  8
0
  6
CONTINUOUS
 62
     7
100
AcDbLine
 10
220.1378892416
 20
341.8533787542
 30
0.0
 11
163.8878907318
 21
341.8533787542
 31
0.0
  0
LINE
  5
C3
330
1F
100
AcDbEntity
  8
0
  6
CONTINUOUS
 62
     7
100
AcDbLine
 10
220.1378892416
 20
341.8533787542
 30
0.0
 11
220.1378892416
 21
340.1585355812
 31
0.0
  0
LINE
  5
C4
330
1F
100
AcDbEntity
  8
0
  6
CONTINUOUS
 62
     7
100
AcDbLine
 10
220.1378892416
 20
340.1585355812
 30
0.0
 11
237.0378884727
 21
340.1585355812
 31
0.0
  0
LINE
  5
C5
330
1F
100
AcDbEntity
  8
0
  6
CONTINUOUS
 62
     7
100
AcDbLine
 10
237.0378884727
 20
340.1585355812
 30
0.0
 11
237.0378884727
 21
341.8533787542
 31
0.0
  0
LINE
  5
C6
330
1F
100
AcDbEntity
  8
0
  6
CONTINUOUS
 62
     7
100
AcDbLine
 10
293.8378888423
 20
341.8533787542
 30
0.0
 11
237.0378884727
 21
341.8533787542
 31
0.0
  0
LINE
  5
C7
330
1F
100
AcDbEntity
  8
0
  6
CONTINUOUS
 62
     7
100
AcDbLine
 10
293.8378888423
 20
341.8533787542
 30
0.0
 11
293.8378888423
 21
340.1585355812
 31
0.0
  0
LINE
  5
C8
330
1F
100
AcDbEntity
  8
0
  6
CONTINUOUS
 62
     7
100
AcDbLine
 10
293.8378888423
 20
340.1585355812
 30
0.0
 11
310.7378880734
 21
340.1585355812
 31
0.0
  0
LINE
  5
C9
330
1F
100
AcDbEntity
  8
0
  6
CONTINUOUS
 62
     7
100
AcDbLine
 10
310.7378880734
 20
340.1585355812
 30
0.0
 11
310.7378880734
 21
341.8533787542
 31
0.0
  0
LINE
  5
CA
330
1F
100
AcDbEntity
  8
0
  6
CONTINUOUS
 62
     7
100
AcDbLine
 10
366.9878865833
 20
341.8533787542
 30
0.0
 11
310.7378880734
 21
341.8533787542
 31
0.0
  0
LINE
  5
CB
330
1F
100
AcDbEntity
  8
0
  6
CONTINUOUS
 62
     7
100
AcDbLine
 10
366.9878865833
 20
341.8533787542
 30
0.0
 11
366.9878865833
 21
340.1585355812
 31
0.0
  0
LINE
  5
CC
330
1F
100
AcDbEntity
  8
0
  6
CONTINUOUS
 62
     7
100
AcDbLine
 10
366.9878865833
 20
340.1585355812
 30
0.0
 11
383.8878895397
 21
340.1585355812
 31
0.0
  0
LINE
  5
CD
330
1F
100
AcDbEntity
  8
0
  6
CONTINUOUS
 62
     7
100
AcDbLine
 10
383.8878895397
 20
340.1585355812
 30
0.0
 11
383.8878895397
 21
341.8533787542
 31
0.0
  0
LINE
  5
CE
330
1F
100
AcDbEntity
  8
0
  6
CONTINUOUS
 62
     7
100
AcDbLine
 10
386.4378880019
 20
341.8533787542
 30
0.0
 11
383.8878895397
 21
341.8533787542
 31
0.0
  0
ARC
  5
CF
330
1F
100
AcDbEntity
  8
0
  6
CONTINUOUS
 62
     7
100
AcDbCircle
 10
386.4378886575
 20
339.7585370089
 30
0.0
 40
2.094843091907762
100
AcDbArc
 50
0.0
 51
90.0
  0
LINE
  5
D0
330
1F
100
AcDbEntity
  8
0
  6
CONTINUOUS
 62
     7
100
AcDbLine
 10
388.5327304954
 20
245.2585384661
 30
0.0
 11
388.5327304954
 21
339.7585362607
 31
0.0
  0
LINE
  5
D1
330
1F
100
AcDbEntity
  8
0
  6
CONTINUOUS
 62
     7
100
AcDbLine
 10
298.1932672913
 20
243.1636922472
 30
0.0
 11
386.4378880019
 21
243.1636922472
 31
0.0
  0
LINE
  5
D2
330
1F
100
AcDbEntity
  8
0
  6
CONTINUOUS
 62
     7
100
AcDbLine
 10
144.4378893132
 20
243.1636922472
 30
0.0
 11
232.6825100238
 21
243.1636922472
 31
0.0
  0
CIRCLE
  5
D3
330
1F
100
AcDbEntity
  8
0
  6
CONTINUOUS
 62
     7
100
AcDbCircle
 10
328.4378886575
 20
251.2274575377
 30
0.0
 40
4.000000000000028
  0
LINE
  5
D4
330
1F
100
AcDbEntity
  8
0
  6
CONTINUOUS
 62
     7
100
AcDbLine
 10
386.4378880019
 20
240.3641216868
 30
0.0
 11
298.7567994053
 21
240.3641216868
 31
0.0
  0
LINE
  5
D5
330
1F
100
AcDbEntity
  8
0
  6
CONTINUOUS
 62
     7
100
AcDbLine
 10
232.1189779097
 20
240.3641216868
 30
0.0
 11
144.4378893132
 21
240.3641216868
 31
0.0
  0
LINE
  5
D6
330
1F
100
AcDbEntity
  8
0
  6
CONTINUOUS
 62
     7
100
AcDbLine
 10
139.5434762592
 20
245.2585384661
 30
0.0
 11
139.5434762592
 21
339.7585362607
 31
0.0
  0
LINE
  5
D7
330
1F
100
AcDbEntity
  8
0
  6
CONTINUOUS
 62
     7
100
AcDbLine
 10
142.3430468196
 20
339.7585362607
 30
0.0
 11
139.5434762592
 21
339.7585362607
 31
0.0
  0
CIRCLE
  5
D8
330
1F
100
AcDbEntity
  8
0
  6
CONTINUOUS
 62
     7
100
AcDbCircle
 10
328.4378886575
 20
251.2274575377
 30
0.0
 40
3.902221845423128
  0
LINE
  5
D9
330
1F
100
AcDbEntity
  8
0
  6
CONTINUOUS
 62
     7
100
AcDbLine
 10
391.3323010559
 20
339.7585362607
 30
0.0
 11
391.3323010559
 21
245.2585384661
 31
0.0
  0
LINE
  5
DA
330
1F
100
AcDbEntity
  8
0
  6
CONTINUOUS
 62
     7
100
AcDbLine
 10
391.3323010559
 20
339.7585362607
 30
0.0
 11
388.5327304954
 21
339.7585362607
 31
0.0
  0
LINE
  5
DB
330
1F
100
AcDbEntity
  8
0
  6
CONTINUOUS
 62
     7
100
AcDbLine
 10
237.0378884727
 20
344.65295304
 30
0.0
 11
293.8378888423
 21
344.65295304
 31
0.0
  0
LINE
  5
DC
330
1F
100
AcDbEntity
  8
0
  6
CONTINUOUS
 62
     7
100
AcDbLine
 10
293.8378888423
 20
341.8533787542
 30
0.0
 11
293.8378888423
 21
344.65295304
 31
0.0
  0
LINE
  5
DD
330
1F
100
AcDbEntity
  8
0
  6
CONTINUOUS
 62
     7
100
AcDbLine
 10
237.0378884727
 20
344.65295304
 30
0.0
 11
237.0378884727
 21
341.8533787542
 31
0.0
  0
LINE
  5
DE
330
1F
100
AcDbEntity
  8
0
  6
CONTINUOUS
 62
     7
100
AcDbLine
 10
386.4378880019
 20
341.8533787542
 30
0.0
 11
386.4378880019
 21
344.65295304
 31
0.0
  0
ARC
  5
DF
330
1F
100
AcDbEntity
  8
0
  6
CONTINUOUS
 62
     7
100
AcDbCircle
 10
386.4378886575
 20
339.7585370089
 30
0.0
 40
4.894416638345604
100
AcDbArc
 50
0.0
 51
90.0
  0
ARC
  5
E0
330
1F
100
AcDbEntity
  8
0
  6
CONTINUOUS
 62
     7
100
AcDbCircle
 10
144.4378886575
 20
339.7585370089
 30
0.0
 40
4.894416638345632
100
AcDbArc
 50
90.0
 51
180.0
  0
LINE
  5
E1
330
1F
100
AcDbEntity
  8
0
  6
CONTINUOUS
 62
     7
100
AcDbLine
 10
144.4378893132
 20
341.8533787542
 30
0.0
 11
144.4378893132
 21
344.65295304
 31
0.0
  0
LINE
  5
E2
330
1F
100
AcDbEntity
  8
0
  6
CONTINUOUS
 62
     7
100
AcDbLine
 10
144.4378893132
 20
344.65295304
 30
0.0
 11
146.9878877754
 21
344.65295304
 31
0.0
  0
LINE
  5
E3
330
1F
100
AcDbEntity
  8
0
  6
CONTINUOUS
 62
     7
100
AcDbLine
 10
146.9878877754
 20
341.8533787542
 30
0.0
 11
146.9878877754
 21
344.65295304
 31
0.0
  0
LINE
  5
E4
330
1F
100
AcDbEntity
  8
0
  6
CONTINUOUS
 62
     7
100
AcDbLine
 10
310.7378880734
 20
344.65295304
 30
0.0
 11
310.7378880734
 21
341.8533787542
 31
0.0
  0
LINE
  5
E5
330
1F
100
AcDbEntity
  8
0
  6
CONTINUOUS
 62
     7
100
AcDbLine
 10
310.7378880734
 20
344.65295304
 30
0.0
 11
366.9878865833
 21
344.65295304
 31
0.0
  0
LINE
  5
E6
330
1F
100
AcDbEntity
  8
0
  6
CONTINUOUS
 62
     7
100
AcDbLine
 10
366.9878865833
 20
341.8533787542
 30
0.0
 11
366.9878865833
 21
344.65295304
 31
0.0
  0
LINE
  5
E7
330
1F
100
AcDbEntity
  8
0
  6
CONTINUOUS
 62
     7
100
AcDbLine
 10
383.8878895397
 20
344.65295304
 30
0.0
 11
386.4378880019
 21
344.65295304
 31
0.0
  0
LINE
  5
E8
330
1F
100
AcDbEntity
  8
0
  6
CONTINUOUS
 62
     7
100
AcDbLine
 10
383.8878895397
 20
344.65295304
 30
0.0
 11
383.8878895397
 21
341.8533787542
 31
0.0
  0
LINE
  5
E9
330
1F
100
AcDbEntity
  8
0
  6
CONTINUOUS
 62
     7
100
AcDbLine
 10
163.8878907318
 20
344.65295304
 30
0.0
 11
220.1378892416
 21
344.65295304
 31
0.0
  0
LINE
  5
EA
330
1F
100
AcDbEntity
  8
0
  6
CONTINUOUS
 62
     7
100
AcDbLine
 10
163.8878907318
 20
344.65295304
 30
0.0
 11
163.8878907318
 21
341.8533787542
 31
0.0
  0
LINE
  5
EB
330
1F
100
AcDbEntity
  8
0
  6
CONTINUOUS
 62
     7
100
AcDbLine
 10
220.1378892416
 20
341.8533787542
 30
0.0
 11
220.1378892416
 21
344.65295304
 31
0.0
  0
LINE
  5
EC
330
1F
100
AcDbEntity
  8
0
  6
CONTINUOUS
 62
     7
100
AcDbLine
 10
232.1112218553
 20
240.3633505517
 30
0.0
 11
232.1189779097
 21
240.3641216868
 31
0.0
  0
ELLIPSE
  5
ED
330
1F
100
AcDbEntity
  8
0
  6
CONTINUOUS
 62
     7
100
AcDbEllipse
 10
234.9133802359
 20
240.1409161631
 30
0.0
 11
2.847779708346792
 21
-0.2189145975677889
 31
0.0
210
0.0
220
0.0
230
1.0
 40
0.0138434908
 41
2.894250516717003
 42
2.963417486349867
  0
LINE
  5
EE
330
1F
100
AcDbEntity
  8
0
  6
CONTINUOUS
 62
     7
100
AcDbLine
 10
386.4378880019
 20
240.3641216868
 30
0.0
 11
386.4378880019
 21
240.2585357839
 31
0.0
  0
LINE
  5
EF
330
1F
100
AcDbEntity
  8
0
  6
CONTINUOUS
 62
     7
100
AcDbLine
 10
297.202354973
 20
240.2585357839
 30
0.0
 11
386.4378880019
 21
240.2585357839
 31
0.0
  0
LINE
  5
F0
330
1F
100
AcDbEntity
  8
0
  6
CONTINUOUS
 62
     7
100
AcDbLine
 10
298.7567994053
 20
240.3641216868
 30
0.0
 11
298.7645554597
 21
240.3633505517
 31
0.0
  0
ELLIPSE
  5
F1
330
1F
100
AcDbEntity
  8
0
  6
CONTINUOUS
 62
     7
100
AcDbEllipse
 10
295.9623970791
 20
240.1409161631
 30
0.0
 11
2.84777970834682
 21
0.2189145975677889
 31
0.0
210
0.0
220
0.0
230
1.0
 40
0.0138434908
 41
0.1781751672398117
 42
0.2473421368720627
  0
ARC
  5
F2
330
1F
100
AcDbEntity
  8
0
  6
CONTINUOUS
 62
     7
100
AcDbCircle
 10
144.4378886575
 20
245.2585370089
 30
0.0
 40
4.999999999999972
100
AcDbArc
 50
180.0
 51
270.0
  0
LINE
  5
F3
330
1F
100
AcDbEntity
  8
0
  6
CONTINUOUS
 62
     7
100
AcDbLine
 10
139.5434762592
 20
245.2585384661
 30
0.0
 11
139.437886631
 21
245.2585384661
 31
0.0
  0
LINE
  5
F4
330
1F
100
AcDbEntity
  8
0
  6
CONTINUOUS
 62
     7
100
AcDbLine
 10
144.4378893132
 20
240.3641216868
 30
0.0
 11
144.4378893132
 21
240.2585357839
 31
0.0
  0
ARC
  5
F5
330
1F
100
AcDbEntity
  8
0
  6
CONTINUOUS
 62
     7
100
AcDbCircle
 10
386.4378886575
 20
245.2585370089
 30
0.0
 40
5.0
100
AcDbArc
 50
270.0
 51
0.0
  0
LINE
  5
F6
330
1F
100
AcDbEntity
  8
0
  6
CONTINUOUS
 62
     7
100
AcDbLine
 10
391.3323010559
 20
245.2585384661
 30
0.0
 11
391.4378906841
 21
245.2585384661
 31
0.0
  0
LINE
  5
F7
330
1F
100
AcDbEntity
  8
0
  6
CONTINUOUS
 62
     7
100
AcDbLine
 10
144.4378893132
 20
240.2585357839
 30
0.0
 11
233.673422342
 21
240.2585357839
 31
0.0
  0
LINE
  5
F8
330
1F
100
AcDbEntity
  8
0
  6
CONTINUOUS
 62
     7
100
AcDbLine
 10
391.4378906841
 20
245.2585384661
 30
0.0
 11
391.4378906841
 21
339.7585362607
 31
0.0
  0
LINE
  5
F9
330
1F
100
AcDbEntity
  8
0
  6
CONTINUOUS
 62
     7
100
AcDbLine
 10
391.3323010559
 20
339.7585362607
 30
0.0
 11
391.4378906841
 21
339.7585362607
 31
0.0
  0
LINE
  5
FA
330
1F
100
AcDbEntity
  8
0
  6
CONTINUOUS
 62
     7
100
AcDbLine
 10
139.437886631
 20
339.7585362607
 30
0.0
 11
139.437886631
 21
245.2585384661
 31
0.0
  0
LINE
  5
FB
330
1F
100
AcDbEntity
  8
0
  6
CONTINUOUS
 62
     7
100
AcDbLine
 10
139.5434762592
 20
339.7585362607
 30
0.0
 11
139.437886631
 21
339.7585362607
 31
0.0
  0
LINE
  5
FC
330
1F
100
AcDbEntity
  8
0
  6
CONTINUOUS
 62
     7
100
AcDbLine
 10
144.4378893132
 20
344.65295304
 30
0.0
 11
144.4378893132
 21
344.7274588459
 31
0.0
  0
LINE
  5
FD
330
1F
100
AcDbEntity
  8
0
  6
CONTINUOUS
 62
     7
100
AcDbLine
 10
144.4378893132
 20
344.7274588459
 30
0.0
 11
146.9878877754
 21
344.7274588459
 31
0.0
  0
LINE
  5
FE
330
1F
100
AcDbEntity
  8
0
  6
CONTINUOUS
 62
     7
100
AcDbLine
 10
146.9878877754
 20
344.7274588459
 30
0.0
 11
146.9878877754
 21
344.65295304
 31
0.0
  0
LINE
  5
FF
330
1F
100
AcDbEntity
  8
0
  6
CONTINUOUS
 62
     7
100
AcDbLine
 10
310.7378880734
 20
344.7274588459
 30
0.0
 11
366.9878865833
 21
344.7274588459
 31
0.0
  0
LINE
  5
100
330
1F
100
AcDbEntity
  8
0
  6
CONTINUOUS
 62
     7
100
AcDbLine
 10
310.7378880734
 20
344.65295304
 30
0.0
 11
310.7378880734
 21
344.7274588459
 31
0.0
  0
LINE
  5
101
330
1F
100
AcDbEntity
  8
0
  6
CONTINUOUS
 62
     7
100
AcDbLine
 10
366.9878865833
 20
344.7274588459
 30
0.0
 11
366.9878865833
 21
344.65295304
 31
0.0
  0
LINE
  5
102
330
1F
100
AcDbEntity
  8
0
  6
CONTINUOUS
 62
     7
100
AcDbLine
 10
163.8878907318
 20
344.7274588459
 30
0.0
 11
220.1378892416
 21
344.7274588459
 31
0.0
  0
LINE
  5
103
330
1F
100
AcDbEntity
  8
0
  6
CONTINUOUS
 62
     7
100
AcDbLine
 10
163.8878907318
 20
344.65295304
 30
0.0
 11
163.8878907318
 21
344.7274588459
 31
0.0
  0
LINE
  5
104
330
1F
100
AcDbEntity
  8
0
  6
CONTINUOUS
 62
     7
100
AcDbLine
 10
220.1378892416
 20
344.7274588459
 30
0.0
 11
220.1378892416
 21
344.65295304
 31
0.0
  0
LINE
  5
105
330
1F
100
AcDbEntity
  8
0
  6
CONTINUOUS
 62
     7
100
AcDbLine
 10
386.4378880019
 20
344.65295304
 30
0.0
 11
386.4378880019
 21
344.7274588459
 31
0.0
  0
SPLINE
  5
106
330
1F
100
AcDbEntity
  8
0
  6
CONTINUOUS
 62
     7
100
AcDbSpline
210
0.0
220
0.0
230
1.0
 70
     8
 71
     3
 72
    12
 73
     8
 74
     0
 42
0.00000001
 43
0.00000001
 40
0.0
 40
0.0
 40
0.0
 40
0.0
 40
0.1658759619165178
 40
0.4641964766663783
 40
0.8914517152628215
 40
0.9969533275834772
 40
1.0
 40
1.0
 40
1.0
 40
1.0
 10
390.1944632882506
 20
343.0582121425581
 30
0.0
 10
390.0165702044517
 20
343.241770329407
 30
0.0
 10
389.5187443485011
 20
343.7554497234197
 30
0.0
 10
388.3967841487592
 20
344.4277569167385
 30
0.0
 10
387.296556913954
 20
344.7046057257693
 30
0.0
 10
386.5858925143615
 20
344.7288380008762
 30
0.0
 10
386.4419286975822
 20
344.7274964984817
 30
0.0
 10
386.4378880018622
 20
344.7274588459444
 30
0.0
  0
ARC
  5
107
330
1F
100
AcDbEntity
  8
0
  6
CONTINUOUS
 62
     7
100
AcDbCircle
 10
386.4378886575
 20
339.7585370089
 30
0.0
 40
5.0
100
AcDbArc
 50
0.0
 51
41.2955923719
  0
LINE
  5
108
330
1F
100
AcDbEntity
  8
0
  6
CONTINUOUS
 62
     7
100
AcDbLine
 10
383.8878895397
 20
344.7274588459
 30
0.0
 11
386.4378880019
 21
344.7274588459
 31
0.0
  0
LINE
  5
109
330
1F
100
AcDbEntity
  8
0
  6
CONTINUOUS
 62
     7
100
AcDbLine
 10
383.8878895397
 20
344.65295304
 30
0.0
 11
383.8878895397
 21
344.7274588459
 31
0.0
  0
ARC
  5
10A
330
1F
100
AcDbEntity
  8
0
  6
CONTINUOUS
 62
     7
100
AcDbCircle
 10
144.4378886575
 20
339.7585370089
 30
0.0
 40
4.999999999999972
100
AcDbArc
 50
138.7044076281
 51
180.0
  0
SPLINE
  5
10B
330
1F
100
AcDbEntity
  8
0
  6
CONTINUOUS
 62
     7
100
AcDbSpline
210
0.0
220
0.0
230
1.0
 70
     8
 71
     3
 72
    12
 73
     8
 74
     0
 42
0.00000001
 43
0.00000001
 40
0.0
 40
0.0
 40
0.0
 40
0.0
 40
0.0030486877035835
 40
0.4717247571901618
 40
0.7727554019961174
 40
0.9896094429010158
 40
1.0
 40
1.0
 40
1.0
 40
1.0
 10
144.4378893131643
 20
344.7274588459444
 30
0.0
 10
144.4338487167792
 20
344.7274964905667
 30
0.0
 10
143.808645503472
 20
344.7333212591422
 30
0.0
 10
142.7724888426268
 20
344.5506687287273
 30
0.0
 10
141.5284121902901
 20
343.8762467429021
 30
0.0
 10
140.9239099563179
 20
343.3322311676623
 30
0.0
 10
140.6919214929011
 20
343.0701935782397
 30
0.0
 10
140.6813140267759
 20
343.0582121425581
 30
0.0
  0
LINE
  5
10C
330
1F
100
AcDbEntity
  8
0
  6
CONTINUOUS
 62
     7
100
AcDbLine
 10
237.0378884727
 20
344.7274588459
 30
0.0
 11
293.8378888423
 21
344.7274588459
 31
0.0
  0
LINE
  5
10D
330
1F
100
AcDbEntity
  8
0
  6
CONTINUOUS
 62
     7
100
AcDbLine
 10
293.8378888423
 20
344.7274588459
 30
0.0
 11
293.8378888423
 21
344.65295304
 31
0.0
  0
LINE
  5
10E
330
1F
100
AcDbEntity
  8
0
  6
CONTINUOUS
 62
     7
100
AcDbLine
 10
237.0378884727
 20
344.65295304
 30
0.0
 11
237.0378884727
 21
344.7274588459
 31
0.0
  0
LINE
  5
10F
330
1F
100
AcDbEntity
  8
0
  6
CONTINUOUS
 62
     7
100
AcDbLine
 10
294.2632853294
 20
344.9983805829
 30
0.0
 11
294.5939849371
 21
344.6676791125
 31
0.0
  0
LINE
  5
110
330
1F
100
AcDbEntity
  8
0
  6
CONTINUOUS
 62
     7
100
AcDbLine
 10
294.2632853294
 20
347.4999018424
 30
0.0
 11
294.2632853294
 21
344.9983805829
 31
0.0
  0
LINE
  5
111
330
1F
100
AcDbEntity
  8
0
  6
CONTINUOUS
 62
     7
100
AcDbLine
 10
294.2632853294
 20
347.4999018424
 30
0.0
 11
294.5812276805
 21
347.1819594913
 31
0.0
  0
ELLIPSE
  5
112
330
1F
100
AcDbEntity
  8
0
  6
CONTINUOUS
 62
     7
100
AcDbEllipse
 10
294.5775717355
 20
344.1837874166
 30
0.0
 11
0.0
 21
3.000000000000057
 31
0.0
210
0.0
220
0.0
230
1.0
 40
0.0349207695
 41
4.71238898038469
 42
6.248278722139792
  0
LINE
  5
113
330
1F
100
AcDbEntity
  8
0
  6
CONTINUOUS
 62
     7
100
AcDbLine
 10
294.6823339219
 20
344.1837862545
 30
0.0
 11
294.6823339219
 21
340.1585355812
 31
0.0
  0
LINE
  5
114
330
1F
100
AcDbEntity
  8
0
  6
CONTINUOUS
 62
     7
100
AcDbLine
 10
294.437887823
 20
340.8252992147
 30
0.0
 11
294.437887823
 21
340.1585355812
 31
0.0
  0
LINE
  5
115
330
1F
100
AcDbEntity
  8
0
  6
CONTINUOUS
 62
     7
100
AcDbLine
 10
294.437887823
 20
340.8252992147
 30
0.0
 11
294.2632853294
 21
340.999903571
 31
0.0
  0
LINE
  5
116
330
1F
100
AcDbEntity
  8
0
  6
CONTINUOUS
 62
     7
100
AcDbLine
 10
294.5939849371
 20
341.0676777774
 30
0.0
 11
294.2632853294
 21
340.999903571
 31
0.0
  0
LINE
  5
117
330
1F
100
AcDbEntity
  8
0
  6
CONTINUOUS
 62
     7
100
AcDbLine
 10
294.5939849371
 20
344.6676791125
 30
0.0
 11
294.5939849371
 21
341.0676777774
 31
0.0
  0
LINE
  5
118
330
1F
100
AcDbEntity
  8
0
  6
CONTINUOUS
 62
     7
100
AcDbLine
 10
148.2632856125
 20
344.9983805829
 30
0.0
 11
148.5939870829
 21
344.6676791125
 31
0.0
  0
LINE
  5
119
330
1F
100
AcDbEntity
  8
0
  6
CONTINUOUS
 62
     7
100
AcDbLine
 10
148.2632856125
 20
347.4999018424
 30
0.0
 11
148.2632856125
 21
344.9983805829
 31
0.0
  0
LINE
  5
11A
330
1F
100
AcDbEntity
  8
0
  6
CONTINUOUS
 62
     7
100
AcDbLine
 10
148.2632856125
 20
347.4999018424
 30
0.0
 11
148.5812242383
 21
347.1819594913
 31
0.0
  0
ELLIPSE
  5
11B
330
1F
100
AcDbEntity
  8
0
  6
CONTINUOUS
 62
     7
100
AcDbEllipse
 10
148.5775717355
 20
344.1837874166
 30
0.0
 11
0.0
 21
3.000000000000057
 31
0.0
210
0.0
220
0.0
230
1.0
 40
0.0349207695
 41
4.71238898038469
 42
6.248278722140361
  0
LINE
  5
11C
330
1F
100
AcDbEntity
  8
0
  6
CONTINUOUS
 62
     7
100
AcDbLine
 10
148.6823360676
 20
344.1837862545
 30
0.0
 11
148.6823360676
 21
340.1585355812
 31
0.0
  0
LINE
  5
11D
330
1F
100
AcDbEntity
  8
0
  6
CONTINUOUS
 62
     7
100
AcDbLine
 10
148.4378899688
 20
340.8252992147
 30
0.0
 11
148.4378899688
 21
340.1585355812
 31
0.0
  0
LINE
  5
11E
330
1F
100
AcDbEntity
  8
0
  6
CONTINUOUS
 62
     7
100
AcDbLine
 10
148.4378899688
 20
340.8252992147
 30
0.0
 11
148.2632856125
 21
340.999903571
 31
0.0
  0
LINE
  5
11F
330
1F
100
AcDbEntity
  8
0
  6
CONTINUOUS
 62
     7
100
AcDbLine
 10
148.5939870829
 20
341.0676777774
 30
0.0
 11
148.2632856125
 21
340.999903571
 31
0.0
  0
LINE
  5
120
330
1F
100
AcDbEntity
  8
0
  6
CONTINUOUS
 62
     7
100
AcDbLine
 10
148.5939870829
 20
344.6676791125
 30
0.0
 11
148.5939870829
 21
341.0676777774
 31
0.0
  0
LINE
  5
121
330
1F
100
AcDbEntity
  8
0
  6
CONTINUOUS
 62
     7
100
AcDbLine
 10
221.2632845396
 20
344.9983805829
 30
0.0
 11
221.59398601
 21
344.6676791125
 31
0.0
  0
LINE
  5
122
330
1F
100
AcDbEntity
  8
0
  6
CONTINUOUS
 62
     7
100
AcDbLine
 10
221.2632845396
 20
347.4999018424
 30
0.0
 11
221.2632845396
 21
344.9983805829
 31
0.0
  0
LINE
  5
123
330
1F
100
AcDbEntity
  8
0
  6
CONTINUOUS
 62
     7
100
AcDbLine
 10
221.2632845396
 20
347.4999018424
 30
0.0
 11
221.5812268907
 21
347.1819594913
 31
0.0
  0
ELLIPSE
  5
124
330
1F
100
AcDbEntity
  8
0
  6
CONTINUOUS
 62
     7
100
AcDbEllipse
 10
221.5775717355
 20
344.1837874166
 30
0.0
 11
0.0
 21
3.000000000000057
 31
0.0
210
0.0
220
0.0
230
1.0
 40
0.0349207695
 41
4.71238898038469
 42
6.248278722140062
  0
LINE
  5
125
330
1F
100
AcDbEntity
  8
0
  6
CONTINUOUS
 62
     7
100
AcDbLine
 10
221.6823349947
 20
344.1837862545
 30
0.0
 11
221.6823349947
 21
340.1585355812
 31
0.0
  0
LINE
  5
126
330
1F
100
AcDbEntity
  8
0
  6
CONTINUOUS
 62
     7
100
AcDbLine
 10
221.4378888959
 20
340.8252992147
 30
0.0
 11
221.4378888959
 21
340.1585355812
 31
0.0
  0
LINE
  5
127
330
1F
100
AcDbEntity
  8
0
  6
CONTINUOUS
 62
     7
100
AcDbLine
 10
221.4378888959
 20
340.8252992147
 30
0.0
 11
221.2632845396
 21
340.999903571
 31
0.0
  0
LINE
  5
128
330
1F
100
AcDbEntity
  8
0
  6
CONTINUOUS
 62
     7
100
AcDbLine
 10
221.59398601
 20
341.0676777774
 30
0.0
 11
221.2632845396
 21
340.999903571
 31
0.0
  0
LINE
  5
129
330
1F
100
AcDbEntity
  8
0
  6
CONTINUOUS
 62
     7
100
AcDbLine
 10
221.59398601
 20
344.6676791125
 30
0.0
 11
221.59398601
 21
341.0676777774
 31
0.0
  0
LINE
  5
12A
330
1F
100
AcDbEntity
  8
0
  6
CONTINUOUS
 62
     7
100
AcDbLine
 10
309.1934423203
 20
344.1837862545
 30
0.0
 11
304.3934430236
 21
344.1837862545
 31
0.0
  0
ELLIPSE
  5
12B
330
1F
100
AcDbEntity
  8
0
  6
CONTINUOUS
 62
     7
100
AcDbEllipse
 10
304.2886809626
 20
344.1837874166
 30
0.0
 11
0.0
 21
3.000000000000057
 31
0.0
210
0.0
220
0.0
230
1.0
 40
0.0349207695
 41
4.71238898038469
 42
6.248278722139792
  0
LINE
  5
12C
330
1F
100
AcDbEntity
  8
0
  6
CONTINUOUS
 62
     7
100
AcDbLine
 10
304.2923386449
 20
347.1819594913
 30
0.0
 11
309.2945504243
 21
347.1819594913
 31
0.0
  0
ELLIPSE
  5
12D
330
1F
100
AcDbEntity
  8
0
  6
CONTINUOUS
 62
     7
100
AcDbEllipse
 10
309.2982055795
 20
344.1837874166
 30
0.0
 11
0.0
 21
3.000000000000057
 31
0.0
210
0.0
220
0.0
230
1.0
 40
0.0349207695
 41
0.0349065850396392
 42
1.570796326794897
  0
LINE
  5
12E
330
1F
100
AcDbEntity
  8
0
  6
CONTINUOUS
 62
     7
100
AcDbLine
 10
163.1934444661
 20
344.1837862545
 30
0.0
 11
158.3934451694
 21
344.1837862545
 31
0.0
  0
ELLIPSE
  5
12F
330
1F
100
AcDbEntity
  8
0
  6
CONTINUOUS
 62
     7
100
AcDbEllipse
 10
158.2886809626
 20
344.1837874166
 30
0.0
 11
0.0
 21
3.000000000000057
 31
0.0
210
0.0
220
0.0
230
1.0
 40
0.0349207695
 41
4.71238898038469
 42
6.248278722140361
  0
LINE
  5
130
330
1F
100
AcDbEntity
  8
0
  6
CONTINUOUS
 62
     7
100
AcDbLine
 10
158.2923407907
 20
347.1819594913
 30
0.0
 11
163.2945488448
 21
347.1819594913
 31
0.0
  0
ELLIPSE
  5
131
330
1F
100
AcDbEntity
  8
0
  6
CONTINUOUS
 62
     7
100
AcDbEllipse
 10
163.2982055795
 20
344.1837874166
 30
0.0
 11
0.0
 21
3.000000000000057
 31
0.0
210
0.0
220
0.0
230
1.0
 40
0.0349207695
 41
0.0349065850399103
 42
1.570796326794897
  0
LINE
  5
132
330
1F
100
AcDbEntity
  8
0
  6
CONTINUOUS
 62
     7
100
AcDbLine
 10
382.1934412474
 20
344.1837862545
 30
0.0
 11
377.3934419507
 21
344.1837862545
 31
0.0
  0
ELLIPSE
  5
133
330
1F
100
AcDbEntity
  8
0
  6
CONTINUOUS
 62
     7
100
AcDbEllipse
 10
377.2886809626
 20
344.1837874166
 30
0.0
 11
0.0
 21
3.000000000000057
 31
0.0
210
0.0
220
0.0
230
1.0
 40
0.0349207695
 41
4.71238898038469
 42
6.248278722140352
  0
LINE
  5
134
330
1F
100
AcDbEntity
  8
0
  6
CONTINUOUS
 62
     7
100
AcDbLine
 10
377.292337572
 20
347.1819594913
 30
0.0
 11
382.2945530767
 21
347.1819594913
 31
0.0
  0
ELLIPSE
  5
135
330
1F
100
AcDbEntity
  8
0
  6
CONTINUOUS
 62
     7
100
AcDbEllipse
 10
382.2982055795
 20
344.1837874166
 30
0.0
 11
0.0
 21
3.000000000000057
 31
0.0
210
0.0
220
0.0
230
1.0
 40
0.0349207695
 41
0.0349065850396392
 42
1.570796326794897
  0
LINE
  5
136
330
1F
100
AcDbEntity
  8
0
  6
CONTINUOUS
 62
     7
100
AcDbLine
 10
372.4823321456
 20
344.1837862545
 30
0.0
 11
367.682332849
 21
344.1837862545
 31
0.0
  0
ELLIPSE
  5
137
330
1F
100
AcDbEntity
  8
0
  6
CONTINUOUS
 62
     7
100
AcDbEllipse
 10
367.5775717355
 20
344.1837874166
 30
0.0
 11
0.0
 21
3.000000000000057
 31
0.0
210
0.0
220
0.0
230
1.0
 40
0.0349207695
 41
4.71238898038469
 42
6.248278722139774
  0
LINE
  5
138
330
1F
100
AcDbEntity
  8
0
  6
CONTINUOUS
 62
     7
100
AcDbLine
 10
367.5812284703
 20
347.1819594913
 30
0.0
 11
372.5834365243
 21
347.1819594913
 31
0.0
  0
ELLIPSE
  5
139
330
1F
100
AcDbEntity
  8
0
  6
CONTINUOUS
 62
     7
100
AcDbEllipse
 10
372.5870963524
 20
344.1837874166
 30
0.0
 11
0.0
 21
3.000000000000057
 31
0.0
210
0.0
220
0.0
230
1.0
 40
0.0349207695
 41
0.0349065850396392
 42
1.570796326794897
  0
LINE
  5
13A
330
1F
100
AcDbEntity
  8
0
  6
CONTINUOUS
 62
     7
100
AcDbLine
 10
236.1934433932
 20
344.1837862545
 30
0.0
 11
231.3934440965
 21
344.1837862545
 31
0.0
  0
ELLIPSE
  5
13B
330
1F
100
AcDbEntity
  8
0
  6
CONTINUOUS
 62
     7
100
AcDbEllipse
 10
231.2886809626
 20
344.1837874166
 30
0.0
 11
0.0
 21
3.000000000000057
 31
0.0
210
0.0
220
0.0
230
1.0
 40
0.0349207695
 41
4.71238898038469
 42
6.248278722140072
  0
LINE
  5
13C
330
1F
100
AcDbEntity
  8
0
  6
CONTINUOUS
 62
     7
100
AcDbLine
 10
231.2923359925
 20
347.1819594913
 30
0.0
 11
236.2945496345
 21
347.1819594913
 31
0.0
  0
ELLIPSE
  5
13D
330
1F
100
AcDbEntity
  8
0
  6
CONTINUOUS
 62
     7
100
AcDbEllipse
 10
236.2982055795
 20
344.1837874166
 30
0.0
 11
0.0
 21
3.000000000000057
 31
0.0
210
0.0
220
0.0
230
1.0
 40
0.0349207695
 41
0.0349065850393681
 42
1.570796326794897
  0
LINE
  5
13E
330
1F
100
AcDbEntity
  8
0
  6
CONTINUOUS
 62
     7
100
AcDbLine
 10
226.4823342914
 20
344.1837862545
 30
0.0
 11
221.6823349947
 21
344.1837862545
 31
0.0
  0
LINE
  5
13F
330
1F
100
AcDbEntity
  8
0
  6
CONTINUOUS
 62
     7
100
AcDbLine
 10
221.5812268907
 20
347.1819594913
 30
0.0
 11
226.5834386701
 21
347.1819594913
 31
0.0
  0
ELLIPSE
  5
140
330
1F
100
AcDbEntity
  8
0
  6
CONTINUOUS
 62
     7
100
AcDbEllipse
 10
226.5870963524
 20
344.1837874166
 30
0.0
 11
0.0
 21
3.000000000000057
 31
0.0
210
0.0
220
0.0
230
1.0
 40
0.0349207695
 41
0.0349065850396392
 42
1.570796326794897
  0
LINE
  5
141
330
1F
100
AcDbEntity
  8
0
  6
CONTINUOUS
 62
     7
100
AcDbLine
 10
153.4823353643
 20
344.1837862545
 30
0.0
 11
148.6823360676
 21
344.1837862545
 31
0.0
  0
LINE
  5
142
330
1F
100
AcDbEntity
  8
0
  6
CONTINUOUS
 62
     7
100
AcDbLine
 10
148.5812242383
 20
347.1819594913
 30
0.0
 11
153.583439743
 21
347.1819594913
 31
0.0
  0
ELLIPSE
  5
143
330
1F
100
AcDbEntity
  8
0
  6
CONTINUOUS
 62
     7
100
AcDbEllipse
 10
153.5870963524
 20
344.1837874166
 30
0.0
 11
0.0
 21
3.000000000000057
 31
0.0
210
0.0
220
0.0
230
1.0
 40
0.0349207695
 41
0.0349065850399103
 42
1.570796326794897
  0
LINE
  5
144
330
1F
100
AcDbEntity
  8
0
  6
CONTINUOUS
 62
     7
100
AcDbLine
 10
367.2632823939
 20
344.9983805829
 30
0.0
 11
367.5939838643
 21
344.6676791125
 31
0.0
  0
LINE
  5
145
330
1F
100
AcDbEntity
  8
0
  6
CONTINUOUS
 62
     7
100
AcDbLine
 10
367.2632823939
 20
347.4999018424
 30
0.0
 11
367.2632823939
 21
344.9983805829
 31
0.0
  0
LINE
  5
146
330
1F
100
AcDbEntity
  8
0
  6
CONTINUOUS
 62
     7
100
AcDbLine
 10
367.2632823939
 20
347.4999018424
 30
0.0
 11
367.5812284703
 21
347.1819594913
 31
0.0
  0
LINE
  5
147
330
1F
100
AcDbEntity
  8
0
  6
CONTINUOUS
 62
     7
100
AcDbLine
 10
367.682332849
 20
344.1837862545
 30
0.0
 11
367.682332849
 21
340.1585355812
 31
0.0
  0
LINE
  5
148
330
1F
100
AcDbEntity
  8
0
  6
CONTINUOUS
 62
     7
100
AcDbLine
 10
367.4378867502
 20
340.8252992147
 30
0.0
 11
367.4378867502
 21
340.1585355812
 31
0.0
  0
LINE
  5
149
330
1F
100
AcDbEntity
  8
0
  6
CONTINUOUS
 62
     7
100
AcDbLine
 10
367.4378867502
 20
340.8252992147
 30
0.0
 11
367.2632823939
 21
340.999903571
 31
0.0
  0
LINE
  5
14A
330
1F
100
AcDbEntity
  8
0
  6
CONTINUOUS
 62
     7
100
AcDbLine
 10
367.5939838643
 20
341.0676777774
 30
0.0
 11
367.2632823939
 21
340.999903571
 31
0.0
  0
LINE
  5
14B
330
1F
100
AcDbEntity
  8
0
  6
CONTINUOUS
 62
     7
100
AcDbLine
 10
367.5939838643
 20
344.6676791125
 30
0.0
 11
367.5939838643
 21
341.0676777774
 31
0.0
  0
LINE
  5
14C
330
1F
100
AcDbEntity
  8
0
  6
CONTINUOUS
 62
     7
100
AcDbLine
 10
236.437889492
 20
340.1585355812
 30
0.0
 11
236.437889492
 21
340.8252992147
 31
0.0
  0
LINE
  5
14D
330
1F
100
AcDbEntity
  8
0
  6
CONTINUOUS
 62
     7
100
AcDbLine
 10
236.1934433932
 20
340.1585355812
 30
0.0
 11
236.1934433932
 21
344.1837862545
 31
0.0
  0
LINE
  5
14E
330
1F
100
AcDbEntity
  8
0
  6
CONTINUOUS
 62
     7
100
AcDbLine
 10
236.6124919856
 20
347.4999018424
 30
0.0
 11
236.2945496345
 21
347.1819594913
 31
0.0
  0
LINE
  5
14F
330
1F
100
AcDbEntity
  8
0
  6
CONTINUOUS
 62
     7
100
AcDbLine
 10
236.6124919856
 20
344.9983805829
 30
0.0
 11
236.6124919856
 21
347.4999018424
 31
0.0
  0
LINE
  5
150
330
1F
100
AcDbEntity
  8
0
  6
CONTINUOUS
 62
     7
100
AcDbLine
 10
236.2817923779
 20
344.6676791125
 30
0.0
 11
236.6124919856
 21
344.9983805829
 31
0.0
  0
LINE
  5
151
330
1F
100
AcDbEntity
  8
0
  6
CONTINUOUS
 62
     7
100
AcDbLine
 10
236.2817923779
 20
341.0676777774
 30
0.0
 11
236.2817923779
 21
344.6676791125
 31
0.0
  0
LINE
  5
152
330
1F
100
AcDbEntity
  8
0
  6
CONTINUOUS
 62
     7
100
AcDbLine
 10
236.6124919856
 20
340.999903571
 30
0.0
 11
236.2817923779
 21
341.0676777774
 31
0.0
  0
LINE
  5
153
330
1F
100
AcDbEntity
  8
0
  6
CONTINUOUS
 62
     7
100
AcDbLine
 10
236.6124919856
 20
340.999903571
 30
0.0
 11
236.437889492
 21
340.8252992147
 31
0.0
  0
LINE
  5
154
330
1F
100
AcDbEntity
  8
0
  6
CONTINUOUS
 62
     7
100
AcDbLine
 10
309.4378884191
 20
340.1585355812
 30
0.0
 11
309.4378884191
 21
340.8252992147
 31
0.0
  0
LINE
  5
155
330
1F
100
AcDbEntity
  8
0
  6
CONTINUOUS
 62
     7
100
AcDbLine
 10
309.1934423203
 20
340.1585355812
 30
0.0
 11
309.1934423203
 21
344.1837862545
 31
0.0
  0
LINE
  5
156
330
1F
100
AcDbEntity
  8
0
  6
CONTINUOUS
 62
     7
100
AcDbLine
 10
309.6124927754
 20
347.4999018424
 30
0.0
 11
309.2945504243
 21
347.1819594913
 31
0.0
  0
LINE
  5
157
330
1F
100
AcDbEntity
  8
0
  6
CONTINUOUS
 62
     7
100
AcDbLine
 10
309.6124927754
 20
344.9983805829
 30
0.0
 11
309.6124927754
 21
347.4999018424
 31
0.0
  0
LINE
  5
158
330
1F
100
AcDbEntity
  8
0
  6
CONTINUOUS
 62
     7
100
AcDbLine
 10
309.281791305
 20
344.6676791125
 30
0.0
 11
309.6124927754
 21
344.9983805829
 31
0.0
  0
LINE
  5
159
330
1F
100
AcDbEntity
  8
0
  6
CONTINUOUS
 62
     7
100
AcDbLine
 10
309.281791305
 20
341.0676777774
 30
0.0
 11
309.281791305
 21
344.6676791125
 31
0.0
  0
LINE
  5
15A
330
1F
100
AcDbEntity
  8
0
  6
CONTINUOUS
 62
     7
100
AcDbLine
 10
309.6124927754
 20
340.999903571
 30
0.0
 11
309.281791305
 21
341.0676777774
 31
0.0
  0
LINE
  5
15B
330
1F
100
AcDbEntity
  8
0
  6
CONTINUOUS
 62
     7
100
AcDbLine
 10
309.6124927754
 20
340.999903571
 30
0.0
 11
309.4378884191
 21
340.8252992147
 31
0.0
  0
LINE
  5
15C
330
1F
100
AcDbEntity
  8
0
  6
CONTINUOUS
 62
     7
100
AcDbLine
 10
382.4378873462
 20
340.1585355812
 30
0.0
 11
382.4378873462
 21
340.8252992147
 31
0.0
  0
LINE
  5
15D
330
1F
100
AcDbEntity
  8
0
  6
CONTINUOUS
 62
     7
100
AcDbLine
 10
382.1934412474
 20
340.1585355812
 30
0.0
 11
382.1934412474
 21
344.1837862545
 31
0.0
  0
LINE
  5
15E
330
1F
100
AcDbEntity
  8
0
  6
CONTINUOUS
 62
     7
100
AcDbLine
 10
382.6124917025
 20
347.4999018424
 30
0.0
 11
382.2945530767
 21
347.1819594913
 31
0.0
  0
LINE
  5
15F
330
1F
100
AcDbEntity
  8
0
  6
CONTINUOUS
 62
     7
100
AcDbLine
 10
382.6124917025
 20
344.9983805829
 30
0.0
 11
382.6124917025
 21
347.4999018424
 31
0.0
  0
LINE
  5
160
330
1F
100
AcDbEntity
  8
0
  6
CONTINUOUS
 62
     7
100
AcDbLine
 10
382.2817902321
 20
344.6676791125
 30
0.0
 11
382.6124917025
 21
344.9983805829
 31
0.0
  0
LINE
  5
161
330
1F
100
AcDbEntity
  8
0
  6
CONTINUOUS
 62
     7
100
AcDbLine
 10
382.2817902321
 20
341.0676777774
 30
0.0
 11
382.2817902321
 21
344.6676791125
 31
0.0
  0
LINE
  5
162
330
1F
100
AcDbEntity
  8
0
  6
CONTINUOUS
 62
     7
100
AcDbLine
 10
382.6124917025
 20
340.999903571
 30
0.0
 11
382.2817902321
 21
341.0676777774
 31
0.0
  0
LINE
  5
163
330
1F
100
AcDbEntity
  8
0
  6
CONTINUOUS
 62
     7
100
AcDbLine
 10
382.6124917025
 20
340.999903571
 30
0.0
 11
382.4378873462
 21
340.8252992147
 31
0.0
  0
LINE
  5
164
330
1F
100
AcDbEntity
  8
0
  6
CONTINUOUS
 62
     7
100
AcDbLine
 10
163.4378905649
 20
340.1585355812
 30
0.0
 11
163.4378905649
 21
340.8252992147
 31
0.0
  0
LINE
  5
165
330
1F
100
AcDbEntity
  8
0
  6
CONTINUOUS
 62
     7
100
AcDbLine
 10
163.1934444661
 20
340.1585355812
 30
0.0
 11
163.1934444661
 21
344.1837862545
 31
0.0
  0
LINE
  5
166
330
1F
100
AcDbEntity
  8
0
  6
CONTINUOUS
 62
     7
100
AcDbLine
 10
163.6124949212
 20
347.4999018424
 30
0.0
 11
163.2945488448
 21
347.1819594913
 31
0.0
  0
LINE
  5
167
330
1F
100
AcDbEntity
  8
0
  6
CONTINUOUS
 62
     7
100
AcDbLine
 10
163.6124949212
 20
344.9983805829
 30
0.0
 11
163.6124949212
 21
347.4999018424
 31
0.0
  0
LINE
  5
168
330
1F
100
AcDbEntity
  8
0
  6
CONTINUOUS
 62
     7
100
AcDbLine
 10
163.2817934508
 20
344.6676791125
 30
0.0
 11
163.6124949212
 21
344.9983805829
 31
0.0
  0
LINE
  5
169
330
1F
100
AcDbEntity
  8
0
  6
CONTINUOUS
 62
     7
100
AcDbLine
 10
163.2817934508
 20
341.0676777774
 30
0.0
 11
163.2817934508
 21
344.6676791125
 31
0.0
  0
LINE
  5
16A
330
1F
100
AcDbEntity
  8
0
  6
CONTINUOUS
 62
     7
100
AcDbLine
 10
163.6124949212
 20
340.999903571
 30
0.0
 11
163.2817934508
 21
341.0676777774
 31
0.0
  0
LINE
  5
16B
330
1F
100
AcDbEntity
  8
0
  6
CONTINUOUS
 62
     7
100
AcDbLine
 10
163.6124949212
 20
340.999903571
 30
0.0
 11
163.4378905649
 21
340.8252992147
 31
0.0
  0
LINE
  5
16C
330
1F
100
AcDbEntity
  8
0
  6
CONTINUOUS
 62
     7
100
AcDbLine
 10
299.4823332185
 20
344.1837862545
 30
0.0
 11
294.6823339219
 21
344.1837862545
 31
0.0
  0
LINE
  5
16D
330
1F
100
AcDbEntity
  8
0
  6
CONTINUOUS
 62
     7
100
AcDbLine
 10
294.5812276805
 20
347.1819594913
 30
0.0
 11
299.5834413225
 21
347.1819594913
 31
0.0
  0
ELLIPSE
  5
16E
330
1F
100
AcDbEntity
  8
0
  6
CONTINUOUS
 62
     7
100
AcDbEllipse
 10
299.5870963524
 20
344.1837874166
 30
0.0
 11
0.0
 21
3.000000000000057
 31
0.0
210
0.0
220
0.0
230
1.0
 40
0.0349207695
 41
0.0349065850401815
 42
1.570796326794897
  0
LINE
  5
16F
330
1F
100
AcDbEntity
  8
0
  6
CONTINUOUS
 62
     7
100
AcDbLine
 10
153.9013858194
 20
340.999903571
 30
0.0
 11
153.4823353643
 21
340.5808531159
 31
0.0
  0
LINE
  5
170
330
1F
100
AcDbEntity
  8
0
  6
CONTINUOUS
 62
     7
100
AcDbLine
 10
153.4823353643
 20
340.5808531159
 30
0.0
 11
153.4823353643
 21
344.1837862545
 31
0.0
  0
LINE
  5
171
330
1F
100
AcDbEntity
  8
0
  6
CONTINUOUS
 62
     7
100
AcDbLine
 10
153.9013858194
 20
347.4999018424
 30
0.0
 11
153.583439743
 21
347.1819594913
 31
0.0
  0
LINE
  5
172
330
1F
100
AcDbEntity
  8
0
  6
CONTINUOUS
 62
     7
100
AcDbLine
 10
153.9013858194
 20
344.9983805829
 30
0.0
 11
153.9013858194
 21
347.4999018424
 31
0.0
  0
LINE
  5
173
330
1F
100
AcDbEntity
  8
0
  6
CONTINUOUS
 62
     7
100
AcDbLine
 10
153.9013858194
 20
344.9983805829
 30
0.0
 11
153.570684349
 21
344.6676791125
 31
0.0
  0
LINE
  5
174
330
1F
100
AcDbEntity
  8
0
  6
CONTINUOUS
 62
     7
100
AcDbLine
 10
153.570684349
 20
344.6676791125
 30
0.0
 11
153.570684349
 21
341.0676777774
 31
0.0
  0
LINE
  5
175
330
1F
100
AcDbEntity
  8
0
  6
CONTINUOUS
 62
     7
100
AcDbLine
 10
153.570684349
 20
341.0676777774
 30
0.0
 11
153.9013858194
 21
340.999903571
 31
0.0
  0
LINE
  5
176
330
1F
100
AcDbEntity
  8
0
  6
CONTINUOUS
 62
     7
100
AcDbLine
 10
231.3050951118
 20
341.0676777774
 30
0.0
 11
231.3050951118
 21
344.6676791125
 31
0.0
  0
LINE
  5
177
330
1F
100
AcDbEntity
  8
0
  6
CONTINUOUS
 62
     7
100
AcDbLine
 10
231.3050951118
 20
344.6676791125
 30
0.0
 11
230.9743936414
 21
344.9983805829
 31
0.0
  0
LINE
  5
178
330
1F
100
AcDbEntity
  8
0
  6
CONTINUOUS
 62
     7
100
AcDbLine
 10
230.9743936414
 20
347.4999018424
 30
0.0
 11
230.9743936414
 21
344.9983805829
 31
0.0
  0
LINE
  5
179
330
1F
100
AcDbEntity
  8
0
  6
CONTINUOUS
 62
     7
100
AcDbLine
 10
230.9743936414
 20
347.4999018424
 30
0.0
 11
231.2923359925
 21
347.1819594913
 31
0.0
  0
LINE
  5
17A
330
1F
100
AcDbEntity
  8
0
  6
CONTINUOUS
 62
     7
100
AcDbLine
 10
231.3934440965
 20
344.1837862545
 30
0.0
 11
231.3934440965
 21
340.5808531159
 31
0.0
  0
LINE
  5
17B
330
1F
100
AcDbEntity
  8
0
  6
CONTINUOUS
 62
     7
100
AcDbLine
 10
231.3934440965
 20
340.5808531159
 30
0.0
 11
230.9743936414
 21
340.999903571
 31
0.0
  0
LINE
  5
17C
330
1F
100
AcDbEntity
  8
0
  6
CONTINUOUS
 62
     7
100
AcDbLine
 10
230.9743936414
 20
340.999903571
 30
0.0
 11
231.3050951118
 21
341.0676777774
 31
0.0
  0
LINE
  5
17D
330
1F
100
AcDbEntity
  8
0
  6
CONTINUOUS
 62
     7
100
AcDbLine
 10
158.3050961847
 20
341.0676777774
 30
0.0
 11
158.3050961847
 21
344.6676791125
 31
0.0
  0
LINE
  5
17E
330
1F
100
AcDbEntity
  8
0
  6
CONTINUOUS
 62
     7
100
AcDbLine
 10
158.3050961847
 20
344.6676791125
 30
0.0
 11
157.9743947143
 21
344.9983805829
 31
0.0
  0
LINE
  5
17F
330
1F
100
AcDbEntity
  8
0
  6
CONTINUOUS
 62
     7
100
AcDbLine
 10
157.9743947143
 20
347.4999018424
 30
0.0
 11
157.9743947143
 21
344.9983805829
 31
0.0
  0
LINE
  5
180
330
1F
100
AcDbEntity
  8
0
  6
CONTINUOUS
 62
     7
100
AcDbLine
 10
157.9743947143
 20
347.4999018424
 30
0.0
 11
158.2923407907
 21
347.1819594913
 31
0.0
  0
LINE
  5
181
330
1F
100
AcDbEntity
  8
0
  6
CONTINUOUS
 62
     7
100
AcDbLine
 10
158.3934451694
 20
344.1837862545
 30
0.0
 11
158.3934451694
 21
340.5808531159
 31
0.0
  0
LINE
  5
182
330
1F
100
AcDbEntity
  8
0
  6
CONTINUOUS
 62
     7
100
AcDbLine
 10
158.3934451694
 20
340.5808531159
 30
0.0
 11
157.9743947143
 21
340.999903571
 31
0.0
  0
LINE
  5
183
330
1F
100
AcDbEntity
  8
0
  6
CONTINUOUS
 62
     7
100
AcDbLine
 10
157.9743947143
 20
340.999903571
 30
0.0
 11
158.3050961847
 21
341.0676777774
 31
0.0
  0
LINE
  5
184
330
1F
100
AcDbEntity
  8
0
  6
CONTINUOUS
 62
     7
100
AcDbLine
 10
158.3934451694
 20
340.5808531159
 30
0.0
 11
153.4823353643
 21
340.5808531159
 31
0.0
  0
LINE
  5
185
330
1F
100
AcDbEntity
  8
0
  6
CONTINUOUS
 62
     7
100
AcDbLine
 10
226.4823342914
 20
340.5808531159
 30
0.0
 11
226.4823342914
 21
344.1837862545
 31
0.0
  0
LINE
  5
186
330
1F
100
AcDbEntity
  8
0
  6
CONTINUOUS
 62
     7
100
AcDbLine
 10
231.3934440965
 20
340.5808531159
 30
0.0
 11
226.4823342914
 21
340.5808531159
 31
0.0
  0
LINE
  5
187
330
1F
100
AcDbEntity
  8
0
  6
CONTINUOUS
 62
     7
100
AcDbLine
 10
299.4823332185
 20
340.5808531159
 30
0.0
 11
299.4823332185
 21
344.1837862545
 31
0.0
  0
LINE
  5
188
330
1F
100
AcDbEntity
  8
0
  6
CONTINUOUS
 62
     7
100
AcDbLine
 10
304.3934430236
 20
340.5808531159
 30
0.0
 11
299.4823332185
 21
340.5808531159
 31
0.0
  0
LINE
  5
189
330
1F
100
AcDbEntity
  8
0
  6
CONTINUOUS
 62
     7
100
AcDbLine
 10
304.3934430236
 20
344.1837862545
 30
0.0
 11
304.3934430236
 21
340.5808531159
 31
0.0
  0
LINE
  5
18A
330
1F
100
AcDbEntity
  8
0
  6
CONTINUOUS
 62
     7
100
AcDbLine
 10
372.4823321456
 20
340.5808531159
 30
0.0
 11
372.4823321456
 21
344.1837862545
 31
0.0
  0
LINE
  5
18B
330
1F
100
AcDbEntity
  8
0
  6
CONTINUOUS
 62
     7
100
AcDbLine
 10
377.3934419507
 20
340.5808531159
 30
0.0
 11
372.4823321456
 21
340.5808531159
 31
0.0
  0
LINE
  5
18C
330
1F
100
AcDbEntity
  8
0
  6
CONTINUOUS
 62
     7
100
AcDbLine
 10
377.3934419507
 20
344.1837862545
 30
0.0
 11
377.3934419507
 21
340.5808531159
 31
0.0
  0
LINE
  5
18D
330
1F
100
AcDbEntity
  8
0
  6
CONTINUOUS
 62
     7
100
AcDbLine
 10
138.3680428619
 20
335.7554585153
 30
0.0
 11
138.6124964113
 21
335.9999046141
 31
0.0
  0
LINE
  5
18E
330
1F
100
AcDbEntity
  8
0
  6
CONTINUOUS
 62
     7
100
AcDbLine
 10
138.3680428619
 20
335.7554585153
 30
0.0
 11
137.2569377775
 21
335.7554585153
 31
0.0
  0
LINE
  5
18F
330
1F
100
AcDbEntity
  8
0
  6
CONTINUOUS
 62
     7
100
AcDbLine
 10
137.2569377775
 20
335.7554585153
 30
0.0
 11
137.0124991292
 21
335.9999046141
 31
0.0
  0
LINE
  5
190
330
1F
100
AcDbEntity
  8
0
  6
CONTINUOUS
 62
     7
100
AcDbLine
 10
138.6124964113
 20
335.9999046141
 30
0.0
 11
137.0124991292
 21
335.9999046141
 31
0.0
  0
LINE
  5
191
330
1F
100
AcDbEntity
  8
0
  6
CONTINUOUS
 62
     7
100
AcDbLine
 10
304.3050940389
 20
341.0676777774
 30
0.0
 11
304.3050940389
 21
344.6676791125
 31
0.0
  0
LINE
  5
192
330
1F
100
AcDbEntity
  8
0
  6
CONTINUOUS
 62
     7
100
AcDbLine
 10
304.3050940389
 20
344.6676791125
 30
0.0
 11
303.9743925685
 21
344.9983805829
 31
0.0
  0
LINE
  5
193
330
1F
100
AcDbEntity
  8
0
  6
CONTINUOUS
 62
     7
100
AcDbLine
 10
303.9743925685
 20
347.4999018424
 30
0.0
 11
303.9743925685
 21
344.9983805829
 31
0.0
  0
LINE
  5
194
330
1F
100
AcDbEntity
  8
0
  6
CONTINUOUS
 62
     7
100
AcDbLine
 10
303.9743925685
 20
347.4999018424
 30
0.0
 11
304.2923386449
 21
347.1819594913
 31
0.0
  0
LINE
  5
195
330
1F
100
AcDbEntity
  8
0
  6
CONTINUOUS
 62
     7
100
AcDbLine
 10
304.3934430236
 20
340.5808531159
 30
0.0
 11
303.9743925685
 21
340.999903571
 31
0.0
  0
LINE
  5
196
330
1F
100
AcDbEntity
  8
0
  6
CONTINUOUS
 62
     7
100
AcDbLine
 10
303.9743925685
 20
340.999903571
 30
0.0
 11
304.3050940389
 21
341.0676777774
 31
0.0
  0
LINE
  5
197
330
1F
100
AcDbEntity
  8
0
  6
CONTINUOUS
 62
     7
100
AcDbLine
 10
137.2569377775
 20
253.7443474346
 30
0.0
 11
137.0124991292
 21
253.4999013358
 31
0.0
  0
LINE
  5
198
330
1F
100
AcDbEntity
  8
0
  6
CONTINUOUS
 62
     7
100
AcDbLine
 10
137.2569377775
 20
253.7443474346
 30
0.0
 11
138.3680428619
 21
253.7443474346
 31
0.0
  0
LINE
  5
199
330
1F
100
AcDbEntity
  8
0
  6
CONTINUOUS
 62
     7
100
AcDbLine
 10
138.3680428619
 20
253.7443474346
 30
0.0
 11
138.6124964113
 21
253.4999013358
 31
0.0
  0
LINE
  5
19A
330
1F
100
AcDbEntity
  8
0
  6
CONTINUOUS
 62
     7
100
AcDbLine
 10
137.0124991292
 20
253.4999013358
 30
0.0
 11
138.6124964113
 21
253.4999013358
 31
0.0
  0
LINE
  5
19B
330
1F
100
AcDbEntity
  8
0
  6
CONTINUOUS
 62
     7
100
AcDbLine
 10
299.9013836736
 20
340.999903571
 30
0.0
 11
299.4823332185
 21
340.5808531159
 31
0.0
  0
LINE
  5
19C
330
1F
100
AcDbEntity
  8
0
  6
CONTINUOUS
 62
     7
100
AcDbLine
 10
299.9013836736
 20
347.4999018424
 30
0.0
 11
299.5834413225
 21
347.1819594913
 31
0.0
  0
LINE
  5
19D
330
1F
100
AcDbEntity
  8
0
  6
CONTINUOUS
 62
     7
100
AcDbLine
 10
299.9013836736
 20
344.9983805829
 30
0.0
 11
299.9013836736
 21
347.4999018424
 31
0.0
  0
LINE
  5
19E
330
1F
100
AcDbEntity
  8
0
  6
CONTINUOUS
 62
     7
100
AcDbLine
 10
299.9013836736
 20
344.9983805829
 30
0.0
 11
299.5706822032
 21
344.6676791125
 31
0.0
  0
LINE
  5
19F
330
1F
100
AcDbEntity
  8
0
  6
CONTINUOUS
 62
     7
100
AcDbLine
 10
299.5706822032
 20
344.6676791125
 30
0.0
 11
299.5706822032
 21
341.0676777774
 31
0.0
  0
LINE
  5
1A0
330
1F
100
AcDbEntity
  8
0
  6
CONTINUOUS
 62
     7
100
AcDbLine
 10
299.5706822032
 20
341.0676777774
 30
0.0
 11
299.9013836736
 21
340.999903571
 31
0.0
  0
LINE
  5
1A1
330
1F
100
AcDbEntity
  8
0
  6
CONTINUOUS
 62
     7
100
AcDbLine
 10
138.3680428619
 20
253.7443474346
 30
0.0
 11
138.3680428619
 21
335.7554585153
 31
0.0
  0
LINE
  5
1A2
330
1F
100
AcDbEntity
  8
0
  6
CONTINUOUS
 62
     7
100
AcDbLine
 10
138.6124964113
 20
253.4999013358
 30
0.0
 11
138.6124964113
 21
335.9999046141
 31
0.0
  0
LINE
  5
1A3
330
1F
100
AcDbEntity
  8
0
  6
CONTINUOUS
 62
     7
100
AcDbLine
 10
137.2569377775
 20
335.7554585153
 30
0.0
 11
137.2569377775
 21
253.7443474346
 31
0.0
  0
LINE
  5
1A4
330
1F
100
AcDbEntity
  8
0
  6
CONTINUOUS
 62
     7
100
AcDbLine
 10
157.9743947143
 20
340.999903571
 30
0.0
 11
153.9013858194
 21
340.999903571
 31
0.0
  0
LINE
  5
1A5
330
1F
100
AcDbEntity
  8
0
  6
CONTINUOUS
 62
     7
100
AcDbLine
 10
226.9013847465
 20
340.999903571
 30
0.0
 11
226.4823342914
 21
340.5808531159
 31
0.0
  0
LINE
  5
1A6
330
1F
100
AcDbEntity
  8
0
  6
CONTINUOUS
 62
     7
100
AcDbLine
 10
226.9013847465
 20
347.4999018424
 30
0.0
 11
226.5834386701
 21
347.1819594913
 31
0.0
  0
LINE
  5
1A7
330
1F
100
AcDbEntity
  8
0
  6
CONTINUOUS
 62
     7
100
AcDbLine
 10
226.9013847465
 20
344.9983805829
 30
0.0
 11
226.9013847465
 21
347.4999018424
 31
0.0
  0
LINE
  5
1A8
330
1F
100
AcDbEntity
  8
0
  6
CONTINUOUS
 62
     7
100
AcDbLine
 10
226.9013847465
 20
344.9983805829
 30
0.0
 11
226.5706832761
 21
344.6676791125
 31
0.0
  0
LINE
  5
1A9
330
1F
100
AcDbEntity
  8
0
  6
CONTINUOUS
 62
     7
100
AcDbLine
 10
226.5706832761
 20
344.6676791125
 30
0.0
 11
226.5706832761
 21
341.0676777774
 31
0.0
  0
LINE
  5
1AA
330
1F
100
AcDbEntity
  8
0
  6
CONTINUOUS
 62
     7
100
AcDbLine
 10
226.5706832761
 20
341.0676777774
 30
0.0
 11
226.9013847465
 21
340.999903571
 31
0.0
  0
LINE
  5
1AB
330
1F
100
AcDbEntity
  8
0
  6
CONTINUOUS
 62
     7
100
AcDbLine
 10
137.0124991292
 20
335.9999046141
 30
0.0
 11
136.8378873224
 21
335.9999046141
 31
0.0
  0
LINE
  5
1AC
330
1F
100
AcDbEntity
  8
0
  6
CONTINUOUS
 62
     7
100
AcDbLine
 10
137.0124991292
 20
253.4999013358
 30
0.0
 11
136.8378873224
 21
253.4999013358
 31
0.0
  0
LINE
  5
1AD
330
1F
100
AcDbEntity
  8
0
  6
CONTINUOUS
 62
     7
100
AcDbLine
 10
136.8378873224
 20
335.9999046141
 30
0.0
 11
136.8378873224
 21
253.4999013358
 31
0.0
  0
LINE
  5
1AE
330
1F
100
AcDbEntity
  8
0
  6
CONTINUOUS
 62
     7
100
AcDbLine
 10
393.6188395376
 20
335.7554585153
 30
0.0
 11
393.8632781858
 21
335.9999046141
 31
0.0
  0
LINE
  5
1AF
330
1F
100
AcDbEntity
  8
0
  6
CONTINUOUS
 62
     7
100
AcDbLine
 10
393.6188395376
 20
335.7554585153
 30
0.0
 11
392.5077344531
 21
335.7554585153
 31
0.0
  0
LINE
  5
1B0
330
1F
100
AcDbEntity
  8
0
  6
CONTINUOUS
 62
     7
100
AcDbLine
 10
392.5077344531
 20
335.7554585153
 30
0.0
 11
392.2632809038
 21
335.9999046141
 31
0.0
  0
LINE
  5
1B1
330
1F
100
AcDbEntity
  8
0
  6
CONTINUOUS
 62
     7
100
AcDbLine
 10
393.8632781858
 20
335.9999046141
 30
0.0
 11
392.2632809038
 21
335.9999046141
 31
0.0
  0
LINE
  5
1B2
330
1F
100
AcDbEntity
  8
0
  6
CONTINUOUS
 62
     7
100
AcDbLine
 10
372.9013826007
 20
340.999903571
 30
0.0
 11
372.4823321456
 21
340.5808531159
 31
0.0
  0
LINE
  5
1B3
330
1F
100
AcDbEntity
  8
0
  6
CONTINUOUS
 62
     7
100
AcDbLine
 10
376.9743914956
 20
340.999903571
 30
0.0
 11
372.9013826007
 21
340.999903571
 31
0.0
  0
LINE
  5
1B4
330
1F
100
AcDbEntity
  8
0
  6
CONTINUOUS
 62
     7
100
AcDbLine
 10
377.3934419507
 20
340.5808531159
 30
0.0
 11
376.9743914956
 21
340.999903571
 31
0.0
  0
LINE
  5
1B5
330
1F
100
AcDbEntity
  8
0
  6
CONTINUOUS
 62
     7
100
AcDbLine
 10
393.8632781858
 20
253.4999013358
 30
0.0
 11
394.0378899927
 21
253.4999013358
 31
0.0
  0
LINE
  5
1B6
330
1F
100
AcDbEntity
  8
0
  6
CONTINUOUS
 62
     7
100
AcDbLine
 10
393.6188395376
 20
253.7443474346
 30
0.0
 11
393.8632781858
 21
253.4999013358
 31
0.0
  0
LINE
  5
1B7
330
1F
100
AcDbEntity
  8
0
  6
CONTINUOUS
 62
     7
100
AcDbLine
 10
393.6188395376
 20
253.7443474346
 30
0.0
 11
393.6188395376
 21
335.7554585153
 31
0.0
  0
LINE
  5
1B8
330
1F
100
AcDbEntity
  8
0
  6
CONTINUOUS
 62
     7
100
AcDbLine
 10
393.8632781858
 20
335.9999046141
 30
0.0
 11
394.0378899927
 21
335.9999046141
 31
0.0
  0
LINE
  5
1B9
330
1F
100
AcDbEntity
  8
0
  6
CONTINUOUS
 62
     7
100
AcDbLine
 10
394.0378899927
 20
253.4999013358
 30
0.0
 11
394.0378899927
 21
335.9999046141
 31
0.0
  0
LINE
  5
1BA
330
1F
100
AcDbEntity
  8
0
  6
CONTINUOUS
 62
     7
100
AcDbLine
 10
303.9743925685
 20
340.999903571
 30
0.0
 11
299.9013836736
 21
340.999903571
 31
0.0
  0
LINE
  5
1BB
330
1F
100
AcDbEntity
  8
0
  6
CONTINUOUS
 62
     7
100
AcDbLine
 10
230.9743936414
 20
340.999903571
 30
0.0
 11
226.9013847465
 21
340.999903571
 31
0.0
  0
LINE
  5
1BC
330
1F
100
AcDbEntity
  8
0
  6
CONTINUOUS
 62
     7
100
AcDbLine
 10
392.5077344531
 20
335.7554585153
 30
0.0
 11
392.5077344531
 21
253.7443474346
 31
0.0
  0
LINE
  5
1BD
330
1F
100
AcDbEntity
  8
0
  6
CONTINUOUS
 62
     7
100
AcDbLine
 10
392.5077344531
 20
253.7443474346
 30
0.0
 11
392.2632809038
 21
253.4999013358
 31
0.0
  0
LINE
  5
1BE
330
1F
100
AcDbEntity
  8
0
  6
CONTINUOUS
 62
     7
100
AcDbLine
 10
392.2632809038
 20
335.9999046141
 30
0.0
 11
392.2632809038
 21
253.4999013358
 31
0.0
  0
LINE
  5
1BF
330
1F
100
AcDbEntity
  8
0
  6
CONTINUOUS
 62
     7
100
AcDbLine
 10
372.9013826007
 20
347.4999018424
 30
0.0
 11
372.5834365243
 21
347.1819594913
 31
0.0
  0
LINE
  5
1C0
330
1F
100
AcDbEntity
  8
0
  6
CONTINUOUS
 62
     7
100
AcDbLine
 10
372.9013826007
 20
344.9983805829
 30
0.0
 11
372.9013826007
 21
347.4999018424
 31
0.0
  0
LINE
  5
1C1
330
1F
100
AcDbEntity
  8
0
  6
CONTINUOUS
 62
     7
100
AcDbLine
 10
372.9013826007
 20
344.9983805829
 30
0.0
 11
372.5706811304
 21
344.6676791125
 31
0.0
  0
LINE
  5
1C2
330
1F
100
AcDbEntity
  8
0
  6
CONTINUOUS
 62
     7
100
AcDbLine
 10
372.5706811304
 20
344.6676791125
 30
0.0
 11
372.5706811304
 21
341.0676777774
 31
0.0
  0
LINE
  5
1C3
330
1F
100
AcDbEntity
  8
0
  6
CONTINUOUS
 62
     7
100
AcDbLine
 10
372.5706811304
 20
341.0676777774
 30
0.0
 11
372.9013826007
 21
340.999903571
 31
0.0
  0
LINE
  5
1C4
330
1F
100
AcDbEntity
  8
0
  6
CONTINUOUS
 62
     7
100
AcDbLine
 10
392.5077344531
 20
253.7443474346
 30
0.0
 11
393.6188395376
 21
253.7443474346
 31
0.0
  0
LINE
  5
1C5
330
1F
100
AcDbEntity
  8
0
  6
CONTINUOUS
 62
     7
100
AcDbLine
 10
392.2632809038
 20
253.4999013358
 30
0.0
 11
393.8632781858
 21
253.4999013358
 31
0.0
  0
LINE
  5
1C6
330
1F
100
AcDbEntity
  8
0
  6
CONTINUOUS
 62
     7
100
AcDbLine
 10
377.305092966
 20
341.0676777774
 30
0.0
 11
377.305092966
 21
344.6676791125
 31
0.0
  0
LINE
  5
1C7
330
1F
100
AcDbEntity
  8
0
  6
CONTINUOUS
 62
     7
100
AcDbLine
 10
377.305092966
 20
344.6676791125
 30
0.0
 11
376.9743914956
 21
344.9983805829
 31
0.0
  0
LINE
  5
1C8
330
1F
100
AcDbEntity
  8
0
  6
CONTINUOUS
 62
     7
100
AcDbLine
 10
376.9743914956
 20
347.4999018424
 30
0.0
 11
376.9743914956
 21
344.9983805829
 31
0.0
  0
LINE
  5
1C9
330
1F
100
AcDbEntity
  8
0
  6
CONTINUOUS
 62
     7
100
AcDbLine
 10
376.9743914956
 20
347.4999018424
 30
0.0
 11
377.292337572
 21
347.1819594913
 31
0.0
  0
LINE
  5
1CA
330
1F
100
AcDbEntity
  8
0
  6
CONTINUOUS
 62
     7
100
AcDbLine
 10
376.9743914956
 20
340.999903571
 30
0.0
 11
377.305092966
 21
341.0676777774
 31
0.0
  0
LINE
  5
1CB
330
1F
100
AcDbEntity
  8
0
  6
CONTINUOUS
 62
     7
100
AcDbLine
 10
236.6124919856
 20
347.4999018424
 30
0.0
 11
230.9743936414
 21
347.4999018424
 31
0.0
  0
LINE
  5
1CC
330
1F
100
AcDbEntity
  8
0
  6
CONTINUOUS
 62
     7
100
AcDbLine
 10
299.9013836736
 20
347.4999018424
 30
0.0
 11
294.2632853294
 21
347.4999018424
 31
0.0
  0
LINE
  5
1CD
330
1F
100
AcDbEntity
  8
0
  6
CONTINUOUS
 62
     7
100
AcDbLine
 10
163.6124949212
 20
347.4999018424
 30
0.0
 11
157.9743947143
 21
347.4999018424
 31
0.0
  0
LINE
  5
1CE
330
1F
100
AcDbEntity
  8
0
  6
CONTINUOUS
 62
     7
100
AcDbLine
 10
226.9013847465
 20
347.4999018424
 30
0.0
 11
221.2632845396
 21
347.4999018424
 31
0.0
  0
LINE
  5
1CF
330
1F
100
AcDbEntity
  8
0
  6
CONTINUOUS
 62
     7
100
AcDbLine
 10
382.6124917025
 20
347.4999018424
 30
0.0
 11
376.9743914956
 21
347.4999018424
 31
0.0
  0
LINE
  5
1D0
330
1F
100
AcDbEntity
  8
0
  6
CONTINUOUS
 62
     7
100
AcDbLine
 10
372.9013826007
 20
347.4999018424
 30
0.0
 11
367.2632823939
 21
347.4999018424
 31
0.0
  0
LINE
  5
1D1
330
1F
100
AcDbEntity
  8
0
  6
CONTINUOUS
 62
     7
100
AcDbLine
 10
153.9013858194
 20
347.4999018424
 30
0.0
 11
148.2632856125
 21
347.4999018424
 31
0.0
  0
LINE
  5
1D2
330
1F
100
AcDbEntity
  8
0
  6
CONTINUOUS
 62
     7
100
AcDbLine
 10
309.6124927754
 20
347.4999018424
 30
0.0
 11
303.9743925685
 21
347.4999018424
 31
0.0
  0
LINE
  5
1D3
330
1F
100
AcDbEntity
  8
0
  6
CONTINUOUS
 62
     7
100
AcDbLine
 10
383.8878895397
 20
340.8252992147
 30
0.0
 11
382.4378873462
 21
340.8252992147
 31
0.0
  0
ARC
  5
1D4
330
1F
100
AcDbEntity
  8
0
  6
CONTINUOUS
 62
     7
100
AcDbCircle
 10
389.0378886575
 20
335.9999029749
 30
0.0
 40
4.825396152541304
100
AcDbArc
 50
0.0
 51
60.4373739604
  0
ARC
  5
1D5
330
1F
100
AcDbEntity
  8
0
  6
CONTINUOUS
 62
     7
100
AcDbCircle
 10
389.0378886575
 20
253.4999029749
 30
0.0
 40
4.825396152541259
100
AcDbArc
 50
299.8260529071
 51
0.0
  0
ARC
  5
1D6
330
1F
100
AcDbEntity
  8
0
  6
CONTINUOUS
 62
     7
100
AcDbCircle
 10
141.8378886575
 20
253.4999029749
 30
0.0
 40
4.825396152541288
100
AcDbArc
 50
180.0
 51
240.1739470929
  0
ARC
  5
1D7
330
1F
100
AcDbEntity
  8
0
  6
CONTINUOUS
 62
     7
100
AcDbCircle
 10
141.8378886575
 20
335.9999029749
 30
0.0
 40
4.825396152541304
100
AcDbArc
 50
119.5626260396
 51
180.0
  0
LINE
  5
1D8
330
1F
100
AcDbEntity
  8
0
  6
CONTINUOUS
 62
     7
100
AcDbLine
 10
148.4378899688
 20
340.8252992147
 30
0.0
 11
146.9878877754
 21
340.8252992147
 31
0.0
  0
LINE
  5
1D9
330
1F
100
AcDbEntity
  8
0
  6
CONTINUOUS
 62
     7
100
AcDbLine
 10
383.8878895397
 20
340.999903571
 30
0.0
 11
382.6124917025
 21
340.999903571
 31
0.0
  0
LINE
  5
1DA
330
1F
100
AcDbEntity
  8
0
  6
CONTINUOUS
 62
     7
100
AcDbLine
 10
367.4378867502
 20
340.8252992147
 30
0.0
 11
366.9878865833
 21
340.8252992147
 31
0.0
  0
LINE
  5
1DB
330
1F
100
AcDbEntity
  8
0
  6
CONTINUOUS
 62
     7
100
AcDbLine
 10
310.7378880734
 20
340.8252992147
 30
0.0
 11
309.4378884191
 21
340.8252992147
 31
0.0
  0
LINE
  5
1DC
330
1F
100
AcDbEntity
  8
0
  6
CONTINUOUS
 62
     7
100
AcDbLine
 10
367.2632823939
 20
340.999903571
 30
0.0
 11
366.9878865833
 21
340.999903571
 31
0.0
  0
LINE
  5
1DD
330
1F
100
AcDbEntity
  8
0
  6
CONTINUOUS
 62
     7
100
AcDbLine
 10
310.7378880734
 20
340.999903571
 30
0.0
 11
309.6124927754
 21
340.999903571
 31
0.0
  0
ARC
  5
1DE
330
1F
100
AcDbEntity
  8
0
  6
CONTINUOUS
 62
     7
100
AcDbCircle
 10
389.0378886575
 20
335.9999029749
 30
0.0
 40
5.000000000000098
100
AcDbArc
 50
0.0
 51
61.8685897484
  0
ARC
  5
1DF
330
1F
100
AcDbEntity
  8
0
  6
CONTINUOUS
 62
     7
100
AcDbCircle
 10
141.8378886575
 20
253.4999029749
 30
0.0
 40
5.000000000000028
100
AcDbArc
 50
180.0
 51
241.3145979859
  0
ARC
  5
1E0
330
1F
100
AcDbEntity
  8
0
  6
CONTINUOUS
 62
     7
100
AcDbCircle
 10
389.0378886575
 20
253.4999029749
 30
0.0
 40
5.000000000000003
100
AcDbArc
 50
298.6854020141
 51
0.0
  0
LINE
  5
1E1
330
1F
100
AcDbEntity
  8
0
  6
CONTINUOUS
 62
     7
100
AcDbLine
 10
221.4378888959
 20
340.8252992147
 30
0.0
 11
220.1378892416
 21
340.8252992147
 31
0.0
  0
LINE
  5
1E2
330
1F
100
AcDbEntity
  8
0
  6
CONTINUOUS
 62
     7
100
AcDbLine
 10
163.8878907318
 20
340.8252992147
 30
0.0
 11
163.4378905649
 21
340.8252992147
 31
0.0
  0
ARC
  5
1E3
330
1F
100
AcDbEntity
  8
0
  6
CONTINUOUS
 62
     7
100
AcDbCircle
 10
141.8378886575
 20
335.9999029749
 30
0.0
 40
5.000000000000083
100
AcDbArc
 50
118.1314102516
 51
180.0
  0
LINE
  5
1E4
330
1F
100
AcDbEntity
  8
0
  6
CONTINUOUS
 62
     7
100
AcDbLine
 10
294.437887823
 20
340.8252992147
 30
0.0
 11
293.8378888423
 21
340.8252992147
 31
0.0
  0
LINE
  5
1E5
330
1F
100
AcDbEntity
  8
0
  6
CONTINUOUS
 62
     7
100
AcDbLine
 10
237.0378884727
 20
340.8252992147
 30
0.0
 11
236.437889492
 21
340.8252992147
 31
0.0
  0
LINE
  5
1E6
330
1F
100
AcDbEntity
  8
0
  6
CONTINUOUS
 62
     7
100
AcDbLine
 10
148.2632856125
 20
340.999903571
 30
0.0
 11
146.9878877754
 21
340.999903571
 31
0.0
  0
LINE
  5
1E7
330
1F
100
AcDbEntity
  8
0
  6
CONTINUOUS
 62
     7
100
AcDbLine
 10
221.2632845396
 20
340.999903571
 30
0.0
 11
220.1378892416
 21
340.999903571
 31
0.0
  0
LINE
  5
1E8
330
1F
100
AcDbEntity
  8
0
  6
CONTINUOUS
 62
     7
100
AcDbLine
 10
163.8878907318
 20
340.999903571
 30
0.0
 11
163.6124949212
 21
340.999903571
 31
0.0
  0
LINE
  5
1E9
330
1F
100
AcDbEntity
  8
0
  6
CONTINUOUS
 62
     7
100
AcDbLine
 10
294.2632853294
 20
340.999903571
 30
0.0
 11
293.8378888423
 21
340.999903571
 31
0.0
  0
LINE
  5
1EA
330
1F
100
AcDbEntity
  8
0
  6
CONTINUOUS
 62
     7
100
AcDbLine
 10
237.0378884727
 20
340.999903571
 30
0.0
 11
236.6124919856
 21
340.999903571
 31
0.0
  0
LINE
  5
1EB
330
1F
100
AcDbEntity
  8
0
  6
CONTINUOUS
 62
     7
100
AcDbLine
 10
28.786281397
 20
248.4774575048
 30
0.0
 11
28.8044943413
 21
248.2874714249
 31
0.0
  0
LINE
  5
1EC
330
1F
100
AcDbEntity
  8
0
  6
CONTINUOUS
 62
     7
100
AcDbLine
 10
28.8044943413
 20
254.167443555
 30
0.0
 11
28.786281397
 21
253.977457475
 31
0.0
  0
LINE
  5
1ED
330
1F
100
AcDbEntity
  8
0
  6
CONTINUOUS
 62
     7
100
AcDbLine
 10
38.673731306
 20
252.1166600698
 30
0.0
 11
38.5744946948
 21
252.4054669255
 31
0.0
  0
LWPOLYLINE
  5
1EE
330
1F
100
AcDbEntity
  8
0
  6
CONTINUOUS
 62
     7
100
AcDbPolyline
 90
        3
 70
   128
 43
0.0
 10
43.574494583
 20
262.5999026411
 10
61.1744944876
 20
263.2249020451
 10
78.7744943923
 20
263.8499033117
  0
LINE
  5
1EF
330
1F
100
AcDbEntity
  8
0
  6
CONTINUOUS
 62
     7
100
AcDbLine
 10
78.7744943923
 20
327.1499038154
 30
0.0
 11
43.574494583
 21
328.3999026233
 31
0.0
  0
LINE
  5
1F0
330
1F
100
AcDbEntity
  8
0
  6
CONTINUOUS
 62
     7
100
AcDbLine
 10
41.0044945715
 20
248.5896483475
 30
0.0
 11
41.0044945715
 21
247.7585360819
 31
0.0
  0
LINE
  5
1F1
330
1F
100
AcDbEntity
  8
0
  6
CONTINUOUS
 62
     7
100
AcDbLine
 10
38.1044943756
 20
248.6909203642
 30
0.0
 11
38.1044943756
 21
247.7585360819
 31
0.0
  0
LINE
  5
1F2
330
1F
100
AcDbEntity
  8
0
  6
CONTINUOUS
 62
     7
100
AcDbLine
 10
38.1044943756
 20
247.7585360819
 30
0.0
 11
41.0044945715
 21
247.7585360819
 31
0.0
  0
LINE
  5
1F3
330
1F
100
AcDbEntity
  8
0
  6
CONTINUOUS
 62
     7
100
AcDbLine
 10
28.786281397
 20
248.4774575048
 30
0.0
 11
28.786281397
 21
253.977457475
 31
0.0
  0
LINE
  5
1F4
330
1F
100
AcDbEntity
  8
0
  6
CONTINUOUS
 62
     7
100
AcDbLine
 10
31.555627746
 20
339.7585362607
 30
0.0
 11
37.6044947593
 21
339.7585362607
 31
0.0
  0
LINE
  5
1F5
330
1F
100
AcDbEntity
  8
0
  6
CONTINUOUS
 62
     7
100
AcDbLine
 10
31.555627746
 20
344.65295304
 30
0.0
 11
31.555627746
 21
339.7585362607
 31
0.0
  0
LINE
  5
1F6
330
1F
100
AcDbEntity
  8
0
  6
CONTINUOUS
 62
     7
100
AcDbLine
 10
31.555627746
 20
344.65295304
 30
0.0
 11
35.8239526799
 21
344.7274588459
 31
0.0
  0
SPLINE
  5
1F7
330
1F
100
AcDbEntity
  8
0
  6
CONTINUOUS
 62
     7
100
AcDbSpline
210
0.0
220
0.0
230
1.0
 70
     8
 71
     3
 72
    12
 73
     8
 74
     0
 42
0.00000001
 43
0.00000001
 40
0.0
 40
0.0
 40
0.0
 40
0.0
 40
0.1658759619165178
 40
0.4641964766663783
 40
0.8914517152628215
 40
0.9969533275834772
 40
1.0
 40
1.0
 40
1.0
 40
1.0
 10
37.60264282435507
 20
343.0582121425581
 30
0.0
 10
37.57507136677048
 20
343.241770329407
 30
0.0
 10
37.4979138731864
 20
343.7554497234197
 30
0.0
 10
36.96936712649995
 20
344.4277569167385
 30
0.0
 10
36.33392993537699
 20
344.7046057257693
 30
0.0
 10
35.91179270000235
 20
344.7288380008762
 30
0.0
 10
35.82635081487835
 20
344.7274964984817
 30
0.0
 10
35.82395267993542
 20
344.7274588459444
 30
0.0
  0
LINE
  5
1F8
330
1F
100
AcDbEntity
  8
0
  6
CONTINUOUS
 62
     7
100
AcDbLine
 10
37.6044947593
 20
339.7585362607
 30
0.0
 11
37.6044947593
 21
343.058256846
 31
0.0
  0
LINE
  5
1F9
330
1F
100
AcDbEntity
  8
0
  6
CONTINUOUS
 62
     7
100
AcDbLine
 10
31.555627746
 20
240.3641216868
 30
0.0
 11
37.6044947593
 21
240.2585357839
 31
0.0
  0
LINE
  5
1FA
330
1F
100
AcDbEntity
  8
0
  6
CONTINUOUS
 62
     7
100
AcDbLine
 10
31.555627746
 20
245.2585384661
 30
0.0
 11
31.555627746
 21
240.3641216868
 31
0.0
  0
LINE
  5
1FB
330
1F
100
AcDbEntity
  8
0
  6
CONTINUOUS
 62
     7
100
AcDbLine
 10
31.555627746
 20
245.2585384661
 30
0.0
 11
37.6044947593
 21
245.2585384661
 31
0.0
  0
LINE
  5
1FC
330
1F
100
AcDbEntity
  8
0
  6
CONTINUOUS
 62
     7
100
AcDbLine
 10
37.6044947593
 20
240.2585357839
 30
0.0
 11
37.6044947593
 21
245.2585384661
 31
0.0
  0
LINE
  5
1FD
330
1F
100
AcDbEntity
  8
0
  6
CONTINUOUS
 62
     7
100
AcDbLine
 10
31.555627746
 20
339.7585362607
 30
0.0
 11
31.555627746
 21
245.2585384661
 31
0.0
  0
LINE
  5
1FE
330
1F
100
AcDbEntity
  8
0
  6
CONTINUOUS
 62
     7
100
AcDbLine
 10
37.6044947593
 20
245.2585384661
 30
0.0
 11
37.6044947593
 21
253.5337754005
 31
0.0
  0
LINE
  5
1FF
330
1F
100
AcDbEntity
  8
0
  6
CONTINUOUS
 62
     7
100
AcDbLine
 10
37.6044947593
 20
335.9660305494
 30
0.0
 11
37.6044947593
 21
339.7585362607
 31
0.0
  0
ARC
  5
200
330
1F
100
AcDbEntity
  8
0
  6
CONTINUOUS
 62
     7
100
AcDbCircle
 10
31.604494583
 20
243.163693917
 30
0.0
 40
2.800000000000008
100
AcDbArc
 50
180.0
 51
269.0
  0
LINE
  5
201
330
1F
100
AcDbEntity
  8
0
  6
CONTINUOUS
 62
     7
100
AcDbLine
 10
28.8044943413
 20
243.1636922472
 30
0.0
 11
28.8044943413
 21
245.2585384661
 31
0.0
  0
LINE
  5
202
330
1F
100
AcDbEntity
  8
0
  6
CONTINUOUS
 62
     7
100
AcDbLine
 10
31.555627746
 20
245.2585384661
 30
0.0
 11
28.8044943413
 21
245.2585384661
 31
0.0
  0
LINE
  5
203
330
1F
100
AcDbEntity
  8
0
  6
CONTINUOUS
 62
     7
100
AcDbLine
 10
28.8044943413
 20
339.7585362607
 30
0.0
 11
28.8044943413
 21
341.8533787542
 31
0.0
  0
ARC
  5
204
330
1F
100
AcDbEntity
  8
0
  6
CONTINUOUS
 62
     7
100
AcDbCircle
 10
31.604494583
 20
341.8533801008
 30
0.0
 40
2.800000000000002
100
AcDbArc
 50
91.0
 51
180.0
  0
LINE
  5
205
330
1F
100
AcDbEntity
  8
0
  6
CONTINUOUS
 62
     7
100
AcDbLine
 10
31.555627746
 20
339.7585362607
 30
0.0
 11
28.8044943413
 21
339.7585362607
 31
0.0
  0
LINE
  5
206
330
1F
100
AcDbEntity
  8
0
  6
CONTINUOUS
 62
     7
100
AcDbLine
 10
28.8044943413
 20
245.2585384661
 30
0.0
 11
28.8044943413
 21
339.7585362607
 31
0.0
  0
ARC
  5
207
330
1F
100
AcDbEntity
  8
0
  6
CONTINUOUS
 62
     7
100
AcDbCircle
 10
31.5552392561
 20
240.3479502137
 30
0.0
 40
0.0161761387675139
100
AcDbArc
 50
66.8295623396
 51
88.623839103
  0
LWPOLYLINE
  5
208
330
1F
100
AcDbEntity
  8
0
  6
CONTINUOUS
 62
     7
100
AcDbPolyline
 90
        4
 70
   128
 43
0.0
 10
31.5996364629
 20
240.3633505517
 10
31.5954091898
 20
240.3632946723
 10
31.5827292329
 20
240.3631158584
 10
31.561604043
 20
240.3628215605
  0
ARC
  5
209
330
1F
100
AcDbEntity
  8
0
  6
CONTINUOUS
 62
     7
100
AcDbCircle
 10
31.6913101833
 20
243.1649079826
 30
0.0
 40
3.300000000000008
100
AcDbArc
 50
180.0
 51
238.8484494813
  0
ARC
  5
20A
330
1F
100
AcDbEntity
  8
0
  6
CONTINUOUS
 62
     7
100
AcDbCircle
 10
28.4835408531
 20
204.2557064562
 30
0.0
 40
38.90930954743665
100
AcDbArc
 50
89.5273756062
 51
90.1358139526
  0
SPLINE
  5
20B
330
1F
100
AcDbEntity
  8
0
  6
CONTINUOUS
 62
     7
100
AcDbSpline
210
0.0
220
0.0
230
1.0
 70
     8
 71
     3
 72
     9
 73
     5
 74
     0
 42
0.00000001
 43
0.00000001
 40
0.0
 40
0.0
 40
0.0
 40
0.0
 40
0.521241516682151
 40
1.0
 40
1.0
 40
1.0
 40
1.0
 10
31.5616040429509
 20
240.3628215604734
 30
0.0
 10
31.30543235023917
 20
240.3592393202186
 30
0.0
 10
30.81396786686046
 20
240.3523668050023
 30
0.0
 10
30.25284867190222
 20
240.3445180495718
 30
0.0
 10
29.98420809716347
 20
240.3407603913259
 30
0.0
  0
ARC
  5
20C
330
1F
100
AcDbEntity
  8
0
  6
CONTINUOUS
 62
     7
100
AcDbCircle
 10
28.4826785728
 20
205.5997738537
 30
0.0
 40
39.20267576230516
100
AcDbArc
 50
89.5296521971
 51
90.1335373617
  0
ELLIPSE
  5
20D
330
1F
100
AcDbEntity
  8
0
  6
CONTINUOUS
 62
     7
100
AcDbEllipse
 10
28.304494583
 20
244.5443234465
 30
0.0
 11
0.3546885522352135
 21
1.768309747526303
 31
0.0
210
0.0
220
0.0
230
1.0
 40
0.0192784816
 41
4.862690127744025
 42
6.312129944869577
  0
ARC
  5
20E
330
1F
100
AcDbEntity
  8
0
  6
CONTINUOUS
 62
     7
100
AcDbCircle
 10
28.304494583
 20
246.6656437901
 30
0.0
 40
0.5
100
AcDbArc
 50
315.0
 51
0.0
  0
LINE
  5
20F
330
1F
100
AcDbEntity
  8
0
  6
CONTINUOUS
 62
     7
100
AcDbLine
 10
28.3913102871
 20
243.1649066919
 30
0.0
 11
28.3913102871
 21
244.8023431414
 31
0.0
  0
LINE
  5
210
330
1F
100
AcDbEntity
  8
0
  6
CONTINUOUS
 62
     7
100
AcDbLine
 10
25.6044951206
 20
240.2585357839
 30
0.0
 11
25.6044951206
 21
240.2795128935
 31
0.0
  0
LINE
  5
211
330
1F
100
AcDbEntity
  8
0
  6
CONTINUOUS
 62
     7
100
AcDbLine
 10
25.6044951206
 20
240.2585357839
 30
0.0
 11
24.9309272444
 21
240.2585357839
 31
0.0
  0
LINE
  5
212
330
1F
100
AcDbEntity
  8
0
  6
CONTINUOUS
 62
     7
100
AcDbLine
 10
24.915985105
 20
241.3270160967
 30
0.0
 11
24.9309272444
 21
240.2585357839
 31
0.0
  0
LINE
  5
213
330
1F
100
AcDbEntity
  8
0
  6
CONTINUOUS
 62
     7
100
AcDbLine
 10
28.3913102871
 20
244.8023431414
 30
0.0
 11
24.915985105
 21
241.3270160967
 31
0.0
  0
LINE
  5
214
330
1F
100
AcDbEntity
  8
0
  6
CONTINUOUS
 62
     7
100
AcDbLine
 10
25.6044951206
 20
240.2795128935
 30
0.0
 11
29.9842080972
 21
240.3407603913
 31
0.0
  0
ARC
  5
215
330
1F
100
AcDbEntity
  8
0
  6
CONTINUOUS
 62
     7
100
AcDbCircle
 10
26.0285138704
 20
242.7188076263
 30
0.0
 40
1.781797944648466
100
AcDbArc
 50
202.5135595136
 51
231.3629024628
  0
LINE
  5
216
330
1F
100
AcDbEntity
  8
0
  6
CONTINUOUS
 62
     7
100
AcDbLine
 10
24.3825086331
 20
242.0365535134
 30
0.0
 11
28.6580475917
 21
246.3120915407
 31
0.0
  0
LINE
  5
217
330
1F
100
AcDbEntity
  8
0
  6
CONTINUOUS
 62
     7
100
AcDbLine
 10
24.1044939435
 20
240.2585357839
 30
0.0
 11
24.0897138542
 21
241.3154639715
 31
0.0
  0
LWPOLYLINE
  5
218
330
1F
100
AcDbEntity
  8
0
  6
CONTINUOUS
 62
     7
100
AcDbPolyline
 90
        9
 70
   128
 43
0.0
 10
24.915985105
 20
241.3270160967
 10
24.7476299232
 20
241.3246617132
 10
24.5896645761
 20
241.3224526161
 10
24.4468909627
 20
241.3204558605
 10
24.3236471838
 20
241.3187347763
 10
24.2236752933
 20
241.3173340672
 10
24.1500151283
 20
241.3163058871
 10
24.104905588
 20
241.315676313
 10
24.0897138542
 20
241.3154639715
  0
LINE
  5
219
330
1F
100
AcDbEntity
  8
0
  6
CONTINUOUS
 62
     7
100
AcDbLine
 10
24.9309272444
 20
240.2585357839
 30
0.0
 11
24.1044939435
 21
240.2585357839
 31
0.0
  0
ARC
  5
21A
330
1F
100
AcDbEntity
  8
0
  6
CONTINUOUS
 62
     7
100
AcDbCircle
 10
25.0896163329
 20
241.3294451964
 30
0.0
 40
1.000000000000006
100
AcDbArc
 50
135.0
 51
180.8011958816
  0
LINE
  5
21B
330
1F
100
AcDbEntity
  8
0
  6
CONTINUOUS
 62
     7
100
AcDbLine
 10
38.5744946948
 20
335.9999046141
 30
0.0
 11
43.574494583
 21
335.9999046141
 31
0.0
  0
LINE
  5
21C
330
1F
100
AcDbEntity
  8
0
  6
CONTINUOUS
 62
     7
100
AcDbLine
 10
38.5744946948
 20
335.9999046141
 30
0.0
 11
38.5744946948
 21
340.8252992147
 31
0.0
  0
LINE
  5
21D
330
1F
100
AcDbEntity
  8
0
  6
CONTINUOUS
 62
     7
100
AcDbLine
 10
38.5744946948
 20
340.8252992147
 30
0.0
 11
43.574494583
 21
340.999903571
 31
0.0
  0
LINE
  5
21E
330
1F
100
AcDbEntity
  8
0
  6
CONTINUOUS
 62
     7
100
AcDbLine
 10
43.574494583
 20
335.9999046141
 30
0.0
 11
43.574494583
 21
340.999903571
 31
0.0
  0
LINE
  5
21F
330
1F
100
AcDbEntity
  8
0
  6
CONTINUOUS
 62
     7
100
AcDbLine
 10
38.5744946948
 20
248.6745067352
 30
0.0
 11
43.574494583
 21
248.4999023789
 31
0.0
  0
LINE
  5
220
330
1F
100
AcDbEntity
  8
0
  6
CONTINUOUS
 62
     7
100
AcDbLine
 10
38.5744946948
 20
248.6745067352
 30
0.0
 11
38.5744946948
 21
253.4999013358
 31
0.0
  0
LINE
  5
221
330
1F
100
AcDbEntity
  8
0
  6
CONTINUOUS
 62
     7
100
AcDbLine
 10
38.5744946948
 20
253.4999013358
 30
0.0
 11
43.574494583
 21
253.4999013358
 31
0.0
  0
LINE
  5
222
330
1F
100
AcDbEntity
  8
0
  6
CONTINUOUS
 62
     7
100
AcDbLine
 10
43.574494583
 20
248.4999023789
 30
0.0
 11
43.574494583
 21
253.4999013358
 31
0.0
  0
LINE
  5
223
330
1F
100
AcDbEntity
  8
0
  6
CONTINUOUS
 62
     7
100
AcDbLine
 10
31.5744944787
 20
253.7443474346
 30
0.0
 11
38.5744946948
 21
253.4999013358
 31
0.0
  0
LINE
  5
224
330
1F
100
AcDbEntity
  8
0
  6
CONTINUOUS
 62
     7
100
AcDbLine
 10
31.5744944787
 20
253.7443474346
 30
0.0
 11
31.5744944787
 21
335.7554585153
 31
0.0
  0
LINE
  5
225
330
1F
100
AcDbEntity
  8
0
  6
CONTINUOUS
 62
     7
100
AcDbLine
 10
31.5744944787
 20
335.7554585153
 30
0.0
 11
38.5744946948
 21
335.9999046141
 31
0.0
  0
LINE
  5
226
330
1F
100
AcDbEntity
  8
0
  6
CONTINUOUS
 62
     7
100
AcDbLine
 10
43.574494583
 20
253.4999013358
 30
0.0
 11
43.574494583
 21
335.9999046141
 31
0.0
  0
LWPOLYLINE
  5
227
330
1F
100
AcDbEntity
  8
0
  6
CONTINUOUS
 62
     7
100
AcDbPolyline
 90
        2
 70
   128
 43
0.0
 10
78.7744943923
 20
327.1499038154
 10
78.7744943923
 20
327.1499038154
  0
LINE
  5
228
330
1F
100
AcDbEntity
  8
0
  6
CONTINUOUS
 62
     7
100
AcDbLine
 10
78.7744943923
 20
327.1499038154
 30
0.0
 11
78.7744943923
 21
321.8499035054
 31
0.0
  0
LINE
  5
229
330
1F
100
AcDbEntity
  8
0
  6
CONTINUOUS
 62
     7
100
AcDbLine
 10
78.7744943923
 20
321.8499035054
 30
0.0
 11
78.7744943923
 21
269.1499036216
 31
0.0
  0
LINE
  5
22A
330
1F
100
AcDbEntity
  8
0
  6
CONTINUOUS
 62
     7
100
AcDbLine
 10
78.7744943923
 20
269.1499036216
 30
0.0
 11
78.7744943923
 21
263.8499033117
 31
0.0
  0
LWPOLYLINE
  5
22B
330
1F
100
AcDbEntity
  8
0
  6
CONTINUOUS
 62
     7
100
AcDbPolyline
 90
        2
 70
   128
 43
0.0
 10
78.7744943923
 20
263.8499033117
 10
78.7744943923
 20
263.8499033117
  0
ARC
  5
22C
330
1F
100
AcDbEntity
  8
0
  6
CONTINUOUS
 62
     7
100
AcDbCircle
 10
34.574494583
 20
344.1837874166
 30
0.0
 40
3.000000000000051
100
AcDbArc
 50
92.0
 51
170.9837726937
  0
LINE
  5
22D
330
1F
100
AcDbEntity
  8
0
  6
CONTINUOUS
 62
     7
100
AcDbLine
 10
43.574494583
 20
347.4999018424
 30
0.0
 11
34.4697956866
 21
347.1819594913
 31
0.0
  0
LINE
  5
22E
330
1F
100
AcDbEntity
  8
0
  6
CONTINUOUS
 62
     7
100
AcDbLine
 10
43.574494583
 20
340.999903571
 30
0.0
 11
37.6044947593
 21
341.0426289254
 31
0.0
  0
LINE
  5
22F
330
1F
100
AcDbEntity
  8
0
  6
CONTINUOUS
 62
     7
100
AcDbLine
 10
43.574494583
 20
344.9983805829
 30
0.0
 11
43.574494583
 21
347.4999018424
 31
0.0
  0
LINE
  5
230
330
1F
100
AcDbEntity
  8
0
  6
CONTINUOUS
 62
     7
100
AcDbLine
 10
35.8086831807
 20
344.727190625
 30
0.0
 11
43.574494583
 21
344.9983805829
 31
0.0
  0
LINE
  5
231
330
1F
100
AcDbEntity
  8
0
  6
CONTINUOUS
 62
     7
100
AcDbLine
 10
37.6044947593
 20
248.7083807999
 30
0.0
 11
38.5744946948
 21
248.6745067352
 31
0.0
  0
LINE
  5
232
330
1F
100
AcDbEntity
  8
0
  6
CONTINUOUS
 62
     7
100
AcDbLine
 10
325.687887823
 20
478.9204357697
 30
0.0
 11
325.4979017431
 21
478.9022228254
 31
0.0
  0
LINE
  5
233
330
1F
100
AcDbEntity
  8
0
  6
CONTINUOUS
 62
     7
100
AcDbLine
 10
331.3778738732
 20
478.9022228254
 30
0.0
 11
331.1878915185
 21
478.9204357697
 31
0.0
  0
ARC
  5
234
330
1F
100
AcDbEntity
  8
0
  6
CONTINUOUS
 62
     7
100
AcDbCircle
 10
332.1878886575
 20
469.6322225837
 30
0.0
 40
0.5
100
AcDbArc
 50
180.0
 51
270.0
  0
ARC
  5
235
330
1F
100
AcDbEntity
  8
0
  6
CONTINUOUS
 62
     7
100
AcDbCircle
 10
324.6878886575
 20
469.6322225837
 30
0.0
 40
0.5
100
AcDbArc
 50
270.0
 51
0.0
  0
LINE
  5
236
330
1F
100
AcDbEntity
  8
0
  6
CONTINUOUS
 62
     7
100
AcDbLine
 10
325.1878868098
 20
470.1022224074
 30
0.0
 11
325.1878868098
 21
469.6322225539
 31
0.0
  0
LINE
  5
237
330
1F
100
AcDbEntity
  8
0
  6
CONTINUOUS
 62
     7
100
AcDbLine
 10
331.6878850812
 20
469.6322225539
 30
0.0
 11
331.6878850812
 21
470.1022224074
 31
0.0
  0
LWPOLYLINE
  5
238
330
1F
100
AcDbEntity
  8
0
  6
CONTINUOUS
 62
     7
100
AcDbPolyline
 90
        3
 70
   128
 43
0.0
 10
142.3878918642
 20
464.1322225837
 10
142.5378869528
 20
446.5322226791
 10
142.687889492
 20
428.9322227744
  0
SPLINE
  5
239
330
1F
100
AcDbEntity
  8
0
  6
CONTINUOUS
 62
     7
100
AcDbSpline
210
0.0
220
0.0
230
1.0
 70
     8
 71
     3
 72
     9
 73
     5
 74
     0
 42
0.00000001
 43
0.00000001
 40
0.0
 40
0.0
 40
0.0
 40
0.0
 40
0.4999732337078827
 40
1.0
 40
1.0
 40
1.0
 40
1.0
 10
388.1878878230481
 20
428.9322227744192
 30
0.0
 10
388.2378906284101
 20
434.7990464213982
 30
0.0
 10
388.3379015929794
 20
446.5333218814457
 30
0.0
 10
388.4378890473197
 20
458.265712994533
 30
0.0
 10
388.4878854507833
 20
464.1322225836843
 30
0.0
  0
LINE
  5
23A
330
1F
100
AcDbEntity
  8
0
  6
CONTINUOUS
 62
     7
100
AcDbLine
 10
380.937891757
 20
466.7022225952
 30
0.0
 11
368.93788979
 21
466.7022225952
 31
0.0
  0
LINE
  5
23B
330
1F
100
AcDbEntity
  8
0
  6
CONTINUOUS
 62
     7
100
AcDbLine
 10
368.93788979
 20
469.6022227911
 30
0.0
 11
368.93788979
 21
466.7022225952
 31
0.0
  0
LINE
  5
23C
330
1F
100
AcDbEntity
  8
0
  6
CONTINUOUS
 62
     7
100
AcDbLine
 10
380.937891757
 20
469.6022227911
 30
0.0
 11
368.93788979
 21
469.6022227911
 31
0.0
  0
LINE
  5
23D
330
1F
100
AcDbEntity
  8
0
  6
CONTINUOUS
 62
     7
100
AcDbLine
 10
380.937891757
 20
469.6022227911
 30
0.0
 11
380.937891757
 21
466.7022225952
 31
0.0
  0
LINE
  5
23E
330
1F
100
AcDbEntity
  8
0
  6
CONTINUOUS
 62
     7
100
AcDbLine
 10
307.9378891045
 20
466.7022225952
 30
0.0
 11
295.9378890002
 21
466.7022225952
 31
0.0
  0
LINE
  5
23F
330
1F
100
AcDbEntity
  8
0
  6
CONTINUOUS
 62
     7
100
AcDbLine
 10
307.9378891045
 20
469.6022227911
 30
0.0
 11
295.9378890002
 21
469.6022227911
 31
0.0
  0
LINE
  5
240
330
1F
100
AcDbEntity
  8
0
  6
CONTINUOUS
 62
     7
100
AcDbLine
 10
307.9378891045
 20
469.6022227911
 30
0.0
 11
307.9378891045
 21
466.7022225952
 31
0.0
  0
LINE
  5
241
330
1F
100
AcDbEntity
  8
0
  6
CONTINUOUS
 62
     7
100
AcDbLine
 10
295.9378890002
 20
469.6022227911
 30
0.0
 11
295.9378890002
 21
466.7022225952
 31
0.0
  0
LINE
  5
242
330
1F
100
AcDbEntity
  8
0
  6
CONTINUOUS
 62
     7
100
AcDbLine
 10
222.9378882105
 20
469.6022227911
 30
0.0
 11
222.9378882105
 21
466.7022225952
 31
0.0
  0
LINE
  5
243
330
1F
100
AcDbEntity
  8
0
  6
CONTINUOUS
 62
     7
100
AcDbLine
 10
234.9378883148
 20
469.6022227911
 30
0.0
 11
222.9378882105
 21
469.6022227911
 31
0.0
  0
LINE
  5
244
330
1F
100
AcDbEntity
  8
0
  6
CONTINUOUS
 62
     7
100
AcDbLine
 10
234.9378883148
 20
466.7022225952
 30
0.0
 11
222.9378882105
 21
466.7022225952
 31
0.0
  0
LINE
  5
245
330
1F
100
AcDbEntity
  8
0
  6
CONTINUOUS
 62
     7
100
AcDbLine
 10
234.9378883148
 20
469.6022227911
 30
0.0
 11
234.9378883148
 21
466.7022225952
 31
0.0
  0
LINE
  5
246
330
1F
100
AcDbEntity
  8
0
  6
CONTINUOUS
 62
     7
100
AcDbLine
 10
161.937887525
 20
469.6022227911
 30
0.0
 11
149.9378855581
 21
469.6022227911
 31
0.0
  0
LINE
  5
247
330
1F
100
AcDbEntity
  8
0
  6
CONTINUOUS
 62
     7
100
AcDbLine
 10
161.937887525
 20
469.6022227911
 30
0.0
 11
161.937887525
 21
466.7022225952
 31
0.0
  0
LINE
  5
248
330
1F
100
AcDbEntity
  8
0
  6
CONTINUOUS
 62
     7
100
AcDbLine
 10
161.937887525
 20
466.7022225952
 30
0.0
 11
149.9378855581
 21
466.7022225952
 31
0.0
  0
LINE
  5
249
330
1F
100
AcDbEntity
  8
0
  6
CONTINUOUS
 62
     7
100
AcDbLine
 10
149.9378855581
 20
469.6022227911
 30
0.0
 11
149.9378855581
 21
466.7022225952
 31
0.0
  0
LINE
  5
24A
330
1F
100
AcDbEntity
  8
0
  6
CONTINUOUS
 62
     7
100
AcDbLine
 10
325.687887823
 20
478.9204357697
 30
0.0
 11
331.1878915185
 21
478.9204357697
 31
0.0
  0
LINE
  5
24B
330
1F
100
AcDbEntity
  8
0
  6
CONTINUOUS
 62
     7
100
AcDbLine
 10
297.2024034018
 20
482.1022220461
 30
0.0
 11
297.9747417623
 21
477.7225090695
 31
0.0
  0
SPLINE
  5
24C
330
1F
100
AcDbEntity
  8
0
  6
CONTINUOUS
 62
     7
100
AcDbSpline
210
0.0
220
0.0
230
1.0
 70
     8
 71
     3
 72
     9
 73
     5
 74
     0
 42
0.00000001
 43
0.00000001
 40
0.0
 40
0.0
 40
0.0
 40
0.0
 40
0.521241516682151
 40
1.0
 40
1.0
 40
1.0
 40
1.0
 10
298.7227688784032
 20
476.1451131237478
 30
0.0
 10
298.5546626823175
 20
476.4012848164596
 30
0.0
 10
298.2321515416937
 20
476.8927492998383
 30
0.0
 10
298.0580799929894
 20
477.4538684947965
 30
0.0
 10
297.974741762343
 20
477.7225090695352
 30
0.0
  0
ELLIPSE
  5
24D
330
1F
100
AcDbEntity
  8
0
  6
CONTINUOUS
 62
     7
100
AcDbEllipse
 10
295.9623970791
 20
492.0130730896
 30
0.0
 11
-2.804888542555091
 21
15.90575519378194
 31
0.0
210
0.0
220
0.0
230
1.0
 40
0.0309574091
 41
3.066966576964544
 42
3.136133546596732
  0
LINE
  5
24E
330
1F
100
AcDbEntity
  8
0
  6
CONTINUOUS
 62
     7
100
AcDbLine
 10
298.7645554597
 20
476.1070807038
 30
0.0
 11
295.9378890002
 21
476.1070807038
 31
0.0
  0
LINE
  5
24F
330
1F
100
AcDbEntity
  8
0
  6
CONTINUOUS
 62
     7
100
AcDbLine
 10
295.9378890002
 20
478.3027407286
 30
0.0
 11
295.9378890002
 21
476.1070807038
 31
0.0
  0
ARC
  5
250
330
1F
100
AcDbEntity
  8
0
  6
CONTINUOUS
 62
     7
100
AcDbCircle
 10
295.4379134481
 20
478.3027158984
 30
0.0
 40
0.4999755527666723
100
AcDbArc
 50
0.0028454772
 51
90.0029177731
  0
LINE
  5
251
330
1F
100
AcDbEntity
  8
0
  6
CONTINUOUS
 62
     7
100
AcDbLine
 10
235.4378893281
 20
478.8026914505
 30
0.0
 11
295.437887987
 21
478.8026914505
 31
0.0
  0
ARC
  5
252
330
1F
100
AcDbEntity
  8
0
  6
CONTINUOUS
 62
     7
100
AcDbCircle
 10
235.4378638669
 20
478.3027158984
 30
0.0
 40
0.4999755527666155
100
AcDbArc
 50
89.9970822269
 51
179.9971545229
  0
LINE
  5
253
330
1F
100
AcDbEntity
  8
0
  6
CONTINUOUS
 62
     7
100
AcDbLine
 10
234.9378883148
 20
478.3027407286
 30
0.0
 11
234.9378883148
 21
476.1070807038
 31
0.0
  0
LINE
  5
254
330
1F
100
AcDbEntity
  8
0
  6
CONTINUOUS
 62
     7
100
AcDbLine
 10
232.1112218553
 20
476.1070807038
 30
0.0
 11
234.9378883148
 21
476.1070807038
 31
0.0
  0
ELLIPSE
  5
255
330
1F
100
AcDbEntity
  8
0
  6
CONTINUOUS
 62
     7
100
AcDbEllipse
 10
234.9133802359
 20
492.0130730896
 30
0.0
 11
2.804888542555148
 21
15.90575519378194
 31
0.0
210
0.0
220
0.0
230
1.0
 40
0.0309574091
 41
3.147051760583435
 42
3.216218730216196
  0
SPLINE
  5
256
330
1F
100
AcDbEntity
  8
0
  6
CONTINUOUS
 62
     7
100
AcDbSpline
210
0.0
220
0.0
230
1.0
 70
     8
 71
     3
 72
    10
 73
     6
 74
     0
 42
0.00000001
 43
0.00000001
 40
0.0
 40
0.0
 40
0.0
 40
0.0
 40
0.4620483899290563
 40
0.8424458909938882
 40
0.9999999999999999
 40
0.9999999999999999
 40
0.9999999999999999
 40
0.9999999999999999
 10
232.9010355526834
 20
477.7225090695352
 30
0.0
 10
232.8225482694615
 20
477.4626944462757
 30
0.0
 10
232.6794435845698
 20
476.988978345201
 30
0.0
 10
232.3699562478165
 20
476.4886683607605
 30
0.0
 10
232.2021539981273
 20
476.2229392835869
 30
0.0
 10
232.1530084366231
 20
476.1451131237478
 30
0.0
  0
LINE
  5
257
330
1F
100
AcDbEntity
  8
0
  6
CONTINUOUS
 62
     7
100
AcDbLine
 10
233.6733739132
 20
482.1022220461
 30
0.0
 11
232.9010355527
 21
477.7225090695
 31
0.0
  0
ELLIPSE
  5
258
330
1F
100
AcDbEntity
  8
0
  6
CONTINUOUS
 62
     7
100
AcDbEllipse
 10
298.2826840723
 20
476.0154069834
 30
0.0
 11
-0.5818255260537057
 21
3.299999706710139
 31
0.0
210
0.0
220
0.0
230
1.0
 40
0.0023912561
 41
6.282763702977557
 42
7.309862906109012
  0
ARC
  5
259
330
1F
100
AcDbEntity
  8
0
  6
CONTINUOUS
 62
     7
100
AcDbCircle
 10
298.1932643336
 20
479.4022191029
 30
0.0
 40
0.499996277551966
100
AcDbArc
 50
189.9986945473
 51
270.0003389247
  0
ELLIPSE
  5
25A
330
1F
100
AcDbEntity
  8
0
  6
CONTINUOUS
 62
     7
100
AcDbEllipse
 10
298.7750879488
 20
476.1022225837
 30
0.0
 11
-0.5818267595811335
 21
2.799999530931416
 31
0.0
210
0.0
220
0.0
230
1.0
 40
0.0027855949
 41
6.282606473707662
 42
7.835949507975597
  0
LINE
  5
25B
330
1F
100
AcDbEntity
  8
0
  6
CONTINUOUS
 62
     7
100
AcDbLine
 10
298.7227688784
 20
476.1451131237
 30
0.0
 11
298.7567994053
 21
476.1510894207
 31
0.0
  0
LINE
  5
25C
330
1F
100
AcDbEntity
  8
0
  6
CONTINUOUS
 62
     7
100
AcDbLine
 10
232.1189779097
 20
476.1510894207
 30
0.0
 11
232.1530084366
 21
476.1451131237
 31
0.0
  0
ELLIPSE
  5
25D
330
1F
100
AcDbEntity
  8
0
  6
CONTINUOUS
 62
     7
100
AcDbEllipse
 10
232.1006893662
 20
476.1022225837
 30
0.0
 11
0.5818267595810768
 21
2.799999530931416
 31
0.0
210
0.0
220
0.0
230
1.0
 40
0.0027855949
 41
4.730421106383462
 42
6.283764140658034
  0
ARC
  5
25E
330
1F
100
AcDbEntity
  8
0
  6
CONTINUOUS
 62
     7
100
AcDbCircle
 10
232.6825129814
 20
479.4022191029
 30
0.0
 40
0.499996277551994
100
AcDbArc
 50
269.9996610754
 51
350.0013054527
  0
ELLIPSE
  5
25F
330
1F
100
AcDbEntity
  8
0
  6
CONTINUOUS
 62
     7
100
AcDbEllipse
 10
232.5930932427
 20
476.0154069834
 30
0.0
 11
0.5818255260537341
 21
3.299999706710139
 31
0.0
210
0.0
220
0.0
230
1.0
 40
0.0023912561
 41
5.256507708247264
 42
6.283606911393298
  0
LINE
  5
260
330
1F
100
AcDbEntity
  8
0
  6
CONTINUOUS
 62
     7
100
AcDbLine
 10
386.4378880019
 20
476.1510894207
 30
0.0
 11
386.4378880019
 21
470.1022224074
 31
0.0
  0
LINE
  5
261
330
1F
100
AcDbEntity
  8
0
  6
CONTINUOUS
 62
     7
100
AcDbLine
 10
391.3323010559
 20
476.1510894207
 30
0.0
 11
386.4378880019
 21
476.1510894207
 31
0.0
  0
LINE
  5
262
330
1F
100
AcDbEntity
  8
0
  6
CONTINUOUS
 62
     7
100
AcDbLine
 10
391.3323010559
 20
476.1510894207
 30
0.0
 11
391.4378906841
 21
470.1022224074
 31
0.0
  0
LINE
  5
263
330
1F
100
AcDbEntity
  8
0
  6
CONTINUOUS
 62
     7
100
AcDbLine
 10
386.4378880019
 20
470.1022224074
 30
0.0
 11
391.4378906841
 21
470.1022224074
 31
0.0
  0
LINE
  5
264
330
1F
100
AcDbEntity
  8
0
  6
CONTINUOUS
 62
     7
100
AcDbLine
 10
139.5434762592
 20
476.1510894207
 30
0.0
 11
139.437886631
 21
470.1022224074
 31
0.0
  0
LINE
  5
265
330
1F
100
AcDbEntity
  8
0
  6
CONTINUOUS
 62
     7
100
AcDbLine
 10
144.4378893132
 20
476.1510894207
 30
0.0
 11
139.5434762592
 21
476.1510894207
 31
0.0
  0
LINE
  5
266
330
1F
100
AcDbEntity
  8
0
  6
CONTINUOUS
 62
     7
100
AcDbLine
 10
144.4378893132
 20
476.1510894207
 30
0.0
 11
144.4378893132
 21
470.1022224074
 31
0.0
  0
LINE
  5
267
330
1F
100
AcDbEntity
  8
0
  6
CONTINUOUS
 62
     7
100
AcDbLine
 10
139.437886631
 20
470.1022224074
 30
0.0
 11
144.4378893132
 21
470.1022224074
 31
0.0
  0
LINE
  5
268
330
1F
100
AcDbEntity
  8
0
  6
CONTINUOUS
 62
     7
100
AcDbLine
 10
295.9378890002
 20
476.1070807038
 30
0.0
 11
295.9378890002
 21
470.1022224074
 31
0.0
  0
LINE
  5
269
330
1F
100
AcDbEntity
  8
0
  6
CONTINUOUS
 62
     7
100
AcDbLine
 10
298.7567994053
 20
476.1510894207
 30
0.0
 11
298.7645554597
 21
476.1070807038
 31
0.0
  0
LINE
  5
26A
330
1F
100
AcDbEntity
  8
0
  6
CONTINUOUS
 62
     7
100
AcDbLine
 10
386.4378880019
 20
476.1510894207
 30
0.0
 11
298.7567994053
 21
476.1510894207
 31
0.0
  0
LINE
  5
26B
330
1F
100
AcDbEntity
  8
0
  6
CONTINUOUS
 62
     7
100
AcDbLine
 10
295.9378890002
 20
470.1022224074
 30
0.0
 11
386.4378880019
 21
470.1022224074
 31
0.0
  0
LINE
  5
26C
330
1F
100
AcDbEntity
  8
0
  6
CONTINUOUS
 62
     7
100
AcDbLine
 10
234.9378883148
 20
476.1070807038
 30
0.0
 11
234.9378883148
 21
470.1022224074
 31
0.0
  0
LINE
  5
26D
330
1F
100
AcDbEntity
  8
0
  6
CONTINUOUS
 62
     7
100
AcDbLine
 10
232.1189779097
 20
476.1510894207
 30
0.0
 11
144.4378893132
 21
476.1510894207
 31
0.0
  0
LINE
  5
26E
330
1F
100
AcDbEntity
  8
0
  6
CONTINUOUS
 62
     7
100
AcDbLine
 10
232.1112218553
 20
476.1070807038
 30
0.0
 11
232.1189779097
 21
476.1510894207
 31
0.0
  0
LINE
  5
26F
330
1F
100
AcDbEntity
  8
0
  6
CONTINUOUS
 62
     7
100
AcDbLine
 10
144.4378893132
 20
470.1022224074
 30
0.0
 11
234.9378883148
 21
470.1022224074
 31
0.0
  0
LINE
  5
270
330
1F
100
AcDbEntity
  8
0
  6
CONTINUOUS
 62
     7
100
AcDbLine
 10
233.7921808714
 20
482.7907320617
 30
0.0
 11
233.1708769555
 21
479.3154068796
 31
0.0
  0
LINE
  5
271
330
1F
100
AcDbEntity
  8
0
  6
CONTINUOUS
 62
     7
100
AcDbLine
 10
233.7921808714
 20
482.7757899223
 30
0.0
 11
233.7921808714
 21
482.7907320617
 31
0.0
  0
LINE
  5
272
330
1F
100
AcDbEntity
  8
0
  6
CONTINUOUS
 62
     7
100
AcDbLine
 10
233.673422342
 20
482.1022220461
 30
0.0
 11
233.7921808714
 21
482.7757899223
 31
0.0
  0
LINE
  5
273
330
1F
100
AcDbEntity
  8
0
  6
CONTINUOUS
 62
     7
100
AcDbLine
 10
233.673422342
 20
482.1022220461
 30
0.0
 11
233.6733739132
 21
482.1022220461
 31
0.0
  0
LINE
  5
274
330
1F
100
AcDbEntity
  8
0
  6
CONTINUOUS
 62
     7
100
AcDbLine
 10
233.1708769555
 20
479.3154068796
 30
0.0
 11
233.1749151701
 21
479.3154068796
 31
0.0
  0
LINE
  5
275
330
1F
100
AcDbEntity
  8
0
  6
CONTINUOUS
 62
     7
100
AcDbLine
 10
297.202354973
 20
482.1022220461
 30
0.0
 11
297.2024034018
 21
482.1022220461
 31
0.0
  0
LINE
  5
276
330
1F
100
AcDbEntity
  8
0
  6
CONTINUOUS
 62
     7
100
AcDbLine
 10
297.202354973
 20
482.1022220461
 30
0.0
 11
297.0835964436
 21
482.7757899223
 31
0.0
  0
LINE
  5
277
330
1F
100
AcDbEntity
  8
0
  6
CONTINUOUS
 62
     7
100
AcDbLine
 10
297.0835964436
 20
482.7907320617
 30
0.0
 11
297.0835964436
 21
482.7757899223
 31
0.0
  0
LINE
  5
278
330
1F
100
AcDbEntity
  8
0
  6
CONTINUOUS
 62
     7
100
AcDbLine
 10
297.7049003596
 20
479.3154068796
 30
0.0
 11
297.0835964436
 21
482.7907320617
 31
0.0
  0
LINE
  5
279
330
1F
100
AcDbEntity
  8
0
  6
CONTINUOUS
 62
     7
100
AcDbLine
 10
297.7008621449
 20
479.3154068796
 30
0.0
 11
297.7049003596
 21
479.3154068796
 31
0.0
  0
LINE
  5
27A
330
1F
100
AcDbEntity
  8
0
  6
CONTINUOUS
 62
     7
100
AcDbLine
 10
234.7769874389
 20
483.6170033125
 30
0.0
 11
234.7769874389
 21
483.6022232232
 31
0.0
  0
ELLIPSE
  5
27B
330
1F
100
AcDbEntity
  8
0
  6
CONTINUOUS
 62
     7
100
AcDbEllipse
 10
234.7769882887
 20
482.6021248065
 30
0.0
 11
0.0
 21
-1.000097777187534
 31
1.421085471520200E-14
210
0.0
220
1.420946535364336E-14
230
1.0
 40
0.9999022324
 41
3.141592653589793
 42
4.537856055185289
  0
ARC
  5
27C
330
1F
100
AcDbEntity
  8
0
  6
CONTINUOUS
 62
     7
100
AcDbCircle
 10
234.7769486091
 20
482.6170340688
 30
0.0
 40
0.9999692444848569
100
AcDbArc
 50
89.997775151
 51
169.9967909364
  0
ELLIPSE
  5
27D
330
1F
100
AcDbEntity
  8
0
  6
CONTINUOUS
 62
     7
100
AcDbEllipse
 10
296.0987890263
 20
482.6021248065
 30
0.0
 11
0.0
 21
-1.000097777187534
 31
1.421085471520200E-14
210
0.0
220
1.420946535364336E-14
230
1.0
 40
0.9999022324
 41
1.745329251994307
 42
3.141592653589793
  0
LINE
  5
27E
330
1F
100
AcDbEntity
  8
0
  6
CONTINUOUS
 62
     7
100
AcDbLine
 10
297.202354973
 20
482.1022220461
 30
0.0
 11
233.673422342
 21
482.1022220461
 31
0.0
  0
LINE
  5
27F
330
1F
100
AcDbEntity
  8
0
  6
CONTINUOUS
 62
     7
100
AcDbLine
 10
296.0987898762
 20
483.6022232232
 30
0.0
 11
234.7769874389
 21
483.6022232232
 31
0.0
  0
LINE
  5
280
330
1F
100
AcDbEntity
  8
0
  6
CONTINUOUS
 62
     7
100
AcDbLine
 10
296.0987898762
 20
483.6022232232
 30
0.0
 11
296.0987898762
 21
483.6170033125
 31
0.0
  0
ARC
  5
281
330
1F
100
AcDbEntity
  8
0
  6
CONTINUOUS
 62
     7
100
AcDbCircle
 10
296.0988287059
 20
482.6170340688
 30
0.0
 40
0.9999692444848569
100
AcDbArc
 50
10.0032090636
 51
90.002224849
  0
LINE
  5
282
330
1F
100
AcDbEntity
  8
0
  6
CONTINUOUS
 62
     7
100
AcDbLine
 10
296.0987898762
 20
483.6170033125
 30
0.0
 11
234.7769874389
 21
483.6170033125
 31
0.0
  0
LINE
  5
283
330
1F
100
AcDbEntity
  8
0
  6
CONTINUOUS
 62
     7
100
AcDbLine
 10
386.4378880019
 20
476.1510894207
 30
0.0
 11
386.4378880019
 21
478.9022228254
 31
0.0
  0
LINE
  5
284
330
1F
100
AcDbEntity
  8
0
  6
CONTINUOUS
 62
     7
100
AcDbLine
 10
386.4378880019
 20
478.9022228254
 30
0.0
 11
388.5327304954
 21
478.9022228254
 31
0.0
  0
ARC
  5
285
330
1F
100
AcDbEntity
  8
0
  6
CONTINUOUS
 62
     7
100
AcDbCircle
 10
388.5327317494
 20
476.1022225837
 30
0.0
 40
2.800000000000002
100
AcDbArc
 50
1.0
 51
90.0
  0
LINE
  5
286
330
1F
100
AcDbEntity
  8
0
  6
CONTINUOUS
 62
     7
100
AcDbLine
 10
142.3430468196
 20
478.9022228254
 30
0.0
 11
144.4378893132
 21
478.9022228254
 31
0.0
  0
LINE
  5
287
330
1F
100
AcDbEntity
  8
0
  6
CONTINUOUS
 62
     7
100
AcDbLine
 10
144.4378893132
 20
476.1510894207
 30
0.0
 11
144.4378893132
 21
478.9022228254
 31
0.0
  0
ARC
  5
288
330
1F
100
AcDbEntity
  8
0
  6
CONTINUOUS
 62
     7
100
AcDbCircle
 10
142.3430455656
 20
476.1022225837
 30
0.0
 40
2.799999999999955
100
AcDbArc
 50
90.0
 51
179.0
  0
LINE
  5
289
330
1F
100
AcDbEntity
  8
0
  6
CONTINUOUS
 62
     7
100
AcDbLine
 10
298.1932672913
 20
478.9022228254
 30
0.0
 11
386.4378880019
 21
478.9022228254
 31
0.0
  0
LINE
  5
28A
330
1F
100
AcDbEntity
  8
0
  6
CONTINUOUS
 62
     7
100
AcDbLine
 10
144.4378893132
 20
478.9022228254
 30
0.0
 11
232.6825100238
 21
478.9022228254
 31
0.0
  0
LINE
  5
28B
330
1F
100
AcDbEntity
  8
0
  6
CONTINUOUS
 62
     7
100
AcDbLine
 10
234.9440369064
 20
478.3809019757
 30
0.0
 11
295.9317404086
 21
478.3809019757
 31
0.0
  0
ARC
  5
28C
330
1F
100
AcDbEntity
  8
0
  6
CONTINUOUS
 62
     7
100
AcDbCircle
 10
232.6784747668
 20
479.4022191029
 30
0.0
 40
0.4999962775375688
100
AcDbArc
 50
270.0000879638
 51
350.0013054532
  0
ARC
  5
28D
330
1F
100
AcDbEntity
  8
0
  6
CONTINUOUS
 62
     7
100
AcDbCircle
 10
298.1973025483
 20
479.4022191029
 30
0.0
 40
0.4999962775375688
100
AcDbArc
 50
189.9986945468
 51
269.9999120362
  0
LINE
  5
28E
330
1F
100
AcDbEntity
  8
0
  6
CONTINUOUS
 62
     7
100
AcDbLine
 10
295.9378890002
 20
476.9022224976
 30
0.0
 11
234.9378883148
 21
476.9022224976
 31
0.0
  0
LINE
  5
28F
330
1F
100
AcDbEntity
  8
0
  6
CONTINUOUS
 62
     7
100
AcDbLine
 10
141.8378900046
 20
469.1322224719
 30
0.0
 11
141.8378900046
 21
464.1322225837
 31
0.0
  0
LINE
  5
290
330
1F
100
AcDbEntity
  8
0
  6
CONTINUOUS
 62
     7
100
AcDbLine
 10
141.8378900046
 20
469.1322224719
 30
0.0
 11
148.4378899688
 21
469.1322224719
 31
0.0
  0
LINE
  5
291
330
1F
100
AcDbEntity
  8
0
  6
CONTINUOUS
 62
     7
100
AcDbLine
 10
148.4717603082
 20
470.1022224074
 30
0.0
 11
148.4378899688
 21
469.1322224719
 31
0.0
  0
LINE
  5
292
330
1F
100
AcDbEntity
  8
0
  6
CONTINUOUS
 62
     7
100
AcDbLine
 10
163.4040127749
 20
470.1022224074
 30
0.0
 11
163.4378905649
 21
469.1322224719
 31
0.0
  0
LINE
  5
293
330
1F
100
AcDbEntity
  8
0
  6
CONTINUOUS
 62
     7
100
AcDbLine
 10
163.4378905649
 20
469.1322224719
 30
0.0
 11
221.4378888959
 21
469.1322224719
 31
0.0
  0
LINE
  5
294
330
1F
100
AcDbEntity
  8
0
  6
CONTINUOUS
 62
     7
100
AcDbLine
 10
221.4717629606
 20
470.1022224074
 30
0.0
 11
221.4378888959
 21
469.1322224719
 31
0.0
  0
LINE
  5
295
330
1F
100
AcDbEntity
  8
0
  6
CONTINUOUS
 62
     7
100
AcDbLine
 10
234.9378883148
 20
476.132222688
 30
0.0
 11
236.1934433932
 21
476.132222688
 31
0.0
  0
LINE
  5
296
330
1F
100
AcDbEntity
  8
0
  6
CONTINUOUS
 62
     7
100
AcDbLine
 10
236.1934433932
 20
476.132222688
 30
0.0
 11
236.437889492
 21
469.1322224719
 31
0.0
  0
LINE
  5
297
330
1F
100
AcDbEntity
  8
0
  6
CONTINUOUS
 62
     7
100
AcDbLine
 10
236.437889492
 20
469.1322224719
 30
0.0
 11
294.437887823
 21
469.1322224719
 31
0.0
  0
LINE
  5
298
330
1F
100
AcDbEntity
  8
0
  6
CONTINUOUS
 62
     7
100
AcDbLine
 10
294.6823339219
 20
476.132222688
 30
0.0
 11
294.437887823
 21
469.1322224719
 31
0.0
  0
LINE
  5
299
330
1F
100
AcDbEntity
  8
0
  6
CONTINUOUS
 62
     7
100
AcDbLine
 10
294.6823339219
 20
476.132222688
 30
0.0
 11
295.9378890002
 21
476.132222688
 31
0.0
  0
LINE
  5
29A
330
1F
100
AcDbEntity
  8
0
  6
CONTINUOUS
 62
     7
100
AcDbLine
 10
309.4040143544
 20
470.1022224074
 30
0.0
 11
309.4378884191
 21
469.1322224719
 31
0.0
  0
LINE
  5
29B
330
1F
100
AcDbEntity
  8
0
  6
CONTINUOUS
 62
     7
100
AcDbLine
 10
309.4378884191
 20
469.1322224719
 30
0.0
 11
325.7121171111
 21
469.1322224719
 31
0.0
  0
SPLINE
  5
29C
330
1F
100
AcDbEntity
  8
0
  6
CONTINUOUS
 62
     7
100
AcDbSpline
210
0.0
220
0.0
230
1.0
 70
     8
 71
     3
 72
    12
 73
     8
 74
     0
 42
0.00000001
 43
0.00000001
 40
0.0
 40
0.0
 40
0.0
 40
0.0
 40
0.2499999999999953
 40
0.2499999999999953
 40
0.4999999999999907
 40
0.4999999999999907
 40
1.0
 40
1.0
 40
1.0
 40
1.0
 10
326.4330284110538
 20
469.6322225836844
 30
0.0
 10
326.4366671949654
 20
469.5505517609408
 30
0.0
 10
326.4062478170778
 20
469.4721573420856
 30
0.0
 10
326.3078961812345
 20
469.3422411867517
 30
0.0
 10
326.243575027148
 20
469.291569411814
 30
0.0
 10
326.0346784367281
 20
469.1713654967413
 30
0.0
 10
325.8741043828711
 20
469.1322225836844
 30
0.0
 10
325.7121163527387
 20
469.1322225836844
 30
0.0
  0
ELLIPSE
  5
29D
330
1F
100
AcDbEntity
  8
0
  6
CONTINUOUS
 62
     7
100
AcDbEllipse
 10
328.4378886575
 20
542.8819191117
 30
0.0
 11
0.0
 21
93.06782316947795
 31
0.0
210
0.0
220
0.0
230
1.0
 40
0.0349207695
 41
2.46867591223937
 42
2.476820175645411
  0
ELLIPSE
  5
29E
330
1F
100
AcDbEntity
  8
0
  6
CONTINUOUS
 62
     7
100
AcDbEllipse
 10
328.4378886575
 20
542.8819191117
 30
0.0
 11
0.0
 21
93.06782316947795
 31
0.0
210
0.0
220
0.0
230
1.0
 40
0.0349207695
 41
3.806365131534415
 42
3.814509394940461
  0
SPLINE
  5
29F
330
1F
100
AcDbEntity
  8
0
  6
CONTINUOUS
 62
     7
100
AcDbSpline
210
0.0
220
0.0
230
1.0
 70
     8
 71
     3
 72
    14
 73
    10
 74
     0
 42
0.00000001
 43
0.00000001
 40
0.0
 40
0.0
 40
0.0
 40
0.0
 40
0.25
 40
0.25
 40
0.5
 40
0.5
 40
0.75
 40
0.75
 40
1.0
 40
1.0
 40
1.0
 40
1.0
 10
331.1636609622877
 20
469.1322225836844
 30
0.0
 10
331.0826216706027
 20
469.1322225836844
 30
0.0
 10
331.0033080873228
 20
469.1423235177265
 30
0.0
 10
330.8479599230696
 20
469.1817180755679
 30
0.0
 10
330.7717214893539
 20
469.2113343719029
 30
0.0
 10
330.6326370235542
 20
469.2912719641861
 30
0.0
 10
330.5679318692085
 20
469.3422649275603
 30
0.0
 10
330.469851761513
 20
469.4716412384588
 30
0.0
 10
330.4391106382299
 20
469.5505633910029
 30
0.0
 10
330.4427489039726
 20
469.6322225836844
 30
0.0
  0
LINE
  5
2A0
330
1F
100
AcDbEntity
  8
0
  6
CONTINUOUS
 62
     7
100
AcDbLine
 10
331.1636622304
 20
469.1322224719
 30
0.0
 11
367.4378867502
 21
469.1322224719
 31
0.0
  0
LINE
  5
2A1
330
1F
100
AcDbEntity
  8
0
  6
CONTINUOUS
 62
     7
100
AcDbLine
 10
367.4717645401
 20
470.1022224074
 30
0.0
 11
367.4378867502
 21
469.1322224719
 31
0.0
  0
LINE
  5
2A2
330
1F
100
AcDbEntity
  8
0
  6
CONTINUOUS
 62
     7
100
AcDbLine
 10
382.4040170068
 20
470.1022224074
 30
0.0
 11
382.4378873462
 21
469.1322224719
 31
0.0
  0
LINE
  5
2A3
330
1F
100
AcDbEntity
  8
0
  6
CONTINUOUS
 62
     7
100
AcDbLine
 10
382.4378873462
 20
469.1322224719
 30
0.0
 11
389.0378873104
 21
469.1322224719
 31
0.0
  0
LINE
  5
2A4
330
1F
100
AcDbEntity
  8
0
  6
CONTINUOUS
 62
     7
100
AcDbLine
 10
389.0378873104
 20
469.1322224719
 30
0.0
 11
389.0378873104
 21
464.1322225837
 31
0.0
  0
LINE
  5
2A5
330
1F
100
AcDbEntity
  8
0
  6
CONTINUOUS
 62
     7
100
AcDbLine
 10
141.8378900046
 20
464.1322225837
 30
0.0
 11
389.0378873104
 21
464.1322225837
 31
0.0
  0
LINE
  5
2A6
330
1F
100
AcDbEntity
  8
0
  6
CONTINUOUS
 62
     7
100
AcDbLine
 10
137.0124991292
 20
469.1322224719
 30
0.0
 11
136.8378873224
 21
464.1322225837
 31
0.0
  0
LINE
  5
2A7
330
1F
100
AcDbEntity
  8
0
  6
CONTINUOUS
 62
     7
100
AcDbLine
 10
137.0124991292
 20
469.1322224719
 30
0.0
 11
141.8378900046
 21
469.1322224719
 31
0.0
  0
LINE
  5
2A8
330
1F
100
AcDbEntity
  8
0
  6
CONTINUOUS
 62
     7
100
AcDbLine
 10
136.8378873224
 20
464.1322225837
 30
0.0
 11
141.8378900046
 21
464.1322225837
 31
0.0
  0
LINE
  5
2A9
330
1F
100
AcDbEntity
  8
0
  6
CONTINUOUS
 62
     7
100
AcDbLine
 10
389.0378873104
 20
469.1322224719
 30
0.0
 11
393.8632781858
 21
469.1322224719
 31
0.0
  0
LINE
  5
2AA
330
1F
100
AcDbEntity
  8
0
  6
CONTINUOUS
 62
     7
100
AcDbLine
 10
393.8632781858
 20
469.1322224719
 30
0.0
 11
394.0378899927
 21
464.1322225837
 31
0.0
  0
LINE
  5
2AB
330
1F
100
AcDbEntity
  8
0
  6
CONTINUOUS
 62
     7
100
AcDbLine
 10
389.0378873104
 20
464.1322225837
 30
0.0
 11
394.0378899927
 21
464.1322225837
 31
0.0
  0
LINE
  5
2AC
330
1F
100
AcDbEntity
  8
0
  6
CONTINUOUS
 62
     7
100
AcDbLine
 10
137.2569377775
 20
476.132222688
 30
0.0
 11
138.3680428619
 21
476.132222688
 31
0.0
  0
LINE
  5
2AD
330
1F
100
AcDbEntity
  8
0
  6
CONTINUOUS
 62
     7
100
AcDbLine
 10
138.3680428619
 20
476.132222688
 30
0.0
 11
138.6124964113
 21
469.1322224719
 31
0.0
  0
LINE
  5
2AE
330
1F
100
AcDbEntity
  8
0
  6
CONTINUOUS
 62
     7
100
AcDbLine
 10
137.2569377775
 20
476.132222688
 30
0.0
 11
137.0124991292
 21
469.1322224719
 31
0.0
  0
LINE
  5
2AF
330
1F
100
AcDbEntity
  8
0
  6
CONTINUOUS
 62
     7
100
AcDbLine
 10
392.5077344531
 20
476.132222688
 30
0.0
 11
392.2632809038
 21
469.1322224719
 31
0.0
  0
LINE
  5
2B0
330
1F
100
AcDbEntity
  8
0
  6
CONTINUOUS
 62
     7
100
AcDbLine
 10
392.5077344531
 20
476.132222688
 30
0.0
 11
393.6188395376
 21
476.132222688
 31
0.0
  0
LINE
  5
2B1
330
1F
100
AcDbEntity
  8
0
  6
CONTINUOUS
 62
     7
100
AcDbLine
 10
393.6188395376
 20
476.132222688
 30
0.0
 11
393.8632781858
 21
469.1322224719
 31
0.0
  0
LINE
  5
2B2
330
1F
100
AcDbEntity
  8
0
  6
CONTINUOUS
 62
     7
100
AcDbLine
 10
388.404014265
 20
470.1022224074
 30
0.0
 11
388.437892055
 21
469.1322224719
 31
0.0
  0
LINE
  5
2B3
330
1F
100
AcDbEntity
  8
0
  6
CONTINUOUS
 62
     7
100
AcDbLine
 10
236.1934433932
 20
476.132222688
 30
0.0
 11
294.6823339219
 21
476.132222688
 31
0.0
  0
LINE
  5
2B4
330
1F
100
AcDbEntity
  8
0
  6
CONTINUOUS
 62
     7
100
AcDbLine
 10
142.47176305
 20
470.1022224074
 30
0.0
 11
142.43788526
 21
469.1322224719
 31
0.0
  0
LWPOLYLINE
  5
2B5
330
1F
100
AcDbEntity
  8
0
  6
CONTINUOUS
 62
     7
100
AcDbPolyline
 90
        2
 70
   128
 43
0.0
 10
388.187887823
 20
428.9322227744
 10
388.187887823
 20
428.9322227744
  0
LINE
  5
2B6
330
1F
100
AcDbEntity
  8
0
  6
CONTINUOUS
 62
     7
100
AcDbLine
 10
388.187887823
 20
428.9322227744
 30
0.0
 11
382.8878875131
 21
428.9322227744
 31
0.0
  0
LINE
  5
2B7
330
1F
100
AcDbEntity
  8
0
  6
CONTINUOUS
 62
     7
100
AcDbLine
 10
382.8878875131
 20
428.9322227744
 30
0.0
 11
147.9878898019
 21
428.9322227744
 31
0.0
  0
LINE
  5
2B8
330
1F
100
AcDbEntity
  8
0
  6
CONTINUOUS
 62
     7
100
AcDbLine
 10
147.9878898019
 20
428.9322227744
 30
0.0
 11
142.687889492
 21
428.9322227744
 31
0.0
  0
LINE
  5
2B9
330
1F
100
AcDbEntity
  8
0
  6
CONTINUOUS
 62
     7
100
AcDbLine
 10
142.1463514919
 20
470.1022224074
 30
0.0
 11
142.1378876323
 21
469.1322224719
 31
0.0
  0
LINE
  5
2BA
330
1F
100
AcDbEntity
  8
0
  6
CONTINUOUS
 62
     7
100
AcDbLine
 10
388.7294258232
 20
470.1022224074
 30
0.0
 11
388.7378896827
 21
469.1322224719
 31
0.0
  0
LINE
  5
2BB
330
1F
100
AcDbEntity
  8
0
  6
CONTINUOUS
 62
     7
100
AcDbLine
 10
295.9378890002
 20
476.4196726067
 30
0.0
 11
234.9378883148
 21
476.4196726067
 31
0.0
  0
LINE
  5
2BC
330
1F
100
AcDbEntity
  8
0
  6
CONTINUOUS
 62
     7
100
AcDbLine
 10
330.4427515025
 20
469.6322225539
 30
0.0
 11
331.6878850812
 21
469.6322225539
 31
0.0
  0
LINE
  5
2BD
330
1F
100
AcDbEntity
  8
0
  6
CONTINUOUS
 62
     7
100
AcDbLine
 10
325.1878868098
 20
469.6322225539
 30
0.0
 11
326.4330278391
 21
469.6322225539
 31
0.0
  0
LINE
  5
2BE
330
1F
100
AcDbEntity
  8
0
  6
CONTINUOUS
 62
     7
100
AcDbLine
 10
331.1878915185
 20
106.9771570981
 30
0.0
 11
331.3778738732
 21
106.9953700424
 31
0.0
  0
LINE
  5
2BF
330
1F
100
AcDbEntity
  8
0
  6
CONTINUOUS
 62
     7
100
AcDbLine
 10
325.4979017431
 20
106.9953700424
 30
0.0
 11
325.687887823
 21
106.9771570981
 31
0.0
  0
LINE
  5
2C0
330
1F
100
AcDbEntity
  8
0
  6
CONTINUOUS
 62
     7
100
AcDbLine
 10
366.9878865833
 20
112.2953703523
 30
0.0
 11
367.5939838643
 21
112.2953703523
 31
0.0
  0
LINE
  5
2C1
330
1F
100
AcDbEntity
  8
0
  6
CONTINUOUS
 62
     7
100
AcDbLine
 10
372.5706811304
 20
112.2953703523
 30
0.0
 11
377.305092966
 21
112.2953703523
 31
0.0
  0
LINE
  5
2C2
330
1F
100
AcDbEntity
  8
0
  6
CONTINUOUS
 62
     7
100
AcDbLine
 10
382.2817902321
 20
112.2953703523
 30
0.0
 11
383.8878895397
 21
112.2953703523
 31
0.0
  0
LINE
  5
2C3
330
1F
100
AcDbEntity
  8
0
  6
CONTINUOUS
 62
     7
100
AcDbLine
 10
293.8378888423
 20
112.2953703523
 30
0.0
 11
294.5939849371
 21
112.2953703523
 31
0.0
  0
LINE
  5
2C4
330
1F
100
AcDbEntity
  8
0
  6
CONTINUOUS
 62
     7
100
AcDbLine
 10
299.5706822032
 20
112.2953703523
 30
0.0
 11
304.3050940389
 21
112.2953703523
 31
0.0
  0
LINE
  5
2C5
330
1F
100
AcDbEntity
  8
0
  6
CONTINUOUS
 62
     7
100
AcDbLine
 10
309.281791305
 20
112.2953703523
 30
0.0
 11
310.7378880734
 21
112.2953703523
 31
0.0
  0
LINE
  5
2C6
330
1F
100
AcDbEntity
  8
0
  6
CONTINUOUS
 62
     7
100
AcDbLine
 10
220.1378892416
 20
112.2953703523
 30
0.0
 11
221.59398601
 21
112.2953703523
 31
0.0
  0
LINE
  5
2C7
330
1F
100
AcDbEntity
  8
0
  6
CONTINUOUS
 62
     7
100
AcDbLine
 10
226.5706832761
 20
112.2953703523
 30
0.0
 11
231.3050951118
 21
112.2953703523
 31
0.0
  0
LINE
  5
2C8
330
1F
100
AcDbEntity
  8
0
  6
CONTINUOUS
 62
     7
100
AcDbLine
 10
236.2817923779
 20
112.2953703523
 30
0.0
 11
237.0378884727
 21
112.2953703523
 31
0.0
  0
LINE
  5
2C9
330
1F
100
AcDbEntity
  8
0
  6
CONTINUOUS
 62
     7
100
AcDbLine
 10
146.9878877754
 20
112.2953703523
 30
0.0
 11
148.5939870829
 21
112.2953703523
 31
0.0
  0
LINE
  5
2CA
330
1F
100
AcDbEntity
  8
0
  6
CONTINUOUS
 62
     7
100
AcDbLine
 10
153.570684349
 20
112.2953703523
 30
0.0
 11
158.3050961847
 21
112.2953703523
 31
0.0
  0
LINE
  5
2CB
330
1F
100
AcDbEntity
  8
0
  6
CONTINUOUS
 62
     7
100
AcDbLine
 10
163.2817934508
 20
112.2953703523
 30
0.0
 11
163.8878907318
 21
112.2953703523
 31
0.0
  0
LINE
  5
2CC
330
1F
100
AcDbEntity
  8
0
  6
CONTINUOUS
 62
     7
100
AcDbLine
 10
166.0634528155
 20
115.7953704604
 30
0.0
 11
163.4040127749
 21
115.7953704604
 31
0.0
  0
LINE
  5
2CD
330
1F
100
AcDbEntity
  8
0
  6
CONTINUOUS
 62
     7
100
AcDbLine
 10
158.18286941
 20
115.7953704604
 30
0.0
 11
153.6929036731
 21
115.7953704604
 31
0.0
  0
LINE
  5
2CE
330
1F
100
AcDbEntity
  8
0
  6
CONTINUOUS
 62
     7
100
AcDbLine
 10
148.4717603082
 20
115.7953704604
 30
0.0
 11
144.8146502728
 21
115.7953704604
 31
0.0
  0
LINE
  5
2CF
330
1F
100
AcDbEntity
  8
0
  6
CONTINUOUS
 62
     7
100
AcDbLine
 10
239.0634554679
 20
115.7953704604
 30
0.0
 11
236.4040154273
 21
115.7953704604
 31
0.0
  0
LINE
  5
2D0
330
1F
100
AcDbEntity
  8
0
  6
CONTINUOUS
 62
     7
100
AcDbLine
 10
231.1828720624
 20
115.7953704604
 30
0.0
 11
226.6929063255
 21
115.7953704604
 31
0.0
  0
LINE
  5
2D1
330
1F
100
AcDbEntity
  8
0
  6
CONTINUOUS
 62
     7
100
AcDbLine
 10
221.4717629606
 20
115.7953704604
 30
0.0
 11
217.8146491999
 21
115.7953704604
 31
0.0
  0
LINE
  5
2D2
330
1F
100
AcDbEntity
  8
0
  6
CONTINUOUS
 62
     7
100
AcDbLine
 10
312.063454395
 20
115.7953704604
 30
0.0
 11
309.4040143544
 21
115.7953704604
 31
0.0
  0
LINE
  5
2D3
330
1F
100
AcDbEntity
  8
0
  6
CONTINUOUS
 62
     7
100
AcDbLine
 10
304.1828709895
 20
115.7953704604
 30
0.0
 11
299.6929052526
 21
115.7953704604
 31
0.0
  0
LINE
  5
2D4
330
1F
100
AcDbEntity
  8
0
  6
CONTINUOUS
 62
     7
100
AcDbLine
 10
294.4717618877
 20
115.7953704604
 30
0.0
 11
290.8146499897
 21
115.7953704604
 31
0.0
  0
LINE
  5
2D5
330
1F
100
AcDbEntity
  8
0
  6
CONTINUOUS
 62
     7
100
AcDbLine
 10
385.0634570474
 20
115.7953704604
 30
0.0
 11
382.4040170068
 21
115.7953704604
 31
0.0
  0
LINE
  5
2D6
330
1F
100
AcDbEntity
  8
0
  6
CONTINUOUS
 62
     7
100
AcDbLine
 10
377.1828736419
 20
115.7953704604
 30
0.0
 11
372.692907905
 21
115.7953704604
 31
0.0
  0
LINE
  5
2D7
330
1F
100
AcDbEntity
  8
0
  6
CONTINUOUS
 62
     7
100
AcDbLine
 10
367.4717645401
 20
115.7953704604
 30
0.0
 11
363.8146470541
 21
115.7953704604
 31
0.0
  0
LWPOLYLINE
  5
2D8
330
1F
100
AcDbEntity
  8
0
  6
CONTINUOUS
 62
     7
100
AcDbPolyline
 90
        3
 70
   128
 43
0.0
 10
388.4878854508
 20
121.7653702841
 10
388.3378903622
 20
139.3653701887
 10
388.187887823
 20
156.9653700933
  0
LWPOLYLINE
  5
2D9
330
1F
100
AcDbEntity
  8
0
  6
CONTINUOUS
 62
     7
100
AcDbPolyline
 90
        3
 70
   128
 43
0.0
 10
142.687889492
 20
156.9653700933
 10
142.5378869528
 20
139.3653701887
 10
142.3878918642
 20
121.7653702841
  0
LINE
  5
2DA
330
1F
100
AcDbEntity
  8
0
  6
CONTINUOUS
 62
     7
100
AcDbLine
 10
325.7130484337
 20
106.9771570981
 30
0.0
 11
325.687887823
 21
106.9771570981
 31
0.0
  0
LINE
  5
2DB
330
1F
100
AcDbEntity
  8
0
  6
CONTINUOUS
 62
     7
100
AcDbLine
 10
331.1878915185
 20
106.9771570981
 30
0.0
 11
325.7130484337
 21
106.9771570981
 31
0.0
  0
LINE
  5
2DC
330
1F
100
AcDbEntity
  8
0
  6
CONTINUOUS
 62
     7
100
AcDbLine
 10
139.5434762592
 20
109.746503447
 30
0.0
 11
144.4378893132
 21
109.746503447
 31
0.0
  0
LINE
  5
2DD
330
1F
100
AcDbEntity
  8
0
  6
CONTINUOUS
 62
     7
100
AcDbLine
 10
139.5434762592
 20
109.746503447
 30
0.0
 11
139.437886631
 21
115.7953704604
 31
0.0
  0
LINE
  5
2DE
330
1F
100
AcDbEntity
  8
0
  6
CONTINUOUS
 62
     7
100
AcDbLine
 10
140.6813140268
 20
115.7953704604
 30
0.0
 11
139.437886631
 21
115.7953704604
 31
0.0
  0
SPLINE
  5
2DF
330
1F
100
AcDbEntity
  8
0
  6
CONTINUOUS
 62
     7
100
AcDbSpline
210
0.0
220
0.0
230
1.0
 70
     8
 71
     3
 72
    12
 73
     8
 74
     0
 42
0.00000001
 43
0.00000001
 40
0.0
 40
0.0
 40
0.0
 40
0.0
 40
0.0030486877035835
 40
0.4717247571901618
 40
0.7727554019961174
 40
0.9896094429010158
 40
1.0
 40
1.0
 40
1.0
 40
1.0
 10
144.4378893131642
 20
114.0148283809933
 30
0.0
 10
144.4338487167792
 20
114.0172264447659
 30
0.0
 10
143.808645503472
 20
114.3882798818053
 30
0.0
 10
142.7724888426268
 20
115.0069284951696
 30
0.0
 10
141.5284121902901
 20
115.6121616329545
 30
0.0
 10
140.9239099563178
 20
115.7790278830998
 30
0.0
 10
140.691921492901
 20
115.7928849245205
 30
0.0
 10
140.6813140267759
 20
115.793518525413
 30
0.0
  0
LINE
  5
2E0
330
1F
100
AcDbEntity
  8
0
  6
CONTINUOUS
 62
     7
100
AcDbLine
 10
144.4378893132
 20
109.746503447
 30
0.0
 11
144.4378893132
 21
114.014828381
 31
0.0
  0
LINE
  5
2E1
330
1F
100
AcDbEntity
  8
0
  6
CONTINUOUS
 62
     7
100
AcDbLine
 10
391.3323010559
 20
109.746503447
 30
0.0
 11
391.4378906841
 21
115.7953704604
 31
0.0
  0
LINE
  5
2E2
330
1F
100
AcDbEntity
  8
0
  6
CONTINUOUS
 62
     7
100
AcDbLine
 10
386.4378880019
 20
109.746503447
 30
0.0
 11
391.3323010559
 21
109.746503447
 31
0.0
  0
LINE
  5
2E3
330
1F
100
AcDbEntity
  8
0
  6
CONTINUOUS
 62
     7
100
AcDbLine
 10
386.4378880019
 20
109.746503447
 30
0.0
 11
386.4378880019
 21
114.014828381
 31
0.0
  0
SPLINE
  5
2E4
330
1F
100
AcDbEntity
  8
0
  6
CONTINUOUS
 62
     7
100
AcDbSpline
210
0.0
220
0.0
230
1.0
 70
     8
 71
     3
 72
    12
 73
     8
 74
     0
 42
0.00000001
 43
0.00000001
 40
0.0
 40
0.0
 40
0.0
 40
0.0
 40
0.1658759619165178
 40
0.4641964766663783
 40
0.8914517152628215
 40
0.9969533275834772
 40
1.0
 40
1.0
 40
1.0
 40
1.0
 10
390.1944632882505
 20
115.793518525413
 30
0.0
 10
390.0165702044517
 20
115.7659470678284
 30
0.0
 10
389.5187443485011
 20
115.6887895742443
 30
0.0
 10
388.3967841487591
 20
115.1602428275578
 30
0.0
 10
387.296556913954
 20
114.5248056364349
 30
0.0
 10
386.5858925143615
 20
114.1026684010602
 30
0.0
 10
386.4419286975822
 20
114.0172265159362
 30
0.0
 10
386.4378880018621
 20
114.0148283809933
 30
0.0
  0
LINE
  5
2E5
330
1F
100
AcDbEntity
  8
0
  6
CONTINUOUS
 62
     7
100
AcDbLine
 10
391.4378906841
 20
115.7953704604
 30
0.0
 11
390.1944632883
 21
115.7953704604
 31
0.0
  0
SPLINE
  5
2E6
330
1F
100
AcDbEntity
  8
0
  6
CONTINUOUS
 62
     7
100
AcDbSpline
210
0.0
220
0.0
230
1.0
 70
     8
 71
     3
 72
     9
 73
     5
 74
     0
 42
0.00000001
 43
0.00000001
 40
0.0
 40
0.0
 40
0.0
 40
0.0
 40
0.8697478454075452
 40
0.9999999999999999
 40
0.9999999999999999
 40
0.9999999999999999
 40
0.9999999999999999
 10
385.4378859753042
 20
115.7935166627678
 30
0.0
 10
385.3223202561575
 20
115.7950880450449
 30
0.0
 10
385.1894475853521
 20
115.7968947552142
 30
0.0
 10
385.0779764083812
 20
115.7946961713962
 30
0.0
 10
385.0634570474057
 20
115.7944098011169
 30
0.0
  0
LINE
  5
2E7
330
1F
100
AcDbEntity
  8
0
  6
CONTINUOUS
 62
     7
100
AcDbLine
 10
385.4378859753
 20
115.7935166628
 30
0.0
 11
386.4378880019
 21
115.7935166628
 31
0.0
  0
LINE
  5
2E8
330
1F
100
AcDbEntity
  8
0
  6
CONTINUOUS
 62
     7
100
AcDbLine
 10
386.4378880019
 20
115.7935166628
 30
0.0
 11
390.1944483871
 21
115.7935166628
 31
0.0
  0
LINE
  5
2E9
330
1F
100
AcDbEntity
  8
0
  6
CONTINUOUS
 62
     7
100
AcDbLine
 10
383.8878895397
 20
114.014828381
 30
0.0
 11
386.4378880019
 21
114.014828381
 31
0.0
  0
LINE
  5
2EA
330
1F
100
AcDbEntity
  8
0
  6
CONTINUOUS
 62
     7
100
AcDbLine
 10
140.6813289279
 20
115.7935166628
 30
0.0
 11
144.4378893132
 21
115.7935166628
 31
0.0
  0
SPLINE
  5
2EB
330
1F
100
AcDbEntity
  8
0
  6
CONTINUOUS
 62
     7
100
AcDbSpline
210
0.0
220
0.0
230
1.0
 70
     8
 71
     3
 72
     9
 73
     5
 74
     0
 42
0.00000001
 43
0.00000001
 40
0.0
 40
0.0
 40
0.0
 40
0.0
 40
0.121468903373496
 40
1.0
 40
1.0
 40
1.0
 40
1.0
 10
144.8146502727895
 20
115.7945425145838
 30
0.0
 10
144.8009870015777
 20
115.7947883384779
 30
0.0
 10
144.6885033054841
 20
115.7968120983645
 30
0.0
 10
144.555093753324
 20
115.7950578364294
 30
0.0
 10
144.4378893131643
 20
115.7935166627678
 30
0.0
  0
LINE
  5
2EC
330
1F
100
AcDbEntity
  8
0
  6
CONTINUOUS
 62
     7
100
AcDbLine
 10
144.4378893132
 20
114.014828381
 30
0.0
 11
146.9878877754
 21
114.014828381
 31
0.0
  0
SPLINE
  5
2ED
330
1F
100
AcDbEntity
  8
0
  6
CONTINUOUS
 62
     7
100
AcDbSpline
210
0.0
220
0.0
230
1.0
 70
     8
 71
     3
 72
     9
 73
     5
 74
     0
 42
0.00000001
 43
0.00000001
 40
0.0
 40
0.0
 40
0.0
 40
0.0
 40
0.8697331386491708
 40
1.0
 40
1.0
 40
1.0
 40
1.0
 10
166.437889193955
 20
115.7935166627678
 30
0.0
 10
166.3223252584318
 20
115.7950879285651
 30
0.0
 10
166.1894523915858
 20
115.7968945353592
 30
0.0
 10
166.0779746685645
 20
115.7946961746647
 30
0.0
 10
166.063452815476
 20
115.7944098011169
 30
0.0
  0
LINE
  5
2EE
330
1F
100
AcDbEntity
  8
0
  6
CONTINUOUS
 62
     7
100
AcDbLine
 10
166.437889194
 20
115.7935166628
 30
0.0
 11
217.4378882403
 21
115.7935166628
 31
0.0
  0
SPLINE
  5
2EF
330
1F
100
AcDbEntity
  8
0
  6
CONTINUOUS
 62
     7
100
AcDbSpline
210
0.0
220
0.0
230
1.0
 70
     8
 71
     3
 72
     9
 73
     5
 74
     0
 42
0.00000001
 43
0.00000001
 40
0.0
 40
0.0
 40
0.0
 40
0.0
 40
0.121468903373496
 40
1.0
 40
1.0
 40
1.0
 40
1.0
 10
217.8146491999059
 20
115.7945425145838
 30
0.0
 10
217.8009859286941
 20
115.7947883384779
 30
0.0
 10
217.6885022326006
 20
115.7968120983645
 30
0.0
 10
217.5550926804404
 20
115.7950578364294
 30
0.0
 10
217.4378882402807
 20
115.7935166627678
 30
0.0
  0
LINE
  5
2F0
330
1F
100
AcDbEntity
  8
0
  6
CONTINUOUS
 62
     7
100
AcDbLine
 10
163.8878907318
 20
114.014828381
 30
0.0
 11
220.1378892416
 21
114.014828381
 31
0.0
  0
SPLINE
  5
2F1
330
1F
100
AcDbEntity
  8
0
  6
CONTINUOUS
 62
     7
100
AcDbSpline
210
0.0
220
0.0
230
1.0
 70
     8
 71
     3
 72
     9
 73
     5
 74
     0
 42
0.00000001
 43
0.00000001
 40
0.0
 40
0.0
 40
0.0
 40
0.0
 40
0.8697447892449344
 40
0.9999999999999999
 40
0.9999999999999999
 40
0.9999999999999999
 40
0.9999999999999999
 10
239.4378881210714
 20
115.7935166627678
 30
0.0
 10
239.3223221860222
 20
115.7950880208375
 30
0.0
 10
239.1894488000839
 20
115.7968947095226
 30
0.0
 10
239.0779754522928
 20
115.7946961720754
 30
0.0
 10
239.0634554678827
 20
115.7944098011169
 30
0.0
  0
LINE
  5
2F2
330
1F
100
AcDbEntity
  8
0
  6
CONTINUOUS
 62
     7
100
AcDbLine
 10
239.4378881211
 20
115.7935166628
 30
0.0
 11
290.43788903
 21
115.7935166628
 31
0.0
  0
SPLINE
  5
2F3
330
1F
100
AcDbEntity
  8
0
  6
CONTINUOUS
 62
     7
100
AcDbSpline
210
0.0
220
0.0
230
1.0
 70
     8
 71
     3
 72
     9
 73
     5
 74
     0
 42
0.00000001
 43
0.00000001
 40
0.0
 40
0.0
 40
0.0
 40
0.0
 40
0.1214731839691226
 40
1.0
 40
1.0
 40
1.0
 40
1.0
 10
290.8146499896675
 20
115.7945425145838
 30
0.0
 10
290.8009860959437
 20
115.7947883393244
 30
0.0
 10
290.6885012389793
 20
115.7968120348647
 30
0.0
 10
290.5550923321708
 20
115.7950578027352
 30
0.0
 10
290.4378890300422
 20
115.7935166627678
 30
0.0
  0
LINE
  5
2F4
330
1F
100
AcDbEntity
  8
0
  6
CONTINUOUS
 62
     7
100
AcDbLine
 10
237.0378884727
 20
114.014828381
 30
0.0
 11
293.8378888423
 21
114.014828381
 31
0.0
  0
SPLINE
  5
2F5
330
1F
100
AcDbEntity
  8
0
  6
CONTINUOUS
 62
     7
100
AcDbSpline
210
0.0
220
0.0
230
1.0
 70
     8
 71
     3
 72
     9
 73
     5
 74
     0
 42
0.00000001
 43
0.00000001
 40
0.0
 40
0.0
 40
0.0
 40
0.0
 40
0.8697404920393683
 40
1.0
 40
1.0
 40
1.0
 40
1.0
 10
312.4378870481877
 20
115.7935166627678
 30
0.0
 10
312.3223222209423
 20
115.7950879868019
 30
0.0
 10
312.1894494522219
 20
115.7968946452804
 30
0.0
 10
312.0779750020311
 20
115.7946961730304
 30
0.0
 10
312.063454394999
 20
115.7944098011169
 30
0.0
  0
LINE
  5
2F6
330
1F
100
AcDbEntity
  8
0
  6
CONTINUOUS
 62
     7
100
AcDbLine
 10
312.4378870482
 20
115.7935166628
 30
0.0
 11
363.4378860945
 21
115.7935166628
 31
0.0
  0
SPLINE
  5
2F7
330
1F
100
AcDbEntity
  8
0
  6
CONTINUOUS
 62
     7
100
AcDbSpline
210
0.0
220
0.0
230
1.0
 70
     8
 71
     3
 72
     9
 73
     5
 74
     0
 42
0.00000001
 43
0.00000001
 40
0.0
 40
0.0
 40
0.0
 40
0.0
 40
0.121468903373496
 40
1.0
 40
1.0
 40
1.0
 40
1.0
 10
363.8146470541387
 20
115.7945425145838
 30
0.0
 10
363.8009837829268
 20
115.7947883384779
 30
0.0
 10
363.6885000868334
 20
115.7968120983645
 30
0.0
 10
363.5550905346732
 20
115.7950578364294
 30
0.0
 10
363.4378860945134
 20
115.7935166627678
 30
0.0
  0
LINE
  5
2F8
330
1F
100
AcDbEntity
  8
0
  6
CONTINUOUS
 62
     7
100
AcDbLine
 10
310.7378880734
 20
114.014828381
 30
0.0
 11
366.9878865833
 21
114.014828381
 31
0.0
  0
LINE
  5
2F9
330
1F
100
AcDbEntity
  8
0
  6
CONTINUOUS
 62
     7
100
AcDbLine
 10
144.4378893132
 20
109.746503447
 30
0.0
 11
146.9878877754
 21
109.746503447
 31
0.0
  0
LINE
  5
2FA
330
1F
100
AcDbEntity
  8
0
  6
CONTINUOUS
 62
     7
100
AcDbLine
 10
146.9878877754
 20
114.014828381
 30
0.0
 11
146.9878877754
 21
109.746503447
 31
0.0
  0
LINE
  5
2FB
330
1F
100
AcDbEntity
  8
0
  6
CONTINUOUS
 62
     7
100
AcDbLine
 10
383.8878895397
 20
109.746503447
 30
0.0
 11
386.4378880019
 21
109.746503447
 31
0.0
  0
LINE
  5
2FC
330
1F
100
AcDbEntity
  8
0
  6
CONTINUOUS
 62
     7
100
AcDbLine
 10
383.8878895397
 20
109.746503447
 30
0.0
 11
383.8878895397
 21
114.014828381
 31
0.0
  0
LINE
  5
2FD
330
1F
100
AcDbEntity
  8
0
  6
CONTINUOUS
 62
     7
100
AcDbLine
 10
310.7378880734
 20
109.746503447
 30
0.0
 11
366.9878865833
 21
109.746503447
 31
0.0
  0
LINE
  5
2FE
330
1F
100
AcDbEntity
  8
0
  6
CONTINUOUS
 62
     7
100
AcDbLine
 10
310.7378880734
 20
109.746503447
 30
0.0
 11
310.7378880734
 21
114.014828381
 31
0.0
  0
LINE
  5
2FF
330
1F
100
AcDbEntity
  8
0
  6
CONTINUOUS
 62
     7
100
AcDbLine
 10
366.9878865833
 20
114.014828381
 30
0.0
 11
366.9878865833
 21
109.746503447
 31
0.0
  0
LINE
  5
300
330
1F
100
AcDbEntity
  8
0
  6
CONTINUOUS
 62
     7
100
AcDbLine
 10
237.0378884727
 20
109.746503447
 30
0.0
 11
293.8378888423
 21
109.746503447
 31
0.0
  0
LINE
  5
301
330
1F
100
AcDbEntity
  8
0
  6
CONTINUOUS
 62
     7
100
AcDbLine
 10
237.0378884727
 20
109.746503447
 30
0.0
 11
237.0378884727
 21
114.014828381
 31
0.0
  0
LINE
  5
302
330
1F
100
AcDbEntity
  8
0
  6
CONTINUOUS
 62
     7
100
AcDbLine
 10
293.8378888423
 20
114.014828381
 30
0.0
 11
293.8378888423
 21
109.746503447
 31
0.0
  0
LINE
  5
303
330
1F
100
AcDbEntity
  8
0
  6
CONTINUOUS
 62
     7
100
AcDbLine
 10
163.8878907318
 20
109.746503447
 30
0.0
 11
220.1378892416
 21
109.746503447
 31
0.0
  0
LINE
  5
304
330
1F
100
AcDbEntity
  8
0
  6
CONTINUOUS
 62
     7
100
AcDbLine
 10
220.1378892416
 20
114.014828381
 30
0.0
 11
220.1378892416
 21
109.746503447
 31
0.0
  0
LINE
  5
305
330
1F
100
AcDbEntity
  8
0
  6
CONTINUOUS
 62
     7
100
AcDbLine
 10
163.8878907318
 20
109.746503447
 30
0.0
 11
163.8878907318
 21
114.014828381
 31
0.0
  0
LINE
  5
306
330
1F
100
AcDbEntity
  8
0
  6
CONTINUOUS
 62
     7
100
AcDbLine
 10
144.4378893132
 20
106.9953700424
 30
0.0
 11
142.3430468196
 21
106.9953700424
 31
0.0
  0
ARC
  5
307
330
1F
100
AcDbEntity
  8
0
  6
CONTINUOUS
 62
     7
100
AcDbCircle
 10
142.3430455656
 20
109.7953702841
 30
0.0
 40
2.800000000000002
100
AcDbArc
 50
181.0
 51
270.0
  0
LINE
  5
308
330
1F
100
AcDbEntity
  8
0
  6
CONTINUOUS
 62
     7
100
AcDbLine
 10
144.4378893132
 20
106.9953700424
 30
0.0
 11
144.4378893132
 21
109.746503447
 31
0.0
  0
LINE
  5
309
330
1F
100
AcDbEntity
  8
0
  6
CONTINUOUS
 62
     7
100
AcDbLine
 10
146.9878877754
 20
106.9953700424
 30
0.0
 11
144.4378893132
 21
106.9953700424
 31
0.0
  0
LINE
  5
30A
330
1F
100
AcDbEntity
  8
0
  6
CONTINUOUS
 62
     7
100
AcDbLine
 10
146.9878877754
 20
106.9953700424
 30
0.0
 11
146.9878877754
 21
109.746503447
 31
0.0
  0
LINE
  5
30B
330
1F
100
AcDbEntity
  8
0
  6
CONTINUOUS
 62
     7
100
AcDbLine
 10
388.5327304954
 20
106.9953700424
 30
0.0
 11
386.4378880019
 21
106.9953700424
 31
0.0
  0
LINE
  5
30C
330
1F
100
AcDbEntity
  8
0
  6
CONTINUOUS
 62
     7
100
AcDbLine
 10
386.4378880019
 20
106.9953700424
 30
0.0
 11
386.4378880019
 21
109.746503447
 31
0.0
  0
ARC
  5
30D
330
1F
100
AcDbEntity
  8
0
  6
CONTINUOUS
 62
     7
100
AcDbCircle
 10
388.5327317494
 20
109.7953702841
 30
0.0
 40
2.800000000000002
100
AcDbArc
 50
270.0
 51
359.0
  0
LINE
  5
30E
330
1F
100
AcDbEntity
  8
0
  6
CONTINUOUS
 62
     7
100
AcDbLine
 10
366.9878865833
 20
106.9953700424
 30
0.0
 11
310.7378880734
 21
106.9953700424
 31
0.0
  0
LINE
  5
30F
330
1F
100
AcDbEntity
  8
0
  6
CONTINUOUS
 62
     7
100
AcDbLine
 10
310.7378880734
 20
109.746503447
 30
0.0
 11
310.7378880734
 21
106.9953700424
 31
0.0
  0
LINE
  5
310
330
1F
100
AcDbEntity
  8
0
  6
CONTINUOUS
 62
     7
100
AcDbLine
 10
366.9878865833
 20
106.9953700424
 30
0.0
 11
366.9878865833
 21
109.746503447
 31
0.0
  0
LINE
  5
311
330
1F
100
AcDbEntity
  8
0
  6
CONTINUOUS
 62
     7
100
AcDbLine
 10
220.1378892416
 20
106.9953700424
 30
0.0
 11
163.8878907318
 21
106.9953700424
 31
0.0
  0
LINE
  5
312
330
1F
100
AcDbEntity
  8
0
  6
CONTINUOUS
 62
     7
100
AcDbLine
 10
220.1378892416
 20
106.9953700424
 30
0.0
 11
220.1378892416
 21
109.746503447
 31
0.0
  0
LINE
  5
313
330
1F
100
AcDbEntity
  8
0
  6
CONTINUOUS
 62
     7
100
AcDbLine
 10
163.8878907318
 20
109.746503447
 30
0.0
 11
163.8878907318
 21
106.9953700424
 31
0.0
  0
LINE
  5
314
330
1F
100
AcDbEntity
  8
0
  6
CONTINUOUS
 62
     7
100
AcDbLine
 10
293.8378888423
 20
106.9953700424
 30
0.0
 11
237.0378884727
 21
106.9953700424
 31
0.0
  0
LINE
  5
315
330
1F
100
AcDbEntity
  8
0
  6
CONTINUOUS
 62
     7
100
AcDbLine
 10
237.0378884727
 20
109.746503447
 30
0.0
 11
237.0378884727
 21
106.9953700424
 31
0.0
  0
LINE
  5
316
330
1F
100
AcDbEntity
  8
0
  6
CONTINUOUS
 62
     7
100
AcDbLine
 10
293.8378888423
 20
106.9953700424
 30
0.0
 11
293.8378888423
 21
109.746503447
 31
0.0
  0
LINE
  5
317
330
1F
100
AcDbEntity
  8
0
  6
CONTINUOUS
 62
     7
100
AcDbLine
 10
386.4378880019
 20
106.9953700424
 30
0.0
 11
383.8878895397
 21
106.9953700424
 31
0.0
  0
LINE
  5
318
330
1F
100
AcDbEntity
  8
0
  6
CONTINUOUS
 62
     7
100
AcDbLine
 10
383.8878895397
 20
109.746503447
 30
0.0
 11
383.8878895397
 21
106.9953700424
 31
0.0
  0
LINE
  5
319
330
1F
100
AcDbEntity
  8
0
  6
CONTINUOUS
 62
     7
100
AcDbLine
 10
386.4524985904
 20
115.7953704604
 30
0.0
 11
386.4378880019
 21
115.7935166628
 31
0.0
  0
LINE
  5
31A
330
1F
100
AcDbEntity
  8
0
  6
CONTINUOUS
 62
     7
100
AcDbLine
 10
386.4524985904
 20
115.7953704604
 30
0.0
 11
390.1944483871
 21
115.7953704604
 31
0.0
  0
LINE
  5
31B
330
1F
100
AcDbEntity
  8
0
  6
CONTINUOUS
 62
     7
100
AcDbLine
 10
140.6813289279
 20
115.7953704604
 30
0.0
 11
144.4232787246
 21
115.7953704604
 31
0.0
  0
LINE
  5
31C
330
1F
100
AcDbEntity
  8
0
  6
CONTINUOUS
 62
     7
100
AcDbLine
 10
144.4378893132
 20
115.7935166628
 30
0.0
 11
144.4232787246
 21
115.7953704604
 31
0.0
  0
LINE
  5
31D
330
1F
100
AcDbEntity
  8
0
  6
CONTINUOUS
 62
     7
100
AcDbLine
 10
146.9878877754
 20
106.9953700424
 30
0.0
 11
163.8878907318
 21
106.9953700424
 31
0.0
  0
LINE
  5
31E
330
1F
100
AcDbEntity
  8
0
  6
CONTINUOUS
 62
     7
100
AcDbLine
 10
163.8878907318
 20
108.9953703702
 30
0.0
 11
146.9878877754
 21
108.9953703702
 31
0.0
  0
LINE
  5
31F
330
1F
100
AcDbEntity
  8
0
  6
CONTINUOUS
 62
     7
100
AcDbLine
 10
366.9878865833
 20
106.9953700424
 30
0.0
 11
383.8878895397
 21
106.9953700424
 31
0.0
  0
LINE
  5
320
330
1F
100
AcDbEntity
  8
0
  6
CONTINUOUS
 62
     7
100
AcDbLine
 10
383.8878895397
 20
108.9953703702
 30
0.0
 11
366.9878865833
 21
108.9953703702
 31
0.0
  0
LINE
  5
321
330
1F
100
AcDbEntity
  8
0
  6
CONTINUOUS
 62
     7
100
AcDbLine
 10
220.1378892416
 20
106.9953700424
 30
0.0
 11
237.0378884727
 21
106.9953700424
 31
0.0
  0
LINE
  5
322
330
1F
100
AcDbEntity
  8
0
  6
CONTINUOUS
 62
     7
100
AcDbLine
 10
237.0378884727
 20
108.9953703702
 30
0.0
 11
220.1378892416
 21
108.9953703702
 31
0.0
  0
LINE
  5
323
330
1F
100
AcDbEntity
  8
0
  6
CONTINUOUS
 62
     7
100
AcDbLine
 10
293.8378888423
 20
106.9953700424
 30
0.0
 11
310.7378880734
 21
106.9953700424
 31
0.0
  0
LINE
  5
324
330
1F
100
AcDbEntity
  8
0
  6
CONTINUOUS
 62
     7
100
AcDbLine
 10
310.7378880734
 20
108.9953703702
 30
0.0
 11
293.8378888423
 21
108.9953703702
 31
0.0
  0
LINE
  5
325
330
1F
100
AcDbEntity
  8
0
  6
CONTINUOUS
 62
     7
100
AcDbLine
 10
147.8378872628
 20
108.9953703702
 30
0.0
 11
147.8378872628
 21
109.4779202611
 31
0.0
  0
LINE
  5
326
330
1F
100
AcDbEntity
  8
0
  6
CONTINUOUS
 62
     7
100
AcDbLine
 10
383.0378900523
 20
108.9953703702
 30
0.0
 11
383.0378900523
 21
109.4779202611
 31
0.0
  0
LINE
  5
327
330
1F
100
AcDbEntity
  8
0
  6
CONTINUOUS
 62
     7
100
AcDbLine
 10
234.0126286501
 20
106.9953700424
 30
0.0
 11
234.0126286501
 21
106.8489232928
 31
0.0
  0
ELLIPSE
  5
328
330
1F
100
AcDbEntity
  8
0
  6
CONTINUOUS
 62
     7
100
AcDbEllipse
 10
234.2022473664
 20
106.4953702841
 30
0.0
 11
1.032681085173635
 21
-0.1213075268626227
 31
0.0
210
0.0
220
0.0
230
0.9999999999999998
 40
0.3244353137
 41
1.793420120533679
 42
3.242859937658535
  0
ARC
  5
329
330
1F
100
AcDbEntity
  8
0
  6
CONTINUOUS
 62
     7
100
AcDbCircle
 10
232.6784747668
 20
106.4953737648
 30
0.0
 40
0.499996277537583
100
AcDbArc
 50
9.9986945468
 51
89.9999120362
  0
LINE
  5
32A
330
1F
100
AcDbEntity
  8
0
  6
CONTINUOUS
 62
     7
100
AcDbLine
 10
296.8631486649
 20
106.9953700424
 30
0.0
 11
296.8631486649
 21
106.8489232928
 31
0.0
  0
LINE
  5
32B
330
1F
100
AcDbEntity
  8
0
  6
CONTINUOUS
 62
     7
100
AcDbLine
 10
296.8631486649
 20
106.8489232928
 30
0.0
 11
234.0126286501
 21
106.8489232928
 31
0.0
  0
ARC
  5
32C
330
1F
100
AcDbEntity
  8
0
  6
CONTINUOUS
 62
     7
100
AcDbCircle
 10
298.1973025483
 20
106.4953737648
 30
0.0
 40
0.499996277537583
100
AcDbArc
 50
90.0000879638
 51
170.0013054532
  0
ELLIPSE
  5
32D
330
1F
100
AcDbEntity
  8
0
  6
CONTINUOUS
 62
     7
100
AcDbEllipse
 10
296.6735299486
 20
106.4953702841
 30
0.0
 11
1.032681085173692
 21
0.1213075268626227
 31
0.0
210
0.0
220
0.0
230
0.9999999999999999
 40
0.3244353137
 41
6.181918023110931
 42
7.631357840235763
  0
ARC
  5
32E
330
1F
100
AcDbEntity
  8
0
  6
CONTINUOUS
 62
     7
100
AcDbCircle
 10
234.58714693
 20
103.3986585571
 30
0.0
 40
0.8468275867754992
100
AcDbArc
 50
200.1560082466
 51
282.9545736877
  0
LINE
  5
32F
330
1F
100
AcDbEntity
  8
0
  6
CONTINUOUS
 62
     7
100
AcDbLine
 10
233.7921808714
 20
103.1068608061
 30
0.0
 11
233.1708769555
 21
106.5821859882
 31
0.0
  0
LINE
  5
330
330
1F
100
AcDbEntity
  8
0
  6
CONTINUOUS
 62
     7
100
AcDbLine
 10
234.0126286501
 20
106.8489232928
 30
0.0
 11
234.7769874389
 21
102.5733843342
 31
0.0
  0
ARC
  5
331
330
1F
100
AcDbEntity
  8
0
  6
CONTINUOUS
 62
     7
100
AcDbCircle
 10
296.288630385
 20
103.3986585571
 30
0.0
 40
0.8468275867755356
100
AcDbArc
 50
257.0454263123
 51
339.8439917534
  0
LINE
  5
332
330
1F
100
AcDbEntity
  8
0
  6
CONTINUOUS
 62
     7
100
AcDbLine
 10
296.0987898762
 20
102.5733843342
 30
0.0
 11
296.8631486649
 21
106.8489232928
 31
0.0
  0
LINE
  5
333
330
1F
100
AcDbEntity
  8
0
  6
CONTINUOUS
 62
     7
100
AcDbLine
 10
297.7049003596
 20
106.5821859882
 30
0.0
 11
297.0835964436
 21
103.1068608061
 31
0.0
  0
LINE
  5
334
330
1F
100
AcDbEntity
  8
0
  6
CONTINUOUS
 62
     7
100
AcDbLine
 10
234.7769874389
 20
102.5733843342
 30
0.0
 11
296.0987898762
 21
102.5733843342
 31
0.0
  0
ARC
  5
335
330
1F
100
AcDbEntity
  8
0
  6
CONTINUOUS
 62
     7
100
AcDbCircle
 10
296.0988287059
 20
103.280558799
 30
0.0
 40
0.9999692444848324
100
AcDbArc
 50
269.997775151
 51
349.9967909364
  0
LINE
  5
336
330
1F
100
AcDbEntity
  8
0
  6
CONTINUOUS
 62
     7
100
AcDbLine
 10
296.0987898762
 20
102.2805895553
 30
0.0
 11
296.0987898762
 21
102.5733843342
 31
0.0
  0
ARC
  5
337
330
1F
100
AcDbEntity
  8
0
  6
CONTINUOUS
 62
     7
100
AcDbCircle
 10
234.7769486091
 20
103.280558799
 30
0.0
 40
0.9999692444848044
100
AcDbArc
 50
190.0032090636
 51
270.002224849
  0
LINE
  5
338
330
1F
100
AcDbEntity
  8
0
  6
CONTINUOUS
 62
     7
100
AcDbLine
 10
234.7769874389
 20
102.5733843342
 30
0.0
 11
234.7769874389
 21
102.2805895553
 31
0.0
  0
LINE
  5
339
330
1F
100
AcDbEntity
  8
0
  6
CONTINUOUS
 62
     7
100
AcDbLine
 10
296.0987898762
 20
102.2805895553
 30
0.0
 11
234.7769874389
 21
102.2805895553
 31
0.0
  0
LINE
  5
33A
330
1F
100
AcDbEntity
  8
0
  6
CONTINUOUS
 62
     7
100
AcDbLine
 10
294.5812276805
 20
112.6606713877
 30
0.0
 11
299.5834413225
 21
112.6606713877
 31
0.0
  0
LINE
  5
33B
330
1F
100
AcDbEntity
  8
0
  6
CONTINUOUS
 62
     7
100
AcDbLine
 10
294.2632853294
 20
121.7653702841
 30
0.0
 11
294.5812276805
 21
112.6606713877
 31
0.0
  0
LINE
  5
33C
330
1F
100
AcDbEntity
  8
0
  6
CONTINUOUS
 62
     7
100
AcDbLine
 10
299.9013836736
 20
121.7653702841
 30
0.0
 11
299.5834413225
 21
112.6606713877
 31
0.0
  0
LINE
  5
33D
330
1F
100
AcDbEntity
  8
0
  6
CONTINUOUS
 62
     7
100
AcDbLine
 10
299.9013836736
 20
121.7653702841
 30
0.0
 11
294.2632853294
 21
121.7653702841
 31
0.0
  0
LINE
  5
33E
330
1F
100
AcDbEntity
  8
0
  6
CONTINUOUS
 62
     7
100
AcDbLine
 10
309.6124927754
 20
121.7653702841
 30
0.0
 11
309.2945504243
 21
112.6606713877
 31
0.0
  0
LINE
  5
33F
330
1F
100
AcDbEntity
  8
0
  6
CONTINUOUS
 62
     7
100
AcDbLine
 10
304.2923386449
 20
112.6606713877
 30
0.0
 11
309.2945504243
 21
112.6606713877
 31
0.0
  0
LINE
  5
340
330
1F
100
AcDbEntity
  8
0
  6
CONTINUOUS
 62
     7
100
AcDbLine
 10
303.9743925685
 20
121.7653702841
 30
0.0
 11
304.2923386449
 21
112.6606713877
 31
0.0
  0
LINE
  5
341
330
1F
100
AcDbEntity
  8
0
  6
CONTINUOUS
 62
     7
100
AcDbLine
 10
309.6124927754
 20
121.7653702841
 30
0.0
 11
303.9743925685
 21
121.7653702841
 31
0.0
  0
LINE
  5
342
330
1F
100
AcDbEntity
  8
0
  6
CONTINUOUS
 62
     7
100
AcDbLine
 10
367.5812284703
 20
112.6606713877
 30
0.0
 11
372.5834365243
 21
112.6606713877
 31
0.0
  0
LINE
  5
343
330
1F
100
AcDbEntity
  8
0
  6
CONTINUOUS
 62
     7
100
AcDbLine
 10
367.2632823939
 20
121.7653702841
 30
0.0
 11
367.5812284703
 21
112.6606713877
 31
0.0
  0
LINE
  5
344
330
1F
100
AcDbEntity
  8
0
  6
CONTINUOUS
 62
     7
100
AcDbLine
 10
372.9013826007
 20
121.7653702841
 30
0.0
 11
372.5834365243
 21
112.6606713877
 31
0.0
  0
LINE
  5
345
330
1F
100
AcDbEntity
  8
0
  6
CONTINUOUS
 62
     7
100
AcDbLine
 10
372.9013826007
 20
121.7653702841
 30
0.0
 11
367.2632823939
 21
121.7653702841
 31
0.0
  0
LINE
  5
346
330
1F
100
AcDbEntity
  8
0
  6
CONTINUOUS
 62
     7
100
AcDbLine
 10
382.6124917025
 20
121.7653702841
 30
0.0
 11
376.9743914956
 21
121.7653702841
 31
0.0
  0
LINE
  5
347
330
1F
100
AcDbEntity
  8
0
  6
CONTINUOUS
 62
     7
100
AcDbLine
 10
382.6124917025
 20
121.7653702841
 30
0.0
 11
382.2945530767
 21
112.6606713877
 31
0.0
  0
LINE
  5
348
330
1F
100
AcDbEntity
  8
0
  6
CONTINUOUS
 62
     7
100
AcDbLine
 10
377.292337572
 20
112.6606713877
 30
0.0
 11
382.2945530767
 21
112.6606713877
 31
0.0
  0
LINE
  5
349
330
1F
100
AcDbEntity
  8
0
  6
CONTINUOUS
 62
     7
100
AcDbLine
 10
376.9743914956
 20
121.7653702841
 30
0.0
 11
377.292337572
 21
112.6606713877
 31
0.0
  0
LINE
  5
34A
330
1F
100
AcDbEntity
  8
0
  6
CONTINUOUS
 62
     7
100
AcDbLine
 10
236.6124919856
 20
121.7653702841
 30
0.0
 11
236.2945496345
 21
112.6606713877
 31
0.0
  0
LINE
  5
34B
330
1F
100
AcDbEntity
  8
0
  6
CONTINUOUS
 62
     7
100
AcDbLine
 10
231.2923359925
 20
112.6606713877
 30
0.0
 11
236.2945496345
 21
112.6606713877
 31
0.0
  0
LINE
  5
34C
330
1F
100
AcDbEntity
  8
0
  6
CONTINUOUS
 62
     7
100
AcDbLine
 10
230.9743936414
 20
121.7653702841
 30
0.0
 11
231.2923359925
 21
112.6606713877
 31
0.0
  0
LINE
  5
34D
330
1F
100
AcDbEntity
  8
0
  6
CONTINUOUS
 62
     7
100
AcDbLine
 10
236.6124919856
 20
121.7653702841
 30
0.0
 11
230.9743936414
 21
121.7653702841
 31
0.0
  0
LINE
  5
34E
330
1F
100
AcDbEntity
  8
0
  6
CONTINUOUS
 62
     7
100
AcDbLine
 10
153.9013858194
 20
121.7653702841
 30
0.0
 11
153.583439743
 21
112.6606713877
 31
0.0
  0
LINE
  5
34F
330
1F
100
AcDbEntity
  8
0
  6
CONTINUOUS
 62
     7
100
AcDbLine
 10
148.5812242383
 20
112.6606713877
 30
0.0
 11
153.583439743
 21
112.6606713877
 31
0.0
  0
LINE
  5
350
330
1F
100
AcDbEntity
  8
0
  6
CONTINUOUS
 62
     7
100
AcDbLine
 10
148.2632856125
 20
121.7653702841
 30
0.0
 11
148.5812242383
 21
112.6606713877
 31
0.0
  0
LINE
  5
351
330
1F
100
AcDbEntity
  8
0
  6
CONTINUOUS
 62
     7
100
AcDbLine
 10
153.9013858194
 20
121.7653702841
 30
0.0
 11
148.2632856125
 21
121.7653702841
 31
0.0
  0
LINE
  5
352
330
1F
100
AcDbEntity
  8
0
  6
CONTINUOUS
 62
     7
100
AcDbLine
 10
163.6124949212
 20
121.7653702841
 30
0.0
 11
163.2945488448
 21
112.6606713877
 31
0.0
  0
LINE
  5
353
330
1F
100
AcDbEntity
  8
0
  6
CONTINUOUS
 62
     7
100
AcDbLine
 10
158.2923407907
 20
112.6606713877
 30
0.0
 11
163.2945488448
 21
112.6606713877
 31
0.0
  0
LINE
  5
354
330
1F
100
AcDbEntity
  8
0
  6
CONTINUOUS
 62
     7
100
AcDbLine
 10
157.9743947143
 20
121.7653702841
 30
0.0
 11
158.2923407907
 21
112.6606713877
 31
0.0
  0
LINE
  5
355
330
1F
100
AcDbEntity
  8
0
  6
CONTINUOUS
 62
     7
100
AcDbLine
 10
163.6124949212
 20
121.7653702841
 30
0.0
 11
157.9743947143
 21
121.7653702841
 31
0.0
  0
LINE
  5
356
330
1F
100
AcDbEntity
  8
0
  6
CONTINUOUS
 62
     7
100
AcDbLine
 10
221.5812268907
 20
112.6606713877
 30
0.0
 11
226.5834386701
 21
112.6606713877
 31
0.0
  0
LINE
  5
357
330
1F
100
AcDbEntity
  8
0
  6
CONTINUOUS
 62
     7
100
AcDbLine
 10
221.2632845396
 20
121.7653702841
 30
0.0
 11
221.5812268907
 21
112.6606713877
 31
0.0
  0
LINE
  5
358
330
1F
100
AcDbEntity
  8
0
  6
CONTINUOUS
 62
     7
100
AcDbLine
 10
226.9013847465
 20
121.7653702841
 30
0.0
 11
226.5834386701
 21
112.6606713877
 31
0.0
  0
LINE
  5
359
330
1F
100
AcDbEntity
  8
0
  6
CONTINUOUS
 62
     7
100
AcDbLine
 10
226.9013847465
 20
121.7653702841
 30
0.0
 11
221.2632845396
 21
121.7653702841
 31
0.0
  0
LINE
  5
35A
330
1F
100
AcDbEntity
  8
0
  6
CONTINUOUS
 62
     7
100
AcDbLine
 10
153.4823353643
 20
109.7653701798
 30
0.0
 11
148.6823360676
 21
109.7653701798
 31
0.0
  0
LWPOLYLINE
  5
35B
330
1F
100
AcDbEntity
  8
0
  6
CONTINUOUS
 62
     7
100
AcDbPolyline
 90
        9
 70
   128
 43
0.0
 10
148.6823360676
 20
109.7653701798
 10
148.6804063672
 20
109.8204886437
 10
148.6747066731
 20
109.9838184089
 10
148.6654307002
 20
110.249358964
 10
148.652928626
 20
110.6073509798
 10
148.6376623864
 20
111.0446413875
 10
148.6201833243
 20
111.5451602161
 10
148.6011396403
 20
112.0905175701
 10
148.5812242383
 20
112.6606713877
  0
LWPOLYLINE
  5
35C
330
1F
100
AcDbEntity
  8
0
  6
CONTINUOUS
 62
     7
100
AcDbPolyline
 90
        9
 70
   128
 43
0.0
 10
153.583439743
 20
112.6606713877
 10
153.5635317916
 20
112.0905175701
 10
153.5444881076
 20
111.5451602161
 10
153.5270090455
 20
111.0446413875
 10
153.5117353553
 20
110.6073509798
 10
153.4992332811
 20
110.249358964
 10
153.4899647588
 20
109.9838184089
 10
153.4842576141
 20
109.8204886437
 10
153.4823353643
 20
109.7653701798
  0
LINE
  5
35D
330
1F
100
AcDbEntity
  8
0
  6
CONTINUOUS
 62
     7
100
AcDbLine
 10
309.1934423203
 20
109.7653701798
 30
0.0
 11
304.3934430236
 21
109.7653701798
 31
0.0
  0
LWPOLYLINE
  5
35E
330
1F
100
AcDbEntity
  8
0
  6
CONTINUOUS
 62
     7
100
AcDbPolyline
 90
        9
 70
   128
 43
0.0
 10
309.2945504243
 20
112.6606713877
 10
309.2746387476
 20
112.0905175701
 10
309.2555950636
 20
111.5451602161
 10
309.2381160015
 20
111.0446413875
 10
309.2228460366
 20
110.6073509798
 10
309.2103439624
 20
110.249358964
 10
309.2010717148
 20
109.9838184089
 10
309.1953682954
 20
109.8204886437
 10
309.1934423203
 20
109.7653701798
  0
LWPOLYLINE
  5
35F
330
1F
100
AcDbEntity
  8
0
  6
CONTINUOUS
 62
     7
100
AcDbPolyline
 90
        9
 70
   128
 43
0.0
 10
304.3934430236
 20
109.7653701798
 10
304.3915170485
 20
109.8204886437
 10
304.3858136291
 20
109.9838184089
 10
304.3765413815
 20
110.249358964
 10
304.3640393073
 20
110.6073509798
 10
304.3487693424
 20
111.0446413875
 10
304.3312902803
 20
111.5451602161
 10
304.3122465963
 20
112.0905175701
 10
304.2923386449
 20
112.6606713877
  0
LINE
  5
360
330
1F
100
AcDbEntity
  8
0
  6
CONTINUOUS
 62
     7
100
AcDbLine
 10
226.4823342914
 20
109.7653701798
 30
0.0
 11
221.6823349947
 21
109.7653701798
 31
0.0
  0
LWPOLYLINE
  5
361
330
1F
100
AcDbEntity
  8
0
  6
CONTINUOUS
 62
     7
100
AcDbPolyline
 90
        9
 70
   128
 43
0.0
 10
221.6823349947
 20
109.7653701798
 10
221.6804090197
 20
109.8204886437
 10
221.6747056002
 20
109.9838184089
 10
221.6654333527
 20
110.249358964
 10
221.6529312784
 20
110.6073509798
 10
221.6376613135
 20
111.0446413875
 10
221.6201822514
 20
111.5451602161
 10
221.6011385674
 20
112.0905175701
 10
221.5812268907
 20
112.6606713877
  0
LWPOLYLINE
  5
362
330
1F
100
AcDbEntity
  8
0
  6
CONTINUOUS
 62
     7
100
AcDbPolyline
 90
        9
 70
   128
 43
0.0
 10
226.5834386701
 20
112.6606713877
 10
226.5635307187
 20
112.0905175701
 10
226.5444870347
 20
111.5451602161
 10
226.5270079727
 20
111.0446413875
 10
226.5117380077
 20
110.6073509798
 10
226.4992359335
 20
110.249358964
 10
226.4899636859
 20
109.9838184089
 10
226.4842602665
 20
109.8204886437
 10
226.4823342914
 20
109.7653701798
  0
LINE
  5
363
330
1F
100
AcDbEntity
  8
0
  6
CONTINUOUS
 62
     7
100
AcDbLine
 10
372.4823321456
 20
109.7653701798
 30
0.0
 11
367.682332849
 21
109.7653701798
 31
0.0
  0
LWPOLYLINE
  5
364
330
1F
100
AcDbEntity
  8
0
  6
CONTINUOUS
 62
     7
100
AcDbPolyline
 90
        9
 70
   128
 43
0.0
 10
367.682332849
 20
109.7653701798
 10
367.6804105992
 20
109.8204886437
 10
367.6747034544
 20
109.9838184089
 10
367.6654349322
 20
110.249358964
 10
367.6529328579
 20
110.6073509798
 10
367.6376591677
 20
111.0446413875
 10
367.6201801056
 20
111.5451602161
 10
367.6011364216
 20
112.0905175701
 10
367.5812284703
 20
112.6606713877
  0
LWPOLYLINE
  5
365
330
1F
100
AcDbEntity
  8
0
  6
CONTINUOUS
 62
     7
100
AcDbPolyline
 90
        9
 70
   128
 43
0.0
 10
372.5834365243
 20
112.6606713877
 10
372.563528573
 20
112.0905175701
 10
372.544484889
 20
111.5451602161
 10
372.5270058269
 20
111.0446413875
 10
372.5117395873
 20
110.6073509798
 10
372.499237513
 20
110.249358964
 10
372.4899615402
 20
109.9838184089
 10
372.484261846
 20
109.8204886437
 10
372.4823321456
 20
109.7653701798
  0
LINE
  5
366
330
1F
100
AcDbEntity
  8
0
  6
CONTINUOUS
 62
     7
100
AcDbLine
 10
299.4823332185
 20
109.7653701798
 30
0.0
 11
294.6823339219
 21
109.7653701798
 31
0.0
  0
LWPOLYLINE
  5
367
330
1F
100
AcDbEntity
  8
0
  6
CONTINUOUS
 62
     7
100
AcDbPolyline
 90
        9
 70
   128
 43
0.0
 10
294.6823339219
 20
109.7653701798
 10
294.6804098094
 20
109.8204886437
 10
294.67470639
 20
109.9838184089
 10
294.6654322798
 20
110.249358964
 10
294.6529320682
 20
110.6073509798
 10
294.6376602406
 20
111.0446413875
 10
294.6201830412
 20
111.5451602161
 10
294.6011374945
 20
112.0905175701
 10
294.5812276805
 20
112.6606713877
  0
LWPOLYLINE
  5
368
330
1F
100
AcDbEntity
  8
0
  6
CONTINUOUS
 62
     7
100
AcDbPolyline
 90
        9
 70
   128
 43
0.0
 10
299.5834413225
 20
112.6606713877
 10
299.5635296459
 20
112.0905175701
 10
299.5444859619
 20
111.5451602161
 10
299.5270068998
 20
111.0446413875
 10
299.5117369348
 20
110.6073509798
 10
299.4992348606
 20
110.249358964
 10
299.489962613
 20
109.9838184089
 10
299.4842591936
 20
109.8204886437
 10
299.4823332185
 20
109.7653701798
  0
LINE
  5
369
330
1F
100
AcDbEntity
  8
0
  6
CONTINUOUS
 62
     7
100
AcDbLine
 10
236.1934433932
 20
109.7653701798
 30
0.0
 11
231.3934440965
 21
109.7653701798
 31
0.0
  0
LWPOLYLINE
  5
36A
330
1F
100
AcDbEntity
  8
0
  6
CONTINUOUS
 62
     7
100
AcDbPolyline
 90
        9
 70
   128
 43
0.0
 10
231.3934440965
 20
109.7653701798
 10
231.3915181214
 20
109.8204886437
 10
231.385814702
 20
109.9838184089
 10
231.3765424544
 20
110.249358964
 10
231.3640403802
 20
110.6073509798
 10
231.3487704152
 20
111.0446413875
 10
231.3312913532
 20
111.5451602161
 10
231.3122476692
 20
112.0905175701
 10
231.2923359925
 20
112.6606713877
  0
LWPOLYLINE
  5
36B
330
1F
100
AcDbEntity
  8
0
  6
CONTINUOUS
 62
     7
100
AcDbPolyline
 90
        9
 70
   128
 43
0.0
 10
236.2945496345
 20
112.6606713877
 10
236.2746398205
 20
112.0905175701
 10
236.2555942739
 20
111.5451602161
 10
236.2381170744
 20
111.0446413875
 10
236.2228452469
 20
110.6073509798
 10
236.2103450353
 20
110.249358964
 10
236.2010709251
 20
109.9838184089
 10
236.1953675056
 20
109.8204886437
 10
236.1934433932
 20
109.7653701798
  0
LINE
  5
36C
330
1F
100
AcDbEntity
  8
0
  6
CONTINUOUS
 62
     7
100
AcDbLine
 10
382.1934412474
 20
109.7653701798
 30
0.0
 11
377.3934419507
 21
109.7653701798
 31
0.0
  0
LWPOLYLINE
  5
36D
330
1F
100
AcDbEntity
  8
0
  6
CONTINUOUS
 62
     7
100
AcDbPolyline
 90
        9
 70
   128
 43
0.0
 10
382.2945530767
 20
112.6606713877
 10
382.2746376748
 20
112.0905175701
 10
382.2555939907
 20
111.5451602161
 10
382.2381149287
 20
111.0446413875
 10
382.222848689
 20
110.6073509798
 10
382.2103466148
 20
110.249358964
 10
382.2010706419
 20
109.9838184089
 10
382.1953709478
 20
109.8204886437
 10
382.1934412474
 20
109.7653701798
  0
LWPOLYLINE
  5
36E
330
1F
100
AcDbEntity
  8
0
  6
CONTINUOUS
 62
     7
100
AcDbPolyline
 90
        9
 70
   128
 43
0.0
 10
377.3934419507
 20
109.7653701798
 10
377.3915197009
 20
109.8204886437
 10
377.3858125562
 20
109.9838184089
 10
377.3765440339
 20
110.249358964
 10
377.3640419597
 20
110.6073509798
 10
377.3487682695
 20
111.0446413875
 10
377.3312892074
 20
111.5451602161
 10
377.3122455234
 20
112.0905175701
 10
377.292337572
 20
112.6606713877
  0
LINE
  5
36F
330
1F
100
AcDbEntity
  8
0
  6
CONTINUOUS
 62
     7
100
AcDbLine
 10
163.1934444661
 20
109.7653701798
 30
0.0
 11
158.3934451694
 21
109.7653701798
 31
0.0
  0
LWPOLYLINE
  5
370
330
1F
100
AcDbEntity
  8
0
  6
CONTINUOUS
 62
     7
100
AcDbPolyline
 90
        9
 70
   128
 43
0.0
 10
163.2945488448
 20
112.6606713877
 10
163.2746408934
 20
112.0905175701
 10
163.2555972094
 20
111.5451602161
 10
163.2381181473
 20
111.0446413875
 10
163.2228444571
 20
110.6073509798
 10
163.2103423829
 20
110.249358964
 10
163.2010738606
 20
109.9838184089
 10
163.1953667159
 20
109.8204886437
 10
163.1934444661
 20
109.7653701798
  0
LWPOLYLINE
  5
371
330
1F
100
AcDbEntity
  8
0
  6
CONTINUOUS
 62
     7
100
AcDbPolyline
 90
        9
 70
   128
 43
0.0
 10
158.3934451694
 20
109.7653701798
 10
158.391515469
 20
109.8204886437
 10
158.3858157749
 20
109.9838184089
 10
158.376539802
 20
110.249358964
 10
158.3640377278
 20
110.6073509798
 10
158.3487714881
 20
111.0446413875
 10
158.3312924261
 20
111.5451602161
 10
158.312248742
 20
112.0905175701
 10
158.2923407907
 20
112.6606713877
  0
LINE
  5
372
330
1F
100
AcDbEntity
  8
0
  6
CONTINUOUS
 62
     7
100
AcDbLine
 10
230.9743936414
 20
121.7653702841
 30
0.0
 11
226.9013847465
 21
121.7653702841
 31
0.0
  0
LINE
  5
373
330
1F
100
AcDbEntity
  8
0
  6
CONTINUOUS
 62
     7
100
AcDbLine
 10
231.3934440965
 20
109.7653701798
 30
0.0
 11
226.4823342914
 21
109.7653701798
 31
0.0
  0
LINE
  5
374
330
1F
100
AcDbEntity
  8
0
  6
CONTINUOUS
 62
     7
100
AcDbLine
 10
303.9743925685
 20
121.7653702841
 30
0.0
 11
299.9013836736
 21
121.7653702841
 31
0.0
  0
LINE
  5
375
330
1F
100
AcDbEntity
  8
0
  6
CONTINUOUS
 62
     7
100
AcDbLine
 10
304.3934430236
 20
109.7653701798
 30
0.0
 11
299.4823332185
 21
109.7653701798
 31
0.0
  0
LINE
  5
376
330
1F
100
AcDbEntity
  8
0
  6
CONTINUOUS
 62
     7
100
AcDbLine
 10
157.9743947143
 20
121.7653702841
 30
0.0
 11
153.9013858194
 21
121.7653702841
 31
0.0
  0
LINE
  5
377
330
1F
100
AcDbEntity
  8
0
  6
CONTINUOUS
 62
     7
100
AcDbLine
 10
158.3934451694
 20
109.7653701798
 30
0.0
 11
153.4823353643
 21
109.7653701798
 31
0.0
  0
LINE
  5
378
330
1F
100
AcDbEntity
  8
0
  6
CONTINUOUS
 62
     7
100
AcDbLine
 10
221.2632845396
 20
121.7653702841
 30
0.0
 11
163.6124949212
 21
121.7653702841
 31
0.0
  0
LINE
  5
379
330
1F
100
AcDbEntity
  8
0
  6
CONTINUOUS
 62
     7
100
AcDbLine
 10
221.4378888959
 20
116.7653703958
 30
0.0
 11
163.4378905649
 21
116.7653703958
 31
0.0
  0
LINE
  5
37A
330
1F
100
AcDbEntity
  8
0
  6
CONTINUOUS
 62
     7
100
AcDbLine
 10
389.0378873104
 20
116.7653703958
 30
0.0
 11
389.0378873104
 21
121.7653702841
 31
0.0
  0
LINE
  5
37B
330
1F
100
AcDbEntity
  8
0
  6
CONTINUOUS
 62
     7
100
AcDbLine
 10
389.0378873104
 20
116.7653703958
 30
0.0
 11
382.4378873462
 21
116.7653703958
 31
0.0
  0
LINE
  5
37C
330
1F
100
AcDbEntity
  8
0
  6
CONTINUOUS
 62
     7
100
AcDbLine
 10
389.0378873104
 20
121.7653702841
 30
0.0
 11
382.6124917025
 21
121.7653702841
 31
0.0
  0
LINE
  5
37D
330
1F
100
AcDbEntity
  8
0
  6
CONTINUOUS
 62
     7
100
AcDbLine
 10
141.8378900046
 20
116.7653703958
 30
0.0
 11
141.8378900046
 21
121.7653702841
 31
0.0
  0
LINE
  5
37E
330
1F
100
AcDbEntity
  8
0
  6
CONTINUOUS
 62
     7
100
AcDbLine
 10
141.8378900046
 20
116.7653703958
 30
0.0
 11
137.0124991292
 21
116.7653703958
 31
0.0
  0
LINE
  5
37F
330
1F
100
AcDbEntity
  8
0
  6
CONTINUOUS
 62
     7
100
AcDbLine
 10
137.0124991292
 20
116.7653703958
 30
0.0
 11
136.8378873224
 21
121.7653702841
 31
0.0
  0
LINE
  5
380
330
1F
100
AcDbEntity
  8
0
  6
CONTINUOUS
 62
     7
100
AcDbLine
 10
141.8378900046
 20
121.7653702841
 30
0.0
 11
136.8378873224
 21
121.7653702841
 31
0.0
  0
LINE
  5
381
330
1F
100
AcDbEntity
  8
0
  6
CONTINUOUS
 62
     7
100
AcDbLine
 10
148.4378899688
 20
116.7653703958
 30
0.0
 11
141.8378900046
 21
116.7653703958
 31
0.0
  0
LINE
  5
382
330
1F
100
AcDbEntity
  8
0
  6
CONTINUOUS
 62
     7
100
AcDbLine
 10
148.2632856125
 20
121.7653702841
 30
0.0
 11
141.8378900046
 21
121.7653702841
 31
0.0
  0
LINE
  5
383
330
1F
100
AcDbEntity
  8
0
  6
CONTINUOUS
 62
     7
100
AcDbLine
 10
376.9743914956
 20
121.7653702841
 30
0.0
 11
372.9013826007
 21
121.7653702841
 31
0.0
  0
LINE
  5
384
330
1F
100
AcDbEntity
  8
0
  6
CONTINUOUS
 62
     7
100
AcDbLine
 10
377.3934419507
 20
109.7653701798
 30
0.0
 11
372.4823321456
 21
109.7653701798
 31
0.0
  0
LINE
  5
385
330
1F
100
AcDbEntity
  8
0
  6
CONTINUOUS
 62
     7
100
AcDbLine
 10
393.8632781858
 20
116.7653703958
 30
0.0
 11
394.0378899927
 21
121.7653702841
 31
0.0
  0
LINE
  5
386
330
1F
100
AcDbEntity
  8
0
  6
CONTINUOUS
 62
     7
100
AcDbLine
 10
393.8632781858
 20
116.7653703958
 30
0.0
 11
389.0378873104
 21
116.7653703958
 31
0.0
  0
LINE
  5
387
330
1F
100
AcDbEntity
  8
0
  6
CONTINUOUS
 62
     7
100
AcDbLine
 10
394.0378899927
 20
121.7653702841
 30
0.0
 11
389.0378873104
 21
121.7653702841
 31
0.0
  0
LINE
  5
388
330
1F
100
AcDbEntity
  8
0
  6
CONTINUOUS
 62
     7
100
AcDbLine
 10
294.437887823
 20
116.7653703958
 30
0.0
 11
236.437889492
 21
116.7653703958
 31
0.0
  0
LINE
  5
389
330
1F
100
AcDbEntity
  8
0
  6
CONTINUOUS
 62
     7
100
AcDbLine
 10
294.2632853294
 20
121.7653702841
 30
0.0
 11
236.6124919856
 21
121.7653702841
 31
0.0
  0
LINE
  5
38A
330
1F
100
AcDbEntity
  8
0
  6
CONTINUOUS
 62
     7
100
AcDbLine
 10
367.4378867502
 20
116.7653703958
 30
0.0
 11
309.4378884191
 21
116.7653703958
 31
0.0
  0
LINE
  5
38B
330
1F
100
AcDbEntity
  8
0
  6
CONTINUOUS
 62
     7
100
AcDbLine
 10
367.2632823939
 20
121.7653702841
 30
0.0
 11
309.6124927754
 21
121.7653702841
 31
0.0
  0
LINE
  5
38C
330
1F
100
AcDbEntity
  8
0
  6
CONTINUOUS
 62
     7
100
AcDbLine
 10
393.6188395376
 20
109.7653701798
 30
0.0
 11
392.5077344531
 21
109.7653701798
 31
0.0
  0
LINE
  5
38D
330
1F
100
AcDbEntity
  8
0
  6
CONTINUOUS
 62
     7
100
AcDbLine
 10
392.5077344531
 20
109.7653701798
 30
0.0
 11
392.2632809038
 21
116.7653703958
 31
0.0
  0
LINE
  5
38E
330
1F
100
AcDbEntity
  8
0
  6
CONTINUOUS
 62
     7
100
AcDbLine
 10
393.6188395376
 20
109.7653701798
 30
0.0
 11
393.8632781858
 21
116.7653703958
 31
0.0
  0
LINE
  5
38F
330
1F
100
AcDbEntity
  8
0
  6
CONTINUOUS
 62
     7
100
AcDbLine
 10
138.3680428619
 20
109.7653701798
 30
0.0
 11
137.2569377775
 21
109.7653701798
 31
0.0
  0
LINE
  5
390
330
1F
100
AcDbEntity
  8
0
  6
CONTINUOUS
 62
     7
100
AcDbLine
 10
137.2569377775
 20
109.7653701798
 30
0.0
 11
137.0124991292
 21
116.7653703958
 31
0.0
  0
LINE
  5
391
330
1F
100
AcDbEntity
  8
0
  6
CONTINUOUS
 62
     7
100
AcDbLine
 10
138.3680428619
 20
109.7653701798
 30
0.0
 11
138.6124964113
 21
116.7653703958
 31
0.0
  0
LINE
  5
392
330
1F
100
AcDbEntity
  8
0
  6
CONTINUOUS
 62
     7
100
AcDbLine
 10
388.404014265
 20
115.7953704604
 30
0.0
 11
388.437892055
 21
116.7653703958
 31
0.0
  0
LINE
  5
393
330
1F
100
AcDbEntity
  8
0
  6
CONTINUOUS
 62
     7
100
AcDbLine
 10
383.8878895397
 20
109.7653701798
 30
0.0
 11
382.1934412474
 21
109.7653701798
 31
0.0
  0
LINE
  5
394
330
1F
100
AcDbEntity
  8
0
  6
CONTINUOUS
 62
     7
100
AcDbLine
 10
221.6823349947
 20
109.7653701798
 30
0.0
 11
220.1378892416
 21
109.7653701798
 31
0.0
  0
LINE
  5
395
330
1F
100
AcDbEntity
  8
0
  6
CONTINUOUS
 62
     7
100
AcDbLine
 10
163.8878907318
 20
109.7653701798
 30
0.0
 11
163.1934444661
 21
109.7653701798
 31
0.0
  0
LINE
  5
396
330
1F
100
AcDbEntity
  8
0
  6
CONTINUOUS
 62
     7
100
AcDbLine
 10
367.682332849
 20
109.7653701798
 30
0.0
 11
366.9878865833
 21
109.7653701798
 31
0.0
  0
LINE
  5
397
330
1F
100
AcDbEntity
  8
0
  6
CONTINUOUS
 62
     7
100
AcDbLine
 10
310.7378880734
 20
109.7653701798
 30
0.0
 11
309.1934423203
 21
109.7653701798
 31
0.0
  0
LINE
  5
398
330
1F
100
AcDbEntity
  8
0
  6
CONTINUOUS
 62
     7
100
AcDbLine
 10
142.47176305
 20
115.7953704604
 30
0.0
 11
142.43788526
 21
116.7653703958
 31
0.0
  0
LINE
  5
399
330
1F
100
AcDbEntity
  8
0
  6
CONTINUOUS
 62
     7
100
AcDbLine
 10
148.6823360676
 20
109.7653701798
 30
0.0
 11
146.9878877754
 21
109.7653701798
 31
0.0
  0
LINE
  5
39A
330
1F
100
AcDbEntity
  8
0
  6
CONTINUOUS
 62
     7
100
AcDbLine
 10
294.6823339219
 20
109.7653701798
 30
0.0
 11
293.8378888423
 21
109.7653701798
 31
0.0
  0
LINE
  5
39B
330
1F
100
AcDbEntity
  8
0
  6
CONTINUOUS
 62
     7
100
AcDbLine
 10
237.0378884727
 20
109.7653701798
 30
0.0
 11
236.1934433932
 21
109.7653701798
 31
0.0
  0
LINE
  5
39C
330
1F
100
AcDbEntity
  8
0
  6
CONTINUOUS
 62
     7
100
AcDbLine
 10
147.9878898019
 20
156.9653700933
 30
0.0
 11
382.8878875131
 21
156.9653700933
 31
0.0
  0
LINE
  5
39D
330
1F
100
AcDbEntity
  8
0
  6
CONTINUOUS
 62
     7
100
AcDbLine
 10
382.8878875131
 20
156.9653700933
 30
0.0
 11
388.187887823
 21
156.9653700933
 31
0.0
  0
LWPOLYLINE
  5
39E
330
1F
100
AcDbEntity
  8
0
  6
CONTINUOUS
 62
     7
100
AcDbPolyline
 90
        2
 70
   128
 43
0.0
 10
142.687889492
 20
156.9653700933
 10
142.687889492
 20
156.9653700933
  0
LINE
  5
39F
330
1F
100
AcDbEntity
  8
0
  6
CONTINUOUS
 62
     7
100
AcDbLine
 10
142.687889492
 20
156.9653700933
 30
0.0
 11
147.9878898019
 21
156.9653700933
 31
0.0
  0
LINE
  5
3A0
330
1F
100
AcDbEntity
  8
0
  6
CONTINUOUS
 62
     7
100
AcDbLine
 10
388.7294258232
 20
115.7953704604
 30
0.0
 11
388.7378896827
 21
116.7653703958
 31
0.0
  0
LINE
  5
3A1
330
1F
100
AcDbEntity
  8
0
  6
CONTINUOUS
 62
     7
100
AcDbLine
 10
142.1463514919
 20
115.7953704604
 30
0.0
 11
142.1378876323
 21
116.7653703958
 31
0.0
  0
LINE
  5
3A2
330
1F
100
AcDbEntity
  8
0
  6
CONTINUOUS
 62
     7
100
AcDbLine
 10
146.9878877754
 20
109.4779202611
 30
0.0
 11
147.8378872628
 21
109.4779202611
 31
0.0
  0
LINE
  5
3A3
330
1F
100
AcDbEntity
  8
0
  6
CONTINUOUS
 62
     7
100
AcDbLine
 10
147.8378872628
 20
109.4779202611
 30
0.0
 11
163.8878907318
 21
109.4779202611
 31
0.0
  0
LINE
  5
3A4
330
1F
100
AcDbEntity
  8
0
  6
CONTINUOUS
 62
     7
100
AcDbLine
 10
220.1378892416
 20
109.4779202611
 30
0.0
 11
237.0378884727
 21
109.4779202611
 31
0.0
  0
LINE
  5
3A5
330
1F
100
AcDbEntity
  8
0
  6
CONTINUOUS
 62
     7
100
AcDbLine
 10
293.8378888423
 20
109.4779202611
 30
0.0
 11
310.7378880734
 21
109.4779202611
 31
0.0
  0
LINE
  5
3A6
330
1F
100
AcDbEntity
  8
0
  6
CONTINUOUS
 62
     7
100
AcDbLine
 10
366.9878865833
 20
109.4779202611
 30
0.0
 11
383.0378900523
 21
109.4779202611
 31
0.0
  0
LINE
  5
3A7
330
1F
100
AcDbEntity
  8
0
  6
CONTINUOUS
 62
     7
100
AcDbLine
 10
383.0378900523
 20
109.4779202611
 30
0.0
 11
383.8878895397
 21
109.4779202611
 31
0.0
  0
LINE
  5
3A8
330
1F
100
AcDbEntity
  8
0
  6
CONTINUOUS
 62
     7
100
AcDbLine
 10
383.0378900523
 20
109.4779202611
 30
0.0
 11
383.0378900523
 21
109.7653701798
 31
0.0
  0
LINE
  5
3A9
330
1F
100
AcDbEntity
  8
0
  6
CONTINUOUS
 62
     7
100
AcDbLine
 10
147.8378872628
 20
109.4779202611
 30
0.0
 11
147.8378872628
 21
109.7653701798
 31
0.0
  0
LINE
  5
3AA
330
1F
100
AcDbEntity
  8
0
  6
CONTINUOUS
 62
     7
100
AcDbLine
 10
498.8587131147
 20
253.977457475
 30
0.0
 11
498.8405001704
 21
254.167443555
 31
0.0
  0
LINE
  5
3AB
330
1F
100
AcDbEntity
  8
0
  6
CONTINUOUS
 62
     7
100
AcDbLine
 10
498.8405001704
 20
248.2874714249
 30
0.0
 11
498.8587131147
 21
248.4774575048
 31
0.0
  0
LINE
  5
3AC
330
1F
100
AcDbEntity
  8
0
  6
CONTINUOUS
 62
     7
100
AcDbLine
 10
484.0704999287
 20
328.3999026233
 30
0.0
 11
448.8705001194
 21
327.1499038154
 31
0.0
  0
SPLINE
  5
3AD
330
1F
100
AcDbEntity
  8
0
  6
CONTINUOUS
 62
     7
100
AcDbSpline
210
0.0
220
0.0
230
1.0
 70
     8
 71
     3
 72
     9
 73
     5
 74
     0
 42
0.00000001
 43
0.00000001
 40
0.0
 40
0.0
 40
0.0
 40
0.0
 40
0.4999908035733369
 40
1.0
 40
1.0
 40
1.0
 40
1.0
 10
448.8705001194251
 20
263.8499033117008
 30
0.0
 10
454.7372207046875
 20
263.6415674851004
 30
0.0
 10
466.4708776906442
 20
263.2248881679781
 30
0.0
 10
478.203887248167
 20
262.8082337045799
 30
0.0
 10
484.0704999286903
 20
262.5999026411486
 30
0.0
  0
LINE
  5
3AE
330
1F
100
AcDbEntity
  8
0
  6
CONTINUOUS
 62
     7
100
AcDbLine
 10
486.6404999402
 20
247.9585357421
 30
0.0
 11
486.6404999402
 21
248.5896483475
 31
0.0
  0
LINE
  5
3AF
330
1F
100
AcDbEntity
  8
0
  6
CONTINUOUS
 62
     7
100
AcDbLine
 10
489.5405001361
 20
247.7585360819
 30
0.0
 11
486.6404999402
 21
247.7585360819
 31
0.0
  0
LINE
  5
3B0
330
1F
100
AcDbEntity
  8
0
  6
CONTINUOUS
 62
     7
100
AcDbLine
 10
486.6404999402
 20
247.7585360819
 30
0.0
 11
486.6404999402
 21
247.9585357421
 31
0.0
  0
LINE
  5
3B1
330
1F
100
AcDbEntity
  8
0
  6
CONTINUOUS
 62
     7
100
AcDbLine
 10
489.5405001361
 20
247.7585360819
 30
0.0
 11
489.5405001361
 21
248.6909203642
 31
0.0
  0
ARC
  5
3B2
330
1F
100
AcDbEntity
  8
0
  6
CONTINUOUS
 62
     7
100
AcDbCircle
 10
487.6404999287
 20
247.9585370089
 30
0.0
 40
1.000000000000026
100
AcDbArc
 50
140.2695254212
 51
180.0
  0
LINE
  5
3B3
330
1F
100
AcDbEntity
  8
0
  6
CONTINUOUS
 62
     7
100
AcDbLine
 10
498.8587131147
 20
251.5985951239
 30
0.0
 11
498.8587131147
 21
248.4774575048
 31
0.0
  0
LINE
  5
3B4
330
1F
100
AcDbEntity
  8
0
  6
CONTINUOUS
 62
     7
100
AcDbLine
 10
498.8587131147
 20
253.977457475
 30
0.0
 11
498.8587131147
 21
251.5985951239
 31
0.0
  0
LINE
  5
3B5
330
1F
100
AcDbEntity
  8
0
  6
CONTINUOUS
 62
     7
100
AcDbLine
 10
496.0893667657
 20
339.7585362607
 30
0.0
 11
496.0893667657
 21
344.65295304
 31
0.0
  0
LINE
  5
3B6
330
1F
100
AcDbEntity
  8
0
  6
CONTINUOUS
 62
     7
100
AcDbLine
 10
496.0893667657
 20
339.7585362607
 30
0.0
 11
490.0404997524
 21
339.7585362607
 31
0.0
  0
SPLINE
  5
3B7
330
1F
100
AcDbEntity
  8
0
  6
CONTINUOUS
 62
     7
100
AcDbSpline
210
0.0
220
0.0
230
1.0
 70
     8
 71
     3
 72
    12
 73
     8
 74
     0
 42
0.00000001
 43
0.00000001
 40
0.0
 40
0.0
 40
0.0
 40
0.0
 40
0.0030486877035835
 40
0.4717247571901618
 40
0.7727554019961174
 40
0.9896094429010158
 40
1.0
 40
1.0
 40
1.0
 40
1.0
 10
491.8210418317689
 20
344.7274588459444
 30
0.0
 10
491.8186437679963
 20
344.7274964905667
 30
0.0
 10
491.4475903309569
 20
344.7333212591422
 30
0.0
 10
490.8289417175926
 20
344.5506687287273
 30
0.0
 10
490.2237085798077
 20
343.8762467429021
 30
0.0
 10
490.0568423296623
 20
343.3322311676623
 30
0.0
 10
490.0429852882417
 20
343.0701935782397
 30
0.0
 10
490.0423516873492
 20
343.0582121425581
 30
0.0
  0
LINE
  5
3B8
330
1F
100
AcDbEntity
  8
0
  6
CONTINUOUS
 62
     7
100
AcDbLine
 10
496.0893667657
 20
344.65295304
 30
0.0
 11
491.8210418318
 21
344.7274588459
 31
0.0
  0
LINE
  5
3B9
330
1F
100
AcDbEntity
  8
0
  6
CONTINUOUS
 62
     7
100
AcDbLine
 10
490.0404997524
 20
343.058256846
 30
0.0
 11
490.0404997524
 21
339.7585362607
 31
0.0
  0
LINE
  5
3BA
330
1F
100
AcDbEntity
  8
0
  6
CONTINUOUS
 62
     7
100
AcDbLine
 10
496.0893667657
 20
245.2585384661
 30
0.0
 11
496.0893667657
 21
339.7585362607
 31
0.0
  0
LINE
  5
3BB
330
1F
100
AcDbEntity
  8
0
  6
CONTINUOUS
 62
     7
100
AcDbLine
 10
496.0893667657
 20
245.2585384661
 30
0.0
 11
490.0404997524
 21
245.2585384661
 31
0.0
  0
LINE
  5
3BC
330
1F
100
AcDbEntity
  8
0
  6
CONTINUOUS
 62
     7
100
AcDbLine
 10
490.0404997524
 20
339.7585362607
 30
0.0
 11
490.0404997524
 21
335.9660305494
 31
0.0
  0
LINE
  5
3BD
330
1F
100
AcDbEntity
  8
0
  6
CONTINUOUS
 62
     7
100
AcDbLine
 10
490.0404997524
 20
253.5337754005
 30
0.0
 11
490.0404997524
 21
245.2585384661
 31
0.0
  0
LINE
  5
3BE
330
1F
100
AcDbEntity
  8
0
  6
CONTINUOUS
 62
     7
100
AcDbLine
 10
496.0893667657
 20
240.3641216868
 30
0.0
 11
496.0893667657
 21
245.2585384661
 31
0.0
  0
LINE
  5
3BF
330
1F
100
AcDbEntity
  8
0
  6
CONTINUOUS
 62
     7
100
AcDbLine
 10
496.0893667657
 20
240.3641216868
 30
0.0
 11
490.0404997524
 21
240.2585357839
 31
0.0
  0
LINE
  5
3C0
330
1F
100
AcDbEntity
  8
0
  6
CONTINUOUS
 62
     7
100
AcDbLine
 10
490.0404997524
 20
245.2585384661
 30
0.0
 11
490.0404997524
 21
240.2585357839
 31
0.0
  0
LINE
  5
3C1
330
1F
100
AcDbEntity
  8
0
  6
CONTINUOUS
 62
     7
100
AcDbLine
 10
498.8405001704
 20
339.7585362607
 30
0.0
 11
498.8405001704
 21
245.2585384661
 31
0.0
  0
LINE
  5
3C2
330
1F
100
AcDbEntity
  8
0
  6
CONTINUOUS
 62
     7
100
AcDbLine
 10
498.8405001704
 20
245.2585384661
 30
0.0
 11
496.0893667657
 21
245.2585384661
 31
0.0
  0
LINE
  5
3C3
330
1F
100
AcDbEntity
  8
0
  6
CONTINUOUS
 62
     7
100
AcDbLine
 10
498.8405001704
 20
339.7585362607
 30
0.0
 11
496.0893667657
 21
339.7585362607
 31
0.0
  0
LINE
  5
3C4
330
1F
100
AcDbEntity
  8
0
  6
CONTINUOUS
 62
     7
100
AcDbLine
 10
498.8405001704
 20
245.2585384661
 30
0.0
 11
498.8405001704
 21
243.1636922472
 31
0.0
  0
ARC
  5
3C5
330
1F
100
AcDbEntity
  8
0
  6
CONTINUOUS
 62
     7
100
AcDbCircle
 10
496.0404999287
 20
243.163693917
 30
0.0
 40
2.800000000000002
100
AcDbArc
 50
271.0
 51
0.0
  0
LINE
  5
3C6
330
1F
100
AcDbEntity
  8
0
  6
CONTINUOUS
 62
     7
100
AcDbLine
 10
498.8405001704
 20
341.8533787542
 30
0.0
 11
498.8405001704
 21
339.7585362607
 31
0.0
  0
ARC
  5
3C7
330
1F
100
AcDbEntity
  8
0
  6
CONTINUOUS
 62
     7
100
AcDbCircle
 10
496.0404999287
 20
341.8533801008
 30
0.0
 40
2.800000000000011
100
AcDbArc
 50
0.0
 51
89.0
  0
ARC
  5
3C8
330
1F
100
AcDbEntity
  8
0
  6
CONTINUOUS
 62
     7
100
AcDbCircle
 10
496.0897552556
 20
240.3479502137
 30
0.0
 40
0.0161761387675118
100
AcDbArc
 50
91.3761608967
 51
113.1704376601
  0
LWPOLYLINE
  5
3C9
330
1F
100
AcDbEntity
  8
0
  6
CONTINUOUS
 62
     7
100
AcDbPolyline
 90
        4
 70
   128
 43
0.0
 10
496.0833904688
 20
240.3628215605
 10
496.0622652788
 20
240.3631158584
 10
496.0495853219
 20
240.3632946723
 10
496.0453580488
 20
240.3633505517
  0
ARC
  5
3CA
330
1F
100
AcDbEntity
  8
0
  6
CONTINUOUS
 62
     7
100
AcDbCircle
 10
499.1614536586
 20
204.2557064562
 30
0.0
 40
38.90930954743722
100
AcDbArc
 50
89.8641860474
 51
90.4726243938
  0
ARC
  5
3CB
330
1F
100
AcDbEntity
  8
0
  6
CONTINUOUS
 62
     7
100
AcDbCircle
 10
495.9536843284
 20
243.1649079826
 30
0.0
 40
3.300000000000019
100
AcDbArc
 50
301.1515505187
 51
0.0
  0
SPLINE
  5
3CC
330
1F
100
AcDbEntity
  8
0
  6
CONTINUOUS
 62
     7
100
AcDbSpline
210
0.0
220
0.0
230
1.0
 70
     8
 71
     3
 72
    10
 73
     6
 74
     0
 42
0.00000001
 43
0.00000001
 40
0.0
 40
0.0
 40
0.0
 40
0.0
 40
0.4620483899290563
 40
0.8424458909938882
 40
0.9999999999999999
 40
0.9999999999999999
 40
0.9999999999999999
 40
0.9999999999999999
 10
497.6607864145408
 20
240.3407603913259
 30
0.0
 10
497.4009717912813
 20
240.3443938623815
 30
0.0
 10
496.9272556902066
 20
240.3510187155949
 30
0.0
 10
496.4269457057661
 20
240.3580143846785
 30
0.0
 10
496.1612166285925
 20
240.3617325826571
 30
0.0
 10
496.0833904687534
 20
240.3628215604734
 30
0.0
  0
ARC
  5
3CD
330
1F
100
AcDbEntity
  8
0
  6
CONTINUOUS
 62
     7
100
AcDbCircle
 10
499.3404999287
 20
246.6656437901
 30
0.0
 40
0.4999999999999437
100
AcDbArc
 50
180.0
 51
225.0
  0
ELLIPSE
  5
3CE
330
1F
100
AcDbEntity
  8
0
  6
CONTINUOUS
 62
     7
100
AcDbEllipse
 10
499.3404999287
 20
244.5443234465
 30
0.0
 11
-0.3546885522351886
 21
1.768309747526303
 31
0.0
210
0.0
220
0.0
230
0.9999999999999998
 40
0.0192784816
 41
6.254240669490303
 42
7.703680486615305
  0
ARC
  5
3CF
330
1F
100
AcDbEntity
  8
0
  6
CONTINUOUS
 62
     7
100
AcDbCircle
 10
499.1623159389
 20
205.5997738537
 30
0.0
 40
39.20267576230573
100
AcDbArc
 50
89.8664626383
 51
90.4703478029
  0
LINE
  5
3D0
330
1F
100
AcDbEntity
  8
0
  6
CONTINUOUS
 62
     7
100
AcDbLine
 10
499.2536842246
 20
244.8023431414
 30
0.0
 11
499.2536842246
 21
243.1649066919
 31
0.0
  0
LINE
  5
3D1
330
1F
100
AcDbEntity
  8
0
  6
CONTINUOUS
 62
     7
100
AcDbLine
 10
502.7290094067
 20
241.3270160967
 30
0.0
 11
499.2536842246
 21
244.8023431414
 31
0.0
  0
LINE
  5
3D2
330
1F
100
AcDbEntity
  8
0
  6
CONTINUOUS
 62
     7
100
AcDbLine
 10
502.7140672673
 20
240.2585357839
 30
0.0
 11
502.7290094067
 21
241.3270160967
 31
0.0
  0
LINE
  5
3D3
330
1F
100
AcDbEntity
  8
0
  6
CONTINUOUS
 62
     7
100
AcDbLine
 10
502.0404993911
 20
240.2585357839
 30
0.0
 11
502.7140672673
 21
240.2585357839
 31
0.0
  0
LINE
  5
3D4
330
1F
100
AcDbEntity
  8
0
  6
CONTINUOUS
 62
     7
100
AcDbLine
 10
502.0404993911
 20
240.2585357839
 30
0.0
 11
502.0404993911
 21
240.2795128935
 31
0.0
  0
LINE
  5
3D5
330
1F
100
AcDbEntity
  8
0
  6
CONTINUOUS
 62
     7
100
AcDbLine
 10
502.0404993911
 20
240.2795128935
 30
0.0
 11
497.6607864145
 21
240.3407603913
 31
0.0
  0
ARC
  5
3D6
330
1F
100
AcDbEntity
  8
0
  6
CONTINUOUS
 62
     7
100
AcDbCircle
 10
501.6164806413
 20
242.7188076263
 30
0.0
 40
1.781797944648407
100
AcDbArc
 50
308.6370975372
 51
337.4864404864
  0
LINE
  5
3D7
330
1F
100
AcDbEntity
  8
0
  6
CONTINUOUS
 62
     7
100
AcDbLine
 10
498.98694692
 20
246.3120915407
 30
0.0
 11
503.2624858786
 21
242.0365535134
 31
0.0
  0
LINE
  5
3D8
330
1F
100
AcDbEntity
  8
0
  6
CONTINUOUS
 62
     7
100
AcDbLine
 10
503.5552806575
 20
241.3154639715
 30
0.0
 11
503.5405005682
 21
240.2585357839
 31
0.0
  0
LWPOLYLINE
  5
3D9
330
1F
100
AcDbEntity
  8
0
  6
CONTINUOUS
 62
     7
100
AcDbPolyline
 90
        9
 70
   128
 43
0.0
 10
503.5552806575
 20
241.3154639715
 10
503.5400889237
 20
241.315676313
 10
503.4949793834
 20
241.3163058871
 10
503.4213192184
 20
241.3173340672
 10
503.3213473279
 20
241.3187347763
 10
503.198103549
 20
241.3204558605
 10
503.0553299356
 20
241.3224526161
 10
502.8973645885
 20
241.3246617132
 10
502.7290094067
 20
241.3270160967
  0
LINE
  5
3DA
330
1F
100
AcDbEntity
  8
0
  6
CONTINUOUS
 62
     7
100
AcDbLine
 10
503.5405005682
 20
240.2585357839
 30
0.0
 11
502.7140672673
 21
240.2585357839
 31
0.0
  0
ARC
  5
3DB
330
1F
100
AcDbEntity
  8
0
  6
CONTINUOUS
 62
     7
100
AcDbCircle
 10
502.5553781788
 20
241.3294451964
 30
0.0
 40
1.000000000000008
100
AcDbArc
 50
359.1988041184
 51
45.0
  0
LINE
  5
3DC
330
1F
100
AcDbEntity
  8
0
  6
CONTINUOUS
 62
     7
100
AcDbLine
 10
489.0704998169
 20
253.4999013358
 30
0.0
 11
484.0704999287
 21
253.4999013358
 31
0.0
  0
LINE
  5
3DD
330
1F
100
AcDbEntity
  8
0
  6
CONTINUOUS
 62
     7
100
AcDbLine
 10
489.0704998169
 20
253.4999013358
 30
0.0
 11
489.0704998169
 21
248.6745067352
 31
0.0
  0
LINE
  5
3DE
330
1F
100
AcDbEntity
  8
0
  6
CONTINUOUS
 62
     7
100
AcDbLine
 10
489.0704998169
 20
248.6745067352
 30
0.0
 11
484.0704999287
 21
248.4999023789
 31
0.0
  0
LINE
  5
3DF
330
1F
100
AcDbEntity
  8
0
  6
CONTINUOUS
 62
     7
100
AcDbLine
 10
484.0704999287
 20
253.4999013358
 30
0.0
 11
484.0704999287
 21
248.4999023789
 31
0.0
  0
LINE
  5
3E0
330
1F
100
AcDbEntity
  8
0
  6
CONTINUOUS
 62
     7
100
AcDbLine
 10
489.0704998169
 20
340.8252992147
 30
0.0
 11
484.0704999287
 21
340.999903571
 31
0.0
  0
LINE
  5
3E1
330
1F
100
AcDbEntity
  8
0
  6
CONTINUOUS
 62
     7
100
AcDbLine
 10
489.0704998169
 20
340.8252992147
 30
0.0
 11
489.0704998169
 21
335.9999046141
 31
0.0
  0
LINE
  5
3E2
330
1F
100
AcDbEntity
  8
0
  6
CONTINUOUS
 62
     7
100
AcDbLine
 10
489.0704998169
 20
335.9999046141
 30
0.0
 11
484.0704999287
 21
335.9999046141
 31
0.0
  0
LINE
  5
3E3
330
1F
100
AcDbEntity
  8
0
  6
CONTINUOUS
 62
     7
100
AcDbLine
 10
484.0704999287
 20
340.999903571
 30
0.0
 11
484.0704999287
 21
335.9999046141
 31
0.0
  0
LINE
  5
3E4
330
1F
100
AcDbEntity
  8
0
  6
CONTINUOUS
 62
     7
100
AcDbLine
 10
496.070500033
 20
335.7554585153
 30
0.0
 11
489.0704998169
 21
335.9999046141
 31
0.0
  0
LINE
  5
3E5
330
1F
100
AcDbEntity
  8
0
  6
CONTINUOUS
 62
     7
100
AcDbLine
 10
496.070500033
 20
335.7554585153
 30
0.0
 11
496.070500033
 21
253.7443474346
 31
0.0
  0
LINE
  5
3E6
330
1F
100
AcDbEntity
  8
0
  6
CONTINUOUS
 62
     7
100
AcDbLine
 10
496.070500033
 20
253.7443474346
 30
0.0
 11
489.0704998169
 21
253.4999013358
 31
0.0
  0
LINE
  5
3E7
330
1F
100
AcDbEntity
  8
0
  6
CONTINUOUS
 62
     7
100
AcDbLine
 10
484.0704999287
 20
335.9999046141
 30
0.0
 11
484.0704999287
 21
253.4999013358
 31
0.0
  0
LWPOLYLINE
  5
3E8
330
1F
100
AcDbEntity
  8
0
  6
CONTINUOUS
 62
     7
100
AcDbPolyline
 90
        2
 70
   128
 43
0.0
 10
448.8705001194
 20
327.1499038154
 10
448.8705001194
 20
327.1499038154
  0
LWPOLYLINE
  5
3E9
330
1F
100
AcDbEntity
  8
0
  6
CONTINUOUS
 62
     7
100
AcDbPolyline
 90
        2
 70
   128
 43
0.0
 10
448.8705001194
 20
263.8499033117
 10
448.8705001194
 20
263.8499033117
  0
LINE
  5
3EA
330
1F
100
AcDbEntity
  8
0
  6
CONTINUOUS
 62
     7
100
AcDbLine
 10
448.8705001194
 20
263.8499033117
 30
0.0
 11
448.8705001194
 21
269.1499036216
 31
0.0
  0
LINE
  5
3EB
330
1F
100
AcDbEntity
  8
0
  6
CONTINUOUS
 62
     7
100
AcDbLine
 10
448.8705001194
 20
269.1499036216
 30
0.0
 11
448.8705001194
 21
321.8499035054
 31
0.0
  0
LINE
  5
3EC
330
1F
100
AcDbEntity
  8
0
  6
CONTINUOUS
 62
     7
100
AcDbLine
 10
448.8705001194
 20
321.8499035054
 30
0.0
 11
448.8705001194
 21
327.1499038154
 31
0.0
  0
LINE
  5
3ED
330
1F
100
AcDbEntity
  8
0
  6
CONTINUOUS
 62
     7
100
AcDbLine
 10
484.0704999287
 20
347.4999018424
 30
0.0
 11
484.0704999287
 21
344.9983805829
 31
0.0
  0
LINE
  5
3EE
330
1F
100
AcDbEntity
  8
0
  6
CONTINUOUS
 62
     7
100
AcDbLine
 10
484.0704999287
 20
347.4999018424
 30
0.0
 11
493.1751988251
 21
347.1819594913
 31
0.0
  0
ARC
  5
3EF
330
1F
100
AcDbEntity
  8
0
  6
CONTINUOUS
 62
     7
100
AcDbCircle
 10
493.0704999287
 20
344.1837874166
 30
0.0
 40
3.00000000000005
100
AcDbArc
 50
9.0162273063
 51
88.0
  0
LINE
  5
3F0
330
1F
100
AcDbEntity
  8
0
  6
CONTINUOUS
 62
     7
100
AcDbLine
 10
490.0404997524
 20
341.0426289254
 30
0.0
 11
484.0704999287
 21
340.999903571
 31
0.0
  0
LINE
  5
3F1
330
1F
100
AcDbEntity
  8
0
  6
CONTINUOUS
 62
     7
100
AcDbLine
 10
484.0704999287
 20
344.9983805829
 30
0.0
 11
491.836311331
 21
344.727190625
 31
0.0
  0
LINE
  5
3F2
330
1F
100
AcDbEntity
  8
0
  6
CONTINUOUS
 62
     7
100
AcDbLine
 10
490.0404997524
 20
248.7083807999
 30
0.0
 11
489.0704998169
 21
248.6745067352
 31
0.0
  0
LINE
  5
3F3
330
1F
100
AcDbEntity
  8
0
  6
CONTINUOUS
 62
     7
100
AcDbLine
 10
818.9266312481
 20
344.7277233416
 30
0.0
 11
576.9464809061
 21
344.7277233416
 31
0.0
  0
LINE
  5
3F4
330
1F
100
AcDbEntity
  8
0
  6
CONTINUOUS
 62
     7
100
AcDbLine
 10
797.9365575672
 20
341.2277236992
 30
0.0
 11
817.9365533949
 21
341.2277236992
 31
0.0
  0
LINE
  5
3F5
330
1F
100
AcDbEntity
  8
0
  6
CONTINUOUS
 62
     7
100
AcDbLine
 10
724.9365567774
 20
341.2277236992
 30
0.0
 11
744.9365544677
 21
341.2277236992
 31
0.0
  0
LINE
  5
3F6
330
1F
100
AcDbEntity
  8
0
  6
CONTINUOUS
 62
     7
100
AcDbLine
 10
651.9365559877
 20
341.2277236992
 30
0.0
 11
671.9365555406
 21
341.2277236992
 31
0.0
  0
LINE
  5
3F7
330
1F
100
AcDbEntity
  8
0
  6
CONTINUOUS
 62
     7
100
AcDbLine
 10
578.9365533353
 20
341.2277236992
 30
0.0
 11
598.9365566135
 21
341.2277236992
 31
0.0
  0
LINE
  5
3F8
330
1F
100
AcDbEntity
  8
0
  6
CONTINUOUS
 62
     7
100
AcDbLine
 10
582.4365529776
 20
248.4999023789
 30
0.0
 11
582.4365529776
 21
247.7585360819
 31
0.0
  0
LINE
  5
3F9
330
1F
100
AcDbEntity
  8
0
  6
CONTINUOUS
 62
     7
100
AcDbLine
 10
594.4365549446
 20
247.7585360819
 30
0.0
 11
594.4365549446
 21
248.4999023789
 31
0.0
  0
LINE
  5
3FA
330
1F
100
AcDbEntity
  8
0
  6
CONTINUOUS
 62
     7
100
AcDbLine
 10
582.4365529776
 20
247.7585360819
 30
0.0
 11
594.4365549446
 21
247.7585360819
 31
0.0
  0
LINE
  5
3FB
330
1F
100
AcDbEntity
  8
0
  6
CONTINUOUS
 62
     7
100
AcDbLine
 10
667.4365557343
 20
247.7585360819
 30
0.0
 11
667.4365557343
 21
248.4999023789
 31
0.0
  0
LINE
  5
3FC
330
1F
100
AcDbEntity
  8
0
  6
CONTINUOUS
 62
     7
100
AcDbLine
 10
655.43655563
 20
247.7585360819
 30
0.0
 11
667.4365557343
 21
247.7585360819
 31
0.0
  0
LINE
  5
3FD
330
1F
100
AcDbEntity
  8
0
  6
CONTINUOUS
 62
     7
100
AcDbLine
 10
655.43655563
 20
248.4999023789
 30
0.0
 11
655.43655563
 21
247.7585360819
 31
0.0
  0
LINE
  5
3FE
330
1F
100
AcDbEntity
  8
0
  6
CONTINUOUS
 62
     7
100
AcDbLine
 10
740.4365565241
 20
247.7585360819
 30
0.0
 11
740.4365565241
 21
248.4999023789
 31
0.0
  0
LINE
  5
3FF
330
1F
100
AcDbEntity
  8
0
  6
CONTINUOUS
 62
     7
100
AcDbLine
 10
728.4365564198
 20
247.7585360819
 30
0.0
 11
740.4365565241
 21
247.7585360819
 31
0.0
  0
LINE
  5
400
330
1F
100
AcDbEntity
  8
0
  6
CONTINUOUS
 62
     7
100
AcDbLine
 10
728.4365564198
 20
248.4999023789
 30
0.0
 11
728.4365564198
 21
247.7585360819
 31
0.0
  0
LINE
  5
401
330
1F
100
AcDbEntity
  8
0
  6
CONTINUOUS
 62
     7
100
AcDbLine
 10
813.4365591765
 20
247.9585357421
 30
0.0
 11
801.4365572096
 21
247.9585357421
 31
0.0
  0
LINE
  5
402
330
1F
100
AcDbEntity
  8
0
  6
CONTINUOUS
 62
     7
100
AcDbLine
 10
801.4365572096
 20
247.9585357421
 30
0.0
 11
801.4365572096
 21
248.4999023789
 31
0.0
  0
LINE
  5
403
330
1F
100
AcDbEntity
  8
0
  6
CONTINUOUS
 62
     7
100
AcDbLine
 10
813.4365591765
 20
248.4999023789
 30
0.0
 11
813.4365591765
 21
247.9585357421
 31
0.0
  0
LINE
  5
404
330
1F
100
AcDbEntity
  8
0
  6
CONTINUOUS
 62
     7
100
AcDbLine
 10
801.4365572096
 20
247.7585360819
 30
0.0
 11
813.4365591765
 21
247.7585360819
 31
0.0
  0
LINE
  5
405
330
1F
100
AcDbEntity
  8
0
  6
CONTINUOUS
 62
     7
100
AcDbLine
 10
813.4365591765
 20
247.7585360819
 30
0.0
 11
813.4365591765
 21
247.9585357421
 31
0.0
  0
LINE
  5
406
330
1F
100
AcDbEntity
  8
0
  6
CONTINUOUS
 62
     7
100
AcDbLine
 10
801.4365572096
 20
247.9585357421
 30
0.0
 11
801.4365572096
 21
247.7585360819
 31
0.0
  0
CIRCLE
  5
407
330
1F
100
AcDbEntity
  8
0
  6
CONTINUOUS
 62
     7
100
AcDbCircle
 10
634.9365560771
 20
251.2274575377
 30
0.0
 40
0.899999999999975
  0
LINE
  5
408
330
1F
100
AcDbEntity
  8
0
  6
CONTINUOUS
 62
     7
100
AcDbLine
 10
634.3695733309
 20
250.1719803029
 30
0.0
 11
634.2545959712
 21
250.240071159
 31
0.0
  0
ARC
  5
409
330
1F
100
AcDbEntity
  8
0
  6
CONTINUOUS
 62
     7
100
AcDbCircle
 10
634.9365560771
 20
251.2274575377
 30
0.0
 40
1.200000000000048
100
AcDbArc
 50
241.7562784727
 51
235.3682543557
  0
LINE
  5
40A
330
1F
100
AcDbEntity
  8
0
  6
CONTINUOUS
 62
     7
100
AcDbLine
 10
634.3686122061
 20
250.1701809877
 30
0.0
 11
634.1958630443
 21
249.8486027533
 31
0.0
  0
LINE
  5
40B
330
1F
100
AcDbEntity
  8
0
  6
CONTINUOUS
 62
     7
100
AcDbLine
 10
823.9365581036
 20
249.1135619992
 30
0.0
 11
823.9365581036
 21
245.2585384661
 31
0.0
  0
ARC
  5
40C
330
1F
100
AcDbEntity
  8
0
  6
CONTINUOUS
 62
     7
100
AcDbCircle
 10
818.9365560771
 20
245.2585370089
 30
0.0
 40
5.0
100
AcDbArc
 50
270.0
 51
0.0
  0
LINE
  5
40D
330
1F
100
AcDbEntity
  8
0
  6
CONTINUOUS
 62
     7
100
AcDbLine
 10
818.9365554214
 20
240.2585357839
 30
0.0
 11
728.4365564198
 21
240.2585357839
 31
0.0
  0
LINE
  5
40E
330
1F
100
AcDbEntity
  8
0
  6
CONTINUOUS
 62
     7
100
AcDbLine
 10
728.4365564198
 20
240.2585357839
 30
0.0
 11
728.4365564198
 21
247.7585360819
 31
0.0
  0
LINE
  5
40F
330
1F
100
AcDbEntity
  8
0
  6
CONTINUOUS
 62
     7
100
AcDbLine
 10
740.4365565241
 20
247.7585360819
 30
0.0
 11
801.4365572096
 21
247.7585360819
 31
0.0
  0
LINE
  5
410
330
1F
100
AcDbEntity
  8
0
  6
CONTINUOUS
 62
     7
100
AcDbLine
 10
813.4365591765
 20
247.7585360819
 30
0.0
 11
813.4365591765
 21
241.958795529
 31
0.0
  0
LINE
  5
411
330
1F
100
AcDbEntity
  8
0
  6
CONTINUOUS
 62
     7
100
AcDbLine
 10
818.9365554214
 20
241.958795529
 30
0.0
 11
813.4365591765
 21
241.958795529
 31
0.0
  0
ARC
  5
412
330
1F
100
AcDbEntity
  8
0
  6
CONTINUOUS
 62
     7
100
AcDbCircle
 10
818.9365560771
 20
245.2585370089
 30
0.0
 40
3.299741042325422
100
AcDbArc
 50
270.0
 51
0.0
  0
LINE
  5
413
330
1F
100
AcDbEntity
  8
0
  6
CONTINUOUS
 62
     7
100
AcDbLine
 10
822.2362983585
 20
248.5491097384
 30
0.0
 11
822.2362983585
 21
245.2585384661
 31
0.0
  0
LINE
  5
414
330
1F
100
AcDbEntity
  8
0
  6
CONTINUOUS
 62
     7
100
AcDbLine
 10
573.6368137956
 20
245.2585384661
 30
0.0
 11
573.6368137956
 21
248.5491097384
 31
0.0
  0
ARC
  5
415
330
1F
100
AcDbEntity
  8
0
  6
CONTINUOUS
 62
     7
100
AcDbCircle
 10
576.9365560771
 20
245.2585370089
 30
0.0
 40
3.299741042325365
100
AcDbArc
 50
180.0
 51
270.0
  0
LINE
  5
416
330
1F
100
AcDbEntity
  8
0
  6
CONTINUOUS
 62
     7
100
AcDbLine
 10
582.4365529776
 20
241.958795529
 30
0.0
 11
576.9365567327
 21
241.958795529
 31
0.0
  0
LINE
  5
417
330
1F
100
AcDbEntity
  8
0
  6
CONTINUOUS
 62
     7
100
AcDbLine
 10
582.4365529776
 20
241.958795529
 30
0.0
 11
582.4365529776
 21
247.7585360819
 31
0.0
  0
LINE
  5
418
330
1F
100
AcDbEntity
  8
0
  6
CONTINUOUS
 62
     7
100
AcDbLine
 10
594.4365549446
 20
247.7585360819
 30
0.0
 11
655.43655563
 21
247.7585360819
 31
0.0
  0
LINE
  5
419
330
1F
100
AcDbEntity
  8
0
  6
CONTINUOUS
 62
     7
100
AcDbLine
 10
667.4365557343
 20
247.7585360819
 30
0.0
 11
667.4365557343
 21
240.2585357839
 31
0.0
  0
LINE
  5
41A
330
1F
100
AcDbEntity
  8
0
  6
CONTINUOUS
 62
     7
100
AcDbLine
 10
667.4365557343
 20
240.2585357839
 30
0.0
 11
576.9365567327
 21
240.2585357839
 31
0.0
  0
ARC
  5
41B
330
1F
100
AcDbEntity
  8
0
  6
CONTINUOUS
 62
     7
100
AcDbCircle
 10
576.9365560771
 20
245.2585370089
 30
0.0
 40
5.0
100
AcDbArc
 50
180.0
 51
270.0
  0
LINE
  5
41C
330
1F
100
AcDbEntity
  8
0
  6
CONTINUOUS
 62
     7
100
AcDbLine
 10
571.9365540505
 20
245.2585384661
 30
0.0
 11
571.9365540505
 21
249.1135619992
 31
0.0
  0
ARC
  5
41D
330
1F
100
AcDbEntity
  8
0
  6
CONTINUOUS
 62
     7
100
AcDbCircle
 10
576.9365560771
 20
339.7585370089
 30
0.0
 40
5.000000000000057
100
AcDbArc
 50
138.7044076281
 51
172.5222186029
  0
LINE
  5
41E
330
1F
100
AcDbEntity
  8
0
  6
CONTINUOUS
 62
     7
100
AcDbLine
 10
576.9219461442
 20
343.0582456702
 30
0.0
 11
573.1799963475
 21
343.0582456702
 31
0.0
  0
ARC
  5
41F
330
1F
100
AcDbEntity
  8
0
  6
CONTINUOUS
 62
     7
100
AcDbCircle
 10
576.9365560771
 20
339.7585370089
 30
0.0
 40
3.299741042325373
100
AcDbArc
 50
90.2537186174
 51
158.3088491007
  0
ARC
  5
420
330
1F
100
AcDbEntity
  8
0
  6
CONTINUOUS
 62
     7
100
AcDbCircle
 10
818.9365560771
 20
339.7585370089
 30
0.0
 40
3.299741042325393
100
AcDbArc
 50
21.6911508934
 51
89.7462813826
  0
LINE
  5
421
330
1F
100
AcDbEntity
  8
0
  6
CONTINUOUS
 62
     7
100
AcDbLine
 10
822.6931158066
 20
343.0582456702
 30
0.0
 11
818.95116601
 21
343.0582456702
 31
0.0
  0
ARC
  5
422
330
1F
100
AcDbEntity
  8
0
  6
CONTINUOUS
 62
     7
100
AcDbCircle
 10
818.9365560771
 20
339.7585370089
 30
0.0
 40
4.999999999999985
100
AcDbArc
 50
7.4777813971
 51
41.2955923719
  0
LINE
  5
423
330
1F
100
AcDbEntity
  8
0
  6
CONTINUOUS
 62
     7
100
AcDbLine
 10
665.5365552366
 20
245.9585354143
 30
0.0
 11
584.336555338
 21
245.9585354143
 31
0.0
  0
LINE
  5
424
330
1F
100
AcDbEntity
  8
0
  6
CONTINUOUS
 62
     7
100
AcDbLine
 10
584.336555338
 20
245.9585354143
 30
0.0
 11
584.336555338
 21
241.958795529
 31
0.0
  0
LINE
  5
425
330
1F
100
AcDbEntity
  8
0
  6
CONTINUOUS
 62
     7
100
AcDbLine
 10
665.5365552366
 20
241.958795529
 30
0.0
 11
584.336555338
 21
241.958795529
 31
0.0
  0
LINE
  5
426
330
1F
100
AcDbEntity
  8
0
  6
CONTINUOUS
 62
     7
100
AcDbLine
 10
665.5365552366
 20
241.958795529
 30
0.0
 11
665.5365552366
 21
245.9585354143
 31
0.0
  0
LINE
  5
427
330
1F
100
AcDbEntity
  8
0
  6
CONTINUOUS
 62
     7
100
AcDbLine
 10
811.5365568162
 20
241.958795529
 30
0.0
 11
811.5365568162
 21
245.9585354143
 31
0.0
  0
LINE
  5
428
330
1F
100
AcDbEntity
  8
0
  6
CONTINUOUS
 62
     7
100
AcDbLine
 10
811.5365568162
 20
245.9585354143
 30
0.0
 11
730.3365569175
 21
245.9585354143
 31
0.0
  0
LINE
  5
429
330
1F
100
AcDbEntity
  8
0
  6
CONTINUOUS
 62
     7
100
AcDbLine
 10
730.3365569175
 20
245.9585354143
 30
0.0
 11
730.3365569175
 21
241.958795529
 31
0.0
  0
LINE
  5
42A
330
1F
100
AcDbEntity
  8
0
  6
CONTINUOUS
 62
     7
100
AcDbLine
 10
811.5365568162
 20
241.958795529
 30
0.0
 11
730.3365569175
 21
241.958795529
 31
0.0
  0
LINE
  5
42B
330
1F
100
AcDbEntity
  8
0
  6
CONTINUOUS
 62
     7
100
AcDbLine
 10
816.9365588189
 20
272.2499020809
 30
0.0
 11
816.9365588189
 21
318.7499031836
 31
0.0
  0
LINE
  5
42C
330
1F
100
AcDbEntity
  8
0
  6
CONTINUOUS
 62
     7
100
AcDbLine
 10
578.9365533353
 20
318.7499031836
 30
0.0
 11
578.9365533353
 21
272.2499020809
 31
0.0
  0
SPLINE
  5
42D
330
1F
100
AcDbEntity
  8
0
  6
CONTINUOUS
 62
     7
100
AcDbSpline
210
0.0
220
0.0
230
1.0
 70
     8
 71
     3
 72
    12
 73
     8
 74
     0
 42
0.00000001
 43
0.00000001
 40
0.0
 40
0.0
 40
0.0
 40
0.0
 40
0.2019867568038662
 40
0.4046912952497546
 40
0.5945616626248397
 40
0.7892139794689474
 40
0.9999999999999999
 40
0.9999999999999999
 40
0.9999999999999999
 40
0.9999999999999999
 10
578.9365533352591
 20
342.0022190028143
 30
0.0
 10
578.9291884019548
 20
342.0963639617576
 30
0.0
 10
578.9144323632643
 20
342.2849884338708
 30
0.0
 10
578.7754106617473
 20
342.571897460536
 30
0.0
 10
578.5561303063807
 20
342.8017326318804
 30
0.0
 10
578.2698637750561
 20
342.9641133170932
 30
0.0
 10
578.0505692442566
 20
342.9858745636724
 30
0.0
 10
577.9365587592818
 20
342.997188162179
 30
0.0
  0
LINE
  5
42E
330
1F
100
AcDbEntity
  8
0
  6
CONTINUOUS
 62
     7
100
AcDbLine
 10
578.9365533353
 20
341.2277236992
 30
0.0
 11
578.9365533353
 21
342.0535199755
 31
0.0
  0
SPLINE
  5
42F
330
1F
100
AcDbEntity
  8
0
  6
CONTINUOUS
 62
     7
100
AcDbSpline
210
0.0
220
0.0
230
1.0
 70
     8
 71
     3
 72
    12
 73
     8
 74
     0
 42
0.00000001
 43
0.00000001
 40
0.0
 40
0.0
 40
0.0
 40
0.0
 40
0.2075876888659624
 40
0.415228982010535
 40
0.6203852777692801
 40
0.8146591156429797
 40
0.9999999999999999
 40
0.9999999999999999
 40
0.9999999999999999
 40
0.9999999999999999
 10
577.9365587592818
 20
343.0582456701708
 30
0.0
 10
578.0488027676037
 20
343.047244630198
 30
0.0
 10
578.2733197684282
 20
343.0252397095116
 30
0.0
 10
578.5715582764143
 20
342.8538300626989
 30
0.0
 10
578.7917033705111
 20
342.6078617737095
 30
0.0
 10
578.9176666717435
 20
342.3210767594055
 30
0.0
 10
578.930357324674
 20
342.1412953871819
 30
0.0
 10
578.9365533352591
 20
342.0535199755144
 30
0.0
  0
LINE
  5
430
330
1F
100
AcDbEntity
  8
0
  6
CONTINUOUS
 62
     7
100
AcDbLine
 10
577.9365587593
 20
343.0582456702
 30
0.0
 11
576.9365567327
 21
343.0582456702
 31
0.0
  0
SPLINE
  5
431
330
1F
100
AcDbEntity
  8
0
  6
CONTINUOUS
 62
     7
100
AcDbSpline
210
0.0
220
0.0
230
1.0
 70
     8
 71
     3
 72
    12
 73
     8
 74
     0
 42
0.00000001
 43
0.00000001
 40
0.0
 40
0.0
 40
0.0
 40
0.0
 40
0.0030486877035835
 40
0.4717247571901618
 40
0.7727554019961174
 40
0.9896094429010158
 40
1.0
 40
1.0
 40
1.0
 40
1.0
 10
818.9365554214216
 20
344.7274588459444
 30
0.0
 10
818.9405960178067
 20
344.7274964905667
 30
0.0
 10
819.5657992311139
 20
344.7333212591422
 30
0.0
 10
820.6019558919592
 20
344.5506687287273
 30
0.0
 10
821.8460325442958
 20
343.8762467429021
 30
0.0
 10
822.4505347782681
 20
343.3322311676623
 30
0.0
 10
822.682523241685
 20
343.0701935782397
 30
0.0
 10
822.69313070781
 20
343.0582121425581
 30
0.0
  0
SPLINE
  5
432
330
1F
100
AcDbEntity
  8
0
  6
CONTINUOUS
 62
     7
100
AcDbSpline
210
0.0
220
0.0
230
1.0
 70
     8
 71
     3
 72
    12
 73
     8
 74
     0
 42
0.00000001
 43
0.00000001
 40
0.0
 40
0.0
 40
0.0
 40
0.0
 40
0.2019849237510239
 40
0.4046905450283604
 40
0.5945582594032179
 40
0.7892099366160595
 40
1.0
 40
1.0
 40
1.0
 40
1.0
 10
817.9365533948637
 20
342.0535199755144
 30
0.0
 10
817.943921555653
 20
342.1495578827703
 30
0.0
 10
817.9586841673878
 20
342.3419763678186
 30
0.0
 10
818.097703519697
 20
342.6317692057572
 30
0.0
 10
818.3169755951776
 20
342.8627422624311
 30
0.0
 10
818.6032458193084
 20
343.0252248468591
 30
0.0
 10
818.8225425585638
 20
343.0469504702251
 30
0.0
 10
818.9365554214216
 20
343.0582456701708
 30
0.0
  0
LINE
  5
433
330
1F
100
AcDbEntity
  8
0
  6
CONTINUOUS
 62
     7
100
AcDbLine
 10
817.9365533949
 20
341.2277236992
 30
0.0
 11
817.9365533949
 21
342.0535199755
 31
0.0
  0
SPLINE
  5
434
330
1F
100
AcDbEntity
  8
0
  6
CONTINUOUS
 62
     7
100
AcDbSpline
210
0.0
220
0.0
230
1.0
 70
     8
 71
     3
 72
    12
 73
     8
 74
     0
 42
0.00000001
 43
0.00000001
 40
0.0
 40
0.0
 40
0.0
 40
0.0
 40
0.2075871238977114
 40
0.4152317883987166
 40
0.6203843349194412
 40
0.8146598520833593
 40
1.0
 40
1.0
 40
1.0
 40
1.0
 10
818.9365554214216
 20
342.997188162179
 30
0.0
 10
818.8243118476146
 20
342.9861692054574
 30
0.0
 10
818.5997935874595
 20
342.9641282376946
 30
0.0
 10
818.3015485798614
 20
342.792828954917
 30
0.0
 10
818.0814131410864
 20
342.5481455312943
 30
0.0
 10
817.9554380325101
 20
342.2644423052401
 30
0.0
 10
817.9427487139562
 20
342.0882443246903
 30
0.0
 10
817.9365533948637
 20
342.0022190028143
 30
0.0
  0
SPLINE
  5
435
330
1F
100
AcDbEntity
  8
0
  6
CONTINUOUS
 62
     7
100
AcDbSpline
210
0.0
220
0.0
230
1.0
 70
     8
 71
     3
 72
    12
 73
     8
 74
     0
 42
0.00000001
 43
0.00000001
 40
0.0
 40
0.0
 40
0.0
 40
0.0
 40
0.2019869505231447
 40
0.4046910873721216
 40
0.5945579199181663
 40
0.7892098511183715
 40
1.0
 40
1.0
 40
1.0
 40
1.0
 10
797.9365575671889
 20
342.0022190028143
 30
0.0
 10
797.929189643485
 20
342.0963639970141
 30
0.0
 10
797.9144276351091
 20
342.2849882619711
 30
0.0
 10
797.775407280397
 20
342.5718946729945
 30
0.0
 10
797.5561344679569
 20
342.8017349324425
 30
0.0
 10
797.2698654040472
 20
342.9641142071836
 30
0.0
 10
797.0505684604865
 20
342.9858747910668
 30
0.0
 10
796.9365555406309
 20
342.997188162179
 30
0.0
  0
LINE
  5
436
330
1F
100
AcDbEntity
  8
0
  6
CONTINUOUS
 62
     7
100
AcDbLine
 10
797.9365575672
 20
341.2277236992
 30
0.0
 11
797.9365575672
 21
342.0535199755
 31
0.0
  0
SPLINE
  5
437
330
1F
100
AcDbEntity
  8
0
  6
CONTINUOUS
 62
     7
100
AcDbSpline
210
0.0
220
0.0
230
1.0
 70
     8
 71
     3
 72
    12
 73
     8
 74
     0
 42
0.00000001
 43
0.00000001
 40
0.0
 40
0.0
 40
0.0
 40
0.0
 40
0.2075871157177379
 40
0.4152318713206151
 40
0.6203845413273039
 40
0.8146596273679254
 40
1.0
 40
1.0
 40
1.0
 40
1.0
 10
796.9365555406309
 20
343.0582456701708
 30
0.0
 10
797.0487991238614
 20
343.0472440450634
 30
0.0
 10
797.2733174565498
 20
343.0252377400714
 30
0.0
 10
797.5715624253976
 20
342.8538352219981
 30
0.0
 10
797.7916975188658
 20
342.6078571447337
 30
0.0
 10
797.917673109489
 20
342.3210787363884
 30
0.0
 10
797.9303622998191
 20
342.1412957584935
 30
0.0
 10
797.9365575671889
 20
342.0535199755144
 30
0.0
  0
LINE
  5
438
330
1F
100
AcDbEntity
  8
0
  6
CONTINUOUS
 62
     7
100
AcDbLine
 10
796.9365555406
 20
343.0582456702
 30
0.0
 11
745.9365564943
 21
343.0582456702
 31
0.0
  0
SPLINE
  5
439
330
1F
100
AcDbEntity
  8
0
  6
CONTINUOUS
 62
     7
100
AcDbSpline
210
0.0
220
0.0
230
1.0
 70
     8
 71
     3
 72
    12
 73
     8
 74
     0
 42
0.00000001
 43
0.00000001
 40
0.0
 40
0.0
 40
0.0
 40
0.0
 40
0.2019844921316566
 40
0.4046909419003575
 40
0.594558529697049
 40
0.789210077142424
 40
1.0
 40
1.0
 40
1.0
 40
1.0
 10
744.9365544677473
 20
342.0535199755144
 30
0.0
 10
744.9439207418035
 20
342.1495580747293
 30
0.0
 10
744.9586796193522
 20
342.3419775442609
 30
0.0
 10
745.0977055554544
 20
342.6317683240309
 30
0.0
 10
745.3169763163583
 20
342.8627423960989
 30
0.0
 10
745.6032469896612
 20
343.0252248098152
 30
0.0
 10
745.822543664788
 20
343.0469504575537
 30
0.0
 10
745.9365564943053
 20
343.0582456701708
 30
0.0
  0
LINE
  5
43A
330
1F
100
AcDbEntity
  8
0
  6
CONTINUOUS
 62
     7
100
AcDbLine
 10
744.9365544677
 20
341.2277236992
 30
0.0
 11
744.9365544677
 21
342.0535199755
 31
0.0
  0
SPLINE
  5
43B
330
1F
100
AcDbEntity
  8
0
  6
CONTINUOUS
 62
     7
100
AcDbSpline
210
0.0
220
0.0
230
1.0
 70
     8
 71
     3
 72
    12
 73
     8
 74
     0
 42
0.00000001
 43
0.00000001
 40
0.0
 40
0.0
 40
0.0
 40
0.0
 40
0.2075893415932224
 40
0.4152319318573426
 40
0.6203859523447837
 40
0.8146596322295141
 40
1.0
 40
1.0
 40
1.0
 40
1.0
 10
745.9365564943053
 20
342.997188162179
 30
0.0
 10
745.824311387377
 20
342.9861696879794
 30
0.0
 10
745.5997923815663
 20
342.9641299132353
 30
0.0
 10
745.3015500413109
 20
342.7928262330002
 30
0.0
 10
745.0814079327432
 20
342.5481487164041
 30
0.0
 10
744.9554458630427
 20
342.2644402777938
 30
0.0
 10
744.9427520264461
 20
342.0882439744137
 30
0.0
 10
744.9365544677473
 20
342.0022190028143
 30
0.0
  0
SPLINE
  5
43C
330
1F
100
AcDbEntity
  8
0
  6
CONTINUOUS
 62
     7
100
AcDbSpline
210
0.0
220
0.0
230
1.0
 70
     8
 71
     3
 72
    12
 73
     8
 74
     0
 42
0.00000001
 43
0.00000001
 40
0.0
 40
0.0
 40
0.0
 40
0.0
 40
0.2019866862801199
 40
0.4046913377771174
 40
0.5945589907363545
 40
0.7892109534655012
 40
1.0
 40
1.0
 40
1.0
 40
1.0
 10
724.9365567774273
 20
342.0022190028143
 30
0.0
 10
724.9291905446942
 20
342.0963640833606
 30
0.0
 10
724.9144318958245
 20
342.2849888847924
 30
0.0
 10
724.7754079125306
 20
342.5718949331986
 30
0.0
 10
724.5561338716274
 20
342.8017344232713
 30
0.0
 10
724.2698652162904
 20
342.9641139663827
 30
0.0
 10
724.0505689079813
 20
342.9858747279653
 30
0.0
 10
723.9365566135145
 20
342.997188162179
 30
0.0
  0
LINE
  5
43D
330
1F
100
AcDbEntity
  8
0
  6
CONTINUOUS
 62
     7
100
AcDbLine
 10
724.9365567774
 20
341.2277236992
 30
0.0
 11
724.9365567774
 21
342.0535199755
 31
0.0
  0
SPLINE
  5
43E
330
1F
100
AcDbEntity
  8
0
  6
CONTINUOUS
 62
     7
100
AcDbSpline
210
0.0
220
0.0
230
1.0
 70
     8
 71
     3
 72
    12
 73
     8
 74
     0
 42
0.00000001
 43
0.00000001
 40
0.0
 40
0.0
 40
0.0
 40
0.0
 40
0.2075883678587742
 40
0.4152312207311921
 40
0.620385534158838
 40
0.8146593895098974
 40
1.0
 40
1.0
 40
1.0
 40
1.0
 10
723.9365566135145
 20
343.0582456701708
 30
0.0
 10
724.0488010695776
 20
343.0472444332531
 30
0.0
 10
724.2733194421246
 20
343.0252390719605
 30
0.0
 10
724.5715614620842
 20
342.8538325645359
 30
0.0
 10
724.791702390602
 20
342.607859908565
 30
0.0
 10
724.9176683894511
 20
342.3210772141793
 30
0.0
 10
724.9303602044512
 20
342.1412954890601
 30
0.0
 10
724.9365567774273
 20
342.0535199755144
 30
0.0
  0
LINE
  5
43F
330
1F
100
AcDbEntity
  8
0
  6
CONTINUOUS
 62
     7
100
AcDbLine
 10
723.9365566135
 20
343.0582456702
 30
0.0
 11
672.9365557045
 21
343.0582456702
 31
0.0
  0
SPLINE
  5
440
330
1F
100
AcDbEntity
  8
0
  6
CONTINUOUS
 62
     7
100
AcDbSpline
210
0.0
220
0.0
230
1.0
 70
     8
 71
     3
 72
    12
 73
     8
 74
     0
 42
0.00000001
 43
0.00000001
 40
0.0
 40
0.0
 40
0.0
 40
0.0
 40
0.2019845973259546
 40
0.4046901890363358
 40
0.5945594550328509
 40
0.7892111038534979
 40
1.0
 40
1.0
 40
1.0
 40
1.0
 10
671.9365555406309
 20
342.0535199755144
 30
0.0
 10
671.9439222061986
 20
342.1495578652116
 30
0.0
 10
671.9586818330248
 20
342.3419764567812
 30
0.0
 10
672.0977018590992
 20
342.6317706100201
 30
0.0
 10
672.3169777047376
 20
342.8627411040114
 30
0.0
 10
672.6032472142614
 20
343.0252247261228
 30
0.0
 10
672.8225434161727
 20
343.0469504481622
 30
0.0
 10
672.9365557045437
 20
343.0582456701708
 30
0.0
  0
LINE
  5
441
330
1F
100
AcDbEntity
  8
0
  6
CONTINUOUS
 62
     7
100
AcDbLine
 10
671.9365555406
 20
341.2277236992
 30
0.0
 11
671.9365555406
 21
342.0535199755
 31
0.0
  0
SPLINE
  5
442
330
1F
100
AcDbEntity
  8
0
  6
CONTINUOUS
 62
     7
100
AcDbSpline
210
0.0
220
0.0
230
1.0
 70
     8
 71
     3
 72
    12
 73
     8
 74
     0
 42
0.00000001
 43
0.00000001
 40
0.0
 40
0.0
 40
0.0
 40
0.0
 40
0.2075883760362555
 40
0.415231137807957
 40
0.6203853277474832
 40
0.8146596142262139
 40
1.0
 40
1.0
 40
1.0
 40
1.0
 10
672.9365557045437
 20
342.997188162179
 30
0.0
 10
672.8243112579039
 20
342.9861695924959
 30
0.0
 10
672.5997929578872
 20
342.9641295663929
 30
0.0
 10
672.3015508991803
 20
342.7928263098347
 30
0.0
 10
672.0814096253534
 20
342.5481482716541
 30
0.0
 10
671.9554441085522
 20
342.2644408035874
 30
0.0
 10
671.942752165328
 20
342.0882440574148
 30
0.0
 10
671.9365555406309
 20
342.0022190028143
 30
0.0
  0
SPLINE
  5
443
330
1F
100
AcDbEntity
  8
0
  6
CONTINUOUS
 62
     7
100
AcDbSpline
210
0.0
220
0.0
230
1.0
 70
     8
 71
     3
 72
    12
 73
     8
 74
     0
 42
0.00000001
 43
0.00000001
 40
0.0
 40
0.0
 40
0.0
 40
0.0
 40
0.2019868536548425
 40
0.4046911913062846
 40
0.5945597912615976
 40
0.7892119152876044
 40
1.0
 40
1.0
 40
1.0
 40
1.0
 10
651.9365559876658
 20
342.0022190028143
 30
0.0
 10
651.9291895591599
 20
342.096363979387
 30
0.0
 10
651.9144305356208
 20
342.2849883479304
 30
0.0
 10
651.775409507528
 20
342.5718960667631
 30
0.0
 10
651.5561329235982
 20
342.8017337821616
 30
0.0
 10
651.2698651259997
 20
342.9641137621437
 30
0.0
 10
651.0505693888153
 20
342.9858746773706
 30
0.0
 10
650.9365576863981
 20
342.997188162179
 30
0.0
  0
LINE
  5
444
330
1F
100
AcDbEntity
  8
0
  6
CONTINUOUS
 62
     7
100
AcDbLine
 10
651.9365559877
 20
341.2277236992
 30
0.0
 11
651.9365559877
 21
342.0535199755
 31
0.0
  0
SPLINE
  5
445
330
1F
100
AcDbEntity
  8
0
  6
CONTINUOUS
 62
     7
100
AcDbSpline
210
0.0
220
0.0
230
1.0
 70
     8
 71
     3
 72
    12
 73
     8
 74
     0
 42
0.00000001
 43
0.00000001
 40
0.0
 40
0.0
 40
0.0
 40
0.0
 40
0.2075874022960044
 40
0.4152304266736628
 40
0.6203849095511085
 40
0.8146593715017435
 40
1.0
 40
1.0
 40
1.0
 40
1.0
 10
650.9365576863981
 20
343.0582456701708
 30
0.0
 10
651.0488014821733
 20
343.047244337629
 30
0.0
 10
651.273319148928
 20
343.0252387247894
 30
0.0
 10
651.5715608873359
 20
342.8538326423473
 30
0.0
 10
651.7917009811189
 20
342.6078594592256
 30
0.0
 10
651.9176704270631
 20
342.3210777478871
 30
0.0
 10
651.9303603486904
 20
342.1412955728366
 30
0.0
 10
651.9365559876658
 20
342.0535199755144
 30
0.0
  0
LINE
  5
446
330
1F
100
AcDbEntity
  8
0
  6
CONTINUOUS
 62
     7
100
AcDbLine
 10
650.9365576864
 20
343.0582456702
 30
0.0
 11
599.9365586401
 21
343.0582456702
 31
0.0
  0
SPLINE
  5
447
330
1F
100
AcDbEntity
  8
0
  6
CONTINUOUS
 62
     7
100
AcDbSpline
210
0.0
220
0.0
230
1.0
 70
     8
 71
     3
 72
    12
 73
     8
 74
     0
 42
0.00000001
 43
0.00000001
 40
0.0
 40
0.0
 40
0.0
 40
0.0
 40
0.2019838118130343
 40
0.4046889132031097
 40
0.5945592992559595
 40
0.7892104772378145
 40
1.0
 40
1.0
 40
1.0
 40
1.0
 10
598.9365566135145
 20
342.0535199755144
 30
0.0
 10
598.9439217838069
 20
342.1495578474924
 30
0.0
 10
598.958678425611
 20
342.3419765452495
 30
0.0
 10
599.0976991262387
 20
342.6317720161449
 30
0.0
 10
599.3169787393007
 20
342.8627399390477
 30
0.0
 10
599.6032486376711
 20
343.0252252518246
 30
0.0
 10
599.8225456402909
 20
343.0469506087487
 30
0.0
 10
599.9365586400725
 20
343.0582456701708
 30
0.0
  0
LINE
  5
448
330
1F
100
AcDbEntity
  8
0
  6
CONTINUOUS
 62
     7
100
AcDbLine
 10
598.9365566135
 20
341.2277236992
 30
0.0
 11
598.9365566135
 21
342.0535199755
 31
0.0
  0
SPLINE
  5
449
330
1F
100
AcDbEntity
  8
0
  6
CONTINUOUS
 62
     7
100
AcDbSpline
210
0.0
220
0.0
230
1.0
 70
     8
 71
     3
 72
    12
 73
     8
 74
     0
 42
0.00000001
 43
0.00000001
 40
0.0
 40
0.0
 40
0.0
 40
0.0
 40
0.2075913009924842
 40
0.4152315586701802
 40
0.6203867978733754
 40
0.8146601833031782
 40
1.0
 40
1.0
 40
1.0
 40
1.0
 10
599.9365586400725
 20
342.997188162179
 30
0.0
 10
599.8243120723932
 20
342.9861701460757
 30
0.0
 10
599.599792465695
 20
342.9641315154677
 30
0.0
 10
599.3015517110673
 20
342.7928238030121
 30
0.0
 10
599.0814062772816
 20
342.5481501263518
 30
0.0
 10
598.9554434567121
 20
342.2644403526468
 30
0.0
 10
598.9427526757349
 20
342.0882439558505
 30
0.0
 10
598.9365566135145
 20
342.0022190028143
 30
0.0
  0
SPLINE
  5
44A
330
1F
100
AcDbEntity
  8
0
  6
CONTINUOUS
 62
     7
100
AcDbSpline
210
0.0
220
0.0
230
1.0
 70
     8
 71
     3
 72
    12
 73
     8
 74
     0
 42
0.00000001
 43
0.00000001
 40
0.0
 40
0.0
 40
0.0
 40
0.0
 40
0.1658759619165178
 40
0.4641964766663783
 40
0.8914517152628215
 40
0.9969533275834772
 40
1.0
 40
1.0
 40
1.0
 40
1.0
 10
573.1799814463354
 20
343.0582121425581
 30
0.0
 10
573.3578745301342
 20
343.241770329407
 30
0.0
 10
573.8557003860849
 20
343.7554497234197
 30
0.0
 10
574.9776605858268
 20
344.4277569167385
 30
0.0
 10
576.077887820632
 20
344.7046057257693
 30
0.0
 10
576.7885522202245
 20
344.7288380008762
 30
0.0
 10
576.9325160370038
 20
344.7274964984817
 30
0.0
 10
576.9365567327238
 20
344.7274588459444
 30
0.0
  0
LINE
  5
44B
330
1F
100
AcDbEntity
  8
0
  6
CONTINUOUS
 62
     7
100
AcDbLine
 10
576.9365567327
 20
342.9481596166
 30
0.0
 11
576.9365567327
 21
343.0582456702
 31
0.0
  0
LINE
  5
44C
330
1F
100
AcDbEntity
  8
0
  6
CONTINUOUS
 62
     7
100
AcDbLine
 10
576.9219461442
 20
343.0582456702
 30
0.0
 11
576.9365567327
 21
343.0582456702
 31
0.0
  0
LINE
  5
44D
330
1F
100
AcDbEntity
  8
0
  6
CONTINUOUS
 62
     7
100
AcDbLine
 10
818.9365554214
 20
342.9971881622
 30
0.0
 11
818.9365554214
 21
343.0582456702
 31
0.0
  0
LINE
  5
44E
330
1F
100
AcDbEntity
  8
0
  6
CONTINUOUS
 62
     7
100
AcDbLine
 10
818.9365554214
 20
342.9481596166
 30
0.0
 11
818.9365554214
 21
342.9971881622
 31
0.0
  0
LINE
  5
44F
330
1F
100
AcDbEntity
  8
0
  6
CONTINUOUS
 62
     7
100
AcDbLine
 10
818.9365554214
 20
343.0582456702
 30
0.0
 11
818.95116601
 21
343.0582456702
 31
0.0
  0
LINE
  5
450
330
1F
100
AcDbEntity
  8
0
  6
CONTINUOUS
 62
     7
100
AcDbLine
 10
573.7469333769
 20
245.2585384661
 30
0.0
 11
573.7469333769
 21
248.5347897225
 31
0.0
  0
LINE
  5
451
330
1F
100
AcDbEntity
  8
0
  6
CONTINUOUS
 62
     7
100
AcDbLine
 10
573.7469333769
 20
245.2585384661
 30
0.0
 11
573.6368137956
 21
245.2585384661
 31
0.0
  0
ARC
  5
452
330
1F
100
AcDbEntity
  8
0
  6
CONTINUOUS
 62
     7
100
AcDbCircle
 10
576.9365560771
 20
245.2585370089
 30
0.0
 40
3.189621816833892
100
AcDbArc
 50
180.0
 51
270.0
  0
LINE
  5
453
330
1F
100
AcDbEntity
  8
0
  6
CONTINUOUS
 62
     7
100
AcDbLine
 10
576.9365567327
 20
242.0689151102
 30
0.0
 11
576.9365567327
 21
241.958795529
 31
0.0
  0
LINE
  5
454
330
1F
100
AcDbEntity
  8
0
  6
CONTINUOUS
 62
     7
100
AcDbLine
 10
577.9365587593
 20
342.9971881622
 30
0.0
 11
577.9365587593
 21
343.0582456702
 31
0.0
  0
LINE
  5
455
330
1F
100
AcDbEntity
  8
0
  6
CONTINUOUS
 62
     7
100
AcDbLine
 10
582.4365529776
 20
242.0689151102
 30
0.0
 11
576.9365567327
 21
242.0689151102
 31
0.0
  0
LINE
  5
456
330
1F
100
AcDbEntity
  8
0
  6
CONTINUOUS
 62
     7
100
AcDbLine
 10
579.1390973688
 20
318.7499031836
 30
0.0
 11
579.1390973688
 21
272.2499020809
 31
0.0
  0
LINE
  5
457
330
1F
100
AcDbEntity
  8
0
  6
CONTINUOUS
 62
     7
100
AcDbLine
 10
665.5365552366
 20
242.0774907285
 30
0.0
 11
584.336555338
 21
242.0774907285
 31
0.0
  0
LINE
  5
458
330
1F
100
AcDbEntity
  8
0
  6
CONTINUOUS
 62
     7
100
AcDbLine
 10
599.9365586401
 20
343.0582456702
 30
0.0
 11
599.9365586401
 21
342.9971881622
 31
0.0
  0
LINE
  5
459
330
1F
100
AcDbEntity
  8
0
  6
CONTINUOUS
 62
     7
100
AcDbLine
 10
650.9365576864
 20
342.9971881622
 30
0.0
 11
650.9365576864
 21
343.0582456702
 31
0.0
  0
LINE
  5
45A
330
1F
100
AcDbEntity
  8
0
  6
CONTINUOUS
 62
     7
100
AcDbLine
 10
672.9365557045
 20
343.0582456702
 30
0.0
 11
672.9365557045
 21
342.9971881622
 31
0.0
  0
LINE
  5
45B
330
1F
100
AcDbEntity
  8
0
  6
CONTINUOUS
 62
     7
100
AcDbLine
 10
723.9365566135
 20
342.9971881622
 30
0.0
 11
723.9365566135
 21
343.0582456702
 31
0.0
  0
LINE
  5
45C
330
1F
100
AcDbEntity
  8
0
  6
CONTINUOUS
 62
     7
100
AcDbLine
 10
811.5365568162
 20
242.0774907285
 30
0.0
 11
730.3365569175
 21
242.0774907285
 31
0.0
  0
LINE
  5
45D
330
1F
100
AcDbEntity
  8
0
  6
CONTINUOUS
 62
     7
100
AcDbLine
 10
745.9365564943
 20
343.0582456702
 30
0.0
 11
745.9365564943
 21
342.9971881622
 31
0.0
  0
LINE
  5
45E
330
1F
100
AcDbEntity
  8
0
  6
CONTINUOUS
 62
     7
100
AcDbLine
 10
796.9365555406
 20
342.9971881622
 30
0.0
 11
796.9365555406
 21
343.0582456702
 31
0.0
  0
LINE
  5
45F
330
1F
100
AcDbEntity
  8
0
  6
CONTINUOUS
 62
     7
100
AcDbLine
 10
818.9365554214
 20
242.0689151102
 30
0.0
 11
813.4365591765
 21
242.0689151102
 31
0.0
  0
LINE
  5
460
330
1F
100
AcDbEntity
  8
0
  6
CONTINUOUS
 62
     7
100
AcDbLine
 10
818.9365554214
 20
242.0689151102
 30
0.0
 11
818.9365554214
 21
241.958795529
 31
0.0
  0
LINE
  5
461
330
1F
100
AcDbEntity
  8
0
  6
CONTINUOUS
 62
     7
100
AcDbLine
 10
816.7340147854
 20
272.2499020809
 30
0.0
 11
816.7340147854
 21
318.7499031836
 31
0.0
  0
ARC
  5
462
330
1F
100
AcDbEntity
  8
0
  6
CONTINUOUS
 62
     7
100
AcDbCircle
 10
818.9365560771
 20
245.2585370089
 30
0.0
 40
3.189621816833835
100
AcDbArc
 50
270.0
 51
0.0
  0
LINE
  5
463
330
1F
100
AcDbEntity
  8
0
  6
CONTINUOUS
 62
     7
100
AcDbLine
 10
822.1261787773
 20
245.2585384661
 30
0.0
 11
822.2362983585
 21
245.2585384661
 31
0.0
  0
LINE
  5
464
330
1F
100
AcDbEntity
  8
0
  6
CONTINUOUS
 62
     7
100
AcDbLine
 10
822.1261787773
 20
248.5347897225
 30
0.0
 11
822.1261787773
 21
245.2585384661
 31
0.0
  0
LWPOLYLINE
  5
465
330
1F
100
AcDbEntity
  8
0
  6
CONTINUOUS
 62
     7
100
AcDbPolyline
 90
        3
 70
   128
 43
0.0
 10
634.4711619974
 20
247.7585360819
 10
633.4141108752
 20
248.0759233647
 10
632.74328295
 20
248.4999023789
  0
LWPOLYLINE
  5
466
330
1F
100
AcDbEntity
  8
0
  6
CONTINUOUS
 62
     7
100
AcDbPolyline
 90
        3
 70
   128
 43
0.0
 10
637.1298271776
 20
248.4999023789
 10
636.4589992524
 20
248.0759233647
 10
635.4019481302
 20
247.7585360819
  0
ARC
  5
467
330
1F
100
AcDbEntity
  8
0
  6
CONTINUOUS
 62
     7
100
AcDbCircle
 10
634.9365560771
 20
251.2274575377
 30
0.0
 40
3.405713922372318
100
AcDbArc
 50
233.2138363495
 51
306.7861636505
  0
LINE
  5
468
330
1F
100
AcDbEntity
  8
0
  6
CONTINUOUS
 62
     7
100
AcDbLine
 10
630.8086800934
 20
248.4999023789
 30
0.0
 11
631.4087349535
 21
247.7585360819
 31
0.0
  0
LINE
  5
469
330
1F
100
AcDbEntity
  8
0
  6
CONTINUOUS
 62
     7
100
AcDbLine
 10
638.4643788994
 20
247.7585360819
 30
0.0
 11
639.0644337595
 21
248.4999023789
 31
0.0
  0
LINE
  5
46A
330
1F
100
AcDbEntity
  8
0
  6
CONTINUOUS
 62
     7
100
AcDbLine
 10
630.7460356117
 20
248.4999023789
 30
0.0
 11
631.3356373072
 21
247.7585360819
 31
0.0
  0
LINE
  5
46B
330
1F
100
AcDbEntity
  8
0
  6
CONTINUOUS
 62
     7
100
AcDbLine
 10
638.5374728204
 20
247.7585360819
 30
0.0
 11
639.1270745159
 21
248.4999023789
 31
0.0
  0
LINE
  5
46C
330
1F
100
AcDbEntity
  8
0
  6
CONTINUOUS
 62
     7
100
AcDbLine
 10
728.4365564198
 20
240.2795128935
 30
0.0
 11
667.4365557343
 21
240.2795128935
 31
0.0
  0
ARC
  5
46D
330
1F
100
AcDbEntity
  8
0
  6
CONTINUOUS
 62
     7
100
AcDbCircle
 10
667.8116177818
 20
249.2718835471
 30
0.0
 40
8.947101585781924
100
AcDbArc
 50
267.5974598036
 51
270.8001147678
  0
LINE
  5
46E
330
1F
100
AcDbEntity
  8
0
  6
CONTINUOUS
 62
     7
100
AcDbLine
 10
727.9365554065
 20
240.3256543392
 30
0.0
 11
667.9365567476
 21
240.3256543392
 31
0.0
  0
ARC
  5
46F
330
1F
100
AcDbEntity
  8
0
  6
CONTINUOUS
 62
     7
100
AcDbCircle
 10
728.0614943724
 20
249.2718835471
 30
0.0
 40
8.947101585781928
100
AcDbArc
 50
269.1998852322
 51
272.4025401964
  0
LINE
  5
470
330
1F
100
AcDbEntity
  8
0
  6
CONTINUOUS
 62
     7
100
AcDbLine
 10
573.7469333769
 20
245.2585384661
 30
0.0
 11
574.2468598843
 21
245.2585384661
 31
0.0
  0
LINE
  5
471
330
1F
100
AcDbEntity
  8
0
  6
CONTINUOUS
 62
     7
100
AcDbLine
 10
821.6262522698
 20
245.2585384661
 30
0.0
 11
822.1261787773
 21
245.2585384661
 31
0.0
  0
LINE
  5
472
330
1F
100
AcDbEntity
  8
0
  6
CONTINUOUS
 62
     7
100
AcDbLine
 10
576.9365567327
 20
342.4482368344
 30
0.0
 11
576.9365567327
 21
342.9481596166
 31
0.0
  0
ARC
  5
473
330
1F
100
AcDbEntity
  8
0
  6
CONTINUOUS
 62
     7
100
AcDbCircle
 10
576.9365560771
 20
245.2585370089
 30
0.0
 40
2.68969796925569
100
AcDbArc
 50
180.0
 51
270.0
  0
LINE
  5
474
330
1F
100
AcDbEntity
  8
0
  6
CONTINUOUS
 62
     7
100
AcDbLine
 10
576.9365567327
 20
242.0689151102
 30
0.0
 11
576.9365567327
 21
242.5688378924
 31
0.0
  0
LINE
  5
475
330
1F
100
AcDbEntity
  8
0
  6
CONTINUOUS
 62
     7
100
AcDbLine
 10
576.9365567327
 20
242.5688378924
 30
0.0
 11
582.4365529776
 21
242.5688378924
 31
0.0
  0
LINE
  5
476
330
1F
100
AcDbEntity
  8
0
  6
CONTINUOUS
 62
     7
100
AcDbLine
 10
813.4365591765
 20
242.5688378924
 30
0.0
 11
818.9365554214
 21
242.5688378924
 31
0.0
  0
LINE
  5
477
330
1F
100
AcDbEntity
  8
0
  6
CONTINUOUS
 62
     7
100
AcDbLine
 10
818.9365554214
 20
242.5688378924
 30
0.0
 11
818.9365554214
 21
242.0689151102
 31
0.0
  0
LINE
  5
478
330
1F
100
AcDbEntity
  8
0
  6
CONTINUOUS
 62
     7
100
AcDbLine
 10
818.9365554214
 20
342.9481596166
 30
0.0
 11
818.9365554214
 21
342.4482368344
 31
0.0
  0
ARC
  5
479
330
1F
100
AcDbEntity
  8
0
  6
CONTINUOUS
 62
     7
100
AcDbCircle
 10
818.9365560771
 20
245.2585370089
 30
0.0
 40
2.68969796925569
100
AcDbArc
 50
270.0
 51
0.0
  0
LINE
  5
47A
330
1F
100
AcDbEntity
  8
0
  6
CONTINUOUS
 62
     7
100
AcDbLine
 10
816.3865569592
 20
340.999903571
 30
0.0
 11
816.3865569592
 21
341.2277236992
 31
0.0
  0
LINE
  5
47B
330
1F
100
AcDbEntity
  8
0
  6
CONTINUOUS
 62
     7
100
AcDbLine
 10
799.4865540028
 20
341.2277236992
 30
0.0
 11
799.4865540028
 21
340.999903571
 31
0.0
  0
LINE
  5
47C
330
1F
100
AcDbEntity
  8
0
  6
CONTINUOUS
 62
     7
100
AcDbLine
 10
743.2365554929
 20
340.999903571
 30
0.0
 11
743.2365554929
 21
341.2277236992
 31
0.0
  0
LINE
  5
47D
330
1F
100
AcDbEntity
  8
0
  6
CONTINUOUS
 62
     7
100
AcDbLine
 10
726.3365562618
 20
341.2277236992
 30
0.0
 11
726.3365562618
 21
340.999903571
 31
0.0
  0
LINE
  5
47E
330
1F
100
AcDbEntity
  8
0
  6
CONTINUOUS
 62
     7
100
AcDbLine
 10
669.5365558923
 20
340.999903571
 30
0.0
 11
669.5365558923
 21
341.2277236992
 31
0.0
  0
LINE
  5
47F
330
1F
100
AcDbEntity
  8
0
  6
CONTINUOUS
 62
     7
100
AcDbLine
 10
652.6365566612
 20
341.2277236992
 30
0.0
 11
652.6365566612
 21
340.999903571
 31
0.0
  0
LINE
  5
480
330
1F
100
AcDbEntity
  8
0
  6
CONTINUOUS
 62
     7
100
AcDbLine
 10
596.3865581513
 20
340.999903571
 30
0.0
 11
596.3865581513
 21
341.2277236992
 31
0.0
  0
LINE
  5
481
330
1F
100
AcDbEntity
  8
0
  6
CONTINUOUS
 62
     7
100
AcDbLine
 10
579.4865551949
 20
341.2277236992
 30
0.0
 11
579.4865551949
 21
340.999903571
 31
0.0
  0
LINE
  5
482
330
1F
100
AcDbEntity
  8
0
  6
CONTINUOUS
 62
     7
100
AcDbLine
 10
667.4365557343
 20
244.8585354203
 30
0.0
 11
728.4365564198
 21
244.8585354203
 31
0.0
  0
ARC
  5
483
330
1F
100
AcDbEntity
  8
0
  6
CONTINUOUS
 62
     7
100
AcDbCircle
 10
667.8116177818
 20
250.7717375753
 30
0.0
 40
8.947101585781924
100
AcDbArc
 50
267.5974598036
 51
270.8001147678
  0
LINE
  5
484
330
1F
100
AcDbEntity
  8
0
  6
CONTINUOUS
 62
     7
100
AcDbLine
 10
667.9365567476
 20
241.8255083674
 30
0.0
 11
667.9365567476
 21
240.3256543392
 31
0.0
  0
LINE
  5
485
330
1F
100
AcDbEntity
  8
0
  6
CONTINUOUS
 62
     7
100
AcDbLine
 10
727.9365554065
 20
240.3256543392
 30
0.0
 11
727.9365554065
 21
241.8255083674
 31
0.0
  0
ARC
  5
486
330
1F
100
AcDbEntity
  8
0
  6
CONTINUOUS
 62
     7
100
AcDbCircle
 10
728.0614943724
 20
250.7717375753
 30
0.0
 40
8.947101585781928
100
AcDbArc
 50
269.1998852322
 51
272.4025401964
  0
LINE
  5
487
330
1F
100
AcDbEntity
  8
0
  6
CONTINUOUS
 62
     7
100
AcDbLine
 10
727.9365554065
 20
241.8255083674
 30
0.0
 11
667.9365567476
 21
241.8255083674
 31
0.0
  0
LINE
  5
488
330
1F
100
AcDbEntity
  8
0
  6
CONTINUOUS
 62
     7
100
AcDbLine
 10
667.4365557343
 20
240.2585357839
 30
0.0
 11
728.4365564198
 21
240.2585357839
 31
0.0
  0
LINE
  5
489
330
1F
100
AcDbEntity
  8
0
  6
CONTINUOUS
 62
     7
100
AcDbLine
 10
815.3865549327
 20
327.1499038154
 30
0.0
 11
580.4865572215
 21
327.1499038154
 31
0.0
  0
ARC
  5
48A
330
1F
100
AcDbEntity
  8
0
  6
CONTINUOUS
 62
     7
100
AcDbCircle
 10
580.4865514935
 20
321.8499092334
 30
0.0
 40
5.299994581949844
100
AcDbArc
 50
89.9999380773
 51
180.0000619227
  0
LINE
  5
48B
330
1F
100
AcDbEntity
  8
0
  6
CONTINUOUS
 62
     7
100
AcDbLine
 10
575.1865569115
 20
321.8499035054
 30
0.0
 11
575.1865569115
 21
269.1499036216
 31
0.0
  0
ARC
  5
48C
330
1F
100
AcDbEntity
  8
0
  6
CONTINUOUS
 62
     7
100
AcDbCircle
 10
580.4865507184
 20
269.1498971186
 30
0.0
 40
5.29999380690948
100
AcDbArc
 50
179.9999296987
 51
270.0000703013
  0
LINE
  5
48D
330
1F
100
AcDbEntity
  8
0
  6
CONTINUOUS
 62
     7
100
AcDbLine
 10
580.4865572215
 20
263.8499033117
 30
0.0
 11
815.3865549327
 21
263.8499033117
 31
0.0
  0
ARC
  5
48E
330
1F
100
AcDbEntity
  8
0
  6
CONTINUOUS
 62
     7
100
AcDbCircle
 10
815.3865614357
 20
269.1498971186
 30
0.0
 40
5.299993806909594
100
AcDbArc
 50
269.9999296987
 51
0.0000703013
  0
LINE
  5
48F
330
1F
100
AcDbEntity
  8
0
  6
CONTINUOUS
 62
     7
100
AcDbLine
 10
820.6865552426
 20
269.1499036216
 30
0.0
 11
820.6865552426
 21
321.8499035054
 31
0.0
  0
ARC
  5
490
330
1F
100
AcDbEntity
  8
0
  6
CONTINUOUS
 62
     7
100
AcDbCircle
 10
815.3865606607
 20
321.8499092334
 30
0.0
 40
5.299994581949844
100
AcDbArc
 50
359.9999380773
 51
90.0000619227
  0
SPLINE
  5
491
330
1F
100
AcDbEntity
  8
0
  6
CONTINUOUS
 62
     7
100
AcDbSpline
210
0.0
220
0.0
230
1.0
 70
     8
 71
     3
 72
    11
 73
     7
 74
     0
 42
0.00000001
 43
0.00000001
 40
0.9861280056577949
 40
0.9861280056577949
 40
0.9861280056577949
 40
0.9861280056577949
 40
0.9895960042433462
 40
0.9930640028288975
 40
0.9965320014144488
 40
1.0
 40
1.0
 40
1.0
 40
1.0
 10
815.4865560755917
 20
262.5999029749345
 30
0.0
 10
816.1941015754413
 20
262.5999029755138
 30
0.0
 10
817.6214324635366
 20
262.8766425700836
 30
0.0
 10
819.4622792617057
 20
264.0925857491115
 30
0.0
 10
820.6993817126247
 20
265.932413529111
 30
0.0
 10
820.9865560770727
 20
267.3793311291727
 30
0.0
 10
820.9865560770727
 20
268.0999029789839
 30
0.0
  0
LINE
  5
492
330
1F
100
AcDbEntity
  8
0
  6
CONTINUOUS
 62
     7
100
AcDbLine
 10
580.3865555287
 20
262.5999026411
 30
0.0
 11
815.4865566254
 21
262.5999026411
 31
0.0
  0
SPLINE
  5
493
330
1F
100
AcDbEntity
  8
0
  6
CONTINUOUS
 62
     7
100
AcDbSpline
210
0.0
220
0.0
230
1.0
 70
     8
 71
     3
 72
    11
 73
     7
 74
     0
 42
0.00000001
 43
0.00000001
 40
0.587902579684449
 40
0.587902579684449
 40
0.587902579684449
 40
0.587902579684449
 40
0.5913705782700003
 40
0.5948385768555515
 40
0.598306575441103
 40
0.6017745740266542
 40
0.6017745740266542
 40
0.6017745740266542
 40
0.6017745740266542
 10
574.8865560770702
 20
268.0999029762813
 30
0.0
 10
574.8865560776069
 20
267.379331126459
 30
0.0
 10
575.1737304422888
 20
265.9324135279547
 30
0.0
 10
576.4108328924383
 20
264.0925857491006
 30
0.0
 10
578.2516796906077
 20
262.8766425700724
 30
0.0
 10
579.6790105787039
 20
262.5999029755026
 30
0.0
 10
580.3865560785536
 20
262.5999029749234
 30
0.0
  0
LINE
  5
494
330
1F
100
AcDbEntity
  8
0
  6
CONTINUOUS
 62
     7
100
AcDbLine
 10
574.8865592838
 20
322.8999026531
 30
0.0
 11
574.8865592838
 21
268.0999026113
 31
0.0
  0
SPLINE
  5
495
330
1F
100
AcDbEntity
  8
0
  6
CONTINUOUS
 62
     7
100
AcDbSpline
210
0.0
220
0.0
230
1.0
 70
     8
 71
     3
 72
    11
 73
     7
 74
     0
 42
0.00000001
 43
0.00000001
 40
0.4861280056577948
 40
0.4861280056577948
 40
0.4861280056577948
 40
0.4861280056577948
 40
0.4895960042433462
 40
0.4930640028288974
 40
0.4965320014144487
 40
0.5
 40
0.5
 40
0.5
 40
0.5
 10
580.3865560785539
 20
328.3999029749346
 30
0.0
 10
579.6790105787042
 20
328.3999029743553
 30
0.0
 10
578.2516796906087
 20
328.1231633797854
 30
0.0
 10
576.4108328924401
 20
326.9072202007576
 30
0.0
 10
575.1737304422934
 20
325.067392421907
 30
0.0
 10
574.8865560776107
 20
323.6204748234069
 30
0.0
 10
574.8865560770728
 20
322.8999029735849
 30
0.0
  0
LINE
  5
496
330
1F
100
AcDbEntity
  8
0
  6
CONTINUOUS
 62
     7
100
AcDbLine
 10
815.4865566254
 20
328.3999026233
 30
0.0
 11
580.3865555287
 21
328.3999026233
 31
0.0
  0
SPLINE
  5
497
330
1F
100
AcDbEntity
  8
0
  6
CONTINUOUS
 62
     7
100
AcDbSpline
210
0.0
220
0.0
230
1.0
 70
     8
 71
     3
 72
    11
 73
     7
 74
     0
 42
0.00000001
 43
0.00000001
 40
0.0879025796844491
 40
0.0879025796844491
 40
0.0879025796844491
 40
0.0879025796844491
 40
0.0913705782700004
 40
0.0948385768555517
 40
0.098306575441103
 40
0.1017745740266542
 40
0.1017745740266542
 40
0.1017745740266542
 40
0.1017745740266542
 10
820.9865560770754
 20
322.8999029735879
 30
0.0
 10
820.9865560765387
 20
323.6204748234102
 30
0.0
 10
820.6993817118564
 20
325.0673924219143
 30
0.0
 10
819.4622792617075
 20
326.9072202007685
 30
0.0
 10
817.6214324635375
 20
328.1231633797967
 30
0.0
 10
816.1941015754416
 20
328.3999029743665
 30
0.0
 10
815.4865560755919
 20
328.3999029749456
 30
0.0
  0
LINE
  5
498
330
1F
100
AcDbEntity
  8
0
  6
CONTINUOUS
 62
     7
100
AcDbLine
 10
820.9865528703
 20
268.0999026113
 30
0.0
 11
820.9865528703
 21
322.8999026531
 31
0.0
  0
LINE
  5
499
330
1F
100
AcDbEntity
  8
0
  6
CONTINUOUS
 62
     7
100
AcDbLine
 10
576.8865558863
 20
318.7499031836
 30
0.0
 11
576.8865558863
 21
272.2499020809
 31
0.0
  0
LINE
  5
49A
330
1F
100
AcDbEntity
  8
0
  6
CONTINUOUS
 62
     7
100
AcDbLine
 10
576.8865558863
 20
272.2499020809
 30
0.0
 11
818.9865562678
 21
272.2499020809
 31
0.0
  0
LINE
  5
49B
330
1F
100
AcDbEntity
  8
0
  6
CONTINUOUS
 62
     7
100
AcDbLine
 10
818.9865562678
 20
272.2499020809
 30
0.0
 11
818.9865562678
 21
318.7499031836
 31
0.0
  0
LINE
  5
49C
330
1F
100
AcDbEntity
  8
0
  6
CONTINUOUS
 62
     7
100
AcDbLine
 10
818.9865562678
 20
318.7499031836
 30
0.0
 11
576.8865558863
 21
318.7499031836
 31
0.0
  0
CIRCLE
  5
49D
330
1F
100
AcDbEntity
  8
0
  6
CONTINUOUS
 62
     7
100
AcDbCircle
 10
634.9365560771
 20
251.2499029749
 30
0.0
 40
1.600000000000136
  0
LINE
  5
49E
330
1F
100
AcDbEntity
  8
0
  6
CONTINUOUS
 62
     7
100
AcDbLine
 10
569.3365547419
 20
253.4999013358
 30
0.0
 11
569.3365547419
 21
335.9999046141
 31
0.0
  0
ARC
  5
49F
330
1F
100
AcDbEntity
  8
0
  6
CONTINUOUS
 62
     7
100
AcDbCircle
 10
574.3365560771
 20
335.9999029749
 30
0.0
 40
5.000000000000057
100
AcDbArc
 50
90.0
 51
180.0
  0
LINE
  5
4A0
330
1F
100
AcDbEntity
  8
0
  6
CONTINUOUS
 62
     7
100
AcDbLine
 10
574.3365574241
 20
340.999903571
 30
0.0
 11
580.7619530321
 21
340.999903571
 31
0.0
  0
LINE
  5
4A1
330
1F
100
AcDbEntity
  8
0
  6
CONTINUOUS
 62
     7
100
AcDbLine
 10
586.4000532389
 20
340.999903571
 30
0.0
 11
580.7619530321
 21
340.999903571
 31
0.0
  0
LINE
  5
4A2
330
1F
100
AcDbEntity
  8
0
  6
CONTINUOUS
 62
     7
100
AcDbLine
 10
586.4000532389
 20
340.999903571
 30
0.0
 11
590.4730621339
 21
340.999903571
 31
0.0
  0
LINE
  5
4A3
330
1F
100
AcDbEntity
  8
0
  6
CONTINUOUS
 62
     7
100
AcDbLine
 10
596.1111623407
 20
340.999903571
 30
0.0
 11
590.4730621339
 21
340.999903571
 31
0.0
  0
LINE
  5
4A4
330
1F
100
AcDbEntity
  8
0
  6
CONTINUOUS
 62
     7
100
AcDbLine
 10
596.1111623407
 20
340.999903571
 30
0.0
 11
653.7619519592
 21
340.999903571
 31
0.0
  0
LINE
  5
4A5
330
1F
100
AcDbEntity
  8
0
  6
CONTINUOUS
 62
     7
100
AcDbLine
 10
659.4000521661
 20
340.999903571
 30
0.0
 11
653.7619519592
 21
340.999903571
 31
0.0
  0
LINE
  5
4A6
330
1F
100
AcDbEntity
  8
0
  6
CONTINUOUS
 62
     7
100
AcDbLine
 10
659.4000521661
 20
340.999903571
 30
0.0
 11
663.473061061
 21
340.999903571
 31
0.0
  0
LINE
  5
4A7
330
1F
100
AcDbEntity
  8
0
  6
CONTINUOUS
 62
     7
100
AcDbLine
 10
669.1111594052
 20
340.999903571
 30
0.0
 11
663.473061061
 21
340.999903571
 31
0.0
  0
LINE
  5
4A8
330
1F
100
AcDbEntity
  8
0
  6
CONTINUOUS
 62
     7
100
AcDbLine
 10
669.1111594052
 20
340.999903571
 30
0.0
 11
726.761952749
 21
340.999903571
 31
0.0
  0
LINE
  5
4A9
330
1F
100
AcDbEntity
  8
0
  6
CONTINUOUS
 62
     7
100
AcDbLine
 10
732.4000510932
 20
340.999903571
 30
0.0
 11
726.761952749
 21
340.999903571
 31
0.0
  0
LINE
  5
4AA
330
1F
100
AcDbEntity
  8
0
  6
CONTINUOUS
 62
     7
100
AcDbLine
 10
732.4000510932
 20
340.999903571
 30
0.0
 11
736.4730599881
 21
340.999903571
 31
0.0
  0
LINE
  5
4AB
330
1F
100
AcDbEntity
  8
0
  6
CONTINUOUS
 62
     7
100
AcDbLine
 10
742.1111601949
 20
340.999903571
 30
0.0
 11
736.4730599881
 21
340.999903571
 31
0.0
  0
LINE
  5
4AC
330
1F
100
AcDbEntity
  8
0
  6
CONTINUOUS
 62
     7
100
AcDbLine
 10
742.1111601949
 20
340.999903571
 30
0.0
 11
799.7619498134
 21
340.999903571
 31
0.0
  0
LINE
  5
4AD
330
1F
100
AcDbEntity
  8
0
  6
CONTINUOUS
 62
     7
100
AcDbLine
 10
805.4000500203
 20
340.999903571
 30
0.0
 11
799.7619498134
 21
340.999903571
 31
0.0
  0
LINE
  5
4AE
330
1F
100
AcDbEntity
  8
0
  6
CONTINUOUS
 62
     7
100
AcDbLine
 10
805.4000500203
 20
340.999903571
 30
0.0
 11
809.4730589152
 21
340.999903571
 31
0.0
  0
LINE
  5
4AF
330
1F
100
AcDbEntity
  8
0
  6
CONTINUOUS
 62
     7
100
AcDbLine
 10
815.1111591221
 20
340.999903571
 30
0.0
 11
809.4730589152
 21
340.999903571
 31
0.0
  0
LINE
  5
4B0
330
1F
100
AcDbEntity
  8
0
  6
CONTINUOUS
 62
     7
100
AcDbLine
 10
815.1111591221
 20
340.999903571
 30
0.0
 11
821.53655473
 21
340.999903571
 31
0.0
  0
ARC
  5
4B1
330
1F
100
AcDbEntity
  8
0
  6
CONTINUOUS
 62
     7
100
AcDbCircle
 10
821.5365560771
 20
335.9999029749
 30
0.0
 40
5.000000000000057
100
AcDbArc
 50
0.0
 51
90.0
  0
LINE
  5
4B2
330
1F
100
AcDbEntity
  8
0
  6
CONTINUOUS
 62
     7
100
AcDbLine
 10
826.5365574122
 20
335.9999046141
 30
0.0
 11
826.5365574122
 21
253.4999013358
 31
0.0
  0
ARC
  5
4B3
330
1F
100
AcDbEntity
  8
0
  6
CONTINUOUS
 62
     7
100
AcDbCircle
 10
821.5365560771
 20
253.4999029749
 30
0.0
 40
5.0
100
AcDbArc
 50
270.0
 51
0.0
  0
LINE
  5
4B4
330
1F
100
AcDbEntity
  8
0
  6
CONTINUOUS
 62
     7
100
AcDbLine
 10
821.53655473
 20
248.4999023789
 30
0.0
 11
574.3365574241
 21
248.4999023789
 31
0.0
  0
ARC
  5
4B5
330
1F
100
AcDbEntity
  8
0
  6
CONTINUOUS
 62
     7
100
AcDbCircle
 10
574.3365560771
 20
253.4999029749
 30
0.0
 40
5.0
100
AcDbArc
 50
180.0
 51
270.0
  0
LINE
  5
4B6
330
1F
100
AcDbEntity
  8
0
  6
CONTINUOUS
 62
     7
100
AcDbLine
 10
580.7619530321
 20
344.9983805829
 30
0.0
 11
580.7619530321
 21
347.4999018424
 31
0.0
  0
LINE
  5
4B7
330
1F
100
AcDbEntity
  8
0
  6
CONTINUOUS
 62
     7
100
AcDbLine
 10
580.7619530321
 20
347.4999018424
 30
0.0
 11
586.4000532389
 21
347.4999018424
 31
0.0
  0
LINE
  5
4B8
330
1F
100
AcDbEntity
  8
0
  6
CONTINUOUS
 62
     7
100
AcDbLine
 10
586.4000532389
 20
347.4999018424
 30
0.0
 11
586.4000532389
 21
344.9983805829
 31
0.0
  0
LINE
  5
4B9
330
1F
100
AcDbEntity
  8
0
  6
CONTINUOUS
 62
     7
100
AcDbLine
 10
586.4000532389
 20
344.9983805829
 30
0.0
 11
580.7619530321
 21
344.9983805829
 31
0.0
  0
LINE
  5
4BA
330
1F
100
AcDbEntity
  8
0
  6
CONTINUOUS
 62
     7
100
AcDbLine
 10
586.0693517686
 20
341.0676777774
 30
0.0
 11
581.0926545025
 21
341.0676777774
 31
0.0
  0
LINE
  5
4BB
330
1F
100
AcDbEntity
  8
0
  6
CONTINUOUS
 62
     7
100
AcDbLine
 10
586.4000532389
 20
340.999903571
 30
0.0
 11
586.0693517686
 21
341.0676777774
 31
0.0
  0
LINE
  5
4BC
330
1F
100
AcDbEntity
  8
0
  6
CONTINUOUS
 62
     7
100
AcDbLine
 10
580.7619530321
 20
340.999903571
 30
0.0
 11
581.0926545025
 21
341.0676777774
 31
0.0
  0
LINE
  5
4BD
330
1F
100
AcDbEntity
  8
0
  6
CONTINUOUS
 62
     7
100
AcDbLine
 10
586.1293959976
 20
344.7277233416
 30
0.0
 11
586.4000532389
 21
344.9983805829
 31
0.0
  0
LINE
  5
4BE
330
1F
100
AcDbEntity
  8
0
  6
CONTINUOUS
 62
     7
100
AcDbLine
 10
581.0326102734
 20
344.7277233416
 30
0.0
 11
580.7619530321
 21
344.9983805829
 31
0.0
  0
LINE
  5
4BF
330
1F
100
AcDbEntity
  8
0
  6
CONTINUOUS
 62
     7
100
AcDbLine
 10
590.4730621339
 20
344.9983805829
 30
0.0
 11
590.4730621339
 21
347.4999018424
 31
0.0
  0
LINE
  5
4C0
330
1F
100
AcDbEntity
  8
0
  6
CONTINUOUS
 62
     7
100
AcDbLine
 10
596.1111623407
 20
347.4999018424
 30
0.0
 11
596.1111623407
 21
344.9983805829
 31
0.0
  0
LINE
  5
4C1
330
1F
100
AcDbEntity
  8
0
  6
CONTINUOUS
 62
     7
100
AcDbLine
 10
596.1111623407
 20
344.9983805829
 30
0.0
 11
590.4730621339
 21
344.9983805829
 31
0.0
  0
LINE
  5
4C2
330
1F
100
AcDbEntity
  8
0
  6
CONTINUOUS
 62
     7
100
AcDbLine
 10
590.4730621339
 20
347.4999018424
 30
0.0
 11
596.1111623407
 21
347.4999018424
 31
0.0
  0
LINE
  5
4C3
330
1F
100
AcDbEntity
  8
0
  6
CONTINUOUS
 62
     7
100
AcDbLine
 10
595.7804608703
 20
341.0676777774
 30
0.0
 11
596.1111623407
 21
340.999903571
 31
0.0
  0
LINE
  5
4C4
330
1F
100
AcDbEntity
  8
0
  6
CONTINUOUS
 62
     7
100
AcDbLine
 10
595.7804608703
 20
341.0676777774
 30
0.0
 11
590.8037636042
 21
341.0676777774
 31
0.0
  0
LINE
  5
4C5
330
1F
100
AcDbEntity
  8
0
  6
CONTINUOUS
 62
     7
100
AcDbLine
 10
590.8037636042
 20
341.0676777774
 30
0.0
 11
590.4730621339
 21
340.999903571
 31
0.0
  0
LINE
  5
4C6
330
1F
100
AcDbEntity
  8
0
  6
CONTINUOUS
 62
     7
100
AcDbLine
 10
596.1111623407
 20
344.9983805829
 30
0.0
 11
595.8405050994
 21
344.7277233416
 31
0.0
  0
LINE
  5
4C7
330
1F
100
AcDbEntity
  8
0
  6
CONTINUOUS
 62
     7
100
AcDbLine
 10
590.4730621339
 20
344.9983805829
 30
0.0
 11
590.7437193752
 21
344.7277233416
 31
0.0
  0
LINE
  5
4C8
330
1F
100
AcDbEntity
  8
0
  6
CONTINUOUS
 62
     7
100
AcDbLine
 10
653.7619519592
 20
344.9983805829
 30
0.0
 11
653.7619519592
 21
347.4999018424
 31
0.0
  0
LINE
  5
4C9
330
1F
100
AcDbEntity
  8
0
  6
CONTINUOUS
 62
     7
100
AcDbLine
 10
653.7619519592
 20
347.4999018424
 30
0.0
 11
659.4000521661
 21
347.4999018424
 31
0.0
  0
LINE
  5
4CA
330
1F
100
AcDbEntity
  8
0
  6
CONTINUOUS
 62
     7
100
AcDbLine
 10
659.4000521661
 20
347.4999018424
 30
0.0
 11
659.4000521661
 21
344.9983805829
 31
0.0
  0
LINE
  5
4CB
330
1F
100
AcDbEntity
  8
0
  6
CONTINUOUS
 62
     7
100
AcDbLine
 10
659.4000521661
 20
344.9983805829
 30
0.0
 11
653.7619519592
 21
344.9983805829
 31
0.0
  0
LINE
  5
4CC
330
1F
100
AcDbEntity
  8
0
  6
CONTINUOUS
 62
     7
100
AcDbLine
 10
659.0693506957
 20
341.0676777774
 30
0.0
 11
654.0926534296
 21
341.0676777774
 31
0.0
  0
LINE
  5
4CD
330
1F
100
AcDbEntity
  8
0
  6
CONTINUOUS
 62
     7
100
AcDbLine
 10
659.4000521661
 20
340.999903571
 30
0.0
 11
659.0693506957
 21
341.0676777774
 31
0.0
  0
LINE
  5
4CE
330
1F
100
AcDbEntity
  8
0
  6
CONTINUOUS
 62
     7
100
AcDbLine
 10
653.7619519592
 20
340.999903571
 30
0.0
 11
654.0926534296
 21
341.0676777774
 31
0.0
  0
LINE
  5
4CF
330
1F
100
AcDbEntity
  8
0
  6
CONTINUOUS
 62
     7
100
AcDbLine
 10
659.1293949247
 20
344.7277233416
 30
0.0
 11
659.4000521661
 21
344.9983805829
 31
0.0
  0
LINE
  5
4D0
330
1F
100
AcDbEntity
  8
0
  6
CONTINUOUS
 62
     7
100
AcDbLine
 10
654.0326054753
 20
344.7277233416
 30
0.0
 11
653.7619519592
 21
344.9983805829
 31
0.0
  0
LINE
  5
4D1
330
1F
100
AcDbEntity
  8
0
  6
CONTINUOUS
 62
     7
100
AcDbLine
 10
663.473061061
 20
344.9983805829
 30
0.0
 11
663.473061061
 21
347.4999018424
 31
0.0
  0
LINE
  5
4D2
330
1F
100
AcDbEntity
  8
0
  6
CONTINUOUS
 62
     7
100
AcDbLine
 10
669.1111594052
 20
347.4999018424
 30
0.0
 11
669.1111594052
 21
344.9983805829
 31
0.0
  0
LINE
  5
4D3
330
1F
100
AcDbEntity
  8
0
  6
CONTINUOUS
 62
     7
100
AcDbLine
 10
669.1111594052
 20
344.9983805829
 30
0.0
 11
663.473061061
 21
344.9983805829
 31
0.0
  0
LINE
  5
4D4
330
1F
100
AcDbEntity
  8
0
  6
CONTINUOUS
 62
     7
100
AcDbLine
 10
663.473061061
 20
347.4999018424
 30
0.0
 11
669.1111594052
 21
347.4999018424
 31
0.0
  0
LINE
  5
4D5
330
1F
100
AcDbEntity
  8
0
  6
CONTINUOUS
 62
     7
100
AcDbLine
 10
669.1111594052
 20
344.9983805829
 30
0.0
 11
668.8405040265
 21
344.7277233416
 31
0.0
  0
LINE
  5
4D6
330
1F
100
AcDbEntity
  8
0
  6
CONTINUOUS
 62
     7
100
AcDbLine
 10
663.473061061
 20
344.9983805829
 30
0.0
 11
663.7437183023
 21
344.7277233416
 31
0.0
  0
LINE
  5
4D7
330
1F
100
AcDbEntity
  8
0
  6
CONTINUOUS
 62
     7
100
AcDbLine
 10
668.7804597975
 20
341.0676777774
 30
0.0
 11
669.1111594052
 21
340.999903571
 31
0.0
  0
LINE
  5
4D8
330
1F
100
AcDbEntity
  8
0
  6
CONTINUOUS
 62
     7
100
AcDbLine
 10
668.7804597975
 20
341.0676777774
 30
0.0
 11
663.8037625313
 21
341.0676777774
 31
0.0
  0
LINE
  5
4D9
330
1F
100
AcDbEntity
  8
0
  6
CONTINUOUS
 62
     7
100
AcDbLine
 10
663.8037625313
 20
341.0676777774
 30
0.0
 11
663.473061061
 21
340.999903571
 31
0.0
  0
LINE
  5
4DA
330
1F
100
AcDbEntity
  8
0
  6
CONTINUOUS
 62
     7
100
AcDbLine
 10
726.761952749
 20
344.9983805829
 30
0.0
 11
726.761952749
 21
347.4999018424
 31
0.0
  0
LINE
  5
4DB
330
1F
100
AcDbEntity
  8
0
  6
CONTINUOUS
 62
     7
100
AcDbLine
 10
726.761952749
 20
347.4999018424
 30
0.0
 11
732.4000510932
 21
347.4999018424
 31
0.0
  0
LINE
  5
4DC
330
1F
100
AcDbEntity
  8
0
  6
CONTINUOUS
 62
     7
100
AcDbLine
 10
732.4000510932
 20
347.4999018424
 30
0.0
 11
732.4000510932
 21
344.9983805829
 31
0.0
  0
LINE
  5
4DD
330
1F
100
AcDbEntity
  8
0
  6
CONTINUOUS
 62
     7
100
AcDbLine
 10
732.4000510932
 20
344.9983805829
 30
0.0
 11
726.761952749
 21
344.9983805829
 31
0.0
  0
LINE
  5
4DE
330
1F
100
AcDbEntity
  8
0
  6
CONTINUOUS
 62
     7
100
AcDbLine
 10
732.0693496228
 20
341.0676777774
 30
0.0
 11
727.0926523567
 21
341.0676777774
 31
0.0
  0
LINE
  5
4DF
330
1F
100
AcDbEntity
  8
0
  6
CONTINUOUS
 62
     7
100
AcDbLine
 10
732.4000510932
 20
340.999903571
 30
0.0
 11
732.0693496228
 21
341.0676777774
 31
0.0
  0
LINE
  5
4E0
330
1F
100
AcDbEntity
  8
0
  6
CONTINUOUS
 62
     7
100
AcDbLine
 10
726.761952749
 20
340.999903571
 30
0.0
 11
727.0926523567
 21
341.0676777774
 31
0.0
  0
LINE
  5
4E1
330
1F
100
AcDbEntity
  8
0
  6
CONTINUOUS
 62
     7
100
AcDbLine
 10
732.1293938518
 20
344.7277233416
 30
0.0
 11
732.4000510932
 21
344.9983805829
 31
0.0
  0
LINE
  5
4E2
330
1F
100
AcDbEntity
  8
0
  6
CONTINUOUS
 62
     7
100
AcDbLine
 10
727.0326081277
 20
344.7277233416
 30
0.0
 11
726.761952749
 21
344.9983805829
 31
0.0
  0
LINE
  5
4E3
330
1F
100
AcDbEntity
  8
0
  6
CONTINUOUS
 62
     7
100
AcDbLine
 10
736.4730599881
 20
344.9983805829
 30
0.0
 11
736.4730599881
 21
347.4999018424
 31
0.0
  0
LINE
  5
4E4
330
1F
100
AcDbEntity
  8
0
  6
CONTINUOUS
 62
     7
100
AcDbLine
 10
736.4730599881
 20
347.4999018424
 30
0.0
 11
742.1111601949
 21
347.4999018424
 31
0.0
  0
LINE
  5
4E5
330
1F
100
AcDbEntity
  8
0
  6
CONTINUOUS
 62
     7
100
AcDbLine
 10
742.1111601949
 20
347.4999018424
 30
0.0
 11
742.1111601949
 21
344.9983805829
 31
0.0
  0
LINE
  5
4E6
330
1F
100
AcDbEntity
  8
0
  6
CONTINUOUS
 62
     7
100
AcDbLine
 10
742.1111601949
 20
344.9983805829
 30
0.0
 11
736.4730599881
 21
344.9983805829
 31
0.0
  0
LINE
  5
4E7
330
1F
100
AcDbEntity
  8
0
  6
CONTINUOUS
 62
     7
100
AcDbLine
 10
741.7804587246
 20
341.0676777774
 30
0.0
 11
742.1111601949
 21
340.999903571
 31
0.0
  0
LINE
  5
4E8
330
1F
100
AcDbEntity
  8
0
  6
CONTINUOUS
 62
     7
100
AcDbLine
 10
741.7804587246
 20
341.0676777774
 30
0.0
 11
736.8037614585
 21
341.0676777774
 31
0.0
  0
LINE
  5
4E9
330
1F
100
AcDbEntity
  8
0
  6
CONTINUOUS
 62
     7
100
AcDbLine
 10
736.8037614585
 20
341.0676777774
 30
0.0
 11
736.4730599881
 21
340.999903571
 31
0.0
  0
LINE
  5
4EA
330
1F
100
AcDbEntity
  8
0
  6
CONTINUOUS
 62
     7
100
AcDbLine
 10
742.1111601949
 20
344.9983805829
 30
0.0
 11
741.8405066789
 21
344.7277233416
 31
0.0
  0
LINE
  5
4EB
330
1F
100
AcDbEntity
  8
0
  6
CONTINUOUS
 62
     7
100
AcDbLine
 10
736.4730599881
 20
344.9983805829
 30
0.0
 11
736.7437172294
 21
344.7277233416
 31
0.0
  0
LINE
  5
4EC
330
1F
100
AcDbEntity
  8
0
  6
CONTINUOUS
 62
     7
100
AcDbLine
 10
799.7619498134
 20
344.9983805829
 30
0.0
 11
799.7619498134
 21
347.4999018424
 31
0.0
  0
LINE
  5
4ED
330
1F
100
AcDbEntity
  8
0
  6
CONTINUOUS
 62
     7
100
AcDbLine
 10
799.7619498134
 20
347.4999018424
 30
0.0
 11
805.4000500203
 21
347.4999018424
 31
0.0
  0
LINE
  5
4EE
330
1F
100
AcDbEntity
  8
0
  6
CONTINUOUS
 62
     7
100
AcDbLine
 10
805.4000500203
 20
347.4999018424
 30
0.0
 11
805.4000500203
 21
344.9983805829
 31
0.0
  0
LINE
  5
4EF
330
1F
100
AcDbEntity
  8
0
  6
CONTINUOUS
 62
     7
100
AcDbLine
 10
805.4000500203
 20
344.9983805829
 30
0.0
 11
799.7619498134
 21
344.9983805829
 31
0.0
  0
LINE
  5
4F0
330
1F
100
AcDbEntity
  8
0
  6
CONTINUOUS
 62
     7
100
AcDbLine
 10
805.0693485499
 20
341.0676777774
 30
0.0
 11
800.0926512838
 21
341.0676777774
 31
0.0
  0
LINE
  5
4F1
330
1F
100
AcDbEntity
  8
0
  6
CONTINUOUS
 62
     7
100
AcDbLine
 10
805.4000500203
 20
340.999903571
 30
0.0
 11
805.0693485499
 21
341.0676777774
 31
0.0
  0
LINE
  5
4F2
330
1F
100
AcDbEntity
  8
0
  6
CONTINUOUS
 62
     7
100
AcDbLine
 10
799.7619498134
 20
340.999903571
 30
0.0
 11
800.0926512838
 21
341.0676777774
 31
0.0
  0
LINE
  5
4F3
330
1F
100
AcDbEntity
  8
0
  6
CONTINUOUS
 62
     7
100
AcDbLine
 10
805.1293927789
 20
344.7277233416
 30
0.0
 11
805.4000500203
 21
344.9983805829
 31
0.0
  0
LINE
  5
4F4
330
1F
100
AcDbEntity
  8
0
  6
CONTINUOUS
 62
     7
100
AcDbLine
 10
800.0326070548
 20
344.7277233416
 30
0.0
 11
799.7619498134
 21
344.9983805829
 31
0.0
  0
LINE
  5
4F5
330
1F
100
AcDbEntity
  8
0
  6
CONTINUOUS
 62
     7
100
AcDbLine
 10
809.4730589152
 20
344.9983805829
 30
0.0
 11
809.4730589152
 21
347.4999018424
 31
0.0
  0
LINE
  5
4F6
330
1F
100
AcDbEntity
  8
0
  6
CONTINUOUS
 62
     7
100
AcDbLine
 10
815.1111591221
 20
347.4999018424
 30
0.0
 11
815.1111591221
 21
344.9983805829
 31
0.0
  0
LINE
  5
4F7
330
1F
100
AcDbEntity
  8
0
  6
CONTINUOUS
 62
     7
100
AcDbLine
 10
815.1111591221
 20
344.9983805829
 30
0.0
 11
809.4730589152
 21
344.9983805829
 31
0.0
  0
LINE
  5
4F8
330
1F
100
AcDbEntity
  8
0
  6
CONTINUOUS
 62
     7
100
AcDbLine
 10
809.4730589152
 20
347.4999018424
 30
0.0
 11
815.1111591221
 21
347.4999018424
 31
0.0
  0
LINE
  5
4F9
330
1F
100
AcDbEntity
  8
0
  6
CONTINUOUS
 62
     7
100
AcDbLine
 10
814.7804576517
 20
341.0676777774
 30
0.0
 11
815.1111591221
 21
340.999903571
 31
0.0
  0
LINE
  5
4FA
330
1F
100
AcDbEntity
  8
0
  6
CONTINUOUS
 62
     7
100
AcDbLine
 10
814.7804576517
 20
341.0676777774
 30
0.0
 11
809.8037603856
 21
341.0676777774
 31
0.0
  0
LINE
  5
4FB
330
1F
100
AcDbEntity
  8
0
  6
CONTINUOUS
 62
     7
100
AcDbLine
 10
809.8037603856
 20
341.0676777774
 30
0.0
 11
809.4730589152
 21
340.999903571
 31
0.0
  0
LINE
  5
4FC
330
1F
100
AcDbEntity
  8
0
  6
CONTINUOUS
 62
     7
100
AcDbLine
 10
815.1111591221
 20
344.9983805829
 30
0.0
 11
814.8405018807
 21
344.7277233416
 31
0.0
  0
LINE
  5
4FD
330
1F
100
AcDbEntity
  8
0
  6
CONTINUOUS
 62
     7
100
AcDbLine
 10
809.4730589152
 20
344.9983805829
 30
0.0
 11
809.7437161566
 21
344.7277233416
 31
0.0
  0
LINE
  5
4FE
330
1F
100
AcDbEntity
  8
0
  6
CONTINUOUS
 62
     7
100
AcDbLine
 10
586.0693517686
 20
341.0676777774
 30
0.0
 11
586.0693517686
 21
341.2277236992
 31
0.0
  0
LINE
  5
4FF
330
1F
100
AcDbEntity
  8
0
  6
CONTINUOUS
 62
     7
100
AcDbLine
 10
581.0926545025
 20
341.0676777774
 30
0.0
 11
581.0926545025
 21
341.2277236992
 31
0.0
  0
LINE
  5
500
330
1F
100
AcDbEntity
  8
0
  6
CONTINUOUS
 62
     7
100
AcDbLine
 10
595.7804608703
 20
341.2277236992
 30
0.0
 11
595.7804608703
 21
341.0676777774
 31
0.0
  0
LINE
  5
501
330
1F
100
AcDbEntity
  8
0
  6
CONTINUOUS
 62
     7
100
AcDbLine
 10
590.8037636042
 20
341.2277236992
 30
0.0
 11
590.8037636042
 21
341.0676777774
 31
0.0
  0
LINE
  5
502
330
1F
100
AcDbEntity
  8
0
  6
CONTINUOUS
 62
     7
100
AcDbLine
 10
659.0693506957
 20
341.0676777774
 30
0.0
 11
659.0693506957
 21
341.2277236992
 31
0.0
  0
LINE
  5
503
330
1F
100
AcDbEntity
  8
0
  6
CONTINUOUS
 62
     7
100
AcDbLine
 10
654.0926534296
 20
341.0676777774
 30
0.0
 11
654.0926534296
 21
341.2277236992
 31
0.0
  0
LINE
  5
504
330
1F
100
AcDbEntity
  8
0
  6
CONTINUOUS
 62
     7
100
AcDbLine
 10
668.7804597975
 20
341.2277236992
 30
0.0
 11
668.7804597975
 21
341.0676777774
 31
0.0
  0
LINE
  5
505
330
1F
100
AcDbEntity
  8
0
  6
CONTINUOUS
 62
     7
100
AcDbLine
 10
663.8037625313
 20
341.2277236992
 30
0.0
 11
663.8037625313
 21
341.0676777774
 31
0.0
  0
LINE
  5
506
330
1F
100
AcDbEntity
  8
0
  6
CONTINUOUS
 62
     7
100
AcDbLine
 10
732.0693496228
 20
341.0676777774
 30
0.0
 11
732.0693496228
 21
341.2277236992
 31
0.0
  0
LINE
  5
507
330
1F
100
AcDbEntity
  8
0
  6
CONTINUOUS
 62
     7
100
AcDbLine
 10
727.0926523567
 20
341.0676777774
 30
0.0
 11
727.0926523567
 21
341.2277236992
 31
0.0
  0
LINE
  5
508
330
1F
100
AcDbEntity
  8
0
  6
CONTINUOUS
 62
     7
100
AcDbLine
 10
741.7804587246
 20
341.2277236992
 30
0.0
 11
741.7804587246
 21
341.0676777774
 31
0.0
  0
LINE
  5
509
330
1F
100
AcDbEntity
  8
0
  6
CONTINUOUS
 62
     7
100
AcDbLine
 10
736.8037614585
 20
341.2277236992
 30
0.0
 11
736.8037614585
 21
341.0676777774
 31
0.0
  0
LINE
  5
50A
330
1F
100
AcDbEntity
  8
0
  6
CONTINUOUS
 62
     7
100
AcDbLine
 10
805.0693485499
 20
341.0676777774
 30
0.0
 11
805.0693485499
 21
341.2277236992
 31
0.0
  0
LINE
  5
50B
330
1F
100
AcDbEntity
  8
0
  6
CONTINUOUS
 62
     7
100
AcDbLine
 10
800.0926512838
 20
341.0676777774
 30
0.0
 11
800.0926512838
 21
341.2277236992
 31
0.0
  0
LINE
  5
50C
330
1F
100
AcDbEntity
  8
0
  6
CONTINUOUS
 62
     7
100
AcDbLine
 10
814.7804576517
 20
341.2277236992
 30
0.0
 11
814.7804576517
 21
341.0676777774
 31
0.0
  0
LINE
  5
50D
330
1F
100
AcDbEntity
  8
0
  6
CONTINUOUS
 62
     7
100
AcDbLine
 10
809.8037603856
 20
341.2277236992
 30
0.0
 11
809.8037603856
 21
341.0676777774
 31
0.0
  0
ARC
  5
50E
330
1F
100
AcDbEntity
  8
0
  6
CONTINUOUS
 62
     7
100
AcDbCircle
 10
576.9365560771
 20
339.7585370089
 30
0.0
 40
3.18962181683386
100
AcDbArc
 50
90.0
 51
157.3255792502
  0
ARC
  5
50F
330
1F
100
AcDbEntity
  8
0
  6
CONTINUOUS
 62
     7
100
AcDbCircle
 10
818.9365560771
 20
339.7585370089
 30
0.0
 40
3.189621816833818
100
AcDbArc
 50
22.6744207361
 51
90.0
  0
LINE
  5
510
330
1F
100
AcDbEntity
  8
0
  6
CONTINUOUS
 62
     7
100
AcDbLine
 10
576.9365567327
 20
342.9481596166
 30
0.0
 11
578.220373726
 21
342.9481596166
 31
0.0
  0
LINE
  5
511
330
1F
100
AcDbEntity
  8
0
  6
CONTINUOUS
 62
     7
100
AcDbLine
 10
599.6482286216
 20
342.9481596166
 30
0.0
 11
651.2203763784
 21
342.9481596166
 31
0.0
  0
LINE
  5
512
330
1F
100
AcDbEntity
  8
0
  6
CONTINUOUS
 62
     7
100
AcDbLine
 10
672.6482294113
 20
342.9481596166
 30
0.0
 11
724.2203753055
 21
342.9481596166
 31
0.0
  0
LINE
  5
513
330
1F
100
AcDbEntity
  8
0
  6
CONTINUOUS
 62
     7
100
AcDbLine
 10
745.6482302011
 20
342.9481596166
 30
0.0
 11
797.2203779579
 21
342.9481596166
 31
0.0
  0
LINE
  5
514
330
1F
100
AcDbEntity
  8
0
  6
CONTINUOUS
 62
     7
100
AcDbLine
 10
818.6482254029
 20
342.9481596166
 30
0.0
 11
818.9365554214
 21
342.9481596166
 31
0.0
  0
LINE
  5
515
330
1F
100
AcDbEntity
  8
0
  6
CONTINUOUS
 62
     7
100
AcDbLine
 10
574.2468598843
 20
248.5007070416
 30
0.0
 11
574.2468598843
 21
245.2585384661
 31
0.0
  0
LINE
  5
516
330
1F
100
AcDbEntity
  8
0
  6
CONTINUOUS
 62
     7
100
AcDbLine
 10
821.6262522698
 20
245.2585384661
 30
0.0
 11
821.6262522698
 21
248.5007070416
 31
0.0
  0
ARC
  5
517
330
1F
100
AcDbEntity
  8
0
  6
CONTINUOUS
 62
     7
100
AcDbCircle
 10
576.9365560771
 20
339.7585370089
 30
0.0
 40
2.68969796925566
100
AcDbArc
 50
90.0
 51
152.5143684796
  0
LINE
  5
518
330
1F
100
AcDbEntity
  8
0
  6
CONTINUOUS
 62
     7
100
AcDbLine
 10
578.8160997987
 20
342.4482368344
 30
0.0
 11
576.9365567327
 21
342.4482368344
 31
0.0
  0
LINE
  5
519
330
1F
100
AcDbEntity
  8
0
  6
CONTINUOUS
 62
     7
100
AcDbLine
 10
651.8160987259
 20
342.4482368344
 30
0.0
 11
599.0543428422
 21
342.4482368344
 31
0.0
  0
LINE
  5
51A
330
1F
100
AcDbEntity
  8
0
  6
CONTINUOUS
 62
     7
100
AcDbLine
 10
724.816097653
 20
342.4482368344
 30
0.0
 11
672.0543417693
 21
342.4482368344
 31
0.0
  0
LINE
  5
51B
330
1F
100
AcDbEntity
  8
0
  6
CONTINUOUS
 62
     7
100
AcDbLine
 10
797.8160965801
 20
342.4482368344
 30
0.0
 11
745.0543406964
 21
342.4482368344
 31
0.0
  0
LINE
  5
51C
330
1F
100
AcDbEntity
  8
0
  6
CONTINUOUS
 62
     7
100
AcDbLine
 10
818.9365554214
 20
342.4482368344
 30
0.0
 11
818.0543396235
 21
342.4482368344
 31
0.0
  0
ARC
  5
51D
330
1F
100
AcDbEntity
  8
0
  6
CONTINUOUS
 62
     7
100
AcDbCircle
 10
818.9365560771
 20
339.7585370089
 30
0.0
 40
2.689697969255576
100
AcDbArc
 50
27.4856315204
 51
90.0
  0
ENDSEC
  0
SECTION
  2
OBJECTS
  0
DICTIONARY
  5
C
330
0
100
AcDbDictionary
  3
ACAD_GROUP
350
D
  3
ACAD_LAYOUT
350
1A
  3
ACAD_MLEADERSTYLE
350
53F
  3
ACAD_MLINESTYLE
350
17
  3
ACAD_PLOTSETTINGS
350
19
  3
ACAD_TABLESTYLE
350
53E
  3
ACAD_VISUALSTYLE
350
2A
  3
ACDBHEADERROUNDTRIPXREC
350
51E
  3
ACDBVARIABLEDICTIONARY
350
540
  0
DICTIONARY
  5
D
102
{ACAD_REACTORS
330
C
102
}
330
C
100
AcDbDictionary
  0
DICTIONARY
  5
1A
102
{ACAD_REACTORS
330
C
102
}
330
C
100
AcDbDictionary
  0
DICTIONARY
  5
53F
102
{ACAD_REACTORS
330
C
102
}
330
C
100
AcDbDictionary
  0
DICTIONARY
  5
17
102
{ACAD_REACTORS
330
C
102
}
330
C
100
AcDbDictionary
  3
STANDARD
350
18
  0
DICTIONARY
  5
19
102
{ACAD_REACTORS
330
C
102
}
330
C
100
AcDbDictionary
  0
DICTIONARY
  5
53E
102
{ACAD_REACTORS
330
C
102
}
330
C
100
AcDbDictionary
  0
DICTIONARY
  5
2A
102
{ACAD_REACTORS
330
C
102
}
330
C
100
AcDbDictionary
  3
2DWIREFRAME
350
2F
  3
3D_HIDDEN
350
31
  3
3DWIREFRAME
350
30
  3
BASIC
350
32
  3
BRIGHTEN
350
36
  3
COLORCHANGE
350
3A
  3
CONCEPTUAL
350
34
  3
DIM
350
35
  3
FACEPATTERN
350
39
  3
FLAT
350
2B
  3
FLATWITHEDGES
350
2C
  3
GOURAUD
350
2D
  3
GOURAUDWITHEDGES
350
2E
  3
LINEPATTERN
350
38
  3
REALISTIC
350
33
  3
THICKEN
350
37
  0
DICTIONARY
  5
51E
102
{ACAD_REACTORS
330
C
102
}
330
C
100
AcDbDictionary
  3
CEPSNTYPE
350
527
  3
DIMSTYLEDATA
350
53D
  3
FINGERPRINTGUID
350
528
  3
HYPERLINKBASE
350
521
  3
INSUNITS
350
526
  3
LAYOUTDICT
350
523
  3
LWETCUNION
350
525
  3
PLOTSETDICT
350
524
  3
PSVPSCALE
350
52A
  3
PUCSBASE
350
52D
  3
PUCSORGBACK
350
533
  3
PUCSORGBOTTOM
350
52F
  3
PUCSORGFRONT
350
532
  3
PUCSORGLEFT
350
530
  3
PUCSORGRIGHT
350
531
  3
PUCSORGTOP
350
52E
  3
PUCSORTHOREF
350
52B
  3
PUCSORTHOVIEW
350
52C
  3
STYLESHEET
350
522
  3
TSTACKALIGN
350
51F
  3
TSTACKSIZE
350
520
  3
UCSBASE
350
536
  3
UCSORGBACK
350
53C
  3
UCSORGBOTTOM
350
538
  3
UCSORGFRONT
350
53B
  3
UCSORGLEFT
350
539
  3
UCSORGRIGHT
350
53A
  3
UCSORGTOP
350
537
  3
UCSORTHOREF
350
534
  3
UCSORTHOVIEW
350
535
  3
VERSIONGUID
350
529
  0
DICTIONARY
  5
540
102
{ACAD_REACTORS
330
C
102
}
330
C
100
AcDbDictionary
  3
PSOLHEIGHT
350
542
  3
PSOLWIDTH
350
541
  0
MLINESTYLE
  5
18
102
{ACAD_REACTORS
330
17
102
}
330
17
100
AcDbMlineStyle
  2
Standard
 70
     0
  3

 62
   256
 51
90.0
 52
90.0
 71
     2
 49
0.5
 62
   256
  6
BYLAYER
 49
-0.5
 62
   256
  6
BYLAYER
  0
VISUALSTYLE
  5
2F
102
{ACAD_REACTORS
330
2A
102
}
330
2A
100
AcDbVisualStyle
  2
2dWireframe
 70
     4
 71
     0
 72
     2
 73
     0
 90
        0
 40
-0.6
 41
-30.0
 62
     5
 63
     7
 74
     1
 91
        4
 64
     7
 65
   257
 75
     1
175
     1
 42
1.0
 92
        0
 66
   257
 43
1.0
 76
     1
 77
     6
 78
     2
 67
     7
 79
     5
170
     0
171
     0
290
     0
174
     0
 93
        1
 44
0.0
173
     0
291
     0
 45
0.0
1001
ACAD
1000
AcDbSavedByObjectVersion
1070
     0
  0
VISUALSTYLE
  5
31
102
{ACAD_REACTORS
330
2A
102
}
330
2A
100
AcDbVisualStyle
  2
3D Hidden
 70
     6
 71
     1
 72
     2
 73
     2
 90
        0
 40
-0.6
 41
-30.0
 62
     5
 63
     7
 74
     2
 91
        2
 64
     7
 65
   257
 75
     2
175
     1
 42
40.0
 92
        0
 66
   257
 43
1.0
 76
     1
 77
     6
 78
     2
 67
     7
 79
     3
170
     0
171
     0
290
     0
174
     0
 93
        1
 44
0.0
173
     0
291
     0
 45
0.0
1001
ACAD
1000
AcDbSavedByObjectVersion
1070
     0
  0
VISUALSTYLE
  5
30
102
{ACAD_REACTORS
330
2A
102
}
330
2A
100
AcDbVisualStyle
  2
3dWireframe
 70
     5
 71
     0
 72
     2
 73
     0
 90
        0
 40
-0.6
 41
-30.0
 62
     5
 63
     7
 74
     1
 91
        4
 64
     7
 65
   257
 75
     1
175
     1
 42
1.0
 92
        0
 66
   257
 43
1.0
 76
     1
 77
     6
 78
     2
 67
     7
 79
     5
170
     0
171
     0
290
     0
174
     0
 93
        1
 44
0.0
173
     0
291
     0
 45
0.0
1001
ACAD
1000
AcDbSavedByObjectVersion
1070
     0
  0
VISUALSTYLE
  5
32
102
{ACAD_REACTORS
330
2A
102
}
330
2A
100
AcDbVisualStyle
  2
Basic
 70
     7
 71
     1
 72
     0
 73
     1
 90
        0
 40
-0.6
 41
-30.0
 62
     5
 63
     7
 74
     0
 91
        4
 64
     7
 65
   257
 75
     1
175
     1
 42
1.0
 92
        8
 66
     7
 43
1.0
 76
     1
 77
     6
 78
     2
 67
     7
 79
     5
170
     0
171
     0
290
     0
174
     0
 93
        1
 44
0.0
173
     0
291
     1
 45
0.0
1001
ACAD
1000
AcDbSavedByObjectVersion
1070
     0
  0
VISUALSTYLE
  5
36
102
{ACAD_REACTORS
330
2A
102
}
330
2A
100
AcDbVisualStyle
  2
Brighten
 70
    12
 71
     2
 72
     2
 73
     0
 90
        0
 40
-0.6
 41
-30.0
 62
     5
 63
     7
 74
     1
 91
        4
 64
     7
 65
   257
 75
     1
175
     1
 42
1.0
 92
        8
 66
     7
 43
1.0
 76
     1
 77
     6
 78
     2
 67
     7
 79
     5
170
     0
171
     0
290
     0
174
     0
 93
        1
 44
50.0
173
     0
291
     1
 45
0.0
1001
ACAD
1000
AcDbSavedByObjectVersion
1070
     0
  0
VISUALSTYLE
  5
3A
102
{ACAD_REACTORS
330
2A
102
}
330
2A
100
AcDbVisualStyle
  2
ColorChange
 70
    16
 71
     2
 72
     2
 73
     3
 90
        0
 40
-0.6
 41
-30.0
 62
     5
 63
     8
 74
     1
 91
        4
 64
     7
 65
   257
 75
     1
175
     1
 42
1.0
 92
        8
 66
     8
 43
1.0
 76
     1
 77
     6
 78
     2
 67
     7
 79
     5
170
     0
171
     0
290
     0
174
     0
 93
        1
 44
0.0
173
     0
291
     1
 45
0.0
1001
ACAD
1000
AcDbSavedByObjectVersion
1070
     0
  0
VISUALSTYLE
  5
34
102
{ACAD_REACTORS
330
2A
102
}
330
2A
100
AcDbVisualStyle
  2
Conceptual
 70
     9
 71
     3
 72
     2
 73
     0
 90
        0
 40
-0.6
 41
-30.0
 62
     5
 63
     7
 74
     2
 91
        2
 64
     7
 65
   257
 75
     1
175
     1
 42
40.0
 92
        8
 66
     7
 43
1.0
 76
     1
 77
     6
 78
     2
 67
     7
 79
     3
170
     0
171
     0
290
     0
174
     0
 93
        1
 44
0.0
173
     0
291
     0
 45
0.0
1001
ACAD
1000
AcDbSavedByObjectVersion
1070
     0
  0
VISUALSTYLE
  5
35
102
{ACAD_REACTORS
330
2A
102
}
330
2A
100
AcDbVisualStyle
  2
Dim
 70
    11
 71
     2
 72
     2
 73
     0
 90
        0
 40
-0.6
 41
-30.0
 62
     5
 63
     7
 74
     1
 91
        4
 64
     7
 65
   257
 75
     1
175
     1
 42
1.0
 92
        8
 66
     7
 43
1.0
 76
     1
 77
     6
 78
     2
 67
     7
 79
     5
170
     0
171
     0
290
     0
174
     0
 93
        1
 44
-50.0
173
     0
291
     1
 45
0.0
1001
ACAD
1000
AcDbSavedByObjectVersion
1070
     0
  0
VISUALSTYLE
  5
39
102
{ACAD_REACTORS
330
2A
102
}
330
2A
100
AcDbVisualStyle
  2
Facepattern
 70
    15
 71
     2
 72
     2
 73
     0
 90
        0
 40
-0.6
 41
-30.0
 62
     5
 63
     7
 74
     1
 91
        4
 64
     7
 65
   257
 75
     1
175
     1
 42
1.0
 92
        8
 66
     7
 43
1.0
 76
     1
 77
     6
 78
     2
 67
     7
 79
     5
170
     0
171
     0
290
     0
174
     0
 93
        1
 44
0.0
173
     0
291
     1
 45
0.0
1001
ACAD
1000
AcDbSavedByObjectVersion
1070
     0
  0
VISUALSTYLE
  5
2B
102
{ACAD_REACTORS
330
2A
102
}
330
2A
100
AcDbVisualStyle
  2
Flat
 70
     0
 71
     2
 72
     1
 73
     1
 90
        2
 40
-0.6
 41
30.0
 62
     5
 63
     7
 74
     0
 91
        4
 64
     7
 65
   257
 75
     1
175
     1
 42
1.0
 92
        8
 66
     7
 43
1.0
 76
     1
 77
     6
 78
     2
 67
     7
 79
     5
170
     0
171
     0
290
     0
174
     0
 93
       13
 44
0.0
173
     0
291
     1
 45
0.0
1001
ACAD
1000
AcDbSavedByObjectVersion
1070
     0
  0
VISUALSTYLE
  5
2C
102
{ACAD_REACTORS
330
2A
102
}
330
2A
100
AcDbVisualStyle
  2
FlatWithEdges
 70
     1
 71
     2
 72
     1
 73
     1
 90
        2
 40
-0.6
 41
30.0
 62
     5
 63
     7
 74
     1
 91
        4
 64
     7
 65
   257
 75
     1
175
     1
 42
1.0
 92
        0
 66
   257
 43
1.0
 76
     1
 77
     6
 78
     2
 67
     7
 79
     5
170
     0
171
     0
290
     0
174
     0
 93
       13
 44
0.0
173
     0
291
     1
 45
0.0
1001
ACAD
1000
AcDbSavedByObjectVersion
1070
     0
  0
VISUALSTYLE
  5
2D
102
{ACAD_REACTORS
330
2A
102
}
330
2A
100
AcDbVisualStyle
  2
Gouraud
 70
     2
 71
     2
 72
     2
 73
     1
 90
        2
 40
-0.6
 41
30.0
 62
     5
 63
     7
 74
     0
 91
        4
 64
     7
 65
   257
 75
     1
175
     1
 42
1.0
 92
        0
 66
     7
 43
1.0
 76
     1
 77
     6
 78
     2
 67
     7
 79
     5
170
     0
171
     0
290
     0
174
     0
 93
       13
 44
0.0
173
     0
291
     1
 45
0.0
1001
ACAD
1000
AcDbSavedByObjectVersion
1070
     0
  0
VISUALSTYLE
  5
2E
102
{ACAD_REACTORS
330
2A
102
}
330
2A
100
AcDbVisualStyle
  2
GouraudWithEdges
 70
     3
 71
     2
 72
     2
 73
     1
 90
        2
 40
-0.6
 41
30.0
 62
     5
 63
     7
 74
     1
 91
        4
 64
     7
 65
   257
 75
     1
175
     1
 42
1.0
 92
        0
 66
   257
 43
1.0
 76
     1
 77
     6
 78
     2
 67
     7
 79
     5
170
     0
171
     0
290
     0
174
     0
 93
       13
 44
0.0
173
     0
291
     1
 45
0.0
1001
ACAD
1000
AcDbSavedByObjectVersion
1070
     0
  0
VISUALSTYLE
  5
38
102
{ACAD_REACTORS
330
2A
102
}
330
2A
100
AcDbVisualStyle
  2
Linepattern
 70
    14
 71
     2
 72
     2
 73
     0
 90
        0
 40
-0.6
 41
-30.0
 62
     5
 63
     7
 74
     1
 91
        4
 64
     7
 65
   257
 75
     7
175
     7
 42
1.0
 92
        8
 66
     7
 43
1.0
 76
     1
 77
     6
 78
     2
 67
     7
 79
     5
170
     0
171
     0
290
     0
174
     0
 93
        1
 44
0.0
173
     0
291
     1
 45
0.0
1001
ACAD
1000
AcDbSavedByObjectVersion
1070
     0
  0
VISUALSTYLE
  5
33
102
{ACAD_REACTORS
330
2A
102
}
330
2A
100
AcDbVisualStyle
  2
Realistic
 70
     8
 71
     2
 72
     2
 73
     0
 90
        0
 40
-0.6
 41
-30.0
 62
     5
 63
     7
 74
     1
 91
        0
 64
     7
 65
   257
 75
     1
175
     1
 42
1.0
 92
        8
 66
     8
 43
1.0
 76
     1
 77
     6
 78
     2
 67
     7
 79
     5
170
     0
171
     0
290
     0
174
     0
 93
       13
 44
0.0
173
     0
291
     0
 45
0.0
1001
ACAD
1000
AcDbSavedByObjectVersion
1070
     0
  0
VISUALSTYLE
  5
37
102
{ACAD_REACTORS
330
2A
102
}
330
2A
100
AcDbVisualStyle
  2
Thicken
 70
    13
 71
     2
 72
     2
 73
     0
 90
        0
 40
-0.6
 41
-30.0
 62
     5
 63
     7
 74
     1
 91
        4
 64
     7
 65
   257
 75
     1
175
     1
 42
1.0
 92
       12
 66
     7
 43
1.0
 76
     1
 77
     6
 78
     2
 67
     7
 79
     5
170
     0
171
     0
290
     0
174
     0
 93
        1
 44
0.0
173
     0
291
     1
 45
0.0
1001
ACAD
1000
AcDbSavedByObjectVersion
1070
     0
  0
XRECORD
  5
527
102
{ACAD_REACTORS
330
51E
102
}
330
51E
100
AcDbXrecord
 90
        0
  0
XRECORD
  5
53D
102
{ACAD_REACTORS
330
51E
102
}
330
51E
100
AcDbXrecord
1000
DSTYLE
1002
{
1070
   179
 70
     2
1070
   143
 40
0.0393700787
1070
    41
 40
12.0
1070
    44
 40
2.0
1070
    42
 40
2.0
1070
   147
 40
3.048
1070
    73
 70
     1
1070
    74
 70
     1
1070
   340
340
11
1070
   140
 40
7.0
1070
   284
 70
     0
1070
    78
 70
     0
1002
}
  0
XRECORD
  5
528
102
{ACAD_REACTORS
330
51E
102
}
330
51E
100
AcDbXrecord
  1
{108F8C02-1592-4089-BC27-A2A718618C1C}
  0
XRECORD
  5
521
102
{ACAD_REACTORS
330
51E
102
}
330
51E
100
AcDbXrecord
  1

  0
XRECORD
  5
526
102
{ACAD_REACTORS
330
51E
102
}
330
51E
100
AcDbXrecord
 90
        4
  0
XRECORD
  5
523
102
{ACAD_REACTORS
330
51E
102
}
330
51E
100
AcDbXrecord
340
1A
  0
XRECORD
  5
525
102
{ACAD_REACTORS
330
51E
102
}
330
51E
100
AcDbXrecord
 90
    10269
  0
XRECORD
  5
524
102
{ACAD_REACTORS
330
51E
102
}
330
51E
100
AcDbXrecord
340
19
  0
XRECORD
  5
52A
102
{ACAD_REACTORS
330
51E
102
}
330
51E
100
AcDbXrecord
 40
0.0
  0
XRECORD
  5
52D
102
{ACAD_REACTORS
330
51E
102
}
330
51E
100
AcDbXrecord
340
0
  0
XRECORD
  5
533
102
{ACAD_REACTORS
330
51E
102
}
330
51E
100
AcDbXrecord
 10
0.0
 20
0.0
 30
0.0
  0
XRECORD
  5
52F
102
{ACAD_REACTORS
330
51E
102
}
330
51E
100
AcDbXrecord
 10
0.0
 20
0.0
 30
0.0
  0
XRECORD
  5
532
102
{ACAD_REACTORS
330
51E
102
}
330
51E
100
AcDbXrecord
 10
0.0
 20
0.0
 30
0.0
  0
XRECORD
  5
530
102
{ACAD_REACTORS
330
51E
102
}
330
51E
100
AcDbXrecord
 10
0.0
 20
0.0
 30
0.0
  0
XRECORD
  5
531
102
{ACAD_REACTORS
330
51E
102
}
330
51E
100
AcDbXrecord
 10
0.0
 20
0.0
 30
0.0
  0
XRECORD
  5
52E
102
{ACAD_REACTORS
330
51E
102
}
330
51E
100
AcDbXrecord
 10
0.0
 20
0.0
 30
0.0
  0
XRECORD
  5
52B
102
{ACAD_REACTORS
330
51E
102
}
330
51E
100
AcDbXrecord
340
0
  0
XRECORD
  5
52C
102
{ACAD_REACTORS
330
51E
102
}
330
51E
100
AcDbXrecord
 70
     0
  0
XRECORD
  5
522
102
{ACAD_REACTORS
330
51E
102
}
330
51E
100
AcDbXrecord
  1

  0
XRECORD
  5
51F
102
{ACAD_REACTORS
330
51E
102
}
330
51E
100
AcDbXrecord
 90
        1
  0
XRECORD
  5
520
102
{ACAD_REACTORS
330
51E
102
}
330
51E
100
AcDbXrecord
 90
       70
  0
XRECORD
  5
536
102
{ACAD_REACTORS
330
51E
102
}
330
51E
100
AcDbXrecord
340
0
  0
XRECORD
  5
53C
102
{ACAD_REACTORS
330
51E
102
}
330
51E
100
AcDbXrecord
 10
0.0
 20
0.0
 30
0.0
  0
XRECORD
  5
538
102
{ACAD_REACTORS
330
51E
102
}
330
51E
100
AcDbXrecord
 10
0.0
 20
0.0
 30
0.0
  0
XRECORD
  5
53B
102
{ACAD_REACTORS
330
51E
102
}
330
51E
100
AcDbXrecord
 10
0.0
 20
0.0
 30
0.0
  0
XRECORD
  5
539
102
{ACAD_REACTORS
330
51E
102
}
330
51E
100
AcDbXrecord
 10
0.0
 20
0.0
 30
0.0
  0
XRECORD
  5
53A
102
{ACAD_REACTORS
330
51E
102
}
330
51E
100
AcDbXrecord
 10
0.0
 20
0.0
 30
0.0
  0
XRECORD
  5
537
102
{ACAD_REACTORS
330
51E
102
}
330
51E
100
AcDbXrecord
 10
0.0
 20
0.0
 30
0.0
  0
XRECORD
  5
534
102
{ACAD_REACTORS
330
51E
102
}
330
51E
100
AcDbXrecord
340
0
  0
XRECORD
  5
535
102
{ACAD_REACTORS
330
51E
102
}
330
51E
100
AcDbXrecord
 70
     0
  0
XRECORD
  5
529
102
{ACAD_REACTORS
330
51E
102
}
330
51E
100
AcDbXrecord
  1
{FAEB1C32-E019-11D5-929B-00C0DF256EC4}
  0
DICTIONARYVAR
  5
542
102
{ACAD_REACTORS
330
540
102
}
330
540
100
DictionaryVariables
280
     0
  1
80.000000
  0
DICTIONARYVAR
  5
541
102
{ACAD_REACTORS
330
540
102
}
330
540
100
DictionaryVariables
280
     0
  1
5.000000
  0
ENDSEC
  0
EOF
