  0
SECTION
  2
HEADER
  9
$ACADVER
  1
AC1015
  9
$ACADMAINTVER
 70
     6
  9
$DWGCODEPAGE
  3
ANSI_1252
  9
$INSBASE
 10
0.0
 20
0.0
 30
0.0
  9
$EXTMIN
 10
0.0
 20
0.0
 30
0.0
  9
$EXTMAX
 10
420.0
 20
297.0
 30
0.0
  9
$LIMMIN
 10
0.0
 20
0.0
  9
$LIMMAX
 10
420.0
 20
297.0
  9
$ORTHOMODE
 70
     0
  9
$REGENMODE
 70
     1
  9
$FILLMODE
 70
     1
  9
$QTEXTMODE
 70
     0
  9
$MIRRTEXT
 70
     1
  9
$LTSCALE
 40
1.0
  9
$ATTMODE
 70
     1
  9
$TEXTSIZE
 40
3.5
  9
$TRACEWID
 40
1.0
  9
$TEXTSTYLE
  7
Standard
  9
$CLAYER
  8
0
  9
$CELTYPE
  6
ByLayer
  9
$CECOLOR
 62
   256
  9
$CELTSCALE
 40
1.0
  9
$DISPSILH
 70
     0
  9
$DIMSCALE
 40
1.0
  9
$DIMASZ
 40
6.0
  9
$DIMEXO
 40
1.0
  9
$DIMDLI
 40
3.75
  9
$DIMRND
 40
0.0
  9
$DIMDLE
 40
0.0
  9
$DIMEXE
 40
1.0
  9
$DIMTP
 40
0.0
  9
$DIMTM
 40
0.0
  9
$DIMTXT
 40
3.5
  9
$DIMCEN
 40
2.5
  9
$DIMTSZ
 40
0.0
  9
$DIMTOL
 70
     0
  9
$DIMLIM
 70
     0
  9
$DIMTIH
 70
     1
  9
$DIMTOH
 70
     1
  9
$DIMSE1
 70
     0
  9
$DIMSE2
 70
     0
  9
$DIMTAD
 70
     1
  9
$DIMZIN
 70
     0
  9
$DIMBLK
  1

  9
$DIMASO
 70
     1
  9
$DIMSHO
 70
     1
  9
$DIMPOST
  1

  9
$DIMAPOST
  1

  9
$DIMALT
 70
     0
  9
$DIMALTD
 70
     3
  9
$DIMALTF
 40
0.0393700787
  9
$DIMLFAC
 40
5.0
  9
$DIMTOFL
 70
     1
  9
$DIMTVP
 40
0.0
  9
$DIMTIX
 70
     0
  9
$DIMSOXD
 70
     0
  9
$DIMSAH
 70
     0
  9
$DIMBLK1
  1

  9
$DIMBLK2
  1

  9
$DIMSTYLE
  2
ISO-25
  9
$DIMCLRD
 70
     0
  9
$DIMCLRE
 70
     0
  9
$DIMCLRT
 70
     0
  9
$DIMTFAC
 40
1.0
  9
$DIMGAP
 40
1.524
  9
$DIMJUST
 70
     0
  9
$DIMSD1
 70
     0
  9
$DIMSD2
 70
     0
  9
$DIMTOLJ
 70
     0
  9
$DIMTZIN
 70
     0
  9
$DIMALTZ
 70
     0
  9
$DIMALTTZ
 70
     0
  9
$DIMUPT
 70
     0
  9
$DIMDEC
 70
     1
  9
$DIMTDEC
 70
     1
  9
$DIMALTU
 70
     2
  9
$DIMALTTD
 70
     3
  9
$DIMTXSTY
  7
Standard
  9
$DIMAUNIT
 70
     0
  9
$DIMADEC
 70
     1
  9
$DIMALTRND
 40
0.0
  9
$DIMAZIN
 70
     0
  9
$DIMDSEP
 70
    44
  9
$DIMATFIT
 70
     3
  9
$DIMFRAC
 70
     0
  9
$DIMLDRBLK
  1

  9
$DIMLUNIT
 70
     2
  9
$DIMLWD
 70
    -2
  9
$DIMLWE
 70
    -2
  9
$DIMTMOVE
 70
     0
  9
$LUNITS
 70
     2
  9
$LUPREC
 70
     1
  9
$SKETCHINC
 40
1.0
  9
$FILLETRAD
 40
10.0
  9
$AUNITS
 70
     0
  9
$AUPREC
 70
     1
  9
$MENU
  1
.
  9
$ELEVATION
 40
0.0
  9
$PELEVATION
 40
0.0
  9
$THICKNESS
 40
0.0
  9
$LIMCHECK
 70
     0
  9
$CHAMFERA
 40
0.0
  9
$CHAMFERB
 40
0.0
  9
$CHAMFERC
 40
0.0
  9
$CHAMFERD
 40
0.0
  9
$SKPOLY
 70
     0
  9
$TDCREATE
 40
2457310.410760174
  9
$TDUCREATE
 40
2457310.285760174
  9
$TDUPDATE
 40
2457310.410760706
  9
$TDUUPDATE
 40
2457310.285760706
  9
$TDINDWG
 40
0.0000000116
  9
$TDUSRTIMER
 40
0.0000000116
  9
$USRTIMER
 70
     1
  9
$ANGBASE
 50
0.0
  9
$ANGDIR
 70
     0
  9
$PDMODE
 70
     0
  9
$PDSIZE
 40
-1.0
  9
$PLINEWID
 40
0.0
  9
$SPLFRAME
 70
     0
  9
$SPLINETYPE
 70
     6
  9
$SPLINESEGS
 70
     8
  9
$HANDSEED
  5
365
  9
$SURFTAB1
 70
     6
  9
$SURFTAB2
 70
     6
  9
$SURFTYPE
 70
     6
  9
$SURFU
 70
     6
  9
$SURFV
 70
     6
  9
$UCSBASE
  2

  9
$UCSNAME
  2

  9
$UCSORG
 10
0.0
 20
0.0
 30
0.0
  9
$UCSXDIR
 10
1.0
 20
0.0
 30
0.0
  9
$UCSYDIR
 10
0.0
 20
1.0
 30
0.0
  9
$UCSORTHOREF
  2

  9
$UCSORTHOVIEW
 70
     0
  9
$UCSORGTOP
 10
0.0
 20
0.0
 30
0.0
  9
$UCSORGBOTTOM
 10
0.0
 20
0.0
 30
0.0
  9
$UCSORGLEFT
 10
0.0
 20
0.0
 30
0.0
  9
$UCSORGRIGHT
 10
0.0
 20
0.0
 30
0.0
  9
$UCSORGFRONT
 10
0.0
 20
0.0
 30
0.0
  9
$UCSORGBACK
 10
0.0
 20
0.0
 30
0.0
  9
$PUCSBASE
  2

  9
$PUCSNAME
  2

  9
$PUCSORG
 10
0.0
 20
0.0
 30
0.0
  9
$PUCSXDIR
 10
1.0
 20
0.0
 30
0.0
  9
$PUCSYDIR
 10
0.0
 20
1.0
 30
0.0
  9
$PUCSORTHOREF
  2

  9
$PUCSORTHOVIEW
 70
     0
  9
$PUCSORGTOP
 10
0.0
 20
0.0
 30
0.0
  9
$PUCSORGBOTTOM
 10
0.0
 20
0.0
 30
0.0
  9
$PUCSORGLEFT
 10
0.0
 20
0.0
 30
0.0
  9
$PUCSORGRIGHT
 10
0.0
 20
0.0
 30
0.0
  9
$PUCSORGFRONT
 10
0.0
 20
0.0
 30
0.0
  9
$PUCSORGBACK
 10
0.0
 20
0.0
 30
0.0
  9
$USERI1
 70
     0
  9
$USERI2
 70
     0
  9
$USERI3
 70
     0
  9
$USERI4
 70
     0
  9
$USERI5
 70
     0
  9
$USERR1
 40
0.0
  9
$USERR2
 40
0.0
  9
$USERR3
 40
0.0
  9
$USERR4
 40
0.0
  9
$USERR5
 40
0.0
  9
$WORLDVIEW
 70
     1
  9
$SHADEDGE
 70
     3
  9
$SHADEDIF
 70
    70
  9
$TILEMODE
 70
     1
  9
$MAXACTVP
 70
    64
  9
$PINSBASE
 10
0.0
 20
0.0
 30
0.0
  9
$PLIMCHECK
 70
     0
  9
$PEXTMIN
 10
1.0000000000E+20
 20
1.0000000000E+20
 30
1.0000000000E+20
  9
$PEXTMAX
 10
-1.0000000000E+20
 20
-1.0000000000E+20
 30
-1.0000000000E+20
  9
$PLIMMIN
 10
0.0
 20
0.0
  9
$PLIMMAX
 10
420.0
 20
297.0
  9
$UNITMODE
 70
     0
  9
$VISRETAIN
 70
     1
  9
$PLINEGEN
 70
     0
  9
$PSLTSCALE
 70
     1
  9
$TREEDEPTH
 70
  3020
  9
$CMLSTYLE
  2
Standard
  9
$CMLJUST
 70
     0
  9
$CMLSCALE
 40
20.0
  9
$PROXYGRAPHICS
 70
     1
  9
$MEASUREMENT
 70
     1
  9
$CELWEIGHT
370
    -1
  9
$ENDCAPS
280
     0
  9
$JOINSTYLE
280
     0
  9
$LWDISPLAY
290
     1
  9
$INSUNITS
 70
     4
  9
$HYPERLINKBASE
  1

  9
$STYLESHEET
  1

  9
$XEDIT
290
     1
  9
$CEPSNTYPE
380
     0
  9
$PSTYLEMODE
290
     1
  9
$FINGERPRINTGUID
  2
{F88A3A8F-E1AB-4AFA-B7D6-39D232967B82}
  9
$VERSIONGUID
  2
{FAEB1C32-E019-11D5-929B-00C0DF256EC4}
  9
$EXTNAMES
290
     1
  9
$PSVPSCALE
 40
0.0
  9
$OLESTARTUP
290
     0
  0
ENDSEC
  0
SECTION
  2
CLASSES
  0
CLASS
  1
ACDBDICTIONARYWDFLT
  2
AcDbDictionaryWithDefault
  3
ObjectDBX Classes
 90
        0
280
     0
281
     0
  0
CLASS
  1
VISUALSTYLE
  2
AcDbVisualStyle
  3
ObjectDBX Classes
 90
     4095
280
     0
281
     0
  0
CLASS
  1
MATERIAL
  2
AcDbMaterial
  3
ObjectDBX Classes
 90
     1153
280
     0
281
     0
  0
CLASS
  1
SCALE
  2
AcDbScale
  3
ObjectDBX Classes
 90
     1153
280
     0
281
     0
  0
CLASS
  1
SUN
  2
AcDbSun
  3
SCENEOE
 90
     1153
280
     0
281
     0
  0
CLASS
  1
ACDBPLACEHOLDER
  2
AcDbPlaceHolder
  3
ObjectDBX Classes
 90
        0
280
     0
281
     0
  0
CLASS
  1
LAYOUT
  2
AcDbLayout
  3
ObjectDBX Classes
 90
        0
280
     0
281
     0
  0
ENDSEC
  0
SECTION
  2
TABLES
  0
TABLE
  2
VPORT
  5
8
330
0
100
AcDbSymbolTable
 70
     1
  0
VPORT
  5
29
330
8
100
AcDbSymbolTableRecord
100
AcDbViewportTableRecord
  2
*Active
 70
     0
 10
0.0
 20
0.0
 11
1.0
 21
1.0
 12
210.0
 22
148.5
 13
0.0
 23
0.0
 14
10.0
 24
10.0
 15
10.0
 25
10.0
 16
0.0
 26
0.0
 36
1.0
 17
0.0
 27
0.0
 37
0.0
 40
297.0
 41
1.4141414141
 42
50.0
 43
0.0
 44
0.0
 50
0.0
 51
0.0
 71
     0
 72
  2000
 73
     1
 74
     3
 75
     0
 76
     0
 77
     0
 78
     0
281
     0
 65
     1
110
0.0
120
0.0
130
0.0
111
1.0
121
0.0
131
0.0
112
0.0
122
1.0
132
0.0
 79
     0
146
0.0
  0
ENDTAB
  0
TABLE
  2
LTYPE
  5
5
330
0
100
AcDbSymbolTable
 70
     6
  0
LTYPE
  5
14
330
5
100
AcDbSymbolTableRecord
100
AcDbLinetypeTableRecord
  2
ByBlock
 70
     0
  3

 72
    65
 73
     0
 40
0.0
  0
LTYPE
  5
15
330
5
100
AcDbSymbolTableRecord
100
AcDbLinetypeTableRecord
  2
ByLayer
 70
     0
  3

 72
    65
 73
     0
 40
0.0
  0
LTYPE
  5
16
330
5
100
AcDbSymbolTableRecord
100
AcDbLinetypeTableRecord
  2
Continuous
 70
     0
  3
Solid line
 72
    65
 73
     0
 40
0.0
  0
LTYPE
  5
6A
330
5
100
AcDbSymbolTableRecord
100
AcDbLinetypeTableRecord
  2
HIDDEN
 70
     0
  3
Hidden __ __ __ __ __ __ __ __ __ __ __ __ __ __
 72
    65
 73
     2
 40
1.905
 49
1.27
 74
     0
 49
-0.635
 74
     0
  0
LTYPE
  5
6B
330
5
100
AcDbSymbolTableRecord
100
AcDbLinetypeTableRecord
  2
PHANTOM
 70
     0
  3
Phantom ______  __  __  ______  __  __  ______
 72
    65
 73
     6
 40
12.7
 49
6.35
 74
     0
 49
-1.27
 74
     0
 49
1.27
 74
     0
 49
-1.27
 74
     0
 49
1.27
 74
     0
 49
-1.27
 74
     0
  0
LTYPE
  5
6C
330
5
100
AcDbSymbolTableRecord
100
AcDbLinetypeTableRecord
  2
CENTER
 70
     0
  3
Center ____ _ ____ _ ____ _ ____ _ ____ _ ____
 72
    65
 73
     4
 40
10.16
 49
6.35
 74
     0
 49
-1.27
 74
     0
 49
1.27
 74
     0
 49
-1.27
 74
     0
  0
LTYPE
  5
6D
330
5
100
AcDbSymbolTableRecord
100
AcDbLinetypeTableRecord
  2
CENTERX2
 70
     0
  3
Center (2x) ________  __  ________  __  _____
 72
    65
 73
     4
 40
20.32
 49
12.7
 74
     0
 49
-2.54
 74
     0
 49
2.54
 74
     0
 49
-2.54
 74
     0
  0
LTYPE
  5
6E
330
5
100
AcDbSymbolTableRecord
100
AcDbLinetypeTableRecord
  2
DOT2
 70
     0
  3
Dot (.5x) ........................................
 72
    65
 73
     2
 40
0.635
 49
0.0
 74
     0
 49
-0.635
 74
     0
  0
ENDTAB
  0
TABLE
  2
LAYER
  5
2
330
0
100
AcDbSymbolTable
 70
     1
  0
LAYER
  5
10
330
2
100
AcDbSymbolTableRecord
100
AcDbLayerTableRecord
  2
0
 70
     0
 62
     7
  6
Continuous
370
    -3
390
F
  0
ENDTAB
  0
TABLE
  2
STYLE
  5
3
330
0
100
AcDbSymbolTable
 70
     1
  0
STYLE
  5
11
330
3
100
AcDbSymbolTableRecord
100
AcDbTextStyleTableRecord
  2
Standard
 70
     0
 40
0.0
 41
1.0
 50
0.0
 71
     0
 42
3.5
  3
txt
  4

  0
ENDTAB
  0
TABLE
  2
VIEW
  5
6
330
0
100
AcDbSymbolTable
 70
     0
  0
ENDTAB
  0
TABLE
  2
UCS
  5
7
330
0
100
AcDbSymbolTable
 70
     0
  0
ENDTAB
  0
TABLE
  2
APPID
  5
9
330
0
100
AcDbSymbolTable
 70
     1
  0
APPID
  5
12
330
9
100
AcDbSymbolTableRecord
100
AcDbRegAppTableRecord
  2
ACAD
 70
     0
  0
ENDTAB
  0
TABLE
  2
DIMSTYLE
  5
A
330
0
100
AcDbSymbolTable
 70
     1
100
AcDbDimStyleTable
  0
DIMSTYLE
105
27
330
A
100
AcDbSymbolTableRecord
100
AcDbDimStyleTableRecord
  2
ISO-25
 70
     0
 41
2.5
 42
0.625
 43
3.75
 44
1.25
 73
     0
 74
     0
 77
     1
 78
     8
140
2.5
141
2.5
143
0.0393700787
147
0.625
171
     3
172
     1
178
     0
271
     2
272
     2
274
     3
278
    44
283
     0
284
     8
340
11
  0
ENDTAB
  0
TABLE
  2
BLOCK_RECORD
  5
1
330
0
100
AcDbSymbolTable
 70
     1
  0
BLOCK_RECORD
  5
1F
330
1
100
AcDbSymbolTableRecord
100
AcDbBlockTableRecord
  2
*Model_Space
340
22
  0
BLOCK_RECORD
  5
1B
330
1
100
AcDbSymbolTableRecord
100
AcDbBlockTableRecord
  2
*Paper_Space
340
1E
  0
BLOCK_RECORD
  5
23
330
1
100
AcDbSymbolTableRecord
100
AcDbBlockTableRecord
  2
*Paper_Space0
340
26
  0
ENDTAB
  0
ENDSEC
  0
SECTION
  2
BLOCKS
  0
BLOCK
  5
20
330
1F
100
AcDbEntity
  8
0
100
AcDbBlockBegin
  2
*Model_Space
 70
     0
 10
0.0
 20
0.0
 30
0.0
  3
*Model_Space
  1
*Model_Space
  0
ENDBLK
  5
21
330
1F
100
AcDbEntity
  8
0
100
AcDbBlockEnd
  0
BLOCK
  5
1C
330
1B
100
AcDbEntity
 67
     1
  8
0
100
AcDbBlockBegin
  2
*Paper_Space
 70
     0
 10
0.0
 20
0.0
 30
0.0
  3
*Paper_Space
  1
*Paper_Space
  0
ENDBLK
  5
1D
330
1B
100
AcDbEntity
 67
     1
  8
0
100
AcDbBlockEnd
  0
BLOCK
  5
24
330
23
100
AcDbEntity
  8
0
100
AcDbBlockBegin
  2
*Paper_Space0
 70
     0
 10
0.0
 20
0.0
 30
0.0
  3
*Paper_Space0
  1
*Paper_Space0
  0
ENDBLK
  5
25
330
23
100
AcDbEntity
  8
0
100
AcDbBlockEnd
  0
ENDSEC
  0
SECTION
  2
ENTITIES
  0
LINE
  5
6F
330
1F
100
AcDbEntity
  8
0
  6
Continuous
 62
     7
370
    15
100
AcDbLine
 10
43.0578980799
 20
240.4751121837
 30
0.0
 11
43.040443015
 21
240.4925672486
 31
0.0
  0
ELLIPSE
  5
70
330
1F
100
AcDbEntity
  8
0
  6
Continuous
 62
     7
370
    15
100
AcDbEllipse
 10
43.540519179
 20
240.4924149322
 30
0.0
 11
0.353661094584794
 21
-0.353661094584794
 31
0.0
210
0.0
220
0.0
230
1.0
 40
0.9996954599
 41
2.356346783439934
 42
3.926838523739695
  0
LINE
  5
71
330
1F
100
AcDbEntity
  8
0
  6
Continuous
 62
     7
370
    15
100
AcDbLine
 10
43.5403668625
 20
240.9924910962
 30
0.0
 11
43.5578219275
 21
240.9750360313
 31
0.0
  0
ELLIPSE
  5
72
330
1F
100
AcDbEntity
  8
0
  6
Continuous
 62
     7
370
    15
100
AcDbEllipse
 10
43.5579742439
 20
240.4749598673
 30
0.0
 11
0.353661094584794
 21
-0.3536610945847656
 31
0.0
210
0.0
220
0.0
230
1.0
 40
0.9996954599
 41
2.356346783439882
 42
3.926838523739553
  0
LINE
  5
73
330
1F
100
AcDbEntity
  8
0
  6
Continuous
 62
     7
370
    15
100
AcDbLine
 10
42.5719808583
 20
241.4924910962
 30
0.0
 11
42.5719320467
 21
241.4610020646
 31
0.0
  0
LINE
  5
74
330
1F
100
AcDbEntity
  8
0
  6
Continuous
 62
     7
370
    15
100
AcDbLine
 10
42.5719320467
 20
241.4610020646
 30
0.0
 11
42.540443015
 21
241.4924910962
 31
0.0
  0
LINE
  5
75
330
1F
100
AcDbEntity
  8
0
  6
Continuous
 62
     7
370
    15
100
AcDbLine
 10
42.5404430114
 20
255.4231116999
 30
0.0
 11
42.540443015
 21
241.4924910962
 31
0.0
  0
LINE
  5
76
330
1F
100
AcDbEntity
  8
0
  6
Continuous
 62
     7
370
    15
100
AcDbLine
 10
42.5404430114
 20
255.4231116999
 30
0.0
 11
42.5404444373
 21
255.4231095312
 31
0.0
  0
LINE
  5
77
330
1F
100
AcDbEntity
  8
0
  6
Continuous
 62
     7
370
    15
100
AcDbLine
 10
42.5719808552
 20
253.6158645496
 30
0.0
 11
42.5404444373
 21
255.4231095312
 31
0.0
  0
LINE
  5
78
330
1F
100
AcDbEntity
  8
0
  6
Continuous
 62
     7
370
    15
100
AcDbLine
 10
42.5719808583
 20
241.4924910962
 30
0.0
 11
42.5719808552
 21
253.6158645496
 31
0.0
  0
LINE
  5
79
330
1F
100
AcDbEntity
  8
0
  6
Continuous
 62
     7
370
    15
100
AcDbLine
 10
373.9650612203
 20
70.0994107341
 30
0.0
 11
373.9650612203
 21
241.460953253
 31
0.0
  0
LINE
  5
7A
330
1F
100
AcDbEntity
  8
0
  6
Continuous
 62
     7
370
    15
100
AcDbLine
 10
386.0884346737
 20
241.460953253
 30
0.0
 11
373.9650612203
 21
241.460953253
 31
0.0
  0
LINE
  5
7B
330
1F
100
AcDbEntity
  8
0
  6
Continuous
 62
     7
370
    15
100
AcDbLine
 10
386.0884346737
 20
70.0994107341
 30
0.0
 11
386.0884346737
 21
241.460953253
 31
0.0
  0
LINE
  5
7C
330
1F
100
AcDbEntity
  8
0
  6
Continuous
 62
     7
370
    15
100
AcDbLine
 10
386.0884346737
 20
70.0994107341
 30
0.0
 11
373.9650612203
 21
70.0994107341
 31
0.0
  0
LINE
  5
7D
330
1F
100
AcDbEntity
  8
0
  6
Continuous
 62
     7
370
    15
100
AcDbLine
 10
373.9335721886
 20
241.4610020646
 30
0.0
 11
373.9335233771
 21
241.4924910962
 31
0.0
  0
LINE
  5
7E
330
1F
100
AcDbEntity
  8
0
  6
Continuous
 62
     7
370
    15
100
AcDbLine
 10
373.9650612203
 20
241.460953253
 30
0.0
 11
373.9335721886
 21
241.4610020646
 31
0.0
  0
LINE
  5
7F
330
1F
100
AcDbEntity
  8
0
  6
Continuous
 62
     7
370
    15
100
AcDbLine
 10
373.9335721886
 20
70.0993619225
 30
0.0
 11
373.9650612203
 21
70.0994107341
 31
0.0
  0
LINE
  5
80
330
1F
100
AcDbEntity
  8
0
  6
Continuous
 62
     7
370
    15
100
AcDbLine
 10
373.9335233771
 20
70.0678728908
 30
0.0
 11
373.9335721886
 21
70.0993619225
 31
0.0
  0
LINE
  5
81
330
1F
100
AcDbEntity
  8
0
  6
Continuous
 62
     7
370
    15
100
AcDbLine
 10
42.5719808583
 20
70.0678728908
 30
0.0
 11
373.9335233771
 21
70.0678728908
 31
0.0
  0
LINE
  5
82
330
1F
100
AcDbEntity
  8
0
  6
Continuous
 62
     7
370
    15
100
AcDbLine
 10
42.5719320467
 20
70.0993619225
 30
0.0
 11
42.5719808583
 21
70.0678728908
 31
0.0
  0
LINE
  5
83
330
1F
100
AcDbEntity
  8
0
  6
Continuous
 62
     7
370
    15
100
AcDbLine
 10
42.540443015
 20
70.0994107341
 30
0.0
 11
42.5719320467
 21
70.0993619225
 31
0.0
  0
LINE
  5
84
330
1F
100
AcDbEntity
  8
0
  6
Continuous
 62
     7
370
    15
100
AcDbLine
 10
42.540443015
 20
241.460953253
 30
0.0
 11
42.540443015
 21
70.0994107341
 31
0.0
  0
LINE
  5
85
330
1F
100
AcDbEntity
  8
0
  6
Continuous
 62
     7
370
    15
100
AcDbLine
 10
42.5719320467
 20
241.4610020646
 30
0.0
 11
42.540443015
 21
241.460953253
 31
0.0
  0
LINE
  5
86
330
1F
100
AcDbEntity
  8
0
  6
Continuous
 62
     7
370
    15
100
AcDbLine
 10
373.9335233771
 20
241.4924910962
 30
0.0
 11
42.5719808583
 21
241.4924910962
 31
0.0
  0
ELLIPSE
  5
87
330
1F
100
AcDbEntity
  8
0
  6
Continuous
 62
     7
370
    15
100
AcDbEllipse
 10
43.540519179
 20
71.0679490549
 30
0.0
 11
0.353661094584794
 21
0.353661094584794
 31
0.0
210
0.0
220
0.0
230
1.0
 40
0.9996954599
 41
2.356346783439939
 42
3.926838523739718
  0
LINE
  5
88
330
1F
100
AcDbEntity
  8
0
  6
Continuous
 62
     7
370
    15
100
AcDbLine
 10
43.5403668625
 20
70.5678728908
 30
0.0
 11
372.9651373728
 21
70.5678728908
 31
0.0
  0
ELLIPSE
  5
89
330
1F
100
AcDbEntity
  8
0
  6
Continuous
 62
     7
370
    15
100
AcDbEllipse
 10
372.9649850563
 20
71.0679490549
 30
0.0
 11
-0.3536610945848224
 21
0.353661094584794
 31
0.0
210
0.0
220
0.0
230
1.0
 40
0.9996954599
 41
2.356346783439726
 42
3.926838523739652
  0
LINE
  5
8A
330
1F
100
AcDbEntity
  8
0
  6
Continuous
 62
     7
370
    15
100
AcDbLine
 10
373.4650612203
 20
71.0677967384
 30
0.0
 11
373.4650612203
 21
240.4925672486
 31
0.0
  0
ELLIPSE
  5
8B
330
1F
100
AcDbEntity
  8
0
  6
Continuous
 62
     7
370
    15
100
AcDbEllipse
 10
372.9649850563
 20
240.4924149322
 30
0.0
 11
-0.3536610945848224
 21
-0.353661094584794
 31
0.0
210
0.0
220
0.0
230
1.0
 40
0.9996954599
 41
2.35634678343996
 42
3.926838523739834
  0
LINE
  5
8C
330
1F
100
AcDbEntity
  8
0
  6
Continuous
 62
     7
370
    15
100
AcDbLine
 10
372.9651373728
 20
240.9924910962
 30
0.0
 11
43.5403668625
 21
240.9924910962
 31
0.0
  0
LINE
  5
8D
330
1F
100
AcDbEntity
  8
0
  6
Continuous
 62
     7
370
    15
100
AcDbLine
 10
43.040443015
 20
240.4925672486
 30
0.0
 11
43.040443015
 21
71.0677967384
 31
0.0
  0
LINE
  5
8E
330
1F
100
AcDbEntity
  8
0
  6
Continuous
 62
     7
370
    15
100
AcDbLine
 10
372.9476823078
 20
240.9750360313
 30
0.0
 11
372.9651373728
 21
240.9924910962
 31
0.0
  0
LINE
  5
8F
330
1F
100
AcDbEntity
  8
0
  6
Continuous
 62
     7
370
    15
100
AcDbLine
 10
372.9476823078
 20
240.9750360313
 30
0.0
 11
43.5578219275
 21
240.9750360313
 31
0.0
  0
LINE
  5
90
330
1F
100
AcDbEntity
  8
0
  6
Continuous
 62
     7
370
    15
100
AcDbLine
 10
373.9335721886
 20
241.4610020646
 30
0.0
 11
373.9650612203
 21
241.4924910962
 31
0.0
  0
LINE
  5
91
330
1F
100
AcDbEntity
  8
0
  6
Continuous
 62
     7
370
    15
100
AcDbLine
 10
373.9650612203
 20
241.4924910962
 30
0.0
 11
387.895681824
 21
241.4924910962
 31
0.0
  0
LINE
  5
92
330
1F
100
AcDbEntity
  8
0
  6
Continuous
 62
     7
370
    15
100
AcDbLine
 10
387.8956796553
 20
241.4924896703
 30
0.0
 11
387.895681824
 21
241.4924910962
 31
0.0
  0
LINE
  5
93
330
1F
100
AcDbEntity
  8
0
  6
Continuous
 62
     7
370
    15
100
AcDbLine
 10
386.0884346737
 20
241.460953253
 30
0.0
 11
387.8956796553
 21
241.4924896703
 31
0.0
  0
LINE
  5
94
330
1F
100
AcDbEntity
  8
0
  6
Continuous
 62
     7
370
    15
100
AcDbLine
 10
43.5578219275
 20
70.5853279558
 30
0.0
 11
43.5403668625
 21
70.5678728908
 31
0.0
  0
LINE
  5
95
330
1F
100
AcDbEntity
  8
0
  6
Continuous
 62
     7
370
    15
100
AcDbLine
 10
43.040443015
 20
71.0677967384
 30
0.0
 11
43.0578980799
 21
71.0852518034
 31
0.0
  0
ELLIPSE
  5
96
330
1F
100
AcDbEntity
  8
0
  6
Continuous
 62
     7
370
    15
100
AcDbEllipse
 10
43.5579742439
 20
71.0854041198
 30
0.0
 11
0.353661094584794
 21
0.353661094584794
 31
0.0
210
0.0
220
0.0
230
1.0
 40
0.9996954599
 41
2.356346783439934
 42
3.926838523739666
  0
LINE
  5
97
330
1F
100
AcDbEntity
  8
0
  6
Continuous
 62
     7
370
    15
100
AcDbLine
 10
373.4476061554
 20
71.0852518034
 30
0.0
 11
373.4650612203
 21
71.0677967384
 31
0.0
  0
LINE
  5
98
330
1F
100
AcDbEntity
  8
0
  6
Continuous
 62
     7
370
    15
100
AcDbLine
 10
372.9651373728
 20
70.5678728908
 30
0.0
 11
372.9476823078
 21
70.5853279558
 31
0.0
  0
ELLIPSE
  5
99
330
1F
100
AcDbEntity
  8
0
  6
Continuous
 62
     7
370
    15
100
AcDbEllipse
 10
372.9475299914
 20
71.0854041198
 30
0.0
 11
-0.3536610945848224
 21
0.353661094584794
 31
0.0
210
0.0
220
0.0
230
1.0
 40
0.9996954599
 41
2.356346783439839
 42
3.926838523739652
  0
LINE
  5
9A
330
1F
100
AcDbEntity
  8
0
  6
Continuous
 62
     7
370
    15
100
AcDbLine
 10
373.4650612203
 20
240.4925672486
 30
0.0
 11
373.4476061554
 21
240.4751121837
 31
0.0
  0
ELLIPSE
  5
9B
330
1F
100
AcDbEntity
  8
0
  6
Continuous
 62
     7
370
    15
100
AcDbEllipse
 10
372.9475299914
 20
240.4749598673
 30
0.0
 11
-0.3536610945848225
 21
-0.3536610945847656
 31
0.0
210
0.0
220
0.0
230
1.0
 40
0.9996954599
 41
2.356346783440074
 42
3.926838523739687
  0
LINE
  5
9C
330
1F
100
AcDbEntity
  8
0
  6
Continuous
 62
     7
370
    15
100
AcDbLine
 10
373.9650612239
 20
255.4231116999
 30
0.0
 11
373.9650612203
 21
241.4924910962
 31
0.0
  0
LINE
  5
9D
330
1F
100
AcDbEntity
  8
0
  6
Continuous
 62
     7
370
    15
100
AcDbLine
 10
373.9335233771
 20
241.4924910962
 30
0.0
 11
373.9335233801
 21
253.6158645496
 31
0.0
  0
LINE
  5
9E
330
1F
100
AcDbEntity
  8
0
  6
Continuous
 62
     7
370
    15
100
AcDbLine
 10
373.965059798
 20
255.4231095312
 30
0.0
 11
373.9335233801
 21
253.6158645496
 31
0.0
  0
LINE
  5
9F
330
1F
100
AcDbEntity
  8
0
  6
Continuous
 62
     7
370
    15
100
AcDbLine
 10
373.9650612239
 20
255.4231116999
 30
0.0
 11
373.965059798
 21
255.4231095312
 31
0.0
  0
LINE
  5
A0
330
1F
100
AcDbEntity
  8
0
  6
Continuous
 62
     7
370
    15
100
AcDbLine
 10
373.9335721886
 20
70.0993619225
 30
0.0
 11
373.9650612203
 21
70.0678728908
 31
0.0
  0
LINE
  5
A1
330
1F
100
AcDbEntity
  8
0
  6
Continuous
 62
     7
370
    15
100
AcDbLine
 10
373.9650612239
 20
56.1372522872
 30
0.0
 11
373.9650612203
 21
70.0678728908
 31
0.0
  0
LINE
  5
A2
330
1F
100
AcDbEntity
  8
0
  6
Continuous
 62
     7
370
    15
100
AcDbLine
 10
373.965059798
 20
56.1372544559
 30
0.0
 11
373.9650612239
 21
56.1372522872
 31
0.0
  0
LINE
  5
A3
330
1F
100
AcDbEntity
  8
0
  6
Continuous
 62
     7
370
    15
100
AcDbLine
 10
373.9335233801
 20
57.9444994374
 30
0.0
 11
373.965059798
 21
56.1372544559
 31
0.0
  0
LINE
  5
A4
330
1F
100
AcDbEntity
  8
0
  6
Continuous
 62
     7
370
    15
100
AcDbLine
 10
373.9335233771
 20
70.0678728908
 30
0.0
 11
373.9335233801
 21
57.9444994374
 31
0.0
  0
LINE
  5
A5
330
1F
100
AcDbEntity
  8
0
  6
Continuous
 62
     7
370
    15
100
AcDbLine
 10
42.5404430114
 20
56.1372522872
 30
0.0
 11
42.540443015
 21
70.0678728908
 31
0.0
  0
LINE
  5
A6
330
1F
100
AcDbEntity
  8
0
  6
Continuous
 62
     7
370
    15
100
AcDbLine
 10
42.5719320467
 20
70.0993619225
 30
0.0
 11
42.540443015
 21
70.0678728908
 31
0.0
  0
LINE
  5
A7
330
1F
100
AcDbEntity
  8
0
  6
Continuous
 62
     7
370
    15
100
AcDbLine
 10
42.5719808583
 20
70.0678728908
 30
0.0
 11
42.5719808552
 21
57.9444994374
 31
0.0
  0
LINE
  5
A8
330
1F
100
AcDbEntity
  8
0
  6
Continuous
 62
     7
370
    15
100
AcDbLine
 10
42.5404444373
 20
56.1372544559
 30
0.0
 11
42.5719808552
 21
57.9444994374
 31
0.0
  0
LINE
  5
A9
330
1F
100
AcDbEntity
  8
0
  6
Continuous
 62
     7
370
    15
100
AcDbLine
 10
42.5404444373
 20
56.1372544559
 30
0.0
 11
42.5404430114
 21
56.1372522872
 31
0.0
  0
LINE
  5
AA
330
1F
100
AcDbEntity
  8
0
  6
Continuous
 62
     7
370
    15
100
AcDbLine
 10
215.5837039024
 20
69.5689904266
 30
0.0
 11
200.9218003329
 21
69.5689904266
 31
0.0
  0
LINE
  5
AB
330
1F
100
AcDbEntity
  8
0
  6
Continuous
 62
     7
370
    15
100
AcDbLine
 10
200.9218003329
 20
69.5689904266
 30
0.0
 11
200.9218003329
 21
57.9444994374
 31
0.0
  0
LINE
  5
AC
330
1F
100
AcDbEntity
  8
0
  6
Continuous
 62
     7
370
    15
100
AcDbLine
 10
42.5719808552
 20
57.9444994374
 30
0.0
 11
200.9218003329
 21
57.9444994374
 31
0.0
  0
LINE
  5
AD
330
1F
100
AcDbEntity
  8
0
  6
Continuous
 62
     7
370
    15
100
AcDbLine
 10
215.5837039024
 20
57.9444994374
 30
0.0
 11
373.9335233801
 21
57.9444994374
 31
0.0
  0
LINE
  5
AE
330
1F
100
AcDbEntity
  8
0
  6
Continuous
 62
     7
370
    15
100
AcDbLine
 10
215.5837039024
 20
69.5689904266
 30
0.0
 11
215.5837039024
 21
57.9444994374
 31
0.0
  0
LINE
  5
AF
330
1F
100
AcDbEntity
  8
0
  6
Continuous
 62
     7
370
    15
100
AcDbLine
 10
42.540443015
 20
241.4924910962
 30
0.0
 11
28.6098224113
 21
241.4924910962
 31
0.0
  0
LINE
  5
B0
330
1F
100
AcDbEntity
  8
0
  6
Continuous
 62
     7
370
    15
100
AcDbLine
 10
30.4170695616
 20
241.460953253
 30
0.0
 11
42.540443015
 21
241.460953253
 31
0.0
  0
LINE
  5
B1
330
1F
100
AcDbEntity
  8
0
  6
Continuous
 62
     7
370
    15
100
AcDbLine
 10
28.60982458
 20
241.4924896703
 30
0.0
 11
30.4170695616
 21
241.460953253
 31
0.0
  0
LINE
  5
B2
330
1F
100
AcDbEntity
  8
0
  6
Continuous
 62
     7
370
    15
100
AcDbLine
 10
28.6098224113
 20
241.4924910962
 30
0.0
 11
28.60982458
 21
241.4924896703
 31
0.0
  0
LINE
  5
B3
330
1F
100
AcDbEntity
  8
0
  6
Continuous
 62
     7
370
    15
100
AcDbLine
 10
373.9650612203
 20
70.0678728908
 30
0.0
 11
387.895681824
 21
70.0678728908
 31
0.0
  0
LINE
  5
B4
330
1F
100
AcDbEntity
  8
0
  6
Continuous
 62
     7
370
    15
100
AcDbLine
 10
387.8956796553
 20
70.0678743168
 30
0.0
 11
386.0884346737
 21
70.0994107341
 31
0.0
  0
LINE
  5
B5
330
1F
100
AcDbEntity
  8
0
  6
Continuous
 62
     7
370
    15
100
AcDbLine
 10
387.8956796553
 20
70.0678743168
 30
0.0
 11
387.895681824
 21
70.0678728908
 31
0.0
  0
LINE
  5
B6
330
1F
100
AcDbEntity
  8
0
  6
Continuous
 62
     7
370
    15
100
AcDbLine
 10
373.4476061554
 20
71.0852518034
 30
0.0
 11
373.4476061554
 21
240.4751121837
 31
0.0
  0
LINE
  5
B7
330
1F
100
AcDbEntity
  8
0
  6
Continuous
 62
     7
370
    15
100
AcDbLine
 10
30.4170695616
 20
70.0994107341
 30
0.0
 11
42.540443015
 21
70.0994107341
 31
0.0
  0
LINE
  5
B8
330
1F
100
AcDbEntity
  8
0
  6
Continuous
 62
     7
370
    15
100
AcDbLine
 10
30.4170695616
 20
241.460953253
 30
0.0
 11
30.4170695616
 21
70.0994107341
 31
0.0
  0
LINE
  5
B9
330
1F
100
AcDbEntity
  8
0
  6
Continuous
 62
     7
370
    15
100
AcDbLine
 10
43.0578980799
 20
240.4751121837
 30
0.0
 11
43.0578980799
 21
71.0852518034
 31
0.0
  0
LINE
  5
BA
330
1F
100
AcDbEntity
  8
0
  6
Continuous
 62
     7
370
    15
100
AcDbLine
 10
215.5837039024
 20
241.9913735604
 30
0.0
 11
200.9218003329
 21
241.9913735604
 31
0.0
  0
LINE
  5
BB
330
1F
100
AcDbEntity
  8
0
  6
Continuous
 62
     7
370
    15
100
AcDbLine
 10
215.5837039024
 20
253.6158645496
 30
0.0
 11
215.5837039024
 21
241.9913735604
 31
0.0
  0
LINE
  5
BC
330
1F
100
AcDbEntity
  8
0
  6
Continuous
 62
     7
370
    15
100
AcDbLine
 10
373.9335233801
 20
253.6158645496
 30
0.0
 11
215.5837039024
 21
253.6158645496
 31
0.0
  0
LINE
  5
BD
330
1F
100
AcDbEntity
  8
0
  6
Continuous
 62
     7
370
    15
100
AcDbLine
 10
200.9218003329
 20
253.6158645496
 30
0.0
 11
42.5719808552
 21
253.6158645496
 31
0.0
  0
LINE
  5
BE
330
1F
100
AcDbEntity
  8
0
  6
Continuous
 62
     7
370
    15
100
AcDbLine
 10
200.9218003329
 20
253.6158645496
 30
0.0
 11
200.9218003329
 21
241.9913735604
 31
0.0
  0
LINE
  5
BF
330
1F
100
AcDbEntity
  8
0
  6
Continuous
 62
     7
370
    15
100
AcDbLine
 10
43.5578219275
 20
70.5853279558
 30
0.0
 11
372.9476823078
 21
70.5853279558
 31
0.0
  0
LINE
  5
C0
330
1F
100
AcDbEntity
  8
0
  6
Continuous
 62
     7
370
    15
100
AcDbLine
 10
42.540443015
 20
70.0678728908
 30
0.0
 11
28.6098224113
 21
70.0678728908
 31
0.0
  0
LINE
  5
C1
330
1F
100
AcDbEntity
  8
0
  6
Continuous
 62
     7
370
    15
100
AcDbLine
 10
28.6098224113
 20
70.0678728908
 30
0.0
 11
28.60982458
 21
70.0678743168
 31
0.0
  0
LINE
  5
C2
330
1F
100
AcDbEntity
  8
0
  6
Continuous
 62
     7
370
    15
100
AcDbLine
 10
30.4170695616
 20
70.0994107341
 30
0.0
 11
28.60982458
 21
70.0678743168
 31
0.0
  0
LINE
  5
C3
330
1F
100
AcDbEntity
  8
0
  6
Continuous
 62
     7
370
    15
100
AcDbLine
 10
200.9527521177
 20
255.4231116999
 30
0.0
 11
200.9527521177
 21
242.0224910962
 31
0.0
  0
LINE
  5
C4
330
1F
100
AcDbEntity
  8
0
  6
Continuous
 62
     7
370
    15
100
AcDbLine
 10
200.9527521177
 20
242.0224910962
 30
0.0
 11
200.9218003329
 21
241.9913735604
 31
0.0
  0
LINE
  5
C5
330
1F
100
AcDbEntity
  8
0
  6
Continuous
 62
     7
370
    15
100
AcDbLine
 10
200.9527507182
 20
255.4231095312
 30
0.0
 11
200.9218003329
 21
253.6158645496
 31
0.0
  0
LINE
  5
C6
330
1F
100
AcDbEntity
  8
0
  6
Continuous
 62
     7
370
    15
100
AcDbLine
 10
200.9527507182
 20
255.4231095312
 30
0.0
 11
200.9527521177
 21
255.4231116999
 31
0.0
  0
LINE
  5
C7
330
1F
100
AcDbEntity
  8
0
  6
Continuous
 62
     7
370
    15
100
AcDbLine
 10
215.5527521177
 20
242.0224910962
 30
0.0
 11
215.5837039024
 21
241.9913735604
 31
0.0
  0
LINE
  5
C8
330
1F
100
AcDbEntity
  8
0
  6
Continuous
 62
     7
370
    15
100
AcDbLine
 10
215.5527521177
 20
255.4231116999
 30
0.0
 11
215.5527521177
 21
242.0224910962
 31
0.0
  0
LINE
  5
C9
330
1F
100
AcDbEntity
  8
0
  6
Continuous
 62
     7
370
    15
100
AcDbLine
 10
215.5527535171
 20
255.4231095312
 30
0.0
 11
215.5527521177
 21
255.4231116999
 31
0.0
  0
LINE
  5
CA
330
1F
100
AcDbEntity
  8
0
  6
Continuous
 62
     7
370
    15
100
AcDbLine
 10
215.5837039024
 20
253.6158645496
 30
0.0
 11
215.5527535171
 21
255.4231095312
 31
0.0
  0
LINE
  5
CB
330
1F
100
AcDbEntity
  8
0
  6
Continuous
 62
     7
370
    15
100
AcDbLine
 10
200.9527521177
 20
242.0224910962
 30
0.0
 11
215.5527521177
 21
242.0224910962
 31
0.0
  0
LINE
  5
CC
330
1F
100
AcDbEntity
  8
0
  6
Continuous
 62
     7
370
    15
100
AcDbLine
 10
200.9527521177
 20
69.5378728908
 30
0.0
 11
200.9218003329
 21
69.5689904266
 31
0.0
  0
LINE
  5
CD
330
1F
100
AcDbEntity
  8
0
  6
Continuous
 62
     7
370
    15
100
AcDbLine
 10
200.9527521177
 20
56.1372522872
 30
0.0
 11
200.9527521177
 21
69.5378728908
 31
0.0
  0
LINE
  5
CE
330
1F
100
AcDbEntity
  8
0
  6
Continuous
 62
     7
370
    15
100
AcDbLine
 10
200.9527507182
 20
56.1372544559
 30
0.0
 11
200.9527521177
 21
56.1372522872
 31
0.0
  0
LINE
  5
CF
330
1F
100
AcDbEntity
  8
0
  6
Continuous
 62
     7
370
    15
100
AcDbLine
 10
200.9218003329
 20
57.9444994374
 30
0.0
 11
200.9527507182
 21
56.1372544559
 31
0.0
  0
LINE
  5
D0
330
1F
100
AcDbEntity
  8
0
  6
Continuous
 62
     7
370
    15
100
AcDbLine
 10
215.5527521177
 20
56.1372522872
 30
0.0
 11
215.5527521177
 21
69.5378728908
 31
0.0
  0
LINE
  5
D1
330
1F
100
AcDbEntity
  8
0
  6
Continuous
 62
     7
370
    15
100
AcDbLine
 10
215.5527521177
 20
69.5378728908
 30
0.0
 11
215.5837039024
 21
69.5689904266
 31
0.0
  0
LINE
  5
D2
330
1F
100
AcDbEntity
  8
0
  6
Continuous
 62
     7
370
    15
100
AcDbLine
 10
215.5527535171
 20
56.1372544559
 30
0.0
 11
215.5837039024
 21
57.9444994374
 31
0.0
  0
LINE
  5
D3
330
1F
100
AcDbEntity
  8
0
  6
Continuous
 62
     7
370
    15
100
AcDbLine
 10
215.5527535171
 20
56.1372544559
 30
0.0
 11
215.5527521177
 21
56.1372522872
 31
0.0
  0
LINE
  5
D4
330
1F
100
AcDbEntity
  8
0
  6
Continuous
 62
     7
370
    15
100
AcDbLine
 10
200.9527521177
 20
69.5378728908
 30
0.0
 11
215.5527521177
 21
69.5378728908
 31
0.0
  0
LINE
  5
D5
330
1F
100
AcDbEntity
  8
0
  6
Continuous
 62
     7
370
    15
100
AcDbLine
 10
28.60982458
 20
70.0678743168
 30
0.0
 11
28.60982458
 21
241.4924896703
 31
0.0
  0
LINE
  5
D6
330
1F
100
AcDbEntity
  8
0
  6
Continuous
 62
     7
370
    15
100
AcDbLine
 10
42.5404444373
 20
255.4231095312
 30
0.0
 11
200.9527507182
 21
255.4231095312
 31
0.0
  0
LINE
  5
D7
330
1F
100
AcDbEntity
  8
0
  6
Continuous
 62
     7
370
    15
100
AcDbLine
 10
215.5527535171
 20
255.4231095312
 30
0.0
 11
373.965059798
 21
255.4231095312
 31
0.0
  0
LINE
  5
D8
330
1F
100
AcDbEntity
  8
0
  6
Continuous
 62
     7
370
    15
100
AcDbLine
 10
373.965059798
 20
56.1372544559
 30
0.0
 11
215.5527535171
 21
56.1372544559
 31
0.0
  0
LINE
  5
D9
330
1F
100
AcDbEntity
  8
0
  6
Continuous
 62
     7
370
    15
100
AcDbLine
 10
200.9527507182
 20
56.1372544559
 30
0.0
 11
42.5404444373
 21
56.1372544559
 31
0.0
  0
LINE
  5
DA
330
1F
100
AcDbEntity
  8
0
  6
Continuous
 62
     7
370
    15
100
AcDbLine
 10
387.8956796553
 20
241.4924896703
 30
0.0
 11
387.8956796553
 21
70.0678743168
 31
0.0
  0
ELLIPSE
  5
DB
330
1F
100
AcDbEntity
  8
0
  6
Continuous
 62
     7
370
    15
100
AcDbEllipse
 10
378.0175711057
 20
60.3802196352
 30
0.0
 11
3.001336073420247
 21
0.1496362782467955
 31
0.0
210
0.0
220
0.0
230
1.0
 40
0.9969390515
 41
3.093454372471959
 42
4.661589196005335
  0
LINE
  5
DC
330
1F
100
AcDbEntity
  8
0
  6
Continuous
 62
     7
370
    15
100
AcDbLine
 10
378.0141552531
 20
57.3843322422
 30
0.0
 11
381.9534740697
 21
57.3810655724
 31
0.0
  0
ELLIPSE
  5
DD
330
1F
100
AcDbEntity
  8
0
  6
Continuous
 62
     7
370
    15
100
AcDbEllipse
 10
381.9573560338
 20
62.0755780774
 30
0.0
 11
3.31952663868293
 21
-3.319526638682873
 31
0.0
210
0.0
220
0.0
230
1.0
 40
0.9999976679
 41
5.49695906264803
 42
7.069411551711155
  0
LINE
  5
DE
330
1F
100
AcDbEntity
  8
0
  6
Continuous
 62
     7
370
    15
100
AcDbLine
 10
386.648601869
 20
66.0187788616
 30
0.0
 11
386.6518685388
 21
62.0794600415
 31
0.0
  0
ELLIPSE
  5
DF
330
1F
100
AcDbEntity
  8
0
  6
Continuous
 62
     7
370
    15
100
AcDbEllipse
 10
383.652714476
 20
66.0153630091
 30
0.0
 11
0.14963627824676
 21
3.001336073420191
 31
0.0
210
0.0
220
0.0
230
1.0
 40
0.9969390515
 41
4.763188764764057
 42
6.331323588297425
  0
LINE
  5
E0
330
1F
100
AcDbEntity
  8
0
  6
Continuous
 62
     7
370
    15
100
AcDbLine
 10
383.6581961186
 20
69.0204006761
 30
0.0
 11
378.003427805
 21
69.0290493952
 31
0.0
  0
ELLIPSE
  5
E1
330
1F
100
AcDbEntity
  8
0
  6
Continuous
 62
     7
370
    15
100
AcDbEllipse
 10
378.0089391999
 20
66.0239949148
 30
0.0
 11
2.128467419125968
 21
-2.128467419125919
 31
0.0
210
0.0
220
0.0
230
1.0
 40
0.9966421494
 41
2.356346783439892
 42
3.926838523739675
  0
LINE
  5
E2
330
1F
100
AcDbEntity
  8
0
  6
Continuous
 62
     7
370
    15
100
AcDbLine
 10
375.0038847195
 20
66.0295063098
 30
0.0
 11
375.0125334386
 21
60.3747379926
 31
0.0
  0
LINE
  5
E3
330
1F
100
AcDbEntity
  8
0
  6
Continuous
 62
     7
370
    15
100
AcDbLine
 10
387.9152554911
 20
61.7656378763
 30
0.0
 11
387.895681824
 21
70.0678728908
 31
0.0
  0
SPLINE
  5
E4
330
1F
100
AcDbEntity
  8
0
  6
Continuous
 62
     7
370
    15
100
AcDbSpline
210
0.0
220
0.0
230
1.0
 70
     8
 71
     3
 72
    24
 73
    20
 74
     0
 42
0.000000001
 43
0.00000001
 40
0.0
 40
0.0
 40
0.0
 40
0.0
 40
0.1249999999999859
 40
0.1249999999999859
 40
0.187499999999984
 40
0.187499999999984
 40
0.249999999999982
 40
0.249999999999982
 40
0.374999999999985
 40
0.374999999999985
 40
0.499999999999988
 40
0.499999999999988
 40
0.624999999999991
 40
0.624999999999991
 40
0.749999999999994
 40
0.749999999999994
 40
0.874999999999997
 40
0.874999999999997
 40
1.0
 40
1.0
 40
1.0
 40
1.0
 10
382.2672962349098
 20
56.1176786200589
 30
0.0
 10
382.6396074667211
 20
56.11680084484519
 30
0.0
 10
383.0061229083688
 20
56.15228216686684
 30
0.0
 10
383.5474914034069
 20
56.25822968201945
 30
0.0
 10
383.7265366225551
 20
56.30239689639082
 30
0.0
 10
384.0817300620622
 20
56.40890525098293
 30
0.0
 10
384.258307334083
 20
56.47153333319309
 30
0.0
 10
384.7720338314053
 20
56.68286938638567
 30
0.0
 10
385.0971430399106
 20
56.85572569941105
 30
0.0
 10
385.7127405760657
 20
57.26513154959541
 30
0.0
 10
386.0042099370109
 20
57.50377951643821
 30
0.0
 10
386.5262766670068
 20
58.02544170351862
 30
0.0
 10
386.7604714329516
 20
58.31034280986136
 30
0.0
 10
387.1738010514986
 20
58.92952512679339
 30
0.0
 10
387.3486468624836
 20
59.25833727589466
 30
0.0
 10
387.6293728935697
 20
59.93898544356571
 30
0.0
 10
387.7371908353176
 20
60.29572705495021
 30
0.0
 10
387.8806511160302
 20
61.02486645781151
 30
0.0
 10
387.9161333067408
 20
61.39330950642776
 30
0.0
 10
387.9152554911217
 20
61.76563787627077
 30
0.0
  0
LINE
  5
E5
330
1F
100
AcDbEntity
  8
0
  6
Continuous
 62
     7
370
    15
100
AcDbLine
 10
382.2672962349
 20
56.1176786201
 30
0.0
 11
373.9650612239
 21
56.1372522872
 31
0.0
  0
ELLIPSE
  5
E6
330
1F
100
AcDbEntity
  8
0
  6
Continuous
 62
     7
370
    15
100
AcDbEllipse
 10
381.9573560338
 20
249.4847859097
 30
0.0
 11
3.319526638682931
 21
3.319526638682902
 31
0.0
210
0.0
220
0.0
230
1.0
 40
0.9999976679
 41
5.496959062648028
 42
7.069411551711154
  0
LINE
  5
E7
330
1F
100
AcDbEntity
  8
0
  6
Continuous
 62
     7
370
    15
100
AcDbLine
 10
378.0141552531
 20
254.1760317449
 30
0.0
 11
381.9534740697
 21
254.1792984146
 31
0.0
  0
ELLIPSE
  5
E8
330
1F
100
AcDbEntity
  8
0
  6
Continuous
 62
     7
370
    15
100
AcDbEllipse
 10
378.0175711057
 20
251.1801443519
 30
0.0
 11
3.001336073420248
 21
-0.1496362782468452
 31
0.0
210
0.0
220
0.0
230
1.0
 40
0.9969390515
 41
1.621596111174282
 42
3.189730934707674
  0
LINE
  5
E9
330
1F
100
AcDbEntity
  8
0
  6
Continuous
 62
     7
370
    15
100
AcDbLine
 10
375.0038847195
 20
245.5308576773
 30
0.0
 11
375.0125334386
 21
251.1856259945
 31
0.0
  0
ELLIPSE
  5
EA
330
1F
100
AcDbEntity
  8
0
  6
Continuous
 62
     7
370
    15
100
AcDbEllipse
 10
378.0089391999
 20
245.5363690722
 30
0.0
 11
2.128467419125968
 21
2.128467419125911
 31
0.0
210
0.0
220
0.0
230
1.0
 40
0.9966421494
 41
2.356346783439945
 42
3.926838523739701
  0
LINE
  5
EB
330
1F
100
AcDbEntity
  8
0
  6
Continuous
 62
     7
370
    15
100
AcDbLine
 10
383.6581961186
 20
242.539963311
 30
0.0
 11
378.003427805
 21
242.5313145918
 31
0.0
  0
ELLIPSE
  5
EC
330
1F
100
AcDbEntity
  8
0
  6
Continuous
 62
     7
370
    15
100
AcDbEllipse
 10
383.652714476
 20
245.545000978
 30
0.0
 11
-0.14963627824676
 21
3.001336073420163
 31
0.0
210
0.0
220
0.0
230
1.0
 40
0.9969390515
 41
3.093454372471954
 42
4.661589196005345
  0
LINE
  5
ED
330
1F
100
AcDbEntity
  8
0
  6
Continuous
 62
     7
370
    15
100
AcDbLine
 10
386.648601869
 20
245.5415851254
 30
0.0
 11
386.6518685388
 21
249.4809039456
 31
0.0
  0
LINE
  5
EE
330
1F
100
AcDbEntity
  8
0
  6
Continuous
 62
     7
370
    15
100
AcDbLine
 10
382.2672962349
 20
255.442685367
 30
0.0
 11
373.9650612239
 21
255.4231116999
 31
0.0
  0
SPLINE
  5
EF
330
1F
100
AcDbEntity
  8
0
  6
Continuous
 62
     7
370
    15
100
AcDbSpline
210
0.0
220
0.0
230
1.0
 70
     8
 71
     3
 72
    24
 73
    20
 74
     0
 42
0.000000001
 43
0.00000001
 40
0.0
 40
0.0
 40
0.0
 40
0.0
 40
0.125000000000003
 40
0.125000000000003
 40
0.1875000000000031
 40
0.1875000000000031
 40
0.2500000000000032
 40
0.2500000000000032
 40
0.3750000000000027
 40
0.3750000000000027
 40
0.5000000000000021
 40
0.5000000000000021
 40
0.6250000000000016
 40
0.6250000000000016
 40
0.750000000000001
 40
0.750000000000001
 40
0.8750000000000006
 40
0.8750000000000006
 40
1.0
 40
1.0
 40
1.0
 40
1.0
 10
387.9152554911217
 20
249.794726110788
 30
0.0
 10
387.9161332663355
 20
250.1670373425993
 30
0.0
 10
387.8806519443137
 20
250.5335527842469
 30
0.0
 10
387.7747044291611
 20
251.0749212792851
 30
0.0
 10
387.7305372147898
 20
251.2539664984334
 30
0.0
 10
387.6240288601977
 20
251.6091599379404
 30
0.0
 10
387.5614007779875
 20
251.7857372099613
 30
0.0
 10
387.3500647247949
 20
252.2994637072836
 30
0.0
 10
387.1772084117695
 20
252.6245729157887
 30
0.0
 10
386.7678025615851
 20
253.2401704519438
 30
0.0
 10
386.5291545947425
 20
253.5316398128891
 30
0.0
 10
386.007492407662
 20
254.053706542885
 30
0.0
 10
385.7225913013191
 20
254.2879013088298
 30
0.0
 10
385.1034089843872
 20
254.7012309273767
 30
0.0
 10
384.7745968352859
 20
254.8760767383618
 30
0.0
 10
384.0939486676149
 20
255.156802769448
 30
0.0
 10
383.7372070562304
 20
255.2646207111958
 30
0.0
 10
383.0080676533691
 20
255.4080809919083
 30
0.0
 10
382.6396246047528
 20
255.4435631826188
 30
0.0
 10
382.2672962349098
 20
255.4426853669999
 30
0.0
  0
LINE
  5
F0
330
1F
100
AcDbEntity
  8
0
  6
Continuous
 62
     7
370
    15
100
AcDbLine
 10
387.895681824
 20
241.4924910962
 30
0.0
 11
387.9152554911
 21
249.7947261108
 31
0.0
  0
ELLIPSE
  5
F1
330
1F
100
AcDbEntity
  8
0
  6
Continuous
 62
     7
370
    15
100
AcDbEllipse
 10
38.4879331296
 20
251.1801443519
 30
0.0
 11
3.001336073420177
 21
0.14963627824676
 31
0.0
210
0.0
220
0.0
230
1.0
 40
0.9969390515
 41
6.235047026061762
 42
7.803181849595127
  0
LINE
  5
F2
330
1F
100
AcDbEntity
  8
0
  6
Continuous
 62
     7
370
    15
100
AcDbLine
 10
38.4913489822
 20
254.1760317449
 30
0.0
 11
34.5520301656
 21
254.1792984146
 31
0.0
  0
ELLIPSE
  5
F3
330
1F
100
AcDbEntity
  8
0
  6
Continuous
 62
     7
370
    15
100
AcDbEllipse
 10
34.5481482015
 20
249.4847859097
 30
0.0
 11
3.319526638682873
 21
-3.319526638682845
 31
0.0
210
0.0
220
0.0
230
1.0
 40
0.9999976679
 41
2.355366409058226
 42
3.927818898121361
  0
LINE
  5
F4
330
1F
100
AcDbEntity
  8
0
  6
Continuous
 62
     7
370
    15
100
AcDbLine
 10
29.8569023663
 20
245.5415851254
 30
0.0
 11
29.8536356965
 21
249.4809039456
 31
0.0
  0
ELLIPSE
  5
F5
330
1F
100
AcDbEntity
  8
0
  6
Continuous
 62
     7
370
    15
100
AcDbEllipse
 10
32.8527897593
 20
245.545000978
 30
0.0
 11
0.1496362782467955
 21
3.001336073420163
 31
0.0
210
0.0
220
0.0
230
1.0
 40
0.9969390515
 41
1.621596111174268
 42
3.189730934707646
  0
LINE
  5
F6
330
1F
100
AcDbEntity
  8
0
  6
Continuous
 62
     7
370
    15
100
AcDbLine
 10
32.8473081167
 20
242.539963311
 30
0.0
 11
38.5020764303
 21
242.5313145918
 31
0.0
  0
ELLIPSE
  5
F7
330
1F
100
AcDbEntity
  8
0
  6
Continuous
 62
     7
370
    15
100
AcDbEllipse
 10
38.4965650354
 20
245.5363690722
 30
0.0
 11
2.128467419125926
 21
-2.128467419125939
 31
0.0
210
0.0
220
0.0
230
1.0
 40
0.9966421494
 41
5.497939437029736
 42
7.068431177329452
  0
LINE
  5
F8
330
1F
100
AcDbEntity
  8
0
  6
Continuous
 62
     7
370
    15
100
AcDbLine
 10
41.5016195158
 20
245.5308576773
 30
0.0
 11
41.4929707967
 21
251.1856259945
 31
0.0
  0
LINE
  5
F9
330
1F
100
AcDbEntity
  8
0
  6
Continuous
 62
     7
370
    15
100
AcDbLine
 10
28.6098224113
 20
241.4924910962
 30
0.0
 11
28.5902487442
 21
249.7947261108
 31
0.0
  0
SPLINE
  5
FA
330
1F
100
AcDbEntity
  8
0
  6
Continuous
 62
     7
370
    15
100
AcDbSpline
210
0.0
220
0.0
230
1.0
 70
     8
 71
     3
 72
    24
 73
    20
 74
     0
 42
0.000000001
 43
0.00000001
 40
0.0
 40
0.0
 40
0.0
 40
0.0
 40
0.1250000000000006
 40
0.1250000000000006
 40
0.1875000000000013
 40
0.1875000000000013
 40
0.250000000000002
 40
0.250000000000002
 40
0.3750000000000017
 40
0.3750000000000017
 40
0.5000000000000013
 40
0.5000000000000013
 40
0.625000000000001
 40
0.625000000000001
 40
0.7500000000000007
 40
0.7500000000000007
 40
0.8750000000000003
 40
0.8750000000000003
 40
1.0
 40
1.0
 40
1.0
 40
1.0
 10
34.2382080003926
 20
255.4426853669999
 30
0.0
 10
33.86589676858126
 20
255.4435631422136
 30
0.0
 10
33.49938132693362
 20
255.408081820192
 30
0.0
 10
32.95801283189548
 20
255.3021343050394
 30
0.0
 10
32.77896761274726
 20
255.257967090668
 30
0.0
 10
32.42377417324016
 20
255.1514587360759
 30
0.0
 10
32.24719690121938
 20
255.0888306538657
 30
0.0
 10
31.73347040389715
 20
254.8774946006732
 30
0.0
 10
31.40836119539184
 20
254.7046382876478
 30
0.0
 10
30.79276365923667
 20
254.2952324374633
 30
0.0
 10
30.50129429829154
 20
254.0565844706206
 30
0.0
 10
29.97922756829568
 20
253.5349222835401
 30
0.0
 10
29.74503280235075
 20
253.2500211771974
 30
0.0
 10
29.33170318380393
 20
252.6308388602654
 30
0.0
 10
29.15685737281884
 20
252.3020267111642
 30
0.0
 10
28.8761313417327
 20
251.6213785434931
 30
0.0
 10
28.76831339998478
 20
251.2646369321086
 30
0.0
 10
28.62485311927229
 20
250.5354975292473
 30
0.0
 10
28.58937092856176
 20
250.167054480631
 30
0.0
 10
28.59024874418076
 20
249.794726110788
 30
0.0
  0
LINE
  5
FB
330
1F
100
AcDbEntity
  8
0
  6
Continuous
 62
     7
370
    15
100
AcDbLine
 10
42.5404430114
 20
255.4231116999
 30
0.0
 11
34.2382080004
 21
255.442685367
 31
0.0
  0
ELLIPSE
  5
FC
330
1F
100
AcDbEntity
  8
0
  6
Continuous
 62
     7
370
    15
100
AcDbEllipse
 10
34.5481482015
 20
62.0755780774
 30
0.0
 11
3.319526638682874
 21
3.319526638682866
 31
0.0
210
0.0
220
0.0
230
1.0
 40
0.9999976679
 41
2.355366409058228
 42
3.927818898121374
  0
LINE
  5
FD
330
1F
100
AcDbEntity
  8
0
  6
Continuous
 62
     7
370
    15
100
AcDbLine
 10
38.4913489822
 20
57.3843322422
 30
0.0
 11
34.5520301656
 21
57.3810655724
 31
0.0
  0
ELLIPSE
  5
FE
330
1F
100
AcDbEntity
  8
0
  6
Continuous
 62
     7
370
    15
100
AcDbEllipse
 10
38.4879331296
 20
60.3802196352
 30
0.0
 11
3.001336073420177
 21
-0.1496362782467955
 31
0.0
210
0.0
220
0.0
230
1.0
 40
0.9969390515
 41
4.763188764764079
 42
6.33132358829742
  0
LINE
  5
FF
330
1F
100
AcDbEntity
  8
0
  6
Continuous
 62
     7
370
    15
100
AcDbLine
 10
41.5016195158
 20
66.0295063098
 30
0.0
 11
41.4929707967
 21
60.3747379926
 31
0.0
  0
ELLIPSE
  5
100
330
1F
100
AcDbEntity
  8
0
  6
Continuous
 62
     7
370
    15
100
AcDbEllipse
 10
38.4965650354
 20
66.0239949148
 30
0.0
 11
2.128467419125926
 21
2.128467419125926
 31
0.0
210
0.0
220
0.0
230
1.0
 40
0.9966421494
 41
5.497939437029737
 42
7.068431177329453
  0
LINE
  5
101
330
1F
100
AcDbEntity
  8
0
  6
Continuous
 62
     7
370
    15
100
AcDbLine
 10
32.8473081167
 20
69.0204006761
 30
0.0
 11
38.5020764303
 21
69.0290493952
 31
0.0
  0
ELLIPSE
  5
102
330
1F
100
AcDbEntity
  8
0
  6
Continuous
 62
     7
370
    15
100
AcDbEllipse
 10
32.8527897593
 20
66.0153630091
 30
0.0
 11
-0.1496362782467955
 21
3.001336073420191
 31
0.0
210
0.0
220
0.0
230
1.0
 40
0.9969390515
 41
6.235047026061761
 42
7.803181849595113
  0
LINE
  5
103
330
1F
100
AcDbEntity
  8
0
  6
Continuous
 62
     7
370
    15
100
AcDbLine
 10
29.8569023663
 20
66.0187788616
 30
0.0
 11
29.8536356965
 21
62.0794600415
 31
0.0
  0
LINE
  5
104
330
1F
100
AcDbEntity
  8
0
  6
Continuous
 62
     7
370
    15
100
AcDbLine
 10
42.5404430114
 20
56.1372522872
 30
0.0
 11
34.2382080004
 21
56.1176786201
 31
0.0
  0
SPLINE
  5
105
330
1F
100
AcDbEntity
  8
0
  6
Continuous
 62
     7
370
    15
100
AcDbSpline
210
0.0
220
0.0
230
1.0
 70
     8
 71
     3
 72
    24
 73
    20
 74
     0
 42
0.000000001
 43
0.00000001
 40
0.0
 40
0.0
 40
0.0
 40
0.0
 40
0.1250000000000008
 40
0.1250000000000008
 40
0.1874999999999989
 40
0.1874999999999989
 40
0.2499999999999971
 40
0.2499999999999971
 40
0.3749999999999976
 40
0.3749999999999976
 40
0.4999999999999981
 40
0.4999999999999981
 40
0.6249999999999986
 40
0.6249999999999986
 40
0.7499999999999991
 40
0.7499999999999991
 40
0.8749999999999996
 40
0.8749999999999996
 40
1.0
 40
1.0
 40
1.0
 40
1.0
 10
28.59024874418076
 20
61.76563787627075
 30
0.0
 10
28.58937096896707
 20
61.39332664445947
 30
0.0
 10
28.62485229098866
 20
61.02681120281184
 30
0.0
 10
28.73079980614124
 20
60.48544270777367
 30
0.0
 10
28.77496702051263
 20
60.30639748862544
 30
0.0
 10
28.88147537510471
 20
59.95120404911836
 30
0.0
 10
28.94410345731491
 20
59.77462677709741
 30
0.0
 10
29.15543951050747
 20
59.26090027977521
 30
0.0
 10
29.32829582353288
 20
58.9357910712701
 30
0.0
 10
29.73770167371728
 20
58.32019353511499
 30
0.0
 10
29.97634964055998
 20
58.02872417416967
 30
0.0
 10
30.49801182764045
 20
57.50665744417384
 30
0.0
 10
30.78291293398325
 20
57.27246267822894
 30
0.0
 10
31.40209525091514
 20
56.8591330596821
 30
0.0
 10
31.73090740001647
 20
56.68428724869694
 30
0.0
 10
32.4115555676876
 20
56.40356121761085
 30
0.0
 10
32.76829717907209
 20
56.29574327586306
 30
0.0
 10
33.49743658193336
 20
56.15228299515046
 30
0.0
 10
33.86587963054957
 20
56.1168008044399
 30
0.0
 10
34.2382080003926
 20
56.11767862005887
 30
0.0
  0
LINE
  5
106
330
1F
100
AcDbEntity
  8
0
  6
Continuous
 62
     7
370
    15
100
AcDbLine
 10
28.5902487442
 20
61.7656378763
 30
0.0
 11
28.6098224113
 21
70.0678728908
 31
0.0
  0
ELLIPSE
  5
107
330
1F
100
AcDbEntity
  8
0
  6
Continuous
 62
     7
370
    15
100
AcDbEllipse
 10
211.2565091601
 20
60.4314625582
 30
0.0
 11
2.832144642394212
 21
0.992751820038535
 31
0.0
210
0.0
220
0.0
230
1.0
 40
0.9980475359
 41
4.374631460769288
 42
5.945123201069019
  0
LINE
  5
108
330
1F
100
AcDbEntity
  8
0
  6
Continuous
 62
     7
370
    15
100
AcDbLine
 10
214.2653186276
 20
65.9008963153
 30
0.0
 11
214.2569647507
 21
60.430550053
 31
0.0
  0
ELLIPSE
  5
109
330
1F
100
AcDbEntity
  8
0
  6
Continuous
 62
     7
370
    15
100
AcDbEllipse
 10
211.2648602457
 20
65.8999810188
 30
0.0
 11
1.275904273852802
 21
2.72215373819256
 31
0.0
210
0.0
220
0.0
230
1.0
 40
0.9976165555
 41
5.150082094580784
 42
6.720573834880494
  0
LINE
  5
10A
330
1F
100
AcDbEntity
  8
0
  6
Continuous
 62
     7
370
    15
100
AcDbLine
 10
208.5524128487
 20
68.9050270698
 30
0.0
 11
211.2703632111
 21
68.9050270698
 31
0.0
  0
ARC
  5
10B
330
1F
100
AcDbEntity
  8
0
  6
Continuous
 62
     7
370
    15
100
AcDbCircle
 10
208.2527521177
 20
64.8364120875
 30
0.0
 40
4.07963533027069
100
AcDbArc
 50
85.787669643
 51
94.212330357
  0
LINE
  5
10C
330
1F
100
AcDbEntity
  8
0
  6
Continuous
 62
     7
370
    15
100
AcDbLine
 10
205.2351410242
 20
68.9050270698
 30
0.0
 11
207.9530913866
 21
68.9050270698
 31
0.0
  0
ELLIPSE
  5
10D
330
1F
100
AcDbEntity
  8
0
  6
Continuous
 62
     7
370
    15
100
AcDbEllipse
 10
205.2406439897
 20
65.8999810188
 30
0.0
 11
-1.275904273852831
 21
2.72215373819256
 31
0.0
210
0.0
220
0.0
230
1.0
 40
0.9976165555
 41
5.84579677947868
 42
7.416288519778398
  0
LINE
  5
10E
330
1F
100
AcDbEntity
  8
0
  6
Continuous
 62
     7
370
    15
100
AcDbLine
 10
202.2485394846
 20
60.430550053
 30
0.0
 11
202.2401856078
 21
65.9008963153
 31
0.0
  0
ELLIPSE
  5
10F
330
1F
100
AcDbEntity
  8
0
  6
Continuous
 62
     7
370
    15
100
AcDbEllipse
 10
205.2489950752
 20
60.4314625582
 30
0.0
 11
2.832144642394212
 21
-0.992751820038535
 31
0.0
210
0.0
220
0.0
230
1.0
 40
0.9980475359
 41
3.479654759700394
 42
5.050146500000126
  0
LINE
  5
110
330
1F
100
AcDbEntity
  8
0
  6
Continuous
 62
     7
370
    15
100
AcDbLine
 10
211.2528479867
 20
57.4355806461
 30
0.0
 11
205.2526562486
 21
57.4355806461
 31
0.0
  0
LINE
  5
111
330
1F
100
AcDbEntity
  8
0
  6
Continuous
 62
     7
370
    15
100
AcDbLine
 10
200.9527521177
 20
56.1372522872
 30
0.0
 11
215.5527521177
 21
56.1372522872
 31
0.0
  0
LINE
  5
112
330
1F
100
AcDbEntity
  8
0
  6
Continuous
 62
     7
370
    15
100
AcDbLine
 10
215.5527521177
 20
255.4231116999
 30
0.0
 11
200.9527521177
 21
255.4231116999
 31
0.0
  0
ARC
  5
113
330
1F
100
AcDbEntity
  8
0
  6
Continuous
 62
     7
370
    15
100
AcDbCircle
 10
208.2527521177
 20
246.7239518996
 30
0.0
 40
4.079635330270647
100
AcDbArc
 50
265.787669643
 51
274.212330357
  0
LINE
  5
114
330
1F
100
AcDbEntity
  8
0
  6
Continuous
 62
     7
370
    15
100
AcDbLine
 10
208.5524128487
 20
242.6553369172
 30
0.0
 11
211.2703632111
 21
242.6553369172
 31
0.0
  0
ELLIPSE
  5
115
330
1F
100
AcDbEntity
  8
0
  6
Continuous
 62
     7
370
    15
100
AcDbEllipse
 10
211.2648602457
 20
245.6603829682
 30
0.0
 11
-1.275904273852802
 21
2.72215373819256
 31
0.0
210
0.0
220
0.0
230
1.0
 40
0.9976165555
 41
2.704204125888885
 42
4.274695866188623
  0
LINE
  5
116
330
1F
100
AcDbEntity
  8
0
  6
Continuous
 62
     7
370
    15
100
AcDbLine
 10
214.2653186276
 20
245.6594676718
 30
0.0
 11
214.2569647507
 21
251.129813934
 31
0.0
  0
ELLIPSE
  5
117
330
1F
100
AcDbEntity
  8
0
  6
Continuous
 62
     7
370
    15
100
AcDbEllipse
 10
211.2565091601
 20
251.1289014289
 30
0.0
 11
2.83214464239424
 21
-0.9927518200385066
 31
0.0
210
0.0
220
0.0
230
1.0
 40
0.9980475359
 41
0.3380621061105823
 42
1.908553846410298
  0
LINE
  5
118
330
1F
100
AcDbEntity
  8
0
  6
Continuous
 62
     7
370
    15
100
AcDbLine
 10
211.2528479867
 20
254.1247833409
 30
0.0
 11
205.2526562486
 21
254.1247833409
 31
0.0
  0
ELLIPSE
  5
119
330
1F
100
AcDbEntity
  8
0
  6
Continuous
 62
     7
370
    15
100
AcDbEllipse
 10
205.2489950752
 20
251.1289014289
 30
0.0
 11
2.83214464239424
 21
0.9927518200384782
 31
0.0
210
0.0
220
0.0
230
1.0
 40
0.9980475359
 41
1.233038807179493
 42
2.803530547479222
  0
LINE
  5
11A
330
1F
100
AcDbEntity
  8
0
  6
Continuous
 62
     7
370
    15
100
AcDbLine
 10
202.2485394846
 20
251.129813934
 30
0.0
 11
202.2401856078
 21
245.6594676718
 31
0.0
  0
ELLIPSE
  5
11B
330
1F
100
AcDbEntity
  8
0
  6
Continuous
 62
     7
370
    15
100
AcDbEllipse
 10
205.2406439897
 20
245.6603829682
 30
0.0
 11
1.275904273852802
 21
2.72215373819256
 31
0.0
210
0.0
220
0.0
230
1.0
 40
0.9976165555
 41
2.008489440990972
 42
3.57898118129072
  0
LINE
  5
11C
330
1F
100
AcDbEntity
  8
0
  6
Continuous
 62
     7
370
    15
100
AcDbLine
 10
205.2351410242
 20
242.6553369172
 30
0.0
 11
207.9530913866
 21
242.6553369172
 31
0.0
  0
CIRCLE
  5
11D
330
1F
100
AcDbEntity
  8
0
  6
Continuous
 62
     7
370
    15
100
AcDbCircle
 10
208.2527521177
 20
246.7301819935
 30
0.0
 40
4.0
  0
ARC
  5
11E
330
1F
100
AcDbEntity
  8
0
  6
Continuous
 62
     7
370
    15
100
AcDbCircle
 10
208.2527521177
 20
246.724058931
 30
0.0
 40
4.009548205058616
100
AcDbArc
 50
274.2490034826
 51
265.7509965174
  0
LINE
  5
11F
330
1F
100
AcDbEntity
  8
0
  6
Continuous
 62
     7
370
    15
100
AcDbLine
 10
208.5498241371
 20
242.7255310739
 30
0.0
 11
208.5524128487
 21
242.6553369172
 31
0.0
  0
LINE
  5
120
330
1F
100
AcDbEntity
  8
0
  6
Continuous
 62
     7
370
    15
100
AcDbLine
 10
207.9530913866
 20
242.6553369172
 30
0.0
 11
207.9556800982
 21
242.7255310739
 31
0.0
  0
CIRCLE
  5
121
330
1F
100
AcDbEntity
  8
0
  6
Continuous
 62
     7
370
    15
100
AcDbCircle
 10
208.2527521177
 20
64.8301819935
 30
0.0
 40
4.0
  0
ARC
  5
122
330
1F
100
AcDbEntity
  8
0
  6
Continuous
 62
     7
370
    15
100
AcDbCircle
 10
208.2527521177
 20
64.836305056
 30
0.0
 40
4.009548205058659
100
AcDbArc
 50
94.2490034826
 51
85.7509965174
  0
LINE
  5
123
330
1F
100
AcDbEntity
  8
0
  6
Continuous
 62
     7
370
    15
100
AcDbLine
 10
207.9556800982
 20
68.8348329131
 30
0.0
 11
207.9530913866
 21
68.9050270698
 31
0.0
  0
LINE
  5
124
330
1F
100
AcDbEntity
  8
0
  6
Continuous
 62
     7
370
    15
100
AcDbLine
 10
208.5524128487
 20
68.9050270698
 30
0.0
 11
208.5498241371
 21
68.8348329131
 31
0.0
  0
LINE
  5
125
330
1F
100
AcDbEntity
  8
0
  6
Continuous
 62
     7
370
    15
100
AcDbLine
 10
205.3053351808
 20
242.7255310739
 30
0.0
 11
205.2351410242
 21
242.6553369172
 31
0.0
  0
LINE
  5
126
330
1F
100
AcDbEntity
  8
0
  6
Continuous
 62
     7
370
    15
100
AcDbLine
 10
207.9556800982
 20
242.7255310739
 30
0.0
 11
205.3053351808
 21
242.7255310739
 31
0.0
  0
LINE
  5
127
330
1F
100
AcDbEntity
  8
0
  6
Continuous
 62
     7
370
    15
100
AcDbLine
 10
211.2001690545
 20
68.8348329131
 30
0.0
 11
211.2703632111
 21
68.9050270698
 31
0.0
  0
LINE
  5
128
330
1F
100
AcDbEntity
  8
0
  6
Continuous
 62
     7
370
    15
100
AcDbLine
 10
208.5498241371
 20
68.8348329131
 30
0.0
 11
211.2001690545
 21
68.8348329131
 31
0.0
  0
LINE
  5
129
330
1F
100
AcDbEntity
  8
0
  6
Continuous
 62
     7
370
    15
100
AcDbLine
 10
205.3053351808
 20
68.8348329131
 30
0.0
 11
207.9556800982
 21
68.8348329131
 31
0.0
  0
LINE
  5
12A
330
1F
100
AcDbEntity
  8
0
  6
Continuous
 62
     7
370
    15
100
AcDbLine
 10
205.2351410242
 20
68.9050270698
 30
0.0
 11
205.3053351808
 21
68.8348329131
 31
0.0
  0
LINE
  5
12B
330
1F
100
AcDbEntity
  8
0
  6
Continuous
 62
     7
370
    15
100
AcDbLine
 10
202.2401856078
 20
245.6594676718
 30
0.0
 11
202.3103797644
 21
245.7296618285
 31
0.0
  0
ELLIPSE
  5
12C
330
1F
100
AcDbEntity
  8
0
  6
Continuous
 62
     7
370
    15
100
AcDbEllipse
 10
205.3108381463
 20
245.7305771249
 30
0.0
 11
1.275904273852916
 21
2.722153738192503
 31
0.0
210
0.0
220
0.0
230
1.0
 40
0.9976165555
 41
2.008489440991017
 42
3.578981181290769
  0
LINE
  5
12D
330
1F
100
AcDbEntity
  8
0
  6
Continuous
 62
     7
370
    15
100
AcDbLine
 10
214.1951244709
 20
245.7296618285
 30
0.0
 11
214.2653186276
 21
245.6594676718
 31
0.0
  0
LINE
  5
12E
330
1F
100
AcDbEntity
  8
0
  6
Continuous
 62
     7
370
    15
100
AcDbLine
 10
211.2703632111
 20
242.6553369172
 30
0.0
 11
211.2001690545
 21
242.7255310739
 31
0.0
  0
ELLIPSE
  5
12F
330
1F
100
AcDbEntity
  8
0
  6
Continuous
 62
     7
370
    15
100
AcDbEllipse
 10
211.194666089
 20
245.7305771249
 30
0.0
 11
-1.275904273852888
 21
2.722153738192504
 31
0.0
210
0.0
220
0.0
230
1.0
 40
0.9976165555
 41
2.704204125888841
 42
4.274695866188599
  0
LINE
  5
130
330
1F
100
AcDbEntity
  8
0
  6
Continuous
 62
     7
370
    15
100
AcDbLine
 10
214.2653186276
 20
65.9008963153
 30
0.0
 11
214.1951244709
 21
65.8307021586
 31
0.0
  0
ELLIPSE
  5
131
330
1F
100
AcDbEntity
  8
0
  6
Continuous
 62
     7
370
    15
100
AcDbEllipse
 10
211.194666089
 20
65.8297868622
 30
0.0
 11
1.275904273852802
 21
2.722153738192546
 31
0.0
210
0.0
220
0.0
230
1.0
 40
0.9976165555
 41
5.150082094580782
 42
6.720573834880506
  0
LINE
  5
132
330
1F
100
AcDbEntity
  8
0
  6
Continuous
 62
     7
370
    15
100
AcDbLine
 10
211.2001690545
 20
242.7255310739
 30
0.0
 11
208.5498241371
 21
242.7255310739
 31
0.0
  0
LINE
  5
133
330
1F
100
AcDbEntity
  8
0
  6
Continuous
 62
     7
370
    15
100
AcDbLine
 10
202.3103797644
 20
65.8307021586
 30
0.0
 11
202.2401856078
 21
65.9008963153
 31
0.0
  0
ELLIPSE
  5
134
330
1F
100
AcDbEntity
  8
0
  6
Continuous
 62
     7
370
    15
100
AcDbEllipse
 10
205.3108381463
 20
65.8297868622
 30
0.0
 11
-1.275904273852774
 21
2.722153738192546
 31
0.0
210
0.0
220
0.0
230
1.0
 40
0.9976165555
 41
5.845796779478689
 42
7.416288519778419
  0
LINE
  5
135
330
1F
100
AcDbEntity
  8
0
  6
Continuous
 62
     7
370
    15
100
AcDbLine
 10
378.07399599
 20
242.6018827768
 30
0.0
 11
378.003427805
 21
242.5313145918
 31
0.0
  0
LINE
  5
136
330
1F
100
AcDbEntity
  8
0
  6
Continuous
 62
     7
370
    15
100
AcDbLine
 10
375.0038847195
 20
245.5308576773
 30
0.0
 11
375.0744529045
 21
245.6014258623
 31
0.0
  0
ELLIPSE
  5
137
330
1F
100
AcDbEntity
  8
0
  6
Continuous
 62
     7
370
    15
100
AcDbEllipse
 10
378.0795073849
 20
245.6069372572
 30
0.0
 11
2.128467419125968
 21
2.128467419125911
 31
0.0
210
0.0
220
0.0
230
1.0
 40
0.9966421494
 41
2.356346783439935
 42
3.92683852373971
  0
LINE
  5
138
330
1F
100
AcDbEntity
  8
0
  6
Continuous
 62
     7
370
    15
100
AcDbLine
 10
38.4315082453
 20
68.9584812102
 30
0.0
 11
38.5020764303
 21
69.0290493952
 31
0.0
  0
LINE
  5
139
330
1F
100
AcDbEntity
  8
0
  6
Continuous
 62
     7
370
    15
100
AcDbLine
 10
41.5016195158
 20
66.0295063098
 30
0.0
 11
41.4310513308
 21
65.9589381248
 31
0.0
  0
ELLIPSE
  5
13A
330
1F
100
AcDbEntity
  8
0
  6
Continuous
 62
     7
370
    15
100
AcDbEllipse
 10
38.4259968504
 20
65.9534267298
 30
0.0
 11
2.128467419125919
 21
2.128467419125911
 31
0.0
210
0.0
220
0.0
230
1.0
 40
0.9966421494
 41
5.497939437029733
 42
7.068431177329455
  0
LINE
  5
13B
330
1F
100
AcDbEntity
  8
0
  6
Continuous
 62
     7
370
    15
100
AcDbLine
 10
41.4310513308
 20
245.6014258623
 30
0.0
 11
41.5016195158
 21
245.5308576773
 31
0.0
  0
LINE
  5
13C
330
1F
100
AcDbEntity
  8
0
  6
Continuous
 62
     7
370
    15
100
AcDbLine
 10
38.5020764303
 20
242.5313145918
 30
0.0
 11
38.4315082453
 21
242.6018827768
 31
0.0
  0
ELLIPSE
  5
13D
330
1F
100
AcDbEntity
  8
0
  6
Continuous
 62
     7
370
    15
100
AcDbEllipse
 10
38.4259968504
 20
245.6069372572
 30
0.0
 11
2.128467419125919
 21
-2.12846741912594
 31
0.0
210
0.0
220
0.0
230
1.0
 40
0.9966421494
 41
5.497939437029727
 42
7.068431177329453
  0
LINE
  5
13E
330
1F
100
AcDbEntity
  8
0
  6
Continuous
 62
     7
370
    15
100
AcDbLine
 10
375.0744529045
 20
65.9589381248
 30
0.0
 11
375.0038847195
 21
66.0295063098
 31
0.0
  0
LINE
  5
13F
330
1F
100
AcDbEntity
  8
0
  6
Continuous
 62
     7
370
    15
100
AcDbLine
 10
378.003427805
 20
69.0290493952
 30
0.0
 11
378.07399599
 21
68.9584812102
 31
0.0
  0
ELLIPSE
  5
140
330
1F
100
AcDbEntity
  8
0
  6
Continuous
 62
     7
370
    15
100
AcDbEllipse
 10
378.0795073849
 20
65.9534267298
 30
0.0
 11
2.128467419125911
 21
-2.128467419125925
 31
0.0
210
0.0
220
0.0
230
1.0
 40
0.9966421494
 41
2.356346783439913
 42
3.926838523739685
  0
LINE
  5
141
330
1F
100
AcDbEntity
  8
0
  6
Continuous
 62
     7
370
    15
100
AcDbLine
 10
202.3185195783
 20
60.5005301468
 30
0.0
 11
202.3103797644
 21
65.8307021586
 31
0.0
  0
LINE
  5
142
330
1F
100
AcDbEntity
  8
0
  6
Continuous
 62
     7
370
    15
100
AcDbLine
 10
202.2485394846
 20
60.430550053
 30
0.0
 11
202.3185195783
 21
60.5005301468
 31
0.0
  0
LINE
  5
143
330
1F
100
AcDbEntity
  8
0
  6
Continuous
 62
     7
370
    15
100
AcDbLine
 10
202.3185195783
 20
251.0598338403
 30
0.0
 11
202.2485394846
 21
251.129813934
 31
0.0
  0
LINE
  5
144
330
1F
100
AcDbEntity
  8
0
  6
Continuous
 62
     7
370
    15
100
AcDbLine
 10
202.3103797644
 20
245.7296618285
 30
0.0
 11
202.3185195783
 21
251.0598338403
 31
0.0
  0
LINE
  5
145
330
1F
100
AcDbEntity
  8
0
  6
Continuous
 62
     7
370
    15
100
AcDbLine
 10
214.2569647507
 20
251.129813934
 30
0.0
 11
214.186984657
 21
251.0598338403
 31
0.0
  0
LINE
  5
146
330
1F
100
AcDbEntity
  8
0
  6
Continuous
 62
     7
370
    15
100
AcDbLine
 10
214.186984657
 20
251.0598338403
 30
0.0
 11
214.1951244709
 21
245.7296618285
 31
0.0
  0
LINE
  5
147
330
1F
100
AcDbEntity
  8
0
  6
Continuous
 62
     7
370
    15
100
AcDbLine
 10
214.186984657
 20
60.5005301468
 30
0.0
 11
214.2569647507
 21
60.430550053
 31
0.0
  0
LINE
  5
148
330
1F
100
AcDbEntity
  8
0
  6
Continuous
 62
     7
370
    15
100
AcDbLine
 10
214.1951244709
 20
65.8307021586
 30
0.0
 11
214.186984657
 21
60.5005301468
 31
0.0
  0
LINE
  5
149
330
1F
100
AcDbEntity
  8
0
  6
Continuous
 62
     7
370
    15
100
AcDbLine
 10
375.0828863444
 20
251.1154387599
 30
0.0
 11
375.0125334386
 21
251.1856259945
 31
0.0
  0
LINE
  5
14A
330
1F
100
AcDbEntity
  8
0
  6
Continuous
 62
     7
370
    15
100
AcDbLine
 10
375.0828863444
 20
251.1154387599
 30
0.0
 11
375.0744529045
 21
245.6014258623
 31
0.0
  0
LINE
  5
14B
330
1F
100
AcDbEntity
  8
0
  6
Continuous
 62
     7
370
    15
100
AcDbLine
 10
41.4226178909
 20
60.4449252272
 30
0.0
 11
41.4929707967
 21
60.3747379926
 31
0.0
  0
LINE
  5
14C
330
1F
100
AcDbEntity
  8
0
  6
Continuous
 62
     7
370
    15
100
AcDbLine
 10
41.4226178909
 20
60.4449252272
 30
0.0
 11
41.4310513308
 21
65.9589381248
 31
0.0
  0
LINE
  5
14D
330
1F
100
AcDbEntity
  8
0
  6
Continuous
 62
     7
370
    15
100
AcDbLine
 10
32.9174953513
 20
242.6103162167
 30
0.0
 11
32.8473081167
 21
242.539963311
 31
0.0
  0
LINE
  5
14E
330
1F
100
AcDbEntity
  8
0
  6
Continuous
 62
     7
370
    15
100
AcDbLine
 10
38.4315082453
 20
242.6018827768
 30
0.0
 11
32.9174953513
 21
242.6103162167
 31
0.0
  0
LINE
  5
14F
330
1F
100
AcDbEntity
  8
0
  6
Continuous
 62
     7
370
    15
100
AcDbLine
 10
375.0828863444
 20
60.4449252272
 30
0.0
 11
375.0744529045
 21
65.9589381248
 31
0.0
  0
LINE
  5
150
330
1F
100
AcDbEntity
  8
0
  6
Continuous
 62
     7
370
    15
100
AcDbLine
 10
375.0125334386
 20
60.3747379926
 30
0.0
 11
375.0828863444
 21
60.4449252272
 31
0.0
  0
LINE
  5
151
330
1F
100
AcDbEntity
  8
0
  6
Continuous
 62
     7
370
    15
100
AcDbLine
 10
383.6581961186
 20
242.539963311
 30
0.0
 11
383.588008884
 21
242.6103162167
 31
0.0
  0
LINE
  5
152
330
1F
100
AcDbEntity
  8
0
  6
Continuous
 62
     7
370
    15
100
AcDbLine
 10
378.07399599
 20
242.6018827768
 30
0.0
 11
383.588008884
 21
242.6103162167
 31
0.0
  0
LINE
  5
153
330
1F
100
AcDbEntity
  8
0
  6
Continuous
 62
     7
370
    15
100
AcDbLine
 10
38.4315082453
 20
68.9584812102
 30
0.0
 11
32.9174953513
 21
68.9500477703
 31
0.0
  0
LINE
  5
154
330
1F
100
AcDbEntity
  8
0
  6
Continuous
 62
     7
370
    15
100
AcDbLine
 10
32.8473081167
 20
69.0204006761
 30
0.0
 11
32.9174953513
 21
68.9500477703
 31
0.0
  0
LINE
  5
155
330
1F
100
AcDbEntity
  8
0
  6
Continuous
 62
     7
370
    15
100
AcDbLine
 10
383.588008884
 20
68.9500477703
 30
0.0
 11
383.6581961186
 21
69.0204006761
 31
0.0
  0
LINE
  5
156
330
1F
100
AcDbEntity
  8
0
  6
Continuous
 62
     7
370
    15
100
AcDbLine
 10
378.07399599
 20
68.9584812102
 30
0.0
 11
383.588008884
 21
68.9500477703
 31
0.0
  0
LINE
  5
157
330
1F
100
AcDbEntity
  8
0
  6
Continuous
 62
     7
370
    15
100
AcDbLine
 10
41.4226178909
 20
251.1154387599
 30
0.0
 11
41.4310513308
 21
245.6014258623
 31
0.0
  0
LINE
  5
158
330
1F
100
AcDbEntity
  8
0
  6
Continuous
 62
     7
370
    15
100
AcDbLine
 10
41.4929707967
 20
251.1856259945
 30
0.0
 11
41.4226178909
 21
251.1154387599
 31
0.0
  0
LINE
  5
159
330
1F
100
AcDbEntity
  8
0
  6
Continuous
 62
     7
370
    15
100
AcDbLine
 10
205.2526562486
 20
254.1247833409
 30
0.0
 11
205.3226363424
 21
254.0548032472
 31
0.0
  0
ELLIPSE
  5
15A
330
1F
100
AcDbEntity
  8
0
  6
Continuous
 62
     7
370
    15
100
AcDbEllipse
 10
205.318975169
 20
251.0589213351
 30
0.0
 11
2.83214464239424
 21
0.9927518200384213
 31
0.0
210
0.0
220
0.0
230
1.0
 40
0.9980475359
 41
1.233038807179525
 42
2.803530547479254
  0
LINE
  5
15B
330
1F
100
AcDbEntity
  8
0
  6
Continuous
 62
     7
370
    15
100
AcDbLine
 10
205.3226363424
 20
57.5055607399
 30
0.0
 11
205.2526562486
 21
57.4355806461
 31
0.0
  0
ELLIPSE
  5
15C
330
1F
100
AcDbEntity
  8
0
  6
Continuous
 62
     7
370
    15
100
AcDbEllipse
 10
205.318975169
 20
60.5014426519
 30
0.0
 11
2.832144642394212
 21
-0.9927518200385778
 31
0.0
210
0.0
220
0.0
230
1.0
 40
0.9980475359
 41
3.479654759700402
 42
5.050146500000131
  0
LINE
  5
15D
330
1F
100
AcDbEntity
  8
0
  6
Continuous
 62
     7
370
    15
100
AcDbLine
 10
211.2528479867
 20
57.4355806461
 30
0.0
 11
211.1828678929
 21
57.5055607399
 31
0.0
  0
ELLIPSE
  5
15E
330
1F
100
AcDbEntity
  8
0
  6
Continuous
 62
     7
370
    15
100
AcDbEllipse
 10
211.1865290663
 20
60.5014426519
 30
0.0
 11
2.832144642394155
 21
0.9927518200385778
 31
0.0
210
0.0
220
0.0
230
1.0
 40
0.9980475359
 41
4.374631460769255
 42
5.945123201069005
  0
LINE
  5
15F
330
1F
100
AcDbEntity
  8
0
  6
Continuous
 62
     7
370
    15
100
AcDbLine
 10
211.1828678929
 20
254.0548032472
 30
0.0
 11
211.2528479867
 21
254.1247833409
 31
0.0
  0
ELLIPSE
  5
160
330
1F
100
AcDbEntity
  8
0
  6
Continuous
 62
     7
370
    15
100
AcDbEllipse
 10
211.1865290663
 20
251.0589213351
 30
0.0
 11
2.832144642394212
 21
-0.9927518200384498
 31
0.0
210
0.0
220
0.0
230
1.0
 40
0.9980475359
 41
0.3380621061105505
 42
1.908553846410291
  0
LINE
  5
161
330
1F
100
AcDbEntity
  8
0
  6
Continuous
 62
     7
370
    15
100
AcDbLine
 10
386.5784146344
 20
245.6119380312
 30
0.0
 11
386.648601869
 21
245.5415851254
 31
0.0
  0
ELLIPSE
  5
162
330
1F
100
AcDbEntity
  8
0
  6
Continuous
 62
     7
370
    15
100
AcDbEllipse
 10
383.5825272414
 20
245.6153538838
 30
0.0
 11
-0.1496362782468168
 21
3.001336073420163
 31
0.0
210
0.0
220
0.0
230
1.0
 40
0.9969390515
 41
3.093454372471972
 42
4.661589196005326
  0
LINE
  5
163
330
1F
100
AcDbEntity
  8
0
  6
Continuous
 62
     7
370
    15
100
AcDbLine
 10
386.648601869
 20
66.0187788616
 30
0.0
 11
386.5784146344
 21
65.9484259559
 31
0.0
  0
ELLIPSE
  5
164
330
1F
100
AcDbEntity
  8
0
  6
Continuous
 62
     7
370
    15
100
AcDbEllipse
 10
383.5825272414
 20
65.9450101033
 30
0.0
 11
0.1496362782468736
 21
3.001336073420191
 31
0.0
210
0.0
220
0.0
230
1.0
 40
0.9969390515
 41
4.763188764764104
 42
6.331323588297426
  0
LINE
  5
165
330
1F
100
AcDbEntity
  8
0
  6
Continuous
 62
     7
370
    15
100
AcDbLine
 10
29.9270896009
 20
65.9484259559
 30
0.0
 11
29.8569023663
 21
66.0187788616
 31
0.0
  0
ELLIPSE
  5
166
330
1F
100
AcDbEntity
  8
0
  6
Continuous
 62
     7
370
    15
100
AcDbEllipse
 10
32.9229769939
 20
65.9450101033
 30
0.0
 11
-0.1496362782467955
 21
3.001336073420191
 31
0.0
210
0.0
220
0.0
230
1.0
 40
0.9969390515
 41
6.235047026061761
 42
7.803181849595108
  0
LINE
  5
167
330
1F
100
AcDbEntity
  8
0
  6
Continuous
 62
     7
370
    15
100
AcDbLine
 10
29.8569023663
 20
245.5415851254
 30
0.0
 11
29.9270896009
 21
245.6119380312
 31
0.0
  0
ELLIPSE
  5
168
330
1F
100
AcDbEntity
  8
0
  6
Continuous
 62
     7
370
    15
100
AcDbEllipse
 10
32.9229769939
 20
245.6153538838
 30
0.0
 11
0.1496362782467955
 21
3.001336073420163
 31
0.0
210
0.0
220
0.0
230
1.0
 40
0.9969390515
 41
1.621596111174268
 42
3.189730934707637
  0
LINE
  5
169
330
1F
100
AcDbEntity
  8
0
  6
Continuous
 62
     7
370
    15
100
AcDbLine
 10
378.0845081589
 20
57.4545194768
 30
0.0
 11
378.0141552531
 21
57.3843322422
 31
0.0
  0
ELLIPSE
  5
16A
330
1F
100
AcDbEntity
  8
0
  6
Continuous
 62
     7
370
    15
100
AcDbEllipse
 10
378.0879240115
 20
60.4504068698
 30
0.0
 11
3.001336073420134
 21
0.1496362782467955
 31
0.0
210
0.0
220
0.0
230
1.0
 40
0.9969390515
 41
3.093454372471959
 42
4.661589196005331
  0
LINE
  5
16B
330
1F
100
AcDbEntity
  8
0
  6
Continuous
 62
     7
370
    15
100
AcDbLine
 10
378.0141552531
 20
254.1760317449
 30
0.0
 11
378.0845081589
 21
254.1058445103
 31
0.0
  0
ELLIPSE
  5
16C
330
1F
100
AcDbEntity
  8
0
  6
Continuous
 62
     7
370
    15
100
AcDbEllipse
 10
378.0879240115
 20
251.1099571173
 30
0.0
 11
3.001336073420135
 21
-0.1496362782468168
 31
0.0
210
0.0
220
0.0
230
1.0
 40
0.9969390515
 41
1.621596111174276
 42
3.189730934707646
  0
LINE
  5
16D
330
1F
100
AcDbEntity
  8
0
  6
Continuous
 62
     7
370
    15
100
AcDbLine
 10
38.4913489822
 20
57.3843322422
 30
0.0
 11
38.4209960764
 21
57.4545194768
 31
0.0
  0
ELLIPSE
  5
16E
330
1F
100
AcDbEntity
  8
0
  6
Continuous
 62
     7
370
    15
100
AcDbEllipse
 10
38.4175802239
 20
60.4504068698
 30
0.0
 11
3.001336073420177
 21
-0.1496362782467884
 31
0.0
210
0.0
220
0.0
230
1.0
 40
0.9969390515
 41
4.763188764764068
 42
6.331323588297417
  0
LINE
  5
16F
330
1F
100
AcDbEntity
  8
0
  6
Continuous
 62
     7
370
    15
100
AcDbLine
 10
38.4209960764
 20
254.1058445103
 30
0.0
 11
38.4913489822
 21
254.1760317449
 31
0.0
  0
ELLIPSE
  5
170
330
1F
100
AcDbEntity
  8
0
  6
Continuous
 62
     7
370
    15
100
AcDbEllipse
 10
38.4175802239
 20
251.1099571173
 30
0.0
 11
3.001336073420177
 21
0.1496362782468168
 31
0.0
210
0.0
220
0.0
230
1.0
 40
0.9969390515
 41
6.235047026061761
 42
7.803181849595109
  0
LINE
  5
171
330
1F
100
AcDbEntity
  8
0
  6
Continuous
 62
     7
370
    15
100
AcDbLine
 10
205.3226363424
 20
254.0548032472
 30
0.0
 11
211.1828678929
 21
254.0548032472
 31
0.0
  0
LINE
  5
172
330
1F
100
AcDbEntity
  8
0
  6
Continuous
 62
     7
370
    15
100
AcDbLine
 10
211.1828678929
 20
57.5055607399
 30
0.0
 11
205.3226363424
 21
57.5055607399
 31
0.0
  0
SPLINE
  5
173
330
1F
100
AcDbEntity
  8
0
  6
Continuous
 62
     7
370
    15
100
AcDbSpline
210
0.0
220
0.0
230
1.0
 70
     8
 71
     3
 72
    12
 73
     8
 74
     0
 42
0.000000001
 43
0.00000001
 40
0.0
 40
0.0
 40
0.0
 40
0.0
 40
0.5000000000000002
 40
0.7500000000000003
 40
0.8750000000000001
 40
0.8750000000000001
 40
1.0
 40
1.0
 40
1.0
 40
1.0
 10
382.3550278614757
 20
55.68018199352939
 30
0.0
 10
382.2857946025723
 20
55.75305865455722
 30
0.0
 10
382.3184291336398
 20
55.86247222288826
 30
0.0
 10
382.3439982572857
 20
55.99011235448485
 30
0.0
 10
382.325346322228
 20
56.04479388191024
 30
0.0
 10
382.3033393813147
 20
56.08124131985644
 30
0.0
 10
382.2855147427737
 20
56.099460112195
 30
0.0
 10
382.2672962349098
 20
56.1176786200589
 30
0.0
  0
LINE
  5
174
330
1F
100
AcDbEntity
  8
0
  6
Continuous
 62
     7
370
    15
100
AcDbLine
 10
382.3550278615
 20
55.6801819935
 30
0.0
 11
34.1504763738
 21
55.6801819935
 31
0.0
  0
SPLINE
  5
175
330
1F
100
AcDbEntity
  8
0
  6
Continuous
 62
     7
370
    15
100
AcDbSpline
210
0.0
220
0.0
230
1.0
 70
     8
 71
     3
 72
    12
 73
     8
 74
     0
 42
0.000000001
 43
0.00000001
 40
0.0
 40
0.0
 40
0.0
 40
0.0
 40
0.1249999999999998
 40
0.1249999999999998
 40
0.2499999999999997
 40
0.4999999999999998
 40
1.0
 40
1.0
 40
1.0
 40
1.0
 10
34.23820800039262
 20
56.1176786200589
 30
0.0
 10
34.21998949252878
 20
56.09946011219508
 30
0.0
 10
34.20216485398783
 20
56.08124131985642
 30
0.0
 10
34.18015791307447
 20
56.04479388191022
 30
0.0
 10
34.16150597801671
 20
55.99011235448484
 30
0.0
 10
34.18707510166261
 20
55.86247222288823
 30
0.0
 10
34.21970963273021
 20
55.75305865455721
 30
0.0
 10
34.15047637382676
 20
55.68018199352937
 30
0.0
  0
SPLINE
  5
176
330
1F
100
AcDbEntity
  8
0
  6
Continuous
 62
     7
370
    15
100
AcDbSpline
210
0.0
220
0.0
230
1.0
 70
     8
 71
     3
 72
    12
 73
     8
 74
     0
 42
0.000000001
 43
0.00000001
 40
0.0
 40
0.0
 40
0.0
 40
0.0
 40
0.125
 40
0.125
 40
0.2500000000000001
 40
0.5000000000000001
 40
1.0
 40
1.0
 40
1.0
 40
1.0
 10
382.2672962349098
 20
255.4426853669999
 30
0.0
 10
382.2855147427737
 20
255.4609038748638
 30
0.0
 10
382.3033393813146
 20
255.4791226672023
 30
0.0
 10
382.325346322228
 20
255.5155701051486
 30
0.0
 10
382.3439982572859
 20
255.570251632574
 30
0.0
 10
382.3184291336398
 20
255.6978917641706
 30
0.0
 10
382.2857946025722
 20
255.8073053325015
 30
0.0
 10
382.3550278614757
 20
255.8801819935294
 30
0.0
  0
SPLINE
  5
177
330
1F
100
AcDbEntity
  8
0
  6
Continuous
 62
     7
370
    15
100
AcDbSpline
210
0.0
220
0.0
230
1.0
 70
     8
 71
     3
 72
    12
 73
     8
 74
     0
 42
0.000000001
 43
0.00000001
 40
0.0
 40
0.0
 40
0.0
 40
0.0
 40
0.5
 40
0.7499999999999998
 40
0.8749999999999999
 40
0.8749999999999999
 40
1.0
 40
1.0
 40
1.0
 40
1.0
 10
34.15047637382671
 20
255.8801819935294
 30
0.0
 10
34.21970963273019
 20
255.8073053325016
 30
0.0
 10
34.18707510166271
 20
255.6978917641705
 30
0.0
 10
34.16150597801668
 20
255.570251632574
 30
0.0
 10
34.18015791307441
 20
255.5155701051486
 30
0.0
 10
34.20216485398783
 20
255.4791226672024
 30
0.0
 10
34.2199894925288
 20
255.4609038748638
 30
0.0
 10
34.23820800039262
 20
255.4426853669999
 30
0.0
  0
LINE
  5
178
330
1F
100
AcDbEntity
  8
0
  6
Continuous
 62
     7
370
    15
100
AcDbLine
 10
382.3550278615
 20
255.8801819935
 30
0.0
 11
34.1504763738
 21
255.8801819935
 31
0.0
  0
SPLINE
  5
179
330
1F
100
AcDbEntity
  8
0
  6
Continuous
 62
     7
370
    15
100
AcDbSpline
210
0.0
220
0.0
230
1.0
 70
     8
 71
     3
 72
    12
 73
     8
 74
     0
 42
0.000000001
 43
0.00000001
 40
0.0
 40
0.0
 40
0.0
 40
0.0
 40
0.1249999999999998
 40
0.1249999999999998
 40
0.2499999999999996
 40
0.4999999999999997
 40
1.0
 40
1.0
 40
1.0
 40
1.0
 10
28.5902487441807
 20
61.76563787627074
 30
0.0
 10
28.57203023631683
 20
61.74741936840686
 30
0.0
 10
28.55381144397831
 20
61.729594729866
 30
0.0
 10
28.51736400603205
 20
61.70758778895255
 30
0.0
 10
28.4626824786067
 20
61.68893585389486
 30
0.0
 10
28.33504234701018
 20
61.71450497754083
 30
0.0
 10
28.22562877867907
 20
61.74713950860831
 30
0.0
 10
28.15275211765128
 20
61.67790624970488
 30
0.0
  0
LINE
  5
17A
330
1F
100
AcDbEntity
  8
0
  6
Continuous
 62
     7
370
    15
100
AcDbLine
 10
28.1527521177
 20
61.6779062497
 30
0.0
 11
28.1527521177
 21
249.8824577374
 31
0.0
  0
SPLINE
  5
17B
330
1F
100
AcDbEntity
  8
0
  6
Continuous
 62
     7
370
    15
100
AcDbSpline
210
0.0
220
0.0
230
1.0
 70
     8
 71
     3
 72
    12
 73
     8
 74
     0
 42
0.000000001
 43
0.00000001
 40
0.0
 40
0.0
 40
0.0
 40
0.0
 40
0.4999999999999999
 40
0.7499999999999998
 40
0.8749999999999999
 40
0.8749999999999999
 40
1.0
 40
1.0
 40
1.0
 40
1.0
 10
28.15275211765117
 20
249.8824577373539
 30
0.0
 10
28.22562877867901
 20
249.8132244784505
 30
0.0
 10
28.33504234701006
 20
249.845859009518
 30
0.0
 10
28.46268247860665
 20
249.8714281331639
 30
0.0
 10
28.517364006032
 20
249.8527761981063
 30
0.0
 10
28.55381144397825
 20
249.8307692571928
 30
0.0
 10
28.57203023631697
 20
249.8129446186519
 30
0.0
 10
28.59024874418078
 20
249.794726110788
 30
0.0
  0
SPLINE
  5
17C
330
1F
100
AcDbEntity
  8
0
  6
Continuous
 62
     7
370
    15
100
AcDbSpline
210
0.0
220
0.0
230
1.0
 70
     8
 71
     3
 72
    12
 73
     8
 74
     0
 42
0.000000001
 43
0.00000001
 40
0.0
 40
0.0
 40
0.0
 40
0.0
 40
0.1249999999999999
 40
0.1249999999999999
 40
0.2499999999999999
 40
0.5
 40
1.0
 40
1.0
 40
1.0
 40
1.0
 10
387.9152554911217
 20
249.794726110788
 30
0.0
 10
387.9334739989855
 20
249.8129446186519
 30
0.0
 10
387.9516927913242
 20
249.8307692571928
 30
0.0
 10
387.9881402292704
 20
249.8527761981062
 30
0.0
 10
388.0428217566957
 20
249.8714281331639
 30
0.0
 10
388.1704618882924
 20
249.845859009518
 30
0.0
 10
388.2798754566234
 20
249.8132244784504
 30
0.0
 10
388.3527521176512
 20
249.8824577373539
 30
0.0
  0
LINE
  5
17D
330
1F
100
AcDbEntity
  8
0
  6
Continuous
 62
     7
370
    15
100
AcDbLine
 10
388.3527521177
 20
61.6779062497
 30
0.0
 11
388.3527521177
 21
249.8824577374
 31
0.0
  0
SPLINE
  5
17E
330
1F
100
AcDbEntity
  8
0
  6
Continuous
 62
     7
370
    15
100
AcDbSpline
210
0.0
220
0.0
230
1.0
 70
     8
 71
     3
 72
    12
 73
     8
 74
     0
 42
0.000000001
 43
0.00000001
 40
0.0
 40
0.0
 40
0.0
 40
0.0
 40
0.4999999999999999
 40
0.7499999999999998
 40
0.8749999999999999
 40
0.8749999999999999
 40
1.0
 40
1.0
 40
1.0
 40
1.0
 10
388.3527521176513
 20
61.67790624970485
 30
0.0
 10
388.2798754566235
 20
61.74713950860829
 30
0.0
 10
388.1704618882923
 20
61.71450497754081
 30
0.0
 10
388.0428217566957
 20
61.68893585389493
 30
0.0
 10
387.9881402292704
 20
61.70758778895257
 30
0.0
 10
387.9516927913243
 20
61.729594729866
 30
0.0
 10
387.9334739989856
 20
61.74741936840694
 30
0.0
 10
387.9152554911217
 20
61.76563787627077
 30
0.0
  0
LINE
  5
17F
330
1F
100
AcDbEntity
  8
0
  6
Continuous
 62
     7
370
    15
100
AcDbLine
 10
29.9238811338
 20
62.0792944281
 30
0.0
 11
29.8536356965
 21
62.0794600415
 31
0.0
  0
LINE
  5
180
330
1F
100
AcDbEntity
  8
0
  6
Continuous
 62
     7
370
    15
100
AcDbLine
 10
29.9238811338
 20
62.0792944281
 30
0.0
 11
29.9270896009
 21
65.9484259559
 31
0.0
  0
LINE
  5
181
330
1F
100
AcDbEntity
  8
0
  6
Continuous
 62
     7
370
    15
100
AcDbLine
 10
386.5816231015
 20
249.4810695589
 30
0.0
 11
386.6518685388
 21
249.4809039456
 31
0.0
  0
LINE
  5
182
330
1F
100
AcDbEntity
  8
0
  6
Continuous
 62
     7
370
    15
100
AcDbLine
 10
386.5816231015
 20
249.4810695589
 30
0.0
 11
386.5784146344
 21
245.6119380312
 31
0.0
  0
LINE
  5
183
330
1F
100
AcDbEntity
  8
0
  6
Continuous
 62
     7
370
    15
100
AcDbLine
 10
386.5816231015
 20
62.0792944281
 30
0.0
 11
386.6518685388
 21
62.0794600415
 31
0.0
  0
LINE
  5
184
330
1F
100
AcDbEntity
  8
0
  6
Continuous
 62
     7
370
    15
100
AcDbLine
 10
386.5816231015
 20
62.0792944281
 30
0.0
 11
386.5784146344
 21
65.9484259559
 31
0.0
  0
LINE
  5
185
330
1F
100
AcDbEntity
  8
0
  6
Continuous
 62
     7
370
    15
100
AcDbLine
 10
29.9238811338
 20
249.4810695589
 30
0.0
 11
29.8536356965
 21
249.4809039456
 31
0.0
  0
LINE
  5
186
330
1F
100
AcDbEntity
  8
0
  6
Continuous
 62
     7
370
    15
100
AcDbLine
 10
29.9238811338
 20
249.4810695589
 30
0.0
 11
29.9270896009
 21
245.6119380312
 31
0.0
  0
LINE
  5
187
330
1F
100
AcDbEntity
  8
0
  6
Continuous
 62
     7
370
    15
100
AcDbLine
 10
34.5518645523
 20
57.4513110096
 30
0.0
 11
34.5520301656
 21
57.3810655724
 31
0.0
  0
LINE
  5
188
330
1F
100
AcDbEntity
  8
0
  6
Continuous
 62
     7
370
    15
100
AcDbLine
 10
34.5518645523
 20
57.4513110096
 30
0.0
 11
38.4209960764
 21
57.4545194768
 31
0.0
  0
LINE
  5
189
330
1F
100
AcDbEntity
  8
0
  6
Continuous
 62
     7
370
    15
100
AcDbLine
 10
381.953639683
 20
254.1090529774
 30
0.0
 11
381.9534740697
 21
254.1792984146
 31
0.0
  0
LINE
  5
18A
330
1F
100
AcDbEntity
  8
0
  6
Continuous
 62
     7
370
    15
100
AcDbLine
 10
381.953639683
 20
254.1090529774
 30
0.0
 11
378.0845081589
 21
254.1058445103
 31
0.0
  0
LINE
  5
18B
330
1F
100
AcDbEntity
  8
0
  6
Continuous
 62
     7
370
    15
100
AcDbLine
 10
381.953639683
 20
57.4513110096
 30
0.0
 11
381.9534740697
 21
57.3810655724
 31
0.0
  0
LINE
  5
18C
330
1F
100
AcDbEntity
  8
0
  6
Continuous
 62
     7
370
    15
100
AcDbLine
 10
381.953639683
 20
57.4513110096
 30
0.0
 11
378.0845081589
 21
57.4545194768
 31
0.0
  0
LINE
  5
18D
330
1F
100
AcDbEntity
  8
0
  6
Continuous
 62
     7
370
    15
100
AcDbLine
 10
34.5518645523
 20
254.1090529774
 30
0.0
 11
34.5520301656
 21
254.1792984146
 31
0.0
  0
LINE
  5
18E
330
1F
100
AcDbEntity
  8
0
  6
Continuous
 62
     7
370
    15
100
AcDbLine
 10
34.5518645523
 20
254.1090529774
 30
0.0
 11
38.4209960764
 21
254.1058445103
 31
0.0
  0
SPLINE
  5
18F
330
1F
100
AcDbEntity
  8
0
  6
Continuous
 62
     7
370
    15
100
AcDbSpline
210
0.0
220
0.0
230
1.0
 70
     8
 71
     3
 72
    26
 73
    22
 74
     0
 42
0.000000001
 43
0.00000001
 40
0.0
 40
0.0
 40
0.0
 40
0.0
 40
0.1250000000000073
 40
0.1250000000000073
 40
0.1875000000000105
 40
0.1875000000000105
 40
0.2500000000000138
 40
0.2500000000000138
 40
0.375000000000012
 40
0.375000000000012
 40
0.5000000000000103
 40
0.5000000000000103
 40
0.6250000000000087
 40
0.6250000000000087
 40
0.6875000000000072
 40
0.6875000000000072
 40
0.7500000000000058
 40
0.7500000000000058
 40
0.8750000000000029
 40
0.8750000000000029
 40
1.0
 40
1.0
 40
1.0
 40
1.0
 10
34.15047637382676
 20
55.68018199352939
 30
0.0
 10
33.75445435122956
 20
55.68018199352941
 30
0.0
 10
33.36504084333821
 20
55.7189954420448
 30
0.0
 10
32.79043146533797
 20
55.83307539822872
 30
0.0
 10
32.60049190798872
 20
55.88048105233631
 30
0.0
 10
32.22387977843505
 20
55.99448017587094
 30
0.0
 10
32.03668501208492
 20
56.06139901458164
 30
0.0
 10
31.49213486989044
 20
56.28688936146914
 30
0.0
 10
31.14776069314051
 20
56.47088453747322
 30
0.0
 10
30.49599651111551
 20
56.90560818678278
 30
0.0
 10
30.18735598521979
 20
57.15867930948323
 30
0.0
 10
29.63409804217964
 20
57.71153972042267
 30
0.0
 10
29.38582440203619
 20
58.01320565219696
 30
0.0
 10
29.05694305012402
 20
58.50444466009816
 30
0.0
 10
28.95479870450243
 20
58.67468540787213
 30
0.0
 10
28.76966262052954
 20
59.02069172870853
 30
0.0
 10
28.68602610678672
 20
59.1973651602141
 30
0.0
 10
28.46149747996235
 20
59.73822627667722
 30
0.0
 10
28.34631707407734
 20
60.11531656650483
 30
0.0
 10
28.19157029915845
 20
60.89017249048322
 30
0.0
 10
28.15275211765128
 20
61.28188332674367
 30
0.0
 10
28.15275211765131
 20
61.67790624970489
 30
0.0
  0
SPLINE
  5
190
330
1F
100
AcDbEntity
  8
0
  6
Continuous
 62
     7
370
    15
100
AcDbSpline
210
0.0
220
0.0
230
1.0
 70
     8
 71
     3
 72
    26
 73
    22
 74
     0
 42
0.000000001
 43
0.00000001
 40
0.0
 40
0.0
 40
0.0
 40
0.0
 40
0.1249999999999977
 40
0.1249999999999977
 40
0.1874999999999957
 40
0.1874999999999957
 40
0.2499999999999937
 40
0.2499999999999937
 40
0.3749999999999972
 40
0.3749999999999972
 40
0.5000000000000007
 40
0.5000000000000007
 40
0.6250000000000041
 40
0.6250000000000041
 40
0.6875000000000034
 40
0.6875000000000034
 40
0.7500000000000028
 40
0.7500000000000028
 40
0.8750000000000013
 40
0.8750000000000013
 40
1.0
 40
1.0
 40
1.0
 40
1.0
 10
388.3527521176512
 20
61.67790624970488
 30
0.0
 10
388.3527521176512
 20
61.28188422710766
 30
0.0
 10
388.3139386691359
 20
60.89247071921628
 30
0.0
 10
388.199858712952
 20
60.31786134121611
 30
0.0
 10
388.1524530588444
 20
60.12792178386693
 30
0.0
 10
388.0384539353098
 20
59.75130965431326
 30
0.0
 10
387.9715350965989
 20
59.56411488796301
 30
0.0
 10
387.7460447497114
 20
59.01956474576856
 30
0.0
 10
387.5620495737074
 20
58.67519056901862
 30
0.0
 10
387.1273259243978
 20
58.02342638699356
 30
0.0
 10
386.8742548016975
 20
57.71478586109778
 30
0.0
 10
386.321394390758
 20
57.16152791805771
 30
0.0
 10
386.0197284589836
 20
56.91325427791437
 30
0.0
 10
385.5284894510825
 20
56.58437292600216
 30
0.0
 10
385.3582487033085
 20
56.48222858038053
 30
0.0
 10
385.0122423824721
 20
56.29709249640764
 30
0.0
 10
384.8355689509665
 20
56.21345598266473
 30
0.0
 10
384.2947078345035
 20
55.98892735584038
 30
0.0
 10
383.9176175446759
 20
55.87374694995547
 30
0.0
 10
383.1427616206975
 20
55.71900017503655
 30
0.0
 10
382.7510507844369
 20
55.68018199352939
 30
0.0
 10
382.3550278614757
 20
55.68018199352938
 30
0.0
  0
SPLINE
  5
191
330
1F
100
AcDbEntity
  8
0
  6
Continuous
 62
     7
370
    15
100
AcDbSpline
210
0.0
220
0.0
230
1.0
 70
     8
 71
     3
 72
    26
 73
    22
 74
     0
 42
0.000000001
 43
0.00000001
 40
0.0
 40
0.0
 40
0.0
 40
0.0
 40
0.1250000000000022
 40
0.1250000000000022
 40
0.1875000000000037
 40
0.1875000000000037
 40
0.2500000000000052
 40
0.2500000000000052
 40
0.3750000000000001
 40
0.3750000000000001
 40
0.4999999999999949
 40
0.4999999999999949
 40
0.6249999999999897
 40
0.6249999999999897
 40
0.6874999999999915
 40
0.6874999999999915
 40
0.7499999999999932
 40
0.7499999999999932
 40
0.8749999999999966
 40
0.8749999999999966
 40
1.0
 40
1.0
 40
1.0
 40
1.0
 10
382.3550278614757
 20
255.8801819935294
 30
0.0
 10
382.7510498840728
 20
255.8801819935294
 30
0.0
 10
383.1404633919642
 20
255.841368545014
 30
0.0
 10
383.7150727699645
 20
255.7272885888301
 30
0.0
 10
383.9050123273137
 20
255.6798829347225
 30
0.0
 10
384.2816244568673
 20
255.5658838111879
 30
0.0
 10
384.4688192232175
 20
255.4989649724772
 30
0.0
 10
385.013369365412
 20
255.2734746255896
 30
0.0
 10
385.357743542162
 20
255.0894794495856
 30
0.0
 10
386.009507724187
 20
254.654755800276
 30
0.0
 10
386.3181482500826
 20
254.4016846775756
 30
0.0
 10
386.8714061931227
 20
253.8488242666361
 30
0.0
 10
387.1196798332661
 20
253.5471583348617
 30
0.0
 10
387.4485611851783
 20
253.0559193269606
 30
0.0
 10
387.5507055308001
 20
252.8856785791866
 30
0.0
 10
387.7358416147729
 20
252.5396722583503
 30
0.0
 10
387.8194781285158
 20
252.3629988268447
 30
0.0
 10
388.0440067553401
 20
251.8221377103816
 30
0.0
 10
388.1591871612251
 20
251.4450474205539
 30
0.0
 10
388.313933936144
 20
250.6701914965755
 30
0.0
 10
388.3527521176511
 20
250.2784806603151
 30
0.0
 10
388.3527521176512
 20
249.8824577373539
 30
0.0
  0
SPLINE
  5
192
330
1F
100
AcDbEntity
  8
0
  6
Continuous
 62
     7
370
    15
100
AcDbSpline
210
0.0
220
0.0
230
1.0
 70
     8
 71
     3
 72
    26
 73
    22
 74
     0
 42
0.000000001
 43
0.00000001
 40
0.0
 40
0.0
 40
0.0
 40
0.0
 40
0.1250000000000056
 40
0.1250000000000056
 40
0.1875000000000075
 40
0.1875000000000075
 40
0.2500000000000095
 40
0.2500000000000095
 40
0.3750000000000134
 40
0.3750000000000134
 40
0.5000000000000172
 40
0.5000000000000172
 40
0.6250000000000211
 40
0.6250000000000211
 40
0.6875000000000182
 40
0.6875000000000182
 40
0.7500000000000152
 40
0.7500000000000152
 40
0.8750000000000075
 40
0.8750000000000075
 40
1.0
 40
1.0
 40
1.0
 40
1.0
 10
28.15275211765123
 20
249.8824577373539
 30
0.0
 10
28.15275211765123
 20
250.2784797599511
 30
0.0
 10
28.19156556616664
 20
250.6678932678425
 30
0.0
 10
28.30564552235046
 20
251.2425026458427
 30
0.0
 10
28.35305117645801
 20
251.4324422031918
 30
0.0
 10
28.46705029999264
 20
251.8090543327456
 30
0.0
 10
28.53396913870351
 20
251.9962490990958
 30
0.0
 10
28.759459485591
 20
252.5407992412902
 30
0.0
 10
28.94345466159504
 20
252.8851734180402
 30
0.0
 10
29.37817831090467
 20
253.5369376000652
 30
0.0
 10
29.63124943360499
 20
253.8455781259609
 30
0.0
 10
30.1841098445445
 20
254.398836069001
 30
0.0
 10
30.48577577631881
 20
254.6471097091444
 30
0.0
 10
30.97701478421999
 20
254.9759910610566
 30
0.0
 10
31.14725553199393
 20
255.0781354066782
 30
0.0
 10
31.49326185283033
 20
255.2632714906511
 30
0.0
 10
31.6699352843359
 20
255.346908004394
 30
0.0
 10
32.21079640079899
 20
255.5714366312184
 30
0.0
 10
32.58788669062668
 20
255.6866170371033
 30
0.0
 10
33.36274261460509
 20
255.8413638120222
 30
0.0
 10
33.75445345086558
 20
255.8801819935294
 30
0.0
 10
34.15047637382673
 20
255.8801819935294
 30
0.0
  0
ELLIPSE
  5
193
330
1F
100
AcDbEntity
  8
0
  6
Continuous
 62
     7
370
    15
100
AcDbEllipse
 10
381.9574634713
 20
62.0754706399
 30
0.0
 11
3.26977956874964
 21
-3.26977956886035
 31
0.0
210
0.0
220
0.0
230
1.0
 40
0.9999976679
 41
5.496959062664964
 42
7.069411551728079
  0
ELLIPSE
  5
194
330
1F
100
AcDbEntity
  8
0
  6
Continuous
 62
     7
370
    15
100
AcDbEllipse
 10
34.548040764
 20
249.4848933471
 30
0.0
 11
3.269779568749605
 21
-3.269779568860315
 31
0.0
210
0.0
220
0.0
230
1.0
 40
0.9999976679
 41
2.355366409075165
 42
3.927818898138289
  0
ELLIPSE
  5
195
330
1F
100
AcDbEntity
  8
0
  6
Continuous
 62
     7
370
    15
100
AcDbEllipse
 10
381.9574634713
 20
249.4848933471
 30
0.0
 11
3.269779568749641
 21
3.2697795688604
 31
0.0
210
0.0
220
0.0
230
1.0
 40
0.9999976679
 41
5.496959062631097
 42
7.069411551694222
  0
ELLIPSE
  5
196
330
1F
100
AcDbEntity
  8
0
  6
Continuous
 62
     7
370
    15
100
AcDbEllipse
 10
34.548040764
 20
62.0754706399
 30
0.0
 11
3.269779568749606
 21
3.269779568860344
 31
0.0
210
0.0
220
0.0
230
1.0
 40
0.9999976679
 41
2.355366409041296
 42
3.927818898104437
  0
ARC
  5
197
330
1F
100
AcDbEntity
  8
0
  6
Continuous
 62
     7
370
    15
100
AcDbCircle
 10
379.1965984326
 20
64.8363356786
 30
0.0
 40
4.001293295139319
100
AcDbArc
 50
233.6079906487
 51
36.3920093513
  0
ARC
  5
198
330
1F
100
AcDbEntity
  8
0
  6
Continuous
 62
     7
370
    15
100
AcDbCircle
 10
379.1966416615
 20
64.8362924497
 30
0.0
 40
4.001284145348119
100
AcDbArc
 50
36.3928749011
 51
233.6071250989
  0
ARC
  5
199
330
1F
100
AcDbEntity
  8
0
  6
Continuous
 62
     7
370
    15
100
AcDbCircle
 10
37.3089058027
 20
246.7240283085
 30
0.0
 40
4.001293295139319
100
AcDbArc
 50
53.6079906487
 51
216.3920093513
  0
ARC
  5
19A
330
1F
100
AcDbEntity
  8
0
  6
Continuous
 62
     7
370
    15
100
AcDbCircle
 10
37.3088625738
 20
246.7240715373
 30
0.0
 40
4.00128414534811
100
AcDbArc
 50
216.3928749011
 51
53.6071250989
  0
ARC
  5
19B
330
1F
100
AcDbEntity
  8
0
  6
Continuous
 62
     7
370
    15
100
AcDbCircle
 10
379.1966416615
 20
246.7240715373
 30
0.0
 40
4.001284145348146
100
AcDbArc
 50
126.392874901
 51
323.6071250989
  0
ARC
  5
19C
330
1F
100
AcDbEntity
  8
0
  6
Continuous
 62
     7
370
    15
100
AcDbCircle
 10
379.1965984326
 20
246.7240283085
 30
0.0
 40
4.001293295139297
100
AcDbArc
 50
323.6079906487
 51
126.3920093513
  0
ARC
  5
19D
330
1F
100
AcDbEntity
  8
0
  6
Continuous
 62
     7
370
    15
100
AcDbCircle
 10
37.3088625738
 20
64.8362924497
 30
0.0
 40
4.001284145348113
100
AcDbArc
 50
306.392874901
 51
143.6071250989
  0
ARC
  5
19E
330
1F
100
AcDbEntity
  8
0
  6
Continuous
 62
     7
370
    15
100
AcDbCircle
 10
37.3089058027
 20
64.8363356786
 30
0.0
 40
4.001293295139301
100
AcDbArc
 50
143.6079906487
 51
306.3920093513
  0
ARC
  5
19F
330
1F
100
AcDbEntity
  8
0
  6
Continuous
 62
     7
370
    15
100
AcDbCircle
 10
37.3027521177
 20
64.8301819935
 30
0.0
 40
4.000000000000013
100
AcDbArc
 50
306.5152611803
 51
143.4847388197
  0
ARC
  5
1A0
330
1F
100
AcDbEntity
  8
0
  6
Continuous
 62
     7
370
    15
100
AcDbCircle
 10
379.2027521177
 20
64.8301819935
 30
0.0
 40
4.000000000000005
100
AcDbArc
 50
36.5152611803
 51
233.4847388197
  0
ARC
  5
1A1
330
1F
100
AcDbEntity
  8
0
  6
Continuous
 62
     7
370
    15
100
AcDbCircle
 10
379.2027521177
 20
246.7301819935
 30
0.0
 40
4.000000000000017
100
AcDbArc
 50
126.5152611803
 51
323.4847388197
  0
ARC
  5
1A2
330
1F
100
AcDbEntity
  8
0
  6
Continuous
 62
     7
370
    15
100
AcDbCircle
 10
37.3027521177
 20
246.7301819935
 30
0.0
 40
4.000000000000024
100
AcDbArc
 50
216.5152611803
 51
53.4847388197
  0
CIRCLE
  5
1A3
330
1F
100
AcDbEntity
  8
0
  6
Continuous
 62
     7
370
    15
100
AcDbCircle
 10
379.2027521177
 20
64.8301819935
 30
0.0
 40
3.855856207770302
  0
CIRCLE
  5
1A4
330
1F
100
AcDbEntity
  8
0
  6
Continuous
 62
     7
370
    15
100
AcDbCircle
 10
37.3027521177
 20
246.7301819935
 30
0.0
 40
3.855856207770302
  0
CIRCLE
  5
1A5
330
1F
100
AcDbEntity
  8
0
  6
Continuous
 62
     7
370
    15
100
AcDbCircle
 10
37.3027521177
 20
64.8301819935
 30
0.0
 40
3.855856207770302
  0
CIRCLE
  5
1A6
330
1F
100
AcDbEntity
  8
0
  6
Continuous
 62
     7
370
    15
100
AcDbCircle
 10
379.2027521177
 20
246.7301819935
 30
0.0
 40
3.855856207770302
  0
CIRCLE
  5
1A7
330
1F
100
AcDbEntity
  8
0
  6
Continuous
 62
     7
370
    15
100
AcDbCircle
 10
208.2527521177
 20
64.8301819935
 30
0.0
 40
3.850000000000001
  0
CIRCLE
  5
1A8
330
1F
100
AcDbEntity
  8
0
  6
Continuous
 62
     7
370
    15
100
AcDbCircle
 10
208.2527521177
 20
246.7301819935
 30
0.0
 40
3.850000000000023
  0
CIRCLE
  5
1A9
330
1F
100
AcDbEntity
  8
0
  6
Continuous
 62
     7
370
    15
100
AcDbCircle
 10
208.2527521177
 20
64.8301819935
 30
0.0
 40
3.055856207770319
  0
CIRCLE
  5
1AA
330
1F
100
AcDbEntity
  8
0
  6
Continuous
 62
     7
370
    15
100
AcDbCircle
 10
208.2527521177
 20
246.7301819935
 30
0.0
 40
3.055856207770319
  0
CIRCLE
  5
1AB
330
1F
100
AcDbEntity
  8
0
  6
Continuous
 62
     7
370
    15
100
AcDbCircle
 10
37.3027521177
 20
246.7301819935
 30
0.0
 40
3.05585620777029
  0
CIRCLE
  5
1AC
330
1F
100
AcDbEntity
  8
0
  6
Continuous
 62
     7
370
    15
100
AcDbCircle
 10
37.3027521177
 20
64.8301819935
 30
0.0
 40
3.055856207770304
  0
CIRCLE
  5
1AD
330
1F
100
AcDbEntity
  8
0
  6
Continuous
 62
     7
370
    15
100
AcDbCircle
 10
379.2027521177
 20
246.7301819935
 30
0.0
 40
3.05585620777029
  0
CIRCLE
  5
1AE
330
1F
100
AcDbEntity
  8
0
  6
Continuous
 62
     7
370
    15
100
AcDbCircle
 10
379.2027521177
 20
64.8301819935
 30
0.0
 40
3.055856207770304
  0
CIRCLE
  5
1AF
330
1F
100
AcDbEntity
  8
0
  6
Continuous
 62
     7
370
    15
100
AcDbCircle
 10
379.2027521177
 20
246.7301819935
 30
0.0
 40
2.999999999999972
  0
CIRCLE
  5
1B0
330
1F
100
AcDbEntity
  8
0
  6
Continuous
 62
     7
370
    15
100
AcDbCircle
 10
208.2527521177
 20
246.7301819935
 30
0.0
 40
3.0
  0
CIRCLE
  5
1B1
330
1F
100
AcDbEntity
  8
0
  6
Continuous
 62
     7
370
    15
100
AcDbCircle
 10
208.2527521177
 20
64.8301819935
 30
0.0
 40
3.000000000000014
  0
CIRCLE
  5
1B2
330
1F
100
AcDbEntity
  8
0
  6
Continuous
 62
     7
370
    15
100
AcDbCircle
 10
379.2027521177
 20
64.8301819935
 30
0.0
 40
3.0
  0
CIRCLE
  5
1B3
330
1F
100
AcDbEntity
  8
0
  6
Continuous
 62
     7
370
    15
100
AcDbCircle
 10
37.3027521177
 20
64.8301819935
 30
0.0
 40
3.0
  0
CIRCLE
  5
1B4
330
1F
100
AcDbEntity
  8
0
  6
Continuous
 62
     7
370
    15
100
AcDbCircle
 10
37.3027521177
 20
246.7301819935
 30
0.0
 40
2.999999999999972
  0
CIRCLE
  5
1B5
330
1F
100
AcDbEntity
  8
0
  6
Continuous
 62
     7
370
    15
100
AcDbCircle
 10
379.2027521177
 20
64.8301819935
 30
0.0
 40
1.75
  0
CIRCLE
  5
1B6
330
1F
100
AcDbEntity
  8
0
  6
Continuous
 62
     7
370
    15
100
AcDbCircle
 10
37.3027521177
 20
64.8301819935
 30
0.0
 40
1.75
  0
CIRCLE
  5
1B7
330
1F
100
AcDbEntity
  8
0
  6
Continuous
 62
     7
370
    15
100
AcDbCircle
 10
37.3027521177
 20
246.7301819935
 30
0.0
 40
1.749999999999972
  0
CIRCLE
  5
1B8
330
1F
100
AcDbEntity
  8
0
  6
Continuous
 62
     7
370
    15
100
AcDbCircle
 10
379.2027521177
 20
246.7301819935
 30
0.0
 40
1.749999999999972
  0
CIRCLE
  5
1B9
330
1F
100
AcDbEntity
  8
0
  6
Continuous
 62
     7
370
    15
100
AcDbCircle
 10
208.2527521177
 20
246.7301819935
 30
0.0
 40
1.750000000000028
  0
CIRCLE
  5
1BA
330
1F
100
AcDbEntity
  8
0
  6
Continuous
 62
     7
370
    15
100
AcDbCircle
 10
208.2527521177
 20
64.8301819935
 30
0.0
 40
1.75
  0
SPLINE
  5
1BB
330
1F
100
AcDbEntity
  8
0
  6
Continuous
 62
     7
370
    15
100
AcDbSpline
210
0.0
220
0.0
230
1.0
 70
     8
 71
     3
 72
    12
 73
     8
 74
     0
 42
0.000000001
 43
0.00000001
 40
0.0
 40
0.0
 40
0.0
 40
0.0
 40
0.1249999999999998
 40
0.1249999999999998
 40
0.2499999999999997
 40
0.4999999999999998
 40
1.0
 40
1.0
 40
1.0
 40
1.0
 10
34.23820800039265
 20
306.6418641401445
 30
0.0
 10
34.2199894925288
 20
305.9642068483889
 30
0.0
 10
34.20216485398786
 20
305.2865389752838
 30
0.0
 10
34.1801579130745
 20
303.9308367259754
 30
0.0
 10
34.16150597801673
 20
301.8968976097185
 30
0.0
 10
34.18707510166264
 20
297.149183551933
 30
0.0
 10
34.21970963273024
 20
293.0794264153666
 30
0.0
 10
34.15047637382679
 20
290.3686994385259
 30
0.0
  0
SPLINE
  5
1BC
330
1F
100
AcDbEntity
  8
0
  6
Continuous
 62
     7
370
    15
100
AcDbSpline
210
0.0
220
0.0
230
1.0
 70
    24
 71
     3
 72
    12
 73
     8
 74
     0
 42
0.000000001
 43
0.00000001
 40
0.0
 40
0.0
 40
0.0
 40
0.0
 40
0.1249999999999998
 40
0.1249999999999998
 40
0.2499999999999996
 40
0.4999999999999997
 40
1.0
 40
1.0
 40
1.0
 40
1.0
 10
28.59024874418073
 20
306.6418641401445
 30
0.0
 10
28.57203023631685
 20
305.9642068483889
 30
0.0
 10
28.55381144397834
 20
305.2865389752838
 30
0.0
 10
28.51736400603208
 20
303.9308367259754
 30
0.0
 10
28.46268247860673
 20
301.8968976097185
 30
0.0
 10
28.3350423470102
 20
297.149183551933
 30
0.0
 10
28.22562877867909
 20
293.0794264153666
 30
0.0
 10
28.15275211765131
 20
290.3686994385259
 30
0.0
  0
SPLINE
  5
1BD
330
1F
100
AcDbEntity
  8
0
  6
Continuous
 62
     7
370
    15
100
AcDbSpline
210
0.0
220
0.0
230
1.0
 70
     8
 71
     3
 72
    24
 73
    20
 74
     0
 42
0.000000001
 43
0.00000001
 40
0.0
 40
0.0
 40
0.0
 40
0.0
 40
0.1250000000000008
 40
0.1250000000000008
 40
0.1874999999999989
 40
0.1874999999999989
 40
0.2499999999999971
 40
0.2499999999999971
 40
0.3749999999999976
 40
0.3749999999999976
 40
0.4999999999999981
 40
0.4999999999999981
 40
0.6249999999999986
 40
0.6249999999999986
 40
0.7499999999999991
 40
0.7499999999999991
 40
0.8749999999999996
 40
0.8749999999999996
 40
1.0
 40
1.0
 40
1.0
 40
1.0
 10
28.59024874418078
 20
306.6418641401445
 30
0.0
 10
28.5893709689671
 20
306.6092143326774
 30
0.0
 10
28.62485229098868
 20
306.5802525999698
 30
0.0
 10
28.73079980614127
 20
306.5421582003685
 30
0.0
 10
28.77496702051266
 20
306.5303579039915
 30
0.0
 10
28.88147537510474
 20
306.5086007782735
 30
0.0
 10
28.94410345731493
 20
306.498631515947
 30
0.0
 10
29.1554395105075
 20
306.4721757801271
 30
0.0
 10
29.32829582353291
 20
306.4588553777837
 30
0.0
 10
29.73770167371731
 20
306.4408159427479
 30
0.0
 10
29.97634964056001
 20
306.4361946695723
 30
0.0
 10
30.49801182764048
 20
306.4361592766534
 30
0.0
 10
30.78291293398328
 20
306.440595506607
 30
0.0
 10
31.40209525091517
 20
306.458605284072
 30
0.0
 10
31.73090740001649
 20
306.4720755932217
 30
0.0
 10
32.41155556768763
 20
306.507064246466
 30
0.0
 10
32.76829717907212
 20
306.5288422456424
 30
0.0
 10
33.49743658193339
 20
306.5800825292943
 30
0.0
 10
33.8658796305496
 20
306.6092128297589
 30
0.0
 10
34.23820800039262
 20
306.6418641401445
 30
0.0
  0
SPLINE
  5
1BE
330
1F
100
AcDbEntity
  8
0
  6
Continuous
 62
     7
370
    15
100
AcDbSpline
210
0.0
220
0.0
230
1.0
 70
    24
 71
     3
 72
    26
 73
    22
 74
     0
 42
0.000000001
 43
0.00000001
 40
0.0
 40
0.0
 40
0.0
 40
0.0
 40
0.1250000000000073
 40
0.1250000000000073
 40
0.1875000000000105
 40
0.1875000000000105
 40
0.2500000000000138
 40
0.2500000000000138
 40
0.375000000000012
 40
0.375000000000012
 40
0.5000000000000103
 40
0.5000000000000103
 40
0.6250000000000087
 40
0.6250000000000087
 40
0.6875000000000072
 40
0.6875000000000072
 40
0.7500000000000058
 40
0.7500000000000058
 40
0.8750000000000029
 40
0.8750000000000029
 40
1.0
 40
1.0
 40
1.0
 40
1.0
 10
34.15047637382679
 20
290.3686994385259
 30
0.0
 10
33.75445435122959
 20
290.3686994385259
 30
0.0
 10
33.36504084333824
 20
290.3686994385259
 30
0.0
 10
32.790431465338
 20
290.3686994385259
 30
0.0
 10
32.60049190798875
 20
290.3686994385259
 30
0.0
 10
32.22387977843508
 20
290.3686994385259
 30
0.0
 10
32.03668501208495
 20
290.3686994385259
 30
0.0
 10
31.49213486989047
 20
290.3686994385259
 30
0.0
 10
31.14776069314054
 20
290.3686994385259
 30
0.0
 10
30.49599651111554
 20
290.3686994385259
 30
0.0
 10
30.18735598521982
 20
290.3686994385259
 30
0.0
 10
29.63409804217967
 20
290.3686994385259
 30
0.0
 10
29.38582440203621
 20
290.3686994385259
 30
0.0
 10
29.05694305012404
 20
290.3686994385259
 30
0.0
 10
28.95479870450246
 20
290.3686994385259
 30
0.0
 10
28.76966262052957
 20
290.3686994385259
 30
0.0
 10
28.68602610678675
 20
290.3686994385259
 30
0.0
 10
28.46149747996238
 20
290.3686994385259
 30
0.0
 10
28.34631707407737
 20
290.3686994385259
 30
0.0
 10
28.19157029915847
 20
290.3686994385259
 30
0.0
 10
28.15275211765131
 20
290.3686994385259
 30
0.0
 10
28.15275211765134
 20
290.3686994385259
 30
0.0
  0
SPLINE
  5
1BF
330
1F
100
AcDbEntity
  8
0
  6
Continuous
 62
     7
370
    15
100
AcDbSpline
210
0.0
220
0.0
230
1.0
 70
    24
 71
     3
 72
    12
 73
     8
 74
     0
 42
0.000000001
 43
0.00000001
 40
0.0
 40
0.0
 40
0.0
 40
0.0
 40
0.4999999999999999
 40
0.7499999999999998
 40
0.8749999999999999
 40
0.8749999999999999
 40
1.0
 40
1.0
 40
1.0
 40
1.0
 10
388.3527521176513
 20
290.3686994385259
 30
0.0
 10
388.2798754566235
 20
293.0794264153666
 30
0.0
 10
388.1704618882923
 20
297.149183551933
 30
0.0
 10
388.0428217566957
 20
301.8968976097185
 30
0.0
 10
387.9881402292705
 20
303.9308367259754
 30
0.0
 10
387.9516927913243
 20
305.2865389752838
 30
0.0
 10
387.9334739989856
 20
305.9642068483889
 30
0.0
 10
387.9152554911217
 20
306.6418641401445
 30
0.0
  0
SPLINE
  5
1C0
330
1F
100
AcDbEntity
  8
0
  6
Continuous
 62
     7
370
    15
100
AcDbSpline
210
0.0
220
0.0
230
1.0
 70
     8
 71
     3
 72
    12
 73
     8
 74
     0
 42
0.000000001
 43
0.00000001
 40
0.0
 40
0.0
 40
0.0
 40
0.0
 40
0.5000000000000002
 40
0.7500000000000003
 40
0.8750000000000001
 40
0.8750000000000001
 40
1.0
 40
1.0
 40
1.0
 40
1.0
 10
382.3550278614757
 20
290.3686994385259
 30
0.0
 10
382.2857946025723
 20
293.0794264153666
 30
0.0
 10
382.3184291336398
 20
297.149183551933
 30
0.0
 10
382.3439982572857
 20
301.8968976097185
 30
0.0
 10
382.3253463222281
 20
303.9308367259754
 30
0.0
 10
382.3033393813147
 20
305.2865389752838
 30
0.0
 10
382.2855147427737
 20
305.9642068483889
 30
0.0
 10
382.2672962349098
 20
306.6418641401445
 30
0.0
  0
SPLINE
  5
1C1
330
1F
100
AcDbEntity
  8
0
  6
Continuous
 62
     7
370
    15
100
AcDbSpline
210
0.0
220
0.0
230
1.0
 70
     8
 71
     3
 72
    24
 73
    20
 74
     0
 42
0.000000001
 43
0.00000001
 40
0.0
 40
0.0
 40
0.0
 40
0.0
 40
0.1249999999999859
 40
0.1249999999999859
 40
0.187499999999984
 40
0.187499999999984
 40
0.249999999999982
 40
0.249999999999982
 40
0.374999999999985
 40
0.374999999999985
 40
0.499999999999988
 40
0.499999999999988
 40
0.624999999999991
 40
0.624999999999991
 40
0.749999999999994
 40
0.749999999999994
 40
0.874999999999997
 40
0.874999999999997
 40
1.0
 40
1.0
 40
1.0
 40
1.0
 10
382.2672962349098
 20
306.6418641401445
 30
0.0
 10
382.6396074667211
 20
306.6092143326774
 30
0.0
 10
383.0061229083688
 20
306.5802525999699
 30
0.0
 10
383.5474914034069
 20
306.5421582003685
 30
0.0
 10
383.7265366225552
 20
306.5303579039915
 30
0.0
 10
384.0817300620623
 20
306.5086007782735
 30
0.0
 10
384.258307334083
 20
306.498631515947
 30
0.0
 10
384.7720338314053
 20
306.4721757801271
 30
0.0
 10
385.0971430399106
 20
306.4588553777837
 30
0.0
 10
385.7127405760658
 20
306.440815942748
 30
0.0
 10
386.0042099370109
 20
306.4361946695723
 30
0.0
 10
386.5262766670069
 20
306.4361592766533
 30
0.0
 10
386.7604714329516
 20
306.440595506607
 30
0.0
 10
387.1738010514986
 20
306.458605284072
 30
0.0
 10
387.3486468624836
 20
306.4720755932217
 30
0.0
 10
387.6293728935697
 20
306.507064246466
 30
0.0
 10
387.7371908353176
 20
306.5288422456424
 30
0.0
 10
387.8806511160302
 20
306.5800825292943
 30
0.0
 10
387.9161333067408
 20
306.6092128297589
 30
0.0
 10
387.9152554911217
 20
306.6418641401445
 30
0.0
  0
SPLINE
  5
1C2
330
1F
100
AcDbEntity
  8
0
  6
Continuous
 62
     7
370
    15
100
AcDbSpline
210
0.0
220
0.0
230
1.0
 70
    24
 71
     3
 72
    26
 73
    22
 74
     0
 42
0.000000001
 43
0.00000001
 40
0.0
 40
0.0
 40
0.0
 40
0.0
 40
0.1249999999999977
 40
0.1249999999999977
 40
0.1874999999999957
 40
0.1874999999999957
 40
0.2499999999999937
 40
0.2499999999999937
 40
0.3749999999999972
 40
0.3749999999999972
 40
0.5000000000000007
 40
0.5000000000000007
 40
0.6250000000000041
 40
0.6250000000000041
 40
0.6875000000000034
 40
0.6875000000000034
 40
0.7500000000000028
 40
0.7500000000000028
 40
0.8750000000000013
 40
0.8750000000000013
 40
1.0
 40
1.0
 40
1.0
 40
1.0
 10
388.3527521176512
 20
290.3686994385259
 30
0.0
 10
388.3527521176512
 20
290.3686994385259
 30
0.0
 10
388.3139386691359
 20
290.3686994385259
 30
0.0
 10
388.1998587129521
 20
290.3686994385259
 30
0.0
 10
388.1524530588444
 20
290.3686994385259
 30
0.0
 10
388.0384539353098
 20
290.3686994385259
 30
0.0
 10
387.971535096599
 20
290.3686994385259
 30
0.0
 10
387.7460447497114
 20
290.3686994385259
 30
0.0
 10
387.5620495737074
 20
290.3686994385259
 30
0.0
 10
387.1273259243978
 20
290.3686994385259
 30
0.0
 10
386.8742548016976
 20
290.3686994385259
 30
0.0
 10
386.321394390758
 20
290.3686994385259
 30
0.0
 10
386.0197284589836
 20
290.3686994385259
 30
0.0
 10
385.5284894510825
 20
290.3686994385259
 30
0.0
 10
385.3582487033086
 20
290.3686994385259
 30
0.0
 10
385.0122423824721
 20
290.3686994385259
 30
0.0
 10
384.8355689509665
 20
290.3686994385259
 30
0.0
 10
384.2947078345035
 20
290.3686994385259
 30
0.0
 10
383.9176175446759
 20
290.3686994385259
 30
0.0
 10
383.1427616206975
 20
290.3686994385259
 30
0.0
 10
382.751050784437
 20
290.3686994385259
 30
0.0
 10
382.3550278614757
 20
290.3686994385259
 30
0.0
  0
LINE
  5
1C3
330
1F
100
AcDbEntity
  8
0
  6
Continuous
 62
     7
370
    15
100
AcDbLine
 10
42.5404444373
 20
307.3700087281
 30
0.0
 11
42.5404430114
 21
307.3699280595
 31
0.0
  0
LINE
  5
1C4
330
1F
100
AcDbEntity
  8
0
  6
Continuous
 62
     7
370
    15
100
AcDbLine
 10
200.9527507182
 20
307.3700087281
 30
0.0
 11
42.5404444373
 21
307.3700087281
 31
0.0
  0
LINE
  5
1C5
330
1F
100
AcDbEntity
  8
0
  6
Continuous
 62
     7
370
    15
100
AcDbLine
 10
200.9527507182
 20
307.3700087281
 30
0.0
 11
200.9527521177
 21
307.3699280598
 31
0.0
  0
LINE
  5
1C6
330
1F
100
AcDbEntity
  8
0
  6
Continuous
 62
     7
370
    15
100
AcDbLine
 10
200.9527521177
 20
307.3699280598
 30
0.0
 11
215.5527521177
 21
307.3699280598
 31
0.0
  0
LINE
  5
1C7
330
1F
100
AcDbEntity
  8
0
  6
Continuous
 62
     7
370
    15
100
AcDbLine
 10
215.5527535171
 20
307.3700087281
 30
0.0
 11
215.5527521177
 21
307.3699280598
 31
0.0
  0
LINE
  5
1C8
330
1F
100
AcDbEntity
  8
0
  6
Continuous
 62
     7
370
    15
100
AcDbLine
 10
373.965059798
 20
307.3700087281
 30
0.0
 11
215.5527535171
 21
307.3700087281
 31
0.0
  0
LINE
  5
1C9
330
1F
100
AcDbEntity
  8
0
  6
Continuous
 62
     7
370
    15
100
AcDbLine
 10
373.965059798
 20
307.3700087281
 30
0.0
 11
373.9650612239
 21
307.3699280595
 31
0.0
  0
LINE
  5
1CA
330
1F
100
AcDbEntity
  8
0
  6
Continuous
 62
     7
370
    15
100
AcDbLine
 10
382.2672962349
 20
306.6418641401
 30
0.0
 11
373.9650612239
 21
307.3699280595
 31
0.0
  0
LINE
  5
1CB
330
1F
100
AcDbEntity
  8
0
  6
Continuous
 62
     7
370
    15
100
AcDbLine
 10
42.5404430114
 20
307.3699280595
 30
0.0
 11
34.2382080004
 21
306.6418641401
 31
0.0
  0
LINE
  5
1CC
330
1F
100
AcDbEntity
  8
0
  6
Continuous
 62
     7
370
    15
100
AcDbLine
 10
382.3550278615
 20
290.3686994385
 30
0.0
 11
34.1504763738
 21
290.3686994385
 31
0.0
  0
ELLIPSE
  5
1CD
330
1F
100
AcDbEntity
  8
0
  6
Continuous
 62
     7
370
    15
100
AcDbEllipse
 10
34.5481482015
 20
307.1902290551
 30
0.0
 11
4.694376619958277
 21
0.4138491608349569
 31
0.0
210
0.0
220
0.0
230
1.0
 40
0.0868190381
 41
3.133109720430825
 42
4.705562209493888
  0
LINE
  5
1CE
330
1F
100
AcDbEntity
  8
0
  6
Continuous
 62
     7
370
    15
100
AcDbLine
 10
38.4913489822
 20
307.124783593
 30
0.0
 11
34.5520301656
 21
306.7798520579
 31
0.0
  0
ELLIPSE
  5
1CF
330
1F
100
AcDbEntity
  8
0
  6
Continuous
 62
     7
370
    15
100
AcDbEllipse
 10
38.4879331296
 20
307.3865909287
 30
0.0
 11
3.004953740968297
 21
0.2648187198709024
 31
0.0
210
0.0
220
0.0
230
1.0
 40
0.086555038
 41
4.705897966695402
 42
6.274032790228866
  0
LINE
  5
1D0
330
1F
100
AcDbEntity
  8
0
  6
Continuous
 62
     7
370
    15
100
AcDbLine
 10
41.5016195158
 20
308.1445028639
 30
0.0
 11
41.4929707967
 21
307.6490180764
 31
0.0
  0
ELLIPSE
  5
1D1
330
1F
100
AcDbEntity
  8
0
  6
Continuous
 62
     7
370
    15
100
AcDbEllipse
 10
38.4965650354
 20
307.881112479
 30
0.0
 11
3.004969396662034
 21
0.2658038545963564
 31
0.0
210
0.0
220
0.0
230
1.0
 40
0.0868140731
 41
6.27397688589782
 42
7.8444686261976
  0
LINE
  5
1D2
330
1F
100
AcDbEntity
  8
0
  6
Continuous
 62
     7
370
    15
100
AcDbLine
 10
32.8473081167
 20
307.6490180768
 30
0.0
 11
38.5020764303
 21
308.1445028639
 31
0.0
  0
ELLIPSE
  5
1D3
330
1F
100
AcDbEntity
  8
0
  6
Continuous
 62
     7
370
    15
100
AcDbEllipse
 10
32.8527897593
 20
307.386590929
 30
0.0
 11
2.995800190269101
 21
0.2640362061596875
 31
0.0
210
0.0
220
0.0
230
1.0
 40
0.0870846543
 41
1.564950954970604
 42
3.133085778503574
  0
LINE
  5
1D4
330
1F
100
AcDbEntity
  8
0
  6
Continuous
 62
     7
370
    15
100
AcDbLine
 10
29.8569023663
 20
307.1247835933
 30
0.0
 11
29.8536356965
 21
306.7798520579
 31
0.0
  0
LINE
  5
1D5
330
1F
100
AcDbEntity
  8
0
  6
Continuous
 62
     7
370
    15
100
AcDbLine
 10
42.540443015
 20
308.5886994385
 30
0.0
 11
28.6098224113
 21
307.3699280598
 31
0.0
  0
LINE
  5
1D6
330
1F
100
AcDbEntity
  8
0
  6
Continuous
 62
     7
370
    15
100
AcDbLine
 10
42.5404430114
 20
307.3699280595
 30
0.0
 11
42.540443015
 21
308.5886994385
 31
0.0
  0
LINE
  5
1D7
330
1F
100
AcDbEntity
  8
0
  6
Continuous
 62
     7
370
    15
100
AcDbLine
 10
28.5902487442
 20
306.6418641401
 30
0.0
 11
28.6098224113
 21
307.3699280598
 31
0.0
  0
ELLIPSE
  5
1D8
330
1F
100
AcDbEntity
  8
0
  6
Continuous
 62
     7
370
    15
100
AcDbEllipse
 10
378.0175711057
 20
307.3865909287
 30
0.0
 11
3.004953740968233
 21
-0.2648187198709593
 31
0.0
210
0.0
220
0.0
230
1.0
 40
0.086555038
 41
3.150745170541062
 42
4.718879994073989
  0
LINE
  5
1D9
330
1F
100
AcDbEntity
  8
0
  6
Continuous
 62
     7
370
    15
100
AcDbLine
 10
378.0141552531
 20
307.124783593
 30
0.0
 11
381.9534740697
 21
306.7798520579
 31
0.0
  0
ELLIPSE
  5
1DA
330
1F
100
AcDbEntity
  8
0
  6
Continuous
 62
     7
370
    15
100
AcDbEllipse
 10
381.9573560338
 20
307.1902290551
 30
0.0
 11
4.694376619958291
 21
-0.4138491608349569
 31
0.0
210
0.0
220
0.0
230
1.0
 40
0.0868190381
 41
4.719215751275499
 42
6.291668240338554
  0
LINE
  5
1DB
330
1F
100
AcDbEntity
  8
0
  6
Continuous
 62
     7
370
    15
100
AcDbLine
 10
386.648601869
 20
307.1247835933
 30
0.0
 11
386.6518685388
 21
306.7798520579
 31
0.0
  0
ELLIPSE
  5
1DC
330
1F
100
AcDbEntity
  8
0
  6
Continuous
 62
     7
370
    15
100
AcDbEllipse
 10
383.652714476
 20
307.386590929
 30
0.0
 11
2.995800190269108
 21
-0.2640362061596306
 31
0.0
210
0.0
220
0.0
230
1.0
 40
0.0870846543
 41
0.0085068750859988
 42
1.5766416986192
  0
LINE
  5
1DD
330
1F
100
AcDbEntity
  8
0
  6
Continuous
 62
     7
370
    15
100
AcDbLine
 10
383.6581961186
 20
307.6490180768
 30
0.0
 11
378.003427805
 21
308.1445028639
 31
0.0
  0
ELLIPSE
  5
1DE
330
1F
100
AcDbEntity
  8
0
  6
Continuous
 62
     7
370
    15
100
AcDbEllipse
 10
378.0089391999
 20
307.881112479
 30
0.0
 11
3.004969396662034
 21
-0.2658038545963564
 31
0.0
210
0.0
220
0.0
230
1.0
 40
0.0868140731
 41
1.580309334571785
 42
3.150801074871882
  0
LINE
  5
1DF
330
1F
100
AcDbEntity
  8
0
  6
Continuous
 62
     7
370
    15
100
AcDbLine
 10
375.0038847195
 20
308.1445028639
 30
0.0
 11
375.0125334386
 21
307.6490180764
 31
0.0
  0
LINE
  5
1E0
330
1F
100
AcDbEntity
  8
0
  6
Continuous
 62
     7
370
    15
100
AcDbLine
 10
373.9650612239
 20
307.3699280595
 30
0.0
 11
373.9650612203
 21
308.5886994385
 31
0.0
  0
LINE
  5
1E1
330
1F
100
AcDbEntity
  8
0
  6
Continuous
 62
     7
370
    15
100
AcDbLine
 10
373.9650612203
 20
308.5886994385
 30
0.0
 11
387.895681824
 21
307.3699280598
 31
0.0
  0
LINE
  5
1E2
330
1F
100
AcDbEntity
  8
0
  6
Continuous
 62
     7
370
    15
100
AcDbLine
 10
387.9152554911
 20
306.6418641401
 30
0.0
 11
387.895681824
 21
307.3699280598
 31
0.0
  0
LINE
  5
1E3
330
1F
100
AcDbEntity
  8
0
  6
Continuous
 62
     7
370
    15
100
AcDbLine
 10
42.5719320467
 20
310.3686994385
 30
0.0
 11
42.540443015
 21
308.5886994385
 31
0.0
  0
LINE
  5
1E4
330
1F
100
AcDbEntity
  8
0
  6
Continuous
 62
     7
370
    15
100
AcDbLine
 10
42.5719320467
 20
310.3686994385
 30
0.0
 11
42.5719808583
 21
310.3686994385
 31
0.0
  0
LINE
  5
1E5
330
1F
100
AcDbEntity
  8
0
  6
Continuous
 62
     7
370
    15
100
AcDbLine
 10
42.5719808583
 20
310.3686994385
 30
0.0
 11
42.5719808552
 21
309.3080416977
 31
0.0
  0
LINE
  5
1E6
330
1F
100
AcDbEntity
  8
0
  6
Continuous
 62
     7
370
    15
100
AcDbLine
 10
42.5404444373
 20
307.3700087281
 30
0.0
 11
42.5719808552
 21
309.3080416977
 31
0.0
  0
LINE
  5
1E7
330
1F
100
AcDbEntity
  8
0
  6
Continuous
 62
     7
370
    15
100
AcDbLine
 10
373.9335233771
 20
310.3686994385
 30
0.0
 11
373.9335721886
 21
310.3686994385
 31
0.0
  0
LINE
  5
1E8
330
1F
100
AcDbEntity
  8
0
  6
Continuous
 62
     7
370
    15
100
AcDbLine
 10
373.9335721886
 20
310.3686994385
 30
0.0
 11
373.9650612203
 21
308.5886994385
 31
0.0
  0
LINE
  5
1E9
330
1F
100
AcDbEntity
  8
0
  6
Continuous
 62
     7
370
    15
100
AcDbLine
 10
373.9335233801
 20
309.3080416977
 30
0.0
 11
373.965059798
 21
307.3700087281
 31
0.0
  0
LINE
  5
1EA
330
1F
100
AcDbEntity
  8
0
  6
Continuous
 62
     7
370
    15
100
AcDbLine
 10
373.9335233771
 20
310.3686994385
 30
0.0
 11
373.9335233801
 21
309.3080416977
 31
0.0
  0
LINE
  5
1EB
330
1F
100
AcDbEntity
  8
0
  6
Continuous
 62
     7
370
    15
100
AcDbLine
 10
200.9527521177
 20
308.5423304469
 30
0.0
 11
200.9218003329
 21
310.3250528785
 31
0.0
  0
LINE
  5
1EC
330
1F
100
AcDbEntity
  8
0
  6
Continuous
 62
     7
370
    15
100
AcDbLine
 10
200.9527521177
 20
307.3699280598
 30
0.0
 11
200.9527521177
 21
308.5423304469
 31
0.0
  0
LINE
  5
1ED
330
1F
100
AcDbEntity
  8
0
  6
Continuous
 62
     7
370
    15
100
AcDbLine
 10
200.9218003329
 20
309.3080416977
 30
0.0
 11
200.9527507182
 21
307.3700087281
 31
0.0
  0
LINE
  5
1EE
330
1F
100
AcDbEntity
  8
0
  6
Continuous
 62
     7
370
    15
100
AcDbLine
 10
200.9218003329
 20
310.3250528785
 30
0.0
 11
200.9218003329
 21
309.3080416977
 31
0.0
  0
ELLIPSE
  5
1EF
330
1F
100
AcDbEntity
  8
0
  6
Continuous
 62
     7
370
    15
100
AcDbEllipse
 10
211.2565091601
 20
307.7456227773
 30
0.0
 11
3.000459078509891
 21
0.0003222818459676091
 31
0.0
210
0.0
220
0.0
230
1.0
 40
0.0873551345
 41
4.711159392773419
 42
6.281651133073178
  0
LINE
  5
1F0
330
1F
100
AcDbEntity
  8
0
  6
Continuous
 62
     7
370
    15
100
AcDbLine
 10
214.2653186276
 20
308.224136227
 30
0.0
 11
214.2569647507
 21
307.7455429435
 31
0.0
  0
ELLIPSE
  5
1F1
330
1F
100
AcDbEntity
  8
0
  6
Continuous
 62
     7
370
    15
100
AcDbEllipse
 10
211.2648602457
 20
308.2240561489
 30
0.0
 11
3.0004618909812
 21
0.0004859133311470032
 31
0.0
210
0.0
220
0.0
230
1.0
 40
0.0876221806
 41
6.281641663112993
 42
7.852133403412627
  0
LINE
  5
1F2
330
1F
100
AcDbEntity
  8
0
  6
Continuous
 62
     7
370
    15
100
AcDbLine
 10
208.5524128487
 20
308.4869636118
 30
0.0
 11
211.2703632111
 21
308.4869636118
 31
0.0
  0
ELLIPSE
  5
1F3
330
1F
100
AcDbEntity
  8
0
  6
Continuous
 62
     7
370
    15
100
AcDbEllipse
 10
208.2527521177
 20
308.1310059246
 30
0.0
 11
4.079630598881778
 21
0.0
 31
0.0
210
0.0
220
0.0
230
1.0
 40
0.0874887655
 41
1.497277207470548
 42
1.644315446125345
  0
LINE
  5
1F4
330
1F
100
AcDbEntity
  8
0
  6
Continuous
 62
     7
370
    15
100
AcDbLine
 10
205.2351410242
 20
308.4869636118
 30
0.0
 11
207.9530913866
 21
308.4869636118
 31
0.0
  0
ELLIPSE
  5
1F5
330
1F
100
AcDbEntity
  8
0
  6
Continuous
 62
     7
370
    15
100
AcDbEllipse
 10
205.2406439897
 20
308.2240561489
 30
0.0
 11
3.0004618909812
 21
-0.0004859133310901598
 31
0.0
210
0.0
220
0.0
230
1.0
 40
0.0876221806
 41
1.57264455735675
 42
3.143136297656494
  0
LINE
  5
1F6
330
1F
100
AcDbEntity
  8
0
  6
Continuous
 62
     7
370
    15
100
AcDbLine
 10
202.2485394846
 20
307.7455429435
 30
0.0
 11
202.2401856078
 21
308.224136227
 31
0.0
  0
ELLIPSE
  5
1F7
330
1F
100
AcDbEntity
  8
0
  6
Continuous
 62
     7
370
    15
100
AcDbEllipse
 10
205.2489950752
 20
307.7456227773
 30
0.0
 11
3.000459078509891
 21
-0.0003222818460244525
 31
0.0
210
0.0
220
0.0
230
1.0
 40
0.0873551345
 41
3.14312682769673
 42
4.713618567995973
  0
LINE
  5
1F8
330
1F
100
AcDbEntity
  8
0
  6
Continuous
 62
     7
370
    15
100
AcDbLine
 10
211.2528479867
 20
307.4835170728
 30
0.0
 11
205.2526562486
 21
307.4835170728
 31
0.0
  0
LINE
  5
1F9
330
1F
100
AcDbEntity
  8
0
  6
Continuous
 62
     7
370
    15
100
AcDbLine
 10
200.9527521177
 20
308.5423304469
 30
0.0
 11
215.5527521177
 21
308.5423304469
 31
0.0
  0
LINE
  5
1FA
330
1F
100
AcDbEntity
  8
0
  6
Continuous
 62
     7
370
    15
100
AcDbLine
 10
215.5527521177
 20
307.3699280598
 30
0.0
 11
215.5527521177
 21
308.5423304469
 31
0.0
  0
LINE
  5
1FB
330
1F
100
AcDbEntity
  8
0
  6
Continuous
 62
     7
370
    15
100
AcDbLine
 10
215.5527521177
 20
308.5423304469
 30
0.0
 11
215.5837039024
 21
310.3250528785
 31
0.0
  0
LINE
  5
1FC
330
1F
100
AcDbEntity
  8
0
  6
Continuous
 62
     7
370
    15
100
AcDbLine
 10
215.5837039024
 20
310.3250528785
 30
0.0
 11
215.5837039024
 21
309.3080416977
 31
0.0
  0
LINE
  5
1FD
330
1F
100
AcDbEntity
  8
0
  6
Continuous
 62
     7
370
    15
100
AcDbLine
 10
215.5527535171
 20
307.3700087281
 30
0.0
 11
215.5837039024
 21
309.3080416977
 31
0.0
  0
LINE
  5
1FE
330
1F
100
AcDbEntity
  8
0
  6
Continuous
 62
     7
370
    15
100
AcDbLine
 10
42.5719808552
 20
309.3080416977
 30
0.0
 11
200.9218003329
 21
309.3080416977
 31
0.0
  0
LINE
  5
1FF
330
1F
100
AcDbEntity
  8
0
  6
Continuous
 62
     7
370
    15
100
AcDbLine
 10
215.5837039024
 20
309.3080416977
 30
0.0
 11
373.9335233801
 21
309.3080416977
 31
0.0
  0
LINE
  5
200
330
1F
100
AcDbEntity
  8
0
  6
Continuous
 62
     7
370
    15
100
AcDbLine
 10
215.5837039024
 20
310.3250528785
 30
0.0
 11
200.9218003329
 21
310.3250528785
 31
0.0
  0
LINE
  5
201
330
1F
100
AcDbEntity
  8
0
  6
Continuous
 62
     7
370
    15
100
AcDbLine
 10
42.5719808583
 20
310.3686994385
 30
0.0
 11
373.9335233771
 21
310.3686994385
 31
0.0
  0
LINE
  5
202
330
1F
100
AcDbEntity
  8
0
  6
Continuous
 62
     7
370
    15
100
AcDbLine
 10
207.9537373359
 20
307.4835170728
 30
0.0
 11
207.9530913866
 21
308.4869636118
 31
0.0
  0
LINE
  5
203
330
1F
100
AcDbEntity
  8
0
  6
Continuous
 62
     7
370
    15
100
AcDbLine
 10
208.5524128487
 20
308.4869636118
 30
0.0
 11
208.5517668994
 21
307.4835170728
 31
0.0
  0
LINE
  5
204
330
1F
100
AcDbEntity
  8
0
  6
Continuous
 62
     7
370
    15
100
AcDbLine
 10
42.540443015
 20
310.3686994385
 30
0.0
 11
42.5719320467
 21
310.3686994385
 31
0.0
  0
LINE
  5
205
330
1F
100
AcDbEntity
  8
0
  6
Continuous
 62
     7
370
    15
100
AcDbLine
 10
30.4170695616
 20
309.3080416977
 30
0.0
 11
28.60982458
 21
307.3700087281
 31
0.0
  0
LINE
  5
206
330
1F
100
AcDbEntity
  8
0
  6
Continuous
 62
     7
370
    15
100
AcDbLine
 10
30.4170695616
 20
309.3080416977
 30
0.0
 11
42.540443015
 21
310.3686994385
 31
0.0
  0
LINE
  5
207
330
1F
100
AcDbEntity
  8
0
  6
Continuous
 62
     7
370
    15
100
AcDbLine
 10
28.6098224113
 20
307.3699280598
 30
0.0
 11
28.60982458
 21
307.3700087281
 31
0.0
  0
LINE
  5
208
330
1F
100
AcDbEntity
  8
0
  6
Continuous
 62
     7
370
    15
100
AcDbLine
 10
386.0884346737
 20
309.3080416977
 30
0.0
 11
373.9650612203
 21
310.3686994385
 31
0.0
  0
LINE
  5
209
330
1F
100
AcDbEntity
  8
0
  6
Continuous
 62
     7
370
    15
100
AcDbLine
 10
387.8956796553
 20
307.3700087281
 30
0.0
 11
386.0884346737
 21
309.3080416977
 31
0.0
  0
LINE
  5
20A
330
1F
100
AcDbEntity
  8
0
  6
Continuous
 62
     7
370
    15
100
AcDbLine
 10
373.9335721886
 20
310.3686994385
 30
0.0
 11
373.9650612203
 21
310.3686994385
 31
0.0
  0
LINE
  5
20B
330
1F
100
AcDbEntity
  8
0
  6
Continuous
 62
     7
370
    15
100
AcDbLine
 10
387.8956796553
 20
307.3700087281
 30
0.0
 11
387.895681824
 21
307.3699280598
 31
0.0
  0
LINE
  5
20C
330
1F
100
AcDbEntity
  8
0
  6
Continuous
 62
     8
370
    15
100
AcDbLine
 10
29.8633602625
 20
306.7539376772
 30
0.0
 11
29.8569023663
 21
307.1247835933
 31
0.0
  0
LINE
  5
20D
330
1F
100
AcDbEntity
  8
0
  6
Continuous
 62
     8
370
    15
100
AcDbLine
 10
386.648601869
 20
307.1247835933
 30
0.0
 11
386.6421439728
 21
306.7539376772
 31
0.0
  0
LINE
  5
20E
330
1F
100
AcDbEntity
  8
0
  6
Continuous
 62
     8
370
    15
100
AcDbLine
 10
205.2351410242
 20
308.4869636118
 30
0.0
 11
205.2526562486
 21
307.4835170728
 31
0.0
  0
LINE
  5
20F
330
1F
100
AcDbEntity
  8
0
  6
Continuous
 62
     8
370
    15
100
AcDbLine
 10
211.2528479867
 20
307.4835170728
 30
0.0
 11
211.2703632111
 21
308.4869636118
 31
0.0
  0
LINE
  5
210
330
1F
100
AcDbEntity
  8
0
  6
Continuous
 62
     8
370
    15
100
AcDbLine
 10
32.8473081167
 20
307.6490180768
 30
0.0
 11
32.8645389064
 21
306.6595367103
 31
0.0
  0
LINE
  5
211
330
1F
100
AcDbEntity
  8
0
  6
Continuous
 62
     8
370
    15
100
AcDbLine
 10
383.6409653289
 20
306.6595367103
 30
0.0
 11
383.6581961186
 21
307.6490180768
 31
0.0
  0
LINE
  5
212
330
1F
100
AcDbEntity
  8
0
  6
Continuous
 62
     8
370
    15
100
AcDbLine
 10
38.4842663392
 20
307.1241634282
 30
0.0
 11
38.5020764303
 21
308.1445028639
 31
0.0
  0
LINE
  5
213
330
1F
100
AcDbEntity
  8
0
  6
Continuous
 62
     8
370
    15
100
AcDbLine
 10
378.003427805
 20
308.1445028639
 30
0.0
 11
378.0212378961
 21
307.1241634282
 31
0.0
  0
SPLINE
  5
214
330
1F
100
AcDbEntity
  8
0
  6
Continuous
 62
     7
370
    15
100
AcDbSpline
210
0.0
220
0.0
230
1.0
 70
     8
 71
     3
 72
    12
 73
     8
 74
     0
 42
0.000000001
 43
0.00000001
 40
0.0
 40
0.0
 40
0.0
 40
0.0
 40
0.125
 40
0.125
 40
0.2500000000000001
 40
0.5000000000000001
 40
1.0
 40
1.0
 40
1.0
 40
1.0
 10
382.2672962349098
 20
1.782443851865713
 30
0.0
 10
382.2855147427738
 20
2.460101143621341
 30
0.0
 10
382.3033393813146
 20
3.137769016726483
 30
0.0
 10
382.3253463222281
 20
4.493471266034903
 30
0.0
 10
382.3439982572859
 20
6.527410382291825
 30
0.0
 10
382.3184291336398
 20
11.27512444007725
 30
0.0
 10
382.2857946025722
 20
15.34488157664362
 30
0.0
 10
382.3550278614757
 20
18.0556085534843
 30
0.0
  0
SPLINE
  5
215
330
1F
100
AcDbEntity
  8
0
  6
Continuous
 62
     7
370
    15
100
AcDbSpline
210
0.0
220
0.0
230
1.0
 70
    24
 71
     3
 72
    12
 73
     8
 74
     0
 42
0.000000001
 43
0.00000001
 40
0.0
 40
0.0
 40
0.0
 40
0.0
 40
0.1249999999999999
 40
0.1249999999999999
 40
0.2499999999999999
 40
0.5
 40
1.0
 40
1.0
 40
1.0
 40
1.0
 10
387.9152554911217
 20
1.782443851865724
 30
0.0
 10
387.9334739989856
 20
2.460101143621354
 30
0.0
 10
387.9516927913243
 20
3.137769016726497
 30
0.0
 10
387.9881402292704
 20
4.493471266034914
 30
0.0
 10
388.0428217566957
 20
6.527410382291845
 30
0.0
 10
388.1704618882924
 20
11.27512444007725
 30
0.0
 10
388.2798754566234
 20
15.34488157664362
 30
0.0
 10
388.3527521176512
 20
18.0556085534843
 30
0.0
  0
SPLINE
  5
216
330
1F
100
AcDbEntity
  8
0
  6
Continuous
 62
     7
370
    15
100
AcDbSpline
210
0.0
220
0.0
230
1.0
 70
     8
 71
     3
 72
    24
 73
    20
 74
     0
 42
0.000000001
 43
0.00000001
 40
0.0
 40
0.0
 40
0.0
 40
0.0
 40
0.125000000000003
 40
0.125000000000003
 40
0.1875000000000031
 40
0.1875000000000031
 40
0.2500000000000032
 40
0.2500000000000032
 40
0.3750000000000027
 40
0.3750000000000027
 40
0.5000000000000021
 40
0.5000000000000021
 40
0.6250000000000016
 40
0.6250000000000016
 40
0.750000000000001
 40
0.750000000000001
 40
0.8750000000000006
 40
0.8750000000000006
 40
1.0
 40
1.0
 40
1.0
 40
1.0
 10
387.9152554911217
 20
1.78244385186572
 30
0.0
 10
387.9161332663355
 20
1.815093659332896
 30
0.0
 10
387.8806519443137
 20
1.844055392040458
 30
0.0
 10
387.7747044291612
 20
1.882149791641788
 30
0.0
 10
387.7305372147898
 20
1.893950088018742
 30
0.0
 10
387.6240288601978
 20
1.915707213736783
 30
0.0
 10
387.5614007779875
 20
1.925676476063206
 30
0.0
 10
387.3500647247949
 20
1.952132211883126
 30
0.0
 10
387.1772084117696
 20
1.965452614226588
 30
0.0
 10
386.7678025615851
 20
1.983492049262332
 30
0.0
 10
386.5291545947425
 20
1.988113322437939
 30
0.0
 10
386.007492407662
 20
1.988148715356948
 30
0.0
 10
385.7225913013191
 20
1.983712485403242
 30
0.0
 10
385.1034089843872
 20
1.965702707938314
 30
0.0
 10
384.7745968352859
 20
1.952232398788558
 30
0.0
 10
384.0939486676149
 20
1.917243745544304
 30
0.0
 10
383.7372070562304
 20
1.895465746367816
 30
0.0
 10
383.0080676533692
 20
1.84422546271599
 30
0.0
 10
382.6396246047528
 20
1.815095162251397
 30
0.0
 10
382.2672962349098
 20
1.782443851865713
 30
0.0
  0
SPLINE
  5
217
330
1F
100
AcDbEntity
  8
0
  6
Continuous
 62
     7
370
    15
100
AcDbSpline
210
0.0
220
0.0
230
1.0
 70
    24
 71
     3
 72
    26
 73
    22
 74
     0
 42
0.000000001
 43
0.00000001
 40
0.0
 40
0.0
 40
0.0
 40
0.0
 40
0.1250000000000022
 40
0.1250000000000022
 40
0.1875000000000037
 40
0.1875000000000037
 40
0.2500000000000052
 40
0.2500000000000052
 40
0.3750000000000001
 40
0.3750000000000001
 40
0.4999999999999949
 40
0.4999999999999949
 40
0.6249999999999897
 40
0.6249999999999897
 40
0.6874999999999915
 40
0.6874999999999915
 40
0.7499999999999932
 40
0.7499999999999932
 40
0.8749999999999966
 40
0.8749999999999966
 40
1.0
 40
1.0
 40
1.0
 40
1.0
 10
382.3550278614757
 20
18.0556085534848
 30
0.0
 10
382.7510498840729
 20
18.0556085534848
 30
0.0
 10
383.1404633919643
 20
18.0556085534843
 30
0.0
 10
383.7150727699645
 20
18.0556085534843
 30
0.0
 10
383.9050123273137
 20
18.0556085534843
 30
0.0
 10
384.2816244568673
 20
18.0556085534843
 30
0.0
 10
384.4688192232175
 20
18.0556085534843
 30
0.0
 10
385.013369365412
 20
18.0556085534843
 30
0.0
 10
385.357743542162
 20
18.05560855348429
 30
0.0
 10
386.009507724187
 20
18.05560855348429
 30
0.0
 10
386.3181482500826
 20
18.0556085534843
 30
0.0
 10
386.8714061931228
 20
18.0556085534843
 30
0.0
 10
387.1196798332661
 20
18.0556085534843
 30
0.0
 10
387.4485611851783
 20
18.0556085534843
 30
0.0
 10
387.5507055308001
 20
18.0556085534843
 30
0.0
 10
387.735841614773
 20
18.0556085534843
 30
0.0
 10
387.8194781285158
 20
18.0556085534843
 30
0.0
 10
388.0440067553401
 20
18.0556085534843
 30
0.0
 10
388.1591871612251
 20
18.05560855348429
 30
0.0
 10
388.313933936144
 20
18.05560855348429
 30
0.0
 10
388.3527521176511
 20
18.0556085534843
 30
0.0
 10
388.3527521176512
 20
18.0556085534843
 30
0.0
  0
SPLINE
  5
218
330
1F
100
AcDbEntity
  8
0
  6
Continuous
 62
     7
370
    15
100
AcDbSpline
210
0.0
220
0.0
230
1.0
 70
    24
 71
     3
 72
    12
 73
     8
 74
     0
 42
0.000000001
 43
0.00000001
 40
0.0
 40
0.0
 40
0.0
 40
0.0
 40
0.4999999999999999
 40
0.7499999999999998
 40
0.8749999999999999
 40
0.8749999999999999
 40
1.0
 40
1.0
 40
1.0
 40
1.0
 10
28.1527521176512
 20
18.0556085534843
 30
0.0
 10
28.22562877867904
 20
15.34488157664362
 30
0.0
 10
28.33504234701009
 20
11.27512444007725
 30
0.0
 10
28.46268247860667
 20
6.527410382291836
 30
0.0
 10
28.51736400603203
 20
4.493471266034915
 30
0.0
 10
28.55381144397828
 20
3.13776901672649
 30
0.0
 10
28.57203023631699
 20
2.460101143621357
 30
0.0
 10
28.59024874418081
 20
1.782443851865727
 30
0.0
  0
SPLINE
  5
219
330
1F
100
AcDbEntity
  8
0
  6
Continuous
 62
     7
370
    15
100
AcDbSpline
210
0.0
220
0.0
230
1.0
 70
     8
 71
     3
 72
    12
 73
     8
 74
     0
 42
0.000000001
 43
0.00000001
 40
0.0
 40
0.0
 40
0.0
 40
0.0
 40
0.5
 40
0.7499999999999998
 40
0.8749999999999999
 40
0.8749999999999999
 40
1.0
 40
1.0
 40
1.0
 40
1.0
 10
34.15047637382673
 20
18.0556085534843
 30
0.0
 10
34.21970963273021
 20
15.34488157664362
 30
0.0
 10
34.18707510166274
 20
11.27512444007725
 30
0.0
 10
34.16150597801671
 20
6.527410382291825
 30
0.0
 10
34.18015791307444
 20
4.493471266034901
 30
0.0
 10
34.20216485398786
 20
3.137769016726482
 30
0.0
 10
34.21998949252883
 20
2.460101143621348
 30
0.0
 10
34.23820800039265
 20
1.782443851865713
 30
0.0
  0
SPLINE
  5
21A
330
1F
100
AcDbEntity
  8
0
  6
Continuous
 62
     7
370
    15
100
AcDbSpline
210
0.0
220
0.0
230
1.0
 70
     8
 71
     3
 72
    24
 73
    20
 74
     0
 42
0.000000001
 43
0.00000001
 40
0.0
 40
0.0
 40
0.0
 40
0.0
 40
0.1250000000000006
 40
0.1250000000000006
 40
0.1875000000000013
 40
0.1875000000000013
 40
0.250000000000002
 40
0.250000000000002
 40
0.3750000000000017
 40
0.3750000000000017
 40
0.5000000000000013
 40
0.5000000000000013
 40
0.625000000000001
 40
0.625000000000001
 40
0.7500000000000007
 40
0.7500000000000007
 40
0.8750000000000003
 40
0.8750000000000003
 40
1.0
 40
1.0
 40
1.0
 40
1.0
 10
34.23820800039262
 20
1.78244385186571
 30
0.0
 10
33.86589676858129
 20
1.815093659332889
 30
0.0
 10
33.49938132693364
 20
1.844055392040444
 30
0.0
 10
32.95801283189551
 20
1.882149791641781
 30
0.0
 10
32.77896761274729
 20
1.893950088018742
 30
0.0
 10
32.42377417324019
 20
1.91570721373679
 30
0.0
 10
32.24719690121941
 20
1.92567647606323
 30
0.0
 10
31.73347040389718
 20
1.952132211883143
 30
0.0
 10
31.40836119539187
 20
1.965452614226574
 30
0.0
 10
30.79276365923669
 20
1.983492049262304
 30
0.0
 10
30.50129429829157
 20
1.988113322437935
 30
0.0
 10
29.97922756829571
 20
1.988148715356944
 30
0.0
 10
29.74503280235077
 20
1.983712485403232
 30
0.0
 10
29.33170318380396
 20
1.96570270793831
 30
0.0
 10
29.15685737281887
 20
1.952232398788533
 30
0.0
 10
28.87613134173272
 20
1.917243745544283
 30
0.0
 10
28.76831339998481
 20
1.895465746367826
 30
0.0
 10
28.62485311927232
 20
1.844225462716001
 30
0.0
 10
28.58937092856178
 20
1.81509516225139
 30
0.0
 10
28.59024874418078
 20
1.78244385186572
 30
0.0
  0
SPLINE
  5
21B
330
1F
100
AcDbEntity
  8
0
  6
Continuous
 62
     7
370
    15
100
AcDbSpline
210
0.0
220
0.0
230
1.0
 70
    24
 71
     3
 72
    26
 73
    22
 74
     0
 42
0.000000001
 43
0.00000001
 40
0.0
 40
0.0
 40
0.0
 40
0.0
 40
0.1250000000000056
 40
0.1250000000000056
 40
0.1875000000000075
 40
0.1875000000000075
 40
0.2500000000000095
 40
0.2500000000000095
 40
0.3750000000000134
 40
0.3750000000000134
 40
0.5000000000000172
 40
0.5000000000000172
 40
0.6250000000000211
 40
0.6250000000000211
 40
0.6875000000000182
 40
0.6875000000000182
 40
0.7500000000000152
 40
0.7500000000000152
 40
0.8750000000000075
 40
0.8750000000000075
 40
1.0
 40
1.0
 40
1.0
 40
1.0
 10
28.15275211765125
 20
18.0556085534843
 30
0.0
 10
28.15275211765125
 20
18.0556085534843
 30
0.0
 10
28.19156556616667
 20
18.0556085534843
 30
0.0
 10
28.30564552235049
 20
18.0556085534843
 30
0.0
 10
28.35305117645803
 20
18.0556085534843
 30
0.0
 10
28.46705029999266
 20
18.0556085534843
 30
0.0
 10
28.53396913870354
 20
18.0556085534843
 30
0.0
 10
28.75945948559103
 20
18.0556085534843
 30
0.0
 10
28.94345466159506
 20
18.0556085534843
 30
0.0
 10
29.37817831090469
 20
18.0556085534843
 30
0.0
 10
29.63124943360501
 20
18.0556085534843
 30
0.0
 10
30.18410984454453
 20
18.0556085534843
 30
0.0
 10
30.48577577631884
 20
18.0556085534843
 30
0.0
 10
30.97701478422002
 20
18.0556085534843
 30
0.0
 10
31.14725553199396
 20
18.0556085534843
 30
0.0
 10
31.49326185283036
 20
18.0556085534843
 30
0.0
 10
31.66993528433593
 20
18.0556085534843
 30
0.0
 10
32.21079640079902
 20
18.0556085534843
 30
0.0
 10
32.5878866906267
 20
18.0556085534843
 30
0.0
 10
33.36274261460512
 20
18.0556085534843
 30
0.0
 10
33.75445345086561
 20
18.0556085534843
 30
0.0
 10
34.15047637382676
 20
18.0556085534843
 30
0.0
  0
LINE
  5
21C
330
1F
100
AcDbEntity
  8
0
  6
Continuous
 62
     7
370
    15
100
AcDbLine
 10
382.2672962349
 20
1.7824438519
 30
0.0
 11
373.9650612239
 21
1.0543799325
 31
0.0
  0
LINE
  5
21D
330
1F
100
AcDbEntity
  8
0
  6
Continuous
 62
     7
370
    15
100
AcDbLine
 10
373.9650612239
 20
1.0543799325
 30
0.0
 11
373.965059798
 21
1.0542992639
 31
0.0
  0
LINE
  5
21E
330
1F
100
AcDbEntity
  8
0
  6
Continuous
 62
     7
370
    15
100
AcDbLine
 10
215.5527535171
 20
1.0542992639
 30
0.0
 11
373.965059798
 21
1.0542992639
 31
0.0
  0
LINE
  5
21F
330
1F
100
AcDbEntity
  8
0
  6
Continuous
 62
     7
370
    15
100
AcDbLine
 10
215.5527535171
 20
1.0542992639
 30
0.0
 11
215.5527521177
 21
1.0543799322
 31
0.0
  0
LINE
  5
220
330
1F
100
AcDbEntity
  8
0
  6
Continuous
 62
     7
370
    15
100
AcDbLine
 10
215.5527521177
 20
1.0543799322
 30
0.0
 11
200.9527521177
 21
1.0543799322
 31
0.0
  0
LINE
  5
221
330
1F
100
AcDbEntity
  8
0
  6
Continuous
 62
     7
370
    15
100
AcDbLine
 10
200.9527507182
 20
1.0542992639
 30
0.0
 11
200.9527521177
 21
1.0543799322
 31
0.0
  0
LINE
  5
222
330
1F
100
AcDbEntity
  8
0
  6
Continuous
 62
     7
370
    15
100
AcDbLine
 10
42.5404444373
 20
1.0542992639
 30
0.0
 11
200.9527507182
 21
1.0542992639
 31
0.0
  0
LINE
  5
223
330
1F
100
AcDbEntity
  8
0
  6
Continuous
 62
     7
370
    15
100
AcDbLine
 10
42.5404430114
 20
1.0543799325
 30
0.0
 11
42.5404444373
 21
1.0542992639
 31
0.0
  0
LINE
  5
224
330
1F
100
AcDbEntity
  8
0
  6
Continuous
 62
     7
370
    15
100
AcDbLine
 10
42.5404430114
 20
1.0543799325
 30
0.0
 11
34.2382080004
 21
1.7824438519
 31
0.0
  0
LINE
  5
225
330
1F
100
AcDbEntity
  8
0
  6
Continuous
 62
     7
370
    15
100
AcDbLine
 10
382.3550278615
 20
18.0556085535
 30
0.0
 11
34.1504763738
 21
18.0556085535
 31
0.0
  0
ELLIPSE
  5
226
330
1F
100
AcDbEntity
  8
0
  6
Continuous
 62
     7
370
    15
100
AcDbEllipse
 10
381.9573560338
 20
1.234078937
 30
0.0
 11
4.694376619958291
 21
0.4138491608349704
 31
0.0
210
0.0
220
0.0
230
1.0
 40
0.0868190381
 41
6.274702374020705
 42
7.847154863083674
  0
LINE
  5
227
330
1F
100
AcDbEntity
  8
0
  6
Continuous
 62
     7
370
    15
100
AcDbLine
 10
378.0141552531
 20
1.299524399
 30
0.0
 11
381.9534740697
 21
1.6444559341
 31
0.0
  0
ELLIPSE
  5
228
330
1F
100
AcDbEntity
  8
0
  6
Continuous
 62
     7
370
    15
100
AcDbEllipse
 10
378.0175711057
 20
1.0377170633
 30
0.0
 11
3.004953740968233
 21
0.264818719870926
 31
0.0
210
0.0
220
0.0
230
1.0
 40
0.086555038
 41
1.564305313105619
 42
3.132440136638963
  0
LINE
  5
229
330
1F
100
AcDbEntity
  8
0
  6
Continuous
 62
     7
370
    15
100
AcDbLine
 10
375.0038847195
 20
0.2798051281
 30
0.0
 11
375.0125334386
 21
0.7752899156
 31
0.0
  0
ELLIPSE
  5
22A
330
1F
100
AcDbEntity
  8
0
  6
Continuous
 62
     7
370
    15
100
AcDbEllipse
 10
378.0089391999
 20
0.543195513
 30
0.0
 11
3.004969396662034
 21
0.2658038545963409
 31
0.0
210
0.0
220
0.0
230
1.0
 40
0.0868140731
 41
3.132384232308056
 42
4.702875972607801
  0
LINE
  5
22B
330
1F
100
AcDbEntity
  8
0
  6
Continuous
 62
     7
370
    15
100
AcDbLine
 10
383.6581961186
 20
0.7752899153
 30
0.0
 11
378.003427805
 21
0.2798051281
 31
0.0
  0
ELLIPSE
  5
22C
330
1F
100
AcDbEntity
  8
0
  6
Continuous
 62
     7
370
    15
100
AcDbEllipse
 10
383.652714476
 20
1.037717063
 30
0.0
 11
2.995800190269108
 21
0.2640362061596393
 31
0.0
210
0.0
220
0.0
230
1.0
 40
0.0870846543
 41
4.706543608560388
 42
6.274678432093937
  0
LINE
  5
22D
330
1F
100
AcDbEntity
  8
0
  6
Continuous
 62
     7
370
    15
100
AcDbLine
 10
386.648601869
 20
1.2995243987
 30
0.0
 11
386.6518685388
 21
1.6444559341
 31
0.0
  0
LINE
  5
22E
330
1F
100
AcDbEntity
  8
0
  6
Continuous
 62
     7
370
    15
100
AcDbLine
 10
373.9650612203
 20
-0.1643914465
 30
0.0
 11
387.895681824
 21
1.0543799322
 31
0.0
  0
LINE
  5
22F
330
1F
100
AcDbEntity
  8
0
  6
Continuous
 62
     7
370
    15
100
AcDbLine
 10
373.9650612239
 20
1.0543799325
 30
0.0
 11
373.9650612203
 21
-0.1643914465
 31
0.0
  0
LINE
  5
230
330
1F
100
AcDbEntity
  8
0
  6
Continuous
 62
     7
370
    15
100
AcDbLine
 10
387.895681824
 20
1.0543799322
 30
0.0
 11
387.9152554911
 21
1.7824438519
 31
0.0
  0
ELLIPSE
  5
231
330
1F
100
AcDbEntity
  8
0
  6
Continuous
 62
     7
370
    15
100
AcDbEllipse
 10
38.4879331296
 20
1.0377170633
 30
0.0
 11
3.004953740968297
 21
-0.2648187198709258
 31
0.0
210
0.0
220
0.0
230
1.0
 40
0.086555038
 41
0.0091525169508209
 42
1.577287340484195
  0
LINE
  5
232
330
1F
100
AcDbEntity
  8
0
  6
Continuous
 62
     7
370
    15
100
AcDbLine
 10
38.4913489822
 20
1.299524399
 30
0.0
 11
34.5520301656
 21
1.6444559341
 31
0.0
  0
ELLIPSE
  5
233
330
1F
100
AcDbEntity
  8
0
  6
Continuous
 62
     7
370
    15
100
AcDbEllipse
 10
34.5481482015
 20
1.234078937
 30
0.0
 11
4.694376619958277
 21
-0.4138491608349703
 31
0.0
210
0.0
220
0.0
230
1.0
 40
0.0868190381
 41
1.577623097685701
 42
3.150075586749003
  0
LINE
  5
234
330
1F
100
AcDbEntity
  8
0
  6
Continuous
 62
     7
370
    15
100
AcDbLine
 10
29.8569023663
 20
1.2995243987
 30
0.0
 11
29.8536356965
 21
1.6444559341
 31
0.0
  0
ELLIPSE
  5
235
330
1F
100
AcDbEntity
  8
0
  6
Continuous
 62
     7
370
    15
100
AcDbEllipse
 10
32.8527897593
 20
1.037717063
 30
0.0
 11
2.995800190269101
 21
-0.2640362061596394
 31
0.0
210
0.0
220
0.0
230
1.0
 40
0.0870846543
 41
3.150099528675774
 42
4.718234352208982
  0
LINE
  5
236
330
1F
100
AcDbEntity
  8
0
  6
Continuous
 62
     7
370
    15
100
AcDbLine
 10
32.8473081167
 20
0.7752899153
 30
0.0
 11
38.5020764303
 21
0.2798051281
 31
0.0
  0
ELLIPSE
  5
237
330
1F
100
AcDbEntity
  8
0
  6
Continuous
 62
     7
370
    15
100
AcDbEllipse
 10
38.4965650354
 20
0.543195513
 30
0.0
 11
3.004969396662034
 21
-0.2658038545963401
 31
0.0
210
0.0
220
0.0
230
1.0
 40
0.0868140731
 41
4.721901988161576
 42
6.292393728461314
  0
LINE
  5
238
330
1F
100
AcDbEntity
  8
0
  6
Continuous
 62
     7
370
    15
100
AcDbLine
 10
41.5016195158
 20
0.2798051281
 30
0.0
 11
41.4929707967
 21
0.7752899156
 31
0.0
  0
LINE
  5
239
330
1F
100
AcDbEntity
  8
0
  6
Continuous
 62
     7
370
    15
100
AcDbLine
 10
42.5404430114
 20
1.0543799325
 30
0.0
 11
42.540443015
 21
-0.1643914465
 31
0.0
  0
LINE
  5
23A
330
1F
100
AcDbEntity
  8
0
  6
Continuous
 62
     7
370
    15
100
AcDbLine
 10
42.540443015
 20
-0.1643914465
 30
0.0
 11
28.6098224113
 21
1.0543799322
 31
0.0
  0
LINE
  5
23B
330
1F
100
AcDbEntity
  8
0
  6
Continuous
 62
     7
370
    15
100
AcDbLine
 10
28.6098224113
 20
1.0543799322
 30
0.0
 11
28.5902487442
 21
1.7824438519
 31
0.0
  0
LINE
  5
23C
330
1F
100
AcDbEntity
  8
0
  6
Continuous
 62
     7
370
    15
100
AcDbLine
 10
373.9335721886
 20
-1.9443914465
 30
0.0
 11
373.9650612203
 21
-0.1643914465
 31
0.0
  0
LINE
  5
23D
330
1F
100
AcDbEntity
  8
0
  6
Continuous
 62
     7
370
    15
100
AcDbLine
 10
373.9335721886
 20
-1.9443914465
 30
0.0
 11
373.9335233771
 21
-1.9443914465
 31
0.0
  0
LINE
  5
23E
330
1F
100
AcDbEntity
  8
0
  6
Continuous
 62
     7
370
    15
100
AcDbLine
 10
373.9335233771
 20
-1.9443914465
 30
0.0
 11
373.9335233801
 21
-0.8837337057
 31
0.0
  0
LINE
  5
23F
330
1F
100
AcDbEntity
  8
0
  6
Continuous
 62
     7
370
    15
100
AcDbLine
 10
373.965059798
 20
1.0542992639
 30
0.0
 11
373.9335233801
 21
-0.8837337057
 31
0.0
  0
LINE
  5
240
330
1F
100
AcDbEntity
  8
0
  6
Continuous
 62
     7
370
    15
100
AcDbLine
 10
42.5719808583
 20
-1.9443914465
 30
0.0
 11
42.5719320467
 21
-1.9443914465
 31
0.0
  0
LINE
  5
241
330
1F
100
AcDbEntity
  8
0
  6
Continuous
 62
     7
370
    15
100
AcDbLine
 10
42.5719320467
 20
-1.9443914465
 30
0.0
 11
42.540443015
 21
-0.1643914465
 31
0.0
  0
LINE
  5
242
330
1F
100
AcDbEntity
  8
0
  6
Continuous
 62
     7
370
    15
100
AcDbLine
 10
42.5719808552
 20
-0.8837337057
 30
0.0
 11
42.5404444373
 21
1.0542992639
 31
0.0
  0
LINE
  5
243
330
1F
100
AcDbEntity
  8
0
  6
Continuous
 62
     7
370
    15
100
AcDbLine
 10
42.5719808583
 20
-1.9443914465
 30
0.0
 11
42.5719808552
 21
-0.8837337057
 31
0.0
  0
LINE
  5
244
330
1F
100
AcDbEntity
  8
0
  6
Continuous
 62
     7
370
    15
100
AcDbLine
 10
215.5527521177
 20
-0.1180224548
 30
0.0
 11
215.5837039024
 21
-1.9007448865
 31
0.0
  0
LINE
  5
245
330
1F
100
AcDbEntity
  8
0
  6
Continuous
 62
     7
370
    15
100
AcDbLine
 10
215.5527521177
 20
1.0543799322
 30
0.0
 11
215.5527521177
 21
-0.1180224548
 31
0.0
  0
LINE
  5
246
330
1F
100
AcDbEntity
  8
0
  6
Continuous
 62
     7
370
    15
100
AcDbLine
 10
215.5837039024
 20
-0.8837337057
 30
0.0
 11
215.5527535171
 21
1.0542992639
 31
0.0
  0
LINE
  5
247
330
1F
100
AcDbEntity
  8
0
  6
Continuous
 62
     7
370
    15
100
AcDbLine
 10
215.5837039024
 20
-0.8837337057
 30
0.0
 11
215.5837039024
 21
-1.9007448865
 31
0.0
  0
LINE
  5
248
330
1F
100
AcDbEntity
  8
0
  6
Continuous
 62
     7
370
    15
100
AcDbLine
 10
200.9527521177
 20
-0.1180224548
 30
0.0
 11
215.5527521177
 21
-0.1180224548
 31
0.0
  0
LINE
  5
249
330
1F
100
AcDbEntity
  8
0
  6
Continuous
 62
     7
370
    15
100
AcDbLine
 10
200.9527521177
 20
1.0543799322
 30
0.0
 11
200.9527521177
 21
-0.1180224548
 31
0.0
  0
ELLIPSE
  5
24A
330
1F
100
AcDbEntity
  8
0
  6
Continuous
 62
     7
370
    15
100
AcDbEllipse
 10
208.2527521177
 20
0.2933020675
 30
0.0
 11
4.079630598881778
 21
0.0
 31
0.0
210
0.0
220
0.0
230
1.0
 40
0.0874887655
 41
4.638869861060411
 42
4.785908099715088
  0
LINE
  5
24B
330
1F
100
AcDbEntity
  8
0
  6
Continuous
 62
     7
370
    15
100
AcDbLine
 10
208.5524128487
 20
-0.0626556197
 30
0.0
 11
211.2703632111
 21
-0.0626556197
 31
0.0
  0
ELLIPSE
  5
24C
330
1F
100
AcDbEntity
  8
0
  6
Continuous
 62
     7
370
    15
100
AcDbEllipse
 10
211.2648602457
 20
0.2002518431
 30
0.0
 11
3.0004618909812
 21
-0.000485913331103205
 31
0.0
210
0.0
220
0.0
230
1.0
 40
0.0876221806
 41
4.714237210946545
 42
6.284728951246286
  0
LINE
  5
24D
330
1F
100
AcDbEntity
  8
0
  6
Continuous
 62
     7
370
    15
100
AcDbLine
 10
214.2653186276
 20
0.200171765
 30
0.0
 11
214.2569647507
 21
0.6787650485
 31
0.0
  0
ELLIPSE
  5
24E
330
1F
100
AcDbEntity
  8
0
  6
Continuous
 62
     7
370
    15
100
AcDbEllipse
 10
211.2565091601
 20
0.6786852147
 30
0.0
 11
3.000459078509891
 21
-0.0003222818459698296
 31
0.0
210
0.0
220
0.0
230
1.0
 40
0.0873551345
 41
0.0015341741064388
 42
1.572025914406168
  0
LINE
  5
24F
330
1F
100
AcDbEntity
  8
0
  6
Continuous
 62
     7
370
    15
100
AcDbLine
 10
211.2528479867
 20
0.9407909192
 30
0.0
 11
205.2526562486
 21
0.9407909192
 31
0.0
  0
ELLIPSE
  5
250
330
1F
100
AcDbEntity
  8
0
  6
Continuous
 62
     7
370
    15
100
AcDbEllipse
 10
205.2489950752
 20
0.6786852147
 30
0.0
 11
3.000459078509891
 21
0.0003222818459698296
 31
0.0
210
0.0
220
0.0
230
1.0
 40
0.0873551345
 41
1.569566739183616
 42
3.140058479483356
  0
LINE
  5
251
330
1F
100
AcDbEntity
  8
0
  6
Continuous
 62
     7
370
    15
100
AcDbLine
 10
202.2485394846
 20
0.6787650485
 30
0.0
 11
202.2401856078
 21
0.200171765
 31
0.0
  0
ELLIPSE
  5
252
330
1F
100
AcDbEntity
  8
0
  6
Continuous
 62
     7
370
    15
100
AcDbEllipse
 10
205.2406439897
 20
0.2002518431
 30
0.0
 11
3.0004618909812
 21
0.0004859133311031494
 31
0.0
210
0.0
220
0.0
230
1.0
 40
0.0876221806
 41
3.140049009523105
 42
4.710540749822837
  0
LINE
  5
253
330
1F
100
AcDbEntity
  8
0
  6
Continuous
 62
     7
370
    15
100
AcDbLine
 10
205.2351410242
 20
-0.0626556197
 30
0.0
 11
207.9530913866
 21
-0.0626556198
 31
0.0
  0
LINE
  5
254
330
1F
100
AcDbEntity
  8
0
  6
Continuous
 62
     7
370
    15
100
AcDbLine
 10
200.9527521177
 20
-0.1180224548
 30
0.0
 11
200.9218003329
 21
-1.9007448865
 31
0.0
  0
LINE
  5
255
330
1F
100
AcDbEntity
  8
0
  6
Continuous
 62
     7
370
    15
100
AcDbLine
 10
200.9218003329
 20
-0.8837337057
 30
0.0
 11
200.9218003329
 21
-1.9007448865
 31
0.0
  0
LINE
  5
256
330
1F
100
AcDbEntity
  8
0
  6
Continuous
 62
     7
370
    15
100
AcDbLine
 10
200.9527507182
 20
1.0542992639
 30
0.0
 11
200.9218003329
 21
-0.8837337057
 31
0.0
  0
LINE
  5
257
330
1F
100
AcDbEntity
  8
0
  6
Continuous
 62
     7
370
    15
100
AcDbLine
 10
373.9335233801
 20
-0.8837337057
 30
0.0
 11
215.5837039024
 21
-0.8837337057
 31
0.0
  0
LINE
  5
258
330
1F
100
AcDbEntity
  8
0
  6
Continuous
 62
     7
370
    15
100
AcDbLine
 10
200.9218003329
 20
-0.8837337057
 30
0.0
 11
42.5719808552
 21
-0.8837337057
 31
0.0
  0
LINE
  5
259
330
1F
100
AcDbEntity
  8
0
  6
Continuous
 62
     7
370
    15
100
AcDbLine
 10
215.5837039024
 20
-1.9007448865
 30
0.0
 11
200.9218003329
 21
-1.9007448865
 31
0.0
  0
LINE
  5
25A
330
1F
100
AcDbEntity
  8
0
  6
Continuous
 62
     7
370
    15
100
AcDbLine
 10
373.9335233771
 20
-1.9443914465
 30
0.0
 11
42.5719808583
 21
-1.9443914465
 31
0.0
  0
LINE
  5
25B
330
1F
100
AcDbEntity
  8
0
  6
Continuous
 62
     7
370
    15
100
AcDbLine
 10
208.5517668994
 20
0.9407909192
 30
0.0
 11
208.5524128487
 21
-0.0626556197
 31
0.0
  0
LINE
  5
25C
330
1F
100
AcDbEntity
  8
0
  6
Continuous
 62
     7
370
    15
100
AcDbLine
 10
207.9530913866
 20
-0.0626556198
 30
0.0
 11
207.9537373359
 21
0.9407909192
 31
0.0
  0
LINE
  5
25D
330
1F
100
AcDbEntity
  8
0
  6
Continuous
 62
     7
370
    15
100
AcDbLine
 10
373.9650612203
 20
-1.9443914465
 30
0.0
 11
373.9335721886
 21
-1.9443914465
 31
0.0
  0
LINE
  5
25E
330
1F
100
AcDbEntity
  8
0
  6
Continuous
 62
     7
370
    15
100
AcDbLine
 10
386.0884346737
 20
-0.8837337057
 30
0.0
 11
387.8956796553
 21
1.0542992639
 31
0.0
  0
LINE
  5
25F
330
1F
100
AcDbEntity
  8
0
  6
Continuous
 62
     7
370
    15
100
AcDbLine
 10
386.0884346737
 20
-0.8837337057
 30
0.0
 11
373.9650612203
 21
-1.9443914465
 31
0.0
  0
LINE
  5
260
330
1F
100
AcDbEntity
  8
0
  6
Continuous
 62
     7
370
    15
100
AcDbLine
 10
387.8956796553
 20
1.0542992639
 30
0.0
 11
387.895681824
 21
1.0543799322
 31
0.0
  0
LINE
  5
261
330
1F
100
AcDbEntity
  8
0
  6
Continuous
 62
     7
370
    15
100
AcDbLine
 10
30.4170695616
 20
-0.8837337057
 30
0.0
 11
42.540443015
 21
-1.9443914465
 31
0.0
  0
LINE
  5
262
330
1F
100
AcDbEntity
  8
0
  6
Continuous
 62
     7
370
    15
100
AcDbLine
 10
28.60982458
 20
1.0542992639
 30
0.0
 11
30.4170695616
 21
-0.8837337057
 31
0.0
  0
LINE
  5
263
330
1F
100
AcDbEntity
  8
0
  6
Continuous
 62
     7
370
    15
100
AcDbLine
 10
42.5719320467
 20
-1.9443914465
 30
0.0
 11
42.540443015
 21
-1.9443914465
 31
0.0
  0
LINE
  5
264
330
1F
100
AcDbEntity
  8
0
  6
Continuous
 62
     7
370
    15
100
AcDbLine
 10
28.6098224113
 20
1.0543799322
 30
0.0
 11
28.60982458
 21
1.0542992639
 31
0.0
  0
LINE
  5
265
330
1F
100
AcDbEntity
  8
0
  6
Continuous
 62
     8
370
    15
100
AcDbLine
 10
386.6421439728
 20
1.6703703148
 30
0.0
 11
386.648601869
 21
1.2995243987
 31
0.0
  0
LINE
  5
266
330
1F
100
AcDbEntity
  8
0
  6
Continuous
 62
     8
370
    15
100
AcDbLine
 10
29.8569023663
 20
1.2995243987
 30
0.0
 11
29.8633602625
 21
1.6703703148
 31
0.0
  0
LINE
  5
267
330
1F
100
AcDbEntity
  8
0
  6
Continuous
 62
     8
370
    15
100
AcDbLine
 10
211.2703632111
 20
-0.0626556197
 30
0.0
 11
211.2528479867
 21
0.9407909192
 31
0.0
  0
LINE
  5
268
330
1F
100
AcDbEntity
  8
0
  6
Continuous
 62
     8
370
    15
100
AcDbLine
 10
205.2526562486
 20
0.9407909192
 30
0.0
 11
205.2351410242
 21
-0.0626556197
 31
0.0
  0
LINE
  5
269
330
1F
100
AcDbEntity
  8
0
  6
Continuous
 62
     8
370
    15
100
AcDbLine
 10
383.6581961186
 20
0.7752899153
 30
0.0
 11
383.6409653289
 21
1.7647712817
 31
0.0
  0
LINE
  5
26A
330
1F
100
AcDbEntity
  8
0
  6
Continuous
 62
     8
370
    15
100
AcDbLine
 10
32.8645389064
 20
1.7647712817
 30
0.0
 11
32.8473081167
 21
0.7752899153
 31
0.0
  0
LINE
  5
26B
330
1F
100
AcDbEntity
  8
0
  6
Continuous
 62
     8
370
    15
100
AcDbLine
 10
378.0212378961
 20
1.3001445638
 30
0.0
 11
378.003427805
 21
0.2798051281
 31
0.0
  0
LINE
  5
26C
330
1F
100
AcDbEntity
  8
0
  6
Continuous
 62
     8
370
    15
100
AcDbLine
 10
38.5020764303
 20
0.2798051281
 30
0.0
 11
38.4842663392
 21
1.3001445638
 31
0.0
  0
SPLINE
  5
26D
330
1F
100
AcDbEntity
  8
0
  6
Continuous
 62
     7
370
    15
100
AcDbSpline
210
0.0
220
0.0
230
1.0
 70
     8
 71
     3
 72
    12
 73
     8
 74
     0
 42
0.000000001
 43
0.00000001
 40
0.0
 40
0.0
 40
0.0
 40
0.0
 40
0.4999999999999999
 40
0.7499999999999998
 40
0.8749999999999999
 40
0.8749999999999999
 40
1.0
 40
1.0
 40
1.0
 40
1.0
 10
-24.69410531668915
 20
61.67790624970485
 30
0.0
 10
-27.40483229352984
 20
61.74713950860829
 30
0.0
 10
-31.47458943009621
 20
61.71450497754081
 30
0.0
 10
-36.22230348788163
 20
61.68893585389493
 30
0.0
 10
-38.25624260413856
 20
61.70758778895257
 30
0.0
 10
-39.61194485344698
 20
61.729594729866
 30
0.0
 10
-40.28961272655211
 20
61.74741936840694
 30
0.0
 10
-40.96727001830774
 20
61.76563787627077
 30
0.0
  0
SPLINE
  5
26E
330
1F
100
AcDbEntity
  8
0
  6
Continuous
 62
     7
370
    15
100
AcDbSpline
210
0.0
220
0.0
230
1.0
 70
    24
 71
     3
 72
    12
 73
     8
 74
     0
 42
0.000000001
 43
0.00000001
 40
0.0
 40
0.0
 40
0.0
 40
0.0
 40
0.5000000000000002
 40
0.7500000000000003
 40
0.8750000000000001
 40
0.8750000000000001
 40
1.0
 40
1.0
 40
1.0
 40
1.0
 10
-24.69410531668916
 20
55.68018199352939
 30
0.0
 10
-27.40483229352984
 20
55.75305865455722
 30
0.0
 10
-31.47458943009621
 20
55.86247222288826
 30
0.0
 10
-36.22230348788162
 20
55.99011235448485
 30
0.0
 10
-38.25624260413855
 20
56.04479388191024
 30
0.0
 10
-39.61194485344697
 20
56.08124131985644
 30
0.0
 10
-40.28961272655211
 20
56.099460112195
 30
0.0
 10
-40.96727001830774
 20
56.1176786200589
 30
0.0
  0
SPLINE
  5
26F
330
1F
100
AcDbEntity
  8
0
  6
Continuous
 62
     7
370
    15
100
AcDbSpline
210
0.0
220
0.0
230
1.0
 70
     8
 71
     3
 72
    24
 73
    20
 74
     0
 42
0.000000001
 43
0.00000001
 40
0.0
 40
0.0
 40
0.0
 40
0.0
 40
0.1249999999999859
 40
0.1249999999999859
 40
0.187499999999984
 40
0.187499999999984
 40
0.249999999999982
 40
0.249999999999982
 40
0.374999999999985
 40
0.374999999999985
 40
0.499999999999988
 40
0.499999999999988
 40
0.624999999999991
 40
0.624999999999991
 40
0.749999999999994
 40
0.749999999999994
 40
0.874999999999997
 40
0.874999999999997
 40
1.0
 40
1.0
 40
1.0
 40
1.0
 10
-40.96727001830774
 20
56.1176786200589
 30
0.0
 10
-40.93462021084056
 20
56.11680084484519
 30
0.0
 10
-40.90565847813303
 20
56.15228216686684
 30
0.0
 10
-40.86756407853168
 20
56.25822968201945
 30
0.0
 10
-40.8557637821547
 20
56.30239689639082
 30
0.0
 10
-40.83400665643666
 20
56.40890525098293
 30
0.0
 10
-40.82403739411023
 20
56.47153333319309
 30
0.0
 10
-40.79758165829032
 20
56.68286938638567
 30
0.0
 10
-40.78426125594688
 20
56.85572569941105
 30
0.0
 10
-40.76622182091115
 20
57.26513154959541
 30
0.0
 10
-40.76160054773552
 20
57.50377951643821
 30
0.0
 10
-40.76156515481651
 20
58.02544170351862
 30
0.0
 10
-40.76600138477021
 20
58.31034280986136
 30
0.0
 10
-40.78401116223514
 20
58.92952512679339
 30
0.0
 10
-40.7974814713849
 20
59.25833727589466
 30
0.0
 10
-40.83247012462915
 20
59.93898544356571
 30
0.0
 10
-40.85424812380563
 20
60.29572705495021
 30
0.0
 10
-40.90548840745746
 20
61.02486645781151
 30
0.0
 10
-40.93461870792208
 20
61.39330950642776
 30
0.0
 10
-40.96727001830775
 20
61.76563787627077
 30
0.0
  0
SPLINE
  5
270
330
1F
100
AcDbEntity
  8
0
  6
Continuous
 62
     7
370
    15
100
AcDbSpline
210
0.0
220
0.0
230
1.0
 70
    24
 71
     3
 72
    26
 73
    22
 74
     0
 42
0.000000001
 43
0.00000001
 40
0.0
 40
0.0
 40
0.0
 40
0.0
 40
0.1249999999999977
 40
0.1249999999999977
 40
0.1874999999999957
 40
0.1874999999999957
 40
0.2499999999999937
 40
0.2499999999999937
 40
0.3749999999999972
 40
0.3749999999999972
 40
0.5000000000000007
 40
0.5000000000000007
 40
0.6250000000000041
 40
0.6250000000000041
 40
0.6875000000000034
 40
0.6875000000000034
 40
0.7500000000000028
 40
0.7500000000000028
 40
0.8750000000000013
 40
0.8750000000000013
 40
1.0
 40
1.0
 40
1.0
 40
1.0
 10
-24.69410531668916
 20
61.67790624970488
 30
0.0
 10
-24.69410531668916
 20
61.28188422710766
 30
0.0
 10
-24.69410531668915
 20
60.89247071921628
 30
0.0
 10
-24.69410531668915
 20
60.31786134121611
 30
0.0
 10
-24.69410531668915
 20
60.12792178386693
 30
0.0
 10
-24.69410531668915
 20
59.75130965431326
 30
0.0
 10
-24.69410531668915
 20
59.56411488796301
 30
0.0
 10
-24.69410531668915
 20
59.01956474576856
 30
0.0
 10
-24.69410531668915
 20
58.67519056901862
 30
0.0
 10
-24.69410531668915
 20
58.02342638699356
 30
0.0
 10
-24.69410531668915
 20
57.71478586109778
 30
0.0
 10
-24.69410531668915
 20
57.16152791805771
 30
0.0
 10
-24.69410531668915
 20
56.91325427791437
 30
0.0
 10
-24.69410531668915
 20
56.58437292600216
 30
0.0
 10
-24.69410531668915
 20
56.48222858038053
 30
0.0
 10
-24.69410531668915
 20
56.29709249640764
 30
0.0
 10
-24.69410531668915
 20
56.21345598266473
 30
0.0
 10
-24.69410531668915
 20
55.98892735584038
 30
0.0
 10
-24.69410531668915
 20
55.87374694995547
 30
0.0
 10
-24.69410531668915
 20
55.71900017503655
 30
0.0
 10
-24.69410531668915
 20
55.68018199352939
 30
0.0
 10
-24.69410531668915
 20
55.68018199352938
 30
0.0
  0
SPLINE
  5
271
330
1F
100
AcDbEntity
  8
0
  6
Continuous
 62
     7
370
    15
100
AcDbSpline
210
0.0
220
0.0
230
1.0
 70
    24
 71
     3
 72
    12
 73
     8
 74
     0
 42
0.000000001
 43
0.00000001
 40
0.0
 40
0.0
 40
0.0
 40
0.0
 40
0.125
 40
0.125
 40
0.2500000000000001
 40
0.5000000000000001
 40
1.0
 40
1.0
 40
1.0
 40
1.0
 10
-40.96727001830774
 20
255.4426853669999
 30
0.0
 10
-40.28961272655211
 20
255.4609038748638
 30
0.0
 10
-39.61194485344698
 20
255.4791226672023
 30
0.0
 10
-38.25624260413856
 20
255.5155701051486
 30
0.0
 10
-36.22230348788163
 20
255.570251632574
 30
0.0
 10
-31.47458943009621
 20
255.6978917641706
 30
0.0
 10
-27.40483229352984
 20
255.8073053325015
 30
0.0
 10
-24.69410531668915
 20
255.8801819935294
 30
0.0
  0
SPLINE
  5
272
330
1F
100
AcDbEntity
  8
0
  6
Continuous
 62
     7
370
    15
100
AcDbSpline
210
0.0
220
0.0
230
1.0
 70
     8
 71
     3
 72
    12
 73
     8
 74
     0
 42
0.000000001
 43
0.00000001
 40
0.0
 40
0.0
 40
0.0
 40
0.0
 40
0.1249999999999999
 40
0.1249999999999999
 40
0.2499999999999999
 40
0.5
 40
1.0
 40
1.0
 40
1.0
 40
1.0
 10
-40.96727001830773
 20
249.794726110788
 30
0.0
 10
-40.2896127265521
 20
249.8129446186519
 30
0.0
 10
-39.61194485344696
 20
249.8307692571928
 30
0.0
 10
-38.25624260413854
 20
249.8527761981062
 30
0.0
 10
-36.22230348788161
 20
249.8714281331639
 30
0.0
 10
-31.47458943009621
 20
249.845859009518
 30
0.0
 10
-27.40483229352984
 20
249.8132244784504
 30
0.0
 10
-24.69410531668915
 20
249.8824577373539
 30
0.0
  0
SPLINE
  5
273
330
1F
100
AcDbEntity
  8
0
  6
Continuous
 62
     7
370
    15
100
AcDbSpline
210
0.0
220
0.0
230
1.0
 70
     8
 71
     3
 72
    24
 73
    20
 74
     0
 42
0.000000001
 43
0.00000001
 40
0.0
 40
0.0
 40
0.0
 40
0.0
 40
0.125000000000003
 40
0.125000000000003
 40
0.1875000000000031
 40
0.1875000000000031
 40
0.2500000000000032
 40
0.2500000000000032
 40
0.3750000000000027
 40
0.3750000000000027
 40
0.5000000000000021
 40
0.5000000000000021
 40
0.6250000000000016
 40
0.6250000000000016
 40
0.750000000000001
 40
0.750000000000001
 40
0.8750000000000006
 40
0.8750000000000006
 40
1.0
 40
1.0
 40
1.0
 40
1.0
 10
-40.96727001830774
 20
249.794726110788
 30
0.0
 10
-40.93462021084056
 20
250.1670373425993
 30
0.0
 10
-40.905658478133
 20
250.5335527842469
 30
0.0
 10
-40.86756407853167
 20
251.0749212792851
 30
0.0
 10
-40.85576378215471
 20
251.2539664984334
 30
0.0
 10
-40.83400665643668
 20
251.6091599379404
 30
0.0
 10
-40.82403739411025
 20
251.7857372099613
 30
0.0
 10
-40.79758165829033
 20
252.2994637072836
 30
0.0
 10
-40.78426125594687
 20
252.6245729157887
 30
0.0
 10
-40.76622182091112
 20
253.2401704519438
 30
0.0
 10
-40.76160054773552
 20
253.5316398128891
 30
0.0
 10
-40.76156515481651
 20
254.053706542885
 30
0.0
 10
-40.76600138477021
 20
254.2879013088298
 30
0.0
 10
-40.78401116223515
 20
254.7012309273767
 30
0.0
 10
-40.7974814713849
 20
254.8760767383618
 30
0.0
 10
-40.83247012462915
 20
255.156802769448
 30
0.0
 10
-40.85424812380564
 20
255.2646207111958
 30
0.0
 10
-40.90548840745747
 20
255.4080809919083
 30
0.0
 10
-40.93461870792206
 20
255.4435631826188
 30
0.0
 10
-40.96727001830774
 20
255.4426853669999
 30
0.0
  0
SPLINE
  5
274
330
1F
100
AcDbEntity
  8
0
  6
Continuous
 62
     7
370
    15
100
AcDbSpline
210
0.0
220
0.0
230
1.0
 70
    24
 71
     3
 72
    26
 73
    22
 74
     0
 42
0.000000001
 43
0.00000001
 40
0.0
 40
0.0
 40
0.0
 40
0.0
 40
0.1250000000000022
 40
0.1250000000000022
 40
0.1875000000000037
 40
0.1875000000000037
 40
0.2500000000000052
 40
0.2500000000000052
 40
0.3750000000000001
 40
0.3750000000000001
 40
0.4999999999999949
 40
0.4999999999999949
 40
0.6249999999999897
 40
0.6249999999999897
 40
0.6874999999999915
 40
0.6874999999999915
 40
0.7499999999999932
 40
0.7499999999999932
 40
0.8749999999999966
 40
0.8749999999999966
 40
1.0
 40
1.0
 40
1.0
 40
1.0
 10
-24.69410531668866
 20
255.8801819935294
 30
0.0
 10
-24.69410531668866
 20
255.8801819935294
 30
0.0
 10
-24.69410531668916
 20
255.841368545014
 30
0.0
 10
-24.69410531668916
 20
255.7272885888301
 30
0.0
 10
-24.69410531668915
 20
255.6798829347225
 30
0.0
 10
-24.69410531668915
 20
255.5658838111879
 30
0.0
 10
-24.69410531668915
 20
255.4989649724772
 30
0.0
 10
-24.69410531668915
 20
255.2734746255896
 30
0.0
 10
-24.69410531668916
 20
255.0894794495856
 30
0.0
 10
-24.69410531668916
 20
254.654755800276
 30
0.0
 10
-24.69410531668915
 20
254.4016846775756
 30
0.0
 10
-24.69410531668915
 20
253.8488242666361
 30
0.0
 10
-24.69410531668915
 20
253.5471583348617
 30
0.0
 10
-24.69410531668915
 20
253.0559193269606
 30
0.0
 10
-24.69410531668915
 20
252.8856785791866
 30
0.0
 10
-24.69410531668915
 20
252.5396722583503
 30
0.0
 10
-24.69410531668915
 20
252.3629988268447
 30
0.0
 10
-24.69410531668915
 20
251.8221377103816
 30
0.0
 10
-24.69410531668916
 20
251.4450474205539
 30
0.0
 10
-24.69410531668916
 20
250.6701914965755
 30
0.0
 10
-24.69410531668915
 20
250.2784806603151
 30
0.0
 10
-24.69410531668915
 20
249.8824577373539
 30
0.0
  0
LINE
  5
275
330
1F
100
AcDbEntity
  8
0
  6
Continuous
 62
     7
370
    15
100
AcDbLine
 10
-41.6954146063
 20
70.0678743168
 30
0.0
 11
-41.695333938
 21
70.0678728908
 31
0.0
  0
LINE
  5
276
330
1F
100
AcDbEntity
  8
0
  6
Continuous
 62
     7
370
    15
100
AcDbLine
 10
-41.6954146063
 20
241.4924896703
 30
0.0
 11
-41.6954146063
 21
70.0678743168
 31
0.0
  0
LINE
  5
277
330
1F
100
AcDbEntity
  8
0
  6
Continuous
 62
     7
370
    15
100
AcDbLine
 10
-41.6954146063
 20
241.4924896703
 30
0.0
 11
-41.695333938
 21
241.4924910962
 31
0.0
  0
LINE
  5
278
330
1F
100
AcDbEntity
  8
0
  6
Continuous
 62
     7
370
    15
100
AcDbLine
 10
-41.695333938
 20
241.4924910962
 30
0.0
 11
-40.9672700183
 21
249.7947261108
 31
0.0
  0
LINE
  5
279
330
1F
100
AcDbEntity
  8
0
  6
Continuous
 62
     7
370
    15
100
AcDbLine
 10
-40.9672700183
 20
61.7656378763
 30
0.0
 11
-41.695333938
 21
70.0678728908
 31
0.0
  0
LINE
  5
27A
330
1F
100
AcDbEntity
  8
0
  6
Continuous
 62
     7
370
    15
100
AcDbLine
 10
-24.6941053167
 20
61.6779062497
 30
0.0
 11
-24.6941053167
 21
249.8824577374
 31
0.0
  0
ELLIPSE
  5
27B
330
1F
100
AcDbEntity
  8
0
  6
Continuous
 62
     7
370
    15
100
AcDbEllipse
 10
-41.7119968069
 20
60.3802196352
 30
0.0
 11
-0.2640362061596378
 21
2.995800190269087
 31
0.0
210
0.0
220
0.0
230
1.0
 40
0.0870846543
 41
1.56495095497061
 42
3.133085778503972
  0
LINE
  5
27C
330
1F
100
AcDbEntity
  8
0
  6
Continuous
 62
     7
370
    15
100
AcDbLine
 10
-41.4501894711
 20
57.3843322422
 30
0.0
 11
-41.1052579361
 21
57.3810655724
 31
0.0
  0
ELLIPSE
  5
27D
330
1F
100
AcDbEntity
  8
0
  6
Continuous
 62
     7
370
    15
100
AcDbEllipse
 10
-41.5156349332
 20
62.0755780774
 30
0.0
 11
-0.413849160834971
 21
4.694376619958284
 31
0.0
210
0.0
220
0.0
230
1.0
 40
0.0868190381
 41
3.133109720430749
 42
4.705562209493887
  0
LINE
  5
27E
330
1F
100
AcDbEntity
  8
0
  6
Continuous
 62
     7
370
    15
100
AcDbLine
 10
-41.4501894715
 20
66.0187788616
 30
0.0
 11
-41.1052579361
 21
62.0794600415
 31
0.0
  0
ELLIPSE
  5
27F
330
1F
100
AcDbEntity
  8
0
  6
Continuous
 62
     7
370
    15
100
AcDbEllipse
 10
-41.7119968072
 20
66.0153630091
 30
0.0
 11
-0.2648187198709239
 21
3.004953740968304
 31
0.0
210
0.0
220
0.0
230
1.0
 40
0.086555038
 41
4.70589796669539
 42
6.274032790228918
  0
LINE
  5
280
330
1F
100
AcDbEntity
  8
0
  6
Continuous
 62
     7
370
    15
100
AcDbLine
 10
-41.9744239549
 20
69.0204006761
 30
0.0
 11
-42.4699087421
 21
69.0290493952
 31
0.0
  0
ELLIPSE
  5
281
330
1F
100
AcDbEntity
  8
0
  6
Continuous
 62
     7
370
    15
100
AcDbEllipse
 10
-42.2065183572
 20
66.0239949148
 30
0.0
 11
-0.2658038545963351
 21
3.004969396662049
 31
0.0
210
0.0
220
0.0
230
1.0
 40
0.0868140731
 41
6.273976885898027
 42
7.844468626197602
  0
LINE
  5
282
330
1F
100
AcDbEntity
  8
0
  6
Continuous
 62
     7
370
    15
100
AcDbLine
 10
-42.4699087421
 20
66.0295063098
 30
0.0
 11
-41.9744239546
 21
60.3747379926
 31
0.0
  0
LINE
  5
283
330
1F
100
AcDbEntity
  8
0
  6
Continuous
 62
     7
370
    15
100
AcDbLine
 10
-41.6953339377
 20
56.1372522872
 30
0.0
 11
-42.9141053167
 21
70.0678728908
 31
0.0
  0
LINE
  5
284
330
1F
100
AcDbEntity
  8
0
  6
Continuous
 62
     7
370
    15
100
AcDbLine
 10
-42.9141053167
 20
70.0678728908
 30
0.0
 11
-41.695333938
 21
70.0678728908
 31
0.0
  0
LINE
  5
285
330
1F
100
AcDbEntity
  8
0
  6
Continuous
 62
     7
370
    15
100
AcDbLine
 10
-40.9672700183
 20
56.1176786201
 30
0.0
 11
-41.6953339377
 21
56.1372522872
 31
0.0
  0
ELLIPSE
  5
286
330
1F
100
AcDbEntity
  8
0
  6
Continuous
 62
     7
370
    15
100
AcDbEllipse
 10
-41.5156349332
 20
249.4847859097
 30
0.0
 11
0.413849160834971
 21
4.694376619958291
 31
0.0
210
0.0
220
0.0
230
1.0
 40
0.0868190381
 41
4.719215751275499
 42
6.291668240338615
  0
LINE
  5
287
330
1F
100
AcDbEntity
  8
0
  6
Continuous
 62
     7
370
    15
100
AcDbLine
 10
-41.4501894711
 20
254.1760317449
 30
0.0
 11
-41.1052579361
 21
254.1792984146
 31
0.0
  0
ELLIPSE
  5
288
330
1F
100
AcDbEntity
  8
0
  6
Continuous
 62
     7
370
    15
100
AcDbEllipse
 10
-41.7119968069
 20
251.1801443519
 30
0.0
 11
0.2640362061596307
 21
2.995800190269052
 31
0.0
210
0.0
220
0.0
230
1.0
 40
0.0870846543
 41
0.0085068750858014
 42
1.5766416986192
  0
LINE
  5
289
330
1F
100
AcDbEntity
  8
0
  6
Continuous
 62
     7
370
    15
100
AcDbLine
 10
-42.4699087421
 20
245.5308576773
 30
0.0
 11
-41.9744239546
 21
251.1856259945
 31
0.0
  0
ELLIPSE
  5
28A
330
1F
100
AcDbEntity
  8
0
  6
Continuous
 62
     7
370
    15
100
AcDbEllipse
 10
-42.2065183572
 20
245.5363690722
 30
0.0
 11
0.2658038545963421
 21
3.004969396662062
 31
0.0
210
0.0
220
0.0
230
1.0
 40
0.0868140731
 41
1.580309334571787
 42
3.150801074871701
  0
LINE
  5
28B
330
1F
100
AcDbEntity
  8
0
  6
Continuous
 62
     7
370
    15
100
AcDbLine
 10
-41.9744239549
 20
242.539963311
 30
0.0
 11
-42.4699087421
 21
242.5313145918
 31
0.0
  0
ELLIPSE
  5
28C
330
1F
100
AcDbEntity
  8
0
  6
Continuous
 62
     7
370
    15
100
AcDbEllipse
 10
-41.7119968072
 20
245.545000978
 30
0.0
 11
0.264818719870931
 21
3.004953740968319
 31
0.0
210
0.0
220
0.0
230
1.0
 40
0.086555038
 41
3.150745170540811
 42
4.718879994073987
  0
LINE
  5
28D
330
1F
100
AcDbEntity
  8
0
  6
Continuous
 62
     7
370
    15
100
AcDbLine
 10
-41.4501894715
 20
245.5415851254
 30
0.0
 11
-41.1052579361
 21
249.4809039456
 31
0.0
  0
LINE
  5
28E
330
1F
100
AcDbEntity
  8
0
  6
Continuous
 62
     7
370
    15
100
AcDbLine
 10
-42.9141053167
 20
241.4924910962
 30
0.0
 11
-41.695333938
 21
241.4924910962
 31
0.0
  0
LINE
  5
28F
330
1F
100
AcDbEntity
  8
0
  6
Continuous
 62
     7
370
    15
100
AcDbLine
 10
-41.6953339377
 20
255.4231116999
 30
0.0
 11
-42.9141053167
 21
241.4924910962
 31
0.0
  0
LINE
  5
290
330
1F
100
AcDbEntity
  8
0
  6
Continuous
 62
     7
370
    15
100
AcDbLine
 10
-40.9672700183
 20
255.442685367
 30
0.0
 11
-41.6953339377
 21
255.4231116999
 31
0.0
  0
LINE
  5
291
330
1F
100
AcDbEntity
  8
0
  6
Continuous
 62
     7
370
    15
100
AcDbLine
 10
-44.6941053167
 20
70.0993619225
 30
0.0
 11
-42.9141053167
 21
70.0678728908
 31
0.0
  0
LINE
  5
292
330
1F
100
AcDbEntity
  8
0
  6
Continuous
 62
     7
370
    15
100
AcDbLine
 10
-44.6941053167
 20
70.0993619225
 30
0.0
 11
-44.6941053167
 21
70.0994107341
 31
0.0
  0
LINE
  5
293
330
1F
100
AcDbEntity
  8
0
  6
Continuous
 62
     7
370
    15
100
AcDbLine
 10
-43.6334475758
 20
70.0994107341
 30
0.0
 11
-44.6941053167
 21
70.0994107341
 31
0.0
  0
LINE
  5
294
330
1F
100
AcDbEntity
  8
0
  6
Continuous
 62
     7
370
    15
100
AcDbLine
 10
-41.6954146063
 20
70.0678743168
 30
0.0
 11
-43.6334475758
 21
70.0994107341
 31
0.0
  0
LINE
  5
295
330
1F
100
AcDbEntity
  8
0
  6
Continuous
 62
     7
370
    15
100
AcDbLine
 10
-44.6941053167
 20
241.460953253
 30
0.0
 11
-44.6941053167
 21
241.4610020646
 31
0.0
  0
LINE
  5
296
330
1F
100
AcDbEntity
  8
0
  6
Continuous
 62
     7
370
    15
100
AcDbLine
 10
-44.6941053167
 20
241.4610020646
 30
0.0
 11
-42.9141053167
 21
241.4924910962
 31
0.0
  0
LINE
  5
297
330
1F
100
AcDbEntity
  8
0
  6
Continuous
 62
     7
370
    15
100
AcDbLine
 10
-43.6334475758
 20
241.460953253
 30
0.0
 11
-41.6954146063
 21
241.4924896703
 31
0.0
  0
LINE
  5
298
330
1F
100
AcDbEntity
  8
0
  6
Continuous
 62
     7
370
    15
100
AcDbLine
 10
-43.6334475758
 20
241.460953253
 30
0.0
 11
-44.6941053167
 21
241.460953253
 31
0.0
  0
LINE
  5
299
330
1F
100
AcDbEntity
  8
0
  6
Continuous
 62
     7
370
    15
100
AcDbLine
 10
-43.6334475758
 20
70.0994107341
 30
0.0
 11
-43.6334475758
 21
241.460953253
 31
0.0
  0
LINE
  5
29A
330
1F
100
AcDbEntity
  8
0
  6
Continuous
 62
     7
370
    15
100
AcDbLine
 10
-44.6941053167
 20
70.0994107341
 30
0.0
 11
-44.6941053167
 21
241.460953253
 31
0.0
  0
LINE
  5
29B
330
1F
100
AcDbEntity
  8
0
  6
Continuous
 62
     7
370
    15
100
AcDbLine
 10
-44.6941053167
 20
70.0678728908
 30
0.0
 11
-44.6941053167
 21
70.0993619225
 31
0.0
  0
LINE
  5
29C
330
1F
100
AcDbEntity
  8
0
  6
Continuous
 62
     7
370
    15
100
AcDbLine
 10
-43.6334475758
 20
57.9444994374
 30
0.0
 11
-41.6954146063
 21
56.1372544559
 31
0.0
  0
LINE
  5
29D
330
1F
100
AcDbEntity
  8
0
  6
Continuous
 62
     7
370
    15
100
AcDbLine
 10
-44.6941053167
 20
70.0678728908
 30
0.0
 11
-43.6334475758
 21
57.9444994374
 31
0.0
  0
LINE
  5
29E
330
1F
100
AcDbEntity
  8
0
  6
Continuous
 62
     7
370
    15
100
AcDbLine
 10
-41.6954146063
 20
56.1372544559
 30
0.0
 11
-41.6953339377
 21
56.1372522872
 31
0.0
  0
LINE
  5
29F
330
1F
100
AcDbEntity
  8
0
  6
Continuous
 62
     7
370
    15
100
AcDbLine
 10
-44.6941053167
 20
241.4610020646
 30
0.0
 11
-44.6941053167
 21
241.4924910962
 31
0.0
  0
LINE
  5
2A0
330
1F
100
AcDbEntity
  8
0
  6
Continuous
 62
     7
370
    15
100
AcDbLine
 10
-44.6941053167
 20
241.4924910962
 30
0.0
 11
-43.6334475758
 21
253.6158645496
 31
0.0
  0
LINE
  5
2A1
330
1F
100
AcDbEntity
  8
0
  6
Continuous
 62
     7
370
    15
100
AcDbLine
 10
-41.6954146063
 20
255.4231095312
 30
0.0
 11
-43.6334475758
 21
253.6158645496
 31
0.0
  0
LINE
  5
2A2
330
1F
100
AcDbEntity
  8
0
  6
Continuous
 62
     7
370
    15
100
AcDbLine
 10
-41.6953339377
 20
255.4231116999
 30
0.0
 11
-41.6954146063
 21
255.4231095312
 31
0.0
  0
LINE
  5
2A3
330
1F
100
AcDbEntity
  8
0
  6
Continuous
 62
     8
370
    15
100
AcDbLine
 10
-41.0793435554
 20
57.3907901384
 30
0.0
 11
-41.4501894711
 21
57.3843322422
 31
0.0
  0
LINE
  5
2A4
330
1F
100
AcDbEntity
  8
0
  6
Continuous
 62
     8
370
    15
100
AcDbLine
 10
-41.4501894711
 20
254.1760317449
 30
0.0
 11
-41.0793435554
 21
254.1695738486
 31
0.0
  0
LINE
  5
2A5
330
1F
100
AcDbEntity
  8
0
  6
Continuous
 62
     8
370
    15
100
AcDbLine
 10
-41.9744239546
 20
60.3747379926
 30
0.0
 11
-40.9849425885
 21
60.3919687822
 31
0.0
  0
LINE
  5
2A6
330
1F
100
AcDbEntity
  8
0
  6
Continuous
 62
     8
370
    15
100
AcDbLine
 10
-40.9849425885
 20
251.1683952048
 30
0.0
 11
-41.9744239546
 21
251.1856259945
 31
0.0
  0
LINE
  5
2A7
330
1F
100
AcDbEntity
  8
0
  6
Continuous
 62
     8
370
    15
100
AcDbLine
 10
-41.4495693066
 20
66.0116962187
 30
0.0
 11
-42.4699087421
 21
66.0295063098
 31
0.0
  0
LINE
  5
2A8
330
1F
100
AcDbEntity
  8
0
  6
Continuous
 62
     8
370
    15
100
AcDbLine
 10
-42.4699087421
 20
245.5308576773
 30
0.0
 11
-41.4495693066
 21
245.5486677684
 31
0.0
  0
SPLINE
  5
2A9
330
1F
100
AcDbEntity
  8
0
  6
Continuous
 62
     7
370
    15
100
AcDbSpline
210
0.0
220
0.0
230
1.0
 70
     8
 71
     3
 72
    12
 73
     8
 74
     0
 42
0.000000001
 43
0.00000001
 40
0.0
 40
0.0
 40
0.0
 40
0.0
 40
0.4999999999999999
 40
0.7499999999999998
 40
0.8749999999999999
 40
0.8749999999999999
 40
1.0
 40
1.0
 40
1.0
 40
1.0
 10
428.5179359169987
 20
249.8824577373539
 30
0.0
 10
431.2286628938394
 20
249.8132244784505
 30
0.0
 10
435.2984200304057
 20
249.845859009518
 30
0.0
 10
440.0461340881912
 20
249.8714281331639
 30
0.0
 10
442.0800732044481
 20
249.8527761981063
 30
0.0
 10
443.4357754537565
 20
249.8307692571928
 30
0.0
 10
444.1134433268617
 20
249.8129446186519
 30
0.0
 10
444.7911006186173
 20
249.794726110788
 30
0.0
  0
SPLINE
  5
2AA
330
1F
100
AcDbEntity
  8
0
  6
Continuous
 62
     7
370
    15
100
AcDbSpline
210
0.0
220
0.0
230
1.0
 70
    24
 71
     3
 72
    12
 73
     8
 74
     0
 42
0.000000001
 43
0.00000001
 40
0.0
 40
0.0
 40
0.0
 40
0.0
 40
0.5
 40
0.7499999999999998
 40
0.8749999999999999
 40
0.8749999999999999
 40
1.0
 40
1.0
 40
1.0
 40
1.0
 10
428.5179359169987
 20
255.8801819935294
 30
0.0
 10
431.2286628938394
 20
255.8073053325016
 30
0.0
 10
435.2984200304057
 20
255.6978917641705
 30
0.0
 10
440.0461340881912
 20
255.570251632574
 30
0.0
 10
442.0800732044481
 20
255.5155701051486
 30
0.0
 10
443.4357754537565
 20
255.4791226672024
 30
0.0
 10
444.1134433268617
 20
255.4609038748638
 30
0.0
 10
444.7911006186173
 20
255.4426853669999
 30
0.0
  0
SPLINE
  5
2AB
330
1F
100
AcDbEntity
  8
0
  6
Continuous
 62
     7
370
    15
100
AcDbSpline
210
0.0
220
0.0
230
1.0
 70
     8
 71
     3
 72
    24
 73
    20
 74
     0
 42
0.000000001
 43
0.00000001
 40
0.0
 40
0.0
 40
0.0
 40
0.0
 40
0.1250000000000006
 40
0.1250000000000006
 40
0.1875000000000013
 40
0.1875000000000013
 40
0.250000000000002
 40
0.250000000000002
 40
0.3750000000000017
 40
0.3750000000000017
 40
0.5000000000000013
 40
0.5000000000000013
 40
0.625000000000001
 40
0.625000000000001
 40
0.7500000000000007
 40
0.7500000000000007
 40
0.8750000000000003
 40
0.8750000000000003
 40
1.0
 40
1.0
 40
1.0
 40
1.0
 10
444.7911006186173
 20
255.4426853669999
 30
0.0
 10
444.7584508111501
 20
255.4435631422136
 30
0.0
 10
444.7294890784426
 20
255.408081820192
 30
0.0
 10
444.6913946788412
 20
255.3021343050394
 30
0.0
 10
444.6795943824643
 20
255.257967090668
 30
0.0
 10
444.6578372567462
 20
255.1514587360759
 30
0.0
 10
444.6478679944198
 20
255.0888306538657
 30
0.0
 10
444.6214122585999
 20
254.8774946006732
 30
0.0
 10
444.6080918562565
 20
254.7046382876478
 30
0.0
 10
444.5900524212207
 20
254.2952324374633
 30
0.0
 10
444.5854311480451
 20
254.0565844706206
 30
0.0
 10
444.5853957551261
 20
253.5349222835401
 30
0.0
 10
444.5898319850798
 20
253.2500211771974
 30
0.0
 10
444.6078417625447
 20
252.6308388602654
 30
0.0
 10
444.6213120716945
 20
252.3020267111642
 30
0.0
 10
444.6563007249387
 20
251.6213785434931
 30
0.0
 10
444.6780787241152
 20
251.2646369321086
 30
0.0
 10
444.729319007767
 20
250.5354975292473
 30
0.0
 10
444.7584493082317
 20
250.167054480631
 30
0.0
 10
444.7911006186173
 20
249.794726110788
 30
0.0
  0
SPLINE
  5
2AC
330
1F
100
AcDbEntity
  8
0
  6
Continuous
 62
     7
370
    15
100
AcDbSpline
210
0.0
220
0.0
230
1.0
 70
    24
 71
     3
 72
    26
 73
    22
 74
     0
 42
0.000000001
 43
0.00000001
 40
0.0
 40
0.0
 40
0.0
 40
0.0
 40
0.1250000000000056
 40
0.1250000000000056
 40
0.1875000000000075
 40
0.1875000000000075
 40
0.2500000000000095
 40
0.2500000000000095
 40
0.3750000000000134
 40
0.3750000000000134
 40
0.5000000000000172
 40
0.5000000000000172
 40
0.6250000000000211
 40
0.6250000000000211
 40
0.6875000000000182
 40
0.6875000000000182
 40
0.7500000000000152
 40
0.7500000000000152
 40
0.8750000000000075
 40
0.8750000000000075
 40
1.0
 40
1.0
 40
1.0
 40
1.0
 10
428.5179359169987
 20
249.8824577373539
 30
0.0
 10
428.5179359169987
 20
250.2784797599511
 30
0.0
 10
428.5179359169987
 20
250.6678932678425
 30
0.0
 10
428.5179359169987
 20
251.2425026458427
 30
0.0
 10
428.5179359169987
 20
251.4324422031918
 30
0.0
 10
428.5179359169987
 20
251.8090543327456
 30
0.0
 10
428.5179359169987
 20
251.9962490990958
 30
0.0
 10
428.5179359169987
 20
252.5407992412902
 30
0.0
 10
428.5179359169987
 20
252.8851734180402
 30
0.0
 10
428.5179359169987
 20
253.5369376000652
 30
0.0
 10
428.5179359169987
 20
253.8455781259609
 30
0.0
 10
428.5179359169987
 20
254.398836069001
 30
0.0
 10
428.5179359169987
 20
254.6471097091444
 30
0.0
 10
428.5179359169987
 20
254.9759910610566
 30
0.0
 10
428.5179359169987
 20
255.0781354066782
 30
0.0
 10
428.5179359169987
 20
255.2632714906511
 30
0.0
 10
428.5179359169987
 20
255.346908004394
 30
0.0
 10
428.5179359169987
 20
255.5714366312184
 30
0.0
 10
428.5179359169987
 20
255.6866170371033
 30
0.0
 10
428.5179359169987
 20
255.8413638120222
 30
0.0
 10
428.5179359169987
 20
255.8801819935294
 30
0.0
 10
428.5179359169987
 20
255.8801819935294
 30
0.0
  0
SPLINE
  5
2AD
330
1F
100
AcDbEntity
  8
0
  6
Continuous
 62
     7
370
    15
100
AcDbSpline
210
0.0
220
0.0
230
1.0
 70
    24
 71
     3
 72
    12
 73
     8
 74
     0
 42
0.000000001
 43
0.00000001
 40
0.0
 40
0.0
 40
0.0
 40
0.0
 40
0.1249999999999998
 40
0.1249999999999998
 40
0.2499999999999997
 40
0.4999999999999998
 40
1.0
 40
1.0
 40
1.0
 40
1.0
 10
444.7911006186173
 20
56.1176786200589
 30
0.0
 10
444.1134433268617
 20
56.09946011219508
 30
0.0
 10
443.4357754537565
 20
56.08124131985642
 30
0.0
 10
442.0800732044481
 20
56.04479388191022
 30
0.0
 10
440.0461340881912
 20
55.99011235448484
 30
0.0
 10
435.2984200304058
 20
55.86247222288823
 30
0.0
 10
431.2286628938394
 20
55.75305865455721
 30
0.0
 10
428.5179359169987
 20
55.68018199352937
 30
0.0
  0
SPLINE
  5
2AE
330
1F
100
AcDbEntity
  8
0
  6
Continuous
 62
     7
370
    15
100
AcDbSpline
210
0.0
220
0.0
230
1.0
 70
     8
 71
     3
 72
    12
 73
     8
 74
     0
 42
0.000000001
 43
0.00000001
 40
0.0
 40
0.0
 40
0.0
 40
0.0
 40
0.1249999999999998
 40
0.1249999999999998
 40
0.2499999999999996
 40
0.4999999999999997
 40
1.0
 40
1.0
 40
1.0
 40
1.0
 10
444.7911006186173
 20
61.76563787627074
 30
0.0
 10
444.1134433268617
 20
61.74741936840686
 30
0.0
 10
443.4357754537565
 20
61.729594729866
 30
0.0
 10
442.0800732044481
 20
61.70758778895255
 30
0.0
 10
440.0461340881912
 20
61.68893585389486
 30
0.0
 10
435.2984200304057
 20
61.71450497754083
 30
0.0
 10
431.2286628938394
 20
61.74713950860831
 30
0.0
 10
428.5179359169987
 20
61.67790624970488
 30
0.0
  0
SPLINE
  5
2AF
330
1F
100
AcDbEntity
  8
0
  6
Continuous
 62
     7
370
    15
100
AcDbSpline
210
0.0
220
0.0
230
1.0
 70
     8
 71
     3
 72
    24
 73
    20
 74
     0
 42
0.000000001
 43
0.00000001
 40
0.0
 40
0.0
 40
0.0
 40
0.0
 40
0.1250000000000008
 40
0.1250000000000008
 40
0.1874999999999989
 40
0.1874999999999989
 40
0.2499999999999971
 40
0.2499999999999971
 40
0.3749999999999976
 40
0.3749999999999976
 40
0.4999999999999981
 40
0.4999999999999981
 40
0.6249999999999986
 40
0.6249999999999986
 40
0.7499999999999991
 40
0.7499999999999991
 40
0.8749999999999996
 40
0.8749999999999996
 40
1.0
 40
1.0
 40
1.0
 40
1.0
 10
444.7911006186173
 20
61.76563787627075
 30
0.0
 10
444.7584508111501
 20
61.39332664445947
 30
0.0
 10
444.7294890784426
 20
61.02681120281184
 30
0.0
 10
444.6913946788412
 20
60.48544270777367
 30
0.0
 10
444.6795943824643
 20
60.30639748862544
 30
0.0
 10
444.6578372567462
 20
59.95120404911836
 30
0.0
 10
444.6478679944198
 20
59.77462677709741
 30
0.0
 10
444.6214122585999
 20
59.26090027977521
 30
0.0
 10
444.6080918562565
 20
58.9357910712701
 30
0.0
 10
444.5900524212207
 20
58.32019353511499
 30
0.0
 10
444.5854311480451
 20
58.02872417416967
 30
0.0
 10
444.5853957551261
 20
57.50665744417384
 30
0.0
 10
444.5898319850798
 20
57.27246267822894
 30
0.0
 10
444.6078417625448
 20
56.8591330596821
 30
0.0
 10
444.6213120716945
 20
56.68428724869694
 30
0.0
 10
444.6563007249387
 20
56.40356121761085
 30
0.0
 10
444.6780787241152
 20
56.29574327586306
 30
0.0
 10
444.729319007767
 20
56.15228299515046
 30
0.0
 10
444.7584493082317
 20
56.1168008044399
 30
0.0
 10
444.7911006186173
 20
56.11767862005887
 30
0.0
  0
SPLINE
  5
2B0
330
1F
100
AcDbEntity
  8
0
  6
Continuous
 62
     7
370
    15
100
AcDbSpline
210
0.0
220
0.0
230
1.0
 70
    24
 71
     3
 72
    26
 73
    22
 74
     0
 42
0.000000001
 43
0.00000001
 40
0.0
 40
0.0
 40
0.0
 40
0.0
 40
0.1250000000000073
 40
0.1250000000000073
 40
0.1875000000000105
 40
0.1875000000000105
 40
0.2500000000000138
 40
0.2500000000000138
 40
0.375000000000012
 40
0.375000000000012
 40
0.5000000000000103
 40
0.5000000000000103
 40
0.6250000000000087
 40
0.6250000000000087
 40
0.6875000000000072
 40
0.6875000000000072
 40
0.7500000000000058
 40
0.7500000000000058
 40
0.8750000000000029
 40
0.8750000000000029
 40
1.0
 40
1.0
 40
1.0
 40
1.0
 10
428.5179359169987
 20
55.68018199352939
 30
0.0
 10
428.5179359169987
 20
55.68018199352941
 30
0.0
 10
428.5179359169987
 20
55.7189954420448
 30
0.0
 10
428.5179359169987
 20
55.83307539822872
 30
0.0
 10
428.5179359169987
 20
55.88048105233631
 30
0.0
 10
428.5179359169987
 20
55.99448017587094
 30
0.0
 10
428.5179359169987
 20
56.06139901458164
 30
0.0
 10
428.5179359169987
 20
56.28688936146914
 30
0.0
 10
428.5179359169987
 20
56.47088453747322
 30
0.0
 10
428.5179359169987
 20
56.90560818678278
 30
0.0
 10
428.5179359169987
 20
57.15867930948323
 30
0.0
 10
428.5179359169987
 20
57.71153972042267
 30
0.0
 10
428.5179359169987
 20
58.01320565219696
 30
0.0
 10
428.5179359169987
 20
58.50444466009816
 30
0.0
 10
428.5179359169987
 20
58.67468540787213
 30
0.0
 10
428.5179359169987
 20
59.02069172870853
 30
0.0
 10
428.5179359169987
 20
59.1973651602141
 30
0.0
 10
428.5179359169987
 20
59.73822627667722
 30
0.0
 10
428.5179359169987
 20
60.11531656650483
 30
0.0
 10
428.5179359169987
 20
60.89017249048322
 30
0.0
 10
428.5179359169987
 20
61.28188332674367
 30
0.0
 10
428.5179359169987
 20
61.67790624970489
 30
0.0
  0
LINE
  5
2B1
330
1F
100
AcDbEntity
  8
0
  6
Continuous
 62
     7
370
    15
100
AcDbLine
 10
445.5191645383
 20
241.4924910962
 30
0.0
 11
445.5192452066
 21
241.4924896703
 31
0.0
  0
LINE
  5
2B2
330
1F
100
AcDbEntity
  8
0
  6
Continuous
 62
     7
370
    15
100
AcDbLine
 10
445.5192452066
 20
70.0678743168
 30
0.0
 11
445.5192452066
 21
241.4924896703
 31
0.0
  0
LINE
  5
2B3
330
1F
100
AcDbEntity
  8
0
  6
Continuous
 62
     7
370
    15
100
AcDbLine
 10
445.5191645383
 20
70.0678728908
 30
0.0
 11
445.5192452066
 21
70.0678743168
 31
0.0
  0
LINE
  5
2B4
330
1F
100
AcDbEntity
  8
0
  6
Continuous
 62
     7
370
    15
100
AcDbLine
 10
444.7911006186
 20
61.7656378763
 30
0.0
 11
445.5191645383
 21
70.0678728908
 31
0.0
  0
LINE
  5
2B5
330
1F
100
AcDbEntity
  8
0
  6
Continuous
 62
     7
370
    15
100
AcDbLine
 10
445.5191645383
 20
241.4924910962
 30
0.0
 11
444.7911006186
 21
249.7947261108
 31
0.0
  0
LINE
  5
2B6
330
1F
100
AcDbEntity
  8
0
  6
Continuous
 62
     7
370
    15
100
AcDbLine
 10
428.517935917
 20
61.6779062497
 30
0.0
 11
428.517935917
 21
249.8824577374
 31
0.0
  0
ELLIPSE
  5
2B7
330
1F
100
AcDbEntity
  8
0
  6
Continuous
 62
     7
370
    15
100
AcDbEllipse
 10
445.5358274072
 20
251.1801443519
 30
0.0
 11
-0.2640362061596875
 21
2.995800190269051
 31
0.0
210
0.0
220
0.0
230
1.0
 40
0.0870846543
 41
4.706543608560386
 42
6.274678432093734
  0
LINE
  5
2B8
330
1F
100
AcDbEntity
  8
0
  6
Continuous
 62
     7
370
    15
100
AcDbLine
 10
445.2740200715
 20
254.1760317449
 30
0.0
 11
444.9290885364
 21
254.1792984146
 31
0.0
  0
ELLIPSE
  5
2B9
330
1F
100
AcDbEntity
  8
0
  6
Continuous
 62
     7
370
    15
100
AcDbEllipse
 10
445.3394655335
 20
249.4847859097
 30
0.0
 11
-0.4138491608349569
 21
4.694376619958291
 31
0.0
210
0.0
220
0.0
230
1.0
 40
0.0868190381
 41
6.274702374020797
 42
7.847154863083674
  0
LINE
  5
2BA
330
1F
100
AcDbEntity
  8
0
  6
Continuous
 62
     7
370
    15
100
AcDbLine
 10
445.2740200718
 20
245.5415851254
 30
0.0
 11
444.9290885364
 21
249.4809039456
 31
0.0
  0
ELLIPSE
  5
2BB
330
1F
100
AcDbEntity
  8
0
  6
Continuous
 62
     7
370
    15
100
AcDbEllipse
 10
445.5358274075
 20
245.545000978
 30
0.0
 11
-0.2648187198709593
 21
3.004953740968318
 31
0.0
210
0.0
220
0.0
230
1.0
 40
0.086555038
 41
1.564305313105601
 42
3.132440136638688
  0
LINE
  5
2BC
330
1F
100
AcDbEntity
  8
0
  6
Continuous
 62
     7
370
    15
100
AcDbLine
 10
445.7982545552
 20
242.539963311
 30
0.0
 11
446.2937393424
 21
242.5313145918
 31
0.0
  0
ELLIPSE
  5
2BD
330
1F
100
AcDbEntity
  8
0
  6
Continuous
 62
     7
370
    15
100
AcDbEllipse
 10
446.0303489575
 20
245.5363690722
 30
0.0
 11
-0.2658038545963564
 21
3.004969396662062
 31
0.0
210
0.0
220
0.0
230
1.0
 40
0.0868140731
 41
3.132384232307885
 42
4.702875972607803
  0
LINE
  5
2BE
330
1F
100
AcDbEntity
  8
0
  6
Continuous
 62
     7
370
    15
100
AcDbLine
 10
446.2937393424
 20
245.5308576773
 30
0.0
 11
445.7982545549
 21
251.1856259945
 31
0.0
  0
LINE
  5
2BF
330
1F
100
AcDbEntity
  8
0
  6
Continuous
 62
     7
370
    15
100
AcDbLine
 10
445.519164538
 20
255.4231116999
 30
0.0
 11
446.737935917
 21
241.4924910962
 31
0.0
  0
LINE
  5
2C0
330
1F
100
AcDbEntity
  8
0
  6
Continuous
 62
     7
370
    15
100
AcDbLine
 10
446.737935917
 20
241.4924910962
 30
0.0
 11
445.5191645383
 21
241.4924910962
 31
0.0
  0
LINE
  5
2C1
330
1F
100
AcDbEntity
  8
0
  6
Continuous
 62
     7
370
    15
100
AcDbLine
 10
445.519164538
 20
255.4231116999
 30
0.0
 11
444.7911006186
 21
255.442685367
 31
0.0
  0
ELLIPSE
  5
2C2
330
1F
100
AcDbEntity
  8
0
  6
Continuous
 62
     7
370
    15
100
AcDbEllipse
 10
445.3394655335
 20
62.0755780774
 30
0.0
 11
0.4138491608350137
 21
4.694376619958285
 31
0.0
210
0.0
220
0.0
230
1.0
 40
0.0868190381
 41
1.577623097685702
 42
3.150075586749049
  0
LINE
  5
2C3
330
1F
100
AcDbEntity
  8
0
  6
Continuous
 62
     7
370
    15
100
AcDbLine
 10
445.2740200715
 20
57.3843322422
 30
0.0
 11
444.9290885364
 21
57.3810655724
 31
0.0
  0
ELLIPSE
  5
2C4
330
1F
100
AcDbEntity
  8
0
  6
Continuous
 62
     7
370
    15
100
AcDbEllipse
 10
445.5358274072
 20
60.3802196352
 30
0.0
 11
0.2640362061596306
 21
2.995800190269087
 31
0.0
210
0.0
220
0.0
230
1.0
 40
0.0870846543
 41
3.150099528675744
 42
4.718234352208977
  0
LINE
  5
2C5
330
1F
100
AcDbEntity
  8
0
  6
Continuous
 62
     7
370
    15
100
AcDbLine
 10
446.2937393424
 20
66.0295063098
 30
0.0
 11
445.7982545549
 21
60.3747379926
 31
0.0
  0
ELLIPSE
  5
2C6
330
1F
100
AcDbEntity
  8
0
  6
Continuous
 62
     7
370
    15
100
AcDbEllipse
 10
446.0303489575
 20
66.0239949148
 30
0.0
 11
0.2658038545962996
 21
3.004969396662049
 31
0.0
210
0.0
220
0.0
230
1.0
 40
0.0868140731
 41
4.721901988161577
 42
6.292393728461275
  0
LINE
  5
2C7
330
1F
100
AcDbEntity
  8
0
  6
Continuous
 62
     7
370
    15
100
AcDbLine
 10
445.7982545552
 20
69.0204006761
 30
0.0
 11
446.2937393424
 21
69.0290493952
 31
0.0
  0
ELLIPSE
  5
2C8
330
1F
100
AcDbEntity
  8
0
  6
Continuous
 62
     7
370
    15
100
AcDbEllipse
 10
445.5358274075
 20
66.0153630091
 30
0.0
 11
0.2648187198709024
 21
3.004953740968304
 31
0.0
210
0.0
220
0.0
230
1.0
 40
0.086555038
 41
0.0091525169508855
 42
1.577287340484191
  0
LINE
  5
2C9
330
1F
100
AcDbEntity
  8
0
  6
Continuous
 62
     7
370
    15
100
AcDbLine
 10
445.2740200718
 20
66.0187788616
 30
0.0
 11
444.9290885364
 21
62.0794600415
 31
0.0
  0
LINE
  5
2CA
330
1F
100
AcDbEntity
  8
0
  6
Continuous
 62
     7
370
    15
100
AcDbLine
 10
446.737935917
 20
70.0678728908
 30
0.0
 11
445.5191645383
 21
70.0678728908
 31
0.0
  0
LINE
  5
2CB
330
1F
100
AcDbEntity
  8
0
  6
Continuous
 62
     7
370
    15
100
AcDbLine
 10
445.519164538
 20
56.1372522872
 30
0.0
 11
446.737935917
 21
70.0678728908
 31
0.0
  0
LINE
  5
2CC
330
1F
100
AcDbEntity
  8
0
  6
Continuous
 62
     7
370
    15
100
AcDbLine
 10
445.519164538
 20
56.1372522872
 30
0.0
 11
444.7911006186
 21
56.1176786201
 31
0.0
  0
LINE
  5
2CD
330
1F
100
AcDbEntity
  8
0
  6
Continuous
 62
     7
370
    15
100
AcDbLine
 10
448.517935917
 20
241.4610020646
 30
0.0
 11
446.737935917
 21
241.4924910962
 31
0.0
  0
LINE
  5
2CE
330
1F
100
AcDbEntity
  8
0
  6
Continuous
 62
     7
370
    15
100
AcDbLine
 10
448.517935917
 20
241.4610020646
 30
0.0
 11
448.517935917
 21
241.460953253
 31
0.0
  0
LINE
  5
2CF
330
1F
100
AcDbEntity
  8
0
  6
Continuous
 62
     7
370
    15
100
AcDbLine
 10
447.4572781761
 20
241.460953253
 30
0.0
 11
448.517935917
 21
241.460953253
 31
0.0
  0
LINE
  5
2D0
330
1F
100
AcDbEntity
  8
0
  6
Continuous
 62
     7
370
    15
100
AcDbLine
 10
445.5192452066
 20
241.4924896703
 30
0.0
 11
447.4572781761
 21
241.460953253
 31
0.0
  0
LINE
  5
2D1
330
1F
100
AcDbEntity
  8
0
  6
Continuous
 62
     7
370
    15
100
AcDbLine
 10
448.517935917
 20
70.0994107341
 30
0.0
 11
448.517935917
 21
70.0993619225
 31
0.0
  0
LINE
  5
2D2
330
1F
100
AcDbEntity
  8
0
  6
Continuous
 62
     7
370
    15
100
AcDbLine
 10
448.517935917
 20
70.0993619225
 30
0.0
 11
446.737935917
 21
70.0678728908
 31
0.0
  0
LINE
  5
2D3
330
1F
100
AcDbEntity
  8
0
  6
Continuous
 62
     7
370
    15
100
AcDbLine
 10
447.4572781761
 20
70.0994107341
 30
0.0
 11
445.5192452066
 21
70.0678743168
 31
0.0
  0
LINE
  5
2D4
330
1F
100
AcDbEntity
  8
0
  6
Continuous
 62
     7
370
    15
100
AcDbLine
 10
447.4572781761
 20
70.0994107341
 30
0.0
 11
448.517935917
 21
70.0994107341
 31
0.0
  0
LINE
  5
2D5
330
1F
100
AcDbEntity
  8
0
  6
Continuous
 62
     7
370
    15
100
AcDbLine
 10
447.4572781761
 20
241.460953253
 30
0.0
 11
447.4572781761
 21
70.0994107341
 31
0.0
  0
LINE
  5
2D6
330
1F
100
AcDbEntity
  8
0
  6
Continuous
 62
     7
370
    15
100
AcDbLine
 10
448.517935917
 20
241.460953253
 30
0.0
 11
448.517935917
 21
70.0994107341
 31
0.0
  0
LINE
  5
2D7
330
1F
100
AcDbEntity
  8
0
  6
Continuous
 62
     7
370
    15
100
AcDbLine
 10
448.517935917
 20
241.4924910962
 30
0.0
 11
448.517935917
 21
241.4610020646
 31
0.0
  0
LINE
  5
2D8
330
1F
100
AcDbEntity
  8
0
  6
Continuous
 62
     7
370
    15
100
AcDbLine
 10
447.4572781761
 20
253.6158645496
 30
0.0
 11
445.5192452066
 21
255.4231095312
 31
0.0
  0
LINE
  5
2D9
330
1F
100
AcDbEntity
  8
0
  6
Continuous
 62
     7
370
    15
100
AcDbLine
 10
448.517935917
 20
241.4924910962
 30
0.0
 11
447.4572781761
 21
253.6158645496
 31
0.0
  0
LINE
  5
2DA
330
1F
100
AcDbEntity
  8
0
  6
Continuous
 62
     7
370
    15
100
AcDbLine
 10
445.519164538
 20
255.4231116999
 30
0.0
 11
445.5192452066
 21
255.4231095312
 31
0.0
  0
LINE
  5
2DB
330
1F
100
AcDbEntity
  8
0
  6
Continuous
 62
     7
370
    15
100
AcDbLine
 10
448.517935917
 20
70.0993619225
 30
0.0
 11
448.517935917
 21
70.0678728908
 31
0.0
  0
LINE
  5
2DC
330
1F
100
AcDbEntity
  8
0
  6
Continuous
 62
     7
370
    15
100
AcDbLine
 10
448.517935917
 20
70.0678728908
 30
0.0
 11
447.4572781761
 21
57.9444994374
 31
0.0
  0
LINE
  5
2DD
330
1F
100
AcDbEntity
  8
0
  6
Continuous
 62
     7
370
    15
100
AcDbLine
 10
445.5192452066
 20
56.1372544559
 30
0.0
 11
447.4572781761
 21
57.9444994374
 31
0.0
  0
LINE
  5
2DE
330
1F
100
AcDbEntity
  8
0
  6
Continuous
 62
     7
370
    15
100
AcDbLine
 10
445.5192452066
 20
56.1372544559
 30
0.0
 11
445.519164538
 21
56.1372522872
 31
0.0
  0
LINE
  5
2DF
330
1F
100
AcDbEntity
  8
0
  6
Continuous
 62
     8
370
    15
100
AcDbLine
 10
444.9031741557
 20
254.1695738486
 30
0.0
 11
445.2740200715
 21
254.1760317449
 31
0.0
  0
LINE
  5
2E0
330
1F
100
AcDbEntity
  8
0
  6
Continuous
 62
     8
370
    15
100
AcDbLine
 10
445.2740200715
 20
57.3843322422
 30
0.0
 11
444.9031741557
 21
57.3907901384
 31
0.0
  0
LINE
  5
2E1
330
1F
100
AcDbEntity
  8
0
  6
Continuous
 62
     8
370
    15
100
AcDbLine
 10
445.7982545549
 20
251.1856259945
 30
0.0
 11
444.8087731888
 21
251.1683952048
 31
0.0
  0
LINE
  5
2E2
330
1F
100
AcDbEntity
  8
0
  6
Continuous
 62
     8
370
    15
100
AcDbLine
 10
444.8087731888
 20
60.3919687822
 30
0.0
 11
445.7982545549
 21
60.3747379926
 31
0.0
  0
LINE
  5
2E3
330
1F
100
AcDbEntity
  8
0
  6
Continuous
 62
     8
370
    15
100
AcDbLine
 10
445.273399907
 20
245.5486677684
 30
0.0
 11
446.2937393424
 21
245.5308576773
 31
0.0
  0
LINE
  5
2E4
330
1F
100
AcDbEntity
  8
0
  6
Continuous
 62
     8
370
    15
100
AcDbLine
 10
446.2937393424
 20
66.0295063098
 30
0.0
 11
445.273399907
 21
66.0116962187
 31
0.0
  0
ARC
  5
2E5
330
1F
100
AcDbEntity
  8
0
  6
Continuous
 62
     7
370
    15
100
AcDbCircle
 10
843.6728950259
 20
76.9801819935
 30
0.0
 40
8.404910129856432
100
AcDbArc
 50
90.0
 51
180.0
  0
LINE
  5
2E6
330
1F
100
AcDbEntity
  8
0
  6
Continuous
 62
     7
370
    15
100
AcDbLine
 10
849.4780610484
 20
85.3850921234
 30
0.0
 11
843.6728950259
 21
85.3850921234
 31
0.0
  0
ELLIPSE
  5
2E7
330
1F
100
AcDbEntity
  8
0
  6
Continuous
 62
     7
370
    15
100
AcDbEllipse
 10
849.477908732
 20
85.8851682874
 30
0.0
 11
-0.3536610945848224
 21
0.3536610945847798
 31
0.0
210
0.0
220
0.0
230
1.0
 40
0.9996954599
 41
2.356346783439552
 42
3.926838523739672
  0
LINE
  5
2E8
330
1F
100
AcDbEntity
  8
0
  6
Continuous
 62
     7
370
    15
100
AcDbLine
 10
849.977984896
 20
225.6753480161
 30
0.0
 11
849.977984896
 21
85.885015971
 31
0.0
  0
ELLIPSE
  5
2E9
330
1F
100
AcDbEntity
  8
0
  6
Continuous
 62
     7
370
    15
100
AcDbEllipse
 10
849.477908732
 20
225.6751956997
 30
0.0
 11
-0.3536610945848224
 21
-0.353661094584794
 31
0.0
210
0.0
220
0.0
230
1.0
 40
0.9996954599
 41
2.35634678343994
 42
3.926838523739741
  0
LINE
  5
2EA
330
1F
100
AcDbEntity
  8
0
  6
Continuous
 62
     7
370
    15
100
AcDbLine
 10
843.6728950259
 20
226.1752718637
 30
0.0
 11
849.4780610484
 21
226.1752718637
 31
0.0
  0
ARC
  5
2EB
330
1F
100
AcDbEntity
  8
0
  6
Continuous
 62
     7
370
    15
100
AcDbCircle
 10
843.6728950259
 20
234.5801819935
 30
0.0
 40
8.404910129856432
100
AcDbArc
 50
180.0
 51
270.0
  0
LINE
  5
2EC
330
1F
100
AcDbEntity
  8
0
  6
Continuous
 62
     7
370
    15
100
AcDbLine
 10
835.267984896
 20
250.3853480161
 30
0.0
 11
835.267984896
 21
234.5801819935
 31
0.0
  0
ELLIPSE
  5
2ED
330
1F
100
AcDbEntity
  8
0
  6
Continuous
 62
     7
370
    15
100
AcDbEllipse
 10
834.767908732
 20
250.3851956997
 30
0.0
 11
-0.3536610945848224
 21
-0.353661094584794
 31
0.0
210
0.0
220
0.0
230
1.0
 40
0.9996954599
 41
2.35634678343992
 42
3.926838523739988
  0
LINE
  5
2EE
330
1F
100
AcDbEntity
  8
0
  6
Continuous
 62
     7
370
    15
100
AcDbLine
 10
686.0777290033
 20
250.8852718637
 30
0.0
 11
834.7680610484
 21
250.8852718637
 31
0.0
  0
ELLIPSE
  5
2EF
330
1F
100
AcDbEntity
  8
0
  6
Continuous
 62
     7
370
    15
100
AcDbEllipse
 10
686.0778813197
 20
250.3851956997
 30
0.0
 11
0.3536610945848224
 21
-0.353661094584794
 31
0.0
210
0.0
220
0.0
230
1.0
 40
0.9996954599
 41
2.356346783439653
 42
3.92683852373964
  0
LINE
  5
2F0
330
1F
100
AcDbEntity
  8
0
  6
Continuous
 62
     7
370
    15
100
AcDbLine
 10
685.5778051557
 20
246.7301819935
 30
0.0
 11
685.5778051557
 21
250.3853480161
 31
0.0
  0
ARC
  5
2F1
330
1F
100
AcDbEntity
  8
0
  6
Continuous
 62
     7
370
    15
100
AcDbCircle
 10
674.8728950259
 20
246.7301819935
 30
0.0
 40
10.70491012985644
100
AcDbArc
 50
180.0
 51
0.0
  0
LINE
  5
2F2
330
1F
100
AcDbEntity
  8
0
  6
Continuous
 62
     7
370
    15
100
AcDbLine
 10
664.167984896
 20
250.3853480161
 30
0.0
 11
664.167984896
 21
246.7301819935
 31
0.0
  0
ELLIPSE
  5
2F3
330
1F
100
AcDbEntity
  8
0
  6
Continuous
 62
     7
370
    15
100
AcDbEllipse
 10
663.667908732
 20
250.3851956997
 30
0.0
 11
-0.3536610945848224
 21
-0.353661094584794
 31
0.0
210
0.0
220
0.0
230
1.0
 40
0.9996954599
 41
2.35634678343992
 42
3.926838523739761
  0
LINE
  5
2F4
330
1F
100
AcDbEntity
  8
0
  6
Continuous
 62
     7
370
    15
100
AcDbLine
 10
514.9777290033
 20
250.8852718637
 30
0.0
 11
663.6680610484
 21
250.8852718637
 31
0.0
  0
ELLIPSE
  5
2F5
330
1F
100
AcDbEntity
  8
0
  6
Continuous
 62
     7
370
    15
100
AcDbEllipse
 10
514.9778813197
 20
250.3851956997
 30
0.0
 11
0.3536610945847087
 21
-0.3536610945847939
 31
0.0
210
0.0
220
0.0
230
1.0
 40
0.9996954599
 41
2.356346783440429
 42
3.92683852373964
  0
LINE
  5
2F6
330
1F
100
AcDbEntity
  8
0
  6
Continuous
 62
     7
370
    15
100
AcDbLine
 10
514.4778051557
 20
234.5801819935
 30
0.0
 11
514.4778051557
 21
250.3853480161
 31
0.0
  0
ARC
  5
2F7
330
1F
100
AcDbEntity
  8
0
  6
Continuous
 62
     7
370
    15
100
AcDbCircle
 10
506.0728950259
 20
234.5801819935
 30
0.0
 40
8.404910129856432
100
AcDbArc
 50
270.0
 51
0.0
  0
LINE
  5
2F8
330
1F
100
AcDbEntity
  8
0
  6
Continuous
 62
     7
370
    15
100
AcDbLine
 10
500.2677290033
 20
226.1752718637
 30
0.0
 11
506.0728950259
 21
226.1752718637
 31
0.0
  0
ELLIPSE
  5
2F9
330
1F
100
AcDbEntity
  8
0
  6
Continuous
 62
     7
370
    15
100
AcDbEllipse
 10
500.2678813197
 20
225.6751956997
 30
0.0
 11
0.3536610945847087
 21
-0.3536610945847939
 31
0.0
210
0.0
220
0.0
230
1.0
 40
0.9996954599
 41
2.356346783440121
 42
3.926838523739721
  0
LINE
  5
2FA
330
1F
100
AcDbEntity
  8
0
  6
Continuous
 62
     7
370
    15
100
AcDbLine
 10
499.7678051557
 20
85.885015971
 30
0.0
 11
499.7678051557
 21
225.6753480161
 31
0.0
  0
ELLIPSE
  5
2FB
330
1F
100
AcDbEntity
  8
0
  6
Continuous
 62
     7
370
    15
100
AcDbEllipse
 10
500.2678813197
 20
85.8851682874
 30
0.0
 11
0.3536610945847088
 21
0.3536610945847798
 31
0.0
210
0.0
220
0.0
230
1.0
 40
0.9996954599
 41
2.356346783439858
 42
3.92683852373957
  0
LINE
  5
2FC
330
1F
100
AcDbEntity
  8
0
  6
Continuous
 62
     7
370
    15
100
AcDbLine
 10
506.0728950259
 20
85.3850921234
 30
0.0
 11
500.2677290033
 21
85.3850921234
 31
0.0
  0
ARC
  5
2FD
330
1F
100
AcDbEntity
  8
0
  6
Continuous
 62
     7
370
    15
100
AcDbCircle
 10
506.0728950259
 20
76.9801819935
 30
0.0
 40
8.404910129856432
100
AcDbArc
 50
0.0
 51
90.0
  0
LINE
  5
2FE
330
1F
100
AcDbEntity
  8
0
  6
Continuous
 62
     7
370
    15
100
AcDbLine
 10
514.4778051557
 20
61.175015971
 30
0.0
 11
514.4778051557
 21
76.9801819935
 31
0.0
  0
ELLIPSE
  5
2FF
330
1F
100
AcDbEntity
  8
0
  6
Continuous
 62
     7
370
    15
100
AcDbEllipse
 10
514.9778813197
 20
61.1751682874
 30
0.0
 11
0.3536610945847087
 21
0.3536610945847939
 31
0.0
210
0.0
220
0.0
230
1.0
 40
0.9996954599
 41
2.356346783439714
 42
3.926838523739418
  0
LINE
  5
300
330
1F
100
AcDbEntity
  8
0
  6
Continuous
 62
     7
370
    15
100
AcDbLine
 10
663.6680610484
 20
60.6750921234
 30
0.0
 11
514.9777290033
 21
60.6750921234
 31
0.0
  0
ELLIPSE
  5
301
330
1F
100
AcDbEntity
  8
0
  6
Continuous
 62
     7
370
    15
100
AcDbEllipse
 10
663.667908732
 20
61.1751682874
 30
0.0
 11
-0.3536610945848224
 21
0.353661094584794
 31
0.0
210
0.0
220
0.0
230
1.0
 40
0.9996954599
 41
2.35634678343988
 42
3.926838523739612
  0
LINE
  5
302
330
1F
100
AcDbEntity
  8
0
  6
Continuous
 62
     7
370
    15
100
AcDbLine
 10
664.167984896
 20
64.8301819935
 30
0.0
 11
664.167984896
 21
61.175015971
 31
0.0
  0
ARC
  5
303
330
1F
100
AcDbEntity
  8
0
  6
Continuous
 62
     7
370
    15
100
AcDbCircle
 10
674.8728950259
 20
64.8301819935
 30
0.0
 40
10.70491012985644
100
AcDbArc
 50
0.0
 51
180.0
  0
LINE
  5
304
330
1F
100
AcDbEntity
  8
0
  6
Continuous
 62
     7
370
    15
100
AcDbLine
 10
685.5778051557
 20
61.175015971
 30
0.0
 11
685.5778051557
 21
64.8301819935
 31
0.0
  0
ELLIPSE
  5
305
330
1F
100
AcDbEntity
  8
0
  6
Continuous
 62
     7
370
    15
100
AcDbEllipse
 10
686.0778813197
 20
61.1751682874
 30
0.0
 11
0.3536610945848224
 21
0.353661094584794
 31
0.0
210
0.0
220
0.0
230
1.0
 40
0.9996954599
 41
2.356346783439955
 42
3.926838523739953
  0
LINE
  5
306
330
1F
100
AcDbEntity
  8
0
  6
Continuous
 62
     7
370
    15
100
AcDbLine
 10
834.7680610484
 20
60.6750921234
 30
0.0
 11
686.0777290033
 21
60.6750921234
 31
0.0
  0
ELLIPSE
  5
307
330
1F
100
AcDbEntity
  8
0
  6
Continuous
 62
     7
370
    15
100
AcDbEllipse
 10
834.767908732
 20
61.1751682874
 30
0.0
 11
-0.3536610945848224
 21
0.353661094584794
 31
0.0
210
0.0
220
0.0
230
1.0
 40
0.9996954599
 41
2.356346783439653
 42
3.926838523739612
  0
LINE
  5
308
330
1F
100
AcDbEntity
  8
0
  6
Continuous
 62
     7
370
    15
100
AcDbLine
 10
835.267984896
 20
76.9801819935
 30
0.0
 11
835.267984896
 21
61.175015971
 31
0.0
  0
CIRCLE
  5
309
330
1F
100
AcDbEntity
  8
0
  6
Continuous
 62
     7
370
    15
100
AcDbCircle
 10
674.8728950259
 20
246.7301819935
 30
0.0
 40
1.781419116870808
  0
CIRCLE
  5
30A
330
1F
100
AcDbEntity
  8
0
  6
Continuous
 62
     7
370
    15
100
AcDbCircle
 10
674.8728950259
 20
64.8301819935
 30
0.0
 40
1.781419116870794
  0
CIRCLE
  5
30B
330
1F
100
AcDbEntity
  8
0
  6
Continuous
 62
     7
370
    15
100
AcDbCircle
 10
503.9228950259
 20
64.8301819935
 30
0.0
 40
1.781419116870794
  0
CIRCLE
  5
30C
330
1F
100
AcDbEntity
  8
0
  6
Continuous
 62
     7
370
    15
100
AcDbCircle
 10
503.9228950259
 20
246.7301819935
 30
0.0
 40
1.781419116870808
  0
LINE
  5
30D
330
1F
100
AcDbEntity
  8
0
  6
Continuous
 62
     7
370
    15
100
AcDbLine
 10
500.770619282
 20
55.6801819935
 30
0.0
 11
848.9751707697
 21
55.6801819935
 31
0.0
  0
LINE
  5
30E
330
1F
100
AcDbEntity
  8
0
  6
Continuous
 62
     7
370
    15
100
AcDbLine
 10
494.7728950259
 20
61.6779062497
 30
0.0
 11
494.7728950259
 21
249.8824577374
 31
0.0
  0
LINE
  5
30F
330
1F
100
AcDbEntity
  8
0
  6
Continuous
 62
     7
370
    15
100
AcDbLine
 10
500.770619282
 20
255.8801819935
 30
0.0
 11
848.9751707697
 21
255.8801819935
 31
0.0
  0
LINE
  5
310
330
1F
100
AcDbEntity
  8
0
  6
Continuous
 62
     7
370
    15
100
AcDbLine
 10
854.9728950259
 20
61.6779062497
 30
0.0
 11
854.9728950259
 21
249.8824577374
 31
0.0
  0
CIRCLE
  5
311
330
1F
100
AcDbEntity
  8
0
  6
Continuous
 62
     7
370
    15
100
AcDbCircle
 10
845.8228950259
 20
64.8301819935
 30
0.0
 40
1.781419116870794
  0
CIRCLE
  5
312
330
1F
100
AcDbEntity
  8
0
  6
Continuous
 62
     7
370
    15
100
AcDbCircle
 10
845.8228950259
 20
246.7301819935
 30
0.0
 40
1.781419116870808
  0
SPLINE
  5
313
330
1F
100
AcDbEntity
  8
0
  6
Continuous
 62
     7
370
    15
100
AcDbSpline
210
0.0
220
0.0
230
1.0
 70
     8
 71
     3
 72
    26
 73
    22
 74
     0
 42
0.000000001
 43
0.00000001
 40
0.0
 40
0.0
 40
0.0
 40
0.0
 40
0.1250000000000052
 40
0.1250000000000052
 40
0.1875000000000069
 40
0.1875000000000069
 40
0.2500000000000087
 40
0.2500000000000087
 40
0.3750000000000121
 40
0.3750000000000121
 40
0.5000000000000155
 40
0.5000000000000155
 40
0.6250000000000191
 40
0.6250000000000191
 40
0.6875000000000159
 40
0.6875000000000159
 40
0.7500000000000127
 40
0.7500000000000127
 40
0.8750000000000063
 40
0.8750000000000063
 40
1.0
 40
1.0
 40
1.0
 40
1.0
 10
854.9728950258688
 20
249.8824577373539
 30
0.0
 10
854.9728950258688
 20
250.2784797599511
 30
0.0
 10
854.9340815773533
 20
250.6678932678425
 30
0.0
 10
854.8200016211695
 20
251.2425026458426
 30
0.0
 10
854.7725959670619
 20
251.4324422031918
 30
0.0
 10
854.6585968435273
 20
251.8090543327455
 30
0.0
 10
854.5916780048165
 20
251.9962490990958
 30
0.0
 10
854.3661876579289
 20
252.5407992412902
 30
0.0
 10
854.182192481925
 20
252.8851734180402
 30
0.0
 10
853.7474688326154
 20
253.5369376000652
 30
0.0
 10
853.494397709915
 20
253.8455781259609
 30
0.0
 10
852.9415372989755
 20
254.398836069001
 30
0.0
 10
852.6398713672012
 20
254.6471097091444
 30
0.0
 10
852.1486323593
 20
254.9759910610566
 30
0.0
 10
851.978391611526
 20
255.0781354066782
 30
0.0
 10
851.6323852906896
 20
255.2632714906511
 30
0.0
 10
851.455711859184
 20
255.346908004394
 30
0.0
 10
850.9148507427209
 20
255.5714366312184
 30
0.0
 10
850.5377604528933
 20
255.6866170371033
 30
0.0
 10
849.7629045289149
 20
255.8413638120223
 30
0.0
 10
849.3711936926545
 20
255.8801819935294
 30
0.0
 10
848.9751707696932
 20
255.8801819935294
 30
0.0
  0
SPLINE
  5
314
330
1F
100
AcDbEntity
  8
0
  6
Continuous
 62
     7
370
    15
100
AcDbSpline
210
0.0
220
0.0
230
1.0
 70
     8
 71
     3
 72
    26
 73
    22
 74
     0
 42
0.000000001
 43
0.00000001
 40
0.0
 40
0.0
 40
0.0
 40
0.0
 40
0.1250000000000073
 40
0.1250000000000073
 40
0.1875000000000105
 40
0.1875000000000105
 40
0.2500000000000138
 40
0.2500000000000138
 40
0.375000000000012
 40
0.375000000000012
 40
0.5000000000000103
 40
0.5000000000000103
 40
0.6250000000000087
 40
0.6250000000000087
 40
0.6875000000000072
 40
0.6875000000000072
 40
0.7500000000000058
 40
0.7500000000000058
 40
0.8750000000000029
 40
0.8750000000000029
 40
1.0
 40
1.0
 40
1.0
 40
1.0
 10
848.9751707696932
 20
55.68018199352939
 30
0.0
 10
849.3711927922905
 20
55.68018199352941
 30
0.0
 10
849.7606063001817
 20
55.7189954420448
 30
0.0
 10
850.3352156781821
 20
55.83307539822872
 30
0.0
 10
850.5251552355313
 20
55.88048105233631
 30
0.0
 10
850.901767365085
 20
55.99448017587094
 30
0.0
 10
851.088962131435
 20
56.06139901458164
 30
0.0
 10
851.6335122736294
 20
56.28688936146914
 30
0.0
 10
851.9778864503794
 20
56.47088453747322
 30
0.0
 10
852.6296506324045
 20
56.90560818678278
 30
0.0
 10
852.9382911583001
 20
57.15867930948323
 30
0.0
 10
853.4915491013403
 20
57.71153972042267
 30
0.0
 10
853.7398227414837
 20
58.01320565219696
 30
0.0
 10
854.0687040933959
 20
58.50444466009816
 30
0.0
 10
854.1708484390176
 20
58.67468540787213
 30
0.0
 10
854.3559845229904
 20
59.02069172870853
 30
0.0
 10
854.4396210367332
 20
59.1973651602141
 30
0.0
 10
854.6641496635576
 20
59.73822627667722
 30
0.0
 10
854.7793300694426
 20
60.11531656650483
 30
0.0
 10
854.9340768443615
 20
60.89017249048322
 30
0.0
 10
854.9728950258688
 20
61.28188332674367
 30
0.0
 10
854.9728950258686
 20
61.67790624970489
 30
0.0
  0
SPLINE
  5
315
330
1F
100
AcDbEntity
  8
0
  6
Continuous
 62
     7
370
    15
100
AcDbSpline
210
0.0
220
0.0
230
1.0
 70
     8
 71
     3
 72
    26
 73
    22
 74
     0
 42
0.000000001
 43
0.00000001
 40
0.0
 40
0.0
 40
0.0
 40
0.0
 40
0.1249999999999977
 40
0.1249999999999977
 40
0.1874999999999957
 40
0.1874999999999957
 40
0.2499999999999937
 40
0.2499999999999937
 40
0.3749999999999972
 40
0.3749999999999972
 40
0.5000000000000007
 40
0.5000000000000007
 40
0.6250000000000041
 40
0.6250000000000041
 40
0.6875000000000034
 40
0.6875000000000034
 40
0.7500000000000028
 40
0.7500000000000028
 40
0.8750000000000013
 40
0.8750000000000013
 40
1.0
 40
1.0
 40
1.0
 40
1.0
 10
494.7728950258688
 20
61.67790624970488
 30
0.0
 10
494.7728950258688
 20
61.28188422710766
 30
0.0
 10
494.8117084743841
 20
60.89247071921628
 30
0.0
 10
494.925788430568
 20
60.31786134121611
 30
0.0
 10
494.9731940846755
 20
60.12792178386693
 30
0.0
 10
495.0871932082101
 20
59.75130965431326
 30
0.0
 10
495.1541120469211
 20
59.56411488796301
 30
0.0
 10
495.3796023938085
 20
59.01956474576856
 30
0.0
 10
495.5635975698126
 20
58.67519056901862
 30
0.0
 10
495.9983212191221
 20
58.02342638699356
 30
0.0
 10
496.2513923418225
 20
57.71478586109778
 30
0.0
 10
496.804252752762
 20
57.16152791805771
 30
0.0
 10
497.1059186845363
 20
56.91325427791437
 30
0.0
 10
497.5971576924374
 20
56.58437292600216
 30
0.0
 10
497.7673984402114
 20
56.48222858038053
 30
0.0
 10
498.1134047610478
 20
56.29709249640764
 30
0.0
 10
498.2900781925534
 20
56.21345598266473
 30
0.0
 10
498.8309393090165
 20
55.98892735584038
 30
0.0
 10
499.2080295988441
 20
55.87374694995547
 30
0.0
 10
499.9828855228224
 20
55.71900017503655
 30
0.0
 10
500.374596359083
 20
55.68018199352939
 30
0.0
 10
500.7706192820443
 20
55.68018199352938
 30
0.0
  0
SPLINE
  5
316
330
1F
100
AcDbEntity
  8
0
  6
Continuous
 62
     7
370
    15
100
AcDbSpline
210
0.0
220
0.0
230
1.0
 70
     8
 71
     3
 72
    26
 73
    22
 74
     0
 42
0.000000001
 43
0.00000001
 40
0.0
 40
0.0
 40
0.0
 40
0.0
 40
0.1250000000000022
 40
0.1250000000000022
 40
0.1875000000000037
 40
0.1875000000000037
 40
0.2500000000000052
 40
0.2500000000000052
 40
0.3750000000000001
 40
0.3750000000000001
 40
0.4999999999999949
 40
0.4999999999999949
 40
0.6249999999999897
 40
0.6249999999999897
 40
0.6874999999999915
 40
0.6874999999999915
 40
0.7499999999999932
 40
0.7499999999999932
 40
0.8749999999999966
 40
0.8749999999999966
 40
1.0
 40
1.0
 40
1.0
 40
1.0
 10
500.7706192820443
 20
255.8801819935294
 30
0.0
 10
500.3745972594471
 20
255.8801819935294
 30
0.0
 10
499.9851837515558
 20
255.841368545014
 30
0.0
 10
499.4105743735555
 20
255.7272885888301
 30
0.0
 10
499.2206348162063
 20
255.6798829347225
 30
0.0
 10
498.8440226866526
 20
255.5658838111879
 30
0.0
 10
498.6568279203024
 20
255.4989649724772
 30
0.0
 10
498.112277778108
 20
255.2734746255896
 30
0.0
 10
497.767903601358
 20
255.0894794495856
 30
0.0
 10
497.116139419333
 20
254.654755800276
 30
0.0
 10
496.8074988934374
 20
254.4016846775756
 30
0.0
 10
496.2542409503973
 20
253.8488242666361
 30
0.0
 10
496.0059673102538
 20
253.5471583348617
 30
0.0
 10
495.6770859583416
 20
253.0559193269606
 30
0.0
 10
495.5749416127198
 20
252.8856785791866
 30
0.0
 10
495.389805528747
 20
252.5396722583503
 30
0.0
 10
495.3061690150042
 20
252.3629988268447
 30
0.0
 10
495.0816403881798
 20
251.8221377103816
 30
0.0
 10
494.9664599822949
 20
251.4450474205539
 30
0.0
 10
494.8117132073759
 20
250.6701914965755
 30
0.0
 10
494.7728950258689
 20
250.2784806603151
 30
0.0
 10
494.7728950258688
 20
249.8824577373539
 30
0.0
  0
LINE
  5
317
330
1F
100
AcDbEntity
  8
0
  6
Continuous
 62
     7
370
    15
100
AcDbLine
 10
500.0383586621
 20
225.4047945097
 30
0.0
 11
499.7678051557
 21
225.6753480161
 31
0.0
  0
LINE
  5
318
330
1F
100
AcDbEntity
  8
0
  6
Continuous
 62
     7
370
    15
100
AcDbLine
 10
500.0383586621
 20
86.1555694774
 30
0.0
 11
500.0383586621
 21
225.4047945097
 31
0.0
  0
LINE
  5
319
330
1F
100
AcDbEntity
  8
0
  6
Continuous
 62
     7
370
    15
100
AcDbLine
 10
499.7678051557
 20
85.885015971
 30
0.0
 11
500.0383586621
 21
86.1555694774
 31
0.0
  0
LINE
  5
31A
330
1F
100
AcDbEntity
  8
0
  6
Continuous
 62
     7
370
    15
100
AcDbLine
 10
500.2677290033
 20
226.1752718637
 30
0.0
 11
500.5382825097
 21
225.9047183573
 31
0.0
  0
ELLIPSE
  5
31B
330
1F
100
AcDbEntity
  8
0
  6
Continuous
 62
     7
370
    15
100
AcDbEllipse
 10
500.5384348261
 20
225.4046421933
 30
0.0
 11
0.3536610945848224
 21
-0.353661094584794
 31
0.0
210
0.0
220
0.0
230
1.0
 40
0.9996954599
 41
2.356346783439653
 42
3.926838523739583
  0
LINE
  5
31C
330
1F
100
AcDbEntity
  8
0
  6
Continuous
 62
     7
370
    15
100
AcDbLine
 10
500.5382825097
 20
85.6556456298
 30
0.0
 11
500.2677290033
 21
85.3850921234
 31
0.0
  0
ELLIPSE
  5
31D
330
1F
100
AcDbEntity
  8
0
  6
Continuous
 62
     7
370
    15
100
AcDbEllipse
 10
500.5384348261
 20
86.1557217938
 30
0.0
 11
0.3536610945848224
 21
0.353661094584794
 31
0.0
210
0.0
220
0.0
230
1.0
 40
0.9996954599
 41
2.356346783439891
 42
3.926838523739761
  0
LINE
  5
31E
330
1F
100
AcDbEntity
  8
0
  6
Continuous
 62
     7
370
    15
100
AcDbLine
 10
506.0728950259
 20
85.6556456298
 30
0.0
 11
506.0728950259
 21
85.3850921234
 31
0.0
  0
LINE
  5
31F
330
1F
100
AcDbEntity
  8
0
  6
Continuous
 62
     7
370
    15
100
AcDbLine
 10
506.0728950259
 20
85.6556456298
 30
0.0
 11
500.5382825097
 21
85.6556456298
 31
0.0
  0
LINE
  5
320
330
1F
100
AcDbEntity
  8
0
  6
Continuous
 62
     7
370
    15
100
AcDbLine
 10
506.0728950259
 20
225.9047183573
 30
0.0
 11
506.0728950259
 21
226.1752718637
 31
0.0
  0
LINE
  5
321
330
1F
100
AcDbEntity
  8
0
  6
Continuous
 62
     7
370
    15
100
AcDbLine
 10
500.5382825097
 20
225.9047183573
 30
0.0
 11
506.0728950259
 21
225.9047183573
 31
0.0
  0
CIRCLE
  5
322
330
1F
100
AcDbEntity
  8
0
  6
Continuous
 62
     7
370
    15
100
AcDbCircle
 10
503.9228950259
 20
64.8301819935
 30
0.0
 40
1.75
  0
CIRCLE
  5
323
330
1F
100
AcDbEntity
  8
0
  6
Continuous
 62
     7
370
    15
100
AcDbCircle
 10
503.9228950259
 20
246.7301819935
 30
0.0
 40
1.749999999999972
  0
ARC
  5
324
330
1F
100
AcDbEntity
  8
0
  6
Continuous
 62
     7
370
    15
100
AcDbCircle
 10
506.0728950259
 20
76.9801819935
 30
0.0
 40
8.675463636243805
100
AcDbArc
 50
0.0
 51
90.0
  0
LINE
  5
325
330
1F
100
AcDbEntity
  8
0
  6
Continuous
 62
     7
370
    15
100
AcDbLine
 10
514.7483586621
 20
76.9801819935
 30
0.0
 11
514.4778051557
 21
76.9801819935
 31
0.0
  0
LINE
  5
326
330
1F
100
AcDbEntity
  8
0
  6
Continuous
 62
     7
370
    15
100
AcDbLine
 10
514.7483586621
 20
234.5801819935
 30
0.0
 11
514.4778051557
 21
234.5801819935
 31
0.0
  0
ARC
  5
327
330
1F
100
AcDbEntity
  8
0
  6
Continuous
 62
     7
370
    15
100
AcDbCircle
 10
506.0728950259
 20
234.5801819935
 30
0.0
 40
8.675463636243819
100
AcDbArc
 50
270.0
 51
0.0
  0
LINE
  5
328
330
1F
100
AcDbEntity
  8
0
  6
Continuous
 62
     7
370
    15
100
AcDbLine
 10
514.7483586621
 20
250.1147945097
 30
0.0
 11
514.4778051557
 21
250.3853480161
 31
0.0
  0
LINE
  5
329
330
1F
100
AcDbEntity
  8
0
  6
Continuous
 62
     7
370
    15
100
AcDbLine
 10
514.7483586621
 20
234.5801819935
 30
0.0
 11
514.7483586621
 21
250.1147945097
 31
0.0
  0
LINE
  5
32A
330
1F
100
AcDbEntity
  8
0
  6
Continuous
 62
     7
370
    15
100
AcDbLine
 10
515.2482825097
 20
60.9456456298
 30
0.0
 11
514.9777290033
 21
60.6750921234
 31
0.0
  0
LINE
  5
32B
330
1F
100
AcDbEntity
  8
0
  6
Continuous
 62
     7
370
    15
100
AcDbLine
 10
514.4778051557
 20
61.175015971
 30
0.0
 11
514.7483586621
 21
61.4455694774
 31
0.0
  0
ELLIPSE
  5
32C
330
1F
100
AcDbEntity
  8
0
  6
Continuous
 62
     7
370
    15
100
AcDbEllipse
 10
515.2484348261
 20
61.4457217938
 30
0.0
 11
0.3536610945848224
 21
0.3536610945847868
 31
0.0
210
0.0
220
0.0
230
1.0
 40
0.9996954599
 41
2.356346783439985
 42
3.926838523739503
  0
LINE
  5
32D
330
1F
100
AcDbEntity
  8
0
  6
Continuous
 62
     7
370
    15
100
AcDbLine
 10
514.7483586621
 20
61.4455694774
 30
0.0
 11
514.7483586621
 21
76.9801819935
 31
0.0
  0
LINE
  5
32E
330
1F
100
AcDbEntity
  8
0
  6
Continuous
 62
     7
370
    15
100
AcDbLine
 10
514.9777290033
 20
250.8852718637
 30
0.0
 11
515.2482825097
 21
250.6147183573
 31
0.0
  0
ELLIPSE
  5
32F
330
1F
100
AcDbEntity
  8
0
  6
Continuous
 62
     7
370
    15
100
AcDbEllipse
 10
515.2484348261
 20
250.1146421933
 30
0.0
 11
0.3536610945847087
 21
-0.3536610945847939
 31
0.0
210
0.0
220
0.0
230
1.0
 40
0.9996954599
 41
2.356346783440208
 42
3.926838523739861
  0
LINE
  5
330
330
1F
100
AcDbEntity
  8
0
  6
Continuous
 62
     7
370
    15
100
AcDbLine
 10
663.397507542
 20
60.9456456298
 30
0.0
 11
515.2482825097
 21
60.9456456298
 31
0.0
  0
LINE
  5
331
330
1F
100
AcDbEntity
  8
0
  6
Continuous
 62
     7
370
    15
100
AcDbLine
 10
663.6680610484
 20
60.6750921234
 30
0.0
 11
663.397507542
 21
60.9456456298
 31
0.0
  0
LINE
  5
332
330
1F
100
AcDbEntity
  8
0
  6
Continuous
 62
     7
370
    15
100
AcDbLine
 10
663.397507542
 20
250.6147183573
 30
0.0
 11
663.6680610484
 21
250.8852718637
 31
0.0
  0
LINE
  5
333
330
1F
100
AcDbEntity
  8
0
  6
Continuous
 62
     7
370
    15
100
AcDbLine
 10
515.2482825097
 20
250.6147183573
 30
0.0
 11
663.397507542
 21
250.6147183573
 31
0.0
  0
LINE
  5
334
330
1F
100
AcDbEntity
  8
0
  6
Continuous
 62
     7
370
    15
100
AcDbLine
 10
663.8974313896
 20
61.4455694774
 30
0.0
 11
664.167984896
 21
61.175015971
 31
0.0
  0
ELLIPSE
  5
335
330
1F
100
AcDbEntity
  8
0
  6
Continuous
 62
     7
370
    15
100
AcDbEllipse
 10
663.3973552256
 20
61.4457217938
 30
0.0
 11
-0.3536610945848224
 21
0.3536610945847868
 31
0.0
210
0.0
220
0.0
230
1.0
 40
0.9996954599
 41
2.356346783439794
 42
3.926838523739663
  0
LINE
  5
336
330
1F
100
AcDbEntity
  8
0
  6
Continuous
 62
     7
370
    15
100
AcDbLine
 10
664.167984896
 20
250.3853480161
 30
0.0
 11
663.8974313896
 21
250.1147945097
 31
0.0
  0
ELLIPSE
  5
337
330
1F
100
AcDbEntity
  8
0
  6
Continuous
 62
     7
370
    15
100
AcDbEllipse
 10
663.3973552256
 20
250.1146421933
 30
0.0
 11
-0.3536610945848224
 21
-0.3536610945848224
 31
0.0
210
0.0
220
0.0
230
1.0
 40
0.9996954599
 41
2.3563467834399
 42
3.9268385237397
  0
LINE
  5
338
330
1F
100
AcDbEntity
  8
0
  6
Continuous
 62
     7
370
    15
100
AcDbLine
 10
663.8974313896
 20
64.8301819935
 30
0.0
 11
664.167984896
 21
64.8301819935
 31
0.0
  0
ARC
  5
339
330
1F
100
AcDbEntity
  8
0
  6
Continuous
 62
     7
370
    15
100
AcDbCircle
 10
674.8728950259
 20
64.8301819935
 30
0.0
 40
10.97546363624383
100
AcDbArc
 50
0.0
 51
180.0
  0
LINE
  5
33A
330
1F
100
AcDbEntity
  8
0
  6
Continuous
 62
     7
370
    15
100
AcDbLine
 10
685.8483586621
 20
64.8301819935
 30
0.0
 11
685.5778051557
 21
64.8301819935
 31
0.0
  0
LINE
  5
33B
330
1F
100
AcDbEntity
  8
0
  6
Continuous
 62
     7
370
    15
100
AcDbLine
 10
685.8483586621
 20
246.7301819935
 30
0.0
 11
685.5778051557
 21
246.7301819935
 31
0.0
  0
ARC
  5
33C
330
1F
100
AcDbEntity
  8
0
  6
Continuous
 62
     7
370
    15
100
AcDbCircle
 10
674.8728950259
 20
246.7301819935
 30
0.0
 40
10.97546363624383
100
AcDbArc
 50
180.0
 51
0.0
  0
LINE
  5
33D
330
1F
100
AcDbEntity
  8
0
  6
Continuous
 62
     7
370
    15
100
AcDbLine
 10
663.8974313896
 20
246.7301819935
 30
0.0
 11
664.167984896
 21
246.7301819935
 31
0.0
  0
LINE
  5
33E
330
1F
100
AcDbEntity
  8
0
  6
Continuous
 62
     7
370
    15
100
AcDbLine
 10
663.8974313896
 20
64.8301819935
 30
0.0
 11
663.8974313896
 21
61.4455694774
 31
0.0
  0
LINE
  5
33F
330
1F
100
AcDbEntity
  8
0
  6
Continuous
 62
     7
370
    15
100
AcDbLine
 10
663.8974313896
 20
250.1147945097
 30
0.0
 11
663.8974313896
 21
246.7301819935
 31
0.0
  0
CIRCLE
  5
340
330
1F
100
AcDbEntity
  8
0
  6
Continuous
 62
     7
370
    15
100
AcDbCircle
 10
674.8728950259
 20
64.8301819935
 30
0.0
 40
1.75
  0
CIRCLE
  5
341
330
1F
100
AcDbEntity
  8
0
  6
Continuous
 62
     7
370
    15
100
AcDbCircle
 10
674.8728950259
 20
246.7301819935
 30
0.0
 40
1.750000000000028
  0
LINE
  5
342
330
1F
100
AcDbEntity
  8
0
  6
Continuous
 62
     7
370
    15
100
AcDbLine
 10
685.8483586621
 20
250.1147945097
 30
0.0
 11
685.5778051557
 21
250.3853480161
 31
0.0
  0
LINE
  5
343
330
1F
100
AcDbEntity
  8
0
  6
Continuous
 62
     7
370
    15
100
AcDbLine
 10
685.8483586621
 20
246.7301819935
 30
0.0
 11
685.8483586621
 21
250.1147945097
 31
0.0
  0
LINE
  5
344
330
1F
100
AcDbEntity
  8
0
  6
Continuous
 62
     7
370
    15
100
AcDbLine
 10
685.8483586621
 20
61.4455694774
 30
0.0
 11
685.8483586621
 21
64.8301819935
 31
0.0
  0
LINE
  5
345
330
1F
100
AcDbEntity
  8
0
  6
Continuous
 62
     7
370
    15
100
AcDbLine
 10
685.5778051557
 20
61.175015971
 30
0.0
 11
685.8483586621
 21
61.4455694774
 31
0.0
  0
LINE
  5
346
330
1F
100
AcDbEntity
  8
0
  6
Continuous
 62
     7
370
    15
100
AcDbLine
 10
686.0777290033
 20
250.8852718637
 30
0.0
 11
686.3482825097
 21
250.6147183573
 31
0.0
  0
ELLIPSE
  5
347
330
1F
100
AcDbEntity
  8
0
  6
Continuous
 62
     7
370
    15
100
AcDbEllipse
 10
686.3484348261
 20
250.1146421933
 30
0.0
 11
0.3536610945848224
 21
-0.353661094584794
 31
0.0
210
0.0
220
0.0
230
1.0
 40
0.9996954599
 41
2.356346783439673
 42
3.92683852373962
  0
LINE
  5
348
330
1F
100
AcDbEntity
  8
0
  6
Continuous
 62
     7
370
    15
100
AcDbLine
 10
686.3482825097
 20
60.9456456298
 30
0.0
 11
686.0777290033
 21
60.6750921234
 31
0.0
  0
ELLIPSE
  5
349
330
1F
100
AcDbEntity
  8
0
  6
Continuous
 62
     7
370
    15
100
AcDbEllipse
 10
686.3484348261
 20
61.4457217938
 30
0.0
 11
0.3536610945848224
 21
0.3536610945847868
 31
0.0
210
0.0
220
0.0
230
1.0
 40
0.9996954599
 41
2.356346783440013
 42
3.926838523739957
  0
LINE
  5
34A
330
1F
100
AcDbEntity
  8
0
  6
Continuous
 62
     7
370
    15
100
AcDbLine
 10
834.497507542
 20
60.9456456298
 30
0.0
 11
686.3482825097
 21
60.9456456298
 31
0.0
  0
LINE
  5
34B
330
1F
100
AcDbEntity
  8
0
  6
Continuous
 62
     7
370
    15
100
AcDbLine
 10
834.7680610484
 20
60.6750921234
 30
0.0
 11
834.497507542
 21
60.9456456298
 31
0.0
  0
LINE
  5
34C
330
1F
100
AcDbEntity
  8
0
  6
Continuous
 62
     7
370
    15
100
AcDbLine
 10
834.497507542
 20
250.6147183573
 30
0.0
 11
834.7680610484
 21
250.8852718637
 31
0.0
  0
LINE
  5
34D
330
1F
100
AcDbEntity
  8
0
  6
Continuous
 62
     7
370
    15
100
AcDbLine
 10
686.3482825097
 20
250.6147183573
 30
0.0
 11
834.497507542
 21
250.6147183573
 31
0.0
  0
LINE
  5
34E
330
1F
100
AcDbEntity
  8
0
  6
Continuous
 62
     7
370
    15
100
AcDbLine
 10
835.267984896
 20
250.3853480161
 30
0.0
 11
834.9974313896
 21
250.1147945097
 31
0.0
  0
ELLIPSE
  5
34F
330
1F
100
AcDbEntity
  8
0
  6
Continuous
 62
     7
370
    15
100
AcDbEllipse
 10
834.4973552256
 20
250.1146421933
 30
0.0
 11
-0.3536610945848224
 21
-0.3536610945848224
 31
0.0
210
0.0
220
0.0
230
1.0
 40
0.9996954599
 41
2.3563467834399
 42
3.9268385237397
  0
LINE
  5
350
330
1F
100
AcDbEntity
  8
0
  6
Continuous
 62
     7
370
    15
100
AcDbLine
 10
834.9974313896
 20
61.4455694774
 30
0.0
 11
835.267984896
 21
61.175015971
 31
0.0
  0
ELLIPSE
  5
351
330
1F
100
AcDbEntity
  8
0
  6
Continuous
 62
     7
370
    15
100
AcDbEllipse
 10
834.4973552256
 20
61.4457217938
 30
0.0
 11
-0.3536610945848224
 21
0.3536610945847868
 31
0.0
210
0.0
220
0.0
230
1.0
 40
0.9996954599
 41
2.356346783439648
 42
3.926838523739582
  0
LINE
  5
352
330
1F
100
AcDbEntity
  8
0
  6
Continuous
 62
     7
370
    15
100
AcDbLine
 10
843.6728950259
 20
225.9047183573
 30
0.0
 11
843.6728950259
 21
226.1752718637
 31
0.0
  0
ARC
  5
353
330
1F
100
AcDbEntity
  8
0
  6
Continuous
 62
     7
370
    15
100
AcDbCircle
 10
843.6728950259
 20
234.5801819935
 30
0.0
 40
8.675463636243819
100
AcDbArc
 50
180.0
 51
270.0
  0
LINE
  5
354
330
1F
100
AcDbEntity
  8
0
  6
Continuous
 62
     7
370
    15
100
AcDbLine
 10
834.9974313896
 20
234.5801819935
 30
0.0
 11
835.267984896
 21
234.5801819935
 31
0.0
  0
LINE
  5
355
330
1F
100
AcDbEntity
  8
0
  6
Continuous
 62
     7
370
    15
100
AcDbLine
 10
834.9974313896
 20
76.9801819935
 30
0.0
 11
835.267984896
 21
76.9801819935
 31
0.0
  0
ARC
  5
356
330
1F
100
AcDbEntity
  8
0
  6
Continuous
 62
     7
370
    15
100
AcDbCircle
 10
843.6728950259
 20
76.9801819935
 30
0.0
 40
8.675463636243805
100
AcDbArc
 50
90.0
 51
180.0
  0
LINE
  5
357
330
1F
100
AcDbEntity
  8
0
  6
Continuous
 62
     7
370
    15
100
AcDbLine
 10
843.6728950259
 20
85.6556456298
 30
0.0
 11
843.6728950259
 21
85.3850921234
 31
0.0
  0
LINE
  5
358
330
1F
100
AcDbEntity
  8
0
  6
Continuous
 62
     7
370
    15
100
AcDbLine
 10
834.9974313896
 20
76.9801819935
 30
0.0
 11
834.9974313896
 21
61.4455694774
 31
0.0
  0
LINE
  5
359
330
1F
100
AcDbEntity
  8
0
  6
Continuous
 62
     7
370
    15
100
AcDbLine
 10
834.9974313896
 20
250.1147945097
 30
0.0
 11
834.9974313896
 21
234.5801819935
 31
0.0
  0
LINE
  5
35A
330
1F
100
AcDbEntity
  8
0
  6
Continuous
 62
     7
370
    15
100
AcDbLine
 10
849.207507542
 20
225.9047183573
 30
0.0
 11
849.4780610484
 21
226.1752718637
 31
0.0
  0
LINE
  5
35B
330
1F
100
AcDbEntity
  8
0
  6
Continuous
 62
     7
370
    15
100
AcDbLine
 10
843.6728950259
 20
225.9047183573
 30
0.0
 11
849.207507542
 21
225.9047183573
 31
0.0
  0
LINE
  5
35C
330
1F
100
AcDbEntity
  8
0
  6
Continuous
 62
     7
370
    15
100
AcDbLine
 10
849.207507542
 20
85.6556456298
 30
0.0
 11
843.6728950259
 21
85.6556456298
 31
0.0
  0
LINE
  5
35D
330
1F
100
AcDbEntity
  8
0
  6
Continuous
 62
     7
370
    15
100
AcDbLine
 10
849.4780610484
 20
85.3850921234
 30
0.0
 11
849.207507542
 21
85.6556456298
 31
0.0
  0
CIRCLE
  5
35E
330
1F
100
AcDbEntity
  8
0
  6
Continuous
 62
     7
370
    15
100
AcDbCircle
 10
845.8228950259
 20
64.8301819935
 30
0.0
 40
1.75
  0
CIRCLE
  5
35F
330
1F
100
AcDbEntity
  8
0
  6
Continuous
 62
     7
370
    15
100
AcDbCircle
 10
845.8228950259
 20
246.7301819935
 30
0.0
 40
1.749999999999972
  0
LINE
  5
360
330
1F
100
AcDbEntity
  8
0
  6
Continuous
 62
     7
370
    15
100
AcDbLine
 10
849.977984896
 20
225.6753480161
 30
0.0
 11
849.7074313896
 21
225.4047945097
 31
0.0
  0
ELLIPSE
  5
361
330
1F
100
AcDbEntity
  8
0
  6
Continuous
 62
     7
370
    15
100
AcDbEllipse
 10
849.2073552256
 20
225.4046421933
 30
0.0
 11
-0.3536610945848224
 21
-0.353661094584794
 31
0.0
210
0.0
220
0.0
230
1.0
 40
0.9996954599
 41
2.35634678343988
 42
3.926838523739801
  0
LINE
  5
362
330
1F
100
AcDbEntity
  8
0
  6
Continuous
 62
     7
370
    15
100
AcDbLine
 10
849.7074313896
 20
86.1555694774
 30
0.0
 11
849.977984896
 21
85.885015971
 31
0.0
  0
ELLIPSE
  5
363
330
1F
100
AcDbEntity
  8
0
  6
Continuous
 62
     7
370
    15
100
AcDbEllipse
 10
849.2073552256
 20
86.1557217938
 30
0.0
 11
-0.3536610945848224
 21
0.3536610945847798
 31
0.0
210
0.0
220
0.0
230
1.0
 40
0.9996954599
 41
2.356346783439642
 42
3.926838523739553
  0
LINE
  5
364
330
1F
100
AcDbEntity
  8
0
  6
Continuous
 62
     7
370
    15
100
AcDbLine
 10
849.7074313896
 20
225.4047945097
 30
0.0
 11
849.7074313896
 21
86.1555694774
 31
0.0
  0
ENDSEC
  0
SECTION
  2
OBJECTS
  0
DICTIONARY
  5
C
330
0
100
AcDbDictionary
281
     1
  3
ACAD_GROUP
350
D
  3
ACAD_LAYOUT
350
1A
  3
ACAD_MLINESTYLE
350
17
  3
ACAD_PLOTSETTINGS
350
19
  3
ACAD_PLOTSTYLENAME
350
E
  3
ACAD_SCALELIST
350
47
  0
DICTIONARY
  5
D
102
{ACAD_REACTORS
330
C
102
}
330
C
100
AcDbDictionary
281
     1
  0
DICTIONARY
  5
1A
102
{ACAD_REACTORS
330
C
102
}
330
C
100
AcDbDictionary
281
     1
  3
Layout1
350
1E
  3
Layout2
350
26
  3
Model
350
22
  0
DICTIONARY
  5
17
102
{ACAD_REACTORS
330
C
102
}
330
C
100
AcDbDictionary
281
     1
  3
Standard
350
18
  0
DICTIONARY
  5
19
102
{ACAD_REACTORS
330
C
102
}
330
C
100
AcDbDictionary
281
     1
  0
ACDBDICTIONARYWDFLT
  5
E
102
{ACAD_REACTORS
330
C
102
}
330
C
100
AcDbDictionary
281
     1
  3
Normal
350
F
100
AcDbDictionaryWithDefault
340
F
  0
DICTIONARY
  5
47
102
{ACAD_REACTORS
330
C
102
}
330
C
100
AcDbDictionary
281
     1
  3
A0
350
48
  3
A1
350
49
  3
A2
350
4A
  3
A3
350
4B
  3
A4
350
4C
  3
A5
350
4D
  3
A6
350
4E
  3
A7
350
4F
  3
A8
350
50
  3
A9
350
51
  3
B0
350
52
  3
B1
350
53
  3
B2
350
54
  3
B3
350
55
  3
B4
350
56
  3
B5
350
57
  3
B6
350
58
  3
B7
350
59
  3
B8
350
5A
  3
B9
350
5B
  3
C0
350
5C
  3
C1
350
5D
  3
C2
350
5E
  3
C3
350
5F
  3
C4
350
60
  3
C5
350
61
  3
C6
350
62
  3
C7
350
63
  3
C8
350
64
  3
C9
350
65
  3
D0
350
66
  3
D1
350
67
  3
D2
350
68
  0
LAYOUT
  5
1E
102
{ACAD_REACTORS
330
1A
102
}
330
1A
100
AcDbPlotSettings
  1

  2
none_device
  4

  6

 40
0.0
 41
0.0
 42
0.0
 43
0.0
 44
0.0
 45
0.0
 46
0.0
 47
0.0
 48
0.0
 49
0.0
140
0.0
141
0.0
142
1.0
143
1.0
 70
   688
 72
     1
 73
     0
 74
     5
  7

 75
    16
147
1.0
148
0.0
149
0.0
100
AcDbLayout
  1
Layout1
 70
     1
 71
     1
 10
0.0
 20
0.0
 11
420.0
 21
297.0
 12
0.0
 22
0.0
 32
0.0
 14
1.0000000000E+20
 24
1.0000000000E+20
 34
1.0000000000E+20
 15
-1.0000000000E+20
 25
-1.0000000000E+20
 35
-1.0000000000E+20
146
0.0
 13
0.0
 23
0.0
 33
0.0
 16
1.0
 26
0.0
 36
0.0
 17
0.0
 27
1.0
 37
0.0
 76
     0
330
1B
  0
LAYOUT
  5
26
102
{ACAD_REACTORS
330
1A
102
}
330
1A
100
AcDbPlotSettings
  1

  2
none_device
  4

  6

 40
0.0
 41
0.0
 42
0.0
 43
0.0
 44
0.0
 45
0.0
 46
0.0
 47
0.0
 48
0.0
 49
0.0
140
0.0
141
0.0
142
1.0
143
1.0
 70
   688
 72
     1
 73
     0
 74
     5
  7

 75
    16
147
1.0
148
0.0
149
0.0
100
AcDbLayout
  1
Layout2
 70
     1
 71
     2
 10
0.0
 20
0.0
 11
0.0
 21
0.0
 12
0.0
 22
0.0
 32
0.0
 14
0.0
 24
0.0
 34
0.0
 15
0.0
 25
0.0
 35
0.0
146
0.0
 13
0.0
 23
0.0
 33
0.0
 16
1.0
 26
0.0
 36
0.0
 17
0.0
 27
1.0
 37
0.0
 76
     0
330
23
  0
LAYOUT
  5
22
102
{ACAD_REACTORS
330
1A
102
}
330
1A
100
AcDbPlotSettings
  1

  2
none_device
  4
Letter_(8.50_x_11.00_Inches)
  6

 40
6.35
 41
6.35
 42
6.35000508
 43
6.35000508
 44
215.9
 45
279.4
 46
0.0
 47
0.0
 48
0.0
 49
0.0
140
0.0
141
0.0
142
1.0
143
1.0
 70
  1712
 72
     1
 73
     0
 74
     0
  7

 75
     0
147
1.0
148
0.0
149
0.0
100
AcDbLayout
  1
Model
 70
     1
 71
     0
 10
0.0
 20
0.0
 11
420.0
 21
297.0
 12
0.0
 22
0.0
 32
0.0
 14
0.0
 24
0.0
 34
0.0
 15
420.0
 25
297.0
 35
0.0
146
0.0
 13
0.0
 23
0.0
 33
0.0
 16
1.0
 26
0.0
 36
0.0
 17
0.0
 27
1.0
 37
0.0
 76
     0
330
1F
331
29
  0
MLINESTYLE
  5
18
102
{ACAD_REACTORS
330
17
102
}
330
17
100
AcDbMlineStyle
  2
Standard
 70
     0
  3

 62
   256
 51
90.0
 52
90.0
 71
     2
 49
0.5
 62
   256
  6
BYLAYER
 49
-0.5
 62
   256
  6
BYLAYER
  0
ACDBPLACEHOLDER
  5
F
102
{ACAD_REACTORS
330
E
102
}
330
E
  0
SCALE
  5
48
102
{ACAD_REACTORS
330
47
102
}
330
47
100
AcDbScale
 70
     0
300
1:1
140
1.0
141
1.0
290
     1
  0
SCALE
  5
49
102
{ACAD_REACTORS
330
47
102
}
330
47
100
AcDbScale
 70
     0
300
1:2
140
1.0
141
2.0
290
     0
  0
SCALE
  5
4A
102
{ACAD_REACTORS
330
47
102
}
330
47
100
AcDbScale
 70
     0
300
1:4
140
1.0
141
4.0
290
     0
  0
SCALE
  5
4B
102
{ACAD_REACTORS
330
47
102
}
330
47
100
AcDbScale
 70
     0
300
1:5
140
1.0
141
5.0
290
     0
  0
SCALE
  5
4C
102
{ACAD_REACTORS
330
47
102
}
330
47
100
AcDbScale
 70
     0
300
1:8
140
1.0
141
8.0
290
     0
  0
SCALE
  5
4D
102
{ACAD_REACTORS
330
47
102
}
330
47
100
AcDbScale
 70
     0
300
1:10
140
1.0
141
10.0
290
     0
  0
SCALE
  5
4E
102
{ACAD_REACTORS
330
47
102
}
330
47
100
AcDbScale
 70
     0
300
1:16
140
1.0
141
16.0
290
     0
  0
SCALE
  5
4F
102
{ACAD_REACTORS
330
47
102
}
330
47
100
AcDbScale
 70
     0
300
1:20
140
1.0
141
20.0
290
     0
  0
SCALE
  5
50
102
{ACAD_REACTORS
330
47
102
}
330
47
100
AcDbScale
 70
     0
300
1:30
140
1.0
141
30.0
290
     0
  0
SCALE
  5
51
102
{ACAD_REACTORS
330
47
102
}
330
47
100
AcDbScale
 70
     0
300
1:40
140
1.0
141
40.0
290
     0
  0
SCALE
  5
52
102
{ACAD_REACTORS
330
47
102
}
330
47
100
AcDbScale
 70
     0
300
1:50
140
1.0
141
50.0
290
     0
  0
SCALE
  5
53
102
{ACAD_REACTORS
330
47
102
}
330
47
100
AcDbScale
 70
     0
300
1:100
140
1.0
141
100.0
290
     0
  0
SCALE
  5
54
102
{ACAD_REACTORS
330
47
102
}
330
47
100
AcDbScale
 70
     0
300
2:1
140
2.0
141
1.0
290
     0
  0
SCALE
  5
55
102
{ACAD_REACTORS
330
47
102
}
330
47
100
AcDbScale
 70
     0
300
4:1
140
4.0
141
1.0
290
     0
  0
SCALE
  5
56
102
{ACAD_REACTORS
330
47
102
}
330
47
100
AcDbScale
 70
     0
300
8:1
140
8.0
141
1.0
290
     0
  0
SCALE
  5
57
102
{ACAD_REACTORS
330
47
102
}
330
47
100
AcDbScale
 70
     0
300
10:1
140
10.0
141
1.0
290
     0
  0
SCALE
  5
58
102
{ACAD_REACTORS
330
47
102
}
330
47
100
AcDbScale
 70
     0
300
100:1
140
100.0
141
1.0
290
     0
  0
SCALE
  5
59
102
{ACAD_REACTORS
330
47
102
}
330
47
100
AcDbScale
 70
     0
300
1/128" = 1'-0"
140
0.0078125
141
12.0
290
     0
  0
SCALE
  5
5A
102
{ACAD_REACTORS
330
47
102
}
330
47
100
AcDbScale
 70
     0
300
1/64" = 1'-0"
140
0.015625
141
12.0
290
     0
  0
SCALE
  5
5B
102
{ACAD_REACTORS
330
47
102
}
330
47
100
AcDbScale
 70
     0
300
1/32" = 1'-0"
140
0.03125
141
12.0
290
     0
  0
SCALE
  5
5C
102
{ACAD_REACTORS
330
47
102
}
330
47
100
AcDbScale
 70
     0
300
1/16" = 1'-0"
140
0.0625
141
12.0
290
     0
  0
SCALE
  5
5D
102
{ACAD_REACTORS
330
47
102
}
330
47
100
AcDbScale
 70
     0
300
3/32" = 1'-0"
140
0.09375
141
12.0
290
     0
  0
SCALE
  5
5E
102
{ACAD_REACTORS
330
47
102
}
330
47
100
AcDbScale
 70
     0
300
1/8" = 1'-0"
140
0.125
141
12.0
290
     0
  0
SCALE
  5
5F
102
{ACAD_REACTORS
330
47
102
}
330
47
100
AcDbScale
 70
     0
300
3/16" = 1'-0"
140
0.1875
141
12.0
290
     0
  0
SCALE
  5
60
102
{ACAD_REACTORS
330
47
102
}
330
47
100
AcDbScale
 70
     0
300
1/4" = 1'-0"
140
0.25
141
12.0
290
     0
  0
SCALE
  5
61
102
{ACAD_REACTORS
330
47
102
}
330
47
100
AcDbScale
 70
     0
300
3/8" = 1'-0"
140
0.375
141
12.0
290
     0
  0
SCALE
  5
62
102
{ACAD_REACTORS
330
47
102
}
330
47
100
AcDbScale
 70
     0
300
1/2" = 1'-0"
140
0.5
141
12.0
290
     0
  0
SCALE
  5
63
102
{ACAD_REACTORS
330
47
102
}
330
47
100
AcDbScale
 70
     0
300
3/4" = 1'-0"
140
0.75
141
12.0
290
     0
  0
SCALE
  5
64
102
{ACAD_REACTORS
330
47
102
}
330
47
100
AcDbScale
 70
     0
300
1" = 1'-0"
140
1.0
141
12.0
290
     0
  0
SCALE
  5
65
102
{ACAD_REACTORS
330
47
102
}
330
47
100
AcDbScale
 70
     0
300
1-1/2" = 1'-0"
140
1.5
141
12.0
290
     0
  0
SCALE
  5
66
102
{ACAD_REACTORS
330
47
102
}
330
47
100
AcDbScale
 70
     0
300
3" = 1'-0"
140
3.0
141
12.0
290
     0
  0
SCALE
  5
67
102
{ACAD_REACTORS
330
47
102
}
330
47
100
AcDbScale
 70
     0
300
6" = 1'-0"
140
6.0
141
12.0
290
     0
  0
SCALE
  5
68
102
{ACAD_REACTORS
330
47
102
}
330
47
100
AcDbScale
 70
     0
300
1'-0" = 1'-0"
140
12.0
141
12.0
290
     0
  0
ENDSEC
  0
EOF
