  0
SECTION
  2
HEADER
  9
$ACADVER
  1
AC1015
  9
$ACADMAINTVER
 70
     6
  9
$DWGCODEPAGE
  3
ANSI_1252
  9
$INSBASE
 10
0.0
 20
0.0
 30
0.0
  9
$EXTMIN
 10
0.0
 20
0.0
 30
0.0
  9
$EXTMAX
 10
420.0
 20
297.0
 30
0.0
  9
$LIMMIN
 10
0.0
 20
0.0
  9
$LIMMAX
 10
420.0
 20
297.0
  9
$ORTHOMODE
 70
     0
  9
$REGENMODE
 70
     1
  9
$FILLMODE
 70
     1
  9
$QTEXTMODE
 70
     0
  9
$MIRRTEXT
 70
     1
  9
$LTSCALE
 40
1.0
  9
$ATTMODE
 70
     1
  9
$TEXTSIZE
 40
3.5
  9
$TRACEWID
 40
1.0
  9
$TEXTSTYLE
  7
Standard
  9
$CLAYER
  8
0
  9
$CELTYPE
  6
ByLayer
  9
$CECOLOR
 62
   256
  9
$CELTSCALE
 40
1.0
  9
$DISPSILH
 70
     0
  9
$DIMSCALE
 40
1.0
  9
$DIMASZ
 40
6.0
  9
$DIMEXO
 40
1.0
  9
$DIMDLI
 40
3.75
  9
$DIMRND
 40
0.0
  9
$DIMDLE
 40
0.0
  9
$DIMEXE
 40
1.0
  9
$DIMTP
 40
0.0
  9
$DIMTM
 40
0.0
  9
$DIMTXT
 40
3.5
  9
$DIMCEN
 40
2.5
  9
$DIMTSZ
 40
0.0
  9
$DIMTOL
 70
     0
  9
$DIMLIM
 70
     0
  9
$DIMTIH
 70
     1
  9
$DIMTOH
 70
     1
  9
$DIMSE1
 70
     0
  9
$DIMSE2
 70
     0
  9
$DIMTAD
 70
     1
  9
$DIMZIN
 70
     0
  9
$DIMBLK
  1

  9
$DIMASO
 70
     1
  9
$DIMSHO
 70
     1
  9
$DIMPOST
  1

  9
$DIMAPOST
  1

  9
$DIMALT
 70
     0
  9
$DIMALTD
 70
     3
  9
$DIMALTF
 40
0.0393700787
  9
$DIMLFAC
 40
5.0
  9
$DIMTOFL
 70
     1
  9
$DIMTVP
 40
0.0
  9
$DIMTIX
 70
     0
  9
$DIMSOXD
 70
     0
  9
$DIMSAH
 70
     0
  9
$DIMBLK1
  1

  9
$DIMBLK2
  1

  9
$DIMSTYLE
  2
ISO-25
  9
$DIMCLRD
 70
     0
  9
$DIMCLRE
 70
     0
  9
$DIMCLRT
 70
     0
  9
$DIMTFAC
 40
1.0
  9
$DIMGAP
 40
1.524
  9
$DIMJUST
 70
     0
  9
$DIMSD1
 70
     0
  9
$DIMSD2
 70
     0
  9
$DIMTOLJ
 70
     0
  9
$DIMTZIN
 70
     0
  9
$DIMALTZ
 70
     0
  9
$DIMALTTZ
 70
     0
  9
$DIMUPT
 70
     0
  9
$DIMDEC
 70
     1
  9
$DIMTDEC
 70
     1
  9
$DIMALTU
 70
     2
  9
$DIMALTTD
 70
     3
  9
$DIMTXSTY
  7
Standard
  9
$DIMAUNIT
 70
     0
  9
$DIMADEC
 70
     1
  9
$DIMALTRND
 40
0.0
  9
$DIMAZIN
 70
     0
  9
$DIMDSEP
 70
    44
  9
$DIMATFIT
 70
     3
  9
$DIMFRAC
 70
     0
  9
$DIMLDRBLK
  1

  9
$DIMLUNIT
 70
     2
  9
$DIMLWD
 70
    -2
  9
$DIMLWE
 70
    -2
  9
$DIMTMOVE
 70
     0
  9
$LUNITS
 70
     2
  9
$LUPREC
 70
     1
  9
$SKETCHINC
 40
1.0
  9
$FILLETRAD
 40
10.0
  9
$AUNITS
 70
     0
  9
$AUPREC
 70
     1
  9
$MENU
  1
.
  9
$ELEVATION
 40
0.0
  9
$PELEVATION
 40
0.0
  9
$THICKNESS
 40
0.0
  9
$LIMCHECK
 70
     0
  9
$CHAMFERA
 40
0.0
  9
$CHAMFERB
 40
0.0
  9
$CHAMFERC
 40
0.0
  9
$CHAMFERD
 40
0.0
  9
$SKPOLY
 70
     0
  9
$TDCREATE
 40
2457310.39953662
  9
$TDUCREATE
 40
2457310.27453662
  9
$TDUPDATE
 40
2457310.39953713
  9
$TDUUPDATE
 40
2457310.27453713
  9
$TDINDWG
 40
0.0000000116
  9
$TDUSRTIMER
 40
0.0000000116
  9
$USRTIMER
 70
     1
  9
$ANGBASE
 50
0.0
  9
$ANGDIR
 70
     0
  9
$PDMODE
 70
     0
  9
$PDSIZE
 40
-1.0
  9
$PLINEWID
 40
0.0
  9
$SPLFRAME
 70
     0
  9
$SPLINETYPE
 70
     6
  9
$SPLINESEGS
 70
     8
  9
$HANDSEED
  5
323
  9
$SURFTAB1
 70
     6
  9
$SURFTAB2
 70
     6
  9
$SURFTYPE
 70
     6
  9
$SURFU
 70
     6
  9
$SURFV
 70
     6
  9
$UCSBASE
  2

  9
$UCSNAME
  2

  9
$UCSORG
 10
0.0
 20
0.0
 30
0.0
  9
$UCSXDIR
 10
1.0
 20
0.0
 30
0.0
  9
$UCSYDIR
 10
0.0
 20
1.0
 30
0.0
  9
$UCSORTHOREF
  2

  9
$UCSORTHOVIEW
 70
     0
  9
$UCSORGTOP
 10
0.0
 20
0.0
 30
0.0
  9
$UCSORGBOTTOM
 10
0.0
 20
0.0
 30
0.0
  9
$UCSORGLEFT
 10
0.0
 20
0.0
 30
0.0
  9
$UCSORGRIGHT
 10
0.0
 20
0.0
 30
0.0
  9
$UCSORGFRONT
 10
0.0
 20
0.0
 30
0.0
  9
$UCSORGBACK
 10
0.0
 20
0.0
 30
0.0
  9
$PUCSBASE
  2

  9
$PUCSNAME
  2

  9
$PUCSORG
 10
0.0
 20
0.0
 30
0.0
  9
$PUCSXDIR
 10
1.0
 20
0.0
 30
0.0
  9
$PUCSYDIR
 10
0.0
 20
1.0
 30
0.0
  9
$PUCSORTHOREF
  2

  9
$PUCSORTHOVIEW
 70
     0
  9
$PUCSORGTOP
 10
0.0
 20
0.0
 30
0.0
  9
$PUCSORGBOTTOM
 10
0.0
 20
0.0
 30
0.0
  9
$PUCSORGLEFT
 10
0.0
 20
0.0
 30
0.0
  9
$PUCSORGRIGHT
 10
0.0
 20
0.0
 30
0.0
  9
$PUCSORGFRONT
 10
0.0
 20
0.0
 30
0.0
  9
$PUCSORGBACK
 10
0.0
 20
0.0
 30
0.0
  9
$USERI1
 70
     0
  9
$USERI2
 70
     0
  9
$USERI3
 70
     0
  9
$USERI4
 70
     0
  9
$USERI5
 70
     0
  9
$USERR1
 40
0.0
  9
$USERR2
 40
0.0
  9
$USERR3
 40
0.0
  9
$USERR4
 40
0.0
  9
$USERR5
 40
0.0
  9
$WORLDVIEW
 70
     1
  9
$SHADEDGE
 70
     3
  9
$SHADEDIF
 70
    70
  9
$TILEMODE
 70
     1
  9
$MAXACTVP
 70
    64
  9
$PINSBASE
 10
0.0
 20
0.0
 30
0.0
  9
$PLIMCHECK
 70
     0
  9
$PEXTMIN
 10
1.0000000000E+20
 20
1.0000000000E+20
 30
1.0000000000E+20
  9
$PEXTMAX
 10
-1.0000000000E+20
 20
-1.0000000000E+20
 30
-1.0000000000E+20
  9
$PLIMMIN
 10
0.0
 20
0.0
  9
$PLIMMAX
 10
420.0
 20
297.0
  9
$UNITMODE
 70
     0
  9
$VISRETAIN
 70
     1
  9
$PLINEGEN
 70
     0
  9
$PSLTSCALE
 70
     1
  9
$TREEDEPTH
 70
  3020
  9
$CMLSTYLE
  2
Standard
  9
$CMLJUST
 70
     0
  9
$CMLSCALE
 40
20.0
  9
$PROXYGRAPHICS
 70
     1
  9
$MEASUREMENT
 70
     1
  9
$CELWEIGHT
370
    -1
  9
$ENDCAPS
280
     0
  9
$JOINSTYLE
280
     0
  9
$LWDISPLAY
290
     1
  9
$INSUNITS
 70
     4
  9
$HYPERLINKBASE
  1

  9
$STYLESHEET
  1

  9
$XEDIT
290
     1
  9
$CEPSNTYPE
380
     0
  9
$PSTYLEMODE
290
     1
  9
$FINGERPRINTGUID
  2
{D3E5565F-D773-4303-9757-FB0FD29A2C98}
  9
$VERSIONGUID
  2
{FAEB1C32-E019-11D5-929B-00C0DF256EC4}
  9
$EXTNAMES
290
     1
  9
$PSVPSCALE
 40
0.0
  9
$OLESTARTUP
290
     0
  0
ENDSEC
  0
SECTION
  2
CLASSES
  0
CLASS
  1
ACDBDICTIONARYWDFLT
  2
AcDbDictionaryWithDefault
  3
ObjectDBX Classes
 90
        0
280
     0
281
     0
  0
CLASS
  1
VISUALSTYLE
  2
AcDbVisualStyle
  3
ObjectDBX Classes
 90
     4095
280
     0
281
     0
  0
CLASS
  1
MATERIAL
  2
AcDbMaterial
  3
ObjectDBX Classes
 90
     1153
280
     0
281
     0
  0
CLASS
  1
SCALE
  2
AcDbScale
  3
ObjectDBX Classes
 90
     1153
280
     0
281
     0
  0
CLASS
  1
SUN
  2
AcDbSun
  3
SCENEOE
 90
     1153
280
     0
281
     0
  0
CLASS
  1
ACDBPLACEHOLDER
  2
AcDbPlaceHolder
  3
ObjectDBX Classes
 90
        0
280
     0
281
     0
  0
CLASS
  1
LAYOUT
  2
AcDbLayout
  3
ObjectDBX Classes
 90
        0
280
     0
281
     0
  0
ENDSEC
  0
SECTION
  2
TABLES
  0
TABLE
  2
VPORT
  5
8
330
0
100
AcDbSymbolTable
 70
     1
  0
VPORT
  5
29
330
8
100
AcDbSymbolTableRecord
100
AcDbViewportTableRecord
  2
*Active
 70
     0
 10
0.0
 20
0.0
 11
1.0
 21
1.0
 12
210.0
 22
148.5
 13
0.0
 23
0.0
 14
10.0
 24
10.0
 15
10.0
 25
10.0
 16
0.0
 26
0.0
 36
1.0
 17
0.0
 27
0.0
 37
0.0
 40
297.0
 41
1.4141414141
 42
50.0
 43
0.0
 44
0.0
 50
0.0
 51
0.0
 71
     0
 72
  2000
 73
     1
 74
     3
 75
     0
 76
     0
 77
     0
 78
     0
281
     0
 65
     1
110
0.0
120
0.0
130
0.0
111
1.0
121
0.0
131
0.0
112
0.0
122
1.0
132
0.0
 79
     0
146
0.0
  0
ENDTAB
  0
TABLE
  2
LTYPE
  5
5
330
0
100
AcDbSymbolTable
 70
     6
  0
LTYPE
  5
14
330
5
100
AcDbSymbolTableRecord
100
AcDbLinetypeTableRecord
  2
ByBlock
 70
     0
  3

 72
    65
 73
     0
 40
0.0
  0
LTYPE
  5
15
330
5
100
AcDbSymbolTableRecord
100
AcDbLinetypeTableRecord
  2
ByLayer
 70
     0
  3

 72
    65
 73
     0
 40
0.0
  0
LTYPE
  5
16
330
5
100
AcDbSymbolTableRecord
100
AcDbLinetypeTableRecord
  2
Continuous
 70
     0
  3
Solid line
 72
    65
 73
     0
 40
0.0
  0
LTYPE
  5
6A
330
5
100
AcDbSymbolTableRecord
100
AcDbLinetypeTableRecord
  2
HIDDEN
 70
     0
  3
Hidden __ __ __ __ __ __ __ __ __ __ __ __ __ __
 72
    65
 73
     2
 40
1.905
 49
1.27
 74
     0
 49
-0.635
 74
     0
  0
LTYPE
  5
6B
330
5
100
AcDbSymbolTableRecord
100
AcDbLinetypeTableRecord
  2
PHANTOM
 70
     0
  3
Phantom ______  __  __  ______  __  __  ______
 72
    65
 73
     6
 40
12.7
 49
6.35
 74
     0
 49
-1.27
 74
     0
 49
1.27
 74
     0
 49
-1.27
 74
     0
 49
1.27
 74
     0
 49
-1.27
 74
     0
  0
LTYPE
  5
6C
330
5
100
AcDbSymbolTableRecord
100
AcDbLinetypeTableRecord
  2
CENTER
 70
     0
  3
Center ____ _ ____ _ ____ _ ____ _ ____ _ ____
 72
    65
 73
     4
 40
10.16
 49
6.35
 74
     0
 49
-1.27
 74
     0
 49
1.27
 74
     0
 49
-1.27
 74
     0
  0
LTYPE
  5
6D
330
5
100
AcDbSymbolTableRecord
100
AcDbLinetypeTableRecord
  2
CENTERX2
 70
     0
  3
Center (2x) ________  __  ________  __  _____
 72
    65
 73
     4
 40
20.32
 49
12.7
 74
     0
 49
-2.54
 74
     0
 49
2.54
 74
     0
 49
-2.54
 74
     0
  0
LTYPE
  5
6E
330
5
100
AcDbSymbolTableRecord
100
AcDbLinetypeTableRecord
  2
DOT2
 70
     0
  3
Dot (.5x) ........................................
 72
    65
 73
     2
 40
0.635
 49
0.0
 74
     0
 49
-0.635
 74
     0
  0
ENDTAB
  0
TABLE
  2
LAYER
  5
2
330
0
100
AcDbSymbolTable
 70
     1
  0
LAYER
  5
10
330
2
100
AcDbSymbolTableRecord
100
AcDbLayerTableRecord
  2
0
 70
     0
 62
     7
  6
Continuous
370
    -3
390
F
  0
ENDTAB
  0
TABLE
  2
STYLE
  5
3
330
0
100
AcDbSymbolTable
 70
     1
  0
STYLE
  5
11
330
3
100
AcDbSymbolTableRecord
100
AcDbTextStyleTableRecord
  2
Standard
 70
     0
 40
0.0
 41
1.0
 50
0.0
 71
     0
 42
3.5
  3
txt
  4

  0
ENDTAB
  0
TABLE
  2
VIEW
  5
6
330
0
100
AcDbSymbolTable
 70
     0
  0
ENDTAB
  0
TABLE
  2
UCS
  5
7
330
0
100
AcDbSymbolTable
 70
     0
  0
ENDTAB
  0
TABLE
  2
APPID
  5
9
330
0
100
AcDbSymbolTable
 70
     1
  0
APPID
  5
12
330
9
100
AcDbSymbolTableRecord
100
AcDbRegAppTableRecord
  2
ACAD
 70
     0
  0
ENDTAB
  0
TABLE
  2
DIMSTYLE
  5
A
330
0
100
AcDbSymbolTable
 70
     1
100
AcDbDimStyleTable
  0
DIMSTYLE
105
27
330
A
100
AcDbSymbolTableRecord
100
AcDbDimStyleTableRecord
  2
ISO-25
 70
     0
 41
2.5
 42
0.625
 43
3.75
 44
1.25
 73
     0
 74
     0
 77
     1
 78
     8
140
2.5
141
2.5
143
0.0393700787
147
0.625
171
     3
172
     1
178
     0
271
     2
272
     2
274
     3
278
    44
283
     0
284
     8
340
11
  0
ENDTAB
  0
TABLE
  2
BLOCK_RECORD
  5
1
330
0
100
AcDbSymbolTable
 70
     1
  0
BLOCK_RECORD
  5
1F
330
1
100
AcDbSymbolTableRecord
100
AcDbBlockTableRecord
  2
*Model_Space
340
22
  0
BLOCK_RECORD
  5
1B
330
1
100
AcDbSymbolTableRecord
100
AcDbBlockTableRecord
  2
*Paper_Space
340
1E
  0
BLOCK_RECORD
  5
23
330
1
100
AcDbSymbolTableRecord
100
AcDbBlockTableRecord
  2
*Paper_Space0
340
26
  0
ENDTAB
  0
ENDSEC
  0
SECTION
  2
BLOCKS
  0
BLOCK
  5
20
330
1F
100
AcDbEntity
  8
0
100
AcDbBlockBegin
  2
*Model_Space
 70
     0
 10
0.0
 20
0.0
 30
0.0
  3
*Model_Space
  1
*Model_Space
  0
ENDBLK
  5
21
330
1F
100
AcDbEntity
  8
0
100
AcDbBlockEnd
  0
BLOCK
  5
1C
330
1B
100
AcDbEntity
 67
     1
  8
0
100
AcDbBlockBegin
  2
*Paper_Space
 70
     0
 10
0.0
 20
0.0
 30
0.0
  3
*Paper_Space
  1
*Paper_Space
  0
ENDBLK
  5
1D
330
1B
100
AcDbEntity
 67
     1
  8
0
100
AcDbBlockEnd
  0
BLOCK
  5
24
330
23
100
AcDbEntity
  8
0
100
AcDbBlockBegin
  2
*Paper_Space0
 70
     0
 10
0.0
 20
0.0
 30
0.0
  3
*Paper_Space0
  1
*Paper_Space0
  0
ENDBLK
  5
25
330
23
100
AcDbEntity
  8
0
100
AcDbBlockEnd
  0
ENDSEC
  0
SECTION
  2
ENTITIES
  0
LINE
  5
6F
330
1F
100
AcDbEntity
  8
0
  6
Continuous
 62
     7
370
    15
100
AcDbLine
 10
329.6451106925
 20
222.6514677245
 30
0.0
 11
329.6450618809
 21
222.6829567562
 31
0.0
  0
LINE
  5
70
330
1F
100
AcDbEntity
  8
0
  6
Continuous
 62
     7
370
    15
100
AcDbLine
 10
329.6765997242
 20
222.6514189129
 30
0.0
 11
329.6451106925
 21
222.6514677245
 31
0.0
  0
LINE
  5
71
330
1F
100
AcDbEntity
  8
0
  6
Continuous
 62
     7
370
    15
100
AcDbLine
 10
329.6765997242
 20
87.2898763941
 30
0.0
 11
329.6765997242
 21
222.6514189129
 31
0.0
  0
LINE
  5
72
330
1F
100
AcDbEntity
  8
0
  6
Continuous
 62
     7
370
    15
100
AcDbLine
 10
329.6451106925
 20
87.2898275825
 30
0.0
 11
329.6765997242
 21
87.2898763941
 31
0.0
  0
LINE
  5
73
330
1F
100
AcDbEntity
  8
0
  6
Continuous
 62
     7
370
    15
100
AcDbLine
 10
329.6450618809
 20
87.2583385508
 30
0.0
 11
329.6451106925
 21
87.2898275825
 31
0.0
  0
LINE
  5
74
330
1F
100
AcDbEntity
  8
0
  6
Continuous
 62
     7
370
    15
100
AcDbLine
 10
114.2835193621
 20
87.2583385508
 30
0.0
 11
329.6450618809
 21
87.2583385508
 31
0.0
  0
LINE
  5
75
330
1F
100
AcDbEntity
  8
0
  6
Continuous
 62
     7
370
    15
100
AcDbLine
 10
114.2834705505
 20
87.2898275825
 30
0.0
 11
114.2835193621
 21
87.2583385508
 31
0.0
  0
LINE
  5
76
330
1F
100
AcDbEntity
  8
0
  6
Continuous
 62
     7
370
    15
100
AcDbLine
 10
114.2519815188
 20
87.2898763941
 30
0.0
 11
114.2834705505
 21
87.2898275825
 31
0.0
  0
LINE
  5
77
330
1F
100
AcDbEntity
  8
0
  6
Continuous
 62
     7
370
    15
100
AcDbLine
 10
114.2519815188
 20
222.6514189129
 30
0.0
 11
114.2519815188
 21
87.2898763941
 31
0.0
  0
LINE
  5
78
330
1F
100
AcDbEntity
  8
0
  6
Continuous
 62
     7
370
    15
100
AcDbLine
 10
114.2834705505
 20
222.6514677245
 30
0.0
 11
114.2519815188
 21
222.6514189129
 31
0.0
  0
LINE
  5
79
330
1F
100
AcDbEntity
  8
0
  6
Continuous
 62
     7
370
    15
100
AcDbLine
 10
114.2835193621
 20
222.6829567562
 30
0.0
 11
114.2834705505
 21
222.6514677245
 31
0.0
  0
LINE
  5
7A
330
1F
100
AcDbEntity
  8
0
  6
Continuous
 62
     7
370
    15
100
AcDbLine
 10
329.6450618809
 20
222.6829567562
 30
0.0
 11
114.2835193621
 21
222.6829567562
 31
0.0
  0
LINE
  5
7B
330
1F
100
AcDbEntity
  8
0
  6
Continuous
 62
     7
370
    15
100
AcDbLine
 10
114.7519815188
 20
87.7583385508
 30
0.0
 11
329.1765997242
 21
87.7583385508
 31
0.0
  0
LINE
  5
7C
330
1F
100
AcDbEntity
  8
0
  6
Continuous
 62
     7
370
    15
100
AcDbLine
 10
329.1765997242
 20
87.7583385508
 30
0.0
 11
329.1765997242
 21
222.1829567562
 31
0.0
  0
LINE
  5
7D
330
1F
100
AcDbEntity
  8
0
  6
Continuous
 62
     7
370
    15
100
AcDbLine
 10
329.1765997242
 20
222.1829567562
 30
0.0
 11
114.7519815188
 21
222.1829567562
 31
0.0
  0
LINE
  5
7E
330
1F
100
AcDbEntity
  8
0
  6
Continuous
 62
     7
370
    15
100
AcDbLine
 10
114.7519815188
 20
222.1829567562
 30
0.0
 11
114.7519815188
 21
87.7583385508
 31
0.0
  0
LINE
  5
7F
330
1F
100
AcDbEntity
  8
0
  6
Continuous
 62
     7
370
    15
100
AcDbLine
 10
102.1286080654
 20
87.2898763941
 30
0.0
 11
114.2519815188
 21
87.2898763941
 31
0.0
  0
LINE
  5
80
330
1F
100
AcDbEntity
  8
0
  6
Continuous
 62
     7
370
    15
100
AcDbLine
 10
102.1286080654
 20
222.6514189129
 30
0.0
 11
102.1286080654
 21
87.2898763941
 31
0.0
  0
LINE
  5
81
330
1F
100
AcDbEntity
  8
0
  6
Continuous
 62
     7
370
    15
100
AcDbLine
 10
102.1286080654
 20
222.6514189129
 30
0.0
 11
114.2519815188
 21
222.6514189129
 31
0.0
  0
LINE
  5
82
330
1F
100
AcDbEntity
  8
0
  6
Continuous
 62
     7
370
    15
100
AcDbLine
 10
329.6451106925
 20
222.6514677245
 30
0.0
 11
329.6765997242
 21
222.6829567562
 31
0.0
  0
LINE
  5
83
330
1F
100
AcDbEntity
  8
0
  6
Continuous
 62
     7
370
    15
100
AcDbLine
 10
329.6765997242
 20
222.6829567562
 30
0.0
 11
343.6072203279
 21
222.6829567562
 31
0.0
  0
LINE
  5
84
330
1F
100
AcDbEntity
  8
0
  6
Continuous
 62
     7
370
    15
100
AcDbLine
 10
343.6072181591
 20
222.6829553303
 30
0.0
 11
343.6072203279
 21
222.6829567562
 31
0.0
  0
LINE
  5
85
330
1F
100
AcDbEntity
  8
0
  6
Continuous
 62
     7
370
    15
100
AcDbLine
 10
341.7999731776
 20
222.6514189129
 30
0.0
 11
343.6072181591
 21
222.6829553303
 31
0.0
  0
LINE
  5
86
330
1F
100
AcDbEntity
  8
0
  6
Continuous
 62
     7
370
    15
100
AcDbLine
 10
341.7999731776
 20
222.6514189129
 30
0.0
 11
329.6765997242
 21
222.6514189129
 31
0.0
  0
LINE
  5
87
330
1F
100
AcDbEntity
  8
0
  6
Continuous
 62
     7
370
    15
100
AcDbLine
 10
114.7694365838
 20
87.7757936157
 30
0.0
 11
114.7519815188
 21
87.7583385508
 31
0.0
  0
LINE
  5
88
330
1F
100
AcDbEntity
  8
0
  6
Continuous
 62
     7
370
    15
100
AcDbLine
 10
114.7694365838
 20
87.7757936157
 30
0.0
 11
329.1591446593
 21
87.7757936157
 31
0.0
  0
LINE
  5
89
330
1F
100
AcDbEntity
  8
0
  6
Continuous
 62
     7
370
    15
100
AcDbLine
 10
329.1591446593
 20
87.7757936157
 30
0.0
 11
329.1765997242
 21
87.7583385508
 31
0.0
  0
LINE
  5
8A
330
1F
100
AcDbEntity
  8
0
  6
Continuous
 62
     7
370
    15
100
AcDbLine
 10
341.7999731776
 20
87.2898763941
 30
0.0
 11
341.7999731776
 21
222.6514189129
 31
0.0
  0
LINE
  5
8B
330
1F
100
AcDbEntity
  8
0
  6
Continuous
 62
     7
370
    15
100
AcDbLine
 10
341.7999731776
 20
87.2898763941
 30
0.0
 11
329.6765997242
 21
87.2898763941
 31
0.0
  0
LINE
  5
8C
330
1F
100
AcDbEntity
  8
0
  6
Continuous
 62
     7
370
    15
100
AcDbLine
 10
114.2519815188
 20
222.6829567562
 30
0.0
 11
100.3213609152
 21
222.6829567562
 31
0.0
  0
LINE
  5
8D
330
1F
100
AcDbEntity
  8
0
  6
Continuous
 62
     7
370
    15
100
AcDbLine
 10
114.2834705505
 20
222.6514677245
 30
0.0
 11
114.2519815188
 21
222.6829567562
 31
0.0
  0
LINE
  5
8E
330
1F
100
AcDbEntity
  8
0
  6
Continuous
 62
     7
370
    15
100
AcDbLine
 10
100.3213630839
 20
222.6829553303
 30
0.0
 11
102.1286080654
 21
222.6514189129
 31
0.0
  0
LINE
  5
8F
330
1F
100
AcDbEntity
  8
0
  6
Continuous
 62
     7
370
    15
100
AcDbLine
 10
100.3213609152
 20
222.6829567562
 30
0.0
 11
100.3213630839
 21
222.6829553303
 31
0.0
  0
LINE
  5
90
330
1F
100
AcDbEntity
  8
0
  6
Continuous
 62
     7
370
    15
100
AcDbLine
 10
329.1591446593
 20
222.1655016913
 30
0.0
 11
329.1765997242
 21
222.1829567562
 31
0.0
  0
LINE
  5
91
330
1F
100
AcDbEntity
  8
0
  6
Continuous
 62
     7
370
    15
100
AcDbLine
 10
329.1591446593
 20
222.1655016913
 30
0.0
 11
114.7694365838
 21
222.1655016913
 31
0.0
  0
LINE
  5
92
330
1F
100
AcDbEntity
  8
0
  6
Continuous
 62
     7
370
    15
100
AcDbLine
 10
114.7694365838
 20
222.1655016913
 30
0.0
 11
114.7519815188
 21
222.1829567562
 31
0.0
  0
LINE
  5
93
330
1F
100
AcDbEntity
  8
0
  6
Continuous
 62
     7
370
    15
100
AcDbLine
 10
329.1591446593
 20
87.7757936157
 30
0.0
 11
329.1591446593
 21
222.1655016913
 31
0.0
  0
LINE
  5
94
330
1F
100
AcDbEntity
  8
0
  6
Continuous
 62
     7
370
    15
100
AcDbLine
 10
229.2952424063
 20
223.1818392204
 30
0.0
 11
214.6333388367
 21
223.1818392204
 31
0.0
  0
LINE
  5
95
330
1F
100
AcDbEntity
  8
0
  6
Continuous
 62
     7
370
    15
100
AcDbLine
 10
229.2952424063
 20
234.8063302096
 30
0.0
 11
229.2952424063
 21
223.1818392204
 31
0.0
  0
LINE
  5
96
330
1F
100
AcDbEntity
  8
0
  6
Continuous
 62
     7
370
    15
100
AcDbLine
 10
329.645061884
 20
234.8063302096
 30
0.0
 11
229.2952424063
 21
234.8063302096
 31
0.0
  0
LINE
  5
97
330
1F
100
AcDbEntity
  8
0
  6
Continuous
 62
     7
370
    15
100
AcDbLine
 10
329.6450618809
 20
222.6829567562
 30
0.0
 11
329.645061884
 21
234.8063302096
 31
0.0
  0
LINE
  5
98
330
1F
100
AcDbEntity
  8
0
  6
Continuous
 62
     7
370
    15
100
AcDbLine
 10
114.2835193621
 20
222.6829567562
 30
0.0
 11
114.283519359
 21
234.8063302096
 31
0.0
  0
LINE
  5
99
330
1F
100
AcDbEntity
  8
0
  6
Continuous
 62
     7
370
    15
100
AcDbLine
 10
214.6333388367
 20
234.8063302096
 30
0.0
 11
114.283519359
 21
234.8063302096
 31
0.0
  0
LINE
  5
9A
330
1F
100
AcDbEntity
  8
0
  6
Continuous
 62
     7
370
    15
100
AcDbLine
 10
214.6333388367
 20
234.8063302096
 30
0.0
 11
214.6333388367
 21
223.1818392204
 31
0.0
  0
LINE
  5
9B
330
1F
100
AcDbEntity
  8
0
  6
Continuous
 62
     7
370
    15
100
AcDbLine
 10
114.7694365838
 20
222.1655016913
 30
0.0
 11
114.7694365838
 21
87.7757936157
 31
0.0
  0
LINE
  5
9C
330
1F
100
AcDbEntity
  8
0
  6
Continuous
 62
     7
370
    15
100
AcDbLine
 10
229.2952424063
 20
86.7594560866
 30
0.0
 11
214.6333388367
 21
86.7594560866
 31
0.0
  0
LINE
  5
9D
330
1F
100
AcDbEntity
  8
0
  6
Continuous
 62
     7
370
    15
100
AcDbLine
 10
214.6333388367
 20
86.7594560866
 30
0.0
 11
214.6333388367
 21
75.1349650974
 31
0.0
  0
LINE
  5
9E
330
1F
100
AcDbEntity
  8
0
  6
Continuous
 62
     7
370
    15
100
AcDbLine
 10
114.283519359
 20
75.1349650974
 30
0.0
 11
214.6333388367
 21
75.1349650974
 31
0.0
  0
LINE
  5
9F
330
1F
100
AcDbEntity
  8
0
  6
Continuous
 62
     7
370
    15
100
AcDbLine
 10
114.2835193621
 20
87.2583385508
 30
0.0
 11
114.283519359
 21
75.1349650974
 31
0.0
  0
LINE
  5
A0
330
1F
100
AcDbEntity
  8
0
  6
Continuous
 62
     7
370
    15
100
AcDbLine
 10
329.6450618809
 20
87.2583385508
 30
0.0
 11
329.645061884
 21
75.1349650974
 31
0.0
  0
LINE
  5
A1
330
1F
100
AcDbEntity
  8
0
  6
Continuous
 62
     7
370
    15
100
AcDbLine
 10
229.2952424063
 20
75.1349650974
 30
0.0
 11
329.645061884
 21
75.1349650974
 31
0.0
  0
LINE
  5
A2
330
1F
100
AcDbEntity
  8
0
  6
Continuous
 62
     7
370
    15
100
AcDbLine
 10
229.2952424063
 20
86.7594560866
 30
0.0
 11
229.2952424063
 21
75.1349650974
 31
0.0
  0
LINE
  5
A3
330
1F
100
AcDbEntity
  8
0
  6
Continuous
 62
     7
370
    15
100
AcDbLine
 10
329.6765997277
 20
236.6135773599
 30
0.0
 11
329.6765997242
 21
222.6829567562
 31
0.0
  0
LINE
  5
A4
330
1F
100
AcDbEntity
  8
0
  6
Continuous
 62
     7
370
    15
100
AcDbLine
 10
329.6765983018
 20
236.6135751911
 30
0.0
 11
329.645061884
 21
234.8063302096
 31
0.0
  0
LINE
  5
A5
330
1F
100
AcDbEntity
  8
0
  6
Continuous
 62
     7
370
    15
100
AcDbLine
 10
329.6765997277
 20
236.6135773599
 30
0.0
 11
329.6765983018
 21
236.6135751911
 31
0.0
  0
LINE
  5
A6
330
1F
100
AcDbEntity
  8
0
  6
Continuous
 62
     7
370
    15
100
AcDbLine
 10
114.2519815153
 20
236.6135773599
 30
0.0
 11
114.2519815188
 21
222.6829567562
 31
0.0
  0
LINE
  5
A7
330
1F
100
AcDbEntity
  8
0
  6
Continuous
 62
     7
370
    15
100
AcDbLine
 10
114.2519815153
 20
236.6135773599
 30
0.0
 11
114.2519829412
 21
236.6135751911
 31
0.0
  0
LINE
  5
A8
330
1F
100
AcDbEntity
  8
0
  6
Continuous
 62
     7
370
    15
100
AcDbLine
 10
114.283519359
 20
234.8063302096
 30
0.0
 11
114.2519829412
 21
236.6135751911
 31
0.0
  0
LINE
  5
A9
330
1F
100
AcDbEntity
  8
0
  6
Continuous
 62
     7
370
    15
100
AcDbLine
 10
114.2519815153
 20
73.3277179471
 30
0.0
 11
114.2519815188
 21
87.2583385508
 31
0.0
  0
LINE
  5
AA
330
1F
100
AcDbEntity
  8
0
  6
Continuous
 62
     7
370
    15
100
AcDbLine
 10
114.2834705505
 20
87.2898275825
 30
0.0
 11
114.2519815188
 21
87.2583385508
 31
0.0
  0
LINE
  5
AB
330
1F
100
AcDbEntity
  8
0
  6
Continuous
 62
     7
370
    15
100
AcDbLine
 10
114.2519829412
 20
73.3277201159
 30
0.0
 11
114.283519359
 21
75.1349650974
 31
0.0
  0
LINE
  5
AC
330
1F
100
AcDbEntity
  8
0
  6
Continuous
 62
     7
370
    15
100
AcDbLine
 10
114.2519829412
 20
73.3277201159
 30
0.0
 11
114.2519815153
 21
73.3277179471
 31
0.0
  0
LINE
  5
AD
330
1F
100
AcDbEntity
  8
0
  6
Continuous
 62
     7
370
    15
100
AcDbLine
 10
329.6765997242
 20
87.2583385508
 30
0.0
 11
343.6072203279
 21
87.2583385508
 31
0.0
  0
LINE
  5
AE
330
1F
100
AcDbEntity
  8
0
  6
Continuous
 62
     7
370
    15
100
AcDbLine
 10
329.6451106925
 20
87.2898275825
 30
0.0
 11
329.6765997242
 21
87.2583385508
 31
0.0
  0
LINE
  5
AF
330
1F
100
AcDbEntity
  8
0
  6
Continuous
 62
     7
370
    15
100
AcDbLine
 10
343.6072181591
 20
87.2583399767
 30
0.0
 11
341.7999731776
 21
87.2898763941
 31
0.0
  0
LINE
  5
B0
330
1F
100
AcDbEntity
  8
0
  6
Continuous
 62
     7
370
    15
100
AcDbLine
 10
343.6072181591
 20
87.2583399767
 30
0.0
 11
343.6072203279
 21
87.2583385508
 31
0.0
  0
LINE
  5
B1
330
1F
100
AcDbEntity
  8
0
  6
Continuous
 62
     7
370
    15
100
AcDbLine
 10
329.6765997277
 20
73.3277179471
 30
0.0
 11
329.6765997242
 21
87.2583385508
 31
0.0
  0
LINE
  5
B2
330
1F
100
AcDbEntity
  8
0
  6
Continuous
 62
     7
370
    15
100
AcDbLine
 10
329.6765983018
 20
73.3277201159
 30
0.0
 11
329.6765997277
 21
73.3277179471
 31
0.0
  0
LINE
  5
B3
330
1F
100
AcDbEntity
  8
0
  6
Continuous
 62
     7
370
    15
100
AcDbLine
 10
329.645061884
 20
75.1349650974
 30
0.0
 11
329.6765983018
 21
73.3277201159
 31
0.0
  0
LINE
  5
B4
330
1F
100
AcDbEntity
  8
0
  6
Continuous
 62
     7
370
    15
100
AcDbLine
 10
114.2519815188
 20
87.2583385508
 30
0.0
 11
100.3213609152
 21
87.2583385508
 31
0.0
  0
LINE
  5
B5
330
1F
100
AcDbEntity
  8
0
  6
Continuous
 62
     7
370
    15
100
AcDbLine
 10
100.3213609152
 20
87.2583385508
 30
0.0
 11
100.3213630839
 21
87.2583399767
 31
0.0
  0
LINE
  5
B6
330
1F
100
AcDbEntity
  8
0
  6
Continuous
 62
     7
370
    15
100
AcDbLine
 10
102.1286080654
 20
87.2898763941
 30
0.0
 11
100.3213630839
 21
87.2583399767
 31
0.0
  0
LINE
  5
B7
330
1F
100
AcDbEntity
  8
0
  6
Continuous
 62
     7
370
    15
100
AcDbLine
 10
229.2642906215
 20
223.2129567562
 30
0.0
 11
229.2952424063
 21
223.1818392204
 31
0.0
  0
LINE
  5
B8
330
1F
100
AcDbEntity
  8
0
  6
Continuous
 62
     7
370
    15
100
AcDbLine
 10
229.2642906215
 20
236.6135773599
 30
0.0
 11
229.2642906215
 21
223.2129567562
 31
0.0
  0
LINE
  5
B9
330
1F
100
AcDbEntity
  8
0
  6
Continuous
 62
     7
370
    15
100
AcDbLine
 10
229.2642920209
 20
236.6135751911
 30
0.0
 11
229.2642906215
 21
236.6135773599
 31
0.0
  0
LINE
  5
BA
330
1F
100
AcDbEntity
  8
0
  6
Continuous
 62
     7
370
    15
100
AcDbLine
 10
229.2952424063
 20
234.8063302096
 30
0.0
 11
229.2642920209
 21
236.6135751911
 31
0.0
  0
LINE
  5
BB
330
1F
100
AcDbEntity
  8
0
  6
Continuous
 62
     7
370
    15
100
AcDbLine
 10
214.6642906215
 20
236.6135773599
 30
0.0
 11
214.6642906215
 21
223.2129567562
 31
0.0
  0
LINE
  5
BC
330
1F
100
AcDbEntity
  8
0
  6
Continuous
 62
     7
370
    15
100
AcDbLine
 10
214.6642906215
 20
223.2129567562
 30
0.0
 11
214.6333388367
 21
223.1818392204
 31
0.0
  0
LINE
  5
BD
330
1F
100
AcDbEntity
  8
0
  6
Continuous
 62
     7
370
    15
100
AcDbLine
 10
214.6642892221
 20
236.6135751911
 30
0.0
 11
214.6333388367
 21
234.8063302096
 31
0.0
  0
LINE
  5
BE
330
1F
100
AcDbEntity
  8
0
  6
Continuous
 62
     7
370
    15
100
AcDbLine
 10
214.6642892221
 20
236.6135751911
 30
0.0
 11
214.6642906215
 21
236.6135773599
 31
0.0
  0
LINE
  5
BF
330
1F
100
AcDbEntity
  8
0
  6
Continuous
 62
     7
370
    15
100
AcDbLine
 10
214.6642906215
 20
223.2129567562
 30
0.0
 11
229.2642906215
 21
223.2129567562
 31
0.0
  0
LINE
  5
C0
330
1F
100
AcDbEntity
  8
0
  6
Continuous
 62
     7
370
    15
100
AcDbLine
 10
229.2642906215
 20
86.7283385508
 30
0.0
 11
229.2952424063
 21
86.7594560866
 31
0.0
  0
LINE
  5
C1
330
1F
100
AcDbEntity
  8
0
  6
Continuous
 62
     7
370
    15
100
AcDbLine
 10
214.6642906215
 20
86.7283385508
 30
0.0
 11
229.2642906215
 21
86.7283385508
 31
0.0
  0
LINE
  5
C2
330
1F
100
AcDbEntity
  8
0
  6
Continuous
 62
     7
370
    15
100
AcDbLine
 10
214.6642906215
 20
86.7283385508
 30
0.0
 11
214.6333388367
 21
86.7594560866
 31
0.0
  0
LINE
  5
C3
330
1F
100
AcDbEntity
  8
0
  6
Continuous
 62
     7
370
    15
100
AcDbLine
 10
229.2642906215
 20
73.3277179471
 30
0.0
 11
229.2642906215
 21
86.7283385508
 31
0.0
  0
LINE
  5
C4
330
1F
100
AcDbEntity
  8
0
  6
Continuous
 62
     7
370
    15
100
AcDbLine
 10
229.2642920209
 20
73.3277201159
 30
0.0
 11
229.2952424063
 21
75.1349650974
 31
0.0
  0
LINE
  5
C5
330
1F
100
AcDbEntity
  8
0
  6
Continuous
 62
     7
370
    15
100
AcDbLine
 10
229.2642920209
 20
73.3277201159
 30
0.0
 11
229.2642906215
 21
73.3277179471
 31
0.0
  0
LINE
  5
C6
330
1F
100
AcDbEntity
  8
0
  6
Continuous
 62
     7
370
    15
100
AcDbLine
 10
214.6642906215
 20
73.3277179471
 30
0.0
 11
214.6642906215
 21
86.7283385508
 31
0.0
  0
LINE
  5
C7
330
1F
100
AcDbEntity
  8
0
  6
Continuous
 62
     7
370
    15
100
AcDbLine
 10
214.6642892221
 20
73.3277201159
 30
0.0
 11
214.6642906215
 21
73.3277179471
 31
0.0
  0
LINE
  5
C8
330
1F
100
AcDbEntity
  8
0
  6
Continuous
 62
     7
370
    15
100
AcDbLine
 10
214.6333388367
 20
75.1349650974
 30
0.0
 11
214.6642892221
 21
73.3277201159
 31
0.0
  0
LINE
  5
C9
330
1F
100
AcDbEntity
  8
0
  6
Continuous
 62
     7
370
    15
100
AcDbLine
 10
100.3213630839
 20
87.2583399767
 30
0.0
 11
100.3213630839
 21
222.6829553303
 31
0.0
  0
LINE
  5
CA
330
1F
100
AcDbEntity
  8
0
  6
Continuous
 62
     7
370
    15
100
AcDbLine
 10
343.6072181591
 20
222.6829553303
 30
0.0
 11
343.6072181591
 21
87.2583399767
 31
0.0
  0
LINE
  5
CB
330
1F
100
AcDbEntity
  8
0
  6
Continuous
 62
     7
370
    15
100
AcDbLine
 10
329.6765983018
 20
73.3277201159
 30
0.0
 11
229.2642920209
 21
73.3277201159
 31
0.0
  0
LINE
  5
CC
330
1F
100
AcDbEntity
  8
0
  6
Continuous
 62
     7
370
    15
100
AcDbLine
 10
214.6642892221
 20
73.3277201159
 30
0.0
 11
114.2519829412
 21
73.3277201159
 31
0.0
  0
LINE
  5
CD
330
1F
100
AcDbEntity
  8
0
  6
Continuous
 62
     7
370
    15
100
AcDbLine
 10
229.2642920209
 20
236.6135751911
 30
0.0
 11
329.6765983018
 21
236.6135751911
 31
0.0
  0
LINE
  5
CE
330
1F
100
AcDbEntity
  8
0
  6
Continuous
 62
     7
370
    15
100
AcDbLine
 10
114.2519829412
 20
236.6135751911
 30
0.0
 11
214.6642892221
 21
236.6135751911
 31
0.0
  0
ELLIPSE
  5
CF
330
1F
100
AcDbEntity
  8
0
  6
Continuous
 62
     7
370
    15
100
AcDbEllipse
 10
333.7291096095
 20
77.5706852952
 30
0.0
 11
3.001336073420191
 21
0.1496362782468168
 31
0.0
210
0.0
220
0.0
230
1.0
 40
0.9969390515
 41
3.09345437247195
 42
4.661589196005327
  0
LINE
  5
D0
330
1F
100
AcDbEntity
  8
0
  6
Continuous
 62
     7
370
    15
100
AcDbLine
 10
333.725693757
 20
74.5747979022
 30
0.0
 11
337.6650125736
 21
74.5715312324
 31
0.0
  0
ELLIPSE
  5
D1
330
1F
100
AcDbEntity
  8
0
  6
Continuous
 62
     7
370
    15
100
AcDbEllipse
 10
337.6688945377
 20
79.2660437373
 30
0.0
 11
3.319526638740797
 21
-3.31952663862495
 31
0.0
210
0.0
220
0.0
230
1.0
 40
0.9999976679
 41
5.496959062630583
 42
7.069411551693699
  0
LINE
  5
D2
330
1F
100
AcDbEntity
  8
0
  6
Continuous
 62
     7
370
    15
100
AcDbLine
 10
342.3601403728
 20
83.2092445216
 30
0.0
 11
342.3634070426
 21
79.2699257014
 31
0.0
  0
ELLIPSE
  5
D3
330
1F
100
AcDbEntity
  8
0
  6
Continuous
 62
     7
370
    15
100
AcDbEllipse
 10
339.3642529798
 20
83.205828669
 30
0.0
 11
0.1496362782468168
 21
3.001336073420177
 31
0.0
210
0.0
220
0.0
230
1.0
 40
0.9969390515
 41
4.763188764764082
 42
6.331323588297424
  0
LINE
  5
D4
330
1F
100
AcDbEntity
  8
0
  6
Continuous
 62
     7
370
    15
100
AcDbLine
 10
339.3697346224
 20
86.2108663361
 30
0.0
 11
333.7149663088
 21
86.2195150552
 31
0.0
  0
ELLIPSE
  5
D5
330
1F
100
AcDbEntity
  8
0
  6
Continuous
 62
     7
370
    15
100
AcDbEllipse
 10
333.7204777038
 20
83.2144605748
 30
0.0
 11
2.128467419125911
 21
-2.128467419125925
 31
0.0
210
0.0
220
0.0
230
1.0
 40
0.9966421494
 41
2.356346783439939
 42
3.926838523739677
  0
LINE
  5
D6
330
1F
100
AcDbEntity
  8
0
  6
Continuous
 62
     7
370
    15
100
AcDbLine
 10
330.7154232234
 20
83.2199719697
 30
0.0
 11
330.7240719425
 21
77.5652036526
 31
0.0
  0
LINE
  5
D7
330
1F
100
AcDbEntity
  8
0
  6
Continuous
 62
     7
370
    15
100
AcDbLine
 10
343.626793995
 20
78.9561035362
 30
0.0
 11
343.6072203279
 21
87.2583385508
 31
0.0
  0
SPLINE
  5
D8
330
1F
100
AcDbEntity
  8
0
  6
Continuous
 62
     7
370
    15
100
AcDbSpline
210
0.0
220
0.0
230
1.0
 70
     8
 71
     3
 72
    24
 73
    20
 74
     0
 42
0.000000001
 43
0.00000001
 40
0.0
 40
0.0
 40
0.0
 40
0.0
 40
0.1250000000000065
 40
0.1250000000000065
 40
0.1875000000000079
 40
0.1875000000000079
 40
0.2500000000000093
 40
0.2500000000000093
 40
0.3750000000000077
 40
0.3750000000000077
 40
0.5000000000000061
 40
0.5000000000000061
 40
0.6250000000000046
 40
0.6250000000000046
 40
0.750000000000003
 40
0.750000000000003
 40
0.8750000000000014
 40
0.8750000000000014
 40
1.0
 40
1.0
 40
1.0
 40
1.0
 10
337.9788347387723
 20
73.30814428002839
 30
0.0
 10
338.3511459705836
 20
73.30726650481466
 30
0.0
 10
338.7176614122312
 20
73.34274782683632
 30
0.0
 10
339.2590299072693
 20
73.44869534198888
 30
0.0
 10
339.4380751264176
 20
73.4928625563603
 30
0.0
 10
339.7932685659247
 20
73.59937091095236
 30
0.0
 10
339.9698458379455
 20
73.66199899316263
 30
0.0
 10
340.4835723352678
 20
73.87333504635514
 30
0.0
 10
340.8086815437729
 20
74.0461913593805
 30
0.0
 10
341.4242790799281
 20
74.45559720956487
 30
0.0
 10
341.7157484408733
 20
74.69424517640763
 30
0.0
 10
342.2378151708692
 20
75.21590736348811
 30
0.0
 10
342.4720099368141
 20
75.50080846983086
 30
0.0
 10
342.8853395553609
 20
76.11999078676288
 30
0.0
 10
343.060185366346
 20
76.44880293586411
 30
0.0
 10
343.3409113974322
 20
77.12945110353519
 30
0.0
 10
343.44872933918
 20
77.4861927149197
 30
0.0
 10
343.5921896198926
 20
78.21533211778102
 30
0.0
 10
343.6276718106031
 20
78.58377516639722
 30
0.0
 10
343.6267939949842
 20
78.95610353624025
 30
0.0
  0
LINE
  5
D9
330
1F
100
AcDbEntity
  8
0
  6
Continuous
 62
     7
370
    15
100
AcDbLine
 10
337.9788347388
 20
73.30814428
 30
0.0
 11
329.6765997277
 21
73.3277179471
 31
0.0
  0
ELLIPSE
  5
DA
330
1F
100
AcDbEntity
  8
0
  6
Continuous
 62
     7
370
    15
100
AcDbEllipse
 10
106.2596867054
 20
79.2660437373
 30
0.0
 11
3.319526638740811
 21
3.31952663862495
 31
0.0
210
0.0
220
0.0
230
1.0
 40
0.9999976679
 41
2.355366409075678
 42
3.927818898138822
  0
LINE
  5
DB
330
1F
100
AcDbEntity
  8
0
  6
Continuous
 62
     7
370
    15
100
AcDbLine
 10
110.2028874861
 20
74.5747979022
 30
0.0
 11
106.2635686695
 21
74.5715312324
 31
0.0
  0
ELLIPSE
  5
DC
330
1F
100
AcDbEntity
  8
0
  6
Continuous
 62
     7
370
    15
100
AcDbEllipse
 10
110.1994716335
 20
77.5706852952
 30
0.0
 11
3.001336073420177
 21
-0.1496362782468026
 31
0.0
210
0.0
220
0.0
230
1.0
 40
0.9969390515
 41
4.763188764764076
 42
6.331323588297424
  0
LINE
  5
DD
330
1F
100
AcDbEntity
  8
0
  6
Continuous
 62
     7
370
    15
100
AcDbLine
 10
113.2131580197
 20
83.2199719697
 30
0.0
 11
113.2045093005
 21
77.5652036526
 31
0.0
  0
ELLIPSE
  5
DE
330
1F
100
AcDbEntity
  8
0
  6
Continuous
 62
     7
370
    15
100
AcDbEllipse
 10
110.2081035393
 20
83.2144605748
 30
0.0
 11
2.128467419125926
 21
2.128467419125926
 31
0.0
210
0.0
220
0.0
230
1.0
 40
0.9966421494
 41
5.49793943702974
 42
7.068431177329451
  0
LINE
  5
DF
330
1F
100
AcDbEntity
  8
0
  6
Continuous
 62
     7
370
    15
100
AcDbLine
 10
104.5588466206
 20
86.2108663361
 30
0.0
 11
110.2136149342
 21
86.2195150552
 31
0.0
  0
ELLIPSE
  5
E0
330
1F
100
AcDbEntity
  8
0
  6
Continuous
 62
     7
370
    15
100
AcDbEllipse
 10
104.5643282632
 20
83.205828669
 30
0.0
 11
-0.1496362782468452
 21
3.001336073420177
 31
0.0
210
0.0
220
0.0
230
1.0
 40
0.9969390515
 41
6.235047026061752
 42
7.80318184959509
  0
LINE
  5
E1
330
1F
100
AcDbEntity
  8
0
  6
Continuous
 62
     7
370
    15
100
AcDbLine
 10
101.5684408702
 20
83.2092445216
 30
0.0
 11
101.5651742004
 21
79.2699257014
 31
0.0
  0
LINE
  5
E2
330
1F
100
AcDbEntity
  8
0
  6
Continuous
 62
     7
370
    15
100
AcDbLine
 10
114.2519815153
 20
73.3277179471
 30
0.0
 11
105.9497465043
 21
73.30814428
 31
0.0
  0
SPLINE
  5
E3
330
1F
100
AcDbEntity
  8
0
  6
Continuous
 62
     7
370
    15
100
AcDbSpline
210
0.0
220
0.0
230
1.0
 70
     8
 71
     3
 72
    24
 73
    20
 74
     0
 42
0.000000001
 43
0.00000001
 40
0.0
 40
0.0
 40
0.0
 40
0.0
 40
0.1249999999999949
 40
0.1249999999999949
 40
0.1874999999999942
 40
0.1874999999999942
 40
0.2499999999999934
 40
0.2499999999999934
 40
0.3749999999999946
 40
0.3749999999999946
 40
0.4999999999999957
 40
0.4999999999999957
 40
0.6249999999999968
 40
0.6249999999999968
 40
0.7499999999999979
 40
0.7499999999999979
 40
0.874999999999999
 40
0.874999999999999
 40
1.0
 40
1.0
 40
1.0
 40
1.0
 10
100.3017872480431
 20
78.95610353624024
 30
0.0
 10
100.3009094728293
 20
78.58379230442893
 30
0.0
 10
100.3363907948511
 20
78.21727686278133
 30
0.0
 10
100.4423383100036
 20
77.67590836774315
 30
0.0
 10
100.486505524375
 20
77.49686314859493
 30
0.0
 10
100.5930138789671
 20
77.14166970908786
 30
0.0
 10
100.6556419611773
 20
76.96509243706693
 30
0.0
 10
100.8669780143699
 20
76.4513659397447
 30
0.0
 10
101.0398343273952
 20
76.12625673123956
 30
0.0
 10
101.4492401775796
 20
75.51065919508444
 30
0.0
 10
101.6878881444224
 20
75.21918983413914
 30
0.0
 10
102.2095503315029
 20
74.69712310414332
 30
0.0
 10
102.4944514378456
 20
74.46292833819841
 30
0.0
 10
103.1136337547776
 20
74.04959871965158
 30
0.0
 10
103.4424459038789
 20
73.87475290866645
 30
0.0
 10
104.12309407155
 20
73.59402687758033
 30
0.0
 10
104.4798356829344
 20
73.48620893583256
 30
0.0
 10
105.2089750857957
 20
73.34274865511998
 30
0.0
 10
105.577418134412
 20
73.3072664644094
 30
0.0
 10
105.949746504255
 20
73.30814428002837
 30
0.0
  0
LINE
  5
E4
330
1F
100
AcDbEntity
  8
0
  6
Continuous
 62
     7
370
    15
100
AcDbLine
 10
100.301787248
 20
78.9561035362
 30
0.0
 11
100.3213609152
 21
87.2583385508
 31
0.0
  0
ELLIPSE
  5
E5
330
1F
100
AcDbEntity
  8
0
  6
Continuous
 62
     7
370
    15
100
AcDbEllipse
 10
337.6688945377
 20
230.6752515697
 30
0.0
 11
3.319526638740797
 21
3.31952663862495
 31
0.0
210
0.0
220
0.0
230
1.0
 40
0.9999976679
 41
5.496959062665479
 42
7.069411551728606
  0
LINE
  5
E6
330
1F
100
AcDbEntity
  8
0
  6
Continuous
 62
     7
370
    15
100
AcDbLine
 10
333.725693757
 20
235.3664974048
 30
0.0
 11
337.6650125736
 21
235.3697640746
 31
0.0
  0
ELLIPSE
  5
E7
330
1F
100
AcDbEntity
  8
0
  6
Continuous
 62
     7
370
    15
100
AcDbEllipse
 10
333.7291096095
 20
232.3706100118
 30
0.0
 11
3.001336073420191
 21
-0.1496362782467884
 31
0.0
210
0.0
220
0.0
230
1.0
 40
0.9969390515
 41
1.621596111174265
 42
3.189730934707645
  0
LINE
  5
E8
330
1F
100
AcDbEntity
  8
0
  6
Continuous
 62
     7
370
    15
100
AcDbLine
 10
330.7154232234
 20
226.7213233373
 30
0.0
 11
330.7240719425
 21
232.3760916544
 31
0.0
  0
ELLIPSE
  5
E9
330
1F
100
AcDbEntity
  8
0
  6
Continuous
 62
     7
370
    15
100
AcDbEllipse
 10
333.7204777038
 20
226.7268347322
 30
0.0
 11
2.128467419125911
 21
2.128467419125911
 31
0.0
210
0.0
220
0.0
230
1.0
 40
0.9966421494
 41
2.356346783439935
 42
3.926838523739665
  0
LINE
  5
EA
330
1F
100
AcDbEntity
  8
0
  6
Continuous
 62
     7
370
    15
100
AcDbLine
 10
339.3697346224
 20
223.7304289709
 30
0.0
 11
333.7149663088
 21
223.7217802518
 31
0.0
  0
ELLIPSE
  5
EB
330
1F
100
AcDbEntity
  8
0
  6
Continuous
 62
     7
370
    15
100
AcDbEllipse
 10
339.3642529798
 20
226.735466638
 30
0.0
 11
-0.1496362782468168
 21
3.001336073420163
 31
0.0
210
0.0
220
0.0
230
1.0
 40
0.9969390515
 41
3.093454372471954
 42
4.661589196005325
  0
LINE
  5
EC
330
1F
100
AcDbEntity
  8
0
  6
Continuous
 62
     7
370
    15
100
AcDbLine
 10
342.3601403728
 20
226.7320507854
 30
0.0
 11
342.3634070426
 21
230.6713696056
 31
0.0
  0
LINE
  5
ED
330
1F
100
AcDbEntity
  8
0
  6
Continuous
 62
     7
370
    15
100
AcDbLine
 10
337.9788347388
 20
236.633151027
 30
0.0
 11
329.6765997277
 21
236.6135773599
 31
0.0
  0
SPLINE
  5
EE
330
1F
100
AcDbEntity
  8
0
  6
Continuous
 62
     7
370
    15
100
AcDbSpline
210
0.0
220
0.0
230
1.0
 70
     8
 71
     3
 72
    24
 73
    20
 74
     0
 42
0.000000001
 43
0.00000001
 40
0.0
 40
0.0
 40
0.0
 40
0.0
 40
0.1250000000000014
 40
0.1250000000000014
 40
0.1875000000000002
 40
0.1875000000000002
 40
0.249999999999999
 40
0.249999999999999
 40
0.3749999999999992
 40
0.3749999999999992
 40
0.4999999999999994
 40
0.4999999999999994
 40
0.6249999999999996
 40
0.6249999999999996
 40
0.7499999999999997
 40
0.7499999999999997
 40
0.8749999999999999
 40
0.8749999999999999
 40
1.0
 40
1.0
 40
1.0
 40
1.0
 10
343.6267939949842
 20
230.9851917707575
 30
0.0
 10
343.6276717701978
 20
231.3575030025687
 30
0.0
 10
343.5921904481762
 20
231.7240184442164
 30
0.0
 10
343.4862429330237
 20
232.2653869392545
 30
0.0
 10
343.4420757186522
 20
232.4444321584028
 30
0.0
 10
343.3355673640601
 20
232.7996255979099
 30
0.0
 10
343.2729392818499
 20
232.9762028699308
 30
0.0
 10
343.0616032286574
 20
233.489929367253
 30
0.0
 10
342.888746915632
 20
233.8150385757581
 30
0.0
 10
342.4793410654476
 20
234.4306361119133
 30
0.0
 10
342.2406930986048
 20
234.7221054728585
 30
0.0
 10
341.7190309115244
 20
235.2441722028544
 30
0.0
 10
341.4341298051817
 20
235.4783669687993
 30
0.0
 10
340.8149474882496
 20
235.8916965873461
 30
0.0
 10
340.4861353391484
 20
236.0665423983313
 30
0.0
 10
339.8054871714773
 20
236.3472684294173
 30
0.0
 10
339.4487455600928
 20
236.4550863711651
 30
0.0
 10
338.7196061572315
 20
236.5985466518777
 30
0.0
 10
338.3511631086153
 20
236.6340288425883
 30
0.0
 10
337.9788347387722
 20
236.6331510269693
 30
0.0
  0
LINE
  5
EF
330
1F
100
AcDbEntity
  8
0
  6
Continuous
 62
     7
370
    15
100
AcDbLine
 10
343.6072203279
 20
222.6829567562
 30
0.0
 11
343.626793995
 21
230.9851917708
 31
0.0
  0
ELLIPSE
  5
F0
330
1F
100
AcDbEntity
  8
0
  6
Continuous
 62
     7
370
    15
100
AcDbEllipse
 10
110.1994716335
 20
232.3706100118
 30
0.0
 11
3.001336073420177
 21
0.1496362782467884
 31
0.0
210
0.0
220
0.0
230
1.0
 40
0.9969390515
 41
6.235047026061762
 42
7.803181849595109
  0
LINE
  5
F1
330
1F
100
AcDbEntity
  8
0
  6
Continuous
 62
     7
370
    15
100
AcDbLine
 10
110.2028874861
 20
235.3664974048
 30
0.0
 11
106.2635686695
 21
235.3697640746
 31
0.0
  0
ELLIPSE
  5
F2
330
1F
100
AcDbEntity
  8
0
  6
Continuous
 62
     7
370
    15
100
AcDbEllipse
 10
106.2596867054
 20
230.6752515697
 30
0.0
 11
3.319526638740811
 21
-3.31952663862495
 31
0.0
210
0.0
220
0.0
230
1.0
 40
0.9999976679
 41
2.35536640904078
 42
3.927818898103926
  0
LINE
  5
F3
330
1F
100
AcDbEntity
  8
0
  6
Continuous
 62
     7
370
    15
100
AcDbLine
 10
101.5684408702
 20
226.7320507854
 30
0.0
 11
101.5651742004
 21
230.6713696056
 31
0.0
  0
ELLIPSE
  5
F4
330
1F
100
AcDbEntity
  8
0
  6
Continuous
 62
     7
370
    15
100
AcDbEllipse
 10
104.5643282632
 20
226.735466638
 30
0.0
 11
0.149636278246831
 21
3.001336073420163
 31
0.0
210
0.0
220
0.0
230
1.0
 40
0.9969390515
 41
1.62159611117428
 42
3.18973093470765
  0
LINE
  5
F5
330
1F
100
AcDbEntity
  8
0
  6
Continuous
 62
     7
370
    15
100
AcDbLine
 10
104.5588466206
 20
223.7304289709
 30
0.0
 11
110.2136149342
 21
223.7217802518
 31
0.0
  0
ELLIPSE
  5
F6
330
1F
100
AcDbEntity
  8
0
  6
Continuous
 62
     7
370
    15
100
AcDbEllipse
 10
110.2081035393
 20
226.7268347322
 30
0.0
 11
2.128467419125926
 21
-2.128467419125939
 31
0.0
210
0.0
220
0.0
230
1.0
 40
0.9966421494
 41
5.497939437029737
 42
7.06843117732945
  0
LINE
  5
F7
330
1F
100
AcDbEntity
  8
0
  6
Continuous
 62
     7
370
    15
100
AcDbLine
 10
113.2131580197
 20
226.7213233373
 30
0.0
 11
113.2045093005
 21
232.3760916544
 31
0.0
  0
LINE
  5
F8
330
1F
100
AcDbEntity
  8
0
  6
Continuous
 62
     7
370
    15
100
AcDbLine
 10
100.3213609152
 20
222.6829567562
 30
0.0
 11
100.301787248
 21
230.9851917708
 31
0.0
  0
SPLINE
  5
F9
330
1F
100
AcDbEntity
  8
0
  6
Continuous
 62
     7
370
    15
100
AcDbSpline
210
0.0
220
0.0
230
1.0
 70
     8
 71
     3
 72
    24
 73
    20
 74
     0
 42
0.000000001
 43
0.00000001
 40
0.0
 40
0.0
 40
0.0
 40
0.0
 40
0.1250000000000046
 40
0.1250000000000046
 40
0.187500000000005
 40
0.187500000000005
 40
0.2500000000000054
 40
0.2500000000000054
 40
0.3750000000000045
 40
0.3750000000000045
 40
0.5000000000000036
 40
0.5000000000000036
 40
0.6250000000000027
 40
0.6250000000000027
 40
0.7500000000000018
 40
0.7500000000000018
 40
0.875000000000001
 40
0.875000000000001
 40
1.0
 40
1.0
 40
1.0
 40
1.0
 10
105.949746504255
 20
236.6331510269694
 30
0.0
 10
105.5774352724438
 20
236.634028802183
 30
0.0
 10
105.2109198307962
 20
236.5985474801614
 30
0.0
 10
104.669551335758
 20
236.4925999650088
 30
0.0
 10
104.4905061166098
 20
236.4484327506374
 30
0.0
 10
104.1353126771027
 20
236.3419243960454
 30
0.0
 10
103.9587354050817
 20
236.2792963138351
 30
0.0
 10
103.4450089077594
 20
236.0679602606426
 30
0.0
 10
103.1198996992544
 20
235.8951039476172
 30
0.0
 10
102.5043021630993
 20
235.4856980974329
 30
0.0
 10
102.2128328021539
 20
235.2470501305901
 30
0.0
 10
101.6907660721581
 20
234.7253879435096
 30
0.0
 10
101.4565713062132
 20
234.4404868371668
 30
0.0
 10
101.0432416876664
 20
233.8213045202348
 30
0.0
 10
100.8683958766812
 20
233.4924923711336
 30
0.0
 10
100.5876698455951
 20
232.8118442034626
 30
0.0
 10
100.4798519038473
 20
232.455102592078
 30
0.0
 10
100.3363916231347
 20
231.7259631892167
 30
0.0
 10
100.3009094324241
 20
231.3575201406005
 30
0.0
 10
100.3017872480432
 20
230.9851917707575
 30
0.0
  0
LINE
  5
FA
330
1F
100
AcDbEntity
  8
0
  6
Continuous
 62
     7
370
    15
100
AcDbLine
 10
114.2519815153
 20
236.6135773599
 30
0.0
 11
105.9497465043
 21
236.633151027
 31
0.0
  0
LINE
  5
FB
330
1F
100
AcDbEntity
  8
0
  6
Continuous
 62
     7
370
    15
100
AcDbLine
 10
214.6642906215
 20
73.3277179471
 30
0.0
 11
229.2642906215
 21
73.3277179471
 31
0.0
  0
ELLIPSE
  5
FC
330
1F
100
AcDbEntity
  8
0
  6
Continuous
 62
     7
370
    15
100
AcDbEllipse
 10
218.9521824935
 20
83.0904466788
 30
0.0
 11
-1.275904273852717
 21
2.722153738192603
 31
0.0
210
0.0
220
0.0
230
1.0
 40
0.9976165555
 41
5.845796779478711
 42
7.416288519778437
  0
LINE
  5
FD
330
1F
100
AcDbEntity
  8
0
  6
Continuous
 62
     7
370
    15
100
AcDbLine
 10
215.9600779885
 20
77.621015713
 30
0.0
 11
215.9517241116
 21
83.0913619752
 31
0.0
  0
ELLIPSE
  5
FE
330
1F
100
AcDbEntity
  8
0
  6
Continuous
 62
     7
370
    15
100
AcDbEllipse
 10
218.9605335791
 20
77.6219282181
 30
0.0
 11
2.832144642394184
 21
-0.9927518200385635
 31
0.0
210
0.0
220
0.0
230
1.0
 40
0.9980475359
 41
3.479654759700399
 42
5.050146500000143
  0
LINE
  5
FF
330
1F
100
AcDbEntity
  8
0
  6
Continuous
 62
     7
370
    15
100
AcDbLine
 10
224.9643864905
 20
74.6260463061
 30
0.0
 11
218.9641947525
 21
74.6260463061
 31
0.0
  0
ELLIPSE
  5
100
330
1F
100
AcDbEntity
  8
0
  6
Continuous
 62
     7
370
    15
100
AcDbEllipse
 10
224.9680476639
 20
77.6219282181
 30
0.0
 11
2.832144642394184
 21
0.9927518200385635
 31
0.0
210
0.0
220
0.0
230
1.0
 40
0.9980475359
 41
4.374631460769264
 42
5.945123201069013
  0
LINE
  5
101
330
1F
100
AcDbEntity
  8
0
  6
Continuous
 62
     7
370
    15
100
AcDbLine
 10
227.9768571314
 20
83.0913619752
 30
0.0
 11
227.9685032546
 21
77.621015713
 31
0.0
  0
ELLIPSE
  5
102
330
1F
100
AcDbEntity
  8
0
  6
Continuous
 62
     7
370
    15
100
AcDbEllipse
 10
224.9763987495
 20
83.0904466788
 30
0.0
 11
1.275904273852717
 21
2.722153738192603
 31
0.0
210
0.0
220
0.0
230
1.0
 40
0.9976165555
 41
5.150082094580749
 42
6.720573834880476
  0
LINE
  5
103
330
1F
100
AcDbEntity
  8
0
  6
Continuous
 62
     7
370
    15
100
AcDbLine
 10
218.946679528
 20
86.0954927298
 30
0.0
 11
224.981901715
 21
86.0954927298
 31
0.0
  0
LINE
  5
104
330
1F
100
AcDbEntity
  8
0
  6
Continuous
 62
     7
370
    15
100
AcDbLine
 10
229.2642906215
 20
236.6135773599
 30
0.0
 11
214.6642906215
 21
236.6135773599
 31
0.0
  0
ELLIPSE
  5
105
330
1F
100
AcDbEntity
  8
0
  6
Continuous
 62
     7
370
    15
100
AcDbEllipse
 10
224.9763987495
 20
226.8508486282
 30
0.0
 11
-1.275904273852746
 21
2.72215373819256
 31
0.0
210
0.0
220
0.0
230
1.0
 40
0.9976165555
 41
2.704204125888894
 42
4.274695866188639
  0
LINE
  5
106
330
1F
100
AcDbEntity
  8
0
  6
Continuous
 62
     7
370
    15
100
AcDbLine
 10
227.9768571314
 20
226.8499333318
 30
0.0
 11
227.9685032546
 21
232.320279594
 31
0.0
  0
ELLIPSE
  5
107
330
1F
100
AcDbEntity
  8
0
  6
Continuous
 62
     7
370
    15
100
AcDbEllipse
 10
224.9680476639
 20
232.3193670889
 30
0.0
 11
2.832144642394184
 21
-0.9927518200385917
 31
0.0
210
0.0
220
0.0
230
1.0
 40
0.9980475359
 41
0.3380621061105899
 42
1.908553846410347
  0
LINE
  5
108
330
1F
100
AcDbEntity
  8
0
  6
Continuous
 62
     7
370
    15
100
AcDbLine
 10
224.9643864905
 20
235.3152490009
 30
0.0
 11
218.9641947525
 21
235.3152490009
 31
0.0
  0
ELLIPSE
  5
109
330
1F
100
AcDbEntity
  8
0
  6
Continuous
 62
     7
370
    15
100
AcDbEllipse
 10
218.9605335791
 20
232.3193670889
 30
0.0
 11
2.832144642394184
 21
0.9927518200386202
 31
0.0
210
0.0
220
0.0
230
1.0
 40
0.9980475359
 41
1.23303880717945
 42
2.803530547479182
  0
LINE
  5
10A
330
1F
100
AcDbEntity
  8
0
  6
Continuous
 62
     7
370
    15
100
AcDbLine
 10
215.9600779885
 20
232.320279594
 30
0.0
 11
215.9517241116
 21
226.8499333318
 31
0.0
  0
ELLIPSE
  5
10B
330
1F
100
AcDbEntity
  8
0
  6
Continuous
 62
     7
370
    15
100
AcDbEllipse
 10
218.9521824935
 20
226.8508486282
 30
0.0
 11
1.275904273852859
 21
2.722153738192532
 31
0.0
210
0.0
220
0.0
230
1.0
 40
0.9976165555
 41
2.008489440990996
 42
3.578981181290748
  0
LINE
  5
10C
330
1F
100
AcDbEntity
  8
0
  6
Continuous
 62
     7
370
    15
100
AcDbLine
 10
218.946679528
 20
223.8458025772
 30
0.0
 11
224.981901715
 21
223.8458025772
 31
0.0
  0
LINE
  5
10D
330
1F
100
AcDbEntity
  8
0
  6
Continuous
 62
     7
370
    15
100
AcDbLine
 10
216.0219182683
 20
83.0211678186
 30
0.0
 11
215.9517241116
 21
83.0913619752
 31
0.0
  0
LINE
  5
10E
330
1F
100
AcDbEntity
  8
0
  6
Continuous
 62
     7
370
    15
100
AcDbLine
 10
218.946679528
 20
86.0954927298
 30
0.0
 11
219.0168736847
 21
86.0252985731
 31
0.0
  0
ELLIPSE
  5
10F
330
1F
100
AcDbEntity
  8
0
  6
Continuous
 62
     7
370
    15
100
AcDbEllipse
 10
219.0223766502
 20
83.0202525221
 30
0.0
 11
-1.275904273852831
 21
2.72215373819256
 31
0.0
210
0.0
220
0.0
230
1.0
 40
0.9976165555
 41
5.84579677947869
 42
7.416288519778401
  0
LINE
  5
110
330
1F
100
AcDbEntity
  8
0
  6
Continuous
 62
     7
370
    15
100
AcDbLine
 10
224.9117075583
 20
86.0252985731
 30
0.0
 11
224.981901715
 21
86.0954927298
 31
0.0
  0
LINE
  5
111
330
1F
100
AcDbEntity
  8
0
  6
Continuous
 62
     7
370
    15
100
AcDbLine
 10
227.9768571314
 20
83.0913619752
 30
0.0
 11
227.9066629747
 21
83.0211678186
 31
0.0
  0
ELLIPSE
  5
112
330
1F
100
AcDbEntity
  8
0
  6
Continuous
 62
     7
370
    15
100
AcDbEllipse
 10
224.9062045928
 20
83.0202525221
 30
0.0
 11
1.275904273852831
 21
2.72215373819256
 31
0.0
210
0.0
220
0.0
230
1.0
 40
0.9976165555
 41
5.15008209458079
 42
6.720573834880496
  0
LINE
  5
113
330
1F
100
AcDbEntity
  8
0
  6
Continuous
 62
     7
370
    15
100
AcDbLine
 10
227.9066629747
 20
226.9201274884
 30
0.0
 11
227.9768571314
 21
226.8499333318
 31
0.0
  0
LINE
  5
114
330
1F
100
AcDbEntity
  8
0
  6
Continuous
 62
     7
370
    15
100
AcDbLine
 10
224.981901715
 20
223.8458025772
 30
0.0
 11
224.9117075583
 21
223.9159967339
 31
0.0
  0
ELLIPSE
  5
115
330
1F
100
AcDbEntity
  8
0
  6
Continuous
 62
     7
370
    15
100
AcDbEllipse
 10
224.9062045928
 20
226.9210427849
 30
0.0
 11
-1.275904273852888
 21
2.722153738192504
 31
0.0
210
0.0
220
0.0
230
1.0
 40
0.9976165555
 41
2.704204125888862
 42
4.274695866188589
  0
LINE
  5
116
330
1F
100
AcDbEntity
  8
0
  6
Continuous
 62
     7
370
    15
100
AcDbLine
 10
219.0168736847
 20
223.9159967339
 30
0.0
 11
218.946679528
 21
223.8458025772
 31
0.0
  0
LINE
  5
117
330
1F
100
AcDbEntity
  8
0
  6
Continuous
 62
     7
370
    15
100
AcDbLine
 10
215.9517241116
 20
226.8499333318
 30
0.0
 11
216.0219182683
 21
226.9201274884
 31
0.0
  0
ELLIPSE
  5
118
330
1F
100
AcDbEntity
  8
0
  6
Continuous
 62
     7
370
    15
100
AcDbEllipse
 10
219.0223766502
 20
226.9210427849
 30
0.0
 11
1.275904273852888
 21
2.722153738192504
 31
0.0
210
0.0
220
0.0
230
1.0
 40
0.9976165555
 41
2.00848944099101
 42
3.57898118129074
  0
LINE
  5
119
330
1F
100
AcDbEntity
  8
0
  6
Continuous
 62
     7
370
    15
100
AcDbLine
 10
219.0168736847
 20
86.0252985731
 30
0.0
 11
224.9117075583
 21
86.0252985731
 31
0.0
  0
LINE
  5
11A
330
1F
100
AcDbEntity
  8
0
  6
Continuous
 62
     7
370
    15
100
AcDbLine
 10
224.9117075583
 20
223.9159967339
 30
0.0
 11
219.0168736847
 21
223.9159967339
 31
0.0
  0
LINE
  5
11B
330
1F
100
AcDbEntity
  8
0
  6
Continuous
 62
     7
370
    15
100
AcDbLine
 10
113.1425898347
 20
226.7918915223
 30
0.0
 11
113.2131580197
 21
226.7213233373
 31
0.0
  0
LINE
  5
11C
330
1F
100
AcDbEntity
  8
0
  6
Continuous
 62
     7
370
    15
100
AcDbLine
 10
110.2136149342
 20
223.7217802518
 30
0.0
 11
110.1430467492
 21
223.7923484368
 31
0.0
  0
ELLIPSE
  5
11D
330
1F
100
AcDbEntity
  8
0
  6
Continuous
 62
     7
370
    15
100
AcDbEllipse
 10
110.1375353543
 20
226.7974029172
 30
0.0
 11
2.128467419125911
 21
-2.12846741912594
 31
0.0
210
0.0
220
0.0
230
1.0
 40
0.9966421494
 41
5.497939437029738
 42
7.068431177329453
  0
LINE
  5
11E
330
1F
100
AcDbEntity
  8
0
  6
Continuous
 62
     7
370
    15
100
AcDbLine
 10
110.1430467492
 20
86.1489468702
 30
0.0
 11
110.2136149342
 21
86.2195150552
 31
0.0
  0
LINE
  5
11F
330
1F
100
AcDbEntity
  8
0
  6
Continuous
 62
     7
370
    15
100
AcDbLine
 10
113.2131580197
 20
83.2199719697
 30
0.0
 11
113.1425898347
 21
83.1494037847
 31
0.0
  0
ELLIPSE
  5
120
330
1F
100
AcDbEntity
  8
0
  6
Continuous
 62
     7
370
    15
100
AcDbEllipse
 10
110.1375353543
 20
83.1438923898
 30
0.0
 11
2.128467419125911
 21
2.128467419125925
 31
0.0
210
0.0
220
0.0
230
1.0
 40
0.9966421494
 41
5.497939437029735
 42
7.06843117732945
  0
LINE
  5
121
330
1F
100
AcDbEntity
  8
0
  6
Continuous
 62
     7
370
    15
100
AcDbLine
 10
333.7855344938
 20
223.7923484368
 30
0.0
 11
333.7149663088
 21
223.7217802518
 31
0.0
  0
LINE
  5
122
330
1F
100
AcDbEntity
  8
0
  6
Continuous
 62
     7
370
    15
100
AcDbLine
 10
330.7154232234
 20
226.7213233373
 30
0.0
 11
330.7859914084
 21
226.7918915223
 31
0.0
  0
ELLIPSE
  5
123
330
1F
100
AcDbEntity
  8
0
  6
Continuous
 62
     7
370
    15
100
AcDbEllipse
 10
333.7910458888
 20
226.7974029172
 30
0.0
 11
2.128467419125911
 21
2.128467419125911
 31
0.0
210
0.0
220
0.0
230
1.0
 40
0.9966421494
 41
2.356346783439939
 42
3.926838523739662
  0
LINE
  5
124
330
1F
100
AcDbEntity
  8
0
  6
Continuous
 62
     7
370
    15
100
AcDbLine
 10
330.7859914084
 20
83.1494037847
 30
0.0
 11
330.7154232234
 21
83.2199719697
 31
0.0
  0
LINE
  5
125
330
1F
100
AcDbEntity
  8
0
  6
Continuous
 62
     7
370
    15
100
AcDbLine
 10
333.7149663088
 20
86.2195150552
 30
0.0
 11
333.7855344938
 21
86.1489468702
 31
0.0
  0
ELLIPSE
  5
126
330
1F
100
AcDbEntity
  8
0
  6
Continuous
 62
     7
370
    15
100
AcDbEllipse
 10
333.7910458888
 20
83.1438923898
 30
0.0
 11
2.128467419125911
 21
-2.128467419125925
 31
0.0
210
0.0
220
0.0
230
1.0
 40
0.9966421494
 41
2.356346783439939
 42
3.926838523739673
  0
LINE
  5
127
330
1F
100
AcDbEntity
  8
0
  6
Continuous
 62
     7
370
    15
100
AcDbLine
 10
227.9685032546
 20
232.320279594
 30
0.0
 11
227.8985231608
 21
232.2502995003
 31
0.0
  0
LINE
  5
128
330
1F
100
AcDbEntity
  8
0
  6
Continuous
 62
     7
370
    15
100
AcDbLine
 10
227.8985231608
 20
232.2502995003
 30
0.0
 11
227.9066629747
 21
226.9201274884
 31
0.0
  0
LINE
  5
129
330
1F
100
AcDbEntity
  8
0
  6
Continuous
 62
     7
370
    15
100
AcDbLine
 10
227.8985231608
 20
77.6909958067
 30
0.0
 11
227.9685032546
 21
77.621015713
 31
0.0
  0
LINE
  5
12A
330
1F
100
AcDbEntity
  8
0
  6
Continuous
 62
     7
370
    15
100
AcDbLine
 10
227.9066629747
 20
83.0211678186
 30
0.0
 11
227.8985231608
 21
77.6909958067
 31
0.0
  0
LINE
  5
12B
330
1F
100
AcDbEntity
  8
0
  6
Continuous
 62
     7
370
    15
100
AcDbLine
 10
216.0300580822
 20
232.2502995003
 30
0.0
 11
215.9600779885
 21
232.320279594
 31
0.0
  0
LINE
  5
12C
330
1F
100
AcDbEntity
  8
0
  6
Continuous
 62
     7
370
    15
100
AcDbLine
 10
216.0219182683
 20
226.9201274884
 30
0.0
 11
216.0300580822
 21
232.2502995003
 31
0.0
  0
LINE
  5
12D
330
1F
100
AcDbEntity
  8
0
  6
Continuous
 62
     7
370
    15
100
AcDbLine
 10
216.0300580822
 20
77.6909958067
 30
0.0
 11
216.0219182683
 21
83.0211678186
 31
0.0
  0
LINE
  5
12E
330
1F
100
AcDbEntity
  8
0
  6
Continuous
 62
     7
370
    15
100
AcDbLine
 10
215.9600779885
 20
77.621015713
 30
0.0
 11
216.0300580822
 21
77.6909958067
 31
0.0
  0
LINE
  5
12F
330
1F
100
AcDbEntity
  8
0
  6
Continuous
 62
     7
370
    15
100
AcDbLine
 10
113.1341563947
 20
77.6353908872
 30
0.0
 11
113.2045093005
 21
77.5652036526
 31
0.0
  0
LINE
  5
130
330
1F
100
AcDbEntity
  8
0
  6
Continuous
 62
     7
370
    15
100
AcDbLine
 10
113.1341563947
 20
77.6353908872
 30
0.0
 11
113.1425898347
 21
83.1494037847
 31
0.0
  0
LINE
  5
131
330
1F
100
AcDbEntity
  8
0
  6
Continuous
 62
     7
370
    15
100
AcDbLine
 10
330.7944248483
 20
232.3059044198
 30
0.0
 11
330.7240719425
 21
232.3760916544
 31
0.0
  0
LINE
  5
132
330
1F
100
AcDbEntity
  8
0
  6
Continuous
 62
     7
370
    15
100
AcDbLine
 10
330.7944248483
 20
232.3059044198
 30
0.0
 11
330.7859914084
 21
226.7918915223
 31
0.0
  0
LINE
  5
133
330
1F
100
AcDbEntity
  8
0
  6
Continuous
 62
     7
370
    15
100
AcDbLine
 10
113.1341563947
 20
232.3059044198
 30
0.0
 11
113.1425898347
 21
226.7918915223
 31
0.0
  0
LINE
  5
134
330
1F
100
AcDbEntity
  8
0
  6
Continuous
 62
     7
370
    15
100
AcDbLine
 10
113.2045093005
 20
232.3760916544
 30
0.0
 11
113.1341563947
 21
232.3059044198
 31
0.0
  0
LINE
  5
135
330
1F
100
AcDbEntity
  8
0
  6
Continuous
 62
     7
370
    15
100
AcDbLine
 10
330.7944248483
 20
77.6353908872
 30
0.0
 11
330.7859914084
 21
83.1494037847
 31
0.0
  0
LINE
  5
136
330
1F
100
AcDbEntity
  8
0
  6
Continuous
 62
     7
370
    15
100
AcDbLine
 10
330.7240719425
 20
77.5652036526
 30
0.0
 11
330.7944248483
 21
77.6353908872
 31
0.0
  0
LINE
  5
137
330
1F
100
AcDbEntity
  8
0
  6
Continuous
 62
     7
370
    15
100
AcDbLine
 10
110.1430467492
 20
86.1489468702
 30
0.0
 11
104.6290338552
 21
86.1405134303
 31
0.0
  0
LINE
  5
138
330
1F
100
AcDbEntity
  8
0
  6
Continuous
 62
     7
370
    15
100
AcDbLine
 10
104.5588466206
 20
86.2108663361
 30
0.0
 11
104.6290338552
 21
86.1405134303
 31
0.0
  0
LINE
  5
139
330
1F
100
AcDbEntity
  8
0
  6
Continuous
 62
     7
370
    15
100
AcDbLine
 10
104.6290338552
 20
223.8007818767
 30
0.0
 11
104.5588466206
 21
223.7304289709
 31
0.0
  0
LINE
  5
13A
330
1F
100
AcDbEntity
  8
0
  6
Continuous
 62
     7
370
    15
100
AcDbLine
 10
110.1430467492
 20
223.7923484368
 30
0.0
 11
104.6290338552
 21
223.8007818767
 31
0.0
  0
LINE
  5
13B
330
1F
100
AcDbEntity
  8
0
  6
Continuous
 62
     7
370
    15
100
AcDbLine
 10
339.2995473879
 20
86.1405134303
 30
0.0
 11
339.3697346224
 21
86.2108663361
 31
0.0
  0
LINE
  5
13C
330
1F
100
AcDbEntity
  8
0
  6
Continuous
 62
     7
370
    15
100
AcDbLine
 10
333.7855344938
 20
86.1489468702
 30
0.0
 11
339.2995473879
 21
86.1405134303
 31
0.0
  0
LINE
  5
13D
330
1F
100
AcDbEntity
  8
0
  6
Continuous
 62
     7
370
    15
100
AcDbLine
 10
339.3697346224
 20
223.7304289709
 30
0.0
 11
339.2995473879
 21
223.8007818767
 31
0.0
  0
LINE
  5
13E
330
1F
100
AcDbEntity
  8
0
  6
Continuous
 62
     7
370
    15
100
AcDbLine
 10
333.7855344938
 20
223.7923484368
 30
0.0
 11
339.2995473879
 21
223.8007818767
 31
0.0
  0
LINE
  5
13F
330
1F
100
AcDbEntity
  8
0
  6
Continuous
 62
     7
370
    15
100
AcDbLine
 10
218.9641947525
 20
235.3152490009
 30
0.0
 11
219.0341748462
 21
235.2452689072
 31
0.0
  0
ELLIPSE
  5
140
330
1F
100
AcDbEntity
  8
0
  6
Continuous
 62
     7
370
    15
100
AcDbEllipse
 10
219.0305136728
 20
232.2493869951
 30
0.0
 11
2.832144642394269
 21
0.9927518200383929
 31
0.0
210
0.0
220
0.0
230
1.0
 40
0.9980475359
 41
1.233038807179534
 42
2.80353054747926
  0
LINE
  5
141
330
1F
100
AcDbEntity
  8
0
  6
Continuous
 62
     7
370
    15
100
AcDbLine
 10
224.9643864905
 20
74.6260463061
 30
0.0
 11
224.8944063968
 21
74.6960263998
 31
0.0
  0
ELLIPSE
  5
142
330
1F
100
AcDbEntity
  8
0
  6
Continuous
 62
     7
370
    15
100
AcDbEllipse
 10
224.8980675702
 20
77.6919083119
 30
0.0
 11
2.832144642394184
 21
0.9927518200385776
 31
0.0
210
0.0
220
0.0
230
1.0
 40
0.9980475359
 41
4.374631460769271
 42
5.945123201069002
  0
LINE
  5
143
330
1F
100
AcDbEntity
  8
0
  6
Continuous
 62
     7
370
    15
100
AcDbLine
 10
219.0341748462
 20
74.6960263998
 30
0.0
 11
218.9641947525
 21
74.6260463061
 31
0.0
  0
ELLIPSE
  5
144
330
1F
100
AcDbEntity
  8
0
  6
Continuous
 62
     7
370
    15
100
AcDbEllipse
 10
219.0305136728
 20
77.6919083119
 30
0.0
 11
2.832144642394184
 21
-0.9927518200385776
 31
0.0
210
0.0
220
0.0
230
1.0
 40
0.9980475359
 41
3.479654759700406
 42
5.050146500000136
  0
LINE
  5
145
330
1F
100
AcDbEntity
  8
0
  6
Continuous
 62
     7
370
    15
100
AcDbLine
 10
224.8944063968
 20
235.2452689072
 30
0.0
 11
224.9643864905
 21
235.3152490009
 31
0.0
  0
ELLIPSE
  5
146
330
1F
100
AcDbEntity
  8
0
  6
Continuous
 62
     7
370
    15
100
AcDbEllipse
 10
224.8980675702
 20
232.2493869951
 30
0.0
 11
2.832144642394184
 21
-0.9927518200386202
 31
0.0
210
0.0
220
0.0
230
1.0
 40
0.9980475359
 41
0.3380621061106121
 42
1.908553846410342
  0
LINE
  5
147
330
1F
100
AcDbEntity
  8
0
  6
Continuous
 62
     7
370
    15
100
AcDbLine
 10
342.3601403728
 20
83.2092445216
 30
0.0
 11
342.2899531382
 21
83.1388916158
 31
0.0
  0
ELLIPSE
  5
148
330
1F
100
AcDbEntity
  8
0
  6
Continuous
 62
     7
370
    15
100
AcDbEllipse
 10
339.2940657453
 20
83.1354757633
 30
0.0
 11
0.1496362782468168
 21
3.001336073420177
 31
0.0
210
0.0
220
0.0
230
1.0
 40
0.9969390515
 41
4.763188764764086
 42
6.331323588297424
  0
LINE
  5
149
330
1F
100
AcDbEntity
  8
0
  6
Continuous
 62
     7
370
    15
100
AcDbLine
 10
101.6386281048
 20
83.1388916158
 30
0.0
 11
101.5684408702
 21
83.2092445216
 31
0.0
  0
ELLIPSE
  5
14A
330
1F
100
AcDbEntity
  8
0
  6
Continuous
 62
     7
370
    15
100
AcDbEllipse
 10
104.6345154978
 20
83.1354757633
 30
0.0
 11
-0.1496362782468452
 21
3.001336073420177
 31
0.0
210
0.0
220
0.0
230
1.0
 40
0.9969390515
 41
6.235047026061752
 42
7.80318184959509
  0
LINE
  5
14B
330
1F
100
AcDbEntity
  8
0
  6
Continuous
 62
     7
370
    15
100
AcDbLine
 10
101.5684408702
 20
226.7320507854
 30
0.0
 11
101.6386281048
 21
226.8024036912
 31
0.0
  0
ELLIPSE
  5
14C
330
1F
100
AcDbEntity
  8
0
  6
Continuous
 62
     7
370
    15
100
AcDbEllipse
 10
104.6345154978
 20
226.8058195437
 30
0.0
 11
0.149636278246831
 21
3.001336073420163
 31
0.0
210
0.0
220
0.0
230
1.0
 40
0.9969390515
 41
1.621596111174289
 42
3.18973093470765
  0
LINE
  5
14D
330
1F
100
AcDbEntity
  8
0
  6
Continuous
 62
     7
370
    15
100
AcDbLine
 10
342.2899531382
 20
226.8024036912
 30
0.0
 11
342.3601403728
 21
226.7320507854
 31
0.0
  0
ELLIPSE
  5
14E
330
1F
100
AcDbEntity
  8
0
  6
Continuous
 62
     7
370
    15
100
AcDbEllipse
 10
339.2940657453
 20
226.8058195437
 30
0.0
 11
-0.1496362782468168
 21
3.001336073420163
 31
0.0
210
0.0
220
0.0
230
1.0
 40
0.9969390515
 41
3.093454372471954
 42
4.661589196005316
  0
LINE
  5
14F
330
1F
100
AcDbEntity
  8
0
  6
Continuous
 62
     7
370
    15
100
AcDbLine
 10
333.725693757
 20
235.3664974048
 30
0.0
 11
333.7960466627
 21
235.2963101702
 31
0.0
  0
ELLIPSE
  5
150
330
1F
100
AcDbEntity
  8
0
  6
Continuous
 62
     7
370
    15
100
AcDbEllipse
 10
333.7994625153
 20
232.3004227772
 30
0.0
 11
3.001336073420248
 21
-0.1496362782468168
 31
0.0
210
0.0
220
0.0
230
1.0
 40
0.9969390515
 41
1.621596111174254
 42
3.189730934707645
  0
LINE
  5
151
330
1F
100
AcDbEntity
  8
0
  6
Continuous
 62
     7
370
    15
100
AcDbLine
 10
333.7960466627
 20
74.6449851368
 30
0.0
 11
333.725693757
 21
74.5747979022
 31
0.0
  0
ELLIPSE
  5
152
330
1F
100
AcDbEntity
  8
0
  6
Continuous
 62
     7
370
    15
100
AcDbEllipse
 10
333.7994625153
 20
77.6408725298
 30
0.0
 11
3.001336073420248
 21
0.1496362782468026
 31
0.0
210
0.0
220
0.0
230
1.0
 40
0.9969390515
 41
3.093454372471959
 42
4.661589196005352
  0
LINE
  5
153
330
1F
100
AcDbEntity
  8
0
  6
Continuous
 62
     7
370
    15
100
AcDbLine
 10
110.2028874861
 20
74.5747979022
 30
0.0
 11
110.1325345803
 21
74.6449851368
 31
0.0
  0
ELLIPSE
  5
154
330
1F
100
AcDbEntity
  8
0
  6
Continuous
 62
     7
370
    15
100
AcDbEllipse
 10
110.1291187277
 20
77.6408725298
 30
0.0
 11
3.001336073420177
 21
-0.1496362782468168
 31
0.0
210
0.0
220
0.0
230
1.0
 40
0.9969390515
 41
4.763188764764086
 42
6.331323588297424
  0
LINE
  5
155
330
1F
100
AcDbEntity
  8
0
  6
Continuous
 62
     7
370
    15
100
AcDbLine
 10
110.1325345803
 20
235.2963101702
 30
0.0
 11
110.2028874861
 21
235.3664974048
 31
0.0
  0
ELLIPSE
  5
156
330
1F
100
AcDbEntity
  8
0
  6
Continuous
 62
     7
370
    15
100
AcDbEllipse
 10
110.1291187277
 20
232.3004227772
 30
0.0
 11
3.001336073420177
 21
0.1496362782468168
 31
0.0
210
0.0
220
0.0
230
1.0
 40
0.9969390515
 41
6.235047026061761
 42
7.8031818495951
  0
LINE
  5
157
330
1F
100
AcDbEntity
  8
0
  6
Continuous
 62
     7
370
    15
100
AcDbLine
 10
224.8944063968
 20
74.6960263998
 30
0.0
 11
219.0341748462
 21
74.6960263998
 31
0.0
  0
LINE
  5
158
330
1F
100
AcDbEntity
  8
0
  6
Continuous
 62
     7
370
    15
100
AcDbLine
 10
219.0341748462
 20
235.2452689072
 30
0.0
 11
224.8944063968
 21
235.2452689072
 31
0.0
  0
SPLINE
  5
159
330
1F
100
AcDbEntity
  8
0
  6
Continuous
 62
     7
370
    15
100
AcDbSpline
210
0.0
220
0.0
230
1.0
 70
     8
 71
     3
 72
    12
 73
     8
 74
     0
 42
0.000000001
 43
0.00000001
 40
0.0
 40
0.0
 40
0.0
 40
0.0
 40
0.1249999999999998
 40
0.1249999999999998
 40
0.2499999999999997
 40
0.4999999999999997
 40
1.0
 40
1.0
 40
1.0
 40
1.0
 10
337.9788347387722
 20
236.6331510269693
 30
0.0
 10
337.9970532466361
 20
236.6513695348332
 30
0.0
 10
338.014877885177
 20
236.6695883271718
 30
0.0
 10
338.0368848260904
 20
236.706035765118
 30
0.0
 10
338.0555367611481
 20
236.7607172925434
 30
0.0
 10
338.0299676375022
 20
236.88835742414
 30
0.0
 10
337.9973331064347
 20
236.997770992471
 30
0.0
 10
338.0665663653382
 20
237.0706476534988
 30
0.0
  0
SPLINE
  5
15A
330
1F
100
AcDbEntity
  8
0
  6
Continuous
 62
     7
370
    15
100
AcDbSpline
210
0.0
220
0.0
230
1.0
 70
     8
 71
     3
 72
    12
 73
     8
 74
     0
 42
0.000000001
 43
0.00000001
 40
0.0
 40
0.0
 40
0.0
 40
0.0
 40
0.5000000000000002
 40
0.7500000000000001
 40
0.875
 40
0.875
 40
1.0
 40
1.0
 40
1.0
 40
1.0
 10
105.8620148776892
 20
237.0706476534988
 30
0.0
 10
105.9312481365926
 20
236.997770992471
 30
0.0
 10
105.8986136055251
 20
236.88835742414
 30
0.0
 10
105.8730444818792
 20
236.7607172925434
 30
0.0
 10
105.8916964169368
 20
236.706035765118
 30
0.0
 10
105.9137033578503
 20
236.6695883271718
 30
0.0
 10
105.9315279963912
 20
236.6513695348332
 30
0.0
 10
105.949746504255
 20
236.6331510269694
 30
0.0
  0
LINE
  5
15B
330
1F
100
AcDbEntity
  8
0
  6
Continuous
 62
     7
370
    15
100
AcDbLine
 10
338.0665663653
 20
237.0706476535
 30
0.0
 11
105.8620148777
 21
237.0706476535
 31
0.0
  0
SPLINE
  5
15C
330
1F
100
AcDbEntity
  8
0
  6
Continuous
 62
     7
370
    15
100
AcDbSpline
210
0.0
220
0.0
230
1.0
 70
     8
 71
     3
 72
    12
 73
     8
 74
     0
 42
0.000000001
 43
0.00000001
 40
0.0
 40
0.0
 40
0.0
 40
0.0
 40
0.5000000000000002
 40
0.7500000000000001
 40
0.875
 40
0.875
 40
1.0
 40
1.0
 40
1.0
 40
1.0
 10
338.0665663653382
 20
72.87064765349886
 30
0.0
 10
337.9973331064347
 20
72.94352431452671
 30
0.0
 10
338.0299676375022
 20
73.05293788285773
 30
0.0
 10
338.0555367611482
 20
73.18057801445434
 30
0.0
 10
338.0368848260905
 20
73.23525954187969
 30
0.0
 10
338.014877885177
 20
73.27170697982591
 30
0.0
 10
337.9970532466361
 20
73.28992577216452
 30
0.0
 10
337.9788347387723
 20
73.30814428002839
 30
0.0
  0
LINE
  5
15D
330
1F
100
AcDbEntity
  8
0
  6
Continuous
 62
     7
370
    15
100
AcDbLine
 10
338.0665663653
 20
72.8706476535
 30
0.0
 11
105.8620148777
 21
72.8706476535
 31
0.0
  0
SPLINE
  5
15E
330
1F
100
AcDbEntity
  8
0
  6
Continuous
 62
     7
370
    15
100
AcDbSpline
210
0.0
220
0.0
230
1.0
 70
     8
 71
     3
 72
    12
 73
     8
 74
     0
 42
0.000000001
 43
0.00000001
 40
0.0
 40
0.0
 40
0.0
 40
0.0
 40
0.1249999999999999
 40
0.1249999999999999
 40
0.2499999999999998
 40
0.4999999999999998
 40
1.0
 40
1.0
 40
1.0
 40
1.0
 10
105.949746504255
 20
73.30814428002837
 30
0.0
 10
105.9315279963911
 20
73.28992577216451
 30
0.0
 10
105.9137033578502
 20
73.27170697982591
 30
0.0
 10
105.8916964169368
 20
73.23525954187967
 30
0.0
 10
105.8730444818791
 20
73.18057801445434
 30
0.0
 10
105.898613605525
 20
73.05293788285773
 30
0.0
 10
105.9312481365926
 20
72.94352431452674
 30
0.0
 10
105.8620148776891
 20
72.87064765349888
 30
0.0
  0
SPLINE
  5
15F
330
1F
100
AcDbEntity
  8
0
  6
Continuous
 62
     7
370
    15
100
AcDbSpline
210
0.0
220
0.0
230
1.0
 70
     8
 71
     3
 72
    12
 73
     8
 74
     0
 42
0.000000001
 43
0.00000001
 40
0.0
 40
0.0
 40
0.0
 40
0.0
 40
0.125
 40
0.125
 40
0.2500000000000001
 40
0.5000000000000001
 40
1.0
 40
1.0
 40
1.0
 40
1.0
 10
100.3017872480431
 20
78.95610353624024
 30
0.0
 10
100.2835687401792
 20
78.93788502837637
 30
0.0
 10
100.2653499478406
 20
78.92006038983548
 30
0.0
 10
100.2289025098944
 20
78.89805344892201
 30
0.0
 10
100.1742209824691
 20
78.87940151386435
 30
0.0
 10
100.0465808508724
 20
78.90497063751026
 30
0.0
 10
99.9371672825415
 20
78.93760516857787
 30
0.0
 10
99.86429062151363
 20
78.86837190967435
 30
0.0
  0
LINE
  5
160
330
1F
100
AcDbEntity
  8
0
  6
Continuous
 62
     7
370
    15
100
AcDbLine
 10
99.8642906215
 20
78.8683719097
 30
0.0
 11
99.8642906215
 21
231.0729233973
 31
0.0
  0
SPLINE
  5
161
330
1F
100
AcDbEntity
  8
0
  6
Continuous
 62
     7
370
    15
100
AcDbSpline
210
0.0
220
0.0
230
1.0
 70
     8
 71
     3
 72
    12
 73
     8
 74
     0
 42
0.000000001
 43
0.00000001
 40
0.0
 40
0.0
 40
0.0
 40
0.0
 40
0.5
 40
0.75
 40
0.875
 40
0.875
 40
1.0
 40
1.0
 40
1.0
 40
1.0
 10
99.86429062151366
 20
231.0729233973233
 30
0.0
 10
99.93716728254152
 20
231.0036901384199
 30
0.0
 10
100.0465808508725
 20
231.0363246694874
 30
0.0
 10
100.1742209824691
 20
231.0618937931333
 30
0.0
 10
100.2289025098945
 20
231.0432418580757
 30
0.0
 10
100.2653499478407
 20
231.0212349171622
 30
0.0
 10
100.2835687401793
 20
231.0034102786213
 30
0.0
 10
100.3017872480432
 20
230.9851917707575
 30
0.0
  0
SPLINE
  5
162
330
1F
100
AcDbEntity
  8
0
  6
Continuous
 62
     7
370
    15
100
AcDbSpline
210
0.0
220
0.0
230
1.0
 70
     8
 71
     3
 72
    12
 73
     8
 74
     0
 42
0.000000001
 43
0.00000001
 40
0.0
 40
0.0
 40
0.0
 40
0.0
 40
0.125
 40
0.125
 40
0.25
 40
0.5
 40
1.0
 40
1.0
 40
1.0
 40
1.0
 10
343.6267939949842
 20
230.9851917707574
 30
0.0
 10
343.645012502848
 20
231.0034102786213
 30
0.0
 10
343.6632312951867
 20
231.0212349171622
 30
0.0
 10
343.6996787331328
 20
231.0432418580756
 30
0.0
 10
343.7543602605581
 20
231.0618937931333
 30
0.0
 10
343.8820003921547
 20
231.0363246694874
 30
0.0
 10
343.9914139604858
 20
231.0036901384199
 30
0.0
 10
344.0642906215136
 20
231.0729233973233
 30
0.0
  0
LINE
  5
163
330
1F
100
AcDbEntity
  8
0
  6
Continuous
 62
     7
370
    15
100
AcDbLine
 10
344.0642906215
 20
78.8683719097
 30
0.0
 11
344.0642906215
 21
231.0729233973
 31
0.0
  0
SPLINE
  5
164
330
1F
100
AcDbEntity
  8
0
  6
Continuous
 62
     7
370
    15
100
AcDbSpline
210
0.0
220
0.0
230
1.0
 70
     8
 71
     3
 72
    12
 73
     8
 74
     0
 42
0.000000001
 43
0.00000001
 40
0.0
 40
0.0
 40
0.0
 40
0.0
 40
0.5000000000000003
 40
0.7500000000000002
 40
0.8750000000000001
 40
0.8750000000000001
 40
1.0
 40
1.0
 40
1.0
 40
1.0
 10
344.0642906215137
 20
78.86837190967434
 30
0.0
 10
343.9914139604858
 20
78.93760516857786
 30
0.0
 10
343.8820003921548
 20
78.9049706375103
 30
0.0
 10
343.7543602605582
 20
78.87940151386435
 30
0.0
 10
343.6996787331329
 20
78.89805344892204
 30
0.0
 10
343.6632312951867
 20
78.92006038983547
 30
0.0
 10
343.645012502848
 20
78.93788502837636
 30
0.0
 10
343.6267939949842
 20
78.95610353624025
 30
0.0
  0
LINE
  5
165
330
1F
100
AcDbEntity
  8
0
  6
Continuous
 62
     7
370
    15
100
AcDbLine
 10
101.6354196376
 20
79.2697600881
 30
0.0
 11
101.5651742004
 21
79.2699257014
 31
0.0
  0
LINE
  5
166
330
1F
100
AcDbEntity
  8
0
  6
Continuous
 62
     7
370
    15
100
AcDbLine
 10
101.6354196376
 20
79.2697600881
 30
0.0
 11
101.6386281048
 21
83.1388916158
 31
0.0
  0
LINE
  5
167
330
1F
100
AcDbEntity
  8
0
  6
Continuous
 62
     7
370
    15
100
AcDbLine
 10
342.2931616054
 20
230.6715352189
 30
0.0
 11
342.3634070426
 21
230.6713696056
 31
0.0
  0
LINE
  5
168
330
1F
100
AcDbEntity
  8
0
  6
Continuous
 62
     7
370
    15
100
AcDbLine
 10
342.2931616054
 20
230.6715352189
 30
0.0
 11
342.2899531382
 21
226.8024036912
 31
0.0
  0
LINE
  5
169
330
1F
100
AcDbEntity
  8
0
  6
Continuous
 62
     7
370
    15
100
AcDbLine
 10
342.2931616054
 20
79.2697600881
 30
0.0
 11
342.3634070426
 21
79.2699257014
 31
0.0
  0
LINE
  5
16A
330
1F
100
AcDbEntity
  8
0
  6
Continuous
 62
     7
370
    15
100
AcDbLine
 10
342.2931616054
 20
79.2697600881
 30
0.0
 11
342.2899531382
 21
83.1388916158
 31
0.0
  0
LINE
  5
16B
330
1F
100
AcDbEntity
  8
0
  6
Continuous
 62
     7
370
    15
100
AcDbLine
 10
101.6354196376
 20
230.6715352189
 30
0.0
 11
101.5651742004
 21
230.6713696056
 31
0.0
  0
LINE
  5
16C
330
1F
100
AcDbEntity
  8
0
  6
Continuous
 62
     7
370
    15
100
AcDbLine
 10
101.6354196376
 20
230.6715352189
 30
0.0
 11
101.6386281048
 21
226.8024036912
 31
0.0
  0
LINE
  5
16D
330
1F
100
AcDbEntity
  8
0
  6
Continuous
 62
     7
370
    15
100
AcDbLine
 10
337.6651781869
 20
235.2995186374
 30
0.0
 11
337.6650125736
 21
235.3697640746
 31
0.0
  0
LINE
  5
16E
330
1F
100
AcDbEntity
  8
0
  6
Continuous
 62
     7
370
    15
100
AcDbLine
 10
337.6651781869
 20
235.2995186374
 30
0.0
 11
333.7960466627
 21
235.2963101702
 31
0.0
  0
LINE
  5
16F
330
1F
100
AcDbEntity
  8
0
  6
Continuous
 62
     7
370
    15
100
AcDbLine
 10
337.6651781869
 20
74.6417766696
 30
0.0
 11
337.6650125736
 21
74.5715312324
 31
0.0
  0
LINE
  5
170
330
1F
100
AcDbEntity
  8
0
  6
Continuous
 62
     7
370
    15
100
AcDbLine
 10
337.6651781869
 20
74.6417766696
 30
0.0
 11
333.7960466627
 21
74.6449851368
 31
0.0
  0
LINE
  5
171
330
1F
100
AcDbEntity
  8
0
  6
Continuous
 62
     7
370
    15
100
AcDbLine
 10
106.2634030561
 20
235.2995186374
 30
0.0
 11
106.2635686695
 21
235.3697640746
 31
0.0
  0
LINE
  5
172
330
1F
100
AcDbEntity
  8
0
  6
Continuous
 62
     7
370
    15
100
AcDbLine
 10
106.2634030561
 20
235.2995186374
 30
0.0
 11
110.1325345803
 21
235.2963101702
 31
0.0
  0
LINE
  5
173
330
1F
100
AcDbEntity
  8
0
  6
Continuous
 62
     7
370
    15
100
AcDbLine
 10
106.2634030561
 20
74.6417766696
 30
0.0
 11
106.2635686695
 21
74.5715312324
 31
0.0
  0
LINE
  5
174
330
1F
100
AcDbEntity
  8
0
  6
Continuous
 62
     7
370
    15
100
AcDbLine
 10
106.2634030561
 20
74.6417766696
 30
0.0
 11
110.1325345803
 21
74.6449851368
 31
0.0
  0
SPLINE
  5
175
330
1F
100
AcDbEntity
  8
0
  6
Continuous
 62
     7
370
    15
100
AcDbSpline
210
0.0
220
0.0
230
1.0
 70
     8
 71
     3
 72
    26
 73
    22
 74
     0
 42
0.000000001
 43
0.00000001
 40
0.0
 40
0.0
 40
0.0
 40
0.0
 40
0.1250000000000003
 40
0.1250000000000003
 40
0.1875000000000009
 40
0.1875000000000009
 40
0.2500000000000014
 40
0.2500000000000014
 40
0.3750000000000043
 40
0.3750000000000043
 40
0.5000000000000071
 40
0.5000000000000071
 40
0.62500000000001
 40
0.62500000000001
 40
0.6875000000000083
 40
0.6875000000000083
 40
0.7500000000000067
 40
0.7500000000000067
 40
0.8750000000000034
 40
0.8750000000000034
 40
1.0
 40
1.0
 40
1.0
 40
1.0
 10
99.86429062151363
 20
231.0729233973233
 30
0.0
 10
99.86429062151363
 20
231.4689454199206
 30
0.0
 10
99.90310407002907
 20
231.8583589278119
 30
0.0
 10
100.017184026213
 20
232.4329683058121
 30
0.0
 10
100.0645896803205
 20
232.6229078631612
 30
0.0
 10
100.1785888038552
 20
232.999519992715
 30
0.0
 10
100.2455076425659
 20
233.1867147590652
 30
0.0
 10
100.4709979894534
 20
233.7312649012596
 30
0.0
 10
100.6549931654575
 20
234.0756390780096
 30
0.0
 10
101.089716814767
 20
234.7274032600346
 30
0.0
 10
101.3427879374674
 20
235.0360437859304
 30
0.0
 10
101.8956483484069
 20
235.5893017289704
 30
0.0
 10
102.1973142801812
 20
235.8375753691139
 30
0.0
 10
102.6885532880824
 20
236.166456721026
 30
0.0
 10
102.8587940358563
 20
236.2686010666476
 30
0.0
 10
103.2048003566927
 20
236.4537371506206
 30
0.0
 10
103.3814737881983
 20
236.5373736643635
 30
0.0
 10
103.9223349046615
 20
236.7619022911878
 30
0.0
 10
104.2994251944891
 20
236.8770826970727
 30
0.0
 10
105.0742811184674
 20
237.0318294719917
 30
0.0
 10
105.4659919547278
 20
237.0706476534988
 30
0.0
 10
105.8620148776891
 20
237.0706476534988
 30
0.0
  0
SPLINE
  5
176
330
1F
100
AcDbEntity
  8
0
  6
Continuous
 62
     7
370
    15
100
AcDbSpline
210
0.0
220
0.0
230
1.0
 70
     8
 71
     3
 72
    26
 73
    22
 74
     0
 42
0.000000001
 43
0.00000001
 40
0.0
 40
0.0
 40
0.0
 40
0.0
 40
0.1250000000000018
 40
0.1250000000000018
 40
0.1875000000000023
 40
0.1875000000000023
 40
0.2500000000000028
 40
0.2500000000000028
 40
0.3750000000000054
 40
0.3750000000000054
 40
0.500000000000008
 40
0.500000000000008
 40
0.6250000000000107
 40
0.6250000000000107
 40
0.6875000000000089
 40
0.6875000000000089
 40
0.7500000000000071
 40
0.7500000000000071
 40
0.8750000000000036
 40
0.8750000000000036
 40
1.0
 40
1.0
 40
1.0
 40
1.0
 10
105.862014877689
 20
72.87064765349875
 30
0.0
 10
105.4659928550918
 20
72.87064765349875
 30
0.0
 10
105.0765793472004
 20
72.90946110201423
 30
0.0
 10
104.5019699692003
 20
73.02354105819819
 30
0.0
 10
104.3120304118511
 20
73.07094671230583
 30
0.0
 10
103.9354182822974
 20
73.18494583584045
 30
0.0
 10
103.7482235159471
 20
73.25186467455116
 30
0.0
 10
103.2036733737527
 20
73.47735502143867
 30
0.0
 10
102.8592991970028
 20
73.6613501974427
 30
0.0
 10
102.2075350149778
 20
74.09607384675228
 30
0.0
 10
101.8988944890821
 20
74.34914496945272
 30
0.0
 10
101.345636546042
 20
74.90200538039214
 30
0.0
 10
101.0973629058985
 20
75.20367131216645
 30
0.0
 10
100.7684815539864
 20
75.69491032006763
 30
0.0
 10
100.6663372083648
 20
75.86515106784161
 30
0.0
 10
100.4812011243919
 20
76.211157388678
 30
0.0
 10
100.397564610649
 20
76.3878308201836
 30
0.0
 10
100.1730359838246
 20
76.9286919366467
 30
0.0
 10
100.0578555779397
 20
77.30578222647426
 30
0.0
 10
99.90310880302079
 20
78.08063815045264
 30
0.0
 10
99.86429062151363
 20
78.47234898671313
 30
0.0
 10
99.86429062151362
 20
78.86837190967435
 30
0.0
  0
SPLINE
  5
177
330
1F
100
AcDbEntity
  8
0
  6
Continuous
 62
     7
370
    15
100
AcDbSpline
210
0.0
220
0.0
230
1.0
 70
     8
 71
     3
 72
    26
 73
    22
 74
     0
 42
0.000000001
 43
0.00000001
 40
0.0
 40
0.0
 40
0.0
 40
0.0
 40
0.1249999999999989
 40
0.1249999999999989
 40
0.1874999999999987
 40
0.1874999999999987
 40
0.2499999999999986
 40
0.2499999999999986
 40
0.375
 40
0.375
 40
0.5000000000000014
 40
0.5000000000000014
 40
0.6250000000000029
 40
0.6250000000000029
 40
0.687500000000003
 40
0.687500000000003
 40
0.750000000000003
 40
0.750000000000003
 40
0.8750000000000016
 40
0.8750000000000016
 40
1.0
 40
1.0
 40
1.0
 40
1.0
 10
344.0642906215137
 20
78.86837190967432
 30
0.0
 10
344.0642906215137
 20
78.4723498870771
 30
0.0
 10
344.0254771729983
 20
78.08293637918575
 30
0.0
 10
343.9113972168143
 20
77.50832700118556
 30
0.0
 10
343.8639915627068
 20
77.31838744383643
 30
0.0
 10
343.7499924391721
 20
76.94177531428274
 30
0.0
 10
343.6830736004614
 20
76.75458054793249
 30
0.0
 10
343.4575832535739
 20
76.21003040573805
 30
0.0
 10
343.2735880775698
 20
75.8656562289881
 30
0.0
 10
342.8388644282603
 20
75.2138920469631
 30
0.0
 10
342.5857933055598
 20
74.90525152106734
 30
0.0
 10
342.0329328946204
 20
74.35199357802728
 30
0.0
 10
341.7312669628461
 20
74.10371993788382
 30
0.0
 10
341.2400279549449
 20
73.77483858597164
 30
0.0
 10
341.0697872071709
 20
73.67269424035004
 30
0.0
 10
340.7237808863345
 20
73.48755815637712
 30
0.0
 10
340.547107454829
 20
73.40392164263429
 30
0.0
 10
340.0062463383658
 20
73.17939301580984
 30
0.0
 10
339.6291560485383
 20
73.06421260992492
 30
0.0
 10
338.8543001245599
 20
72.90946583500602
 30
0.0
 10
338.4625892882994
 20
72.87064765349889
 30
0.0
 10
338.0665663653382
 20
72.87064765349886
 30
0.0
  0
SPLINE
  5
178
330
1F
100
AcDbEntity
  8
0
  6
Continuous
 62
     7
370
    15
100
AcDbSpline
210
0.0
220
0.0
230
1.0
 70
     8
 71
     3
 72
    26
 73
    22
 74
     0
 42
0.000000001
 43
0.00000001
 40
0.0
 40
0.0
 40
0.0
 40
0.0
 40
0.1249999999999969
 40
0.1249999999999969
 40
0.1874999999999959
 40
0.1874999999999959
 40
0.2499999999999948
 40
0.2499999999999948
 40
0.3749999999999926
 40
0.3749999999999926
 40
0.4999999999999905
 40
0.4999999999999905
 40
0.6249999999999882
 40
0.6249999999999882
 40
0.6874999999999902
 40
0.6874999999999902
 40
0.7499999999999921
 40
0.7499999999999921
 40
0.874999999999996
 40
0.874999999999996
 40
1.0
 40
1.0
 40
1.0
 40
1.0
 10
338.0665663653382
 20
237.0706476534988
 30
0.0
 10
338.4625883879353
 20
237.0706476534988
 30
0.0
 10
338.8520018958267
 20
237.0318342049835
 30
0.0
 10
339.4266112738269
 20
236.9177542487995
 30
0.0
 10
339.6165508311761
 20
236.870348594692
 30
0.0
 10
339.9931629607298
 20
236.7563494711573
 30
0.0
 10
340.18035772708
 20
236.6894306324466
 30
0.0
 10
340.7249078692744
 20
236.4639402855591
 30
0.0
 10
341.0692820460244
 20
236.279945109555
 30
0.0
 10
341.7210462280494
 20
235.8452214602455
 30
0.0
 10
342.0296867539451
 20
235.592150337545
 30
0.0
 10
342.5829446969852
 20
235.0392899266055
 30
0.0
 10
342.8312183371287
 20
234.7376239948312
 30
0.0
 10
343.1600996890409
 20
234.2463849869301
 30
0.0
 10
343.2622440346626
 20
234.0761442391561
 30
0.0
 10
343.4473801186354
 20
233.7301379183198
 30
0.0
 10
343.5310166323782
 20
233.5534644868141
 30
0.0
 10
343.7555452592026
 20
233.012603370351
 30
0.0
 10
343.8707256650876
 20
232.6355130805234
 30
0.0
 10
344.0254724400065
 20
231.860657156545
 30
0.0
 10
344.0642906215137
 20
231.4689463202846
 30
0.0
 10
344.0642906215136
 20
231.0729233973234
 30
0.0
  0
ELLIPSE
  5
179
330
1F
100
AcDbEntity
  8
0
  6
Continuous
 62
     7
370
    15
100
AcDbEllipse
 10
337.6690019751
 20
230.6753590071
 30
0.0
 11
3.269779568805006
 21
3.26977956880495
 31
0.0
210
0.0
220
0.0
230
1.0
 40
0.9999976679
 41
5.49695906264805
 42
7.069411551711142
  0
ELLIPSE
  5
17A
330
1F
100
AcDbEntity
  8
0
  6
Continuous
 62
     7
370
    15
100
AcDbEllipse
 10
337.6690019751
 20
79.2659362999
 30
0.0
 11
3.269779568805007
 21
-3.269779568804992
 31
0.0
210
0.0
220
0.0
230
1.0
 40
0.9999976679
 41
5.496959062648044
 42
7.069411551711147
  0
ELLIPSE
  5
17B
330
1F
100
AcDbEntity
  8
0
  6
Continuous
 62
     7
370
    15
100
AcDbEllipse
 10
106.2595792679
 20
79.2659362999
 30
0.0
 11
3.269779568804993
 21
3.269779568804978
 31
0.0
210
0.0
220
0.0
230
1.0
 40
0.9999976679
 41
2.355366409058235
 42
3.927818898121373
  0
ELLIPSE
  5
17C
330
1F
100
AcDbEntity
  8
0
  6
Continuous
 62
     7
370
    15
100
AcDbEllipse
 10
106.2595792679
 20
230.6753590071
 30
0.0
 11
3.269779568804992
 21
-3.269779568805007
 31
0.0
210
0.0
220
0.0
230
1.0
 40
0.9999976679
 41
2.355366409058228
 42
3.927818898121377
  0
CIRCLE
  5
17D
330
1F
100
AcDbEntity
  8
0
  6
Continuous
 62
     7
370
    15
100
AcDbCircle
 10
221.9642906215
 20
80.4767671012
 30
0.0
 40
4.007181188735117
  0
CIRCLE
  5
17E
330
1F
100
AcDbEntity
  8
0
  6
Continuous
 62
     7
370
    15
100
AcDbCircle
 10
221.9642906215
 20
229.4645282058
 30
0.0
 40
4.007181188735103
  0
CIRCLE
  5
17F
330
1F
100
AcDbEntity
  8
0
  6
Continuous
 62
     7
370
    15
100
AcDbCircle
 10
221.9642906215
 20
80.4706476535
 30
0.0
 40
3.999999999999986
  0
CIRCLE
  5
180
330
1F
100
AcDbEntity
  8
0
  6
Continuous
 62
     7
370
    15
100
AcDbCircle
 10
221.9642906215
 20
229.4706476535
 30
0.0
 40
4.0
  0
ARC
  5
181
330
1F
100
AcDbEntity
  8
0
  6
Continuous
 62
     7
370
    15
100
AcDbCircle
 10
107.4704369744
 20
229.4645013006
 30
0.0
 40
3.99652702054764
100
AcDbArc
 50
21.5071371637
 51
248.4928628366
  0
ARC
  5
182
330
1F
100
AcDbEntity
  8
0
  6
Continuous
 62
     7
370
    15
100
AcDbCircle
 10
107.4703938482
 20
229.4645444268
 30
0.0
 40
3.996551333558755
100
AcDbArc
 50
248.4936647268
 51
21.5063352732
  0
ARC
  5
183
330
1F
100
AcDbEntity
  8
0
  6
Continuous
 62
     7
370
    15
100
AcDbCircle
 10
107.4703938482
 20
80.4767508802
 30
0.0
 40
3.996551333558755
100
AcDbArc
 50
338.4936647268
 51
111.5063352732
  0
ARC
  5
184
330
1F
100
AcDbEntity
  8
0
  6
Continuous
 62
     7
370
    15
100
AcDbCircle
 10
107.4704369744
 20
80.4767940064
 30
0.0
 40
3.996527020547605
100
AcDbArc
 50
111.5071371637
 51
338.4928628363
  0
ARC
  5
185
330
1F
100
AcDbEntity
  8
0
  6
Continuous
 62
     7
370
    15
100
AcDbCircle
 10
336.4581442686
 20
80.4767940064
 30
0.0
 40
3.996527020547645
100
AcDbArc
 50
201.5071371637
 51
68.4928628366
  0
ARC
  5
186
330
1F
100
AcDbEntity
  8
0
  6
Continuous
 62
     7
370
    15
100
AcDbCircle
 10
336.4581873949
 20
80.4767508802
 30
0.0
 40
3.996551333558782
100
AcDbArc
 50
68.4936647268
 51
201.5063352732
  0
ARC
  5
187
330
1F
100
AcDbEntity
  8
0
  6
Continuous
 62
     7
370
    15
100
AcDbCircle
 10
336.4581873949
 20
229.4645444268
 30
0.0
 40
3.996551333558777
100
AcDbArc
 50
158.4936647268
 51
291.5063352732
  0
ARC
  5
188
330
1F
100
AcDbEntity
  8
0
  6
Continuous
 62
     7
370
    15
100
AcDbCircle
 10
336.4581442686
 20
229.4645013006
 30
0.0
 40
3.996527020547635
100
AcDbArc
 50
291.5071371637
 51
158.4928628363
  0
ARC
  5
189
330
1F
100
AcDbEntity
  8
0
  6
Continuous
 62
     7
370
    15
100
AcDbCircle
 10
336.4642906215
 20
229.4706476535
 30
0.0
 40
3.999999999999995
100
AcDbArc
 50
158.607049852
 51
291.392950148
  0
ARC
  5
18A
330
1F
100
AcDbEntity
  8
0
  6
Continuous
 62
     7
370
    15
100
AcDbCircle
 10
107.4642906215
 20
229.4706476535
 30
0.0
 40
4.000000000000015
100
AcDbArc
 50
248.6070498523
 51
21.392950148
  0
ARC
  5
18B
330
1F
100
AcDbEntity
  8
0
  6
Continuous
 62
     7
370
    15
100
AcDbCircle
 10
336.4642906215
 20
80.4706476535
 30
0.0
 40
4.000000000000017
100
AcDbArc
 50
68.6070498523
 51
201.392950148
  0
ARC
  5
18C
330
1F
100
AcDbEntity
  8
0
  6
Continuous
 62
     7
370
    15
100
AcDbCircle
 10
107.4642906215
 20
80.4706476535
 30
0.0
 40
3.999999999999989
100
AcDbArc
 50
338.607049852
 51
111.392950148
  0
CIRCLE
  5
18D
330
1F
100
AcDbEntity
  8
0
  6
Continuous
 62
     7
370
    15
100
AcDbCircle
 10
107.4642906215
 20
80.4706476535
 30
0.0
 40
3.855856207770273
  0
CIRCLE
  5
18E
330
1F
100
AcDbEntity
  8
0
  6
Continuous
 62
     7
370
    15
100
AcDbCircle
 10
336.4642906215
 20
229.4706476535
 30
0.0
 40
3.855856207770273
  0
CIRCLE
  5
18F
330
1F
100
AcDbEntity
  8
0
  6
Continuous
 62
     7
370
    15
100
AcDbCircle
 10
336.4642906215
 20
80.4706476535
 30
0.0
 40
3.855856207770273
  0
CIRCLE
  5
190
330
1F
100
AcDbEntity
  8
0
  6
Continuous
 62
     7
370
    15
100
AcDbCircle
 10
107.4642906215
 20
229.4706476535
 30
0.0
 40
3.855856207770273
  0
CIRCLE
  5
191
330
1F
100
AcDbEntity
  8
0
  6
Continuous
 62
     7
370
    15
100
AcDbCircle
 10
221.9642906215
 20
80.4706476535
 30
0.0
 40
3.855856207770287
  0
CIRCLE
  5
192
330
1F
100
AcDbEntity
  8
0
  6
Continuous
 62
     7
370
    15
100
AcDbCircle
 10
221.9642906215
 20
229.4706476535
 30
0.0
 40
3.855856207770273
  0
CIRCLE
  5
193
330
1F
100
AcDbEntity
  8
0
  6
Continuous
 62
     7
370
    15
100
AcDbCircle
 10
107.4642906215
 20
229.4706476535
 30
0.0
 40
3.055856207770262
  0
CIRCLE
  5
194
330
1F
100
AcDbEntity
  8
0
  6
Continuous
 62
     7
370
    15
100
AcDbCircle
 10
336.4642906215
 20
80.4706476535
 30
0.0
 40
3.055856207770276
  0
CIRCLE
  5
195
330
1F
100
AcDbEntity
  8
0
  6
Continuous
 62
     7
370
    15
100
AcDbCircle
 10
336.4642906215
 20
229.4706476535
 30
0.0
 40
3.055856207770262
  0
CIRCLE
  5
196
330
1F
100
AcDbEntity
  8
0
  6
Continuous
 62
     7
370
    15
100
AcDbCircle
 10
221.9642906215
 20
80.4706476535
 30
0.0
 40
3.05585620777029
  0
CIRCLE
  5
197
330
1F
100
AcDbEntity
  8
0
  6
Continuous
 62
     7
370
    15
100
AcDbCircle
 10
107.4642906215
 20
80.4706476535
 30
0.0
 40
3.055856207770276
  0
CIRCLE
  5
198
330
1F
100
AcDbEntity
  8
0
  6
Continuous
 62
     7
370
    15
100
AcDbCircle
 10
221.9642906215
 20
229.4706476535
 30
0.0
 40
3.055856207770319
  0
CIRCLE
  5
199
330
1F
100
AcDbEntity
  8
0
  6
Continuous
 62
     7
370
    15
100
AcDbCircle
 10
107.4642906215
 20
229.4706476535
 30
0.0
 40
2.999999999999943
  0
CIRCLE
  5
19A
330
1F
100
AcDbEntity
  8
0
  6
Continuous
 62
     7
370
    15
100
AcDbCircle
 10
336.4642906215
 20
229.4706476535
 30
0.0
 40
2.999999999999943
  0
CIRCLE
  5
19B
330
1F
100
AcDbEntity
  8
0
  6
Continuous
 62
     7
370
    15
100
AcDbCircle
 10
221.9642906215
 20
229.4706476535
 30
0.0
 40
3.0
  0
CIRCLE
  5
19C
330
1F
100
AcDbEntity
  8
0
  6
Continuous
 62
     7
370
    15
100
AcDbCircle
 10
336.4642906215
 20
80.4706476535
 30
0.0
 40
2.999999999999972
  0
CIRCLE
  5
19D
330
1F
100
AcDbEntity
  8
0
  6
Continuous
 62
     7
370
    15
100
AcDbCircle
 10
107.4642906215
 20
80.4706476535
 30
0.0
 40
2.999999999999972
  0
CIRCLE
  5
19E
330
1F
100
AcDbEntity
  8
0
  6
Continuous
 62
     7
370
    15
100
AcDbCircle
 10
221.9642906215
 20
80.4706476535
 30
0.0
 40
2.999999999999986
  0
CIRCLE
  5
19F
330
1F
100
AcDbEntity
  8
0
  6
Continuous
 62
     7
370
    15
100
AcDbCircle
 10
336.4642906215
 20
80.4706476535
 30
0.0
 40
1.75
  0
CIRCLE
  5
1A0
330
1F
100
AcDbEntity
  8
0
  6
Continuous
 62
     7
370
    15
100
AcDbCircle
 10
221.9642906215
 20
229.4706476535
 30
0.0
 40
1.750000000000028
  0
CIRCLE
  5
1A1
330
1F
100
AcDbEntity
  8
0
  6
Continuous
 62
     7
370
    15
100
AcDbCircle
 10
221.9642906215
 20
80.4706476535
 30
0.0
 40
1.75
  0
CIRCLE
  5
1A2
330
1F
100
AcDbEntity
  8
0
  6
Continuous
 62
     7
370
    15
100
AcDbCircle
 10
107.4642906215
 20
229.4706476535
 30
0.0
 40
1.749999999999972
  0
CIRCLE
  5
1A3
330
1F
100
AcDbEntity
  8
0
  6
Continuous
 62
     7
370
    15
100
AcDbCircle
 10
107.4642906215
 20
80.4706476535
 30
0.0
 40
1.75
  0
CIRCLE
  5
1A4
330
1F
100
AcDbEntity
  8
0
  6
Continuous
 62
     7
370
    15
100
AcDbCircle
 10
336.4642906215
 20
229.4706476535
 30
0.0
 40
1.749999999999972
  0
SPLINE
  5
1A5
330
1F
100
AcDbEntity
  8
0
  6
Continuous
 62
     7
370
    15
100
AcDbSpline
210
0.0
220
0.0
230
1.0
 70
     8
 71
     3
 72
    12
 73
     8
 74
     0
 42
0.000000001
 43
0.00000001
 40
0.0
 40
0.0
 40
0.0
 40
0.0
 40
0.1249999999999999
 40
0.1249999999999999
 40
0.2499999999999998
 40
0.4999999999999998
 40
1.0
 40
1.0
 40
1.0
 40
1.0
 10
105.949746504255
 20
282.9739347260989
 30
0.0
 10
105.9315279963911
 20
282.2962774343433
 30
0.0
 10
105.9137033578503
 20
281.6186095612382
 30
0.0
 10
105.8916964169368
 20
280.2629073119298
 30
0.0
 10
105.8730444818791
 20
278.2289681956728
 30
0.0
 10
105.8986136055251
 20
273.4812541378874
 30
0.0
 10
105.9312481365926
 20
269.411497001321
 30
0.0
 10
105.8620148776891
 20
266.7007700244803
 30
0.0
  0
SPLINE
  5
1A6
330
1F
100
AcDbEntity
  8
0
  6
Continuous
 62
     7
370
    15
100
AcDbSpline
210
0.0
220
0.0
230
1.0
 70
    24
 71
     3
 72
    26
 73
    22
 74
     0
 42
0.000000001
 43
0.00000001
 40
0.0
 40
0.0
 40
0.0
 40
0.0
 40
0.1250000000000018
 40
0.1250000000000018
 40
0.1875000000000023
 40
0.1875000000000023
 40
0.2500000000000028
 40
0.2500000000000028
 40
0.3750000000000054
 40
0.3750000000000054
 40
0.500000000000008
 40
0.500000000000008
 40
0.6250000000000107
 40
0.6250000000000107
 40
0.6875000000000089
 40
0.6875000000000089
 40
0.7500000000000071
 40
0.7500000000000071
 40
0.8750000000000036
 40
0.8750000000000036
 40
1.0
 40
1.0
 40
1.0
 40
1.0
 10
105.862014877689
 20
266.7007700244773
 30
0.0
 10
105.4659928550918
 20
266.7007700244773
 30
0.0
 10
105.0765793472005
 20
266.7007700244803
 30
0.0
 10
104.5019699692003
 20
266.7007700244803
 30
0.0
 10
104.3120304118512
 20
266.7007700244803
 30
0.0
 10
103.9354182822974
 20
266.7007700244803
 30
0.0
 10
103.7482235159472
 20
266.7007700244803
 30
0.0
 10
103.2036733737527
 20
266.7007700244803
 30
0.0
 10
102.8592991970028
 20
266.7007700244803
 30
0.0
 10
102.2075350149778
 20
266.7007700244803
 30
0.0
 10
101.8988944890821
 20
266.7007700244803
 30
0.0
 10
101.345636546042
 20
266.7007700244803
 30
0.0
 10
101.0973629058985
 20
266.7007700244803
 30
0.0
 10
100.7684815539864
 20
266.7007700244803
 30
0.0
 10
100.6663372083648
 20
266.7007700244803
 30
0.0
 10
100.4812011243919
 20
266.7007700244803
 30
0.0
 10
100.397564610649
 20
266.7007700244803
 30
0.0
 10
100.1730359838247
 20
266.7007700244803
 30
0.0
 10
100.0578555779397
 20
266.7007700244803
 30
0.0
 10
99.90310880302081
 20
266.7007700244803
 30
0.0
 10
99.86429062151366
 20
266.7007700244803
 30
0.0
 10
99.86429062151365
 20
266.7007700244803
 30
0.0
  0
SPLINE
  5
1A7
330
1F
100
AcDbEntity
  8
0
  6
Continuous
 62
     7
370
    15
100
AcDbSpline
210
0.0
220
0.0
230
1.0
 70
    24
 71
     3
 72
    12
 73
     8
 74
     0
 42
0.000000001
 43
0.00000001
 40
0.0
 40
0.0
 40
0.0
 40
0.0
 40
0.125
 40
0.125
 40
0.2500000000000001
 40
0.5000000000000001
 40
1.0
 40
1.0
 40
1.0
 40
1.0
 10
100.3017872480431
 20
282.9739347260989
 30
0.0
 10
100.2835687401792
 20
282.2962774343433
 30
0.0
 10
100.2653499478407
 20
281.6186095612382
 30
0.0
 10
100.2289025098944
 20
280.2629073119298
 30
0.0
 10
100.1742209824691
 20
278.2289681956728
 30
0.0
 10
100.0465808508724
 20
273.4812541378874
 30
0.0
 10
99.93716728254152
 20
269.411497001321
 30
0.0
 10
99.86429062151366
 20
266.7007700244803
 30
0.0
  0
SPLINE
  5
1A8
330
1F
100
AcDbEntity
  8
0
  6
Continuous
 62
     7
370
    15
100
AcDbSpline
210
0.0
220
0.0
230
1.0
 70
     8
 71
     3
 72
    24
 73
    20
 74
     0
 42
0.000000001
 43
0.00000001
 40
0.0
 40
0.0
 40
0.0
 40
0.0
 40
0.1249999999999949
 40
0.1249999999999949
 40
0.1874999999999942
 40
0.1874999999999942
 40
0.2499999999999934
 40
0.2499999999999934
 40
0.3749999999999946
 40
0.3749999999999946
 40
0.4999999999999957
 40
0.4999999999999957
 40
0.6249999999999968
 40
0.6249999999999968
 40
0.7499999999999979
 40
0.7499999999999979
 40
0.874999999999999
 40
0.874999999999999
 40
1.0
 40
1.0
 40
1.0
 40
1.0
 10
100.3017872480431
 20
282.9739347260989
 30
0.0
 10
100.3009094728294
 20
282.9412849186318
 30
0.0
 10
100.3363907948511
 20
282.9123231859243
 30
0.0
 10
100.4423383100036
 20
282.8742287863229
 30
0.0
 10
100.4865055243751
 20
282.8624284899459
 30
0.0
 10
100.5930138789672
 20
282.8406713642278
 30
0.0
 10
100.6556419611773
 20
282.8307021019015
 30
0.0
 10
100.8669780143699
 20
282.8042463660815
 30
0.0
 10
101.0398343273952
 20
282.7909259637381
 30
0.0
 10
101.4492401775796
 20
282.7728865287024
 30
0.0
 10
101.6878881444224
 20
282.7682652555267
 30
0.0
 10
102.2095503315029
 20
282.7682298626078
 30
0.0
 10
102.4944514378456
 20
282.7726660925615
 30
0.0
 10
103.1136337547776
 20
282.7906758700263
 30
0.0
 10
103.4424459038789
 20
282.8041461791761
 30
0.0
 10
104.12309407155
 20
282.8391348324204
 30
0.0
 10
104.4798356829344
 20
282.8609128315969
 30
0.0
 10
105.2089750857957
 20
282.9121531152487
 30
0.0
 10
105.577418134412
 20
282.9412834157133
 30
0.0
 10
105.949746504255
 20
282.9739347260989
 30
0.0
  0
SPLINE
  5
1A9
330
1F
100
AcDbEntity
  8
0
  6
Continuous
 62
     7
370
    15
100
AcDbSpline
210
0.0
220
0.0
230
1.0
 70
    24
 71
     3
 72
    12
 73
     8
 74
     0
 42
0.000000001
 43
0.00000001
 40
0.0
 40
0.0
 40
0.0
 40
0.0
 40
0.5000000000000003
 40
0.7500000000000002
 40
0.8750000000000001
 40
0.8750000000000001
 40
1.0
 40
1.0
 40
1.0
 40
1.0
 10
344.0642906215137
 20
266.7007700244803
 30
0.0
 10
343.9914139604858
 20
269.411497001321
 30
0.0
 10
343.8820003921549
 20
273.4812541378874
 30
0.0
 10
343.7543602605583
 20
278.2289681956728
 30
0.0
 10
343.6996787331329
 20
280.2629073119298
 30
0.0
 10
343.6632312951867
 20
281.6186095612382
 30
0.0
 10
343.6450125028481
 20
282.2962774343433
 30
0.0
 10
343.6267939949842
 20
282.9739347260989
 30
0.0
  0
SPLINE
  5
1AA
330
1F
100
AcDbEntity
  8
0
  6
Continuous
 62
     7
370
    15
100
AcDbSpline
210
0.0
220
0.0
230
1.0
 70
    24
 71
     3
 72
    26
 73
    22
 74
     0
 42
0.000000001
 43
0.00000001
 40
0.0
 40
0.0
 40
0.0
 40
0.0
 40
0.1249999999999989
 40
0.1249999999999989
 40
0.1874999999999987
 40
0.1874999999999987
 40
0.2499999999999986
 40
0.2499999999999986
 40
0.375
 40
0.375
 40
0.5000000000000014
 40
0.5000000000000014
 40
0.6250000000000029
 40
0.6250000000000029
 40
0.687500000000003
 40
0.687500000000003
 40
0.750000000000003
 40
0.750000000000003
 40
0.8750000000000016
 40
0.8750000000000016
 40
1.0
 40
1.0
 40
1.0
 40
1.0
 10
344.0642906215137
 20
266.7007700244803
 30
0.0
 10
344.0642906215137
 20
266.7007700244803
 30
0.0
 10
344.0254771729983
 20
266.7007700244803
 30
0.0
 10
343.9113972168143
 20
266.7007700244803
 30
0.0
 10
343.8639915627068
 20
266.7007700244803
 30
0.0
 10
343.7499924391721
 20
266.7007700244803
 30
0.0
 10
343.6830736004615
 20
266.7007700244803
 30
0.0
 10
343.4575832535739
 20
266.7007700244803
 30
0.0
 10
343.2735880775699
 20
266.7007700244803
 30
0.0
 10
342.8388644282603
 20
266.7007700244803
 30
0.0
 10
342.5857933055599
 20
266.7007700244803
 30
0.0
 10
342.0329328946204
 20
266.7007700244803
 30
0.0
 10
341.7312669628461
 20
266.7007700244803
 30
0.0
 10
341.2400279549449
 20
266.7007700244803
 30
0.0
 10
341.069787207171
 20
266.7007700244803
 30
0.0
 10
340.7237808863345
 20
266.7007700244803
 30
0.0
 10
340.547107454829
 20
266.7007700244803
 30
0.0
 10
340.0062463383659
 20
266.7007700244803
 30
0.0
 10
339.6291560485384
 20
266.7007700244803
 30
0.0
 10
338.85430012456
 20
266.7007700244803
 30
0.0
 10
338.4625892882995
 20
266.7007700244803
 30
0.0
 10
338.0665663653382
 20
266.7007700244803
 30
0.0
  0
SPLINE
  5
1AB
330
1F
100
AcDbEntity
  8
0
  6
Continuous
 62
     7
370
    15
100
AcDbSpline
210
0.0
220
0.0
230
1.0
 70
     8
 71
     3
 72
    12
 73
     8
 74
     0
 42
0.000000001
 43
0.00000001
 40
0.0
 40
0.0
 40
0.0
 40
0.0
 40
0.5000000000000002
 40
0.7500000000000001
 40
0.875
 40
0.875
 40
1.0
 40
1.0
 40
1.0
 40
1.0
 10
338.0665663653382
 20
266.7007700244803
 30
0.0
 10
337.9973331064347
 20
269.411497001321
 30
0.0
 10
338.0299676375022
 20
273.4812541378874
 30
0.0
 10
338.0555367611482
 20
278.2289681956728
 30
0.0
 10
338.0368848260905
 20
280.2629073119298
 30
0.0
 10
338.014877885177
 20
281.6186095612382
 30
0.0
 10
337.9970532466362
 20
282.2962774343433
 30
0.0
 10
337.9788347387723
 20
282.9739347260989
 30
0.0
  0
SPLINE
  5
1AC
330
1F
100
AcDbEntity
  8
0
  6
Continuous
 62
     7
370
    15
100
AcDbSpline
210
0.0
220
0.0
230
1.0
 70
     8
 71
     3
 72
    24
 73
    20
 74
     0
 42
0.000000001
 43
0.00000001
 40
0.0
 40
0.0
 40
0.0
 40
0.0
 40
0.1250000000000065
 40
0.1250000000000065
 40
0.1875000000000079
 40
0.1875000000000079
 40
0.2500000000000093
 40
0.2500000000000093
 40
0.3750000000000077
 40
0.3750000000000077
 40
0.5000000000000061
 40
0.5000000000000061
 40
0.6250000000000046
 40
0.6250000000000046
 40
0.750000000000003
 40
0.750000000000003
 40
0.8750000000000014
 40
0.8750000000000014
 40
1.0
 40
1.0
 40
1.0
 40
1.0
 10
337.9788347387723
 20
282.9739347260989
 30
0.0
 10
338.3511459705836
 20
282.9412849186318
 30
0.0
 10
338.7176614122312
 20
282.9123231859242
 30
0.0
 10
339.2590299072694
 20
282.8742287863229
 30
0.0
 10
339.4380751264177
 20
282.8624284899459
 30
0.0
 10
339.7932685659247
 20
282.8406713642278
 30
0.0
 10
339.9698458379456
 20
282.8307021019014
 30
0.0
 10
340.4835723352678
 20
282.8042463660815
 30
0.0
 10
340.8086815437729
 20
282.7909259637381
 30
0.0
 10
341.4242790799281
 20
282.7728865287023
 30
0.0
 10
341.7157484408734
 20
282.7682652555267
 30
0.0
 10
342.2378151708692
 20
282.7682298626077
 30
0.0
 10
342.4720099368141
 20
282.7726660925614
 30
0.0
 10
342.8853395553609
 20
282.7906758700263
 30
0.0
 10
343.0601853663461
 20
282.8041461791761
 30
0.0
 10
343.3409113974323
 20
282.8391348324204
 30
0.0
 10
343.44872933918
 20
282.8609128315968
 30
0.0
 10
343.5921896198926
 20
282.9121531152487
 30
0.0
 10
343.6276718106032
 20
282.9412834157133
 30
0.0
 10
343.6267939949842
 20
282.9739347260989
 30
0.0
  0
LINE
  5
1AD
330
1F
100
AcDbEntity
  8
0
  6
Continuous
 62
     7
370
    15
100
AcDbLine
 10
114.2519829412
 20
283.7020793141
 30
0.0
 11
114.2519815153
 21
283.7019986455
 31
0.0
  0
LINE
  5
1AE
330
1F
100
AcDbEntity
  8
0
  6
Continuous
 62
     7
370
    15
100
AcDbLine
 10
214.6642892221
 20
283.7020793141
 30
0.0
 11
114.2519829412
 21
283.7020793141
 31
0.0
  0
LINE
  5
1AF
330
1F
100
AcDbEntity
  8
0
  6
Continuous
 62
     7
370
    15
100
AcDbLine
 10
214.6642892221
 20
283.7020793141
 30
0.0
 11
214.6642906215
 21
283.7019986458
 31
0.0
  0
LINE
  5
1B0
330
1F
100
AcDbEntity
  8
0
  6
Continuous
 62
     7
370
    15
100
AcDbLine
 10
214.6642906215
 20
283.7019986458
 30
0.0
 11
229.2642906215
 21
283.7019986458
 31
0.0
  0
LINE
  5
1B1
330
1F
100
AcDbEntity
  8
0
  6
Continuous
 62
     7
370
    15
100
AcDbLine
 10
229.2642920209
 20
283.7020793141
 30
0.0
 11
229.2642906215
 21
283.7019986458
 31
0.0
  0
LINE
  5
1B2
330
1F
100
AcDbEntity
  8
0
  6
Continuous
 62
     7
370
    15
100
AcDbLine
 10
329.6765983018
 20
283.7020793141
 30
0.0
 11
229.2642920209
 21
283.7020793141
 31
0.0
  0
LINE
  5
1B3
330
1F
100
AcDbEntity
  8
0
  6
Continuous
 62
     7
370
    15
100
AcDbLine
 10
329.6765983018
 20
283.7020793141
 30
0.0
 11
329.6765997277
 21
283.7019986455
 31
0.0
  0
LINE
  5
1B4
330
1F
100
AcDbEntity
  8
0
  6
Continuous
 62
     7
370
    15
100
AcDbLine
 10
337.9788347388
 20
282.9739347261
 30
0.0
 11
329.6765997277
 21
283.7019986455
 31
0.0
  0
LINE
  5
1B5
330
1F
100
AcDbEntity
  8
0
  6
Continuous
 62
     7
370
    15
100
AcDbLine
 10
114.2519815153
 20
283.7019986455
 30
0.0
 11
105.9497465043
 21
282.9739347261
 31
0.0
  0
LINE
  5
1B6
330
1F
100
AcDbEntity
  8
0
  6
Continuous
 62
     7
370
    15
100
AcDbLine
 10
338.0665663653
 20
266.7007700245
 30
0.0
 11
105.8620148777
 21
266.7007700245
 31
0.0
  0
ELLIPSE
  5
1B7
330
1F
100
AcDbEntity
  8
0
  6
Continuous
 62
     7
370
    15
100
AcDbEllipse
 10
106.2596867054
 20
283.522299641
 30
0.0
 11
4.694376619958291
 21
0.4138491608349569
 31
0.0
210
0.0
220
0.0
230
1.0
 40
0.0868190381
 41
3.133109720430832
 42
4.705562209493886
  0
LINE
  5
1B8
330
1F
100
AcDbEntity
  8
0
  6
Continuous
 62
     7
370
    15
100
AcDbLine
 10
110.2028874861
 20
283.4568541789
 30
0.0
 11
106.2635686695
 21
283.1119226439
 31
0.0
  0
ELLIPSE
  5
1B9
330
1F
100
AcDbEntity
  8
0
  6
Continuous
 62
     7
370
    15
100
AcDbEllipse
 10
110.1994716335
 20
283.7186615146
 30
0.0
 11
3.004953740968304
 21
0.2648187198709024
 31
0.0
210
0.0
220
0.0
230
1.0
 40
0.086555038
 41
4.705897966695395
 42
6.274032790228866
  0
LINE
  5
1BA
330
1F
100
AcDbEntity
  8
0
  6
Continuous
 62
     7
370
    15
100
AcDbLine
 10
113.2131580197
 20
284.4765734499
 30
0.0
 11
113.2045093005
 21
283.9810886624
 31
0.0
  0
ELLIPSE
  5
1BB
330
1F
100
AcDbEntity
  8
0
  6
Continuous
 62
     7
370
    15
100
AcDbEllipse
 10
110.2081035393
 20
284.213183065
 30
0.0
 11
3.004969396662048
 21
0.2658038545963564
 31
0.0
210
0.0
220
0.0
230
1.0
 40
0.0868140731
 41
6.273976885897844
 42
7.844468626197595
  0
LINE
  5
1BC
330
1F
100
AcDbEntity
  8
0
  6
Continuous
 62
     7
370
    15
100
AcDbLine
 10
104.5588466206
 20
283.9810886627
 30
0.0
 11
110.2136149342
 21
284.4765734499
 31
0.0
  0
ELLIPSE
  5
1BD
330
1F
100
AcDbEntity
  8
0
  6
Continuous
 62
     7
370
    15
100
AcDbEllipse
 10
104.5643282632
 20
283.718661515
 30
0.0
 11
2.99580019026908
 21
0.2640362061596875
 31
0.0
210
0.0
220
0.0
230
1.0
 40
0.0870846543
 41
1.564950954970611
 42
3.133085778503779
  0
LINE
  5
1BE
330
1F
100
AcDbEntity
  8
0
  6
Continuous
 62
     7
370
    15
100
AcDbLine
 10
101.5684408702
 20
283.4568541792
 30
0.0
 11
101.5651742004
 21
283.1119226439
 31
0.0
  0
LINE
  5
1BF
330
1F
100
AcDbEntity
  8
0
  6
Continuous
 62
     7
370
    15
100
AcDbLine
 10
114.2519815188
 20
284.9207700245
 30
0.0
 11
100.3213609152
 21
283.7019986458
 31
0.0
  0
LINE
  5
1C0
330
1F
100
AcDbEntity
  8
0
  6
Continuous
 62
     7
370
    15
100
AcDbLine
 10
114.2519815153
 20
283.7019986455
 30
0.0
 11
114.2519815188
 21
284.9207700245
 31
0.0
  0
LINE
  5
1C1
330
1F
100
AcDbEntity
  8
0
  6
Continuous
 62
     7
370
    15
100
AcDbLine
 10
100.301787248
 20
282.9739347261
 30
0.0
 11
100.3213609152
 21
283.7019986458
 31
0.0
  0
ELLIPSE
  5
1C2
330
1F
100
AcDbEntity
  8
0
  6
Continuous
 62
     7
370
    15
100
AcDbEllipse
 10
333.7291096095
 20
283.7186615146
 30
0.0
 11
3.00495374096829
 21
-0.2648187198709593
 31
0.0
210
0.0
220
0.0
230
1.0
 40
0.086555038
 41
3.150745170541062
 42
4.718879994073969
  0
LINE
  5
1C3
330
1F
100
AcDbEntity
  8
0
  6
Continuous
 62
     7
370
    15
100
AcDbLine
 10
333.725693757
 20
283.4568541789
 30
0.0
 11
337.6650125736
 21
283.1119226439
 31
0.0
  0
ELLIPSE
  5
1C4
330
1F
100
AcDbEntity
  8
0
  6
Continuous
 62
     7
370
    15
100
AcDbEllipse
 10
337.6688945377
 20
283.522299641
 30
0.0
 11
4.694376619958234
 21
-0.4138491608350137
 31
0.0
210
0.0
220
0.0
230
1.0
 40
0.0868190381
 41
4.719215751275488
 42
6.291668240338686
  0
LINE
  5
1C5
330
1F
100
AcDbEntity
  8
0
  6
Continuous
 62
     7
370
    15
100
AcDbLine
 10
342.3601403728
 20
283.4568541792
 30
0.0
 11
342.3634070426
 21
283.1119226439
 31
0.0
  0
ELLIPSE
  5
1C6
330
1F
100
AcDbEntity
  8
0
  6
Continuous
 62
     7
370
    15
100
AcDbEllipse
 10
339.3642529798
 20
283.718661515
 30
0.0
 11
2.995800190269108
 21
-0.2640362061596306
 31
0.0
210
0.0
220
0.0
230
1.0
 40
0.0870846543
 41
0.0085068750857826
 42
1.5766416986192
  0
LINE
  5
1C7
330
1F
100
AcDbEntity
  8
0
  6
Continuous
 62
     7
370
    15
100
AcDbLine
 10
339.3697346224
 20
283.9810886627
 30
0.0
 11
333.7149663088
 21
284.4765734499
 31
0.0
  0
ELLIPSE
  5
1C8
330
1F
100
AcDbEntity
  8
0
  6
Continuous
 62
     7
370
    15
100
AcDbEllipse
 10
333.7204777038
 20
284.213183065
 30
0.0
 11
3.004969396662034
 21
-0.2658038545963564
 31
0.0
210
0.0
220
0.0
230
1.0
 40
0.0868140731
 41
1.580309334571808
 42
3.150801074871858
  0
LINE
  5
1C9
330
1F
100
AcDbEntity
  8
0
  6
Continuous
 62
     7
370
    15
100
AcDbLine
 10
330.7154232234
 20
284.4765734499
 30
0.0
 11
330.7240719425
 21
283.9810886624
 31
0.0
  0
LINE
  5
1CA
330
1F
100
AcDbEntity
  8
0
  6
Continuous
 62
     7
370
    15
100
AcDbLine
 10
329.6765997277
 20
283.7019986455
 30
0.0
 11
329.6765997242
 21
284.9207700245
 31
0.0
  0
LINE
  5
1CB
330
1F
100
AcDbEntity
  8
0
  6
Continuous
 62
     7
370
    15
100
AcDbLine
 10
329.6765997242
 20
284.9207700245
 30
0.0
 11
343.6072203279
 21
283.7019986458
 31
0.0
  0
LINE
  5
1CC
330
1F
100
AcDbEntity
  8
0
  6
Continuous
 62
     7
370
    15
100
AcDbLine
 10
343.626793995
 20
282.9739347261
 30
0.0
 11
343.6072203279
 21
283.7019986458
 31
0.0
  0
LINE
  5
1CD
330
1F
100
AcDbEntity
  8
0
  6
Continuous
 62
     7
370
    15
100
AcDbLine
 10
114.2834705505
 20
286.7007700245
 30
0.0
 11
114.2519815188
 21
284.9207700245
 31
0.0
  0
LINE
  5
1CE
330
1F
100
AcDbEntity
  8
0
  6
Continuous
 62
     7
370
    15
100
AcDbLine
 10
114.2834705505
 20
286.7007700245
 30
0.0
 11
114.2835193621
 21
286.7007700245
 31
0.0
  0
LINE
  5
1CF
330
1F
100
AcDbEntity
  8
0
  6
Continuous
 62
     7
370
    15
100
AcDbLine
 10
114.2835193621
 20
286.7007700245
 30
0.0
 11
114.283519359
 21
285.6401122836
 31
0.0
  0
LINE
  5
1D0
330
1F
100
AcDbEntity
  8
0
  6
Continuous
 62
     7
370
    15
100
AcDbLine
 10
114.2519829412
 20
283.7020793141
 30
0.0
 11
114.283519359
 21
285.6401122836
 31
0.0
  0
LINE
  5
1D1
330
1F
100
AcDbEntity
  8
0
  6
Continuous
 62
     7
370
    15
100
AcDbLine
 10
329.6450618809
 20
286.7007700245
 30
0.0
 11
329.6451106925
 21
286.7007700245
 31
0.0
  0
LINE
  5
1D2
330
1F
100
AcDbEntity
  8
0
  6
Continuous
 62
     7
370
    15
100
AcDbLine
 10
329.6451106925
 20
286.7007700245
 30
0.0
 11
329.6765997242
 21
284.9207700245
 31
0.0
  0
LINE
  5
1D3
330
1F
100
AcDbEntity
  8
0
  6
Continuous
 62
     7
370
    15
100
AcDbLine
 10
329.645061884
 20
285.6401122836
 30
0.0
 11
329.6765983018
 21
283.7020793141
 31
0.0
  0
LINE
  5
1D4
330
1F
100
AcDbEntity
  8
0
  6
Continuous
 62
     7
370
    15
100
AcDbLine
 10
329.6450618809
 20
286.7007700245
 30
0.0
 11
329.645061884
 21
285.6401122836
 31
0.0
  0
LINE
  5
1D5
330
1F
100
AcDbEntity
  8
0
  6
Continuous
 62
     7
370
    15
100
AcDbLine
 10
214.6642906215
 20
283.7019986458
 30
0.0
 11
214.6642906215
 21
284.8744010328
 31
0.0
  0
LINE
  5
1D6
330
1F
100
AcDbEntity
  8
0
  6
Continuous
 62
     7
370
    15
100
AcDbLine
 10
214.6642906215
 20
284.8744010328
 30
0.0
 11
229.2642906215
 21
284.8744010328
 31
0.0
  0
LINE
  5
1D7
330
1F
100
AcDbEntity
  8
0
  6
Continuous
 62
     7
370
    15
100
AcDbLine
 10
229.2642906215
 20
283.7019986458
 30
0.0
 11
229.2642906215
 21
284.8744010328
 31
0.0
  0
ELLIPSE
  5
1D8
330
1F
100
AcDbEntity
  8
0
  6
Continuous
 62
     7
370
    15
100
AcDbEllipse
 10
218.9521824935
 20
284.5561267349
 30
0.0
 11
3.000461890981228
 21
-0.0004859133310901598
 31
0.0
210
0.0
220
0.0
230
1.0
 40
0.0876221806
 41
1.572644557356741
 42
3.143136297656494
  0
LINE
  5
1D9
330
1F
100
AcDbEntity
  8
0
  6
Continuous
 62
     7
370
    15
100
AcDbLine
 10
215.9600779885
 20
284.0776135294
 30
0.0
 11
215.9517241116
 21
284.5562068129
 31
0.0
  0
ELLIPSE
  5
1DA
330
1F
100
AcDbEntity
  8
0
  6
Continuous
 62
     7
370
    15
100
AcDbEllipse
 10
218.9605335791
 20
284.0776933633
 30
0.0
 11
3.000459078509891
 21
-0.0003222818459676091
 31
0.0
210
0.0
220
0.0
230
1.0
 40
0.0873551345
 41
3.143126827696517
 42
4.713618567995972
  0
LINE
  5
1DB
330
1F
100
AcDbEntity
  8
0
  6
Continuous
 62
     7
370
    15
100
AcDbLine
 10
224.9643864905
 20
283.8155876587
 30
0.0
 11
218.9641947525
 21
283.8155876587
 31
0.0
  0
ELLIPSE
  5
1DC
330
1F
100
AcDbEntity
  8
0
  6
Continuous
 62
     7
370
    15
100
AcDbEllipse
 10
224.9680476639
 20
284.0776933633
 30
0.0
 11
3.000459078509891
 21
0.0003222818459676091
 31
0.0
210
0.0
220
0.0
230
1.0
 40
0.0873551345
 41
4.71115939277341
 42
6.281651133073178
  0
LINE
  5
1DD
330
1F
100
AcDbEntity
  8
0
  6
Continuous
 62
     7
370
    15
100
AcDbLine
 10
227.9768571314
 20
284.5562068129
 30
0.0
 11
227.9685032546
 21
284.0776135294
 31
0.0
  0
ELLIPSE
  5
1DE
330
1F
100
AcDbEntity
  8
0
  6
Continuous
 62
     7
370
    15
100
AcDbEllipse
 10
224.9763987495
 20
284.5561267349
 30
0.0
 11
3.0004618909812
 21
0.0004859133311470032
 31
0.0
210
0.0
220
0.0
230
1.0
 40
0.0876221806
 41
6.281641663112993
 42
7.852133403412637
  0
LINE
  5
1DF
330
1F
100
AcDbEntity
  8
0
  6
Continuous
 62
     7
370
    15
100
AcDbLine
 10
218.946679528
 20
284.8190341977
 30
0.0
 11
224.981901715
 21
284.8190341977
 31
0.0
  0
LINE
  5
1E0
330
1F
100
AcDbEntity
  8
0
  6
Continuous
 62
     7
370
    15
100
AcDbLine
 10
214.6642906215
 20
284.8744010328
 30
0.0
 11
214.6333388367
 21
286.6571234644
 31
0.0
  0
LINE
  5
1E1
330
1F
100
AcDbEntity
  8
0
  6
Continuous
 62
     7
370
    15
100
AcDbLine
 10
214.6333388367
 20
285.6401122836
 30
0.0
 11
214.6642892221
 21
283.7020793141
 31
0.0
  0
LINE
  5
1E2
330
1F
100
AcDbEntity
  8
0
  6
Continuous
 62
     7
370
    15
100
AcDbLine
 10
214.6333388367
 20
286.6571234644
 30
0.0
 11
214.6333388367
 21
285.6401122836
 31
0.0
  0
LINE
  5
1E3
330
1F
100
AcDbEntity
  8
0
  6
Continuous
 62
     7
370
    15
100
AcDbLine
 10
229.2642906215
 20
284.8744010328
 30
0.0
 11
229.2952424063
 21
286.6571234644
 31
0.0
  0
LINE
  5
1E4
330
1F
100
AcDbEntity
  8
0
  6
Continuous
 62
     7
370
    15
100
AcDbLine
 10
229.2952424063
 20
286.6571234644
 30
0.0
 11
229.2952424063
 21
285.6401122836
 31
0.0
  0
LINE
  5
1E5
330
1F
100
AcDbEntity
  8
0
  6
Continuous
 62
     7
370
    15
100
AcDbLine
 10
229.2642920209
 20
283.7020793141
 30
0.0
 11
229.2952424063
 21
285.6401122836
 31
0.0
  0
LINE
  5
1E6
330
1F
100
AcDbEntity
  8
0
  6
Continuous
 62
     7
370
    15
100
AcDbLine
 10
114.283519359
 20
285.6401122836
 30
0.0
 11
214.6333388367
 21
285.6401122836
 31
0.0
  0
LINE
  5
1E7
330
1F
100
AcDbEntity
  8
0
  6
Continuous
 62
     7
370
    15
100
AcDbLine
 10
229.2952424063
 20
285.6401122836
 30
0.0
 11
329.645061884
 21
285.6401122836
 31
0.0
  0
LINE
  5
1E8
330
1F
100
AcDbEntity
  8
0
  6
Continuous
 62
     7
370
    15
100
AcDbLine
 10
229.2952424063
 20
286.6571234644
 30
0.0
 11
214.6333388367
 21
286.6571234644
 31
0.0
  0
LINE
  5
1E9
330
1F
100
AcDbEntity
  8
0
  6
Continuous
 62
     7
370
    15
100
AcDbLine
 10
114.2835193621
 20
286.7007700245
 30
0.0
 11
329.6450618809
 21
286.7007700245
 31
0.0
  0
LINE
  5
1EA
330
1F
100
AcDbEntity
  8
0
  6
Continuous
 62
     7
370
    15
100
AcDbLine
 10
114.2519815188
 20
286.7007700245
 30
0.0
 11
114.2834705505
 21
286.7007700245
 31
0.0
  0
LINE
  5
1EB
330
1F
100
AcDbEntity
  8
0
  6
Continuous
 62
     7
370
    15
100
AcDbLine
 10
102.1286080654
 20
285.6401122836
 30
0.0
 11
100.3213630839
 21
283.7020793141
 31
0.0
  0
LINE
  5
1EC
330
1F
100
AcDbEntity
  8
0
  6
Continuous
 62
     7
370
    15
100
AcDbLine
 10
102.1286080654
 20
285.6401122836
 30
0.0
 11
114.2519815188
 21
286.7007700245
 31
0.0
  0
LINE
  5
1ED
330
1F
100
AcDbEntity
  8
0
  6
Continuous
 62
     7
370
    15
100
AcDbLine
 10
100.3213609152
 20
283.7019986458
 30
0.0
 11
100.3213630839
 21
283.7020793141
 31
0.0
  0
LINE
  5
1EE
330
1F
100
AcDbEntity
  8
0
  6
Continuous
 62
     7
370
    15
100
AcDbLine
 10
341.7999731776
 20
285.6401122836
 30
0.0
 11
329.6765997242
 21
286.7007700245
 31
0.0
  0
LINE
  5
1EF
330
1F
100
AcDbEntity
  8
0
  6
Continuous
 62
     7
370
    15
100
AcDbLine
 10
343.6072181591
 20
283.7020793141
 30
0.0
 11
341.7999731776
 21
285.6401122836
 31
0.0
  0
LINE
  5
1F0
330
1F
100
AcDbEntity
  8
0
  6
Continuous
 62
     7
370
    15
100
AcDbLine
 10
329.6451106925
 20
286.7007700245
 30
0.0
 11
329.6765997242
 21
286.7007700245
 31
0.0
  0
LINE
  5
1F1
330
1F
100
AcDbEntity
  8
0
  6
Continuous
 62
     7
370
    15
100
AcDbLine
 10
343.6072181591
 20
283.7020793141
 30
0.0
 11
343.6072203279
 21
283.7019986458
 31
0.0
  0
LINE
  5
1F2
330
1F
100
AcDbEntity
  8
0
  6
Continuous
 62
     8
370
    15
100
AcDbLine
 10
101.5748987664
 20
283.0860082632
 30
0.0
 11
101.5684408702
 21
283.4568541792
 31
0.0
  0
LINE
  5
1F3
330
1F
100
AcDbEntity
  8
0
  6
Continuous
 62
     8
370
    15
100
AcDbLine
 10
342.3601403728
 20
283.4568541792
 30
0.0
 11
342.3536824766
 21
283.0860082632
 31
0.0
  0
LINE
  5
1F4
330
1F
100
AcDbEntity
  8
0
  6
Continuous
 62
     8
370
    15
100
AcDbLine
 10
218.946679528
 20
284.8190341977
 30
0.0
 11
218.9641947525
 21
283.8155876587
 31
0.0
  0
LINE
  5
1F5
330
1F
100
AcDbEntity
  8
0
  6
Continuous
 62
     8
370
    15
100
AcDbLine
 10
224.9643864905
 20
283.8155876587
 30
0.0
 11
224.981901715
 21
284.8190341977
 31
0.0
  0
LINE
  5
1F6
330
1F
100
AcDbEntity
  8
0
  6
Continuous
 62
     8
370
    15
100
AcDbLine
 10
104.5588466206
 20
283.9810886627
 30
0.0
 11
104.5760774102
 21
282.9916072963
 31
0.0
  0
LINE
  5
1F7
330
1F
100
AcDbEntity
  8
0
  6
Continuous
 62
     8
370
    15
100
AcDbLine
 10
339.3525038328
 20
282.9916072963
 30
0.0
 11
339.3697346224
 21
283.9810886627
 31
0.0
  0
LINE
  5
1F8
330
1F
100
AcDbEntity
  8
0
  6
Continuous
 62
     8
370
    15
100
AcDbLine
 10
110.1958048431
 20
283.4562340141
 30
0.0
 11
110.2136149342
 21
284.4765734499
 31
0.0
  0
LINE
  5
1F9
330
1F
100
AcDbEntity
  8
0
  6
Continuous
 62
     8
370
    15
100
AcDbLine
 10
333.7149663088
 20
284.4765734499
 30
0.0
 11
333.7327763999
 21
283.4562340141
 31
0.0
  0
SPLINE
  5
1FA
330
1F
100
AcDbEntity
  8
0
  6
Continuous
 62
     7
370
    15
100
AcDbSpline
210
0.0
220
0.0
230
1.0
 70
     8
 71
     3
 72
    12
 73
     8
 74
     0
 42
0.000000001
 43
0.00000001
 40
0.0
 40
0.0
 40
0.0
 40
0.0
 40
0.5000000000000003
 40
0.7500000000000002
 40
0.8750000000000001
 40
0.8750000000000001
 40
1.0
 40
1.0
 40
1.0
 40
1.0
 10
47.97369671258403
 20
78.86837190967431
 30
0.0
 10
45.26296973574334
 20
78.93760516857783
 30
0.0
 10
41.19321259917697
 20
78.90497063751027
 30
0.0
 10
36.44549854139155
 20
78.87940151386432
 30
0.0
 10
34.41155942513463
 20
78.89805344892201
 30
0.0
 10
33.0558571758262
 20
78.92006038983544
 30
0.0
 10
32.37818930272106
 20
78.93788502837633
 30
0.0
 10
31.70053201096542
 20
78.95610353624022
 30
0.0
  0
SPLINE
  5
1FB
330
1F
100
AcDbEntity
  8
0
  6
Continuous
 62
     7
370
    15
100
AcDbSpline
210
0.0
220
0.0
230
1.0
 70
    24
 71
     3
 72
    12
 73
     8
 74
     0
 42
0.000000001
 43
0.00000001
 40
0.0
 40
0.0
 40
0.0
 40
0.0
 40
0.5000000000000002
 40
0.7500000000000001
 40
0.875
 40
0.875
 40
1.0
 40
1.0
 40
1.0
 40
1.0
 10
47.97369671258403
 20
72.87064765349884
 30
0.0
 10
45.26296973574334
 20
72.94352431452668
 30
0.0
 10
41.19321259917697
 20
73.0529378828577
 30
0.0
 10
36.44549854139155
 20
73.18057801445431
 30
0.0
 10
34.41155942513463
 20
73.23525954187966
 30
0.0
 10
33.0558571758262
 20
73.27170697982588
 30
0.0
 10
32.37818930272106
 20
73.2899257721645
 30
0.0
 10
31.70053201096542
 20
73.30814428002836
 30
0.0
  0
SPLINE
  5
1FC
330
1F
100
AcDbEntity
  8
0
  6
Continuous
 62
     7
370
    15
100
AcDbSpline
210
0.0
220
0.0
230
1.0
 70
     8
 71
     3
 72
    24
 73
    20
 74
     0
 42
0.000000001
 43
0.00000001
 40
0.0
 40
0.0
 40
0.0
 40
0.0
 40
0.1250000000000065
 40
0.1250000000000065
 40
0.1875000000000079
 40
0.1875000000000079
 40
0.2500000000000093
 40
0.2500000000000093
 40
0.3750000000000077
 40
0.3750000000000077
 40
0.5000000000000061
 40
0.5000000000000061
 40
0.6250000000000046
 40
0.6250000000000046
 40
0.750000000000003
 40
0.750000000000003
 40
0.8750000000000014
 40
0.8750000000000014
 40
1.0
 40
1.0
 40
1.0
 40
1.0
 10
31.70053201096543
 20
73.30814428002836
 30
0.0
 10
31.73318181843261
 20
73.30726650481463
 30
0.0
 10
31.76214355114017
 20
73.34274782683629
 30
0.0
 10
31.80023795074151
 20
73.44869534198885
 30
0.0
 10
31.81203824711847
 20
73.49286255636027
 30
0.0
 10
31.83379537283652
 20
73.59937091095235
 30
0.0
 10
31.84376463516293
 20
73.6619989931626
 30
0.0
 10
31.87022037098285
 20
73.87333504635511
 30
0.0
 10
31.88354077332631
 20
74.04619135938047
 30
0.0
 10
31.90158020836205
 20
74.45559720956484
 30
0.0
 10
31.90620148153765
 20
74.6942451764076
 30
0.0
 10
31.90623687445667
 20
75.21590736348809
 30
0.0
 10
31.90180064450297
 20
75.50080846983083
 30
0.0
 10
31.88379086703804
 20
76.11999078676286
 30
0.0
 10
31.87032055788828
 20
76.44880293586408
 30
0.0
 10
31.83533190464403
 20
77.12945110353517
 30
0.0
 10
31.81355390546754
 20
77.48619271491967
 30
0.0
 10
31.76231362181571
 20
78.21533211778099
 30
0.0
 10
31.7331833213511
 20
78.5837751663972
 30
0.0
 10
31.70053201096543
 20
78.95610353624022
 30
0.0
  0
SPLINE
  5
1FD
330
1F
100
AcDbEntity
  8
0
  6
Continuous
 62
     7
370
    15
100
AcDbSpline
210
0.0
220
0.0
230
1.0
 70
    24
 71
     3
 72
    26
 73
    22
 74
     0
 42
0.000000001
 43
0.00000001
 40
0.0
 40
0.0
 40
0.0
 40
0.0
 40
0.1249999999999989
 40
0.1249999999999989
 40
0.1874999999999987
 40
0.1874999999999987
 40
0.2499999999999986
 40
0.2499999999999986
 40
0.375
 40
0.375
 40
0.5000000000000014
 40
0.5000000000000014
 40
0.6250000000000029
 40
0.6250000000000029
 40
0.687500000000003
 40
0.687500000000003
 40
0.750000000000003
 40
0.750000000000003
 40
0.8750000000000016
 40
0.8750000000000016
 40
1.0
 40
1.0
 40
1.0
 40
1.0
 10
47.97369671258403
 20
78.8683719096743
 30
0.0
 10
47.97369671258403
 20
78.47234988707707
 30
0.0
 10
47.97369671258403
 20
78.08293637918572
 30
0.0
 10
47.97369671258403
 20
77.50832700118553
 30
0.0
 10
47.97369671258403
 20
77.3183874438364
 30
0.0
 10
47.97369671258403
 20
76.94177531428271
 30
0.0
 10
47.97369671258403
 20
76.75458054793246
 30
0.0
 10
47.97369671258403
 20
76.21003040573802
 30
0.0
 10
47.97369671258403
 20
75.86565622898807
 30
0.0
 10
47.97369671258403
 20
75.21389204696307
 30
0.0
 10
47.97369671258403
 20
74.90525152106731
 30
0.0
 10
47.97369671258403
 20
74.35199357802725
 30
0.0
 10
47.97369671258403
 20
74.1037199378838
 30
0.0
 10
47.97369671258403
 20
73.77483858597161
 30
0.0
 10
47.97369671258403
 20
73.67269424035001
 30
0.0
 10
47.97369671258403
 20
73.48755815637709
 30
0.0
 10
47.97369671258403
 20
73.40392164263426
 30
0.0
 10
47.97369671258403
 20
73.17939301580981
 30
0.0
 10
47.97369671258403
 20
73.0642126099249
 30
0.0
 10
47.97369671258403
 20
72.90946583500599
 30
0.0
 10
47.97369671258403
 20
72.87064765349886
 30
0.0
 10
47.97369671258403
 20
72.87064765349884
 30
0.0
  0
SPLINE
  5
1FE
330
1F
100
AcDbEntity
  8
0
  6
Continuous
 62
     7
370
    15
100
AcDbSpline
210
0.0
220
0.0
230
1.0
 70
    24
 71
     3
 72
    12
 73
     8
 74
     0
 42
0.000000001
 43
0.00000001
 40
0.0
 40
0.0
 40
0.0
 40
0.0
 40
0.1249999999999998
 40
0.1249999999999998
 40
0.2499999999999997
 40
0.4999999999999997
 40
1.0
 40
1.0
 40
1.0
 40
1.0
 10
31.70053201096542
 20
236.6331510269693
 30
0.0
 10
32.37818930272105
 20
236.6513695348331
 30
0.0
 10
33.0558571758262
 20
236.6695883271718
 30
0.0
 10
34.41155942513463
 20
236.706035765118
 30
0.0
 10
36.44549854139154
 20
236.7607172925433
 30
0.0
 10
41.19321259917697
 20
236.88835742414
 30
0.0
 10
45.26296973574334
 20
236.997770992471
 30
0.0
 10
47.97369671258403
 20
237.0706476534988
 30
0.0
  0
SPLINE
  5
1FF
330
1F
100
AcDbEntity
  8
0
  6
Continuous
 62
     7
370
    15
100
AcDbSpline
210
0.0
220
0.0
230
1.0
 70
     8
 71
     3
 72
    12
 73
     8
 74
     0
 42
0.000000001
 43
0.00000001
 40
0.0
 40
0.0
 40
0.0
 40
0.0
 40
0.125
 40
0.125
 40
0.25
 40
0.5
 40
1.0
 40
1.0
 40
1.0
 40
1.0
 10
31.70053201096542
 20
230.9851917707574
 30
0.0
 10
32.37818930272107
 20
231.0034102786213
 30
0.0
 10
33.0558571758262
 20
231.0212349171622
 30
0.0
 10
34.41155942513463
 20
231.0432418580756
 30
0.0
 10
36.44549854139155
 20
231.0618937931333
 30
0.0
 10
41.19321259917697
 20
231.0363246694874
 30
0.0
 10
45.26296973574334
 20
231.0036901384199
 30
0.0
 10
47.97369671258403
 20
231.0729233973233
 30
0.0
  0
SPLINE
  5
200
330
1F
100
AcDbEntity
  8
0
  6
Continuous
 62
     7
370
    15
100
AcDbSpline
210
0.0
220
0.0
230
1.0
 70
     8
 71
     3
 72
    24
 73
    20
 74
     0
 42
0.000000001
 43
0.00000001
 40
0.0
 40
0.0
 40
0.0
 40
0.0
 40
0.1250000000000014
 40
0.1250000000000014
 40
0.1875000000000002
 40
0.1875000000000002
 40
0.249999999999999
 40
0.249999999999999
 40
0.3749999999999992
 40
0.3749999999999992
 40
0.4999999999999994
 40
0.4999999999999994
 40
0.6249999999999996
 40
0.6249999999999996
 40
0.7499999999999997
 40
0.7499999999999997
 40
0.8749999999999999
 40
0.8749999999999999
 40
1.0
 40
1.0
 40
1.0
 40
1.0
 10
31.70053201096543
 20
230.9851917707574
 30
0.0
 10
31.73318181843261
 20
231.3575030025687
 30
0.0
 10
31.76214355114016
 20
231.7240184442164
 30
0.0
 10
31.80023795074149
 20
232.2653869392545
 30
0.0
 10
31.81203824711847
 20
232.4444321584028
 30
0.0
 10
31.83379537283651
 20
232.7996255979099
 30
0.0
 10
31.84376463516293
 20
232.9762028699308
 30
0.0
 10
31.87022037098285
 20
233.489929367253
 30
0.0
 10
31.8835407733263
 20
233.8150385757581
 30
0.0
 10
31.90158020836205
 20
234.4306361119133
 30
0.0
 10
31.90620148153765
 20
234.7221054728585
 30
0.0
 10
31.90623687445666
 20
235.2441722028543
 30
0.0
 10
31.90180064450293
 20
235.4783669687993
 30
0.0
 10
31.88379086703801
 20
235.8916965873461
 30
0.0
 10
31.87032055788827
 20
236.0665423983313
 30
0.0
 10
31.83533190464403
 20
236.3472684294173
 30
0.0
 10
31.81355390546754
 20
236.4550863711651
 30
0.0
 10
31.76231362181572
 20
236.5985466518777
 30
0.0
 10
31.7331833213511
 20
236.6340288425883
 30
0.0
 10
31.70053201096542
 20
236.6331510269693
 30
0.0
  0
SPLINE
  5
201
330
1F
100
AcDbEntity
  8
0
  6
Continuous
 62
     7
370
    15
100
AcDbSpline
210
0.0
220
0.0
230
1.0
 70
    24
 71
     3
 72
    26
 73
    22
 74
     0
 42
0.000000001
 43
0.00000001
 40
0.0
 40
0.0
 40
0.0
 40
0.0
 40
0.1249999999999969
 40
0.1249999999999969
 40
0.1874999999999959
 40
0.1874999999999959
 40
0.2499999999999948
 40
0.2499999999999948
 40
0.3749999999999926
 40
0.3749999999999926
 40
0.4999999999999905
 40
0.4999999999999905
 40
0.6249999999999882
 40
0.6249999999999882
 40
0.6874999999999902
 40
0.6874999999999902
 40
0.7499999999999921
 40
0.7499999999999921
 40
0.874999999999996
 40
0.874999999999996
 40
1.0
 40
1.0
 40
1.0
 40
1.0
 10
47.97369671258403
 20
237.0706476534988
 30
0.0
 10
47.97369671258403
 20
237.0706476534988
 30
0.0
 10
47.97369671258403
 20
237.0318342049835
 30
0.0
 10
47.97369671258403
 20
236.9177542487995
 30
0.0
 10
47.97369671258403
 20
236.8703485946919
 30
0.0
 10
47.97369671258403
 20
236.7563494711573
 30
0.0
 10
47.97369671258404
 20
236.6894306324466
 30
0.0
 10
47.97369671258404
 20
236.4639402855591
 30
0.0
 10
47.97369671258403
 20
236.279945109555
 30
0.0
 10
47.97369671258403
 20
235.8452214602454
 30
0.0
 10
47.97369671258403
 20
235.592150337545
 30
0.0
 10
47.97369671258403
 20
235.0392899266055
 30
0.0
 10
47.97369671258403
 20
234.7376239948312
 30
0.0
 10
47.97369671258403
 20
234.2463849869301
 30
0.0
 10
47.97369671258403
 20
234.0761442391561
 30
0.0
 10
47.97369671258403
 20
233.7301379183197
 30
0.0
 10
47.97369671258402
 20
233.5534644868141
 30
0.0
 10
47.97369671258402
 20
233.012603370351
 30
0.0
 10
47.97369671258402
 20
232.6355130805234
 30
0.0
 10
47.97369671258402
 20
231.860657156545
 30
0.0
 10
47.97369671258403
 20
231.4689463202846
 30
0.0
 10
47.97369671258403
 20
231.0729233973233
 30
0.0
  0
LINE
  5
202
330
1F
100
AcDbEntity
  8
0
  6
Continuous
 62
     7
370
    15
100
AcDbLine
 10
30.972387423
 20
87.2583399767
 30
0.0
 11
30.9724680913
 21
87.2583385508
 31
0.0
  0
LINE
  5
203
330
1F
100
AcDbEntity
  8
0
  6
Continuous
 62
     7
370
    15
100
AcDbLine
 10
30.972387423
 20
222.6829553303
 30
0.0
 11
30.972387423
 21
87.2583399767
 31
0.0
  0
LINE
  5
204
330
1F
100
AcDbEntity
  8
0
  6
Continuous
 62
     7
370
    15
100
AcDbLine
 10
30.972387423
 20
222.6829553303
 30
0.0
 11
30.9724680913
 21
222.6829567562
 31
0.0
  0
LINE
  5
205
330
1F
100
AcDbEntity
  8
0
  6
Continuous
 62
     7
370
    15
100
AcDbLine
 10
30.9724680913
 20
222.6829567562
 30
0.0
 11
31.700532011
 21
230.9851917708
 31
0.0
  0
LINE
  5
206
330
1F
100
AcDbEntity
  8
0
  6
Continuous
 62
     7
370
    15
100
AcDbLine
 10
31.700532011
 20
78.9561035362
 30
0.0
 11
30.9724680913
 21
87.2583385508
 31
0.0
  0
LINE
  5
207
330
1F
100
AcDbEntity
  8
0
  6
Continuous
 62
     7
370
    15
100
AcDbLine
 10
47.9736967126
 20
78.8683719097
 30
0.0
 11
47.9736967126
 21
231.0729233973
 31
0.0
  0
ELLIPSE
  5
208
330
1F
100
AcDbEntity
  8
0
  6
Continuous
 62
     7
370
    15
100
AcDbEllipse
 10
30.9558052224
 20
77.5706852952
 30
0.0
 11
-0.2640362061596378
 21
2.99580019026908
 31
0.0
210
0.0
220
0.0
230
1.0
 40
0.0870846543
 41
1.564950954970608
 42
3.133085778503962
  0
LINE
  5
209
330
1F
100
AcDbEntity
  8
0
  6
Continuous
 62
     7
370
    15
100
AcDbLine
 10
31.2176125581
 20
74.5747979022
 30
0.0
 11
31.5625440932
 21
74.5715312324
 31
0.0
  0
ELLIPSE
  5
20A
330
1F
100
AcDbEntity
  8
0
  6
Continuous
 62
     7
370
    15
100
AcDbEllipse
 10
31.1521670961
 20
79.2660437373
 30
0.0
 11
-0.413849160834971
 21
4.694376619958291
 31
0.0
210
0.0
220
0.0
230
1.0
 40
0.0868190381
 41
3.13310972043077
 42
4.705562209493888
  0
LINE
  5
20B
330
1F
100
AcDbEntity
  8
0
  6
Continuous
 62
     7
370
    15
100
AcDbLine
 10
31.2176125578
 20
83.2092445216
 30
0.0
 11
31.5625440932
 21
79.2699257014
 31
0.0
  0
ELLIPSE
  5
20C
330
1F
100
AcDbEntity
  8
0
  6
Continuous
 62
     7
370
    15
100
AcDbEllipse
 10
30.9558052221
 20
83.205828669
 30
0.0
 11
-0.2648187198709239
 21
3.004953740968304
 31
0.0
210
0.0
220
0.0
230
1.0
 40
0.086555038
 41
4.705897966695394
 42
6.274032790228918
  0
LINE
  5
20D
330
1F
100
AcDbEntity
  8
0
  6
Continuous
 62
     7
370
    15
100
AcDbLine
 10
30.6933780744
 20
86.2108663361
 30
0.0
 11
30.1978932872
 21
86.2195150552
 31
0.0
  0
ELLIPSE
  5
20E
330
1F
100
AcDbEntity
  8
0
  6
Continuous
 62
     7
370
    15
100
AcDbEllipse
 10
30.4612836721
 20
83.2144605748
 30
0.0
 11
-0.2658038545963421
 21
3.004969396662048
 31
0.0
210
0.0
220
0.0
230
1.0
 40
0.0868140731
 41
6.273976885898026
 42
7.844468626197603
  0
LINE
  5
20F
330
1F
100
AcDbEntity
  8
0
  6
Continuous
 62
     7
370
    15
100
AcDbLine
 10
30.1978932872
 20
83.2199719697
 30
0.0
 11
30.6933780747
 21
77.5652036526
 31
0.0
  0
LINE
  5
210
330
1F
100
AcDbEntity
  8
0
  6
Continuous
 62
     7
370
    15
100
AcDbLine
 10
30.9724680916
 20
73.3277179471
 30
0.0
 11
29.7536967126
 21
87.2583385508
 31
0.0
  0
LINE
  5
211
330
1F
100
AcDbEntity
  8
0
  6
Continuous
 62
     7
370
    15
100
AcDbLine
 10
29.7536967126
 20
87.2583385508
 30
0.0
 11
30.9724680913
 21
87.2583385508
 31
0.0
  0
LINE
  5
212
330
1F
100
AcDbEntity
  8
0
  6
Continuous
 62
     7
370
    15
100
AcDbLine
 10
31.700532011
 20
73.30814428
 30
0.0
 11
30.9724680916
 21
73.3277179471
 31
0.0
  0
ELLIPSE
  5
213
330
1F
100
AcDbEntity
  8
0
  6
Continuous
 62
     7
370
    15
100
AcDbEllipse
 10
31.1521670961
 20
230.6752515697
 30
0.0
 11
0.413849160834971
 21
4.694376619958291
 31
0.0
210
0.0
220
0.0
230
1.0
 40
0.0868190381
 41
4.719215751275499
 42
6.291668240338615
  0
LINE
  5
214
330
1F
100
AcDbEntity
  8
0
  6
Continuous
 62
     7
370
    15
100
AcDbLine
 10
31.2176125581
 20
235.3664974048
 30
0.0
 11
31.5625440932
 21
235.3697640746
 31
0.0
  0
ELLIPSE
  5
215
330
1F
100
AcDbEntity
  8
0
  6
Continuous
 62
     7
370
    15
100
AcDbEllipse
 10
30.9558052224
 20
232.3706100118
 30
0.0
 11
0.2640362061596378
 21
2.99580019026908
 31
0.0
210
0.0
220
0.0
230
1.0
 40
0.0870846543
 41
0.0085068750858191
 42
1.576641698619181
  0
LINE
  5
216
330
1F
100
AcDbEntity
  8
0
  6
Continuous
 62
     7
370
    15
100
AcDbLine
 10
30.1978932872
 20
226.7213233373
 30
0.0
 11
30.6933780747
 21
232.3760916544
 31
0.0
  0
ELLIPSE
  5
217
330
1F
100
AcDbEntity
  8
0
  6
Continuous
 62
     7
370
    15
100
AcDbEllipse
 10
30.4612836721
 20
226.7268347322
 30
0.0
 11
0.2658038545963421
 21
3.004969396662034
 31
0.0
210
0.0
220
0.0
230
1.0
 40
0.0868140731
 41
1.580309334571796
 42
3.150801074871686
  0
LINE
  5
218
330
1F
100
AcDbEntity
  8
0
  6
Continuous
 62
     7
370
    15
100
AcDbLine
 10
30.6933780744
 20
223.7304289709
 30
0.0
 11
30.1978932872
 21
223.7217802518
 31
0.0
  0
ELLIPSE
  5
219
330
1F
100
AcDbEntity
  8
0
  6
Continuous
 62
     7
370
    15
100
AcDbEllipse
 10
30.9558052221
 20
226.735466638
 30
0.0
 11
0.2648187198709274
 21
3.00495374096829
 31
0.0
210
0.0
220
0.0
230
1.0
 40
0.086555038
 41
3.150745170540806
 42
4.718879994073968
  0
LINE
  5
21A
330
1F
100
AcDbEntity
  8
0
  6
Continuous
 62
     7
370
    15
100
AcDbLine
 10
31.2176125578
 20
226.7320507854
 30
0.0
 11
31.5625440932
 21
230.6713696056
 31
0.0
  0
LINE
  5
21B
330
1F
100
AcDbEntity
  8
0
  6
Continuous
 62
     7
370
    15
100
AcDbLine
 10
29.7536967126
 20
222.6829567562
 30
0.0
 11
30.9724680913
 21
222.6829567562
 31
0.0
  0
LINE
  5
21C
330
1F
100
AcDbEntity
  8
0
  6
Continuous
 62
     7
370
    15
100
AcDbLine
 10
30.9724680916
 20
236.6135773599
 30
0.0
 11
29.7536967126
 21
222.6829567562
 31
0.0
  0
LINE
  5
21D
330
1F
100
AcDbEntity
  8
0
  6
Continuous
 62
     7
370
    15
100
AcDbLine
 10
31.700532011
 20
236.633151027
 30
0.0
 11
30.9724680916
 21
236.6135773599
 31
0.0
  0
LINE
  5
21E
330
1F
100
AcDbEntity
  8
0
  6
Continuous
 62
     7
370
    15
100
AcDbLine
 10
27.9736967126
 20
87.2898275825
 30
0.0
 11
29.7536967126
 21
87.2583385508
 31
0.0
  0
LINE
  5
21F
330
1F
100
AcDbEntity
  8
0
  6
Continuous
 62
     7
370
    15
100
AcDbLine
 10
27.9736967126
 20
87.2898275825
 30
0.0
 11
27.9736967126
 21
87.2898763941
 31
0.0
  0
LINE
  5
220
330
1F
100
AcDbEntity
  8
0
  6
Continuous
 62
     7
370
    15
100
AcDbLine
 10
29.0343544534
 20
87.2898763941
 30
0.0
 11
27.9736967126
 21
87.2898763941
 31
0.0
  0
LINE
  5
221
330
1F
100
AcDbEntity
  8
0
  6
Continuous
 62
     7
370
    15
100
AcDbLine
 10
30.972387423
 20
87.2583399767
 30
0.0
 11
29.0343544534
 21
87.2898763941
 31
0.0
  0
LINE
  5
222
330
1F
100
AcDbEntity
  8
0
  6
Continuous
 62
     7
370
    15
100
AcDbLine
 10
27.9736967126
 20
222.6514189129
 30
0.0
 11
27.9736967126
 21
222.6514677245
 31
0.0
  0
LINE
  5
223
330
1F
100
AcDbEntity
  8
0
  6
Continuous
 62
     7
370
    15
100
AcDbLine
 10
27.9736967126
 20
222.6514677245
 30
0.0
 11
29.7536967126
 21
222.6829567562
 31
0.0
  0
LINE
  5
224
330
1F
100
AcDbEntity
  8
0
  6
Continuous
 62
     7
370
    15
100
AcDbLine
 10
29.0343544534
 20
222.6514189129
 30
0.0
 11
30.972387423
 21
222.6829553303
 31
0.0
  0
LINE
  5
225
330
1F
100
AcDbEntity
  8
0
  6
Continuous
 62
     7
370
    15
100
AcDbLine
 10
29.0343544534
 20
222.6514189129
 30
0.0
 11
27.9736967126
 21
222.6514189129
 31
0.0
  0
LINE
  5
226
330
1F
100
AcDbEntity
  8
0
  6
Continuous
 62
     7
370
    15
100
AcDbLine
 10
29.0343544534
 20
87.2898763941
 30
0.0
 11
29.0343544534
 21
222.6514189129
 31
0.0
  0
LINE
  5
227
330
1F
100
AcDbEntity
  8
0
  6
Continuous
 62
     7
370
    15
100
AcDbLine
 10
27.9736967126
 20
87.2898763941
 30
0.0
 11
27.9736967126
 21
222.6514189129
 31
0.0
  0
LINE
  5
228
330
1F
100
AcDbEntity
  8
0
  6
Continuous
 62
     7
370
    15
100
AcDbLine
 10
27.9736967126
 20
87.2583385508
 30
0.0
 11
27.9736967126
 21
87.2898275825
 31
0.0
  0
LINE
  5
229
330
1F
100
AcDbEntity
  8
0
  6
Continuous
 62
     7
370
    15
100
AcDbLine
 10
29.0343544534
 20
75.1349650974
 30
0.0
 11
30.972387423
 21
73.3277201159
 31
0.0
  0
LINE
  5
22A
330
1F
100
AcDbEntity
  8
0
  6
Continuous
 62
     7
370
    15
100
AcDbLine
 10
27.9736967126
 20
87.2583385508
 30
0.0
 11
29.0343544534
 21
75.1349650974
 31
0.0
  0
LINE
  5
22B
330
1F
100
AcDbEntity
  8
0
  6
Continuous
 62
     7
370
    15
100
AcDbLine
 10
30.972387423
 20
73.3277201159
 30
0.0
 11
30.9724680916
 21
73.3277179471
 31
0.0
  0
LINE
  5
22C
330
1F
100
AcDbEntity
  8
0
  6
Continuous
 62
     7
370
    15
100
AcDbLine
 10
27.9736967126
 20
222.6514677245
 30
0.0
 11
27.9736967126
 21
222.6829567562
 31
0.0
  0
LINE
  5
22D
330
1F
100
AcDbEntity
  8
0
  6
Continuous
 62
     7
370
    15
100
AcDbLine
 10
27.9736967126
 20
222.6829567562
 30
0.0
 11
29.0343544534
 21
234.8063302096
 31
0.0
  0
LINE
  5
22E
330
1F
100
AcDbEntity
  8
0
  6
Continuous
 62
     7
370
    15
100
AcDbLine
 10
30.972387423
 20
236.6135751911
 30
0.0
 11
29.0343544534
 21
234.8063302096
 31
0.0
  0
LINE
  5
22F
330
1F
100
AcDbEntity
  8
0
  6
Continuous
 62
     7
370
    15
100
AcDbLine
 10
30.9724680916
 20
236.6135773599
 30
0.0
 11
30.972387423
 21
236.6135751911
 31
0.0
  0
LINE
  5
230
330
1F
100
AcDbEntity
  8
0
  6
Continuous
 62
     8
370
    15
100
AcDbLine
 10
31.5884584739
 20
74.5812557984
 30
0.0
 11
31.2176125581
 21
74.5747979022
 31
0.0
  0
LINE
  5
231
330
1F
100
AcDbEntity
  8
0
  6
Continuous
 62
     8
370
    15
100
AcDbLine
 10
31.2176125581
 20
235.3664974048
 30
0.0
 11
31.5884584739
 21
235.3600395086
 31
0.0
  0
LINE
  5
232
330
1F
100
AcDbEntity
  8
0
  6
Continuous
 62
     8
370
    15
100
AcDbLine
 10
30.6933780747
 20
77.5652036526
 30
0.0
 11
31.6828594408
 21
77.5824344422
 31
0.0
  0
LINE
  5
233
330
1F
100
AcDbEntity
  8
0
  6
Continuous
 62
     8
370
    15
100
AcDbLine
 10
31.6828594408
 20
232.3588608648
 30
0.0
 11
30.6933780747
 21
232.3760916544
 31
0.0
  0
LINE
  5
234
330
1F
100
AcDbEntity
  8
0
  6
Continuous
 62
     8
370
    15
100
AcDbLine
 10
31.2182327226
 20
83.2021618786
 30
0.0
 11
30.1978932872
 21
83.2199719697
 31
0.0
  0
LINE
  5
235
330
1F
100
AcDbEntity
  8
0
  6
Continuous
 62
     8
370
    15
100
AcDbLine
 10
30.1978932872
 20
226.7213233373
 30
0.0
 11
31.2182327226
 21
226.7391334284
 31
0.0
  0
SPLINE
  5
236
330
1F
100
AcDbEntity
  8
0
  6
Continuous
 62
     7
370
    15
100
AcDbSpline
210
0.0
220
0.0
230
1.0
 70
     8
 71
     3
 72
    12
 73
     8
 74
     0
 42
0.000000001
 43
0.00000001
 40
0.0
 40
0.0
 40
0.0
 40
0.0
 40
0.5
 40
0.75
 40
0.875
 40
0.875
 40
1.0
 40
1.0
 40
1.0
 40
1.0
 10
380.8837735516317
 20
231.0729233973233
 30
0.0
 10
383.5945005284724
 20
231.0036901384198
 30
0.0
 10
387.6642576650387
 20
231.0363246694874
 30
0.0
 10
392.4119717228241
 20
231.0618937931333
 30
0.0
 10
394.4459108390811
 20
231.0432418580756
 30
0.0
 10
395.8016130883895
 20
231.0212349171622
 30
0.0
 10
396.4792809614946
 20
231.0034102786213
 30
0.0
 10
397.1569382532502
 20
230.9851917707574
 30
0.0
  0
SPLINE
  5
237
330
1F
100
AcDbEntity
  8
0
  6
Continuous
 62
     7
370
    15
100
AcDbSpline
210
0.0
220
0.0
230
1.0
 70
    24
 71
     3
 72
    26
 73
    22
 74
     0
 42
0.000000001
 43
0.00000001
 40
0.0
 40
0.0
 40
0.0
 40
0.0
 40
0.1250000000000003
 40
0.1250000000000003
 40
0.1875000000000009
 40
0.1875000000000009
 40
0.2500000000000014
 40
0.2500000000000014
 40
0.3750000000000043
 40
0.3750000000000043
 40
0.5000000000000071
 40
0.5000000000000071
 40
0.62500000000001
 40
0.62500000000001
 40
0.6875000000000083
 40
0.6875000000000083
 40
0.7500000000000067
 40
0.7500000000000067
 40
0.8750000000000034
 40
0.8750000000000034
 40
1.0
 40
1.0
 40
1.0
 40
1.0
 10
380.8837735516317
 20
231.0729233973233
 30
0.0
 10
380.8837735516317
 20
231.4689454199205
 30
0.0
 10
380.8837735516317
 20
231.8583589278119
 30
0.0
 10
380.8837735516317
 20
232.4329683058121
 30
0.0
 10
380.8837735516317
 20
232.6229078631612
 30
0.0
 10
380.8837735516317
 20
232.999519992715
 30
0.0
 10
380.8837735516317
 20
233.1867147590652
 30
0.0
 10
380.8837735516317
 20
233.7312649012596
 30
0.0
 10
380.8837735516317
 20
234.0756390780095
 30
0.0
 10
380.8837735516317
 20
234.7274032600345
 30
0.0
 10
380.8837735516317
 20
235.0360437859303
 30
0.0
 10
380.8837735516317
 20
235.5893017289704
 30
0.0
 10
380.8837735516317
 20
235.8375753691139
 30
0.0
 10
380.8837735516317
 20
236.166456721026
 30
0.0
 10
380.8837735516317
 20
236.2686010666476
 30
0.0
 10
380.8837735516317
 20
236.4537371506205
 30
0.0
 10
380.8837735516317
 20
236.5373736643634
 30
0.0
 10
380.8837735516317
 20
236.7619022911878
 30
0.0
 10
380.8837735516317
 20
236.8770826970727
 30
0.0
 10
380.8837735516317
 20
237.0318294719916
 30
0.0
 10
380.8837735516317
 20
237.0706476534988
 30
0.0
 10
380.8837735516317
 20
237.0706476534988
 30
0.0
  0
SPLINE
  5
238
330
1F
100
AcDbEntity
  8
0
  6
Continuous
 62
     7
370
    15
100
AcDbSpline
210
0.0
220
0.0
230
1.0
 70
    24
 71
     3
 72
    12
 73
     8
 74
     0
 42
0.000000001
 43
0.00000001
 40
0.0
 40
0.0
 40
0.0
 40
0.0
 40
0.5000000000000002
 40
0.7500000000000001
 40
0.875
 40
0.875
 40
1.0
 40
1.0
 40
1.0
 40
1.0
 10
380.8837735516317
 20
237.0706476534988
 30
0.0
 10
383.5945005284724
 20
236.9977709924709
 30
0.0
 10
387.6642576650387
 20
236.8883574241399
 30
0.0
 10
392.4119717228241
 20
236.7607172925433
 30
0.0
 10
394.4459108390811
 20
236.706035765118
 30
0.0
 10
395.8016130883895
 20
236.6695883271717
 30
0.0
 10
396.4792809614946
 20
236.6513695348332
 30
0.0
 10
397.1569382532502
 20
236.6331510269693
 30
0.0
  0
SPLINE
  5
239
330
1F
100
AcDbEntity
  8
0
  6
Continuous
 62
     7
370
    15
100
AcDbSpline
210
0.0
220
0.0
230
1.0
 70
     8
 71
     3
 72
    24
 73
    20
 74
     0
 42
0.000000001
 43
0.00000001
 40
0.0
 40
0.0
 40
0.0
 40
0.0
 40
0.1250000000000046
 40
0.1250000000000046
 40
0.187500000000005
 40
0.187500000000005
 40
0.2500000000000054
 40
0.2500000000000054
 40
0.3750000000000045
 40
0.3750000000000045
 40
0.5000000000000036
 40
0.5000000000000036
 40
0.6250000000000027
 40
0.6250000000000027
 40
0.7500000000000018
 40
0.7500000000000018
 40
0.875000000000001
 40
0.875000000000001
 40
1.0
 40
1.0
 40
1.0
 40
1.0
 10
397.1569382532502
 20
236.6331510269693
 30
0.0
 10
397.1242884457831
 20
236.634028802183
 30
0.0
 10
397.0953267130756
 20
236.5985474801614
 30
0.0
 10
397.0572323134742
 20
236.4925999650088
 30
0.0
 10
397.0454320170973
 20
236.4484327506374
 30
0.0
 10
397.0236748913792
 20
236.3419243960453
 30
0.0
 10
397.0137056290528
 20
236.2792963138351
 30
0.0
 10
396.9872498932328
 20
236.0679602606426
 30
0.0
 10
396.9739294908894
 20
235.8951039476172
 30
0.0
 10
396.9558900558537
 20
235.4856980974328
 30
0.0
 10
396.9512687826781
 20
235.2470501305901
 30
0.0
 10
396.9512333897591
 20
234.7253879435096
 30
0.0
 10
396.9556696197128
 20
234.4404868371668
 30
0.0
 10
396.9736793971777
 20
233.8213045202348
 30
0.0
 10
396.9871497063274
 20
233.4924923711336
 30
0.0
 10
397.0221383595717
 20
232.8118442034625
 30
0.0
 10
397.0439163587482
 20
232.455102592078
 30
0.0
 10
397.0951566424
 20
231.7259631892167
 30
0.0
 10
397.1242869428646
 20
231.3575201406005
 30
0.0
 10
397.1569382532502
 20
230.9851917707574
 30
0.0
  0
SPLINE
  5
23A
330
1F
100
AcDbEntity
  8
0
  6
Continuous
 62
     7
370
    15
100
AcDbSpline
210
0.0
220
0.0
230
1.0
 70
    24
 71
     3
 72
    12
 73
     8
 74
     0
 42
0.000000001
 43
0.00000001
 40
0.0
 40
0.0
 40
0.0
 40
0.0
 40
0.1249999999999999
 40
0.1249999999999999
 40
0.2499999999999998
 40
0.4999999999999998
 40
1.0
 40
1.0
 40
1.0
 40
1.0
 10
397.1569382532502
 20
73.30814428002834
 30
0.0
 10
396.4792809614946
 20
73.28992577216448
 30
0.0
 10
395.8016130883895
 20
73.27170697982588
 30
0.0
 10
394.4459108390811
 20
73.23525954187964
 30
0.0
 10
392.4119717228241
 20
73.18057801445431
 30
0.0
 10
387.6642576650387
 20
73.0529378828577
 30
0.0
 10
383.5945005284724
 20
72.94352431452671
 30
0.0
 10
380.8837735516317
 20
72.87064765349885
 30
0.0
  0
SPLINE
  5
23B
330
1F
100
AcDbEntity
  8
0
  6
Continuous
 62
     7
370
    15
100
AcDbSpline
210
0.0
220
0.0
230
1.0
 70
    24
 71
     3
 72
    26
 73
    22
 74
     0
 42
0.000000001
 43
0.00000001
 40
0.0
 40
0.0
 40
0.0
 40
0.0
 40
0.1250000000000018
 40
0.1250000000000018
 40
0.1875000000000023
 40
0.1875000000000023
 40
0.2500000000000028
 40
0.2500000000000028
 40
0.3750000000000054
 40
0.3750000000000054
 40
0.500000000000008
 40
0.500000000000008
 40
0.6250000000000107
 40
0.6250000000000107
 40
0.6875000000000089
 40
0.6875000000000089
 40
0.7500000000000071
 40
0.7500000000000071
 40
0.8750000000000036
 40
0.8750000000000036
 40
1.0
 40
1.0
 40
1.0
 40
1.0
 10
380.8837735516286
 20
72.87064765349872
 30
0.0
 10
380.8837735516286
 20
72.87064765349872
 30
0.0
 10
380.8837735516317
 20
72.9094611020142
 30
0.0
 10
380.8837735516317
 20
73.02354105819816
 30
0.0
 10
380.8837735516317
 20
73.0709467123058
 30
0.0
 10
380.8837735516317
 20
73.18494583584042
 30
0.0
 10
380.8837735516317
 20
73.25186467455113
 30
0.0
 10
380.8837735516317
 20
73.47735502143864
 30
0.0
 10
380.8837735516317
 20
73.66135019744267
 30
0.0
 10
380.8837735516317
 20
74.09607384675225
 30
0.0
 10
380.8837735516317
 20
74.3491449694527
 30
0.0
 10
380.8837735516317
 20
74.90200538039211
 30
0.0
 10
380.8837735516317
 20
75.20367131216642
 30
0.0
 10
380.8837735516317
 20
75.6949103200676
 30
0.0
 10
380.8837735516317
 20
75.86515106784158
 30
0.0
 10
380.8837735516317
 20
76.21115738867798
 30
0.0
 10
380.8837735516317
 20
76.38783082018357
 30
0.0
 10
380.8837735516317
 20
76.92869193664667
 30
0.0
 10
380.8837735516317
 20
77.30578222647424
 30
0.0
 10
380.8837735516317
 20
78.08063815045261
 30
0.0
 10
380.8837735516317
 20
78.4723489867131
 30
0.0
 10
380.8837735516317
 20
78.86837190967432
 30
0.0
  0
SPLINE
  5
23C
330
1F
100
AcDbEntity
  8
0
  6
Continuous
 62
     7
370
    15
100
AcDbSpline
210
0.0
220
0.0
230
1.0
 70
     8
 71
     3
 72
    12
 73
     8
 74
     0
 42
0.000000001
 43
0.00000001
 40
0.0
 40
0.0
 40
0.0
 40
0.0
 40
0.125
 40
0.125
 40
0.2500000000000001
 40
0.5000000000000001
 40
1.0
 40
1.0
 40
1.0
 40
1.0
 10
397.1569382532502
 20
78.9561035362402
 30
0.0
 10
396.4792809614946
 20
78.93788502837634
 30
0.0
 10
395.8016130883895
 20
78.92006038983546
 30
0.0
 10
394.4459108390811
 20
78.898053448922
 30
0.0
 10
392.4119717228241
 20
78.87940151386432
 30
0.0
 10
387.6642576650387
 20
78.90497063751023
 30
0.0
 10
383.5945005284724
 20
78.93760516857785
 30
0.0
 10
380.8837735516317
 20
78.86837190967432
 30
0.0
  0
SPLINE
  5
23D
330
1F
100
AcDbEntity
  8
0
  6
Continuous
 62
     7
370
    15
100
AcDbSpline
210
0.0
220
0.0
230
1.0
 70
     8
 71
     3
 72
    24
 73
    20
 74
     0
 42
0.000000001
 43
0.00000001
 40
0.0
 40
0.0
 40
0.0
 40
0.0
 40
0.1249999999999949
 40
0.1249999999999949
 40
0.1874999999999942
 40
0.1874999999999942
 40
0.2499999999999934
 40
0.2499999999999934
 40
0.3749999999999946
 40
0.3749999999999946
 40
0.4999999999999957
 40
0.4999999999999957
 40
0.6249999999999968
 40
0.6249999999999968
 40
0.7499999999999979
 40
0.7499999999999979
 40
0.874999999999999
 40
0.874999999999999
 40
1.0
 40
1.0
 40
1.0
 40
1.0
 10
397.1569382532502
 20
78.9561035362402
 30
0.0
 10
397.1242884457831
 20
78.5837923044289
 30
0.0
 10
397.0953267130756
 20
78.2172768627813
 30
0.0
 10
397.0572323134742
 20
77.67590836774312
 30
0.0
 10
397.0454320170973
 20
77.4968631485949
 30
0.0
 10
397.0236748913792
 20
77.14166970908784
 30
0.0
 10
397.0137056290528
 20
76.9650924370669
 30
0.0
 10
396.9872498932328
 20
76.45136593974468
 30
0.0
 10
396.9739294908894
 20
76.12625673123954
 30
0.0
 10
396.9558900558537
 20
75.51065919508441
 30
0.0
 10
396.9512687826781
 20
75.21918983413912
 30
0.0
 10
396.9512333897591
 20
74.69712310414329
 30
0.0
 10
396.9556696197128
 20
74.46292833819838
 30
0.0
 10
396.9736793971777
 20
74.04959871965156
 30
0.0
 10
396.9871497063274
 20
73.87475290866642
 30
0.0
 10
397.0221383595717
 20
73.5940268775803
 30
0.0
 10
397.0439163587482
 20
73.48620893583254
 30
0.0
 10
397.0951566424
 20
73.34274865511995
 30
0.0
 10
397.1242869428646
 20
73.30726646440937
 30
0.0
 10
397.1569382532502
 20
73.30814428002834
 30
0.0
  0
LINE
  5
23E
330
1F
100
AcDbEntity
  8
0
  6
Continuous
 62
     7
370
    15
100
AcDbLine
 10
397.8850021729
 20
222.6829567562
 30
0.0
 11
397.8850828412
 21
222.6829553303
 31
0.0
  0
LINE
  5
23F
330
1F
100
AcDbEntity
  8
0
  6
Continuous
 62
     7
370
    15
100
AcDbLine
 10
397.8850828412
 20
87.2583399767
 30
0.0
 11
397.8850828412
 21
222.6829553303
 31
0.0
  0
LINE
  5
240
330
1F
100
AcDbEntity
  8
0
  6
Continuous
 62
     7
370
    15
100
AcDbLine
 10
397.8850021729
 20
87.2583385508
 30
0.0
 11
397.8850828412
 21
87.2583399767
 31
0.0
  0
LINE
  5
241
330
1F
100
AcDbEntity
  8
0
  6
Continuous
 62
     7
370
    15
100
AcDbLine
 10
397.1569382533
 20
78.9561035362
 30
0.0
 11
397.8850021729
 21
87.2583385508
 31
0.0
  0
LINE
  5
242
330
1F
100
AcDbEntity
  8
0
  6
Continuous
 62
     7
370
    15
100
AcDbLine
 10
397.8850021729
 20
222.6829567562
 30
0.0
 11
397.1569382533
 21
230.9851917708
 31
0.0
  0
LINE
  5
243
330
1F
100
AcDbEntity
  8
0
  6
Continuous
 62
     7
370
    15
100
AcDbLine
 10
380.8837735516
 20
78.8683719097
 30
0.0
 11
380.8837735516
 21
231.0729233973
 31
0.0
  0
ELLIPSE
  5
244
330
1F
100
AcDbEntity
  8
0
  6
Continuous
 62
     7
370
    15
100
AcDbEllipse
 10
397.9016650418
 20
232.3706100118
 30
0.0
 11
-0.2640362061596875
 21
2.99580019026908
 31
0.0
210
0.0
220
0.0
230
1.0
 40
0.0870846543
 41
4.706543608560406
 42
6.274678432093958
  0
LINE
  5
245
330
1F
100
AcDbEntity
  8
0
  6
Continuous
 62
     7
370
    15
100
AcDbLine
 10
397.6398577061
 20
235.3664974048
 30
0.0
 11
397.294926171
 21
235.3697640746
 31
0.0
  0
ELLIPSE
  5
246
330
1F
100
AcDbEntity
  8
0
  6
Continuous
 62
     7
370
    15
100
AcDbEllipse
 10
397.7053031682
 20
230.6752515697
 30
0.0
 11
-0.4138491608349569
 21
4.694376619958291
 31
0.0
210
0.0
220
0.0
230
1.0
 40
0.0868190381
 41
6.274702374020643
 42
7.847154863083674
  0
LINE
  5
247
330
1F
100
AcDbEntity
  8
0
  6
Continuous
 62
     7
370
    15
100
AcDbLine
 10
397.6398577064
 20
226.7320507854
 30
0.0
 11
397.294926171
 21
230.6713696056
 31
0.0
  0
ELLIPSE
  5
248
330
1F
100
AcDbEntity
  8
0
  6
Continuous
 62
     7
370
    15
100
AcDbEllipse
 10
397.9016650421
 20
226.735466638
 30
0.0
 11
-0.2648187198709593
 21
3.00495374096829
 31
0.0
210
0.0
220
0.0
230
1.0
 40
0.086555038
 41
1.56430531310561
 42
3.132440136638683
  0
LINE
  5
249
330
1F
100
AcDbEntity
  8
0
  6
Continuous
 62
     7
370
    15
100
AcDbLine
 10
398.1640921899
 20
223.7304289709
 30
0.0
 11
398.659576977
 21
223.7217802518
 31
0.0
  0
ELLIPSE
  5
24A
330
1F
100
AcDbEntity
  8
0
  6
Continuous
 62
     7
370
    15
100
AcDbEllipse
 10
398.3961865922
 20
226.7268347322
 30
0.0
 11
-0.2658038545963564
 21
3.004969396662034
 31
0.0
210
0.0
220
0.0
230
1.0
 40
0.0868140731
 41
3.13238423230789
 42
4.702875972607812
  0
LINE
  5
24B
330
1F
100
AcDbEntity
  8
0
  6
Continuous
 62
     7
370
    15
100
AcDbLine
 10
398.659576977
 20
226.7213233373
 30
0.0
 11
398.1640921895
 21
232.3760916544
 31
0.0
  0
LINE
  5
24C
330
1F
100
AcDbEntity
  8
0
  6
Continuous
 62
     7
370
    15
100
AcDbLine
 10
397.8850021726
 20
236.6135773599
 30
0.0
 11
399.1037735516
 21
222.6829567562
 31
0.0
  0
LINE
  5
24D
330
1F
100
AcDbEntity
  8
0
  6
Continuous
 62
     7
370
    15
100
AcDbLine
 10
399.1037735516
 20
222.6829567562
 30
0.0
 11
397.8850021729
 21
222.6829567562
 31
0.0
  0
LINE
  5
24E
330
1F
100
AcDbEntity
  8
0
  6
Continuous
 62
     7
370
    15
100
AcDbLine
 10
397.8850021726
 20
236.6135773599
 30
0.0
 11
397.1569382533
 21
236.633151027
 31
0.0
  0
ELLIPSE
  5
24F
330
1F
100
AcDbEntity
  8
0
  6
Continuous
 62
     7
370
    15
100
AcDbEllipse
 10
397.7053031682
 20
79.2660437373
 30
0.0
 11
0.4138491608350137
 21
4.694376619958291
 31
0.0
210
0.0
220
0.0
230
1.0
 40
0.0868190381
 41
1.5776230976857
 42
3.150075586749187
  0
LINE
  5
250
330
1F
100
AcDbEntity
  8
0
  6
Continuous
 62
     7
370
    15
100
AcDbLine
 10
397.6398577061
 20
74.5747979022
 30
0.0
 11
397.294926171
 21
74.5715312324
 31
0.0
  0
ELLIPSE
  5
251
330
1F
100
AcDbEntity
  8
0
  6
Continuous
 62
     7
370
    15
100
AcDbEllipse
 10
397.9016650418
 20
77.5706852952
 30
0.0
 11
0.2640362061596307
 21
2.99580019026908
 31
0.0
210
0.0
220
0.0
230
1.0
 40
0.0870846543
 41
3.15009952867554
 42
4.718234352208979
  0
LINE
  5
252
330
1F
100
AcDbEntity
  8
0
  6
Continuous
 62
     7
370
    15
100
AcDbLine
 10
398.659576977
 20
83.2199719697
 30
0.0
 11
398.1640921895
 21
77.5652036526
 31
0.0
  0
ELLIPSE
  5
253
330
1F
100
AcDbEntity
  8
0
  6
Continuous
 62
     7
370
    15
100
AcDbEllipse
 10
398.3961865922
 20
83.2144605748
 30
0.0
 11
0.2658038545962996
 21
3.004969396662049
 31
0.0
210
0.0
220
0.0
230
1.0
 40
0.0868140731
 41
4.721901988161577
 42
6.292393728461275
  0
LINE
  5
254
330
1F
100
AcDbEntity
  8
0
  6
Continuous
 62
     7
370
    15
100
AcDbLine
 10
398.1640921899
 20
86.2108663361
 30
0.0
 11
398.659576977
 21
86.2195150552
 31
0.0
  0
ELLIPSE
  5
255
330
1F
100
AcDbEntity
  8
0
  6
Continuous
 62
     7
370
    15
100
AcDbEllipse
 10
397.9016650421
 20
83.205828669
 30
0.0
 11
0.2648187198709024
 21
3.004953740968304
 31
0.0
210
0.0
220
0.0
230
1.0
 40
0.086555038
 41
0.0091525169508809
 42
1.577287340484186
  0
LINE
  5
256
330
1F
100
AcDbEntity
  8
0
  6
Continuous
 62
     7
370
    15
100
AcDbLine
 10
397.6398577064
 20
83.2092445216
 30
0.0
 11
397.294926171
 21
79.2699257014
 31
0.0
  0
LINE
  5
257
330
1F
100
AcDbEntity
  8
0
  6
Continuous
 62
     7
370
    15
100
AcDbLine
 10
399.1037735516
 20
87.2583385508
 30
0.0
 11
397.8850021729
 21
87.2583385508
 31
0.0
  0
LINE
  5
258
330
1F
100
AcDbEntity
  8
0
  6
Continuous
 62
     7
370
    15
100
AcDbLine
 10
397.8850021726
 20
73.3277179471
 30
0.0
 11
399.1037735516
 21
87.2583385508
 31
0.0
  0
LINE
  5
259
330
1F
100
AcDbEntity
  8
0
  6
Continuous
 62
     7
370
    15
100
AcDbLine
 10
397.8850021726
 20
73.3277179471
 30
0.0
 11
397.1569382533
 21
73.30814428
 31
0.0
  0
LINE
  5
25A
330
1F
100
AcDbEntity
  8
0
  6
Continuous
 62
     7
370
    15
100
AcDbLine
 10
400.8837735516
 20
222.6514677245
 30
0.0
 11
399.1037735516
 21
222.6829567562
 31
0.0
  0
LINE
  5
25B
330
1F
100
AcDbEntity
  8
0
  6
Continuous
 62
     7
370
    15
100
AcDbLine
 10
400.8837735516
 20
222.6514677245
 30
0.0
 11
400.8837735516
 21
222.6514189129
 31
0.0
  0
LINE
  5
25C
330
1F
100
AcDbEntity
  8
0
  6
Continuous
 62
     7
370
    15
100
AcDbLine
 10
399.8231158108
 20
222.6514189129
 30
0.0
 11
400.8837735516
 21
222.6514189129
 31
0.0
  0
LINE
  5
25D
330
1F
100
AcDbEntity
  8
0
  6
Continuous
 62
     7
370
    15
100
AcDbLine
 10
397.8850828412
 20
222.6829553303
 30
0.0
 11
399.8231158108
 21
222.6514189129
 31
0.0
  0
LINE
  5
25E
330
1F
100
AcDbEntity
  8
0
  6
Continuous
 62
     7
370
    15
100
AcDbLine
 10
400.8837735516
 20
87.2898763941
 30
0.0
 11
400.8837735516
 21
87.2898275825
 31
0.0
  0
LINE
  5
25F
330
1F
100
AcDbEntity
  8
0
  6
Continuous
 62
     7
370
    15
100
AcDbLine
 10
400.8837735516
 20
87.2898275825
 30
0.0
 11
399.1037735516
 21
87.2583385508
 31
0.0
  0
LINE
  5
260
330
1F
100
AcDbEntity
  8
0
  6
Continuous
 62
     7
370
    15
100
AcDbLine
 10
399.8231158108
 20
87.2898763941
 30
0.0
 11
397.8850828412
 21
87.2583399767
 31
0.0
  0
LINE
  5
261
330
1F
100
AcDbEntity
  8
0
  6
Continuous
 62
     7
370
    15
100
AcDbLine
 10
399.8231158108
 20
87.2898763941
 30
0.0
 11
400.8837735516
 21
87.2898763941
 31
0.0
  0
LINE
  5
262
330
1F
100
AcDbEntity
  8
0
  6
Continuous
 62
     7
370
    15
100
AcDbLine
 10
399.8231158108
 20
222.6514189129
 30
0.0
 11
399.8231158108
 21
87.2898763941
 31
0.0
  0
LINE
  5
263
330
1F
100
AcDbEntity
  8
0
  6
Continuous
 62
     7
370
    15
100
AcDbLine
 10
400.8837735516
 20
222.6514189129
 30
0.0
 11
400.8837735516
 21
87.2898763941
 31
0.0
  0
LINE
  5
264
330
1F
100
AcDbEntity
  8
0
  6
Continuous
 62
     7
370
    15
100
AcDbLine
 10
400.8837735516
 20
222.6829567562
 30
0.0
 11
400.8837735516
 21
222.6514677245
 31
0.0
  0
LINE
  5
265
330
1F
100
AcDbEntity
  8
0
  6
Continuous
 62
     7
370
    15
100
AcDbLine
 10
399.8231158108
 20
234.8063302096
 30
0.0
 11
397.8850828412
 21
236.6135751911
 31
0.0
  0
LINE
  5
266
330
1F
100
AcDbEntity
  8
0
  6
Continuous
 62
     7
370
    15
100
AcDbLine
 10
400.8837735516
 20
222.6829567562
 30
0.0
 11
399.8231158108
 21
234.8063302096
 31
0.0
  0
LINE
  5
267
330
1F
100
AcDbEntity
  8
0
  6
Continuous
 62
     7
370
    15
100
AcDbLine
 10
397.8850021726
 20
236.6135773599
 30
0.0
 11
397.8850828412
 21
236.6135751911
 31
0.0
  0
LINE
  5
268
330
1F
100
AcDbEntity
  8
0
  6
Continuous
 62
     7
370
    15
100
AcDbLine
 10
400.8837735516
 20
87.2898275825
 30
0.0
 11
400.8837735516
 21
87.2583385508
 31
0.0
  0
LINE
  5
269
330
1F
100
AcDbEntity
  8
0
  6
Continuous
 62
     7
370
    15
100
AcDbLine
 10
400.8837735516
 20
87.2583385508
 30
0.0
 11
399.8231158108
 21
75.1349650974
 31
0.0
  0
LINE
  5
26A
330
1F
100
AcDbEntity
  8
0
  6
Continuous
 62
     7
370
    15
100
AcDbLine
 10
397.8850828412
 20
73.3277201159
 30
0.0
 11
399.8231158108
 21
75.1349650974
 31
0.0
  0
LINE
  5
26B
330
1F
100
AcDbEntity
  8
0
  6
Continuous
 62
     7
370
    15
100
AcDbLine
 10
397.8850828412
 20
73.3277201159
 30
0.0
 11
397.8850021726
 21
73.3277179471
 31
0.0
  0
LINE
  5
26C
330
1F
100
AcDbEntity
  8
0
  6
Continuous
 62
     8
370
    15
100
AcDbLine
 10
397.2690117903
 20
235.3600395086
 30
0.0
 11
397.6398577061
 21
235.3664974048
 31
0.0
  0
LINE
  5
26D
330
1F
100
AcDbEntity
  8
0
  6
Continuous
 62
     8
370
    15
100
AcDbLine
 10
397.6398577061
 20
74.5747979022
 30
0.0
 11
397.2690117903
 21
74.5812557984
 31
0.0
  0
LINE
  5
26E
330
1F
100
AcDbEntity
  8
0
  6
Continuous
 62
     8
370
    15
100
AcDbLine
 10
398.1640921895
 20
232.3760916544
 30
0.0
 11
397.1746108234
 21
232.3588608648
 31
0.0
  0
LINE
  5
26F
330
1F
100
AcDbEntity
  8
0
  6
Continuous
 62
     8
370
    15
100
AcDbLine
 10
397.1746108234
 20
77.5824344422
 30
0.0
 11
398.1640921895
 21
77.5652036526
 31
0.0
  0
LINE
  5
270
330
1F
100
AcDbEntity
  8
0
  6
Continuous
 62
     8
370
    15
100
AcDbLine
 10
397.6392375416
 20
226.7391334284
 30
0.0
 11
398.659576977
 21
226.7213233373
 31
0.0
  0
LINE
  5
271
330
1F
100
AcDbEntity
  8
0
  6
Continuous
 62
     8
370
    15
100
AcDbLine
 10
398.659576977
 20
83.2199719697
 30
0.0
 11
397.6392375416
 21
83.2021618786
 31
0.0
  0
SPLINE
  5
272
330
1F
100
AcDbEntity
  8
0
  6
Continuous
 62
     7
370
    15
100
AcDbSpline
210
0.0
220
0.0
230
1.0
 70
     8
 71
     3
 72
    12
 73
     8
 74
     0
 42
0.000000001
 43
0.00000001
 40
0.0
 40
0.0
 40
0.0
 40
0.0
 40
0.1249999999999998
 40
0.1249999999999998
 40
0.2499999999999997
 40
0.4999999999999997
 40
1.0
 40
1.0
 40
1.0
 40
1.0
 10
337.9788347387723
 20
17.85423467966022
 30
0.0
 10
337.9970532466361
 20
18.53189197141585
 30
0.0
 10
338.014877885177
 20
19.209559844521
 30
0.0
 10
338.0368848260905
 20
20.56526209382942
 30
0.0
 10
338.0555367611482
 20
22.59920121008634
 30
0.0
 10
338.0299676375022
 20
27.34691526787178
 30
0.0
 10
337.9973331064348
 20
31.41667240443814
 30
0.0
 10
338.0665663653382
 20
34.12739938127883
 30
0.0
  0
SPLINE
  5
273
330
1F
100
AcDbEntity
  8
0
  6
Continuous
 62
     7
370
    15
100
AcDbSpline
210
0.0
220
0.0
230
1.0
 70
    24
 71
     3
 72
    12
 73
     8
 74
     0
 42
0.000000001
 43
0.00000001
 40
0.0
 40
0.0
 40
0.0
 40
0.0
 40
0.125
 40
0.125
 40
0.25
 40
0.5
 40
1.0
 40
1.0
 40
1.0
 40
1.0
 10
343.6267939949842
 20
17.85423467966023
 30
0.0
 10
343.645012502848
 20
18.53189197141587
 30
0.0
 10
343.6632312951867
 20
19.209559844521
 30
0.0
 10
343.6996787331328
 20
20.56526209382942
 30
0.0
 10
343.7543602605582
 20
22.59920121008635
 30
0.0
 10
343.8820003921548
 20
27.34691526787177
 30
0.0
 10
343.9914139604858
 20
31.41667240443814
 30
0.0
 10
344.0642906215137
 20
34.12739938127883
 30
0.0
  0
SPLINE
  5
274
330
1F
100
AcDbEntity
  8
0
  6
Continuous
 62
     7
370
    15
100
AcDbSpline
210
0.0
220
0.0
230
1.0
 70
     8
 71
     3
 72
    24
 73
    20
 74
     0
 42
0.000000001
 43
0.00000001
 40
0.0
 40
0.0
 40
0.0
 40
0.0
 40
0.1250000000000014
 40
0.1250000000000014
 40
0.1875000000000002
 40
0.1875000000000002
 40
0.249999999999999
 40
0.249999999999999
 40
0.3749999999999992
 40
0.3749999999999992
 40
0.4999999999999994
 40
0.4999999999999994
 40
0.6249999999999996
 40
0.6249999999999996
 40
0.7499999999999997
 40
0.7499999999999997
 40
0.8749999999999999
 40
0.8749999999999999
 40
1.0
 40
1.0
 40
1.0
 40
1.0
 10
343.6267939949842
 20
17.85423467966023
 30
0.0
 10
343.6276717701979
 20
17.88688448712741
 30
0.0
 10
343.5921904481762
 20
17.91584621983496
 30
0.0
 10
343.4862429330237
 20
17.9539406194363
 30
0.0
 10
343.4420757186523
 20
17.96574091581327
 30
0.0
 10
343.3355673640602
 20
17.98749804153131
 30
0.0
 10
343.27293928185
 20
17.99746730385773
 30
0.0
 10
343.0616032286574
 20
18.02392303967765
 30
0.0
 10
342.8887469156321
 20
18.0372434420211
 30
0.0
 10
342.4793410654476
 20
18.05528287705685
 30
0.0
 10
342.2406930986049
 20
18.05990415023245
 30
0.0
 10
341.7190309115244
 20
18.05993954315147
 30
0.0
 10
341.4341298051817
 20
18.05550331319773
 30
0.0
 10
340.8149474882496
 20
18.03749353573281
 30
0.0
 10
340.4861353391485
 20
18.02402322658307
 30
0.0
 10
339.8054871714774
 20
17.98903457333883
 30
0.0
 10
339.4487455600929
 20
17.96725657416235
 30
0.0
 10
338.7196061572316
 20
17.91601629051052
 30
0.0
 10
338.3511631086153
 20
17.8868859900459
 30
0.0
 10
337.9788347387723
 20
17.85423467966022
 30
0.0
  0
SPLINE
  5
275
330
1F
100
AcDbEntity
  8
0
  6
Continuous
 62
     7
370
    15
100
AcDbSpline
210
0.0
220
0.0
230
1.0
 70
    24
 71
     3
 72
    26
 73
    22
 74
     0
 42
0.000000001
 43
0.00000001
 40
0.0
 40
0.0
 40
0.0
 40
0.0
 40
0.1249999999999969
 40
0.1249999999999969
 40
0.1874999999999959
 40
0.1874999999999959
 40
0.2499999999999948
 40
0.2499999999999948
 40
0.3749999999999926
 40
0.3749999999999926
 40
0.4999999999999905
 40
0.4999999999999905
 40
0.6249999999999882
 40
0.6249999999999882
 40
0.6874999999999902
 40
0.6874999999999902
 40
0.7499999999999921
 40
0.7499999999999921
 40
0.874999999999996
 40
0.874999999999996
 40
1.0
 40
1.0
 40
1.0
 40
1.0
 10
338.0665663653382
 20
34.12739938127883
 30
0.0
 10
338.4625883879354
 20
34.12739938127883
 30
0.0
 10
338.8520018958268
 20
34.12739938127883
 30
0.0
 10
339.4266112738269
 20
34.12739938127883
 30
0.0
 10
339.6165508311761
 20
34.12739938127883
 30
0.0
 10
339.9931629607298
 20
34.12739938127883
 30
0.0
 10
340.1803577270801
 20
34.12739938127883
 30
0.0
 10
340.7249078692745
 20
34.12739938127883
 30
0.0
 10
341.0692820460245
 20
34.12739938127883
 30
0.0
 10
341.7210462280494
 20
34.12739938127883
 30
0.0
 10
342.0296867539452
 20
34.12739938127883
 30
0.0
 10
342.5829446969853
 20
34.12739938127883
 30
0.0
 10
342.8312183371287
 20
34.12739938127883
 30
0.0
 10
343.160099689041
 20
34.12739938127883
 30
0.0
 10
343.2622440346626
 20
34.12739938127883
 30
0.0
 10
343.4473801186355
 20
34.12739938127883
 30
0.0
 10
343.5310166323783
 20
34.12739938127882
 30
0.0
 10
343.7555452592027
 20
34.12739938127882
 30
0.0
 10
343.8707256650877
 20
34.12739938127882
 30
0.0
 10
344.0254724400065
 20
34.12739938127882
 30
0.0
 10
344.0642906215137
 20
34.12739938127883
 30
0.0
 10
344.0642906215137
 20
34.12739938127883
 30
0.0
  0
SPLINE
  5
276
330
1F
100
AcDbEntity
  8
0
  6
Continuous
 62
     7
370
    15
100
AcDbSpline
210
0.0
220
0.0
230
1.0
 70
    24
 71
     3
 72
    12
 73
     8
 74
     0
 42
0.000000001
 43
0.00000001
 40
0.0
 40
0.0
 40
0.0
 40
0.0
 40
0.5
 40
0.75
 40
0.875
 40
0.875
 40
1.0
 40
1.0
 40
1.0
 40
1.0
 10
99.8642906215137
 20
34.12739938127883
 30
0.0
 10
99.93716728254158
 20
31.41667240443814
 30
0.0
 10
100.0465808508725
 20
27.34691526787177
 30
0.0
 10
100.1742209824692
 20
22.59920121008635
 30
0.0
 10
100.2289025098945
 20
20.56526209382942
 30
0.0
 10
100.2653499478407
 20
19.209559844521
 30
0.0
 10
100.2835687401794
 20
18.53189197141586
 30
0.0
 10
100.3017872480432
 20
17.85423467966022
 30
0.0
  0
SPLINE
  5
277
330
1F
100
AcDbEntity
  8
0
  6
Continuous
 62
     7
370
    15
100
AcDbSpline
210
0.0
220
0.0
230
1.0
 70
     8
 71
     3
 72
    12
 73
     8
 74
     0
 42
0.000000001
 43
0.00000001
 40
0.0
 40
0.0
 40
0.0
 40
0.0
 40
0.5000000000000002
 40
0.7500000000000001
 40
0.875
 40
0.875
 40
1.0
 40
1.0
 40
1.0
 40
1.0
 10
105.8620148776892
 20
34.12739938127883
 30
0.0
 10
105.9312481365927
 20
31.41667240443814
 30
0.0
 10
105.8986136055251
 20
27.34691526787178
 30
0.0
 10
105.8730444818792
 20
22.59920121008635
 30
0.0
 10
105.8916964169369
 20
20.56526209382942
 30
0.0
 10
105.9137033578503
 20
19.209559844521
 30
0.0
 10
105.9315279963913
 20
18.53189197141586
 30
0.0
 10
105.9497465042551
 20
17.85423467966023
 30
0.0
  0
SPLINE
  5
278
330
1F
100
AcDbEntity
  8
0
  6
Continuous
 62
     7
370
    15
100
AcDbSpline
210
0.0
220
0.0
230
1.0
 70
     8
 71
     3
 72
    24
 73
    20
 74
     0
 42
0.000000001
 43
0.00000001
 40
0.0
 40
0.0
 40
0.0
 40
0.0
 40
0.1250000000000046
 40
0.1250000000000046
 40
0.187500000000005
 40
0.187500000000005
 40
0.2500000000000054
 40
0.2500000000000054
 40
0.3750000000000045
 40
0.3750000000000045
 40
0.5000000000000036
 40
0.5000000000000036
 40
0.6250000000000027
 40
0.6250000000000027
 40
0.7500000000000018
 40
0.7500000000000018
 40
0.875000000000001
 40
0.875000000000001
 40
1.0
 40
1.0
 40
1.0
 40
1.0
 10
105.9497465042551
 20
17.85423467966023
 30
0.0
 10
105.5774352724439
 20
17.88688448712741
 30
0.0
 10
105.2109198307962
 20
17.91584621983496
 30
0.0
 10
104.669551335758
 20
17.9539406194363
 30
0.0
 10
104.4905061166098
 20
17.96574091581327
 30
0.0
 10
104.1353126771028
 20
17.98749804153131
 30
0.0
 10
103.9587354050818
 20
17.99746730385771
 30
0.0
 10
103.4450089077594
 20
18.02392303967763
 30
0.0
 10
103.1198996992545
 20
18.03724344202111
 30
0.0
 10
102.5043021630993
 20
18.05528287705684
 30
0.0
 10
102.2128328021539
 20
18.05990415023244
 30
0.0
 10
101.6907660721581
 20
18.05993954315145
 30
0.0
 10
101.4565713062133
 20
18.05550331319774
 30
0.0
 10
101.0432416876664
 20
18.03749353573283
 30
0.0
 10
100.8683958766813
 20
18.02402322658306
 30
0.0
 10
100.5876698455952
 20
17.98903457333882
 30
0.0
 10
100.4798519038474
 20
17.96725657416235
 30
0.0
 10
100.3363916231348
 20
17.91601629051052
 30
0.0
 10
100.3009094324242
 20
17.8868859900459
 30
0.0
 10
100.3017872480432
 20
17.85423467966023
 30
0.0
  0
SPLINE
  5
279
330
1F
100
AcDbEntity
  8
0
  6
Continuous
 62
     7
370
    15
100
AcDbSpline
210
0.0
220
0.0
230
1.0
 70
    24
 71
     3
 72
    26
 73
    22
 74
     0
 42
0.000000001
 43
0.00000001
 40
0.0
 40
0.0
 40
0.0
 40
0.0
 40
0.1250000000000003
 40
0.1250000000000003
 40
0.1875000000000009
 40
0.1875000000000009
 40
0.2500000000000014
 40
0.2500000000000014
 40
0.3750000000000043
 40
0.3750000000000043
 40
0.5000000000000071
 40
0.5000000000000071
 40
0.62500000000001
 40
0.62500000000001
 40
0.6875000000000083
 40
0.6875000000000083
 40
0.7500000000000067
 40
0.7500000000000067
 40
0.8750000000000034
 40
0.8750000000000034
 40
1.0
 40
1.0
 40
1.0
 40
1.0
 10
99.86429062151369
 20
34.12739938127883
 30
0.0
 10
99.86429062151369
 20
34.12739938127883
 30
0.0
 10
99.90310407002913
 20
34.12739938127883
 30
0.0
 10
100.0171840262131
 20
34.12739938127883
 30
0.0
 10
100.0645896803206
 20
34.12739938127883
 30
0.0
 10
100.1785888038552
 20
34.12739938127883
 30
0.0
 10
100.2455076425659
 20
34.12739938127883
 30
0.0
 10
100.4709979894535
 20
34.12739938127883
 30
0.0
 10
100.6549931654575
 20
34.12739938127883
 30
0.0
 10
101.0897168147671
 20
34.12739938127883
 30
0.0
 10
101.3427879374675
 20
34.12739938127883
 30
0.0
 10
101.895648348407
 20
34.12739938127883
 30
0.0
 10
102.1973142801812
 20
34.12739938127883
 30
0.0
 10
102.6885532880824
 20
34.12739938127883
 30
0.0
 10
102.8587940358563
 20
34.12739938127883
 30
0.0
 10
103.2048003566928
 20
34.12739938127883
 30
0.0
 10
103.3814737881984
 20
34.12739938127883
 30
0.0
 10
103.9223349046615
 20
34.12739938127883
 30
0.0
 10
104.2994251944891
 20
34.12739938127883
 30
0.0
 10
105.0742811184675
 20
34.12739938127883
 30
0.0
 10
105.4659919547279
 20
34.12739938127883
 30
0.0
 10
105.8620148776892
 20
34.12739938127883
 30
0.0
  0
LINE
  5
27A
330
1F
100
AcDbEntity
  8
0
  6
Continuous
 62
     7
370
    15
100
AcDbLine
 10
337.9788347388
 20
17.8542346797
 30
0.0
 11
329.6765997277
 21
17.1261707603
 31
0.0
  0
LINE
  5
27B
330
1F
100
AcDbEntity
  8
0
  6
Continuous
 62
     7
370
    15
100
AcDbLine
 10
329.6765997277
 20
17.1261707603
 30
0.0
 11
329.6765983018
 21
17.1260900917
 31
0.0
  0
LINE
  5
27C
330
1F
100
AcDbEntity
  8
0
  6
Continuous
 62
     7
370
    15
100
AcDbLine
 10
229.2642920209
 20
17.1260900917
 30
0.0
 11
329.6765983018
 21
17.1260900917
 31
0.0
  0
LINE
  5
27D
330
1F
100
AcDbEntity
  8
0
  6
Continuous
 62
     7
370
    15
100
AcDbLine
 10
229.2642920209
 20
17.1260900917
 30
0.0
 11
229.2642906215
 21
17.12617076
 31
0.0
  0
LINE
  5
27E
330
1F
100
AcDbEntity
  8
0
  6
Continuous
 62
     7
370
    15
100
AcDbLine
 10
229.2642906215
 20
17.12617076
 30
0.0
 11
214.6642906215
 21
17.12617076
 31
0.0
  0
LINE
  5
27F
330
1F
100
AcDbEntity
  8
0
  6
Continuous
 62
     7
370
    15
100
AcDbLine
 10
214.6642892221
 20
17.1260900917
 30
0.0
 11
214.6642906215
 21
17.12617076
 31
0.0
  0
LINE
  5
280
330
1F
100
AcDbEntity
  8
0
  6
Continuous
 62
     7
370
    15
100
AcDbLine
 10
114.2519829412
 20
17.1260900917
 30
0.0
 11
214.6642892221
 21
17.1260900917
 31
0.0
  0
LINE
  5
281
330
1F
100
AcDbEntity
  8
0
  6
Continuous
 62
     7
370
    15
100
AcDbLine
 10
114.2519815153
 20
17.1261707603
 30
0.0
 11
114.2519829412
 21
17.1260900917
 31
0.0
  0
LINE
  5
282
330
1F
100
AcDbEntity
  8
0
  6
Continuous
 62
     7
370
    15
100
AcDbLine
 10
114.2519815153
 20
17.1261707603
 30
0.0
 11
105.9497465043
 21
17.8542346797
 31
0.0
  0
LINE
  5
283
330
1F
100
AcDbEntity
  8
0
  6
Continuous
 62
     7
370
    15
100
AcDbLine
 10
338.0665663653
 20
34.1273993813
 30
0.0
 11
105.8620148777
 21
34.1273993813
 31
0.0
  0
ELLIPSE
  5
284
330
1F
100
AcDbEntity
  8
0
  6
Continuous
 62
     7
370
    15
100
AcDbEllipse
 10
337.6688945377
 20
17.3058697647
 30
0.0
 11
4.69437661995829
 21
0.4138491608349746
 31
0.0
210
0.0
220
0.0
230
1.0
 40
0.0868190381
 41
6.274702374020695
 42
7.847154863083674
  0
LINE
  5
285
330
1F
100
AcDbEntity
  8
0
  6
Continuous
 62
     7
370
    15
100
AcDbLine
 10
333.725693757
 20
17.3713152268
 30
0.0
 11
337.6650125736
 21
17.7162467619
 31
0.0
  0
ELLIPSE
  5
286
330
1F
100
AcDbEntity
  8
0
  6
Continuous
 62
     7
370
    15
100
AcDbEllipse
 10
333.7291096095
 20
17.1095078911
 30
0.0
 11
3.004953740968291
 21
0.2648187198709238
 31
0.0
210
0.0
220
0.0
230
1.0
 40
0.086555038
 41
1.5643053131056
 42
3.132440136638988
  0
LINE
  5
287
330
1F
100
AcDbEntity
  8
0
  6
Continuous
 62
     7
370
    15
100
AcDbLine
 10
330.7154232234
 20
16.3515959559
 30
0.0
 11
330.7240719425
 21
16.8470807434
 31
0.0
  0
ELLIPSE
  5
288
330
1F
100
AcDbEntity
  8
0
  6
Continuous
 62
     7
370
    15
100
AcDbEllipse
 10
333.7204777038
 20
16.6149863408
 30
0.0
 11
3.004969396662091
 21
0.2658038545963387
 31
0.0
210
0.0
220
0.0
230
1.0
 40
0.0868140731
 41
3.132384232308123
 42
4.702875972607801
  0
LINE
  5
289
330
1F
100
AcDbEntity
  8
0
  6
Continuous
 62
     7
370
    15
100
AcDbLine
 10
339.3697346224
 20
16.8470807431
 30
0.0
 11
333.7149663088
 21
16.3515959559
 31
0.0
  0
ELLIPSE
  5
28A
330
1F
100
AcDbEntity
  8
0
  6
Continuous
 62
     7
370
    15
100
AcDbEllipse
 10
339.3642529798
 20
17.1095078908
 30
0.0
 11
2.995800190269108
 21
0.2640362061596377
 31
0.0
210
0.0
220
0.0
230
1.0
 40
0.0870846543
 41
4.706543608560407
 42
6.274678432093928
  0
LINE
  5
28B
330
1F
100
AcDbEntity
  8
0
  6
Continuous
 62
     7
370
    15
100
AcDbLine
 10
342.3601403728
 20
17.3713152265
 30
0.0
 11
342.3634070426
 21
17.7162467619
 31
0.0
  0
LINE
  5
28C
330
1F
100
AcDbEntity
  8
0
  6
Continuous
 62
     7
370
    15
100
AcDbLine
 10
329.6765997242
 20
15.9073993813
 30
0.0
 11
343.6072203279
 21
17.12617076
 31
0.0
  0
LINE
  5
28D
330
1F
100
AcDbEntity
  8
0
  6
Continuous
 62
     7
370
    15
100
AcDbLine
 10
329.6765997277
 20
17.1261707603
 30
0.0
 11
329.6765997242
 21
15.9073993813
 31
0.0
  0
LINE
  5
28E
330
1F
100
AcDbEntity
  8
0
  6
Continuous
 62
     7
370
    15
100
AcDbLine
 10
343.6072203279
 20
17.12617076
 30
0.0
 11
343.626793995
 21
17.8542346797
 31
0.0
  0
ELLIPSE
  5
28F
330
1F
100
AcDbEntity
  8
0
  6
Continuous
 62
     7
370
    15
100
AcDbEllipse
 10
110.1994716335
 20
17.1095078911
 30
0.0
 11
3.004953740968304
 21
-0.2648187198709274
 31
0.0
210
0.0
220
0.0
230
1.0
 40
0.086555038
 41
0.0091525169508243
 42
1.577287340484188
  0
LINE
  5
290
330
1F
100
AcDbEntity
  8
0
  6
Continuous
 62
     7
370
    15
100
AcDbLine
 10
110.2028874861
 20
17.3713152268
 30
0.0
 11
106.2635686695
 21
17.7162467619
 31
0.0
  0
ELLIPSE
  5
291
330
1F
100
AcDbEntity
  8
0
  6
Continuous
 62
     7
370
    15
100
AcDbEllipse
 10
106.2596867054
 20
17.3058697647
 30
0.0
 11
4.694376619958291
 21
-0.413849160834971
 31
0.0
210
0.0
220
0.0
230
1.0
 40
0.0868190381
 41
1.577623097685702
 42
3.150075586748993
  0
LINE
  5
292
330
1F
100
AcDbEntity
  8
0
  6
Continuous
 62
     7
370
    15
100
AcDbLine
 10
101.5684408702
 20
17.3713152265
 30
0.0
 11
101.5651742004
 21
17.7162467619
 31
0.0
  0
ELLIPSE
  5
293
330
1F
100
AcDbEntity
  8
0
  6
Continuous
 62
     7
370
    15
100
AcDbEllipse
 10
104.5643282632
 20
17.1095078908
 30
0.0
 11
2.99580019026908
 21
-0.2640362061596378
 31
0.0
210
0.0
220
0.0
230
1.0
 40
0.0870846543
 41
3.150099528675764
 42
4.718234352208975
  0
LINE
  5
294
330
1F
100
AcDbEntity
  8
0
  6
Continuous
 62
     7
370
    15
100
AcDbLine
 10
104.5588466206
 20
16.8470807431
 30
0.0
 11
110.2136149342
 21
16.3515959559
 31
0.0
  0
ELLIPSE
  5
295
330
1F
100
AcDbEntity
  8
0
  6
Continuous
 62
     7
370
    15
100
AcDbEllipse
 10
110.2081035393
 20
16.6149863408
 30
0.0
 11
3.004969396662034
 21
-0.2658038545963421
 31
0.0
210
0.0
220
0.0
230
1.0
 40
0.0868140731
 41
4.721901988161576
 42
6.292393728461294
  0
LINE
  5
296
330
1F
100
AcDbEntity
  8
0
  6
Continuous
 62
     7
370
    15
100
AcDbLine
 10
113.2131580197
 20
16.3515959559
 30
0.0
 11
113.2045093005
 21
16.8470807434
 31
0.0
  0
LINE
  5
297
330
1F
100
AcDbEntity
  8
0
  6
Continuous
 62
     7
370
    15
100
AcDbLine
 10
114.2519815153
 20
17.1261707603
 30
0.0
 11
114.2519815188
 21
15.9073993813
 31
0.0
  0
LINE
  5
298
330
1F
100
AcDbEntity
  8
0
  6
Continuous
 62
     7
370
    15
100
AcDbLine
 10
114.2519815188
 20
15.9073993813
 30
0.0
 11
100.3213609152
 21
17.12617076
 31
0.0
  0
LINE
  5
299
330
1F
100
AcDbEntity
  8
0
  6
Continuous
 62
     7
370
    15
100
AcDbLine
 10
100.3213609152
 20
17.12617076
 30
0.0
 11
100.301787248
 21
17.8542346797
 31
0.0
  0
LINE
  5
29A
330
1F
100
AcDbEntity
  8
0
  6
Continuous
 62
     7
370
    15
100
AcDbLine
 10
329.6451106925
 20
14.1273993813
 30
0.0
 11
329.6765997242
 21
15.9073993813
 31
0.0
  0
LINE
  5
29B
330
1F
100
AcDbEntity
  8
0
  6
Continuous
 62
     7
370
    15
100
AcDbLine
 10
329.6451106925
 20
14.1273993813
 30
0.0
 11
329.6450618809
 21
14.1273993813
 31
0.0
  0
LINE
  5
29C
330
1F
100
AcDbEntity
  8
0
  6
Continuous
 62
     7
370
    15
100
AcDbLine
 10
329.6450618809
 20
14.1273993813
 30
0.0
 11
329.645061884
 21
15.1880571221
 31
0.0
  0
LINE
  5
29D
330
1F
100
AcDbEntity
  8
0
  6
Continuous
 62
     7
370
    15
100
AcDbLine
 10
329.6765983018
 20
17.1260900917
 30
0.0
 11
329.645061884
 21
15.1880571221
 31
0.0
  0
LINE
  5
29E
330
1F
100
AcDbEntity
  8
0
  6
Continuous
 62
     7
370
    15
100
AcDbLine
 10
114.2835193621
 20
14.1273993813
 30
0.0
 11
114.2834705505
 21
14.1273993813
 31
0.0
  0
LINE
  5
29F
330
1F
100
AcDbEntity
  8
0
  6
Continuous
 62
     7
370
    15
100
AcDbLine
 10
114.2834705505
 20
14.1273993813
 30
0.0
 11
114.2519815188
 21
15.9073993813
 31
0.0
  0
LINE
  5
2A0
330
1F
100
AcDbEntity
  8
0
  6
Continuous
 62
     7
370
    15
100
AcDbLine
 10
114.283519359
 20
15.1880571221
 30
0.0
 11
114.2519829412
 21
17.1260900917
 31
0.0
  0
LINE
  5
2A1
330
1F
100
AcDbEntity
  8
0
  6
Continuous
 62
     7
370
    15
100
AcDbLine
 10
114.2835193621
 20
14.1273993813
 30
0.0
 11
114.283519359
 21
15.1880571221
 31
0.0
  0
LINE
  5
2A2
330
1F
100
AcDbEntity
  8
0
  6
Continuous
 62
     7
370
    15
100
AcDbLine
 10
229.2642906215
 20
17.12617076
 30
0.0
 11
229.2642906215
 21
15.9537683729
 31
0.0
  0
LINE
  5
2A3
330
1F
100
AcDbEntity
  8
0
  6
Continuous
 62
     7
370
    15
100
AcDbLine
 10
214.6642906215
 20
15.9537683729
 30
0.0
 11
229.2642906215
 21
15.9537683729
 31
0.0
  0
LINE
  5
2A4
330
1F
100
AcDbEntity
  8
0
  6
Continuous
 62
     7
370
    15
100
AcDbLine
 10
214.6642906215
 20
17.12617076
 30
0.0
 11
214.6642906215
 21
15.9537683729
 31
0.0
  0
ELLIPSE
  5
2A5
330
1F
100
AcDbEntity
  8
0
  6
Continuous
 62
     7
370
    15
100
AcDbEllipse
 10
224.9763987495
 20
16.2720426709
 30
0.0
 11
3.0004618909812
 21
-0.0004859133311079233
 31
0.0
210
0.0
220
0.0
230
1.0
 40
0.0876221806
 41
4.714237210946536
 42
6.284728951246286
  0
LINE
  5
2A6
330
1F
100
AcDbEntity
  8
0
  6
Continuous
 62
     7
370
    15
100
AcDbLine
 10
227.9768571314
 20
16.2719625928
 30
0.0
 11
227.9685032546
 21
16.7505558763
 31
0.0
  0
ELLIPSE
  5
2A7
330
1F
100
AcDbEntity
  8
0
  6
Continuous
 62
     7
370
    15
100
AcDbEllipse
 10
224.9680476639
 20
16.7504760425
 30
0.0
 11
3.000459078509891
 21
-0.0003222818459711618
 31
0.0
210
0.0
220
0.0
230
1.0
 40
0.0873551345
 41
0.0015341741064274
 42
1.572025914406178
  0
LINE
  5
2A8
330
1F
100
AcDbEntity
  8
0
  6
Continuous
 62
     7
370
    15
100
AcDbLine
 10
224.9643864905
 20
17.012581747
 30
0.0
 11
218.9641947525
 21
17.012581747
 31
0.0
  0
ELLIPSE
  5
2A9
330
1F
100
AcDbEntity
  8
0
  6
Continuous
 62
     7
370
    15
100
AcDbEllipse
 10
218.9605335791
 20
16.7504760425
 30
0.0
 11
3.000459078509891
 21
0.0003222818459711618
 31
0.0
210
0.0
220
0.0
230
1.0
 40
0.0873551345
 41
1.569566739183625
 42
3.140058479483341
  0
LINE
  5
2AA
330
1F
100
AcDbEntity
  8
0
  6
Continuous
 62
     7
370
    15
100
AcDbLine
 10
215.9600779885
 20
16.7505558763
 30
0.0
 11
215.9517241116
 21
16.2719625928
 31
0.0
  0
ELLIPSE
  5
2AB
330
1F
100
AcDbEntity
  8
0
  6
Continuous
 62
     7
370
    15
100
AcDbEllipse
 10
218.9521824935
 20
16.2720426709
 30
0.0
 11
3.000461890981228
 21
0.000485913331100818
 31
0.0
210
0.0
220
0.0
230
1.0
 40
0.0876221806
 41
3.140049009523115
 42
4.710540749822846
  0
LINE
  5
2AC
330
1F
100
AcDbEntity
  8
0
  6
Continuous
 62
     7
370
    15
100
AcDbLine
 10
218.946679528
 20
16.009135208
 30
0.0
 11
224.981901715
 21
16.009135208
 31
0.0
  0
LINE
  5
2AD
330
1F
100
AcDbEntity
  8
0
  6
Continuous
 62
     7
370
    15
100
AcDbLine
 10
229.2642906215
 20
15.9537683729
 30
0.0
 11
229.2952424063
 21
14.1710459413
 31
0.0
  0
LINE
  5
2AE
330
1F
100
AcDbEntity
  8
0
  6
Continuous
 62
     7
370
    15
100
AcDbLine
 10
229.2952424063
 20
15.1880571221
 30
0.0
 11
229.2642920209
 21
17.1260900917
 31
0.0
  0
LINE
  5
2AF
330
1F
100
AcDbEntity
  8
0
  6
Continuous
 62
     7
370
    15
100
AcDbLine
 10
229.2952424063
 20
15.1880571221
 30
0.0
 11
229.2952424063
 21
14.1710459413
 31
0.0
  0
LINE
  5
2B0
330
1F
100
AcDbEntity
  8
0
  6
Continuous
 62
     7
370
    15
100
AcDbLine
 10
214.6642906215
 20
15.9537683729
 30
0.0
 11
214.6333388367
 21
14.1710459413
 31
0.0
  0
LINE
  5
2B1
330
1F
100
AcDbEntity
  8
0
  6
Continuous
 62
     7
370
    15
100
AcDbLine
 10
214.6333388367
 20
15.1880571221
 30
0.0
 11
214.6333388367
 21
14.1710459413
 31
0.0
  0
LINE
  5
2B2
330
1F
100
AcDbEntity
  8
0
  6
Continuous
 62
     7
370
    15
100
AcDbLine
 10
214.6642892221
 20
17.1260900917
 30
0.0
 11
214.6333388367
 21
15.1880571221
 31
0.0
  0
LINE
  5
2B3
330
1F
100
AcDbEntity
  8
0
  6
Continuous
 62
     7
370
    15
100
AcDbLine
 10
329.645061884
 20
15.1880571221
 30
0.0
 11
229.2952424063
 21
15.1880571221
 31
0.0
  0
LINE
  5
2B4
330
1F
100
AcDbEntity
  8
0
  6
Continuous
 62
     7
370
    15
100
AcDbLine
 10
214.6333388367
 20
15.1880571221
 30
0.0
 11
114.283519359
 21
15.1880571221
 31
0.0
  0
LINE
  5
2B5
330
1F
100
AcDbEntity
  8
0
  6
Continuous
 62
     7
370
    15
100
AcDbLine
 10
229.2952424063
 20
14.1710459413
 30
0.0
 11
214.6333388367
 21
14.1710459413
 31
0.0
  0
LINE
  5
2B6
330
1F
100
AcDbEntity
  8
0
  6
Continuous
 62
     7
370
    15
100
AcDbLine
 10
329.6450618809
 20
14.1273993813
 30
0.0
 11
114.2835193621
 21
14.1273993813
 31
0.0
  0
LINE
  5
2B7
330
1F
100
AcDbEntity
  8
0
  6
Continuous
 62
     7
370
    15
100
AcDbLine
 10
329.6765997242
 20
14.1273993813
 30
0.0
 11
329.6451106925
 21
14.1273993813
 31
0.0
  0
LINE
  5
2B8
330
1F
100
AcDbEntity
  8
0
  6
Continuous
 62
     7
370
    15
100
AcDbLine
 10
341.7999731776
 20
15.1880571221
 30
0.0
 11
343.6072181591
 21
17.1260900917
 31
0.0
  0
LINE
  5
2B9
330
1F
100
AcDbEntity
  8
0
  6
Continuous
 62
     7
370
    15
100
AcDbLine
 10
341.7999731776
 20
15.1880571221
 30
0.0
 11
329.6765997242
 21
14.1273993813
 31
0.0
  0
LINE
  5
2BA
330
1F
100
AcDbEntity
  8
0
  6
Continuous
 62
     7
370
    15
100
AcDbLine
 10
343.6072181591
 20
17.1260900917
 30
0.0
 11
343.6072203279
 21
17.12617076
 31
0.0
  0
LINE
  5
2BB
330
1F
100
AcDbEntity
  8
0
  6
Continuous
 62
     7
370
    15
100
AcDbLine
 10
102.1286080654
 20
15.1880571221
 30
0.0
 11
114.2519815188
 21
14.1273993813
 31
0.0
  0
LINE
  5
2BC
330
1F
100
AcDbEntity
  8
0
  6
Continuous
 62
     7
370
    15
100
AcDbLine
 10
100.3213630839
 20
17.1260900917
 30
0.0
 11
102.1286080654
 21
15.1880571221
 31
0.0
  0
LINE
  5
2BD
330
1F
100
AcDbEntity
  8
0
  6
Continuous
 62
     7
370
    15
100
AcDbLine
 10
114.2834705505
 20
14.1273993813
 30
0.0
 11
114.2519815188
 21
14.1273993813
 31
0.0
  0
LINE
  5
2BE
330
1F
100
AcDbEntity
  8
0
  6
Continuous
 62
     7
370
    15
100
AcDbLine
 10
100.3213609152
 20
17.12617076
 30
0.0
 11
100.3213630839
 21
17.1260900917
 31
0.0
  0
LINE
  5
2BF
330
1F
100
AcDbEntity
  8
0
  6
Continuous
 62
     8
370
    15
100
AcDbLine
 10
342.3536824766
 20
17.7421611426
 30
0.0
 11
342.3601403728
 21
17.3713152265
 31
0.0
  0
LINE
  5
2C0
330
1F
100
AcDbEntity
  8
0
  6
Continuous
 62
     8
370
    15
100
AcDbLine
 10
101.5684408702
 20
17.3713152265
 30
0.0
 11
101.5748987664
 21
17.7421611426
 31
0.0
  0
LINE
  5
2C1
330
1F
100
AcDbEntity
  8
0
  6
Continuous
 62
     8
370
    15
100
AcDbLine
 10
224.981901715
 20
16.009135208
 30
0.0
 11
224.9643864905
 21
17.012581747
 31
0.0
  0
LINE
  5
2C2
330
1F
100
AcDbEntity
  8
0
  6
Continuous
 62
     8
370
    15
100
AcDbLine
 10
218.9641947525
 20
17.012581747
 30
0.0
 11
218.946679528
 21
16.009135208
 31
0.0
  0
LINE
  5
2C3
330
1F
100
AcDbEntity
  8
0
  6
Continuous
 62
     8
370
    15
100
AcDbLine
 10
339.3697346224
 20
16.8470807431
 30
0.0
 11
339.3525038328
 21
17.8365621095
 31
0.0
  0
LINE
  5
2C4
330
1F
100
AcDbEntity
  8
0
  6
Continuous
 62
     8
370
    15
100
AcDbLine
 10
104.5760774102
 20
17.8365621095
 30
0.0
 11
104.5588466206
 21
16.8470807431
 31
0.0
  0
LINE
  5
2C5
330
1F
100
AcDbEntity
  8
0
  6
Continuous
 62
     8
370
    15
100
AcDbLine
 10
333.7327763999
 20
17.3719353916
 30
0.0
 11
333.7149663088
 21
16.3515959559
 31
0.0
  0
LINE
  5
2C6
330
1F
100
AcDbEntity
  8
0
  6
Continuous
 62
     8
370
    15
100
AcDbLine
 10
110.2136149342
 20
16.3515959559
 30
0.0
 11
110.1958048431
 21
17.3719353916
 31
0.0
  0
LINE
  5
2C7
330
1F
100
AcDbEntity
  8
0
  6
Continuous
 62
     7
370
    15
100
AcDbLine
 10
667.5548961591
 20
90.3355577835
 30
0.0
 11
667.5548961591
 21
77.6355577834
 31
0.0
  0
ARC
  5
2C8
330
1F
100
AcDbEntity
  8
0
  6
Continuous
 62
     7
370
    15
100
AcDbCircle
 10
674.6898062889
 20
90.3355577835
 30
0.0
 40
7.134910129856436
100
AcDbArc
 50
90.0
 51
180.0
  0
LINE
  5
2C9
330
1F
100
AcDbEntity
  8
0
  6
Continuous
 62
     7
370
    15
100
AcDbLine
 10
677.7548961591
 20
97.4704679134
 30
0.0
 11
674.6898062889
 21
97.4704679134
 31
0.0
  0
LINE
  5
2CA
330
1F
100
AcDbEntity
  8
0
  6
Continuous
 62
     7
370
    15
100
AcDbLine
 10
677.7548961591
 20
212.4708273936
 30
0.0
 11
677.7548961591
 21
97.4704679134
 31
0.0
  0
LINE
  5
2CB
330
1F
100
AcDbEntity
  8
0
  6
Continuous
 62
     7
370
    15
100
AcDbLine
 10
674.6898062889
 20
212.4708273936
 30
0.0
 11
677.7548961591
 21
212.4708273936
 31
0.0
  0
ARC
  5
2CC
330
1F
100
AcDbEntity
  8
0
  6
Continuous
 62
     7
370
    15
100
AcDbCircle
 10
674.6898062889
 20
219.6057375235
 30
0.0
 40
7.134910129856422
100
AcDbArc
 50
180.0
 51
270.0
  0
LINE
  5
2CD
330
1F
100
AcDbEntity
  8
0
  6
Continuous
 62
     7
370
    15
100
AcDbLine
 10
667.5548961591
 20
232.3057375236
 30
0.0
 11
667.5548961591
 21
219.6057375235
 31
0.0
  0
LINE
  5
2CE
330
1F
100
AcDbEntity
  8
0
  6
Continuous
 62
     7
370
    15
100
AcDbLine
 10
569.3196265488
 20
232.3057375236
 30
0.0
 11
667.5548961591
 21
232.3057375236
 31
0.0
  0
LINE
  5
2CF
330
1F
100
AcDbEntity
  8
0
  6
Continuous
 62
     7
370
    15
100
AcDbLine
 10
569.3196265488
 20
231.0962747235
 30
0.0
 11
569.3196265488
 21
232.3057375236
 31
0.0
  0
ARC
  5
2D0
330
1F
100
AcDbEntity
  8
0
  6
Continuous
 62
     7
370
    15
100
AcDbCircle
 10
560.4198062889
 20
231.0962747235
 30
0.0
 40
8.899820259856483
100
AcDbArc
 50
180.0
 51
0.0
  0
LINE
  5
2D1
330
1F
100
AcDbEntity
  8
0
  6
Continuous
 62
     7
370
    15
100
AcDbLine
 10
551.5199860291
 20
232.3057375236
 30
0.0
 11
551.5199860291
 21
231.0962747235
 31
0.0
  0
LINE
  5
2D2
330
1F
100
AcDbEntity
  8
0
  6
Continuous
 62
     7
370
    15
100
AcDbLine
 10
453.2847164188
 20
232.3057375236
 30
0.0
 11
551.5199860291
 21
232.3057375236
 31
0.0
  0
LINE
  5
2D3
330
1F
100
AcDbEntity
  8
0
  6
Continuous
 62
     7
370
    15
100
AcDbLine
 10
453.2847164188
 20
219.6057375235
 30
0.0
 11
453.2847164188
 21
232.3057375236
 31
0.0
  0
ARC
  5
2D4
330
1F
100
AcDbEntity
  8
0
  6
Continuous
 62
     7
370
    15
100
AcDbCircle
 10
446.1498062889
 20
219.6057375235
 30
0.0
 40
7.134910129856507
100
AcDbArc
 50
270.0
 51
0.0
  0
LINE
  5
2D5
330
1F
100
AcDbEntity
  8
0
  6
Continuous
 62
     7
370
    15
100
AcDbLine
 10
443.0847164188
 20
212.4708273936
 30
0.0
 11
446.1498062889
 21
212.4708273936
 31
0.0
  0
LINE
  5
2D6
330
1F
100
AcDbEntity
  8
0
  6
Continuous
 62
     7
370
    15
100
AcDbLine
 10
443.0847164188
 20
97.4704679134
 30
0.0
 11
443.0847164188
 21
212.4708273936
 31
0.0
  0
LINE
  5
2D7
330
1F
100
AcDbEntity
  8
0
  6
Continuous
 62
     7
370
    15
100
AcDbLine
 10
446.1498062889
 20
97.4704679134
 30
0.0
 11
443.0847164188
 21
97.4704679134
 31
0.0
  0
ARC
  5
2D8
330
1F
100
AcDbEntity
  8
0
  6
Continuous
 62
     7
370
    15
100
AcDbCircle
 10
446.1498062889
 20
90.3355577835
 30
0.0
 40
7.134910129856507
100
AcDbArc
 50
0.0
 51
90.0
  0
LINE
  5
2D9
330
1F
100
AcDbEntity
  8
0
  6
Continuous
 62
     7
370
    15
100
AcDbLine
 10
453.2847164188
 20
77.6355577834
 30
0.0
 11
453.2847164188
 21
90.3355577835
 31
0.0
  0
LINE
  5
2DA
330
1F
100
AcDbEntity
  8
0
  6
Continuous
 62
     7
370
    15
100
AcDbLine
 10
551.5199860291
 20
77.6355577834
 30
0.0
 11
453.2847164188
 21
77.6355577834
 31
0.0
  0
LINE
  5
2DB
330
1F
100
AcDbEntity
  8
0
  6
Continuous
 62
     7
370
    15
100
AcDbLine
 10
551.5199860291
 20
78.8357376235
 30
0.0
 11
551.5199860291
 21
77.6355577834
 31
0.0
  0
ARC
  5
2DC
330
1F
100
AcDbEntity
  8
0
  6
Continuous
 62
     7
370
    15
100
AcDbCircle
 10
560.4198062889
 20
78.8357376235
 30
0.0
 40
8.899820259856483
100
AcDbArc
 50
0.0
 51
180.0
  0
LINE
  5
2DD
330
1F
100
AcDbEntity
  8
0
  6
Continuous
 62
     7
370
    15
100
AcDbLine
 10
569.3196265488
 20
77.6355577834
 30
0.0
 11
569.3196265488
 21
78.8357376235
 31
0.0
  0
LINE
  5
2DE
330
1F
100
AcDbEntity
  8
0
  6
Continuous
 62
     7
370
    15
100
AcDbLine
 10
667.5548961591
 20
77.6355577834
 30
0.0
 11
569.3196265488
 21
77.6355577834
 31
0.0
  0
CIRCLE
  5
2DF
330
1F
100
AcDbEntity
  8
0
  6
Continuous
 62
     7
370
    15
100
AcDbCircle
 10
560.4198062889
 20
80.4706476535
 30
0.0
 40
1.781419116870779
  0
CIRCLE
  5
2E0
330
1F
100
AcDbEntity
  8
0
  6
Continuous
 62
     7
370
    15
100
AcDbCircle
 10
560.4198062889
 20
229.4706476535
 30
0.0
 40
1.781419116870779
  0
CIRCLE
  5
2E1
330
1F
100
AcDbEntity
  8
0
  6
Continuous
 62
     7
370
    15
100
AcDbCircle
 10
674.9198062889
 20
229.4706476535
 30
0.0
 40
1.781419116870779
  0
CIRCLE
  5
2E2
330
1F
100
AcDbEntity
  8
0
  6
Continuous
 62
     7
370
    15
100
AcDbCircle
 10
445.9198062889
 20
229.4706476535
 30
0.0
 40
1.781419116870779
  0
LINE
  5
2E3
330
1F
100
AcDbEntity
  8
0
  6
Continuous
 62
     7
370
    15
100
AcDbLine
 10
444.3175305451
 20
72.8706476535
 30
0.0
 11
676.5220820328
 21
72.8706476535
 31
0.0
  0
LINE
  5
2E4
330
1F
100
AcDbEntity
  8
0
  6
Continuous
 62
     7
370
    15
100
AcDbLine
 10
438.3198062889
 20
78.8683719097
 30
0.0
 11
438.3198062889
 21
231.0729233973
 31
0.0
  0
LINE
  5
2E5
330
1F
100
AcDbEntity
  8
0
  6
Continuous
 62
     7
370
    15
100
AcDbLine
 10
444.3175305451
 20
237.0706476535
 30
0.0
 11
676.5220820328
 21
237.0706476535
 31
0.0
  0
LINE
  5
2E6
330
1F
100
AcDbEntity
  8
0
  6
Continuous
 62
     7
370
    15
100
AcDbLine
 10
682.5198062889
 20
78.8683719097
 30
0.0
 11
682.5198062889
 21
231.0729233973
 31
0.0
  0
CIRCLE
  5
2E7
330
1F
100
AcDbEntity
  8
0
  6
Continuous
 62
     7
370
    15
100
AcDbCircle
 10
445.9198062889
 20
80.4706476535
 30
0.0
 40
1.781419116870779
  0
CIRCLE
  5
2E8
330
1F
100
AcDbEntity
  8
0
  6
Continuous
 62
     7
370
    15
100
AcDbCircle
 10
674.9198062889
 20
80.4706476535
 30
0.0
 40
1.781419116870779
  0
SPLINE
  5
2E9
330
1F
100
AcDbEntity
  8
0
  6
Continuous
 62
     7
370
    15
100
AcDbSpline
210
0.0
220
0.0
230
1.0
 70
     8
 71
     3
 72
    26
 73
    22
 74
     0
 42
0.000000001
 43
0.00000001
 40
0.0
 40
0.0
 40
0.0
 40
0.0
 40
0.1250000000000008
 40
0.1250000000000008
 40
0.1875000000000007
 40
0.1875000000000007
 40
0.2500000000000007
 40
0.2500000000000007
 40
0.3750000000000023
 40
0.3750000000000023
 40
0.5000000000000039
 40
0.5000000000000039
 40
0.6250000000000054
 40
0.6250000000000054
 40
0.6875000000000032
 40
0.6875000000000032
 40
0.7500000000000009
 40
0.7500000000000009
 40
0.8750000000000006
 40
0.8750000000000006
 40
1.0
 40
1.0
 40
1.0
 40
1.0
 10
676.522082032762
 20
72.8706476534987
 30
0.0
 10
676.9181040553593
 20
72.87064765349866
 30
0.0
 10
677.3075175632506
 20
72.90946110201419
 30
0.0
 10
677.8821269412507
 20
73.0235410581981
 30
0.0
 10
678.0720664986
 20
73.07094671230574
 30
0.0
 10
678.4486786281536
 20
73.1849458358404
 30
0.0
 10
678.635873394504
 20
73.2518646745511
 30
0.0
 10
679.1804235366984
 20
73.47735502143861
 30
0.0
 10
679.5247977134483
 20
73.66135019744263
 30
0.0
 10
680.1765618954732
 20
74.0960738467522
 30
0.0
 10
680.4852024213689
 20
74.34914496945268
 30
0.0
 10
681.038460364409
 20
74.90200538039208
 30
0.0
 10
681.2867340045525
 20
75.2036713121664
 30
0.0
 10
681.6156153564648
 20
75.69491032006755
 30
0.0
 10
681.7177597020863
 20
75.86515106784155
 30
0.0
 10
681.9028957860593
 20
76.21115738867793
 30
0.0
 10
681.9865322998021
 20
76.38783082018357
 30
0.0
 10
682.2110609266264
 20
76.92869193664664
 30
0.0
 10
682.3262413325114
 20
77.30578222647418
 30
0.0
 10
682.4809881074302
 20
78.08063815045259
 30
0.0
 10
682.5198062889374
 20
78.47234898671309
 30
0.0
 10
682.5198062889374
 20
78.8683719096743
 30
0.0
  0
SPLINE
  5
2EA
330
1F
100
AcDbEntity
  8
0
  6
Continuous
 62
     7
370
    15
100
AcDbSpline
210
0.0
220
0.0
230
1.0
 70
     8
 71
     3
 72
    26
 73
    22
 74
     0
 42
0.000000001
 43
0.00000001
 40
0.0
 40
0.0
 40
0.0
 40
0.0
 40
0.1250000000000003
 40
0.1250000000000003
 40
0.1875000000000009
 40
0.1875000000000009
 40
0.2500000000000014
 40
0.2500000000000014
 40
0.3750000000000043
 40
0.3750000000000043
 40
0.5000000000000071
 40
0.5000000000000071
 40
0.62500000000001
 40
0.62500000000001
 40
0.6875000000000083
 40
0.6875000000000083
 40
0.7500000000000067
 40
0.7500000000000067
 40
0.8750000000000034
 40
0.8750000000000034
 40
1.0
 40
1.0
 40
1.0
 40
1.0
 10
682.5198062889374
 20
231.0729233973233
 30
0.0
 10
682.5198062889374
 20
231.4689454199205
 30
0.0
 10
682.480992840422
 20
231.8583589278118
 30
0.0
 10
682.366912884238
 20
232.4329683058121
 30
0.0
 10
682.3195072301305
 20
232.6229078631612
 30
0.0
 10
682.2055081065959
 20
232.9995199927149
 30
0.0
 10
682.1385892678852
 20
233.1867147590652
 30
0.0
 10
681.9130989209976
 20
233.7312649012596
 30
0.0
 10
681.7291037449935
 20
234.0756390780095
 30
0.0
 10
681.294380095684
 20
234.7274032600345
 30
0.0
 10
681.0413089729835
 20
235.0360437859303
 30
0.0
 10
680.4884485620441
 20
235.5893017289704
 30
0.0
 10
680.1867826302699
 20
235.8375753691138
 30
0.0
 10
679.6955436223686
 20
236.166456721026
 30
0.0
 10
679.5253028745948
 20
236.2686010666476
 30
0.0
 10
679.1792965537583
 20
236.4537371506205
 30
0.0
 10
679.0026231222527
 20
236.5373736643634
 30
0.0
 10
678.4617620057895
 20
236.7619022911878
 30
0.0
 10
678.084671715962
 20
236.8770826970727
 30
0.0
 10
677.3098157919836
 20
237.0318294719916
 30
0.0
 10
676.9181049557233
 20
237.0706476534988
 30
0.0
 10
676.5220820327619
 20
237.0706476534988
 30
0.0
  0
SPLINE
  5
2EB
330
1F
100
AcDbEntity
  8
0
  6
Continuous
 62
     7
370
    15
100
AcDbSpline
210
0.0
220
0.0
230
1.0
 70
     8
 71
     3
 72
    26
 73
    22
 74
     0
 42
0.000000001
 43
0.00000001
 40
0.0
 40
0.0
 40
0.0
 40
0.0
 40
0.1249999999999989
 40
0.1249999999999989
 40
0.1874999999999987
 40
0.1874999999999987
 40
0.2499999999999986
 40
0.2499999999999986
 40
0.375
 40
0.375
 40
0.5000000000000014
 40
0.5000000000000014
 40
0.6250000000000029
 40
0.6250000000000029
 40
0.687500000000003
 40
0.687500000000003
 40
0.750000000000003
 40
0.750000000000003
 40
0.8750000000000016
 40
0.8750000000000016
 40
1.0
 40
1.0
 40
1.0
 40
1.0
 10
438.3198062889373
 20
78.86837190967427
 30
0.0
 10
438.3198062889373
 20
78.47234988707704
 30
0.0
 10
438.3586197374528
 20
78.0829363791857
 30
0.0
 10
438.4726996936367
 20
77.5083270011855
 30
0.0
 10
438.5201053477442
 20
77.31838744383637
 30
0.0
 10
438.6341044712789
 20
76.9417753142827
 30
0.0
 10
438.7010233099896
 20
76.75458054793243
 30
0.0
 10
438.9265136568771
 20
76.210030405738
 30
0.0
 10
439.1105088328812
 20
75.86565622898804
 30
0.0
 10
439.5452324821908
 20
75.21389204696304
 30
0.0
 10
439.7983036048912
 20
74.9052515210673
 30
0.0
 10
440.3511640158306
 20
74.35199357802722
 30
0.0
 10
440.652829947605
 20
74.10371993788377
 30
0.0
 10
441.1440689555061
 20
73.77483858597158
 30
0.0
 10
441.3143097032801
 20
73.67269424034998
 30
0.0
 10
441.6603160241165
 20
73.48755815637706
 30
0.0
 10
441.8369894556221
 20
73.40392164263423
 30
0.0
 10
442.3778505720852
 20
73.17939301580978
 30
0.0
 10
442.7549408619127
 20
73.06421260992487
 30
0.0
 10
443.5297967858911
 20
72.90946583500596
 30
0.0
 10
443.9215076221516
 20
72.87064765349884
 30
0.0
 10
444.3175305451128
 20
72.8706476534988
 30
0.0
  0
SPLINE
  5
2EC
330
1F
100
AcDbEntity
  8
0
  6
Continuous
 62
     7
370
    15
100
AcDbSpline
210
0.0
220
0.0
230
1.0
 70
     8
 71
     3
 72
    26
 73
    22
 74
     0
 42
0.000000001
 43
0.00000001
 40
0.0
 40
0.0
 40
0.0
 40
0.0
 40
0.1249999999999969
 40
0.1249999999999969
 40
0.1874999999999959
 40
0.1874999999999959
 40
0.2499999999999948
 40
0.2499999999999948
 40
0.3749999999999926
 40
0.3749999999999926
 40
0.4999999999999905
 40
0.4999999999999905
 40
0.6249999999999882
 40
0.6249999999999882
 40
0.6874999999999902
 40
0.6874999999999902
 40
0.7499999999999921
 40
0.7499999999999921
 40
0.874999999999996
 40
0.874999999999996
 40
1.0
 40
1.0
 40
1.0
 40
1.0
 10
444.3175305451129
 20
237.0706476534988
 30
0.0
 10
443.9215085225157
 20
237.0706476534988
 30
0.0
 10
443.5320950146243
 20
237.0318342049834
 30
0.0
 10
442.9574856366242
 20
236.9177542487995
 30
0.0
 10
442.767546079275
 20
236.8703485946919
 30
0.0
 10
442.3909339497213
 20
236.7563494711572
 30
0.0
 10
442.203739183371
 20
236.6894306324465
 30
0.0
 10
441.6591890411765
 20
236.4639402855591
 30
0.0
 10
441.3148148644266
 20
236.279945109555
 30
0.0
 10
440.6630506824017
 20
235.8452214602454
 30
0.0
 10
440.3544101565059
 20
235.592150337545
 30
0.0
 10
439.8011522134658
 20
235.0392899266054
 30
0.0
 10
439.5528785733223
 20
234.7376239948312
 30
0.0
 10
439.2239972214102
 20
234.24638498693
 30
0.0
 10
439.1218528757885
 20
234.0761442391561
 30
0.0
 10
438.9367167918156
 20
233.7301379183197
 30
0.0
 10
438.8530802780728
 20
233.5534644868141
 30
0.0
 10
438.6285516512484
 20
233.0126033703509
 30
0.0
 10
438.5133712453634
 20
232.6355130805234
 30
0.0
 10
438.3586244704446
 20
231.860657156545
 30
0.0
 10
438.3198062889374
 20
231.4689463202846
 30
0.0
 10
438.3198062889374
 20
231.0729233973233
 30
0.0
  0
LINE
  5
2ED
330
1F
100
AcDbEntity
  8
0
  6
Continuous
 62
     7
370
    15
100
AcDbLine
 10
443.3570154317
 20
97.7427669262
 30
0.0
 11
443.0847164188
 21
97.4704679134
 31
0.0
  0
LINE
  5
2EE
330
1F
100
AcDbEntity
  8
0
  6
Continuous
 62
     7
370
    15
100
AcDbLine
 10
446.1498062889
 20
97.7427669262
 30
0.0
 11
443.3570154317
 21
97.7427669262
 31
0.0
  0
LINE
  5
2EF
330
1F
100
AcDbEntity
  8
0
  6
Continuous
 62
     7
370
    15
100
AcDbLine
 10
446.1498062889
 20
97.7427669262
 30
0.0
 11
446.1498062889
 21
97.4704679134
 31
0.0
  0
LINE
  5
2F0
330
1F
100
AcDbEntity
  8
0
  6
Continuous
 62
     7
370
    15
100
AcDbLine
 10
446.1498062889
 20
212.1985283808
 30
0.0
 11
446.1498062889
 21
212.4708273936
 31
0.0
  0
LINE
  5
2F1
330
1F
100
AcDbEntity
  8
0
  6
Continuous
 62
     7
370
    15
100
AcDbLine
 10
443.3570154317
 20
212.1985283808
 30
0.0
 11
446.1498062889
 21
212.1985283808
 31
0.0
  0
LINE
  5
2F2
330
1F
100
AcDbEntity
  8
0
  6
Continuous
 62
     7
370
    15
100
AcDbLine
 10
443.3570154317
 20
212.1985283808
 30
0.0
 11
443.0847164188
 21
212.4708273936
 31
0.0
  0
LINE
  5
2F3
330
1F
100
AcDbEntity
  8
0
  6
Continuous
 62
     7
370
    15
100
AcDbLine
 10
443.3570154317
 20
97.7427669262
 30
0.0
 11
443.3570154317
 21
212.1985283808
 31
0.0
  0
CIRCLE
  5
2F4
330
1F
100
AcDbEntity
  8
0
  6
Continuous
 62
     7
370
    15
100
AcDbCircle
 10
445.9198062889
 20
80.4706476535
 30
0.0
 40
1.75
  0
CIRCLE
  5
2F5
330
1F
100
AcDbEntity
  8
0
  6
Continuous
 62
     7
370
    15
100
AcDbCircle
 10
445.9198062889
 20
229.4706476535
 30
0.0
 40
1.749999999999972
  0
LINE
  5
2F6
330
1F
100
AcDbEntity
  8
0
  6
Continuous
 62
     7
370
    15
100
AcDbLine
 10
453.5570154317
 20
219.6057375235
 30
0.0
 11
453.2847164188
 21
219.6057375235
 31
0.0
  0
ARC
  5
2F7
330
1F
100
AcDbEntity
  8
0
  6
Continuous
 62
     7
370
    15
100
AcDbCircle
 10
446.1498062889
 20
219.6057375235
 30
0.0
 40
7.407209142736633
100
AcDbArc
 50
270.0
 51
0.0
  0
ARC
  5
2F8
330
1F
100
AcDbEntity
  8
0
  6
Continuous
 62
     7
370
    15
100
AcDbCircle
 10
446.1498062889
 20
90.3355577835
 30
0.0
 40
7.407209142736633
100
AcDbArc
 50
0.0
 51
90.0
  0
LINE
  5
2F9
330
1F
100
AcDbEntity
  8
0
  6
Continuous
 62
     7
370
    15
100
AcDbLine
 10
453.5570154317
 20
90.3355577835
 30
0.0
 11
453.2847164188
 21
90.3355577835
 31
0.0
  0
LINE
  5
2FA
330
1F
100
AcDbEntity
  8
0
  6
Continuous
 62
     7
370
    15
100
AcDbLine
 10
453.5570154317
 20
232.0334385108
 30
0.0
 11
453.2847164188
 21
232.3057375236
 31
0.0
  0
LINE
  5
2FB
330
1F
100
AcDbEntity
  8
0
  6
Continuous
 62
     7
370
    15
100
AcDbLine
 10
453.5570154317
 20
219.6057375235
 30
0.0
 11
453.5570154317
 21
232.0334385108
 31
0.0
  0
LINE
  5
2FC
330
1F
100
AcDbEntity
  8
0
  6
Continuous
 62
     7
370
    15
100
AcDbLine
 10
551.2476870162
 20
232.0334385108
 30
0.0
 11
551.5199860291
 21
232.3057375236
 31
0.0
  0
LINE
  5
2FD
330
1F
100
AcDbEntity
  8
0
  6
Continuous
 62
     7
370
    15
100
AcDbLine
 10
453.5570154317
 20
232.0334385108
 30
0.0
 11
551.2476870162
 21
232.0334385108
 31
0.0
  0
LINE
  5
2FE
330
1F
100
AcDbEntity
  8
0
  6
Continuous
 62
     7
370
    15
100
AcDbLine
 10
453.5570154317
 20
77.9078567962
 30
0.0
 11
453.2847164188
 21
77.6355577834
 31
0.0
  0
LINE
  5
2FF
330
1F
100
AcDbEntity
  8
0
  6
Continuous
 62
     7
370
    15
100
AcDbLine
 10
551.2476870162
 20
77.9078567962
 30
0.0
 11
453.5570154317
 21
77.9078567962
 31
0.0
  0
LINE
  5
300
330
1F
100
AcDbEntity
  8
0
  6
Continuous
 62
     7
370
    15
100
AcDbLine
 10
551.2476870162
 20
77.9078567962
 30
0.0
 11
551.5199860291
 21
77.6355577834
 31
0.0
  0
LINE
  5
301
330
1F
100
AcDbEntity
  8
0
  6
Continuous
 62
     7
370
    15
100
AcDbLine
 10
453.5570154317
 20
77.9078567962
 30
0.0
 11
453.5570154317
 21
90.3355577835
 31
0.0
  0
LINE
  5
302
330
1F
100
AcDbEntity
  8
0
  6
Continuous
 62
     7
370
    15
100
AcDbLine
 10
551.2476870162
 20
78.8357376235
 30
0.0
 11
551.2476870162
 21
77.9078567962
 31
0.0
  0
LINE
  5
303
330
1F
100
AcDbEntity
  8
0
  6
Continuous
 62
     7
370
    15
100
AcDbLine
 10
551.2476870162
 20
78.8357376235
 30
0.0
 11
551.5199860291
 21
78.8357376235
 31
0.0
  0
LINE
  5
304
330
1F
100
AcDbEntity
  8
0
  6
Continuous
 62
     7
370
    15
100
AcDbLine
 10
569.5919255617
 20
231.0962747235
 30
0.0
 11
569.3196265488
 21
231.0962747235
 31
0.0
  0
ARC
  5
305
330
1F
100
AcDbEntity
  8
0
  6
Continuous
 62
     7
370
    15
100
AcDbCircle
 10
560.4198062889
 20
231.0962747235
 30
0.0
 40
9.172119272736722
100
AcDbArc
 50
180.0
 51
0.0
  0
LINE
  5
306
330
1F
100
AcDbEntity
  8
0
  6
Continuous
 62
     7
370
    15
100
AcDbLine
 10
551.2476870162
 20
231.0962747235
 30
0.0
 11
551.5199860291
 21
231.0962747235
 31
0.0
  0
ARC
  5
307
330
1F
100
AcDbEntity
  8
0
  6
Continuous
 62
     7
370
    15
100
AcDbCircle
 10
560.4198062889
 20
78.8357376235
 30
0.0
 40
9.172119272736722
100
AcDbArc
 50
0.0
 51
180.0
  0
LINE
  5
308
330
1F
100
AcDbEntity
  8
0
  6
Continuous
 62
     7
370
    15
100
AcDbLine
 10
569.5919255617
 20
78.8357376235
 30
0.0
 11
569.3196265488
 21
78.8357376235
 31
0.0
  0
LINE
  5
309
330
1F
100
AcDbEntity
  8
0
  6
Continuous
 62
     7
370
    15
100
AcDbLine
 10
551.2476870162
 20
232.0334385108
 30
0.0
 11
551.2476870162
 21
231.0962747235
 31
0.0
  0
CIRCLE
  5
30A
330
1F
100
AcDbEntity
  8
0
  6
Continuous
 62
     7
370
    15
100
AcDbCircle
 10
560.4198062889
 20
80.4706476535
 30
0.0
 40
1.75
  0
CIRCLE
  5
30B
330
1F
100
AcDbEntity
  8
0
  6
Continuous
 62
     7
370
    15
100
AcDbCircle
 10
560.4198062889
 20
229.4706476535
 30
0.0
 40
1.750000000000028
  0
LINE
  5
30C
330
1F
100
AcDbEntity
  8
0
  6
Continuous
 62
     7
370
    15
100
AcDbLine
 10
569.5919255617
 20
232.0334385108
 30
0.0
 11
569.3196265488
 21
232.3057375236
 31
0.0
  0
LINE
  5
30D
330
1F
100
AcDbEntity
  8
0
  6
Continuous
 62
     7
370
    15
100
AcDbLine
 10
569.5919255617
 20
231.0962747235
 30
0.0
 11
569.5919255617
 21
232.0334385108
 31
0.0
  0
LINE
  5
30E
330
1F
100
AcDbEntity
  8
0
  6
Continuous
 62
     7
370
    15
100
AcDbLine
 10
569.5919255617
 20
77.9078567962
 30
0.0
 11
569.3196265488
 21
77.6355577834
 31
0.0
  0
LINE
  5
30F
330
1F
100
AcDbEntity
  8
0
  6
Continuous
 62
     7
370
    15
100
AcDbLine
 10
667.2825971462
 20
77.9078567962
 30
0.0
 11
569.5919255617
 21
77.9078567962
 31
0.0
  0
LINE
  5
310
330
1F
100
AcDbEntity
  8
0
  6
Continuous
 62
     7
370
    15
100
AcDbLine
 10
667.2825971462
 20
77.9078567962
 30
0.0
 11
667.5548961591
 21
77.6355577834
 31
0.0
  0
LINE
  5
311
330
1F
100
AcDbEntity
  8
0
  6
Continuous
 62
     7
370
    15
100
AcDbLine
 10
569.5919255617
 20
77.9078567962
 30
0.0
 11
569.5919255617
 21
78.8357376235
 31
0.0
  0
LINE
  5
312
330
1F
100
AcDbEntity
  8
0
  6
Continuous
 62
     7
370
    15
100
AcDbLine
 10
667.2825971462
 20
232.0334385108
 30
0.0
 11
667.5548961591
 21
232.3057375236
 31
0.0
  0
LINE
  5
313
330
1F
100
AcDbEntity
  8
0
  6
Continuous
 62
     7
370
    15
100
AcDbLine
 10
569.5919255617
 20
232.0334385108
 30
0.0
 11
667.2825971462
 21
232.0334385108
 31
0.0
  0
LINE
  5
314
330
1F
100
AcDbEntity
  8
0
  6
Continuous
 62
     7
370
    15
100
AcDbLine
 10
667.2825971462
 20
90.3355577835
 30
0.0
 11
667.2825971462
 21
77.9078567962
 31
0.0
  0
LINE
  5
315
330
1F
100
AcDbEntity
  8
0
  6
Continuous
 62
     7
370
    15
100
AcDbLine
 10
667.2825971462
 20
90.3355577835
 30
0.0
 11
667.5548961591
 21
90.3355577835
 31
0.0
  0
ARC
  5
316
330
1F
100
AcDbEntity
  8
0
  6
Continuous
 62
     7
370
    15
100
AcDbCircle
 10
674.6898062889
 20
90.3355577835
 30
0.0
 40
7.407209142736633
100
AcDbArc
 50
90.0
 51
180.0
  0
LINE
  5
317
330
1F
100
AcDbEntity
  8
0
  6
Continuous
 62
     7
370
    15
100
AcDbLine
 10
674.6898062889
 20
97.7427669262
 30
0.0
 11
674.6898062889
 21
97.4704679134
 31
0.0
  0
LINE
  5
318
330
1F
100
AcDbEntity
  8
0
  6
Continuous
 62
     7
370
    15
100
AcDbLine
 10
674.6898062889
 20
212.1985283808
 30
0.0
 11
674.6898062889
 21
212.4708273936
 31
0.0
  0
ARC
  5
319
330
1F
100
AcDbEntity
  8
0
  6
Continuous
 62
     7
370
    15
100
AcDbCircle
 10
674.6898062889
 20
219.6057375235
 30
0.0
 40
7.407209142736633
100
AcDbArc
 50
180.0
 51
270.0
  0
LINE
  5
31A
330
1F
100
AcDbEntity
  8
0
  6
Continuous
 62
     7
370
    15
100
AcDbLine
 10
667.2825971462
 20
219.6057375235
 30
0.0
 11
667.5548961591
 21
219.6057375235
 31
0.0
  0
LINE
  5
31B
330
1F
100
AcDbEntity
  8
0
  6
Continuous
 62
     7
370
    15
100
AcDbLine
 10
667.2825971462
 20
232.0334385108
 30
0.0
 11
667.2825971462
 21
219.6057375235
 31
0.0
  0
CIRCLE
  5
31C
330
1F
100
AcDbEntity
  8
0
  6
Continuous
 62
     7
370
    15
100
AcDbCircle
 10
674.9198062889
 20
80.4706476535
 30
0.0
 40
1.75
  0
CIRCLE
  5
31D
330
1F
100
AcDbEntity
  8
0
  6
Continuous
 62
     7
370
    15
100
AcDbCircle
 10
674.9198062889
 20
229.4706476535
 30
0.0
 40
1.749999999999972
  0
LINE
  5
31E
330
1F
100
AcDbEntity
  8
0
  6
Continuous
 62
     7
370
    15
100
AcDbLine
 10
677.4825971462
 20
212.1985283808
 30
0.0
 11
677.7548961591
 21
212.4708273936
 31
0.0
  0
LINE
  5
31F
330
1F
100
AcDbEntity
  8
0
  6
Continuous
 62
     7
370
    15
100
AcDbLine
 10
674.6898062889
 20
212.1985283808
 30
0.0
 11
677.4825971462
 21
212.1985283808
 31
0.0
  0
LINE
  5
320
330
1F
100
AcDbEntity
  8
0
  6
Continuous
 62
     7
370
    15
100
AcDbLine
 10
677.4825971462
 20
97.7427669262
 30
0.0
 11
674.6898062889
 21
97.7427669262
 31
0.0
  0
LINE
  5
321
330
1F
100
AcDbEntity
  8
0
  6
Continuous
 62
     7
370
    15
100
AcDbLine
 10
677.4825971462
 20
97.7427669262
 30
0.0
 11
677.7548961591
 21
97.4704679134
 31
0.0
  0
LINE
  5
322
330
1F
100
AcDbEntity
  8
0
  6
Continuous
 62
     7
370
    15
100
AcDbLine
 10
677.4825971462
 20
212.1985283808
 30
0.0
 11
677.4825971462
 21
97.7427669262
 31
0.0
  0
ENDSEC
  0
SECTION
  2
OBJECTS
  0
DICTIONARY
  5
C
330
0
100
AcDbDictionary
281
     1
  3
ACAD_GROUP
350
D
  3
ACAD_LAYOUT
350
1A
  3
ACAD_MLINESTYLE
350
17
  3
ACAD_PLOTSETTINGS
350
19
  3
ACAD_PLOTSTYLENAME
350
E
  3
ACAD_SCALELIST
350
47
  0
DICTIONARY
  5
D
102
{ACAD_REACTORS
330
C
102
}
330
C
100
AcDbDictionary
281
     1
  0
DICTIONARY
  5
1A
102
{ACAD_REACTORS
330
C
102
}
330
C
100
AcDbDictionary
281
     1
  3
Layout1
350
1E
  3
Layout2
350
26
  3
Model
350
22
  0
DICTIONARY
  5
17
102
{ACAD_REACTORS
330
C
102
}
330
C
100
AcDbDictionary
281
     1
  3
Standard
350
18
  0
DICTIONARY
  5
19
102
{ACAD_REACTORS
330
C
102
}
330
C
100
AcDbDictionary
281
     1
  0
ACDBDICTIONARYWDFLT
  5
E
102
{ACAD_REACTORS
330
C
102
}
330
C
100
AcDbDictionary
281
     1
  3
Normal
350
F
100
AcDbDictionaryWithDefault
340
F
  0
DICTIONARY
  5
47
102
{ACAD_REACTORS
330
C
102
}
330
C
100
AcDbDictionary
281
     1
  3
A0
350
48
  3
A1
350
49
  3
A2
350
4A
  3
A3
350
4B
  3
A4
350
4C
  3
A5
350
4D
  3
A6
350
4E
  3
A7
350
4F
  3
A8
350
50
  3
A9
350
51
  3
B0
350
52
  3
B1
350
53
  3
B2
350
54
  3
B3
350
55
  3
B4
350
56
  3
B5
350
57
  3
B6
350
58
  3
B7
350
59
  3
B8
350
5A
  3
B9
350
5B
  3
C0
350
5C
  3
C1
350
5D
  3
C2
350
5E
  3
C3
350
5F
  3
C4
350
60
  3
C5
350
61
  3
C6
350
62
  3
C7
350
63
  3
C8
350
64
  3
C9
350
65
  3
D0
350
66
  3
D1
350
67
  3
D2
350
68
  0
LAYOUT
  5
1E
102
{ACAD_REACTORS
330
1A
102
}
330
1A
100
AcDbPlotSettings
  1

  2
none_device
  4

  6

 40
0.0
 41
0.0
 42
0.0
 43
0.0
 44
0.0
 45
0.0
 46
0.0
 47
0.0
 48
0.0
 49
0.0
140
0.0
141
0.0
142
1.0
143
1.0
 70
   688
 72
     1
 73
     0
 74
     5
  7

 75
    16
147
1.0
148
0.0
149
0.0
100
AcDbLayout
  1
Layout1
 70
     1
 71
     1
 10
0.0
 20
0.0
 11
420.0
 21
297.0
 12
0.0
 22
0.0
 32
0.0
 14
1.0000000000E+20
 24
1.0000000000E+20
 34
1.0000000000E+20
 15
-1.0000000000E+20
 25
-1.0000000000E+20
 35
-1.0000000000E+20
146
0.0
 13
0.0
 23
0.0
 33
0.0
 16
1.0
 26
0.0
 36
0.0
 17
0.0
 27
1.0
 37
0.0
 76
     0
330
1B
  0
LAYOUT
  5
26
102
{ACAD_REACTORS
330
1A
102
}
330
1A
100
AcDbPlotSettings
  1

  2
none_device
  4

  6

 40
0.0
 41
0.0
 42
0.0
 43
0.0
 44
0.0
 45
0.0
 46
0.0
 47
0.0
 48
0.0
 49
0.0
140
0.0
141
0.0
142
1.0
143
1.0
 70
   688
 72
     1
 73
     0
 74
     5
  7

 75
    16
147
1.0
148
0.0
149
0.0
100
AcDbLayout
  1
Layout2
 70
     1
 71
     2
 10
0.0
 20
0.0
 11
0.0
 21
0.0
 12
0.0
 22
0.0
 32
0.0
 14
0.0
 24
0.0
 34
0.0
 15
0.0
 25
0.0
 35
0.0
146
0.0
 13
0.0
 23
0.0
 33
0.0
 16
1.0
 26
0.0
 36
0.0
 17
0.0
 27
1.0
 37
0.0
 76
     0
330
23
  0
LAYOUT
  5
22
102
{ACAD_REACTORS
330
1A
102
}
330
1A
100
AcDbPlotSettings
  1

  2
none_device
  4
Letter_(8.50_x_11.00_Inches)
  6

 40
6.35
 41
6.35
 42
6.35000508
 43
6.35000508
 44
215.9
 45
279.4
 46
0.0
 47
0.0
 48
0.0
 49
0.0
140
0.0
141
0.0
142
1.0
143
1.0
 70
  1712
 72
     1
 73
     0
 74
     0
  7

 75
     0
147
1.0
148
0.0
149
0.0
100
AcDbLayout
  1
Model
 70
     1
 71
     0
 10
0.0
 20
0.0
 11
420.0
 21
297.0
 12
0.0
 22
0.0
 32
0.0
 14
0.0
 24
0.0
 34
0.0
 15
420.0
 25
297.0
 35
0.0
146
0.0
 13
0.0
 23
0.0
 33
0.0
 16
1.0
 26
0.0
 36
0.0
 17
0.0
 27
1.0
 37
0.0
 76
     0
330
1F
331
29
  0
MLINESTYLE
  5
18
102
{ACAD_REACTORS
330
17
102
}
330
17
100
AcDbMlineStyle
  2
Standard
 70
     0
  3

 62
   256
 51
90.0
 52
90.0
 71
     2
 49
0.5
 62
   256
  6
BYLAYER
 49
-0.5
 62
   256
  6
BYLAYER
  0
ACDBPLACEHOLDER
  5
F
102
{ACAD_REACTORS
330
E
102
}
330
E
  0
SCALE
  5
48
102
{ACAD_REACTORS
330
47
102
}
330
47
100
AcDbScale
 70
     0
300
1:1
140
1.0
141
1.0
290
     1
  0
SCALE
  5
49
102
{ACAD_REACTORS
330
47
102
}
330
47
100
AcDbScale
 70
     0
300
1:2
140
1.0
141
2.0
290
     0
  0
SCALE
  5
4A
102
{ACAD_REACTORS
330
47
102
}
330
47
100
AcDbScale
 70
     0
300
1:4
140
1.0
141
4.0
290
     0
  0
SCALE
  5
4B
102
{ACAD_REACTORS
330
47
102
}
330
47
100
AcDbScale
 70
     0
300
1:5
140
1.0
141
5.0
290
     0
  0
SCALE
  5
4C
102
{ACAD_REACTORS
330
47
102
}
330
47
100
AcDbScale
 70
     0
300
1:8
140
1.0
141
8.0
290
     0
  0
SCALE
  5
4D
102
{ACAD_REACTORS
330
47
102
}
330
47
100
AcDbScale
 70
     0
300
1:10
140
1.0
141
10.0
290
     0
  0
SCALE
  5
4E
102
{ACAD_REACTORS
330
47
102
}
330
47
100
AcDbScale
 70
     0
300
1:16
140
1.0
141
16.0
290
     0
  0
SCALE
  5
4F
102
{ACAD_REACTORS
330
47
102
}
330
47
100
AcDbScale
 70
     0
300
1:20
140
1.0
141
20.0
290
     0
  0
SCALE
  5
50
102
{ACAD_REACTORS
330
47
102
}
330
47
100
AcDbScale
 70
     0
300
1:30
140
1.0
141
30.0
290
     0
  0
SCALE
  5
51
102
{ACAD_REACTORS
330
47
102
}
330
47
100
AcDbScale
 70
     0
300
1:40
140
1.0
141
40.0
290
     0
  0
SCALE
  5
52
102
{ACAD_REACTORS
330
47
102
}
330
47
100
AcDbScale
 70
     0
300
1:50
140
1.0
141
50.0
290
     0
  0
SCALE
  5
53
102
{ACAD_REACTORS
330
47
102
}
330
47
100
AcDbScale
 70
     0
300
1:100
140
1.0
141
100.0
290
     0
  0
SCALE
  5
54
102
{ACAD_REACTORS
330
47
102
}
330
47
100
AcDbScale
 70
     0
300
2:1
140
2.0
141
1.0
290
     0
  0
SCALE
  5
55
102
{ACAD_REACTORS
330
47
102
}
330
47
100
AcDbScale
 70
     0
300
4:1
140
4.0
141
1.0
290
     0
  0
SCALE
  5
56
102
{ACAD_REACTORS
330
47
102
}
330
47
100
AcDbScale
 70
     0
300
8:1
140
8.0
141
1.0
290
     0
  0
SCALE
  5
57
102
{ACAD_REACTORS
330
47
102
}
330
47
100
AcDbScale
 70
     0
300
10:1
140
10.0
141
1.0
290
     0
  0
SCALE
  5
58
102
{ACAD_REACTORS
330
47
102
}
330
47
100
AcDbScale
 70
     0
300
100:1
140
100.0
141
1.0
290
     0
  0
SCALE
  5
59
102
{ACAD_REACTORS
330
47
102
}
330
47
100
AcDbScale
 70
     0
300
1/128" = 1'-0"
140
0.0078125
141
12.0
290
     0
  0
SCALE
  5
5A
102
{ACAD_REACTORS
330
47
102
}
330
47
100
AcDbScale
 70
     0
300
1/64" = 1'-0"
140
0.015625
141
12.0
290
     0
  0
SCALE
  5
5B
102
{ACAD_REACTORS
330
47
102
}
330
47
100
AcDbScale
 70
     0
300
1/32" = 1'-0"
140
0.03125
141
12.0
290
     0
  0
SCALE
  5
5C
102
{ACAD_REACTORS
330
47
102
}
330
47
100
AcDbScale
 70
     0
300
1/16" = 1'-0"
140
0.0625
141
12.0
290
     0
  0
SCALE
  5
5D
102
{ACAD_REACTORS
330
47
102
}
330
47
100
AcDbScale
 70
     0
300
3/32" = 1'-0"
140
0.09375
141
12.0
290
     0
  0
SCALE
  5
5E
102
{ACAD_REACTORS
330
47
102
}
330
47
100
AcDbScale
 70
     0
300
1/8" = 1'-0"
140
0.125
141
12.0
290
     0
  0
SCALE
  5
5F
102
{ACAD_REACTORS
330
47
102
}
330
47
100
AcDbScale
 70
     0
300
3/16" = 1'-0"
140
0.1875
141
12.0
290
     0
  0
SCALE
  5
60
102
{ACAD_REACTORS
330
47
102
}
330
47
100
AcDbScale
 70
     0
300
1/4" = 1'-0"
140
0.25
141
12.0
290
     0
  0
SCALE
  5
61
102
{ACAD_REACTORS
330
47
102
}
330
47
100
AcDbScale
 70
     0
300
3/8" = 1'-0"
140
0.375
141
12.0
290
     0
  0
SCALE
  5
62
102
{ACAD_REACTORS
330
47
102
}
330
47
100
AcDbScale
 70
     0
300
1/2" = 1'-0"
140
0.5
141
12.0
290
     0
  0
SCALE
  5
63
102
{ACAD_REACTORS
330
47
102
}
330
47
100
AcDbScale
 70
     0
300
3/4" = 1'-0"
140
0.75
141
12.0
290
     0
  0
SCALE
  5
64
102
{ACAD_REACTORS
330
47
102
}
330
47
100
AcDbScale
 70
     0
300
1" = 1'-0"
140
1.0
141
12.0
290
     0
  0
SCALE
  5
65
102
{ACAD_REACTORS
330
47
102
}
330
47
100
AcDbScale
 70
     0
300
1-1/2" = 1'-0"
140
1.5
141
12.0
290
     0
  0
SCALE
  5
66
102
{ACAD_REACTORS
330
47
102
}
330
47
100
AcDbScale
 70
     0
300
3" = 1'-0"
140
3.0
141
12.0
290
     0
  0
SCALE
  5
67
102
{ACAD_REACTORS
330
47
102
}
330
47
100
AcDbScale
 70
     0
300
6" = 1'-0"
140
6.0
141
12.0
290
     0
  0
SCALE
  5
68
102
{ACAD_REACTORS
330
47
102
}
330
47
100
AcDbScale
 70
     0
300
1'-0" = 1'-0"
140
12.0
141
12.0
290
     0
  0
ENDSEC
  0
EOF
