  0
SECTION
  2
HEADER
  9
$ACADVER
  1
AC1014
  9
$ACADMAINTVER
 70
     9
  9
$DWGCODEPAGE
  3
ANSI_1252
  9
$INSBASE
 10
0.0
 20
0.0
 30
0.0
  9
$EXTMIN
 10
0.0
 20
0.0
 30
0.0
  9
$EXTMAX
 10
840.0
 20
594.0
 30
0.0
  9
$LIMMIN
 10
0.0
 20
0.0
  9
$LIMMAX
 10
840.0
 20
594.0
  9
$ORTHOMODE
 70
     0
  9
$REGENMODE
 70
     1
  9
$FILLMODE
 70
     1
  9
$QTEXTMODE
 70
     0
  9
$MIRRTEXT
 70
     1
  9
$DRAGMODE
 70
     2
  9
$LTSCALE
 40
2.0
  9
$OSMODE
 70
    37
  9
$ATTMODE
 70
     1
  9
$TEXTSIZE
 40
7.0
  9
$TRACEWID
 40
1.0
  9
$TEXTSTYLE
  7
STANDARD
  9
$CLAYER
  8
0
  9
$CELTYPE
  6
BYLAYER
  9
$CECOLOR
 62
   256
  9
$CELTSCALE
 40
1.0
  9
$DELOBJ
 70
     1
  9
$DISPSILH
 70
     0
  9
$DIMSCALE
 40
1.0
  9
$DIMASZ
 40
12.0
  9
$DIMEXO
 40
2.0
  9
$DIMDLI
 40
3.75
  9
$DIMRND
 40
0.0
  9
$DIMDLE
 40
0.0
  9
$DIMEXE
 40
2.0
  9
$DIMTP
 40
0.0
  9
$DIMTM
 40
0.0
  9
$DIMTXT
 40
7.0
  9
$DIMCEN
 40
2.5
  9
$DIMTSZ
 40
0.0
  9
$DIMTOL
 70
     0
  9
$DIMLIM
 70
     0
  9
$DIMTIH
 70
     1
  9
$DIMTOH
 70
     1
  9
$DIMSE1
 70
     0
  9
$DIMSE2
 70
     0
  9
$DIMTAD
 70
     1
  9
$DIMZIN
 70
     0
  9
$DIMBLK
  1

  9
$DIMASO
 70
     1
  9
$DIMSHO
 70
     1
  9
$DIMPOST
  1

  9
$DIMAPOST
  1

  9
$DIMALT
 70
     0
  9
$DIMALTD
 70
     3
  9
$DIMALTF
 40
0.0393700787
  9
$DIMLFAC
 40
1.0
  9
$DIMTOFL
 70
     1
  9
$DIMTVP
 40
0.0
  9
$DIMTIX
 70
     0
  9
$DIMSOXD
 70
     0
  9
$DIMSAH
 70
     0
  9
$DIMBLK1
  1

  9
$DIMBLK2
  1

  9
$DIMSTYLE
  2
ISO-25
  9
$DIMCLRD
 70
     0
  9
$DIMCLRE
 70
     0
  9
$DIMCLRT
 70
     0
  9
$DIMTFAC
 40
1.0
  9
$DIMGAP
 40
3.048
  9
$DIMJUST
 70
     0
  9
$DIMSD1
 70
     0
  9
$DIMSD2
 70
     0
  9
$DIMTOLJ
 70
     0
  9
$DIMTZIN
 70
     0
  9
$DIMALTZ
 70
     0
  9
$DIMALTTZ
 70
     0
  9
$DIMFIT
 70
     3
  9
$DIMUPT
 70
     0
  9
$DIMUNIT
 70
     2
  9
$DIMDEC
 70
     2
  9
$DIMTDEC
 70
     2
  9
$DIMALTU
 70
     2
  9
$DIMALTTD
 70
     3
  9
$DIMTXSTY
  7
STANDARD
  9
$DIMAUNIT
 70
     0
  9
$LUNITS
 70
     2
  9
$LUPREC
 70
     2
  9
$SKETCHINC
 40
1.0
  9
$FILLETRAD
 40
10.0
  9
$AUNITS
 70
     0
  9
$AUPREC
 70
     2
  9
$MENU
  1
.
  9
$ELEVATION
 40
0.0
  9
$PELEVATION
 40
0.0
  9
$THICKNESS
 40
0.0
  9
$LIMCHECK
 70
     0
  9
$CHAMFERA
 40
10.0
  9
$CHAMFERB
 40
10.0
  9
$CHAMFERC
 40
20.0
  9
$CHAMFERD
 40
0.0
  9
$SKPOLY
 70
     0
  9
$TDCREATE
 40
2455590.573344363
  9
$TDUPDATE
 40
2455590.573344375
  9
$TDINDWG
 40
0.0000000116
  9
$TDUSRTIMER
 40
0.0000000116
  9
$USRTIMER
 70
     1
  9
$ANGBASE
 50
0.0
  9
$ANGDIR
 70
     0
  9
$PDMODE
 70
     0
  9
$PDSIZE
 40
-1.0
  9
$PLINEWID
 40
0.0
  9
$COORDS
 70
     1
  9
$SPLFRAME
 70
     0
  9
$SPLINETYPE
 70
     6
  9
$SPLINESEGS
 70
     8
  9
$ATTDIA
 70
     0
  9
$ATTREQ
 70
     1
  9
$HANDLING
 70
     1
  9
$HANDSEED
  5
2BA
  9
$SURFTAB1
 70
     6
  9
$SURFTAB2
 70
     6
  9
$SURFTYPE
 70
     6
  9
$SURFU
 70
     6
  9
$SURFV
 70
     6
  9
$UCSNAME
  2

  9
$UCSORG
 10
0.0
 20
0.0
 30
0.0
  9
$UCSXDIR
 10
1.0
 20
0.0
 30
0.0
  9
$UCSYDIR
 10
0.0
 20
1.0
 30
0.0
  9
$PUCSNAME
  2

  9
$PUCSORG
 10
0.0
 20
0.0
 30
0.0
  9
$PUCSXDIR
 10
1.0
 20
0.0
 30
0.0
  9
$PUCSYDIR
 10
0.0
 20
1.0
 30
0.0
  9
$USERI1
 70
     0
  9
$USERI2
 70
     0
  9
$USERI3
 70
     0
  9
$USERI4
 70
     0
  9
$USERI5
 70
     0
  9
$USERR1
 40
0.0
  9
$USERR2
 40
0.0
  9
$USERR3
 40
0.0
  9
$USERR4
 40
0.0
  9
$USERR5
 40
0.0
  9
$WORLDVIEW
 70
     1
  9
$SHADEDGE
 70
     3
  9
$SHADEDIF
 70
    70
  9
$TILEMODE
 70
     1
  9
$MAXACTVP
 70
    64
  9
$PINSBASE
 10
0.0
 20
0.0
 30
0.0
  9
$PLIMCHECK
 70
     0
  9
$PEXTMIN
 10
1.0000000000E+20
 20
1.0000000000E+20
 30
1.0000000000E+20
  9
$PEXTMAX
 10
-1.0000000000E+20
 20
-1.0000000000E+20
 30
-1.0000000000E+20
  9
$PLIMMIN
 10
0.0
 20
0.0
  9
$PLIMMAX
 10
420.0
 20
297.0
  9
$UNITMODE
 70
     0
  9
$VISRETAIN
 70
     1
  9
$PLINEGEN
 70
     0
  9
$PSLTSCALE
 70
     1
  9
$TREEDEPTH
 70
  3020
  9
$PICKSTYLE
 70
     1
  9
$CMLSTYLE
  2
STANDARD
  9
$CMLJUST
 70
     0
  9
$CMLSCALE
 40
20.0
  9
$PROXYGRAPHICS
 70
     1
  9
$MEASUREMENT
 70
     1
  0
ENDSEC
  0
SECTION
  2
CLASSES
  0
CLASS
  1
ACDBDICTIONARYWDFLT
  2
AcDbDictionaryWithDefault
  3
ObjectDBX Classes
 90
        0
280
     0
281
     0
  0
CLASS
  1
VISUALSTYLE
  2
AcDbVisualStyle
  3
ObjectDBX Classes
 90
     4095
280
     0
281
     0
  0
CLASS
  1
MATERIAL
  2
AcDbMaterial
  3
ObjectDBX Classes
 90
     1153
280
     0
281
     0
  0
CLASS
  1
XRECORD
  2
AcDbXrecord
  3
AutoCAD 2000
 90
        0
280
     0
281
     0
  0
CLASS
  1
LWPOLYLINE
  2
AcDbPolyline
  3
AutoCAD 2000
 90
        0
280
     0
281
     1
  0
CLASS
  1
HATCH
  2
AcDbHatch
  3
AutoCAD 2000
 90
        0
280
     0
281
     1
  0
ENDSEC
  0
SECTION
  2
TABLES
  0
TABLE
  2
VPORT
  5
8
330
0
100
AcDbSymbolTable
 70
     1
  0
VPORT
  5
29
330
8
100
AcDbSymbolTableRecord
100
AcDbViewportTableRecord
  2
*ACTIVE
 70
     0
 10
0.0
 20
0.0
 11
1.0
 21
1.0
 12
420.0
 22
297.0
 13
0.0
 23
0.0
 14
10.0
 24
10.0
 15
10.0
 25
10.0
 16
0.0
 26
0.0
 36
1.0
 17
0.0
 27
0.0
 37
0.0
 40
594.0
 41
1.4141414141
 42
50.0
 43
0.0
 44
0.0
 50
0.0
 51
0.0
 71
     0
 72
  2000
 73
     1
 74
     3
 75
     0
 76
     0
 77
     0
 78
     0
  0
ENDTAB
  0
TABLE
  2
LTYPE
  5
5
330
0
100
AcDbSymbolTable
 70
     6
  0
LTYPE
  5
14
330
5
100
AcDbSymbolTableRecord
100
AcDbLinetypeTableRecord
  2
BYBLOCK
 70
     0
  3

 72
    65
 73
     0
 40
0.0
  0
LTYPE
  5
15
330
5
100
AcDbSymbolTableRecord
100
AcDbLinetypeTableRecord
  2
BYLAYER
 70
     0
  3

 72
    65
 73
     0
 40
0.0
  0
LTYPE
  5
16
330
5
100
AcDbSymbolTableRecord
100
AcDbLinetypeTableRecord
  2
CONTINUOUS
 70
     0
  3
Solid line
 72
    65
 73
     0
 40
0.0
  0
LTYPE
  5
3F
330
5
100
AcDbSymbolTableRecord
100
AcDbLinetypeTableRecord
  2
HIDDEN
 70
     0
  3
Hidden __ __ __ __ __ __ __ __ __ __ __ __ __ __
 72
    65
 73
     2
 40
1.905
 49
1.27
 74
     0
 49
-0.635
 74
     0
  0
LTYPE
  5
40
330
5
100
AcDbSymbolTableRecord
100
AcDbLinetypeTableRecord
  2
PHANTOM
 70
     0
  3
Phantom ______  __  __  ______  __  __  ______
 72
    65
 73
     6
 40
12.7
 49
6.35
 74
     0
 49
-1.27
 74
     0
 49
1.27
 74
     0
 49
-1.27
 74
     0
 49
1.27
 74
     0
 49
-1.27
 74
     0
  0
LTYPE
  5
41
330
5
100
AcDbSymbolTableRecord
100
AcDbLinetypeTableRecord
  2
CENTER
 70
     0
  3
Center ____ _ ____ _ ____ _ ____ _ ____ _ ____
 72
    65
 73
     4
 40
10.16
 49
6.35
 74
     0
 49
-1.27
 74
     0
 49
1.27
 74
     0
 49
-1.27
 74
     0
  0
LTYPE
  5
42
330
5
100
AcDbSymbolTableRecord
100
AcDbLinetypeTableRecord
  2
CENTERX2
 70
     0
  3
Center (2x) ________  __  ________  __  _____
 72
    65
 73
     4
 40
20.32
 49
12.7
 74
     0
 49
-2.54
 74
     0
 49
2.54
 74
     0
 49
-2.54
 74
     0
  0
LTYPE
  5
43
330
5
100
AcDbSymbolTableRecord
100
AcDbLinetypeTableRecord
  2
DOT2
 70
     0
  3
Dot (.5x) ........................................
 72
    65
 73
     2
 40
0.635
 49
0.0
 74
     0
 49
-0.635
 74
     0
  0
ENDTAB
  0
TABLE
  2
LAYER
  5
2
330
0
100
AcDbSymbolTable
 70
     1
  0
LAYER
  5
10
330
2
100
AcDbSymbolTableRecord
100
AcDbLayerTableRecord
  2
0
 70
     0
 62
     7
  6
CONTINUOUS
  0
ENDTAB
  0
TABLE
  2
STYLE
  5
3
330
0
100
AcDbSymbolTable
 70
     1
  0
STYLE
  5
11
330
3
100
AcDbSymbolTableRecord
100
AcDbTextStyleTableRecord
  2
STANDARD
 70
     0
 40
0.0
 41
1.0
 50
0.0
 71
     0
 42
2.5
  3
txt
  4

  0
ENDTAB
  0
TABLE
  2
VIEW
  5
6
330
0
100
AcDbSymbolTable
 70
     0
  0
ENDTAB
  0
TABLE
  2
UCS
  5
7
330
0
100
AcDbSymbolTable
 70
     0
  0
ENDTAB
  0
TABLE
  2
APPID
  5
9
330
0
100
AcDbSymbolTable
 70
     1
  0
APPID
  5
12
330
9
100
AcDbSymbolTableRecord
100
AcDbRegAppTableRecord
  2
ACAD
 70
     0
  0
ENDTAB
  0
TABLE
  2
DIMSTYLE
  5
A
330
0
100
AcDbSymbolTable
 70
     1
  0
DIMSTYLE
105
27
330
A
100
AcDbSymbolTableRecord
100
AcDbDimStyleTableRecord
  2
ISO-25
 70
     0
  3

  4

  5

  6

  7

 40
1.0
 41
2.5
 42
0.625
 43
3.75
 44
1.25
 45
0.0
 46
0.0
 47
0.0
 48
0.0
140
2.5
141
2.5
142
0.0
143
0.0393700787
144
1.0
145
0.0
146
1.0
147
0.625
 71
     0
 72
     0
 73
     0
 74
     0
 75
     0
 76
     0
 77
     1
 78
     8
170
     0
171
     3
172
     1
173
     0
174
     0
175
     0
176
     0
177
     0
178
     0
270
     2
271
     2
272
     2
273
     2
274
     3
340
11
275
     0
280
     0
281
     0
282
     0
283
     0
284
     8
285
     0
286
     0
287
     3
288
     0
  0
ENDTAB
  0
TABLE
  2
BLOCK_RECORD
  5
1
330
0
100
AcDbSymbolTable
 70
     1
  0
BLOCK_RECORD
  5
1F
330
1
100
AcDbSymbolTableRecord
100
AcDbBlockTableRecord
  2
*MODEL_SPACE
  0
BLOCK_RECORD
  5
1B
330
1
100
AcDbSymbolTableRecord
100
AcDbBlockTableRecord
  2
*PAPER_SPACE
  0
BLOCK_RECORD
  5
23
330
1
100
AcDbSymbolTableRecord
100
AcDbBlockTableRecord
  2
*PAPER_SPACE0
  0
ENDTAB
  0
ENDSEC
  0
SECTION
  2
BLOCKS
  0
BLOCK
  5
20
330
1F
100
AcDbEntity
  8
0
100
AcDbBlockBegin
  2
*MODEL_SPACE
 70
     0
 10
0.0
 20
0.0
 30
0.0
  3
*MODEL_SPACE
  1

  0
ENDBLK
  5
21
330
1F
100
AcDbEntity
  8
0
100
AcDbBlockEnd
  0
BLOCK
  5
1C
330
1B
100
AcDbEntity
 67
     1
  8
0
100
AcDbBlockBegin
  2
*PAPER_SPACE
 70
     0
 10
0.0
 20
0.0
 30
0.0
  3
*PAPER_SPACE
  1

  0
ENDBLK
  5
1D
330
1B
100
AcDbEntity
 67
     1
  8
0
100
AcDbBlockEnd
  0
BLOCK
  5
24
330
23
100
AcDbEntity
  8
0
100
AcDbBlockBegin
  2
*PAPER_SPACE0
 70
     0
 10
0.0
 20
0.0
 30
0.0
  3
*PAPER_SPACE0
  1

  0
ENDBLK
  5
25
330
23
100
AcDbEntity
  8
0
100
AcDbBlockEnd
  0
ENDSEC
  0
SECTION
  2
ENTITIES
  0
LINE
  5
44
330
1F
100
AcDbEntity
  8
0
  6
CONTINUOUS
 62
     7
100
AcDbLine
 10
85.0386975523
 20
410.4059269633
 30
0.0
 11
85.0386975523
 21
221.3287880626
 31
0.0
  0
ARC
  5
45
330
1F
100
AcDbEntity
  8
0
  6
CONTINUOUS
 62
     7
100
AcDbCircle
 10
86.9878552019
 20
410.4295183382
 30
0.0
 40
1.949300411909255
100
AcDbArc
 50
88.0723743405
 51
180.6934381194
  0
LWPOLYLINE
  5
46
330
1F
100
AcDbEntity
  8
0
  6
CONTINUOUS
 62
     7
100
AcDbPolyline
 90
        8
 70
   128
 43
0.0
 10
376.3393221613
 20
412.3777156677
 10
335.1256383773
 20
412.0193799939
 10
293.7991080996
 20
411.7804920282
 10
252.404816654
 20
411.6610443201
 10
210.98792946
 20
411.6610443201
 10
169.5936380144
 20
411.7804920282
 10
128.2671077367
 20
412.0193799939
 10
87.0534239527
 20
412.3777156677
  0
ARC
  5
47
330
1F
100
AcDbEntity
  8
0
  6
CONTINUOUS
 62
     7
100
AcDbCircle
 10
376.4045198965
 20
410.4291392434
 30
0.0
 40
1.94966685005777
100
AcDbArc
 50
359.317833659
 51
91.9163538811
  0
LINE
  5
48
330
1F
100
AcDbEntity
  8
0
  6
CONTINUOUS
 62
     7
100
AcDbLine
 10
378.3540485617
 20
221.3287880626
 30
0.0
 11
378.3540485617
 21
410.4059269633
 31
0.0
  0
ARC
  5
49
330
1F
100
AcDbEntity
  8
0
  6
CONTINUOUS
 62
     7
100
AcDbCircle
 10
376.4048909121
 20
221.3051966877
 30
0.0
 40
1.949300411909212
100
AcDbArc
 50
268.0723743405
 51
0.6934381194
  0
LWPOLYLINE
  5
4A
330
1F
100
AcDbEntity
  8
0
  6
CONTINUOUS
 62
     7
100
AcDbPolyline
 90
        8
 70
   128
 43
0.0
 10
87.0534239527
 20
219.3569993582
 10
128.2671077367
 20
219.715335032
 10
169.5936380144
 20
219.9542229977
 10
210.98792946
 20
220.0736707058
 10
252.404816654
 20
220.0736707058
 10
293.7991080996
 20
219.9542229977
 10
335.1256383773
 20
219.715335032
 10
376.3393221613
 20
219.3569993582
  0
ARC
  5
4B
330
1F
100
AcDbEntity
  8
0
  6
CONTINUOUS
 62
     7
100
AcDbCircle
 10
86.9882262175
 20
221.3055757825
 30
0.0
 40
1.949666850057799
100
AcDbArc
 50
179.317833659
 51
271.9163538811
  0
ARC
  5
4C
330
1F
100
AcDbEntity
  8
0
  6
CONTINUOUS
 62
     7
100
AcDbCircle
 10
101.3842192836
 20
409.4981649939
 30
0.0
 40
0.7988477728825394
100
AcDbArc
 50
90.4813680552
 51
180.2133514652
  0
LINE
  5
4D
330
1F
100
AcDbEntity
  8
0
  6
CONTINUOUS
 62
     7
100
AcDbLine
 10
100.5853770491
 20
409.4951903429
 30
0.0
 11
100.5853770491
 21
222.239524683
 31
0.0
  0
ARC
  5
4E
330
1F
100
AcDbEntity
  8
0
  6
CONTINUOUS
 62
     7
100
AcDbCircle
 10
101.3850734879
 20
222.2373939412
 30
0.0
 40
0.7996992774643964
100
AcDbArc
 50
179.8473392955
 51
269.4579411841
  0
ELLIPSE
  5
4F
330
1F
100
AcDbEntity
  8
0
  6
CONTINUOUS
 62
     7
100
AcDbEllipse
 10
231.696373057
 20
286.7928947792
 30
0.0
 11
1253.841663108286
 21
0.0
 31
0.0
210
0.0
220
0.0
230
1.0
 40
0.0524077793
 41
4.608265270765306
 42
4.81651269000408
  0
ARC
  5
50
330
1F
100
AcDbEntity
  8
0
  6
CONTINUOUS
 62
     7
100
AcDbCircle
 10
362.0085268304
 20
222.236550032
 30
0.0
 40
0.7988477728825959
100
AcDbArc
 50
270.4813680552
 51
0.2133514652
  0
LINE
  5
51
330
1F
100
AcDbEntity
  8
0
  6
CONTINUOUS
 62
     7
100
AcDbLine
 10
362.8073690649
 20
409.4951903429
 30
0.0
 11
362.8073690649
 21
222.239524683
 31
0.0
  0
ARC
  5
52
330
1F
100
AcDbEntity
  8
0
  6
CONTINUOUS
 62
     7
100
AcDbCircle
 10
362.0076726261
 20
409.4973210847
 30
0.0
 40
0.7996992774645235
100
AcDbArc
 50
359.8473392955
 51
89.4579411841
  0
ELLIPSE
  5
53
330
1F
100
AcDbEntity
  8
0
  6
CONTINUOUS
 62
     7
100
AcDbEllipse
 10
231.696373057
 20
344.9418202467
 30
0.0
 11
1253.841663108286
 21
0.0
 31
0.0
210
0.0
220
0.0
230
1.0
 40
0.0524077793
 41
1.46667261717551
 42
1.674920036414283
  0
CIRCLE
  5
54
330
1F
100
AcDbEntity
  8
0
  6
CONTINUOUS
 62
     7
100
AcDbCircle
 10
369.1805158943
 20
403.3671603041
 30
0.0
 40
4.15485792879017
  0
CIRCLE
  5
55
330
1F
100
AcDbEntity
  8
0
  6
CONTINUOUS
 62
     7
100
AcDbCircle
 10
94.2125088908
 20
403.3671769648
 30
0.0
 40
4.154860267666098
  0
CIRCLE
  5
56
330
1F
100
AcDbEntity
  8
0
  6
CONTINUOUS
 62
     7
100
AcDbCircle
 10
94.2125113812
 20
228.3671830567
 30
0.0
 40
4.154864230194848
  0
CIRCLE
  5
57
330
1F
100
AcDbEntity
  8
0
  6
CONTINUOUS
 62
     7
100
AcDbCircle
 10
369.1805134305
 20
228.3671527179
 30
0.0
 40
4.154853979366302
  0
LWPOLYLINE
  5
58
330
1F
100
AcDbEntity
  8
0
  6
CONTINUOUS
 62
     7
100
AcDbPolyline
 90
        8
 70
   128
 43
0.0
 10
376.2143461224
 20
218.3608045783
 10
335.0550888296
 20
218.7191402521
 10
293.790554833
 20
218.9580356684
 10
252.4207515832
 20
219.0774833765
 10
210.9722366747
 20
219.0774833765
 10
169.6026755687
 20
218.958043119
 10
128.3380670663
 20
218.7191477027
 10
87.1783999916
 20
218.3608045783
  0
LINE
  5
59
330
1F
100
AcDbEntity
  8
0
  6
CONTINUOUS
 62
     7
100
AcDbLine
 10
87.0534239527
 20
219.3569993582
 30
0.0
 11
87.1783999916
 21
218.3608045783
 31
0.0
  0
LINE
  5
5A
330
1F
100
AcDbEntity
  8
0
  6
CONTINUOUS
 62
     7
100
AcDbLine
 10
376.2143461224
 20
218.3608045783
 30
0.0
 11
376.3393221613
 21
219.3569993582
 31
0.0
  0
LWPOLYLINE
  5
5B
330
1F
100
AcDbEntity
  8
0
  6
CONTINUOUS
 62
     7
100
AcDbPolyline
 90
        8
 70
   128
 43
0.0
 10
87.1783999916
 20
413.3739104476
 10
128.3376572844
 20
413.0155747738
 10
169.6021912809
 20
412.7766793575
 10
210.9719945308
 20
412.6572316494
 10
252.4205094393
 20
412.6572316494
 10
293.7900705453
 20
412.776671907
 10
335.0546790477
 20
413.0155673232
 10
376.2143461224
 20
413.3739104476
  0
LINE
  5
5C
330
1F
100
AcDbEntity
  8
0
  6
CONTINUOUS
 62
     7
100
AcDbLine
 10
376.2143461224
 20
413.3739104476
 30
0.0
 11
376.3393221613
 21
412.3777156677
 31
0.0
  0
LINE
  5
5D
330
1F
100
AcDbEntity
  8
0
  6
CONTINUOUS
 62
     7
100
AcDbLine
 10
87.0534239527
 20
412.3777156677
 30
0.0
 11
87.1783999916
 21
413.3739104476
 31
0.0
  0
LINE
  5
5E
330
1F
100
AcDbEntity
  8
0
  6
CONTINUOUS
 62
     7
100
AcDbLine
 10
101.377507877
 20
410.2969845738
 30
0.0
 11
101.510441136
 21
410.217360219
 31
0.0
  0
LINE
  5
5F
330
1F
100
AcDbEntity
  8
0
  6
CONTINUOUS
 62
     7
100
AcDbLine
 10
361.882304978
 20
410.217360219
 30
0.0
 11
362.015238237
 21
410.2969845738
 31
0.0
  0
LINE
  5
60
330
1F
100
AcDbEntity
  8
0
  6
CONTINUOUS
 62
     7
100
AcDbLine
 10
361.882304978
 20
410.217360219
 30
0.0
 11
101.510441136
 21
410.217360219
 31
0.0
  0
LINE
  5
61
330
1F
100
AcDbEntity
  8
0
  6
CONTINUOUS
 62
     7
100
AcDbLine
 10
101.510441136
 20
221.5173548069
 30
0.0
 11
101.377507877
 21
221.4377304521
 31
0.0
  0
LINE
  5
62
330
1F
100
AcDbEntity
  8
0
  6
CONTINUOUS
 62
     7
100
AcDbLine
 10
361.882304978
 20
221.5173548069
 30
0.0
 11
101.510441136
 21
221.5173548069
 31
0.0
  0
LINE
  5
63
330
1F
100
AcDbEntity
  8
0
  6
CONTINUOUS
 62
     7
100
AcDbLine
 10
362.015238237
 20
221.4377304521
 30
0.0
 11
361.882304978
 21
221.5173548069
 31
0.0
  0
LINE
  5
64
330
1F
100
AcDbEntity
  8
0
  6
CONTINUOUS
 62
     7
100
AcDbLine
 10
86.6849629398
 20
217.867360076
 30
0.0
 11
376.7077831741
 21
217.867360076
 31
0.0
  0
LINE
  5
65
330
1F
100
AcDbEntity
  8
0
  6
CONTINUOUS
 62
     7
100
AcDbLine
 10
87.1783999916
 20
218.3608045783
 30
0.0
 11
86.6849629398
 21
217.867360076
 31
0.0
  0
LINE
  5
66
330
1F
100
AcDbEntity
  8
0
  6
CONTINUOUS
 62
     7
100
AcDbLine
 10
376.7077831741
 20
217.867360076
 30
0.0
 11
376.2142567154
 21
218.3608939853
 31
0.0
  0
LINE
  5
67
330
1F
100
AcDbEntity
  8
0
  6
CONTINUOUS
 62
     7
100
AcDbLine
 10
376.7077831741
 20
413.86735495
 30
0.0
 11
86.6849629398
 21
413.86735495
 31
0.0
  0
LINE
  5
68
330
1F
100
AcDbEntity
  8
0
  6
CONTINUOUS
 62
     7
100
AcDbLine
 10
376.2143461224
 20
413.3739104476
 30
0.0
 11
376.7077831741
 21
413.86735495
 31
0.0
  0
LINE
  5
69
330
1F
100
AcDbEntity
  8
0
  6
CONTINUOUS
 62
     7
100
AcDbLine
 10
86.6849629398
 20
413.86735495
 30
0.0
 11
87.1784893986
 21
413.3738210406
 31
0.0
  0
LINE
  5
6A
330
1F
100
AcDbEntity
  8
0
  6
CONTINUOUS
 62
     7
100
AcDbLine
 10
100.7525829788
 20
409.3950321879
 30
0.0
 11
100.5853770491
 21
409.4951903429
 31
0.0
  0
ELLIPSE
  5
6B
330
1F
100
AcDbEntity
  8
0
  6
CONTINUOUS
 62
     7
100
AcDbEllipse
 10
101.5558304676
 20
409.3912639912
 30
0.0
 11
-0.4495189290625063
 21
0.7100022915352042
 31
0.0
210
0.0
220
0.0
230
1.0
 40
0.939422321
 41
5.746620214856652
 42
7.312855146695211
  0
ELLIPSE
  5
6C
330
1F
100
AcDbEntity
  8
0
  6
CONTINUOUS
 62
     7
100
AcDbEllipse
 10
361.8369156464
 20
222.3434510347
 30
0.0
 11
-0.4495189290625489
 21
0.7100022915352042
 31
0.0
210
0.0
220
0.0
230
1.0
 40
0.939422321
 41
2.605027561266823
 42
4.171262493105329
  0
LINE
  5
6D
330
1F
100
AcDbEntity
  8
0
  6
CONTINUOUS
 62
     7
100
AcDbLine
 10
362.6401631352
 20
222.339682838
 30
0.0
 11
362.8073690649
 21
222.239524683
 31
0.0
  0
LINE
  5
6E
330
1F
100
AcDbEntity
  8
0
  6
CONTINUOUS
 62
     7
100
AcDbLine
 10
362.8073690649
 20
409.4951903429
 30
0.0
 11
362.6401631352
 21
409.3950321879
 31
0.0
  0
ELLIPSE
  5
6F
330
1F
100
AcDbEntity
  8
0
  6
CONTINUOUS
 62
     7
100
AcDbEllipse
 10
361.8369156464
 20
409.3912639912
 30
0.0
 11
0.4495189290624921
 21
0.7100022915352043
 31
0.0
210
0.0
220
0.0
230
1.0
 40
0.939422321
 41
5.253515467663985
 42
6.819750399502492
  0
LINE
  5
70
330
1F
100
AcDbEntity
  8
0
  6
CONTINUOUS
 62
     7
100
AcDbLine
 10
100.5853770491
 20
222.239524683
 30
0.0
 11
100.7525829788
 21
222.339682838
 31
0.0
  0
ELLIPSE
  5
71
330
1F
100
AcDbEntity
  8
0
  6
CONTINUOUS
 62
     7
100
AcDbEllipse
 10
101.5558304676
 20
222.3434510347
 30
0.0
 11
0.4495189290625063
 21
0.7100022915352042
 31
0.0
210
0.0
220
0.0
230
1.0
 40
0.939422321
 41
2.111922814074203
 42
3.678157745912758
  0
LINE
  5
72
330
1F
100
AcDbEntity
  8
0
  6
CONTINUOUS
 62
     7
100
AcDbLine
 10
100.8634476181
 20
407.2002848592
 30
0.0
 11
100.7525829788
 21
409.3950321879
 31
0.0
  0
LINE
  5
73
330
1F
100
AcDbEntity
  8
0
  6
CONTINUOUS
 62
     7
100
AcDbLine
 10
100.8634476181
 20
407.2002848592
 30
0.0
 11
100.9463725802
 21
407.1173598971
 31
0.0
  0
LINE
  5
74
330
1F
100
AcDbEntity
  8
0
  6
CONTINUOUS
 62
     7
100
AcDbLine
 10
100.9463725802
 20
224.6173551288
 30
0.0
 11
100.9463725802
 21
407.1173598971
 31
0.0
  0
LINE
  5
75
330
1F
100
AcDbEntity
  8
0
  6
CONTINUOUS
 62
     7
100
AcDbLine
 10
100.8634476181
 20
224.5344301667
 30
0.0
 11
100.9463725802
 21
224.6173551288
 31
0.0
  0
LINE
  5
76
330
1F
100
AcDbEntity
  8
0
  6
CONTINUOUS
 62
     7
100
AcDbLine
 10
100.7525829788
 20
222.339682838
 30
0.0
 11
100.8634476181
 21
224.5344301667
 31
0.0
  0
LINE
  5
77
330
1F
100
AcDbEntity
  8
0
  6
CONTINUOUS
 62
     7
100
AcDbLine
 10
362.6401631352
 20
222.339682838
 30
0.0
 11
362.5292984959
 21
224.5344301667
 31
0.0
  0
LINE
  5
78
330
1F
100
AcDbEntity
  8
0
  6
CONTINUOUS
 62
     7
100
AcDbLine
 10
362.5292984959
 20
224.5344301667
 30
0.0
 11
362.4463735338
 21
224.6173551288
 31
0.0
  0
LINE
  5
79
330
1F
100
AcDbEntity
  8
0
  6
CONTINUOUS
 62
     7
100
AcDbLine
 10
362.4463735338
 20
407.1173598971
 30
0.0
 11
362.4463735338
 21
224.6173551288
 31
0.0
  0
LINE
  5
7A
330
1F
100
AcDbEntity
  8
0
  6
CONTINUOUS
 62
     7
100
AcDbLine
 10
362.5292984959
 20
407.2002848592
 30
0.0
 11
362.4463735338
 21
407.1173598971
 31
0.0
  0
LINE
  5
7B
330
1F
100
AcDbEntity
  8
0
  6
CONTINUOUS
 62
     7
100
AcDbLine
 10
362.5292984959
 20
407.2002848592
 30
0.0
 11
362.6401631352
 21
409.3950321879
 31
0.0
  0
CIRCLE
  5
7C
330
1F
100
AcDbEntity
  8
0
  6
CONTINUOUS
 62
     7
100
AcDbCircle
 10
94.196373057
 20
228.367357513
 30
0.0
 40
3.818411998642915
  0
CIRCLE
  5
7D
330
1F
100
AcDbEntity
  8
0
  6
CONTINUOUS
 62
     7
100
AcDbCircle
 10
94.196373057
 20
403.367357513
 30
0.0
 40
3.818411998642915
  0
CIRCLE
  5
7E
330
1F
100
AcDbEntity
  8
0
  6
CONTINUOUS
 62
     7
100
AcDbCircle
 10
369.196373057
 20
228.367357513
 30
0.0
 40
3.818411998642944
  0
CIRCLE
  5
7F
330
1F
100
AcDbEntity
  8
0
  6
CONTINUOUS
 62
     7
100
AcDbCircle
 10
369.196373057
 20
403.367357513
 30
0.0
 40
3.818411998643001
  0
ARC
  5
80
330
1F
100
AcDbEntity
  8
0
  6
CONTINUOUS
 62
     7
100
AcDbCircle
 10
87.1518518009
 20
221.3433590213
 30
0.0
 40
2.982672595484371
100
AcDbArc
 50
180.2799025815
 51
270.5099853637
  0
LINE
  5
81
330
1F
100
AcDbEntity
  8
0
  6
CONTINUOUS
 62
     7
100
AcDbLine
 10
85.0386975523
 20
221.3287880626
 30
0.0
 11
84.1692147966
 21
221.3287880626
 31
0.0
  0
LINE
  5
82
330
1F
100
AcDbEntity
  8
0
  6
CONTINUOUS
 62
     7
100
AcDbLine
 10
85.0386975523
 20
410.4059269633
 30
0.0
 11
84.1692147966
 21
410.4059269633
 31
0.0
  0
ARC
  5
83
330
1F
100
AcDbEntity
  8
0
  6
CONTINUOUS
 62
     7
100
AcDbCircle
 10
87.1518559117
 20
410.3913518367
 30
0.0
 40
2.982676726626073
100
AcDbArc
 50
89.4900943128
 51
179.720017742
  0
ARC
  5
84
330
1F
100
AcDbEntity
  8
0
  6
CONTINUOUS
 62
     7
100
AcDbCircle
 10
376.240881856
 20
221.3433716513
 30
0.0
 40
2.982685114162112
100
AcDbArc
 50
269.4902560805
 51
359.7198559743
  0
LINE
  5
85
330
1F
100
AcDbEntity
  8
0
  6
CONTINUOUS
 62
     7
100
AcDbLine
 10
379.2235313173
 20
221.3287880626
 30
0.0
 11
378.3540485617
 21
221.3287880626
 31
0.0
  0
ARC
  5
86
330
1F
100
AcDbEntity
  8
0
  6
CONTINUOUS
 62
     7
100
AcDbCircle
 10
376.2408943131
 20
410.3913560046
 30
0.0
 40
2.982672595484513
100
AcDbArc
 50
0.2799025815
 51
90.5099853637
  0
LINE
  5
87
330
1F
100
AcDbEntity
  8
0
  6
CONTINUOUS
 62
     7
100
AcDbLine
 10
379.2235313173
 20
410.4059269633
 30
0.0
 11
378.3540485617
 21
410.4059269633
 31
0.0
  0
LINE
  5
88
330
1F
100
AcDbEntity
  8
0
  6
CONTINUOUS
 62
     7
100
AcDbLine
 10
362.5292984959
 20
407.2002848592
 30
0.0
 11
100.8634476181
 21
407.2002848592
 31
0.0
  0
LINE
  5
89
330
1F
100
AcDbEntity
  8
0
  6
CONTINUOUS
 62
     7
100
AcDbLine
 10
362.5292984959
 20
224.5344301667
 30
0.0
 11
100.8634476181
 21
224.5344301667
 31
0.0
  0
LINE
  5
8A
330
1F
100
AcDbEntity
  8
0
  6
CONTINUOUS
 62
     7
100
AcDbLine
 10
84.1692147966
 20
221.3287880626
 30
0.0
 11
84.1692147966
 21
410.4059269633
 31
0.0
  0
LINE
  5
8B
330
1F
100
AcDbEntity
  8
0
  6
CONTINUOUS
 62
     7
100
AcDbLine
 10
379.2235313173
 20
410.4059269633
 30
0.0
 11
379.2235313173
 21
221.3287880626
 31
0.0
  0
ELLIPSE
  5
8C
330
1F
100
AcDbEntity
  8
0
  6
CONTINUOUS
 62
     7
100
AcDbEllipse
 10
86.7078325696
 20
410.8558980003
 30
0.0
 11
-2.137495823670761
 21
2.137495823670747
 31
0.0
210
0.0
220
0.0
230
0.9999999999999998
 40
0.9924325091
 41
5.501585242055437
 42
7.064785372303762
  0
LINE
  5
8D
330
1F
100
AcDbEntity
  8
0
  6
CONTINUOUS
 62
     7
100
AcDbLine
 10
84.1692147966
 20
410.4059269633
 30
0.0
 11
83.6963711496
 21
410.8787706103
 31
0.0
  0
ELLIPSE
  5
8E
330
1F
100
AcDbEntity
  8
0
  6
CONTINUOUS
 62
     7
100
AcDbEllipse
 10
376.6849135444
 20
220.8788170256
 30
0.0
 11
2.13749582367069
 21
-2.137495823670747
 31
0.0
210
0.0
220
0.0
230
1.0
 40
0.9924325091
 41
5.50158524205546
 42
7.064785372303762
  0
LINE
  5
8F
330
1F
100
AcDbEntity
  8
0
  6
CONTINUOUS
 62
     7
100
AcDbLine
 10
379.2235313173
 20
221.3287880626
 30
0.0
 11
379.6963749643
 21
220.8559444156
 31
0.0
  0
ELLIPSE
  5
90
330
1F
100
AcDbEntity
  8
0
  6
CONTINUOUS
 62
     7
100
AcDbEllipse
 10
376.6849135444
 20
410.8558980003
 30
0.0
 11
2.137495823670747
 21
2.137495823670747
 31
0.0
210
0.0
220
0.0
230
0.9999999999999998
 40
0.9924325091
 41
5.501585242055431
 42
7.064785372303737
  0
LINE
  5
91
330
1F
100
AcDbEntity
  8
0
  6
CONTINUOUS
 62
     7
100
AcDbLine
 10
379.6963749643
 20
410.8787706103
 30
0.0
 11
379.2236952301
 21
410.4060983267
 31
0.0
  0
ELLIPSE
  5
92
330
1F
100
AcDbEntity
  8
0
  6
CONTINUOUS
 62
     7
100
AcDbEllipse
 10
86.7078325696
 20
220.8788170256
 30
0.0
 11
-2.137495823670761
 21
-2.137495823670747
 31
0.0
210
0.0
220
0.0
230
0.9999999999999998
 40
0.9924325091
 41
5.501585242055436
 42
7.064785372303757
  0
LINE
  5
93
330
1F
100
AcDbEntity
  8
0
  6
CONTINUOUS
 62
     7
100
AcDbLine
 10
83.6963711496
 20
220.8559444156
 30
0.0
 11
84.1690508839
 21
221.3286166992
 31
0.0
  0
LINE
  5
94
330
1F
100
AcDbEntity
  8
0
  6
CONTINUOUS
 62
     7
100
AcDbLine
 10
83.6963711496
 20
410.8787706103
 30
0.0
 11
83.6963711496
 21
220.8559444156
 31
0.0
  0
LINE
  5
95
330
1F
100
AcDbEntity
  8
0
  6
CONTINUOUS
 62
     7
100
AcDbLine
 10
379.6963749643
 20
220.8559444156
 30
0.0
 11
379.6963749643
 21
410.8787706103
 31
0.0
  0
LINE
  5
96
330
1F
100
AcDbEntity
  8
0
  6
CONTINUOUS
 62
     7
100
AcDbLine
 10
100.9463725802
 20
407.1173598971
 30
0.0
 11
362.4463735338
 21
407.1173598971
 31
0.0
  0
LINE
  5
97
330
1F
100
AcDbEntity
  8
0
  6
CONTINUOUS
 62
     7
100
AcDbLine
 10
362.4463735338
 20
224.6173551288
 30
0.0
 11
100.9463725802
 21
224.6173551288
 31
0.0
  0
CIRCLE
  5
98
330
1F
100
AcDbEntity
  8
0
  6
CONTINUOUS
 62
     7
100
AcDbCircle
 10
94.196373057
 20
228.367357513
 30
0.0
 40
1.676825692881863
  0
CIRCLE
  5
99
330
1F
100
AcDbEntity
  8
0
  6
CONTINUOUS
 62
     7
100
AcDbCircle
 10
369.196373057
 20
228.367357513
 30
0.0
 40
1.676825692881891
  0
CIRCLE
  5
9A
330
1F
100
AcDbEntity
  8
0
  6
CONTINUOUS
 62
     7
100
AcDbCircle
 10
369.196373057
 20
403.367357513
 30
0.0
 40
1.676825692881891
  0
CIRCLE
  5
9B
330
1F
100
AcDbEntity
  8
0
  6
CONTINUOUS
 62
     7
100
AcDbCircle
 10
94.196373057
 20
403.367357513
 30
0.0
 40
1.676825692881863
  0
LINE
  5
9C
330
1F
100
AcDbEntity
  8
0
  6
CONTINUOUS
 62
     7
100
AcDbLine
 10
28.8126946358
 20
221.0818385687
 30
0.0
 11
28.8126946358
 21
220.0736707058
 31
0.0
  0
LINE
  5
9D
330
1F
100
AcDbEntity
  8
0
  6
CONTINUOUS
 62
     7
100
AcDbLine
 10
28.8126946358
 20
411.6610443201
 30
0.0
 11
28.8126946358
 21
410.6528764572
 31
0.0
  0
LINE
  5
9E
330
1F
100
AcDbEntity
  8
0
  6
CONTINUOUS
 62
     7
100
AcDbLine
 10
29.8102146877
 20
412.6423006859
 30
0.0
 11
28.8140208391
 21
411.646105906
 31
0.0
  0
LINE
  5
9F
330
1F
100
AcDbEntity
  8
0
  6
CONTINUOUS
 62
     7
100
AcDbLine
 10
28.8140208391
 20
220.0886091199
 30
0.0
 11
29.8102146877
 21
219.09241434
 31
0.0
  0
LINE
  5
A0
330
1F
100
AcDbEntity
  8
0
  6
CONTINUOUS
 62
     7
100
AcDbLine
 10
43.8126943005
 20
222.917356154
 30
0.0
 11
49.0126943147
 21
223.053522965
 31
0.0
  0
LINE
  5
A1
330
1F
100
AcDbEntity
  8
0
  6
CONTINUOUS
 62
     7
100
AcDbLine
 10
49.0126943147
 20
408.6811920609
 30
0.0
 11
43.8126943005
 21
408.8173588719
 31
0.0
  0
LINE
  5
A2
330
1F
100
AcDbEntity
  8
0
  6
CONTINUOUS
 62
     7
100
AcDbLine
 10
43.8126943005
 20
220.8559444156
 30
0.0
 11
43.8126943005
 21
410.8787706103
 31
0.0
  0
LINE
  5
A3
330
1F
100
AcDbEntity
  8
0
  6
CONTINUOUS
 62
     7
100
AcDbLine
 10
38.4080203181
 20
221.3287880626
 30
0.0
 11
43.8126943005
 21
220.8559444156
 31
0.0
  0
LINE
  5
A4
330
1F
100
AcDbEntity
  8
0
  6
CONTINUOUS
 62
     7
100
AcDbLine
 10
38.4080203181
 20
410.4059269633
 30
0.0
 11
38.4080203181
 21
221.3287880626
 31
0.0
  0
LINE
  5
A5
330
1F
100
AcDbEntity
  8
0
  6
CONTINUOUS
 62
     7
100
AcDbLine
 10
43.8126943005
 20
410.8787706103
 30
0.0
 11
38.4099951876
 21
410.4060983267
 31
0.0
  0
LINE
  5
A6
330
1F
100
AcDbEntity
  8
0
  6
CONTINUOUS
 62
     7
100
AcDbLine
 10
43.8126943005
 20
413.86735495
 30
0.0
 11
43.8126943005
 21
410.8787706103
 31
0.0
  0
ARC
  5
A7
330
1F
100
AcDbEntity
  8
0
  6
CONTINUOUS
 62
     7
100
AcDbCircle
 10
24.637182696
 20
410.8069134947
 30
0.0
 40
13.77667445405554
100
AcDbArc
 50
358.3321024868
 51
10.7386384668
  0
LINE
  5
A8
330
1F
100
AcDbEntity
  8
0
  6
CONTINUOUS
 62
     7
100
AcDbLine
 10
38.1725912845
 20
413.3739104476
 30
0.0
 11
43.8126943005
 21
413.86735495
 31
0.0
  0
LINE
  5
A9
330
1F
100
AcDbEntity
  8
0
  6
CONTINUOUS
 62
     7
100
AcDbLine
 10
43.8126943005
 20
220.8559444156
 30
0.0
 11
43.8126943005
 21
217.867360076
 31
0.0
  0
LINE
  5
AA
330
1F
100
AcDbEntity
  8
0
  6
CONTINUOUS
 62
     7
100
AcDbLine
 10
43.8126943005
 20
217.867360076
 30
0.0
 11
38.171560776
 21
218.3608939853
 31
0.0
  0
ARC
  5
AB
330
1F
100
AcDbEntity
  8
0
  6
CONTINUOUS
 62
     7
100
AcDbCircle
 10
24.6182355634
 20
220.9293044725
 30
0.0
 40
13.79556996721342
100
AcDbArc
 50
349.2698913095
 51
1.6593677369
  0
LINE
  5
AC
330
1F
100
AcDbEntity
  8
0
  6
CONTINUOUS
 62
     7
100
AcDbLine
 10
38.4080203181
 20
221.3287880626
 30
0.0
 11
37.419262149
 21
221.3287880626
 31
0.0
  0
LINE
  5
AD
330
1F
100
AcDbEntity
  8
0
  6
CONTINUOUS
 62
     7
100
AcDbLine
 10
37.419262149
 20
221.3287880626
 30
0.0
 11
37.419262149
 21
410.4059269633
 31
0.0
  0
LINE
  5
AE
330
1F
100
AcDbEntity
  8
0
  6
CONTINUOUS
 62
     7
100
AcDbLine
 10
38.4080203181
 20
410.4059269633
 30
0.0
 11
37.419262149
 21
410.4059269633
 31
0.0
  0
ARC
  5
AF
330
1F
100
AcDbEntity
  8
0
  6
CONTINUOUS
 62
     7
100
AcDbCircle
 10
33.3228010542
 20
410.9163656362
 30
0.0
 40
4.128140155107361
100
AcDbArc
 50
352.897280255
 51
20.7319972387
  0
LINE
  5
B0
330
1F
100
AcDbEntity
  8
0
  6
CONTINUOUS
 62
     7
100
AcDbLine
 10
38.1725912845
 20
413.3739104476
 30
0.0
 11
37.1836296214
 21
412.3777156677
 31
0.0
  0
LINE
  5
B1
330
1F
100
AcDbEntity
  8
0
  6
CONTINUOUS
 62
     7
100
AcDbLine
 10
38.1725912845
 20
218.3608045783
 30
0.0
 11
37.1836296214
 21
219.3569993582
 31
0.0
  0
ARC
  5
B2
330
1F
100
AcDbEntity
  8
0
  6
CONTINUOUS
 62
     7
100
AcDbCircle
 10
33.320425219
 20
220.8186333066
 30
0.0
 40
4.130462692422658
100
AcDbArc
 50
339.2759859122
 51
7.0947365941
  0
LWPOLYLINE
  5
B3
330
1F
100
AcDbEntity
  8
0
  6
CONTINUOUS
 62
     7
100
AcDbPolyline
 90
        5
 70
   128
 43
0.0
 10
37.1836296214
 20
412.3777156677
 10
33.0859108759
 20
412.0193799939
 10
30.3516120581
 20
411.7804920282
 10
28.9837161941
 20
411.6610443201
 10
28.9837161941
 20
411.6610443201
  0
LWPOLYLINE
  5
B4
330
1F
100
AcDbEntity
  8
0
  6
CONTINUOUS
 62
     7
100
AcDbPolyline
 90
        5
 70
   128
 43
0.0
 10
28.9837161941
 20
220.0736707058
 10
28.9837161941
 20
220.0736707058
 10
30.3516120581
 20
219.9542229977
 10
33.0859108759
 20
219.715335032
 10
37.1836296214
 20
219.3569993582
  0
LWPOLYLINE
  5
B5
330
1F
100
AcDbEntity
  8
0
  6
CONTINUOUS
 62
     7
100
AcDbPolyline
 90
        5
 70
   128
 43
0.0
 10
28.8126946358
 20
221.0818385687
 10
28.9514039574
 20
221.0891103354
 10
30.0609006477
 20
221.1472546663
 10
32.2789105518
 20
221.2634911742
 10
35.6034723042
 20
221.4377304521
  0
ARC
  5
B6
330
1F
100
AcDbEntity
  8
0
  6
CONTINUOUS
 62
     7
100
AcDbCircle
 10
33.9750747217
 20
222.0115621721
 30
0.0
 40
1.726546127233565
100
AcDbArc
 50
340.5880302306
 51
7.5871358572
  0
LINE
  5
B7
330
1F
100
AcDbEntity
  8
0
  6
CONTINUOUS
 62
     7
100
AcDbLine
 10
35.6865052996
 20
409.4951903429
 30
0.0
 11
35.6865052996
 21
222.239524683
 31
0.0
  0
ARC
  5
B8
330
1F
100
AcDbEntity
  8
0
  6
CONTINUOUS
 62
     7
100
AcDbCircle
 10
33.3745578267
 20
409.6609639347
 30
0.0
 40
2.317883086218339
100
AcDbArc
 50
355.8987391966
 51
15.9260947156
  0
LWPOLYLINE
  5
B9
330
1F
100
AcDbEntity
  8
0
  6
CONTINUOUS
 62
     7
100
AcDbPolyline
 90
        5
 70
   128
 43
0.0
 10
35.6034723042
 20
410.2969845738
 10
32.2789105518
 20
410.4712238517
 10
30.0609006477
 20
410.5874603596
 10
28.9514039574
 20
410.6456046906
 10
28.8126946358
 20
410.6528764572
  0
LWPOLYLINE
  5
BA
330
1F
100
AcDbEntity
  8
0
  6
CONTINUOUS
 62
     7
100
AcDbPolyline
 90
       20
 70
   128
 43
0.0
 10
36.055356071
 20
400.4028519597
 10
35.9676175682
 20
401.529841682
 10
35.9249909339
 20
402.8650751319
 10
35.9319460509
 20
404.2529618349
 10
35.9874165548
 20
405.5392077174
 10
36.0857553711
 20
406.5840622392
 10
36.217143566
 20
407.271862587
 10
36.3679293474
 20
407.5220977869
 10
36.5214094451
 20
407.3009571042
 10
36.6595208576
 20
406.6302260366
 10
36.7654452963
 20
405.5881729331
 10
36.8264036184
 20
404.2984401789
 10
36.8355436182
 20
402.9101660457
 10
36.7923982372
 20
401.5773838367
 10
36.7023165269
 20
400.4440834727
 10
36.5756096249
 20
399.634078702
 10
36.4266334033
 20
399.2407327499
 10
36.2724720431
 20
399.3143444862
 10
36.1309235847
 20
399.8507937398
 10
36.055356071
 20
400.4028519597
  0
LWPOLYLINE
  5
BB
330
1F
100
AcDbEntity
  8
0
  6
CONTINUOUS
 62
     7
100
AcDbPolyline
 90
       20
 70
   128
 43
0.0
 10
36.055356071
 20
225.4028474894
 10
35.9676175682
 20
226.5298446622
 10
35.9249909339
 20
227.8650781121
 10
35.9319460509
 20
229.2529648151
 10
35.9874165548
 20
230.5392106977
 10
36.0857553711
 20
231.5840577688
 10
36.217143566
 20
232.2718581166
 10
36.3679293474
 20
232.5221007671
 10
36.5214094451
 20
232.3009526339
 10
36.6595208576
 20
231.6302290168
 10
36.7654452963
 20
230.5881684628
 10
36.8264036184
 20
229.2984357085
 10
36.8355436182
 20
227.9101615753
 10
36.7923982372
 20
226.5773793664
 10
36.7023165269
 20
225.444086453
 10
36.5756096249
 20
224.6340816822
 10
36.4266334033
 20
224.2407282796
 10
36.2724720431
 20
224.3143474665
 10
36.1309235847
 20
224.8507892694
 10
36.055356071
 20
225.4028474894
  0
LWPOLYLINE
  5
BC
330
1F
100
AcDbEntity
  8
0
  6
CONTINUOUS
 62
     7
100
AcDbPolyline
 90
        5
 70
   128
 43
0.0
 10
29.9808748929
 20
412.6572316494
 10
29.980860923
 20
412.6572316494
 10
31.3461332513
 20
412.776671907
 10
34.0767095728
 20
413.0155673232
 10
38.1725912845
 20
413.3739104476
  0
LWPOLYLINE
  5
BD
330
1F
100
AcDbEntity
  8
0
  6
CONTINUOUS
 62
     7
100
AcDbPolyline
 90
        5
 70
   128
 43
0.0
 10
38.1725912845
 20
218.3608045783
 10
34.0767570702
 20
218.7191402521
 10
31.3461891306
 20
218.9580356684
 10
29.9808888627
 20
219.0774833765
 10
29.9808748929
 20
219.0774833765
  0
LINE
  5
BE
330
1F
100
AcDbEntity
  8
0
  6
CONTINUOUS
 62
     7
100
AcDbLine
 10
49.0126943147
 20
402.9329052176
 30
0.0
 11
43.8126943005
 21
403.0690720286
 31
0.0
  0
LINE
  5
BF
330
1F
100
AcDbEntity
  8
0
  6
CONTINUOUS
 62
     7
100
AcDbLine
 10
49.0126943147
 20
228.8018098083
 30
0.0
 11
49.0126943147
 21
402.9329052176
 31
0.0
  0
LINE
  5
C0
330
1F
100
AcDbEntity
  8
0
  6
CONTINUOUS
 62
     7
100
AcDbLine
 10
43.8126943005
 20
228.6656429973
 30
0.0
 11
49.0126943147
 21
228.8018098083
 31
0.0
  0
LINE
  5
C1
330
1F
100
AcDbEntity
  8
0
  6
CONTINUOUS
 62
     7
100
AcDbLine
 10
49.0126943147
 20
405.4200654831
 30
0.0
 11
43.8126943005
 21
405.87237533
 31
0.0
  0
LINE
  5
C2
330
1F
100
AcDbEntity
  8
0
  6
CONTINUOUS
 62
     7
100
AcDbLine
 10
49.0126943147
 20
405.4200654831
 30
0.0
 11
49.0126943147
 21
402.9329052176
 31
0.0
  0
LINE
  5
C3
330
1F
100
AcDbEntity
  8
0
  6
CONTINUOUS
 62
     7
100
AcDbLine
 10
43.8126943005
 20
225.8623396959
 30
0.0
 11
49.0126943147
 21
226.3146495428
 31
0.0
  0
LINE
  5
C4
330
1F
100
AcDbEntity
  8
0
  6
CONTINUOUS
 62
     7
100
AcDbLine
 10
49.0126943147
 20
228.8018098083
 30
0.0
 11
49.0126943147
 21
226.3146495428
 31
0.0
  0
LINE
  5
C5
330
1F
100
AcDbEntity
  8
0
  6
CONTINUOUS
 62
     7
100
AcDbLine
 10
49.0126943147
 20
226.3146495428
 30
0.0
 11
49.0126943147
 21
223.053522965
 31
0.0
  0
LINE
  5
C6
330
1F
100
AcDbEntity
  8
0
  6
CONTINUOUS
 62
     7
100
AcDbLine
 10
49.0126943147
 20
408.6811920609
 30
0.0
 11
49.0126943147
 21
405.4200654831
 31
0.0
  0
LINE
  5
C7
330
1F
100
AcDbEntity
  8
0
  6
CONTINUOUS
 62
     7
100
AcDbLine
 10
54.1614762438
 20
223.9383464661
 30
0.0
 11
54.1614762438
 21
225.496367177
 31
0.0
  0
LINE
  5
C8
330
1F
100
AcDbEntity
  8
0
  6
CONTINUOUS
 62
     7
100
AcDbLine
 10
49.0126943147
 20
225.6311928835
 30
0.0
 11
54.1614762438
 21
225.496367177
 31
0.0
  0
LINE
  5
C9
330
1F
100
AcDbEntity
  8
0
  6
CONTINUOUS
 62
     7
100
AcDbLine
 10
49.0126943147
 20
223.8035207596
 30
0.0
 11
54.1614762438
 21
223.9383464661
 31
0.0
  0
LINE
  5
CA
330
1F
100
AcDbEntity
  8
0
  6
CONTINUOUS
 62
     7
100
AcDbLine
 10
54.1614762438
 20
406.2383478489
 30
0.0
 11
54.1614762438
 21
407.7963685598
 31
0.0
  0
LINE
  5
CB
330
1F
100
AcDbEntity
  8
0
  6
CONTINUOUS
 62
     7
100
AcDbLine
 10
54.1614762438
 20
406.2383478489
 30
0.0
 11
49.0126943147
 21
406.1035221424
 31
0.0
  0
LINE
  5
CC
330
1F
100
AcDbEntity
  8
0
  6
CONTINUOUS
 62
     7
100
AcDbLine
 10
54.1614762438
 20
407.7963685598
 30
0.0
 11
49.0126943147
 21
407.9311942663
 31
0.0
  0
LINE
  5
CD
330
1F
100
AcDbEntity
  8
0
  6
CONTINUOUS
 62
     7
100
AcDbLine
 10
58.8126939652
 20
407.6745664682
 30
0.0
 11
58.8126939652
 21
406.3601499405
 31
0.0
  0
LWPOLYLINE
  5
CE
330
1F
100
AcDbEntity
  8
0
  6
CONTINUOUS
 62
     7
100
AcDbPolyline
 90
        9
 70
   128
 43
0.0
 10
58.8126939652
 20
406.3601499405
 10
58.7249466149
 20
406.3578477111
 10
58.464782585
 20
406.3510378804
 10
58.0413334934
 20
406.3399439659
 10
57.4694632484
 20
406.3249757495
 10
56.7692427827
 20
406.3066398706
 10
55.9652496992
 20
406.2855845299
 10
55.0857040031
 20
406.2625547853
 10
54.1614762438
 20
406.2383478489
  0
LWPOLYLINE
  5
CF
330
1F
100
AcDbEntity
  8
0
  6
CONTINUOUS
 62
     7
100
AcDbPolyline
 90
        9
 70
   128
 43
0.0
 10
54.1614762438
 20
407.7963685598
 10
55.0857040031
 20
407.7721616235
 10
55.9652496992
 20
407.7491318789
 10
56.7692427827
 20
407.7280765381
 10
57.4694632484
 20
407.7097406592
 10
58.0413334934
 20
407.6947649922
 10
58.464782585
 20
407.6836785283
 10
58.7249466149
 20
407.6768686976
 10
58.8126939652
 20
407.6745664682
  0
LINE
  5
D0
330
1F
100
AcDbEntity
  8
0
  6
CONTINUOUS
 62
     7
100
AcDbLine
 10
58.8126939652
 20
225.3745650854
 30
0.0
 11
58.8126939652
 21
224.0601485577
 31
0.0
  0
LWPOLYLINE
  5
D1
330
1F
100
AcDbEntity
  8
0
  6
CONTINUOUS
 62
     7
100
AcDbPolyline
 90
        9
 70
   128
 43
0.0
 10
54.1614762438
 20
225.496367177
 10
55.0857040031
 20
225.4721602407
 10
55.9652496992
 20
225.449130496
 10
56.7692427827
 20
225.4280751553
 10
57.4694632484
 20
225.4097392764
 10
58.0413334934
 20
225.39477106
 10
58.464782585
 20
225.3836771455
 10
58.7249466149
 20
225.3768673148
 10
58.8126939652
 20
225.3745650854
  0
LWPOLYLINE
  5
D2
330
1F
100
AcDbEntity
  8
0
  6
CONTINUOUS
 62
     7
100
AcDbPolyline
 90
        9
 70
   128
 43
0.0
 10
58.8126939652
 20
224.0601485577
 10
58.7249466149
 20
224.0578463283
 10
58.464782585
 20
224.0510364976
 10
58.0413334934
 20
224.0399500337
 10
57.4694632484
 20
224.0249743667
 10
56.7692427827
 20
224.0066384878
 10
55.9652496992
 20
223.9855831471
 10
55.0857040031
 20
223.9625534024
 10
54.1614762438
 20
223.9383464661
  0
LINE
  5
D3
330
1F
100
AcDbEntity
  8
0
  6
CONTINUOUS
 62
     7
100
AcDbLine
 10
86.6849629398
 20
460.8370466321
 30
0.0
 11
83.6963711496
 21
460.8370466321
 31
0.0
  0
LINE
  5
D4
330
1F
100
AcDbEntity
  8
0
  6
CONTINUOUS
 62
     7
100
AcDbLine
 10
83.6963711496
 20
460.8370466321
 30
0.0
 11
84.1690508839
 21
466.239745745
 31
0.0
  0
ARC
  5
D5
330
1F
100
AcDbEntity
  8
0
  6
CONTINUOUS
 62
     7
100
AcDbCircle
 10
87.8815647407
 20
438.1405250897
 30
0.0
 40
28.34534762585877
100
AcDbArc
 50
91.4214856801
 51
97.5255664548
  0
LINE
  5
D6
330
1F
100
AcDbEntity
  8
0
  6
CONTINUOUS
 62
     7
100
AcDbLine
 10
87.1783999916
 20
466.4771496482
 30
0.0
 11
86.6849629398
 21
460.8370466321
 31
0.0
  0
LINE
  5
D7
330
1F
100
AcDbEntity
  8
0
  6
CONTINUOUS
 62
     7
100
AcDbLine
 10
86.6849629398
 20
460.8370466321
 30
0.0
 11
376.7077831741
 21
460.8370466321
 31
0.0
  0
LWPOLYLINE
  5
D8
330
1F
100
AcDbEntity
  8
0
  6
CONTINUOUS
 62
     7
100
AcDbPolyline
 90
        8
 70
   128
 43
0.0
 10
376.2143461224
 20
466.4771496482
 10
335.0550888296
 20
470.5729838624
 10
293.790554833
 20
473.303551802
 10
252.4207515832
 20
474.6688520699
 10
210.9722366747
 20
474.6688800096
 10
169.6026755687
 20
473.3036076813
 10
128.3380670663
 20
470.5730313599
 10
87.1783999916
 20
466.4771496482
  0
LINE
  5
D9
330
1F
100
AcDbEntity
  8
0
  6
CONTINUOUS
 62
     7
100
AcDbLine
 10
376.7077831741
 20
460.8370466321
 30
0.0
 11
376.2142567154
 21
466.4781801566
 31
0.0
  0
LINE
  5
DA
330
1F
100
AcDbEntity
  8
0
  6
CONTINUOUS
 62
     7
100
AcDbLine
 10
379.6963749643
 20
460.8370466321
 30
0.0
 11
376.7077831741
 21
460.8370466321
 31
0.0
  0
ARC
  5
DB
330
1F
100
AcDbEntity
  8
0
  6
CONTINUOUS
 62
     7
100
AcDbCircle
 10
375.5133284711
 20
438.1679686671
 30
0.0
 40
28.31785926874287
100
AcDbArc
 50
82.4714680974
 51
88.5814797677
  0
LINE
  5
DC
330
1F
100
AcDbEntity
  8
0
  6
CONTINUOUS
 62
     7
100
AcDbLine
 10
379.2235313173
 20
466.2417206145
 30
0.0
 11
379.6963749643
 21
460.8370466321
 31
0.0
  0
LINE
  5
DD
330
1F
100
AcDbEntity
  8
0
  6
CONTINUOUS
 62
     7
100
AcDbLine
 10
376.2143461224
 20
466.4771496482
 30
0.0
 11
376.3393221613
 21
467.4661113113
 31
0.0
  0
LWPOLYLINE
  5
DE
330
1F
100
AcDbEntity
  8
0
  6
CONTINUOUS
 62
     7
100
AcDbPolyline
 90
        7
 70
   128
 43
0.0
 10
376.3393221613
 20
467.4661113113
 10
376.7285851952
 20
467.4208429805
 10
377.0945577141
 20
467.3781697802
 10
377.7566759106
 20
467.3006888642
 10
378.215139937
 20
467.2468309454
 10
378.3245293614
 20
467.2339544795
 10
378.3540485617
 20
467.2304787837
  0
LINE
  5
DF
330
1F
100
AcDbEntity
  8
0
  6
CONTINUOUS
 62
     7
100
AcDbLine
 10
379.2235313173
 20
466.2417206145
 30
0.0
 11
378.3540485617
 21
467.2304787837
 31
0.0
  0
LWPOLYLINE
  5
E0
330
1F
100
AcDbEntity
  8
0
  6
CONTINUOUS
 62
     7
100
AcDbPolyline
 90
        7
 70
   128
 43
0.0
 10
85.0386975523
 20
467.2304787837
 10
85.0685743805
 20
467.233996389
 10
85.1784108397
 20
467.246925009
 10
85.6380073544
 20
467.3009165726
 10
86.2991420742
 20
467.3782810732
 10
86.664637756
 20
467.4208983942
 10
87.0534239527
 20
467.4661113113
  0
LINE
  5
E1
330
1F
100
AcDbEntity
  8
0
  6
CONTINUOUS
 62
     7
100
AcDbLine
 10
87.0534239527
 20
467.4661113113
 30
0.0
 11
87.1783999916
 21
466.4771496482
 31
0.0
  0
LINE
  5
E2
330
1F
100
AcDbEntity
  8
0
  6
CONTINUOUS
 62
     7
100
AcDbLine
 10
85.0386975523
 20
467.2304787837
 30
0.0
 11
84.1692147966
 21
466.2417206145
 31
0.0
  0
LWPOLYLINE
  5
E3
330
1F
100
AcDbEntity
  8
0
  6
CONTINUOUS
 62
     7
100
AcDbPolyline
 90
        8
 70
   128
 43
0.0
 10
87.0534239527
 20
467.4661113113
 10
128.2671077367
 20
471.5638300567
 10
169.5936380144
 20
474.2981288746
 10
210.98792946
 20
475.6660247385
 10
252.404816654
 20
475.6660247385
 10
293.7991080996
 20
474.2981288746
 10
335.1256383773
 20
471.5638300567
 10
376.3393221613
 20
467.4661113113
  0
LINE
  5
E4
330
1F
100
AcDbEntity
  8
0
  6
CONTINUOUS
 62
     7
100
AcDbLine
 10
374.0365563151
 20
460.8370466321
 30
0.0
 11
374.0977255818
 21
455.637046618
 31
0.0
  0
LINE
  5
E5
330
1F
100
AcDbEntity
  8
0
  6
CONTINUOUS
 62
     7
100
AcDbLine
 10
374.0977255818
 20
455.637046618
 30
0.0
 11
366.4745597359
 21
455.637046618
 31
0.0
  0
LINE
  5
E6
330
1F
100
AcDbEntity
  8
0
  6
CONTINUOUS
 62
     7
100
AcDbLine
 10
366.4372919317
 20
460.8370466321
 30
0.0
 11
366.4745597359
 21
455.637046618
 31
0.0
  0
LINE
  5
E7
330
1F
100
AcDbEntity
  8
0
  6
CONTINUOUS
 62
     7
100
AcDbLine
 10
89.2950205322
 20
455.637046618
 30
0.0
 11
89.3561897989
 21
460.8370466321
 31
0.0
  0
LINE
  5
E8
330
1F
100
AcDbEntity
  8
0
  6
CONTINUOUS
 62
     7
100
AcDbLine
 10
96.9181863781
 20
455.637046618
 30
0.0
 11
96.9554541823
 21
460.8370466321
 31
0.0
  0
LINE
  5
E9
330
1F
100
AcDbEntity
  8
0
  6
CONTINUOUS
 62
     7
100
AcDbLine
 10
96.9181863781
 20
455.637046618
 30
0.0
 11
89.2950205322
 21
455.637046618
 31
0.0
  0
ARC
  5
EA
330
1F
100
AcDbEntity
  8
0
  6
CONTINUOUS
 62
     7
100
AcDbCircle
 10
105.0442312447
 20
450.8370466321
 30
0.0
 40
5.000000000000008
100
AcDbArc
 50
184.0
 51
270.0
  0
LINE
  5
EB
330
1F
100
AcDbEntity
  8
0
  6
CONTINUOUS
 62
     7
100
AcDbLine
 10
100.056415629
 20
450.4882646888
 30
0.0
 11
99.6963737723
 21
455.637046618
 31
0.0
  0
LINE
  5
EC
330
1F
100
AcDbEntity
  8
0
  6
CONTINUOUS
 62
     7
100
AcDbLine
 10
363.6963723417
 20
455.637046618
 30
0.0
 11
363.336330485
 21
450.4882646888
 31
0.0
  0
ARC
  5
ED
330
1F
100
AcDbEntity
  8
0
  6
CONTINUOUS
 62
     7
100
AcDbCircle
 10
358.3485148693
 20
450.8370466321
 30
0.0
 40
5.000000000000065
100
AcDbArc
 50
270.0
 51
356.0
  0
LINE
  5
EE
330
1F
100
AcDbEntity
  8
0
  6
CONTINUOUS
 62
     7
100
AcDbLine
 10
358.348509502
 20
445.8370469674
 30
0.0
 11
105.0442366119
 21
445.8370469674
 31
0.0
  0
LINE
  5
EF
330
1F
100
AcDbEntity
  8
0
  6
CONTINUOUS
 62
     7
100
AcDbLine
 10
99.6963737723
 20
455.637046618
 30
0.0
 11
96.9181863781
 21
455.637046618
 31
0.0
  0
LINE
  5
F0
330
1F
100
AcDbEntity
  8
0
  6
CONTINUOUS
 62
     7
100
AcDbLine
 10
363.6963723417
 20
455.637046618
 30
0.0
 11
366.4745597359
 21
455.637046618
 31
0.0
  0
LINE
  5
F1
330
1F
100
AcDbEntity
  8
0
  6
CONTINUOUS
 62
     7
100
AcDbLine
 10
374.8963682171
 20
460.8370466321
 30
0.0
 11
374.7602014061
 21
455.637046618
 31
0.0
  0
LINE
  5
F2
330
1F
100
AcDbEntity
  8
0
  6
CONTINUOUS
 62
     7
100
AcDbLine
 10
374.7602014061
 20
455.637046618
 30
0.0
 11
374.0977255818
 21
455.637046618
 31
0.0
  0
LINE
  5
F3
330
1F
100
AcDbEntity
  8
0
  6
CONTINUOUS
 62
     7
100
AcDbLine
 10
88.6325447079
 20
455.637046618
 30
0.0
 11
88.4963778969
 21
460.8370466321
 31
0.0
  0
LINE
  5
F4
330
1F
100
AcDbEntity
  8
0
  6
CONTINUOUS
 62
     7
100
AcDbLine
 10
88.6325447079
 20
455.637046618
 30
0.0
 11
89.2950205322
 21
455.637046618
 31
0.0
  0
LINE
  5
F5
330
1F
100
AcDbEntity
  8
0
  6
CONTINUOUS
 62
     7
100
AcDbLine
 10
83.6963711496
 20
168.6779792746
 30
0.0
 11
86.6849629398
 21
168.6779792746
 31
0.0
  0
LINE
  5
F6
330
1F
100
AcDbEntity
  8
0
  6
CONTINUOUS
 62
     7
100
AcDbLine
 10
86.6849629398
 20
168.6779792746
 30
0.0
 11
87.1784893986
 21
163.0368457501
 31
0.0
  0
ARC
  5
F7
330
1F
100
AcDbEntity
  8
0
  6
CONTINUOUS
 62
     7
100
AcDbCircle
 10
87.8794243296
 20
191.3471427064
 30
0.0
 40
28.3179448749115
100
AcDbArc
 50
262.4714773416
 51
268.5814705235
  0
LINE
  5
F8
330
1F
100
AcDbEntity
  8
0
  6
CONTINUOUS
 62
     7
100
AcDbLine
 10
84.1692147966
 20
163.2733052922
 30
0.0
 11
83.6963711496
 21
168.6779792746
 31
0.0
  0
LINE
  5
F9
330
1F
100
AcDbEntity
  8
0
  6
CONTINUOUS
 62
     7
100
AcDbLine
 10
376.7077831741
 20
168.6779792746
 30
0.0
 11
379.6963749643
 21
168.6779792746
 31
0.0
  0
LINE
  5
FA
330
1F
100
AcDbEntity
  8
0
  6
CONTINUOUS
 62
     7
100
AcDbLine
 10
379.6963749643
 20
168.6779792746
 30
0.0
 11
379.2236952301
 21
163.2752801617
 31
0.0
  0
ARC
  5
FB
330
1F
100
AcDbEntity
  8
0
  6
CONTINUOUS
 62
     7
100
AcDbCircle
 10
375.5111813733
 20
191.374500817
 30
0.0
 40
28.34534762585868
100
AcDbArc
 50
271.4214856801
 51
277.5255664548
  0
LINE
  5
FC
330
1F
100
AcDbEntity
  8
0
  6
CONTINUOUS
 62
     7
100
AcDbLine
 10
376.2143461224
 20
163.0378762586
 30
0.0
 11
376.7077831741
 21
168.6779792746
 31
0.0
  0
LINE
  5
FD
330
1F
100
AcDbEntity
  8
0
  6
CONTINUOUS
 62
     7
100
AcDbLine
 10
376.7077831741
 20
168.6779792746
 30
0.0
 11
86.6849629398
 21
168.6779792746
 31
0.0
  0
LWPOLYLINE
  5
FE
330
1F
100
AcDbEntity
  8
0
  6
CONTINUOUS
 62
     7
100
AcDbPolyline
 90
        8
 70
   128
 43
0.0
 10
87.1783999916
 20
163.0378762586
 10
128.3376572844
 20
158.9420420443
 10
169.6021912809
 20
156.2114741047
 10
210.9719945308
 20
154.8461738368
 10
252.4205094393
 20
154.8461458971
 10
293.7900705453
 20
156.2114182254
 10
335.0546790477
 20
158.9419945469
 10
376.2143461224
 20
163.0378762586
  0
LWPOLYLINE
  5
FF
330
1F
100
AcDbEntity
  8
0
  6
CONTINUOUS
 62
     7
100
AcDbPolyline
 90
        7
 70
   128
 43
0.0
 10
87.0534239527
 20
162.0489145955
 10
86.6641609188
 20
162.0941829262
 10
86.2981883999
 20
162.1368561266
 10
85.6360702034
 20
162.2143370425
 10
85.177606177
 20
162.2681949613
 10
85.0682167526
 20
162.2810714272
 10
85.0386975523
 20
162.2845471231
  0
LINE
  5
100
330
1F
100
AcDbEntity
  8
0
  6
CONTINUOUS
 62
     7
100
AcDbLine
 10
85.0386975523
 20
162.2845471231
 30
0.0
 11
84.1692147966
 21
163.2733052922
 31
0.0
  0
LINE
  5
101
330
1F
100
AcDbEntity
  8
0
  6
CONTINUOUS
 62
     7
100
AcDbLine
 10
87.0534239527
 20
162.0489145955
 30
0.0
 11
87.1783999916
 21
163.0378762586
 31
0.0
  0
LINE
  5
102
330
1F
100
AcDbEntity
  8
0
  6
CONTINUOUS
 62
     7
100
AcDbLine
 10
379.2235313173
 20
163.2733052922
 30
0.0
 11
378.3540485617
 21
162.2845471231
 31
0.0
  0
LWPOLYLINE
  5
103
330
1F
100
AcDbEntity
  8
0
  6
CONTINUOUS
 62
     7
100
AcDbPolyline
 90
        7
 70
   128
 43
0.0
 10
378.3540485617
 20
162.2845471231
 10
378.3241717335
 20
162.2810295177
 10
378.2143352743
 20
162.2681008977
 10
377.7547387596
 20
162.2141093341
 10
377.0936040398
 20
162.1367448335
 10
376.728108358
 20
162.0941275125
 10
376.3393221613
 20
162.0489145955
  0
LINE
  5
104
330
1F
100
AcDbEntity
  8
0
  6
CONTINUOUS
 62
     7
100
AcDbLine
 10
376.2143461224
 20
163.0378762586
 30
0.0
 11
376.3393221613
 21
162.0489145955
 31
0.0
  0
LWPOLYLINE
  5
105
330
1F
100
AcDbEntity
  8
0
  6
CONTINUOUS
 62
     7
100
AcDbPolyline
 90
        8
 70
   128
 43
0.0
 10
376.3393221613
 20
162.0489145955
 10
335.1256383773
 20
157.95119585
 10
293.7991080996
 20
155.2168970322
 10
252.404816654
 20
153.8490011682
 10
210.98792946
 20
153.8490011682
 10
169.5936380144
 20
155.2168970322
 10
128.2671077367
 20
157.95119585
 10
87.0534239527
 20
162.0489145955
  0
LINE
  5
106
330
1F
100
AcDbEntity
  8
0
  6
CONTINUOUS
 62
     7
100
AcDbLine
 10
374.0977255818
 20
173.8779792888
 30
0.0
 11
374.0365563151
 21
168.6779792746
 31
0.0
  0
LINE
  5
107
330
1F
100
AcDbEntity
  8
0
  6
CONTINUOUS
 62
     7
100
AcDbLine
 10
366.4745597359
 20
173.8779792888
 30
0.0
 11
366.4372919317
 21
168.6779792746
 31
0.0
  0
LINE
  5
108
330
1F
100
AcDbEntity
  8
0
  6
CONTINUOUS
 62
     7
100
AcDbLine
 10
366.4745597359
 20
173.8779792888
 30
0.0
 11
374.0977255818
 21
173.8779792888
 31
0.0
  0
LINE
  5
109
330
1F
100
AcDbEntity
  8
0
  6
CONTINUOUS
 62
     7
100
AcDbLine
 10
89.3561897989
 20
168.6779792746
 30
0.0
 11
89.2950205322
 21
173.8779792888
 31
0.0
  0
LINE
  5
10A
330
1F
100
AcDbEntity
  8
0
  6
CONTINUOUS
 62
     7
100
AcDbLine
 10
89.2950205322
 20
173.8779792888
 30
0.0
 11
96.9181863781
 21
173.8779792888
 31
0.0
  0
LINE
  5
10B
330
1F
100
AcDbEntity
  8
0
  6
CONTINUOUS
 62
     7
100
AcDbLine
 10
96.9554541823
 20
168.6779792746
 30
0.0
 11
96.9181863781
 21
173.8779792888
 31
0.0
  0
ARC
  5
10C
330
1F
100
AcDbEntity
  8
0
  6
CONTINUOUS
 62
     7
100
AcDbCircle
 10
358.3485148693
 20
178.6779792746
 30
0.0
 40
5.000000000000062
100
AcDbArc
 50
4.0
 51
90.0
  0
LINE
  5
10D
330
1F
100
AcDbEntity
  8
0
  6
CONTINUOUS
 62
     7
100
AcDbLine
 10
363.336330485
 20
179.0267612179
 30
0.0
 11
363.6963723417
 21
173.8779792888
 31
0.0
  0
LINE
  5
10E
330
1F
100
AcDbEntity
  8
0
  6
CONTINUOUS
 62
     7
100
AcDbLine
 10
99.6963737723
 20
173.8779792888
 30
0.0
 11
100.056415629
 21
179.0267612179
 31
0.0
  0
ARC
  5
10F
330
1F
100
AcDbEntity
  8
0
  6
CONTINUOUS
 62
     7
100
AcDbCircle
 10
105.0442312447
 20
178.6779792746
 30
0.0
 40
5.000000000000005
100
AcDbArc
 50
90.0
 51
176.0
  0
LINE
  5
110
330
1F
100
AcDbEntity
  8
0
  6
CONTINUOUS
 62
     7
100
AcDbLine
 10
105.0442366119
 20
183.6779789393
 30
0.0
 11
358.348509502
 21
183.6779789393
 31
0.0
  0
LINE
  5
111
330
1F
100
AcDbEntity
  8
0
  6
CONTINUOUS
 62
     7
100
AcDbLine
 10
96.9181863781
 20
173.8779792888
 30
0.0
 11
99.6963737723
 21
173.8779792888
 31
0.0
  0
LINE
  5
112
330
1F
100
AcDbEntity
  8
0
  6
CONTINUOUS
 62
     7
100
AcDbLine
 10
366.4745597359
 20
173.8779792888
 30
0.0
 11
363.6963723417
 21
173.8779792888
 31
0.0
  0
LINE
  5
113
330
1F
100
AcDbEntity
  8
0
  6
CONTINUOUS
 62
     7
100
AcDbLine
 10
88.4963778969
 20
168.6779792746
 30
0.0
 11
88.6325447079
 21
173.8779792888
 31
0.0
  0
LINE
  5
114
330
1F
100
AcDbEntity
  8
0
  6
CONTINUOUS
 62
     7
100
AcDbLine
 10
89.2950205322
 20
173.8779792888
 30
0.0
 11
88.6325447079
 21
173.8779792888
 31
0.0
  0
LINE
  5
115
330
1F
100
AcDbEntity
  8
0
  6
CONTINUOUS
 62
     7
100
AcDbLine
 10
374.7602014061
 20
173.8779792888
 30
0.0
 11
374.8963682171
 21
168.6779792746
 31
0.0
  0
LINE
  5
116
330
1F
100
AcDbEntity
  8
0
  6
CONTINUOUS
 62
     7
100
AcDbLine
 10
374.0977255818
 20
173.8779792888
 30
0.0
 11
374.7602014061
 21
173.8779792888
 31
0.0
  0
LINE
  5
117
330
1F
100
AcDbEntity
  8
0
  6
CONTINUOUS
 62
     7
100
AcDbLine
 10
456.0370462968
 20
410.6528764572
 30
0.0
 11
456.0370462968
 21
411.6610443201
 31
0.0
  0
LINE
  5
118
330
1F
100
AcDbEntity
  8
0
  6
CONTINUOUS
 62
     7
100
AcDbLine
 10
456.0370462968
 20
220.0736707058
 30
0.0
 11
456.0370462968
 21
221.0818385687
 31
0.0
  0
LINE
  5
119
330
1F
100
AcDbEntity
  8
0
  6
CONTINUOUS
 62
     7
100
AcDbLine
 10
456.0357200935
 20
411.646105906
 30
0.0
 11
455.039526245
 21
412.6423006859
 31
0.0
  0
LINE
  5
11A
330
1F
100
AcDbEntity
  8
0
  6
CONTINUOUS
 62
     7
100
AcDbLine
 10
455.039526245
 20
219.09241434
 30
0.0
 11
456.0357200935
 21
220.0886091199
 31
0.0
  0
LINE
  5
11B
330
1F
100
AcDbEntity
  8
0
  6
CONTINUOUS
 62
     7
100
AcDbLine
 10
435.837046618
 20
223.053522965
 30
0.0
 11
441.0370466321
 21
222.917356154
 31
0.0
  0
LINE
  5
11C
330
1F
100
AcDbEntity
  8
0
  6
CONTINUOUS
 62
     7
100
AcDbLine
 10
441.0370466321
 20
408.8173588719
 30
0.0
 11
435.837046618
 21
408.6811920609
 31
0.0
  0
LINE
  5
11D
330
1F
100
AcDbEntity
  8
0
  6
CONTINUOUS
 62
     7
100
AcDbLine
 10
441.0370466321
 20
410.8787706103
 30
0.0
 11
441.0370466321
 21
220.8559444156
 31
0.0
  0
LINE
  5
11E
330
1F
100
AcDbEntity
  8
0
  6
CONTINUOUS
 62
     7
100
AcDbLine
 10
446.4417206145
 20
410.4059269633
 30
0.0
 11
441.0370466321
 21
410.8787706103
 31
0.0
  0
LINE
  5
11F
330
1F
100
AcDbEntity
  8
0
  6
CONTINUOUS
 62
     7
100
AcDbLine
 10
446.4417206145
 20
221.3287880626
 30
0.0
 11
446.4417206145
 21
410.4059269633
 31
0.0
  0
LINE
  5
120
330
1F
100
AcDbEntity
  8
0
  6
CONTINUOUS
 62
     7
100
AcDbLine
 10
441.0370466321
 20
220.8559444156
 30
0.0
 11
446.439745745
 21
221.3286166992
 31
0.0
  0
LINE
  5
121
330
1F
100
AcDbEntity
  8
0
  6
CONTINUOUS
 62
     7
100
AcDbLine
 10
441.0370466321
 20
410.8787706103
 30
0.0
 11
441.0370466321
 21
413.86735495
 31
0.0
  0
LINE
  5
122
330
1F
100
AcDbEntity
  8
0
  6
CONTINUOUS
 62
     7
100
AcDbLine
 10
441.0370466321
 20
413.86735495
 30
0.0
 11
446.6781801566
 21
413.3738210406
 31
0.0
  0
ARC
  5
123
330
1F
100
AcDbEntity
  8
0
  6
CONTINUOUS
 62
     7
100
AcDbCircle
 10
460.2310473034
 20
410.8054468885
 30
0.0
 40
13.79511314572163
100
AcDbArc
 50
169.2696853693
 51
181.6595736771
  0
LINE
  5
124
330
1F
100
AcDbEntity
  8
0
  6
CONTINUOUS
 62
     7
100
AcDbLine
 10
441.0370466321
 20
217.867360076
 30
0.0
 11
441.0370466321
 21
220.8559444156
 31
0.0
  0
ARC
  5
125
330
1F
100
AcDbEntity
  8
0
  6
CONTINUOUS
 62
     7
100
AcDbCircle
 10
460.2125582367
 20
220.9278015312
 30
0.0
 40
13.77667445405552
100
AcDbArc
 50
178.3321024868
 51
190.7386384668
  0
LINE
  5
126
330
1F
100
AcDbEntity
  8
0
  6
CONTINUOUS
 62
     7
100
AcDbLine
 10
446.6771496482
 20
218.3608045783
 30
0.0
 11
441.0370466321
 21
217.867360076
 31
0.0
  0
ARC
  5
127
330
1F
100
AcDbEntity
  8
0
  6
CONTINUOUS
 62
     7
100
AcDbCircle
 10
451.5269398785
 20
220.8183493898
 30
0.0
 40
4.128140155107311
100
AcDbArc
 50
172.897280255
 51
200.7319972387
  0
LINE
  5
128
330
1F
100
AcDbEntity
  8
0
  6
CONTINUOUS
 62
     7
100
AcDbLine
 10
447.6661113113
 20
219.3569993582
 30
0.0
 11
446.6771496482
 21
218.3608045783
 31
0.0
  0
LINE
  5
129
330
1F
100
AcDbEntity
  8
0
  6
CONTINUOUS
 62
     7
100
AcDbLine
 10
447.4304787837
 20
221.3287880626
 30
0.0
 11
446.4417206145
 21
221.3287880626
 31
0.0
  0
LINE
  5
12A
330
1F
100
AcDbEntity
  8
0
  6
CONTINUOUS
 62
     7
100
AcDbLine
 10
447.4304787837
 20
410.4059269633
 30
0.0
 11
447.4304787837
 21
221.3287880626
 31
0.0
  0
LINE
  5
12B
330
1F
100
AcDbEntity
  8
0
  6
CONTINUOUS
 62
     7
100
AcDbLine
 10
447.4304787837
 20
410.4059269633
 30
0.0
 11
446.4417206145
 21
410.4059269633
 31
0.0
  0
ARC
  5
12C
330
1F
100
AcDbEntity
  8
0
  6
CONTINUOUS
 62
     7
100
AcDbCircle
 10
451.5293157136
 20
410.9160817193
 30
0.0
 40
4.130462692422603
100
AcDbArc
 50
159.2759859122
 51
187.0947365941
  0
LINE
  5
12D
330
1F
100
AcDbEntity
  8
0
  6
CONTINUOUS
 62
     7
100
AcDbLine
 10
447.6661113113
 20
412.3777156677
 30
0.0
 11
446.6771496482
 21
413.3739104476
 31
0.0
  0
LWPOLYLINE
  5
12E
330
1F
100
AcDbEntity
  8
0
  6
CONTINUOUS
 62
     7
100
AcDbPolyline
 90
        5
 70
   128
 43
0.0
 10
455.8660247385
 20
411.6610443201
 10
455.8660247385
 20
411.6610443201
 10
454.4981288746
 20
411.7804920282
 10
451.7638300567
 20
412.0193799939
 10
447.6661113113
 20
412.3777156677
  0
LWPOLYLINE
  5
12F
330
1F
100
AcDbEntity
  8
0
  6
CONTINUOUS
 62
     7
100
AcDbPolyline
 90
        5
 70
   128
 43
0.0
 10
447.6661113113
 20
219.3569993582
 10
451.7638300567
 20
219.715335032
 10
454.4981288746
 20
219.9542229977
 10
455.8660247385
 20
220.0736707058
 10
455.8660247385
 20
220.0736707058
  0
ARC
  5
130
330
1F
100
AcDbEntity
  8
0
  6
CONTINUOUS
 62
     7
100
AcDbCircle
 10
450.874666211
 20
409.7231528538
 30
0.0
 40
1.726546127233558
100
AcDbArc
 50
160.5880302306
 51
187.5871358572
  0
LINE
  5
131
330
1F
100
AcDbEntity
  8
0
  6
CONTINUOUS
 62
     7
100
AcDbLine
 10
449.163235633
 20
409.4951903429
 30
0.0
 11
449.163235633
 21
222.239524683
 31
0.0
  0
ARC
  5
132
330
1F
100
AcDbEntity
  8
0
  6
CONTINUOUS
 62
     7
100
AcDbCircle
 10
451.475183106
 20
222.0737510912
 30
0.0
 40
2.317883086218295
100
AcDbArc
 50
175.8987391966
 51
195.9260947156
  0
LWPOLYLINE
  5
133
330
1F
100
AcDbEntity
  8
0
  6
CONTINUOUS
 62
     7
100
AcDbPolyline
 90
        5
 70
   128
 43
0.0
 10
449.2462686285
 20
221.4377304521
 10
452.5708303809
 20
221.2634911742
 10
454.7888402849
 20
221.1472546663
 10
455.8983369752
 20
221.0891103354
 10
456.0370462968
 20
221.0818385687
  0
LWPOLYLINE
  5
134
330
1F
100
AcDbEntity
  8
0
  6
CONTINUOUS
 62
     7
100
AcDbPolyline
 90
        5
 70
   128
 43
0.0
 10
456.0370462968
 20
410.6528764572
 10
455.8983369752
 20
410.6456046906
 10
454.7888402849
 20
410.5874603596
 10
452.5708303809
 20
410.4712238517
 10
449.2462686285
 20
410.2969845738
  0
LWPOLYLINE
  5
135
330
1F
100
AcDbEntity
  8
0
  6
CONTINUOUS
 62
     7
100
AcDbPolyline
 90
       20
 70
   128
 43
0.0
 10
448.1500707589
 20
400.4205545392
 10
448.0587163962
 20
401.5522157755
 10
448.0144599475
 20
402.8897440043
 10
448.0227715358
 20
404.2765131202
 10
448.0822094738
 20
405.5587580409
 10
448.185697107
 20
406.598099133
 10
448.32148161
 20
407.2794994321
 10
448.4741323649
 20
407.5222989526
 10
448.6260739177
 20
407.2930892911
 10
448.7598113738
 20
406.6152205672
 10
448.8603862956
 20
405.5683469381
 10
448.9172454014
 20
404.276177844
 10
448.9250321894
 20
402.887225708
 10
448.8834765762
 20
401.5556579437
 10
448.7969422735
 20
400.4263063874
 10
448.6740449465
 20
399.6230369415
 10
448.5273569844
 20
399.2379164305
 10
448.3728114537
 20
399.3197014537
 10
448.2283069774
 20
399.8635342326
 10
448.1500707589
 20
400.4205545392
  0
LWPOLYLINE
  5
136
330
1F
100
AcDbEntity
  8
0
  6
CONTINUOUS
 62
     7
100
AcDbPolyline
 90
       20
 70
   128
 43
0.0
 10
448.1500707589
 20
225.4205575194
 10
448.0587163962
 20
226.5522187557
 10
448.0144599475
 20
227.8897469845
 10
448.0227715358
 20
229.2765086498
 10
448.0822094738
 20
230.5587535706
 10
448.185697107
 20
231.5981021132
 10
448.32148161
 20
232.2795024123
 10
448.4741323649
 20
232.5222944822
 10
448.6260739177
 20
232.2930848207
 10
448.7598113738
 20
231.6152235475
 10
448.8603862956
 20
230.5683499184
 10
448.9172454014
 20
229.2761808243
 10
448.9250321894
 20
227.8872212377
 10
448.8834765762
 20
226.555660924
 10
448.7969422735
 20
225.4263093677
 10
448.6740449465
 20
224.6230324712
 10
448.5273569844
 20
224.2379194107
 10
448.3728114537
 20
224.3196969833
 10
448.2283069774
 20
224.8635372129
 10
448.1500707589
 20
225.4205575194
  0
LWPOLYLINE
  5
137
330
1F
100
AcDbEntity
  8
0
  6
CONTINUOUS
 62
     7
100
AcDbPolyline
 90
        5
 70
   128
 43
0.0
 10
446.6771496482
 20
413.3739104476
 10
450.7729838624
 20
413.0155747738
 10
453.503551802
 20
412.7766793575
 10
454.8688520699
 20
412.6572316494
 10
454.8688660398
 20
412.6572316494
  0
LWPOLYLINE
  5
138
330
1F
100
AcDbEntity
  8
0
  6
CONTINUOUS
 62
     7
100
AcDbPolyline
 90
        5
 70
   128
 43
0.0
 10
454.8688660398
 20
219.0774833765
 10
454.8688800096
 20
219.0774833765
 10
453.5036076813
 20
218.958043119
 10
450.7730313599
 20
218.7191477027
 10
446.6771496482
 20
218.3608045783
  0
LINE
  5
139
330
1F
100
AcDbEntity
  8
0
  6
CONTINUOUS
 62
     7
100
AcDbLine
 10
441.0370466321
 20
403.0690720286
 30
0.0
 11
435.837046618
 21
402.9329052176
 31
0.0
  0
LINE
  5
13A
330
1F
100
AcDbEntity
  8
0
  6
CONTINUOUS
 62
     7
100
AcDbLine
 10
435.837046618
 20
405.4200654831
 30
0.0
 11
435.837046618
 21
402.9329052176
 31
0.0
  0
LINE
  5
13B
330
1F
100
AcDbEntity
  8
0
  6
CONTINUOUS
 62
     7
100
AcDbLine
 10
441.0370466321
 20
405.87237533
 30
0.0
 11
435.837046618
 21
405.4200654831
 31
0.0
  0
LINE
  5
13C
330
1F
100
AcDbEntity
  8
0
  6
CONTINUOUS
 62
     7
100
AcDbLine
 10
435.837046618
 20
228.8018098083
 30
0.0
 11
441.0370466321
 21
228.6656429973
 31
0.0
  0
LINE
  5
13D
330
1F
100
AcDbEntity
  8
0
  6
CONTINUOUS
 62
     7
100
AcDbLine
 10
435.837046618
 20
228.8018098083
 30
0.0
 11
435.837046618
 21
402.9329052176
 31
0.0
  0
LINE
  5
13E
330
1F
100
AcDbEntity
  8
0
  6
CONTINUOUS
 62
     7
100
AcDbLine
 10
435.837046618
 20
226.3146495428
 30
0.0
 11
441.0370466321
 21
225.8623396959
 31
0.0
  0
LINE
  5
13F
330
1F
100
AcDbEntity
  8
0
  6
CONTINUOUS
 62
     7
100
AcDbLine
 10
435.837046618
 20
228.8018098083
 30
0.0
 11
435.837046618
 21
226.3146495428
 31
0.0
  0
LINE
  5
140
330
1F
100
AcDbEntity
  8
0
  6
CONTINUOUS
 62
     7
100
AcDbLine
 10
435.837046618
 20
223.053522965
 30
0.0
 11
435.837046618
 21
226.3146495428
 31
0.0
  0
LINE
  5
141
330
1F
100
AcDbEntity
  8
0
  6
CONTINUOUS
 62
     7
100
AcDbLine
 10
435.837046618
 20
405.4200654831
 30
0.0
 11
435.837046618
 21
408.6811920609
 31
0.0
  0
LINE
  5
142
330
1F
100
AcDbEntity
  8
0
  6
CONTINUOUS
 62
     7
100
AcDbLine
 10
430.6882646888
 20
407.7963685598
 30
0.0
 11
430.6882646888
 21
406.2383478489
 31
0.0
  0
LINE
  5
143
330
1F
100
AcDbEntity
  8
0
  6
CONTINUOUS
 62
     7
100
AcDbLine
 10
435.837046618
 20
406.1035221424
 30
0.0
 11
430.6882646888
 21
406.2383478489
 31
0.0
  0
LINE
  5
144
330
1F
100
AcDbEntity
  8
0
  6
CONTINUOUS
 62
     7
100
AcDbLine
 10
435.837046618
 20
407.9311942663
 30
0.0
 11
430.6882646888
 21
407.7963685598
 31
0.0
  0
LINE
  5
145
330
1F
100
AcDbEntity
  8
0
  6
CONTINUOUS
 62
     7
100
AcDbLine
 10
430.6882646888
 20
225.496367177
 30
0.0
 11
430.6882646888
 21
223.9383464661
 31
0.0
  0
LINE
  5
146
330
1F
100
AcDbEntity
  8
0
  6
CONTINUOUS
 62
     7
100
AcDbLine
 10
430.6882646888
 20
225.496367177
 30
0.0
 11
435.837046618
 21
225.6311928835
 31
0.0
  0
LINE
  5
147
330
1F
100
AcDbEntity
  8
0
  6
CONTINUOUS
 62
     7
100
AcDbLine
 10
430.6882646888
 20
223.9383464661
 30
0.0
 11
435.837046618
 21
223.8035207596
 31
0.0
  0
LINE
  5
148
330
1F
100
AcDbEntity
  8
0
  6
CONTINUOUS
 62
     7
100
AcDbLine
 10
426.0370469674
 20
406.3601499405
 30
0.0
 11
426.0370469674
 21
407.6745664682
 31
0.0
  0
LWPOLYLINE
  5
149
330
1F
100
AcDbEntity
  8
0
  6
CONTINUOUS
 62
     7
100
AcDbPolyline
 90
        9
 70
   128
 43
0.0
 10
430.6882646888
 20
406.2383478489
 10
429.7640369296
 20
406.2625547853
 10
428.8844912335
 20
406.2855845299
 10
428.0804981499
 20
406.3066398706
 10
427.3802776843
 20
406.3249757495
 10
426.8084074392
 20
406.3399439659
 10
426.3849583476
 20
406.3510378804
 10
426.1247943177
 20
406.3578477111
 10
426.0370469674
 20
406.3601499405
  0
LWPOLYLINE
  5
14A
330
1F
100
AcDbEntity
  8
0
  6
CONTINUOUS
 62
     7
100
AcDbPolyline
 90
        9
 70
   128
 43
0.0
 10
426.0370469674
 20
407.6745664682
 10
426.1247943177
 20
407.6768686976
 10
426.3849583476
 20
407.6836785283
 10
426.8084074392
 20
407.6947649922
 10
427.3802776843
 20
407.7097406592
 10
428.0804981499
 20
407.7280765381
 10
428.8844912335
 20
407.7491318789
 10
429.7640369296
 20
407.7721616235
 10
430.6882646888
 20
407.7963685598
  0
LINE
  5
14B
330
1F
100
AcDbEntity
  8
0
  6
CONTINUOUS
 62
     7
100
AcDbLine
 10
426.0370469674
 20
224.0601485577
 30
0.0
 11
426.0370469674
 21
225.3745650854
 31
0.0
  0
LWPOLYLINE
  5
14C
330
1F
100
AcDbEntity
  8
0
  6
CONTINUOUS
 62
     7
100
AcDbPolyline
 90
        9
 70
   128
 43
0.0
 10
426.0370469674
 20
225.3745650854
 10
426.1247943177
 20
225.3768673148
 10
426.3849583476
 20
225.3836771455
 10
426.8084074392
 20
225.39477106
 10
427.3802776843
 20
225.4097392764
 10
428.0804981499
 20
225.4280751553
 10
428.8844912335
 20
225.449130496
 10
429.7640369296
 20
225.4721602407
 10
430.6882646888
 20
225.496367177
  0
LWPOLYLINE
  5
14D
330
1F
100
AcDbEntity
  8
0
  6
CONTINUOUS
 62
     7
100
AcDbPolyline
 90
        9
 70
   128
 43
0.0
 10
430.6882646888
 20
223.9383464661
 10
429.7640369296
 20
223.9625534024
 10
428.8844912335
 20
223.9855831471
 10
428.0804981499
 20
224.0066384878
 10
427.3802776843
 20
224.0249743667
 10
426.8084074392
 20
224.0399500337
 10
426.3849583476
 20
224.0510364976
 10
426.1247943177
 20
224.0578463283
 10
426.0370469674
 20
224.0601485577
  0
ELLIPSE
  5
14E
330
1F
100
AcDbEntity
  8
0
  6
CONTINUOUS
 62
     7
100
AcDbEllipse
 10
540.1032986022
 20
407.8054982973
 30
0.0
 11
5.0
 21
0.0
 31
0.0
210
0.0
220
0.0
230
1.0
 40
0.0261859216
 41
3.211405823669947
 42
4.712388980384713
  0
LINE
  5
14F
330
1F
100
AcDbEntity
  8
0
  6
CONTINUOUS
 62
     7
100
AcDbLine
 10
535.1154829865
 20
407.7963685598
 30
0.0
 11
534.7554411298
 21
407.9311942663
 31
0.0
  0
LINE
  5
150
330
1F
100
AcDbEntity
  8
0
  6
CONTINUOUS
 62
     7
100
AcDbLine
 10
531.9772537356
 20
407.9311942663
 30
0.0
 11
534.7554411298
 21
407.9311942663
 31
0.0
  0
LINE
  5
151
330
1F
100
AcDbEntity
  8
0
  6
CONTINUOUS
 62
     7
100
AcDbLine
 10
531.9772537356
 20
407.9311942663
 30
0.0
 11
532.0145215398
 21
408.0673610773
 31
0.0
  0
LINE
  5
152
330
1F
100
AcDbEntity
  8
0
  6
CONTINUOUS
 62
     7
100
AcDbLine
 10
801.4963592892
 20
408.0673610773
 30
0.0
 11
532.0145215398
 21
408.0673610773
 31
0.0
  0
LINE
  5
153
330
1F
100
AcDbEntity
  8
0
  6
CONTINUOUS
 62
     7
100
AcDbLine
 10
801.4963592892
 20
408.0673610773
 30
0.0
 11
801.5336270934
 21
407.9311942663
 31
0.0
  0
LINE
  5
154
330
1F
100
AcDbEntity
  8
0
  6
CONTINUOUS
 62
     7
100
AcDbLine
 10
801.5336270934
 20
407.9311942663
 30
0.0
 11
798.7554396993
 21
407.9311942663
 31
0.0
  0
LINE
  5
155
330
1F
100
AcDbEntity
  8
0
  6
CONTINUOUS
 62
     7
100
AcDbLine
 10
798.7554396993
 20
407.9311942663
 30
0.0
 11
798.3953978425
 21
407.7963685598
 31
0.0
  0
ELLIPSE
  5
156
330
1F
100
AcDbEntity
  8
0
  6
CONTINUOUS
 62
     7
100
AcDbEllipse
 10
793.4075822268
 20
407.8054982973
 30
0.0
 11
5.0
 21
0.0
 31
0.0
210
0.0
220
0.0
230
1.0
 40
0.0261859216
 41
4.71238898038469
 42
6.213372137100528
  0
LINE
  5
157
330
1F
100
AcDbEntity
  8
0
  6
CONTINUOUS
 62
     7
100
AcDbLine
 10
793.4075768596
 20
407.6745664682
 30
0.0
 11
540.1033039695
 21
407.6745664682
 31
0.0
  0
ELLIPSE
  5
158
330
1F
100
AcDbEntity
  8
0
  6
CONTINUOUS
 62
     7
100
AcDbEllipse
 10
793.4075822268
 20
223.9292167286
 30
0.0
 11
5.0
 21
0.0
 31
0.0
210
0.0
220
0.0
230
1.0
 40
0.0261859216
 41
0.0698131700798253
 42
1.570796326794897
  0
LINE
  5
159
330
1F
100
AcDbEntity
  8
0
  6
CONTINUOUS
 62
     7
100
AcDbLine
 10
798.3953978425
 20
223.9383464661
 30
0.0
 11
798.7554396993
 21
223.8035207596
 31
0.0
  0
LINE
  5
15A
330
1F
100
AcDbEntity
  8
0
  6
CONTINUOUS
 62
     7
100
AcDbLine
 10
798.7554396993
 20
223.8035207596
 30
0.0
 11
801.5336270934
 21
223.8035207596
 31
0.0
  0
LINE
  5
15B
330
1F
100
AcDbEntity
  8
0
  6
CONTINUOUS
 62
     7
100
AcDbLine
 10
801.5336270934
 20
223.8035207596
 30
0.0
 11
801.4963592892
 21
223.6673539486
 31
0.0
  0
LINE
  5
15C
330
1F
100
AcDbEntity
  8
0
  6
CONTINUOUS
 62
     7
100
AcDbLine
 10
532.0145215398
 20
223.6673539486
 30
0.0
 11
801.4963592892
 21
223.6673539486
 31
0.0
  0
LINE
  5
15D
330
1F
100
AcDbEntity
  8
0
  6
CONTINUOUS
 62
     7
100
AcDbLine
 10
532.0145215398
 20
223.6673539486
 30
0.0
 11
531.9772537356
 21
223.8035207596
 31
0.0
  0
LINE
  5
15E
330
1F
100
AcDbEntity
  8
0
  6
CONTINUOUS
 62
     7
100
AcDbLine
 10
534.7554411298
 20
223.8035207596
 30
0.0
 11
531.9772537356
 21
223.8035207596
 31
0.0
  0
LINE
  5
15F
330
1F
100
AcDbEntity
  8
0
  6
CONTINUOUS
 62
     7
100
AcDbLine
 10
534.7554411298
 20
223.8035207596
 30
0.0
 11
535.1154829865
 21
223.9383464661
 31
0.0
  0
ELLIPSE
  5
160
330
1F
100
AcDbEntity
  8
0
  6
CONTINUOUS
 62
     7
100
AcDbEllipse
 10
540.1032986022
 20
223.9292167286
 30
0.0
 11
5.0
 21
0.0
 31
0.0
210
0.0
220
0.0
230
1.0
 40
0.0261859216
 41
1.570796326794874
 42
3.071779483510389
  0
LINE
  5
161
330
1F
100
AcDbEntity
  8
0
  6
CONTINUOUS
 62
     7
100
AcDbLine
 10
540.1033039695
 20
224.0601485577
 30
0.0
 11
793.4075768596
 21
224.0601485577
 31
0.0
  0
LINE
  5
162
330
1F
100
AcDbEntity
  8
0
  6
CONTINUOUS
 62
     7
100
AcDbLine
 10
534.7554411298
 20
225.6311928835
 30
0.0
 11
533.8106777078
 21
225.6311928835
 31
0.0
  0
LWPOLYLINE
  5
163
330
1F
100
AcDbEntity
  8
0
  6
CONTINUOUS
 62
     7
100
AcDbPolyline
 90
        3
 70
   128
 43
0.0
 10
534.0890761023
 20
225.7935410347
 10
534.0452815896
 20
225.7673596945
 10
533.8106777078
 20
225.6311928835
  0
LINE
  5
164
330
1F
100
AcDbEntity
  8
0
  6
CONTINUOUS
 62
     7
100
AcDbLine
 10
799.4218047267
 20
225.7935410347
 30
0.0
 11
534.0890761023
 21
225.7935410347
 31
0.0
  0
LWPOLYLINE
  5
165
330
1F
100
AcDbEntity
  8
0
  6
CONTINUOUS
 62
     7
100
AcDbPolyline
 90
        3
 70
   128
 43
0.0
 10
799.7002031213
 20
225.6311928835
 10
799.4655992394
 20
225.7673596945
 10
799.4218047267
 20
225.7935410347
  0
LINE
  5
166
330
1F
100
AcDbEntity
  8
0
  6
CONTINUOUS
 62
     7
100
AcDbLine
 10
798.7554396993
 20
225.6311928835
 30
0.0
 11
799.7002031213
 21
225.6311928835
 31
0.0
  0
LINE
  5
167
330
1F
100
AcDbEntity
  8
0
  6
CONTINUOUS
 62
     7
100
AcDbLine
 10
798.3953978425
 20
225.496367177
 30
0.0
 11
798.7554396993
 21
225.6311928835
 31
0.0
  0
ELLIPSE
  5
168
330
1F
100
AcDbEntity
  8
0
  6
CONTINUOUS
 62
     7
100
AcDbEllipse
 10
793.4075822268
 20
225.5054982973
 30
0.0
 11
5.0
 21
0.0
 31
0.0
210
0.0
220
0.0
230
1.0
 40
0.0261859216
 41
4.71238898038469
 42
6.213372137100277
  0
LINE
  5
169
330
1F
100
AcDbEntity
  8
0
  6
CONTINUOUS
 62
     7
100
AcDbLine
 10
540.1033039695
 20
225.3745650854
 30
0.0
 11
793.4075768596
 21
225.3745650854
 31
0.0
  0
ELLIPSE
  5
16A
330
1F
100
AcDbEntity
  8
0
  6
CONTINUOUS
 62
     7
100
AcDbEllipse
 10
540.1032986022
 20
225.5054982973
 30
0.0
 11
5.0
 21
0.0
 31
0.0
210
0.0
220
0.0
230
1.0
 40
0.0261859216
 41
3.211405823670386
 42
4.712388980384713
  0
LINE
  5
16B
330
1F
100
AcDbEntity
  8
0
  6
CONTINUOUS
 62
     7
100
AcDbLine
 10
534.7554411298
 20
225.6311928835
 30
0.0
 11
535.1154829865
 21
225.496367177
 31
0.0
  0
LINE
  5
16C
330
1F
100
AcDbEntity
  8
0
  6
CONTINUOUS
 62
     7
100
AcDbLine
 10
799.7002031213
 20
406.1035221424
 30
0.0
 11
798.7554396993
 21
406.1035221424
 31
0.0
  0
LWPOLYLINE
  5
16D
330
1F
100
AcDbEntity
  8
0
  6
CONTINUOUS
 62
     7
100
AcDbPolyline
 90
        3
 70
   128
 43
0.0
 10
799.4218047267
 20
405.9411739912
 10
799.4655992394
 20
405.9673553314
 10
799.7002031213
 20
406.1035221424
  0
LINE
  5
16E
330
1F
100
AcDbEntity
  8
0
  6
CONTINUOUS
 62
     7
100
AcDbLine
 10
534.0890761023
 20
405.9411739912
 30
0.0
 11
799.4218047267
 21
405.9411739912
 31
0.0
  0
LWPOLYLINE
  5
16F
330
1F
100
AcDbEntity
  8
0
  6
CONTINUOUS
 62
     7
100
AcDbPolyline
 90
        3
 70
   128
 43
0.0
 10
533.8106777078
 20
406.1035221424
 10
534.0452815896
 20
405.9673553314
 10
534.0890761023
 20
405.9411739912
  0
LINE
  5
170
330
1F
100
AcDbEntity
  8
0
  6
CONTINUOUS
 62
     7
100
AcDbLine
 10
533.8106777078
 20
406.1035221424
 30
0.0
 11
534.7554411298
 21
406.1035221424
 31
0.0
  0
LINE
  5
171
330
1F
100
AcDbEntity
  8
0
  6
CONTINUOUS
 62
     7
100
AcDbLine
 10
535.1154829865
 20
406.2383478489
 30
0.0
 11
534.7554411298
 21
406.1035221424
 31
0.0
  0
ELLIPSE
  5
172
330
1F
100
AcDbEntity
  8
0
  6
CONTINUOUS
 62
     7
100
AcDbEllipse
 10
540.1032986022
 20
406.2292167286
 30
0.0
 11
5.0
 21
0.0
 31
0.0
210
0.0
220
0.0
230
1.0
 40
0.0261859216
 41
1.570796326794897
 42
3.07177948351017
  0
LINE
  5
173
330
1F
100
AcDbEntity
  8
0
  6
CONTINUOUS
 62
     7
100
AcDbLine
 10
793.4075768596
 20
406.3601499405
 30
0.0
 11
540.1033039695
 21
406.3601499405
 31
0.0
  0
ELLIPSE
  5
174
330
1F
100
AcDbEntity
  8
0
  6
CONTINUOUS
 62
     7
100
AcDbEllipse
 10
793.4075822268
 20
406.2292167286
 30
0.0
 11
5.0
 21
0.0
 31
0.0
210
0.0
220
0.0
230
1.0
 40
0.0261859216
 41
0.0698131700796239
 42
1.570796326794897
  0
LINE
  5
175
330
1F
100
AcDbEntity
  8
0
  6
CONTINUOUS
 62
     7
100
AcDbLine
 10
798.7554396993
 20
406.1035221424
 30
0.0
 11
798.3953978425
 21
406.2383478489
 31
0.0
  0
LINE
  5
176
330
1F
100
AcDbEntity
  8
0
  6
CONTINUOUS
 62
     7
100
AcDbLine
 10
535.1154829865
 20
223.9383464661
 30
0.0
 11
535.1154829865
 21
225.496367177
 31
0.0
  0
LINE
  5
177
330
1F
100
AcDbEntity
  8
0
  6
CONTINUOUS
 62
     7
100
AcDbLine
 10
540.1033039695
 20
225.3745650854
 30
0.0
 11
540.1033039695
 21
224.0601485577
 31
0.0
  0
LINE
  5
178
330
1F
100
AcDbEntity
  8
0
  6
CONTINUOUS
 62
     7
100
AcDbLine
 10
535.1154829865
 20
406.2383478489
 30
0.0
 11
535.1154829865
 21
407.7963685598
 31
0.0
  0
LINE
  5
179
330
1F
100
AcDbEntity
  8
0
  6
CONTINUOUS
 62
     7
100
AcDbLine
 10
540.1033039695
 20
407.6745664682
 30
0.0
 11
540.1033039695
 21
406.3601499405
 31
0.0
  0
LINE
  5
17A
330
1F
100
AcDbEntity
  8
0
  6
CONTINUOUS
 62
     7
100
AcDbLine
 10
793.4075768596
 20
406.3601499405
 30
0.0
 11
793.4075768596
 21
407.6745664682
 31
0.0
  0
LINE
  5
17B
330
1F
100
AcDbEntity
  8
0
  6
CONTINUOUS
 62
     7
100
AcDbLine
 10
793.4075768596
 20
224.0601485577
 30
0.0
 11
793.4075768596
 21
225.3745650854
 31
0.0
  0
LINE
  5
17C
330
1F
100
AcDbEntity
  8
0
  6
CONTINUOUS
 62
     7
100
AcDbLine
 10
798.3953978425
 20
225.496367177
 30
0.0
 11
798.3953978425
 21
223.9383464661
 31
0.0
  0
LINE
  5
17D
330
1F
100
AcDbEntity
  8
0
  6
CONTINUOUS
 62
     7
100
AcDbLine
 10
798.3953978425
 20
407.7963685598
 30
0.0
 11
798.3953978425
 21
406.2383478489
 31
0.0
  0
LINE
  5
17E
330
1F
100
AcDbEntity
  8
0
  6
CONTINUOUS
 62
     7
100
AcDbLine
 10
534.7554411298
 20
223.8035207596
 30
0.0
 11
534.7554411298
 21
225.6311928835
 31
0.0
  0
LINE
  5
17F
330
1F
100
AcDbEntity
  8
0
  6
CONTINUOUS
 62
     7
100
AcDbLine
 10
534.7554411298
 20
406.1035221424
 30
0.0
 11
534.7554411298
 21
407.9311942663
 31
0.0
  0
LINE
  5
180
330
1F
100
AcDbEntity
  8
0
  6
CONTINUOUS
 62
     7
100
AcDbLine
 10
798.7554396993
 20
225.6311928835
 30
0.0
 11
798.7554396993
 21
223.8035207596
 31
0.0
  0
LINE
  5
181
330
1F
100
AcDbEntity
  8
0
  6
CONTINUOUS
 62
     7
100
AcDbLine
 10
798.7554396993
 20
407.9311942663
 30
0.0
 11
798.7554396993
 21
406.1035221424
 31
0.0
  0
LINE
  5
182
330
1F
100
AcDbEntity
  8
0
  6
CONTINUOUS
 62
     7
100
AcDbLine
 10
523.6916120654
 20
402.9329052176
 30
0.0
 11
523.5554452544
 21
403.0690720286
 31
0.0
  0
ELLIPSE
  5
183
330
1F
100
AcDbEntity
  8
0
  6
CONTINUOUS
 62
     7
100
AcDbEllipse
 10
528.557154377
 20
403.0656435505
 30
0.0
 11
-3.537957399716674
 21
3.537957399716788
 31
0.0
210
0.0
220
0.0
230
1.0
 40
0.999315002
 41
0.1899620185559363
 42
0.7850555470593098
  0
LINE
  5
184
330
1F
100
AcDbEntity
  8
0
  6
CONTINUOUS
 62
     7
100
AcDbLine
 10
524.3540878898
 20
405.4200654831
 30
0.0
 11
524.4152571565
 21
405.87237533
 31
0.0
  0
ELLIPSE
  5
185
330
1F
100
AcDbEntity
  8
0
  6
CONTINUOUS
 62
     7
100
AcDbEllipse
 10
528.6933211691
 20
402.9294767583
 30
0.0
 11
-3.537957399716788
 21
3.537957399716788
 31
0.0
210
0.0
220
0.0
230
0.9999999999999998
 40
0.999315002
 41
0.2645105187117275
 42
0.7850555470592744
  0
LINE
  5
186
330
1F
100
AcDbEntity
  8
0
  6
CONTINUOUS
 62
     7
100
AcDbLine
 10
523.5554452544
 20
403.0690720286
 30
0.0
 11
523.5554452544
 21
228.6656429973
 31
0.0
  0
LINE
  5
187
330
1F
100
AcDbEntity
  8
0
  6
CONTINUOUS
 62
     7
100
AcDbLine
 10
523.6916120654
 20
228.8018098083
 30
0.0
 11
523.6916120654
 21
402.9329052176
 31
0.0
  0
LINE
  5
188
330
1F
100
AcDbEntity
  8
0
  6
CONTINUOUS
 62
     7
100
AcDbLine
 10
523.5554452544
 20
228.6656429973
 30
0.0
 11
523.6916120654
 21
228.8018098083
 31
0.0
  0
LINE
  5
189
330
1F
100
AcDbEntity
  8
0
  6
CONTINUOUS
 62
     7
100
AcDbLine
 10
524.4152571565
 20
225.8623396959
 30
0.0
 11
524.3540878898
 21
226.3146495428
 31
0.0
  0
ELLIPSE
  5
18A
330
1F
100
AcDbEntity
  8
0
  6
CONTINUOUS
 62
     7
100
AcDbEllipse
 10
528.557154377
 20
228.6690714754
 30
0.0
 11
-3.537957399716674
 21
-3.537957399716788
 31
0.0
210
0.0
220
0.0
230
1.0
 40
0.999315002
 41
5.498129760120301
 42
6.093223288623743
  0
ELLIPSE
  5
18B
330
1F
100
AcDbEntity
  8
0
  6
CONTINUOUS
 62
     7
100
AcDbEllipse
 10
528.6933211691
 20
228.8052382676
 30
0.0
 11
-3.537957399716788
 21
-3.537957399716788
 31
0.0
210
0.0
220
0.0
230
0.9999999999999998
 40
0.999315002
 41
5.498129760120296
 42
6.018674788467909
  0
CIRCLE
  5
18C
330
1F
100
AcDbEntity
  8
0
  6
CONTINUOUS
 62
     7
100
AcDbCircle
 10
529.2554404145
 20
403.367357513
 30
0.0
 40
1.78158800135725
  0
CIRCLE
  5
18D
330
1F
100
AcDbEntity
  8
0
  6
CONTINUOUS
 62
     7
100
AcDbCircle
 10
529.2554404145
 20
228.367357513
 30
0.0
 40
1.781588001357022
  0
ARC
  5
18E
330
1F
100
AcDbEntity
  8
0
  6
CONTINUOUS
 62
     7
100
AcDbCircle
 10
529.2554404145
 20
403.367357513
 30
0.0
 40
5.313833207840279
100
AcDbArc
 50
59.1887062318
 51
157.2758113313
  0
ARC
  5
18F
330
1F
100
AcDbEntity
  8
0
  6
CONTINUOUS
 62
     7
100
AcDbCircle
 10
529.2554404145
 20
403.367357513
 30
0.0
 40
5.313833207840189
100
AcDbArc
 50
225.3235886948
 51
30.9917027726
  0
LINE
  5
190
330
1F
100
AcDbEntity
  8
0
  6
CONTINUOUS
 62
     7
100
AcDbLine
 10
525.5192692881
 20
232.1459656563
 30
0.0
 11
525.5192692881
 21
399.5887493696
 31
0.0
  0
ARC
  5
191
330
1F
100
AcDbEntity
  8
0
  6
CONTINUOUS
 62
     7
100
AcDbCircle
 10
529.2554404145
 20
228.367357513
 30
0.0
 40
5.313833207840212
100
AcDbArc
 50
329.0082972274
 51
134.6764113052
  0
ARC
  5
192
330
1F
100
AcDbEntity
  8
0
  6
CONTINUOUS
 62
     7
100
AcDbCircle
 10
529.2554404145
 20
228.367357513
 30
0.0
 40
5.313833207840273
100
AcDbArc
 50
202.7241886687
 51
300.8112937682
  0
ARC
  5
193
330
1F
100
AcDbEntity
  8
0
  6
CONTINUOUS
 62
     7
100
AcDbCircle
 10
529.2554404145
 20
403.367357513
 30
0.0
 40
5.450000000000086
100
AcDbArc
 50
59.5854708983
 51
152.6363876624
  0
ARC
  5
194
330
1F
100
AcDbEntity
  8
0
  6
CONTINUOUS
 62
     7
100
AcDbCircle
 10
529.2554404145
 20
228.367357513
 30
0.0
 40
5.450000000000054
100
AcDbArc
 50
207.3636123376
 51
300.4145291017
  0
LINE
  5
195
330
1F
100
AcDbEntity
  8
0
  6
CONTINUOUS
 62
     7
100
AcDbLine
 10
525.6292547589
 20
240.2673592773
 30
0.0
 11
525.6292547589
 21
241.4673572388
 31
0.0
  0
LINE
  5
196
330
1F
100
AcDbEntity
  8
0
  6
CONTINUOUS
 62
     7
100
AcDbLine
 10
525.7609214192
 20
240.0917714443
 30
0.0
 11
525.6292547589
 21
240.2673592773
 31
0.0
  0
LINE
  5
197
330
1F
100
AcDbEntity
  8
0
  6
CONTINUOUS
 62
     7
100
AcDbLine
 10
525.7609214192
 20
232.6861178484
 30
0.0
 11
525.7609214192
 21
240.0917714443
 31
0.0
  0
LWPOLYLINE
  5
198
330
1F
100
AcDbEntity
  8
0
  6
CONTINUOUS
 62
     7
100
AcDbPolyline
 90
        3
 70
   128
 43
0.0
 10
525.5192692881
 20
232.1459656563
 10
525.6554510003
 20
232.4591284599
 10
525.7609214192
 20
232.6861178484
  0
LWPOLYLINE
  5
199
330
1F
100
AcDbEntity
  8
0
  6
CONTINUOUS
 62
     7
100
AcDbPolyline
 90
        3
 70
   128
 43
0.0
 10
525.7609214192
 20
399.0485971775
 10
525.6554510003
 20
399.275586566
 10
525.5192692881
 20
399.5887493696
  0
LINE
  5
19A
330
1F
100
AcDbEntity
  8
0
  6
CONTINUOUS
 62
     7
100
AcDbLine
 10
525.7609214192
 20
391.6429435816
 30
0.0
 11
525.7609214192
 21
399.0485971775
 31
0.0
  0
LINE
  5
19B
330
1F
100
AcDbEntity
  8
0
  6
CONTINUOUS
 62
     7
100
AcDbLine
 10
525.6292547589
 20
391.4673557487
 30
0.0
 11
525.7609214192
 21
391.6429435816
 31
0.0
  0
LINE
  5
19C
330
1F
100
AcDbEntity
  8
0
  6
CONTINUOUS
 62
     7
100
AcDbLine
 10
525.6292547589
 20
390.2673577871
 30
0.0
 11
525.6292547589
 21
391.4673557487
 31
0.0
  0
LINE
  5
19D
330
1F
100
AcDbEntity
  8
0
  6
CONTINUOUS
 62
     7
100
AcDbLine
 10
525.7472570544
 20
390.1099866238
 30
0.0
 11
525.6292547589
 21
390.2673577871
 31
0.0
  0
LINE
  5
19E
330
1F
100
AcDbEntity
  8
0
  6
CONTINUOUS
 62
     7
100
AcDbLine
 10
525.7472570544
 20
316.6247246885
 30
0.0
 11
525.7472570544
 21
390.1099866238
 31
0.0
  0
LINE
  5
19F
330
1F
100
AcDbEntity
  8
0
  6
CONTINUOUS
 62
     7
100
AcDbLine
 10
525.6292547589
 20
316.4673575415
 30
0.0
 11
525.7472570544
 21
316.6247246885
 31
0.0
  0
LINE
  5
1A0
330
1F
100
AcDbEntity
  8
0
  6
CONTINUOUS
 62
     7
100
AcDbLine
 10
525.6292547589
 20
315.2673574845
 30
0.0
 11
525.6292547589
 21
316.4673575415
 31
0.0
  0
LINE
  5
1A1
330
1F
100
AcDbEntity
  8
0
  6
CONTINUOUS
 62
     7
100
AcDbLine
 10
525.7472570544
 20
315.1099903374
 30
0.0
 11
525.6292547589
 21
315.2673574845
 31
0.0
  0
LINE
  5
1A2
330
1F
100
AcDbEntity
  8
0
  6
CONTINUOUS
 62
     7
100
AcDbLine
 10
525.7472570544
 20
241.6247284021
 30
0.0
 11
525.7472570544
 21
315.1099903374
 31
0.0
  0
LINE
  5
1A3
330
1F
100
AcDbEntity
  8
0
  6
CONTINUOUS
 62
     7
100
AcDbLine
 10
525.6292547589
 20
241.4673572388
 30
0.0
 11
525.7472570544
 21
241.6247284021
 31
0.0
  0
ARC
  5
1A4
330
1F
100
AcDbEntity
  8
0
  6
CONTINUOUS
 62
     7
100
AcDbCircle
 10
529.2554404145
 20
228.367357513
 30
0.0
 40
5.476185921569146
100
AcDbArc
 50
331.9656241022
 51
43.4767524041
  0
ARC
  5
1A5
330
1F
100
AcDbEntity
  8
0
  6
CONTINUOUS
 62
     7
100
AcDbCircle
 10
529.2715561169
 20
228.3678893642
 30
0.0
 40
5.565218164819696
100
AcDbArc
 50
57.1977066049
 51
129.1104313123
  0
ARC
  5
1A6
330
1F
100
AcDbEntity
  8
0
  6
CONTINUOUS
 62
     7
100
AcDbCircle
 10
530.2647637913
 20
229.7997995923
 30
0.0
 40
3.824028002508736
100
AcDbArc
 50
45.4236998276
 51
58.0833921123
  0
ELLIPSE
  5
1A7
330
1F
100
AcDbEntity
  8
0
  6
CONTINUOUS
 62
     7
100
AcDbEllipse
 10
527.0640794093
 20
228.367357513
 30
0.0
 11
7.321462608778802
 21
0.0
 31
0.0
210
0.0
220
0.0
230
1.0
 40
0.9541570348
 41
0.5696889637492824
 42
0.6372283369873523
  0
ARC
  5
1A8
330
1F
100
AcDbEntity
  8
0
  6
CONTINUOUS
 62
     7
100
AcDbCircle
 10
529.2554404145
 20
403.367357513
 30
0.0
 40
5.476185921569146
100
AcDbArc
 50
316.5232475959
 51
28.0343758978
  0
ELLIPSE
  5
1A9
330
1F
100
AcDbEntity
  8
0
  6
CONTINUOUS
 62
     7
100
AcDbEllipse
 10
527.0640794093
 20
403.367357513
 30
0.0
 11
7.321462608778802
 21
0.0
 31
0.0
210
0.0
220
0.0
230
1.0
 40
0.9541570348
 41
5.645956970192236
 42
5.713496343430318
  0
ARC
  5
1AA
330
1F
100
AcDbEntity
  8
0
  6
CONTINUOUS
 62
     7
100
AcDbCircle
 10
530.5385766069
 20
401.5875413161
 30
0.0
 40
3.384761187692499
100
AcDbArc
 50
301.0910877684
 51
315.4018202916
  0
ARC
  5
1AB
330
1F
100
AcDbEntity
  8
0
  6
CONTINUOUS
 62
     7
100
AcDbCircle
 10
529.2715556848
 20
403.3668178191
 30
0.0
 40
5.565211806946433
100
AcDbArc
 50
230.8895212069
 51
302.802340876
  0
CIRCLE
  5
1AC
330
1F
100
AcDbEntity
  8
0
  6
CONTINUOUS
 62
     7
100
AcDbCircle
 10
529.2554404145
 20
403.367357513
 30
0.0
 40
1.676825692881835
  0
CIRCLE
  5
1AD
330
1F
100
AcDbEntity
  8
0
  6
CONTINUOUS
 62
     7
100
AcDbCircle
 10
529.2554404145
 20
228.367357513
 30
0.0
 40
1.676825692881835
  0
ARC
  5
1AE
330
1F
100
AcDbEntity
  8
0
  6
CONTINUOUS
 62
     7
100
AcDbCircle
 10
804.2554404145
 20
228.367357513
 30
0.0
 40
5.313833207840197
100
AcDbArc
 50
45.3235886948
 51
210.9917027726
  0
ARC
  5
1AF
330
1F
100
AcDbEntity
  8
0
  6
CONTINUOUS
 62
     7
100
AcDbCircle
 10
804.2554404145
 20
228.367357513
 30
0.0
 40
5.476185921569146
100
AcDbArc
 50
136.5232475959
 51
208.0343758978
  0
ELLIPSE
  5
1B0
330
1F
100
AcDbEntity
  8
0
  6
CONTINUOUS
 62
     7
100
AcDbEllipse
 10
806.4468014197
 20
228.367357513
 30
0.0
 11
7.321462608778575
 21
0.0
 31
0.0
210
0.0
220
0.0
230
1.0
 40
0.9541570348
 41
2.492213975405352
 42
2.571903689840527
  0
ARC
  5
1B1
330
1F
100
AcDbEntity
  8
0
  6
CONTINUOUS
 62
     7
100
AcDbCircle
 10
804.2393195741
 20
228.3678564114
 30
0.0
 40
5.565245168385865
100
AcDbArc
 50
57.4794696019
 51
130.6278006365
  0
ARC
  5
1B2
330
1F
100
AcDbEntity
  8
0
  6
CONTINUOUS
 62
     7
100
AcDbCircle
 10
805.4969200406
 20
230.2164538396
 30
0.0
 40
3.331087474942748
100
AcDbArc
 50
47.1196504988
 51
58.6250533145
  0
LWPOLYLINE
  5
1B3
330
1F
100
AcDbEntity
  8
0
  6
CONTINUOUS
 62
     7
100
AcDbPolyline
 90
        3
 70
   128
 43
0.0
 10
807.7636237746
 20
232.6573958602
 10
807.8554298287
 20
232.4591284599
 10
807.9916115409
 20
232.1459656563
  0
CIRCLE
  5
1B4
330
1F
100
AcDbEntity
  8
0
  6
CONTINUOUS
 62
     7
100
AcDbCircle
 10
804.2554404145
 20
228.367357513
 30
0.0
 40
1.781588001357136
  0
CIRCLE
  5
1B5
330
1F
100
AcDbEntity
  8
0
  6
CONTINUOUS
 62
     7
100
AcDbCircle
 10
804.2554404145
 20
403.367357513
 30
0.0
 40
1.781588001357136
  0
LINE
  5
1B6
330
1F
100
AcDbEntity
  8
0
  6
CONTINUOUS
 62
     7
100
AcDbLine
 10
807.9916115409
 20
232.1459656563
 30
0.0
 11
807.9916115409
 21
399.5887493696
 31
0.0
  0
ARC
  5
1B7
330
1F
100
AcDbEntity
  8
0
  6
CONTINUOUS
 62
     7
100
AcDbCircle
 10
804.2554404145
 20
403.367357513
 30
0.0
 40
5.313833207840183
100
AcDbArc
 50
149.0082972274
 51
314.6764113052
  0
ARC
  5
1B8
330
1F
100
AcDbEntity
  8
0
  6
CONTINUOUS
 62
     7
100
AcDbCircle
 10
804.2554404145
 20
403.367357513
 30
0.0
 40
5.313833207840208
100
AcDbArc
 50
22.7241886687
 51
120.8112937682
  0
ELLIPSE
  5
1B9
330
1F
100
AcDbEntity
  8
0
  6
CONTINUOUS
 62
     7
100
AcDbEllipse
 10
804.8175596599
 20
402.9294767583
 30
0.0
 11
3.537957399716788
 21
3.537957399716788
 31
0.0
210
0.0
220
0.0
230
0.9999999999999998
 40
0.999315002
 41
5.498129760120322
 42
6.018674788467953
  0
LINE
  5
1BA
330
1F
100
AcDbEntity
  8
0
  6
CONTINUOUS
 62
     7
100
AcDbLine
 10
809.8192687636
 20
228.8018098083
 30
0.0
 11
809.8192687636
 21
402.9329052176
 31
0.0
  0
ELLIPSE
  5
1BB
330
1F
100
AcDbEntity
  8
0
  6
CONTINUOUS
 62
     7
100
AcDbEllipse
 10
804.8175596599
 20
228.8052382676
 30
0.0
 11
3.537957399716788
 21
-3.537957399716788
 31
0.0
210
0.0
220
0.0
230
0.9999999999999998
 40
0.999315002
 41
0.2645105187117066
 42
0.7850555470592957
  0
ARC
  5
1BC
330
1F
100
AcDbEntity
  8
0
  6
CONTINUOUS
 62
     7
100
AcDbCircle
 10
804.2554404145
 20
228.367357513
 30
0.0
 40
5.313833207840208
100
AcDbArc
 50
239.1887062318
 51
337.2758113313
  0
ELLIPSE
  5
1BD
330
1F
100
AcDbEntity
  8
0
  6
CONTINUOUS
 62
     7
100
AcDbEllipse
 10
806.4468014197
 20
403.367357513
 30
0.0
 11
7.321462608778688
 21
0.0
 31
0.0
210
0.0
220
0.0
230
1.0
 40
0.9541570348
 41
3.711281617339091
 42
3.790971331774271
  0
ARC
  5
1BE
330
1F
100
AcDbEntity
  8
0
  6
CONTINUOUS
 62
     7
100
AcDbCircle
 10
804.2554404145
 20
403.367357513
 30
0.0
 40
5.476185921569146
100
AcDbArc
 50
151.9656241022
 51
223.4767524041
  0
LWPOLYLINE
  5
1BF
330
1F
100
AcDbEntity
  8
0
  6
CONTINUOUS
 62
     7
100
AcDbPolyline
 90
        3
 70
   128
 43
0.0
 10
807.9916115409
 20
399.5887493696
 10
807.8554298287
 20
399.275586566
 10
807.7636237746
 20
399.0773191657
  0
ARC
  5
1C0
330
1F
100
AcDbEntity
  8
0
  6
CONTINUOUS
 62
     7
100
AcDbCircle
 10
805.6617601239
 20
401.3005219981
 30
0.0
 40
3.059487153104004
100
AcDbArc
 50
300.8623003586
 51
313.3929958282
  0
ARC
  5
1C1
330
1F
100
AcDbEntity
  8
0
  6
CONTINUOUS
 62
     7
100
AcDbCircle
 10
804.2393235689
 20
403.3669149846
 30
0.0
 40
5.565290552065573
100
AcDbArc
 50
229.3725460346
 51
302.520183727
  0
LINE
  5
1C2
330
1F
100
AcDbEntity
  8
0
  6
CONTINUOUS
 62
     7
100
AcDbLine
 10
809.0956236726
 20
405.87237533
 30
0.0
 11
809.1567929393
 21
405.4200654831
 31
0.0
  0
ARC
  5
1C3
330
1F
100
AcDbEntity
  8
0
  6
CONTINUOUS
 62
     7
100
AcDbCircle
 10
804.2554404145
 20
403.367357513
 30
0.0
 40
5.450000000000037
100
AcDbArc
 50
27.3636123376
 51
120.4145291017
  0
LINE
  5
1C4
330
1F
100
AcDbEntity
  8
0
  6
CONTINUOUS
 62
     7
100
AcDbLine
 10
809.1567929393
 20
226.3146495428
 30
0.0
 11
809.0956236726
 21
225.8623396959
 31
0.0
  0
ARC
  5
1C5
330
1F
100
AcDbEntity
  8
0
  6
CONTINUOUS
 62
     7
100
AcDbCircle
 10
804.2554404145
 20
228.367357513
 30
0.0
 40
5.450000000000037
100
AcDbArc
 50
239.5854708983
 51
332.6363876624
  0
CIRCLE
  5
1C6
330
1F
100
AcDbEntity
  8
0
  6
CONTINUOUS
 62
     7
100
AcDbCircle
 10
804.2554404145
 20
228.367357513
 30
0.0
 40
1.676825692881835
  0
CIRCLE
  5
1C7
330
1F
100
AcDbEntity
  8
0
  6
CONTINUOUS
 62
     7
100
AcDbCircle
 10
804.2554404145
 20
403.367357513
 30
0.0
 40
1.676825692881835
  0
LINE
  5
1C8
330
1F
100
AcDbEntity
  8
0
  6
CONTINUOUS
 62
     7
100
AcDbLine
 10
807.8816260701
 20
391.4673557487
 30
0.0
 11
807.8816260701
 21
390.2673577871
 31
0.0
  0
LINE
  5
1C9
330
1F
100
AcDbEntity
  8
0
  6
CONTINUOUS
 62
     7
100
AcDbLine
 10
807.7636237746
 20
391.624726912
 30
0.0
 11
807.8816260701
 21
391.4673557487
 31
0.0
  0
LINE
  5
1CA
330
1F
100
AcDbEntity
  8
0
  6
CONTINUOUS
 62
     7
100
AcDbLine
 10
807.7636237746
 20
399.0773191657
 30
0.0
 11
807.7636237746
 21
391.624726912
 31
0.0
  0
LINE
  5
1CB
330
1F
100
AcDbEntity
  8
0
  6
CONTINUOUS
 62
     7
100
AcDbLine
 10
807.7636237746
 20
240.1099881139
 30
0.0
 11
807.7636237746
 21
232.6573958602
 31
0.0
  0
LINE
  5
1CC
330
1F
100
AcDbEntity
  8
0
  6
CONTINUOUS
 62
     7
100
AcDbLine
 10
807.8816260701
 20
240.2673592773
 30
0.0
 11
807.7636237746
 21
240.1099881139
 31
0.0
  0
LINE
  5
1CD
330
1F
100
AcDbEntity
  8
0
  6
CONTINUOUS
 62
     7
100
AcDbLine
 10
807.8816260701
 20
241.4673572388
 30
0.0
 11
807.8816260701
 21
240.2673592773
 31
0.0
  0
LINE
  5
1CE
330
1F
100
AcDbEntity
  8
0
  6
CONTINUOUS
 62
     7
100
AcDbLine
 10
807.7636237746
 20
241.6247284021
 30
0.0
 11
807.8816260701
 21
241.4673572388
 31
0.0
  0
LINE
  5
1CF
330
1F
100
AcDbEntity
  8
0
  6
CONTINUOUS
 62
     7
100
AcDbLine
 10
807.7636237746
 20
315.1099903374
 30
0.0
 11
807.7636237746
 21
241.6247284021
 31
0.0
  0
LINE
  5
1D0
330
1F
100
AcDbEntity
  8
0
  6
CONTINUOUS
 62
     7
100
AcDbLine
 10
807.8816260701
 20
315.2673574845
 30
0.0
 11
807.7636237746
 21
315.1099903374
 31
0.0
  0
LINE
  5
1D1
330
1F
100
AcDbEntity
  8
0
  6
CONTINUOUS
 62
     7
100
AcDbLine
 10
807.8816260701
 20
315.2673574845
 30
0.0
 11
807.8816260701
 21
316.4673575415
 31
0.0
  0
LINE
  5
1D2
330
1F
100
AcDbEntity
  8
0
  6
CONTINUOUS
 62
     7
100
AcDbLine
 10
807.7636237746
 20
316.6247246885
 30
0.0
 11
807.8816260701
 21
316.4673575415
 31
0.0
  0
LINE
  5
1D3
330
1F
100
AcDbEntity
  8
0
  6
CONTINUOUS
 62
     7
100
AcDbLine
 10
807.7636237746
 20
390.1099866238
 30
0.0
 11
807.7636237746
 21
316.6247246885
 31
0.0
  0
LINE
  5
1D4
330
1F
100
AcDbEntity
  8
0
  6
CONTINUOUS
 62
     7
100
AcDbLine
 10
807.8816260701
 20
390.2673577871
 30
0.0
 11
807.7636237746
 21
390.1099866238
 31
0.0
  0
ELLIPSE
  5
1D5
330
1F
100
AcDbEntity
  8
0
  6
CONTINUOUS
 62
     7
100
AcDbEllipse
 10
804.9537264521
 20
228.6690714754
 30
0.0
 11
3.537957399716788
 21
-3.537957399716788
 31
0.0
210
0.0
220
0.0
230
0.9999999999999998
 40
0.999315002
 41
0.1899620185559014
 42
0.785055547059288
  0
LINE
  5
1D6
330
1F
100
AcDbEntity
  8
0
  6
CONTINUOUS
 62
     7
100
AcDbLine
 10
809.8192687636
 20
228.8018098083
 30
0.0
 11
809.9554355746
 21
228.6656429973
 31
0.0
  0
ELLIPSE
  5
1D7
330
1F
100
AcDbEntity
  8
0
  6
CONTINUOUS
 62
     7
100
AcDbEllipse
 10
804.9537264521
 20
403.0656435505
 30
0.0
 11
3.537957399716787
 21
3.537957399716731
 31
0.0
210
0.0
220
0.0
230
0.9999999999999998
 40
0.999315002
 41
5.498129760120326
 42
6.093223288623702
  0
LINE
  5
1D8
330
1F
100
AcDbEntity
  8
0
  6
CONTINUOUS
 62
     7
100
AcDbLine
 10
809.9554355746
 20
403.0690720286
 30
0.0
 11
809.8192687636
 21
402.9329052176
 31
0.0
  0
LINE
  5
1D9
330
1F
100
AcDbEntity
  8
0
  6
CONTINUOUS
 62
     7
100
AcDbLine
 10
809.9554355746
 20
228.6656429973
 30
0.0
 11
809.9554355746
 21
403.0690720286
 31
0.0
  0
CIRCLE
  5
1DA
330
1F
100
AcDbEntity
  8
0
  6
CONTINUOUS
 62
     7
100
AcDbCircle
 10
541.7554404145
 20
400.867357513
 30
0.0
 40
2.68555332430185
  0
CIRCLE
  5
1DB
330
1F
100
AcDbEntity
  8
0
  6
CONTINUOUS
 62
     7
100
AcDbCircle
 10
541.7554404145
 20
400.867357513
 30
0.0
 40
3.0
  0
CIRCLE
  5
1DC
330
1F
100
AcDbEntity
  8
0
  6
CONTINUOUS
 62
     7
100
AcDbCircle
 10
541.7554404145
 20
230.867357513
 30
0.0
 40
2.68555332430185
  0
CIRCLE
  5
1DD
330
1F
100
AcDbEntity
  8
0
  6
CONTINUOUS
 62
     7
100
AcDbCircle
 10
541.7554404145
 20
230.867357513
 30
0.0
 40
3.0
  0
CIRCLE
  5
1DE
330
1F
100
AcDbEntity
  8
0
  6
CONTINUOUS
 62
     7
100
AcDbCircle
 10
541.7554404145
 20
230.867357513
 30
0.0
 40
1.600000000000023
  0
CIRCLE
  5
1DF
330
1F
100
AcDbEntity
  8
0
  6
CONTINUOUS
 62
     7
100
AcDbCircle
 10
541.7554404145
 20
400.867357513
 30
0.0
 40
1.600000000000136
  0
CIRCLE
  5
1E0
330
1F
100
AcDbEntity
  8
0
  6
CONTINUOUS
 62
     7
100
AcDbCircle
 10
541.7554404145
 20
230.867357513
 30
0.0
 40
1.547592220716865
  0
CIRCLE
  5
1E1
330
1F
100
AcDbEntity
  8
0
  6
CONTINUOUS
 62
     7
100
AcDbCircle
 10
541.7554404145
 20
400.867357513
 30
0.0
 40
1.547592220716979
  0
CIRCLE
  5
1E2
330
1F
100
AcDbEntity
  8
0
  6
CONTINUOUS
 62
     7
100
AcDbCircle
 10
666.7554404145
 20
400.867357513
 30
0.0
 40
2.68555332430185
  0
CIRCLE
  5
1E3
330
1F
100
AcDbEntity
  8
0
  6
CONTINUOUS
 62
     7
100
AcDbCircle
 10
666.7554404145
 20
400.867357513
 30
0.0
 40
3.0
  0
CIRCLE
  5
1E4
330
1F
100
AcDbEntity
  8
0
  6
CONTINUOUS
 62
     7
100
AcDbCircle
 10
666.7554404145
 20
230.867357513
 30
0.0
 40
2.68555332430185
  0
CIRCLE
  5
1E5
330
1F
100
AcDbEntity
  8
0
  6
CONTINUOUS
 62
     7
100
AcDbCircle
 10
666.7554404145
 20
230.867357513
 30
0.0
 40
3.0
  0
CIRCLE
  5
1E6
330
1F
100
AcDbEntity
  8
0
  6
CONTINUOUS
 62
     7
100
AcDbCircle
 10
666.7554404145
 20
230.867357513
 30
0.0
 40
1.600000000000136
  0
CIRCLE
  5
1E7
330
1F
100
AcDbEntity
  8
0
  6
CONTINUOUS
 62
     7
100
AcDbCircle
 10
666.7554404145
 20
400.867357513
 30
0.0
 40
1.600000000000023
  0
CIRCLE
  5
1E8
330
1F
100
AcDbEntity
  8
0
  6
CONTINUOUS
 62
     7
100
AcDbCircle
 10
666.7554404145
 20
230.867357513
 30
0.0
 40
1.547592220716979
  0
CIRCLE
  5
1E9
330
1F
100
AcDbEntity
  8
0
  6
CONTINUOUS
 62
     7
100
AcDbCircle
 10
666.7554404145
 20
400.867357513
 30
0.0
 40
1.547592220716979
  0
CIRCLE
  5
1EA
330
1F
100
AcDbEntity
  8
0
  6
CONTINUOUS
 62
     7
100
AcDbCircle
 10
791.7554404145
 20
230.867357513
 30
0.0
 40
2.68555332430185
  0
CIRCLE
  5
1EB
330
1F
100
AcDbEntity
  8
0
  6
CONTINUOUS
 62
     7
100
AcDbCircle
 10
791.7554404145
 20
230.867357513
 30
0.0
 40
3.0
  0
CIRCLE
  5
1EC
330
1F
100
AcDbEntity
  8
0
  6
CONTINUOUS
 62
     7
100
AcDbCircle
 10
791.7554404145
 20
400.867357513
 30
0.0
 40
2.68555332430185
  0
CIRCLE
  5
1ED
330
1F
100
AcDbEntity
  8
0
  6
CONTINUOUS
 62
     7
100
AcDbCircle
 10
791.7554404145
 20
400.867357513
 30
0.0
 40
3.0
  0
CIRCLE
  5
1EE
330
1F
100
AcDbEntity
  8
0
  6
CONTINUOUS
 62
     7
100
AcDbCircle
 10
791.7554404145
 20
230.867357513
 30
0.0
 40
1.600000000000136
  0
CIRCLE
  5
1EF
330
1F
100
AcDbEntity
  8
0
  6
CONTINUOUS
 62
     7
100
AcDbCircle
 10
791.7554404145
 20
400.867357513
 30
0.0
 40
1.600000000000023
  0
CIRCLE
  5
1F0
330
1F
100
AcDbEntity
  8
0
  6
CONTINUOUS
 62
     7
100
AcDbCircle
 10
791.7554404145
 20
230.867357513
 30
0.0
 40
1.547592220716979
  0
CIRCLE
  5
1F1
330
1F
100
AcDbEntity
  8
0
  6
CONTINUOUS
 62
     7
100
AcDbCircle
 10
791.7554404145
 20
400.867357513
 30
0.0
 40
1.547592220716979
  0
CIRCLE
  5
1F2
330
1F
100
AcDbEntity
  8
0
  6
CONTINUOUS
 62
     7
100
AcDbCircle
 10
541.7554404145
 20
230.867357513
 30
0.0
 40
1.182544935071746
  0
CIRCLE
  5
1F3
330
1F
100
AcDbEntity
  8
0
  6
CONTINUOUS
 62
     7
100
AcDbCircle
 10
541.7554404145
 20
400.867357513
 30
0.0
 40
1.182544935071746
  0
CIRCLE
  5
1F4
330
1F
100
AcDbEntity
  8
0
  6
CONTINUOUS
 62
     7
100
AcDbCircle
 10
541.7554404145
 20
230.867357513
 30
0.0
 40
1.074323532516701
  0
CIRCLE
  5
1F5
330
1F
100
AcDbEntity
  8
0
  6
CONTINUOUS
 62
     7
100
AcDbCircle
 10
541.7554404145
 20
400.867357513
 30
0.0
 40
1.074323532516814
  0
CIRCLE
  5
1F6
330
1F
100
AcDbEntity
  8
0
  6
CONTINUOUS
 62
     7
100
AcDbCircle
 10
666.7554404145
 20
230.867357513
 30
0.0
 40
1.182544935071746
  0
CIRCLE
  5
1F7
330
1F
100
AcDbEntity
  8
0
  6
CONTINUOUS
 62
     7
100
AcDbCircle
 10
666.7554404145
 20
400.867357513
 30
0.0
 40
1.182544935071746
  0
CIRCLE
  5
1F8
330
1F
100
AcDbEntity
  8
0
  6
CONTINUOUS
 62
     7
100
AcDbCircle
 10
666.7554404145
 20
230.867357513
 30
0.0
 40
1.074323532516814
  0
CIRCLE
  5
1F9
330
1F
100
AcDbEntity
  8
0
  6
CONTINUOUS
 62
     7
100
AcDbCircle
 10
666.7554404145
 20
400.867357513
 30
0.0
 40
1.074323532516701
  0
CIRCLE
  5
1FA
330
1F
100
AcDbEntity
  8
0
  6
CONTINUOUS
 62
     7
100
AcDbCircle
 10
791.7554404145
 20
400.867357513
 30
0.0
 40
1.182544935071746
  0
CIRCLE
  5
1FB
330
1F
100
AcDbEntity
  8
0
  6
CONTINUOUS
 62
     7
100
AcDbCircle
 10
791.7554404145
 20
230.867357513
 30
0.0
 40
1.182544935071746
  0
CIRCLE
  5
1FC
330
1F
100
AcDbEntity
  8
0
  6
CONTINUOUS
 62
     7
100
AcDbCircle
 10
791.7554404145
 20
230.867357513
 30
0.0
 40
1.074323532516814
  0
CIRCLE
  5
1FD
330
1F
100
AcDbEntity
  8
0
  6
CONTINUOUS
 62
     7
100
AcDbCircle
 10
791.7554404145
 20
400.867357513
 30
0.0
 40
1.074323532516701
  0
LINE
  5
1FE
330
1F
100
AcDbEntity
  8
0
  6
CONTINUOUS
 62
     7
100
AcDbLine
 10
525.6292547589
 20
315.2673574845
 30
0.0
 11
526.3873662358
 21
315.2673574845
 31
0.0
  0
LINE
  5
1FF
330
1F
100
AcDbEntity
  8
0
  6
CONTINUOUS
 62
     7
100
AcDbLine
 10
526.3873662358
 20
316.4673575415
 30
0.0
 11
525.6292547589
 21
316.4673575415
 31
0.0
  0
ARC
  5
200
330
1F
100
AcDbEntity
  8
0
  6
CONTINUOUS
 62
     7
100
AcDbCircle
 10
529.2554404145
 20
315.867357513
 30
0.0
 40
2.930158461016557
100
AcDbArc
 50
191.8158646366
 51
168.1841353634
  0
CIRCLE
  5
201
330
1F
100
AcDbEntity
  8
0
  6
CONTINUOUS
 62
     7
100
AcDbCircle
 10
529.2554404145
 20
315.867357513
 30
0.0
 40
1.599999999999909
  0
LINE
  5
202
330
1F
100
AcDbEntity
  8
0
  6
CONTINUOUS
 62
     7
100
AcDbLine
 10
525.6292547589
 20
240.2673592773
 30
0.0
 11
526.3873662358
 21
240.2673592773
 31
0.0
  0
LINE
  5
203
330
1F
100
AcDbEntity
  8
0
  6
CONTINUOUS
 62
     7
100
AcDbLine
 10
526.3873662358
 20
241.4673572388
 30
0.0
 11
525.6292547589
 21
241.4673572388
 31
0.0
  0
ARC
  5
204
330
1F
100
AcDbEntity
  8
0
  6
CONTINUOUS
 62
     7
100
AcDbCircle
 10
529.2554404145
 20
240.867357513
 30
0.0
 40
2.930158461016557
100
AcDbArc
 50
191.8158646366
 51
168.1841353634
  0
CIRCLE
  5
205
330
1F
100
AcDbEntity
  8
0
  6
CONTINUOUS
 62
     7
100
AcDbCircle
 10
529.2554404145
 20
240.867357513
 30
0.0
 40
1.599999999999909
  0
ELLIPSE
  5
206
330
1F
100
AcDbEntity
  8
0
  6
CONTINUOUS
 62
     7
100
AcDbEllipse
 10
526.3470532924
 20
241.6241762205
 30
0.0
 11
0.6000000000000227
 21
0.0
 31
0.0
210
0.0
220
0.0
230
1.0
 40
0.0349207695
 41
1.738954653892987
 42
3.115412714809006
  0
LINE
  5
207
330
1F
100
AcDbEntity
  8
0
  6
CONTINUOUS
 62
     7
100
AcDbLine
 10
526.2466396695
 20
241.6448300686
 30
0.0
 11
526.3873662358
 21
241.4673572388
 31
0.0
  0
ELLIPSE
  5
208
330
1F
100
AcDbEntity
  8
0
  6
CONTINUOUS
 62
     7
100
AcDbEllipse
 10
526.3470532924
 20
316.6241762205
 30
0.0
 11
0.6000000000000227
 21
0.0
 31
0.0
210
0.0
220
0.0
230
1.0
 40
0.0349207695
 41
1.738954653893849
 42
3.115412714807718
  0
LINE
  5
209
330
1F
100
AcDbEntity
  8
0
  6
CONTINUOUS
 62
     7
100
AcDbLine
 10
526.2466396695
 20
316.6448331652
 30
0.0
 11
526.3873662358
 21
316.4673575415
 31
0.0
  0
LINE
  5
20A
330
1F
100
AcDbEntity
  8
0
  6
CONTINUOUS
 62
     7
100
AcDbLine
 10
525.6292547589
 20
390.2673577871
 30
0.0
 11
526.3873662358
 21
390.2673577871
 31
0.0
  0
LINE
  5
20B
330
1F
100
AcDbEntity
  8
0
  6
CONTINUOUS
 62
     7
100
AcDbLine
 10
526.3873662358
 20
391.4673557487
 30
0.0
 11
525.6292547589
 21
391.4673557487
 31
0.0
  0
ARC
  5
20C
330
1F
100
AcDbEntity
  8
0
  6
CONTINUOUS
 62
     7
100
AcDbCircle
 10
529.2554404145
 20
390.867357513
 30
0.0
 40
2.93015846101658
100
AcDbArc
 50
191.8158646366
 51
168.1841353634
  0
CIRCLE
  5
20D
330
1F
100
AcDbEntity
  8
0
  6
CONTINUOUS
 62
     7
100
AcDbCircle
 10
529.2554404145
 20
390.867357513
 30
0.0
 40
1.600000000000023
  0
LINE
  5
20E
330
1F
100
AcDbEntity
  8
0
  6
CONTINUOUS
 62
     7
100
AcDbLine
 10
526.3873662358
 20
390.2673577871
 30
0.0
 11
526.2466396695
 21
390.0898849573
 31
0.0
  0
ELLIPSE
  5
20F
330
1F
100
AcDbEntity
  8
0
  6
CONTINUOUS
 62
     7
100
AcDbEllipse
 10
526.3470532924
 20
390.1105388054
 30
0.0
 11
0.6000000000000227
 21
0.0
 31
0.0
210
0.0
220
0.0
230
1.0
 40
0.0349207695
 41
3.167772592369704
 42
4.544230653286832
  0
ELLIPSE
  5
210
330
1F
100
AcDbEntity
  8
0
  6
CONTINUOUS
 62
     7
100
AcDbEllipse
 10
666.7554404145
 20
348.2409741283
 30
0.0
 11
1250.841663108286
 21
-9.265477274311706E-12
 31
0.0
210
0.0
220
0.0
230
1.0
 40
0.0349207695
 41
1.683365347717796
 42
1.683756117173393
  0
LINE
  5
211
330
1F
100
AcDbEntity
  8
0
  6
CONTINUOUS
 62
     7
100
AcDbLine
 10
526.2466098672
 20
391.6448658314
 30
0.0
 11
526.3873662358
 21
391.4673557487
 31
0.0
  0
LINE
  5
212
330
1F
100
AcDbEntity
  8
0
  6
CONTINUOUS
 62
     7
100
AcDbLine
 10
526.3873662358
 20
315.2673574845
 30
0.0
 11
526.2466396695
 21
315.0898818607
 31
0.0
  0
ELLIPSE
  5
213
330
1F
100
AcDbEntity
  8
0
  6
CONTINUOUS
 62
     7
100
AcDbEllipse
 10
526.3470532924
 20
315.1105388054
 30
0.0
 11
0.6000000000000227
 21
0.0
 31
0.0
210
0.0
220
0.0
230
1.0
 40
0.0349207695
 41
3.167772592375047
 42
4.544230653287105
  0
LINE
  5
214
330
1F
100
AcDbEntity
  8
0
  6
CONTINUOUS
 62
     7
100
AcDbLine
 10
526.3873662358
 20
240.2673592773
 30
0.0
 11
526.2466098672
 21
240.0898491945
 31
0.0
  0
ELLIPSE
  5
215
330
1F
100
AcDbEntity
  8
0
  6
CONTINUOUS
 62
     7
100
AcDbEllipse
 10
666.7554404145
 20
283.4937408976
 30
0.0
 11
1250.841663108286
 21
9.322320693172514E-12
 31
0.0
210
0.0
220
0.0
230
1.0
 40
0.0349207695
 41
4.599429190006198
 42
4.599819959461795
  0
ARC
  5
216
330
1F
100
AcDbEntity
  8
0
  6
CONTINUOUS
 62
     7
100
AcDbCircle
 10
529.2674858842
 20
390.8674901631
 30
0.0
 40
3.119295567882746
100
AcDbArc
 50
14.5700262819
 51
165.5689271673
  0
LINE
  5
217
330
1F
100
AcDbEntity
  8
0
  6
CONTINUOUS
 62
     7
100
AcDbLine
 10
532.3149736529
 20
391.5328761544
 30
0.0
 11
532.2864677316
 21
391.6521897521
 31
0.0
  0
LINE
  5
218
330
1F
100
AcDbEntity
  8
0
  6
CONTINUOUS
 62
     7
100
AcDbLine
 10
532.1948255902
 20
391.4673557487
 30
0.0
 11
532.3149736529
 21
391.5328761544
 31
0.0
  0
ARC
  5
219
330
1F
100
AcDbEntity
  8
0
  6
CONTINUOUS
 62
     7
100
AcDbCircle
 10
529.2554404145
 20
390.867357513
 30
0.0
 40
2.999999999999958
100
AcDbArc
 50
348.4630409672
 51
11.5369590328
  0
LINE
  5
21A
330
1F
100
AcDbEntity
  8
0
  6
CONTINUOUS
 62
     7
100
AcDbLine
 10
532.3149736529
 20
390.2018373814
 30
0.0
 11
532.1948255902
 21
390.2673577871
 31
0.0
  0
LINE
  5
21B
330
1F
100
AcDbEntity
  8
0
  6
CONTINUOUS
 62
     7
100
AcDbLine
 10
532.2864677316
 20
390.0825237837
 30
0.0
 11
532.3149736529
 21
390.2018373814
 31
0.0
  0
ARC
  5
21C
330
1F
100
AcDbEntity
  8
0
  6
CONTINUOUS
 62
     7
100
AcDbCircle
 10
529.2674889595
 20
390.8672274668
 30
0.0
 40
3.119293621387411
100
AcDbArc
 50
196.6946415492
 51
345.4298867262
  0
LINE
  5
21D
330
1F
100
AcDbEntity
  8
0
  6
CONTINUOUS
 62
     7
100
AcDbLine
 10
526.2466396695
 20
390.0898849573
 30
0.0
 11
526.2796755439
 21
389.9711450543
 31
0.0
  0
LINE
  5
21E
330
1F
100
AcDbEntity
  8
0
  6
CONTINUOUS
 62
     7
100
AcDbLine
 10
526.2796755439
 20
241.7635699716
 30
0.0
 11
526.2466396695
 21
241.6448300686
 31
0.0
  0
ARC
  5
21F
330
1F
100
AcDbEntity
  8
0
  6
CONTINUOUS
 62
     7
100
AcDbCircle
 10
529.2674891349
 20
240.8674970184
 30
0.0
 40
3.119291072020354
100
AcDbArc
 50
14.5699459216
 51
163.305525803
  0
LINE
  5
220
330
1F
100
AcDbEntity
  8
0
  6
CONTINUOUS
 62
     7
100
AcDbLine
 10
532.3149736529
 20
241.5328776445
 30
0.0
 11
532.2864677316
 21
241.6521912422
 31
0.0
  0
LINE
  5
221
330
1F
100
AcDbEntity
  8
0
  6
CONTINUOUS
 62
     7
100
AcDbLine
 10
532.1948255902
 20
241.4673572388
 30
0.0
 11
532.3149736529
 21
241.5328776445
 31
0.0
  0
ARC
  5
222
330
1F
100
AcDbEntity
  8
0
  6
CONTINUOUS
 62
     7
100
AcDbCircle
 10
529.2554404145
 20
240.867357513
 30
0.0
 40
2.999999999999874
100
AcDbArc
 50
348.4630409672
 51
11.5369590328
  0
LINE
  5
223
330
1F
100
AcDbEntity
  8
0
  6
CONTINUOUS
 62
     7
100
AcDbLine
 10
532.3149736529
 20
240.2018388715
 30
0.0
 11
532.1948255902
 21
240.2673592773
 31
0.0
  0
LINE
  5
224
330
1F
100
AcDbEntity
  8
0
  6
CONTINUOUS
 62
     7
100
AcDbLine
 10
532.2864677316
 20
240.0825252738
 30
0.0
 11
532.3149736529
 21
240.2018388715
 31
0.0
  0
ARC
  5
225
330
1F
100
AcDbEntity
  8
0
  6
CONTINUOUS
 62
     7
100
AcDbCircle
 10
529.2674858957
 20
240.8672343278
 30
0.0
 40
3.119297937824055
100
AcDbArc
 50
194.4312411488
 51
345.429805402
  0
LINE
  5
226
330
1F
100
AcDbEntity
  8
0
  6
CONTINUOUS
 62
     7
100
AcDbLine
 10
526.2466396695
 20
315.0898818607
 30
0.0
 11
526.2796755439
 21
314.9711460904
 31
0.0
  0
LINE
  5
227
330
1F
100
AcDbEntity
  8
0
  6
CONTINUOUS
 62
     7
100
AcDbLine
 10
526.2796755439
 20
316.7635689355
 30
0.0
 11
526.2466396695
 21
316.6448331652
 31
0.0
  0
ARC
  5
228
330
1F
100
AcDbEntity
  8
0
  6
CONTINUOUS
 62
     7
100
AcDbCircle
 10
529.2674889388
 20
315.8674977074
 30
0.0
 40
3.119290388617548
100
AcDbArc
 50
14.5698833054
 51
163.3055551178
  0
LINE
  5
229
330
1F
100
AcDbEntity
  8
0
  6
CONTINUOUS
 62
     7
100
AcDbLine
 10
532.3149736529
 20
316.5328750368
 30
0.0
 11
532.2864677316
 21
316.6521884599
 31
0.0
  0
LINE
  5
22A
330
1F
100
AcDbEntity
  8
0
  6
CONTINUOUS
 62
     7
100
AcDbLine
 10
532.1948255902
 20
316.4673575415
 30
0.0
 11
532.3149736529
 21
316.5328750368
 31
0.0
  0
ARC
  5
22B
330
1F
100
AcDbEntity
  8
0
  6
CONTINUOUS
 62
     7
100
AcDbCircle
 10
529.2554404145
 20
315.867357513
 30
0.0
 40
2.999999999999992
100
AcDbArc
 50
348.4630409672
 51
11.5369590328
  0
LINE
  5
22C
330
1F
100
AcDbEntity
  8
0
  6
CONTINUOUS
 62
     7
100
AcDbLine
 10
532.3149736529
 20
315.2018399891
 30
0.0
 11
532.1948255902
 21
315.2673574845
 31
0.0
  0
LINE
  5
22D
330
1F
100
AcDbEntity
  8
0
  6
CONTINUOUS
 62
     7
100
AcDbLine
 10
532.2864677316
 20
315.082526566
 30
0.0
 11
532.3149736529
 21
315.2018399891
 31
0.0
  0
ARC
  5
22E
330
1F
100
AcDbEntity
  8
0
  6
CONTINUOUS
 62
     7
100
AcDbCircle
 10
529.2674887633
 20
315.8672267804
 30
0.0
 40
3.119292938653995
100
AcDbArc
 50
196.694612279
 51
345.4299492978
  0
CIRCLE
  5
22F
330
1F
100
AcDbEntity
  8
0
  6
CONTINUOUS
 62
     7
100
AcDbCircle
 10
529.2554404145
 20
240.867357513
 30
0.0
 40
1.547592220716979
  0
CIRCLE
  5
230
330
1F
100
AcDbEntity
  8
0
  6
CONTINUOUS
 62
     7
100
AcDbCircle
 10
529.2554404145
 20
315.867357513
 30
0.0
 40
1.547592220716979
  0
CIRCLE
  5
231
330
1F
100
AcDbEntity
  8
0
  6
CONTINUOUS
 62
     7
100
AcDbCircle
 10
529.2554404145
 20
390.867357513
 30
0.0
 40
1.547592220716979
  0
ARC
  5
232
330
1F
100
AcDbEntity
  8
0
  6
CONTINUOUS
 62
     7
100
AcDbCircle
 10
804.2554404145
 20
390.867357513
 30
0.0
 40
2.99999999999998
100
AcDbArc
 50
168.4630409672
 51
191.5369590328
  0
LINE
  5
233
330
1F
100
AcDbEntity
  8
0
  6
CONTINUOUS
 62
     7
100
AcDbLine
 10
801.1958922749
 20
391.532883605
 30
0.0
 11
801.3160552388
 21
391.4673557487
 31
0.0
  0
ARC
  5
234
330
1F
100
AcDbEntity
  8
0
  6
CONTINUOUS
 62
     7
100
AcDbCircle
 10
804.2433910268
 20
390.8674756834
 30
0.0
 40
3.119297412060323
100
AcDbArc
 50
16.6948198261
 51
167.6830272856
  0
LINE
  5
235
330
1F
100
AcDbEntity
  8
0
  6
CONTINUOUS
 62
     7
100
AcDbLine
 10
807.2642411595
 20
391.6448360291
 30
0.0
 11
807.2312052852
 21
391.7635684814
 31
0.0
  0
LINE
  5
236
330
1F
100
AcDbEntity
  8
0
  6
CONTINUOUS
 62
     7
100
AcDbLine
 10
807.1235145932
 20
391.4673557487
 30
0.0
 11
807.2642411595
 21
391.6448360291
 31
0.0
  0
ARC
  5
237
330
1F
100
AcDbEntity
  8
0
  6
CONTINUOUS
 62
     7
100
AcDbCircle
 10
804.2554404145
 20
390.867357513
 30
0.0
 40
2.930158461016446
100
AcDbArc
 50
11.8158646366
 51
348.1841353634
  0
LINE
  5
238
330
1F
100
AcDbEntity
  8
0
  6
CONTINUOUS
 62
     7
100
AcDbLine
 10
807.2642411595
 20
390.0898849573
 30
0.0
 11
807.1235145932
 21
390.2673577871
 31
0.0
  0
LINE
  5
239
330
1F
100
AcDbEntity
  8
0
  6
CONTINUOUS
 62
     7
100
AcDbLine
 10
807.2312052852
 20
389.9711450543
 30
0.0
 11
807.2642411595
 21
390.0898849573
 31
0.0
  0
ARC
  5
23A
330
1F
100
AcDbEntity
  8
0
  6
CONTINUOUS
 62
     7
100
AcDbCircle
 10
804.2433918212
 20
390.8672248604
 30
0.0
 40
3.119292918952234
100
AcDbArc
 50
194.5700671629
 51
343.3054045617
  0
LINE
  5
23B
330
1F
100
AcDbEntity
  8
0
  6
CONTINUOUS
 62
     7
100
AcDbLine
 10
801.1959071761
 20
390.2018373814
 30
0.0
 11
801.2244130975
 21
390.0825237837
 31
0.0
  0
LINE
  5
23C
330
1F
100
AcDbEntity
  8
0
  6
CONTINUOUS
 62
     7
100
AcDbLine
 10
801.3160552388
 20
390.2673577871
 30
0.0
 11
801.1959071761
 21
390.2018373814
 31
0.0
  0
LINE
  5
23D
330
1F
100
AcDbEntity
  8
0
  6
CONTINUOUS
 62
     7
100
AcDbLine
 10
807.2642411595
 20
241.6448300686
 30
0.0
 11
807.2312052852
 21
241.7635699716
 31
0.0
  0
LINE
  5
23E
330
1F
100
AcDbEntity
  8
0
  6
CONTINUOUS
 62
     7
100
AcDbLine
 10
807.1235145932
 20
241.4673572388
 30
0.0
 11
807.2642411595
 21
241.6448300686
 31
0.0
  0
ARC
  5
23F
330
1F
100
AcDbEntity
  8
0
  6
CONTINUOUS
 62
     7
100
AcDbCircle
 10
804.2554404145
 20
240.867357513
 30
0.0
 40
2.930158461016446
100
AcDbArc
 50
11.8158646366
 51
348.1841353634
  0
LINE
  5
240
330
1F
100
AcDbEntity
  8
0
  6
CONTINUOUS
 62
     7
100
AcDbLine
 10
807.2642411595
 20
240.0898789969
 30
0.0
 11
807.1235145932
 21
240.2673592773
 31
0.0
  0
LINE
  5
241
330
1F
100
AcDbEntity
  8
0
  6
CONTINUOUS
 62
     7
100
AcDbLine
 10
807.2312052852
 20
239.9711465445
 30
0.0
 11
807.2642411595
 21
240.0898789969
 31
0.0
  0
ARC
  5
242
330
1F
100
AcDbEntity
  8
0
  6
CONTINUOUS
 62
     7
100
AcDbCircle
 10
804.2433906104
 20
240.8672284488
 30
0.0
 40
3.119294681434458
100
AcDbArc
 50
192.3167788541
 51
343.3053740342
  0
LINE
  5
243
330
1F
100
AcDbEntity
  8
0
  6
CONTINUOUS
 62
     7
100
AcDbLine
 10
801.3160552388
 20
240.2673592773
 30
0.0
 11
801.1958922749
 21
240.2018314209
 31
0.0
  0
ARC
  5
244
330
1F
100
AcDbEntity
  8
0
  6
CONTINUOUS
 62
     7
100
AcDbCircle
 10
804.2554404145
 20
240.867357513
 30
0.0
 40
2.99999999999998
100
AcDbArc
 50
168.4630409672
 51
191.5369590328
  0
LINE
  5
245
330
1F
100
AcDbEntity
  8
0
  6
CONTINUOUS
 62
     7
100
AcDbLine
 10
801.1959071761
 20
241.5328776445
 30
0.0
 11
801.3160552388
 21
241.4673572388
 31
0.0
  0
LINE
  5
246
330
1F
100
AcDbEntity
  8
0
  6
CONTINUOUS
 62
     7
100
AcDbLine
 10
801.2244130975
 20
241.6521912422
 30
0.0
 11
801.1959071761
 21
241.5328776445
 31
0.0
  0
ARC
  5
247
330
1F
100
AcDbEntity
  8
0
  6
CONTINUOUS
 62
     7
100
AcDbCircle
 10
804.2433917743
 20
240.8674926932
 30
0.0
 40
3.119292237719293
100
AcDbArc
 50
16.6945507191
 51
165.4299775563
  0
LINE
  5
248
330
1F
100
AcDbEntity
  8
0
  6
CONTINUOUS
 62
     7
100
AcDbLine
 10
807.2642411595
 20
316.6448331652
 30
0.0
 11
807.2312052852
 21
316.7635689355
 31
0.0
  0
LINE
  5
249
330
1F
100
AcDbEntity
  8
0
  6
CONTINUOUS
 62
     7
100
AcDbLine
 10
807.1235145932
 20
316.4673575415
 30
0.0
 11
807.2642411595
 21
316.6448331652
 31
0.0
  0
ARC
  5
24A
330
1F
100
AcDbEntity
  8
0
  6
CONTINUOUS
 62
     7
100
AcDbCircle
 10
804.2554404145
 20
315.867357513
 30
0.0
 40
2.930158461016446
100
AcDbArc
 50
11.8158646366
 51
348.1841353634
  0
LINE
  5
24B
330
1F
100
AcDbEntity
  8
0
  6
CONTINUOUS
 62
     7
100
AcDbLine
 10
807.2642411595
 20
315.0898818607
 30
0.0
 11
807.1235145932
 21
315.2673574845
 31
0.0
  0
LINE
  5
24C
330
1F
100
AcDbEntity
  8
0
  6
CONTINUOUS
 62
     7
100
AcDbLine
 10
807.2312052852
 20
314.9711460904
 30
0.0
 11
807.2642411595
 21
315.0898818607
 31
0.0
  0
ARC
  5
24D
330
1F
100
AcDbEntity
  8
0
  6
CONTINUOUS
 62
     7
100
AcDbCircle
 10
804.2433920783
 20
315.8672274586
 30
0.0
 40
3.119293121438765
100
AcDbArc
 50
194.570062701
 51
343.3053757222
  0
LINE
  5
24E
330
1F
100
AcDbEntity
  8
0
  6
CONTINUOUS
 62
     7
100
AcDbLine
 10
801.1959071761
 20
315.2018399891
 30
0.0
 11
801.2244130975
 21
315.082526566
 31
0.0
  0
LINE
  5
24F
330
1F
100
AcDbEntity
  8
0
  6
CONTINUOUS
 62
     7
100
AcDbLine
 10
801.3160552388
 20
315.2673574845
 30
0.0
 11
801.1959071761
 21
315.2018399891
 31
0.0
  0
ARC
  5
250
330
1F
100
AcDbEntity
  8
0
  6
CONTINUOUS
 62
     7
100
AcDbCircle
 10
804.2554404145
 20
315.867357513
 30
0.0
 40
2.999999999999992
100
AcDbArc
 50
168.4630409672
 51
191.5369590328
  0
LINE
  5
251
330
1F
100
AcDbEntity
  8
0
  6
CONTINUOUS
 62
     7
100
AcDbLine
 10
801.1959071761
 20
316.5328750368
 30
0.0
 11
801.3160552388
 21
316.4673575415
 31
0.0
  0
LINE
  5
252
330
1F
100
AcDbEntity
  8
0
  6
CONTINUOUS
 62
     7
100
AcDbLine
 10
801.2244130975
 20
316.6521884599
 30
0.0
 11
801.1959071761
 21
316.5328750368
 31
0.0
  0
ARC
  5
253
330
1F
100
AcDbEntity
  8
0
  6
CONTINUOUS
 62
     7
100
AcDbCircle
 10
804.2433919472
 20
315.8674946341
 30
0.0
 40
3.119291216881534
100
AcDbArc
 50
16.6944992537
 51
165.4300623231
  0
LINE
  5
254
330
1F
100
AcDbEntity
  8
0
  6
CONTINUOUS
 62
     7
100
AcDbLine
 10
807.8816260701
 20
241.4673572388
 30
0.0
 11
807.1235145932
 21
241.4673572388
 31
0.0
  0
LINE
  5
255
330
1F
100
AcDbEntity
  8
0
  6
CONTINUOUS
 62
     7
100
AcDbLine
 10
807.1235145932
 20
240.2673592773
 30
0.0
 11
807.8816260701
 21
240.2673592773
 31
0.0
  0
CIRCLE
  5
256
330
1F
100
AcDbEntity
  8
0
  6
CONTINUOUS
 62
     7
100
AcDbCircle
 10
804.2554404145
 20
240.867357513
 30
0.0
 40
1.599999999999909
  0
LINE
  5
257
330
1F
100
AcDbEntity
  8
0
  6
CONTINUOUS
 62
     7
100
AcDbLine
 10
807.8816260701
 20
316.4673575415
 30
0.0
 11
807.1235145932
 21
316.4673575415
 31
0.0
  0
LINE
  5
258
330
1F
100
AcDbEntity
  8
0
  6
CONTINUOUS
 62
     7
100
AcDbLine
 10
807.1235145932
 20
315.2673574845
 30
0.0
 11
807.8816260701
 21
315.2673574845
 31
0.0
  0
CIRCLE
  5
259
330
1F
100
AcDbEntity
  8
0
  6
CONTINUOUS
 62
     7
100
AcDbCircle
 10
804.2554404145
 20
315.867357513
 30
0.0
 40
1.599999999999909
  0
LINE
  5
25A
330
1F
100
AcDbEntity
  8
0
  6
CONTINUOUS
 62
     7
100
AcDbLine
 10
807.8816260701
 20
391.4673557487
 30
0.0
 11
807.1235145932
 21
391.4673557487
 31
0.0
  0
LINE
  5
25B
330
1F
100
AcDbEntity
  8
0
  6
CONTINUOUS
 62
     7
100
AcDbLine
 10
807.1235145932
 20
390.2673577871
 30
0.0
 11
807.8816260701
 21
390.2673577871
 31
0.0
  0
CIRCLE
  5
25C
330
1F
100
AcDbEntity
  8
0
  6
CONTINUOUS
 62
     7
100
AcDbCircle
 10
804.2554404145
 20
390.867357513
 30
0.0
 40
1.600000000000023
  0
CIRCLE
  5
25D
330
1F
100
AcDbEntity
  8
0
  6
CONTINUOUS
 62
     7
100
AcDbCircle
 10
804.2554404145
 20
315.867357513
 30
0.0
 40
1.547592220716979
  0
CIRCLE
  5
25E
330
1F
100
AcDbEntity
  8
0
  6
CONTINUOUS
 62
     7
100
AcDbCircle
 10
804.2554404145
 20
390.867357513
 30
0.0
 40
1.547592220716979
  0
CIRCLE
  5
25F
330
1F
100
AcDbEntity
  8
0
  6
CONTINUOUS
 62
     7
100
AcDbCircle
 10
804.2554404145
 20
240.867357513
 30
0.0
 40
1.547592220716979
  0
ELLIPSE
  5
260
330
1F
100
AcDbEntity
  8
0
  6
CONTINUOUS
 62
     7
100
AcDbEllipse
 10
807.1638275366
 20
316.6241762205
 30
0.0
 11
0.5999999999999089
 21
0.0
 31
0.0
210
0.0
220
0.0
230
1.0
 40
0.0349207695
 41
0.0261799387847838
 42
1.402637999696367
  0
ELLIPSE
  5
261
330
1F
100
AcDbEntity
  8
0
  6
CONTINUOUS
 62
     7
100
AcDbEllipse
 10
807.1638275366
 20
315.1105388054
 30
0.0
 11
0.5999999999999089
 21
0.0
 31
0.0
210
0.0
220
0.0
230
1.0
 40
0.0349207695
 41
4.880547307482783
 42
6.257005368397834
  0
ELLIPSE
  5
262
330
1F
100
AcDbEntity
  8
0
  6
CONTINUOUS
 62
     7
100
AcDbEllipse
 10
807.1638275366
 20
241.6241762205
 30
0.0
 11
0.5999999999999089
 21
0.0
 31
0.0
210
0.0
220
0.0
230
1.0
 40
0.0349207695
 41
0.0261799387834988
 42
1.402637999696815
  0
ELLIPSE
  5
263
330
1F
100
AcDbEntity
  8
0
  6
CONTINUOUS
 62
     7
100
AcDbEllipse
 10
807.1638275366
 20
391.6241762205
 30
0.0
 11
0.5999999999999089
 21
0.0
 31
0.0
210
0.0
220
0.0
230
1.0
 40
0.0349207695
 41
0.0261799387795017
 42
1.402637999696354
  0
ELLIPSE
  5
264
330
1F
100
AcDbEntity
  8
0
  6
CONTINUOUS
 62
     7
100
AcDbEllipse
 10
807.1638275366
 20
240.1105388054
 30
0.0
 11
0.5999999999999089
 21
0.0
 31
0.0
210
0.0
220
0.0
230
1.0
 40
0.0349207695
 41
4.880547307483237
 42
6.257005368400554
  0
ELLIPSE
  5
265
330
1F
100
AcDbEntity
  8
0
  6
CONTINUOUS
 62
     7
100
AcDbEllipse
 10
807.1638275366
 20
390.1105388054
 30
0.0
 11
0.5999999999999089
 21
0.0
 31
0.0
210
0.0
220
0.0
230
1.0
 40
0.0349207695
 41
4.880547307482789
 42
6.257005368400483
  0
LINE
  5
266
330
1F
100
AcDbEntity
  8
0
  6
CONTINUOUS
 62
     7
100
AcDbLine
 10
814.7554423219
 20
410.8787706103
 30
0.0
 11
814.7554423219
 21
220.8559444156
 31
0.0
  0
ELLIPSE
  5
267
330
1F
100
AcDbEntity
  8
0
  6
CONTINUOUS
 62
     7
100
AcDbEllipse
 10
811.7439809019
 20
410.8558980003
 30
0.0
 11
2.137495823670633
 21
2.137495823670747
 31
0.0
210
0.0
220
0.0
230
1.0
 40
0.9924325091
 41
5.501585242055411
 42
7.06478537230374
  0
ELLIPSE
  5
268
330
1F
100
AcDbEntity
  8
0
  6
CONTINUOUS
 62
     7
100
AcDbEllipse
 10
811.7439809019
 20
220.8788170256
 30
0.0
 11
2.137495823670747
 21
-2.137495823670747
 31
0.0
210
0.0
220
0.0
230
0.9999999999999998
 40
0.9924325091
 41
5.501585242055446
 42
7.064785372303749
  0
LINE
  5
269
330
1F
100
AcDbEntity
  8
0
  6
CONTINUOUS
 62
     7
100
AcDbLine
 10
521.7440302974
 20
413.86735495
 30
0.0
 11
811.7668505317
 21
413.86735495
 31
0.0
  0
LINE
  5
26A
330
1F
100
AcDbEntity
  8
0
  6
CONTINUOUS
 62
     7
100
AcDbLine
 10
811.7668505317
 20
217.867360076
 30
0.0
 11
521.7440302974
 21
217.867360076
 31
0.0
  0
ELLIPSE
  5
26B
330
1F
100
AcDbEntity
  8
0
  6
CONTINUOUS
 62
     7
100
AcDbEllipse
 10
521.7668999271
 20
220.8788170256
 30
0.0
 11
-2.13749582367086
 21
-2.137495823670747
 31
0.0
210
0.0
220
0.0
230
0.9999999999999998
 40
0.9924325091
 41
5.50158524205545
 42
7.064785372303779
  0
ELLIPSE
  5
26C
330
1F
100
AcDbEntity
  8
0
  6
CONTINUOUS
 62
     7
100
AcDbEllipse
 10
521.7668999271
 20
410.8558980003
 30
0.0
 11
-2.137495823670747
 21
2.137495823670747
 31
0.0
210
0.0
220
0.0
230
0.9999999999999998
 40
0.9924325091
 41
5.501585242055399
 42
7.064785372303769
  0
LINE
  5
26D
330
1F
100
AcDbEntity
  8
0
  6
CONTINUOUS
 62
     7
100
AcDbLine
 10
518.7554385072
 20
220.8559444156
 30
0.0
 11
518.7554385072
 21
410.8787706103
 31
0.0
  0
CIRCLE
  5
26E
330
1F
100
AcDbEntity
  8
0
  6
CONTINUOUS
 62
     7
100
AcDbCircle
 10
529.2554404145
 20
390.867357513
 30
0.0
 40
1.18254493507186
  0
CIRCLE
  5
26F
330
1F
100
AcDbEntity
  8
0
  6
CONTINUOUS
 62
     7
100
AcDbCircle
 10
529.2554404145
 20
240.867357513
 30
0.0
 40
1.182544935071746
  0
CIRCLE
  5
270
330
1F
100
AcDbEntity
  8
0
  6
CONTINUOUS
 62
     7
100
AcDbCircle
 10
529.2554404145
 20
315.867357513
 30
0.0
 40
1.182544935071746
  0
CIRCLE
  5
271
330
1F
100
AcDbEntity
  8
0
  6
CONTINUOUS
 62
     7
100
AcDbCircle
 10
529.2554404145
 20
315.867357513
 30
0.0
 40
1.074323532516814
  0
CIRCLE
  5
272
330
1F
100
AcDbEntity
  8
0
  6
CONTINUOUS
 62
     7
100
AcDbCircle
 10
529.2554404145
 20
240.867357513
 30
0.0
 40
1.074323532516814
  0
CIRCLE
  5
273
330
1F
100
AcDbEntity
  8
0
  6
CONTINUOUS
 62
     7
100
AcDbCircle
 10
529.2554404145
 20
390.867357513
 30
0.0
 40
1.074323532516928
  0
CIRCLE
  5
274
330
1F
100
AcDbEntity
  8
0
  6
CONTINUOUS
 62
     7
100
AcDbCircle
 10
804.2554404145
 20
315.867357513
 30
0.0
 40
1.182544935071746
  0
CIRCLE
  5
275
330
1F
100
AcDbEntity
  8
0
  6
CONTINUOUS
 62
     7
100
AcDbCircle
 10
804.2554404145
 20
240.867357513
 30
0.0
 40
1.182544935071746
  0
CIRCLE
  5
276
330
1F
100
AcDbEntity
  8
0
  6
CONTINUOUS
 62
     7
100
AcDbCircle
 10
804.2554404145
 20
390.867357513
 30
0.0
 40
1.18254493507186
  0
CIRCLE
  5
277
330
1F
100
AcDbEntity
  8
0
  6
CONTINUOUS
 62
     7
100
AcDbCircle
 10
804.2554404145
 20
240.867357513
 30
0.0
 40
1.074323532516814
  0
CIRCLE
  5
278
330
1F
100
AcDbEntity
  8
0
  6
CONTINUOUS
 62
     7
100
AcDbCircle
 10
804.2554404145
 20
390.867357513
 30
0.0
 40
1.074323532516928
  0
CIRCLE
  5
279
330
1F
100
AcDbEntity
  8
0
  6
CONTINUOUS
 62
     7
100
AcDbCircle
 10
804.2554404145
 20
315.867357513
 30
0.0
 40
1.074323532516814
  0
LINE
  5
27A
330
1F
100
AcDbEntity
  8
0
  6
CONTINUOUS
 62
     7
100
AcDbLine
 10
801.3160552388
 20
391.4673557487
 30
0.0
 11
800.2816315299
 21
391.4673557487
 31
0.0
  0
LINE
  5
27B
330
1F
100
AcDbEntity
  8
0
  6
CONTINUOUS
 62
     7
100
AcDbLine
 10
800.2816315299
 20
390.2673577871
 30
0.0
 11
801.3160552388
 21
390.2673577871
 31
0.0
  0
LINE
  5
27C
330
1F
100
AcDbEntity
  8
0
  6
CONTINUOUS
 62
     7
100
AcDbLine
 10
800.2816315299
 20
390.2673577871
 30
0.0
 11
800.2816315299
 21
316.4673575415
 31
0.0
  0
LINE
  5
27D
330
1F
100
AcDbEntity
  8
0
  6
CONTINUOUS
 62
     7
100
AcDbLine
 10
801.3160552388
 20
316.4673575415
 30
0.0
 11
800.2816315299
 21
316.4673575415
 31
0.0
  0
LINE
  5
27E
330
1F
100
AcDbEntity
  8
0
  6
CONTINUOUS
 62
     7
100
AcDbLine
 10
800.2816315299
 20
315.2673574845
 30
0.0
 11
801.3160552388
 21
315.2673574845
 31
0.0
  0
LINE
  5
27F
330
1F
100
AcDbEntity
  8
0
  6
CONTINUOUS
 62
     7
100
AcDbLine
 10
800.2816315299
 20
315.2673574845
 30
0.0
 11
800.2816315299
 21
241.4673572388
 31
0.0
  0
LINE
  5
280
330
1F
100
AcDbEntity
  8
0
  6
CONTINUOUS
 62
     7
100
AcDbLine
 10
801.3160552388
 20
241.4673572388
 30
0.0
 11
800.2816315299
 21
241.4673572388
 31
0.0
  0
LINE
  5
281
330
1F
100
AcDbEntity
  8
0
  6
CONTINUOUS
 62
     7
100
AcDbLine
 10
800.2816315299
 20
240.2673592773
 30
0.0
 11
801.3160552388
 21
240.2673592773
 31
0.0
  0
LINE
  5
282
330
1F
100
AcDbEntity
  8
0
  6
CONTINUOUS
 62
     7
100
AcDbLine
 10
800.2816315299
 20
240.2673592773
 30
0.0
 11
800.2816315299
 21
232.1353038754
 31
0.0
  0
LINE
  5
283
330
1F
100
AcDbEntity
  8
0
  6
CONTINUOUS
 62
     7
100
AcDbLine
 10
533.2292492991
 20
232.1353038754
 30
0.0
 11
533.2292492991
 21
240.2673592773
 31
0.0
  0
LINE
  5
284
330
1F
100
AcDbEntity
  8
0
  6
CONTINUOUS
 62
     7
100
AcDbLine
 10
532.1948255902
 20
240.2673592773
 30
0.0
 11
533.2292492991
 21
240.2673592773
 31
0.0
  0
LINE
  5
285
330
1F
100
AcDbEntity
  8
0
  6
CONTINUOUS
 62
     7
100
AcDbLine
 10
533.2292492991
 20
241.4673572388
 30
0.0
 11
532.1948255902
 21
241.4673572388
 31
0.0
  0
LINE
  5
286
330
1F
100
AcDbEntity
  8
0
  6
CONTINUOUS
 62
     7
100
AcDbLine
 10
533.2292492991
 20
241.4673572388
 30
0.0
 11
533.2292492991
 21
315.2673574845
 31
0.0
  0
LINE
  5
287
330
1F
100
AcDbEntity
  8
0
  6
CONTINUOUS
 62
     7
100
AcDbLine
 10
532.1948255902
 20
315.2673574845
 30
0.0
 11
533.2292492991
 21
315.2673574845
 31
0.0
  0
LINE
  5
288
330
1F
100
AcDbEntity
  8
0
  6
CONTINUOUS
 62
     7
100
AcDbLine
 10
533.2292492991
 20
316.4673575415
 30
0.0
 11
532.1948255902
 21
316.4673575415
 31
0.0
  0
LINE
  5
289
330
1F
100
AcDbEntity
  8
0
  6
CONTINUOUS
 62
     7
100
AcDbLine
 10
533.2292492991
 20
316.4673575415
 30
0.0
 11
533.2292492991
 21
390.2673577871
 31
0.0
  0
LINE
  5
28A
330
1F
100
AcDbEntity
  8
0
  6
CONTINUOUS
 62
     7
100
AcDbLine
 10
532.1948255902
 20
390.2673577871
 30
0.0
 11
533.2292492991
 21
390.2673577871
 31
0.0
  0
LINE
  5
28B
330
1F
100
AcDbEntity
  8
0
  6
CONTINUOUS
 62
     7
100
AcDbLine
 10
533.2292492991
 20
391.4673557487
 30
0.0
 11
532.1948255902
 21
391.4673557487
 31
0.0
  0
LINE
  5
28C
330
1F
100
AcDbEntity
  8
0
  6
CONTINUOUS
 62
     7
100
AcDbLine
 10
533.2292492991
 20
391.4673557487
 30
0.0
 11
533.2292492991
 21
399.5994111505
 31
0.0
  0
LINE
  5
28D
330
1F
100
AcDbEntity
  8
0
  6
CONTINUOUS
 62
     7
100
AcDbLine
 10
800.2816315299
 20
399.5994111505
 30
0.0
 11
800.2816315299
 21
391.4673557487
 31
0.0
  0
ELLIPSE
  5
28E
330
1F
100
AcDbEntity
  8
0
  6
CONTINUOUS
 62
     7
100
AcDbEllipse
 10
532.3509727827
 20
316.5224208757
 30
0.0
 11
0.6000000000000227
 21
0.0
 31
0.0
210
0.0
220
0.0
230
1.0
 40
0.0174550649
 41
0.0872664625986126
 42
1.630838189171342
  0
LINE
  5
28F
330
1F
100
AcDbEntity
  8
0
  6
CONTINUOUS
 62
     7
100
AcDbLine
 10
533.2292492991
 20
316.4673575415
 30
0.0
 11
532.9486902362
 21
316.5233336371
 31
0.0
  0
ELLIPSE
  5
290
330
1F
100
AcDbEntity
  8
0
  6
CONTINUOUS
 62
     7
100
AcDbEllipse
 10
532.3509727827
 20
391.5224208757
 30
0.0
 11
0.6000000000000227
 21
0.0
 31
0.0
210
0.0
220
0.0
230
1.0
 40
0.0174550649
 41
0.0872664625986291
 42
1.630838189171153
  0
LINE
  5
291
330
1F
100
AcDbEntity
  8
0
  6
CONTINUOUS
 62
     7
100
AcDbLine
 10
533.2292492991
 20
391.4673557487
 30
0.0
 11
532.9486902362
 21
391.5233319607
 31
0.0
  0
LINE
  5
292
330
1F
100
AcDbEntity
  8
0
  6
CONTINUOUS
 62
     7
100
AcDbLine
 10
532.9486902362
 20
390.2113815751
 30
0.0
 11
533.2292492991
 21
390.2673577871
 31
0.0
  0
ELLIPSE
  5
293
330
1F
100
AcDbEntity
  8
0
  6
CONTINUOUS
 62
     7
100
AcDbEllipse
 10
532.3509727827
 20
390.2122941502
 30
0.0
 11
0.6000000000000227
 21
0.0
 31
0.0
210
0.0
220
0.0
230
1.0
 40
0.0174550649
 41
4.652347118005158
 42
6.19591884457635
  0
LINE
  5
294
330
1F
100
AcDbEntity
  8
0
  6
CONTINUOUS
 62
     7
100
AcDbLine
 10
532.9486902362
 20
315.2113813888
 30
0.0
 11
533.2292492991
 21
315.2673574845
 31
0.0
  0
ELLIPSE
  5
295
330
1F
100
AcDbEntity
  8
0
  6
CONTINUOUS
 62
     7
100
AcDbEllipse
 10
532.3509727827
 20
315.2122941502
 30
0.0
 11
0.6000000000000227
 21
0.0
 31
0.0
210
0.0
220
0.0
230
1.0
 40
0.0174550649
 41
4.652347118004508
 42
6.195918844587628
  0
LINE
  5
296
330
1F
100
AcDbEntity
  8
0
  6
CONTINUOUS
 62
     7
100
AcDbLine
 10
532.9486902362
 20
240.2113830652
 30
0.0
 11
533.2292492991
 21
240.2673592773
 31
0.0
  0
ELLIPSE
  5
297
330
1F
100
AcDbEntity
  8
0
  6
CONTINUOUS
 62
     7
100
AcDbEllipse
 10
532.3509727827
 20
240.2122941502
 30
0.0
 11
0.6000000000000227
 21
0.0
 31
0.0
210
0.0
220
0.0
230
1.0
 40
0.0174550649
 41
4.652347118004696
 42
6.195918844584716
  0
ELLIPSE
  5
298
330
1F
100
AcDbEntity
  8
0
  6
CONTINUOUS
 62
     7
100
AcDbEllipse
 10
532.3509727827
 20
241.5224208757
 30
0.0
 11
0.6000000000000227
 21
0.0
 31
0.0
210
0.0
220
0.0
230
1.0
 40
0.0174550649
 41
0.0872664626013161
 42
1.630838189171342
  0
LINE
  5
299
330
1F
100
AcDbEntity
  8
0
  6
CONTINUOUS
 62
     7
100
AcDbLine
 10
533.2292492991
 20
241.4673572388
 30
0.0
 11
532.9486902362
 21
241.5233334508
 31
0.0
  0
LINE
  5
29A
330
1F
100
AcDbEntity
  8
0
  6
CONTINUOUS
 62
     7
100
AcDbLine
 10
532.9486902362
 20
399.2109974828
 30
0.0
 11
532.9486902362
 21
391.5233319607
 31
0.0
  0
LINE
  5
29B
330
1F
100
AcDbEntity
  8
0
  6
CONTINUOUS
 62
     7
100
AcDbLine
 10
532.9486902362
 20
390.2113815751
 30
0.0
 11
532.9486902362
 21
316.5233336371
 31
0.0
  0
LINE
  5
29C
330
1F
100
AcDbEntity
  8
0
  6
CONTINUOUS
 62
     7
100
AcDbLine
 10
532.9486902362
 20
315.2113813888
 30
0.0
 11
532.9486902362
 21
241.5233334508
 31
0.0
  0
LINE
  5
29D
330
1F
100
AcDbEntity
  8
0
  6
CONTINUOUS
 62
     7
100
AcDbLine
 10
532.9486902362
 20
240.2113830652
 30
0.0
 11
532.9486902362
 21
232.5237175431
 31
0.0
  0
LINE
  5
29E
330
1F
100
AcDbEntity
  8
0
  6
CONTINUOUS
 62
     7
100
AcDbLine
 10
800.2816315299
 20
390.2673577871
 30
0.0
 11
800.5621905928
 21
390.2113815751
 31
0.0
  0
LINE
  5
29F
330
1F
100
AcDbEntity
  8
0
  6
CONTINUOUS
 62
     7
100
AcDbLine
 10
800.5621905928
 20
316.5233336371
 30
0.0
 11
800.5621905928
 21
390.2113815751
 31
0.0
  0
LINE
  5
2A0
330
1F
100
AcDbEntity
  8
0
  6
CONTINUOUS
 62
     7
100
AcDbLine
 10
800.5621905928
 20
316.5233336371
 30
0.0
 11
800.2816315299
 21
316.4673575415
 31
0.0
  0
ELLIPSE
  5
2A1
330
1F
100
AcDbEntity
  8
0
  6
CONTINUOUS
 62
     7
100
AcDbEllipse
 10
801.1599080463
 20
316.5224208757
 30
0.0
 11
0.5999999999999089
 21
0.0
 31
0.0
210
0.0
220
0.0
230
1.0
 40
0.0174550649
 41
1.51075446441554
 42
3.054326190991201
  0
LINE
  5
2A2
330
1F
100
AcDbEntity
  8
0
  6
CONTINUOUS
 62
     7
100
AcDbLine
 10
800.6155516511
 20
391.5339788404
 30
0.0
 11
800.6155516511
 21
399.1430854406
 31
0.0
  0
LINE
  5
2A3
330
1F
100
AcDbEntity
  8
0
  6
CONTINUOUS
 62
     7
100
AcDbLine
 10
800.6155516511
 20
391.5339788404
 30
0.0
 11
800.2816315299
 21
391.4673557487
 31
0.0
  0
ELLIPSE
  5
2A4
330
1F
100
AcDbEntity
  8
0
  6
CONTINUOUS
 62
     7
100
AcDbEllipse
 10
666.7554404145
 20
369.8258407827
 30
0.0
 11
1250.841663108286
 21
0.0
 31
0.0
210
0.0
220
0.0
230
1.0
 40
0.0174550649
 41
1.463108319977219
 42
1.463574969289277
  0
ELLIPSE
  5
2A5
330
1F
100
AcDbEntity
  8
0
  6
CONTINUOUS
 62
     7
100
AcDbEllipse
 10
801.1599080463
 20
315.2122941502
 30
0.0
 11
0.5999999999999089
 21
0.0
 31
0.0
210
0.0
220
0.0
230
1.0
 40
0.0174550649
 41
3.228859116183305
 42
4.772430842761611
  0
LINE
  5
2A6
330
1F
100
AcDbEntity
  8
0
  6
CONTINUOUS
 62
     7
100
AcDbLine
 10
800.2816315299
 20
315.2673574845
 30
0.0
 11
800.5621905928
 21
315.2113813888
 31
0.0
  0
LINE
  5
2A7
330
1F
100
AcDbEntity
  8
0
  6
CONTINUOUS
 62
     7
100
AcDbLine
 10
800.5621905928
 20
241.5233334508
 30
0.0
 11
800.5621905928
 21
315.2113813888
 31
0.0
  0
LINE
  5
2A8
330
1F
100
AcDbEntity
  8
0
  6
CONTINUOUS
 62
     7
100
AcDbLine
 10
800.5621905928
 20
241.5233334508
 30
0.0
 11
800.2816315299
 21
241.4673572388
 31
0.0
  0
ELLIPSE
  5
2A9
330
1F
100
AcDbEntity
  8
0
  6
CONTINUOUS
 62
     7
100
AcDbEllipse
 10
801.1599080463
 20
241.5224208757
 30
0.0
 11
0.5999999999999089
 21
0.0
 31
0.0
210
0.0
220
0.0
230
1.0
 40
0.0174550649
 41
1.51075446441554
 42
3.054326190988499
  0
ELLIPSE
  5
2AA
330
1F
100
AcDbEntity
  8
0
  6
CONTINUOUS
 62
     7
100
AcDbEllipse
 10
666.7554404145
 20
261.9088742432
 30
0.0
 11
1250.841663108286
 21
0.0
 31
0.0
210
0.0
220
0.0
230
1.0
 40
0.0174550649
 41
4.819610337890319
 42
4.820076987202377
  0
LINE
  5
2AB
330
1F
100
AcDbEntity
  8
0
  6
CONTINUOUS
 62
     7
100
AcDbLine
 10
800.2816315299
 20
240.2673592773
 30
0.0
 11
800.6155516511
 21
240.2007361856
 31
0.0
  0
ELLIPSE
  5
2AC
330
1F
100
AcDbEntity
  8
0
  6
CONTINUOUS
 62
     7
100
AcDbEllipse
 10
801.1599080463
 20
390.2122941502
 30
0.0
 11
0.5999999999999089
 21
0.0
 31
0.0
210
0.0
220
0.0
230
1.0
 40
0.0174550649
 41
3.228859116194582
 42
4.77243084276096
  0
LINE
  5
2AD
330
1F
100
AcDbEntity
  8
0
  6
CONTINUOUS
 62
     7
100
AcDbLine
 10
800.6155516511
 20
232.5916295853
 30
0.0
 11
800.6155516511
 21
240.2007361856
 31
0.0
  0
LINE
  5
2AE
330
1F
100
AcDbEntity
  8
0
  6
CONTINUOUS
 62
     7
100
AcDbLine
 10
807.2312052852
 20
391.7635684814
 30
0.0
 11
807.2312052852
 21
398.674250206
 31
0.0
  0
LINE
  5
2AF
330
1F
100
AcDbEntity
  8
0
  6
CONTINUOUS
 62
     7
100
AcDbLine
 10
807.2312052852
 20
233.0604648199
 30
0.0
 11
807.2312052852
 21
239.9711465445
 31
0.0
  0
LINE
  5
2B0
330
1F
100
AcDbEntity
  8
0
  6
CONTINUOUS
 62
     7
100
AcDbLine
 10
526.2796755439
 20
389.9711450543
 30
0.0
 11
526.2796755439
 21
316.7635689355
 31
0.0
  0
LINE
  5
2B1
330
1F
100
AcDbEntity
  8
0
  6
CONTINUOUS
 62
     7
100
AcDbLine
 10
526.2796755439
 20
314.9711460904
 30
0.0
 11
526.2796755439
 21
241.7635699716
 31
0.0
  0
LINE
  5
2B2
330
1F
100
AcDbEntity
  8
0
  6
CONTINUOUS
 62
     7
100
AcDbLine
 10
807.2312052852
 20
241.7635699716
 30
0.0
 11
807.2312052852
 21
314.9711460904
 31
0.0
  0
LINE
  5
2B3
330
1F
100
AcDbEntity
  8
0
  6
CONTINUOUS
 62
     7
100
AcDbLine
 10
807.2312052852
 20
316.7635689355
 30
0.0
 11
807.2312052852
 21
389.9711450543
 31
0.0
  0
LINE
  5
2B4
330
1F
100
AcDbEntity
  8
0
  6
CONTINUOUS
 62
     7
100
AcDbLine
 10
532.2864677316
 20
233.0457052197
 30
0.0
 11
532.2864677316
 21
240.0825252738
 31
0.0
  0
LINE
  5
2B5
330
1F
100
AcDbEntity
  8
0
  6
CONTINUOUS
 62
     7
100
AcDbLine
 10
532.2864677316
 20
391.6521897521
 30
0.0
 11
532.2864677316
 21
398.6890098062
 31
0.0
  0
LINE
  5
2B6
330
1F
100
AcDbEntity
  8
0
  6
CONTINUOUS
 62
     7
100
AcDbLine
 10
801.2244130975
 20
390.0825237837
 30
0.0
 11
801.2244130975
 21
316.6521884599
 31
0.0
  0
LINE
  5
2B7
330
1F
100
AcDbEntity
  8
0
  6
CONTINUOUS
 62
     7
100
AcDbLine
 10
801.2244130975
 20
315.082526566
 30
0.0
 11
801.2244130975
 21
241.6521912422
 31
0.0
  0
LINE
  5
2B8
330
1F
100
AcDbEntity
  8
0
  6
CONTINUOUS
 62
     7
100
AcDbLine
 10
532.2864677316
 20
316.6521884599
 30
0.0
 11
532.2864677316
 21
390.0825237837
 31
0.0
  0
LINE
  5
2B9
330
1F
100
AcDbEntity
  8
0
  6
CONTINUOUS
 62
     7
100
AcDbLine
 10
532.2864677316
 20
241.6521912422
 30
0.0
 11
532.2864677316
 21
315.082526566
 31
0.0
  0
ENDSEC
  0
SECTION
  2
OBJECTS
  0
DICTIONARY
  5
C
330
0
100
AcDbDictionary
  3
ACAD_GROUP
350
D
  3
ACAD_MLINESTYLE
350
17
  0
DICTIONARY
  5
D
102
{ACAD_REACTORS
330
C
102
}
330
C
100
AcDbDictionary
  0
DICTIONARY
  5
17
102
{ACAD_REACTORS
330
C
102
}
330
C
100
AcDbDictionary
  3
STANDARD
350
18
  0
MLINESTYLE
  5
18
102
{ACAD_REACTORS
330
17
102
}
330
17
100
AcDbMlineStyle
  2
Standard
 70
     0
  3

 62
   256
 51
90.0
 52
90.0
 71
     2
 49
0.5
 62
   256
  6
BYLAYER
 49
-0.5
 62
   256
  6
BYLAYER
  0
ENDSEC
  0
EOF
