  0
SECTION
  2
HEADER
  9
$ACADVER
  1
AC1014
  9
$ACADMAINTVER
 70
     9
  9
$DWGCODEPAGE
  3
ANSI_1252
  9
$INSBASE
 10
0.0
 20
0.0
 30
0.0
  9
$EXTMIN
 10
0.0
 20
0.0
 30
0.0
  9
$EXTMAX
 10
840.0
 20
594.0
 30
0.0
  9
$LIMMIN
 10
0.0
 20
0.0
  9
$LIMMAX
 10
840.0
 20
594.0
  9
$ORTHOMODE
 70
     0
  9
$REGENMODE
 70
     1
  9
$FILLMODE
 70
     1
  9
$QTEXTMODE
 70
     0
  9
$MIRRTEXT
 70
     1
  9
$DRAGMODE
 70
     2
  9
$LTSCALE
 40
2.0
  9
$OSMODE
 70
    37
  9
$ATTMODE
 70
     1
  9
$TEXTSIZE
 40
7.0
  9
$TRACEWID
 40
1.0
  9
$TEXTSTYLE
  7
STANDARD
  9
$CLAYER
  8
0
  9
$CELTYPE
  6
BYLAYER
  9
$CECOLOR
 62
   256
  9
$CELTSCALE
 40
1.0
  9
$DELOBJ
 70
     1
  9
$DISPSILH
 70
     0
  9
$DIMSCALE
 40
1.0
  9
$DIMASZ
 40
12.0
  9
$DIMEXO
 40
2.0
  9
$DIMDLI
 40
3.75
  9
$DIMRND
 40
0.0
  9
$DIMDLE
 40
0.0
  9
$DIMEXE
 40
2.0
  9
$DIMTP
 40
0.0
  9
$DIMTM
 40
0.0
  9
$DIMTXT
 40
7.0
  9
$DIMCEN
 40
2.5
  9
$DIMTSZ
 40
0.0
  9
$DIMTOL
 70
     0
  9
$DIMLIM
 70
     0
  9
$DIMTIH
 70
     1
  9
$DIMTOH
 70
     1
  9
$DIMSE1
 70
     0
  9
$DIMSE2
 70
     0
  9
$DIMTAD
 70
     1
  9
$DIMZIN
 70
     0
  9
$DIMBLK
  1

  9
$DIMASO
 70
     1
  9
$DIMSHO
 70
     1
  9
$DIMPOST
  1

  9
$DIMAPOST
  1

  9
$DIMALT
 70
     0
  9
$DIMALTD
 70
     3
  9
$DIMALTF
 40
0.0393700787
  9
$DIMLFAC
 40
1.0
  9
$DIMTOFL
 70
     1
  9
$DIMTVP
 40
0.0
  9
$DIMTIX
 70
     0
  9
$DIMSOXD
 70
     0
  9
$DIMSAH
 70
     0
  9
$DIMBLK1
  1

  9
$DIMBLK2
  1

  9
$DIMSTYLE
  2
ISO-25
  9
$DIMCLRD
 70
     0
  9
$DIMCLRE
 70
     0
  9
$DIMCLRT
 70
     0
  9
$DIMTFAC
 40
1.0
  9
$DIMGAP
 40
3.048
  9
$DIMJUST
 70
     0
  9
$DIMSD1
 70
     0
  9
$DIMSD2
 70
     0
  9
$DIMTOLJ
 70
     0
  9
$DIMTZIN
 70
     0
  9
$DIMALTZ
 70
     0
  9
$DIMALTTZ
 70
     0
  9
$DIMFIT
 70
     3
  9
$DIMUPT
 70
     0
  9
$DIMUNIT
 70
     2
  9
$DIMDEC
 70
     2
  9
$DIMTDEC
 70
     2
  9
$DIMALTU
 70
     2
  9
$DIMALTTD
 70
     3
  9
$DIMTXSTY
  7
STANDARD
  9
$DIMAUNIT
 70
     0
  9
$LUNITS
 70
     2
  9
$LUPREC
 70
     2
  9
$SKETCHINC
 40
1.0
  9
$FILLETRAD
 40
10.0
  9
$AUNITS
 70
     0
  9
$AUPREC
 70
     2
  9
$MENU
  1
.
  9
$ELEVATION
 40
0.0
  9
$PELEVATION
 40
0.0
  9
$THICKNESS
 40
0.0
  9
$LIMCHECK
 70
     0
  9
$CHAMFERA
 40
10.0
  9
$CHAMFERB
 40
10.0
  9
$CHAMFERC
 40
20.0
  9
$CHAMFERD
 40
0.0
  9
$SKPOLY
 70
     0
  9
$TDCREATE
 40
2455643.602022673
  9
$TDUPDATE
 40
2455643.602022685
  9
$TDINDWG
 40
0.0000000116
  9
$TDUSRTIMER
 40
0.0000000116
  9
$USRTIMER
 70
     1
  9
$ANGBASE
 50
0.0
  9
$ANGDIR
 70
     0
  9
$PDMODE
 70
     0
  9
$PDSIZE
 40
-1.0
  9
$PLINEWID
 40
0.0
  9
$COORDS
 70
     1
  9
$SPLFRAME
 70
     0
  9
$SPLINETYPE
 70
     6
  9
$SPLINESEGS
 70
     8
  9
$ATTDIA
 70
     0
  9
$ATTREQ
 70
     1
  9
$HANDLING
 70
     1
  9
$HANDSEED
  5
17A
  9
$SURFTAB1
 70
     6
  9
$SURFTAB2
 70
     6
  9
$SURFTYPE
 70
     6
  9
$SURFU
 70
     6
  9
$SURFV
 70
     6
  9
$UCSNAME
  2

  9
$UCSORG
 10
0.0
 20
0.0
 30
0.0
  9
$UCSXDIR
 10
1.0
 20
0.0
 30
0.0
  9
$UCSYDIR
 10
0.0
 20
1.0
 30
0.0
  9
$PUCSNAME
  2

  9
$PUCSORG
 10
0.0
 20
0.0
 30
0.0
  9
$PUCSXDIR
 10
1.0
 20
0.0
 30
0.0
  9
$PUCSYDIR
 10
0.0
 20
1.0
 30
0.0
  9
$USERI1
 70
     0
  9
$USERI2
 70
     0
  9
$USERI3
 70
     0
  9
$USERI4
 70
     0
  9
$USERI5
 70
     0
  9
$USERR1
 40
0.0
  9
$USERR2
 40
0.0
  9
$USERR3
 40
0.0
  9
$USERR4
 40
0.0
  9
$USERR5
 40
0.0
  9
$WORLDVIEW
 70
     1
  9
$SHADEDGE
 70
     3
  9
$SHADEDIF
 70
    70
  9
$TILEMODE
 70
     1
  9
$MAXACTVP
 70
    64
  9
$PINSBASE
 10
0.0
 20
0.0
 30
0.0
  9
$PLIMCHECK
 70
     0
  9
$PEXTMIN
 10
1.0000000000E+20
 20
1.0000000000E+20
 30
1.0000000000E+20
  9
$PEXTMAX
 10
-1.0000000000E+20
 20
-1.0000000000E+20
 30
-1.0000000000E+20
  9
$PLIMMIN
 10
0.0
 20
0.0
  9
$PLIMMAX
 10
420.0
 20
297.0
  9
$UNITMODE
 70
     0
  9
$VISRETAIN
 70
     1
  9
$PLINEGEN
 70
     0
  9
$PSLTSCALE
 70
     1
  9
$TREEDEPTH
 70
  3020
  9
$PICKSTYLE
 70
     1
  9
$CMLSTYLE
  2
STANDARD
  9
$CMLJUST
 70
     0
  9
$CMLSCALE
 40
20.0
  9
$PROXYGRAPHICS
 70
     1
  9
$MEASUREMENT
 70
     1
  0
ENDSEC
  0
SECTION
  2
CLASSES
  0
CLASS
  1
ACDBDICTIONARYWDFLT
  2
AcDbDictionaryWithDefault
  3
ObjectDBX Classes
 90
        0
280
     0
281
     0
  0
CLASS
  1
VISUALSTYLE
  2
AcDbVisualStyle
  3
ObjectDBX Classes
 90
     4095
280
     0
281
     0
  0
CLASS
  1
MATERIAL
  2
AcDbMaterial
  3
ObjectDBX Classes
 90
     1153
280
     0
281
     0
  0
CLASS
  1
XRECORD
  2
AcDbXrecord
  3
AutoCAD 2000
 90
        0
280
     0
281
     0
  0
CLASS
  1
LWPOLYLINE
  2
AcDbPolyline
  3
AutoCAD 2000
 90
        0
280
     0
281
     1
  0
CLASS
  1
HATCH
  2
AcDbHatch
  3
AutoCAD 2000
 90
        0
280
     0
281
     1
  0
ENDSEC
  0
SECTION
  2
TABLES
  0
TABLE
  2
VPORT
  5
8
330
0
100
AcDbSymbolTable
 70
     1
  0
VPORT
  5
29
330
8
100
AcDbSymbolTableRecord
100
AcDbViewportTableRecord
  2
*ACTIVE
 70
     0
 10
0.0
 20
0.0
 11
1.0
 21
1.0
 12
420.0
 22
297.0
 13
0.0
 23
0.0
 14
10.0
 24
10.0
 15
10.0
 25
10.0
 16
0.0
 26
0.0
 36
1.0
 17
0.0
 27
0.0
 37
0.0
 40
594.0
 41
1.4141414141
 42
50.0
 43
0.0
 44
0.0
 50
0.0
 51
0.0
 71
     0
 72
  2000
 73
     1
 74
     3
 75
     0
 76
     0
 77
     0
 78
     0
  0
ENDTAB
  0
TABLE
  2
LTYPE
  5
5
330
0
100
AcDbSymbolTable
 70
     6
  0
LTYPE
  5
14
330
5
100
AcDbSymbolTableRecord
100
AcDbLinetypeTableRecord
  2
BYBLOCK
 70
     0
  3

 72
    65
 73
     0
 40
0.0
  0
LTYPE
  5
15
330
5
100
AcDbSymbolTableRecord
100
AcDbLinetypeTableRecord
  2
BYLAYER
 70
     0
  3

 72
    65
 73
     0
 40
0.0
  0
LTYPE
  5
16
330
5
100
AcDbSymbolTableRecord
100
AcDbLinetypeTableRecord
  2
CONTINUOUS
 70
     0
  3
Solid line
 72
    65
 73
     0
 40
0.0
  0
LTYPE
  5
3F
330
5
100
AcDbSymbolTableRecord
100
AcDbLinetypeTableRecord
  2
HIDDEN
 70
     0
  3
Hidden __ __ __ __ __ __ __ __ __ __ __ __ __ __
 72
    65
 73
     2
 40
1.905
 49
1.27
 74
     0
 49
-0.635
 74
     0
  0
LTYPE
  5
40
330
5
100
AcDbSymbolTableRecord
100
AcDbLinetypeTableRecord
  2
PHANTOM
 70
     0
  3
Phantom ______  __  __  ______  __  __  ______
 72
    65
 73
     6
 40
12.7
 49
6.35
 74
     0
 49
-1.27
 74
     0
 49
1.27
 74
     0
 49
-1.27
 74
     0
 49
1.27
 74
     0
 49
-1.27
 74
     0
  0
LTYPE
  5
41
330
5
100
AcDbSymbolTableRecord
100
AcDbLinetypeTableRecord
  2
CENTER
 70
     0
  3
Center ____ _ ____ _ ____ _ ____ _ ____ _ ____
 72
    65
 73
     4
 40
10.16
 49
6.35
 74
     0
 49
-1.27
 74
     0
 49
1.27
 74
     0
 49
-1.27
 74
     0
  0
LTYPE
  5
42
330
5
100
AcDbSymbolTableRecord
100
AcDbLinetypeTableRecord
  2
CENTERX2
 70
     0
  3
Center (2x) ________  __  ________  __  _____
 72
    65
 73
     4
 40
20.32
 49
12.7
 74
     0
 49
-2.54
 74
     0
 49
2.54
 74
     0
 49
-2.54
 74
     0
  0
LTYPE
  5
43
330
5
100
AcDbSymbolTableRecord
100
AcDbLinetypeTableRecord
  2
DOT2
 70
     0
  3
Dot (.5x) ........................................
 72
    65
 73
     2
 40
0.635
 49
0.0
 74
     0
 49
-0.635
 74
     0
  0
ENDTAB
  0
TABLE
  2
LAYER
  5
2
330
0
100
AcDbSymbolTable
 70
     1
  0
LAYER
  5
10
330
2
100
AcDbSymbolTableRecord
100
AcDbLayerTableRecord
  2
0
 70
     0
 62
     7
  6
CONTINUOUS
  0
ENDTAB
  0
TABLE
  2
STYLE
  5
3
330
0
100
AcDbSymbolTable
 70
     1
  0
STYLE
  5
11
330
3
100
AcDbSymbolTableRecord
100
AcDbTextStyleTableRecord
  2
STANDARD
 70
     0
 40
0.0
 41
1.0
 50
0.0
 71
     0
 42
2.5
  3
txt
  4

  0
ENDTAB
  0
TABLE
  2
VIEW
  5
6
330
0
100
AcDbSymbolTable
 70
     0
  0
ENDTAB
  0
TABLE
  2
UCS
  5
7
330
0
100
AcDbSymbolTable
 70
     0
  0
ENDTAB
  0
TABLE
  2
APPID
  5
9
330
0
100
AcDbSymbolTable
 70
     1
  0
APPID
  5
12
330
9
100
AcDbSymbolTableRecord
100
AcDbRegAppTableRecord
  2
ACAD
 70
     0
  0
ENDTAB
  0
TABLE
  2
DIMSTYLE
  5
A
330
0
100
AcDbSymbolTable
 70
     1
  0
DIMSTYLE
105
27
330
A
100
AcDbSymbolTableRecord
100
AcDbDimStyleTableRecord
  2
ISO-25
 70
     0
  3

  4

  5

  6

  7

 40
1.0
 41
2.5
 42
0.625
 43
3.75
 44
1.25
 45
0.0
 46
0.0
 47
0.0
 48
0.0
140
2.5
141
2.5
142
0.0
143
0.0393700787
144
1.0
145
0.0
146
1.0
147
0.625
 71
     0
 72
     0
 73
     0
 74
     0
 75
     0
 76
     0
 77
     1
 78
     8
170
     0
171
     3
172
     1
173
     0
174
     0
175
     0
176
     0
177
     0
178
     0
270
     2
271
     2
272
     2
273
     2
274
     3
340
11
275
     0
280
     0
281
     0
282
     0
283
     0
284
     8
285
     0
286
     0
287
     3
288
     0
  0
ENDTAB
  0
TABLE
  2
BLOCK_RECORD
  5
1
330
0
100
AcDbSymbolTable
 70
     1
  0
BLOCK_RECORD
  5
1F
330
1
100
AcDbSymbolTableRecord
100
AcDbBlockTableRecord
  2
*MODEL_SPACE
  0
BLOCK_RECORD
  5
1B
330
1
100
AcDbSymbolTableRecord
100
AcDbBlockTableRecord
  2
*PAPER_SPACE
  0
BLOCK_RECORD
  5
23
330
1
100
AcDbSymbolTableRecord
100
AcDbBlockTableRecord
  2
*PAPER_SPACE0
  0
ENDTAB
  0
ENDSEC
  0
SECTION
  2
BLOCKS
  0
BLOCK
  5
20
330
1F
100
AcDbEntity
  8
0
100
AcDbBlockBegin
  2
*MODEL_SPACE
 70
     0
 10
0.0
 20
0.0
 30
0.0
  3
*MODEL_SPACE
  1

  0
ENDBLK
  5
21
330
1F
100
AcDbEntity
  8
0
100
AcDbBlockEnd
  0
BLOCK
  5
1C
330
1B
100
AcDbEntity
 67
     1
  8
0
100
AcDbBlockBegin
  2
*PAPER_SPACE
 70
     0
 10
0.0
 20
0.0
 30
0.0
  3
*PAPER_SPACE
  1

  0
ENDBLK
  5
1D
330
1B
100
AcDbEntity
 67
     1
  8
0
100
AcDbBlockEnd
  0
BLOCK
  5
24
330
23
100
AcDbEntity
  8
0
100
AcDbBlockBegin
  2
*PAPER_SPACE0
 70
     0
 10
0.0
 20
0.0
 30
0.0
  3
*PAPER_SPACE0
  1

  0
ENDBLK
  5
25
330
23
100
AcDbEntity
  8
0
100
AcDbBlockEnd
  0
ENDSEC
  0
SECTION
  2
ENTITIES
  0
LINE
  5
44
330
1F
100
AcDbEntity
  8
0
  6
CONTINUOUS
 62
     7
100
AcDbLine
 10
273.3878238342
 20
297.3455758141
 30
0.0
 11
273.3878238342
 21
292.5497850495
 31
0.0
  0
ELLIPSE
  5
45
330
1F
100
AcDbEntity
  8
0
  6
CONTINUOUS
 62
     7
100
AcDbEllipse
 10
364.1378238342
 20
339.0011710927
 30
0.0
 11
799.9999999999999
 21
0.0
 31
0.0
210
0.0
220
0.0
230
1.0
 40
0.0524077793
 41
4.598706773833845
 42
4.826071186935542
  0
LINE
  5
46
330
1F
100
AcDbEntity
  8
0
  6
CONTINUOUS
 62
     7
100
AcDbLine
 10
454.8878238342
 20
297.3455758141
 30
0.0
 11
454.8878238342
 21
292.5497850495
 31
0.0
  0
ELLIPSE
  5
47
330
1F
100
AcDbEntity
  8
0
  6
CONTINUOUS
 62
     7
100
AcDbEllipse
 10
364.1378238342
 20
-530.5270985759
 30
0.0
 11
7.389644451905041E-13
 21
828.4242510324506
 31
0.0
210
0.0
220
0.0
230
1.0
 40
0.9656887748
 41
6.169242669489997
 42
6.169503100628752
  0
LINE
  5
48
330
1F
100
AcDbEntity
  8
0
  6
CONTINUOUS
 62
     7
100
AcDbLine
 10
454.887823939
 20
292.5266571474
 30
0.0
 11
455.0949332436
 21
292.5262443381
 31
0.0
  0
LWPOLYLINE
  5
49
330
1F
100
AcDbEntity
  8
0
  6
CONTINUOUS
 62
     7
100
AcDbPolyline
 90
        8
 70
   128
 43
0.0
 10
273.3878237294
 20
292.5266571474
 10
299.2479284706
 20
292.5707125221
 10
325.1764854736
 20
292.6000827719
 10
351.1461427395
 20
292.6147678968
 10
377.129504913
 20
292.6147678968
 10
403.0991621816
 20
292.6000827719
 10
429.0277191898
 20
292.5707125221
 10
454.887823939
 20
292.5266571474
  0
LINE
  5
4A
330
1F
100
AcDbEntity
  8
0
  6
CONTINUOUS
 62
     7
100
AcDbLine
 10
273.1807144247
 20
292.5262443381
 30
0.0
 11
273.3878237294
 21
292.5266571474
 31
0.0
  0
ELLIPSE
  5
4B
330
1F
100
AcDbEntity
  8
0
  6
CONTINUOUS
 62
     7
100
AcDbEllipse
 10
364.1378238342
 20
-530.5270985759
 30
0.0
 11
7.389644451905041E-13
 21
828.4242510324506
 31
0.0
210
0.0
220
0.0
230
1.0
 40
0.9656887748
 41
0.1136822065508497
 42
0.1139426376896059
  0
ELLIPSE
  5
4C
330
1F
100
AcDbEntity
  8
0
  6
CONTINUOUS
 62
     7
100
AcDbEllipse
 10
364.1378238342
 20
368.1899805355
 30
0.0
 11
799.9999999999999
 21
0.0
 31
0.0
210
0.0
220
0.0
230
1.0
 40
0.0524077793
 41
1.457114120244047
 42
1.684478533345745
  0
LINE
  5
4D
330
1F
100
AcDbEntity
  8
0
  6
CONTINUOUS
 62
     7
100
AcDbLine
 10
273.3878238342
 20
414.6412174828
 30
0.0
 11
273.3878238342
 21
409.8455758141
 31
0.0
  0
LWPOLYLINE
  5
4E
330
1F
100
AcDbEntity
  8
0
  6
CONTINUOUS
 62
     7
100
AcDbPolyline
 90
        8
 70
   128
 43
0.0
 10
454.8878239397
 20
414.6412006631
 10
429.0277191943
 20
414.5971441289
 10
403.0991621885
 20
414.567773106
 10
377.1295049211
 20
414.5530875946
 10
351.1461427473
 20
414.5530875946
 10
325.1764854799
 20
414.567773106
 10
299.2479284741
 20
414.5971441289
 10
273.3878237287
 20
414.6412006631
  0
LINE
  5
4F
330
1F
100
AcDbEntity
  8
0
  6
CONTINUOUS
 62
     7
100
AcDbLine
 10
454.8878238342
 20
414.6412174828
 30
0.0
 11
454.8878238342
 21
409.8455758141
 31
0.0
  0
LINE
  5
50
330
1F
100
AcDbEntity
  8
0
  6
CONTINUOUS
 62
     7
100
AcDbLine
 10
454.6153138292
 20
291.2027735112
 30
0.0
 11
455.0950409363
 21
292.5262443365
 31
0.0
  0
LWPOLYLINE
  5
51
330
1F
100
AcDbEntity
  8
0
  6
CONTINUOUS
 62
     7
100
AcDbPolyline
 90
        8
 70
   128
 43
0.0
 10
454.6072312405
 20
291.2038175115
 10
428.8382267553
 20
291.2477481232
 10
403.0057041654
 20
291.2770353852
 10
377.1096634708
 20
291.2916792972
 10
351.1662261515
 20
291.291679779
 10
325.2704274108
 20
291.2770363488
 10
299.4378241696
 20
291.2477489263
 10
273.6684164279
 20
291.2038175115
  0
LINE
  5
52
330
1F
100
AcDbEntity
  8
0
  6
CONTINUOUS
 62
     7
100
AcDbLine
 10
273.6605076162
 20
291.2022947048
 30
0.0
 11
273.1806067321
 21
292.5262443365
 31
0.0
  0
LINE
  5
53
330
1F
100
AcDbEntity
  8
0
  6
CONTINUOUS
 62
     7
100
AcDbLine
 10
273.3805672302
 20
414.641573244
 30
0.0
 11
273.4546802387
 21
415.9875924773
 31
0.0
  0
LWPOLYLINE
  5
54
330
1F
100
AcDbEntity
  8
0
  6
CONTINUOUS
 62
     7
100
AcDbPolyline
 90
        8
 70
   128
 43
0.0
 10
273.463044257
 20
415.9873342342
 10
299.2901869483
 20
415.9432044587
 10
325.1812793899
 20
415.9137844206
 10
351.1363215819
 20
415.8990741198
 10
377.1390841401
 20
415.8990736369
 10
403.0938843857
 20
415.9137834548
 10
428.9850574761
 20
415.9432036539
 10
454.8126034114
 20
415.9873342342
  0
LINE
  5
55
330
1F
100
AcDbEntity
  8
0
  6
CONTINUOUS
 62
     7
100
AcDbLine
 10
454.8950961353
 20
414.6412880411
 30
0.0
 11
454.8209944039
 21
415.9871027812
 31
0.0
  0
LINE
  5
56
330
1F
100
AcDbEntity
  8
0
  6
CONTINUOUS
 62
     7
100
AcDbLine
 10
454.1434898315
 20
409.7512418114
 30
0.0
 11
454.2378238342
 21
409.8455758141
 31
0.0
  0
LINE
  5
57
330
1F
100
AcDbEntity
  8
0
  6
CONTINUOUS
 62
     7
100
AcDbLine
 10
454.1434898315
 20
409.7512418114
 30
0.0
 11
274.1321578369
 21
409.7512418114
 31
0.0
  0
LINE
  5
58
330
1F
100
AcDbEntity
  8
0
  6
CONTINUOUS
 62
     7
100
AcDbLine
 10
274.1321578369
 20
409.7512418114
 30
0.0
 11
274.0378238342
 21
409.8455758141
 31
0.0
  0
LINE
  5
59
330
1F
100
AcDbEntity
  8
0
  6
CONTINUOUS
 62
     7
100
AcDbLine
 10
274.0378238342
 20
409.8455758141
 30
0.0
 11
273.3878238342
 21
409.8455758141
 31
0.0
  0
LINE
  5
5A
330
1F
100
AcDbEntity
  8
0
  6
CONTINUOUS
 62
     7
100
AcDbLine
 10
454.8878238342
 20
409.8455758141
 30
0.0
 11
454.2378238342
 21
409.8455758141
 31
0.0
  0
LINE
  5
5B
330
1F
100
AcDbEntity
  8
0
  6
CONTINUOUS
 62
     7
100
AcDbLine
 10
273.3878238342
 20
297.3455758141
 30
0.0
 11
274.0378238342
 21
297.3455758141
 31
0.0
  0
LINE
  5
5C
330
1F
100
AcDbEntity
  8
0
  6
CONTINUOUS
 62
     7
100
AcDbLine
 10
274.1321578369
 20
297.4399098168
 30
0.0
 11
274.0378238342
 21
297.3455758141
 31
0.0
  0
LINE
  5
5D
330
1F
100
AcDbEntity
  8
0
  6
CONTINUOUS
 62
     7
100
AcDbLine
 10
274.1321578369
 20
297.4399098168
 30
0.0
 11
454.1434898315
 21
297.4399098168
 31
0.0
  0
LINE
  5
5E
330
1F
100
AcDbEntity
  8
0
  6
CONTINUOUS
 62
     7
100
AcDbLine
 10
454.1434898315
 20
297.4399098168
 30
0.0
 11
454.2378238342
 21
297.3455758141
 31
0.0
  0
LINE
  5
5F
330
1F
100
AcDbEntity
  8
0
  6
CONTINUOUS
 62
     7
100
AcDbLine
 10
454.2378238342
 20
297.3455758141
 30
0.0
 11
454.8878238342
 21
297.3455758141
 31
0.0
  0
LINE
  5
60
330
1F
100
AcDbEntity
  8
0
  6
CONTINUOUS
 62
     7
100
AcDbLine
 10
469.1380522915
 20
416.0955758141
 30
0.0
 11
259.1375953769
 21
416.0955758141
 31
0.0
  0
LINE
  5
61
330
1F
100
AcDbEntity
  8
0
  6
CONTINUOUS
 62
     7
100
AcDbLine
 10
469.0298274329
 20
415.9873509555
 30
0.0
 11
469.1380522915
 21
416.0955758141
 31
0.0
  0
LINE
  5
62
330
1F
100
AcDbEntity
  8
0
  6
CONTINUOUS
 62
     7
100
AcDbLine
 10
454.8126034114
 20
415.9873509555
 30
0.0
 11
469.0298274329
 21
415.9873509555
 31
0.0
  0
LINE
  5
63
330
1F
100
AcDbEntity
  8
0
  6
CONTINUOUS
 62
     7
100
AcDbLine
 10
259.2458202355
 20
415.9873509555
 30
0.0
 11
273.4631538299
 21
415.9873509555
 31
0.0
  0
LINE
  5
64
330
1F
100
AcDbEntity
  8
0
  6
CONTINUOUS
 62
     7
100
AcDbLine
 10
259.1375953769
 20
416.0955758141
 30
0.0
 11
259.2458202355
 21
415.9873509555
 31
0.0
  0
LINE
  5
65
330
1F
100
AcDbEntity
  8
0
  6
CONTINUOUS
 62
     7
100
AcDbLine
 10
469.0298274329
 20
291.2038006727
 30
0.0
 11
454.6072312405
 21
291.2038006727
 31
0.0
  0
LINE
  5
66
330
1F
100
AcDbEntity
  8
0
  6
CONTINUOUS
 62
     7
100
AcDbLine
 10
469.1380522915
 20
291.0955758141
 30
0.0
 11
469.0298274329
 21
291.2038006727
 31
0.0
  0
LINE
  5
67
330
1F
100
AcDbEntity
  8
0
  6
CONTINUOUS
 62
     7
100
AcDbLine
 10
259.1375953769
 20
291.0955758141
 30
0.0
 11
469.1380522915
 21
291.0955758141
 31
0.0
  0
LINE
  5
68
330
1F
100
AcDbEntity
  8
0
  6
CONTINUOUS
 62
     7
100
AcDbLine
 10
259.2458202355
 20
291.2038006727
 30
0.0
 11
259.1375953769
 21
291.0955758141
 31
0.0
  0
LINE
  5
69
330
1F
100
AcDbEntity
  8
0
  6
CONTINUOUS
 62
     7
100
AcDbLine
 10
273.6685265198
 20
291.2038006727
 30
0.0
 11
259.2458202355
 21
291.2038006727
 31
0.0
  0
LINE
  5
6A
330
1F
100
AcDbEntity
  8
0
  6
CONTINUOUS
 62
     7
100
AcDbLine
 10
469.1836145988
 20
292.7035722154
 30
0.0
 11
469.1836145988
 21
414.4875794128
 31
0.0
  0
ARC
  5
6B
330
1F
100
AcDbEntity
  8
0
  6
CONTINUOUS
 62
     7
100
AcDbCircle
 10
469.0317628306
 20
292.7016368177
 30
0.0
 40
0.151864101329342
100
AcDbArc
 50
269.2697871015
 51
0.7302128984
  0
LINE
  5
6C
330
1F
100
AcDbEntity
  8
0
  6
CONTINUOUS
 62
     7
100
AcDbLine
 10
454.8878238342
 20
292.5497850495
 30
0.0
 11
469.0298274329
 21
292.5497850495
 31
0.0
  0
LINE
  5
6D
330
1F
100
AcDbEntity
  8
0
  6
CONTINUOUS
 62
     7
100
AcDbLine
 10
454.2378238342
 20
297.3455758141
 30
0.0
 11
454.2378238342
 21
409.8455758141
 31
0.0
  0
LINE
  5
6E
330
1F
100
AcDbEntity
  8
0
  6
CONTINUOUS
 62
     7
100
AcDbLine
 10
469.0298274329
 20
414.6413665788
 30
0.0
 11
454.8878238342
 21
414.6413665788
 31
0.0
  0
ARC
  5
6F
330
1F
100
AcDbEntity
  8
0
  6
CONTINUOUS
 62
     7
100
AcDbCircle
 10
469.0317628306
 20
414.4895148105
 30
0.0
 40
0.1518641013286679
100
AcDbArc
 50
359.2697871013
 51
90.7302128987
  0
CIRCLE
  5
70
330
1F
100
AcDbEntity
  8
0
  6
CONTINUOUS
 62
     7
100
AcDbCircle
 10
460.6378238342
 20
406.0955758141
 30
0.0
 40
4.249999999999943
  0
CIRCLE
  5
71
330
1F
100
AcDbEntity
  8
0
  6
CONTINUOUS
 62
     7
100
AcDbCircle
 10
460.6378238342
 20
301.0955758141
 30
0.0
 40
4.250000000000057
  0
LINE
  5
72
330
1F
100
AcDbEntity
  8
0
  6
CONTINUOUS
 62
     7
100
AcDbLine
 10
469.0298274329
 20
414.6413665788
 30
0.0
 11
469.0298274329
 21
415.9873509555
 31
0.0
  0
LINE
  5
73
330
1F
100
AcDbEntity
  8
0
  6
CONTINUOUS
 62
     7
100
AcDbLine
 10
274.0378238342
 20
409.8455758141
 30
0.0
 11
274.0378238342
 21
297.3455758141
 31
0.0
  0
LINE
  5
74
330
1F
100
AcDbEntity
  8
0
  6
CONTINUOUS
 62
     7
100
AcDbLine
 10
259.2458202355
 20
292.5497850495
 30
0.0
 11
273.3878238342
 21
292.5497850495
 31
0.0
  0
ARC
  5
75
330
1F
100
AcDbEntity
  8
0
  6
CONTINUOUS
 62
     7
100
AcDbCircle
 10
259.2438848378
 20
292.7016368177
 30
0.0
 40
0.1518641013283873
100
AcDbArc
 50
179.2697871012
 51
270.7302128988
  0
LINE
  5
76
330
1F
100
AcDbEntity
  8
0
  6
CONTINUOUS
 62
     7
100
AcDbLine
 10
259.0920330696
 20
414.4875794128
 30
0.0
 11
259.0920330696
 21
292.7035722154
 31
0.0
  0
ARC
  5
77
330
1F
100
AcDbEntity
  8
0
  6
CONTINUOUS
 62
     7
100
AcDbCircle
 10
259.2438848378
 20
414.4895148105
 30
0.0
 40
0.1518641013295089
100
AcDbArc
 50
89.2697871016
 51
180.7302128984
  0
LINE
  5
78
330
1F
100
AcDbEntity
  8
0
  6
CONTINUOUS
 62
     7
100
AcDbLine
 10
273.3878238342
 20
414.6413665788
 30
0.0
 11
259.2458202355
 21
414.6413665788
 31
0.0
  0
CIRCLE
  5
79
330
1F
100
AcDbEntity
  8
0
  6
CONTINUOUS
 62
     7
100
AcDbCircle
 10
267.6378238342
 20
406.0955758141
 30
0.0
 40
4.25
  0
CIRCLE
  5
7A
330
1F
100
AcDbEntity
  8
0
  6
CONTINUOUS
 62
     7
100
AcDbCircle
 10
267.6378238342
 20
301.0955758141
 30
0.0
 40
4.25
  0
LINE
  5
7B
330
1F
100
AcDbEntity
  8
0
  6
CONTINUOUS
 62
     7
100
AcDbLine
 10
259.2458202355
 20
415.9873509555
 30
0.0
 11
259.2458202355
 21
414.6413665788
 31
0.0
  0
ARC
  5
7C
330
1F
100
AcDbEntity
  8
0
  6
CONTINUOUS
 62
     7
100
AcDbCircle
 10
259.2463553848
 20
292.7041073647
 30
0.0
 40
1.50030678743249
100
AcDbArc
 50
180.0204370164
 51
269.9795629836
  0
LINE
  5
7D
330
1F
100
AcDbEntity
  8
0
  6
CONTINUOUS
 62
     7
100
AcDbLine
 10
257.7460486928
 20
292.7035722154
 30
0.0
 11
259.0920330696
 21
292.7035722154
 31
0.0
  0
LINE
  5
7E
330
1F
100
AcDbEntity
  8
0
  6
CONTINUOUS
 62
     7
100
AcDbLine
 10
259.2458202355
 20
291.2038006727
 30
0.0
 11
259.2458202355
 21
292.5497850495
 31
0.0
  0
ARC
  5
7F
330
1F
100
AcDbEntity
  8
0
  6
CONTINUOUS
 62
     7
100
AcDbCircle
 10
469.0292922836
 20
414.4870442635
 30
0.0
 40
1.50030678743249
100
AcDbArc
 50
0.0204370164
 51
89.9795629836
  0
LINE
  5
80
330
1F
100
AcDbEntity
  8
0
  6
CONTINUOUS
 62
     7
100
AcDbLine
 10
469.1836145988
 20
414.4875794128
 30
0.0
 11
470.5295989756
 21
414.4875794128
 31
0.0
  0
ARC
  5
81
330
1F
100
AcDbEntity
  8
0
  6
CONTINUOUS
 62
     7
100
AcDbCircle
 10
259.2463553848
 20
414.4870442635
 30
0.0
 40
1.500306787432433
100
AcDbArc
 50
90.0204370164
 51
179.9795629836
  0
LINE
  5
82
330
1F
100
AcDbEntity
  8
0
  6
CONTINUOUS
 62
     7
100
AcDbLine
 10
257.7460486928
 20
414.4875794128
 30
0.0
 11
259.0920330696
 21
414.4875794128
 31
0.0
  0
LINE
  5
83
330
1F
100
AcDbEntity
  8
0
  6
CONTINUOUS
 62
     7
100
AcDbLine
 10
257.7460486928
 20
292.7035722154
 30
0.0
 11
257.7460486928
 21
414.4875794128
 31
0.0
  0
LINE
  5
84
330
1F
100
AcDbEntity
  8
0
  6
CONTINUOUS
 62
     7
100
AcDbLine
 10
469.1836145988
 20
292.7035722154
 30
0.0
 11
470.5295989756
 21
292.7035722154
 31
0.0
  0
ARC
  5
85
330
1F
100
AcDbEntity
  8
0
  6
CONTINUOUS
 62
     7
100
AcDbCircle
 10
469.0292922836
 20
292.7041073647
 30
0.0
 40
1.500306787432433
100
AcDbArc
 50
270.0204370164
 51
359.9795629836
  0
LINE
  5
86
330
1F
100
AcDbEntity
  8
0
  6
CONTINUOUS
 62
     7
100
AcDbLine
 10
469.0298274329
 20
292.5497850495
 30
0.0
 11
469.0298274329
 21
291.2038006727
 31
0.0
  0
LINE
  5
87
330
1F
100
AcDbEntity
  8
0
  6
CONTINUOUS
 62
     7
100
AcDbLine
 10
470.5295989756
 20
414.4875794128
 30
0.0
 11
470.5295989756
 21
292.7035722154
 31
0.0
  0
LINE
  5
88
330
1F
100
AcDbEntity
  8
0
  6
CONTINUOUS
 62
     7
100
AcDbLine
 10
454.1434898315
 20
297.4399098168
 30
0.0
 11
454.1434898315
 21
409.7512418114
 31
0.0
  0
LINE
  5
89
330
1F
100
AcDbEntity
  8
0
  6
CONTINUOUS
 62
     7
100
AcDbLine
 10
274.1321578369
 20
409.7512418114
 30
0.0
 11
274.1321578369
 21
297.4399098168
 31
0.0
  0
ELLIPSE
  5
8A
330
1F
100
AcDbEntity
  8
0
  6
CONTINUOUS
 62
     7
100
AcDbEllipse
 10
469.1375953421
 20
292.5958043062
 30
0.0
 11
1.060983283754354
 21
-1.060983283754354
 31
0.0
210
0.0
220
0.0
230
1.0
 40
0.9996954599
 41
5.497939437029721
 42
7.068431177329465
  0
LINE
  5
8B
330
1F
100
AcDbEntity
  8
0
  6
CONTINUOUS
 62
     7
100
AcDbLine
 10
470.5295989756
 20
292.7035722154
 30
0.0
 11
470.6378238342
 21
292.5953473568
 31
0.0
  0
ELLIPSE
  5
8C
330
1F
100
AcDbEntity
  8
0
  6
CONTINUOUS
 62
     7
100
AcDbEllipse
 10
259.1380523263
 20
414.595347322
 30
0.0
 11
-1.06098328375441
 21
1.060983283754354
 31
0.0
210
0.0
220
0.0
230
0.9999999999999999
 40
0.9996954599
 41
5.497939437029705
 42
7.068431177329428
  0
LINE
  5
8D
330
1F
100
AcDbEntity
  8
0
  6
CONTINUOUS
 62
     7
100
AcDbLine
 10
257.7460486928
 20
414.4875794128
 30
0.0
 11
257.6378238342
 21
414.5958042714
 31
0.0
  0
ELLIPSE
  5
8E
330
1F
100
AcDbEntity
  8
0
  6
CONTINUOUS
 62
     7
100
AcDbEllipse
 10
259.1380523263
 20
292.5958043062
 30
0.0
 11
-1.06098328375441
 21
-1.060983283754354
 31
0.0
210
0.0
220
0.0
230
0.9999999999999999
 40
0.9996954599
 41
5.497939437029784
 42
7.068431177329416
  0
LINE
  5
8F
330
1F
100
AcDbEntity
  8
0
  6
CONTINUOUS
 62
     7
100
AcDbLine
 10
257.6378238342
 20
292.5953473568
 30
0.0
 11
257.7460486928
 21
292.7035722154
 31
0.0
  0
ELLIPSE
  5
90
330
1F
100
AcDbEntity
  8
0
  6
CONTINUOUS
 62
     7
100
AcDbEllipse
 10
469.1375953421
 20
414.595347322
 30
0.0
 11
1.060983283754354
 21
1.060983283754354
 31
0.0
210
0.0
220
0.0
230
1.0
 40
0.9996954599
 41
5.497939437029758
 42
7.068431177329428
  0
LINE
  5
91
330
1F
100
AcDbEntity
  8
0
  6
CONTINUOUS
 62
     7
100
AcDbLine
 10
470.6378238342
 20
414.5958042714
 30
0.0
 11
470.5295989756
 21
414.4875794128
 31
0.0
  0
LINE
  5
92
330
1F
100
AcDbEntity
  8
0
  6
CONTINUOUS
 62
     7
100
AcDbLine
 10
257.6378238342
 20
414.5958042714
 30
0.0
 11
257.6378238342
 21
292.5953473568
 31
0.0
  0
LINE
  5
93
330
1F
100
AcDbEntity
  8
0
  6
CONTINUOUS
 62
     7
100
AcDbLine
 10
470.6378238342
 20
292.5953473568
 30
0.0
 11
470.6378238342
 21
414.5958042714
 31
0.0
  0
CIRCLE
  5
94
330
1F
100
AcDbEntity
  8
0
  6
CONTINUOUS
 62
     7
100
AcDbCircle
 10
267.6378238342
 20
301.0955758141
 30
0.0
 40
1.599999999999966
  0
CIRCLE
  5
95
330
1F
100
AcDbEntity
  8
0
  6
CONTINUOUS
 62
     7
100
AcDbCircle
 10
267.6378238342
 20
406.0955758141
 30
0.0
 40
1.600000000000023
  0
CIRCLE
  5
96
330
1F
100
AcDbEntity
  8
0
  6
CONTINUOUS
 62
     7
100
AcDbCircle
 10
460.6378238342
 20
301.0955758141
 30
0.0
 40
1.600000000000023
  0
CIRCLE
  5
97
330
1F
100
AcDbEntity
  8
0
  6
CONTINUOUS
 62
     7
100
AcDbCircle
 10
460.6378238342
 20
406.0955758141
 30
0.0
 40
1.599999999999966
  0
LINE
  5
98
330
1F
100
AcDbEntity
  8
0
  6
CONTINUOUS
 62
     7
100
AcDbLine
 10
182.0164022984
 20
298.1455758141
 30
0.0
 11
183.5164022984
 21
298.1455758141
 31
0.0
  0
LINE
  5
99
330
1F
100
AcDbEntity
  8
0
  6
CONTINUOUS
 62
     7
100
AcDbLine
 10
183.5164022984
 20
304.0455758141
 30
0.0
 11
182.0164022984
 21
304.0455758141
 31
0.0
  0
LINE
  5
9A
330
1F
100
AcDbEntity
  8
0
  6
CONTINUOUS
 62
     7
100
AcDbLine
 10
182.0164022984
 20
403.1455758141
 30
0.0
 11
183.5164022984
 21
403.1455758141
 31
0.0
  0
LINE
  5
9B
330
1F
100
AcDbEntity
  8
0
  6
CONTINUOUS
 62
     7
100
AcDbLine
 10
183.5164022984
 20
409.0455758141
 30
0.0
 11
182.0164022984
 21
409.0455758141
 31
0.0
  0
LINE
  5
9C
330
1F
100
AcDbEntity
  8
0
  6
CONTINUOUS
 62
     7
100
AcDbLine
 10
164.0536678019
 20
292.6166047009
 30
0.0
 11
165.3767605569
 21
291.293509997
 31
0.0
  0
LINE
  5
9D
330
1F
100
AcDbEntity
  8
0
  6
CONTINUOUS
 62
     7
100
AcDbLine
 10
164.0525096187
 20
297.0749476663
 30
0.0
 11
164.0525096187
 21
292.6147678968
 31
0.0
  0
LINE
  5
9E
330
1F
100
AcDbEntity
  8
0
  6
CONTINUOUS
 62
     7
100
AcDbLine
 10
165.3534715958
 20
415.8972351209
 30
0.0
 11
164.053671514
 21
414.5512507442
 31
0.0
  0
LINE
  5
9F
330
1F
100
AcDbEntity
  8
0
  6
CONTINUOUS
 62
     7
100
AcDbLine
 10
164.0525096187
 20
414.5530875946
 30
0.0
 11
164.0525096187
 21
410.1162039619
 31
0.0
  0
LINE
  5
A0
330
1F
100
AcDbEntity
  8
0
  6
CONTINUOUS
 62
     7
100
AcDbLine
 10
183.5164022984
 20
299.8455758141
 30
0.0
 11
184.0164022984
 21
299.8455758141
 31
0.0
  0
LINE
  5
A1
330
1F
100
AcDbEntity
  8
0
  6
CONTINUOUS
 62
     7
100
AcDbLine
 10
184.0164022984
 20
307.3455758141
 30
0.0
 11
182.0164022984
 21
307.3455758141
 31
0.0
  0
LINE
  5
A2
330
1F
100
AcDbEntity
  8
0
  6
CONTINUOUS
 62
     7
100
AcDbLine
 10
182.0164022984
 20
399.8455758141
 30
0.0
 11
184.0164022984
 21
399.8455758141
 31
0.0
  0
LINE
  5
A3
330
1F
100
AcDbEntity
  8
0
  6
CONTINUOUS
 62
     7
100
AcDbLine
 10
184.0164022984
 20
407.3455758141
 30
0.0
 11
183.5164022984
 21
407.3455758141
 31
0.0
  0
LINE
  5
A4
330
1F
100
AcDbEntity
  8
0
  6
CONTINUOUS
 62
     7
100
AcDbLine
 10
176.7164022984
 20
416.0955758141
 30
0.0
 11
176.7164022984
 21
414.5958042714
 31
0.0
  0
LINE
  5
A5
330
1F
100
AcDbEntity
  8
0
  6
CONTINUOUS
 62
     7
100
AcDbLine
 10
176.7164022984
 20
414.5958042714
 30
0.0
 11
170.5162043021
 21
414.4875794128
 31
0.0
  0
ARC
  5
A6
330
1F
100
AcDbEntity
  8
0
  6
CONTINUOUS
 62
     7
100
AcDbCircle
 10
192.0075171062
 20
415.2374651841
 30
0.0
 40
21.50439152157557
100
AcDbArc
 50
178.0016173803
 51
181.9983826197
  0
LINE
  5
A7
330
1F
100
AcDbEntity
  8
0
  6
CONTINUOUS
 62
     7
100
AcDbLine
 10
170.5162043021
 20
415.9873509555
 30
0.0
 11
176.7164022984
 21
416.0955758141
 31
0.0
  0
LINE
  5
A8
330
1F
100
AcDbEntity
  8
0
  6
CONTINUOUS
 62
     7
100
AcDbLine
 10
176.7164022984
 20
292.5953473568
 30
0.0
 11
176.7164022984
 21
291.0955758141
 31
0.0
  0
LINE
  5
A9
330
1F
100
AcDbEntity
  8
0
  6
CONTINUOUS
 62
     7
100
AcDbLine
 10
176.7164022984
 20
291.0955758141
 30
0.0
 11
170.5162043021
 21
291.2038006727
 31
0.0
  0
ARC
  5
AA
330
1F
100
AcDbEntity
  8
0
  6
CONTINUOUS
 62
     7
100
AcDbCircle
 10
192.0075171062
 20
291.9536864441
 30
0.0
 40
21.50439152157406
100
AcDbArc
 50
178.0016173803
 51
181.9983826197
  0
LINE
  5
AB
330
1F
100
AcDbEntity
  8
0
  6
CONTINUOUS
 62
     7
100
AcDbLine
 10
170.5162043021
 20
292.7035722154
 30
0.0
 11
176.7164022984
 21
292.5953473568
 31
0.0
  0
LINE
  5
AC
330
1F
100
AcDbEntity
  8
0
  6
CONTINUOUS
 62
     7
100
AcDbLine
 10
176.7164022984
 20
292.5953473568
 30
0.0
 11
176.7164022984
 21
414.5958042714
 31
0.0
  0
LINE
  5
AD
330
1F
100
AcDbEntity
  8
0
  6
CONTINUOUS
 62
     7
100
AcDbLine
 10
170.5162043021
 20
414.4875794128
 30
0.0
 11
170.5162043021
 21
292.7035722154
 31
0.0
  0
LINE
  5
AE
330
1F
100
AcDbEntity
  8
0
  6
CONTINUOUS
 62
     7
100
AcDbLine
 10
169.2164022984
 20
292.7035722154
 30
0.0
 11
169.2164022984
 21
414.4875794128
 31
0.0
  0
LINE
  5
AF
330
1F
100
AcDbEntity
  8
0
  6
CONTINUOUS
 62
     7
100
AcDbLine
 10
169.2164022984
 20
414.4875794128
 30
0.0
 11
170.5162043021
 21
414.4875794128
 31
0.0
  0
LINE
  5
B0
330
1F
100
AcDbEntity
  8
0
  6
CONTINUOUS
 62
     7
100
AcDbLine
 10
169.2164022984
 20
292.7035722154
 30
0.0
 11
170.5162043021
 21
292.7035722154
 31
0.0
  0
LINE
  5
B1
330
1F
100
AcDbEntity
  8
0
  6
CONTINUOUS
 62
     7
100
AcDbLine
 10
169.2164022984
 20
414.4875794128
 30
0.0
 11
169.2164022984
 21
414.6413665788
 31
0.0
  0
LINE
  5
B2
330
1F
100
AcDbEntity
  8
0
  6
CONTINUOUS
 62
     7
100
AcDbLine
 10
169.2164022984
 20
414.6413665788
 30
0.0
 11
170.5162043021
 21
415.9873509555
 31
0.0
  0
LINE
  5
B3
330
1F
100
AcDbEntity
  8
0
  6
CONTINUOUS
 62
     7
100
AcDbLine
 10
169.2164022984
 20
292.5497850495
 30
0.0
 11
169.2164022984
 21
292.7035722154
 31
0.0
  0
LINE
  5
B4
330
1F
100
AcDbEntity
  8
0
  6
CONTINUOUS
 62
     7
100
AcDbLine
 10
169.2164022984
 20
292.5497850495
 30
0.0
 11
170.5162043021
 21
291.2038006727
 31
0.0
  0
LINE
  5
B5
330
1F
100
AcDbEntity
  8
0
  6
CONTINUOUS
 62
     7
100
AcDbLine
 10
182.0164022984
 20
411.9955758141
 30
0.0
 11
176.7164022984
 21
411.9955758141
 31
0.0
  0
LINE
  5
B6
330
1F
100
AcDbEntity
  8
0
  6
CONTINUOUS
 62
     7
100
AcDbLine
 10
182.0164022984
 20
411.9955758141
 30
0.0
 11
182.0164022984
 21
295.1955758141
 31
0.0
  0
LINE
  5
B7
330
1F
100
AcDbEntity
  8
0
  6
CONTINUOUS
 62
     7
100
AcDbLine
 10
182.0164022984
 20
295.1955758141
 30
0.0
 11
176.7164022984
 21
295.1955758141
 31
0.0
  0
LINE
  5
B8
330
1F
100
AcDbEntity
  8
0
  6
CONTINUOUS
 62
     7
100
AcDbLine
 10
183.5164022984
 20
301.0955758141
 30
0.0
 11
183.5164022984
 21
298.1455758141
 31
0.0
  0
LINE
  5
B9
330
1F
100
AcDbEntity
  8
0
  6
CONTINUOUS
 62
     7
100
AcDbLine
 10
183.5164022984
 20
304.0455758141
 30
0.0
 11
183.5164022984
 21
301.0955758141
 31
0.0
  0
LINE
  5
BA
330
1F
100
AcDbEntity
  8
0
  6
CONTINUOUS
 62
     7
100
AcDbLine
 10
183.5164022984
 20
409.0455758141
 30
0.0
 11
183.5164022984
 21
403.1455758141
 31
0.0
  0
LWPOLYLINE
  5
BB
330
1F
100
AcDbEntity
  8
0
  6
CONTINUOUS
 62
     7
100
AcDbPolyline
 90
        5
 70
   128
 43
0.0
 10
164.1580064356
 20
292.6147678968
 10
164.1580064354
 20
292.6147678968
 10
165.0018140341
 20
292.6000827719
 10
166.6885391004
 20
292.5707125221
 10
169.2164023104
 20
292.5266571474
  0
LINE
  5
BC
330
1F
100
AcDbEntity
  8
0
  6
CONTINUOUS
 62
     7
100
AcDbLine
 10
170.5152396105
 20
291.2038175115
 30
0.0
 11
165.4816274764
 21
291.2916795381
 31
0.0
  0
LINE
  5
BD
330
1F
100
AcDbEntity
  8
0
  6
CONTINUOUS
 62
     7
100
AcDbLine
 10
164.0525096187
 20
297.0749476663
 30
0.0
 11
169.2164022984
 21
297.3455758141
 31
0.0
  0
LWPOLYLINE
  5
BE
330
1F
100
AcDbEntity
  8
0
  6
CONTINUOUS
 62
     7
100
AcDbPolyline
 90
        5
 70
   128
 43
0.0
 10
169.2164023105
 20
414.6412006631
 10
166.6885391007
 20
414.5971441289
 10
165.0018140344
 20
414.567773106
 10
164.1580064356
 20
414.5530875946
 10
164.1580064356
 20
414.5530875946
  0
LINE
  5
BF
330
1F
100
AcDbEntity
  8
0
  6
CONTINUOUS
 62
     7
100
AcDbLine
 10
170.51524634
 20
415.9873342342
 30
0.0
 11
165.458800105
 21
415.8990736369
 31
0.0
  0
LINE
  5
C0
330
1F
100
AcDbEntity
  8
0
  6
CONTINUOUS
 62
     7
100
AcDbLine
 10
169.2164022984
 20
409.8455758141
 30
0.0
 11
164.0525096187
 21
410.1162039619
 31
0.0
  0
LINE
  5
C1
330
1F
100
AcDbEntity
  8
0
  6
CONTINUOUS
 62
     7
100
AcDbLine
 10
184.0164022984
 20
303.5955758141
 30
0.0
 11
184.0164022984
 21
299.8455758141
 31
0.0
  0
LINE
  5
C2
330
1F
100
AcDbEntity
  8
0
  6
CONTINUOUS
 62
     7
100
AcDbLine
 10
184.0164022984
 20
307.3455758141
 30
0.0
 11
184.0164022984
 21
303.5955758141
 31
0.0
  0
LINE
  5
C3
330
1F
100
AcDbEntity
  8
0
  6
CONTINUOUS
 62
     7
100
AcDbLine
 10
184.0164022984
 20
407.3455758141
 30
0.0
 11
184.0164022984
 21
399.8455758141
 31
0.0
  0
LINE
  5
C4
330
1F
100
AcDbEntity
  8
0
  6
CONTINUOUS
 62
     7
100
AcDbLine
 10
264.6878238342
 20
458.7742712767
 30
0.0
 11
264.6878238342
 21
457.2742712767
 31
0.0
  0
LINE
  5
C5
330
1F
100
AcDbEntity
  8
0
  6
CONTINUOUS
 62
     7
100
AcDbLine
 10
270.5878238342
 20
457.2742712767
 30
0.0
 11
270.5878238342
 21
458.7742712767
 31
0.0
  0
LINE
  5
C6
330
1F
100
AcDbEntity
  8
0
  6
CONTINUOUS
 62
     7
100
AcDbLine
 10
457.6878238342
 20
458.7742712767
 30
0.0
 11
457.6878238342
 21
457.2742712767
 31
0.0
  0
LINE
  5
C7
330
1F
100
AcDbEntity
  8
0
  6
CONTINUOUS
 62
     7
100
AcDbLine
 10
463.5878238342
 20
457.2742712767
 30
0.0
 11
463.5878238342
 21
458.7742712767
 31
0.0
  0
LINE
  5
C8
330
1F
100
AcDbEntity
  8
0
  6
CONTINUOUS
 62
     7
100
AcDbLine
 10
277.3878238342
 20
458.7742712767
 30
0.0
 11
277.3878238342
 21
456.7742712767
 31
0.0
  0
LINE
  5
C9
330
1F
100
AcDbEntity
  8
0
  6
CONTINUOUS
 62
     7
100
AcDbLine
 10
284.8878238342
 20
456.7742712767
 30
0.0
 11
284.8878238342
 21
458.7742712767
 31
0.0
  0
LINE
  5
CA
330
1F
100
AcDbEntity
  8
0
  6
CONTINUOUS
 62
     7
100
AcDbLine
 10
443.3878238342
 20
458.7742712767
 30
0.0
 11
443.3878238342
 21
456.7742712767
 31
0.0
  0
LINE
  5
CB
330
1F
100
AcDbEntity
  8
0
  6
CONTINUOUS
 62
     7
100
AcDbLine
 10
450.8878238342
 20
456.7742712767
 30
0.0
 11
450.8878238342
 21
458.7742712767
 31
0.0
  0
LINE
  5
CC
330
1F
100
AcDbEntity
  8
0
  6
CONTINUOUS
 62
     7
100
AcDbLine
 10
360.3878238342
 20
458.7742712767
 30
0.0
 11
360.3878238342
 21
456.7742712767
 31
0.0
  0
LINE
  5
CD
330
1F
100
AcDbEntity
  8
0
  6
CONTINUOUS
 62
     7
100
AcDbLine
 10
367.8878238342
 20
456.7742712767
 30
0.0
 11
367.8878238342
 21
458.7742712767
 31
0.0
  0
LINE
  5
CE
330
1F
100
AcDbEntity
  8
0
  6
CONTINUOUS
 62
     7
100
AcDbLine
 10
259.1375953769
 20
464.0742712767
 30
0.0
 11
257.6378238342
 21
464.0742712767
 31
0.0
  0
LINE
  5
CF
330
1F
100
AcDbEntity
  8
0
  6
CONTINUOUS
 62
     7
100
AcDbLine
 10
257.6378238342
 20
464.0742712767
 30
0.0
 11
257.7460486928
 21
470.274469273
 31
0.0
  0
ARC
  5
D0
330
1F
100
AcDbEntity
  8
0
  6
CONTINUOUS
 62
     7
100
AcDbCircle
 10
258.4959344642
 20
448.7831564689
 30
0.0
 40
21.50439152157713
100
AcDbArc
 50
88.0016173803
 51
91.9983826197
  0
LINE
  5
D1
330
1F
100
AcDbEntity
  8
0
  6
CONTINUOUS
 62
     7
100
AcDbLine
 10
259.2458202355
 20
470.274469273
 30
0.0
 11
259.1375953769
 21
464.0742712767
 31
0.0
  0
LINE
  5
D2
330
1F
100
AcDbEntity
  8
0
  6
CONTINUOUS
 62
     7
100
AcDbLine
 10
469.0298274329
 20
470.274469273
 30
0.0
 11
454.6072312405
 21
470.274469273
 31
0.0
  0
LINE
  5
D3
330
1F
100
AcDbEntity
  8
0
  6
CONTINUOUS
 62
     7
100
AcDbLine
 10
469.1380522915
 20
464.0742712767
 30
0.0
 11
469.0298274329
 21
470.274469273
 31
0.0
  0
LINE
  5
D4
330
1F
100
AcDbEntity
  8
0
  6
CONTINUOUS
 62
     7
100
AcDbLine
 10
259.1375953769
 20
464.0742712767
 30
0.0
 11
469.1380522915
 21
464.0742712767
 31
0.0
  0
LINE
  5
D5
330
1F
100
AcDbEntity
  8
0
  6
CONTINUOUS
 62
     7
100
AcDbLine
 10
273.6685265198
 20
470.274469273
 30
0.0
 11
259.2458202355
 21
470.274469273
 31
0.0
  0
LWPOLYLINE
  5
D6
330
1F
100
AcDbEntity
  8
0
  6
CONTINUOUS
 62
     7
100
AcDbPolyline
 90
        8
 70
   128
 43
0.0
 10
454.6072312405
 20
470.2754339646
 10
428.8382267553
 20
472.7922170286
 10
403.0057041654
 20
474.4700831394
 10
377.1096634708
 20
475.3090322969
 10
351.1662261515
 20
475.3090599003
 10
325.2704274108
 20
474.4701383461
 10
299.4378241696
 20
472.7922630343
 10
273.6684164279
 20
470.2754339646
  0
LINE
  5
D7
330
1F
100
AcDbEntity
  8
0
  6
CONTINUOUS
 62
     7
100
AcDbLine
 10
470.6378238342
 20
464.0742712767
 30
0.0
 11
469.1380522915
 21
464.0742712767
 31
0.0
  0
ARC
  5
D8
330
1F
100
AcDbEntity
  8
0
  6
CONTINUOUS
 62
     7
100
AcDbCircle
 10
469.7797132042
 20
448.7831564688
 30
0.0
 40
21.50439152167865
100
AcDbArc
 50
88.0016173803
 51
91.9983826197
  0
LINE
  5
D9
330
1F
100
AcDbEntity
  8
0
  6
CONTINUOUS
 62
     7
100
AcDbLine
 10
470.5295989756
 20
470.274469273
 30
0.0
 11
470.6378238342
 21
464.0742712767
 31
0.0
  0
LINE
  5
DA
330
1F
100
AcDbEntity
  8
0
  6
CONTINUOUS
 62
     7
100
AcDbLine
 10
454.887823939
 20
471.5742712647
 30
0.0
 11
455.0949332436
 21
471.5505973317
 31
0.0
  0
LINE
  5
DB
330
1F
100
AcDbEntity
  8
0
  6
CONTINUOUS
 62
     7
100
AcDbLine
 10
454.6153138292
 20
470.2734773546
 30
0.0
 11
455.0950409363
 21
471.5515382745
 31
0.0
  0
LINE
  5
DC
330
1F
100
AcDbEntity
  8
0
  6
CONTINUOUS
 62
     7
100
AcDbLine
 10
273.6605076162
 20
470.2730149767
 30
0.0
 11
273.1806067321
 21
471.5515382745
 31
0.0
  0
LINE
  5
DD
330
1F
100
AcDbEntity
  8
0
  6
CONTINUOUS
 62
     7
100
AcDbLine
 10
273.1807144247
 20
471.5505973317
 30
0.0
 11
273.3878237294
 21
471.5742712647
 31
0.0
  0
LWPOLYLINE
  5
DE
330
1F
100
AcDbEntity
  8
0
  6
CONTINUOUS
 62
     7
100
AcDbPolyline
 90
        8
 70
   128
 43
0.0
 10
273.3878237294
 20
471.5742712647
 10
299.2479284706
 20
474.1021344741
 10
325.1764854736
 20
475.7888595404
 10
351.1461427395
 20
476.6326671394
 10
377.129504913
 20
476.6326671397
 10
403.0991621816
 20
475.788859541
 10
429.0277191898
 20
474.1021344748
 10
454.887823939
 20
471.5742712647
  0
LINE
  5
DF
330
1F
100
AcDbEntity
  8
0
  6
CONTINUOUS
 62
     7
100
AcDbLine
 10
259.2458202355
 20
470.274469273
 30
0.0
 11
259.2458202355
 21
471.5742712767
 31
0.0
  0
LINE
  5
E0
330
1F
100
AcDbEntity
  8
0
  6
CONTINUOUS
 62
     7
100
AcDbLine
 10
259.2458202355
 20
471.5742712767
 30
0.0
 11
273.3878238342
 21
471.5742712767
 31
0.0
  0
LINE
  5
E1
330
1F
100
AcDbEntity
  8
0
  6
CONTINUOUS
 62
     7
100
AcDbLine
 10
454.8878238342
 20
471.5742712767
 30
0.0
 11
469.0298274329
 21
471.5742712767
 31
0.0
  0
LINE
  5
E2
330
1F
100
AcDbEntity
  8
0
  6
CONTINUOUS
 62
     7
100
AcDbLine
 10
469.0298274329
 20
471.5742712767
 30
0.0
 11
469.0298274329
 21
470.274469273
 31
0.0
  0
LINE
  5
E3
330
1F
100
AcDbEntity
  8
0
  6
CONTINUOUS
 62
     7
100
AcDbLine
 10
257.7460486928
 20
470.274469273
 30
0.0
 11
259.0920330696
 21
471.5742712767
 31
0.0
  0
LINE
  5
E4
330
1F
100
AcDbEntity
  8
0
  6
CONTINUOUS
 62
     7
100
AcDbLine
 10
259.0920330696
 20
471.5742712767
 30
0.0
 11
259.2458202355
 21
471.5742712767
 31
0.0
  0
LINE
  5
E5
330
1F
100
AcDbEntity
  8
0
  6
CONTINUOUS
 62
     7
100
AcDbLine
 10
469.0298274329
 20
471.5742712767
 30
0.0
 11
469.1836145988
 21
471.5742712767
 31
0.0
  0
LINE
  5
E6
330
1F
100
AcDbEntity
  8
0
  6
CONTINUOUS
 62
     7
100
AcDbLine
 10
469.1836145988
 20
471.5742712767
 30
0.0
 11
470.5295989756
 21
470.274469273
 31
0.0
  0
LINE
  5
E7
330
1F
100
AcDbEntity
  8
0
  6
CONTINUOUS
 62
     7
100
AcDbLine
 10
466.5378238342
 20
458.7742712767
 30
0.0
 11
466.5378238342
 21
464.0742712767
 31
0.0
  0
LINE
  5
E8
330
1F
100
AcDbEntity
  8
0
  6
CONTINUOUS
 62
     7
100
AcDbLine
 10
466.5378238342
 20
458.7742712767
 30
0.0
 11
261.7378238342
 21
458.7742712767
 31
0.0
  0
LINE
  5
E9
330
1F
100
AcDbEntity
  8
0
  6
CONTINUOUS
 62
     7
100
AcDbLine
 10
261.7378238342
 20
458.7742712767
 30
0.0
 11
261.7378238342
 21
464.0742712767
 31
0.0
  0
LINE
  5
EA
330
1F
100
AcDbEntity
  8
0
  6
CONTINUOUS
 62
     7
100
AcDbLine
 10
270.5878238342
 20
457.2742712767
 30
0.0
 11
264.6878238342
 21
457.2742712767
 31
0.0
  0
LINE
  5
EB
330
1F
100
AcDbEntity
  8
0
  6
CONTINUOUS
 62
     7
100
AcDbLine
 10
463.5878238342
 20
457.2742712767
 30
0.0
 11
457.6878238342
 21
457.2742712767
 31
0.0
  0
LINE
  5
EC
330
1F
100
AcDbEntity
  8
0
  6
CONTINUOUS
 62
     7
100
AcDbLine
 10
284.8878238342
 20
456.7742712767
 30
0.0
 11
277.3878238342
 21
456.7742712767
 31
0.0
  0
LINE
  5
ED
330
1F
100
AcDbEntity
  8
0
  6
CONTINUOUS
 62
     7
100
AcDbLine
 10
450.8878238342
 20
456.7742712767
 30
0.0
 11
443.3878238342
 21
456.7742712767
 31
0.0
  0
LINE
  5
EE
330
1F
100
AcDbEntity
  8
0
  6
CONTINUOUS
 62
     7
100
AcDbLine
 10
367.8878238342
 20
456.7742712767
 30
0.0
 11
360.3878238342
 21
456.7742712767
 31
0.0
  0
LINE
  5
EF
330
1F
100
AcDbEntity
  8
0
  6
CONTINUOUS
 62
     7
100
AcDbLine
 10
270.5878238342
 20
252.1293556663
 30
0.0
 11
270.5878238342
 21
253.6293556663
 31
0.0
  0
LINE
  5
F0
330
1F
100
AcDbEntity
  8
0
  6
CONTINUOUS
 62
     7
100
AcDbLine
 10
264.6878238342
 20
253.6293556663
 30
0.0
 11
264.6878238342
 21
252.1293556663
 31
0.0
  0
LINE
  5
F1
330
1F
100
AcDbEntity
  8
0
  6
CONTINUOUS
 62
     7
100
AcDbLine
 10
463.5878238342
 20
252.1293556663
 30
0.0
 11
463.5878238342
 21
253.6293556663
 31
0.0
  0
LINE
  5
F2
330
1F
100
AcDbEntity
  8
0
  6
CONTINUOUS
 62
     7
100
AcDbLine
 10
457.6878238342
 20
253.6293556663
 30
0.0
 11
457.6878238342
 21
252.1293556663
 31
0.0
  0
LINE
  5
F3
330
1F
100
AcDbEntity
  8
0
  6
CONTINUOUS
 62
     7
100
AcDbLine
 10
450.8878238342
 20
252.1293556663
 30
0.0
 11
450.8878238342
 21
254.1293556663
 31
0.0
  0
LINE
  5
F4
330
1F
100
AcDbEntity
  8
0
  6
CONTINUOUS
 62
     7
100
AcDbLine
 10
443.3878238342
 20
254.1293556663
 30
0.0
 11
443.3878238342
 21
252.1293556663
 31
0.0
  0
LINE
  5
F5
330
1F
100
AcDbEntity
  8
0
  6
CONTINUOUS
 62
     7
100
AcDbLine
 10
367.8878238342
 20
252.1293556663
 30
0.0
 11
367.8878238342
 21
254.1293556663
 31
0.0
  0
LINE
  5
F6
330
1F
100
AcDbEntity
  8
0
  6
CONTINUOUS
 62
     7
100
AcDbLine
 10
360.3878238342
 20
254.1293556663
 30
0.0
 11
360.3878238342
 21
252.1293556663
 31
0.0
  0
LINE
  5
F7
330
1F
100
AcDbEntity
  8
0
  6
CONTINUOUS
 62
     7
100
AcDbLine
 10
284.8878238342
 20
252.1293556663
 30
0.0
 11
284.8878238342
 21
254.1293556663
 31
0.0
  0
LINE
  5
F8
330
1F
100
AcDbEntity
  8
0
  6
CONTINUOUS
 62
     7
100
AcDbLine
 10
277.3878238342
 20
254.1293556663
 30
0.0
 11
277.3878238342
 21
252.1293556663
 31
0.0
  0
LINE
  5
F9
330
1F
100
AcDbEntity
  8
0
  6
CONTINUOUS
 62
     7
100
AcDbLine
 10
469.1380522915
 20
246.8293556663
 30
0.0
 11
259.1375953769
 21
246.8293556663
 31
0.0
  0
LINE
  5
FA
330
1F
100
AcDbEntity
  8
0
  6
CONTINUOUS
 62
     7
100
AcDbLine
 10
469.0298274329
 20
240.62915767
 30
0.0
 11
469.1380522915
 21
246.8293556663
 31
0.0
  0
LINE
  5
FB
330
1F
100
AcDbEntity
  8
0
  6
CONTINUOUS
 62
     7
100
AcDbLine
 10
454.8126034114
 20
240.62915767
 30
0.0
 11
469.0298274329
 21
240.62915767
 31
0.0
  0
LWPOLYLINE
  5
FC
330
1F
100
AcDbEntity
  8
0
  6
CONTINUOUS
 62
     7
100
AcDbPolyline
 90
        8
 70
   128
 43
0.0
 10
273.463044257
 20
240.6281997079
 10
299.2901869483
 20
238.1000065614
 10
325.1812793899
 20
236.4145337048
 10
351.1363215819
 20
235.5717811383
 10
377.1390841401
 20
235.5717534729
 10
403.0938843857
 20
236.4144783741
 10
428.9850574761
 20
238.0999604524
 10
454.8126034114
 20
240.6281997079
  0
LINE
  5
FD
330
1F
100
AcDbEntity
  8
0
  6
CONTINUOUS
 62
     7
100
AcDbLine
 10
259.2458202355
 20
240.62915767
 30
0.0
 11
273.4631538299
 21
240.62915767
 31
0.0
  0
LINE
  5
FE
330
1F
100
AcDbEntity
  8
0
  6
CONTINUOUS
 62
     7
100
AcDbLine
 10
259.1375953769
 20
246.8293556663
 30
0.0
 11
259.2458202355
 21
240.62915767
 31
0.0
  0
LINE
  5
FF
330
1F
100
AcDbEntity
  8
0
  6
CONTINUOUS
 62
     7
100
AcDbLine
 10
273.3878238342
 20
239.3293556663
 30
0.0
 11
259.2458202355
 21
239.3293556663
 31
0.0
  0
LINE
  5
100
330
1F
100
AcDbEntity
  8
0
  6
CONTINUOUS
 62
     7
100
AcDbLine
 10
259.2458202355
 20
240.62915767
 30
0.0
 11
259.2458202355
 21
239.3293556663
 31
0.0
  0
LINE
  5
101
330
1F
100
AcDbEntity
  8
0
  6
CONTINUOUS
 62
     7
100
AcDbLine
 10
273.3805672302
 20
239.3295552406
 30
0.0
 11
273.4546802387
 21
240.6293909049
 31
0.0
  0
LWPOLYLINE
  5
102
330
1F
100
AcDbEntity
  8
0
  6
CONTINUOUS
 62
     7
100
AcDbPolyline
 90
        8
 70
   128
 43
0.0
 10
454.8878239397
 20
239.3293556783
 10
429.0277191943
 20
236.8014924686
 10
403.0991621885
 20
235.1147674023
 10
377.1295049211
 20
234.2709598034
 10
351.1461427473
 20
234.2709598034
 10
325.1764854799
 20
235.1147674023
 10
299.2479284741
 20
236.8014924686
 10
273.3878237287
 20
239.3293556783
  0
LINE
  5
103
330
1F
100
AcDbEntity
  8
0
  6
CONTINUOUS
 62
     7
100
AcDbLine
 10
454.8950961353
 20
239.3292798233
 30
0.0
 11
454.8209944039
 21
240.6289180109
 31
0.0
  0
LINE
  5
104
330
1F
100
AcDbEntity
  8
0
  6
CONTINUOUS
 62
     7
100
AcDbLine
 10
469.0298274329
 20
239.3293556663
 30
0.0
 11
454.8878238342
 21
239.3293556663
 31
0.0
  0
LINE
  5
105
330
1F
100
AcDbEntity
  8
0
  6
CONTINUOUS
 62
     7
100
AcDbLine
 10
469.0298274329
 20
239.3293556663
 30
0.0
 11
469.0298274329
 21
240.62915767
 31
0.0
  0
LINE
  5
106
330
1F
100
AcDbEntity
  8
0
  6
CONTINUOUS
 62
     7
100
AcDbLine
 10
469.1380522915
 20
246.8293556663
 30
0.0
 11
470.6378238342
 21
246.8293556663
 31
0.0
  0
LINE
  5
107
330
1F
100
AcDbEntity
  8
0
  6
CONTINUOUS
 62
     7
100
AcDbLine
 10
470.6378238342
 20
246.8293556663
 30
0.0
 11
470.5295989756
 21
240.62915767
 31
0.0
  0
ARC
  5
108
330
1F
100
AcDbEntity
  8
0
  6
CONTINUOUS
 62
     7
100
AcDbCircle
 10
469.7797132042
 20
262.120470474
 30
0.0
 40
21.5043915214755
100
AcDbArc
 50
268.0016173803
 51
271.9983826197
  0
LINE
  5
109
330
1F
100
AcDbEntity
  8
0
  6
CONTINUOUS
 62
     7
100
AcDbLine
 10
257.6378238342
 20
246.8293556663
 30
0.0
 11
259.1375953769
 21
246.8293556663
 31
0.0
  0
ARC
  5
10A
330
1F
100
AcDbEntity
  8
0
  6
CONTINUOUS
 62
     7
100
AcDbCircle
 10
258.4959344642
 20
262.120470474
 30
0.0
 40
21.5043915214755
100
AcDbArc
 50
268.0016173803
 51
271.9983826197
  0
LINE
  5
10B
330
1F
100
AcDbEntity
  8
0
  6
CONTINUOUS
 62
     7
100
AcDbLine
 10
257.7460486928
 20
240.62915767
 30
0.0
 11
257.6378238342
 21
246.8293556663
 31
0.0
  0
LINE
  5
10C
330
1F
100
AcDbEntity
  8
0
  6
CONTINUOUS
 62
     7
100
AcDbLine
 10
469.1836145988
 20
239.3293556663
 30
0.0
 11
469.0298274329
 21
239.3293556663
 31
0.0
  0
LINE
  5
10D
330
1F
100
AcDbEntity
  8
0
  6
CONTINUOUS
 62
     7
100
AcDbLine
 10
469.1836145988
 20
239.3293556663
 30
0.0
 11
470.5295989756
 21
240.62915767
 31
0.0
  0
LINE
  5
10E
330
1F
100
AcDbEntity
  8
0
  6
CONTINUOUS
 62
     7
100
AcDbLine
 10
259.2458202355
 20
239.3293556663
 30
0.0
 11
259.0920330696
 21
239.3293556663
 31
0.0
  0
LINE
  5
10F
330
1F
100
AcDbEntity
  8
0
  6
CONTINUOUS
 62
     7
100
AcDbLine
 10
257.7460486928
 20
240.62915767
 30
0.0
 11
259.0920330696
 21
239.3293556663
 31
0.0
  0
LINE
  5
110
330
1F
100
AcDbEntity
  8
0
  6
CONTINUOUS
 62
     7
100
AcDbLine
 10
261.7378238342
 20
252.1293556663
 30
0.0
 11
466.5378238342
 21
252.1293556663
 31
0.0
  0
LINE
  5
111
330
1F
100
AcDbEntity
  8
0
  6
CONTINUOUS
 62
     7
100
AcDbLine
 10
466.5378238342
 20
252.1293556663
 30
0.0
 11
466.5378238342
 21
246.8293556663
 31
0.0
  0
LINE
  5
112
330
1F
100
AcDbEntity
  8
0
  6
CONTINUOUS
 62
     7
100
AcDbLine
 10
261.7378238342
 20
252.1293556663
 30
0.0
 11
261.7378238342
 21
246.8293556663
 31
0.0
  0
LINE
  5
113
330
1F
100
AcDbEntity
  8
0
  6
CONTINUOUS
 62
     7
100
AcDbLine
 10
264.6878238342
 20
253.6293556663
 30
0.0
 11
270.5878238342
 21
253.6293556663
 31
0.0
  0
LINE
  5
114
330
1F
100
AcDbEntity
  8
0
  6
CONTINUOUS
 62
     7
100
AcDbLine
 10
457.6878238342
 20
253.6293556663
 30
0.0
 11
463.5878238342
 21
253.6293556663
 31
0.0
  0
LINE
  5
115
330
1F
100
AcDbEntity
  8
0
  6
CONTINUOUS
 62
     7
100
AcDbLine
 10
443.3878238342
 20
254.1293556663
 30
0.0
 11
450.8878238342
 21
254.1293556663
 31
0.0
  0
LINE
  5
116
330
1F
100
AcDbEntity
  8
0
  6
CONTINUOUS
 62
     7
100
AcDbLine
 10
360.3878238342
 20
254.1293556663
 30
0.0
 11
367.8878238342
 21
254.1293556663
 31
0.0
  0
LINE
  5
117
330
1F
100
AcDbEntity
  8
0
  6
CONTINUOUS
 62
     7
100
AcDbLine
 10
277.3878238342
 20
254.1293556663
 30
0.0
 11
284.8878238342
 21
254.1293556663
 31
0.0
  0
LINE
  5
118
330
1F
100
AcDbEntity
  8
0
  6
CONTINUOUS
 62
     7
100
AcDbLine
 10
529.9815251627
 20
304.0455758141
 30
0.0
 11
528.4815251627
 21
304.0455758141
 31
0.0
  0
LINE
  5
119
330
1F
100
AcDbEntity
  8
0
  6
CONTINUOUS
 62
     7
100
AcDbLine
 10
528.4815251627
 20
298.1455758141
 30
0.0
 11
529.9815251627
 21
298.1455758141
 31
0.0
  0
LINE
  5
11A
330
1F
100
AcDbEntity
  8
0
  6
CONTINUOUS
 62
     7
100
AcDbLine
 10
529.9815251627
 20
409.0455758141
 30
0.0
 11
528.4815251627
 21
409.0455758141
 31
0.0
  0
LINE
  5
11B
330
1F
100
AcDbEntity
  8
0
  6
CONTINUOUS
 62
     7
100
AcDbLine
 10
528.4815251627
 20
403.1455758141
 30
0.0
 11
529.9815251627
 21
403.1455758141
 31
0.0
  0
LINE
  5
11C
330
1F
100
AcDbEntity
  8
0
  6
CONTINUOUS
 62
     7
100
AcDbLine
 10
546.6211669042
 20
291.293509997
 30
0.0
 11
547.9442596593
 21
292.6166047009
 31
0.0
  0
LINE
  5
11D
330
1F
100
AcDbEntity
  8
0
  6
CONTINUOUS
 62
     7
100
AcDbLine
 10
547.9454178425
 20
292.6147678968
 30
0.0
 11
547.9454178425
 21
297.0749476663
 31
0.0
  0
LINE
  5
11E
330
1F
100
AcDbEntity
  8
0
  6
CONTINUOUS
 62
     7
100
AcDbLine
 10
547.9442559471
 20
414.5512507442
 30
0.0
 11
546.6444558653
 21
415.8972351209
 31
0.0
  0
LINE
  5
11F
330
1F
100
AcDbEntity
  8
0
  6
CONTINUOUS
 62
     7
100
AcDbLine
 10
547.9454178425
 20
410.1162039619
 30
0.0
 11
547.9454178425
 21
414.5530875946
 31
0.0
  0
LINE
  5
120
330
1F
100
AcDbEntity
  8
0
  6
CONTINUOUS
 62
     7
100
AcDbLine
 10
529.9815251627
 20
307.3455758141
 30
0.0
 11
527.9815251627
 21
307.3455758141
 31
0.0
  0
LINE
  5
121
330
1F
100
AcDbEntity
  8
0
  6
CONTINUOUS
 62
     7
100
AcDbLine
 10
527.9815251627
 20
299.8455758141
 30
0.0
 11
528.4815251627
 21
299.8455758141
 31
0.0
  0
LINE
  5
122
330
1F
100
AcDbEntity
  8
0
  6
CONTINUOUS
 62
     7
100
AcDbLine
 10
528.4815251627
 20
407.3455758141
 30
0.0
 11
527.9815251627
 21
407.3455758141
 31
0.0
  0
LINE
  5
123
330
1F
100
AcDbEntity
  8
0
  6
CONTINUOUS
 62
     7
100
AcDbLine
 10
527.9815251627
 20
399.8455758141
 30
0.0
 11
529.9815251627
 21
399.8455758141
 31
0.0
  0
LINE
  5
124
330
1F
100
AcDbEntity
  8
0
  6
CONTINUOUS
 62
     7
100
AcDbLine
 10
535.2815251627
 20
414.5958042714
 30
0.0
 11
535.2815251627
 21
416.0955758141
 31
0.0
  0
LINE
  5
125
330
1F
100
AcDbEntity
  8
0
  6
CONTINUOUS
 62
     7
100
AcDbLine
 10
535.2815251627
 20
416.0955758141
 30
0.0
 11
541.481723159
 21
415.9873509555
 31
0.0
  0
ARC
  5
126
330
1F
100
AcDbEntity
  8
0
  6
CONTINUOUS
 62
     7
100
AcDbCircle
 10
519.9904103548
 20
415.2374651841
 30
0.0
 40
21.5043915216782
100
AcDbArc
 50
358.0016173803
 51
1.9983826197
  0
LINE
  5
127
330
1F
100
AcDbEntity
  8
0
  6
CONTINUOUS
 62
     7
100
AcDbLine
 10
541.481723159
 20
414.4875794128
 30
0.0
 11
535.2815251627
 21
414.5958042714
 31
0.0
  0
LINE
  5
128
330
1F
100
AcDbEntity
  8
0
  6
CONTINUOUS
 62
     7
100
AcDbLine
 10
535.2815251627
 20
414.5958042714
 30
0.0
 11
535.2815251627
 21
292.5953473568
 31
0.0
  0
LINE
  5
129
330
1F
100
AcDbEntity
  8
0
  6
CONTINUOUS
 62
     7
100
AcDbLine
 10
541.481723159
 20
292.7035722154
 30
0.0
 11
541.481723159
 21
414.4875794128
 31
0.0
  0
LINE
  5
12A
330
1F
100
AcDbEntity
  8
0
  6
CONTINUOUS
 62
     7
100
AcDbLine
 10
535.2815251627
 20
292.5953473568
 30
0.0
 11
541.481723159
 21
292.7035722154
 31
0.0
  0
LINE
  5
12B
330
1F
100
AcDbEntity
  8
0
  6
CONTINUOUS
 62
     7
100
AcDbLine
 10
535.2815251627
 20
291.0955758141
 30
0.0
 11
535.2815251627
 21
292.5953473568
 31
0.0
  0
ARC
  5
12C
330
1F
100
AcDbEntity
  8
0
  6
CONTINUOUS
 62
     7
100
AcDbCircle
 10
519.9904103548
 20
291.9536864441
 30
0.0
 40
21.50439152167819
100
AcDbArc
 50
358.0016173803
 51
1.9983826197
  0
LINE
  5
12D
330
1F
100
AcDbEntity
  8
0
  6
CONTINUOUS
 62
     7
100
AcDbLine
 10
541.481723159
 20
291.2038006727
 30
0.0
 11
535.2815251627
 21
291.0955758141
 31
0.0
  0
LINE
  5
12E
330
1F
100
AcDbEntity
  8
0
  6
CONTINUOUS
 62
     7
100
AcDbLine
 10
541.481723159
 20
292.7035722154
 30
0.0
 11
542.7815251627
 21
292.7035722154
 31
0.0
  0
LINE
  5
12F
330
1F
100
AcDbEntity
  8
0
  6
CONTINUOUS
 62
     7
100
AcDbLine
 10
542.7815251627
 20
292.7035722154
 30
0.0
 11
542.7815251627
 21
292.5497850495
 31
0.0
  0
LINE
  5
130
330
1F
100
AcDbEntity
  8
0
  6
CONTINUOUS
 62
     7
100
AcDbLine
 10
541.481723159
 20
291.2038006727
 30
0.0
 11
542.7815251627
 21
292.5497850495
 31
0.0
  0
LINE
  5
131
330
1F
100
AcDbEntity
  8
0
  6
CONTINUOUS
 62
     7
100
AcDbLine
 10
541.481723159
 20
414.4875794128
 30
0.0
 11
542.7815251627
 21
414.4875794128
 31
0.0
  0
LINE
  5
132
330
1F
100
AcDbEntity
  8
0
  6
CONTINUOUS
 62
     7
100
AcDbLine
 10
542.7815251627
 20
414.4875794128
 30
0.0
 11
542.7815251627
 21
292.7035722154
 31
0.0
  0
LINE
  5
133
330
1F
100
AcDbEntity
  8
0
  6
CONTINUOUS
 62
     7
100
AcDbLine
 10
541.481723159
 20
415.9873509555
 30
0.0
 11
542.7815251627
 21
414.6413665788
 31
0.0
  0
LINE
  5
134
330
1F
100
AcDbEntity
  8
0
  6
CONTINUOUS
 62
     7
100
AcDbLine
 10
542.7815251627
 20
414.6413665788
 30
0.0
 11
542.7815251627
 21
414.4875794128
 31
0.0
  0
LINE
  5
135
330
1F
100
AcDbEntity
  8
0
  6
CONTINUOUS
 62
     7
100
AcDbLine
 10
529.9815251627
 20
411.9955758141
 30
0.0
 11
535.2815251627
 21
411.9955758141
 31
0.0
  0
LINE
  5
136
330
1F
100
AcDbEntity
  8
0
  6
CONTINUOUS
 62
     7
100
AcDbLine
 10
529.9815251627
 20
295.1955758141
 30
0.0
 11
529.9815251627
 21
411.9955758141
 31
0.0
  0
LINE
  5
137
330
1F
100
AcDbEntity
  8
0
  6
CONTINUOUS
 62
     7
100
AcDbLine
 10
529.9815251627
 20
295.1955758141
 30
0.0
 11
535.2815251627
 21
295.1955758141
 31
0.0
  0
LINE
  5
138
330
1F
100
AcDbEntity
  8
0
  6
CONTINUOUS
 62
     7
100
AcDbLine
 10
528.4815251627
 20
301.0955758141
 30
0.0
 11
528.4815251627
 21
304.0455758141
 31
0.0
  0
LINE
  5
139
330
1F
100
AcDbEntity
  8
0
  6
CONTINUOUS
 62
     7
100
AcDbLine
 10
528.4815251627
 20
298.1455758141
 30
0.0
 11
528.4815251627
 21
301.0955758141
 31
0.0
  0
LINE
  5
13A
330
1F
100
AcDbEntity
  8
0
  6
CONTINUOUS
 62
     7
100
AcDbLine
 10
528.4815251627
 20
403.1455758141
 30
0.0
 11
528.4815251627
 21
409.0455758141
 31
0.0
  0
LWPOLYLINE
  5
13B
330
1F
100
AcDbEntity
  8
0
  6
CONTINUOUS
 62
     7
100
AcDbPolyline
 90
        5
 70
   128
 43
0.0
 10
542.7815251507
 20
292.5266571474
 10
545.3093883601
 20
292.5707125221
 10
546.9961134264
 20
292.6000827719
 10
547.8399210254
 20
292.6147678968
 10
547.8399210256
 20
292.6147678968
  0
LINE
  5
13C
330
1F
100
AcDbEntity
  8
0
  6
CONTINUOUS
 62
     7
100
AcDbLine
 10
541.4826878506
 20
291.2038175115
 30
0.0
 11
546.5163137863
 21
291.291679779
 31
0.0
  0
LINE
  5
13D
330
1F
100
AcDbEntity
  8
0
  6
CONTINUOUS
 62
     7
100
AcDbLine
 10
542.7815251627
 20
297.3455758141
 30
0.0
 11
547.9454178425
 21
297.0749476663
 31
0.0
  0
LWPOLYLINE
  5
13E
330
1F
100
AcDbEntity
  8
0
  6
CONTINUOUS
 62
     7
100
AcDbPolyline
 90
        5
 70
   128
 43
0.0
 10
547.8399210256
 20
414.5530875946
 10
547.8399210256
 20
414.5530875946
 10
546.9961134267
 20
414.567773106
 10
545.3093883604
 20
414.5971441289
 10
542.7815251507
 20
414.6412006631
  0
LINE
  5
13F
330
1F
100
AcDbEntity
  8
0
  6
CONTINUOUS
 62
     7
100
AcDbLine
 10
541.4826811211
 20
415.9873342342
 30
0.0
 11
546.5391135236
 21
415.8990738783
 31
0.0
  0
LINE
  5
140
330
1F
100
AcDbEntity
  8
0
  6
CONTINUOUS
 62
     7
100
AcDbLine
 10
547.9454178425
 20
410.1162039619
 30
0.0
 11
542.7815251627
 21
409.8455758141
 31
0.0
  0
LINE
  5
141
330
1F
100
AcDbEntity
  8
0
  6
CONTINUOUS
 62
     7
100
AcDbLine
 10
527.9815251627
 20
303.5955758141
 30
0.0
 11
527.9815251627
 21
307.3455758141
 31
0.0
  0
LINE
  5
142
330
1F
100
AcDbEntity
  8
0
  6
CONTINUOUS
 62
     7
100
AcDbLine
 10
527.9815251627
 20
299.8455758141
 30
0.0
 11
527.9815251627
 21
303.5955758141
 31
0.0
  0
LINE
  5
143
330
1F
100
AcDbEntity
  8
0
  6
CONTINUOUS
 62
     7
100
AcDbLine
 10
527.9815251627
 20
399.8455758141
 30
0.0
 11
527.9815251627
 21
407.3455758141
 31
0.0
  0
CIRCLE
  5
144
330
1F
100
AcDbEntity
  8
0
  6
CONTINUOUS
 62
     7
100
AcDbCircle
 10
628.889119171
 20
403.5955758141
 30
0.0
 40
1.199999999999932
  0
CIRCLE
  5
145
330
1F
100
AcDbEntity
  8
0
  6
CONTINUOUS
 62
     7
100
AcDbCircle
 10
628.889119171
 20
403.5955758141
 30
0.0
 40
3.749999999999886
  0
CIRCLE
  5
146
330
1F
100
AcDbEntity
  8
0
  6
CONTINUOUS
 62
     7
100
AcDbCircle
 10
628.889119171
 20
303.5955758141
 30
0.0
 40
1.200000000000159
  0
CIRCLE
  5
147
330
1F
100
AcDbEntity
  8
0
  6
CONTINUOUS
 62
     7
100
AcDbCircle
 10
628.889119171
 20
303.5955758141
 30
0.0
 40
3.750000000000114
  0
CIRCLE
  5
148
330
1F
100
AcDbEntity
  8
0
  6
CONTINUOUS
 62
     7
100
AcDbCircle
 10
711.889119171
 20
403.5955758141
 30
0.0
 40
1.200000000000045
  0
CIRCLE
  5
149
330
1F
100
AcDbEntity
  8
0
  6
CONTINUOUS
 62
     7
100
AcDbCircle
 10
711.889119171
 20
403.5955758141
 30
0.0
 40
3.750000000000114
  0
CIRCLE
  5
14A
330
1F
100
AcDbEntity
  8
0
  6
CONTINUOUS
 62
     7
100
AcDbCircle
 10
711.889119171
 20
303.5955758141
 30
0.0
 40
1.199999999999932
  0
CIRCLE
  5
14B
330
1F
100
AcDbEntity
  8
0
  6
CONTINUOUS
 62
     7
100
AcDbCircle
 10
711.889119171
 20
303.5955758141
 30
0.0
 40
3.75
  0
CIRCLE
  5
14C
330
1F
100
AcDbEntity
  8
0
  6
CONTINUOUS
 62
     7
100
AcDbCircle
 10
794.889119171
 20
403.5955758141
 30
0.0
 40
1.199999999999932
  0
CIRCLE
  5
14D
330
1F
100
AcDbEntity
  8
0
  6
CONTINUOUS
 62
     7
100
AcDbCircle
 10
794.889119171
 20
403.5955758141
 30
0.0
 40
3.749999999999886
  0
CIRCLE
  5
14E
330
1F
100
AcDbEntity
  8
0
  6
CONTINUOUS
 62
     7
100
AcDbCircle
 10
794.889119171
 20
303.5955758141
 30
0.0
 40
1.200000000000045
  0
CIRCLE
  5
14F
330
1F
100
AcDbEntity
  8
0
  6
CONTINUOUS
 62
     7
100
AcDbCircle
 10
794.889119171
 20
303.5955758141
 30
0.0
 40
3.75
  0
CIRCLE
  5
150
330
1F
100
AcDbEntity
  8
0
  6
CONTINUOUS
 62
     7
100
AcDbCircle
 10
615.389119171
 20
301.0955758141
 30
0.0
 40
1.599999999999909
  0
CIRCLE
  5
151
330
1F
100
AcDbEntity
  8
0
  6
CONTINUOUS
 62
     7
100
AcDbCircle
 10
615.389119171
 20
301.0955758141
 30
0.0
 40
2.950000000000045
  0
CIRCLE
  5
152
330
1F
100
AcDbEntity
  8
0
  6
CONTINUOUS
 62
     7
100
AcDbCircle
 10
615.389119171
 20
406.0955758141
 30
0.0
 40
1.600000000000023
  0
CIRCLE
  5
153
330
1F
100
AcDbEntity
  8
0
  6
CONTINUOUS
 62
     7
100
AcDbCircle
 10
615.389119171
 20
406.0955758141
 30
0.0
 40
2.950000000000045
  0
CIRCLE
  5
154
330
1F
100
AcDbEntity
  8
0
  6
CONTINUOUS
 62
     7
100
AcDbCircle
 10
808.389119171
 20
406.0955758141
 30
0.0
 40
2.950000000000045
  0
CIRCLE
  5
155
330
1F
100
AcDbEntity
  8
0
  6
CONTINUOUS
 62
     7
100
AcDbCircle
 10
808.389119171
 20
406.0955758141
 30
0.0
 40
1.600000000000136
  0
CIRCLE
  5
156
330
1F
100
AcDbEntity
  8
0
  6
CONTINUOUS
 62
     7
100
AcDbCircle
 10
808.389119171
 20
301.0955758141
 30
0.0
 40
1.600000000000023
  0
CIRCLE
  5
157
330
1F
100
AcDbEntity
  8
0
  6
CONTINUOUS
 62
     7
100
AcDbCircle
 10
808.389119171
 20
301.0955758141
 30
0.0
 40
2.949999999999932
  0
LINE
  5
158
330
1F
100
AcDbEntity
  8
0
  6
CONTINUOUS
 62
     7
100
AcDbLine
 10
610.689119171
 20
296.3955758141
 30
0.0
 11
813.089119171
 21
296.3955758141
 31
0.0
  0
LINE
  5
159
330
1F
100
AcDbEntity
  8
0
  6
CONTINUOUS
 62
     7
100
AcDbLine
 10
813.089119171
 20
296.3955758141
 30
0.0
 11
813.089119171
 21
410.7955758141
 31
0.0
  0
LINE
  5
15A
330
1F
100
AcDbEntity
  8
0
  6
CONTINUOUS
 62
     7
100
AcDbLine
 10
813.089119171
 20
410.7955758141
 30
0.0
 11
610.689119171
 21
410.7955758141
 31
0.0
  0
LINE
  5
15B
330
1F
100
AcDbEntity
  8
0
  6
CONTINUOUS
 62
     7
100
AcDbLine
 10
610.689119171
 20
410.7955758141
 30
0.0
 11
610.689119171
 21
296.3955758141
 31
0.0
  0
LINE
  5
15C
330
1F
100
AcDbEntity
  8
0
  6
CONTINUOUS
 62
     7
100
AcDbLine
 10
814.289119171
 20
295.1955758141
 30
0.0
 11
814.289119171
 21
411.9955758141
 31
0.0
  0
LINE
  5
15D
330
1F
100
AcDbEntity
  8
0
  6
CONTINUOUS
 62
     7
100
AcDbLine
 10
609.489119171
 20
295.1955758141
 30
0.0
 11
814.289119171
 21
295.1955758141
 31
0.0
  0
LINE
  5
15E
330
1F
100
AcDbEntity
  8
0
  6
CONTINUOUS
 62
     7
100
AcDbLine
 10
609.489119171
 20
411.9955758141
 30
0.0
 11
609.489119171
 21
295.1955758141
 31
0.0
  0
LINE
  5
15F
330
1F
100
AcDbEntity
  8
0
  6
CONTINUOUS
 62
     7
100
AcDbLine
 10
814.289119171
 20
411.9955758141
 30
0.0
 11
609.489119171
 21
411.9955758141
 31
0.0
  0
ARC
  5
160
330
1F
100
AcDbEntity
  8
0
  6
CONTINUOUS
 62
     7
100
AcDbCircle
 10
615.389119171
 20
301.0955758141
 30
0.0
 40
5.700000000000052
100
AcDbArc
 50
214.4559504613
 51
235.5440495387
  0
ARC
  5
161
330
1F
100
AcDbEntity
  8
0
  6
CONTINUOUS
 62
     7
100
AcDbCircle
 10
615.389119171
 20
301.0955758141
 30
0.0
 40
5.700000000000052
100
AcDbArc
 50
304.4559504613
 51
145.5440495387
  0
ARC
  5
162
330
1F
100
AcDbEntity
  8
0
  6
CONTINUOUS
 62
     7
100
AcDbCircle
 10
615.389119171
 20
406.0955758141
 30
0.0
 40
5.700000000000069
100
AcDbArc
 50
214.4559504613
 51
55.5440495387
  0
ARC
  5
163
330
1F
100
AcDbEntity
  8
0
  6
CONTINUOUS
 62
     7
100
AcDbCircle
 10
615.389119171
 20
406.0955758141
 30
0.0
 40
5.700000000000006
100
AcDbArc
 50
124.4559504613
 51
145.5440495387
  0
ARC
  5
164
330
1F
100
AcDbEntity
  8
0
  6
CONTINUOUS
 62
     7
100
AcDbCircle
 10
808.389119171
 20
406.0955758141
 30
0.0
 40
5.699999999999941
100
AcDbArc
 50
34.4559504613
 51
55.5440495387
  0
ARC
  5
165
330
1F
100
AcDbEntity
  8
0
  6
CONTINUOUS
 62
     7
100
AcDbCircle
 10
808.389119171
 20
406.0955758141
 30
0.0
 40
5.700000000000069
100
AcDbArc
 50
124.4559504613
 51
325.5440495387
  0
ARC
  5
166
330
1F
100
AcDbEntity
  8
0
  6
CONTINUOUS
 62
     7
100
AcDbCircle
 10
808.389119171
 20
301.0955758141
 30
0.0
 40
5.700000000000006
100
AcDbArc
 50
304.4559504613
 51
325.5440495387
  0
ARC
  5
167
330
1F
100
AcDbEntity
  8
0
  6
CONTINUOUS
 62
     7
100
AcDbCircle
 10
808.389119171
 20
301.0955758141
 30
0.0
 40
5.700000000000069
100
AcDbArc
 50
34.4559504613
 51
235.5440495387
  0
LINE
  5
168
330
1F
100
AcDbEntity
  8
0
  6
CONTINUOUS
 62
     7
100
AcDbLine
 10
818.389119171
 20
414.5958042714
 30
0.0
 11
818.389119171
 21
292.5953473568
 31
0.0
  0
ELLIPSE
  5
169
330
1F
100
AcDbEntity
  8
0
  6
CONTINUOUS
 62
     7
100
AcDbEllipse
 10
816.8888906789
 20
292.5958043062
 30
0.0
 11
1.060983283754354
 21
-1.060983283754354
 31
0.0
210
0.0
220
0.0
230
1.0
 40
0.9996954599
 41
5.497939437029809
 42
7.068431177329415
  0
ELLIPSE
  5
16A
330
1F
100
AcDbEntity
  8
0
  6
CONTINUOUS
 62
     7
100
AcDbEllipse
 10
816.8888906789
 20
414.595347322
 30
0.0
 11
1.060983283754354
 21
1.060983283754354
 31
0.0
210
0.0
220
0.0
230
1.0
 40
0.9996954599
 41
5.497939437029745
 42
7.068431177329403
  0
LINE
  5
16B
330
1F
100
AcDbEntity
  8
0
  6
CONTINUOUS
 62
     7
100
AcDbLine
 10
816.8893476283
 20
291.0955758141
 30
0.0
 11
606.8888907137
 21
291.0955758141
 31
0.0
  0
LINE
  5
16C
330
1F
100
AcDbEntity
  8
0
  6
CONTINUOUS
 62
     7
100
AcDbLine
 10
606.8888907137
 20
416.0955758141
 30
0.0
 11
816.8893476283
 21
416.0955758141
 31
0.0
  0
ELLIPSE
  5
16D
330
1F
100
AcDbEntity
  8
0
  6
CONTINUOUS
 62
     7
100
AcDbEllipse
 10
606.8893476631
 20
414.595347322
 30
0.0
 11
-1.060983283754354
 21
1.060983283754354
 31
0.0
210
0.0
220
0.0
230
1.0
 40
0.9996954599
 41
5.497939437029707
 42
7.068431177329441
  0
ELLIPSE
  5
16E
330
1F
100
AcDbEntity
  8
0
  6
CONTINUOUS
 62
     7
100
AcDbEllipse
 10
606.8893476631
 20
292.5958043062
 30
0.0
 11
-1.060983283754354
 21
-1.060983283754354
 31
0.0
210
0.0
220
0.0
230
1.0
 40
0.9996954599
 41
5.497939437029734
 42
7.068431177329452
  0
LINE
  5
16F
330
1F
100
AcDbEntity
  8
0
  6
CONTINUOUS
 62
     7
100
AcDbLine
 10
605.389119171
 20
292.5953473568
 30
0.0
 11
605.389119171
 21
414.5958042714
 31
0.0
  0
LINE
  5
170
330
1F
100
AcDbEntity
  8
0
  6
CONTINUOUS
 62
     7
100
AcDbLine
 10
802.639119171
 20
297.3455758141
 30
0.0
 11
802.639119171
 21
409.8455758141
 31
0.0
  0
LINE
  5
171
330
1F
100
AcDbEntity
  8
0
  6
CONTINUOUS
 62
     7
100
AcDbLine
 10
802.639119171
 20
409.8455758141
 30
0.0
 11
621.139119171
 21
409.8455758141
 31
0.0
  0
LINE
  5
172
330
1F
100
AcDbEntity
  8
0
  6
CONTINUOUS
 62
     7
100
AcDbLine
 10
621.139119171
 20
409.8455758141
 30
0.0
 11
621.139119171
 21
297.3455758141
 31
0.0
  0
LINE
  5
173
330
1F
100
AcDbEntity
  8
0
  6
CONTINUOUS
 62
     7
100
AcDbLine
 10
621.139119171
 20
297.3455758141
 30
0.0
 11
802.639119171
 21
297.3455758141
 31
0.0
  0
CIRCLE
  5
174
330
1F
100
AcDbEntity
  8
0
  6
CONTINUOUS
 62
     7
100
AcDbCircle
 10
808.389119171
 20
323.5955758141
 30
0.0
 40
1.199999999999932
  0
CIRCLE
  5
175
330
1F
100
AcDbEntity
  8
0
  6
CONTINUOUS
 62
     7
100
AcDbCircle
 10
809.0834153277
 20
353.5955758141
 30
0.0
 40
1.200000000000045
  0
CIRCLE
  5
176
330
1F
100
AcDbEntity
  8
0
  6
CONTINUOUS
 62
     7
100
AcDbCircle
 10
808.389119171
 20
383.5955758141
 30
0.0
 40
1.200000000000045
  0
CIRCLE
  5
177
330
1F
100
AcDbEntity
  8
0
  6
CONTINUOUS
 62
     7
100
AcDbCircle
 10
615.389119171
 20
383.5955758141
 30
0.0
 40
1.200000000000045
  0
CIRCLE
  5
178
330
1F
100
AcDbEntity
  8
0
  6
CONTINUOUS
 62
     7
100
AcDbCircle
 10
614.6948230143
 20
353.5955758141
 30
0.0
 40
1.199999999999932
  0
CIRCLE
  5
179
330
1F
100
AcDbEntity
  8
0
  6
CONTINUOUS
 62
     7
100
AcDbCircle
 10
615.389119171
 20
323.5955758141
 30
0.0
 40
1.199999999999932
  0
ENDSEC
  0
SECTION
  2
OBJECTS
  0
DICTIONARY
  5
C
330
0
100
AcDbDictionary
  3
ACAD_GROUP
350
D
  3
ACAD_MLINESTYLE
350
17
  0
DICTIONARY
  5
D
102
{ACAD_REACTORS
330
C
102
}
330
C
100
AcDbDictionary
  0
DICTIONARY
  5
17
102
{ACAD_REACTORS
330
C
102
}
330
C
100
AcDbDictionary
  3
STANDARD
350
18
  0
MLINESTYLE
  5
18
102
{ACAD_REACTORS
330
17
102
}
330
17
100
AcDbMlineStyle
  2
Standard
 70
     0
  3

 62
   256
 51
90.0
 52
90.0
 71
     2
 49
0.5
 62
   256
  6
BYLAYER
 49
-0.5
 62
   256
  6
BYLAYER
  0
ENDSEC
  0
EOF
