  0
SECTION
  2
HEADER
  9
$ACADVER
  1
AC1014
  9
$ACADMAINTVER
 70
     9
  9
$DWGCODEPAGE
  3
ANSI_1252
  9
$INSBASE
 10
0.0
 20
0.0
 30
0.0
  9
$EXTMIN
 10
0.0
 20
0.0
 30
0.0
  9
$EXTMAX
 10
840.0
 20
594.0
 30
0.0
  9
$LIMMIN
 10
0.0
 20
0.0
  9
$LIMMAX
 10
840.0
 20
594.0
  9
$ORTHOMODE
 70
     0
  9
$REGENMODE
 70
     1
  9
$FILLMODE
 70
     1
  9
$QTEXTMODE
 70
     0
  9
$MIRRTEXT
 70
     1
  9
$DRAGMODE
 70
     2
  9
$LTSCALE
 40
2.0
  9
$OSMODE
 70
    37
  9
$ATTMODE
 70
     1
  9
$TEXTSIZE
 40
7.0
  9
$TRACEWID
 40
1.0
  9
$TEXTSTYLE
  7
STANDARD
  9
$CLAYER
  8
0
  9
$CELTYPE
  6
BYLAYER
  9
$CECOLOR
 62
   256
  9
$CELTSCALE
 40
1.0
  9
$DELOBJ
 70
     1
  9
$DISPSILH
 70
     0
  9
$DIMSCALE
 40
1.0
  9
$DIMASZ
 40
12.0
  9
$DIMEXO
 40
2.0
  9
$DIMDLI
 40
3.75
  9
$DIMRND
 40
0.0
  9
$DIMDLE
 40
0.0
  9
$DIMEXE
 40
2.0
  9
$DIMTP
 40
0.0
  9
$DIMTM
 40
0.0
  9
$DIMTXT
 40
7.0
  9
$DIMCEN
 40
2.5
  9
$DIMTSZ
 40
0.0
  9
$DIMTOL
 70
     0
  9
$DIMLIM
 70
     0
  9
$DIMTIH
 70
     1
  9
$DIMTOH
 70
     1
  9
$DIMSE1
 70
     0
  9
$DIMSE2
 70
     0
  9
$DIMTAD
 70
     1
  9
$DIMZIN
 70
     0
  9
$DIMBLK
  1

  9
$DIMASO
 70
     1
  9
$DIMSHO
 70
     1
  9
$DIMPOST
  1

  9
$DIMAPOST
  1

  9
$DIMALT
 70
     0
  9
$DIMALTD
 70
     3
  9
$DIMALTF
 40
0.0393700787
  9
$DIMLFAC
 40
1.0
  9
$DIMTOFL
 70
     1
  9
$DIMTVP
 40
0.0
  9
$DIMTIX
 70
     0
  9
$DIMSOXD
 70
     0
  9
$DIMSAH
 70
     0
  9
$DIMBLK1
  1

  9
$DIMBLK2
  1

  9
$DIMSTYLE
  2
ISO-25
  9
$DIMCLRD
 70
     0
  9
$DIMCLRE
 70
     0
  9
$DIMCLRT
 70
     0
  9
$DIMTFAC
 40
1.0
  9
$DIMGAP
 40
3.048
  9
$DIMJUST
 70
     0
  9
$DIMSD1
 70
     0
  9
$DIMSD2
 70
     0
  9
$DIMTOLJ
 70
     0
  9
$DIMTZIN
 70
     0
  9
$DIMALTZ
 70
     0
  9
$DIMALTTZ
 70
     0
  9
$DIMFIT
 70
     3
  9
$DIMUPT
 70
     0
  9
$DIMUNIT
 70
     2
  9
$DIMDEC
 70
     2
  9
$DIMTDEC
 70
     2
  9
$DIMALTU
 70
     2
  9
$DIMALTTD
 70
     3
  9
$DIMTXSTY
  7
STANDARD
  9
$DIMAUNIT
 70
     0
  9
$LUNITS
 70
     2
  9
$LUPREC
 70
     2
  9
$SKETCHINC
 40
1.0
  9
$FILLETRAD
 40
10.0
  9
$AUNITS
 70
     0
  9
$AUPREC
 70
     2
  9
$MENU
  1
.
  9
$ELEVATION
 40
0.0
  9
$PELEVATION
 40
0.0
  9
$THICKNESS
 40
0.0
  9
$LIMCHECK
 70
     0
  9
$CHAMFERA
 40
10.0
  9
$CHAMFERB
 40
10.0
  9
$CHAMFERC
 40
20.0
  9
$CHAMFERD
 40
0.0
  9
$SKPOLY
 70
     0
  9
$TDCREATE
 40
2455590.572515151
  9
$TDUPDATE
 40
2455590.572515162
  9
$TDINDWG
 40
0.0000000116
  9
$TDUSRTIMER
 40
0.0000000116
  9
$USRTIMER
 70
     1
  9
$ANGBASE
 50
0.0
  9
$ANGDIR
 70
     0
  9
$PDMODE
 70
     0
  9
$PDSIZE
 40
-1.0
  9
$PLINEWID
 40
0.0
  9
$COORDS
 70
     1
  9
$SPLFRAME
 70
     0
  9
$SPLINETYPE
 70
     6
  9
$SPLINESEGS
 70
     8
  9
$ATTDIA
 70
     0
  9
$ATTREQ
 70
     1
  9
$HANDLING
 70
     1
  9
$HANDSEED
  5
158
  9
$SURFTAB1
 70
     6
  9
$SURFTAB2
 70
     6
  9
$SURFTYPE
 70
     6
  9
$SURFU
 70
     6
  9
$SURFV
 70
     6
  9
$UCSNAME
  2

  9
$UCSORG
 10
0.0
 20
0.0
 30
0.0
  9
$UCSXDIR
 10
1.0
 20
0.0
 30
0.0
  9
$UCSYDIR
 10
0.0
 20
1.0
 30
0.0
  9
$PUCSNAME
  2

  9
$PUCSORG
 10
0.0
 20
0.0
 30
0.0
  9
$PUCSXDIR
 10
1.0
 20
0.0
 30
0.0
  9
$PUCSYDIR
 10
0.0
 20
1.0
 30
0.0
  9
$USERI1
 70
     0
  9
$USERI2
 70
     0
  9
$USERI3
 70
     0
  9
$USERI4
 70
     0
  9
$USERI5
 70
     0
  9
$USERR1
 40
0.0
  9
$USERR2
 40
0.0
  9
$USERR3
 40
0.0
  9
$USERR4
 40
0.0
  9
$USERR5
 40
0.0
  9
$WORLDVIEW
 70
     1
  9
$SHADEDGE
 70
     3
  9
$SHADEDIF
 70
    70
  9
$TILEMODE
 70
     1
  9
$MAXACTVP
 70
    64
  9
$PINSBASE
 10
0.0
 20
0.0
 30
0.0
  9
$PLIMCHECK
 70
     0
  9
$PEXTMIN
 10
1.0000000000E+20
 20
1.0000000000E+20
 30
1.0000000000E+20
  9
$PEXTMAX
 10
-1.0000000000E+20
 20
-1.0000000000E+20
 30
-1.0000000000E+20
  9
$PLIMMIN
 10
0.0
 20
0.0
  9
$PLIMMAX
 10
420.0
 20
297.0
  9
$UNITMODE
 70
     0
  9
$VISRETAIN
 70
     1
  9
$PLINEGEN
 70
     0
  9
$PSLTSCALE
 70
     1
  9
$TREEDEPTH
 70
  3020
  9
$PICKSTYLE
 70
     1
  9
$CMLSTYLE
  2
STANDARD
  9
$CMLJUST
 70
     0
  9
$CMLSCALE
 40
20.0
  9
$PROXYGRAPHICS
 70
     1
  9
$MEASUREMENT
 70
     1
  0
ENDSEC
  0
SECTION
  2
CLASSES
  0
CLASS
  1
ACDBDICTIONARYWDFLT
  2
AcDbDictionaryWithDefault
  3
ObjectDBX Classes
 90
        0
280
     0
281
     0
  0
CLASS
  1
VISUALSTYLE
  2
AcDbVisualStyle
  3
ObjectDBX Classes
 90
     4095
280
     0
281
     0
  0
CLASS
  1
MATERIAL
  2
AcDbMaterial
  3
ObjectDBX Classes
 90
     1153
280
     0
281
     0
  0
CLASS
  1
XRECORD
  2
AcDbXrecord
  3
AutoCAD 2000
 90
        0
280
     0
281
     0
  0
CLASS
  1
LWPOLYLINE
  2
AcDbPolyline
  3
AutoCAD 2000
 90
        0
280
     0
281
     1
  0
CLASS
  1
HATCH
  2
AcDbHatch
  3
AutoCAD 2000
 90
        0
280
     0
281
     1
  0
ENDSEC
  0
SECTION
  2
TABLES
  0
TABLE
  2
VPORT
  5
8
330
0
100
AcDbSymbolTable
 70
     1
  0
VPORT
  5
29
330
8
100
AcDbSymbolTableRecord
100
AcDbViewportTableRecord
  2
*ACTIVE
 70
     0
 10
0.0
 20
0.0
 11
1.0
 21
1.0
 12
420.0
 22
297.0
 13
0.0
 23
0.0
 14
10.0
 24
10.0
 15
10.0
 25
10.0
 16
0.0
 26
0.0
 36
1.0
 17
0.0
 27
0.0
 37
0.0
 40
594.0
 41
1.4141414141
 42
50.0
 43
0.0
 44
0.0
 50
0.0
 51
0.0
 71
     0
 72
  2000
 73
     1
 74
     3
 75
     0
 76
     0
 77
     0
 78
     0
  0
ENDTAB
  0
TABLE
  2
LTYPE
  5
5
330
0
100
AcDbSymbolTable
 70
     6
  0
LTYPE
  5
14
330
5
100
AcDbSymbolTableRecord
100
AcDbLinetypeTableRecord
  2
BYBLOCK
 70
     0
  3

 72
    65
 73
     0
 40
0.0
  0
LTYPE
  5
15
330
5
100
AcDbSymbolTableRecord
100
AcDbLinetypeTableRecord
  2
BYLAYER
 70
     0
  3

 72
    65
 73
     0
 40
0.0
  0
LTYPE
  5
16
330
5
100
AcDbSymbolTableRecord
100
AcDbLinetypeTableRecord
  2
CONTINUOUS
 70
     0
  3
Solid line
 72
    65
 73
     0
 40
0.0
  0
LTYPE
  5
3F
330
5
100
AcDbSymbolTableRecord
100
AcDbLinetypeTableRecord
  2
HIDDEN
 70
     0
  3
Hidden __ __ __ __ __ __ __ __ __ __ __ __ __ __
 72
    65
 73
     2
 40
1.905
 49
1.27
 74
     0
 49
-0.635
 74
     0
  0
LTYPE
  5
40
330
5
100
AcDbSymbolTableRecord
100
AcDbLinetypeTableRecord
  2
PHANTOM
 70
     0
  3
Phantom ______  __  __  ______  __  __  ______
 72
    65
 73
     6
 40
12.7
 49
6.35
 74
     0
 49
-1.27
 74
     0
 49
1.27
 74
     0
 49
-1.27
 74
     0
 49
1.27
 74
     0
 49
-1.27
 74
     0
  0
LTYPE
  5
41
330
5
100
AcDbSymbolTableRecord
100
AcDbLinetypeTableRecord
  2
CENTER
 70
     0
  3
Center ____ _ ____ _ ____ _ ____ _ ____ _ ____
 72
    65
 73
     4
 40
10.16
 49
6.35
 74
     0
 49
-1.27
 74
     0
 49
1.27
 74
     0
 49
-1.27
 74
     0
  0
LTYPE
  5
42
330
5
100
AcDbSymbolTableRecord
100
AcDbLinetypeTableRecord
  2
CENTERX2
 70
     0
  3
Center (2x) ________  __  ________  __  _____
 72
    65
 73
     4
 40
20.32
 49
12.7
 74
     0
 49
-2.54
 74
     0
 49
2.54
 74
     0
 49
-2.54
 74
     0
  0
LTYPE
  5
43
330
5
100
AcDbSymbolTableRecord
100
AcDbLinetypeTableRecord
  2
DOT2
 70
     0
  3
Dot (.5x) ........................................
 72
    65
 73
     2
 40
0.635
 49
0.0
 74
     0
 49
-0.635
 74
     0
  0
ENDTAB
  0
TABLE
  2
LAYER
  5
2
330
0
100
AcDbSymbolTable
 70
     1
  0
LAYER
  5
10
330
2
100
AcDbSymbolTableRecord
100
AcDbLayerTableRecord
  2
0
 70
     0
 62
     7
  6
CONTINUOUS
  0
ENDTAB
  0
TABLE
  2
STYLE
  5
3
330
0
100
AcDbSymbolTable
 70
     1
  0
STYLE
  5
11
330
3
100
AcDbSymbolTableRecord
100
AcDbTextStyleTableRecord
  2
STANDARD
 70
     0
 40
0.0
 41
1.0
 50
0.0
 71
     0
 42
2.5
  3
txt
  4

  0
ENDTAB
  0
TABLE
  2
VIEW
  5
6
330
0
100
AcDbSymbolTable
 70
     0
  0
ENDTAB
  0
TABLE
  2
UCS
  5
7
330
0
100
AcDbSymbolTable
 70
     0
  0
ENDTAB
  0
TABLE
  2
APPID
  5
9
330
0
100
AcDbSymbolTable
 70
     1
  0
APPID
  5
12
330
9
100
AcDbSymbolTableRecord
100
AcDbRegAppTableRecord
  2
ACAD
 70
     0
  0
ENDTAB
  0
TABLE
  2
DIMSTYLE
  5
A
330
0
100
AcDbSymbolTable
 70
     1
  0
DIMSTYLE
105
27
330
A
100
AcDbSymbolTableRecord
100
AcDbDimStyleTableRecord
  2
ISO-25
 70
     0
  3

  4

  5

  6

  7

 40
1.0
 41
2.5
 42
0.625
 43
3.75
 44
1.25
 45
0.0
 46
0.0
 47
0.0
 48
0.0
140
2.5
141
2.5
142
0.0
143
0.0393700787
144
1.0
145
0.0
146
1.0
147
0.625
 71
     0
 72
     0
 73
     0
 74
     0
 75
     0
 76
     0
 77
     1
 78
     8
170
     0
171
     3
172
     1
173
     0
174
     0
175
     0
176
     0
177
     0
178
     0
270
     2
271
     2
272
     2
273
     2
274
     3
340
11
275
     0
280
     0
281
     0
282
     0
283
     0
284
     8
285
     0
286
     0
287
     3
288
     0
  0
ENDTAB
  0
TABLE
  2
BLOCK_RECORD
  5
1
330
0
100
AcDbSymbolTable
 70
     1
  0
BLOCK_RECORD
  5
1F
330
1
100
AcDbSymbolTableRecord
100
AcDbBlockTableRecord
  2
*MODEL_SPACE
  0
BLOCK_RECORD
  5
1B
330
1
100
AcDbSymbolTableRecord
100
AcDbBlockTableRecord
  2
*PAPER_SPACE
  0
BLOCK_RECORD
  5
23
330
1
100
AcDbSymbolTableRecord
100
AcDbBlockTableRecord
  2
*PAPER_SPACE0
  0
ENDTAB
  0
ENDSEC
  0
SECTION
  2
BLOCKS
  0
BLOCK
  5
20
330
1F
100
AcDbEntity
  8
0
100
AcDbBlockBegin
  2
*MODEL_SPACE
 70
     0
 10
0.0
 20
0.0
 30
0.0
  3
*MODEL_SPACE
  1

  0
ENDBLK
  5
21
330
1F
100
AcDbEntity
  8
0
100
AcDbBlockEnd
  0
BLOCK
  5
1C
330
1B
100
AcDbEntity
 67
     1
  8
0
100
AcDbBlockBegin
  2
*PAPER_SPACE
 70
     0
 10
0.0
 20
0.0
 30
0.0
  3
*PAPER_SPACE
  1

  0
ENDBLK
  5
1D
330
1B
100
AcDbEntity
 67
     1
  8
0
100
AcDbBlockEnd
  0
BLOCK
  5
24
330
23
100
AcDbEntity
  8
0
100
AcDbBlockBegin
  2
*PAPER_SPACE0
 70
     0
 10
0.0
 20
0.0
 30
0.0
  3
*PAPER_SPACE0
  1

  0
ENDBLK
  5
25
330
23
100
AcDbEntity
  8
0
100
AcDbBlockEnd
  0
ENDSEC
  0
SECTION
  2
ENTITIES
  0
LWPOLYLINE
  5
44
330
1F
100
AcDbEntity
  8
0
  6
CONTINUOUS
 62
     7
100
AcDbPolyline
 90
        7
 70
   128
 43
0.0
 10
245.603626961
 20
351.8982036478
 10
223.7337444888
 20
351.8707999487
 10
201.8277242313
 20
351.8543577292
 10
179.9036275601
 20
351.8488769893
 10
157.9795307512
 20
351.8543577292
 10
136.0735100816
 20
351.8707999487
 10
114.2036269251
 20
351.8982036478
  0
LINE
  5
45
330
1F
100
AcDbEntity
  8
0
  6
CONTINUOUS
 62
     7
100
AcDbLine
 10
114.2581374812
 20
353.2213122888
 30
0.0
 11
114.2010924337
 21
351.8982509406
 31
0.0
  0
LWPOLYLINE
  5
46
330
1F
100
AcDbEntity
  8
0
  6
CONTINUOUS
 62
     7
100
AcDbPolyline
 90
        7
 70
   128
 43
0.0
 10
114.2616459607
 20
353.2213855191
 10
136.1423062881
 20
353.1938657182
 10
158.0229666156
 20
353.1773538376
 10
179.903626943
 20
353.1718498774
 10
201.7842872704
 20
353.1773538376
 10
223.6649475979
 20
353.1938657182
 10
245.5456079253
 20
353.2213855191
  0
LINE
  5
47
330
1F
100
AcDbEntity
  8
0
  6
CONTINUOUS
 62
     7
100
AcDbLine
 10
245.6061614523
 20
351.8982509406
 30
0.0
 11
245.5491164048
 21
353.2213122888
 31
0.0
  0
ELLIPSE
  5
48
330
1F
100
AcDbEntity
  8
0
  6
CONTINUOUS
 62
     7
100
AcDbEllipse
 10
179.903626943
 20
307.3083896371
 30
0.0
 11
763.6121687135703
 21
0.0
 31
0.0
210
0.0
220
0.0
230
1.0
 40
0.0524077793
 41
1.484651379757429
 42
1.656941273832363
  0
LINE
  5
49
330
1F
100
AcDbEntity
  8
0
  6
CONTINUOUS
 62
     7
100
AcDbLine
 10
114.203626943
 20
351.8982089714
 30
0.0
 11
114.203626943
 21
347.1792090925
 31
0.0
  0
LINE
  5
4A
330
1F
100
AcDbEntity
  8
0
  6
CONTINUOUS
 62
     7
100
AcDbLine
 10
245.603626943
 20
351.8982089714
 30
0.0
 11
245.603626943
 21
347.1792090925
 31
0.0
  0
LWPOLYLINE
  5
4B
330
1F
100
AcDbEntity
  8
0
  6
CONTINUOUS
 62
     7
100
AcDbPolyline
 90
        7
 70
   128
 43
0.0
 10
114.4652835277
 20
248.7839026321
 10
136.2483066305
 20
248.8110885819
 10
158.0670364543
 20
248.8274001519
 10
179.903626943
 20
248.8328373418
 10
201.7402174317
 20
248.8274001519
 10
223.5589472555
 20
248.8110885819
 10
245.3419703583
 20
248.7839026321
  0
LINE
  5
4C
330
1F
100
AcDbEntity
  8
0
  6
CONTINUOUS
 62
     7
100
AcDbLine
 10
245.3399943269
 20
248.7601220795
 30
0.0
 11
245.8188054232
 21
247.437774475
 31
0.0
  0
LWPOLYLINE
  5
4D
330
1F
100
AcDbEntity
  8
0
  6
CONTINUOUS
 62
     7
100
AcDbPolyline
 90
        7
 70
   128
 43
0.0
 10
245.8155263232
 20
247.4370327529
 10
223.8448931965
 20
247.4647794462
 10
201.8742600697
 20
247.4814274622
 10
179.903626943
 20
247.4869768008
 10
157.9329938163
 20
247.4814274622
 10
135.9623606895
 20
247.4647794462
 10
113.9917275628
 20
247.4370327529
  0
LINE
  5
4E
330
1F
100
AcDbEntity
  8
0
  6
CONTINUOUS
 62
     7
100
AcDbLine
 10
113.9883970935
 20
247.4376318157
 30
0.0
 11
114.4672595591
 21
248.7601220795
 31
0.0
  0
ELLIPSE
  5
4F
330
1F
100
AcDbEntity
  8
0
  6
CONTINUOUS
 62
     7
100
AcDbEllipse
 10
179.903626943
 20
293.350028548
 30
0.0
 11
763.6121687135703
 21
0.0
 31
0.0
210
0.0
220
0.0
230
1.0
 40
0.0524077793
 41
4.626244033347225
 42
4.798533927422159
  0
LINE
  5
50
330
1F
100
AcDbEntity
  8
0
  6
CONTINUOUS
 62
     7
100
AcDbLine
 10
245.603626943
 20
253.4792090925
 30
0.0
 11
245.603626943
 21
248.7835039803
 31
0.0
  0
LINE
  5
51
330
1F
100
AcDbEntity
  8
0
  6
CONTINUOUS
 62
     7
100
AcDbLine
 10
245.3399943269
 20
248.7601220795
 30
0.0
 11
245.603626943
 21
248.7601220795
 31
0.0
  0
LINE
  5
52
330
1F
100
AcDbEntity
  8
0
  6
CONTINUOUS
 62
     7
100
AcDbLine
 10
114.4672595591
 20
248.7601220795
 30
0.0
 11
114.203570703
 21
248.7831826237
 31
0.0
  0
LINE
  5
53
330
1F
100
AcDbEntity
  8
0
  6
CONTINUOUS
 62
     7
100
AcDbLine
 10
114.203626943
 20
253.4792090925
 30
0.0
 11
114.203626943
 21
248.7835039803
 31
0.0
  0
LINE
  5
54
330
1F
100
AcDbEntity
  8
0
  6
CONTINUOUS
 62
     7
100
AcDbLine
 10
245.753626943
 20
347.1792090925
 30
0.0
 11
245.603626943
 21
347.1792090925
 31
0.0
  0
LINE
  5
55
330
1F
100
AcDbEntity
  8
0
  6
CONTINUOUS
 62
     7
100
AcDbLine
 10
245.6226074948
 20
347.0481896443
 30
0.0
 11
245.753626943
 21
347.1792090925
 31
0.0
  0
LINE
  5
56
330
1F
100
AcDbEntity
  8
0
  6
CONTINUOUS
 62
     7
100
AcDbLine
 10
245.6226074948
 20
347.0481896443
 30
0.0
 11
114.1846463912
 21
347.0481896443
 31
0.0
  0
LINE
  5
57
330
1F
100
AcDbEntity
  8
0
  6
CONTINUOUS
 62
     7
100
AcDbLine
 10
114.1846463912
 20
347.0481896443
 30
0.0
 11
114.053626943
 21
347.1792090925
 31
0.0
  0
LINE
  5
58
330
1F
100
AcDbEntity
  8
0
  6
CONTINUOUS
 62
     7
100
AcDbLine
 10
114.203626943
 20
347.1792090925
 30
0.0
 11
114.053626943
 21
347.1792090925
 31
0.0
  0
LINE
  5
59
330
1F
100
AcDbEntity
  8
0
  6
CONTINUOUS
 62
     7
100
AcDbLine
 10
114.053626943
 20
253.4792090925
 30
0.0
 11
114.203626943
 21
253.4792090925
 31
0.0
  0
LINE
  5
5A
330
1F
100
AcDbEntity
  8
0
  6
CONTINUOUS
 62
     7
100
AcDbLine
 10
114.1846463912
 20
253.6102285407
 30
0.0
 11
114.053626943
 21
253.4792090925
 31
0.0
  0
LINE
  5
5B
330
1F
100
AcDbEntity
  8
0
  6
CONTINUOUS
 62
     7
100
AcDbLine
 10
114.1846463912
 20
253.6102285407
 30
0.0
 11
245.6226074948
 21
253.6102285407
 31
0.0
  0
LINE
  5
5C
330
1F
100
AcDbEntity
  8
0
  6
CONTINUOUS
 62
     7
100
AcDbLine
 10
245.6226074948
 20
253.6102285407
 30
0.0
 11
245.753626943
 21
253.4792090925
 31
0.0
  0
LINE
  5
5D
330
1F
100
AcDbEntity
  8
0
  6
CONTINUOUS
 62
     7
100
AcDbLine
 10
245.603626943
 20
253.4792090925
 30
0.0
 11
245.753626943
 21
253.4792090925
 31
0.0
  0
LINE
  5
5E
330
1F
100
AcDbEntity
  8
0
  6
CONTINUOUS
 62
     7
100
AcDbLine
 10
261.2960371173
 20
247.4370273755
 30
0.0
 11
245.8155263232
 21
247.4370273755
 31
0.0
  0
LINE
  5
5F
330
1F
100
AcDbEntity
  8
0
  6
CONTINUOUS
 62
     7
100
AcDbLine
 10
261.4038554003
 20
247.3292090925
 30
0.0
 11
261.2960371173
 21
247.4370273755
 31
0.0
  0
LINE
  5
60
330
1F
100
AcDbEntity
  8
0
  6
CONTINUOUS
 62
     7
100
AcDbLine
 10
98.4033984857
 20
247.3292090925
 30
0.0
 11
261.4038554003
 21
247.3292090925
 31
0.0
  0
LINE
  5
61
330
1F
100
AcDbEntity
  8
0
  6
CONTINUOUS
 62
     7
100
AcDbLine
 10
98.5112167687
 20
247.4370273755
 30
0.0
 11
98.4033984857
 21
247.3292090925
 31
0.0
  0
LINE
  5
62
330
1F
100
AcDbEntity
  8
0
  6
CONTINUOUS
 62
     7
100
AcDbLine
 10
113.9917543191
 20
247.4370273755
 30
0.0
 11
98.5112167687
 21
247.4370273755
 31
0.0
  0
LINE
  5
63
330
1F
100
AcDbEntity
  8
0
  6
CONTINUOUS
 62
     7
100
AcDbLine
 10
261.4038554003
 20
353.3292090925
 30
0.0
 11
98.4033984857
 21
353.3292090925
 31
0.0
  0
LINE
  5
64
330
1F
100
AcDbEntity
  8
0
  6
CONTINUOUS
 62
     7
100
AcDbLine
 10
261.2960371173
 20
353.2213908095
 30
0.0
 11
261.4038554003
 21
353.3292090925
 31
0.0
  0
LINE
  5
65
330
1F
100
AcDbEntity
  8
0
  6
CONTINUOUS
 62
     7
100
AcDbLine
 10
245.5456079253
 20
353.2213908095
 30
0.0
 11
261.2960371173
 21
353.2213908095
 31
0.0
  0
LINE
  5
66
330
1F
100
AcDbEntity
  8
0
  6
CONTINUOUS
 62
     7
100
AcDbLine
 10
98.5112167687
 20
353.2213908095
 30
0.0
 11
114.2616459607
 21
353.2213908095
 31
0.0
  0
LINE
  5
67
330
1F
100
AcDbEntity
  8
0
  6
CONTINUOUS
 62
     7
100
AcDbLine
 10
98.4033984857
 20
353.3292090925
 30
0.0
 11
98.5112167687
 21
353.2213908095
 31
0.0
  0
LINE
  5
68
330
1F
100
AcDbEntity
  8
0
  6
CONTINUOUS
 62
     7
100
AcDbLine
 10
98.5112167687
 20
247.4370273755
 30
0.0
 11
98.5112167687
 21
248.7601220795
 31
0.0
  0
LINE
  5
69
330
1F
100
AcDbEntity
  8
0
  6
CONTINUOUS
 62
     7
100
AcDbLine
 10
98.5112167687
 20
248.7601220795
 30
0.0
 11
114.4672595591
 21
248.7601220795
 31
0.0
  0
LINE
  5
6A
330
1F
100
AcDbEntity
  8
0
  6
CONTINUOUS
 62
     7
100
AcDbLine
 10
114.053626943
 20
347.1792090925
 30
0.0
 11
114.053626943
 21
253.4792090925
 31
0.0
  0
ARC
  5
6B
330
1F
100
AcDbEntity
  8
0
  6
CONTINUOUS
 62
     7
100
AcDbCircle
 10
98.5093957147
 20
248.9349778643
 30
0.0
 40
0.1748652672710791
100
AcDbArc
 50
179.4033086306
 51
270.5966913694
  0
LINE
  5
6C
330
1F
100
AcDbEntity
  8
0
  6
CONTINUOUS
 62
     7
100
AcDbLine
 10
98.33453993
 20
351.7216192668
 30
0.0
 11
98.33453993
 21
248.9367989183
 31
0.0
  0
ARC
  5
6D
330
1F
100
AcDbEntity
  8
0
  6
CONTINUOUS
 62
     7
100
AcDbCircle
 10
98.5093957147
 20
351.7234403208
 30
0.0
 40
0.1748652672711359
100
AcDbArc
 50
89.4033086306
 51
180.5966913694
  0
LINE
  5
6E
330
1F
100
AcDbEntity
  8
0
  6
CONTINUOUS
 62
     7
100
AcDbLine
 10
114.203626943
 20
351.8982961056
 30
0.0
 11
98.5112167687
 21
351.8982961056
 31
0.0
  0
CIRCLE
  5
6F
330
1F
100
AcDbEntity
  8
0
  6
CONTINUOUS
 62
     7
100
AcDbCircle
 10
107.403626943
 20
342.8292090925
 30
0.0
 40
4.25
  0
CIRCLE
  5
70
330
1F
100
AcDbEntity
  8
0
  6
CONTINUOUS
 62
     7
100
AcDbCircle
 10
107.403626943
 20
257.8292090925
 30
0.0
 40
4.25
  0
LINE
  5
71
330
1F
100
AcDbEntity
  8
0
  6
CONTINUOUS
 62
     7
100
AcDbLine
 10
245.603626943
 20
248.7601220795
 30
0.0
 11
261.2960371173
 21
248.7601220795
 31
0.0
  0
LINE
  5
72
330
1F
100
AcDbEntity
  8
0
  6
CONTINUOUS
 62
     7
100
AcDbLine
 10
261.2960371173
 20
248.7601220795
 30
0.0
 11
261.2960371173
 21
247.4370273755
 31
0.0
  0
LINE
  5
73
330
1F
100
AcDbEntity
  8
0
  6
CONTINUOUS
 62
     7
100
AcDbLine
 10
261.472713956
 20
248.9367989183
 30
0.0
 11
261.472713956
 21
351.7216192668
 31
0.0
  0
ARC
  5
74
330
1F
100
AcDbEntity
  8
0
  6
CONTINUOUS
 62
     7
100
AcDbCircle
 10
261.2978581713
 20
248.9349778643
 30
0.0
 40
0.1748652672711649
100
AcDbArc
 50
269.4033086306
 51
0.5966913694
  0
LINE
  5
75
330
1F
100
AcDbEntity
  8
0
  6
CONTINUOUS
 62
     7
100
AcDbLine
 10
245.753626943
 20
253.4792090925
 30
0.0
 11
245.753626943
 21
347.1792090925
 31
0.0
  0
LINE
  5
76
330
1F
100
AcDbEntity
  8
0
  6
CONTINUOUS
 62
     7
100
AcDbLine
 10
261.2960371173
 20
351.8982961056
 30
0.0
 11
245.603626943
 21
351.8982961056
 31
0.0
  0
ARC
  5
77
330
1F
100
AcDbEntity
  8
0
  6
CONTINUOUS
 62
     7
100
AcDbCircle
 10
261.2978581713
 20
351.7234403208
 30
0.0
 40
0.1748652672713047
100
AcDbArc
 50
359.4033086307
 51
90.5966913693
  0
CIRCLE
  5
78
330
1F
100
AcDbEntity
  8
0
  6
CONTINUOUS
 62
     7
100
AcDbCircle
 10
252.403626943
 20
342.8292090925
 30
0.0
 40
4.250000000000028
  0
CIRCLE
  5
79
330
1F
100
AcDbEntity
  8
0
  6
CONTINUOUS
 62
     7
100
AcDbCircle
 10
252.403626943
 20
257.8292090925
 30
0.0
 40
4.249999999999972
  0
LINE
  5
7A
330
1F
100
AcDbEntity
  8
0
  6
CONTINUOUS
 62
     7
100
AcDbLine
 10
98.5112167687
 20
353.2213908095
 30
0.0
 11
98.5112167687
 21
351.8982961056
 31
0.0
  0
LINE
  5
7B
330
1F
100
AcDbEntity
  8
0
  6
CONTINUOUS
 62
     7
100
AcDbLine
 10
261.2960371173
 20
351.8982961056
 30
0.0
 11
261.2960371173
 21
353.2213908095
 31
0.0
  0
LINE
  5
7C
330
1F
100
AcDbEntity
  8
0
  6
CONTINUOUS
 62
     7
100
AcDbLine
 10
97.011445226
 20
248.9367989183
 30
0.0
 11
97.011445226
 21
351.7216192668
 31
0.0
  0
LINE
  5
7D
330
1F
100
AcDbEntity
  8
0
  6
CONTINUOUS
 62
     7
100
AcDbLine
 10
97.011445226
 20
351.7216192668
 30
0.0
 11
98.33453993
 21
351.7216192668
 31
0.0
  0
LINE
  5
7E
330
1F
100
AcDbEntity
  8
0
  6
CONTINUOUS
 62
     7
100
AcDbLine
 10
97.011445226
 20
248.9367989183
 30
0.0
 11
98.33453993
 21
248.9367989183
 31
0.0
  0
ARC
  5
7F
330
1F
100
AcDbEntity
  8
0
  6
CONTINUOUS
 62
     7
100
AcDbCircle
 10
98.511751918
 20
351.7210841176
 30
0.0
 40
1.500306787432433
100
AcDbArc
 50
90.0204370164
 51
179.9795629836
  0
ARC
  5
80
330
1F
100
AcDbEntity
  8
0
  6
CONTINUOUS
 62
     7
100
AcDbCircle
 10
261.295501968
 20
351.7210841176
 30
0.0
 40
1.500306787432376
100
AcDbArc
 50
0.0204370164
 51
89.9795629836
  0
LINE
  5
81
330
1F
100
AcDbEntity
  8
0
  6
CONTINUOUS
 62
     7
100
AcDbLine
 10
261.472713956
 20
351.7216192668
 30
0.0
 11
262.79580866
 21
351.7216192668
 31
0.0
  0
LINE
  5
82
330
1F
100
AcDbEntity
  8
0
  6
CONTINUOUS
 62
     7
100
AcDbLine
 10
262.79580866
 20
351.7216192668
 30
0.0
 11
262.79580866
 21
248.9367989183
 31
0.0
  0
LINE
  5
83
330
1F
100
AcDbEntity
  8
0
  6
CONTINUOUS
 62
     7
100
AcDbLine
 10
261.472713956
 20
248.9367989183
 30
0.0
 11
262.79580866
 21
248.9367989183
 31
0.0
  0
ARC
  5
84
330
1F
100
AcDbEntity
  8
0
  6
CONTINUOUS
 62
     7
100
AcDbCircle
 10
98.511751918
 20
248.9373340675
 30
0.0
 40
1.500306787432376
100
AcDbArc
 50
180.0204370164
 51
269.9795629836
  0
ARC
  5
85
330
1F
100
AcDbEntity
  8
0
  6
CONTINUOUS
 62
     7
100
AcDbCircle
 10
261.295501968
 20
248.9373340675
 30
0.0
 40
1.500306787432518
100
AcDbArc
 50
270.0204370164
 51
359.9795629836
  0
LINE
  5
86
330
1F
100
AcDbEntity
  8
0
  6
CONTINUOUS
 62
     7
100
AcDbLine
 10
245.6226074948
 20
253.6102285407
 30
0.0
 11
245.6226074948
 21
347.0481896443
 31
0.0
  0
LINE
  5
87
330
1F
100
AcDbEntity
  8
0
  6
CONTINUOUS
 62
     7
100
AcDbLine
 10
114.1846463912
 20
347.0481896443
 30
0.0
 11
114.1846463912
 21
253.6102285407
 31
0.0
  0
ELLIPSE
  5
88
330
1F
100
AcDbEntity
  8
0
  6
CONTINUOUS
 62
     7
100
AcDbEllipse
 10
98.4038554351
 20
351.8289806005
 30
0.0
 11
-1.060983283754368
 21
1.060983283754354
 31
0.0
210
0.0
220
0.0
230
1.0
 40
0.9996954599
 41
5.497939437029721
 42
7.068431177329479
  0
LINE
  5
89
330
1F
100
AcDbEntity
  8
0
  6
CONTINUOUS
 62
     7
100
AcDbLine
 10
97.011445226
 20
351.7216192668
 30
0.0
 11
96.903626943
 21
351.8294375498
 31
0.0
  0
ELLIPSE
  5
8A
330
1F
100
AcDbEntity
  8
0
  6
CONTINUOUS
 62
     7
100
AcDbEllipse
 10
261.4033984509
 20
248.8294375846
 30
0.0
 11
1.060983283754354
 21
-1.060983283754354
 31
0.0
210
0.0
220
0.0
230
1.0
 40
0.9996954599
 41
5.497939437029745
 42
7.068431177329479
  0
LINE
  5
8B
330
1F
100
AcDbEntity
  8
0
  6
CONTINUOUS
 62
     7
100
AcDbLine
 10
262.79580866
 20
248.9367989183
 30
0.0
 11
262.903626943
 21
248.8289806353
 31
0.0
  0
ELLIPSE
  5
8C
330
1F
100
AcDbEntity
  8
0
  6
CONTINUOUS
 62
     7
100
AcDbEllipse
 10
98.4038554351
 20
248.8294375846
 30
0.0
 11
-1.060983283754368
 21
-1.060983283754354
 31
0.0
210
0.0
220
0.0
230
1.0
 40
0.9996954599
 41
5.497939437029745
 42
7.068431177329444
  0
LINE
  5
8D
330
1F
100
AcDbEntity
  8
0
  6
CONTINUOUS
 62
     7
100
AcDbLine
 10
96.903626943
 20
248.8289806353
 30
0.0
 11
97.011445226
 21
248.9367989183
 31
0.0
  0
ELLIPSE
  5
8E
330
1F
100
AcDbEntity
  8
0
  6
CONTINUOUS
 62
     7
100
AcDbEllipse
 10
261.4033984509
 20
351.8289806005
 30
0.0
 11
1.060983283754354
 21
1.060983283754354
 31
0.0
210
0.0
220
0.0
230
1.0
 40
0.9996954599
 41
5.497939437029734
 42
7.068431177329415
  0
LINE
  5
8F
330
1F
100
AcDbEntity
  8
0
  6
CONTINUOUS
 62
     7
100
AcDbLine
 10
262.903626943
 20
351.8294375498
 30
0.0
 11
262.79580866
 21
351.7216192668
 31
0.0
  0
LINE
  5
90
330
1F
100
AcDbEntity
  8
0
  6
CONTINUOUS
 62
     7
100
AcDbLine
 10
262.903626943
 20
248.8289806353
 30
0.0
 11
262.903626943
 21
351.8294375498
 31
0.0
  0
LINE
  5
91
330
1F
100
AcDbEntity
  8
0
  6
CONTINUOUS
 62
     7
100
AcDbLine
 10
96.903626943
 20
351.8294375498
 30
0.0
 11
96.903626943
 21
248.8289806353
 31
0.0
  0
CIRCLE
  5
92
330
1F
100
AcDbEntity
  8
0
  6
CONTINUOUS
 62
     7
100
AcDbCircle
 10
107.403626943
 20
342.8292090925
 30
0.0
 40
1.600000000000009
  0
CIRCLE
  5
93
330
1F
100
AcDbEntity
  8
0
  6
CONTINUOUS
 62
     7
100
AcDbCircle
 10
252.403626943
 20
257.8292090925
 30
0.0
 40
1.599999999999994
  0
CIRCLE
  5
94
330
1F
100
AcDbEntity
  8
0
  6
CONTINUOUS
 62
     7
100
AcDbCircle
 10
252.403626943
 20
342.8292090925
 30
0.0
 40
1.600000000000051
  0
CIRCLE
  5
95
330
1F
100
AcDbEntity
  8
0
  6
CONTINUOUS
 62
     7
100
AcDbCircle
 10
107.403626943
 20
257.8292090925
 30
0.0
 40
1.600000000000009
  0
LINE
  5
96
330
1F
100
AcDbEntity
  8
0
  6
CONTINUOUS
 62
     7
100
AcDbLine
 10
55.2779825818
 20
339.8792090925
 30
0.0
 11
56.0779825818
 21
339.8792090925
 31
0.0
  0
LINE
  5
97
330
1F
100
AcDbEntity
  8
0
  6
CONTINUOUS
 62
     7
100
AcDbLine
 10
56.0779825818
 20
345.7792090925
 30
0.0
 11
55.2779825818
 21
345.7792090925
 31
0.0
  0
LINE
  5
98
330
1F
100
AcDbEntity
  8
0
  6
CONTINUOUS
 62
     7
100
AcDbLine
 10
55.2779825818
 20
254.8792090925
 30
0.0
 11
56.0779825818
 21
254.8792090925
 31
0.0
  0
LINE
  5
99
330
1F
100
AcDbEntity
  8
0
  6
CONTINUOUS
 62
     7
100
AcDbLine
 10
56.0779825818
 20
260.7792090925
 30
0.0
 11
55.2779825818
 21
260.7792090925
 31
0.0
  0
LINE
  5
9A
330
1F
100
AcDbEntity
  8
0
  6
CONTINUOUS
 62
     7
100
AcDbLine
 10
38.9467416393
 20
248.8328378336
 30
0.0
 11
40.2465429986
 21
247.4868534569
 31
0.0
  0
LINE
  5
9B
330
1F
100
AcDbEntity
  8
0
  6
CONTINUOUS
 62
     7
100
AcDbLine
 10
38.9463697498
 20
253.3308105522
 30
0.0
 11
38.9463697498
 21
248.8328373418
 31
0.0
  0
LINE
  5
9C
330
1F
100
AcDbEntity
  8
0
  6
CONTINUOUS
 62
     7
100
AcDbLine
 10
40.2698296741
 20
353.1719711987
 30
0.0
 11
38.9467356152
 21
351.8488764947
 31
0.0
  0
LINE
  5
9D
330
1F
100
AcDbEntity
  8
0
  6
CONTINUOUS
 62
     7
100
AcDbLine
 10
38.9463697498
 20
351.8488769895
 30
0.0
 11
38.9463697498
 21
347.3276076329
 31
0.0
  0
LINE
  5
9E
330
1F
100
AcDbEntity
  8
0
  6
CONTINUOUS
 62
     7
100
AcDbLine
 10
49.2779825818
 20
248.8289806353
 30
0.0
 11
49.2779825818
 21
247.3292090925
 31
0.0
  0
LINE
  5
9F
330
1F
100
AcDbEntity
  8
0
  6
CONTINUOUS
 62
     7
100
AcDbLine
 10
49.2779825818
 20
247.3292090925
 30
0.0
 11
43.1010772858
 21
247.4370273755
 31
0.0
  0
ARC
  5
A0
330
1F
100
AcDbEntity
  8
0
  6
CONTINUOUS
 62
     7
100
AcDbCircle
 10
64.5923900898
 20
248.1869131469
 30
0.0
 40
21.50439152150554
100
AcDbArc
 50
178.0016173803
 51
181.9983826197
  0
LINE
  5
A1
330
1F
100
AcDbEntity
  8
0
  6
CONTINUOUS
 62
     7
100
AcDbLine
 10
43.1010772858
 20
248.9367989183
 30
0.0
 11
49.2779825818
 21
248.8289806353
 31
0.0
  0
LINE
  5
A2
330
1F
100
AcDbEntity
  8
0
  6
CONTINUOUS
 62
     7
100
AcDbLine
 10
49.2779825818
 20
353.3292090925
 30
0.0
 11
49.2779825818
 21
351.8294375498
 31
0.0
  0
LINE
  5
A3
330
1F
100
AcDbEntity
  8
0
  6
CONTINUOUS
 62
     7
100
AcDbLine
 10
49.2779825818
 20
351.8294375498
 30
0.0
 11
43.1010772858
 21
351.7216192668
 31
0.0
  0
ARC
  5
A4
330
1F
100
AcDbEntity
  8
0
  6
CONTINUOUS
 62
     7
100
AcDbCircle
 10
64.5923900898
 20
352.4715050382
 30
0.0
 40
21.5043915215365
100
AcDbArc
 50
178.0016173803
 51
181.9983826197
  0
LINE
  5
A5
330
1F
100
AcDbEntity
  8
0
  6
CONTINUOUS
 62
     7
100
AcDbLine
 10
43.1010772858
 20
353.2213908095
 30
0.0
 11
49.2779825818
 21
353.3292090925
 31
0.0
  0
LINE
  5
A6
330
1F
100
AcDbEntity
  8
0
  6
CONTINUOUS
 62
     7
100
AcDbLine
 10
49.2779825818
 20
248.8289806353
 30
0.0
 11
49.2779825818
 21
351.8294375498
 31
0.0
  0
LINE
  5
A7
330
1F
100
AcDbEntity
  8
0
  6
CONTINUOUS
 62
     7
100
AcDbLine
 10
43.1010772858
 20
351.7216192668
 30
0.0
 11
43.1010772858
 21
248.9367989183
 31
0.0
  0
LINE
  5
A8
330
1F
100
AcDbEntity
  8
0
  6
CONTINUOUS
 62
     7
100
AcDbLine
 10
41.7779825818
 20
248.9367989183
 30
0.0
 11
41.7779825818
 21
351.7216192668
 31
0.0
  0
LINE
  5
A9
330
1F
100
AcDbEntity
  8
0
  6
CONTINUOUS
 62
     7
100
AcDbLine
 10
41.7779825818
 20
351.7216192668
 30
0.0
 11
43.1010772858
 21
351.7216192668
 31
0.0
  0
LINE
  5
AA
330
1F
100
AcDbEntity
  8
0
  6
CONTINUOUS
 62
     7
100
AcDbLine
 10
41.7779825818
 20
248.9367989183
 30
0.0
 11
43.1010772858
 21
248.9367989183
 31
0.0
  0
LINE
  5
AB
330
1F
100
AcDbEntity
  8
0
  6
CONTINUOUS
 62
     7
100
AcDbLine
 10
41.7779825818
 20
351.7216192668
 30
0.0
 11
41.7779825818
 21
351.8982961056
 31
0.0
  0
LINE
  5
AC
330
1F
100
AcDbEntity
  8
0
  6
CONTINUOUS
 62
     7
100
AcDbLine
 10
41.7779825818
 20
351.8982961056
 30
0.0
 11
43.1010772858
 21
353.2213908095
 31
0.0
  0
LINE
  5
AD
330
1F
100
AcDbEntity
  8
0
  6
CONTINUOUS
 62
     7
100
AcDbLine
 10
41.7779825818
 20
248.7601220795
 30
0.0
 11
41.7779825818
 21
248.9367989183
 31
0.0
  0
LINE
  5
AE
330
1F
100
AcDbEntity
  8
0
  6
CONTINUOUS
 62
     7
100
AcDbLine
 10
41.7779825818
 20
248.7601220795
 30
0.0
 11
43.1010772858
 21
247.4370273755
 31
0.0
  0
LINE
  5
AF
330
1F
100
AcDbEntity
  8
0
  6
CONTINUOUS
 62
     7
100
AcDbLine
 10
55.2779825818
 20
251.3292090925
 30
0.0
 11
49.2779825818
 21
251.3292090925
 31
0.0
  0
LINE
  5
B0
330
1F
100
AcDbEntity
  8
0
  6
CONTINUOUS
 62
     7
100
AcDbLine
 10
55.2779825818
 20
349.3292090925
 30
0.0
 11
55.2779825818
 21
251.3292090925
 31
0.0
  0
LINE
  5
B1
330
1F
100
AcDbEntity
  8
0
  6
CONTINUOUS
 62
     7
100
AcDbLine
 10
55.2779825818
 20
349.3292090925
 30
0.0
 11
49.2779825818
 21
349.3292090925
 31
0.0
  0
LINE
  5
B2
330
1F
100
AcDbEntity
  8
0
  6
CONTINUOUS
 62
     7
100
AcDbLine
 10
56.0779825818
 20
345.7792090925
 30
0.0
 11
56.0779825818
 21
339.8792090925
 31
0.0
  0
LINE
  5
B3
330
1F
100
AcDbEntity
  8
0
  6
CONTINUOUS
 62
     7
100
AcDbLine
 10
56.0779825818
 20
257.8292090925
 30
0.0
 11
56.0779825818
 21
254.8792090925
 31
0.0
  0
LINE
  5
B4
330
1F
100
AcDbEntity
  8
0
  6
CONTINUOUS
 62
     7
100
AcDbLine
 10
56.0779825818
 20
260.7792090925
 30
0.0
 11
56.0779825818
 21
257.8292090925
 31
0.0
  0
LWPOLYLINE
  5
B5
330
1F
100
AcDbEntity
  8
0
  6
CONTINUOUS
 62
     7
100
AcDbPolyline
 90
        4
 70
   128
 43
0.0
 10
38.9463697498
 20
248.8328373418
 10
39.2586579948
 20
248.8274001519
 10
40.195267302
 20
248.8110885819
 10
41.7554315963
 20
248.7839026321
  0
LINE
  5
B6
330
1F
100
AcDbEntity
  8
0
  6
CONTINUOUS
 62
     7
100
AcDbLine
 10
43.1007692143
 20
247.4370327529
 30
0.0
 11
40.2394766265
 21
247.4869768008
 31
0.0
  0
LINE
  5
B7
330
1F
100
AcDbEntity
  8
0
  6
CONTINUOUS
 62
     7
100
AcDbLine
 10
38.9463697498
 20
253.3308105522
 30
0.0
 11
41.7779825818
 21
253.4792090925
 31
0.0
  0
LWPOLYLINE
  5
B8
330
1F
100
AcDbEntity
  8
0
  6
CONTINUOUS
 62
     7
100
AcDbPolyline
 90
        4
 70
   128
 43
0.0
 10
41.7779825834
 20
351.8982036478
 10
40.2052968467
 20
351.8707999487
 10
39.2611664218
 20
351.8543577292
 10
38.9463697498
 20
351.8488769893
  0
LINE
  5
B9
330
1F
100
AcDbEntity
  8
0
  6
CONTINUOUS
 62
     7
100
AcDbLine
 10
40.2628798823
 20
353.1718498896
 30
0.0
 11
43.1007741975
 21
353.2213855191
 31
0.0
  0
LINE
  5
BA
330
1F
100
AcDbEntity
  8
0
  6
CONTINUOUS
 62
     7
100
AcDbLine
 10
41.7779825818
 20
347.1792090925
 30
0.0
 11
38.9463697498
 21
347.3276076329
 31
0.0
  0
LINE
  5
BB
330
1F
100
AcDbEntity
  8
0
  6
CONTINUOUS
 62
     7
100
AcDbLine
 10
249.453626943
 20
399.058804983
 30
0.0
 11
249.453626943
 21
398.258804983
 31
0.0
  0
LINE
  5
BC
330
1F
100
AcDbEntity
  8
0
  6
CONTINUOUS
 62
     7
100
AcDbLine
 10
255.353626943
 20
398.258804983
 30
0.0
 11
255.353626943
 21
399.058804983
 31
0.0
  0
LINE
  5
BD
330
1F
100
AcDbEntity
  8
0
  6
CONTINUOUS
 62
     7
100
AcDbLine
 10
104.453626943
 20
399.058804983
 30
0.0
 11
104.453626943
 21
398.258804983
 31
0.0
  0
LINE
  5
BE
330
1F
100
AcDbEntity
  8
0
  6
CONTINUOUS
 62
     7
100
AcDbLine
 10
110.353626943
 20
398.258804983
 30
0.0
 11
110.353626943
 21
399.058804983
 31
0.0
  0
LINE
  5
BF
330
1F
100
AcDbEntity
  8
0
  6
CONTINUOUS
 62
     7
100
AcDbLine
 10
261.2960371173
 20
411.235710279
 30
0.0
 11
245.8155263232
 21
411.235710279
 31
0.0
  0
LINE
  5
C0
330
1F
100
AcDbEntity
  8
0
  6
CONTINUOUS
 62
     7
100
AcDbLine
 10
261.4038554003
 20
405.058804983
 30
0.0
 11
261.2960371173
 21
411.235710279
 31
0.0
  0
LINE
  5
C1
330
1F
100
AcDbEntity
  8
0
  6
CONTINUOUS
 62
     7
100
AcDbLine
 10
98.4033984857
 20
405.058804983
 30
0.0
 11
261.4038554003
 21
405.058804983
 31
0.0
  0
LINE
  5
C2
330
1F
100
AcDbEntity
  8
0
  6
CONTINUOUS
 62
     7
100
AcDbLine
 10
98.5112167687
 20
411.235710279
 30
0.0
 11
98.4033984857
 21
405.058804983
 31
0.0
  0
LINE
  5
C3
330
1F
100
AcDbEntity
  8
0
  6
CONTINUOUS
 62
     7
100
AcDbLine
 10
113.9917543191
 20
411.235710279
 30
0.0
 11
98.5112167687
 21
411.235710279
 31
0.0
  0
LWPOLYLINE
  5
C4
330
1F
100
AcDbEntity
  8
0
  6
CONTINUOUS
 62
     7
100
AcDbPolyline
 90
        7
 70
   128
 43
0.0
 10
245.8155263232
 20
411.2360183504
 10
223.8448931965
 20
412.8256253437
 10
201.8742600697
 20
413.7793895396
 10
179.903626943
 20
414.0973109383
 10
157.9329938163
 20
413.7793895396
 10
135.9623606895
 20
412.8256253437
 10
113.9917275628
 20
411.2360183504
  0
LWPOLYLINE
  5
C5
330
1F
100
AcDbEntity
  8
0
  6
CONTINUOUS
 62
     7
100
AcDbPolyline
 90
        7
 70
   128
 43
0.0
 10
114.4652835277
 20
412.5813559684
 10
136.2483066305
 20
414.1415202628
 10
158.0670364543
 20
415.0781295699
 10
179.903626943
 20
415.390417815
 10
201.7402174317
 20
415.0781295699
 10
223.5589472555
 20
414.1415202628
 10
245.3419703583
 20
412.5813559684
  0
LINE
  5
C6
330
1F
100
AcDbEntity
  8
0
  6
CONTINUOUS
 62
     7
100
AcDbLine
 10
245.3399943269
 20
412.558804983
 30
0.0
 11
245.8188054232
 21
411.2364573785
 31
0.0
  0
LINE
  5
C7
330
1F
100
AcDbEntity
  8
0
  6
CONTINUOUS
 62
     7
100
AcDbLine
 10
113.9883970935
 20
411.2363147192
 30
0.0
 11
114.4672595591
 21
412.558804983
 31
0.0
  0
LINE
  5
C8
330
1F
100
AcDbEntity
  8
0
  6
CONTINUOUS
 62
     7
100
AcDbLine
 10
245.3399943269
 20
412.558804983
 30
0.0
 11
245.603626943
 21
412.558804983
 31
0.0
  0
LINE
  5
C9
330
1F
100
AcDbEntity
  8
0
  6
CONTINUOUS
 62
     7
100
AcDbLine
 10
245.603626943
 20
412.558804983
 30
0.0
 11
261.2960371173
 21
412.558804983
 31
0.0
  0
LINE
  5
CA
330
1F
100
AcDbEntity
  8
0
  6
CONTINUOUS
 62
     7
100
AcDbLine
 10
261.2960371173
 20
412.558804983
 30
0.0
 11
261.2960371173
 21
411.235710279
 31
0.0
  0
LINE
  5
CB
330
1F
100
AcDbEntity
  8
0
  6
CONTINUOUS
 62
     7
100
AcDbLine
 10
98.4033984857
 20
405.058804983
 30
0.0
 11
96.903626943
 21
405.058804983
 31
0.0
  0
LINE
  5
CC
330
1F
100
AcDbEntity
  8
0
  6
CONTINUOUS
 62
     7
100
AcDbLine
 10
96.903626943
 20
405.058804983
 30
0.0
 11
97.011445226
 21
411.235710279
 31
0.0
  0
ARC
  5
CD
330
1F
100
AcDbEntity
  8
0
  6
CONTINUOUS
 62
     7
100
AcDbCircle
 10
97.7613309974
 20
389.7443974749
 30
0.0
 40
21.50439152157594
100
AcDbArc
 50
88.0016173803
 51
91.9983826197
  0
LINE
  5
CE
330
1F
100
AcDbEntity
  8
0
  6
CONTINUOUS
 62
     7
100
AcDbLine
 10
262.903626943
 20
405.058804983
 30
0.0
 11
261.4038554003
 21
405.058804983
 31
0.0
  0
ARC
  5
CF
330
1F
100
AcDbEntity
  8
0
  6
CONTINUOUS
 62
     7
100
AcDbCircle
 10
262.0459228886
 20
389.7443974749
 30
0.0
 40
21.50439152157719
100
AcDbArc
 50
88.0016173803
 51
91.9983826197
  0
LINE
  5
D0
330
1F
100
AcDbEntity
  8
0
  6
CONTINUOUS
 62
     7
100
AcDbLine
 10
262.79580866
 20
411.235710279
 30
0.0
 11
262.903626943
 21
405.058804983
 31
0.0
  0
LINE
  5
D1
330
1F
100
AcDbEntity
  8
0
  6
CONTINUOUS
 62
     7
100
AcDbLine
 10
98.5112167687
 20
411.235710279
 30
0.0
 11
98.5112167687
 21
412.558804983
 31
0.0
  0
LINE
  5
D2
330
1F
100
AcDbEntity
  8
0
  6
CONTINUOUS
 62
     7
100
AcDbLine
 10
98.5112167687
 20
412.558804983
 30
0.0
 11
114.4672595591
 21
412.558804983
 31
0.0
  0
LINE
  5
D3
330
1F
100
AcDbEntity
  8
0
  6
CONTINUOUS
 62
     7
100
AcDbLine
 10
261.2960371173
 20
412.558804983
 30
0.0
 11
261.472713956
 21
412.558804983
 31
0.0
  0
LINE
  5
D4
330
1F
100
AcDbEntity
  8
0
  6
CONTINUOUS
 62
     7
100
AcDbLine
 10
261.472713956
 20
412.558804983
 30
0.0
 11
262.79580866
 21
411.235710279
 31
0.0
  0
LINE
  5
D5
330
1F
100
AcDbEntity
  8
0
  6
CONTINUOUS
 62
     7
100
AcDbLine
 10
97.011445226
 20
411.235710279
 30
0.0
 11
98.33453993
 21
412.558804983
 31
0.0
  0
LINE
  5
D6
330
1F
100
AcDbEntity
  8
0
  6
CONTINUOUS
 62
     7
100
AcDbLine
 10
98.33453993
 20
412.558804983
 30
0.0
 11
98.5112167687
 21
412.558804983
 31
0.0
  0
LINE
  5
D7
330
1F
100
AcDbEntity
  8
0
  6
CONTINUOUS
 62
     7
100
AcDbLine
 10
258.903626943
 20
399.058804983
 30
0.0
 11
258.903626943
 21
405.058804983
 31
0.0
  0
LINE
  5
D8
330
1F
100
AcDbEntity
  8
0
  6
CONTINUOUS
 62
     7
100
AcDbLine
 10
100.903626943
 20
399.058804983
 30
0.0
 11
100.903626943
 21
405.058804983
 31
0.0
  0
LINE
  5
D9
330
1F
100
AcDbEntity
  8
0
  6
CONTINUOUS
 62
     7
100
AcDbLine
 10
258.903626943
 20
399.058804983
 30
0.0
 11
100.903626943
 21
399.058804983
 31
0.0
  0
LINE
  5
DA
330
1F
100
AcDbEntity
  8
0
  6
CONTINUOUS
 62
     7
100
AcDbLine
 10
255.353626943
 20
398.258804983
 30
0.0
 11
249.453626943
 21
398.258804983
 31
0.0
  0
LINE
  5
DB
330
1F
100
AcDbEntity
  8
0
  6
CONTINUOUS
 62
     7
100
AcDbLine
 10
110.353626943
 20
398.258804983
 30
0.0
 11
104.453626943
 21
398.258804983
 31
0.0
  0
ARC
  5
DC
330
1F
100
AcDbEntity
  8
0
  6
CONTINUOUS
 62
     7
100
AcDbCircle
 10
179.903626943
 20
-348.2217508986
 30
0.0
 40
763.6121687135707
100
AcDbArc
 50
85.0642581084
 51
86.8207871672
  0
LINE
  5
DD
330
1F
100
AcDbEntity
  8
0
  6
CONTINUOUS
 62
     7
100
AcDbLine
 10
255.353626943
 20
208.9992261051
 30
0.0
 11
255.353626943
 21
209.7992261051
 31
0.0
  0
LINE
  5
DE
330
1F
100
AcDbEntity
  8
0
  6
CONTINUOUS
 62
     7
100
AcDbLine
 10
249.453626943
 20
209.7992261051
 30
0.0
 11
249.453626943
 21
208.9992261051
 31
0.0
  0
LINE
  5
DF
330
1F
100
AcDbEntity
  8
0
  6
CONTINUOUS
 62
     7
100
AcDbLine
 10
110.353626943
 20
208.9992261051
 30
0.0
 11
110.353626943
 21
209.7992261051
 31
0.0
  0
LINE
  5
E0
330
1F
100
AcDbEntity
  8
0
  6
CONTINUOUS
 62
     7
100
AcDbLine
 10
104.453626943
 20
209.7992261051
 30
0.0
 11
104.453626943
 21
208.9992261051
 31
0.0
  0
LINE
  5
E1
330
1F
100
AcDbEntity
  8
0
  6
CONTINUOUS
 62
     7
100
AcDbLine
 10
261.4038554003
 20
202.9992261051
 30
0.0
 11
98.4033984857
 21
202.9992261051
 31
0.0
  0
LINE
  5
E2
330
1F
100
AcDbEntity
  8
0
  6
CONTINUOUS
 62
     7
100
AcDbLine
 10
261.2960371173
 20
196.8223208091
 30
0.0
 11
261.4038554003
 21
202.9992261051
 31
0.0
  0
LINE
  5
E3
330
1F
100
AcDbEntity
  8
0
  6
CONTINUOUS
 62
     7
100
AcDbLine
 10
245.5456079253
 20
196.8223208091
 30
0.0
 11
261.2960371173
 21
196.8223208091
 31
0.0
  0
LWPOLYLINE
  5
E4
330
1F
100
AcDbEntity
  8
0
  6
CONTINUOUS
 62
     7
100
AcDbPolyline
 90
        7
 70
   128
 43
0.0
 10
114.2616459607
 20
196.8220177208
 10
136.1423062881
 20
195.2454093809
 10
158.0229666156
 20
194.2994443769
 10
179.903626943
 20
193.984122709
 10
201.7842872704
 20
194.2994443769
 10
223.6649475979
 20
195.2454093809
 10
245.5456079253
 20
196.8220177208
  0
LINE
  5
E5
330
1F
100
AcDbEntity
  8
0
  6
CONTINUOUS
 62
     7
100
AcDbLine
 10
98.5112167687
 20
196.8223208091
 30
0.0
 11
114.2616459607
 21
196.8223208091
 31
0.0
  0
LINE
  5
E6
330
1F
100
AcDbEntity
  8
0
  6
CONTINUOUS
 62
     7
100
AcDbLine
 10
98.4033984857
 20
202.9992261051
 30
0.0
 11
98.5112167687
 21
196.8223208091
 31
0.0
  0
LWPOLYLINE
  5
E7
330
1F
100
AcDbEntity
  8
0
  6
CONTINUOUS
 62
     7
100
AcDbPolyline
 90
        7
 70
   128
 43
0.0
 10
245.603626961
 20
195.4992261067
 10
223.7337444888
 20
193.9265403701
 10
201.8277242313
 20
192.9824099451
 10
179.9036275601
 20
192.6676132731
 10
157.9795307512
 20
192.9824099136
 10
136.0735100816
 20
193.9265403307
 10
114.2036269251
 20
195.4992261067
  0
LINE
  5
E8
330
1F
100
AcDbEntity
  8
0
  6
CONTINUOUS
 62
     7
100
AcDbLine
 10
114.2581374812
 20
196.8222422883
 30
0.0
 11
114.2010924337
 21
195.4991809402
 31
0.0
  0
LINE
  5
E9
330
1F
100
AcDbEntity
  8
0
  6
CONTINUOUS
 62
     7
100
AcDbLine
 10
245.6061614523
 20
195.4991809402
 30
0.0
 11
245.5491164048
 21
196.8222422883
 31
0.0
  0
LINE
  5
EA
330
1F
100
AcDbEntity
  8
0
  6
CONTINUOUS
 62
     7
100
AcDbLine
 10
261.2960371173
 20
195.4992261051
 30
0.0
 11
245.603626943
 21
195.4992261051
 31
0.0
  0
LINE
  5
EB
330
1F
100
AcDbEntity
  8
0
  6
CONTINUOUS
 62
     7
100
AcDbLine
 10
261.2960371173
 20
195.4992261051
 30
0.0
 11
261.2960371173
 21
196.8223208091
 31
0.0
  0
LINE
  5
EC
330
1F
100
AcDbEntity
  8
0
  6
CONTINUOUS
 62
     7
100
AcDbLine
 10
261.4038554003
 20
202.9992261051
 30
0.0
 11
262.903626943
 21
202.9992261051
 31
0.0
  0
LINE
  5
ED
330
1F
100
AcDbEntity
  8
0
  6
CONTINUOUS
 62
     7
100
AcDbLine
 10
262.903626943
 20
202.9992261051
 30
0.0
 11
262.79580866
 21
196.8223208091
 31
0.0
  0
ARC
  5
EE
330
1F
100
AcDbEntity
  8
0
  6
CONTINUOUS
 62
     7
100
AcDbCircle
 10
262.0459228886
 20
218.313633613
 30
0.0
 40
21.50439152143551
100
AcDbArc
 50
268.0016173803
 51
271.9983826197
  0
LINE
  5
EF
330
1F
100
AcDbEntity
  8
0
  6
CONTINUOUS
 62
     7
100
AcDbLine
 10
96.903626943
 20
202.9992261051
 30
0.0
 11
98.4033984857
 21
202.9992261051
 31
0.0
  0
ARC
  5
F0
330
1F
100
AcDbEntity
  8
0
  6
CONTINUOUS
 62
     7
100
AcDbCircle
 10
97.7613309974
 20
218.3136336131
 30
0.0
 40
21.50439152148797
100
AcDbArc
 50
268.0016173803
 51
271.9983826197
  0
LINE
  5
F1
330
1F
100
AcDbEntity
  8
0
  6
CONTINUOUS
 62
     7
100
AcDbLine
 10
97.011445226
 20
196.8223208091
 30
0.0
 11
96.903626943
 21
202.9992261051
 31
0.0
  0
LINE
  5
F2
330
1F
100
AcDbEntity
  8
0
  6
CONTINUOUS
 62
     7
100
AcDbLine
 10
98.5112167687
 20
196.8223208091
 30
0.0
 11
98.5112167687
 21
195.4992261051
 31
0.0
  0
LINE
  5
F3
330
1F
100
AcDbEntity
  8
0
  6
CONTINUOUS
 62
     7
100
AcDbLine
 10
98.5112167687
 20
195.4992261051
 30
0.0
 11
98.33453993
 21
195.4992261051
 31
0.0
  0
LINE
  5
F4
330
1F
100
AcDbEntity
  8
0
  6
CONTINUOUS
 62
     7
100
AcDbLine
 10
97.011445226
 20
196.8223208091
 30
0.0
 11
98.33453993
 21
195.4992261051
 31
0.0
  0
LINE
  5
F5
330
1F
100
AcDbEntity
  8
0
  6
CONTINUOUS
 62
     7
100
AcDbLine
 10
261.472713956
 20
195.4992261051
 30
0.0
 11
261.2960371173
 21
195.4992261051
 31
0.0
  0
LINE
  5
F6
330
1F
100
AcDbEntity
  8
0
  6
CONTINUOUS
 62
     7
100
AcDbLine
 10
261.472713956
 20
195.4992261051
 30
0.0
 11
262.79580866
 21
196.8223208091
 31
0.0
  0
LINE
  5
F7
330
1F
100
AcDbEntity
  8
0
  6
CONTINUOUS
 62
     7
100
AcDbLine
 10
114.203626943
 20
195.4992261051
 30
0.0
 11
98.5112167687
 21
195.4992261051
 31
0.0
  0
LINE
  5
F8
330
1F
100
AcDbEntity
  8
0
  6
CONTINUOUS
 62
     7
100
AcDbLine
 10
100.903626943
 20
208.9992261051
 30
0.0
 11
100.903626943
 21
202.9992261051
 31
0.0
  0
LINE
  5
F9
330
1F
100
AcDbEntity
  8
0
  6
CONTINUOUS
 62
     7
100
AcDbLine
 10
100.903626943
 20
208.9992261051
 30
0.0
 11
258.903626943
 21
208.9992261051
 31
0.0
  0
LINE
  5
FA
330
1F
100
AcDbEntity
  8
0
  6
CONTINUOUS
 62
     7
100
AcDbLine
 10
258.903626943
 20
208.9992261051
 30
0.0
 11
258.903626943
 21
202.9992261051
 31
0.0
  0
LINE
  5
FB
330
1F
100
AcDbEntity
  8
0
  6
CONTINUOUS
 62
     7
100
AcDbLine
 10
249.453626943
 20
209.7992261051
 30
0.0
 11
255.353626943
 21
209.7992261051
 31
0.0
  0
LINE
  5
FC
330
1F
100
AcDbEntity
  8
0
  6
CONTINUOUS
 62
     7
100
AcDbLine
 10
104.453626943
 20
209.7992261051
 30
0.0
 11
110.353626943
 21
209.7992261051
 31
0.0
  0
LINE
  5
FD
330
1F
100
AcDbEntity
  8
0
  6
CONTINUOUS
 62
     7
100
AcDbLine
 10
307.4888567964
 20
345.7792090925
 30
0.0
 11
306.6888567964
 21
345.7792090925
 31
0.0
  0
LINE
  5
FE
330
1F
100
AcDbEntity
  8
0
  6
CONTINUOUS
 62
     7
100
AcDbLine
 10
306.6888567964
 20
339.8792090925
 30
0.0
 11
307.4888567964
 21
339.8792090925
 31
0.0
  0
LINE
  5
FF
330
1F
100
AcDbEntity
  8
0
  6
CONTINUOUS
 62
     7
100
AcDbLine
 10
307.4888567964
 20
260.7792090925
 30
0.0
 11
306.6888567964
 21
260.7792090925
 31
0.0
  0
LINE
  5
100
330
1F
100
AcDbEntity
  8
0
  6
CONTINUOUS
 62
     7
100
AcDbLine
 10
306.6888567964
 20
254.8792090925
 30
0.0
 11
307.4888567964
 21
254.8792090925
 31
0.0
  0
LINE
  5
101
330
1F
100
AcDbEntity
  8
0
  6
CONTINUOUS
 62
     7
100
AcDbLine
 10
322.5202963797
 20
247.4868534569
 30
0.0
 11
323.8200977389
 21
248.8328378336
 31
0.0
  0
LINE
  5
102
330
1F
100
AcDbEntity
  8
0
  6
CONTINUOUS
 62
     7
100
AcDbLine
 10
323.8204696284
 20
248.8328373418
 30
0.0
 11
323.8204696284
 21
253.3308105522
 31
0.0
  0
LINE
  5
103
330
1F
100
AcDbEntity
  8
0
  6
CONTINUOUS
 62
     7
100
AcDbLine
 10
323.8201037631
 20
351.8488764947
 30
0.0
 11
322.4970097041
 21
353.1719711987
 31
0.0
  0
LINE
  5
104
330
1F
100
AcDbEntity
  8
0
  6
CONTINUOUS
 62
     7
100
AcDbLine
 10
323.8204696284
 20
347.3276076329
 30
0.0
 11
323.8204696284
 21
351.8488769895
 31
0.0
  0
LINE
  5
105
330
1F
100
AcDbEntity
  8
0
  6
CONTINUOUS
 62
     7
100
AcDbLine
 10
313.4888567964
 20
351.8294375498
 30
0.0
 11
313.4888567964
 21
353.3292090925
 31
0.0
  0
LINE
  5
106
330
1F
100
AcDbEntity
  8
0
  6
CONTINUOUS
 62
     7
100
AcDbLine
 10
313.4888567964
 20
353.3292090925
 30
0.0
 11
319.6657620925
 21
353.2213908095
 31
0.0
  0
ARC
  5
107
330
1F
100
AcDbEntity
  8
0
  6
CONTINUOUS
 62
     7
100
AcDbCircle
 10
298.1744492884
 20
352.4715050382
 30
0.0
 40
21.50439152153941
100
AcDbArc
 50
358.0016173803
 51
1.9983826197
  0
LINE
  5
108
330
1F
100
AcDbEntity
  8
0
  6
CONTINUOUS
 62
     7
100
AcDbLine
 10
319.6657620925
 20
351.7216192668
 30
0.0
 11
313.4888567964
 21
351.8294375498
 31
0.0
  0
LINE
  5
109
330
1F
100
AcDbEntity
  8
0
  6
CONTINUOUS
 62
     7
100
AcDbLine
 10
313.4888567964
 20
351.8294375498
 30
0.0
 11
313.4888567964
 21
248.8289806353
 31
0.0
  0
LINE
  5
10A
330
1F
100
AcDbEntity
  8
0
  6
CONTINUOUS
 62
     7
100
AcDbLine
 10
319.6657620925
 20
248.9367989183
 30
0.0
 11
319.6657620925
 21
351.7216192668
 31
0.0
  0
LINE
  5
10B
330
1F
100
AcDbEntity
  8
0
  6
CONTINUOUS
 62
     7
100
AcDbLine
 10
313.4888567964
 20
248.8289806353
 30
0.0
 11
319.6657620925
 21
248.9367989183
 31
0.0
  0
LINE
  5
10C
330
1F
100
AcDbEntity
  8
0
  6
CONTINUOUS
 62
     7
100
AcDbLine
 10
313.4888567964
 20
247.3292090925
 30
0.0
 11
313.4888567964
 21
248.8289806353
 31
0.0
  0
ARC
  5
10D
330
1F
100
AcDbEntity
  8
0
  6
CONTINUOUS
 62
     7
100
AcDbCircle
 10
298.1744492884
 20
248.1869131469
 30
0.0
 40
21.50439152153691
100
AcDbArc
 50
358.0016173803
 51
1.9983826197
  0
LINE
  5
10E
330
1F
100
AcDbEntity
  8
0
  6
CONTINUOUS
 62
     7
100
AcDbLine
 10
319.6657620925
 20
247.4370273755
 30
0.0
 11
313.4888567964
 21
247.3292090925
 31
0.0
  0
LINE
  5
10F
330
1F
100
AcDbEntity
  8
0
  6
CONTINUOUS
 62
     7
100
AcDbLine
 10
319.6657620925
 20
248.9367989183
 30
0.0
 11
320.9888567964
 21
248.9367989183
 31
0.0
  0
LINE
  5
110
330
1F
100
AcDbEntity
  8
0
  6
CONTINUOUS
 62
     7
100
AcDbLine
 10
320.9888567964
 20
248.9367989183
 30
0.0
 11
320.9888567964
 21
248.7601220795
 31
0.0
  0
LINE
  5
111
330
1F
100
AcDbEntity
  8
0
  6
CONTINUOUS
 62
     7
100
AcDbLine
 10
319.6657620925
 20
247.4370273755
 30
0.0
 11
320.9888567964
 21
248.7601220795
 31
0.0
  0
LINE
  5
112
330
1F
100
AcDbEntity
  8
0
  6
CONTINUOUS
 62
     7
100
AcDbLine
 10
319.6657620925
 20
351.7216192668
 30
0.0
 11
320.9888567964
 21
351.7216192668
 31
0.0
  0
LINE
  5
113
330
1F
100
AcDbEntity
  8
0
  6
CONTINUOUS
 62
     7
100
AcDbLine
 10
320.9888567964
 20
351.7216192668
 30
0.0
 11
320.9888567964
 21
248.9367989183
 31
0.0
  0
LINE
  5
114
330
1F
100
AcDbEntity
  8
0
  6
CONTINUOUS
 62
     7
100
AcDbLine
 10
319.6657620925
 20
353.2213908095
 30
0.0
 11
320.9888567964
 21
351.8982961056
 31
0.0
  0
LINE
  5
115
330
1F
100
AcDbEntity
  8
0
  6
CONTINUOUS
 62
     7
100
AcDbLine
 10
320.9888567964
 20
351.8982961056
 30
0.0
 11
320.9888567964
 21
351.7216192668
 31
0.0
  0
LINE
  5
116
330
1F
100
AcDbEntity
  8
0
  6
CONTINUOUS
 62
     7
100
AcDbLine
 10
307.4888567964
 20
251.3292090925
 30
0.0
 11
313.4888567964
 21
251.3292090925
 31
0.0
  0
LINE
  5
117
330
1F
100
AcDbEntity
  8
0
  6
CONTINUOUS
 62
     7
100
AcDbLine
 10
307.4888567964
 20
251.3292090925
 30
0.0
 11
307.4888567964
 21
349.3292090925
 31
0.0
  0
LINE
  5
118
330
1F
100
AcDbEntity
  8
0
  6
CONTINUOUS
 62
     7
100
AcDbLine
 10
307.4888567964
 20
349.3292090925
 30
0.0
 11
313.4888567964
 21
349.3292090925
 31
0.0
  0
LINE
  5
119
330
1F
100
AcDbEntity
  8
0
  6
CONTINUOUS
 62
     7
100
AcDbLine
 10
306.6888567964
 20
339.8792090925
 30
0.0
 11
306.6888567964
 21
345.7792090925
 31
0.0
  0
LINE
  5
11A
330
1F
100
AcDbEntity
  8
0
  6
CONTINUOUS
 62
     7
100
AcDbLine
 10
306.6888567964
 20
257.8292090925
 30
0.0
 11
306.6888567964
 21
260.7792090925
 31
0.0
  0
LINE
  5
11B
330
1F
100
AcDbEntity
  8
0
  6
CONTINUOUS
 62
     7
100
AcDbLine
 10
306.6888567964
 20
254.8792090925
 30
0.0
 11
306.6888567964
 21
257.8292090925
 31
0.0
  0
LWPOLYLINE
  5
11C
330
1F
100
AcDbEntity
  8
0
  6
CONTINUOUS
 62
     7
100
AcDbPolyline
 90
        4
 70
   128
 43
0.0
 10
321.0114077819
 20
248.7839026321
 10
322.5715720762
 20
248.8110885819
 10
323.5081813834
 20
248.8274001519
 10
323.8204696284
 20
248.8328373418
  0
LINE
  5
11D
330
1F
100
AcDbEntity
  8
0
  6
CONTINUOUS
 62
     7
100
AcDbLine
 10
322.5273620118
 20
247.4869767879
 30
0.0
 11
319.6660701639
 21
247.4370327529
 31
0.0
  0
LINE
  5
11E
330
1F
100
AcDbEntity
  8
0
  6
CONTINUOUS
 62
     7
100
AcDbLine
 10
320.9888567964
 20
253.4792090925
 30
0.0
 11
323.8204696284
 21
253.3308105522
 31
0.0
  0
LWPOLYLINE
  5
11F
330
1F
100
AcDbEntity
  8
0
  6
CONTINUOUS
 62
     7
100
AcDbPolyline
 90
        4
 70
   128
 43
0.0
 10
323.8204696284
 20
351.8488769893
 10
323.5056729879
 20
351.8543577292
 10
322.5615425708
 20
351.8707999487
 10
320.9888567949
 20
351.8982036478
  0
LINE
  5
120
330
1F
100
AcDbEntity
  8
0
  6
CONTINUOUS
 62
     7
100
AcDbLine
 10
319.6660651807
 20
353.2213855191
 30
0.0
 11
322.5039594959
 21
353.1718498896
 31
0.0
  0
LINE
  5
121
330
1F
100
AcDbEntity
  8
0
  6
CONTINUOUS
 62
     7
100
AcDbLine
 10
323.8204696284
 20
347.3276076329
 30
0.0
 11
320.9888567964
 21
347.1792090925
 31
0.0
  0
CIRCLE
  5
122
330
1F
100
AcDbEntity
  8
0
  6
CONTINUOUS
 62
     7
100
AcDbCircle
 10
395.9632124352
 20
257.8292090925
 30
0.0
 40
2.949999999999989
  0
CIRCLE
  5
123
330
1F
100
AcDbEntity
  8
0
  6
CONTINUOUS
 62
     7
100
AcDbCircle
 10
395.9632124352
 20
257.8292090925
 30
0.0
 40
1.600000000000023
  0
CIRCLE
  5
124
330
1F
100
AcDbEntity
  8
0
  6
CONTINUOUS
 62
     7
100
AcDbCircle
 10
395.9632124352
 20
342.8292090925
 30
0.0
 40
1.600000000000023
  0
CIRCLE
  5
125
330
1F
100
AcDbEntity
  8
0
  6
CONTINUOUS
 62
     7
100
AcDbCircle
 10
395.9632124352
 20
342.8292090925
 30
0.0
 40
2.949999999999989
  0
CIRCLE
  5
126
330
1F
100
AcDbEntity
  8
0
  6
CONTINUOUS
 62
     7
100
AcDbCircle
 10
540.9632124352
 20
257.8292090925
 30
0.0
 40
1.600000000000136
  0
CIRCLE
  5
127
330
1F
100
AcDbEntity
  8
0
  6
CONTINUOUS
 62
     7
100
AcDbCircle
 10
540.9632124352
 20
257.8292090925
 30
0.0
 40
2.950000000000045
  0
CIRCLE
  5
128
330
1F
100
AcDbEntity
  8
0
  6
CONTINUOUS
 62
     7
100
AcDbCircle
 10
540.9632124352
 20
342.8292090925
 30
0.0
 40
1.600000000000023
  0
CIRCLE
  5
129
330
1F
100
AcDbEntity
  8
0
  6
CONTINUOUS
 62
     7
100
AcDbCircle
 10
540.9632124352
 20
342.8292090925
 30
0.0
 40
2.949999999999932
  0
LINE
  5
12A
330
1F
100
AcDbEntity
  8
0
  6
CONTINUOUS
 62
     7
100
AcDbLine
 10
390.6632124352
 20
252.5292090925
 30
0.0
 11
546.2632124352
 21
252.5292090925
 31
0.0
  0
LINE
  5
12B
330
1F
100
AcDbEntity
  8
0
  6
CONTINUOUS
 62
     7
100
AcDbLine
 10
546.2632124352
 20
252.5292090925
 30
0.0
 11
546.2632124352
 21
348.1292090925
 31
0.0
  0
LINE
  5
12C
330
1F
100
AcDbEntity
  8
0
  6
CONTINUOUS
 62
     7
100
AcDbLine
 10
546.2632124352
 20
348.1292090925
 30
0.0
 11
390.6632124352
 21
348.1292090925
 31
0.0
  0
LINE
  5
12D
330
1F
100
AcDbEntity
  8
0
  6
CONTINUOUS
 62
     7
100
AcDbLine
 10
390.6632124352
 20
348.1292090925
 30
0.0
 11
390.6632124352
 21
252.5292090925
 31
0.0
  0
LINE
  5
12E
330
1F
100
AcDbEntity
  8
0
  6
CONTINUOUS
 62
     7
100
AcDbLine
 10
547.4632124352
 20
251.3292090925
 30
0.0
 11
547.4632124352
 21
349.3292090925
 31
0.0
  0
LINE
  5
12F
330
1F
100
AcDbEntity
  8
0
  6
CONTINUOUS
 62
     7
100
AcDbLine
 10
389.4632124352
 20
251.3292090925
 30
0.0
 11
547.4632124352
 21
251.3292090925
 31
0.0
  0
LINE
  5
130
330
1F
100
AcDbEntity
  8
0
  6
CONTINUOUS
 62
     7
100
AcDbLine
 10
547.4632124352
 20
349.3292090925
 30
0.0
 11
389.4632124352
 21
349.3292090925
 31
0.0
  0
LINE
  5
131
330
1F
100
AcDbEntity
  8
0
  6
CONTINUOUS
 62
     7
100
AcDbLine
 10
389.4632124352
 20
349.3292090925
 30
0.0
 11
389.4632124352
 21
251.3292090925
 31
0.0
  0
CIRCLE
  5
132
330
1F
100
AcDbEntity
  8
0
  6
CONTINUOUS
 62
     7
100
AcDbCircle
 10
408.4632124352
 20
340.3292090925
 30
0.0
 40
1.199999999999989
  0
CIRCLE
  5
133
330
1F
100
AcDbEntity
  8
0
  6
CONTINUOUS
 62
     7
100
AcDbCircle
 10
408.4632124352
 20
340.3292090925
 30
0.0
 40
3.0
  0
CIRCLE
  5
134
330
1F
100
AcDbEntity
  8
0
  6
CONTINUOUS
 62
     7
100
AcDbCircle
 10
408.4632124352
 20
260.3292090925
 30
0.0
 40
1.199999999999989
  0
CIRCLE
  5
135
330
1F
100
AcDbEntity
  8
0
  6
CONTINUOUS
 62
     7
100
AcDbCircle
 10
408.4632124352
 20
260.3292090925
 30
0.0
 40
3.000000000000057
  0
CIRCLE
  5
136
330
1F
100
AcDbEntity
  8
0
  6
CONTINUOUS
 62
     7
100
AcDbCircle
 10
528.4632124352
 20
260.3292090925
 30
0.0
 40
1.199999999999932
  0
CIRCLE
  5
137
330
1F
100
AcDbEntity
  8
0
  6
CONTINUOUS
 62
     7
100
AcDbCircle
 10
528.4632124352
 20
260.3292090925
 30
0.0
 40
3.0
  0
CIRCLE
  5
138
330
1F
100
AcDbEntity
  8
0
  6
CONTINUOUS
 62
     7
100
AcDbCircle
 10
528.4632124352
 20
340.3292090925
 30
0.0
 40
1.200000000000045
  0
CIRCLE
  5
139
330
1F
100
AcDbEntity
  8
0
  6
CONTINUOUS
 62
     7
100
AcDbCircle
 10
528.4632124352
 20
340.3292090925
 30
0.0
 40
3.0
  0
ARC
  5
13A
330
1F
100
AcDbEntity
  8
0
  6
CONTINUOUS
 62
     7
100
AcDbCircle
 10
395.9632124352
 20
342.8292090925
 30
0.0
 40
5.500000000000008
100
AcDbArc
 50
105.4987327566
 51
164.5012672434
  0
ARC
  5
13B
330
1F
100
AcDbEntity
  8
0
  6
CONTINUOUS
 62
     7
100
AcDbCircle
 10
395.9632124352
 20
342.8292090925
 30
0.0
 40
5.500000000000023
100
AcDbArc
 50
195.4987327566
 51
74.5012672434
  0
ARC
  5
13C
330
1F
100
AcDbEntity
  8
0
  6
CONTINUOUS
 62
     7
100
AcDbCircle
 10
395.9632124352
 20
257.8292090925
 30
0.0
 40
5.500000000000023
100
AcDbArc
 50
285.4987327566
 51
164.5012672434
  0
ARC
  5
13D
330
1F
100
AcDbEntity
  8
0
  6
CONTINUOUS
 62
     7
100
AcDbCircle
 10
395.9632124352
 20
257.8292090925
 30
0.0
 40
5.500000000000038
100
AcDbArc
 50
195.4987327566
 51
254.5012672434
  0
ARC
  5
13E
330
1F
100
AcDbEntity
  8
0
  6
CONTINUOUS
 62
     7
100
AcDbCircle
 10
540.9632124352
 20
257.8292090925
 30
0.0
 40
5.500000000000036
100
AcDbArc
 50
285.4987327566
 51
344.5012672434
  0
ARC
  5
13F
330
1F
100
AcDbEntity
  8
0
  6
CONTINUOUS
 62
     7
100
AcDbCircle
 10
540.9632124352
 20
257.8292090925
 30
0.0
 40
5.500000000000036
100
AcDbArc
 50
15.4987327566
 51
254.5012672434
  0
ARC
  5
140
330
1F
100
AcDbEntity
  8
0
  6
CONTINUOUS
 62
     7
100
AcDbCircle
 10
540.9632124352
 20
342.8292090925
 30
0.0
 40
5.499999999999953
100
AcDbArc
 50
15.4987327566
 51
74.5012672434
  0
ARC
  5
141
330
1F
100
AcDbEntity
  8
0
  6
CONTINUOUS
 62
     7
100
AcDbCircle
 10
540.9632124352
 20
342.8292090925
 30
0.0
 40
5.499999999999968
100
AcDbArc
 50
105.4987327566
 51
344.5012672434
  0
LINE
  5
142
330
1F
100
AcDbEntity
  8
0
  6
CONTINUOUS
 62
     7
100
AcDbLine
 10
551.4632124352
 20
351.8294375498
 30
0.0
 11
551.4632124352
 21
248.8289806353
 31
0.0
  0
ELLIPSE
  5
143
330
1F
100
AcDbEntity
  8
0
  6
CONTINUOUS
 62
     7
100
AcDbEllipse
 10
549.9629839432
 20
248.8294375846
 30
0.0
 11
1.060983283754354
 21
-1.060983283754354
 31
0.0
210
0.0
220
0.0
230
1.0
 40
0.9996954599
 41
5.497939437029714
 42
7.068431177329454
  0
ELLIPSE
  5
144
330
1F
100
AcDbEntity
  8
0
  6
CONTINUOUS
 62
     7
100
AcDbEllipse
 10
549.9629839432
 20
351.8289806005
 30
0.0
 11
1.060983283754354
 21
1.060983283754354
 31
0.0
210
0.0
220
0.0
230
1.0
 40
0.9996954599
 41
5.497939437029721
 42
7.068431177329465
  0
LINE
  5
145
330
1F
100
AcDbEntity
  8
0
  6
CONTINUOUS
 62
     7
100
AcDbLine
 10
549.9634408925
 20
247.3292090925
 30
0.0
 11
386.962983978
 21
247.3292090925
 31
0.0
  0
LINE
  5
146
330
1F
100
AcDbEntity
  8
0
  6
CONTINUOUS
 62
     7
100
AcDbLine
 10
386.962983978
 20
353.3292090925
 30
0.0
 11
549.9634408925
 21
353.3292090925
 31
0.0
  0
ELLIPSE
  5
147
330
1F
100
AcDbEntity
  8
0
  6
CONTINUOUS
 62
     7
100
AcDbEllipse
 10
386.9634409273
 20
351.8289806005
 30
0.0
 11
-1.060983283754354
 21
1.060983283754354
 31
0.0
210
0.0
220
0.0
230
1.0
 40
0.9996954599
 41
5.497939437029771
 42
7.068431177329452
  0
LINE
  5
148
330
1F
100
AcDbEntity
  8
0
  6
CONTINUOUS
 62
     7
100
AcDbLine
 10
385.4632124352
 20
248.8289806353
 30
0.0
 11
385.4632124352
 21
351.8294375498
 31
0.0
  0
ELLIPSE
  5
149
330
1F
100
AcDbEntity
  8
0
  6
CONTINUOUS
 62
     7
100
AcDbEllipse
 10
386.9634409273
 20
248.8294375846
 30
0.0
 11
-1.060983283754354
 21
-1.060983283754354
 31
0.0
210
0.0
220
0.0
230
1.0
 40
0.9996954599
 41
5.497939437029721
 42
7.068431177329428
  0
LINE
  5
14A
330
1F
100
AcDbEntity
  8
0
  6
CONTINUOUS
 62
     7
100
AcDbLine
 10
401.3632124352
 20
258.8732397434
 30
0.0
 11
401.3632124352
 21
341.7851784417
 31
0.0
  0
CIRCLE
  5
14B
330
1F
100
AcDbEntity
  8
0
  6
CONTINUOUS
 62
     7
100
AcDbCircle
 10
396.4632124352
 20
325.3292090925
 30
0.0
 40
1.200000000000045
  0
CIRCLE
  5
14C
330
1F
100
AcDbEntity
  8
0
  6
CONTINUOUS
 62
     7
100
AcDbCircle
 10
396.4632124352
 20
300.3292090925
 30
0.0
 40
1.199999999999989
  0
CIRCLE
  5
14D
330
1F
100
AcDbEntity
  8
0
  6
CONTINUOUS
 62
     7
100
AcDbCircle
 10
396.4632124352
 20
275.3292090925
 30
0.0
 40
1.199999999999989
  0
LINE
  5
14E
330
1F
100
AcDbEntity
  8
0
  6
CONTINUOUS
 62
     7
100
AcDbLine
 10
535.5632124352
 20
254.1792090925
 30
0.0
 11
535.5632124352
 21
256.7851784417
 31
0.0
  0
LINE
  5
14F
330
1F
100
AcDbEntity
  8
0
  6
CONTINUOUS
 62
     7
100
AcDbLine
 10
401.3632124352
 20
254.1792090925
 30
0.0
 11
401.3632124352
 21
256.7851784417
 31
0.0
  0
LINE
  5
150
330
1F
100
AcDbEntity
  8
0
  6
CONTINUOUS
 62
     7
100
AcDbLine
 10
401.3632124352
 20
254.1792090925
 30
0.0
 11
535.5632124352
 21
254.1792090925
 31
0.0
  0
LINE
  5
151
330
1F
100
AcDbEntity
  8
0
  6
CONTINUOUS
 62
     7
100
AcDbLine
 10
535.5632124352
 20
346.4792090925
 30
0.0
 11
535.5632124352
 21
343.8732397434
 31
0.0
  0
LINE
  5
152
330
1F
100
AcDbEntity
  8
0
  6
CONTINUOUS
 62
     7
100
AcDbLine
 10
535.5632124352
 20
346.4792090925
 30
0.0
 11
401.3632124352
 21
346.4792090925
 31
0.0
  0
LINE
  5
153
330
1F
100
AcDbEntity
  8
0
  6
CONTINUOUS
 62
     7
100
AcDbLine
 10
401.3632124352
 20
346.4792090925
 30
0.0
 11
401.3632124352
 21
343.8732397434
 31
0.0
  0
LINE
  5
154
330
1F
100
AcDbEntity
  8
0
  6
CONTINUOUS
 62
     7
100
AcDbLine
 10
535.5632124352
 20
341.7851784417
 30
0.0
 11
535.5632124352
 21
258.8732397434
 31
0.0
  0
CIRCLE
  5
155
330
1F
100
AcDbEntity
  8
0
  6
CONTINUOUS
 62
     7
100
AcDbCircle
 10
540.4632124352
 20
275.3292090925
 30
0.0
 40
1.199999999999932
  0
CIRCLE
  5
156
330
1F
100
AcDbEntity
  8
0
  6
CONTINUOUS
 62
     7
100
AcDbCircle
 10
540.4632124352
 20
300.3292090925
 30
0.0
 40
1.199999999999932
  0
CIRCLE
  5
157
330
1F
100
AcDbEntity
  8
0
  6
CONTINUOUS
 62
     7
100
AcDbCircle
 10
540.4632124352
 20
325.3292090925
 30
0.0
 40
1.200000000000045
  0
ENDSEC
  0
SECTION
  2
OBJECTS
  0
DICTIONARY
  5
C
330
0
100
AcDbDictionary
  3
ACAD_GROUP
350
D
  3
ACAD_MLINESTYLE
350
17
  0
DICTIONARY
  5
D
102
{ACAD_REACTORS
330
C
102
}
330
C
100
AcDbDictionary
  0
DICTIONARY
  5
17
102
{ACAD_REACTORS
330
C
102
}
330
C
100
AcDbDictionary
  3
STANDARD
350
18
  0
MLINESTYLE
  5
18
102
{ACAD_REACTORS
330
17
102
}
330
17
100
AcDbMlineStyle
  2
Standard
 70
     0
  3

 62
   256
 51
90.0
 52
90.0
 71
     2
 49
0.5
 62
   256
  6
BYLAYER
 49
-0.5
 62
   256
  6
BYLAYER
  0
ENDSEC
  0
EOF
