  0
SECTION
  2
HEADER
  9
$ACADVER
  1
AC1015
  9
$ACADMAINTVER
 70
     6
  9
$DWGCODEPAGE
  3
ANSI_1252
  9
$INSBASE
 10
0.0
 20
0.0
 30
0.0
  9
$EXTMIN
 10
0.0
 20
0.0
 30
0.0
  9
$EXTMAX
 10
420.0
 20
297.0
 30
0.0
  9
$LIMMIN
 10
0.0
 20
0.0
  9
$LIMMAX
 10
420.0
 20
297.0
  9
$ORTHOMODE
 70
     0
  9
$REGENMODE
 70
     1
  9
$FILLMODE
 70
     1
  9
$QTEXTMODE
 70
     0
  9
$MIRRTEXT
 70
     1
  9
$LTSCALE
 40
1.0
  9
$ATTMODE
 70
     1
  9
$TEXTSIZE
 40
3.5
  9
$TRACEWID
 40
1.0
  9
$TEXTSTYLE
  7
Standard
  9
$CLAYER
  8
0
  9
$CELTYPE
  6
ByLayer
  9
$CECOLOR
 62
   256
  9
$CELTSCALE
 40
1.0
  9
$DISPSILH
 70
     0
  9
$DIMSCALE
 40
1.0
  9
$DIMASZ
 40
6.0
  9
$DIMEXO
 40
1.0
  9
$DIMDLI
 40
3.75
  9
$DIMRND
 40
0.0
  9
$DIMDLE
 40
0.0
  9
$DIMEXE
 40
1.0
  9
$DIMTP
 40
0.0
  9
$DIMTM
 40
0.0
  9
$DIMTXT
 40
3.5
  9
$DIMCEN
 40
2.5
  9
$DIMTSZ
 40
0.0
  9
$DIMTOL
 70
     0
  9
$DIMLIM
 70
     0
  9
$DIMTIH
 70
     1
  9
$DIMTOH
 70
     1
  9
$DIMSE1
 70
     0
  9
$DIMSE2
 70
     0
  9
$DIMTAD
 70
     1
  9
$DIMZIN
 70
     0
  9
$DIMBLK
  1

  9
$DIMASO
 70
     1
  9
$DIMSHO
 70
     1
  9
$DIMPOST
  1

  9
$DIMAPOST
  1

  9
$DIMALT
 70
     0
  9
$DIMALTD
 70
     3
  9
$DIMALTF
 40
0.0393700787
  9
$DIMLFAC
 40
5.0
  9
$DIMTOFL
 70
     1
  9
$DIMTVP
 40
0.0
  9
$DIMTIX
 70
     0
  9
$DIMSOXD
 70
     0
  9
$DIMSAH
 70
     0
  9
$DIMBLK1
  1

  9
$DIMBLK2
  1

  9
$DIMSTYLE
  2
ISO-25
  9
$DIMCLRD
 70
     0
  9
$DIMCLRE
 70
     0
  9
$DIMCLRT
 70
     0
  9
$DIMTFAC
 40
1.0
  9
$DIMGAP
 40
1.524
  9
$DIMJUST
 70
     0
  9
$DIMSD1
 70
     0
  9
$DIMSD2
 70
     0
  9
$DIMTOLJ
 70
     0
  9
$DIMTZIN
 70
     0
  9
$DIMALTZ
 70
     0
  9
$DIMALTTZ
 70
     0
  9
$DIMUPT
 70
     0
  9
$DIMDEC
 70
     2
  9
$DIMTDEC
 70
     2
  9
$DIMALTU
 70
     2
  9
$DIMALTTD
 70
     3
  9
$DIMTXSTY
  7
Standard
  9
$DIMAUNIT
 70
     0
  9
$DIMADEC
 70
     2
  9
$DIMALTRND
 40
0.0
  9
$DIMAZIN
 70
     0
  9
$DIMDSEP
 70
    44
  9
$DIMATFIT
 70
     3
  9
$DIMFRAC
 70
     0
  9
$DIMLDRBLK
  1

  9
$DIMLUNIT
 70
     2
  9
$DIMLWD
 70
    -2
  9
$DIMLWE
 70
    -2
  9
$DIMTMOVE
 70
     0
  9
$LUNITS
 70
     2
  9
$LUPREC
 70
     2
  9
$SKETCHINC
 40
1.0
  9
$FILLETRAD
 40
10.0
  9
$AUNITS
 70
     0
  9
$AUPREC
 70
     2
  9
$MENU
  1
.
  9
$ELEVATION
 40
0.0
  9
$PELEVATION
 40
0.0
  9
$THICKNESS
 40
0.0
  9
$LIMCHECK
 70
     0
  9
$CHAMFERA
 40
0.0
  9
$CHAMFERB
 40
0.0
  9
$CHAMFERC
 40
0.0
  9
$CHAMFERD
 40
0.0
  9
$SKPOLY
 70
     0
  9
$TDCREATE
 40
2456989.504248056
  9
$TDUCREATE
 40
2456989.420914722
  9
$TDUPDATE
 40
2456989.5042486
  9
$TDUUPDATE
 40
2456989.420915266
  9
$TDINDWG
 40
0.0000000116
  9
$TDUSRTIMER
 40
0.0000000116
  9
$USRTIMER
 70
     1
  9
$ANGBASE
 50
0.0
  9
$ANGDIR
 70
     0
  9
$PDMODE
 70
     0
  9
$PDSIZE
 40
-1.0
  9
$PLINEWID
 40
0.0
  9
$SPLFRAME
 70
     0
  9
$SPLINETYPE
 70
     6
  9
$SPLINESEGS
 70
     8
  9
$HANDSEED
  5
2C9
  9
$SURFTAB1
 70
     6
  9
$SURFTAB2
 70
     6
  9
$SURFTYPE
 70
     6
  9
$SURFU
 70
     6
  9
$SURFV
 70
     6
  9
$UCSBASE
  2

  9
$UCSNAME
  2

  9
$UCSORG
 10
0.0
 20
0.0
 30
0.0
  9
$UCSXDIR
 10
1.0
 20
0.0
 30
0.0
  9
$UCSYDIR
 10
0.0
 20
1.0
 30
0.0
  9
$UCSORTHOREF
  2

  9
$UCSORTHOVIEW
 70
     0
  9
$UCSORGTOP
 10
0.0
 20
0.0
 30
0.0
  9
$UCSORGBOTTOM
 10
0.0
 20
0.0
 30
0.0
  9
$UCSORGLEFT
 10
0.0
 20
0.0
 30
0.0
  9
$UCSORGRIGHT
 10
0.0
 20
0.0
 30
0.0
  9
$UCSORGFRONT
 10
0.0
 20
0.0
 30
0.0
  9
$UCSORGBACK
 10
0.0
 20
0.0
 30
0.0
  9
$PUCSBASE
  2

  9
$PUCSNAME
  2

  9
$PUCSORG
 10
0.0
 20
0.0
 30
0.0
  9
$PUCSXDIR
 10
1.0
 20
0.0
 30
0.0
  9
$PUCSYDIR
 10
0.0
 20
1.0
 30
0.0
  9
$PUCSORTHOREF
  2

  9
$PUCSORTHOVIEW
 70
     0
  9
$PUCSORGTOP
 10
0.0
 20
0.0
 30
0.0
  9
$PUCSORGBOTTOM
 10
0.0
 20
0.0
 30
0.0
  9
$PUCSORGLEFT
 10
0.0
 20
0.0
 30
0.0
  9
$PUCSORGRIGHT
 10
0.0
 20
0.0
 30
0.0
  9
$PUCSORGFRONT
 10
0.0
 20
0.0
 30
0.0
  9
$PUCSORGBACK
 10
0.0
 20
0.0
 30
0.0
  9
$USERI1
 70
     0
  9
$USERI2
 70
     0
  9
$USERI3
 70
     0
  9
$USERI4
 70
     0
  9
$USERI5
 70
     0
  9
$USERR1
 40
0.0
  9
$USERR2
 40
0.0
  9
$USERR3
 40
0.0
  9
$USERR4
 40
0.0
  9
$USERR5
 40
0.0
  9
$WORLDVIEW
 70
     1
  9
$SHADEDGE
 70
     3
  9
$SHADEDIF
 70
    70
  9
$TILEMODE
 70
     1
  9
$MAXACTVP
 70
    64
  9
$PINSBASE
 10
0.0
 20
0.0
 30
0.0
  9
$PLIMCHECK
 70
     0
  9
$PEXTMIN
 10
1.0000000000E+20
 20
1.0000000000E+20
 30
1.0000000000E+20
  9
$PEXTMAX
 10
-1.0000000000E+20
 20
-1.0000000000E+20
 30
-1.0000000000E+20
  9
$PLIMMIN
 10
0.0
 20
0.0
  9
$PLIMMAX
 10
420.0
 20
297.0
  9
$UNITMODE
 70
     0
  9
$VISRETAIN
 70
     1
  9
$PLINEGEN
 70
     0
  9
$PSLTSCALE
 70
     1
  9
$TREEDEPTH
 70
  3020
  9
$CMLSTYLE
  2
Standard
  9
$CMLJUST
 70
     0
  9
$CMLSCALE
 40
20.0
  9
$PROXYGRAPHICS
 70
     1
  9
$MEASUREMENT
 70
     1
  9
$CELWEIGHT
370
    -1
  9
$ENDCAPS
280
     0
  9
$JOINSTYLE
280
     0
  9
$LWDISPLAY
290
     1
  9
$INSUNITS
 70
     4
  9
$HYPERLINKBASE
  1

  9
$STYLESHEET
  1

  9
$XEDIT
290
     1
  9
$CEPSNTYPE
380
     0
  9
$PSTYLEMODE
290
     1
  9
$FINGERPRINTGUID
  2
{ECCB866C-59A9-4ABD-8AFB-9F6273F92C7F}
  9
$VERSIONGUID
  2
{FAEB1C32-E019-11D5-929B-00C0DF256EC4}
  9
$EXTNAMES
290
     1
  9
$PSVPSCALE
 40
0.0
  9
$OLESTARTUP
290
     0
  0
ENDSEC
  0
SECTION
  2
CLASSES
  0
CLASS
  1
ACDBDICTIONARYWDFLT
  2
AcDbDictionaryWithDefault
  3
ObjectDBX Classes
 90
        0
280
     0
281
     0
  0
CLASS
  1
VISUALSTYLE
  2
AcDbVisualStyle
  3
ObjectDBX Classes
 90
     4095
280
     0
281
     0
  0
CLASS
  1
MATERIAL
  2
AcDbMaterial
  3
ObjectDBX Classes
 90
     1153
280
     0
281
     0
  0
CLASS
  1
SCALE
  2
AcDbScale
  3
ObjectDBX Classes
 90
     1153
280
     0
281
     0
  0
CLASS
  1
SUN
  2
AcDbSun
  3
SCENEOE
 90
     1153
280
     0
281
     0
  0
CLASS
  1
ACDBPLACEHOLDER
  2
AcDbPlaceHolder
  3
ObjectDBX Classes
 90
        0
280
     0
281
     0
  0
CLASS
  1
LAYOUT
  2
AcDbLayout
  3
ObjectDBX Classes
 90
        0
280
     0
281
     0
  0
ENDSEC
  0
SECTION
  2
TABLES
  0
TABLE
  2
VPORT
  5
8
330
0
100
AcDbSymbolTable
 70
     1
  0
VPORT
  5
29
330
8
100
AcDbSymbolTableRecord
100
AcDbViewportTableRecord
  2
*Active
 70
     0
 10
0.0
 20
0.0
 11
1.0
 21
1.0
 12
210.0
 22
148.5
 13
0.0
 23
0.0
 14
10.0
 24
10.0
 15
10.0
 25
10.0
 16
0.0
 26
0.0
 36
1.0
 17
0.0
 27
0.0
 37
0.0
 40
297.0
 41
1.4141414141
 42
50.0
 43
0.0
 44
0.0
 50
0.0
 51
0.0
 71
     0
 72
  2000
 73
     1
 74
     3
 75
     0
 76
     0
 77
     0
 78
     0
281
     0
 65
     1
110
0.0
120
0.0
130
0.0
111
1.0
121
0.0
131
0.0
112
0.0
122
1.0
132
0.0
 79
     0
146
0.0
  0
ENDTAB
  0
TABLE
  2
LTYPE
  5
5
330
0
100
AcDbSymbolTable
 70
     6
  0
LTYPE
  5
14
330
5
100
AcDbSymbolTableRecord
100
AcDbLinetypeTableRecord
  2
ByBlock
 70
     0
  3

 72
    65
 73
     0
 40
0.0
  0
LTYPE
  5
15
330
5
100
AcDbSymbolTableRecord
100
AcDbLinetypeTableRecord
  2
ByLayer
 70
     0
  3

 72
    65
 73
     0
 40
0.0
  0
LTYPE
  5
16
330
5
100
AcDbSymbolTableRecord
100
AcDbLinetypeTableRecord
  2
Continuous
 70
     0
  3
Solid line
 72
    65
 73
     0
 40
0.0
  0
LTYPE
  5
6A
330
5
100
AcDbSymbolTableRecord
100
AcDbLinetypeTableRecord
  2
HIDDEN
 70
     0
  3
Hidden __ __ __ __ __ __ __ __ __ __ __ __ __ __
 72
    65
 73
     2
 40
1.905
 49
1.27
 74
     0
 49
-0.635
 74
     0
  0
LTYPE
  5
6B
330
5
100
AcDbSymbolTableRecord
100
AcDbLinetypeTableRecord
  2
PHANTOM
 70
     0
  3
Phantom ______  __  __  ______  __  __  ______
 72
    65
 73
     6
 40
12.7
 49
6.35
 74
     0
 49
-1.27
 74
     0
 49
1.27
 74
     0
 49
-1.27
 74
     0
 49
1.27
 74
     0
 49
-1.27
 74
     0
  0
LTYPE
  5
6C
330
5
100
AcDbSymbolTableRecord
100
AcDbLinetypeTableRecord
  2
CENTER
 70
     0
  3
Center ____ _ ____ _ ____ _ ____ _ ____ _ ____
 72
    65
 73
     4
 40
10.16
 49
6.35
 74
     0
 49
-1.27
 74
     0
 49
1.27
 74
     0
 49
-1.27
 74
     0
  0
LTYPE
  5
6D
330
5
100
AcDbSymbolTableRecord
100
AcDbLinetypeTableRecord
  2
CENTERX2
 70
     0
  3
Center (2x) ________  __  ________  __  _____
 72
    65
 73
     4
 40
20.32
 49
12.7
 74
     0
 49
-2.54
 74
     0
 49
2.54
 74
     0
 49
-2.54
 74
     0
  0
LTYPE
  5
6E
330
5
100
AcDbSymbolTableRecord
100
AcDbLinetypeTableRecord
  2
DOT2
 70
     0
  3
Dot (.5x) ........................................
 72
    65
 73
     2
 40
0.635
 49
0.0
 74
     0
 49
-0.635
 74
     0
  0
ENDTAB
  0
TABLE
  2
LAYER
  5
2
330
0
100
AcDbSymbolTable
 70
     1
  0
LAYER
  5
10
330
2
100
AcDbSymbolTableRecord
100
AcDbLayerTableRecord
  2
0
 70
     0
 62
     7
  6
Continuous
370
    -3
390
F
  0
ENDTAB
  0
TABLE
  2
STYLE
  5
3
330
0
100
AcDbSymbolTable
 70
     1
  0
STYLE
  5
11
330
3
100
AcDbSymbolTableRecord
100
AcDbTextStyleTableRecord
  2
Standard
 70
     0
 40
0.0
 41
1.0
 50
0.0
 71
     0
 42
3.5
  3
txt
  4

  0
ENDTAB
  0
TABLE
  2
VIEW
  5
6
330
0
100
AcDbSymbolTable
 70
     0
  0
ENDTAB
  0
TABLE
  2
UCS
  5
7
330
0
100
AcDbSymbolTable
 70
     0
  0
ENDTAB
  0
TABLE
  2
APPID
  5
9
330
0
100
AcDbSymbolTable
 70
     1
  0
APPID
  5
12
330
9
100
AcDbSymbolTableRecord
100
AcDbRegAppTableRecord
  2
ACAD
 70
     0
  0
ENDTAB
  0
TABLE
  2
DIMSTYLE
  5
A
330
0
100
AcDbSymbolTable
 70
     1
100
AcDbDimStyleTable
  0
DIMSTYLE
105
27
330
A
100
AcDbSymbolTableRecord
100
AcDbDimStyleTableRecord
  2
ISO-25
 70
     0
 41
2.5
 42
0.625
 43
3.75
 44
1.25
 73
     0
 74
     0
 77
     1
 78
     8
140
2.5
141
2.5
143
0.0393700787
147
0.625
171
     3
172
     1
178
     0
271
     2
272
     2
274
     3
278
    44
283
     0
284
     8
340
11
  0
ENDTAB
  0
TABLE
  2
BLOCK_RECORD
  5
1
330
0
100
AcDbSymbolTable
 70
     1
  0
BLOCK_RECORD
  5
1F
330
1
100
AcDbSymbolTableRecord
100
AcDbBlockTableRecord
  2
*Model_Space
340
22
  0
BLOCK_RECORD
  5
1B
330
1
100
AcDbSymbolTableRecord
100
AcDbBlockTableRecord
  2
*Paper_Space
340
1E
  0
BLOCK_RECORD
  5
23
330
1
100
AcDbSymbolTableRecord
100
AcDbBlockTableRecord
  2
*Paper_Space0
340
26
  0
ENDTAB
  0
ENDSEC
  0
SECTION
  2
BLOCKS
  0
BLOCK
  5
20
330
1F
100
AcDbEntity
  8
0
100
AcDbBlockBegin
  2
*Model_Space
 70
     0
 10
0.0
 20
0.0
 30
0.0
  3
*Model_Space
  1
*Model_Space
  0
ENDBLK
  5
21
330
1F
100
AcDbEntity
  8
0
100
AcDbBlockEnd
  0
BLOCK
  5
1C
330
1B
100
AcDbEntity
 67
     1
  8
0
100
AcDbBlockBegin
  2
*Paper_Space
 70
     0
 10
0.0
 20
0.0
 30
0.0
  3
*Paper_Space
  1
*Paper_Space
  0
ENDBLK
  5
1D
330
1B
100
AcDbEntity
 67
     1
  8
0
100
AcDbBlockEnd
  0
BLOCK
  5
24
330
23
100
AcDbEntity
  8
0
100
AcDbBlockBegin
  2
*Paper_Space0
 70
     0
 10
0.0
 20
0.0
 30
0.0
  3
*Paper_Space0
  1
*Paper_Space0
  0
ENDBLK
  5
25
330
23
100
AcDbEntity
  8
0
100
AcDbBlockEnd
  0
ENDSEC
  0
SECTION
  2
ENTITIES
  0
SPLINE
  5
6F
330
1F
100
AcDbEntity
  8
0
  6
Continuous
 62
     7
370
    15
100
AcDbSpline
210
0.0
220
0.0
230
1.0
 70
     8
 71
     3
 72
    20
 73
    16
 74
     0
 42
0.000000001
 43
0.00000001
 40
0.0
 40
0.0
 40
0.0
 40
0.0
 40
0.1250000000000018
 40
0.1250000000000018
 40
0.2500000000000036
 40
0.2500000000000036
 40
0.3750000000000053
 40
0.3750000000000053
 40
0.5000000000000071
 40
0.5000000000000071
 40
0.7500000000000036
 40
0.7500000000000036
 40
0.8750000000000018
 40
0.8750000000000018
 40
1.0
 40
1.0
 40
1.0
 40
1.0
 10
216.5618472634777
 20
119.0612915615544
 30
0.0
 10
216.5617745635158
 20
119.0263931684383
 30
0.0
 10
216.558288496523
 20
118.9920300981483
 30
0.0
 10
216.54470818235
 20
118.9243452677534
 30
0.0
 10
216.5344431533597
 20
118.890707038351
 30
0.0
 10
216.5078919696631
 20
118.8269092557166
 30
0.0
 10
216.4916420539454
 20
118.7965579538498
 30
0.0
 10
216.4531498129981
 20
118.7389754145481
 30
0.0
 10
216.4308641823624
 20
118.7118520372876
 30
0.0
 10
216.357800623039
 20
118.6387620477809
 30
0.0
 10
216.2988380014762
 20
118.5992755605535
 30
0.0
 10
216.2034972624557
 20
118.5595467366955
 30
0.0
 10
216.1700639385811
 20
118.5492898382651
 30
0.0
 10
216.10194925045
 20
118.5355795037797
 30
0.0
 10
216.0674726971229
 20
118.5320932407687
 30
0.0
 10
216.0325744138846
 20
118.5320201573841
 30
0.0
  0
LINE
  5
70
330
1F
100
AcDbEntity
  8
0
  6
Continuous
 62
     7
370
    15
100
AcDbLine
 10
216.0325789946
 20
118.5320133523
 30
0.0
 11
216.0325796172
 21
118.9529477333
 31
0.0
  0
SPLINE
  5
71
330
1F
100
AcDbEntity
  8
0
  6
Continuous
 62
     7
370
    15
100
AcDbSpline
210
0.0
220
0.0
230
1.0
 70
     8
 71
     3
 72
    13
 73
     9
 74
     0
 42
0.000000001
 43
0.00000001
 40
0.110496518794988
 40
0.110496518794988
 40
0.110496518794988
 40
0.110496518794988
 40
0.1666666666667
 40
0.3333333333333
 40
0.5
 40
0.6666666666667
 40
0.8333333333333
 40
0.8986638252902908
 40
0.8986638252902908
 40
0.8986638252902908
 40
0.8986638252902908
 10
216.1409414547786
 20
119.0612869634972
 30
0.0
 10
216.1409342532018
 20
119.0572396559625
 30
0.0
 10
216.1400015990189
 20
119.0411906437653
 30
0.0
 10
216.1322446359894
 20
119.0138569710954
 30
0.0
 10
216.1113342973999
 20
118.9839545892035
 30
0.0
 10
216.0818179119629
 20
118.9625020553523
 30
0.0
 10
216.0539949422191
 20
118.9540548410485
 30
0.0
 10
216.0372874734457
 20
118.9529295874491
 30
0.0
 10
216.0325796514082
 20
118.9529221250706
 30
0.0
  0
LINE
  5
72
330
1F
100
AcDbEntity
  8
0
  6
Continuous
 62
     7
370
    15
100
AcDbLine
 10
216.5618532626
 20
119.0612875441
 30
0.0
 11
216.1409188813
 21
119.0612869973
 31
0.0
  0
SPLINE
  5
73
330
1F
100
AcDbEntity
  8
0
  6
Continuous
 62
     7
370
    15
100
AcDbSpline
210
0.0
220
0.0
230
1.0
 70
     8
 71
     3
 72
    20
 73
    16
 74
     0
 42
0.000000001
 43
0.00000001
 40
0.0
 40
0.0
 40
0.0
 40
0.0
 40
0.1250000000000018
 40
0.1250000000000018
 40
0.2500000000000036
 40
0.2500000000000036
 40
0.3750000000000053
 40
0.3750000000000053
 40
0.5000000000000071
 40
0.5000000000000071
 40
0.7500000000000036
 40
0.7500000000000036
 40
0.8750000000000018
 40
0.8750000000000018
 40
1.0
 40
1.0
 40
1.0
 40
1.0
 10
149.9021409455358
 20
164.6624534583659
 30
0.0
 10
149.9022136454978
 20
164.697351851482
 30
0.0
 10
149.9056997124905
 20
164.731714921772
 30
0.0
 10
149.9192800266636
 20
164.7993997521669
 30
0.0
 10
149.9295450556539
 20
164.8330379815693
 30
0.0
 10
149.9560962393504
 20
164.8968357642038
 30
0.0
 10
149.9723461550681
 20
164.9271870660705
 30
0.0
 10
150.0108383960155
 20
164.9847696053722
 30
0.0
 10
150.0331240266511
 20
165.0118929826327
 30
0.0
 10
150.1061875859746
 20
165.0849829721394
 30
0.0
 10
150.1651502075374
 20
165.1244694593669
 30
0.0
 10
150.2604909465579
 20
165.1641982832248
 30
0.0
 10
150.2939242704325
 20
165.1744551816552
 30
0.0
 10
150.3620389585636
 20
165.1881655161406
 30
0.0
 10
150.3965155118906
 20
165.1916517791516
 30
0.0
 10
150.4314137951289
 20
165.1917248625363
 30
0.0
  0
LINE
  5
74
330
1F
100
AcDbEntity
  8
0
  6
Continuous
 62
     7
370
    15
100
AcDbLine
 10
150.4314092144
 20
165.1917316676
 30
0.0
 11
150.4314085918
 21
164.7707972866
 31
0.0
  0
SPLINE
  5
75
330
1F
100
AcDbEntity
  8
0
  6
Continuous
 62
     7
370
    15
100
AcDbSpline
210
0.0
220
0.0
230
1.0
 70
     8
 71
     3
 72
    13
 73
     9
 74
     0
 42
0.000000001
 43
0.00000001
 40
0.110496518794988
 40
0.110496518794988
 40
0.110496518794988
 40
0.110496518794988
 40
0.1666666666667
 40
0.3333333333333
 40
0.5
 40
0.6666666666667
 40
0.8333333333333
 40
0.8986638252902908
 40
0.8986638252902908
 40
0.8986638252902908
 40
0.8986638252902908
 10
150.323046754235
 20
164.6624580564231
 30
0.0
 10
150.3230539558117
 20
164.6665053639578
 30
0.0
 10
150.3239866099946
 20
164.682554376155
 30
0.0
 10
150.3317435730241
 20
164.709888048825
 30
0.0
 10
150.3526539116136
 20
164.7397904307169
 30
0.0
 10
150.3821702970506
 20
164.761242964568
 30
0.0
 10
150.4099932667944
 20
164.7696901788718
 30
0.0
 10
150.4267007355679
 20
164.7708154324712
 30
0.0
 10
150.4314085576054
 20
164.7708228948497
 30
0.0
  0
LINE
  5
76
330
1F
100
AcDbEntity
  8
0
  6
Continuous
 62
     7
370
    15
100
AcDbLine
 10
149.9021349464
 20
164.6624574758
 30
0.0
 11
150.3230693277
 21
164.6624580226
 31
0.0
  0
SPLINE
  5
77
330
1F
100
AcDbEntity
  8
0
  6
Continuous
 62
     7
370
    15
100
AcDbSpline
210
0.0
220
0.0
230
1.0
 70
     8
 71
     3
 72
    20
 73
    16
 74
     0
 42
0.000000001
 43
0.00000001
 40
0.0
 40
0.0
 40
0.0
 40
0.0
 40
0.1249999999999982
 40
0.1249999999999982
 40
0.2499999999999964
 40
0.2499999999999964
 40
0.3749999999999947
 40
0.3749999999999947
 40
0.4999999999999929
 40
0.4999999999999929
 40
0.7499999999999964
 40
0.7499999999999964
 40
0.8749999999999982
 40
0.8749999999999982
 40
1.0
 40
1.0
 40
1.0
 40
1.0
 10
149.9021409455358
 20
119.0612915615544
 30
0.0
 10
149.9022136454978
 20
119.0263931684384
 30
0.0
 10
149.9056997124905
 20
118.9920300981483
 30
0.0
 10
149.9192800266636
 20
118.9243452677534
 30
0.0
 10
149.9295450556539
 20
118.890707038351
 30
0.0
 10
149.9560962393504
 20
118.8269092557166
 30
0.0
 10
149.9723461550681
 20
118.7965579538497
 30
0.0
 10
150.0108383960155
 20
118.7389754145481
 30
0.0
 10
150.0331240266511
 20
118.7118520372876
 30
0.0
 10
150.1061875859746
 20
118.6387620477809
 30
0.0
 10
150.1651502075374
 20
118.5992755605535
 30
0.0
 10
150.2604909465579
 20
118.5595467366955
 30
0.0
 10
150.2939242704325
 20
118.5492898382651
 30
0.0
 10
150.3620389585636
 20
118.5355795037797
 30
0.0
 10
150.3965155118907
 20
118.5320932407687
 30
0.0
 10
150.4314137951289
 20
118.532020157384
 30
0.0
  0
LINE
  5
78
330
1F
100
AcDbEntity
  8
0
  6
Continuous
 62
     7
370
    15
100
AcDbLine
 10
149.9021349464
 20
119.0612875441
 30
0.0
 11
150.3230693277
 21
119.0612869973
 31
0.0
  0
SPLINE
  5
79
330
1F
100
AcDbEntity
  8
0
  6
Continuous
 62
     7
370
    15
100
AcDbSpline
210
0.0
220
0.0
230
1.0
 70
     8
 71
     3
 72
    13
 73
     9
 74
     0
 42
0.000000001
 43
0.00000001
 40
0.1104965187950665
 40
0.1104965187950665
 40
0.1104965187950665
 40
0.1104965187950665
 40
0.1666666666667
 40
0.3333333333333
 40
0.5
 40
0.6666666666667
 40
0.8333333333333
 40
0.8986638252902526
 40
0.8986638252902526
 40
0.8986638252902526
 40
0.8986638252902526
 10
150.323046754235
 20
119.0612869634972
 30
0.0
 10
150.3230539558117
 20
119.0572396559625
 30
0.0
 10
150.3239866099946
 20
119.0411906437653
 30
0.0
 10
150.3317435730241
 20
119.0138569710954
 30
0.0
 10
150.3526539116136
 20
118.9839545892035
 30
0.0
 10
150.3821702970506
 20
118.9625020553523
 30
0.0
 10
150.4099932667944
 20
118.9540548410485
 30
0.0
 10
150.4267007355679
 20
118.9529295874491
 30
0.0
 10
150.4314085576054
 20
118.9529221250706
 30
0.0
  0
LINE
  5
7A
330
1F
100
AcDbEntity
  8
0
  6
Continuous
 62
     7
370
    15
100
AcDbLine
 10
150.4314092144
 20
118.5320133523
 30
0.0
 11
150.4314085918
 21
118.9529477333
 31
0.0
  0
SPLINE
  5
7B
330
1F
100
AcDbEntity
  8
0
  6
Continuous
 62
     7
370
    15
100
AcDbSpline
210
0.0
220
0.0
230
1.0
 70
     8
 71
     3
 72
    20
 73
    16
 74
     0
 42
0.000000001
 43
0.00000001
 40
0.0
 40
0.0
 40
0.0
 40
0.0
 40
0.1249999999999982
 40
0.1249999999999982
 40
0.2499999999999964
 40
0.2499999999999964
 40
0.3749999999999947
 40
0.3749999999999947
 40
0.4999999999999929
 40
0.4999999999999929
 40
0.7499999999999964
 40
0.7499999999999964
 40
0.8749999999999982
 40
0.8749999999999982
 40
1.0
 40
1.0
 40
1.0
 40
1.0
 10
216.5618472634777
 20
164.6624534583659
 30
0.0
 10
216.5617745635157
 20
164.697351851482
 30
0.0
 10
216.558288496523
 20
164.731714921772
 30
0.0
 10
216.54470818235
 20
164.7993997521669
 30
0.0
 10
216.5344431533597
 20
164.8330379815693
 30
0.0
 10
216.5078919696631
 20
164.8968357642038
 30
0.0
 10
216.4916420539455
 20
164.9271870660706
 30
0.0
 10
216.4531498129981
 20
164.9847696053722
 30
0.0
 10
216.4308641823624
 20
165.0118929826328
 30
0.0
 10
216.357800623039
 20
165.0849829721394
 30
0.0
 10
216.2988380014761
 20
165.1244694593668
 30
0.0
 10
216.2034972624557
 20
165.1641982832247
 30
0.0
 10
216.170063938581
 20
165.1744551816552
 30
0.0
 10
216.10194925045
 20
165.1881655161406
 30
0.0
 10
216.0674726971229
 20
165.1916517791516
 30
0.0
 10
216.0325744138846
 20
165.1917248625363
 30
0.0
  0
LINE
  5
7C
330
1F
100
AcDbEntity
  8
0
  6
Continuous
 62
     7
370
    15
100
AcDbLine
 10
216.5618532626
 20
164.6624574758
 30
0.0
 11
216.1409188813
 21
164.6624580226
 31
0.0
  0
SPLINE
  5
7D
330
1F
100
AcDbEntity
  8
0
  6
Continuous
 62
     7
370
    15
100
AcDbSpline
210
0.0
220
0.0
230
1.0
 70
     8
 71
     3
 72
    13
 73
     9
 74
     0
 42
0.000000001
 43
0.00000001
 40
0.1104965187950548
 40
0.1104965187950548
 40
0.1104965187950548
 40
0.1104965187950548
 40
0.1666666666667
 40
0.3333333333333
 40
0.5
 40
0.6666666666667
 40
0.8333333333333
 40
0.8986638252902283
 40
0.8986638252902283
 40
0.8986638252902283
 40
0.8986638252902283
 10
216.1409414547786
 20
164.6624580564231
 30
0.0
 10
216.1409342532018
 20
164.6665053639579
 30
0.0
 10
216.1400015990189
 20
164.682554376155
 30
0.0
 10
216.1322446359894
 20
164.709888048825
 30
0.0
 10
216.1113342973999
 20
164.7397904307169
 30
0.0
 10
216.0818179119629
 20
164.761242964568
 30
0.0
 10
216.0539949422191
 20
164.7696901788718
 30
0.0
 10
216.0372874734457
 20
164.7708154324712
 30
0.0
 10
216.0325796514082
 20
164.7708228948497
 30
0.0
  0
LINE
  5
7E
330
1F
100
AcDbEntity
  8
0
  6
Continuous
 62
     7
370
    15
100
AcDbLine
 10
216.0325789946
 20
165.1917316676
 30
0.0
 11
216.0325796172
 21
164.7707972866
 31
0.0
  0
LINE
  5
7F
330
1F
100
AcDbEntity
  8
0
  6
Continuous
 62
     7
370
    15
100
AcDbLine
 10
216.0325796172
 20
164.7707972872
 30
0.0
 11
150.4314085918
 21
164.7707972872
 31
0.0
  0
LINE
  5
80
330
1F
100
AcDbEntity
  8
0
  6
Continuous
 62
     7
370
    15
100
AcDbLine
 10
150.4314092144
 20
165.1917316696
 30
0.0
 11
216.0325789946
 21
165.1917316696
 31
0.0
  0
LINE
  5
81
330
1F
100
AcDbEntity
  8
0
  6
Continuous
 62
     7
370
    15
100
AcDbLine
 10
216.0325789946
 20
118.5320133503
 30
0.0
 11
150.4314092144
 21
118.5320133503
 31
0.0
  0
LINE
  5
82
330
1F
100
AcDbEntity
  8
0
  6
Continuous
 62
     7
370
    15
100
AcDbLine
 10
150.4314085918
 20
118.9529477328
 30
0.0
 11
216.0325796172
 21
118.9529477328
 31
0.0
  0
LINE
  5
83
330
1F
100
AcDbEntity
  8
0
  6
Continuous
 62
     7
370
    15
100
AcDbLine
 10
216.1409188817
 20
119.0612869973
 30
0.0
 11
216.1409188817
 21
164.6624580226
 31
0.0
  0
LINE
  5
84
330
1F
100
AcDbEntity
  8
0
  6
Continuous
 62
     7
370
    15
100
AcDbLine
 10
150.3230693273
 20
164.6624580226
 30
0.0
 11
150.3230693273
 21
119.0612869973
 31
0.0
  0
LINE
  5
85
330
1F
100
AcDbEntity
  8
0
  6
Continuous
 62
     7
370
    15
100
AcDbLine
 10
149.9021349448
 20
119.0612875441
 30
0.0
 11
149.9021349448
 21
164.6624574758
 31
0.0
  0
LINE
  5
86
330
1F
100
AcDbEntity
  8
0
  6
Continuous
 62
     7
370
    15
100
AcDbLine
 10
216.5618532642
 20
164.6624574758
 30
0.0
 11
216.5618532642
 21
119.0612875441
 31
0.0
  0
LINE
  5
87
330
1F
100
AcDbEntity
  8
0
  6
Continuous
 62
     7
370
    15
100
AcDbLine
 10
216.2244208122
 20
165.3835728711
 30
0.0
 11
216.0325789946
 21
165.1917308624
 31
0.0
  0
ELLIPSE
  5
88
330
1F
100
AcDbEntity
  8
0
  6
Continuous
 62
     7
370
    15
100
AcDbEllipse
 10
216.2205224825
 20
164.850400888
 30
0.0
 11
0.2594072858631762
 21
0.4670488717284229
 31
0.0
210
0.0
220
0.0
230
1.0
 40
0.9913851819
 41
0.3397490016238236
 42
0.5033290989037676
  0
SPLINE
  5
89
330
1F
100
AcDbEntity
  8
0
  6
Continuous
 62
     7
370
    15
100
AcDbSpline
210
0.0
220
0.0
230
1.0
 70
     8
 71
     3
 72
    12
 73
     8
 74
     0
 42
0.000000001
 43
0.00000001
 40
0.0
 40
0.0
 40
0.0
 40
0.0
 40
0.2499999999999933
 40
0.2499999999999933
 40
0.4999999999999866
 40
0.4999999999999866
 40
1.0
 40
1.0
 40
1.0
 40
1.0
 10
216.7465769305892
 20
164.9406766223006
 30
0.0
 10
216.7375233629974
 20
164.9952105654616
 30
0.0
 10
216.7203593938914
 20
165.0469349760176
 30
0.0
 10
216.6700391991414
 20
165.1448538789059
 30
0.0
 10
216.6376363148051
 20
165.1892741530681
 30
0.0
 10
216.5213667015968
 20
165.305748375813
 30
0.0
 10
216.4198655313373
 20
165.3583482957928
 30
0.0
 10
216.3107982168472
 20
165.3764553360426
 30
0.0
  0
ELLIPSE
  5
8A
330
1F
100
AcDbEntity
  8
0
  6
Continuous
 62
     7
370
    15
100
AcDbEllipse
 10
216.2205224825
 20
164.850400888
 30
0.0
 11
0.4670488717284512
 21
0.2594072858631761
 31
0.0
210
0.0
220
0.0
230
1.0
 40
0.9913851819
 41
5.779856208274708
 42
5.943436305555841
  0
LINE
  5
8B
330
1F
100
AcDbEntity
  8
0
  6
Continuous
 62
     7
370
    15
100
AcDbLine
 10
216.5618525526
 20
164.6624574758
 30
0.0
 11
216.7536944656
 21
164.8542992176
 31
0.0
  0
LINE
  5
8C
330
1F
100
AcDbEntity
  8
0
  6
Continuous
 62
     7
370
    15
100
AcDbLine
 10
150.2395673968
 20
118.3401721489
 30
0.0
 11
150.4314092144
 21
118.5320141575
 31
0.0
  0
ELLIPSE
  5
8D
330
1F
100
AcDbEntity
  8
0
  6
Continuous
 62
     7
370
    15
100
AcDbEllipse
 10
150.2434657265
 20
118.8733441319
 30
0.0
 11
0.2594072858632046
 21
0.4670488717284513
 31
0.0
210
0.0
220
0.0
230
1.0
 40
0.9913851819
 41
3.481341655213659
 42
3.644921752493606
  0
SPLINE
  5
8E
330
1F
100
AcDbEntity
  8
0
  6
Continuous
 62
     7
370
    15
100
AcDbSpline
210
0.0
220
0.0
230
1.0
 70
     8
 71
     3
 72
    12
 73
     8
 74
     0
 42
0.000000001
 43
0.00000001
 40
0.0
 40
0.0
 40
0.0
 40
0.0
 40
0.2499999999999933
 40
0.2499999999999933
 40
0.4999999999999866
 40
0.4999999999999866
 40
1.0
 40
1.0
 40
1.0
 40
1.0
 10
149.7174112784243
 20
118.7830683976197
 30
0.0
 10
149.7264648460162
 20
118.7285344544587
 30
0.0
 10
149.7436288151221
 20
118.6768100439027
 30
0.0
 10
149.7939490098721
 20
118.5788911410144
 30
0.0
 10
149.8263518942084
 20
118.5344708668522
 30
0.0
 10
149.9426215074167
 20
118.4179966441073
 30
0.0
 10
150.0441226776763
 20
118.3653967241275
 30
0.0
 10
150.1531899921664
 20
118.3472896838777
 30
0.0
  0
ELLIPSE
  5
8F
330
1F
100
AcDbEntity
  8
0
  6
Continuous
 62
     7
370
    15
100
AcDbEllipse
 10
150.2434657265
 20
118.8733441319
 30
0.0
 11
0.4670488717284513
 21
0.2594072858632046
 31
0.0
210
0.0
220
0.0
230
1.0
 40
0.9913851819
 41
2.638263554684871
 42
2.801843651965952
  0
LINE
  5
90
330
1F
100
AcDbEntity
  8
0
  6
Continuous
 62
     7
370
    15
100
AcDbLine
 10
149.9021356564
 20
119.0612875441
 30
0.0
 11
149.7102937434
 21
118.8694458023
 31
0.0
  0
LINE
  5
91
330
1F
100
AcDbEntity
  8
0
  6
Continuous
 62
     7
370
    15
100
AcDbLine
 10
149.9021356564
 20
164.6624574758
 30
0.0
 11
149.7102937434
 21
164.8542992176
 31
0.0
  0
SPLINE
  5
92
330
1F
100
AcDbEntity
  8
0
  6
Continuous
 62
     7
370
    15
100
AcDbSpline
210
0.0
220
0.0
230
1.0
 70
     8
 71
     3
 72
    10
 73
     6
 74
     0
 42
0.000000001
 43
0.00000001
 40
0.0
 40
0.0
 40
0.0
 40
0.0
 40
0.3315368450509193
 40
0.664863316821003
 40
1.0
 40
1.0
 40
1.0
 40
1.0
 10
149.7174112784244
 20
164.9406766223005
 30
0.0
 10
149.7159961226077
 20
164.9311928483618
 30
0.0
 10
149.7131581720026
 20
164.912174107335
 30
0.0
 10
149.7107727605667
 20
164.8833241092121
 30
0.0
 10
149.7104537038015
 20
164.8639916324029
 30
0.0
 10
149.710293743413
 20
164.854299217634
 30
0.0
  0
SPLINE
  5
93
330
1F
100
AcDbEntity
  8
0
  6
Continuous
 62
     7
370
    15
100
AcDbSpline
210
0.0
220
0.0
230
1.0
 70
     8
 71
     3
 72
    12
 73
     8
 74
     0
 42
0.000000001
 43
0.00000001
 40
0.0
 40
0.0
 40
0.0
 40
0.0
 40
0.2499999999999956
 40
0.2499999999999956
 40
0.4999999999999911
 40
0.4999999999999911
 40
1.0
 40
1.0
 40
1.0
 40
1.0
 10
149.7174112784254
 20
164.9406766223004
 30
0.0
 10
149.7264648460173
 20
164.9952105654615
 30
0.0
 10
149.7436288151219
 20
165.046934976017
 30
0.0
 10
149.7939490098719
 20
165.1448538789056
 30
0.0
 10
149.8263518942083
 20
165.189274153068
 30
0.0
 10
149.942621507417
 20
165.3057483758133
 30
0.0
 10
150.0441226776757
 20
165.3583482957926
 30
0.0
 10
150.1531899921661
 20
165.3764553360426
 30
0.0
  0
SPLINE
  5
94
330
1F
100
AcDbEntity
  8
0
  6
Continuous
 62
     7
370
    15
100
AcDbSpline
210
0.0
220
0.0
230
1.0
 70
     8
 71
     3
 72
    10
 73
     6
 74
     0
 42
0.000000001
 43
0.00000001
 40
0.0
 40
0.0
 40
0.0
 40
0.0
 40
0.3351475348405297
 40
0.6684740073109985
 40
1.0
 40
1.0
 40
1.0
 40
1.0
 10
150.2395673968468
 20
165.383572871054
 30
0.0
 10
150.2298746681926
 20
165.383412900496
 30
0.0
 10
150.2105418774312
 20
165.3830938285981
 30
0.0
 10
150.1816918838273
 20
165.3807083630045
 30
0.0
 10
150.1626734548527
 20
165.3778704499226
 30
0.0
 10
150.1531899921664
 20
165.3764553360426
 30
0.0
  0
LINE
  5
95
330
1F
100
AcDbEntity
  8
0
  6
Continuous
 62
     7
370
    15
100
AcDbLine
 10
150.2395673968
 20
165.383572871
 30
0.0
 11
150.4314092144
 21
165.1917308624
 31
0.0
  0
LINE
  5
96
330
1F
100
AcDbEntity
  8
0
  6
Continuous
 62
     7
370
    15
100
AcDbLine
 10
216.5618525526
 20
119.0612875441
 30
0.0
 11
216.7536944656
 21
118.8694458023
 31
0.0
  0
SPLINE
  5
97
330
1F
100
AcDbEntity
  8
0
  6
Continuous
 62
     7
370
    15
100
AcDbSpline
210
0.0
220
0.0
230
1.0
 70
     8
 71
     3
 72
    10
 73
     6
 74
     0
 42
0.000000001
 43
0.00000001
 40
0.0
 40
0.0
 40
0.0
 40
0.0
 40
0.3315368450509193
 40
0.664863316821003
 40
1.0
 40
1.0
 40
1.0
 40
1.0
 10
216.7465769305892
 20
118.7830683976198
 30
0.0
 10
216.7479920864058
 20
118.7925521715585
 30
0.0
 10
216.750830037011
 20
118.8115709125853
 30
0.0
 10
216.7532154484468
 20
118.8404209107082
 30
0.0
 10
216.753534505212
 20
118.8597533875174
 30
0.0
 10
216.7536944656006
 20
118.8694458022863
 30
0.0
  0
SPLINE
  5
98
330
1F
100
AcDbEntity
  8
0
  6
Continuous
 62
     7
370
    15
100
AcDbSpline
210
0.0
220
0.0
230
1.0
 70
     8
 71
     3
 72
    12
 73
     8
 74
     0
 42
0.000000001
 43
0.00000001
 40
0.0
 40
0.0
 40
0.0
 40
0.0
 40
0.25
 40
0.25
 40
0.5
 40
0.5
 40
1.0
 40
1.0
 40
1.0
 40
1.0
 10
216.7465769305882
 20
118.7830683976199
 30
0.0
 10
216.7375233629963
 20
118.7285344544589
 30
0.0
 10
216.7203593938917
 20
118.6768100439034
 30
0.0
 10
216.6700391991418
 20
118.5788911410149
 30
0.0
 10
216.6376363148055
 20
118.5344708668526
 30
0.0
 10
216.5213667015971
 20
118.4179966441074
 30
0.0
 10
216.4198655313376
 20
118.3653967241277
 30
0.0
 10
216.3107982168474
 20
118.3472896838777
 30
0.0
  0
SPLINE
  5
99
330
1F
100
AcDbEntity
  8
0
  6
Continuous
 62
     7
370
    15
100
AcDbSpline
210
0.0
220
0.0
230
1.0
 70
     8
 71
     3
 72
    10
 73
     6
 74
     0
 42
0.000000001
 43
0.00000001
 40
0.0
 40
0.0
 40
0.0
 40
0.0
 40
0.3351475348405297
 40
0.6684740073109985
 40
1.0
 40
1.0
 40
1.0
 40
1.0
 10
216.2244208121668
 20
118.3401721488663
 30
0.0
 10
216.234113540821
 20
118.3403321194244
 30
0.0
 10
216.2534463315823
 20
118.3406511913222
 30
0.0
 10
216.2822963251862
 20
118.3430366569158
 30
0.0
 10
216.3013147541609
 20
118.3458745699977
 30
0.0
 10
216.3107982168472
 20
118.3472896838777
 30
0.0
  0
LINE
  5
9A
330
1F
100
AcDbEntity
  8
0
  6
Continuous
 62
     7
370
    15
100
AcDbLine
 10
216.2244208122
 20
118.3401721489
 30
0.0
 11
216.0325789946
 21
118.5320141575
 31
0.0
  0
LINE
  5
9B
330
1F
100
AcDbEntity
  8
0
  6
Continuous
 62
     7
370
    15
100
AcDbLine
 10
205.3319941045
 20
118.3401721489
 30
0.0
 11
161.1319941045
 21
118.3401721489
 31
0.0
  0
LINE
  5
9C
330
1F
100
AcDbEntity
  8
0
  6
Continuous
 62
     7
370
    15
100
AcDbLine
 10
161.1319941045
 20
118.3433166156
 30
0.0
 11
155.7319941045
 21
118.3433166156
 31
0.0
  0
LINE
  5
9D
330
1F
100
AcDbEntity
  8
0
  6
Continuous
 62
     7
370
    15
100
AcDbLine
 10
150.2395673968
 20
118.3401721489
 30
0.0
 11
155.7319941045
 21
118.3401721489
 31
0.0
  0
LINE
  5
9E
330
1F
100
AcDbEntity
  8
0
  6
Continuous
 62
     7
370
    15
100
AcDbLine
 10
216.2244208122
 20
118.3401721489
 30
0.0
 11
210.7319941045
 21
118.3401721489
 31
0.0
  0
LINE
  5
9F
330
1F
100
AcDbEntity
  8
0
  6
Continuous
 62
     7
370
    15
100
AcDbLine
 10
205.3319941045
 20
118.3433166156
 30
0.0
 11
210.7319941045
 21
118.3433166156
 31
0.0
  0
LINE
  5
A0
330
1F
100
AcDbEntity
  8
0
  6
Continuous
 62
     7
370
    15
100
AcDbLine
 10
150.2395673968
 20
165.383572871
 30
0.0
 11
155.7319941045
 21
165.383572871
 31
0.0
  0
LINE
  5
A1
330
1F
100
AcDbEntity
  8
0
  6
Continuous
 62
     7
370
    15
100
AcDbLine
 10
161.1319941045
 20
165.3804284043
 30
0.0
 11
155.7319941045
 21
165.3804284043
 31
0.0
  0
LINE
  5
A2
330
1F
100
AcDbEntity
  8
0
  6
Continuous
 62
     7
370
    15
100
AcDbLine
 10
161.1319941045
 20
165.383572871
 30
0.0
 11
205.3319941045
 21
165.383572871
 31
0.0
  0
LINE
  5
A3
330
1F
100
AcDbEntity
  8
0
  6
Continuous
 62
     7
370
    15
100
AcDbLine
 10
205.3319941045
 20
165.3804284043
 30
0.0
 11
210.7319941045
 21
165.3804284043
 31
0.0
  0
LINE
  5
A4
330
1F
100
AcDbEntity
  8
0
  6
Continuous
 62
     7
370
    15
100
AcDbLine
 10
216.2244208122
 20
165.3835728711
 30
0.0
 11
210.7319941045
 21
165.383572871
 31
0.0
  0
LINE
  5
A5
330
1F
100
AcDbEntity
  8
0
  6
Continuous
 62
     7
370
    15
100
AcDbLine
 10
216.7536944656
 20
144.56187251
 30
0.0
 11
216.7536944656
 21
164.8542992176
 31
0.0
  0
LINE
  5
A6
330
1F
100
AcDbEntity
  8
0
  6
Continuous
 62
     7
370
    15
100
AcDbLine
 10
216.7505499988
 20
144.56187251
 30
0.0
 11
216.7505499988
 21
139.16187251
 31
0.0
  0
LINE
  5
A7
330
1F
100
AcDbEntity
  8
0
  6
Continuous
 62
     7
370
    15
100
AcDbLine
 10
216.7536944656
 20
139.16187251
 30
0.0
 11
216.7536944656
 21
118.8694458023
 31
0.0
  0
LINE
  5
A8
330
1F
100
AcDbEntity
  8
0
  6
Continuous
 62
     7
370
    15
100
AcDbLine
 10
149.7134382102
 20
139.16187251
 30
0.0
 11
149.7134382102
 21
144.56187251
 31
0.0
  0
LINE
  5
A9
330
1F
100
AcDbEntity
  8
0
  6
Continuous
 62
     7
370
    15
100
AcDbLine
 10
149.7102937434
 20
144.56187251
 30
0.0
 11
149.7102937434
 21
164.8542992176
 31
0.0
  0
LINE
  5
AA
330
1F
100
AcDbEntity
  8
0
  6
Continuous
 62
     7
370
    15
100
AcDbLine
 10
149.7102937434
 20
139.16187251
 30
0.0
 11
149.7102937434
 21
118.8694458023
 31
0.0
  0
LINE
  5
AB
330
1F
100
AcDbEntity
  8
0
  6
Continuous
 62
     7
370
    15
100
AcDbLine
 10
205.3319941045
 20
117.1876511802
 30
0.0
 11
205.3319941045
 21
117.56187251
 31
0.0
  0
LINE
  5
AC
330
1F
100
AcDbEntity
  8
0
  6
Continuous
 62
     7
370
    15
100
AcDbLine
 10
205.3319941045
 20
117.56187251
 30
0.0
 11
210.7319941045
 21
117.56187251
 31
0.0
  0
LINE
  5
AD
330
1F
100
AcDbEntity
  8
0
  6
Continuous
 62
     7
370
    15
100
AcDbLine
 10
210.7319941045
 20
117.1876511802
 30
0.0
 11
210.7319941045
 21
117.56187251
 31
0.0
  0
LINE
  5
AE
330
1F
100
AcDbEntity
  8
0
  6
Continuous
 62
     7
370
    15
100
AcDbLine
 10
205.3319941045
 20
117.1876511802
 30
0.0
 11
210.7319941045
 21
117.1876511802
 31
0.0
  0
LINE
  5
AF
330
1F
100
AcDbEntity
  8
0
  6
Continuous
 62
     7
370
    15
100
AcDbLine
 10
148.4319941045
 20
166.1625577426
 30
0.0
 11
148.4319941045
 21
117.5611872773
 31
0.0
  0
LINE
  5
B0
330
1F
100
AcDbEntity
  8
0
  6
Continuous
 62
     7
370
    15
100
AcDbLine
 10
148.5282454023
 20
166.0663064447
 30
0.0
 11
148.4319941045
 21
166.1625577426
 31
0.0
  0
LINE
  5
B1
330
1F
100
AcDbEntity
  8
0
  6
Continuous
 62
     7
370
    15
100
AcDbLine
 10
148.5282454023
 20
144.56187251
 30
0.0
 11
148.5282454023
 21
166.0663064447
 31
0.0
  0
LINE
  5
B2
330
1F
100
AcDbEntity
  8
0
  6
Continuous
 62
     7
370
    15
100
AcDbLine
 10
148.5282454023
 20
144.56187251
 30
0.0
 11
148.5577727748
 21
144.56187251
 31
0.0
  0
LINE
  5
B3
330
1F
100
AcDbEntity
  8
0
  6
Continuous
 62
     7
370
    15
100
AcDbLine
 10
148.5577727748
 20
144.56187251
 30
0.0
 11
148.5577727748
 21
139.16187251
 31
0.0
  0
LINE
  5
B4
330
1F
100
AcDbEntity
  8
0
  6
Continuous
 62
     7
370
    15
100
AcDbLine
 10
148.5282454023
 20
139.16187251
 30
0.0
 11
148.5577727748
 21
139.16187251
 31
0.0
  0
LINE
  5
B5
330
1F
100
AcDbEntity
  8
0
  6
Continuous
 62
     7
370
    15
100
AcDbLine
 10
148.5282454023
 20
139.16187251
 30
0.0
 11
148.5282454023
 21
117.6574385752
 31
0.0
  0
LINE
  5
B6
330
1F
100
AcDbEntity
  8
0
  6
Continuous
 62
     7
370
    15
100
AcDbLine
 10
148.5282454023
 20
117.6574385752
 30
0.0
 11
148.4319941045
 21
117.5611872773
 31
0.0
  0
LINE
  5
B7
330
1F
100
AcDbEntity
  8
0
  6
Continuous
 62
     7
370
    15
100
AcDbLine
 10
161.1319941045
 20
117.56187251
 30
0.0
 11
161.1319941045
 21
117.96187251
 31
0.0
  0
LINE
  5
B8
330
1F
100
AcDbEntity
  8
0
  6
Continuous
 62
     7
370
    15
100
AcDbLine
 10
161.1319941045
 20
117.56187251
 30
0.0
 11
155.7319941045
 21
117.56187251
 31
0.0
  0
LINE
  5
B9
330
1F
100
AcDbEntity
  8
0
  6
Continuous
 62
     7
370
    15
100
AcDbLine
 10
155.7319941045
 20
117.96187251
 30
0.0
 11
155.7319941045
 21
117.56187251
 31
0.0
  0
LINE
  5
BA
330
1F
100
AcDbEntity
  8
0
  6
Continuous
 62
     7
370
    15
100
AcDbLine
 10
155.7319941045
 20
117.96187251
 30
0.0
 11
161.1319941045
 21
117.96187251
 31
0.0
  0
LINE
  5
BB
330
1F
100
AcDbEntity
  8
0
  6
Continuous
 62
     7
370
    15
100
AcDbLine
 10
217.9062154342
 20
139.16187251
 30
0.0
 11
217.9062154342
 21
144.56187251
 31
0.0
  0
LINE
  5
BC
330
1F
100
AcDbEntity
  8
0
  6
Continuous
 62
     7
370
    15
100
AcDbLine
 10
217.9357428067
 20
144.56187251
 30
0.0
 11
217.9062154342
 21
144.56187251
 31
0.0
  0
LINE
  5
BD
330
1F
100
AcDbEntity
  8
0
  6
Continuous
 62
     7
370
    15
100
AcDbLine
 10
217.9357428067
 20
144.56187251
 30
0.0
 11
217.9357428067
 21
166.0663064447
 31
0.0
  0
LINE
  5
BE
330
1F
100
AcDbEntity
  8
0
  6
Continuous
 62
     7
370
    15
100
AcDbLine
 10
217.9357428067
 20
166.0663064447
 30
0.0
 11
218.0319941045
 21
166.1625577426
 31
0.0
  0
LINE
  5
BF
330
1F
100
AcDbEntity
  8
0
  6
Continuous
 62
     7
370
    15
100
AcDbLine
 10
218.0319941045
 20
117.5611872773
 30
0.0
 11
218.0319941045
 21
166.1625577426
 31
0.0
  0
LINE
  5
C0
330
1F
100
AcDbEntity
  8
0
  6
Continuous
 62
     7
370
    15
100
AcDbLine
 10
217.9357428067
 20
117.6574385752
 30
0.0
 11
218.0319941045
 21
117.5611872773
 31
0.0
  0
LINE
  5
C1
330
1F
100
AcDbEntity
  8
0
  6
Continuous
 62
     7
370
    15
100
AcDbLine
 10
217.9357428067
 20
139.16187251
 30
0.0
 11
217.9357428067
 21
117.6574385752
 31
0.0
  0
LINE
  5
C2
330
1F
100
AcDbEntity
  8
0
  6
Continuous
 62
     7
370
    15
100
AcDbLine
 10
217.9357428067
 20
139.16187251
 30
0.0
 11
217.9062154342
 21
139.16187251
 31
0.0
  0
LINE
  5
C3
330
1F
100
AcDbEntity
  8
0
  6
Continuous
 62
     7
370
    15
100
AcDbLine
 10
148.9319941045
 20
144.56187251
 30
0.0
 11
148.5577727748
 21
144.56187251
 31
0.0
  0
LINE
  5
C4
330
1F
100
AcDbEntity
  8
0
  6
Continuous
 62
     7
370
    15
100
AcDbLine
 10
148.9319941045
 20
139.16187251
 30
0.0
 11
148.9319941045
 21
144.56187251
 31
0.0
  0
LINE
  5
C5
330
1F
100
AcDbEntity
  8
0
  6
Continuous
 62
     7
370
    15
100
AcDbLine
 10
148.9319941045
 20
139.16187251
 30
0.0
 11
148.5577727748
 21
139.16187251
 31
0.0
  0
LINE
  5
C6
330
1F
100
AcDbEntity
  8
0
  6
Continuous
 62
     7
370
    15
100
AcDbLine
 10
205.3319941045
 20
166.16187251
 30
0.0
 11
205.3319941045
 21
165.76187251
 31
0.0
  0
LINE
  5
C7
330
1F
100
AcDbEntity
  8
0
  6
Continuous
 62
     7
370
    15
100
AcDbLine
 10
205.3319941045
 20
166.16187251
 30
0.0
 11
210.7319941045
 21
166.16187251
 31
0.0
  0
LINE
  5
C8
330
1F
100
AcDbEntity
  8
0
  6
Continuous
 62
     7
370
    15
100
AcDbLine
 10
210.7319941045
 20
165.76187251
 30
0.0
 11
210.7319941045
 21
166.16187251
 31
0.0
  0
LINE
  5
C9
330
1F
100
AcDbEntity
  8
0
  6
Continuous
 62
     7
370
    15
100
AcDbLine
 10
210.7319941045
 20
165.76187251
 30
0.0
 11
205.3319941045
 21
165.76187251
 31
0.0
  0
LINE
  5
CA
330
1F
100
AcDbEntity
  8
0
  6
Continuous
 62
     7
370
    15
100
AcDbLine
 10
148.9313088719
 20
117.06187251
 30
0.0
 11
217.5326793371
 21
117.06187251
 31
0.0
  0
LINE
  5
CB
330
1F
100
AcDbEntity
  8
0
  6
Continuous
 62
     7
370
    15
100
AcDbLine
 10
148.9313088719
 20
117.06187251
 30
0.0
 11
149.0275601697
 21
117.1581238078
 31
0.0
  0
LINE
  5
CC
330
1F
100
AcDbEntity
  8
0
  6
Continuous
 62
     7
370
    15
100
AcDbLine
 10
149.0275601697
 20
117.1581238078
 30
0.0
 11
155.7319941045
 21
117.1581238078
 31
0.0
  0
LINE
  5
CD
330
1F
100
AcDbEntity
  8
0
  6
Continuous
 62
     7
370
    15
100
AcDbLine
 10
155.7319941045
 20
117.1876511802
 30
0.0
 11
155.7319941045
 21
117.1581238078
 31
0.0
  0
LINE
  5
CE
330
1F
100
AcDbEntity
  8
0
  6
Continuous
 62
     7
370
    15
100
AcDbLine
 10
161.1319941045
 20
117.1876511802
 30
0.0
 11
155.7319941045
 21
117.1876511802
 31
0.0
  0
LINE
  5
CF
330
1F
100
AcDbEntity
  8
0
  6
Continuous
 62
     7
370
    15
100
AcDbLine
 10
161.1319941045
 20
117.1581238078
 30
0.0
 11
161.1319941045
 21
117.1876511802
 31
0.0
  0
LINE
  5
D0
330
1F
100
AcDbEntity
  8
0
  6
Continuous
 62
     7
370
    15
100
AcDbLine
 10
205.3319941045
 20
117.1581238078
 30
0.0
 11
161.1319941045
 21
117.1581238078
 31
0.0
  0
LINE
  5
D1
330
1F
100
AcDbEntity
  8
0
  6
Continuous
 62
     7
370
    15
100
AcDbLine
 10
210.7319941045
 20
117.1876511802
 30
0.0
 11
210.7319941045
 21
117.1581238078
 31
0.0
  0
LINE
  5
D2
330
1F
100
AcDbEntity
  8
0
  6
Continuous
 62
     7
370
    15
100
AcDbLine
 10
217.4364280393
 20
117.1581238078
 30
0.0
 11
210.7319941045
 21
117.1581238078
 31
0.0
  0
LINE
  5
D3
330
1F
100
AcDbEntity
  8
0
  6
Continuous
 62
     7
370
    15
100
AcDbLine
 10
217.5326793371
 20
117.06187251
 30
0.0
 11
217.4364280393
 21
117.1581238078
 31
0.0
  0
LINE
  5
D4
330
1F
100
AcDbEntity
  8
0
  6
Continuous
 62
     7
370
    15
100
AcDbLine
 10
205.3319941045
 20
117.1581238078
 30
0.0
 11
205.3319941045
 21
117.1876511802
 31
0.0
  0
LINE
  5
D5
330
1F
100
AcDbEntity
  8
0
  6
Continuous
 62
     7
370
    15
100
AcDbLine
 10
161.1319941045
 20
117.1876511802
 30
0.0
 11
161.1319941045
 21
117.56187251
 31
0.0
  0
LINE
  5
D6
330
1F
100
AcDbEntity
  8
0
  6
Continuous
 62
     7
370
    15
100
AcDbLine
 10
155.7319941045
 20
117.1876511802
 30
0.0
 11
155.7319941045
 21
117.56187251
 31
0.0
  0
LINE
  5
D7
330
1F
100
AcDbEntity
  8
0
  6
Continuous
 62
     7
370
    15
100
AcDbLine
 10
217.1319941045
 20
139.16187251
 30
0.0
 11
217.1319941045
 21
144.56187251
 31
0.0
  0
LINE
  5
D8
330
1F
100
AcDbEntity
  8
0
  6
Continuous
 62
     7
370
    15
100
AcDbLine
 10
217.5319941045
 20
144.56187251
 30
0.0
 11
217.1319941045
 21
144.56187251
 31
0.0
  0
LINE
  5
D9
330
1F
100
AcDbEntity
  8
0
  6
Continuous
 62
     7
370
    15
100
AcDbLine
 10
217.5319941045
 20
144.56187251
 30
0.0
 11
217.5319941045
 21
139.16187251
 31
0.0
  0
LINE
  5
DA
330
1F
100
AcDbEntity
  8
0
  6
Continuous
 62
     7
370
    15
100
AcDbLine
 10
217.5319941045
 20
139.16187251
 30
0.0
 11
217.1319941045
 21
139.16187251
 31
0.0
  0
LINE
  5
DB
330
1F
100
AcDbEntity
  8
0
  6
Continuous
 62
     7
370
    15
100
AcDbLine
 10
149.3319941045
 20
144.56187251
 30
0.0
 11
149.3319941045
 21
139.16187251
 31
0.0
  0
LINE
  5
DC
330
1F
100
AcDbEntity
  8
0
  6
Continuous
 62
     7
370
    15
100
AcDbLine
 10
148.9319941045
 20
144.56187251
 30
0.0
 11
149.3319941045
 21
144.56187251
 31
0.0
  0
LINE
  5
DD
330
1F
100
AcDbEntity
  8
0
  6
Continuous
 62
     7
370
    15
100
AcDbLine
 10
148.9319941045
 20
139.16187251
 30
0.0
 11
149.3319941045
 21
139.16187251
 31
0.0
  0
LINE
  5
DE
330
1F
100
AcDbEntity
  8
0
  6
Continuous
 62
     7
370
    15
100
AcDbLine
 10
205.3319941045
 20
166.5360938397
 30
0.0
 11
205.3319941045
 21
166.16187251
 31
0.0
  0
LINE
  5
DF
330
1F
100
AcDbEntity
  8
0
  6
Continuous
 62
     7
370
    15
100
AcDbLine
 10
205.3319941045
 20
166.5360938397
 30
0.0
 11
210.7319941045
 21
166.5360938397
 31
0.0
  0
LINE
  5
E0
330
1F
100
AcDbEntity
  8
0
  6
Continuous
 62
     7
370
    15
100
AcDbLine
 10
210.7319941045
 20
166.5360938397
 30
0.0
 11
210.7319941045
 21
166.16187251
 31
0.0
  0
LINE
  5
E1
330
1F
100
AcDbEntity
  8
0
  6
Continuous
 62
     7
370
    15
100
AcDbLine
 10
217.5319941045
 20
144.56187251
 30
0.0
 11
217.9062154342
 21
144.56187251
 31
0.0
  0
LINE
  5
E2
330
1F
100
AcDbEntity
  8
0
  6
Continuous
 62
     7
370
    15
100
AcDbLine
 10
217.5319941045
 20
139.16187251
 30
0.0
 11
217.9062154342
 21
139.16187251
 31
0.0
  0
LINE
  5
E3
330
1F
100
AcDbEntity
  8
0
  6
Continuous
 62
     7
370
    15
100
AcDbLine
 10
161.1319941045
 20
166.5656212121
 30
0.0
 11
205.3319941045
 21
166.5656212121
 31
0.0
  0
LINE
  5
E4
330
1F
100
AcDbEntity
  8
0
  6
Continuous
 62
     7
370
    15
100
AcDbLine
 10
161.1319941045
 20
166.5656212121
 30
0.0
 11
161.1319941045
 21
166.5360938397
 31
0.0
  0
LINE
  5
E5
330
1F
100
AcDbEntity
  8
0
  6
Continuous
 62
     7
370
    15
100
AcDbLine
 10
161.1319941045
 20
166.5360938397
 30
0.0
 11
155.7319941045
 21
166.5360938397
 31
0.0
  0
LINE
  5
E6
330
1F
100
AcDbEntity
  8
0
  6
Continuous
 62
     7
370
    15
100
AcDbLine
 10
149.0275601697
 20
166.5656212121
 30
0.0
 11
155.7319941045
 21
166.5656212121
 31
0.0
  0
LINE
  5
E7
330
1F
100
AcDbEntity
  8
0
  6
Continuous
 62
     7
370
    15
100
AcDbLine
 10
148.9313088719
 20
166.66187251
 30
0.0
 11
149.0275601697
 21
166.5656212121
 31
0.0
  0
LINE
  5
E8
330
1F
100
AcDbEntity
  8
0
  6
Continuous
 62
     7
370
    15
100
AcDbLine
 10
217.5326793371
 20
166.66187251
 30
0.0
 11
148.9313088719
 21
166.66187251
 31
0.0
  0
LINE
  5
E9
330
1F
100
AcDbEntity
  8
0
  6
Continuous
 62
     7
370
    15
100
AcDbLine
 10
217.5326793371
 20
166.66187251
 30
0.0
 11
217.4364280393
 21
166.5656212121
 31
0.0
  0
LINE
  5
EA
330
1F
100
AcDbEntity
  8
0
  6
Continuous
 62
     7
370
    15
100
AcDbLine
 10
217.4364280393
 20
166.5656212121
 30
0.0
 11
210.7319941045
 21
166.5656212121
 31
0.0
  0
LINE
  5
EB
330
1F
100
AcDbEntity
  8
0
  6
Continuous
 62
     7
370
    15
100
AcDbLine
 10
205.3319941045
 20
166.5656212121
 30
0.0
 11
205.3319941045
 21
166.5360938397
 31
0.0
  0
LINE
  5
EC
330
1F
100
AcDbEntity
  8
0
  6
Continuous
 62
     7
370
    15
100
AcDbLine
 10
210.7319941045
 20
166.5360938397
 30
0.0
 11
210.7319941045
 21
166.5656212121
 31
0.0
  0
LINE
  5
ED
330
1F
100
AcDbEntity
  8
0
  6
Continuous
 62
     7
370
    15
100
AcDbLine
 10
155.7319941045
 20
166.5360938397
 30
0.0
 11
155.7319941045
 21
166.5656212121
 31
0.0
  0
LINE
  5
EE
330
1F
100
AcDbEntity
  8
0
  6
Continuous
 62
     7
370
    15
100
AcDbLine
 10
155.7319941045
 20
165.76187251
 30
0.0
 11
161.1319941045
 21
165.76187251
 31
0.0
  0
LINE
  5
EF
330
1F
100
AcDbEntity
  8
0
  6
Continuous
 62
     7
370
    15
100
AcDbLine
 10
161.1319941045
 20
166.16187251
 30
0.0
 11
155.7319941045
 21
166.16187251
 31
0.0
  0
LINE
  5
F0
330
1F
100
AcDbEntity
  8
0
  6
Continuous
 62
     7
370
    15
100
AcDbLine
 10
161.1319941045
 20
166.16187251
 30
0.0
 11
161.1319941045
 21
165.76187251
 31
0.0
  0
LINE
  5
F1
330
1F
100
AcDbEntity
  8
0
  6
Continuous
 62
     7
370
    15
100
AcDbLine
 10
155.7319941045
 20
165.76187251
 30
0.0
 11
155.7319941045
 21
166.16187251
 31
0.0
  0
LINE
  5
F2
330
1F
100
AcDbEntity
  8
0
  6
Continuous
 62
     7
370
    15
100
AcDbLine
 10
161.1319941045
 20
166.5360938397
 30
0.0
 11
161.1319941045
 21
166.16187251
 31
0.0
  0
LINE
  5
F3
330
1F
100
AcDbEntity
  8
0
  6
Continuous
 62
     7
370
    15
100
AcDbLine
 10
155.7319941045
 20
166.5360938397
 30
0.0
 11
155.7319941045
 21
166.16187251
 31
0.0
  0
LINE
  5
F4
330
1F
100
AcDbEntity
  8
0
  6
Continuous
 62
     7
370
    15
100
AcDbLine
 10
210.7319941045
 20
117.96187251
 30
0.0
 11
205.3319941045
 21
117.96187251
 31
0.0
  0
LINE
  5
F5
330
1F
100
AcDbEntity
  8
0
  6
Continuous
 62
     7
370
    15
100
AcDbLine
 10
210.7319941045
 20
117.96187251
 30
0.0
 11
210.7319941045
 21
117.56187251
 31
0.0
  0
LINE
  5
F6
330
1F
100
AcDbEntity
  8
0
  6
Continuous
 62
     7
370
    15
100
AcDbLine
 10
205.3319941045
 20
117.56187251
 30
0.0
 11
205.3319941045
 21
117.96187251
 31
0.0
  0
LINE
  5
F7
330
1F
100
AcDbEntity
  8
0
  6
Continuous
 62
     7
370
    15
100
AcDbLine
 10
161.1319941045
 20
117.96187251
 30
0.0
 11
161.1319941045
 21
118.3433166156
 31
0.0
  0
LINE
  5
F8
330
1F
100
AcDbEntity
  8
0
  6
Continuous
 62
     7
370
    15
100
AcDbLine
 10
155.7319941045
 20
117.96187251
 30
0.0
 11
155.7319941045
 21
118.3433166156
 31
0.0
  0
LINE
  5
F9
330
1F
100
AcDbEntity
  8
0
  6
Continuous
 62
     7
370
    15
100
AcDbLine
 10
216.7505499988
 20
144.56187251
 30
0.0
 11
217.1319941045
 21
144.56187251
 31
0.0
  0
LINE
  5
FA
330
1F
100
AcDbEntity
  8
0
  6
Continuous
 62
     7
370
    15
100
AcDbLine
 10
216.7505499988
 20
139.16187251
 30
0.0
 11
217.1319941045
 21
139.16187251
 31
0.0
  0
LINE
  5
FB
330
1F
100
AcDbEntity
  8
0
  6
Continuous
 62
     7
370
    15
100
AcDbLine
 10
210.7319941045
 20
117.96187251
 30
0.0
 11
210.7319941045
 21
118.3433166156
 31
0.0
  0
LINE
  5
FC
330
1F
100
AcDbEntity
  8
0
  6
Continuous
 62
     7
370
    15
100
AcDbLine
 10
205.3319941045
 20
117.96187251
 30
0.0
 11
205.3319941045
 21
118.3433166156
 31
0.0
  0
LINE
  5
FD
330
1F
100
AcDbEntity
  8
0
  6
Continuous
 62
     7
370
    15
100
AcDbLine
 10
205.3319941045
 20
165.76187251
 30
0.0
 11
205.3319941045
 21
165.3804284043
 31
0.0
  0
LINE
  5
FE
330
1F
100
AcDbEntity
  8
0
  6
Continuous
 62
     7
370
    15
100
AcDbLine
 10
210.7319941045
 20
165.76187251
 30
0.0
 11
210.7319941045
 21
165.3804284043
 31
0.0
  0
LINE
  5
FF
330
1F
100
AcDbEntity
  8
0
  6
Continuous
 62
     7
370
    15
100
AcDbLine
 10
149.7134382102
 20
144.56187251
 30
0.0
 11
149.3319941045
 21
144.56187251
 31
0.0
  0
LINE
  5
100
330
1F
100
AcDbEntity
  8
0
  6
Continuous
 62
     7
370
    15
100
AcDbLine
 10
149.7134382102
 20
139.16187251
 30
0.0
 11
149.3319941045
 21
139.16187251
 31
0.0
  0
LINE
  5
101
330
1F
100
AcDbEntity
  8
0
  6
Continuous
 62
     7
370
    15
100
AcDbLine
 10
161.1319941045
 20
165.76187251
 30
0.0
 11
161.1319941045
 21
165.3804284043
 31
0.0
  0
LINE
  5
102
330
1F
100
AcDbEntity
  8
0
  6
Continuous
 62
     7
370
    15
100
AcDbLine
 10
155.7319941045
 20
165.76187251
 30
0.0
 11
155.7319941045
 21
165.3804284043
 31
0.0
  0
SPLINE
  5
103
330
1F
100
AcDbEntity
  8
0
  6
Continuous
 62
     7
370
    15
100
AcDbSpline
210
0.0
220
0.0
230
1.0
 70
     8
 71
     3
 72
    14
 73
    10
 74
     0
 42
0.000000001
 43
0.00000001
 40
0.0
 40
0.0
 40
0.0
 40
0.0
 40
0.25
 40
0.25
 40
0.5
 40
0.5
 40
0.75
 40
0.75
 40
1.0
 40
1.0
 40
1.0
 40
1.0
 10
148.9676421048061
 20
166.5620032234058
 30
0.0
 10
148.9121909480373
 20
166.555279441748
 30
0.0
 10
148.8593836875208
 20
166.5396859162677
 30
0.0
 10
148.7590286819496
 20
166.490822212222
 30
0.0
 10
148.7141142074192
 20
166.4588016131063
 30
0.0
 10
148.635227217945
 20
166.3799553471036
 30
0.0
 10
148.6031437783689
 20
166.3349760013669
 30
0.0
 10
148.5543078031334
 20
166.2348096933474
 30
0.0
 10
148.538587164359
 20
166.1816755974852
 30
0.0
 10
148.5318633910612
 20
166.1262245096609
 30
0.0
  0
LINE
  5
104
330
1F
100
AcDbEntity
  8
0
  6
Continuous
 62
     7
370
    15
100
AcDbLine
 10
148.9676421048
 20
166.5620032234
 30
0.0
 11
150.1531899922
 21
165.376455336
 31
0.0
  0
LINE
  5
105
330
1F
100
AcDbEntity
  8
0
  6
Continuous
 62
     7
370
    15
100
AcDbLine
 10
149.7174112784
 20
164.9406766223
 30
0.0
 11
148.5318633911
 21
166.1262245097
 31
0.0
  0
SPLINE
  5
106
330
1F
100
AcDbEntity
  8
0
  6
Continuous
 62
     7
370
    15
100
AcDbSpline
210
0.0
220
0.0
230
1.0
 70
     8
 71
     3
 72
    14
 73
    10
 74
     0
 42
0.000000001
 43
0.00000001
 40
0.0
 40
0.0
 40
0.0
 40
0.0
 40
0.25
 40
0.25
 40
0.5
 40
0.5
 40
0.75
 40
0.75
 40
1.0
 40
1.0
 40
1.0
 40
1.0
 10
217.4963461042074
 20
117.1617417965146
 30
0.0
 10
217.5517972609758
 20
117.1684655781722
 30
0.0
 10
217.6046045214941
 20
117.1840591036531
 30
0.0
 10
217.7049595270645
 20
117.2329228076987
 30
0.0
 10
217.7498740015946
 20
117.2649434068143
 30
0.0
 10
217.8287609910683
 20
117.3437896728164
 30
0.0
 10
217.8608444306442
 20
117.3887690185528
 30
0.0
 10
217.9096804058796
 20
117.4889353265715
 30
0.0
 10
217.9254010446546
 20
117.5420694224355
 30
0.0
 10
217.9321248179524
 20
117.5975205102595
 30
0.0
  0
LINE
  5
107
330
1F
100
AcDbEntity
  8
0
  6
Continuous
 62
     7
370
    15
100
AcDbLine
 10
217.4963461042
 20
117.1617417965
 30
0.0
 11
216.3107982168
 21
118.3472896839
 31
0.0
  0
LINE
  5
108
330
1F
100
AcDbEntity
  8
0
  6
Continuous
 62
     7
370
    15
100
AcDbLine
 10
216.7465769306
 20
118.7830683976
 30
0.0
 11
217.9321248179
 21
117.5975205103
 31
0.0
  0
SPLINE
  5
109
330
1F
100
AcDbEntity
  8
0
  6
Continuous
 62
     7
370
    15
100
AcDbSpline
210
0.0
220
0.0
230
1.0
 70
     8
 71
     3
 72
    14
 73
    10
 74
     0
 42
0.000000001
 43
0.00000001
 40
0.0
 40
0.0
 40
0.0
 40
0.0
 40
0.25
 40
0.25
 40
0.5
 40
0.5
 40
0.75
 40
0.75
 40
1.0
 40
1.0
 40
1.0
 40
1.0
 10
217.4963461042074
 20
166.5620032234058
 30
0.0
 10
217.551797260976
 20
166.555279441748
 30
0.0
 10
217.6046045214944
 20
166.5396859162671
 30
0.0
 10
217.7049595270652
 20
166.4908222122212
 30
0.0
 10
217.7498740015953
 20
166.4588016131054
 30
0.0
 10
217.8287609910692
 20
166.3799553471028
 30
0.0
 10
217.8608444306451
 20
166.3349760013663
 30
0.0
 10
217.9096804058803
 20
166.234809693347
 30
0.0
 10
217.9254010446546
 20
166.181675597485
 30
0.0
 10
217.9321248179524
 20
166.1262245096609
 30
0.0
  0
LINE
  5
10A
330
1F
100
AcDbEntity
  8
0
  6
Continuous
 62
     7
370
    15
100
AcDbLine
 10
216.7465769306
 20
164.9406766223
 30
0.0
 11
217.9321248179
 21
166.1262245097
 31
0.0
  0
LINE
  5
10B
330
1F
100
AcDbEntity
  8
0
  6
Continuous
 62
     7
370
    15
100
AcDbLine
 10
217.4963461042
 20
166.5620032234
 30
0.0
 11
216.3107982168
 21
165.376455336
 31
0.0
  0
SPLINE
  5
10C
330
1F
100
AcDbEntity
  8
0
  6
Continuous
 62
     7
370
    15
100
AcDbSpline
210
0.0
220
0.0
230
1.0
 70
     8
 71
     3
 72
    14
 73
    10
 74
     0
 42
0.000000001
 43
0.00000001
 40
0.0
 40
0.0
 40
0.0
 40
0.0
 40
0.25
 40
0.25
 40
0.5
 40
0.5
 40
0.75
 40
0.75
 40
1.0
 40
1.0
 40
1.0
 40
1.0
 10
148.9676421048061
 20
117.1617417965146
 30
0.0
 10
148.9121909480376
 20
117.1684655781723
 30
0.0
 10
148.8593836875212
 20
117.1840591036525
 30
0.0
 10
148.7590286819503
 20
117.2329228076979
 30
0.0
 10
148.7141142074199
 20
117.2649434068135
 30
0.0
 10
148.6352272179458
 20
117.3437896728157
 30
0.0
 10
148.6031437783697
 20
117.3887690185521
 30
0.0
 10
148.5543078031341
 20
117.4889353265711
 30
0.0
 10
148.5385871643589
 20
117.5420694224353
 30
0.0
 10
148.5318633910612
 20
117.5975205102595
 30
0.0
  0
LINE
  5
10D
330
1F
100
AcDbEntity
  8
0
  6
Continuous
 62
     7
370
    15
100
AcDbLine
 10
149.7174112784
 20
118.7830683976
 30
0.0
 11
148.5318633911
 21
117.5975205103
 31
0.0
  0
LINE
  5
10E
330
1F
100
AcDbEntity
  8
0
  6
Continuous
 62
     7
370
    15
100
AcDbLine
 10
148.9676421048
 20
117.1617417965
 30
0.0
 11
150.1531899922
 21
118.3472896839
 31
0.0
  0
SPLINE
  5
10F
330
1F
100
AcDbEntity
  8
0
  6
Continuous
 62
     7
370
    15
100
AcDbSpline
210
0.0
220
0.0
230
1.0
 70
     8
 71
     3
 72
     8
 73
     4
 74
     0
 42
0.000000001
 43
0.00000001
 40
0.0
 40
0.0
 40
0.0
 40
0.0
 40
1.0
 40
1.0
 40
1.0
 40
1.0
 10
217.4963461042068
 20
117.1617417965202
 30
0.0
 10
217.4764468769668
 20
117.1593288971802
 30
0.0
 10
217.4564741334668
 20
117.1581238078002
 30
0.0
 10
217.4364280392868
 20
117.1581238078002
 30
0.0
  0
SPLINE
  5
110
330
1F
100
AcDbEntity
  8
0
  6
Continuous
 62
     7
370
    15
100
AcDbSpline
210
0.0
220
0.0
230
1.0
 70
     8
 71
     3
 72
     8
 73
     4
 74
     0
 42
0.000000001
 43
0.00000001
 40
0.0
 40
0.0
 40
0.0
 40
0.0
 40
1.0
 40
1.0
 40
1.0
 40
1.0
 10
148.9676421048068
 20
166.5620032234002
 30
0.0
 10
148.9875413320468
 20
166.5644161227401
 30
0.0
 10
149.0075140755468
 20
166.5656212121202
 30
0.0
 10
149.0275601697268
 20
166.5656212121202
 30
0.0
  0
SPLINE
  5
111
330
1F
100
AcDbEntity
  8
0
  6
Continuous
 62
     7
370
    15
100
AcDbSpline
210
0.0
220
0.0
230
1.0
 70
     8
 71
     3
 72
     8
 73
     4
 74
     0
 42
0.000000001
 43
0.00000001
 40
0.0
 40
0.0
 40
0.0
 40
0.0
 40
1.0
 40
1.0
 40
1.0
 40
1.0
 10
217.9357428066668
 20
117.6574385751802
 30
0.0
 10
217.9357428066668
 20
117.6373924810002
 30
0.0
 10
217.9345377172868
 20
117.6174197375002
 30
0.0
 10
217.9321248179468
 20
117.5975205102602
 30
0.0
  0
SPLINE
  5
112
330
1F
100
AcDbEntity
  8
0
  6
Continuous
 62
     7
370
    15
100
AcDbSpline
210
0.0
220
0.0
230
1.0
 70
     8
 71
     3
 72
     8
 73
     4
 74
     0
 42
0.000000001
 43
0.00000001
 40
0.0
 40
0.0
 40
0.0
 40
0.0
 40
1.0
 40
1.0
 40
1.0
 40
1.0
 10
148.5282454023468
 20
166.0663064447401
 30
0.0
 10
148.5282454023468
 20
166.0863525389202
 30
0.0
 10
148.5294504917268
 20
166.1063252824202
 30
0.0
 10
148.5318633910668
 20
166.1262245096602
 30
0.0
  0
SPLINE
  5
113
330
1F
100
AcDbEntity
  8
0
  6
Continuous
 62
     7
370
    15
100
AcDbSpline
210
0.0
220
0.0
230
1.0
 70
     8
 71
     3
 72
     8
 73
     4
 74
     0
 42
0.000000001
 43
0.00000001
 40
0.0
 40
0.0
 40
0.0
 40
0.0
 40
1.0
 40
1.0
 40
1.0
 40
1.0
 10
217.9357428066668
 20
166.0663064447401
 30
0.0
 10
217.9357428066668
 20
166.0863525389202
 30
0.0
 10
217.9345377172868
 20
166.1063252824202
 30
0.0
 10
217.9321248179468
 20
166.1262245096602
 30
0.0
  0
SPLINE
  5
114
330
1F
100
AcDbEntity
  8
0
  6
Continuous
 62
     7
370
    15
100
AcDbSpline
210
0.0
220
0.0
230
1.0
 70
     8
 71
     3
 72
     8
 73
     4
 74
     0
 42
0.000000001
 43
0.00000001
 40
0.0
 40
0.0
 40
0.0
 40
0.0
 40
1.0
 40
1.0
 40
1.0
 40
1.0
 10
148.5282454023468
 20
117.6574385751802
 30
0.0
 10
148.5282454023468
 20
117.6373924810002
 30
0.0
 10
148.5294504917268
 20
117.6174197375002
 30
0.0
 10
148.5318633910668
 20
117.5975205102602
 30
0.0
  0
SPLINE
  5
115
330
1F
100
AcDbEntity
  8
0
  6
Continuous
 62
     7
370
    15
100
AcDbSpline
210
0.0
220
0.0
230
1.0
 70
     8
 71
     3
 72
     8
 73
     4
 74
     0
 42
0.000000001
 43
0.00000001
 40
0.0
 40
0.0
 40
0.0
 40
0.0
 40
1.0
 40
1.0
 40
1.0
 40
1.0
 10
217.4963461042068
 20
166.5620032234002
 30
0.0
 10
217.4764468769668
 20
166.5644161227401
 30
0.0
 10
217.4564741334668
 20
166.5656212121202
 30
0.0
 10
217.4364280392868
 20
166.5656212121202
 30
0.0
  0
SPLINE
  5
116
330
1F
100
AcDbEntity
  8
0
  6
Continuous
 62
     7
370
    15
100
AcDbSpline
210
0.0
220
0.0
230
1.0
 70
     8
 71
     3
 72
     8
 73
     4
 74
     0
 42
0.000000001
 43
0.00000001
 40
0.0
 40
0.0
 40
0.0
 40
0.0
 40
1.0
 40
1.0
 40
1.0
 40
1.0
 10
148.9676421048068
 20
117.1617417965202
 30
0.0
 10
148.9875413320468
 20
117.1593288971802
 30
0.0
 10
149.0075140755468
 20
117.1581238078002
 30
0.0
 10
149.0275601697268
 20
117.1581238078002
 30
0.0
  0
ELLIPSE
  5
117
330
1F
100
AcDbEntity
  8
0
  6
Continuous
 62
     7
370
    15
100
AcDbEllipse
 10
148.9326802775
 20
117.562558683
 30
0.0
 11
0.3545231217175342
 21
0.3545231217175342
 31
0.0
210
0.0
220
0.0
230
1.0
 40
0.9972646886
 41
2.357564018055801
 42
3.925621289121762
  0
ELLIPSE
  5
118
330
1F
100
AcDbEntity
  8
0
  6
Continuous
 62
     7
370
    15
100
AcDbEllipse
 10
148.9326802775
 20
166.161186337
 30
0.0
 11
-0.3545231217175057
 21
0.3545231217175341
 31
0.0
210
0.0
220
0.0
230
1.0
 40
0.9972646886
 41
5.499156671647696
 42
7.067213942713609
  0
ELLIPSE
  5
119
330
1F
100
AcDbEntity
  8
0
  6
Continuous
 62
     7
370
    15
100
AcDbEllipse
 10
217.5313079315
 20
166.161186337
 30
0.0
 11
-0.3545231217175057
 21
-0.3545231217175341
 31
0.0
210
0.0
220
0.0
230
1.0
 40
0.9972646886
 41
2.357564018055714
 42
3.925621289121655
  0
ELLIPSE
  5
11A
330
1F
100
AcDbEntity
  8
0
  6
Continuous
 62
     7
370
    15
100
AcDbEllipse
 10
217.5313079315
 20
117.562558683
 30
0.0
 11
0.3545231217175342
 21
-0.3545231217175342
 31
0.0
210
0.0
220
0.0
230
1.0
 40
0.9972646886
 41
5.499156671647691
 42
7.067213942713589
  0
SPLINE
  5
11B
330
1F
100
AcDbEntity
  8
0
  6
Continuous
 62
     7
370
    15
100
AcDbSpline
210
0.0
220
0.0
230
1.0
 70
     8
 71
     3
 72
     8
 73
     4
 74
     0
 42
0.000000001
 43
0.00000001
 40
0.0
 40
0.0
 40
0.0
 40
0.0
 40
1.0
 40
1.0
 40
1.0
 40
1.0
 10
134.1601825888997
 20
166.0663064447401
 30
0.0
 10
134.1601825888997
 20
166.0863525389202
 30
0.0
 10
134.1600771572396
 20
166.1063252824202
 30
0.0
 10
134.1598660559019
 20
166.1262245096602
 30
0.0
  0
SPLINE
  5
11C
330
1F
100
AcDbEntity
  8
0
  6
Continuous
 62
     7
370
    15
100
AcDbSpline
210
0.0
220
0.0
230
1.0
 70
     8
 71
     3
 72
    14
 73
    10
 74
     0
 42
0.000000001
 43
0.00000001
 40
0.0
 40
0.0
 40
0.0
 40
0.0
 40
0.25
 40
0.25
 40
0.5
 40
0.5
 40
0.75
 40
0.75
 40
1.0
 40
1.0
 40
1.0
 40
1.0
 10
134.159866055902
 20
166.5620032234058
 30
0.0
 10
134.1592778012309
 20
166.555279441748
 30
0.0
 10
134.1584922485347
 20
166.5396859162671
 30
0.0
 10
134.157295399972
 20
166.4908222122212
 30
0.0
 10
134.1569210663807
 20
166.4588016131054
 30
0.0
 10
134.156919962429
 20
166.3799553471028
 30
0.0
 10
134.1572941940687
 20
166.3349760013663
 30
0.0
 10
134.1584879127837
 20
166.234809693347
 30
0.0
 10
134.1592778019623
 20
166.181675597485
 30
0.0
 10
134.159866055902
 20
166.1262245096609
 30
0.0
  0
LINE
  5
11D
330
1F
100
AcDbEntity
  8
0
  6
Continuous
 62
     7
370
    15
100
AcDbLine
 10
135.9967667593
 20
166.66187251
 30
0.0
 11
134.1601825889
 21
166.5656212121
 31
0.0
  0
LINE
  5
11E
330
1F
100
AcDbEntity
  8
0
  6
Continuous
 62
     7
370
    15
100
AcDbLine
 10
134.1601825889
 20
166.0663064447
 30
0.0
 11
135.9967667593
 21
166.1625577426
 31
0.0
  0
LINE
  5
11F
330
1F
100
AcDbEntity
  8
0
  6
Continuous
 62
     7
370
    15
100
AcDbLine
 10
135.9967667593
 20
166.66187251
 30
0.0
 11
135.9967667593
 21
166.1625577426
 31
0.0
  0
SPLINE
  5
120
330
1F
100
AcDbEntity
  8
0
  6
Continuous
 62
     7
370
    15
100
AcDbSpline
210
0.0
220
0.0
230
1.0
 70
     8
 71
     3
 72
     8
 73
     4
 74
     0
 42
0.000000001
 43
0.00000001
 40
0.0
 40
0.0
 40
0.0
 40
0.0
 40
1.0
 40
1.0
 40
1.0
 40
1.0
 10
134.1601825888997
 20
117.6574385751802
 30
0.0
 10
134.1601825888997
 20
117.6373924810002
 30
0.0
 10
134.1600771572396
 20
117.6174197375002
 30
0.0
 10
134.1598660559019
 20
117.5975205102602
 30
0.0
  0
LINE
  5
121
330
1F
100
AcDbEntity
  8
0
  6
Continuous
 62
     7
370
    15
100
AcDbLine
 10
134.1601825889
 20
117.6574385752
 30
0.0
 11
135.9967667593
 21
117.5611872773
 31
0.0
  0
LINE
  5
122
330
1F
100
AcDbEntity
  8
0
  6
Continuous
 62
     7
370
    15
100
AcDbLine
 10
135.9967667593
 20
117.06187251
 30
0.0
 11
134.1601825889
 21
117.1581238078
 31
0.0
  0
SPLINE
  5
123
330
1F
100
AcDbEntity
  8
0
  6
Continuous
 62
     7
370
    15
100
AcDbSpline
210
0.0
220
0.0
230
1.0
 70
     8
 71
     3
 72
    14
 73
    10
 74
     0
 42
0.000000001
 43
0.00000001
 40
0.0
 40
0.0
 40
0.0
 40
0.0
 40
0.25
 40
0.25
 40
0.5
 40
0.5
 40
0.75
 40
0.75
 40
1.0
 40
1.0
 40
1.0
 40
1.0
 10
134.159866055902
 20
117.1617417965146
 30
0.0
 10
134.1592778012309
 20
117.1684655781722
 30
0.0
 10
134.1584922485347
 20
117.1840591036531
 30
0.0
 10
134.157295399972
 20
117.2329228076987
 30
0.0
 10
134.1569210663807
 20
117.2649434068143
 30
0.0
 10
134.156919962429
 20
117.3437896728164
 30
0.0
 10
134.1572941940687
 20
117.3887690185528
 30
0.0
 10
134.1584879127837
 20
117.4889353265715
 30
0.0
 10
134.1592778019623
 20
117.5420694224355
 30
0.0
 10
134.159866055902
 20
117.5975205102595
 30
0.0
  0
LINE
  5
124
330
1F
100
AcDbEntity
  8
0
  6
Continuous
 62
     7
370
    15
100
AcDbLine
 10
135.9967667593
 20
117.06187251
 30
0.0
 11
135.9967667593
 21
117.5611872773
 31
0.0
  0
LINE
  5
125
330
1F
100
AcDbEntity
  8
0
  6
Continuous
 62
     7
370
    15
100
AcDbLine
 10
133.5967667593
 20
139.16187251
 30
0.0
 11
133.5967667593
 21
144.56187251
 31
0.0
  0
LINE
  5
126
330
1F
100
AcDbEntity
  8
0
  6
Continuous
 62
     7
370
    15
100
AcDbLine
 10
134.1601825889
 20
144.56187251
 30
0.0
 11
133.5967667593
 21
144.56187251
 31
0.0
  0
LINE
  5
127
330
1F
100
AcDbEntity
  8
0
  6
Continuous
 62
     7
370
    15
100
AcDbLine
 10
134.1601825889
 20
144.56187251
 30
0.0
 11
134.1601825889
 21
166.0663064447
 31
0.0
  0
LINE
  5
128
330
1F
100
AcDbEntity
  8
0
  6
Continuous
 62
     7
370
    15
100
AcDbLine
 10
134.1601825889
 20
139.16187251
 30
0.0
 11
134.1601825889
 21
117.6574385752
 31
0.0
  0
LINE
  5
129
330
1F
100
AcDbEntity
  8
0
  6
Continuous
 62
     7
370
    15
100
AcDbLine
 10
134.1601825889
 20
139.16187251
 30
0.0
 11
133.5967667593
 21
139.16187251
 31
0.0
  0
LINE
  5
12A
330
1F
100
AcDbEntity
  8
0
  6
Continuous
 62
     7
370
    15
100
AcDbLine
 10
135.9967667593
 20
117.5611872773
 30
0.0
 11
135.9967667593
 21
166.1625577426
 31
0.0
  0
LINE
  5
12B
330
1F
100
AcDbEntity
  8
0
  6
Continuous
 62
     7
370
    15
100
AcDbLine
 10
134.0561440557
 20
164.9406766223
 30
0.0
 11
134.1598660559
 21
166.1262245097
 31
0.0
  0
SPLINE
  5
12C
330
1F
100
AcDbEntity
  8
0
  6
Continuous
 62
     7
370
    15
100
AcDbSpline
210
0.0
220
0.0
230
1.0
 70
     8
 71
     3
 72
    12
 73
     8
 74
     0
 42
0.000000001
 43
0.00000001
 40
0.0
 40
0.0
 40
0.0
 40
0.0
 40
0.2499999999999933
 40
0.2499999999999933
 40
0.4999999999999866
 40
0.4999999999999866
 40
1.0
 40
1.0
 40
1.0
 40
1.0
 10
134.0561440556907
 20
164.9406766223006
 30
0.0
 10
134.0553519711619
 20
164.9952105654616
 30
0.0
 10
134.0544578298651
 20
165.0469349760176
 30
0.0
 10
134.0531343271363
 20
165.1448538789059
 30
0.0
 10
134.0527360436578
 20
165.1892741530681
 30
0.0
 10
134.0527296202961
 20
165.305748375813
 30
0.0
 10
134.0545598949387
 20
165.3583482957928
 30
0.0
 10
134.0561440556907
 20
165.3764553360426
 30
0.0
  0
LINE
  5
12D
330
1F
100
AcDbEntity
  8
0
  6
Continuous
 62
     7
370
    15
100
AcDbLine
 10
134.1598660559
 20
166.5620032234
 30
0.0
 11
134.0561440557
 21
165.376455336
 31
0.0
  0
LINE
  5
12E
330
1F
100
AcDbEntity
  8
0
  6
Continuous
 62
     7
370
    15
100
AcDbLine
 10
134.1598660559
 20
117.1617417965
 30
0.0
 11
134.0561440557
 21
118.3472896839
 31
0.0
  0
SPLINE
  5
12F
330
1F
100
AcDbEntity
  8
0
  6
Continuous
 62
     7
370
    15
100
AcDbSpline
210
0.0
220
0.0
230
1.0
 70
     8
 71
     3
 72
    12
 73
     8
 74
     0
 42
0.000000001
 43
0.00000001
 40
0.0
 40
0.0
 40
0.0
 40
0.0
 40
0.25
 40
0.25
 40
0.5
 40
0.5
 40
1.0
 40
1.0
 40
1.0
 40
1.0
 10
134.0561440556917
 20
118.7830683976199
 30
0.0
 10
134.0553519711629
 20
118.7285344544589
 30
0.0
 10
134.0544578298651
 20
118.6768100439034
 30
0.0
 10
134.0531343271363
 20
118.5788911410149
 30
0.0
 10
134.0527360436578
 20
118.5344708668526
 30
0.0
 10
134.052729620296
 20
118.4179966441074
 30
0.0
 10
134.0545598949387
 20
118.3653967241277
 30
0.0
 10
134.0561440556907
 20
118.3472896838777
 30
0.0
  0
LINE
  5
130
330
1F
100
AcDbEntity
  8
0
  6
Continuous
 62
     7
370
    15
100
AcDbLine
 10
134.0561440557
 20
118.7830683976
 30
0.0
 11
134.1598660559
 21
117.5975205103
 31
0.0
  0
LINE
  5
131
330
1F
100
AcDbEntity
  8
0
  6
Continuous
 62
     7
370
    15
100
AcDbLine
 10
134.0567667593
 20
144.56187251
 30
0.0
 11
134.0567667593
 21
164.8542992176
 31
0.0
  0
ELLIPSE
  5
132
330
1F
100
AcDbEntity
  8
0
  6
Continuous
 62
     7
370
    15
100
AcDbEllipse
 10
134.0101202551
 20
164.850400888
 30
0.0
 11
0.0003452897596503135
 21
0.5307396686217487
 31
0.0
210
0.0
220
0.0
230
1.0
 40
0.0878872054
 41
4.719791312414455
 42
4.883371409699414
  0
SPLINE
  5
133
330
1F
100
AcDbEntity
  8
0
  6
Continuous
 62
     7
370
    15
100
AcDbSpline
210
0.0
220
0.0
230
1.0
 70
     8
 71
     3
 72
    10
 73
     6
 74
     0
 42
0.000000001
 43
0.00000001
 40
0.0
 40
0.0
 40
0.0
 40
0.0
 40
0.3315368450509193
 40
0.664863316821003
 40
1.0
 40
1.0
 40
1.0
 40
1.0
 10
134.0561440556901
 20
118.7830683976198
 30
0.0
 10
134.0562678082919
 20
118.7925521715585
 30
0.0
 10
134.0565159815085
 20
118.8115709125853
 30
0.0
 10
134.0567246921743
 20
118.8404209107082
 30
0.0
 10
134.0567527116421
 20
118.8597533875174
 30
0.0
 10
134.0567667593146
 20
118.8694458022863
 30
0.0
  0
LINE
  5
134
330
1F
100
AcDbEntity
  8
0
  6
Continuous
 62
     7
370
    15
100
AcDbLine
 10
134.0567667593
 20
139.16187251
 30
0.0
 11
134.0567667593
 21
118.8694458023
 31
0.0
  0
SPLINE
  5
135
330
1F
100
AcDbEntity
  8
0
  6
Continuous
 62
     7
370
    15
100
AcDbSpline
210
0.0
220
0.0
230
1.0
 70
     8
 71
     3
 72
    20
 73
    16
 74
     0
 42
0.000000001
 43
0.00000001
 40
0.0
 40
0.0
 40
0.0
 40
0.0
 40
0.1250000000000018
 40
0.1250000000000018
 40
0.2500000000000036
 40
0.2500000000000036
 40
0.3750000000000053
 40
0.3750000000000053
 40
0.5000000000000071
 40
0.5000000000000071
 40
0.7500000000000036
 40
0.7500000000000036
 40
0.8750000000000018
 40
0.8750000000000018
 40
1.0
 40
1.0
 40
1.0
 40
1.0
 10
130.3961040724874
 20
119.0612915615544
 30
0.0
 10
130.3947186886964
 20
119.0263931684383
 30
0.0
 10
130.3935145522416
 20
118.9920300981483
 30
0.0
 10
130.3913117736554
 20
118.9243452677534
 30
0.0
 10
130.3903058391222
 20
118.890707038351
 30
0.0
 10
130.3886955249667
 20
118.8269092557166
 30
0.0
 10
130.3881226512074
 20
118.7965579538498
 30
0.0
 10
130.387340078906
 20
118.7389754145481
 30
0.0
 10
130.3871216292476
 20
118.7118520372876
 30
0.0
 10
130.3871280055212
 20
118.6387620477809
 30
0.0
 10
130.3878980945923
 20
118.5992755605535
 30
0.0
 10
130.3903056718239
 20
118.5595467366955
 30
0.0
 10
130.3912940637301
 20
118.5492898382651
 30
0.0
 10
130.3934935663901
 20
118.5355795037797
 30
0.0
 10
130.3946961960818
 20
118.5320932407687
 30
0.0
 10
130.3960886855666
 20
118.5320201573841
 30
0.0
  0
LINE
  5
136
330
1F
100
AcDbEntity
  8
0
  6
Continuous
 62
     7
370
    15
100
AcDbLine
 10
130.3962049953
 20
119.0612875441
 30
0.0
 11
134.0567667593
 21
118.8694458023
 31
0.0
  0
LINE
  5
137
330
1F
100
AcDbEntity
  8
0
  6
Continuous
 62
     7
370
    15
100
AcDbLine
 10
134.0567667593
 20
118.3401721489
 30
0.0
 11
130.39620317
 21
118.5320141575
 31
0.0
  0
SPLINE
  5
138
330
1F
100
AcDbEntity
  8
0
  6
Continuous
 62
     7
370
    15
100
AcDbSpline
210
0.0
220
0.0
230
1.0
 70
     8
 71
     3
 72
    20
 73
    16
 74
     0
 42
0.000000001
 43
0.00000001
 40
0.0
 40
0.0
 40
0.0
 40
0.0
 40
0.1249999999999982
 40
0.1249999999999982
 40
0.2499999999999964
 40
0.2499999999999964
 40
0.3749999999999947
 40
0.3749999999999947
 40
0.4999999999999929
 40
0.4999999999999929
 40
0.7499999999999964
 40
0.7499999999999964
 40
0.8749999999999982
 40
0.8749999999999982
 40
1.0
 40
1.0
 40
1.0
 40
1.0
 10
130.3961040724874
 20
164.6624534583659
 30
0.0
 10
130.3947186886963
 20
164.697351851482
 30
0.0
 10
130.3935145522416
 20
164.731714921772
 30
0.0
 10
130.3913117736554
 20
164.7993997521669
 30
0.0
 10
130.3903058391222
 20
164.8330379815693
 30
0.0
 10
130.3886955249667
 20
164.8968357642038
 30
0.0
 10
130.3881226512074
 20
164.9271870660706
 30
0.0
 10
130.387340078906
 20
164.9847696053722
 30
0.0
 10
130.3871216292477
 20
165.0118929826328
 30
0.0
 10
130.3871280055212
 20
165.0849829721394
 30
0.0
 10
130.3878980945923
 20
165.1244694593668
 30
0.0
 10
130.3903056718239
 20
165.1641982832247
 30
0.0
 10
130.3912940637301
 20
165.1744551816552
 30
0.0
 10
130.39349356639
 20
165.1881655161406
 30
0.0
 10
130.3946961960818
 20
165.1916517791516
 30
0.0
 10
130.3960886855666
 20
165.1917248625363
 30
0.0
  0
LINE
  5
139
330
1F
100
AcDbEntity
  8
0
  6
Continuous
 62
     7
370
    15
100
AcDbLine
 10
134.0567667593
 20
165.3835728711
 30
0.0
 11
130.39620317
 21
165.1917308624
 31
0.0
  0
LINE
  5
13A
330
1F
100
AcDbEntity
  8
0
  6
Continuous
 62
     7
370
    15
100
AcDbLine
 10
130.3962049953
 20
164.6624574758
 30
0.0
 11
134.0567667593
 21
164.8542992176
 31
0.0
  0
LINE
  5
13B
330
1F
100
AcDbEntity
  8
0
  6
Continuous
 62
     7
370
    15
100
AcDbLine
 10
130.3962185732
 20
164.6624574758
 30
0.0
 11
130.3962185732
 21
119.0612875441
 31
0.0
  0
LINE
  5
13C
330
1F
100
AcDbEntity
  8
0
  6
Continuous
 62
     7
370
    15
100
AcDbLine
 10
130.3962185713
 20
118.5320133523
 30
0.0
 11
129.9967667588
 21
118.9529477333
 31
0.0
  0
SPLINE
  5
13D
330
1F
100
AcDbEntity
  8
0
  6
Continuous
 62
     7
370
    15
100
AcDbSpline
210
0.0
220
0.0
230
1.0
 70
    24
 71
     3
 72
    13
 73
     9
 74
     0
 42
0.000000001
 43
0.00000001
 40
0.110496518794988
 40
0.110496518794988
 40
0.110496518794988
 40
0.110496518794988
 40
0.1666666666667
 40
0.3333333333333
 40
0.5
 40
0.6666666666667
 40
0.8333333333333
 40
0.8986638252902908
 40
0.8986638252902908
 40
0.8986638252902908
 40
0.8986638252902908
 10
129.9967667593156
 20
119.0612869634972
 30
0.0
 10
129.9967667593156
 20
119.0572396559625
 30
0.0
 10
129.9967667593157
 20
119.0411906437653
 30
0.0
 10
129.996766759316
 20
119.0138569710954
 30
0.0
 10
129.9967667593155
 20
118.9839545892035
 30
0.0
 10
129.996766759316
 20
118.9625020553523
 30
0.0
 10
129.9967667593165
 20
118.9540548410485
 30
0.0
 10
129.9967667593164
 20
118.9529295874491
 30
0.0
 10
129.9967667593164
 20
118.9529221250706
 30
0.0
  0
LINE
  5
13E
330
1F
100
AcDbEntity
  8
0
  6
Continuous
 62
     7
370
    15
100
AcDbLine
 10
130.3962185717
 20
119.0612875441
 30
0.0
 11
129.9967667589
 21
119.0612869973
 31
0.0
  0
LINE
  5
13F
330
1F
100
AcDbEntity
  8
0
  6
Continuous
 62
     7
370
    15
100
AcDbLine
 10
130.3962185717
 20
164.6624574758
 30
0.0
 11
129.9967667589
 21
164.6624580226
 31
0.0
  0
SPLINE
  5
140
330
1F
100
AcDbEntity
  8
0
  6
Continuous
 62
     7
370
    15
100
AcDbSpline
210
0.0
220
0.0
230
1.0
 70
    24
 71
     3
 72
    13
 73
     9
 74
     0
 42
0.000000001
 43
0.00000001
 40
0.1104965187950548
 40
0.1104965187950548
 40
0.1104965187950548
 40
0.1104965187950548
 40
0.1666666666667
 40
0.3333333333333
 40
0.5
 40
0.6666666666667
 40
0.8333333333333
 40
0.8986638252902283
 40
0.8986638252902283
 40
0.8986638252902283
 40
0.8986638252902283
 10
129.9967667593156
 20
164.6624580564231
 30
0.0
 10
129.9967667593156
 20
164.6665053639579
 30
0.0
 10
129.9967667593157
 20
164.682554376155
 30
0.0
 10
129.996766759316
 20
164.709888048825
 30
0.0
 10
129.9967667593155
 20
164.7397904307169
 30
0.0
 10
129.996766759316
 20
164.761242964568
 30
0.0
 10
129.9967667593165
 20
164.7696901788718
 30
0.0
 10
129.9967667593164
 20
164.7708154324712
 30
0.0
 10
129.9967667593164
 20
164.7708228948497
 30
0.0
  0
LINE
  5
141
330
1F
100
AcDbEntity
  8
0
  6
Continuous
 62
     7
370
    15
100
AcDbLine
 10
130.3962185713
 20
165.1917316676
 30
0.0
 11
129.9967667588
 21
164.7707972866
 31
0.0
  0
LINE
  5
142
330
1F
100
AcDbEntity
  8
0
  6
Continuous
 62
     7
370
    15
100
AcDbLine
 10
129.9967667593
 20
119.0612869973
 30
0.0
 11
129.9967667593
 21
164.6624580226
 31
0.0
  0
LINE
  5
143
330
1F
100
AcDbEntity
  8
0
  6
Continuous
 62
     7
370
    15
100
AcDbLine
 10
135.9967667593
 20
165.06187251
 30
0.0
 11
136.6967667593
 21
165.0557637025
 31
0.0
  0
LINE
  5
144
330
1F
100
AcDbEntity
  8
0
  6
Continuous
 62
     7
370
    15
100
AcDbLine
 10
136.6967667593
 20
164.56187251
 30
0.0
 11
136.6967667593
 21
165.0557637025
 31
0.0
  0
LINE
  5
145
330
1F
100
AcDbEntity
  8
0
  6
Continuous
 62
     7
370
    15
100
AcDbLine
 10
136.6967667593
 20
119.16187251
 30
0.0
 11
136.6967667593
 21
118.6679813174
 31
0.0
  0
LINE
  5
146
330
1F
100
AcDbEntity
  8
0
  6
Continuous
 62
     7
370
    15
100
AcDbLine
 10
135.9967667593
 20
118.66187251
 30
0.0
 11
136.6967667593
 21
118.6679813174
 31
0.0
  0
LINE
  5
147
330
1F
100
AcDbEntity
  8
0
  6
Continuous
 62
     7
370
    15
100
AcDbLine
 10
136.6967667593
 20
164.56187251
 30
0.0
 11
136.6967667593
 21
163.3957637025
 31
0.0
  0
LINE
  5
148
330
1F
100
AcDbEntity
  8
0
  6
Continuous
 62
     7
370
    15
100
AcDbLine
 10
136.6967667593
 20
163.3957637025
 30
0.0
 11
135.9967667593
 21
163.3957637025
 31
0.0
  0
LINE
  5
149
330
1F
100
AcDbEntity
  8
0
  6
Continuous
 62
     7
370
    15
100
AcDbLine
 10
135.9967667593
 20
161.9957637025
 30
0.0
 11
136.6967667593
 21
161.9957637025
 31
0.0
  0
LINE
  5
14A
330
1F
100
AcDbEntity
  8
0
  6
Continuous
 62
     7
370
    15
100
AcDbLine
 10
136.6967667593
 20
121.7279813174
 30
0.0
 11
136.6967667593
 21
161.9957637025
 31
0.0
  0
LINE
  5
14B
330
1F
100
AcDbEntity
  8
0
  6
Continuous
 62
     7
370
    15
100
AcDbLine
 10
135.9967667593
 20
121.7279813174
 30
0.0
 11
136.6967667593
 21
121.7279813174
 31
0.0
  0
LINE
  5
14C
330
1F
100
AcDbEntity
  8
0
  6
Continuous
 62
     7
370
    15
100
AcDbLine
 10
136.6967667593
 20
120.3279813174
 30
0.0
 11
135.9967667593
 21
120.3279813174
 31
0.0
  0
LINE
  5
14D
330
1F
100
AcDbEntity
  8
0
  6
Continuous
 62
     7
370
    15
100
AcDbLine
 10
136.6967667593
 20
119.16187251
 30
0.0
 11
136.6967667593
 21
120.3279813174
 31
0.0
  0
LINE
  5
14E
330
1F
100
AcDbEntity
  8
0
  6
Continuous
 62
     7
370
    15
100
AcDbLine
 10
133.5967667593
 20
117.1876511802
 30
0.0
 11
133.5967667593
 21
117.56187251
 31
0.0
  0
ARC
  5
14F
330
1F
100
AcDbEntity
  8
0
  6
Continuous
 62
     7
370
    15
100
AcDbCircle
 10
133.5967667593
 20
117.96187251
 30
0.0
 40
0.4000000000000057
100
AcDbArc
 50
270.0
 51
0.0
  0
LINE
  5
150
330
1F
100
AcDbEntity
  8
0
  6
Continuous
 62
     7
370
    15
100
AcDbLine
 10
133.9967667593
 20
117.96187251
 30
0.0
 11
133.9967667593
 21
118.3433166156
 31
0.0
  0
LINE
  5
151
330
1F
100
AcDbEntity
  8
0
  6
Continuous
 62
     7
370
    15
100
AcDbLine
 10
133.5967667593
 20
117.1876511802
 30
0.0
 11
134.1601825889
 21
117.1581238078
 31
0.0
  0
LINE
  5
152
330
1F
100
AcDbEntity
  8
0
  6
Continuous
 62
     7
370
    15
100
AcDbLine
 10
133.5967667593
 20
166.5360938397
 30
0.0
 11
133.5967667593
 21
166.16187251
 31
0.0
  0
ARC
  5
153
330
1F
100
AcDbEntity
  8
0
  6
Continuous
 62
     7
370
    15
100
AcDbCircle
 10
133.5967667593
 20
165.76187251
 30
0.0
 40
0.4000000000000057
100
AcDbArc
 50
0.0
 51
90.0
  0
LINE
  5
154
330
1F
100
AcDbEntity
  8
0
  6
Continuous
 62
     7
370
    15
100
AcDbLine
 10
133.9967667593
 20
165.76187251
 30
0.0
 11
133.9967667593
 21
165.3804284043
 31
0.0
  0
LINE
  5
155
330
1F
100
AcDbEntity
  8
0
  6
Continuous
 62
     7
370
    15
100
AcDbLine
 10
133.5967667593
 20
166.5360938397
 30
0.0
 11
134.1601825889
 21
166.5656212121
 31
0.0
  0
LINE
  5
156
330
1F
100
AcDbEntity
  8
0
  6
Continuous
 62
     8
370
    15
100
AcDbLine
 10
136.6967667593
 20
164.56187251
 30
0.0
 11
135.9967667593
 21
164.56187251
 31
0.0
  0
LINE
  5
157
330
1F
100
AcDbEntity
  8
0
  6
Continuous
 62
     8
370
    15
100
AcDbLine
 10
136.6967667593
 20
119.16187251
 30
0.0
 11
135.9967667593
 21
119.16187251
 31
0.0
  0
SPLINE
  5
158
330
1F
100
AcDbEntity
  8
0
  6
Continuous
 62
     7
370
    15
100
AcDbSpline
210
0.0
220
0.0
230
1.0
 70
    24
 71
     3
 72
     8
 73
     4
 74
     0
 42
0.000000001
 43
0.00000001
 40
0.5600000000000529
 40
0.5600000000000529
 40
0.5600000000000529
 40
0.5600000000000529
 40
1.0
 40
1.0
 40
1.0
 40
1.0
 10
148.5293796282129
 20
184.697966524405
 30
0.0
 10
148.5299738716558
 20
184.6980185139697
 30
0.0
 10
148.5308017153571
 20
184.6980909409087
 30
0.0
 10
148.5318633910668
 20
184.6981838254973
 30
0.0
  0
SPLINE
  5
159
330
1F
100
AcDbEntity
  8
0
  6
Continuous
 62
     7
370
    15
100
AcDbSpline
210
0.0
220
0.0
230
1.0
 70
     8
 71
     3
 72
    14
 73
    10
 74
     0
 42
0.000000001
 43
0.00000001
 40
0.0
 40
0.0
 40
0.0
 40
0.0
 40
0.25
 40
0.25
 40
0.5
 40
0.5
 40
0.75
 40
0.75
 40
1.0
 40
1.0
 40
1.0
 40
1.0
 10
148.9676421048061
 20
184.6981838254972
 30
0.0
 10
148.9121909480376
 20
184.6987720801683
 30
0.0
 10
148.8593836875212
 20
184.6995576328645
 30
0.0
 10
148.7590286819503
 20
184.7007544814271
 30
0.0
 10
148.7141142074199
 20
184.7011288150184
 30
0.0
 10
148.6352272179458
 20
184.7011299189702
 30
0.0
 10
148.6031437783697
 20
184.7007556873305
 30
0.0
 10
148.5543078031341
 20
184.6995619686155
 30
0.0
 10
148.5385871643589
 20
184.6987720794368
 30
0.0
 10
148.5318633910612
 20
184.6981838254972
 30
0.0
  0
SPLINE
  5
15A
330
1F
100
AcDbEntity
  8
0
  6
Continuous
 62
     7
370
    15
100
AcDbSpline
210
0.0
220
0.0
230
1.0
 70
     8
 71
     3
 72
     8
 73
     4
 74
     0
 42
0.000000001
 43
0.00000001
 40
0.0
 40
0.0
 40
0.0
 40
0.0
 40
1.0
 40
1.0
 40
1.0
 40
1.0
 10
148.9676421048068
 20
184.6981838254973
 30
0.0
 10
148.9875413320468
 20
184.6979727241595
 30
0.0
 10
149.0075140755468
 20
184.6978672924995
 30
0.0
 10
149.0275601697268
 20
184.6978672924995
 30
0.0
  0
LINE
  5
15B
330
1F
100
AcDbEntity
  8
0
  6
Continuous
 62
     7
370
    15
100
AcDbLine
 10
148.9313088719
 20
182.8612831221
 30
0.0
 11
149.0275601697
 21
184.6978672925
 31
0.0
  0
LINE
  5
15C
330
1F
100
AcDbEntity
  8
0
  6
Continuous
 62
     7
370
    15
100
AcDbLine
 10
148.5282454023
 20
184.6978672925
 30
0.0
 11
148.4319941045
 21
182.8612831221
 31
0.0
  0
LINE
  5
15D
330
1F
100
AcDbEntity
  8
0
  6
Continuous
 62
     7
370
    15
100
AcDbLine
 10
148.9313088719
 20
182.8612831221
 30
0.0
 11
148.4319941045
 21
182.8612831221
 31
0.0
  0
SPLINE
  5
15E
330
1F
100
AcDbEntity
  8
0
  6
Continuous
 62
     7
370
    15
100
AcDbSpline
210
0.0
220
0.0
230
1.0
 70
    24
 71
     3
 72
     8
 73
     4
 74
     0
 42
0.000000001
 43
0.00000001
 40
0.5600000000000529
 40
0.5600000000000529
 40
0.5600000000000529
 40
0.5600000000000529
 40
1.0
 40
1.0
 40
1.0
 40
1.0
 10
217.9346085808007
 20
184.697966524405
 30
0.0
 10
217.9340143373577
 20
184.6980185139697
 30
0.0
 10
217.9331864936564
 20
184.6980909409087
 30
0.0
 10
217.9321248179468
 20
184.6981838254973
 30
0.0
  0
LINE
  5
15F
330
1F
100
AcDbEntity
  8
0
  6
Continuous
 62
     7
370
    15
100
AcDbLine
 10
217.9357428067
 20
184.6978672925
 30
0.0
 11
218.0319941045
 21
182.8612831221
 31
0.0
  0
LINE
  5
160
330
1F
100
AcDbEntity
  8
0
  6
Continuous
 62
     7
370
    15
100
AcDbLine
 10
217.5326793371
 20
182.8612831221
 30
0.0
 11
217.4364280393
 21
184.6978672925
 31
0.0
  0
SPLINE
  5
161
330
1F
100
AcDbEntity
  8
0
  6
Continuous
 62
     7
370
    15
100
AcDbSpline
210
0.0
220
0.0
230
1.0
 70
     8
 71
     3
 72
     8
 73
     4
 74
     0
 42
0.000000001
 43
0.00000001
 40
0.0
 40
0.0
 40
0.0
 40
0.0
 40
1.0
 40
1.0
 40
1.0
 40
1.0
 10
217.4963461042068
 20
184.6981838254973
 30
0.0
 10
217.4764468769668
 20
184.6979727241595
 30
0.0
 10
217.4564741334668
 20
184.6978672924995
 30
0.0
 10
217.4364280392868
 20
184.6978672924995
 30
0.0
  0
SPLINE
  5
162
330
1F
100
AcDbEntity
  8
0
  6
Continuous
 62
     7
370
    15
100
AcDbSpline
210
0.0
220
0.0
230
1.0
 70
     8
 71
     3
 72
    14
 73
    10
 74
     0
 42
0.000000001
 43
0.00000001
 40
0.0
 40
0.0
 40
0.0
 40
0.0
 40
0.25
 40
0.25
 40
0.5
 40
0.5
 40
0.75
 40
0.75
 40
1.0
 40
1.0
 40
1.0
 40
1.0
 10
217.4963461042074
 20
184.6981838254972
 30
0.0
 10
217.5517972609758
 20
184.6987720801683
 30
0.0
 10
217.6046045214941
 20
184.6995576328645
 30
0.0
 10
217.7049595270645
 20
184.7007544814271
 30
0.0
 10
217.7498740015946
 20
184.7011288150184
 30
0.0
 10
217.8287609910683
 20
184.7011299189702
 30
0.0
 10
217.8608444306442
 20
184.7007556873305
 30
0.0
 10
217.9096804058796
 20
184.6995619686155
 30
0.0
 10
217.9254010446546
 20
184.6987720794368
 30
0.0
 10
217.9321248179524
 20
184.6981838254972
 30
0.0
  0
LINE
  5
163
330
1F
100
AcDbEntity
  8
0
  6
Continuous
 62
     7
370
    15
100
AcDbLine
 10
217.5326793371
 20
182.8612831221
 30
0.0
 11
218.0319941045
 21
182.8612831221
 31
0.0
  0
LINE
  5
164
330
1F
100
AcDbEntity
  8
0
  6
Continuous
 62
     7
370
    15
100
AcDbLine
 10
149.0275601697
 20
184.6978672925
 30
0.0
 11
155.7319941045
 21
184.6978672925
 31
0.0
  0
LINE
  5
165
330
1F
100
AcDbEntity
  8
0
  6
Continuous
 62
     7
370
    15
100
AcDbLine
 10
155.7319941045
 20
185.2612831221
 30
0.0
 11
155.7319941045
 21
184.6978672925
 31
0.0
  0
LINE
  5
166
330
1F
100
AcDbEntity
  8
0
  6
Continuous
 62
     7
370
    15
100
AcDbLine
 10
161.1319941045
 20
185.2612831221
 30
0.0
 11
155.7319941045
 21
185.2612831221
 31
0.0
  0
LINE
  5
167
330
1F
100
AcDbEntity
  8
0
  6
Continuous
 62
     7
370
    15
100
AcDbLine
 10
161.1319941045
 20
184.6978672925
 30
0.0
 11
161.1319941045
 21
185.2612831221
 31
0.0
  0
LINE
  5
168
330
1F
100
AcDbEntity
  8
0
  6
Continuous
 62
     7
370
    15
100
AcDbLine
 10
205.3319941045
 20
184.6978672925
 30
0.0
 11
161.1319941045
 21
184.6978672925
 31
0.0
  0
LINE
  5
169
330
1F
100
AcDbEntity
  8
0
  6
Continuous
 62
     7
370
    15
100
AcDbLine
 10
205.3319941045
 20
184.6978672925
 30
0.0
 11
205.3319941045
 21
185.2612831221
 31
0.0
  0
LINE
  5
16A
330
1F
100
AcDbEntity
  8
0
  6
Continuous
 62
     7
370
    15
100
AcDbLine
 10
205.3319941045
 20
185.2612831221
 30
0.0
 11
210.7319941045
 21
185.2612831221
 31
0.0
  0
LINE
  5
16B
330
1F
100
AcDbEntity
  8
0
  6
Continuous
 62
     7
370
    15
100
AcDbLine
 10
210.7319941045
 20
185.2612831221
 30
0.0
 11
210.7319941045
 21
184.6978672925
 31
0.0
  0
LINE
  5
16C
330
1F
100
AcDbEntity
  8
0
  6
Continuous
 62
     7
370
    15
100
AcDbLine
 10
217.4364280393
 20
184.6978672925
 30
0.0
 11
210.7319941045
 21
184.6978672925
 31
0.0
  0
LINE
  5
16D
330
1F
100
AcDbEntity
  8
0
  6
Continuous
 62
     7
370
    15
100
AcDbLine
 10
148.9313088719
 20
182.8612831221
 30
0.0
 11
217.5326793371
 21
182.8612831221
 31
0.0
  0
LINE
  5
16E
330
1F
100
AcDbEntity
  8
0
  6
Continuous
 62
     7
370
    15
100
AcDbLine
 10
149.7174112784
 20
184.8019058257
 30
0.0
 11
148.5318633911
 21
184.6981838255
 31
0.0
  0
SPLINE
  5
16F
330
1F
100
AcDbEntity
  8
0
  6
Continuous
 62
     7
370
    15
100
AcDbSpline
210
0.0
220
0.0
230
1.0
 70
     8
 71
     3
 72
    12
 73
     8
 74
     0
 42
0.000000001
 43
0.00000001
 40
0.0
 40
0.0
 40
0.0
 40
0.0
 40
0.2499999999999933
 40
0.2499999999999933
 40
0.4999999999999866
 40
0.4999999999999866
 40
1.0
 40
1.0
 40
1.0
 40
1.0
 10
149.7174112784243
 20
184.8019058257085
 30
0.0
 10
149.7264648460162
 20
184.8026979102373
 30
0.0
 10
149.7436288151221
 20
184.8035920515341
 30
0.0
 10
149.7939490098721
 20
184.8049155542629
 30
0.0
 10
149.8263518942084
 20
184.8053138377414
 30
0.0
 10
149.9426215074167
 20
184.8053202611031
 30
0.0
 10
150.0441226776763
 20
184.8034899864604
 30
0.0
 10
150.1531899921664
 20
184.8019058257085
 30
0.0
  0
LINE
  5
170
330
1F
100
AcDbEntity
  8
0
  6
Continuous
 62
     7
370
    15
100
AcDbLine
 10
148.9676421048
 20
184.6981838255
 30
0.0
 11
150.1531899922
 21
184.8019058257
 31
0.0
  0
LINE
  5
171
330
1F
100
AcDbEntity
  8
0
  6
Continuous
 62
     7
370
    15
100
AcDbLine
 10
217.4963461042
 20
184.6981838255
 30
0.0
 11
216.3107982168
 21
184.8019058257
 31
0.0
  0
SPLINE
  5
172
330
1F
100
AcDbEntity
  8
0
  6
Continuous
 62
     7
370
    15
100
AcDbSpline
210
0.0
220
0.0
230
1.0
 70
     8
 71
     3
 72
    12
 73
     8
 74
     0
 42
0.000000001
 43
0.00000001
 40
0.0
 40
0.0
 40
0.0
 40
0.0
 40
0.25
 40
0.25
 40
0.5
 40
0.5
 40
1.0
 40
1.0
 40
1.0
 40
1.0
 10
216.7465769305882
 20
184.8019058257075
 30
0.0
 10
216.7375233629963
 20
184.8026979102362
 30
0.0
 10
216.7203593938917
 20
184.8035920515341
 30
0.0
 10
216.6700391991418
 20
184.8049155542629
 30
0.0
 10
216.6376363148055
 20
184.8053138377414
 30
0.0
 10
216.5213667015971
 20
184.8053202611031
 30
0.0
 10
216.4198655313376
 20
184.8034899864604
 30
0.0
 10
216.3107982168474
 20
184.8019058257085
 30
0.0
  0
LINE
  5
173
330
1F
100
AcDbEntity
  8
0
  6
Continuous
 62
     7
370
    15
100
AcDbLine
 10
216.7465769306
 20
184.8019058257
 30
0.0
 11
217.9321248179
 21
184.6981838255
 31
0.0
  0
LINE
  5
174
330
1F
100
AcDbEntity
  8
0
  6
Continuous
 62
     7
370
    15
100
AcDbLine
 10
205.3319941045
 20
184.8012831221
 30
0.0
 11
161.1319941045
 21
184.8012831221
 31
0.0
  0
LINE
  5
175
330
1F
100
AcDbEntity
  8
0
  6
Continuous
 62
     7
370
    15
100
AcDbLine
 10
150.2395673968
 20
184.8012831221
 30
0.0
 11
155.7319941045
 21
184.8012831221
 31
0.0
  0
ELLIPSE
  5
176
330
1F
100
AcDbEntity
  8
0
  6
Continuous
 62
     7
370
    15
100
AcDbEllipse
 10
150.2434657265
 20
184.8479296263
 30
0.0
 11
0.5307396686217771
 21
0.0003452897596218918
 31
0.0
210
0.0
220
0.0
230
1.0
 40
0.0878872054
 41
4.541406551070889
 42
4.704986648353731
  0
LINE
  5
177
330
1F
100
AcDbEntity
  8
0
  6
Continuous
 62
     7
370
    15
100
AcDbLine
 10
216.2244208122
 20
184.8012831221
 30
0.0
 11
210.7319941045
 21
184.8012831221
 31
0.0
  0
SPLINE
  5
178
330
1F
100
AcDbEntity
  8
0
  6
Continuous
 62
     7
370
    15
100
AcDbSpline
210
0.0
220
0.0
230
1.0
 70
     8
 71
     3
 72
    10
 73
     6
 74
     0
 42
0.000000001
 43
0.00000001
 40
0.0
 40
0.0
 40
0.0
 40
0.0
 40
0.3351475348405297
 40
0.6684740073109985
 40
1.0
 40
1.0
 40
1.0
 40
1.0
 10
216.2244208121668
 20
184.8012831220838
 30
0.0
 10
216.234113540821
 20
184.8012971775541
 30
0.0
 10
216.2534463315823
 20
184.8013252121226
 30
0.0
 10
216.2822963251862
 20
184.8015339128548
 30
0.0
 10
216.3013147541609
 20
184.8017820787761
 30
0.0
 10
216.3107982168472
 20
184.8019058257091
 30
0.0
  0
SPLINE
  5
179
330
1F
100
AcDbEntity
  8
0
  6
Continuous
 62
     7
370
    15
100
AcDbSpline
210
0.0
220
0.0
230
1.0
 70
     8
 71
     3
 72
    20
 73
    16
 74
     0
 42
0.000000001
 43
0.00000001
 40
0.0
 40
0.0
 40
0.0
 40
0.0
 40
0.1250000000000018
 40
0.1250000000000018
 40
0.2500000000000036
 40
0.2500000000000036
 40
0.3750000000000053
 40
0.3750000000000053
 40
0.5000000000000071
 40
0.5000000000000071
 40
0.7500000000000036
 40
0.7500000000000036
 40
0.8750000000000018
 40
0.8750000000000018
 40
1.0
 40
1.0
 40
1.0
 40
1.0
 10
216.5618472634777
 20
188.4619458089117
 30
0.0
 10
216.5617745635158
 20
188.4633311927028
 30
0.0
 10
216.558288496523
 20
188.4645353291576
 30
0.0
 10
216.54470818235
 20
188.4667381077438
 30
0.0
 10
216.5344431533597
 20
188.467744042277
 30
0.0
 10
216.5078919696631
 20
188.4693543564324
 30
0.0
 10
216.4916420539454
 20
188.4699272301918
 30
0.0
 10
216.4531498129981
 20
188.4707098024932
 30
0.0
 10
216.4308641823624
 20
188.4709282521515
 30
0.0
 10
216.357800623039
 20
188.470921875878
 30
0.0
 10
216.2988380014762
 20
188.4701517868069
 30
0.0
 10
216.2034972624557
 20
188.4677442095753
 30
0.0
 10
216.1700639385811
 20
188.4667558176691
 30
0.0
 10
216.10194925045
 20
188.4645563150091
 30
0.0
 10
216.0674726971229
 20
188.4633536853174
 30
0.0
 10
216.0325744138846
 20
188.4619611958325
 30
0.0
  0
LINE
  5
17A
330
1F
100
AcDbEntity
  8
0
  6
Continuous
 62
     7
370
    15
100
AcDbLine
 10
216.5618525526
 20
188.4618448861
 30
0.0
 11
216.7536944656
 21
184.8012831221
 31
0.0
  0
LINE
  5
17B
330
1F
100
AcDbEntity
  8
0
  6
Continuous
 62
     7
370
    15
100
AcDbLine
 10
216.2244208122
 20
184.8012831221
 30
0.0
 11
216.0325789946
 21
188.4618467114
 31
0.0
  0
SPLINE
  5
17C
330
1F
100
AcDbEntity
  8
0
  6
Continuous
 62
     7
370
    15
100
AcDbSpline
210
0.0
220
0.0
230
1.0
 70
     8
 71
     3
 72
    20
 73
    16
 74
     0
 42
0.000000001
 43
0.00000001
 40
0.0
 40
0.0
 40
0.0
 40
0.0
 40
0.1249999999999982
 40
0.1249999999999982
 40
0.2499999999999964
 40
0.2499999999999964
 40
0.3749999999999947
 40
0.3749999999999947
 40
0.4999999999999929
 40
0.4999999999999929
 40
0.7499999999999964
 40
0.7499999999999964
 40
0.8749999999999982
 40
0.8749999999999982
 40
1.0
 40
1.0
 40
1.0
 40
1.0
 10
149.9021409455358
 20
188.4619458089118
 30
0.0
 10
149.9022136454978
 20
188.4633311927028
 30
0.0
 10
149.9056997124905
 20
188.4645353291576
 30
0.0
 10
149.9192800266636
 20
188.4667381077438
 30
0.0
 10
149.9295450556539
 20
188.467744042277
 30
0.0
 10
149.9560962393504
 20
188.4693543564325
 30
0.0
 10
149.9723461550681
 20
188.4699272301918
 30
0.0
 10
150.0108383960155
 20
188.4707098024932
 30
0.0
 10
150.0331240266511
 20
188.4709282521515
 30
0.0
 10
150.1061875859746
 20
188.470921875878
 30
0.0
 10
150.1651502075374
 20
188.4701517868068
 30
0.0
 10
150.2604909465579
 20
188.4677442095753
 30
0.0
 10
150.2939242704325
 20
188.4667558176691
 30
0.0
 10
150.3620389585636
 20
188.4645563150091
 30
0.0
 10
150.3965155118907
 20
188.4633536853174
 30
0.0
 10
150.4314137951289
 20
188.4619611958325
 30
0.0
  0
LINE
  5
17D
330
1F
100
AcDbEntity
  8
0
  6
Continuous
 62
     7
370
    15
100
AcDbLine
 10
150.2395673968
 20
184.8012831221
 30
0.0
 11
150.4314092144
 21
188.4618467114
 31
0.0
  0
LINE
  5
17E
330
1F
100
AcDbEntity
  8
0
  6
Continuous
 62
     7
370
    15
100
AcDbLine
 10
149.9021356564
 20
188.4618448861
 30
0.0
 11
149.7102937434
 21
184.8012831221
 31
0.0
  0
LINE
  5
17F
330
1F
100
AcDbEntity
  8
0
  6
Continuous
 62
     7
370
    15
100
AcDbLine
 10
216.0325789946
 20
188.4618313082
 30
0.0
 11
150.4314092144
 21
188.4618313082
 31
0.0
  0
LINE
  5
180
330
1F
100
AcDbEntity
  8
0
  6
Continuous
 62
     7
370
    15
100
AcDbLine
 10
216.0325789946
 20
188.4618313101
 30
0.0
 11
216.0325796172
 21
188.8612831226
 31
0.0
  0
SPLINE
  5
181
330
1F
100
AcDbEntity
  8
0
  6
Continuous
 62
     7
370
    15
100
AcDbSpline
210
0.0
220
0.0
230
1.0
 70
    24
 71
     3
 72
    13
 73
     9
 74
     0
 42
0.000000001
 43
0.00000001
 40
0.110496518794988
 40
0.110496518794988
 40
0.110496518794988
 40
0.110496518794988
 40
0.1666666666667
 40
0.3333333333333
 40
0.5
 40
0.6666666666667
 40
0.8333333333333
 40
0.8986638252902908
 40
0.8986638252902908
 40
0.8986638252902908
 40
0.8986638252902908
 10
216.1409414547786
 20
188.8612831220836
 30
0.0
 10
216.1409342532018
 20
188.8612831220835
 30
0.0
 10
216.1400015990189
 20
188.8612831220834
 30
0.0
 10
216.1322446359894
 20
188.8612831220832
 30
0.0
 10
216.1113342973999
 20
188.8612831220836
 30
0.0
 10
216.0818179119629
 20
188.8612831220831
 30
0.0
 10
216.0539949422191
 20
188.8612831220827
 30
0.0
 10
216.0372874734457
 20
188.8612831220827
 30
0.0
 10
216.0325796514082
 20
188.8612831220827
 30
0.0
  0
LINE
  5
182
330
1F
100
AcDbEntity
  8
0
  6
Continuous
 62
     7
370
    15
100
AcDbLine
 10
216.5618532626
 20
188.4618313097
 30
0.0
 11
216.1409188813
 21
188.8612831225
 31
0.0
  0
LINE
  5
183
330
1F
100
AcDbEntity
  8
0
  6
Continuous
 62
     7
370
    15
100
AcDbLine
 10
149.9021349464
 20
188.4618313097
 30
0.0
 11
150.3230693277
 21
188.8612831225
 31
0.0
  0
SPLINE
  5
184
330
1F
100
AcDbEntity
  8
0
  6
Continuous
 62
     7
370
    15
100
AcDbSpline
210
0.0
220
0.0
230
1.0
 70
    24
 71
     3
 72
    13
 73
     9
 74
     0
 42
0.000000001
 43
0.00000001
 40
0.1104965187950665
 40
0.1104965187950665
 40
0.1104965187950665
 40
0.1104965187950665
 40
0.1666666666667
 40
0.3333333333333
 40
0.5
 40
0.6666666666667
 40
0.8333333333333
 40
0.8986638252902526
 40
0.8986638252902526
 40
0.8986638252902526
 40
0.8986638252902526
 10
150.323046754235
 20
188.8612831220836
 30
0.0
 10
150.3230539558117
 20
188.8612831220835
 30
0.0
 10
150.3239866099946
 20
188.8612831220834
 30
0.0
 10
150.3317435730241
 20
188.8612831220832
 30
0.0
 10
150.3526539116136
 20
188.8612831220836
 30
0.0
 10
150.3821702970506
 20
188.8612831220831
 30
0.0
 10
150.4099932667944
 20
188.8612831220827
 30
0.0
 10
150.4267007355679
 20
188.8612831220827
 30
0.0
 10
150.4314085576054
 20
188.8612831220827
 30
0.0
  0
LINE
  5
185
330
1F
100
AcDbEntity
  8
0
  6
Continuous
 62
     7
370
    15
100
AcDbLine
 10
150.4314092144
 20
188.4618313101
 30
0.0
 11
150.4314085918
 21
188.8612831226
 31
0.0
  0
LINE
  5
186
330
1F
100
AcDbEntity
  8
0
  6
Continuous
 62
     7
370
    15
100
AcDbLine
 10
150.4314085918
 20
188.8612831221
 30
0.0
 11
216.0325796172
 21
188.8612831221
 31
0.0
  0
LINE
  5
187
330
1F
100
AcDbEntity
  8
0
  6
Continuous
 62
     7
370
    15
100
AcDbLine
 10
216.425885297
 20
182.1612831221
 30
0.0
 11
216.4319941045
 21
182.8612831221
 31
0.0
  0
LINE
  5
188
330
1F
100
AcDbEntity
  8
0
  6
Continuous
 62
     7
370
    15
100
AcDbLine
 10
216.425885297
 20
182.1612831221
 30
0.0
 11
215.9319941045
 21
182.1612831221
 31
0.0
  0
LINE
  5
189
330
1F
100
AcDbEntity
  8
0
  6
Continuous
 62
     7
370
    15
100
AcDbLine
 10
150.038102912
 20
182.1612831221
 30
0.0
 11
150.5319941045
 21
182.1612831221
 31
0.0
  0
LINE
  5
18A
330
1F
100
AcDbEntity
  8
0
  6
Continuous
 62
     7
370
    15
100
AcDbLine
 10
150.038102912
 20
182.1612831221
 30
0.0
 11
150.0319941045
 21
182.8612831221
 31
0.0
  0
LINE
  5
18B
330
1F
100
AcDbEntity
  8
0
  6
Continuous
 62
     7
370
    15
100
AcDbLine
 10
153.098102912
 20
182.1612831221
 30
0.0
 11
213.365885297
 21
182.1612831221
 31
0.0
  0
LINE
  5
18C
330
1F
100
AcDbEntity
  8
0
  6
Continuous
 62
     7
370
    15
100
AcDbLine
 10
153.098102912
 20
182.1612831221
 30
0.0
 11
153.098102912
 21
182.8612831221
 31
0.0
  0
LINE
  5
18D
330
1F
100
AcDbEntity
  8
0
  6
Continuous
 62
     7
370
    15
100
AcDbLine
 10
151.698102912
 20
182.8612831221
 30
0.0
 11
151.698102912
 21
182.1612831221
 31
0.0
  0
LINE
  5
18E
330
1F
100
AcDbEntity
  8
0
  6
Continuous
 62
     7
370
    15
100
AcDbLine
 10
151.698102912
 20
182.1612831221
 30
0.0
 11
150.5319941045
 21
182.1612831221
 31
0.0
  0
LINE
  5
18F
330
1F
100
AcDbEntity
  8
0
  6
Continuous
 62
     7
370
    15
100
AcDbLine
 10
214.765885297
 20
182.1612831221
 30
0.0
 11
215.9319941045
 21
182.1612831221
 31
0.0
  0
LINE
  5
190
330
1F
100
AcDbEntity
  8
0
  6
Continuous
 62
     7
370
    15
100
AcDbLine
 10
214.765885297
 20
182.8612831221
 30
0.0
 11
214.765885297
 21
182.1612831221
 31
0.0
  0
LINE
  5
191
330
1F
100
AcDbEntity
  8
0
  6
Continuous
 62
     7
370
    15
100
AcDbLine
 10
213.365885297
 20
182.1612831221
 30
0.0
 11
213.365885297
 21
182.8612831221
 31
0.0
  0
LINE
  5
192
330
1F
100
AcDbEntity
  8
0
  6
Continuous
 62
     7
370
    15
100
AcDbLine
 10
216.7505499988
 20
184.8612831221
 30
0.0
 11
217.1319941045
 21
184.8612831221
 31
0.0
  0
LINE
  5
193
330
1F
100
AcDbEntity
  8
0
  6
Continuous
 62
     7
370
    15
100
AcDbLine
 10
217.5319941045
 20
185.2612831221
 30
0.0
 11
217.9062154342
 21
185.2612831221
 31
0.0
  0
ARC
  5
194
330
1F
100
AcDbEntity
  8
0
  6
Continuous
 62
     7
370
    15
100
AcDbCircle
 10
217.1319941045
 20
185.2612831221
 30
0.0
 40
0.3999999999999773
100
AcDbArc
 50
270.0
 51
0.0
  0
LINE
  5
195
330
1F
100
AcDbEntity
  8
0
  6
Continuous
 62
     7
370
    15
100
AcDbLine
 10
217.9357428067
 20
184.6978672925
 30
0.0
 11
217.9062154342
 21
185.2612831221
 31
0.0
  0
LINE
  5
196
330
1F
100
AcDbEntity
  8
0
  6
Continuous
 62
     7
370
    15
100
AcDbLine
 10
148.9319941045
 20
185.2612831221
 30
0.0
 11
148.5577727748
 21
185.2612831221
 31
0.0
  0
LINE
  5
197
330
1F
100
AcDbEntity
  8
0
  6
Continuous
 62
     7
370
    15
100
AcDbLine
 10
149.7134382102
 20
184.8612831221
 30
0.0
 11
149.3319941045
 21
184.8612831221
 31
0.0
  0
ARC
  5
198
330
1F
100
AcDbEntity
  8
0
  6
Continuous
 62
     7
370
    15
100
AcDbCircle
 10
149.3319941045
 20
185.2612831221
 30
0.0
 40
0.3999999999999773
100
AcDbArc
 50
180.0
 51
270.0
  0
LINE
  5
199
330
1F
100
AcDbEntity
  8
0
  6
Continuous
 62
     7
370
    15
100
AcDbLine
 10
148.5282454023
 20
184.6978672925
 30
0.0
 11
148.5577727748
 21
185.2612831221
 31
0.0
  0
LINE
  5
19A
330
1F
100
AcDbEntity
  8
0
  6
Continuous
 62
     8
370
    15
100
AcDbLine
 10
215.9319941045
 20
182.8612831221
 30
0.0
 11
215.9319941045
 21
182.1612831221
 31
0.0
  0
LINE
  5
19B
330
1F
100
AcDbEntity
  8
0
  6
Continuous
 62
     8
370
    15
100
AcDbLine
 10
150.5319941045
 20
182.8612831221
 30
0.0
 11
150.5319941045
 21
182.1612831221
 31
0.0
  0
SPLINE
  5
19C
330
1F
100
AcDbEntity
  8
0
  6
Continuous
 62
     7
370
    15
100
AcDbSpline
210
0.0
220
0.0
230
1.0
 70
    24
 71
     3
 72
     8
 73
     4
 74
     0
 42
0.000000001
 43
0.00000001
 40
0.5600000000000529
 40
0.5600000000000529
 40
0.5600000000000529
 40
0.5600000000000529
 40
1.0
 40
1.0
 40
1.0
 40
1.0
 10
148.5293796282129
 20
98.6234677385432
 30
0.0
 10
148.5299738716558
 20
98.6234157489785
 30
0.0
 10
148.5308017153571
 20
98.62334332203947
 30
0.0
 10
148.5318633910668
 20
98.62325043745085
 30
0.0
  0
LINE
  5
19D
330
1F
100
AcDbEntity
  8
0
  6
Continuous
 62
     7
370
    15
100
AcDbLine
 10
148.5282454023
 20
98.6235669704
 30
0.0
 11
148.4319941045
 21
100.4601511409
 31
0.0
  0
LINE
  5
19E
330
1F
100
AcDbEntity
  8
0
  6
Continuous
 62
     7
370
    15
100
AcDbLine
 10
148.9313088719
 20
100.4601511409
 30
0.0
 11
149.0275601697
 21
98.6235669704
 31
0.0
  0
SPLINE
  5
19F
330
1F
100
AcDbEntity
  8
0
  6
Continuous
 62
     7
370
    15
100
AcDbSpline
210
0.0
220
0.0
230
1.0
 70
     8
 71
     3
 72
     8
 73
     4
 74
     0
 42
0.000000001
 43
0.00000001
 40
0.0
 40
0.0
 40
0.0
 40
0.0
 40
1.0
 40
1.0
 40
1.0
 40
1.0
 10
148.9676421048068
 20
98.62325043745085
 30
0.0
 10
148.9875413320468
 20
98.62346153878865
 30
0.0
 10
149.0075140755468
 20
98.62356697044865
 30
0.0
 10
149.0275601697268
 20
98.62356697044865
 30
0.0
  0
SPLINE
  5
1A0
330
1F
100
AcDbEntity
  8
0
  6
Continuous
 62
     7
370
    15
100
AcDbSpline
210
0.0
220
0.0
230
1.0
 70
     8
 71
     3
 72
    14
 73
    10
 74
     0
 42
0.000000001
 43
0.00000001
 40
0.0
 40
0.0
 40
0.0
 40
0.0
 40
0.25
 40
0.25
 40
0.5
 40
0.5
 40
0.75
 40
0.75
 40
1.0
 40
1.0
 40
1.0
 40
1.0
 10
148.9676421048061
 20
98.62325043745103
 30
0.0
 10
148.9121909480373
 20
98.62266218277992
 30
0.0
 10
148.8593836875208
 20
98.6218766300837
 30
0.0
 10
148.7590286819496
 20
98.62067978152103
 30
0.0
 10
148.7141142074192
 20
98.62030544792972
 30
0.0
 10
148.635227217945
 20
98.62030434397793
 30
0.0
 10
148.6031437783689
 20
98.62067857561766
 30
0.0
 10
148.5543078031334
 20
98.62187229433268
 30
0.0
 10
148.538587164359
 20
98.62266218351131
 30
0.0
 10
148.5318633910612
 20
98.62325043745103
 30
0.0
  0
LINE
  5
1A1
330
1F
100
AcDbEntity
  8
0
  6
Continuous
 62
     7
370
    15
100
AcDbLine
 10
148.9313088719
 20
100.4601511409
 30
0.0
 11
148.4319941045
 21
100.4601511409
 31
0.0
  0
SPLINE
  5
1A2
330
1F
100
AcDbEntity
  8
0
  6
Continuous
 62
     7
370
    15
100
AcDbSpline
210
0.0
220
0.0
230
1.0
 70
    24
 71
     3
 72
     8
 73
     4
 74
     0
 42
0.000000001
 43
0.00000001
 40
0.5600000000000529
 40
0.5600000000000529
 40
0.5600000000000529
 40
0.5600000000000529
 40
1.0
 40
1.0
 40
1.0
 40
1.0
 10
217.9346085808007
 20
98.6234677385432
 30
0.0
 10
217.9340143373577
 20
98.6234157489785
 30
0.0
 10
217.9331864936564
 20
98.62334332203947
 30
0.0
 10
217.9321248179468
 20
98.62325043745085
 30
0.0
  0
SPLINE
  5
1A3
330
1F
100
AcDbEntity
  8
0
  6
Continuous
 62
     7
370
    15
100
AcDbSpline
210
0.0
220
0.0
230
1.0
 70
     8
 71
     3
 72
    14
 73
    10
 74
     0
 42
0.000000001
 43
0.00000001
 40
0.0
 40
0.0
 40
0.0
 40
0.0
 40
0.25
 40
0.25
 40
0.5
 40
0.5
 40
0.75
 40
0.75
 40
1.0
 40
1.0
 40
1.0
 40
1.0
 10
217.4963461042074
 20
98.62325043745103
 30
0.0
 10
217.551797260976
 20
98.62266218277992
 30
0.0
 10
217.6046045214944
 20
98.62187663008368
 30
0.0
 10
217.7049595270652
 20
98.62067978152102
 30
0.0
 10
217.7498740015953
 20
98.62030544792972
 30
0.0
 10
217.8287609910692
 20
98.62030434397795
 30
0.0
 10
217.8608444306451
 20
98.62067857561766
 30
0.0
 10
217.9096804058803
 20
98.62187229433269
 30
0.0
 10
217.9254010446546
 20
98.62266218351131
 30
0.0
 10
217.9321248179524
 20
98.62325043745103
 30
0.0
  0
SPLINE
  5
1A4
330
1F
100
AcDbEntity
  8
0
  6
Continuous
 62
     7
370
    15
100
AcDbSpline
210
0.0
220
0.0
230
1.0
 70
     8
 71
     3
 72
     8
 73
     4
 74
     0
 42
0.000000001
 43
0.00000001
 40
0.0
 40
0.0
 40
0.0
 40
0.0
 40
1.0
 40
1.0
 40
1.0
 40
1.0
 10
217.4963461042068
 20
98.62325043745085
 30
0.0
 10
217.4764468769668
 20
98.62346153878865
 30
0.0
 10
217.4564741334668
 20
98.62356697044865
 30
0.0
 10
217.4364280392868
 20
98.62356697044865
 30
0.0
  0
LINE
  5
1A5
330
1F
100
AcDbEntity
  8
0
  6
Continuous
 62
     7
370
    15
100
AcDbLine
 10
217.5326793371
 20
100.4601511409
 30
0.0
 11
217.4364280393
 21
98.6235669704
 31
0.0
  0
LINE
  5
1A6
330
1F
100
AcDbEntity
  8
0
  6
Continuous
 62
     7
370
    15
100
AcDbLine
 10
217.9357428067
 20
98.6235669704
 30
0.0
 11
218.0319941045
 21
100.4601511409
 31
0.0
  0
LINE
  5
1A7
330
1F
100
AcDbEntity
  8
0
  6
Continuous
 62
     7
370
    15
100
AcDbLine
 10
217.5326793371
 20
100.4601511409
 30
0.0
 11
218.0319941045
 21
100.4601511409
 31
0.0
  0
LINE
  5
1A8
330
1F
100
AcDbEntity
  8
0
  6
Continuous
 62
     7
370
    15
100
AcDbLine
 10
161.1319941045
 20
98.6235669704
 30
0.0
 11
205.3319941045
 21
98.6235669704
 31
0.0
  0
LINE
  5
1A9
330
1F
100
AcDbEntity
  8
0
  6
Continuous
 62
     7
370
    15
100
AcDbLine
 10
161.1319941045
 20
98.6235669704
 30
0.0
 11
161.1319941045
 21
98.0601511409
 31
0.0
  0
LINE
  5
1AA
330
1F
100
AcDbEntity
  8
0
  6
Continuous
 62
     7
370
    15
100
AcDbLine
 10
161.1319941045
 20
98.0601511409
 30
0.0
 11
155.7319941045
 21
98.0601511409
 31
0.0
  0
LINE
  5
1AB
330
1F
100
AcDbEntity
  8
0
  6
Continuous
 62
     7
370
    15
100
AcDbLine
 10
155.7319941045
 20
98.0601511409
 30
0.0
 11
155.7319941045
 21
98.6235669704
 31
0.0
  0
LINE
  5
1AC
330
1F
100
AcDbEntity
  8
0
  6
Continuous
 62
     7
370
    15
100
AcDbLine
 10
149.0275601697
 20
98.6235669704
 30
0.0
 11
155.7319941045
 21
98.6235669704
 31
0.0
  0
LINE
  5
1AD
330
1F
100
AcDbEntity
  8
0
  6
Continuous
 62
     7
370
    15
100
AcDbLine
 10
217.4364280393
 20
98.6235669704
 30
0.0
 11
210.7319941045
 21
98.6235669704
 31
0.0
  0
LINE
  5
1AE
330
1F
100
AcDbEntity
  8
0
  6
Continuous
 62
     7
370
    15
100
AcDbLine
 10
210.7319941045
 20
98.0601511409
 30
0.0
 11
210.7319941045
 21
98.6235669704
 31
0.0
  0
LINE
  5
1AF
330
1F
100
AcDbEntity
  8
0
  6
Continuous
 62
     7
370
    15
100
AcDbLine
 10
205.3319941045
 20
98.0601511409
 30
0.0
 11
210.7319941045
 21
98.0601511409
 31
0.0
  0
LINE
  5
1B0
330
1F
100
AcDbEntity
  8
0
  6
Continuous
 62
     7
370
    15
100
AcDbLine
 10
205.3319941045
 20
98.6235669704
 30
0.0
 11
205.3319941045
 21
98.0601511409
 31
0.0
  0
LINE
  5
1B1
330
1F
100
AcDbEntity
  8
0
  6
Continuous
 62
     7
370
    15
100
AcDbLine
 10
217.5326793371
 20
100.4601511409
 30
0.0
 11
148.9313088719
 21
100.4601511409
 31
0.0
  0
LINE
  5
1B2
330
1F
100
AcDbEntity
  8
0
  6
Continuous
 62
     7
370
    15
100
AcDbLine
 10
148.9676421048
 20
98.6232504375
 30
0.0
 11
150.1531899922
 21
98.5195284372
 31
0.0
  0
SPLINE
  5
1B3
330
1F
100
AcDbEntity
  8
0
  6
Continuous
 62
     7
370
    15
100
AcDbSpline
210
0.0
220
0.0
230
1.0
 70
     8
 71
     3
 72
    12
 73
     8
 74
     0
 42
0.000000001
 43
0.00000001
 40
0.0
 40
0.0
 40
0.0
 40
0.0
 40
0.2499999999999956
 40
0.2499999999999956
 40
0.4999999999999911
 40
0.4999999999999911
 40
1.0
 40
1.0
 40
1.0
 40
1.0
 10
149.7174112784254
 20
98.5195284372407
 30
0.0
 10
149.7264648460173
 20
98.51873635271193
 30
0.0
 10
149.7436288151219
 20
98.51784221141409
 30
0.0
 10
149.7939490098719
 20
98.51651870868525
 30
0.0
 10
149.8263518942083
 20
98.51612042520678
 30
0.0
 10
149.942621507417
 20
98.51611400184505
 30
0.0
 10
150.0441226776757
 20
98.51794427648771
 30
0.0
 10
150.1531899921661
 20
98.51952843723964
 30
0.0
  0
LINE
  5
1B4
330
1F
100
AcDbEntity
  8
0
  6
Continuous
 62
     7
370
    15
100
AcDbLine
 10
149.7174112784
 20
98.5195284372
 30
0.0
 11
148.5318633911
 21
98.6232504375
 31
0.0
  0
LINE
  5
1B5
330
1F
100
AcDbEntity
  8
0
  6
Continuous
 62
     7
370
    15
100
AcDbLine
 10
216.7465769306
 20
98.5195284372
 30
0.0
 11
217.9321248179
 21
98.6232504375
 31
0.0
  0
SPLINE
  5
1B6
330
1F
100
AcDbEntity
  8
0
  6
Continuous
 62
     7
370
    15
100
AcDbSpline
210
0.0
220
0.0
230
1.0
 70
     8
 71
     3
 72
    12
 73
     8
 74
     0
 42
0.000000001
 43
0.00000001
 40
0.0
 40
0.0
 40
0.0
 40
0.0
 40
0.2499999999999933
 40
0.2499999999999933
 40
0.4999999999999866
 40
0.4999999999999866
 40
1.0
 40
1.0
 40
1.0
 40
1.0
 10
216.7465769305892
 20
98.51952843723964
 30
0.0
 10
216.7375233629974
 20
98.51873635271087
 30
0.0
 10
216.7203593938914
 20
98.51784221141409
 30
0.0
 10
216.6700391991414
 20
98.51651870868525
 30
0.0
 10
216.6376363148051
 20
98.51612042520678
 30
0.0
 10
216.5213667015968
 20
98.51611400184505
 30
0.0
 10
216.4198655313373
 20
98.51794427648773
 30
0.0
 10
216.3107982168472
 20
98.51952843723964
 30
0.0
  0
LINE
  5
1B7
330
1F
100
AcDbEntity
  8
0
  6
Continuous
 62
     7
370
    15
100
AcDbLine
 10
217.4963461042
 20
98.6232504375
 30
0.0
 11
216.3107982168
 21
98.5195284372
 31
0.0
  0
LINE
  5
1B8
330
1F
100
AcDbEntity
  8
0
  6
Continuous
 62
     7
370
    15
100
AcDbLine
 10
150.2395673968
 20
98.5201511409
 30
0.0
 11
155.7319941045
 21
98.5201511409
 31
0.0
  0
SPLINE
  5
1B9
330
1F
100
AcDbEntity
  8
0
  6
Continuous
 62
     7
370
    15
100
AcDbSpline
210
0.0
220
0.0
230
1.0
 70
     8
 71
     3
 72
    10
 73
     6
 74
     0
 42
0.000000001
 43
0.00000001
 40
0.0
 40
0.0
 40
0.0
 40
0.0
 40
0.3351475348405297
 40
0.6684740073109985
 40
1.0
 40
1.0
 40
1.0
 40
1.0
 10
150.2395673968468
 20
98.52015114086431
 30
0.0
 10
150.2298746681926
 20
98.52013708539405
 30
0.0
 10
150.2105418774312
 20
98.52010905082552
 30
0.0
 10
150.1816918838273
 20
98.51990035009338
 30
0.0
 10
150.1626734548527
 20
98.51965218417203
 30
0.0
 10
150.1531899921664
 20
98.5195284372391
 30
0.0
  0
LINE
  5
1BA
330
1F
100
AcDbEntity
  8
0
  6
Continuous
 62
     7
370
    15
100
AcDbLine
 10
161.1319941045
 20
98.5201511409
 30
0.0
 11
205.3319941045
 21
98.5201511409
 31
0.0
  0
LINE
  5
1BB
330
1F
100
AcDbEntity
  8
0
  6
Continuous
 62
     7
370
    15
100
AcDbLine
 10
216.2244208122
 20
98.5201511409
 30
0.0
 11
210.7319941045
 21
98.5201511409
 31
0.0
  0
ELLIPSE
  5
1BC
330
1F
100
AcDbEntity
  8
0
  6
Continuous
 62
     7
370
    15
100
AcDbEllipse
 10
216.2205224825
 20
98.4735046366
 30
0.0
 11
0.5307396686217487
 21
0.0003452897596503135
 31
0.0
210
0.0
220
0.0
230
1.0
 40
0.0878872054
 41
1.399813897481162
 42
1.563393994763929
  0
SPLINE
  5
1BD
330
1F
100
AcDbEntity
  8
0
  6
Continuous
 62
     7
370
    15
100
AcDbSpline
210
0.0
220
0.0
230
1.0
 70
     8
 71
     3
 72
    20
 73
    16
 74
     0
 42
0.000000001
 43
0.00000001
 40
0.0
 40
0.0
 40
0.0
 40
0.0
 40
0.1250000000000018
 40
0.1250000000000018
 40
0.2500000000000036
 40
0.2500000000000036
 40
0.3750000000000053
 40
0.3750000000000053
 40
0.5000000000000071
 40
0.5000000000000071
 40
0.7500000000000036
 40
0.7500000000000036
 40
0.8750000000000018
 40
0.8750000000000018
 40
1.0
 40
1.0
 40
1.0
 40
1.0
 10
149.9021409455358
 20
94.85948845403644
 30
0.0
 10
149.9022136454978
 20
94.85810307024535
 30
0.0
 10
149.9056997124905
 20
94.85689893379056
 30
0.0
 10
149.9192800266636
 20
94.85469615520437
 30
0.0
 10
149.9295450556539
 20
94.85369022067118
 30
0.0
 10
149.9560962393504
 20
94.85207990651571
 30
0.0
 10
149.9723461550681
 20
94.85150703275637
 30
0.0
 10
150.0108383960155
 20
94.85072446045496
 30
0.0
 10
150.0331240266511
 20
94.85050601079665
 30
0.0
 10
150.1061875859746
 20
94.85051238707017
 30
0.0
 10
150.1651502075374
 20
94.85128247614131
 30
0.0
 10
150.2604909465579
 20
94.85369005337287
 30
0.0
 10
150.2939242704325
 20
94.85467844527912
 30
0.0
 10
150.3620389585636
 20
94.85687794793905
 30
0.0
 10
150.3965155118906
 20
94.85808057763079
 30
0.0
 10
150.4314137951289
 20
94.85947306711562
 30
0.0
  0
LINE
  5
1BE
330
1F
100
AcDbEntity
  8
0
  6
Continuous
 62
     7
370
    15
100
AcDbLine
 10
149.9021356564
 20
94.8595893768
 30
0.0
 11
149.7102937434
 21
98.5201511409
 31
0.0
  0
LINE
  5
1BF
330
1F
100
AcDbEntity
  8
0
  6
Continuous
 62
     7
370
    15
100
AcDbLine
 10
150.2395673968
 20
98.5201511409
 30
0.0
 11
150.4314092144
 21
94.8595875516
 31
0.0
  0
SPLINE
  5
1C0
330
1F
100
AcDbEntity
  8
0
  6
Continuous
 62
     7
370
    15
100
AcDbSpline
210
0.0
220
0.0
230
1.0
 70
     8
 71
     3
 72
    20
 73
    16
 74
     0
 42
0.000000001
 43
0.00000001
 40
0.0
 40
0.0
 40
0.0
 40
0.0
 40
0.1249999999999982
 40
0.1249999999999982
 40
0.2499999999999964
 40
0.2499999999999964
 40
0.3749999999999947
 40
0.3749999999999947
 40
0.4999999999999929
 40
0.4999999999999929
 40
0.7499999999999964
 40
0.7499999999999964
 40
0.8749999999999982
 40
0.8749999999999982
 40
1.0
 40
1.0
 40
1.0
 40
1.0
 10
216.5618472634777
 20
94.85948845403642
 30
0.0
 10
216.5617745635157
 20
94.85810307024533
 30
0.0
 10
216.558288496523
 20
94.85689893379057
 30
0.0
 10
216.54470818235
 20
94.8546961552044
 30
0.0
 10
216.5344431533597
 20
94.85369022067117
 30
0.0
 10
216.5078919696631
 20
94.85207990651571
 30
0.0
 10
216.4916420539455
 20
94.85150703275637
 30
0.0
 10
216.4531498129981
 20
94.85072446045496
 30
0.0
 10
216.4308641823624
 20
94.85050601079668
 30
0.0
 10
216.357800623039
 20
94.85051238707017
 30
0.0
 10
216.2988380014761
 20
94.85128247614132
 30
0.0
 10
216.2034972624557
 20
94.85369005337287
 30
0.0
 10
216.170063938581
 20
94.85467844527912
 30
0.0
 10
216.10194925045
 20
94.85687794793905
 30
0.0
 10
216.0674726971229
 20
94.8580805776308
 30
0.0
 10
216.0325744138846
 20
94.85947306711562
 30
0.0
  0
LINE
  5
1C1
330
1F
100
AcDbEntity
  8
0
  6
Continuous
 62
     7
370
    15
100
AcDbLine
 10
216.2244208122
 20
98.5201511409
 30
0.0
 11
216.0325789946
 21
94.8595875516
 31
0.0
  0
LINE
  5
1C2
330
1F
100
AcDbEntity
  8
0
  6
Continuous
 62
     7
370
    15
100
AcDbLine
 10
216.5618525526
 20
94.8595893768
 30
0.0
 11
216.7536944656
 21
98.5201511409
 31
0.0
  0
LINE
  5
1C3
330
1F
100
AcDbEntity
  8
0
  6
Continuous
 62
     7
370
    15
100
AcDbLine
 10
150.4314092144
 20
94.8596029548
 30
0.0
 11
216.0325789946
 21
94.8596029548
 31
0.0
  0
LINE
  5
1C4
330
1F
100
AcDbEntity
  8
0
  6
Continuous
 62
     7
370
    15
100
AcDbLine
 10
150.4314092144
 20
94.8596029529
 30
0.0
 11
150.4314085918
 21
94.4601511404
 31
0.0
  0
SPLINE
  5
1C5
330
1F
100
AcDbEntity
  8
0
  6
Continuous
 62
     7
370
    15
100
AcDbSpline
210
0.0
220
0.0
230
1.0
 70
    24
 71
     3
 72
    13
 73
     9
 74
     0
 42
0.000000001
 43
0.00000001
 40
0.110496518794988
 40
0.110496518794988
 40
0.110496518794988
 40
0.110496518794988
 40
0.1666666666667
 40
0.3333333333333
 40
0.5
 40
0.6666666666667
 40
0.8333333333333
 40
0.8986638252902908
 40
0.8986638252902908
 40
0.8986638252902908
 40
0.8986638252902908
 10
150.323046754235
 20
94.46015114086462
 30
0.0
 10
150.3230539558117
 20
94.46015114086464
 30
0.0
 10
150.3239866099946
 20
94.46015114086472
 30
0.0
 10
150.3317435730241
 20
94.46015114086497
 30
0.0
 10
150.3526539116136
 20
94.46015114086453
 30
0.0
 10
150.3821702970506
 20
94.46015114086504
 30
0.0
 10
150.4099932667944
 20
94.4601511408655
 30
0.0
 10
150.4267007355679
 20
94.46015114086545
 30
0.0
 10
150.4314085576054
 20
94.46015114086542
 30
0.0
  0
LINE
  5
1C6
330
1F
100
AcDbEntity
  8
0
  6
Continuous
 62
     7
370
    15
100
AcDbLine
 10
149.9021349464
 20
94.8596029533
 30
0.0
 11
150.3230693277
 21
94.4601511405
 31
0.0
  0
LINE
  5
1C7
330
1F
100
AcDbEntity
  8
0
  6
Continuous
 62
     7
370
    15
100
AcDbLine
 10
216.5618532626
 20
94.8596029533
 30
0.0
 11
216.1409188813
 21
94.4601511405
 31
0.0
  0
SPLINE
  5
1C8
330
1F
100
AcDbEntity
  8
0
  6
Continuous
 62
     7
370
    15
100
AcDbSpline
210
0.0
220
0.0
230
1.0
 70
    24
 71
     3
 72
    13
 73
     9
 74
     0
 42
0.000000001
 43
0.00000001
 40
0.1104965187950548
 40
0.1104965187950548
 40
0.1104965187950548
 40
0.1104965187950548
 40
0.1666666666667
 40
0.3333333333333
 40
0.5
 40
0.6666666666667
 40
0.8333333333333
 40
0.8986638252902283
 40
0.8986638252902283
 40
0.8986638252902283
 40
0.8986638252902283
 10
216.1409414547786
 20
94.46015114086462
 30
0.0
 10
216.1409342532018
 20
94.46015114086464
 30
0.0
 10
216.1400015990189
 20
94.46015114086472
 30
0.0
 10
216.1322446359894
 20
94.46015114086497
 30
0.0
 10
216.1113342973999
 20
94.46015114086453
 30
0.0
 10
216.0818179119629
 20
94.46015114086504
 30
0.0
 10
216.0539949422191
 20
94.4601511408655
 30
0.0
 10
216.0372874734457
 20
94.46015114086545
 30
0.0
 10
216.0325796514082
 20
94.46015114086542
 30
0.0
  0
LINE
  5
1C9
330
1F
100
AcDbEntity
  8
0
  6
Continuous
 62
     7
370
    15
100
AcDbLine
 10
216.0325789946
 20
94.8596029529
 30
0.0
 11
216.0325796172
 21
94.4601511404
 31
0.0
  0
LINE
  5
1CA
330
1F
100
AcDbEntity
  8
0
  6
Continuous
 62
     7
370
    15
100
AcDbLine
 10
216.0325796172
 20
94.4601511409
 30
0.0
 11
150.4314085918
 21
94.4601511409
 31
0.0
  0
LINE
  5
1CB
330
1F
100
AcDbEntity
  8
0
  6
Continuous
 62
     7
370
    15
100
AcDbLine
 10
216.425885297
 20
101.1601511409
 30
0.0
 11
215.9319941045
 21
101.1601511409
 31
0.0
  0
LINE
  5
1CC
330
1F
100
AcDbEntity
  8
0
  6
Continuous
 62
     7
370
    15
100
AcDbLine
 10
216.425885297
 20
101.1601511409
 30
0.0
 11
216.4319941045
 21
100.4601511409
 31
0.0
  0
LINE
  5
1CD
330
1F
100
AcDbEntity
  8
0
  6
Continuous
 62
     7
370
    15
100
AcDbLine
 10
150.0319941045
 20
100.4601511409
 30
0.0
 11
150.038102912
 21
101.1601511409
 31
0.0
  0
LINE
  5
1CE
330
1F
100
AcDbEntity
  8
0
  6
Continuous
 62
     7
370
    15
100
AcDbLine
 10
150.038102912
 20
101.1601511409
 30
0.0
 11
150.5319941045
 21
101.1601511409
 31
0.0
  0
LINE
  5
1CF
330
1F
100
AcDbEntity
  8
0
  6
Continuous
 62
     7
370
    15
100
AcDbLine
 10
151.698102912
 20
101.1601511409
 30
0.0
 11
150.5319941045
 21
101.1601511409
 31
0.0
  0
LINE
  5
1D0
330
1F
100
AcDbEntity
  8
0
  6
Continuous
 62
     7
370
    15
100
AcDbLine
 10
151.698102912
 20
100.4601511409
 30
0.0
 11
151.698102912
 21
101.1601511409
 31
0.0
  0
LINE
  5
1D1
330
1F
100
AcDbEntity
  8
0
  6
Continuous
 62
     7
370
    15
100
AcDbLine
 10
153.098102912
 20
101.1601511409
 30
0.0
 11
153.098102912
 21
100.4601511409
 31
0.0
  0
LINE
  5
1D2
330
1F
100
AcDbEntity
  8
0
  6
Continuous
 62
     7
370
    15
100
AcDbLine
 10
213.365885297
 20
101.1601511409
 30
0.0
 11
153.098102912
 21
101.1601511409
 31
0.0
  0
LINE
  5
1D3
330
1F
100
AcDbEntity
  8
0
  6
Continuous
 62
     7
370
    15
100
AcDbLine
 10
213.365885297
 20
101.1601511409
 30
0.0
 11
213.365885297
 21
100.4601511409
 31
0.0
  0
LINE
  5
1D4
330
1F
100
AcDbEntity
  8
0
  6
Continuous
 62
     7
370
    15
100
AcDbLine
 10
214.765885297
 20
100.4601511409
 30
0.0
 11
214.765885297
 21
101.1601511409
 31
0.0
  0
LINE
  5
1D5
330
1F
100
AcDbEntity
  8
0
  6
Continuous
 62
     7
370
    15
100
AcDbLine
 10
214.765885297
 20
101.1601511409
 30
0.0
 11
215.9319941045
 21
101.1601511409
 31
0.0
  0
LINE
  5
1D6
330
1F
100
AcDbEntity
  8
0
  6
Continuous
 62
     7
370
    15
100
AcDbLine
 10
149.7134382102
 20
98.4601511409
 30
0.0
 11
149.3319941045
 21
98.4601511409
 31
0.0
  0
ARC
  5
1D7
330
1F
100
AcDbEntity
  8
0
  6
Continuous
 62
     7
370
    15
100
AcDbCircle
 10
149.3319941045
 20
98.0601511409
 30
0.0
 40
0.3999999999999915
100
AcDbArc
 50
90.0
 51
180.0
  0
LINE
  5
1D8
330
1F
100
AcDbEntity
  8
0
  6
Continuous
 62
     7
370
    15
100
AcDbLine
 10
148.9319941045
 20
98.0601511409
 30
0.0
 11
148.5577727748
 21
98.0601511409
 31
0.0
  0
LINE
  5
1D9
330
1F
100
AcDbEntity
  8
0
  6
Continuous
 62
     7
370
    15
100
AcDbLine
 10
148.5282454023
 20
98.6235669704
 30
0.0
 11
148.5577727748
 21
98.0601511409
 31
0.0
  0
LINE
  5
1DA
330
1F
100
AcDbEntity
  8
0
  6
Continuous
 62
     7
370
    15
100
AcDbLine
 10
217.5319941045
 20
98.0601511409
 30
0.0
 11
217.9062154342
 21
98.0601511409
 31
0.0
  0
ARC
  5
1DB
330
1F
100
AcDbEntity
  8
0
  6
Continuous
 62
     7
370
    15
100
AcDbCircle
 10
217.1319941045
 20
98.0601511409
 30
0.0
 40
0.3999999999999915
100
AcDbArc
 50
0.0
 51
90.0
  0
LINE
  5
1DC
330
1F
100
AcDbEntity
  8
0
  6
Continuous
 62
     7
370
    15
100
AcDbLine
 10
216.7505499988
 20
98.4601511409
 30
0.0
 11
217.1319941045
 21
98.4601511409
 31
0.0
  0
LINE
  5
1DD
330
1F
100
AcDbEntity
  8
0
  6
Continuous
 62
     7
370
    15
100
AcDbLine
 10
217.9357428067
 20
98.6235669704
 30
0.0
 11
217.9062154342
 21
98.0601511409
 31
0.0
  0
LINE
  5
1DE
330
1F
100
AcDbEntity
  8
0
  6
Continuous
 62
     8
370
    15
100
AcDbLine
 10
215.9319941045
 20
100.4601511409
 30
0.0
 11
215.9319941045
 21
101.1601511409
 31
0.0
  0
LINE
  5
1DF
330
1F
100
AcDbEntity
  8
0
  6
Continuous
 62
     8
370
    15
100
AcDbLine
 10
150.5319941045
 20
101.1601511409
 30
0.0
 11
150.5319941045
 21
100.4601511409
 31
0.0
  0
SPLINE
  5
1E0
330
1F
100
AcDbEntity
  8
0
  6
Continuous
 62
     7
370
    15
100
AcDbSpline
210
0.0
220
0.0
230
1.0
 70
     8
 71
     3
 72
     8
 73
     4
 74
     0
 42
0.000000001
 43
0.00000001
 40
0.0
 40
0.0
 40
0.0
 40
0.0
 40
1.0
 40
1.0
 40
1.0
 40
1.0
 10
234.3153594049744
 20
117.6574385751802
 30
0.0
 10
234.3153594049744
 20
117.6373924810002
 30
0.0
 10
234.3154648366344
 20
117.6174197375002
 30
0.0
 10
234.3156759379723
 20
117.5975205102602
 30
0.0
  0
SPLINE
  5
1E1
330
1F
100
AcDbEntity
  8
0
  6
Continuous
 62
     7
370
    15
100
AcDbSpline
210
0.0
220
0.0
230
1.0
 70
     8
 71
     3
 72
    14
 73
    10
 74
     0
 42
0.000000001
 43
0.00000001
 40
0.0
 40
0.0
 40
0.0
 40
0.0
 40
0.25
 40
0.25
 40
0.5
 40
0.5
 40
0.75
 40
0.75
 40
1.0
 40
1.0
 40
1.0
 40
1.0
 10
234.3156759379721
 20
117.1617417965146
 30
0.0
 10
234.3162641926432
 20
117.1684655781723
 30
0.0
 10
234.3170497453394
 20
117.1840591036525
 30
0.0
 10
234.3182465939021
 20
117.2329228076979
 30
0.0
 10
234.3186209274934
 20
117.2649434068135
 30
0.0
 10
234.3186220314452
 20
117.3437896728157
 30
0.0
 10
234.3182477998054
 20
117.3887690185521
 30
0.0
 10
234.3170540810905
 20
117.4889353265711
 30
0.0
 10
234.3162641919118
 20
117.5420694224353
 30
0.0
 10
234.3156759379721
 20
117.5975205102595
 30
0.0
  0
LINE
  5
1E2
330
1F
100
AcDbEntity
  8
0
  6
Continuous
 62
     7
370
    15
100
AcDbLine
 10
232.4787752346
 20
117.06187251
 30
0.0
 11
234.315359405
 21
117.1581238078
 31
0.0
  0
LINE
  5
1E3
330
1F
100
AcDbEntity
  8
0
  6
Continuous
 62
     7
370
    15
100
AcDbLine
 10
234.315359405
 20
117.6574385752
 30
0.0
 11
232.4787752346
 21
117.5611872773
 31
0.0
  0
LINE
  5
1E4
330
1F
100
AcDbEntity
  8
0
  6
Continuous
 62
     7
370
    15
100
AcDbLine
 10
232.4787752346
 20
117.06187251
 30
0.0
 11
232.4787752346
 21
117.5611872773
 31
0.0
  0
SPLINE
  5
1E5
330
1F
100
AcDbEntity
  8
0
  6
Continuous
 62
     7
370
    15
100
AcDbSpline
210
0.0
220
0.0
230
1.0
 70
     8
 71
     3
 72
     8
 73
     4
 74
     0
 42
0.000000001
 43
0.00000001
 40
0.0
 40
0.0
 40
0.0
 40
0.0
 40
1.0
 40
1.0
 40
1.0
 40
1.0
 10
234.3153594049744
 20
166.0663064447401
 30
0.0
 10
234.3153594049744
 20
166.0863525389202
 30
0.0
 10
234.3154648366344
 20
166.1063252824202
 30
0.0
 10
234.3156759379723
 20
166.1262245096602
 30
0.0
  0
LINE
  5
1E6
330
1F
100
AcDbEntity
  8
0
  6
Continuous
 62
     7
370
    15
100
AcDbLine
 10
234.315359405
 20
166.0663064447
 30
0.0
 11
232.4787752346
 21
166.1625577426
 31
0.0
  0
LINE
  5
1E7
330
1F
100
AcDbEntity
  8
0
  6
Continuous
 62
     7
370
    15
100
AcDbLine
 10
232.4787752346
 20
166.66187251
 30
0.0
 11
234.315359405
 21
166.5656212121
 31
0.0
  0
SPLINE
  5
1E8
330
1F
100
AcDbEntity
  8
0
  6
Continuous
 62
     7
370
    15
100
AcDbSpline
210
0.0
220
0.0
230
1.0
 70
     8
 71
     3
 72
    14
 73
    10
 74
     0
 42
0.000000001
 43
0.00000001
 40
0.0
 40
0.0
 40
0.0
 40
0.0
 40
0.25
 40
0.25
 40
0.5
 40
0.5
 40
0.75
 40
0.75
 40
1.0
 40
1.0
 40
1.0
 40
1.0
 10
234.3156759379721
 20
166.5620032234058
 30
0.0
 10
234.3162641926432
 20
166.555279441748
 30
0.0
 10
234.3170497453394
 20
166.5396859162677
 30
0.0
 10
234.3182465939021
 20
166.490822212222
 30
0.0
 10
234.3186209274934
 20
166.4588016131063
 30
0.0
 10
234.3186220314452
 20
166.3799553471036
 30
0.0
 10
234.3182477998054
 20
166.3349760013669
 30
0.0
 10
234.3170540810904
 20
166.2348096933474
 30
0.0
 10
234.3162641919118
 20
166.1816755974852
 30
0.0
 10
234.3156759379721
 20
166.1262245096609
 30
0.0
  0
LINE
  5
1E9
330
1F
100
AcDbEntity
  8
0
  6
Continuous
 62
     7
370
    15
100
AcDbLine
 10
232.4787752346
 20
166.66187251
 30
0.0
 11
232.4787752346
 21
166.1625577426
 31
0.0
  0
LINE
  5
1EA
330
1F
100
AcDbEntity
  8
0
  6
Continuous
 62
     7
370
    15
100
AcDbLine
 10
234.315359405
 20
144.56187251
 30
0.0
 11
234.315359405
 21
166.0663064447
 31
0.0
  0
LINE
  5
1EB
330
1F
100
AcDbEntity
  8
0
  6
Continuous
 62
     7
370
    15
100
AcDbLine
 10
234.315359405
 20
144.56187251
 30
0.0
 11
234.8787752346
 21
144.56187251
 31
0.0
  0
LINE
  5
1EC
330
1F
100
AcDbEntity
  8
0
  6
Continuous
 62
     7
370
    15
100
AcDbLine
 10
234.8787752346
 20
144.56187251
 30
0.0
 11
234.8787752346
 21
139.16187251
 31
0.0
  0
LINE
  5
1ED
330
1F
100
AcDbEntity
  8
0
  6
Continuous
 62
     7
370
    15
100
AcDbLine
 10
234.315359405
 20
139.16187251
 30
0.0
 11
234.8787752346
 21
139.16187251
 31
0.0
  0
LINE
  5
1EE
330
1F
100
AcDbEntity
  8
0
  6
Continuous
 62
     7
370
    15
100
AcDbLine
 10
234.315359405
 20
139.16187251
 30
0.0
 11
234.315359405
 21
117.6574385752
 31
0.0
  0
LINE
  5
1EF
330
1F
100
AcDbEntity
  8
0
  6
Continuous
 62
     7
370
    15
100
AcDbLine
 10
232.4787752346
 20
166.1625577426
 30
0.0
 11
232.4787752346
 21
117.5611872773
 31
0.0
  0
LINE
  5
1F0
330
1F
100
AcDbEntity
  8
0
  6
Continuous
 62
     7
370
    15
100
AcDbLine
 10
234.315675938
 20
166.5620032234
 30
0.0
 11
234.4193979382
 21
165.376455336
 31
0.0
  0
SPLINE
  5
1F1
330
1F
100
AcDbEntity
  8
0
  6
Continuous
 62
     7
370
    15
100
AcDbSpline
210
0.0
220
0.0
230
1.0
 70
     8
 71
     3
 72
    12
 73
     8
 74
     0
 42
0.000000001
 43
0.00000001
 40
0.0
 40
0.0
 40
0.0
 40
0.0
 40
0.2499999999999956
 40
0.2499999999999956
 40
0.4999999999999911
 40
0.4999999999999911
 40
1.0
 40
1.0
 40
1.0
 40
1.0
 10
234.4193979381824
 20
164.9406766223004
 30
0.0
 10
234.4201900227112
 20
164.9952105654615
 30
0.0
 10
234.421084164009
 20
165.046934976017
 30
0.0
 10
234.4224076667379
 20
165.1448538789056
 30
0.0
 10
234.4228059502163
 20
165.189274153068
 30
0.0
 10
234.422812373578
 20
165.3057483758133
 30
0.0
 10
234.4209820989354
 20
165.3583482957926
 30
0.0
 10
234.4193979381834
 20
165.3764553360426
 30
0.0
  0
LINE
  5
1F2
330
1F
100
AcDbEntity
  8
0
  6
Continuous
 62
     7
370
    15
100
AcDbLine
 10
234.4193979382
 20
164.9406766223
 30
0.0
 11
234.315675938
 21
166.1262245097
 31
0.0
  0
LINE
  5
1F3
330
1F
100
AcDbEntity
  8
0
  6
Continuous
 62
     7
370
    15
100
AcDbLine
 10
234.4193979382
 20
118.7830683976
 30
0.0
 11
234.315675938
 21
117.5975205103
 31
0.0
  0
SPLINE
  5
1F4
330
1F
100
AcDbEntity
  8
0
  6
Continuous
 62
     7
370
    15
100
AcDbSpline
210
0.0
220
0.0
230
1.0
 70
     8
 71
     3
 72
    12
 73
     8
 74
     0
 42
0.000000001
 43
0.00000001
 40
0.0
 40
0.0
 40
0.0
 40
0.0
 40
0.2499999999999933
 40
0.2499999999999933
 40
0.4999999999999866
 40
0.4999999999999866
 40
1.0
 40
1.0
 40
1.0
 40
1.0
 10
234.4193979381834
 20
118.7830683976197
 30
0.0
 10
234.4201900227123
 20
118.7285344544587
 30
0.0
 10
234.421084164009
 20
118.6768100439027
 30
0.0
 10
234.4224076667379
 20
118.5788911410144
 30
0.0
 10
234.4228059502163
 20
118.5344708668522
 30
0.0
 10
234.422812373578
 20
118.4179966441073
 30
0.0
 10
234.4209820989354
 20
118.3653967241275
 30
0.0
 10
234.4193979381834
 20
118.3472896838777
 30
0.0
  0
LINE
  5
1F5
330
1F
100
AcDbEntity
  8
0
  6
Continuous
 62
     7
370
    15
100
AcDbLine
 10
234.315675938
 20
117.1617417965
 30
0.0
 11
234.4193979382
 21
118.3472896839
 31
0.0
  0
LINE
  5
1F6
330
1F
100
AcDbEntity
  8
0
  6
Continuous
 62
     7
370
    15
100
AcDbLine
 10
234.4187752346
 20
139.16187251
 30
0.0
 11
234.4187752346
 21
118.8694458023
 31
0.0
  0
ELLIPSE
  5
1F7
330
1F
100
AcDbEntity
  8
0
  6
Continuous
 62
     7
370
    15
100
AcDbEllipse
 10
234.4654217388
 20
118.8733441319
 30
0.0
 11
0.0003452897596503135
 21
0.5307396686217629
 31
0.0
210
0.0
220
0.0
230
1.0
 40
0.0878872054
 41
1.578198658824683
 42
1.741778756109586
  0
SPLINE
  5
1F8
330
1F
100
AcDbEntity
  8
0
  6
Continuous
 62
     7
370
    15
100
AcDbSpline
210
0.0
220
0.0
230
1.0
 70
     8
 71
     3
 72
    10
 73
     6
 74
     0
 42
0.000000001
 43
0.00000001
 40
0.0
 40
0.0
 40
0.0
 40
0.0
 40
0.3315368450509193
 40
0.664863316821003
 40
1.0
 40
1.0
 40
1.0
 40
1.0
 10
234.419397938184
 20
164.9406766223005
 30
0.0
 10
234.4192741855822
 20
164.9311928483618
 30
0.0
 10
234.4190260123656
 20
164.912174107335
 30
0.0
 10
234.4188173016998
 20
164.8833241092121
 30
0.0
 10
234.418789282232
 20
164.8639916324029
 30
0.0
 10
234.4187752345595
 20
164.854299217634
 30
0.0
  0
LINE
  5
1F9
330
1F
100
AcDbEntity
  8
0
  6
Continuous
 62
     7
370
    15
100
AcDbLine
 10
234.4187752346
 20
144.56187251
 30
0.0
 11
234.4187752346
 21
164.8542992176
 31
0.0
  0
SPLINE
  5
1FA
330
1F
100
AcDbEntity
  8
0
  6
Continuous
 62
     7
370
    15
100
AcDbSpline
210
0.0
220
0.0
230
1.0
 70
     8
 71
     3
 72
    20
 73
    16
 74
     0
 42
0.000000001
 43
0.00000001
 40
0.0
 40
0.0
 40
0.0
 40
0.0
 40
0.1250000000000018
 40
0.1250000000000018
 40
0.2500000000000036
 40
0.2500000000000036
 40
0.3750000000000053
 40
0.3750000000000053
 40
0.5000000000000071
 40
0.5000000000000071
 40
0.7500000000000036
 40
0.7500000000000036
 40
0.8750000000000018
 40
0.8750000000000018
 40
1.0
 40
1.0
 40
1.0
 40
1.0
 10
238.0794379213867
 20
164.6624534583659
 30
0.0
 10
238.0808233051777
 20
164.697351851482
 30
0.0
 10
238.0820274416326
 20
164.731714921772
 30
0.0
 10
238.0842302202187
 20
164.7993997521669
 30
0.0
 10
238.0852361547519
 20
164.8330379815693
 30
0.0
 10
238.0868464689074
 20
164.8968357642038
 30
0.0
 10
238.0874193426667
 20
164.9271870660705
 30
0.0
 10
238.0882019149682
 20
164.9847696053722
 30
0.0
 10
238.0884203646265
 20
165.0118929826327
 30
0.0
 10
238.088413988353
 20
165.0849829721394
 30
0.0
 10
238.0876438992818
 20
165.1244694593669
 30
0.0
 10
238.0852363220503
 20
165.1641982832248
 30
0.0
 10
238.084247930144
 20
165.1744551816552
 30
0.0
 10
238.082048427484
 20
165.1881655161406
 30
0.0
 10
238.0808457977923
 20
165.1916517791516
 30
0.0
 10
238.0794533083075
 20
165.1917248625363
 30
0.0
  0
LINE
  5
1FB
330
1F
100
AcDbEntity
  8
0
  6
Continuous
 62
     7
370
    15
100
AcDbLine
 10
238.0793369986
 20
164.6624574758
 30
0.0
 11
234.4187752346
 21
164.8542992176
 31
0.0
  0
LINE
  5
1FC
330
1F
100
AcDbEntity
  8
0
  6
Continuous
 62
     7
370
    15
100
AcDbLine
 10
234.4187752346
 20
165.383572871
 30
0.0
 11
238.0793388238
 21
165.1917308624
 31
0.0
  0
SPLINE
  5
1FD
330
1F
100
AcDbEntity
  8
0
  6
Continuous
 62
     7
370
    15
100
AcDbSpline
210
0.0
220
0.0
230
1.0
 70
     8
 71
     3
 72
    20
 73
    16
 74
     0
 42
0.000000001
 43
0.00000001
 40
0.0
 40
0.0
 40
0.0
 40
0.0
 40
0.1249999999999982
 40
0.1249999999999982
 40
0.2499999999999964
 40
0.2499999999999964
 40
0.3749999999999947
 40
0.3749999999999947
 40
0.4999999999999929
 40
0.4999999999999929
 40
0.7499999999999964
 40
0.7499999999999964
 40
0.8749999999999982
 40
0.8749999999999982
 40
1.0
 40
1.0
 40
1.0
 40
1.0
 10
238.0794379213867
 20
119.0612915615544
 30
0.0
 10
238.0808233051778
 20
119.0263931684384
 30
0.0
 10
238.0820274416325
 20
118.9920300981483
 30
0.0
 10
238.0842302202187
 20
118.9243452677534
 30
0.0
 10
238.0852361547519
 20
118.890707038351
 30
0.0
 10
238.0868464689074
 20
118.8269092557166
 30
0.0
 10
238.0874193426667
 20
118.7965579538497
 30
0.0
 10
238.0882019149682
 20
118.7389754145481
 30
0.0
 10
238.0884203646264
 20
118.7118520372876
 30
0.0
 10
238.088413988353
 20
118.6387620477809
 30
0.0
 10
238.0876438992818
 20
118.5992755605535
 30
0.0
 10
238.0852363220503
 20
118.5595467366955
 30
0.0
 10
238.084247930144
 20
118.5492898382651
 30
0.0
 10
238.0820484274841
 20
118.5355795037797
 30
0.0
 10
238.0808457977923
 20
118.5320932407687
 30
0.0
 10
238.0794533083075
 20
118.532020157384
 30
0.0
  0
LINE
  5
1FE
330
1F
100
AcDbEntity
  8
0
  6
Continuous
 62
     7
370
    15
100
AcDbLine
 10
234.4187752346
 20
118.3401721489
 30
0.0
 11
238.0793388238
 21
118.5320141575
 31
0.0
  0
LINE
  5
1FF
330
1F
100
AcDbEntity
  8
0
  6
Continuous
 62
     7
370
    15
100
AcDbLine
 10
238.0793369986
 20
119.0612875441
 30
0.0
 11
234.4187752346
 21
118.8694458023
 31
0.0
  0
LINE
  5
200
330
1F
100
AcDbEntity
  8
0
  6
Continuous
 62
     7
370
    15
100
AcDbLine
 10
238.0793234207
 20
119.0612875441
 30
0.0
 11
238.0793234207
 21
164.6624574758
 31
0.0
  0
LINE
  5
201
330
1F
100
AcDbEntity
  8
0
  6
Continuous
 62
     7
370
    15
100
AcDbLine
 10
238.0793234226
 20
165.1917316676
 30
0.0
 11
238.4787752351
 21
164.7707972866
 31
0.0
  0
SPLINE
  5
202
330
1F
100
AcDbEntity
  8
0
  6
Continuous
 62
     7
370
    15
100
AcDbSpline
210
0.0
220
0.0
230
1.0
 70
    24
 71
     3
 72
    13
 73
     9
 74
     0
 42
0.000000001
 43
0.00000001
 40
0.110496518794988
 40
0.110496518794988
 40
0.110496518794988
 40
0.110496518794988
 40
0.1666666666667
 40
0.3333333333333
 40
0.5
 40
0.6666666666667
 40
0.8333333333333
 40
0.8986638252902908
 40
0.8986638252902908
 40
0.8986638252902908
 40
0.8986638252902908
 10
238.4787752345585
 20
164.6624580564231
 30
0.0
 10
238.4787752345585
 20
164.6665053639578
 30
0.0
 10
238.4787752345584
 20
164.682554376155
 30
0.0
 10
238.4787752345582
 20
164.709888048825
 30
0.0
 10
238.4787752345586
 20
164.7397904307169
 30
0.0
 10
238.4787752345581
 20
164.761242964568
 30
0.0
 10
238.4787752345576
 20
164.7696901788718
 30
0.0
 10
238.4787752345576
 20
164.7708154324712
 30
0.0
 10
238.4787752345577
 20
164.7708228948497
 30
0.0
  0
LINE
  5
203
330
1F
100
AcDbEntity
  8
0
  6
Continuous
 62
     7
370
    15
100
AcDbLine
 10
238.0793234221
 20
164.6624574758
 30
0.0
 11
238.4787752349
 21
164.6624580226
 31
0.0
  0
LINE
  5
204
330
1F
100
AcDbEntity
  8
0
  6
Continuous
 62
     7
370
    15
100
AcDbLine
 10
238.0793234221
 20
119.0612875441
 30
0.0
 11
238.4787752349
 21
119.0612869973
 31
0.0
  0
SPLINE
  5
205
330
1F
100
AcDbEntity
  8
0
  6
Continuous
 62
     7
370
    15
100
AcDbSpline
210
0.0
220
0.0
230
1.0
 70
    24
 71
     3
 72
    13
 73
     9
 74
     0
 42
0.000000001
 43
0.00000001
 40
0.1104965187950665
 40
0.1104965187950665
 40
0.1104965187950665
 40
0.1104965187950665
 40
0.1666666666667
 40
0.3333333333333
 40
0.5
 40
0.6666666666667
 40
0.8333333333333
 40
0.8986638252902526
 40
0.8986638252902526
 40
0.8986638252902526
 40
0.8986638252902526
 10
238.4787752345585
 20
119.0612869634972
 30
0.0
 10
238.4787752345585
 20
119.0572396559625
 30
0.0
 10
238.4787752345584
 20
119.0411906437653
 30
0.0
 10
238.4787752345582
 20
119.0138569710954
 30
0.0
 10
238.4787752345586
 20
118.9839545892035
 30
0.0
 10
238.4787752345581
 20
118.9625020553523
 30
0.0
 10
238.4787752345576
 20
118.9540548410485
 30
0.0
 10
238.4787752345576
 20
118.9529295874491
 30
0.0
 10
238.4787752345577
 20
118.9529221250706
 30
0.0
  0
LINE
  5
206
330
1F
100
AcDbEntity
  8
0
  6
Continuous
 62
     7
370
    15
100
AcDbLine
 10
238.0793234226
 20
118.5320133523
 30
0.0
 11
238.4787752351
 21
118.9529477333
 31
0.0
  0
LINE
  5
207
330
1F
100
AcDbEntity
  8
0
  6
Continuous
 62
     7
370
    15
100
AcDbLine
 10
238.4787752346
 20
164.6624580226
 30
0.0
 11
238.4787752346
 21
119.0612869973
 31
0.0
  0
LINE
  5
208
330
1F
100
AcDbEntity
  8
0
  6
Continuous
 62
     7
370
    15
100
AcDbLine
 10
231.7787752346
 20
164.56187251
 30
0.0
 11
231.7787752346
 21
165.0557637025
 31
0.0
  0
LINE
  5
209
330
1F
100
AcDbEntity
  8
0
  6
Continuous
 62
     7
370
    15
100
AcDbLine
 10
231.7787752346
 20
165.0557637025
 30
0.0
 11
232.4787752346
 21
165.06187251
 31
0.0
  0
LINE
  5
20A
330
1F
100
AcDbEntity
  8
0
  6
Continuous
 62
     7
370
    15
100
AcDbLine
 10
232.4787752346
 20
118.66187251
 30
0.0
 11
231.7787752346
 21
118.6679813174
 31
0.0
  0
LINE
  5
20B
330
1F
100
AcDbEntity
  8
0
  6
Continuous
 62
     7
370
    15
100
AcDbLine
 10
231.7787752346
 20
119.16187251
 30
0.0
 11
231.7787752346
 21
118.6679813174
 31
0.0
  0
LINE
  5
20C
330
1F
100
AcDbEntity
  8
0
  6
Continuous
 62
     7
370
    15
100
AcDbLine
 10
231.7787752346
 20
161.9957637025
 30
0.0
 11
231.7787752346
 21
121.7279813174
 31
0.0
  0
LINE
  5
20D
330
1F
100
AcDbEntity
  8
0
  6
Continuous
 62
     7
370
    15
100
AcDbLine
 10
232.4787752346
 20
161.9957637025
 30
0.0
 11
231.7787752346
 21
161.9957637025
 31
0.0
  0
LINE
  5
20E
330
1F
100
AcDbEntity
  8
0
  6
Continuous
 62
     7
370
    15
100
AcDbLine
 10
231.7787752346
 20
163.3957637025
 30
0.0
 11
232.4787752346
 21
163.3957637025
 31
0.0
  0
LINE
  5
20F
330
1F
100
AcDbEntity
  8
0
  6
Continuous
 62
     7
370
    15
100
AcDbLine
 10
231.7787752346
 20
164.56187251
 30
0.0
 11
231.7787752346
 21
163.3957637025
 31
0.0
  0
LINE
  5
210
330
1F
100
AcDbEntity
  8
0
  6
Continuous
 62
     7
370
    15
100
AcDbLine
 10
231.7787752346
 20
119.16187251
 30
0.0
 11
231.7787752346
 21
120.3279813174
 31
0.0
  0
LINE
  5
211
330
1F
100
AcDbEntity
  8
0
  6
Continuous
 62
     7
370
    15
100
AcDbLine
 10
231.7787752346
 20
120.3279813174
 30
0.0
 11
232.4787752346
 21
120.3279813174
 31
0.0
  0
LINE
  5
212
330
1F
100
AcDbEntity
  8
0
  6
Continuous
 62
     7
370
    15
100
AcDbLine
 10
232.4787752346
 20
121.7279813174
 30
0.0
 11
231.7787752346
 21
121.7279813174
 31
0.0
  0
ARC
  5
213
330
1F
100
AcDbEntity
  8
0
  6
Continuous
 62
     7
370
    15
100
AcDbCircle
 10
234.8787752346
 20
117.96187251
 30
0.0
 40
0.4000000000000057
100
AcDbArc
 50
180.0
 51
270.0
  0
LINE
  5
214
330
1F
100
AcDbEntity
  8
0
  6
Continuous
 62
     7
370
    15
100
AcDbLine
 10
234.8787752346
 20
117.1876511802
 30
0.0
 11
234.8787752346
 21
117.56187251
 31
0.0
  0
LINE
  5
215
330
1F
100
AcDbEntity
  8
0
  6
Continuous
 62
     7
370
    15
100
AcDbLine
 10
234.4787752346
 20
117.96187251
 30
0.0
 11
234.4787752346
 21
118.3433166156
 31
0.0
  0
LINE
  5
216
330
1F
100
AcDbEntity
  8
0
  6
Continuous
 62
     7
370
    15
100
AcDbLine
 10
234.8787752346
 20
117.1876511802
 30
0.0
 11
234.315359405
 21
117.1581238078
 31
0.0
  0
LINE
  5
217
330
1F
100
AcDbEntity
  8
0
  6
Continuous
 62
     7
370
    15
100
AcDbLine
 10
234.8787752346
 20
166.5360938397
 30
0.0
 11
234.8787752346
 21
166.16187251
 31
0.0
  0
ARC
  5
218
330
1F
100
AcDbEntity
  8
0
  6
Continuous
 62
     7
370
    15
100
AcDbCircle
 10
234.8787752346
 20
165.76187251
 30
0.0
 40
0.4000000000000057
100
AcDbArc
 50
90.0
 51
180.0
  0
LINE
  5
219
330
1F
100
AcDbEntity
  8
0
  6
Continuous
 62
     7
370
    15
100
AcDbLine
 10
234.4787752346
 20
165.76187251
 30
0.0
 11
234.4787752346
 21
165.3804284043
 31
0.0
  0
LINE
  5
21A
330
1F
100
AcDbEntity
  8
0
  6
Continuous
 62
     7
370
    15
100
AcDbLine
 10
234.8787752346
 20
166.5360938397
 30
0.0
 11
234.315359405
 21
166.5656212121
 31
0.0
  0
LINE
  5
21B
330
1F
100
AcDbEntity
  8
0
  6
Continuous
 62
     8
370
    15
100
AcDbLine
 10
232.4787752346
 20
164.56187251
 30
0.0
 11
231.7787752346
 21
164.56187251
 31
0.0
  0
LINE
  5
21C
330
1F
100
AcDbEntity
  8
0
  6
Continuous
 62
     8
370
    15
100
AcDbLine
 10
231.7787752346
 20
119.16187251
 30
0.0
 11
232.4787752346
 21
119.16187251
 31
0.0
  0
LINE
  5
21D
330
1F
100
AcDbEntity
  8
0
  6
Continuous
 62
     7
370
    15
100
AcDbLine
 10
254.7735574265
 20
120.3279813174
 30
0.0
 11
254.7735574265
 21
119.1022278796
 31
0.0
  0
ELLIPSE
  5
21E
330
1F
100
AcDbEntity
  8
0
  6
Continuous
 62
     7
370
    15
100
AcDbEllipse
 10
255.0739691303
 20
119.103050723
 30
0.0
 11
-0.2127138730305376
 21
-0.2127138730305234
 31
0.0
210
0.0
220
0.0
230
1.0
 40
0.9972646886
 41
5.49915667162671
 42
7.067213942732402
  0
LINE
  5
21F
330
1F
100
AcDbEntity
  8
0
  6
Continuous
 62
     7
370
    15
100
AcDbLine
 10
256.2988997247
 20
118.8026390192
 30
0.0
 11
255.0731462869
 21
118.8026390192
 31
0.0
  0
LINE
  5
220
330
1F
100
AcDbEntity
  8
0
  6
Continuous
 62
     7
370
    15
100
AcDbLine
 10
256.2988997247
 20
118.8026390192
 30
0.0
 11
256.2988997247
 21
118.6679813174
 31
0.0
  0
LINE
  5
221
330
1F
100
AcDbEntity
  8
0
  6
Continuous
 62
     7
370
    15
100
AcDbLine
 10
256.2988997247
 20
118.6679813174
 30
0.0
 11
255.1327909173
 21
118.6679813174
 31
0.0
  0
ARC
  5
222
330
1F
100
AcDbEntity
  8
0
  6
Continuous
 62
     7
370
    15
100
AcDbCircle
 10
255.1327909173
 20
119.16187251
 30
0.0
 40
0.4938911925400049
100
AcDbArc
 50
180.0
 51
270.0
  0
LINE
  5
223
330
1F
100
AcDbEntity
  8
0
  6
Continuous
 62
     7
370
    15
100
AcDbLine
 10
254.6388997247
 20
119.16187251
 30
0.0
 11
254.6388997247
 21
120.3279813174
 31
0.0
  0
LINE
  5
224
330
1F
100
AcDbEntity
  8
0
  6
Continuous
 62
     7
370
    15
100
AcDbLine
 10
254.6388997247
 20
120.3279813174
 30
0.0
 11
254.7735574265
 21
120.3279813174
 31
0.0
  0
LINE
  5
225
330
1F
100
AcDbEntity
  8
0
  6
Continuous
 62
     7
370
    15
100
AcDbLine
 10
254.7735574265
 20
164.6215171403
 30
0.0
 11
254.7735574265
 21
163.3957637025
 31
0.0
  0
LINE
  5
226
330
1F
100
AcDbEntity
  8
0
  6
Continuous
 62
     7
370
    15
100
AcDbLine
 10
254.6388997247
 20
163.3957637025
 30
0.0
 11
254.7735574265
 21
163.3957637025
 31
0.0
  0
LINE
  5
227
330
1F
100
AcDbEntity
  8
0
  6
Continuous
 62
     7
370
    15
100
AcDbLine
 10
254.6388997247
 20
164.56187251
 30
0.0
 11
254.6388997247
 21
163.3957637025
 31
0.0
  0
ARC
  5
228
330
1F
100
AcDbEntity
  8
0
  6
Continuous
 62
     7
370
    15
100
AcDbCircle
 10
255.1327909173
 20
164.56187251
 30
0.0
 40
0.4938911925400191
100
AcDbArc
 50
90.0
 51
180.0
  0
LINE
  5
229
330
1F
100
AcDbEntity
  8
0
  6
Continuous
 62
     7
370
    15
100
AcDbLine
 10
256.2988997247
 20
165.0557637025
 30
0.0
 11
255.1327909173
 21
165.0557637025
 31
0.0
  0
LINE
  5
22A
330
1F
100
AcDbEntity
  8
0
  6
Continuous
 62
     7
370
    15
100
AcDbLine
 10
256.2988997247
 20
164.9211060008
 30
0.0
 11
256.2988997247
 21
165.0557637025
 31
0.0
  0
LINE
  5
22B
330
1F
100
AcDbEntity
  8
0
  6
Continuous
 62
     7
370
    15
100
AcDbLine
 10
256.2988997247
 20
164.9211060008
 30
0.0
 11
255.0731462869
 21
164.9211060008
 31
0.0
  0
ELLIPSE
  5
22C
330
1F
100
AcDbEntity
  8
0
  6
Continuous
 62
     7
370
    15
100
AcDbEllipse
 10
255.0739691303
 20
164.620694297
 30
0.0
 11
0.2127138730305091
 21
-0.2127138730305091
 31
0.0
210
0.0
220
0.0
230
1.0
 40
0.9972646886
 41
2.357564018079023
 42
3.925621289100671
  0
ARC
  5
22D
330
1F
100
AcDbEntity
  8
0
  6
Continuous
 62
     7
370
    15
100
AcDbCircle
 10
255.1327909173
 20
119.16187251
 30
0.0
 40
0.5104722413399969
100
AcDbArc
 50
180.0
 51
270.0
  0
LINE
  5
22E
330
1F
100
AcDbEntity
  8
0
  6
Continuous
 62
     7
370
    15
100
AcDbLine
 10
254.6388997247
 20
119.16187251
 30
0.0
 11
254.6223186759
 21
119.16187251
 31
0.0
  0
LINE
  5
22F
330
1F
100
AcDbEntity
  8
0
  6
Continuous
 62
     7
370
    15
100
AcDbLine
 10
255.1327909173
 20
118.6514002686
 30
0.0
 11
255.1327909173
 21
118.6679813174
 31
0.0
  0
LINE
  5
230
330
1F
100
AcDbEntity
  8
0
  6
Continuous
 62
     7
370
    15
100
AcDbLine
 10
254.6223186759
 20
119.16187251
 30
0.0
 11
254.6223186759
 21
164.56187251
 31
0.0
  0
LINE
  5
231
330
1F
100
AcDbEntity
  8
0
  6
Continuous
 62
     7
370
    15
100
AcDbLine
 10
254.6388997247
 20
164.56187251
 30
0.0
 11
254.6223186759
 21
164.56187251
 31
0.0
  0
LINE
  5
232
330
1F
100
AcDbEntity
  8
0
  6
Continuous
 62
     7
370
    15
100
AcDbLine
 10
254.6388997247
 20
163.3957637025
 30
0.0
 11
254.6327909173
 21
163.3957637025
 31
0.0
  0
LINE
  5
233
330
1F
100
AcDbEntity
  8
0
  6
Continuous
 62
     7
370
    15
100
AcDbLine
 10
254.6327909173
 20
161.9957637025
 30
0.0
 11
254.6327909173
 21
163.3957637025
 31
0.0
  0
LINE
  5
234
330
1F
100
AcDbEntity
  8
0
  6
Continuous
 62
     7
370
    15
100
AcDbLine
 10
254.6327909173
 20
161.9957637025
 30
0.0
 11
254.6388997247
 21
161.9957637025
 31
0.0
  0
LINE
  5
235
330
1F
100
AcDbEntity
  8
0
  6
Continuous
 62
     7
370
    15
100
AcDbLine
 10
254.6388997247
 20
121.7279813174
 30
0.0
 11
254.6388997247
 21
161.9957637025
 31
0.0
  0
LINE
  5
236
330
1F
100
AcDbEntity
  8
0
  6
Continuous
 62
     7
370
    15
100
AcDbLine
 10
254.6327909173
 20
121.7279813174
 30
0.0
 11
254.6388997247
 21
121.7279813174
 31
0.0
  0
LINE
  5
237
330
1F
100
AcDbEntity
  8
0
  6
Continuous
 62
     7
370
    15
100
AcDbLine
 10
254.6327909173
 20
121.7279813174
 30
0.0
 11
254.6327909173
 21
120.3279813174
 31
0.0
  0
LINE
  5
238
330
1F
100
AcDbEntity
  8
0
  6
Continuous
 62
     7
370
    15
100
AcDbLine
 10
254.6388997247
 20
120.3279813174
 30
0.0
 11
254.6327909173
 21
120.3279813174
 31
0.0
  0
LINE
  5
239
330
1F
100
AcDbEntity
  8
0
  6
Continuous
 62
     7
370
    15
100
AcDbLine
 10
255.1327909173
 20
165.0723447513
 30
0.0
 11
255.1327909173
 21
165.0557637025
 31
0.0
  0
ARC
  5
23A
330
1F
100
AcDbEntity
  8
0
  6
Continuous
 62
     7
370
    15
100
AcDbCircle
 10
255.1327909173
 20
164.56187251
 30
0.0
 40
0.5104722413400111
100
AcDbArc
 50
90.0
 51
180.0
  0
LINE
  5
23B
330
1F
100
AcDbEntity
  8
0
  6
Continuous
 62
     7
370
    15
100
AcDbLine
 10
254.7735574265
 20
161.9957637025
 30
0.0
 11
254.7735574265
 21
121.7279813174
 31
0.0
  0
LINE
  5
23C
330
1F
100
AcDbEntity
  8
0
  6
Continuous
 62
     7
370
    15
100
AcDbLine
 10
254.7735574265
 20
161.9957637025
 30
0.0
 11
254.6388997247
 21
161.9957637025
 31
0.0
  0
LINE
  5
23D
330
1F
100
AcDbEntity
  8
0
  6
Continuous
 62
     7
370
    15
100
AcDbLine
 10
254.7735574265
 20
121.7279813174
 30
0.0
 11
254.6388997247
 21
121.7279813174
 31
0.0
  0
LINE
  5
23E
330
1F
100
AcDbEntity
  8
0
  6
Continuous
 62
     7
370
    15
100
AcDbLine
 10
254.810242872
 20
161.9957637025
 30
0.0
 11
254.810242872
 21
163.3957637025
 31
0.0
  0
LINE
  5
23F
330
1F
100
AcDbEntity
  8
0
  6
Continuous
 62
     7
370
    15
100
AcDbLine
 10
254.7735574265
 20
164.6215171403
 30
0.0
 11
255.0783453897
 21
164.3167291771
 31
0.0
  0
LINE
  5
240
330
1F
100
AcDbEntity
  8
0
  6
Continuous
 62
     7
370
    15
100
AcDbLine
 10
255.0783453897
 20
164.3167291771
 30
0.0
 11
255.0783453897
 21
119.4070158428
 31
0.0
  0
LINE
  5
241
330
1F
100
AcDbEntity
  8
0
  6
Continuous
 62
     7
370
    15
100
AcDbLine
 10
255.0783453897
 20
119.4070158428
 30
0.0
 11
254.7735574265
 21
119.1022278796
 31
0.0
  0
LINE
  5
242
330
1F
100
AcDbEntity
  8
0
  6
Continuous
 62
     7
370
    15
100
AcDbLine
 10
254.810242872
 20
121.7279813174
 30
0.0
 11
254.810242872
 21
120.3279813174
 31
0.0
  0
LINE
  5
243
330
1F
100
AcDbEntity
  8
0
  6
Continuous
 62
     7
370
    15
100
AcDbLine
 10
254.7735574265
 20
163.3957637025
 30
0.0
 11
254.810242872
 21
163.3957637025
 31
0.0
  0
LINE
  5
244
330
1F
100
AcDbEntity
  8
0
  6
Continuous
 62
     7
370
    15
100
AcDbLine
 10
254.7735574265
 20
161.9957637025
 30
0.0
 11
254.810242872
 21
161.9957637025
 31
0.0
  0
LINE
  5
245
330
1F
100
AcDbEntity
  8
0
  6
Continuous
 62
     7
370
    15
100
AcDbLine
 10
254.7735574265
 20
120.3279813174
 30
0.0
 11
254.810242872
 21
120.3279813174
 31
0.0
  0
LINE
  5
246
330
1F
100
AcDbEntity
  8
0
  6
Continuous
 62
     7
370
    15
100
AcDbLine
 10
254.7735574265
 20
121.7279813174
 30
0.0
 11
254.810242872
 21
121.7279813174
 31
0.0
  0
ARC
  5
247
330
1F
100
AcDbEntity
  8
0
  6
Continuous
 62
     7
370
    15
100
AcDbCircle
 10
255.37889733
 20
119.4079789227
 30
0.0
 40
0.3005534833056709
100
AcDbArc
 50
180.1835962898
 51
269.8164037063
  0
LINE
  5
248
330
1F
100
AcDbEntity
  8
0
  6
Continuous
 62
     7
370
    15
100
AcDbLine
 10
255.3779342501
 20
119.1074269824
 30
0.0
 11
255.0731462869
 21
118.8026390192
 31
0.0
  0
LINE
  5
249
330
1F
100
AcDbEntity
  8
0
  6
Continuous
 62
     7
370
    15
100
AcDbLine
 10
255.0731462869
 20
164.9211060008
 30
0.0
 11
255.3779342501
 21
164.6163180375
 31
0.0
  0
ARC
  5
24A
330
1F
100
AcDbEntity
  8
0
  6
Continuous
 62
     7
370
    15
100
AcDbCircle
 10
255.37889733
 20
164.3157660973
 30
0.0
 40
0.3005534833056496
100
AcDbArc
 50
90.1835962936
 51
179.8164037064
  0
LINE
  5
24B
330
1F
100
AcDbEntity
  8
0
  6
Continuous
 62
     7
370
    15
100
AcDbLine
 10
320.5924355476
 20
164.9211060008
 30
0.0
 11
319.3666821098
 21
164.9211060008
 31
0.0
  0
LINE
  5
24C
330
1F
100
AcDbEntity
  8
0
  6
Continuous
 62
     7
370
    15
100
AcDbLine
 10
320.2876475844
 20
164.6163180375
 30
0.0
 11
320.5924355476
 21
164.9211060008
 31
0.0
  0
LINE
  5
24D
330
1F
100
AcDbEntity
  8
0
  6
Continuous
 62
     7
370
    15
100
AcDbLine
 10
320.2876475844
 20
164.6163180375
 30
0.0
 11
255.3779342501
 21
164.6163180375
 31
0.0
  0
LINE
  5
24E
330
1F
100
AcDbEntity
  8
0
  6
Continuous
 62
     7
370
    15
100
AcDbLine
 10
256.2988997247
 20
164.9211060008
 30
0.0
 11
256.2988997247
 21
164.8844205553
 31
0.0
  0
LINE
  5
24F
330
1F
100
AcDbEntity
  8
0
  6
Continuous
 62
     7
370
    15
100
AcDbLine
 10
257.6988997247
 20
164.8844205553
 30
0.0
 11
256.2988997247
 21
164.8844205553
 31
0.0
  0
LINE
  5
250
330
1F
100
AcDbEntity
  8
0
  6
Continuous
 62
     7
370
    15
100
AcDbLine
 10
257.6988997247
 20
164.9211060008
 30
0.0
 11
257.6988997247
 21
164.8844205553
 31
0.0
  0
LINE
  5
251
330
1F
100
AcDbEntity
  8
0
  6
Continuous
 62
     7
370
    15
100
AcDbLine
 10
317.9666821098
 20
164.9211060008
 30
0.0
 11
257.6988997247
 21
164.9211060008
 31
0.0
  0
LINE
  5
252
330
1F
100
AcDbEntity
  8
0
  6
Continuous
 62
     7
370
    15
100
AcDbLine
 10
317.9666821098
 20
164.9211060008
 30
0.0
 11
317.9666821098
 21
164.8844205553
 31
0.0
  0
LINE
  5
253
330
1F
100
AcDbEntity
  8
0
  6
Continuous
 62
     7
370
    15
100
AcDbLine
 10
317.9666821098
 20
164.8844205553
 30
0.0
 11
319.3666821098
 21
164.8844205553
 31
0.0
  0
LINE
  5
254
330
1F
100
AcDbEntity
  8
0
  6
Continuous
 62
     7
370
    15
100
AcDbLine
 10
319.3666821098
 20
164.9211060008
 30
0.0
 11
319.3666821098
 21
164.8844205553
 31
0.0
  0
LINE
  5
255
330
1F
100
AcDbEntity
  8
0
  6
Continuous
 62
     7
370
    15
100
AcDbLine
 10
257.6988997247
 20
118.8393244647
 30
0.0
 11
256.2988997247
 21
118.8393244647
 31
0.0
  0
LINE
  5
256
330
1F
100
AcDbEntity
  8
0
  6
Continuous
 62
     7
370
    15
100
AcDbLine
 10
256.2988997247
 20
118.8026390192
 30
0.0
 11
256.2988997247
 21
118.8393244647
 31
0.0
  0
LINE
  5
257
330
1F
100
AcDbEntity
  8
0
  6
Continuous
 62
     7
370
    15
100
AcDbLine
 10
255.3779342501
 20
119.1074269824
 30
0.0
 11
320.2876475844
 21
119.1074269824
 31
0.0
  0
LINE
  5
258
330
1F
100
AcDbEntity
  8
0
  6
Continuous
 62
     7
370
    15
100
AcDbLine
 10
320.5924355476
 20
118.8026390192
 30
0.0
 11
320.2876475844
 21
119.1074269824
 31
0.0
  0
LINE
  5
259
330
1F
100
AcDbEntity
  8
0
  6
Continuous
 62
     7
370
    15
100
AcDbLine
 10
320.5924355476
 20
118.8026390192
 30
0.0
 11
319.3666821098
 21
118.8026390192
 31
0.0
  0
LINE
  5
25A
330
1F
100
AcDbEntity
  8
0
  6
Continuous
 62
     7
370
    15
100
AcDbLine
 10
319.3666821098
 20
118.8026390192
 30
0.0
 11
319.3666821098
 21
118.8393244647
 31
0.0
  0
LINE
  5
25B
330
1F
100
AcDbEntity
  8
0
  6
Continuous
 62
     7
370
    15
100
AcDbLine
 10
317.9666821098
 20
118.8393244647
 30
0.0
 11
319.3666821098
 21
118.8393244647
 31
0.0
  0
LINE
  5
25C
330
1F
100
AcDbEntity
  8
0
  6
Continuous
 62
     7
370
    15
100
AcDbLine
 10
317.9666821098
 20
118.8026390192
 30
0.0
 11
317.9666821098
 21
118.8393244647
 31
0.0
  0
LINE
  5
25D
330
1F
100
AcDbEntity
  8
0
  6
Continuous
 62
     7
370
    15
100
AcDbLine
 10
317.9666821098
 20
118.8026390192
 30
0.0
 11
257.6988997247
 21
118.8026390192
 31
0.0
  0
LINE
  5
25E
330
1F
100
AcDbEntity
  8
0
  6
Continuous
 62
     7
370
    15
100
AcDbLine
 10
257.6988997247
 20
118.8026390192
 30
0.0
 11
257.6988997247
 21
118.8393244647
 31
0.0
  0
LINE
  5
25F
330
1F
100
AcDbEntity
  8
0
  6
Continuous
 62
     7
370
    15
100
AcDbLine
 10
317.9666821098
 20
118.6679813174
 30
0.0
 11
257.6988997247
 21
118.6679813174
 31
0.0
  0
LINE
  5
260
330
1F
100
AcDbEntity
  8
0
  6
Continuous
 62
     7
370
    15
100
AcDbLine
 10
317.9666821098
 20
118.6679813174
 30
0.0
 11
317.9666821098
 21
118.66187251
 31
0.0
  0
LINE
  5
261
330
1F
100
AcDbEntity
  8
0
  6
Continuous
 62
     7
370
    15
100
AcDbLine
 10
317.9666821098
 20
118.66187251
 30
0.0
 11
319.3666821098
 21
118.66187251
 31
0.0
  0
LINE
  5
262
330
1F
100
AcDbEntity
  8
0
  6
Continuous
 62
     7
370
    15
100
AcDbLine
 10
319.3666821098
 20
118.66187251
 30
0.0
 11
319.3666821098
 21
118.6679813174
 31
0.0
  0
LINE
  5
263
330
1F
100
AcDbEntity
  8
0
  6
Continuous
 62
     7
370
    15
100
AcDbLine
 10
319.3666821098
 20
118.6679813174
 30
0.0
 11
320.5327909173
 21
118.6679813174
 31
0.0
  0
LINE
  5
264
330
1F
100
AcDbEntity
  8
0
  6
Continuous
 62
     7
370
    15
100
AcDbLine
 10
320.5327909173
 20
118.6514002686
 30
0.0
 11
320.5327909173
 21
118.6679813174
 31
0.0
  0
LINE
  5
265
330
1F
100
AcDbEntity
  8
0
  6
Continuous
 62
     7
370
    15
100
AcDbLine
 10
255.1327909173
 20
118.6514002686
 30
0.0
 11
320.5327909173
 21
118.6514002686
 31
0.0
  0
LINE
  5
266
330
1F
100
AcDbEntity
  8
0
  6
Continuous
 62
     7
370
    15
100
AcDbLine
 10
256.2988997247
 20
118.66187251
 30
0.0
 11
256.2988997247
 21
118.6679813174
 31
0.0
  0
LINE
  5
267
330
1F
100
AcDbEntity
  8
0
  6
Continuous
 62
     7
370
    15
100
AcDbLine
 10
257.6988997247
 20
118.66187251
 30
0.0
 11
256.2988997247
 21
118.66187251
 31
0.0
  0
LINE
  5
268
330
1F
100
AcDbEntity
  8
0
  6
Continuous
 62
     7
370
    15
100
AcDbLine
 10
257.6988997247
 20
118.6679813174
 30
0.0
 11
257.6988997247
 21
118.66187251
 31
0.0
  0
LINE
  5
269
330
1F
100
AcDbEntity
  8
0
  6
Continuous
 62
     7
370
    15
100
AcDbLine
 10
320.5327909173
 20
165.0723447513
 30
0.0
 11
255.1327909173
 21
165.0723447513
 31
0.0
  0
LINE
  5
26A
330
1F
100
AcDbEntity
  8
0
  6
Continuous
 62
     7
370
    15
100
AcDbLine
 10
320.5327909173
 20
165.0557637025
 30
0.0
 11
320.5327909173
 21
165.0723447513
 31
0.0
  0
LINE
  5
26B
330
1F
100
AcDbEntity
  8
0
  6
Continuous
 62
     7
370
    15
100
AcDbLine
 10
319.3666821098
 20
165.0557637025
 30
0.0
 11
320.5327909173
 21
165.0557637025
 31
0.0
  0
LINE
  5
26C
330
1F
100
AcDbEntity
  8
0
  6
Continuous
 62
     7
370
    15
100
AcDbLine
 10
319.3666821098
 20
165.06187251
 30
0.0
 11
319.3666821098
 21
165.0557637025
 31
0.0
  0
LINE
  5
26D
330
1F
100
AcDbEntity
  8
0
  6
Continuous
 62
     7
370
    15
100
AcDbLine
 10
317.9666821098
 20
165.06187251
 30
0.0
 11
319.3666821098
 21
165.06187251
 31
0.0
  0
LINE
  5
26E
330
1F
100
AcDbEntity
  8
0
  6
Continuous
 62
     7
370
    15
100
AcDbLine
 10
317.9666821098
 20
165.0557637025
 30
0.0
 11
317.9666821098
 21
165.06187251
 31
0.0
  0
LINE
  5
26F
330
1F
100
AcDbEntity
  8
0
  6
Continuous
 62
     7
370
    15
100
AcDbLine
 10
257.6988997247
 20
165.0557637025
 30
0.0
 11
317.9666821098
 21
165.0557637025
 31
0.0
  0
LINE
  5
270
330
1F
100
AcDbEntity
  8
0
  6
Continuous
 62
     7
370
    15
100
AcDbLine
 10
257.6988997247
 20
165.0557637025
 30
0.0
 11
257.6988997247
 21
165.06187251
 31
0.0
  0
LINE
  5
271
330
1F
100
AcDbEntity
  8
0
  6
Continuous
 62
     7
370
    15
100
AcDbLine
 10
257.6988997247
 20
165.06187251
 30
0.0
 11
256.2988997247
 21
165.06187251
 31
0.0
  0
LINE
  5
272
330
1F
100
AcDbEntity
  8
0
  6
Continuous
 62
     7
370
    15
100
AcDbLine
 10
256.2988997247
 20
165.06187251
 30
0.0
 11
256.2988997247
 21
165.0557637025
 31
0.0
  0
LINE
  5
273
330
1F
100
AcDbEntity
  8
0
  6
Continuous
 62
     7
370
    15
100
AcDbLine
 10
317.9666821098
 20
118.6679813174
 30
0.0
 11
317.9666821098
 21
118.8026390192
 31
0.0
  0
LINE
  5
274
330
1F
100
AcDbEntity
  8
0
  6
Continuous
 62
     7
370
    15
100
AcDbLine
 10
257.6988997247
 20
118.6679813174
 30
0.0
 11
257.6988997247
 21
118.8026390192
 31
0.0
  0
LINE
  5
275
330
1F
100
AcDbEntity
  8
0
  6
Continuous
 62
     7
370
    15
100
AcDbLine
 10
317.9666821098
 20
165.0557637025
 30
0.0
 11
317.9666821098
 21
164.9211060008
 31
0.0
  0
LINE
  5
276
330
1F
100
AcDbEntity
  8
0
  6
Continuous
 62
     7
370
    15
100
AcDbLine
 10
257.6988997247
 20
165.0557637025
 30
0.0
 11
257.6988997247
 21
164.9211060008
 31
0.0
  0
LINE
  5
277
330
1F
100
AcDbEntity
  8
0
  6
Continuous
 62
     7
370
    15
100
AcDbLine
 10
320.8920244081
 20
164.6215171403
 30
0.0
 11
320.8920244081
 21
163.3957637025
 31
0.0
  0
ELLIPSE
  5
278
330
1F
100
AcDbEntity
  8
0
  6
Continuous
 62
     7
370
    15
100
AcDbEllipse
 10
320.5916127043
 20
164.620694297
 30
0.0
 11
0.2127138730305091
 21
0.2127138730305375
 31
0.0
210
0.0
220
0.0
230
1.0
 40
0.9972646886
 41
5.499156671626836
 42
7.067213942732502
  0
LINE
  5
279
330
1F
100
AcDbEntity
  8
0
  6
Continuous
 62
     7
370
    15
100
AcDbLine
 10
319.3666821098
 20
164.9211060008
 30
0.0
 11
319.3666821098
 21
165.0557637025
 31
0.0
  0
ARC
  5
27A
330
1F
100
AcDbEntity
  8
0
  6
Continuous
 62
     7
370
    15
100
AcDbCircle
 10
320.5327909173
 20
164.56187251
 30
0.0
 40
0.4938911925400191
100
AcDbArc
 50
0.0
 51
90.0
  0
LINE
  5
27B
330
1F
100
AcDbEntity
  8
0
  6
Continuous
 62
     7
370
    15
100
AcDbLine
 10
321.0266821098
 20
164.56187251
 30
0.0
 11
321.0266821098
 21
163.3957637025
 31
0.0
  0
LINE
  5
27C
330
1F
100
AcDbEntity
  8
0
  6
Continuous
 62
     7
370
    15
100
AcDbLine
 10
321.0266821098
 20
163.3957637025
 30
0.0
 11
320.8920244081
 21
163.3957637025
 31
0.0
  0
LINE
  5
27D
330
1F
100
AcDbEntity
  8
0
  6
Continuous
 62
     7
370
    15
100
AcDbLine
 10
320.8920244081
 20
120.3279813174
 30
0.0
 11
320.8920244081
 21
119.1022278796
 31
0.0
  0
LINE
  5
27E
330
1F
100
AcDbEntity
  8
0
  6
Continuous
 62
     7
370
    15
100
AcDbLine
 10
321.0266821098
 20
120.3279813174
 30
0.0
 11
320.8920244081
 21
120.3279813174
 31
0.0
  0
LINE
  5
27F
330
1F
100
AcDbEntity
  8
0
  6
Continuous
 62
     7
370
    15
100
AcDbLine
 10
321.0266821098
 20
119.16187251
 30
0.0
 11
321.0266821098
 21
120.3279813174
 31
0.0
  0
ARC
  5
280
330
1F
100
AcDbEntity
  8
0
  6
Continuous
 62
     7
370
    15
100
AcDbCircle
 10
320.5327909173
 20
119.16187251
 30
0.0
 40
0.4938911925400049
100
AcDbArc
 50
270.0
 51
0.0
  0
LINE
  5
281
330
1F
100
AcDbEntity
  8
0
  6
Continuous
 62
     7
370
    15
100
AcDbLine
 10
319.3666821098
 20
118.8026390192
 30
0.0
 11
319.3666821098
 21
118.6679813174
 31
0.0
  0
ELLIPSE
  5
282
330
1F
100
AcDbEntity
  8
0
  6
Continuous
 62
     7
370
    15
100
AcDbEllipse
 10
320.5916127043
 20
119.103050723
 30
0.0
 11
-0.2127138730305091
 21
0.2127138730305233
 31
0.0
210
0.0
220
0.0
230
1.0
 40
0.9972646886
 41
2.35756401807875
 42
3.925621289100775
  0
LINE
  5
283
330
1F
100
AcDbEntity
  8
0
  6
Continuous
 62
     7
370
    15
100
AcDbLine
 10
320.5872364448
 20
164.3167291771
 30
0.0
 11
320.8920244081
 21
164.6215171403
 31
0.0
  0
ARC
  5
284
330
1F
100
AcDbEntity
  8
0
  6
Continuous
 62
     7
370
    15
100
AcDbCircle
 10
320.2866845046
 20
164.3157660973
 30
0.0
 40
0.3005534833054504
100
AcDbArc
 50
0.1835962936
 51
89.8164037064
  0
ARC
  5
285
330
1F
100
AcDbEntity
  8
0
  6
Continuous
 62
     7
370
    15
100
AcDbCircle
 10
320.2866845046
 20
119.4079789227
 30
0.0
 40
0.3005534833055217
100
AcDbArc
 50
270.1835962936
 51
359.8164037064
  0
LINE
  5
286
330
1F
100
AcDbEntity
  8
0
  6
Continuous
 62
     7
370
    15
100
AcDbLine
 10
320.8920244081
 20
119.1022278796
 30
0.0
 11
320.5872364448
 21
119.4070158428
 31
0.0
  0
LINE
  5
287
330
1F
100
AcDbEntity
  8
0
  6
Continuous
 62
     7
370
    15
100
AcDbLine
 10
320.8920244081
 20
163.3957637025
 30
0.0
 11
320.8553389626
 21
163.3957637025
 31
0.0
  0
LINE
  5
288
330
1F
100
AcDbEntity
  8
0
  6
Continuous
 62
     7
370
    15
100
AcDbLine
 10
320.8553389626
 20
161.9957637025
 30
0.0
 11
320.8553389626
 21
163.3957637025
 31
0.0
  0
LINE
  5
289
330
1F
100
AcDbEntity
  8
0
  6
Continuous
 62
     7
370
    15
100
AcDbLine
 10
320.8920244081
 20
161.9957637025
 30
0.0
 11
320.8553389626
 21
161.9957637025
 31
0.0
  0
LINE
  5
28A
330
1F
100
AcDbEntity
  8
0
  6
Continuous
 62
     7
370
    15
100
AcDbLine
 10
320.8920244081
 20
161.9957637025
 30
0.0
 11
320.8920244081
 21
121.7279813174
 31
0.0
  0
LINE
  5
28B
330
1F
100
AcDbEntity
  8
0
  6
Continuous
 62
     7
370
    15
100
AcDbLine
 10
320.8920244081
 20
121.7279813174
 30
0.0
 11
320.8553389626
 21
121.7279813174
 31
0.0
  0
LINE
  5
28C
330
1F
100
AcDbEntity
  8
0
  6
Continuous
 62
     7
370
    15
100
AcDbLine
 10
320.8553389626
 20
121.7279813174
 30
0.0
 11
320.8553389626
 21
120.3279813174
 31
0.0
  0
LINE
  5
28D
330
1F
100
AcDbEntity
  8
0
  6
Continuous
 62
     7
370
    15
100
AcDbLine
 10
320.8920244081
 20
120.3279813174
 30
0.0
 11
320.8553389626
 21
120.3279813174
 31
0.0
  0
LINE
  5
28E
330
1F
100
AcDbEntity
  8
0
  6
Continuous
 62
     7
370
    15
100
AcDbLine
 10
320.5872364448
 20
119.4070158428
 30
0.0
 11
320.5872364448
 21
164.3167291771
 31
0.0
  0
LINE
  5
28F
330
1F
100
AcDbEntity
  8
0
  6
Continuous
 62
     7
370
    15
100
AcDbLine
 10
321.0432631586
 20
164.56187251
 30
0.0
 11
321.0266821098
 21
164.56187251
 31
0.0
  0
ARC
  5
290
330
1F
100
AcDbEntity
  8
0
  6
Continuous
 62
     7
370
    15
100
AcDbCircle
 10
320.5327909173
 20
164.56187251
 30
0.0
 40
0.5104722413400111
100
AcDbArc
 50
0.0
 51
90.0
  0
LINE
  5
291
330
1F
100
AcDbEntity
  8
0
  6
Continuous
 62
     7
370
    15
100
AcDbLine
 10
321.0266821098
 20
119.16187251
 30
0.0
 11
321.0432631586
 21
119.16187251
 31
0.0
  0
ARC
  5
292
330
1F
100
AcDbEntity
  8
0
  6
Continuous
 62
     7
370
    15
100
AcDbCircle
 10
320.5327909173
 20
119.16187251
 30
0.0
 40
0.5104722413399969
100
AcDbArc
 50
270.0
 51
0.0
  0
LINE
  5
293
330
1F
100
AcDbEntity
  8
0
  6
Continuous
 62
     7
370
    15
100
AcDbLine
 10
321.0266821098
 20
161.9957637025
 30
0.0
 11
321.0266821098
 21
121.7279813174
 31
0.0
  0
LINE
  5
294
330
1F
100
AcDbEntity
  8
0
  6
Continuous
 62
     7
370
    15
100
AcDbLine
 10
320.8920244081
 20
161.9957637025
 30
0.0
 11
321.0266821098
 21
161.9957637025
 31
0.0
  0
LINE
  5
295
330
1F
100
AcDbEntity
  8
0
  6
Continuous
 62
     7
370
    15
100
AcDbLine
 10
320.8920244081
 20
121.7279813174
 30
0.0
 11
321.0266821098
 21
121.7279813174
 31
0.0
  0
LINE
  5
296
330
1F
100
AcDbEntity
  8
0
  6
Continuous
 62
     7
370
    15
100
AcDbLine
 10
321.0327909173
 20
161.9957637025
 30
0.0
 11
321.0327909173
 21
163.3957637025
 31
0.0
  0
LINE
  5
297
330
1F
100
AcDbEntity
  8
0
  6
Continuous
 62
     7
370
    15
100
AcDbLine
 10
321.0432631586
 20
164.56187251
 30
0.0
 11
321.0432631586
 21
119.16187251
 31
0.0
  0
LINE
  5
298
330
1F
100
AcDbEntity
  8
0
  6
Continuous
 62
     7
370
    15
100
AcDbLine
 10
321.0327909173
 20
121.7279813174
 30
0.0
 11
321.0327909173
 21
120.3279813174
 31
0.0
  0
LINE
  5
299
330
1F
100
AcDbEntity
  8
0
  6
Continuous
 62
     7
370
    15
100
AcDbLine
 10
321.0327909173
 20
161.9957637025
 30
0.0
 11
321.0266821098
 21
161.9957637025
 31
0.0
  0
LINE
  5
29A
330
1F
100
AcDbEntity
  8
0
  6
Continuous
 62
     7
370
    15
100
AcDbLine
 10
321.0327909173
 20
121.7279813174
 30
0.0
 11
321.0266821098
 21
121.7279813174
 31
0.0
  0
LINE
  5
29B
330
1F
100
AcDbEntity
  8
0
  6
Continuous
 62
     7
370
    15
100
AcDbLine
 10
321.0266821098
 20
163.3957637025
 30
0.0
 11
321.0327909173
 21
163.3957637025
 31
0.0
  0
LINE
  5
29C
330
1F
100
AcDbEntity
  8
0
  6
Continuous
 62
     7
370
    15
100
AcDbLine
 10
321.0266821098
 20
120.3279813174
 30
0.0
 11
321.0327909173
 21
120.3279813174
 31
0.0
  0
SPLINE
  5
29D
330
1F
100
AcDbEntity
  8
0
  6
Continuous
 62
     7
370
    15
100
AcDbSpline
210
0.0
220
0.0
230
1.0
 70
     8
 71
     3
 72
     8
 73
     4
 74
     0
 42
0.000000001
 43
0.00000001
 40
0.0000004901790829
 40
0.0000004901790829
 40
0.0000004901790829
 40
0.0000004901790829
 40
1.000000000033925
 40
1.000000000033925
 40
1.000000000033925
 40
1.000000000033925
 10
253.5321057698381
 20
117.4618725099617
 30
0.0
 10
253.4777431074677
 20
117.4618725372132
 30
0.0
 10
253.4327909438641
 20
117.5069344302287
 30
0.0
 10
253.4327909172556
 20
117.5611872773346
 30
0.0
  0
LINE
  5
29E
330
1F
100
AcDbEntity
  8
0
  6
Continuous
 62
     7
370
    15
100
AcDbLine
 10
253.4956802524
 20
117.5611872773
 30
0.0
 11
253.4327909173
 21
117.5611872773
 31
0.0
  0
SPLINE
  5
29F
330
1F
100
AcDbEntity
  8
0
  6
Continuous
 62
     7
370
    15
100
AcDbSpline
210
0.0
220
0.0
230
1.0
 70
     8
 71
     3
 72
     8
 73
     4
 74
     0
 42
0.000000001
 43
0.00000001
 40
0.0000000869443942
 40
0.0000000869443942
 40
0.0000000869443942
 40
0.0000000869443942
 40
1.000000000046483
 40
1.000000000046483
 40
1.000000000046483
 40
1.000000000046483
 10
253.4956802523953
 20
117.5611872773373
 30
0.0
 10
253.4956802409534
 20
117.5411157046129
 30
0.0
 10
253.5119885529639
 20
117.5247618305746
 30
0.0
 10
253.532105716163
 20
117.5247618450947
 30
0.0
  0
LINE
  5
2A0
330
1F
100
AcDbEntity
  8
0
  6
Continuous
 62
     7
370
    15
100
AcDbLine
 10
253.5321056899
 20
117.46187251
 30
0.0
 11
253.5321057109
 21
117.5247618451
 31
0.0
  0
SPLINE
  5
2A1
330
1F
100
AcDbEntity
  8
0
  6
Continuous
 62
     7
370
    15
100
AcDbSpline
210
0.0
220
0.0
230
1.0
 70
     8
 71
     3
 72
     8
 73
     4
 74
     0
 42
0.000000001
 43
0.00000001
 40
0.0000004901790754
 40
0.0000004901790754
 40
0.0000004901790754
 40
0.0000004901790754
 40
1.000000000033958
 40
1.000000000033958
 40
1.000000000033958
 40
1.000000000033958
 10
253.5321057698381
 20
166.2618725099586
 30
0.0
 10
253.4777431074677
 20
166.2618724827071
 30
0.0
 10
253.4327909438641
 20
166.2168105896916
 30
0.0
 10
253.4327909172556
 20
166.1625577425857
 30
0.0
  0
LINE
  5
2A2
330
1F
100
AcDbEntity
  8
0
  6
Continuous
 62
     7
370
    15
100
AcDbLine
 10
253.5321056899
 20
166.26187251
 30
0.0
 11
253.5321057109
 21
166.1989831748
 31
0.0
  0
SPLINE
  5
2A3
330
1F
100
AcDbEntity
  8
0
  6
Continuous
 62
     7
370
    15
100
AcDbSpline
210
0.0
220
0.0
230
1.0
 70
     8
 71
     3
 72
     8
 73
     4
 74
     0
 42
0.000000001
 43
0.00000001
 40
0.0000000869443942
 40
0.0000000869443942
 40
0.0000000869443942
 40
0.0000000869443942
 40
1.000000000046483
 40
1.000000000046483
 40
1.000000000046483
 40
1.000000000046483
 10
253.4956802523953
 20
166.162557742583
 30
0.0
 10
253.4956802409534
 20
166.1826293153074
 30
0.0
 10
253.5119885529639
 20
166.1989831893457
 30
0.0
 10
253.532105716163
 20
166.1989831748256
 30
0.0
  0
LINE
  5
2A4
330
1F
100
AcDbEntity
  8
0
  6
Continuous
 62
     7
370
    15
100
AcDbLine
 10
253.4956802524
 20
166.1625577426
 30
0.0
 11
253.4327909173
 21
166.1625577426
 31
0.0
  0
LINE
  5
2A5
330
1F
100
AcDbEntity
  8
0
  6
Continuous
 62
     7
370
    15
100
AcDbLine
 10
253.5321056899
 20
166.26187251
 30
0.0
 11
322.1334761446
 21
166.26187251
 31
0.0
  0
LINE
  5
2A6
330
1F
100
AcDbEntity
  8
0
  6
Continuous
 62
     7
370
    15
100
AcDbLine
 10
253.4327909173
 20
117.5611872773
 30
0.0
 11
253.4327909173
 21
166.1625577426
 31
0.0
  0
LINE
  5
2A7
330
1F
100
AcDbEntity
  8
0
  6
Continuous
 62
     7
370
    15
100
AcDbLine
 10
322.1334761446
 20
117.46187251
 30
0.0
 11
253.5321056899
 21
117.46187251
 31
0.0
  0
SPLINE
  5
2A8
330
1F
100
AcDbEntity
  8
0
  6
Continuous
 62
     7
370
    15
100
AcDbSpline
210
0.0
220
0.0
230
1.0
 70
     8
 71
     3
 72
     8
 73
     4
 74
     0
 42
0.000000001
 43
0.00000001
 40
0.0000004901790829
 40
0.0000004901790829
 40
0.0000004901790829
 40
0.0000004901790829
 40
1.000000000033925
 40
1.000000000033925
 40
1.000000000033925
 40
1.000000000033925
 10
322.1334760646735
 20
117.4618725099617
 30
0.0
 10
322.1878387270439
 20
117.4618725372132
 30
0.0
 10
322.2327908906475
 20
117.5069344302287
 30
0.0
 10
322.232790917256
 20
117.5611872773346
 30
0.0
  0
LINE
  5
2A9
330
1F
100
AcDbEntity
  8
0
  6
Continuous
 62
     7
370
    15
100
AcDbLine
 10
322.2327909173
 20
166.1625577426
 30
0.0
 11
322.2327909173
 21
117.5611872773
 31
0.0
  0
SPLINE
  5
2AA
330
1F
100
AcDbEntity
  8
0
  6
Continuous
 62
     7
370
    15
100
AcDbSpline
210
0.0
220
0.0
230
1.0
 70
     8
 71
     3
 72
     8
 73
     4
 74
     0
 42
0.000000001
 43
0.00000001
 40
0.0000004901790754
 40
0.0000004901790754
 40
0.0000004901790754
 40
0.0000004901790754
 40
1.000000000033958
 40
1.000000000033958
 40
1.000000000033958
 40
1.000000000033958
 10
322.1334760646735
 20
166.2618725099586
 30
0.0
 10
322.1878387270439
 20
166.2618724827071
 30
0.0
 10
322.2327908906475
 20
166.2168105896916
 30
0.0
 10
322.232790917256
 20
166.1625577425857
 30
0.0
  0
LINE
  5
2AB
330
1F
100
AcDbEntity
  8
0
  6
Continuous
 62
     7
370
    15
100
AcDbLine
 10
253.0327909173
 20
117.5611872773
 30
0.0
 11
253.0327909173
 21
166.1625577426
 31
0.0
  0
ELLIPSE
  5
2AC
330
1F
100
AcDbEntity
  8
0
  6
Continuous
 62
     7
370
    15
100
AcDbEllipse
 10
253.5334770903
 20
166.161186337
 30
0.0
 11
0.3545231217175057
 21
-0.3545231217175341
 31
0.0
210
0.0
220
0.0
230
1.0
 40
0.9972646886
 41
2.357564018057945
 42
3.925621289123887
  0
LINE
  5
2AD
330
1F
100
AcDbEntity
  8
0
  6
Continuous
 62
     7
370
    15
100
AcDbLine
 10
253.5321056846
 20
166.66187251
 30
0.0
 11
322.1334761499
 21
166.66187251
 31
0.0
  0
ELLIPSE
  5
2AE
330
1F
100
AcDbEntity
  8
0
  6
Continuous
 62
     7
370
    15
100
AcDbEllipse
 10
322.1321047443
 20
166.161186337
 30
0.0
 11
0.3545231217174773
 21
0.3545231217175341
 31
0.0
210
0.0
220
0.0
230
1.0
 40
0.9972646886
 41
5.499156671645557
 42
7.067213942711374
  0
LINE
  5
2AF
330
1F
100
AcDbEntity
  8
0
  6
Continuous
 62
     7
370
    15
100
AcDbLine
 10
322.6327909173
 20
166.1625577426
 30
0.0
 11
322.6327909173
 21
117.5611872773
 31
0.0
  0
ELLIPSE
  5
2B0
330
1F
100
AcDbEntity
  8
0
  6
Continuous
 62
     7
370
    15
100
AcDbEllipse
 10
322.1321047443
 20
117.562558683
 30
0.0
 11
-0.354523121717591
 21
0.3545231217175341
 31
0.0
210
0.0
220
0.0
230
1.0
 40
0.9972646886
 41
2.357564018057795
 42
3.925621289123739
  0
LINE
  5
2B1
330
1F
100
AcDbEntity
  8
0
  6
Continuous
 62
     7
370
    15
100
AcDbLine
 10
322.1334761499
 20
117.06187251
 30
0.0
 11
253.5321056846
 21
117.06187251
 31
0.0
  0
ELLIPSE
  5
2B2
330
1F
100
AcDbEntity
  8
0
  6
Continuous
 62
     7
370
    15
100
AcDbEllipse
 10
253.5334770903
 20
117.562558683
 30
0.0
 11
-0.3545231217175342
 21
-0.3545231217175342
 31
0.0
210
0.0
220
0.0
230
1.0
 40
0.9972646886
 41
5.499156671645618
 42
7.067213942711475
  0
LINE
  5
2B3
330
1F
100
AcDbEntity
  8
0
  6
Continuous
 62
     7
370
    15
100
AcDbLine
 10
253.4956802524
 20
117.5611872773
 30
0.0
 11
253.4956802524
 21
166.1625577426
 31
0.0
  0
LINE
  5
2B4
330
1F
100
AcDbEntity
  8
0
  6
Continuous
 62
     7
370
    15
100
AcDbLine
 10
253.5321057109
 20
117.5247618451
 30
0.0
 11
322.1334761236
 21
117.5247618451
 31
0.0
  0
LINE
  5
2B5
330
1F
100
AcDbEntity
  8
0
  6
Continuous
 62
     7
370
    15
100
AcDbLine
 10
322.1334761446
 20
117.46187251
 30
0.0
 11
322.1334761236
 21
117.5247618451
 31
0.0
  0
LINE
  5
2B6
330
1F
100
AcDbEntity
  8
0
  6
Continuous
 62
     7
370
    15
100
AcDbLine
 10
322.1334761446
 20
166.26187251
 30
0.0
 11
322.1334761236
 21
166.1989831748
 31
0.0
  0
LINE
  5
2B7
330
1F
100
AcDbEntity
  8
0
  6
Continuous
 62
     7
370
    15
100
AcDbLine
 10
322.1334761236
 20
166.1989831748
 30
0.0
 11
253.5321057109
 21
166.1989831748
 31
0.0
  0
SPLINE
  5
2B8
330
1F
100
AcDbEntity
  8
0
  6
Continuous
 62
     7
370
    15
100
AcDbSpline
210
0.0
220
0.0
230
1.0
 70
     8
 71
     3
 72
     8
 73
     4
 74
     0
 42
0.000000001
 43
0.00000001
 40
0.0000000869443942
 40
0.0000000869443942
 40
0.0000000869443942
 40
0.0000000869443942
 40
1.000000000046483
 40
1.000000000046483
 40
1.000000000046483
 40
1.000000000046483
 10
322.1699015821163
 20
117.5611872773373
 30
0.0
 10
322.1699015935582
 20
117.5411157046129
 30
0.0
 10
322.1535932815477
 20
117.5247618305746
 30
0.0
 10
322.1334761183485
 20
117.5247618450947
 30
0.0
  0
LINE
  5
2B9
330
1F
100
AcDbEntity
  8
0
  6
Continuous
 62
     7
370
    15
100
AcDbLine
 10
322.1699015821
 20
117.5611872773
 30
0.0
 11
322.2327909173
 21
117.5611872773
 31
0.0
  0
LINE
  5
2BA
330
1F
100
AcDbEntity
  8
0
  6
Continuous
 62
     7
370
    15
100
AcDbLine
 10
322.1699015821
 20
166.1625577426
 30
0.0
 11
322.2327909173
 21
166.1625577426
 31
0.0
  0
SPLINE
  5
2BB
330
1F
100
AcDbEntity
  8
0
  6
Continuous
 62
     7
370
    15
100
AcDbSpline
210
0.0
220
0.0
230
1.0
 70
     8
 71
     3
 72
     8
 73
     4
 74
     0
 42
0.000000001
 43
0.00000001
 40
0.0000000869443942
 40
0.0000000869443942
 40
0.0000000869443942
 40
0.0000000869443942
 40
1.000000000046483
 40
1.000000000046483
 40
1.000000000046483
 40
1.000000000046483
 10
322.1699015821163
 20
166.162557742583
 30
0.0
 10
322.1699015935582
 20
166.1826293153074
 30
0.0
 10
322.1535932815477
 20
166.1989831893457
 30
0.0
 10
322.1334761183485
 20
166.1989831748256
 30
0.0
  0
LINE
  5
2BC
330
1F
100
AcDbEntity
  8
0
  6
Continuous
 62
     7
370
    15
100
AcDbLine
 10
322.1699015821
 20
166.1625577426
 30
0.0
 11
322.1699015821
 21
117.5611872773
 31
0.0
  0
LINE
  5
2BD
330
1F
100
AcDbEntity
  8
0
  6
Continuous
 62
     7
370
    15
100
AcDbLine
 10
255.0783453897
 20
119.4070158428
 30
0.0
 11
255.3779342501
 21
119.4070158428
 31
0.0
  0
LINE
  5
2BE
330
1F
100
AcDbEntity
  8
0
  6
Continuous
 62
     7
370
    15
100
AcDbLine
 10
255.3779342501
 20
119.1074269824
 30
0.0
 11
255.3779342501
 21
119.4070158428
 31
0.0
  0
LINE
  5
2BF
330
1F
100
AcDbEntity
  8
0
  6
Continuous
 62
     7
370
    15
100
AcDbLine
 10
255.3779342501
 20
164.6163180375
 30
0.0
 11
255.3779342501
 21
164.3167291771
 31
0.0
  0
LINE
  5
2C0
330
1F
100
AcDbEntity
  8
0
  6
Continuous
 62
     7
370
    15
100
AcDbLine
 10
255.0783453897
 20
164.3167291771
 30
0.0
 11
255.3779342501
 21
164.3167291771
 31
0.0
  0
LINE
  5
2C1
330
1F
100
AcDbEntity
  8
0
  6
Continuous
 62
     7
370
    15
100
AcDbLine
 10
255.3779342501
 20
164.3167291771
 30
0.0
 11
255.3779342501
 21
119.4070158428
 31
0.0
  0
LINE
  5
2C2
330
1F
100
AcDbEntity
  8
0
  6
Continuous
 62
     7
370
    15
100
AcDbLine
 10
255.3779342501
 20
119.4070158428
 30
0.0
 11
320.2876475844
 21
119.4070158428
 31
0.0
  0
LINE
  5
2C3
330
1F
100
AcDbEntity
  8
0
  6
Continuous
 62
     7
370
    15
100
AcDbLine
 10
320.2876475844
 20
119.1074269824
 30
0.0
 11
320.2876475844
 21
119.4070158428
 31
0.0
  0
LINE
  5
2C4
330
1F
100
AcDbEntity
  8
0
  6
Continuous
 62
     7
370
    15
100
AcDbLine
 10
320.2876475844
 20
164.6163180375
 30
0.0
 11
320.2876475844
 21
164.3167291771
 31
0.0
  0
LINE
  5
2C5
330
1F
100
AcDbEntity
  8
0
  6
Continuous
 62
     7
370
    15
100
AcDbLine
 10
320.2876475844
 20
164.3167291771
 30
0.0
 11
255.3779342501
 21
164.3167291771
 31
0.0
  0
LINE
  5
2C6
330
1F
100
AcDbEntity
  8
0
  6
Continuous
 62
     7
370
    15
100
AcDbLine
 10
320.5872364448
 20
119.4070158428
 30
0.0
 11
320.2876475844
 21
119.4070158428
 31
0.0
  0
LINE
  5
2C7
330
1F
100
AcDbEntity
  8
0
  6
Continuous
 62
     7
370
    15
100
AcDbLine
 10
320.2876475844
 20
119.4070158428
 30
0.0
 11
320.2876475844
 21
164.3167291771
 31
0.0
  0
LINE
  5
2C8
330
1F
100
AcDbEntity
  8
0
  6
Continuous
 62
     7
370
    15
100
AcDbLine
 10
320.5872364448
 20
164.3167291771
 30
0.0
 11
320.2876475844
 21
164.3167291771
 31
0.0
  0
ENDSEC
  0
SECTION
  2
OBJECTS
  0
DICTIONARY
  5
C
330
0
100
AcDbDictionary
281
     1
  3
ACAD_GROUP
350
D
  3
ACAD_LAYOUT
350
1A
  3
ACAD_MLINESTYLE
350
17
  3
ACAD_PLOTSETTINGS
350
19
  3
ACAD_PLOTSTYLENAME
350
E
  3
ACAD_SCALELIST
350
47
  0
DICTIONARY
  5
D
102
{ACAD_REACTORS
330
C
102
}
330
C
100
AcDbDictionary
281
     1
  0
DICTIONARY
  5
1A
102
{ACAD_REACTORS
330
C
102
}
330
C
100
AcDbDictionary
281
     1
  3
Layout1
350
1E
  3
Layout2
350
26
  3
Model
350
22
  0
DICTIONARY
  5
17
102
{ACAD_REACTORS
330
C
102
}
330
C
100
AcDbDictionary
281
     1
  3
Standard
350
18
  0
DICTIONARY
  5
19
102
{ACAD_REACTORS
330
C
102
}
330
C
100
AcDbDictionary
281
     1
  0
ACDBDICTIONARYWDFLT
  5
E
102
{ACAD_REACTORS
330
C
102
}
330
C
100
AcDbDictionary
281
     1
  3
Normal
350
F
100
AcDbDictionaryWithDefault
340
F
  0
DICTIONARY
  5
47
102
{ACAD_REACTORS
330
C
102
}
330
C
100
AcDbDictionary
281
     1
  3
A0
350
48
  3
A1
350
49
  3
A2
350
4A
  3
A3
350
4B
  3
A4
350
4C
  3
A5
350
4D
  3
A6
350
4E
  3
A7
350
4F
  3
A8
350
50
  3
A9
350
51
  3
B0
350
52
  3
B1
350
53
  3
B2
350
54
  3
B3
350
55
  3
B4
350
56
  3
B5
350
57
  3
B6
350
58
  3
B7
350
59
  3
B8
350
5A
  3
B9
350
5B
  3
C0
350
5C
  3
C1
350
5D
  3
C2
350
5E
  3
C3
350
5F
  3
C4
350
60
  3
C5
350
61
  3
C6
350
62
  3
C7
350
63
  3
C8
350
64
  3
C9
350
65
  3
D0
350
66
  3
D1
350
67
  3
D2
350
68
  0
LAYOUT
  5
1E
102
{ACAD_REACTORS
330
1A
102
}
330
1A
100
AcDbPlotSettings
  1

  2
none_device
  4

  6

 40
0.0
 41
0.0
 42
0.0
 43
0.0
 44
0.0
 45
0.0
 46
0.0
 47
0.0
 48
0.0
 49
0.0
140
0.0
141
0.0
142
1.0
143
1.0
 70
   688
 72
     1
 73
     0
 74
     5
  7

 75
    16
147
1.0
148
0.0
149
0.0
100
AcDbLayout
  1
Layout1
 70
     1
 71
     1
 10
0.0
 20
0.0
 11
420.0
 21
297.0
 12
0.0
 22
0.0
 32
0.0
 14
1.0000000000E+20
 24
1.0000000000E+20
 34
1.0000000000E+20
 15
-1.0000000000E+20
 25
-1.0000000000E+20
 35
-1.0000000000E+20
146
0.0
 13
0.0
 23
0.0
 33
0.0
 16
1.0
 26
0.0
 36
0.0
 17
0.0
 27
1.0
 37
0.0
 76
     0
330
1B
  0
LAYOUT
  5
26
102
{ACAD_REACTORS
330
1A
102
}
330
1A
100
AcDbPlotSettings
  1

  2
none_device
  4

  6

 40
0.0
 41
0.0
 42
0.0
 43
0.0
 44
0.0
 45
0.0
 46
0.0
 47
0.0
 48
0.0
 49
0.0
140
0.0
141
0.0
142
1.0
143
1.0
 70
   688
 72
     1
 73
     0
 74
     5
  7

 75
    16
147
1.0
148
0.0
149
0.0
100
AcDbLayout
  1
Layout2
 70
     1
 71
     2
 10
0.0
 20
0.0
 11
0.0
 21
0.0
 12
0.0
 22
0.0
 32
0.0
 14
0.0
 24
0.0
 34
0.0
 15
0.0
 25
0.0
 35
0.0
146
0.0
 13
0.0
 23
0.0
 33
0.0
 16
1.0
 26
0.0
 36
0.0
 17
0.0
 27
1.0
 37
0.0
 76
     0
330
23
  0
LAYOUT
  5
22
102
{ACAD_REACTORS
330
1A
102
}
330
1A
100
AcDbPlotSettings
  1

  2
none_device
  4
Letter_(8.50_x_11.00_Inches)
  6

 40
6.35
 41
6.35
 42
6.35000508
 43
6.35000508
 44
215.9
 45
279.4
 46
0.0
 47
0.0
 48
0.0
 49
0.0
140
0.0
141
0.0
142
1.0
143
1.0
 70
  1712
 72
     1
 73
     0
 74
     0
  7

 75
     0
147
1.0
148
0.0
149
0.0
100
AcDbLayout
  1
Model
 70
     1
 71
     0
 10
0.0
 20
0.0
 11
420.0
 21
297.0
 12
0.0
 22
0.0
 32
0.0
 14
0.0
 24
0.0
 34
0.0
 15
420.0
 25
297.0
 35
0.0
146
0.0
 13
0.0
 23
0.0
 33
0.0
 16
1.0
 26
0.0
 36
0.0
 17
0.0
 27
1.0
 37
0.0
 76
     0
330
1F
331
29
  0
MLINESTYLE
  5
18
102
{ACAD_REACTORS
330
17
102
}
330
17
100
AcDbMlineStyle
  2
Standard
 70
     0
  3

 62
   256
 51
90.0
 52
90.0
 71
     2
 49
0.5
 62
   256
  6
BYLAYER
 49
-0.5
 62
   256
  6
BYLAYER
  0
ACDBPLACEHOLDER
  5
F
102
{ACAD_REACTORS
330
E
102
}
330
E
  0
SCALE
  5
48
102
{ACAD_REACTORS
330
47
102
}
330
47
100
AcDbScale
 70
     0
300
1:1
140
1.0
141
1.0
290
     1
  0
SCALE
  5
49
102
{ACAD_REACTORS
330
47
102
}
330
47
100
AcDbScale
 70
     0
300
1:2
140
1.0
141
2.0
290
     0
  0
SCALE
  5
4A
102
{ACAD_REACTORS
330
47
102
}
330
47
100
AcDbScale
 70
     0
300
1:4
140
1.0
141
4.0
290
     0
  0
SCALE
  5
4B
102
{ACAD_REACTORS
330
47
102
}
330
47
100
AcDbScale
 70
     0
300
1:5
140
1.0
141
5.0
290
     0
  0
SCALE
  5
4C
102
{ACAD_REACTORS
330
47
102
}
330
47
100
AcDbScale
 70
     0
300
1:8
140
1.0
141
8.0
290
     0
  0
SCALE
  5
4D
102
{ACAD_REACTORS
330
47
102
}
330
47
100
AcDbScale
 70
     0
300
1:10
140
1.0
141
10.0
290
     0
  0
SCALE
  5
4E
102
{ACAD_REACTORS
330
47
102
}
330
47
100
AcDbScale
 70
     0
300
1:16
140
1.0
141
16.0
290
     0
  0
SCALE
  5
4F
102
{ACAD_REACTORS
330
47
102
}
330
47
100
AcDbScale
 70
     0
300
1:20
140
1.0
141
20.0
290
     0
  0
SCALE
  5
50
102
{ACAD_REACTORS
330
47
102
}
330
47
100
AcDbScale
 70
     0
300
1:30
140
1.0
141
30.0
290
     0
  0
SCALE
  5
51
102
{ACAD_REACTORS
330
47
102
}
330
47
100
AcDbScale
 70
     0
300
1:40
140
1.0
141
40.0
290
     0
  0
SCALE
  5
52
102
{ACAD_REACTORS
330
47
102
}
330
47
100
AcDbScale
 70
     0
300
1:50
140
1.0
141
50.0
290
     0
  0
SCALE
  5
53
102
{ACAD_REACTORS
330
47
102
}
330
47
100
AcDbScale
 70
     0
300
1:100
140
1.0
141
100.0
290
     0
  0
SCALE
  5
54
102
{ACAD_REACTORS
330
47
102
}
330
47
100
AcDbScale
 70
     0
300
2:1
140
2.0
141
1.0
290
     0
  0
SCALE
  5
55
102
{ACAD_REACTORS
330
47
102
}
330
47
100
AcDbScale
 70
     0
300
4:1
140
4.0
141
1.0
290
     0
  0
SCALE
  5
56
102
{ACAD_REACTORS
330
47
102
}
330
47
100
AcDbScale
 70
     0
300
8:1
140
8.0
141
1.0
290
     0
  0
SCALE
  5
57
102
{ACAD_REACTORS
330
47
102
}
330
47
100
AcDbScale
 70
     0
300
10:1
140
10.0
141
1.0
290
     0
  0
SCALE
  5
58
102
{ACAD_REACTORS
330
47
102
}
330
47
100
AcDbScale
 70
     0
300
100:1
140
100.0
141
1.0
290
     0
  0
SCALE
  5
59
102
{ACAD_REACTORS
330
47
102
}
330
47
100
AcDbScale
 70
     0
300
1/128" = 1'-0"
140
0.0078125
141
12.0
290
     0
  0
SCALE
  5
5A
102
{ACAD_REACTORS
330
47
102
}
330
47
100
AcDbScale
 70
     0
300
1/64" = 1'-0"
140
0.015625
141
12.0
290
     0
  0
SCALE
  5
5B
102
{ACAD_REACTORS
330
47
102
}
330
47
100
AcDbScale
 70
     0
300
1/32" = 1'-0"
140
0.03125
141
12.0
290
     0
  0
SCALE
  5
5C
102
{ACAD_REACTORS
330
47
102
}
330
47
100
AcDbScale
 70
     0
300
1/16" = 1'-0"
140
0.0625
141
12.0
290
     0
  0
SCALE
  5
5D
102
{ACAD_REACTORS
330
47
102
}
330
47
100
AcDbScale
 70
     0
300
3/32" = 1'-0"
140
0.09375
141
12.0
290
     0
  0
SCALE
  5
5E
102
{ACAD_REACTORS
330
47
102
}
330
47
100
AcDbScale
 70
     0
300
1/8" = 1'-0"
140
0.125
141
12.0
290
     0
  0
SCALE
  5
5F
102
{ACAD_REACTORS
330
47
102
}
330
47
100
AcDbScale
 70
     0
300
3/16" = 1'-0"
140
0.1875
141
12.0
290
     0
  0
SCALE
  5
60
102
{ACAD_REACTORS
330
47
102
}
330
47
100
AcDbScale
 70
     0
300
1/4" = 1'-0"
140
0.25
141
12.0
290
     0
  0
SCALE
  5
61
102
{ACAD_REACTORS
330
47
102
}
330
47
100
AcDbScale
 70
     0
300
3/8" = 1'-0"
140
0.375
141
12.0
290
     0
  0
SCALE
  5
62
102
{ACAD_REACTORS
330
47
102
}
330
47
100
AcDbScale
 70
     0
300
1/2" = 1'-0"
140
0.5
141
12.0
290
     0
  0
SCALE
  5
63
102
{ACAD_REACTORS
330
47
102
}
330
47
100
AcDbScale
 70
     0
300
3/4" = 1'-0"
140
0.75
141
12.0
290
     0
  0
SCALE
  5
64
102
{ACAD_REACTORS
330
47
102
}
330
47
100
AcDbScale
 70
     0
300
1" = 1'-0"
140
1.0
141
12.0
290
     0
  0
SCALE
  5
65
102
{ACAD_REACTORS
330
47
102
}
330
47
100
AcDbScale
 70
     0
300
1-1/2" = 1'-0"
140
1.5
141
12.0
290
     0
  0
SCALE
  5
66
102
{ACAD_REACTORS
330
47
102
}
330
47
100
AcDbScale
 70
     0
300
3" = 1'-0"
140
3.0
141
12.0
290
     0
  0
SCALE
  5
67
102
{ACAD_REACTORS
330
47
102
}
330
47
100
AcDbScale
 70
     0
300
6" = 1'-0"
140
6.0
141
12.0
290
     0
  0
SCALE
  5
68
102
{ACAD_REACTORS
330
47
102
}
330
47
100
AcDbScale
 70
     0
300
1'-0" = 1'-0"
140
12.0
141
12.0
290
     0
  0
ENDSEC
  0
EOF
