  0
SECTION
  2
HEADER
  9
$ACADVER
  1
AC1015
  9
$ACADMAINTVER
 70
     6
  9
$DWGCODEPAGE
  3
ANSI_1252
  9
$INSBASE
 10
0.0
 20
0.0
 30
0.0
  9
$EXTMIN
 10
0.0
 20
0.0
 30
0.0
  9
$EXTMAX
 10
420.0
 20
297.0
 30
0.0
  9
$LIMMIN
 10
0.0
 20
0.0
  9
$LIMMAX
 10
420.0
 20
297.0
  9
$ORTHOMODE
 70
     0
  9
$REGENMODE
 70
     1
  9
$FILLMODE
 70
     1
  9
$QTEXTMODE
 70
     0
  9
$MIRRTEXT
 70
     1
  9
$LTSCALE
 40
1.0
  9
$ATTMODE
 70
     1
  9
$TEXTSIZE
 40
3.5
  9
$TRACEWID
 40
1.0
  9
$TEXTSTYLE
  7
Standard
  9
$CLAYER
  8
0
  9
$CELTYPE
  6
ByLayer
  9
$CECOLOR
 62
   256
  9
$CELTSCALE
 40
1.0
  9
$DISPSILH
 70
     0
  9
$DIMSCALE
 40
1.0
  9
$DIMASZ
 40
6.0
  9
$DIMEXO
 40
1.0
  9
$DIMDLI
 40
3.75
  9
$DIMRND
 40
0.0
  9
$DIMDLE
 40
0.0
  9
$DIMEXE
 40
1.0
  9
$DIMTP
 40
0.0
  9
$DIMTM
 40
0.0
  9
$DIMTXT
 40
3.5
  9
$DIMCEN
 40
2.5
  9
$DIMTSZ
 40
0.0
  9
$DIMTOL
 70
     0
  9
$DIMLIM
 70
     0
  9
$DIMTIH
 70
     1
  9
$DIMTOH
 70
     1
  9
$DIMSE1
 70
     0
  9
$DIMSE2
 70
     0
  9
$DIMTAD
 70
     1
  9
$DIMZIN
 70
     0
  9
$DIMBLK
  1

  9
$DIMASO
 70
     1
  9
$DIMSHO
 70
     1
  9
$DIMPOST
  1

  9
$DIMAPOST
  1

  9
$DIMALT
 70
     0
  9
$DIMALTD
 70
     3
  9
$DIMALTF
 40
0.0393700787
  9
$DIMLFAC
 40
5.0
  9
$DIMTOFL
 70
     1
  9
$DIMTVP
 40
0.0
  9
$DIMTIX
 70
     0
  9
$DIMSOXD
 70
     0
  9
$DIMSAH
 70
     0
  9
$DIMBLK1
  1

  9
$DIMBLK2
  1

  9
$DIMSTYLE
  2
ISO-25
  9
$DIMCLRD
 70
     0
  9
$DIMCLRE
 70
     0
  9
$DIMCLRT
 70
     0
  9
$DIMTFAC
 40
1.0
  9
$DIMGAP
 40
1.524
  9
$DIMJUST
 70
     0
  9
$DIMSD1
 70
     0
  9
$DIMSD2
 70
     0
  9
$DIMTOLJ
 70
     0
  9
$DIMTZIN
 70
     0
  9
$DIMALTZ
 70
     0
  9
$DIMALTTZ
 70
     0
  9
$DIMUPT
 70
     0
  9
$DIMDEC
 70
     2
  9
$DIMTDEC
 70
     2
  9
$DIMALTU
 70
     2
  9
$DIMALTTD
 70
     3
  9
$DIMTXSTY
  7
Standard
  9
$DIMAUNIT
 70
     0
  9
$DIMADEC
 70
     2
  9
$DIMALTRND
 40
0.0
  9
$DIMAZIN
 70
     0
  9
$DIMDSEP
 70
    44
  9
$DIMATFIT
 70
     3
  9
$DIMFRAC
 70
     0
  9
$DIMLDRBLK
  1

  9
$DIMLUNIT
 70
     2
  9
$DIMLWD
 70
    -2
  9
$DIMLWE
 70
    -2
  9
$DIMTMOVE
 70
     0
  9
$LUNITS
 70
     2
  9
$LUPREC
 70
     2
  9
$SKETCHINC
 40
1.0
  9
$FILLETRAD
 40
10.0
  9
$AUNITS
 70
     0
  9
$AUPREC
 70
     2
  9
$MENU
  1
.
  9
$ELEVATION
 40
0.0
  9
$PELEVATION
 40
0.0
  9
$THICKNESS
 40
0.0
  9
$LIMCHECK
 70
     0
  9
$CHAMFERA
 40
0.0
  9
$CHAMFERB
 40
0.0
  9
$CHAMFERC
 40
0.0
  9
$CHAMFERD
 40
0.0
  9
$SKPOLY
 70
     0
  9
$TDCREATE
 40
2456989.505500289
  9
$TDUCREATE
 40
2456989.422166956
  9
$TDUPDATE
 40
2456989.50550088
  9
$TDUUPDATE
 40
2456989.422167546
  9
$TDINDWG
 40
0.0000000116
  9
$TDUSRTIMER
 40
0.0000000116
  9
$USRTIMER
 70
     1
  9
$ANGBASE
 50
0.0
  9
$ANGDIR
 70
     0
  9
$PDMODE
 70
     0
  9
$PDSIZE
 40
-1.0
  9
$PLINEWID
 40
0.0
  9
$SPLFRAME
 70
     0
  9
$SPLINETYPE
 70
     6
  9
$SPLINESEGS
 70
     8
  9
$HANDSEED
  5
4E5
  9
$SURFTAB1
 70
     6
  9
$SURFTAB2
 70
     6
  9
$SURFTYPE
 70
     6
  9
$SURFU
 70
     6
  9
$SURFV
 70
     6
  9
$UCSBASE
  2

  9
$UCSNAME
  2

  9
$UCSORG
 10
0.0
 20
0.0
 30
0.0
  9
$UCSXDIR
 10
1.0
 20
0.0
 30
0.0
  9
$UCSYDIR
 10
0.0
 20
1.0
 30
0.0
  9
$UCSORTHOREF
  2

  9
$UCSORTHOVIEW
 70
     0
  9
$UCSORGTOP
 10
0.0
 20
0.0
 30
0.0
  9
$UCSORGBOTTOM
 10
0.0
 20
0.0
 30
0.0
  9
$UCSORGLEFT
 10
0.0
 20
0.0
 30
0.0
  9
$UCSORGRIGHT
 10
0.0
 20
0.0
 30
0.0
  9
$UCSORGFRONT
 10
0.0
 20
0.0
 30
0.0
  9
$UCSORGBACK
 10
0.0
 20
0.0
 30
0.0
  9
$PUCSBASE
  2

  9
$PUCSNAME
  2

  9
$PUCSORG
 10
0.0
 20
0.0
 30
0.0
  9
$PUCSXDIR
 10
1.0
 20
0.0
 30
0.0
  9
$PUCSYDIR
 10
0.0
 20
1.0
 30
0.0
  9
$PUCSORTHOREF
  2

  9
$PUCSORTHOVIEW
 70
     0
  9
$PUCSORGTOP
 10
0.0
 20
0.0
 30
0.0
  9
$PUCSORGBOTTOM
 10
0.0
 20
0.0
 30
0.0
  9
$PUCSORGLEFT
 10
0.0
 20
0.0
 30
0.0
  9
$PUCSORGRIGHT
 10
0.0
 20
0.0
 30
0.0
  9
$PUCSORGFRONT
 10
0.0
 20
0.0
 30
0.0
  9
$PUCSORGBACK
 10
0.0
 20
0.0
 30
0.0
  9
$USERI1
 70
     0
  9
$USERI2
 70
     0
  9
$USERI3
 70
     0
  9
$USERI4
 70
     0
  9
$USERI5
 70
     0
  9
$USERR1
 40
0.0
  9
$USERR2
 40
0.0
  9
$USERR3
 40
0.0
  9
$USERR4
 40
0.0
  9
$USERR5
 40
0.0
  9
$WORLDVIEW
 70
     1
  9
$SHADEDGE
 70
     3
  9
$SHADEDIF
 70
    70
  9
$TILEMODE
 70
     1
  9
$MAXACTVP
 70
    64
  9
$PINSBASE
 10
0.0
 20
0.0
 30
0.0
  9
$PLIMCHECK
 70
     0
  9
$PEXTMIN
 10
1.0000000000E+20
 20
1.0000000000E+20
 30
1.0000000000E+20
  9
$PEXTMAX
 10
-1.0000000000E+20
 20
-1.0000000000E+20
 30
-1.0000000000E+20
  9
$PLIMMIN
 10
0.0
 20
0.0
  9
$PLIMMAX
 10
420.0
 20
297.0
  9
$UNITMODE
 70
     0
  9
$VISRETAIN
 70
     1
  9
$PLINEGEN
 70
     0
  9
$PSLTSCALE
 70
     1
  9
$TREEDEPTH
 70
  3020
  9
$CMLSTYLE
  2
Standard
  9
$CMLJUST
 70
     0
  9
$CMLSCALE
 40
20.0
  9
$PROXYGRAPHICS
 70
     1
  9
$MEASUREMENT
 70
     1
  9
$CELWEIGHT
370
    -1
  9
$ENDCAPS
280
     0
  9
$JOINSTYLE
280
     0
  9
$LWDISPLAY
290
     1
  9
$INSUNITS
 70
     4
  9
$HYPERLINKBASE
  1

  9
$STYLESHEET
  1

  9
$XEDIT
290
     1
  9
$CEPSNTYPE
380
     0
  9
$PSTYLEMODE
290
     1
  9
$FINGERPRINTGUID
  2
{77736ABC-8E66-4769-AB17-999FDDAE4C0E}
  9
$VERSIONGUID
  2
{FAEB1C32-E019-11D5-929B-00C0DF256EC4}
  9
$EXTNAMES
290
     1
  9
$PSVPSCALE
 40
0.0
  9
$OLESTARTUP
290
     0
  0
ENDSEC
  0
SECTION
  2
CLASSES
  0
CLASS
  1
ACDBDICTIONARYWDFLT
  2
AcDbDictionaryWithDefault
  3
ObjectDBX Classes
 90
        0
280
     0
281
     0
  0
CLASS
  1
VISUALSTYLE
  2
AcDbVisualStyle
  3
ObjectDBX Classes
 90
     4095
280
     0
281
     0
  0
CLASS
  1
MATERIAL
  2
AcDbMaterial
  3
ObjectDBX Classes
 90
     1153
280
     0
281
     0
  0
CLASS
  1
SCALE
  2
AcDbScale
  3
ObjectDBX Classes
 90
     1153
280
     0
281
     0
  0
CLASS
  1
SUN
  2
AcDbSun
  3
SCENEOE
 90
     1153
280
     0
281
     0
  0
CLASS
  1
ACDBPLACEHOLDER
  2
AcDbPlaceHolder
  3
ObjectDBX Classes
 90
        0
280
     0
281
     0
  0
CLASS
  1
LAYOUT
  2
AcDbLayout
  3
ObjectDBX Classes
 90
        0
280
     0
281
     0
  0
ENDSEC
  0
SECTION
  2
TABLES
  0
TABLE
  2
VPORT
  5
8
330
0
100
AcDbSymbolTable
 70
     1
  0
VPORT
  5
29
330
8
100
AcDbSymbolTableRecord
100
AcDbViewportTableRecord
  2
*Active
 70
     0
 10
0.0
 20
0.0
 11
1.0
 21
1.0
 12
210.0
 22
148.5
 13
0.0
 23
0.0
 14
10.0
 24
10.0
 15
10.0
 25
10.0
 16
0.0
 26
0.0
 36
1.0
 17
0.0
 27
0.0
 37
0.0
 40
297.0
 41
1.4141414141
 42
50.0
 43
0.0
 44
0.0
 50
0.0
 51
0.0
 71
     0
 72
  2000
 73
     1
 74
     3
 75
     0
 76
     0
 77
     0
 78
     0
281
     0
 65
     1
110
0.0
120
0.0
130
0.0
111
1.0
121
0.0
131
0.0
112
0.0
122
1.0
132
0.0
 79
     0
146
0.0
  0
ENDTAB
  0
TABLE
  2
LTYPE
  5
5
330
0
100
AcDbSymbolTable
 70
     6
  0
LTYPE
  5
14
330
5
100
AcDbSymbolTableRecord
100
AcDbLinetypeTableRecord
  2
ByBlock
 70
     0
  3

 72
    65
 73
     0
 40
0.0
  0
LTYPE
  5
15
330
5
100
AcDbSymbolTableRecord
100
AcDbLinetypeTableRecord
  2
ByLayer
 70
     0
  3

 72
    65
 73
     0
 40
0.0
  0
LTYPE
  5
16
330
5
100
AcDbSymbolTableRecord
100
AcDbLinetypeTableRecord
  2
Continuous
 70
     0
  3
Solid line
 72
    65
 73
     0
 40
0.0
  0
LTYPE
  5
6A
330
5
100
AcDbSymbolTableRecord
100
AcDbLinetypeTableRecord
  2
HIDDEN
 70
     0
  3
Hidden __ __ __ __ __ __ __ __ __ __ __ __ __ __
 72
    65
 73
     2
 40
1.905
 49
1.27
 74
     0
 49
-0.635
 74
     0
  0
LTYPE
  5
6B
330
5
100
AcDbSymbolTableRecord
100
AcDbLinetypeTableRecord
  2
PHANTOM
 70
     0
  3
Phantom ______  __  __  ______  __  __  ______
 72
    65
 73
     6
 40
12.7
 49
6.35
 74
     0
 49
-1.27
 74
     0
 49
1.27
 74
     0
 49
-1.27
 74
     0
 49
1.27
 74
     0
 49
-1.27
 74
     0
  0
LTYPE
  5
6C
330
5
100
AcDbSymbolTableRecord
100
AcDbLinetypeTableRecord
  2
CENTER
 70
     0
  3
Center ____ _ ____ _ ____ _ ____ _ ____ _ ____
 72
    65
 73
     4
 40
10.16
 49
6.35
 74
     0
 49
-1.27
 74
     0
 49
1.27
 74
     0
 49
-1.27
 74
     0
  0
LTYPE
  5
6D
330
5
100
AcDbSymbolTableRecord
100
AcDbLinetypeTableRecord
  2
CENTERX2
 70
     0
  3
Center (2x) ________  __  ________  __  _____
 72
    65
 73
     4
 40
20.32
 49
12.7
 74
     0
 49
-2.54
 74
     0
 49
2.54
 74
     0
 49
-2.54
 74
     0
  0
LTYPE
  5
6E
330
5
100
AcDbSymbolTableRecord
100
AcDbLinetypeTableRecord
  2
DOT2
 70
     0
  3
Dot (.5x) ........................................
 72
    65
 73
     2
 40
0.635
 49
0.0
 74
     0
 49
-0.635
 74
     0
  0
ENDTAB
  0
TABLE
  2
LAYER
  5
2
330
0
100
AcDbSymbolTable
 70
     1
  0
LAYER
  5
10
330
2
100
AcDbSymbolTableRecord
100
AcDbLayerTableRecord
  2
0
 70
     0
 62
     7
  6
Continuous
370
    -3
390
F
  0
ENDTAB
  0
TABLE
  2
STYLE
  5
3
330
0
100
AcDbSymbolTable
 70
     1
  0
STYLE
  5
11
330
3
100
AcDbSymbolTableRecord
100
AcDbTextStyleTableRecord
  2
Standard
 70
     0
 40
0.0
 41
1.0
 50
0.0
 71
     0
 42
3.5
  3
txt
  4

  0
ENDTAB
  0
TABLE
  2
VIEW
  5
6
330
0
100
AcDbSymbolTable
 70
     0
  0
ENDTAB
  0
TABLE
  2
UCS
  5
7
330
0
100
AcDbSymbolTable
 70
     0
  0
ENDTAB
  0
TABLE
  2
APPID
  5
9
330
0
100
AcDbSymbolTable
 70
     1
  0
APPID
  5
12
330
9
100
AcDbSymbolTableRecord
100
AcDbRegAppTableRecord
  2
ACAD
 70
     0
  0
ENDTAB
  0
TABLE
  2
DIMSTYLE
  5
A
330
0
100
AcDbSymbolTable
 70
     1
100
AcDbDimStyleTable
  0
DIMSTYLE
105
27
330
A
100
AcDbSymbolTableRecord
100
AcDbDimStyleTableRecord
  2
ISO-25
 70
     0
 41
2.5
 42
0.625
 43
3.75
 44
1.25
 73
     0
 74
     0
 77
     1
 78
     8
140
2.5
141
2.5
143
0.0393700787
147
0.625
171
     3
172
     1
178
     0
271
     2
272
     2
274
     3
278
    44
283
     0
284
     8
340
11
  0
ENDTAB
  0
TABLE
  2
BLOCK_RECORD
  5
1
330
0
100
AcDbSymbolTable
 70
     1
  0
BLOCK_RECORD
  5
1F
330
1
100
AcDbSymbolTableRecord
100
AcDbBlockTableRecord
  2
*Model_Space
340
22
  0
BLOCK_RECORD
  5
1B
330
1
100
AcDbSymbolTableRecord
100
AcDbBlockTableRecord
  2
*Paper_Space
340
1E
  0
BLOCK_RECORD
  5
23
330
1
100
AcDbSymbolTableRecord
100
AcDbBlockTableRecord
  2
*Paper_Space0
340
26
  0
ENDTAB
  0
ENDSEC
  0
SECTION
  2
BLOCKS
  0
BLOCK
  5
20
330
1F
100
AcDbEntity
  8
0
100
AcDbBlockBegin
  2
*Model_Space
 70
     0
 10
0.0
 20
0.0
 30
0.0
  3
*Model_Space
  1
*Model_Space
  0
ENDBLK
  5
21
330
1F
100
AcDbEntity
  8
0
100
AcDbBlockEnd
  0
BLOCK
  5
1C
330
1B
100
AcDbEntity
 67
     1
  8
0
100
AcDbBlockBegin
  2
*Paper_Space
 70
     0
 10
0.0
 20
0.0
 30
0.0
  3
*Paper_Space
  1
*Paper_Space
  0
ENDBLK
  5
1D
330
1B
100
AcDbEntity
 67
     1
  8
0
100
AcDbBlockEnd
  0
BLOCK
  5
24
330
23
100
AcDbEntity
  8
0
100
AcDbBlockBegin
  2
*Paper_Space0
 70
     0
 10
0.0
 20
0.0
 30
0.0
  3
*Paper_Space0
  1
*Paper_Space0
  0
ENDBLK
  5
25
330
23
100
AcDbEntity
  8
0
100
AcDbBlockEnd
  0
ENDSEC
  0
SECTION
  2
ENTITIES
  0
SPLINE
  5
6F
330
1F
100
AcDbEntity
  8
0
  6
Continuous
 62
     7
370
    15
100
AcDbSpline
210
0.0
220
0.0
230
1.0
 70
     8
 71
     3
 72
    18
 73
    14
 74
     0
 42
0.000000001
 43
0.00000001
 40
0.0
 40
0.0
 40
0.0
 40
0.0
 40
0.09090909090909
 40
0.1818181818182
 40
0.2727272727273
 40
0.3636363636364
 40
0.4545454545455
 40
0.5454545454545
 40
0.6363636363636
 40
0.7272727272727
 40
0.8181818181818
 40
0.9090909090909
 40
1.0
 40
1.0
 40
1.0
 40
1.0
 10
182.4716833183133
 20
112.5039365431635
 30
0.0
 10
182.4716831327133
 20
112.4844296101235
 30
0.0
 10
182.4689223750933
 20
112.4474326165635
 30
0.0
 10
182.4586536170733
 20
112.3982116950635
 30
0.0
 10
182.4438468802733
 20
112.3545472685035
 30
0.0
 10
182.4249724668532
 20
112.3146746092235
 30
0.0
 10
182.4017013948133
 20
112.2772450422635
 30
0.0
 10
182.3727781659732
 20
112.2410625207235
 30
0.0
 10
182.3362948516533
 20
112.2057354640835
 30
0.0
 10
182.2894432426733
 20
112.1718708952835
 30
0.0
 10
182.2314050429133
 20
112.1428757342835
 30
0.0
 10
182.1632998997732
 20
112.1228007655635
 30
0.0
 10
182.1123062150932
 20
112.1175663590035
 30
0.0
 10
182.0853129877933
 20
112.1175662126435
 30
0.0
  0
LINE
  5
70
330
1F
100
AcDbEntity
  8
0
  6
Continuous
 62
     7
370
    15
100
AcDbLine
 10
182.0853133144
 20
112.1175671789
 30
0.0
 11
182.0853133144
 21
112.3107517931
 31
0.0
  0
SPLINE
  5
71
330
1F
100
AcDbEntity
  8
0
  6
Continuous
 62
     7
370
    15
100
AcDbSpline
210
0.0
220
0.0
230
1.0
 70
     8
 71
     3
 72
    14
 73
    10
 74
     0
 42
0.000000001
 43
0.00000001
 40
0.0
 40
0.0
 40
0.0
 40
0.0
 40
0.25
 40
0.25
 40
0.5
 40
0.5
 40
0.75
 40
0.75
 40
1.0
 40
1.0
 40
1.0
 40
1.0
 10
182.2784979522032
 20
112.503936543165
 30
0.0
 10
182.2800794749176
 20
112.4771594813154
 30
0.0
 10
182.276689665145
 20
112.4505470098266
 30
0.0
 10
182.2595754647188
 20
112.4016857168972
 30
0.0
 10
182.2458288465236
 20
112.379494805238
 30
0.0
 10
182.2098392046125
 20
112.343485458919
 30
0.0
 10
182.1876452679084
 20
112.3297147054379
 30
0.0
 10
182.1387500580499
 20
112.3125661152827
 30
0.0
 10
182.1121139110801
 20
112.3091692329333
 30
0.0
 10
182.0853130494732
 20
112.3107521933841
 30
0.0
  0
LINE
  5
72
330
1F
100
AcDbEntity
  8
0
  6
Continuous
 62
     7
370
    15
100
AcDbLine
 10
182.4716840329
 20
112.5039364073
 30
0.0
 11
182.2784979286
 21
112.5039364073
 31
0.0
  0
SPLINE
  5
73
330
1F
100
AcDbEntity
  8
0
  6
Continuous
 62
     7
370
    15
100
AcDbSpline
210
0.0
220
0.0
230
1.0
 70
     8
 71
     3
 72
    18
 73
    14
 74
     0
 42
0.000000001
 43
0.00000001
 40
0.0
 40
0.0
 40
0.0
 40
0.0
 40
0.09090909090909
 40
0.1818181818182
 40
0.2727272727273
 40
0.3636363636364
 40
0.4545454545455
 40
0.5454545454545
 40
0.6363636363636
 40
0.7272727272727
 40
0.8181818181818
 40
0.9090909090909
 40
1.0
 40
1.0
 40
1.0
 40
1.0
 10
134.8432134921933
 20
179.7596657082435
 30
0.0
 10
134.8432136777932
 20
179.7791726412835
 30
0.0
 10
134.8459744354132
 20
179.8161696348435
 30
0.0
 10
134.8562431934332
 20
179.8653905563435
 30
0.0
 10
134.8710499302333
 20
179.9090549829035
 30
0.0
 10
134.8899243436533
 20
179.9489276421835
 30
0.0
 10
134.9131954156933
 20
179.9863572091435
 30
0.0
 10
134.9421186445333
 20
180.0225397306835
 30
0.0
 10
134.9786019588533
 20
180.0578667873235
 30
0.0
 10
135.0254535678332
 20
180.0917313561235
 30
0.0
 10
135.0834917675933
 20
180.1207265171235
 30
0.0
 10
135.1515969107332
 20
180.1408014858435
 30
0.0
 10
135.2025905954133
 20
180.1460358924035
 30
0.0
 10
135.2295838227132
 20
180.1460360387635
 30
0.0
  0
LINE
  5
74
330
1F
100
AcDbEntity
  8
0
  6
Continuous
 62
     7
370
    15
100
AcDbLine
 10
135.2295834961
 20
180.1460350725
 30
0.0
 11
135.2295834961
 21
179.9528504583
 31
0.0
  0
SPLINE
  5
75
330
1F
100
AcDbEntity
  8
0
  6
Continuous
 62
     7
370
    15
100
AcDbSpline
210
0.0
220
0.0
230
1.0
 70
     8
 71
     3
 72
    14
 73
    10
 74
     0
 42
0.000000001
 43
0.00000001
 40
0.0
 40
0.0
 40
0.0
 40
0.0
 40
0.25
 40
0.25
 40
0.5
 40
0.5
 40
0.75
 40
0.75
 40
1.0
 40
1.0
 40
1.0
 40
1.0
 10
135.0363988583033
 20
179.759665708242
 30
0.0
 10
135.0348173355889
 20
179.7864427700916
 30
0.0
 10
135.0382071453616
 20
179.8130552415804
 30
0.0
 10
135.0553213457877
 20
179.8619165345098
 30
0.0
 10
135.0690679639829
 20
179.8841074461691
 30
0.0
 10
135.105057605894
 20
179.920116792488
 30
0.0
 10
135.1272515425981
 20
179.9338875459691
 30
0.0
 10
135.1761467524566
 20
179.9510361361243
 30
0.0
 10
135.2027828994264
 20
179.9544330184737
 30
0.0
 10
135.2295837610333
 20
179.9528500580229
 30
0.0
  0
LINE
  5
76
330
1F
100
AcDbEntity
  8
0
  6
Continuous
 62
     7
370
    15
100
AcDbLine
 10
134.8432127776
 20
179.7596658441
 30
0.0
 11
135.0363988819
 21
179.7596658441
 31
0.0
  0
SPLINE
  5
77
330
1F
100
AcDbEntity
  8
0
  6
Continuous
 62
     7
370
    15
100
AcDbSpline
210
0.0
220
0.0
230
1.0
 70
     8
 71
     3
 72
    18
 73
    14
 74
     0
 42
0.000000001
 43
0.00000001
 40
0.0
 40
0.0
 40
0.0
 40
0.0
 40
0.09090909090909
 40
0.1818181818182
 40
0.2727272727273
 40
0.3636363636364
 40
0.4545454545455
 40
0.5454545454545
 40
0.6363636363636
 40
0.7272727272727
 40
0.8181818181818
 40
0.9090909090909
 40
1.0
 40
1.0
 40
1.0
 40
1.0
 10
182.4716833183133
 20
179.7596657082435
 30
0.0
 10
182.4716831327133
 20
179.7791726412835
 30
0.0
 10
182.4689223750933
 20
179.8161696348435
 30
0.0
 10
182.4586536170733
 20
179.8653905563435
 30
0.0
 10
182.4438468802733
 20
179.9090549829035
 30
0.0
 10
182.4249724668532
 20
179.9489276421835
 30
0.0
 10
182.4017013948133
 20
179.9863572091435
 30
0.0
 10
182.3727781659732
 20
180.0225397306835
 30
0.0
 10
182.3362948516533
 20
180.0578667873235
 30
0.0
 10
182.2894432426733
 20
180.0917313561235
 30
0.0
 10
182.2314050429133
 20
180.1207265171235
 30
0.0
 10
182.1632998997732
 20
180.1408014858435
 30
0.0
 10
182.1123062150932
 20
180.1460358924035
 30
0.0
 10
182.0853129877933
 20
180.1460360387635
 30
0.0
  0
LINE
  5
78
330
1F
100
AcDbEntity
  8
0
  6
Continuous
 62
     7
370
    15
100
AcDbLine
 10
182.4716840329
 20
179.7596658441
 30
0.0
 11
182.2784979286
 21
179.7596658441
 31
0.0
  0
SPLINE
  5
79
330
1F
100
AcDbEntity
  8
0
  6
Continuous
 62
     7
370
    15
100
AcDbSpline
210
0.0
220
0.0
230
1.0
 70
     8
 71
     3
 72
    19
 73
    15
 74
     0
 42
0.000000001
 43
0.00000001
 40
0.0
 40
0.0
 40
0.0
 40
0.0
 40
0.0686388476657242
 40
0.1348586269449045
 40
0.1988265641671965
 40
0.2607281397165399
 40
0.3207679892085829
 40
0.3791703228510939
 40
0.436178676313729
 40
0.5532230372195265
 40
0.6718738395287104
 40
0.7745446642324986
 40
0.883605505237267
 40
1.0
 40
1.0
 40
1.0
 40
1.0
 10
182.2784981530415
 20
179.759665708234
 30
0.0
 10
182.2787192629306
 20
179.7667008587821
 30
0.0
 10
182.2791536900379
 20
179.7805232170462
 30
0.0
 10
182.2772324111473
 20
179.8009670537448
 30
0.0
 10
182.2735044321848
 20
179.8205041737556
 30
0.0
 10
182.2679148459036
 20
179.8390114409986
 30
0.0
 10
182.2606324879444
 20
179.8563583976943
 30
0.0
 10
182.2517752589952
 20
179.8724394517548
 30
0.0
 10
182.2378161035357
 20
179.8924100637729
 30
0.0
 10
182.216148471852
 20
179.9145312320521
 30
0.0
 10
182.1861382181554
 20
179.9338947146745
 30
0.0
 10
182.1539482483634
 20
179.9463875115239
 30
0.0
 10
182.1204510236352
 20
179.9532879574803
 30
0.0
 10
182.0972769367659
 20
179.9529996937208
 30
0.0
 10
182.0853129877933
 20
179.952850873492
 30
0.0
  0
LINE
  5
7A
330
1F
100
AcDbEntity
  8
0
  6
Continuous
 62
     7
370
    15
100
AcDbLine
 10
182.0853133144
 20
180.1460350725
 30
0.0
 11
182.0853133144
 21
179.9528504583
 31
0.0
  0
SPLINE
  5
7B
330
1F
100
AcDbEntity
  8
0
  6
Continuous
 62
     7
370
    15
100
AcDbSpline
210
0.0
220
0.0
230
1.0
 70
     8
 71
     3
 72
    18
 73
    14
 74
     0
 42
0.000000001
 43
0.00000001
 40
0.0
 40
0.0
 40
0.0
 40
0.0
 40
0.09090909090909
 40
0.1818181818182
 40
0.2727272727273
 40
0.3636363636364
 40
0.4545454545455
 40
0.5454545454545
 40
0.6363636363636
 40
0.7272727272727
 40
0.8181818181818
 40
0.9090909090909
 40
1.0
 40
1.0
 40
1.0
 40
1.0
 10
134.8432134921933
 20
112.5039365431635
 30
0.0
 10
134.8432136777932
 20
112.4844296101235
 30
0.0
 10
134.8459744354132
 20
112.4474326165635
 30
0.0
 10
134.8562431934332
 20
112.3982116950635
 30
0.0
 10
134.8710499302333
 20
112.3545472685035
 30
0.0
 10
134.8899243436533
 20
112.3146746092235
 30
0.0
 10
134.9131954156933
 20
112.2772450422635
 30
0.0
 10
134.9421186445333
 20
112.2410625207235
 30
0.0
 10
134.9786019588533
 20
112.2057354640835
 30
0.0
 10
135.0254535678332
 20
112.1718708952835
 30
0.0
 10
135.0834917675933
 20
112.1428757342835
 30
0.0
 10
135.1515969107332
 20
112.1228007655635
 30
0.0
 10
135.2025905954133
 20
112.1175663590035
 30
0.0
 10
135.2295838227132
 20
112.1175662126435
 30
0.0
  0
LINE
  5
7C
330
1F
100
AcDbEntity
  8
0
  6
Continuous
 62
     7
370
    15
100
AcDbLine
 10
134.8432127776
 20
112.5039364073
 30
0.0
 11
135.0363988819
 21
112.5039364073
 31
0.0
  0
SPLINE
  5
7D
330
1F
100
AcDbEntity
  8
0
  6
Continuous
 62
     7
370
    15
100
AcDbSpline
210
0.0
220
0.0
230
1.0
 70
     8
 71
     3
 72
    19
 73
    15
 74
     0
 42
0.000000001
 43
0.00000001
 40
0.0
 40
0.0
 40
0.0
 40
0.0
 40
0.0686388476657242
 40
0.1348586269449045
 40
0.1988265641671965
 40
0.2607281397165399
 40
0.3207679892085829
 40
0.3791703228510939
 40
0.436178676313729
 40
0.5532230372195265
 40
0.6718738395287104
 40
0.7745446642324986
 40
0.883605505237267
 40
1.0
 40
1.0
 40
1.0
 40
1.0
 10
135.036398657465
 20
112.503936543173
 30
0.0
 10
135.0361775475759
 20
112.4969013926249
 30
0.0
 10
135.0357431204686
 20
112.4830790343608
 30
0.0
 10
135.0376643993592
 20
112.4626351976623
 30
0.0
 10
135.0413923783217
 20
112.4430980776514
 30
0.0
 10
135.0469819646029
 20
112.4245908104084
 30
0.0
 10
135.0542643225621
 20
112.4072438537127
 30
0.0
 10
135.0631215515113
 20
112.3911627996522
 30
0.0
 10
135.0770807069708
 20
112.3711921876341
 30
0.0
 10
135.0987483386545
 20
112.3490710193549
 30
0.0
 10
135.1287585923511
 20
112.3297075367325
 30
0.0
 10
135.1609485621431
 20
112.3172147398831
 30
0.0
 10
135.1944457868713
 20
112.3103142939267
 30
0.0
 10
135.2176198737406
 20
112.3106025576863
 30
0.0
 10
135.2295838227132
 20
112.3107513779151
 30
0.0
  0
LINE
  5
7E
330
1F
100
AcDbEntity
  8
0
  6
Continuous
 62
     7
370
    15
100
AcDbLine
 10
135.2295834961
 20
112.1175671789
 30
0.0
 11
135.2295834961
 21
112.3107517931
 31
0.0
  0
LINE
  5
7F
330
1F
100
AcDbEntity
  8
0
  6
Continuous
 62
     7
370
    15
100
AcDbLine
 10
135.2295834961
 20
112.3107517931
 30
0.0
 11
182.0853133144
 21
112.3107517931
 31
0.0
  0
LINE
  5
80
330
1F
100
AcDbEntity
  8
0
  6
Continuous
 62
     7
370
    15
100
AcDbLine
 10
182.0853133144
 20
112.1175671789
 30
0.0
 11
135.2295834961
 21
112.1175671789
 31
0.0
  0
LINE
  5
81
330
1F
100
AcDbEntity
  8
0
  6
Continuous
 62
     7
370
    15
100
AcDbLine
 10
135.2295834961
 20
180.1460350725
 30
0.0
 11
182.0853133144
 21
180.1460350725
 31
0.0
  0
LINE
  5
82
330
1F
100
AcDbEntity
  8
0
  6
Continuous
 62
     7
370
    15
100
AcDbLine
 10
182.0853133144
 20
179.9528504583
 30
0.0
 11
135.2295834961
 21
179.9528504583
 31
0.0
  0
LINE
  5
83
330
1F
100
AcDbEntity
  8
0
  6
Continuous
 62
     7
370
    15
100
AcDbLine
 10
182.4716840329
 20
179.7596658441
 30
0.0
 11
182.4716840329
 21
112.5039364073
 31
0.0
  0
LINE
  5
84
330
1F
100
AcDbEntity
  8
0
  6
Continuous
 62
     7
370
    15
100
AcDbLine
 10
182.2784979286
 20
112.5039364073
 30
0.0
 11
182.2784979286
 21
179.7596658441
 31
0.0
  0
LINE
  5
85
330
1F
100
AcDbEntity
  8
0
  6
Continuous
 62
     7
370
    15
100
AcDbLine
 10
135.0363988819
 20
179.7596658441
 30
0.0
 11
135.0363988819
 21
112.5039364073
 31
0.0
  0
LINE
  5
86
330
1F
100
AcDbEntity
  8
0
  6
Continuous
 62
     7
370
    15
100
AcDbLine
 10
134.8432127776
 20
112.5039364073
 30
0.0
 11
134.8432127776
 21
179.7596658441
 31
0.0
  0
LINE
  5
87
330
1F
100
AcDbEntity
  8
0
  6
Continuous
 62
     7
370
    15
100
AcDbLine
 10
182.4966792407
 20
112.4789411995
 30
0.0
 11
182.4966792407
 21
179.7846610519
 31
0.0
  0
ELLIPSE
  5
88
330
1F
100
AcDbEntity
  8
0
  6
Continuous
 62
     7
370
    15
100
AcDbEllipse
 10
182.0825684176
 20
112.5066811133
 30
0.0
 11
-0.3024689788324224
 21
0.3024689788324082
 31
0.0
210
0.0
220
0.0
230
1.0
 40
0.9351131265
 41
2.389713239283598
 42
3.893472067895847
  0
LINE
  5
89
330
1F
100
AcDbEntity
  8
0
  6
Continuous
 62
     7
370
    15
100
AcDbLine
 10
135.2045882883
 20
112.0925719711
 30
0.0
 11
182.1103085222
 21
112.0925719711
 31
0.0
  0
ELLIPSE
  5
8A
330
1F
100
AcDbEntity
  8
0
  6
Continuous
 62
     7
370
    15
100
AcDbEllipse
 10
135.2323283929
 20
112.5066811133
 30
0.0
 11
-0.3024689788324224
 21
-0.302468978832394
 31
0.0
210
0.0
220
0.0
230
1.0
 40
0.9351131265
 41
5.531305892873591
 42
7.035064721485724
  0
LINE
  5
8B
330
1F
100
AcDbEntity
  8
0
  6
Continuous
 62
     7
370
    15
100
AcDbLine
 10
134.8182175698
 20
179.7846610519
 30
0.0
 11
134.8182175698
 21
112.4789411995
 31
0.0
  0
ELLIPSE
  5
8C
330
1F
100
AcDbEntity
  8
0
  6
Continuous
 62
     7
370
    15
100
AcDbEllipse
 10
135.2323283929
 20
179.7569211381
 30
0.0
 11
0.302468978832394
 21
-0.302468978832394
 31
0.0
210
0.0
220
0.0
230
1.0
 40
0.9351131265
 41
2.389713239283684
 42
3.893472067895843
  0
LINE
  5
8D
330
1F
100
AcDbEntity
  8
0
  6
Continuous
 62
     7
370
    15
100
AcDbLine
 10
182.1103085222
 20
180.1710302803
 30
0.0
 11
135.2045882883
 21
180.1710302803
 31
0.0
  0
ELLIPSE
  5
8E
330
1F
100
AcDbEntity
  8
0
  6
Continuous
 62
     7
370
    15
100
AcDbEllipse
 10
182.0825684176
 20
179.7569211381
 30
0.0
 11
0.302468978832394
 21
0.302468978832394
 31
0.0
210
0.0
220
0.0
230
1.0
 40
0.9351131265
 41
5.5313058928735
 42
7.035064721485765
  0
LINE
  5
8F
330
1F
100
AcDbEntity
  8
0
  6
Continuous
 62
     7
370
    15
100
AcDbLine
 10
134.6574489417
 20
112.3181725714
 30
0.0
 11
134.8182175698
 21
112.4789411995
 31
0.0
  0
LINE
  5
90
330
1F
100
AcDbEntity
  8
0
  6
Continuous
 62
     7
370
    15
100
AcDbLine
 10
134.6574489417
 20
112.3181725714
 30
0.0
 11
134.6574489417
 21
179.94542968
 31
0.0
  0
LINE
  5
91
330
1F
100
AcDbEntity
  8
0
  6
Continuous
 62
     7
370
    15
100
AcDbLine
 10
134.6574489417
 20
179.94542968
 30
0.0
 11
134.8182175698
 21
179.7846610519
 31
0.0
  0
ELLIPSE
  5
92
330
1F
100
AcDbEntity
  8
0
  6
Continuous
 62
     7
370
    15
100
AcDbEllipse
 10
135.0715588774
 20
179.9176906535
 30
0.0
 11
0.3024689788324224
 21
-0.3024689788324224
 31
0.0
210
0.0
220
0.0
230
1.0
 40
0.9351131265
 41
2.389713239283675
 42
3.893472067895851
  0
LINE
  5
93
330
1F
100
AcDbEntity
  8
0
  6
Continuous
 62
     7
370
    15
100
AcDbLine
 10
135.0438181701
 20
180.3318018886
 30
0.0
 11
135.2045882883
 21
180.1710302803
 31
0.0
  0
LINE
  5
94
330
1F
100
AcDbEntity
  8
0
  6
Continuous
 62
     7
370
    15
100
AcDbLine
 10
182.6574478688
 20
179.94542968
 30
0.0
 11
182.6574478688
 21
112.3181725714
 31
0.0
  0
LINE
  5
95
330
1F
100
AcDbEntity
  8
0
  6
Continuous
 62
     7
370
    15
100
AcDbLine
 10
182.6574478688
 20
112.3181725714
 30
0.0
 11
182.4966792407
 21
112.4789411995
 31
0.0
  0
LINE
  5
96
330
1F
100
AcDbEntity
  8
0
  6
Continuous
 62
     7
370
    15
100
AcDbLine
 10
182.6574478688
 20
179.94542968
 30
0.0
 11
182.4966792407
 21
179.7846610519
 31
0.0
  0
LINE
  5
97
330
1F
100
AcDbEntity
  8
0
  6
Continuous
 62
     7
370
    15
100
AcDbLine
 10
182.2710786404
 20
180.3318018886
 30
0.0
 11
182.1103085222
 21
180.1710302803
 31
0.0
  0
ELLIPSE
  5
98
330
1F
100
AcDbEntity
  8
0
  6
Continuous
 62
     7
370
    15
100
AcDbEllipse
 10
182.2433379331
 20
179.9176906535
 30
0.0
 11
0.3024689788324224
 21
0.302468978832394
 31
0.0
210
0.0
220
0.0
230
1.0
 40
0.9351131265
 41
5.531305892873626
 42
7.035064721485659
  0
LINE
  5
99
330
1F
100
AcDbEntity
  8
0
  6
Continuous
 62
     7
370
    15
100
AcDbLine
 10
182.2710786404
 20
111.9318003628
 30
0.0
 11
182.1103085222
 21
112.0925719711
 31
0.0
  0
LINE
  5
9A
330
1F
100
AcDbEntity
  8
0
  6
Continuous
 62
     7
370
    15
100
AcDbLine
 10
182.2710786404
 20
111.9318003628
 30
0.0
 11
135.0438181701
 21
111.9318003628
 31
0.0
  0
LINE
  5
9B
330
1F
100
AcDbEntity
  8
0
  6
Continuous
 62
     7
370
    15
100
AcDbLine
 10
135.0438181701
 20
111.9318003628
 30
0.0
 11
135.2045882883
 21
112.0925719711
 31
0.0
  0
ELLIPSE
  5
9C
330
1F
100
AcDbEntity
  8
0
  6
Continuous
 62
     7
370
    15
100
AcDbEllipse
 10
182.2433379331
 20
112.3459115979
 30
0.0
 11
-0.302468978832394
 21
0.302468978832394
 31
0.0
210
0.0
220
0.0
230
1.0
 40
0.9351131265
 41
2.389713239283779
 42
3.893472067895817
  0
LINE
  5
9D
330
1F
100
AcDbEntity
  8
0
  6
Continuous
 62
     7
370
    15
100
AcDbLine
 10
135.0438181701
 20
180.3318018886
 30
0.0
 11
182.2710786404
 21
180.3318018886
 31
0.0
  0
ELLIPSE
  5
9E
330
1F
100
AcDbEntity
  8
0
  6
Continuous
 62
     7
370
    15
100
AcDbEllipse
 10
135.0715588774
 20
112.3459115979
 30
0.0
 11
-0.302468978832394
 21
-0.3024689788324082
 31
0.0
210
0.0
220
0.0
230
1.0
 40
0.9351131265
 41
5.531305892873593
 42
7.03506472148562
  0
LINE
  5
9F
330
1F
100
AcDbEntity
  8
0
  6
Continuous
 62
     7
370
    15
100
AcDbLine
 10
135.0363988819
 20
112.5039364073
 30
0.0
 11
135.1574484649
 21
112.6249874803
 31
0.0
  0
ELLIPSE
  5
A0
330
1F
100
AcDbEntity
  8
0
  6
Continuous
 62
     7
370
    15
100
AcDbEllipse
 10
135.3645036413
 20
112.6388563618
 30
0.0
 11
-0.151234489416197
 21
-0.151234489416197
 31
0.0
210
0.0
220
0.0
230
1.0
 40
0.9351131265
 41
5.531305892911924
 42
7.035064721448247
  0
LINE
  5
A1
330
1F
100
AcDbEntity
  8
0
  6
Continuous
 62
     7
370
    15
100
AcDbLine
 10
135.2295834961
 20
112.3107517931
 30
0.0
 11
135.350633079
 21
112.4317998859
 31
0.0
  0
LINE
  5
A2
330
1F
100
AcDbEntity
  8
0
  6
Continuous
 62
     7
370
    15
100
AcDbLine
 10
182.2784979286
 20
179.7596658441
 30
0.0
 11
182.1574483456
 21
179.6386147711
 31
0.0
  0
ELLIPSE
  5
A3
330
1F
100
AcDbEntity
  8
0
  6
Continuous
 62
     7
370
    15
100
AcDbEllipse
 10
181.9503931692
 20
179.6247458896
 30
0.0
 11
0.151234489416197
 21
0.1512344894161685
 31
0.0
210
0.0
220
0.0
230
1.0
 40
0.9351131265
 41
5.531305892911972
 42
7.035064721448178
  0
LINE
  5
A4
330
1F
100
AcDbEntity
  8
0
  6
Continuous
 62
     7
370
    15
100
AcDbLine
 10
182.0853133144
 20
179.9528504583
 30
0.0
 11
181.9642637315
 21
179.8318023655
 31
0.0
  0
LINE
  5
A5
330
1F
100
AcDbEntity
  8
0
  6
Continuous
 62
     7
370
    15
100
AcDbLine
 10
135.2295834961
 20
179.9528504583
 30
0.0
 11
135.350633079
 21
179.8318023655
 31
0.0
  0
ELLIPSE
  5
A6
330
1F
100
AcDbEntity
  8
0
  6
Continuous
 62
     7
370
    15
100
AcDbEllipse
 10
135.3645036413
 20
179.6247458896
 30
0.0
 11
0.151234489416197
 21
-0.1512344894162254
 31
0.0
210
0.0
220
0.0
230
1.0
 40
0.9351131265
 41
2.389713239321209
 42
3.893472067857669
  0
LINE
  5
A7
330
1F
100
AcDbEntity
  8
0
  6
Continuous
 62
     7
370
    15
100
AcDbLine
 10
135.0363988819
 20
179.7596658441
 30
0.0
 11
135.1574484649
 21
179.6386147711
 31
0.0
  0
LINE
  5
A8
330
1F
100
AcDbEntity
  8
0
  6
Continuous
 62
     7
370
    15
100
AcDbLine
 10
182.0853133144
 20
112.3107517931
 30
0.0
 11
181.9642637315
 21
112.4317998859
 31
0.0
  0
ELLIPSE
  5
A9
330
1F
100
AcDbEntity
  8
0
  6
Continuous
 62
     7
370
    15
100
AcDbEllipse
 10
181.9503931692
 20
112.6388563618
 30
0.0
 11
-0.151234489416197
 21
0.1512344894162112
 31
0.0
210
0.0
220
0.0
230
1.0
 40
0.9351131265
 41
2.389713239321318
 42
3.893472067857529
  0
LINE
  5
AA
330
1F
100
AcDbEntity
  8
0
  6
Continuous
 62
     7
370
    15
100
AcDbLine
 10
182.2784979286
 20
112.5039364073
 30
0.0
 11
182.1574483456
 21
112.6249874803
 31
0.0
  0
LINE
  5
AB
330
1F
100
AcDbEntity
  8
0
  6
Continuous
 62
     7
370
    15
100
AcDbLine
 10
181.9642637315
 20
179.8318023655
 30
0.0
 11
135.350633079
 21
179.8318023655
 31
0.0
  0
LINE
  5
AC
330
1F
100
AcDbEntity
  8
0
  6
Continuous
 62
     7
370
    15
100
AcDbLine
 10
135.350633079
 20
112.4317998859
 30
0.0
 11
181.9642637315
 21
112.4317998859
 31
0.0
  0
LINE
  5
AD
330
1F
100
AcDbEntity
  8
0
  6
Continuous
 62
     7
370
    15
100
AcDbLine
 10
135.1574484649
 20
179.6386147711
 30
0.0
 11
135.1574484649
 21
112.6249874803
 31
0.0
  0
LINE
  5
AE
330
1F
100
AcDbEntity
  8
0
  6
Continuous
 62
     7
370
    15
100
AcDbLine
 10
182.1574483456
 20
112.6249874803
 30
0.0
 11
182.1574483456
 21
179.6386147711
 31
0.0
  0
LINE
  5
AF
330
1F
100
AcDbEntity
  8
0
  6
Continuous
 62
     7
370
    15
100
AcDbLine
 10
137.7425838652
 20
178.906666753
 30
0.0
 11
138.1425831857
 21
178.906666753
 31
0.0
  0
LINE
  5
B0
330
1F
100
AcDbEntity
  8
0
  6
Continuous
 62
     7
370
    15
100
AcDbLine
 10
137.7425838652
 20
178.906666753
 30
0.0
 11
137.7425838652
 21
179.3066645834
 31
0.0
  0
LINE
  5
B1
330
1F
100
AcDbEntity
  8
0
  6
Continuous
 62
     7
370
    15
100
AcDbLine
 10
137.7425838652
 20
179.3066645834
 30
0.0
 11
138.1425831857
 21
179.3066645834
 31
0.0
  0
LINE
  5
B2
330
1F
100
AcDbEntity
  8
0
  6
Continuous
 62
     7
370
    15
100
AcDbLine
 10
138.1425831857
 20
179.3066645834
 30
0.0
 11
138.1425831857
 21
178.906666753
 31
0.0
  0
LINE
  5
B3
330
1F
100
AcDbEntity
  8
0
  6
Continuous
 62
     7
370
    15
100
AcDbLine
 10
135.6825832667
 20
177.2466654751
 30
0.0
 11
136.0825840773
 21
177.2466654751
 31
0.0
  0
LINE
  5
B4
330
1F
100
AcDbEntity
  8
0
  6
Continuous
 62
     7
370
    15
100
AcDbLine
 10
136.0825840773
 20
176.8466646644
 30
0.0
 11
136.0825840773
 21
177.2466654751
 31
0.0
  0
LINE
  5
B5
330
1F
100
AcDbEntity
  8
0
  6
Continuous
 62
     7
370
    15
100
AcDbLine
 10
136.0825840773
 20
176.8466646644
 30
0.0
 11
135.6825832667
 21
176.8466646644
 31
0.0
  0
LINE
  5
B6
330
1F
100
AcDbEntity
  8
0
  6
Continuous
 62
     7
370
    15
100
AcDbLine
 10
135.6825832667
 20
176.8466646644
 30
0.0
 11
135.6825832667
 21
177.2466654751
 31
0.0
  0
LINE
  5
B7
330
1F
100
AcDbEntity
  8
0
  6
Continuous
 62
     7
370
    15
100
AcDbLine
 10
135.1748530211
 20
176.8466646644
 30
0.0
 11
135.6825832667
 21
176.8466646644
 31
0.0
  0
LINE
  5
B8
330
1F
100
AcDbEntity
  8
0
  6
Continuous
 62
     7
370
    15
100
AcDbLine
 10
135.1748530211
 20
177.2466654751
 30
0.0
 11
135.1748530211
 21
176.8466646644
 31
0.0
  0
LINE
  5
B9
330
1F
100
AcDbEntity
  8
0
  6
Continuous
 62
     7
370
    15
100
AcDbLine
 10
135.6825832667
 20
177.2466654751
 30
0.0
 11
135.1748530211
 21
177.2466654751
 31
0.0
  0
LINE
  5
BA
330
1F
100
AcDbEntity
  8
0
  6
Continuous
 62
     7
370
    15
100
AcDbLine
 10
137.7425838652
 20
179.8143978092
 30
0.0
 11
137.7425838652
 21
179.3066645834
 31
0.0
  0
LINE
  5
BB
330
1F
100
AcDbEntity
  8
0
  6
Continuous
 62
     7
370
    15
100
AcDbLine
 10
138.1425831857
 20
179.8143978092
 30
0.0
 11
137.7425838652
 21
179.8143978092
 31
0.0
  0
LINE
  5
BC
330
1F
100
AcDbEntity
  8
0
  6
Continuous
 62
     7
370
    15
100
AcDbLine
 10
138.1425831857
 20
179.3066645834
 30
0.0
 11
138.1425831857
 21
179.8143978092
 31
0.0
  0
LINE
  5
BD
330
1F
100
AcDbEntity
  8
0
  6
Continuous
 62
     7
370
    15
100
AcDbLine
 10
179.1723136248
 20
112.956937668
 30
0.0
 11
179.1723136248
 21
113.3569354984
 31
0.0
  0
LINE
  5
BE
330
1F
100
AcDbEntity
  8
0
  6
Continuous
 62
     7
370
    15
100
AcDbLine
 10
179.5723129454
 20
113.3569354984
 30
0.0
 11
179.1723136248
 21
113.3569354984
 31
0.0
  0
LINE
  5
BF
330
1F
100
AcDbEntity
  8
0
  6
Continuous
 62
     7
370
    15
100
AcDbLine
 10
179.5723129454
 20
113.3569354984
 30
0.0
 11
179.5723129454
 21
112.956937668
 31
0.0
  0
LINE
  5
C0
330
1F
100
AcDbEntity
  8
0
  6
Continuous
 62
     7
370
    15
100
AcDbLine
 10
179.5723129454
 20
112.956937668
 30
0.0
 11
179.1723136248
 21
112.956937668
 31
0.0
  0
LINE
  5
C1
330
1F
100
AcDbEntity
  8
0
  6
Continuous
 62
     7
370
    15
100
AcDbLine
 10
181.6323135438
 20
115.0169367763
 30
0.0
 11
181.2323127332
 21
115.0169367763
 31
0.0
  0
LINE
  5
C2
330
1F
100
AcDbEntity
  8
0
  6
Continuous
 62
     7
370
    15
100
AcDbLine
 10
181.2323127332
 20
115.416937587
 30
0.0
 11
181.2323127332
 21
115.0169367763
 31
0.0
  0
LINE
  5
C3
330
1F
100
AcDbEntity
  8
0
  6
Continuous
 62
     7
370
    15
100
AcDbLine
 10
181.2323127332
 20
115.416937587
 30
0.0
 11
181.6323135438
 21
115.416937587
 31
0.0
  0
LINE
  5
C4
330
1F
100
AcDbEntity
  8
0
  6
Continuous
 62
     7
370
    15
100
AcDbLine
 10
181.6323135438
 20
115.416937587
 30
0.0
 11
181.6323135438
 21
115.0169367763
 31
0.0
  0
LINE
  5
C5
330
1F
100
AcDbEntity
  8
0
  6
Continuous
 62
     7
370
    15
100
AcDbLine
 10
182.1400437894
 20
115.416937587
 30
0.0
 11
181.6323135438
 21
115.416937587
 31
0.0
  0
LINE
  5
C6
330
1F
100
AcDbEntity
  8
0
  6
Continuous
 62
     7
370
    15
100
AcDbLine
 10
182.1400437894
 20
115.0169367763
 30
0.0
 11
182.1400437894
 21
115.416937587
 31
0.0
  0
LINE
  5
C7
330
1F
100
AcDbEntity
  8
0
  6
Continuous
 62
     7
370
    15
100
AcDbLine
 10
181.6323135438
 20
115.0169367763
 30
0.0
 11
182.1400437894
 21
115.0169367763
 31
0.0
  0
LINE
  5
C8
330
1F
100
AcDbEntity
  8
0
  6
Continuous
 62
     7
370
    15
100
AcDbLine
 10
179.5723129454
 20
112.4492044422
 30
0.0
 11
179.5723129454
 21
112.956937668
 31
0.0
  0
LINE
  5
C9
330
1F
100
AcDbEntity
  8
0
  6
Continuous
 62
     7
370
    15
100
AcDbLine
 10
179.1723136248
 20
112.4492044422
 30
0.0
 11
179.5723129454
 21
112.4492044422
 31
0.0
  0
LINE
  5
CA
330
1F
100
AcDbEntity
  8
0
  6
Continuous
 62
     7
370
    15
100
AcDbLine
 10
179.1723136248
 20
112.956937668
 30
0.0
 11
179.1723136248
 21
112.4492044422
 31
0.0
  0
LINE
  5
CB
330
1F
100
AcDbEntity
  8
0
  6
Continuous
 62
     7
370
    15
100
AcDbLine
 10
181.6323135438
 20
176.8466646644
 30
0.0
 11
181.6323135438
 21
177.2466654751
 31
0.0
  0
LINE
  5
CC
330
1F
100
AcDbEntity
  8
0
  6
Continuous
 62
     7
370
    15
100
AcDbLine
 10
181.6323135438
 20
177.2466654751
 30
0.0
 11
182.1400437894
 21
177.2466654751
 31
0.0
  0
LINE
  5
CD
330
1F
100
AcDbEntity
  8
0
  6
Continuous
 62
     7
370
    15
100
AcDbLine
 10
182.1400437894
 20
177.2466654751
 30
0.0
 11
182.1400437894
 21
176.8466646644
 31
0.0
  0
LINE
  5
CE
330
1F
100
AcDbEntity
  8
0
  6
Continuous
 62
     7
370
    15
100
AcDbLine
 10
182.1400437894
 20
176.8466646644
 30
0.0
 11
181.6323135438
 21
176.8466646644
 31
0.0
  0
LINE
  5
CF
330
1F
100
AcDbEntity
  8
0
  6
Continuous
 62
     7
370
    15
100
AcDbLine
 10
179.5723129454
 20
179.3066645834
 30
0.0
 11
179.1723136248
 21
179.3066645834
 31
0.0
  0
LINE
  5
D0
330
1F
100
AcDbEntity
  8
0
  6
Continuous
 62
     7
370
    15
100
AcDbLine
 10
179.1723136248
 20
179.8143978092
 30
0.0
 11
179.5723129454
 21
179.8143978092
 31
0.0
  0
LINE
  5
D1
330
1F
100
AcDbEntity
  8
0
  6
Continuous
 62
     7
370
    15
100
AcDbLine
 10
179.5723129454
 20
179.8143978092
 30
0.0
 11
179.5723129454
 21
179.3066645834
 31
0.0
  0
LINE
  5
D2
330
1F
100
AcDbEntity
  8
0
  6
Continuous
 62
     7
370
    15
100
AcDbLine
 10
179.1723136248
 20
179.3066645834
 30
0.0
 11
179.1723136248
 21
179.8143978092
 31
0.0
  0
LINE
  5
D3
330
1F
100
AcDbEntity
  8
0
  6
Continuous
 62
     7
370
    15
100
AcDbLine
 10
181.2323127332
 20
176.8466646644
 30
0.0
 11
181.2323127332
 21
177.2466654751
 31
0.0
  0
LINE
  5
D4
330
1F
100
AcDbEntity
  8
0
  6
Continuous
 62
     7
370
    15
100
AcDbLine
 10
181.6323135438
 20
177.2466654751
 30
0.0
 11
181.2323127332
 21
177.2466654751
 31
0.0
  0
LINE
  5
D5
330
1F
100
AcDbEntity
  8
0
  6
Continuous
 62
     7
370
    15
100
AcDbLine
 10
181.2323127332
 20
176.8466646644
 30
0.0
 11
181.6323135438
 21
176.8466646644
 31
0.0
  0
LINE
  5
D6
330
1F
100
AcDbEntity
  8
0
  6
Continuous
 62
     7
370
    15
100
AcDbLine
 10
179.5723129454
 20
178.906666753
 30
0.0
 11
179.5723129454
 21
179.3066645834
 31
0.0
  0
LINE
  5
D7
330
1F
100
AcDbEntity
  8
0
  6
Continuous
 62
     7
370
    15
100
AcDbLine
 10
179.5723129454
 20
178.906666753
 30
0.0
 11
179.1723136248
 21
178.906666753
 31
0.0
  0
LINE
  5
D8
330
1F
100
AcDbEntity
  8
0
  6
Continuous
 62
     7
370
    15
100
AcDbLine
 10
179.1723136248
 20
179.3066645834
 30
0.0
 11
179.1723136248
 21
178.906666753
 31
0.0
  0
LINE
  5
D9
330
1F
100
AcDbEntity
  8
0
  6
Continuous
 62
     7
370
    15
100
AcDbLine
 10
138.1425831857
 20
112.956937668
 30
0.0
 11
138.1425831857
 21
113.3569354984
 31
0.0
  0
LINE
  5
DA
330
1F
100
AcDbEntity
  8
0
  6
Continuous
 62
     7
370
    15
100
AcDbLine
 10
137.7425838652
 20
112.956937668
 30
0.0
 11
138.1425831857
 21
112.956937668
 31
0.0
  0
LINE
  5
DB
330
1F
100
AcDbEntity
  8
0
  6
Continuous
 62
     7
370
    15
100
AcDbLine
 10
137.7425838652
 20
113.3569354984
 30
0.0
 11
138.1425831857
 21
113.3569354984
 31
0.0
  0
LINE
  5
DC
330
1F
100
AcDbEntity
  8
0
  6
Continuous
 62
     7
370
    15
100
AcDbLine
 10
137.7425838652
 20
113.3569354984
 30
0.0
 11
137.7425838652
 21
112.956937668
 31
0.0
  0
LINE
  5
DD
330
1F
100
AcDbEntity
  8
0
  6
Continuous
 62
     7
370
    15
100
AcDbLine
 10
135.6825832667
 20
115.416937587
 30
0.0
 11
135.6825832667
 21
115.0169367763
 31
0.0
  0
LINE
  5
DE
330
1F
100
AcDbEntity
  8
0
  6
Continuous
 62
     7
370
    15
100
AcDbLine
 10
136.0825840773
 20
115.416937587
 30
0.0
 11
136.0825840773
 21
115.0169367763
 31
0.0
  0
LINE
  5
DF
330
1F
100
AcDbEntity
  8
0
  6
Continuous
 62
     7
370
    15
100
AcDbLine
 10
136.0825840773
 20
115.416937587
 30
0.0
 11
135.6825832667
 21
115.416937587
 31
0.0
  0
LINE
  5
E0
330
1F
100
AcDbEntity
  8
0
  6
Continuous
 62
     7
370
    15
100
AcDbLine
 10
135.6825832667
 20
115.0169367763
 30
0.0
 11
136.0825840773
 21
115.0169367763
 31
0.0
  0
LINE
  5
E1
330
1F
100
AcDbEntity
  8
0
  6
Continuous
 62
     7
370
    15
100
AcDbLine
 10
138.1425831857
 20
112.956937668
 30
0.0
 11
138.1425831857
 21
112.4492044422
 31
0.0
  0
LINE
  5
E2
330
1F
100
AcDbEntity
  8
0
  6
Continuous
 62
     7
370
    15
100
AcDbLine
 10
138.1425831857
 20
112.4492044422
 30
0.0
 11
137.7425838652
 21
112.4492044422
 31
0.0
  0
LINE
  5
E3
330
1F
100
AcDbEntity
  8
0
  6
Continuous
 62
     7
370
    15
100
AcDbLine
 10
137.7425838652
 20
112.4492044422
 30
0.0
 11
137.7425838652
 21
112.956937668
 31
0.0
  0
LINE
  5
E4
330
1F
100
AcDbEntity
  8
0
  6
Continuous
 62
     7
370
    15
100
AcDbLine
 10
135.1748530211
 20
115.416937587
 30
0.0
 11
135.6825832667
 21
115.416937587
 31
0.0
  0
LINE
  5
E5
330
1F
100
AcDbEntity
  8
0
  6
Continuous
 62
     7
370
    15
100
AcDbLine
 10
135.6825832667
 20
115.0169367763
 30
0.0
 11
135.1748530211
 21
115.0169367763
 31
0.0
  0
LINE
  5
E6
330
1F
100
AcDbEntity
  8
0
  6
Continuous
 62
     7
370
    15
100
AcDbLine
 10
135.1748530211
 20
115.0169367763
 30
0.0
 11
135.1748530211
 21
115.416937587
 31
0.0
  0
LINE
  5
E7
330
1F
100
AcDbEntity
  8
0
  6
Continuous
 62
     7
370
    15
100
AcDbLine
 10
179.1723136248
 20
112.4518240663
 30
0.0
 11
138.1425831857
 21
112.4518240663
 31
0.0
  0
LINE
  5
E8
330
1F
100
AcDbEntity
  8
0
  6
Continuous
 62
     7
370
    15
100
AcDbLine
 10
181.9374327006
 20
112.4518240663
 30
0.0
 11
179.5723129454
 21
112.4518240663
 31
0.0
  0
ELLIPSE
  5
E9
330
1F
100
AcDbEntity
  8
0
  6
Continuous
 62
     7
370
    15
100
AcDbEllipse
 10
181.9374179425
 20
112.6518315884
 30
0.0
 11
0.1414321262261921
 21
-0.1414321262261779
 31
0.0
210
0.0
220
0.0
230
1.0
 40
0.9999238505
 41
5.49782522002753
 42
7.068545394321964
  0
LINE
  5
EA
330
1F
100
AcDbEntity
  8
0
  6
Continuous
 62
     7
370
    15
100
AcDbLine
 10
182.1374256554
 20
115.0169367763
 30
0.0
 11
182.1374256554
 21
112.651815531
 31
0.0
  0
LINE
  5
EB
330
1F
100
AcDbEntity
  8
0
  6
Continuous
 62
     7
370
    15
100
AcDbLine
 10
182.1374256554
 20
176.8466646644
 30
0.0
 11
182.1374256554
 21
115.416937587
 31
0.0
  0
LINE
  5
EC
330
1F
100
AcDbEntity
  8
0
  6
Continuous
 62
     7
370
    15
100
AcDbLine
 10
182.1374256554
 20
177.2466654751
 30
0.0
 11
182.1374256554
 21
179.6117867205
 31
0.0
  0
ELLIPSE
  5
ED
330
1F
100
AcDbEntity
  8
0
  6
Continuous
 62
     7
370
    15
100
AcDbEllipse
 10
181.9374179425
 20
179.611770663
 30
0.0
 11
-0.1414321262261922
 21
-0.1414321262261922
 31
0.0
210
0.0
220
0.0
230
1.0
 40
0.9999238505
 41
2.356232566447294
 42
3.926952740741827
  0
LINE
  5
EE
330
1F
100
AcDbEntity
  8
0
  6
Continuous
 62
     7
370
    15
100
AcDbLine
 10
181.9374327006
 20
179.8117781851
 30
0.0
 11
179.5723129454
 21
179.8117781851
 31
0.0
  0
LINE
  5
EF
330
1F
100
AcDbEntity
  8
0
  6
Continuous
 62
     7
370
    15
100
AcDbLine
 10
138.1425831857
 20
179.8117781851
 30
0.0
 11
179.1723136248
 21
179.8117781851
 31
0.0
  0
LINE
  5
F0
330
1F
100
AcDbEntity
  8
0
  6
Continuous
 62
     7
370
    15
100
AcDbLine
 10
135.3774641099
 20
179.8117781851
 30
0.0
 11
137.7425838652
 21
179.8117781851
 31
0.0
  0
ELLIPSE
  5
F1
330
1F
100
AcDbEntity
  8
0
  6
Continuous
 62
     7
370
    15
100
AcDbEllipse
 10
135.377478868
 20
179.611770663
 30
0.0
 11
-0.1414321262261922
 21
0.1414321262261922
 31
0.0
210
0.0
220
0.0
230
1.0
 40
0.9999238505
 41
5.497825220027388
 42
7.068545394322135
  0
LINE
  5
F2
330
1F
100
AcDbEntity
  8
0
  6
Continuous
 62
     7
370
    15
100
AcDbLine
 10
135.1774711552
 20
177.2466654751
 30
0.0
 11
135.1774711552
 21
179.6117867205
 31
0.0
  0
LINE
  5
F3
330
1F
100
AcDbEntity
  8
0
  6
Continuous
 62
     7
370
    15
100
AcDbLine
 10
135.1774711552
 20
115.416937587
 30
0.0
 11
135.1774711552
 21
176.8466646644
 31
0.0
  0
LINE
  5
F4
330
1F
100
AcDbEntity
  8
0
  6
Continuous
 62
     7
370
    15
100
AcDbLine
 10
135.1774711552
 20
115.0169367763
 30
0.0
 11
135.1774711552
 21
112.651815531
 31
0.0
  0
ELLIPSE
  5
F5
330
1F
100
AcDbEntity
  8
0
  6
Continuous
 62
     7
370
    15
100
AcDbEllipse
 10
135.377478868
 20
112.6518315884
 30
0.0
 11
0.1414321262261921
 21
0.1414321262261637
 31
0.0
210
0.0
220
0.0
230
1.0
 40
0.9999238505
 41
2.356232566447465
 42
3.926952740742069
  0
LINE
  5
F6
330
1F
100
AcDbEntity
  8
0
  6
Continuous
 62
     7
370
    15
100
AcDbLine
 10
135.3774641099
 20
112.4518240663
 30
0.0
 11
137.7425838652
 21
112.4518240663
 31
0.0
  0
LINE
  5
F7
330
1F
100
AcDbEntity
  8
0
  6
Continuous
 62
     7
370
    15
100
AcDbLine
 10
138.1425831857
 20
112.6560325596
 30
0.0
 11
179.1723136248
 21
112.6560325596
 31
0.0
  0
LINE
  5
F8
330
1F
100
AcDbEntity
  8
0
  6
Continuous
 62
     7
370
    15
100
AcDbLine
 10
179.5723129454
 20
112.6560325596
 30
0.0
 11
181.7332242074
 21
112.6560325596
 31
0.0
  0
LINE
  5
F9
330
1F
100
AcDbEntity
  8
0
  6
Continuous
 62
     7
370
    15
100
AcDbLine
 10
181.9374327006
 20
112.4518240663
 30
0.0
 11
181.7332242074
 21
112.6560325596
 31
0.0
  0
LINE
  5
FA
330
1F
100
AcDbEntity
  8
0
  6
Continuous
 62
     7
370
    15
100
AcDbLine
 10
135.3774641099
 20
112.4518240663
 30
0.0
 11
135.5816726031
 21
112.6560325596
 31
0.0
  0
LINE
  5
FB
330
1F
100
AcDbEntity
  8
0
  6
Continuous
 62
     7
370
    15
100
AcDbLine
 10
137.7425838652
 20
112.6560325596
 30
0.0
 11
135.5816726031
 21
112.6560325596
 31
0.0
  0
LINE
  5
FC
330
1F
100
AcDbEntity
  8
0
  6
Continuous
 62
     7
370
    15
100
AcDbLine
 10
181.9374327006
 20
179.8117781851
 30
0.0
 11
181.7332242074
 21
179.6075696918
 31
0.0
  0
LINE
  5
FD
330
1F
100
AcDbEntity
  8
0
  6
Continuous
 62
     7
370
    15
100
AcDbLine
 10
181.9332171621
 20
179.4075782272
 30
0.0
 11
182.1374256554
 21
179.6117867205
 31
0.0
  0
ELLIPSE
  5
FE
330
1F
100
AcDbEntity
  8
0
  6
Continuous
 62
     7
370
    15
100
AcDbEllipse
 10
181.7332092362
 20
179.4075619567
 30
0.0
 11
-0.1414321262261922
 21
-0.1414321262261922
 31
0.0
210
0.0
220
0.0
230
1.0
 40
0.9999238505
 41
2.356232566447244
 42
3.038355003288124
  0
ELLIPSE
  5
FF
330
1F
100
AcDbEntity
  8
0
  6
Continuous
 62
     7
370
    15
100
AcDbEllipse
 10
181.7332092362
 20
179.4075619567
 30
0.0
 11
-0.1414321262261922
 21
-0.1414321262261922
 31
0.0
210
0.0
220
0.0
230
1.0
 40
0.9999238505
 41
3.038355003288124
 42
3.926952740741877
  0
LINE
  5
100
330
1F
100
AcDbEntity
  8
0
  6
Continuous
 62
     7
370
    15
100
AcDbLine
 10
179.5723129454
 20
179.6075696918
 30
0.0
 11
181.7332242074
 21
179.6075696918
 31
0.0
  0
LINE
  5
101
330
1F
100
AcDbEntity
  8
0
  6
Continuous
 62
     7
370
    15
100
AcDbLine
 10
179.1723136248
 20
179.6075696918
 30
0.0
 11
138.1425831857
 21
179.6075696918
 31
0.0
  0
LINE
  5
102
330
1F
100
AcDbEntity
  8
0
  6
Continuous
 62
     7
370
    15
100
AcDbLine
 10
137.7425838652
 20
179.6075696918
 30
0.0
 11
135.5816726031
 21
179.6075696918
 31
0.0
  0
LINE
  5
103
330
1F
100
AcDbEntity
  8
0
  6
Continuous
 62
     7
370
    15
100
AcDbLine
 10
135.3774641099
 20
179.8117781851
 30
0.0
 11
135.5816726031
 21
179.6075696918
 31
0.0
  0
ELLIPSE
  5
104
330
1F
100
AcDbEntity
  8
0
  6
Continuous
 62
     7
370
    15
100
AcDbEllipse
 10
181.7332092362
 20
112.8560402947
 30
0.0
 11
0.1414321262261921
 21
-0.1414321262261779
 31
0.0
210
0.0
220
0.0
230
1.0
 40
0.9999238505
 41
5.497825220027505
 42
6.386422957481145
  0
ELLIPSE
  5
105
330
1F
100
AcDbEntity
  8
0
  6
Continuous
 62
     7
370
    15
100
AcDbEllipse
 10
181.7332092362
 20
112.8560402947
 30
0.0
 11
0.1414321262261921
 21
-0.1414321262261779
 31
0.0
210
0.0
220
0.0
230
1.0
 40
0.9999238505
 41
0.1032376503015592
 42
0.7853600871425453
  0
LINE
  5
106
330
1F
100
AcDbEntity
  8
0
  6
Continuous
 62
     7
370
    15
100
AcDbLine
 10
181.9332171621
 20
112.8560240242
 30
0.0
 11
182.1374256554
 21
112.651815531
 31
0.0
  0
LINE
  5
107
330
1F
100
AcDbEntity
  8
0
  6
Continuous
 62
     7
370
    15
100
AcDbLine
 10
135.3816796484
 20
112.8560240242
 30
0.0
 11
135.1774711552
 21
112.651815531
 31
0.0
  0
ELLIPSE
  5
108
330
1F
100
AcDbEntity
  8
0
  6
Continuous
 62
     7
370
    15
100
AcDbEllipse
 10
135.5816875743
 20
112.8560402947
 30
0.0
 11
0.1414321262261921
 21
0.1414321262261779
 31
0.0
210
0.0
220
0.0
230
1.0
 40
0.9999238505
 41
2.356232566447298
 42
3.038355003288244
  0
ELLIPSE
  5
109
330
1F
100
AcDbEntity
  8
0
  6
Continuous
 62
     7
370
    15
100
AcDbEllipse
 10
135.5816875743
 20
112.8560402947
 30
0.0
 11
0.1414321262261921
 21
0.1414321262261779
 31
0.0
210
0.0
220
0.0
230
1.0
 40
0.9999238505
 41
3.038355003288244
 42
3.926952740741994
  0
LINE
  5
10A
330
1F
100
AcDbEntity
  8
0
  6
Continuous
 62
     7
370
    15
100
AcDbLine
 10
181.9332171621
 20
115.0169367763
 30
0.0
 11
181.9332171621
 21
112.8560240242
 31
0.0
  0
LINE
  5
10B
330
1F
100
AcDbEntity
  8
0
  6
Continuous
 62
     7
370
    15
100
AcDbLine
 10
181.9332171621
 20
115.416937587
 30
0.0
 11
181.9332171621
 21
176.8466646644
 31
0.0
  0
LINE
  5
10C
330
1F
100
AcDbEntity
  8
0
  6
Continuous
 62
     7
370
    15
100
AcDbLine
 10
181.9332171621
 20
177.2466654751
 30
0.0
 11
181.9332171621
 21
179.4075782272
 31
0.0
  0
LINE
  5
10D
330
1F
100
AcDbEntity
  8
0
  6
Continuous
 62
     7
370
    15
100
AcDbLine
 10
183.4574479999
 20
111.6317237589
 30
0.0
 11
183.4574479999
 21
180.6318784925
 31
0.0
  0
ELLIPSE
  5
10E
330
1F
100
AcDbEntity
  8
0
  6
Continuous
 62
     7
370
    15
100
AcDbEllipse
 10
182.9573722412
 20
111.6318772897
 30
0.0
 11
0.353661094584794
 21
-0.353661094584794
 31
0.0
210
0.0
220
0.0
230
1.0
 40
0.9996954599
 41
5.497939437015358
 42
7.068431177343829
  0
LINE
  5
10F
330
1F
100
AcDbEntity
  8
0
  6
Continuous
 62
     7
370
    15
100
AcDbLine
 10
134.3573723378
 20
111.1318017217
 30
0.0
 11
182.9575244727
 21
111.1318017217
 31
0.0
  0
ELLIPSE
  5
110
330
1F
100
AcDbEntity
  8
0
  6
Continuous
 62
     7
370
    15
100
AcDbEllipse
 10
134.3575245693
 20
111.6318772897
 30
0.0
 11
0.353661094584794
 21
0.353661094584794
 31
0.0
210
0.0
220
0.0
230
1.0
 40
0.9996954599
 41
2.356346783425611
 42
3.926838523754046
  0
LINE
  5
111
330
1F
100
AcDbEntity
  8
0
  6
Continuous
 62
     7
370
    15
100
AcDbLine
 10
133.8574488106
 20
180.6318784925
 30
0.0
 11
133.8574488106
 21
111.6317237589
 31
0.0
  0
LINE
  5
112
330
1F
100
AcDbEntity
  8
0
  6
Continuous
 62
     7
370
    15
100
AcDbLine
 10
182.9575244727
 20
181.1318005297
 30
0.0
 11
134.3573723378
 21
181.1318005297
 31
0.0
  0
ELLIPSE
  5
113
330
1F
100
AcDbEntity
  8
0
  6
Continuous
 62
     7
370
    15
100
AcDbEllipse
 10
134.3575245693
 20
180.6317249617
 30
0.0
 11
-0.3536610945847656
 21
0.353661094584794
 31
0.0
210
0.0
220
0.0
230
1.0
 40
0.9996954599
 41
5.497939437015352
 42
7.068431177343858
  0
ELLIPSE
  5
114
330
1F
100
AcDbEntity
  8
0
  6
Continuous
 62
     7
370
    15
100
AcDbEllipse
 10
182.9573722412
 20
180.6317249617
 30
0.0
 11
-0.353661094584794
 21
-0.3536610945847656
 31
0.0
210
0.0
220
0.0
230
1.0
 40
0.9996954599
 41
2.356346783425662
 42
3.926838523754019
  0
LINE
  5
115
330
1F
100
AcDbEntity
  8
0
  6
Continuous
 62
     7
370
    15
100
AcDbLine
 10
135.3816796484
 20
176.8466646644
 30
0.0
 11
135.3816796484
 21
115.416937587
 31
0.0
  0
LINE
  5
116
330
1F
100
AcDbEntity
  8
0
  6
Continuous
 62
     7
370
    15
100
AcDbLine
 10
135.3816796484
 20
115.0169367763
 30
0.0
 11
135.3816796484
 21
112.8560240242
 31
0.0
  0
LINE
  5
117
330
1F
100
AcDbEntity
  8
0
  6
Continuous
 62
     7
370
    15
100
AcDbLine
 10
135.3816796484
 20
179.4075782272
 30
0.0
 11
135.1774711552
 21
179.6117867205
 31
0.0
  0
LINE
  5
118
330
1F
100
AcDbEntity
  8
0
  6
Continuous
 62
     7
370
    15
100
AcDbLine
 10
135.3816796484
 20
177.2466654751
 30
0.0
 11
135.3816796484
 21
179.4075782272
 31
0.0
  0
ELLIPSE
  5
119
330
1F
100
AcDbEntity
  8
0
  6
Continuous
 62
     7
370
    15
100
AcDbEllipse
 10
135.5816875743
 20
179.4075619567
 30
0.0
 11
-0.1414321262261921
 21
0.1414321262261637
 31
0.0
210
0.0
220
0.0
230
1.0
 40
0.9999238505
 41
5.497825220027388
 42
6.386422957481135
  0
ELLIPSE
  5
11A
330
1F
100
AcDbEntity
  8
0
  6
Continuous
 62
     7
370
    15
100
AcDbEllipse
 10
135.5816875743
 20
179.4075619567
 30
0.0
 11
-0.1414321262261921
 21
0.1414321262261637
 31
0.0
210
0.0
220
0.0
230
1.0
 40
0.9999238505
 41
0.1032376503015487
 42
0.7853600871423487
  0
ARC
  5
11B
330
1F
100
AcDbEntity
  8
0
  6
Continuous
 62
     7
370
    15
100
AcDbCircle
 10
180.8723131118
 20
178.5466658322
 30
0.0
 40
1.30000000000004
100
AcDbArc
 50
180.0
 51
270.0
  0
ARC
  5
11C
330
1F
100
AcDbEntity
  8
0
  6
Continuous
 62
     7
370
    15
100
AcDbCircle
 10
180.8723131118
 20
178.5466658322
 30
0.0
 40
1.700000000000017
100
AcDbArc
 50
180.0
 51
270.0
  0
LINE
  5
11D
330
1F
100
AcDbEntity
  8
0
  6
Continuous
 62
     7
370
    15
100
AcDbLine
 10
179.5723129454
 20
178.5466666195
 30
0.0
 11
179.5723129454
 21
178.906666753
 31
0.0
  0
LINE
  5
11E
330
1F
100
AcDbEntity
  8
0
  6
Continuous
 62
     7
370
    15
100
AcDbLine
 10
180.8723125996
 20
177.2466654751
 30
0.0
 11
181.2323127332
 21
177.2466654751
 31
0.0
  0
LINE
  5
11F
330
1F
100
AcDbEntity
  8
0
  6
Continuous
 62
     7
370
    15
100
AcDbLine
 10
179.1723136248
 20
178.5466666195
 30
0.0
 11
179.1723136248
 21
178.906666753
 31
0.0
  0
LINE
  5
120
330
1F
100
AcDbEntity
  8
0
  6
Continuous
 62
     7
370
    15
100
AcDbLine
 10
180.8723125996
 20
176.8466646644
 30
0.0
 11
181.2323127332
 21
176.8466646644
 31
0.0
  0
ARC
  5
121
330
1F
100
AcDbEntity
  8
0
  6
Continuous
 62
     7
370
    15
100
AcDbCircle
 10
136.4425836988
 20
113.7169364192
 30
0.0
 40
1.700000000000017
100
AcDbArc
 50
0.0
 51
90.0
  0
ARC
  5
122
330
1F
100
AcDbEntity
  8
0
  6
Continuous
 62
     7
370
    15
100
AcDbCircle
 10
136.4425836988
 20
113.7169364192
 30
0.0
 40
1.300000000000011
100
AcDbArc
 50
0.0
 51
90.0
  0
LINE
  5
123
330
1F
100
AcDbEntity
  8
0
  6
Continuous
 62
     7
370
    15
100
AcDbLine
 10
137.7425838652
 20
113.7169356319
 30
0.0
 11
137.7425838652
 21
113.3569354984
 31
0.0
  0
LINE
  5
124
330
1F
100
AcDbEntity
  8
0
  6
Continuous
 62
     7
370
    15
100
AcDbLine
 10
138.1425831857
 20
113.7169356319
 30
0.0
 11
138.1425831857
 21
113.3569354984
 31
0.0
  0
LINE
  5
125
330
1F
100
AcDbEntity
  8
0
  6
Continuous
 62
     7
370
    15
100
AcDbLine
 10
136.4425842109
 20
115.0169367763
 30
0.0
 11
136.0825840773
 21
115.0169367763
 31
0.0
  0
LINE
  5
126
330
1F
100
AcDbEntity
  8
0
  6
Continuous
 62
     7
370
    15
100
AcDbLine
 10
136.4425842109
 20
115.416937587
 30
0.0
 11
136.0825840773
 21
115.416937587
 31
0.0
  0
ARC
  5
127
330
1F
100
AcDbEntity
  8
0
  6
Continuous
 62
     7
370
    15
100
AcDbCircle
 10
136.4425836988
 20
178.5466658322
 30
0.0
 40
1.700000000000017
100
AcDbArc
 50
270.0
 51
0.0
  0
ARC
  5
128
330
1F
100
AcDbEntity
  8
0
  6
Continuous
 62
     7
370
    15
100
AcDbCircle
 10
136.4425836988
 20
178.5466658322
 30
0.0
 40
1.30000000000004
100
AcDbArc
 50
270.0
 51
0.0
  0
LINE
  5
129
330
1F
100
AcDbEntity
  8
0
  6
Continuous
 62
     7
370
    15
100
AcDbLine
 10
137.7425838652
 20
178.5466666195
 30
0.0
 11
137.7425838652
 21
178.906666753
 31
0.0
  0
LINE
  5
12A
330
1F
100
AcDbEntity
  8
0
  6
Continuous
 62
     7
370
    15
100
AcDbLine
 10
136.4425842109
 20
177.2466654751
 30
0.0
 11
136.0825840773
 21
177.2466654751
 31
0.0
  0
LINE
  5
12B
330
1F
100
AcDbEntity
  8
0
  6
Continuous
 62
     7
370
    15
100
AcDbLine
 10
138.1425831857
 20
178.5466666195
 30
0.0
 11
138.1425831857
 21
178.906666753
 31
0.0
  0
LINE
  5
12C
330
1F
100
AcDbEntity
  8
0
  6
Continuous
 62
     7
370
    15
100
AcDbLine
 10
136.4425842109
 20
176.8466646644
 30
0.0
 11
136.0825840773
 21
176.8466646644
 31
0.0
  0
ARC
  5
12D
330
1F
100
AcDbEntity
  8
0
  6
Continuous
 62
     7
370
    15
100
AcDbCircle
 10
180.8723131118
 20
113.7169364192
 30
0.0
 40
1.700000000000003
100
AcDbArc
 50
90.0
 51
180.0
  0
ARC
  5
12E
330
1F
100
AcDbEntity
  8
0
  6
Continuous
 62
     7
370
    15
100
AcDbCircle
 10
180.8723131118
 20
113.7169364192
 30
0.0
 40
1.299999999999997
100
AcDbArc
 50
90.0
 51
180.0
  0
LINE
  5
12F
330
1F
100
AcDbEntity
  8
0
  6
Continuous
 62
     7
370
    15
100
AcDbLine
 10
180.8723125996
 20
115.416937587
 30
0.0
 11
181.2323127332
 21
115.416937587
 31
0.0
  0
LINE
  5
130
330
1F
100
AcDbEntity
  8
0
  6
Continuous
 62
     7
370
    15
100
AcDbLine
 10
179.1723136248
 20
113.7169356319
 30
0.0
 11
179.1723136248
 21
113.3569354984
 31
0.0
  0
LINE
  5
131
330
1F
100
AcDbEntity
  8
0
  6
Continuous
 62
     7
370
    15
100
AcDbLine
 10
180.8723125996
 20
115.0169367763
 30
0.0
 11
181.2323127332
 21
115.0169367763
 31
0.0
  0
LINE
  5
132
330
1F
100
AcDbEntity
  8
0
  6
Continuous
 62
     7
370
    15
100
AcDbLine
 10
179.5723129454
 20
113.7169356319
 30
0.0
 11
179.5723129454
 21
113.3569354984
 31
0.0
  0
LINE
  5
133
330
1F
100
AcDbEntity
  8
0
  6
Continuous
 62
     7
370
    15
100
AcDbLine
 10
135.4334477725
 20
112.7358014557
 30
0.0
 11
137.7425838652
 21
112.7358014557
 31
0.0
  0
LINE
  5
134
330
1F
100
AcDbEntity
  8
0
  6
Continuous
 62
     7
370
    15
100
AcDbLine
 10
135.4334477725
 20
115.0169367763
 30
0.0
 11
135.4334477725
 21
112.7358014557
 31
0.0
  0
LINE
  5
135
330
1F
100
AcDbEntity
  8
0
  6
Continuous
 62
     7
370
    15
100
AcDbLine
 10
181.881449038
 20
179.5278007957
 30
0.0
 11
179.5723129454
 21
179.5278007957
 31
0.0
  0
LINE
  5
136
330
1F
100
AcDbEntity
  8
0
  6
Continuous
 62
     7
370
    15
100
AcDbLine
 10
181.881449038
 20
177.2466654751
 30
0.0
 11
181.881449038
 21
179.5278007957
 31
0.0
  0
LINE
  5
137
330
1F
100
AcDbEntity
  8
0
  6
Continuous
 62
     7
370
    15
100
AcDbLine
 10
181.881449038
 20
112.7358014557
 30
0.0
 11
179.5723129454
 21
112.7358014557
 31
0.0
  0
LINE
  5
138
330
1F
100
AcDbEntity
  8
0
  6
Continuous
 62
     7
370
    15
100
AcDbLine
 10
181.881449038
 20
115.0169367763
 30
0.0
 11
181.881449038
 21
112.7358014557
 31
0.0
  0
LINE
  5
139
330
1F
100
AcDbEntity
  8
0
  6
Continuous
 62
     7
370
    15
100
AcDbLine
 10
135.4334477725
 20
179.5278007957
 30
0.0
 11
137.7425838652
 21
179.5278007957
 31
0.0
  0
LINE
  5
13A
330
1F
100
AcDbEntity
  8
0
  6
Continuous
 62
     7
370
    15
100
AcDbLine
 10
135.4334477725
 20
177.2466654751
 30
0.0
 11
135.4334477725
 21
179.5278007957
 31
0.0
  0
LINE
  5
13B
330
1F
100
AcDbEntity
  8
0
  6
Continuous
 62
     7
370
    15
100
AcDbLine
 10
137.8074486198
 20
164.131801841
 30
0.0
 11
137.8074486198
 21
165.143115339
 31
0.0
  0
LINE
  5
13C
330
1F
100
AcDbEntity
  8
0
  6
Continuous
 62
     7
370
    15
100
AcDbLine
 10
137.7865020575
 20
164.1527469131
 30
0.0
 11
137.8074486198
 21
164.131801841
 31
0.0
  0
LINE
  5
13D
330
1F
100
AcDbEntity
  8
0
  6
Continuous
 62
     7
370
    15
100
AcDbLine
 10
137.7865020575
 20
164.1527469131
 30
0.0
 11
137.7865020575
 21
165.1612902853
 31
0.0
  0
LWPOLYLINE
  5
13E
330
1F
100
AcDbEntity
  8
0
  6
Continuous
 62
     7
370
    15
100
AcDbPolyline
 90
        3
 70
   128
 43
0.0
 10
137.8074486198
 20
165.143115339
 10
137.7957065048
 20
165.1532615396
 10
137.7865020575
 20
165.1612902853
  0
ARC
  5
13F
330
1F
100
AcDbEntity
  8
0
  6
Continuous
 62
     7
370
    15
100
AcDbCircle
 10
137.6574484053
 20
156.1318011257
 30
0.0
 40
0.9790539220854421
100
AcDbArc
 50
97.5744826607
 51
262.4255173393
  0
LWPOLYLINE
  5
140
330
1F
100
AcDbEntity
  8
0
  6
Continuous
 62
     7
370
    15
100
AcDbPolyline
 90
        3
 70
   128
 43
0.0
 10
137.5074480119
 20
155.14311519
 10
137.5191901269
 20
155.1532621357
 10
137.5283945742
 20
155.1612901363
  0
ARC
  5
141
330
1F
100
AcDbEntity
  8
0
  6
Continuous
 62
     7
370
    15
100
AcDbCircle
 10
137.6574484053
 20
156.1318011257
 30
0.0
 40
0.9999999999997474
100
AcDbArc
 50
98.6269265587
 51
261.3730734413
  0
LWPOLYLINE
  5
142
330
1F
100
AcDbEntity
  8
0
  6
Continuous
 62
     7
370
    15
100
AcDbPolyline
 90
        3
 70
   128
 43
0.0
 10
137.5074480119
 20
157.1204873595
 10
137.5191901269
 20
157.1103396687
 10
137.5283945742
 20
157.1023124132
  0
LINE
  5
143
330
1F
100
AcDbEntity
  8
0
  6
Continuous
 62
     7
370
    15
100
AcDbLine
 10
137.5074480119
 20
155.14311519
 30
0.0
 11
137.5074480119
 21
154.1318009469
 31
0.0
  0
LINE
  5
144
330
1F
100
AcDbEntity
  8
0
  6
Continuous
 62
     7
370
    15
100
AcDbLine
 10
137.5283945742
 20
155.1612901363
 30
0.0
 11
137.5283945742
 21
154.1527475092
 31
0.0
  0
LINE
  5
145
330
1F
100
AcDbEntity
  8
0
  6
Continuous
 62
     7
370
    15
100
AcDbLine
 10
137.5283945742
 20
154.1527475092
 30
0.0
 11
137.5074480119
 21
154.1318009469
 31
0.0
  0
LINE
  5
146
330
1F
100
AcDbEntity
  8
0
  6
Continuous
 62
     7
370
    15
100
AcDbLine
 10
150.6574485841
 20
177.2818024132
 30
0.0
 11
149.646134341
 21
177.2818024132
 31
0.0
  0
LINE
  5
147
330
1F
100
AcDbEntity
  8
0
  6
Continuous
 62
     7
370
    15
100
AcDbLine
 10
150.6365020218
 20
177.2608543608
 30
0.0
 11
150.6574485841
 21
177.2818024132
 31
0.0
  0
LINE
  5
148
330
1F
100
AcDbEntity
  8
0
  6
Continuous
 62
     7
370
    15
100
AcDbLine
 10
150.6365020218
 20
177.2608543608
 30
0.0
 11
149.6279593947
 21
177.2608543608
 31
0.0
  0
LWPOLYLINE
  5
149
330
1F
100
AcDbEntity
  8
0
  6
Continuous
 62
     7
370
    15
100
AcDbPolyline
 90
        3
 70
   128
 43
0.0
 10
149.646134341
 20
177.2818024132
 10
149.6359873953
 20
177.2700602981
 10
149.6279593947
 20
177.2608543608
  0
LINE
  5
14A
330
1F
100
AcDbEntity
  8
0
  6
Continuous
 62
     7
370
    15
100
AcDbLine
 10
147.6687621715
 20
177.2818024132
 30
0.0
 11
146.6574486735
 21
177.2818024132
 31
0.0
  0
LWPOLYLINE
  5
14B
330
1F
100
AcDbEntity
  8
0
  6
Continuous
 62
     7
370
    15
100
AcDbPolyline
 90
        3
 70
   128
 43
0.0
 10
147.6687621715
 20
177.2818024132
 10
147.6789098623
 20
177.2700602981
 10
147.6869371178
 20
177.2608543608
  0
LINE
  5
14C
330
1F
100
AcDbEntity
  8
0
  6
Continuous
 62
     7
370
    15
100
AcDbLine
 10
147.6869371178
 20
177.2608543608
 30
0.0
 11
146.6783944907
 21
177.2608543608
 31
0.0
  0
LINE
  5
14D
330
1F
100
AcDbEntity
  8
0
  6
Continuous
 62
     7
370
    15
100
AcDbLine
 10
146.6783944907
 20
177.2608543608
 30
0.0
 11
146.6574486735
 21
177.2818024132
 31
0.0
  0
LINE
  5
14E
330
1F
100
AcDbEntity
  8
0
  6
Continuous
 62
     7
370
    15
100
AcDbLine
 10
137.8074486198
 20
167.1204875085
 30
0.0
 11
137.8074486198
 21
168.1318010065
 31
0.0
  0
LWPOLYLINE
  5
14F
330
1F
100
AcDbEntity
  8
0
  6
Continuous
 62
     7
370
    15
100
AcDbPolyline
 90
        3
 70
   128
 43
0.0
 10
137.8074486198
 20
167.1204875085
 10
137.7957065048
 20
167.1103398177
 10
137.7865020575
 20
167.1023125622
  0
LINE
  5
150
330
1F
100
AcDbEntity
  8
0
  6
Continuous
 62
     7
370
    15
100
AcDbLine
 10
137.7865020575
 20
167.1023125622
 30
0.0
 11
137.7865020575
 21
168.1108544442
 31
0.0
  0
LINE
  5
151
330
1F
100
AcDbEntity
  8
0
  6
Continuous
 62
     7
370
    15
100
AcDbLine
 10
137.7865020575
 20
168.1108544442
 30
0.0
 11
137.8074486198
 21
168.1318010065
 31
0.0
  0
LINE
  5
152
330
1F
100
AcDbEntity
  8
0
  6
Continuous
 62
     7
370
    15
100
AcDbLine
 10
137.5074480119
 20
164.131801841
 30
0.0
 11
137.8074486198
 21
164.131801841
 31
0.0
  0
LINE
  5
153
330
1F
100
AcDbEntity
  8
0
  6
Continuous
 62
     7
370
    15
100
AcDbLine
 10
137.5283945742
 20
164.1527469131
 30
0.0
 11
137.5074480119
 21
164.131801841
 31
0.0
  0
LINE
  5
154
330
1F
100
AcDbEntity
  8
0
  6
Continuous
 62
     7
370
    15
100
AcDbLine
 10
137.5283945742
 20
164.1527469131
 30
0.0
 11
137.7865020575
 21
164.1527469131
 31
0.0
  0
ARC
  5
155
330
1F
100
AcDbEntity
  8
0
  6
Continuous
 62
     7
370
    15
100
AcDbCircle
 10
158.6574484053
 20
177.1318011257
 30
0.0
 40
0.9999999999999722
100
AcDbArc
 50
8.6269265587
 51
171.3730734413
  0
LWPOLYLINE
  5
156
330
1F
100
AcDbEntity
  8
0
  6
Continuous
 62
     7
370
    15
100
AcDbPolyline
 90
        3
 70
   128
 43
0.0
 10
159.6461343969
 20
177.2818024132
 10
159.6359872649
 20
177.2700602981
 10
159.6279594506
 20
177.2608543608
  0
ARC
  5
157
330
1F
100
AcDbEntity
  8
0
  6
Continuous
 62
     7
370
    15
100
AcDbCircle
 10
158.6574484053
 20
177.1318011257
 30
0.0
 40
0.9790539220852449
100
AcDbArc
 50
7.5744826607
 51
172.4255173393
  0
LWPOLYLINE
  5
158
330
1F
100
AcDbEntity
  8
0
  6
Continuous
 62
     7
370
    15
100
AcDbPolyline
 90
        3
 70
   128
 43
0.0
 10
157.6687624136
 20
177.2818024132
 10
157.6789095456
 20
177.2700602981
 10
157.6869373599
 20
177.2608543608
  0
ARC
  5
159
330
1F
100
AcDbEntity
  8
0
  6
Continuous
 62
     7
370
    15
100
AcDbCircle
 10
137.6574484053
 20
156.1318011257
 30
0.0
 40
0.9999999999997432
100
AcDbArc
 50
278.6269265587
 51
81.3730734413
  0
LWPOLYLINE
  5
15A
330
1F
100
AcDbEntity
  8
0
  6
Continuous
 62
     7
370
    15
100
AcDbPolyline
 90
        3
 70
   128
 43
0.0
 10
137.8074486198
 20
155.14311519
 10
137.7957065048
 20
155.1532621357
 10
137.7865020575
 20
155.1612901363
  0
ARC
  5
15B
330
1F
100
AcDbEntity
  8
0
  6
Continuous
 62
     7
370
    15
100
AcDbCircle
 10
137.6574484053
 20
156.1318011257
 30
0.0
 40
0.9790539220854384
100
AcDbArc
 50
277.5744826607
 51
82.4255173393
  0
LWPOLYLINE
  5
15C
330
1F
100
AcDbEntity
  8
0
  6
Continuous
 62
     7
370
    15
100
AcDbPolyline
 90
        3
 70
   128
 43
0.0
 10
137.8074486198
 20
157.1204873595
 10
137.7957065048
 20
157.1103396687
 10
137.7865020575
 20
157.1023124132
  0
LINE
  5
15D
330
1F
100
AcDbEntity
  8
0
  6
Continuous
 62
     7
370
    15
100
AcDbLine
 10
137.5074480119
 20
158.1318008575
 30
0.0
 11
137.5074480119
 21
157.1204873595
 31
0.0
  0
LINE
  5
15E
330
1F
100
AcDbEntity
  8
0
  6
Continuous
 62
     7
370
    15
100
AcDbLine
 10
137.5283945742
 20
158.1108550403
 30
0.0
 11
137.5074480119
 21
158.1318008575
 31
0.0
  0
LINE
  5
15F
330
1F
100
AcDbEntity
  8
0
  6
Continuous
 62
     7
370
    15
100
AcDbLine
 10
137.5283945742
 20
158.1108550403
 30
0.0
 11
137.5283945742
 21
157.1023124132
 31
0.0
  0
LINE
  5
160
330
1F
100
AcDbEntity
  8
0
  6
Continuous
 62
     7
370
    15
100
AcDbLine
 10
160.6574483605
 20
176.9818003151
 30
0.0
 11
159.6461343969
 21
176.9818003151
 31
0.0
  0
LWPOLYLINE
  5
161
330
1F
100
AcDbEntity
  8
0
  6
Continuous
 62
     7
370
    15
100
AcDbPolyline
 90
        3
 70
   128
 43
0.0
 10
159.6461343969
 20
176.9818003151
 10
159.6359872649
 20
176.9935424301
 10
159.6279594506
 20
177.0027483675
  0
LINE
  5
162
330
1F
100
AcDbEntity
  8
0
  6
Continuous
 62
     7
370
    15
100
AcDbLine
 10
160.6365023571
 20
177.0027483675
 30
0.0
 11
159.6279594506
 21
177.0027483675
 31
0.0
  0
LINE
  5
163
330
1F
100
AcDbEntity
  8
0
  6
Continuous
 62
     7
370
    15
100
AcDbLine
 10
160.6365023571
 20
177.0027483675
 30
0.0
 11
160.6574483605
 21
176.9818003151
 31
0.0
  0
ARC
  5
164
330
1F
100
AcDbEntity
  8
0
  6
Continuous
 62
     7
370
    15
100
AcDbCircle
 10
158.6574484053
 20
177.1318011257
 30
0.0
 40
0.9790539220852412
100
AcDbArc
 50
187.5744826607
 51
352.4255173393
  0
ARC
  5
165
330
1F
100
AcDbEntity
  8
0
  6
Continuous
 62
     7
370
    15
100
AcDbCircle
 10
158.6574484053
 20
177.1318011257
 30
0.0
 40
0.9999999999999722
100
AcDbArc
 50
188.6269265587
 51
351.3730734413
  0
LWPOLYLINE
  5
166
330
1F
100
AcDbEntity
  8
0
  6
Continuous
 62
     7
370
    15
100
AcDbPolyline
 90
        3
 70
   128
 43
0.0
 10
157.6687624136
 20
176.9818003151
 10
157.6789095456
 20
176.9935424301
 10
157.6869373599
 20
177.0027483675
  0
LINE
  5
167
330
1F
100
AcDbEntity
  8
0
  6
Continuous
 62
     7
370
    15
100
AcDbLine
 10
156.65744845
 20
176.9818003151
 30
0.0
 11
157.6687624136
 21
176.9818003151
 31
0.0
  0
LINE
  5
168
330
1F
100
AcDbEntity
  8
0
  6
Continuous
 62
     7
370
    15
100
AcDbLine
 10
156.6783944535
 20
177.0027483675
 30
0.0
 11
156.65744845
 21
176.9818003151
 31
0.0
  0
LINE
  5
169
330
1F
100
AcDbEntity
  8
0
  6
Continuous
 62
     7
370
    15
100
AcDbLine
 10
156.6783944535
 20
177.0027483675
 30
0.0
 11
157.6869373599
 21
177.0027483675
 31
0.0
  0
LINE
  5
16A
330
1F
100
AcDbEntity
  8
0
  6
Continuous
 62
     7
370
    15
100
AcDbLine
 10
156.65744845
 20
177.2818024132
 30
0.0
 11
156.65744845
 21
176.9818003151
 31
0.0
  0
LINE
  5
16B
330
1F
100
AcDbEntity
  8
0
  6
Continuous
 62
     7
370
    15
100
AcDbLine
 10
156.6783944535
 20
177.2608543608
 30
0.0
 11
156.65744845
 21
177.2818024132
 31
0.0
  0
LINE
  5
16C
330
1F
100
AcDbEntity
  8
0
  6
Continuous
 62
     7
370
    15
100
AcDbLine
 10
156.6783944535
 20
177.2608543608
 30
0.0
 11
156.6783944535
 21
177.0027483675
 31
0.0
  0
ARC
  5
16D
330
1F
100
AcDbEntity
  8
0
  6
Continuous
 62
     7
370
    15
100
AcDbCircle
 10
148.6574484053
 20
177.1318011257
 30
0.0
 40
0.9790539220854703
100
AcDbArc
 50
7.5744826607
 51
172.4255173393
  0
ARC
  5
16E
330
1F
100
AcDbEntity
  8
0
  6
Continuous
 62
     7
370
    15
100
AcDbCircle
 10
148.6574484053
 20
177.1318011257
 30
0.0
 40
0.9999999999997755
100
AcDbArc
 50
8.6269265587
 51
171.3730734413
  0
ARC
  5
16F
330
1F
100
AcDbEntity
  8
0
  6
Continuous
 62
     7
370
    15
100
AcDbCircle
 10
137.6574484053
 20
146.1318011257
 30
0.0
 40
0.999999999999968
100
AcDbArc
 50
278.6269265587
 51
81.3730734413
  0
LWPOLYLINE
  5
170
330
1F
100
AcDbEntity
  8
0
  6
Continuous
 62
     7
370
    15
100
AcDbPolyline
 90
        3
 70
   128
 43
0.0
 10
137.8074486198
 20
145.1431151341
 10
137.7957065048
 20
145.1532622661
 10
137.7865020575
 20
145.1612900804
  0
ARC
  5
171
330
1F
100
AcDbEntity
  8
0
  6
Continuous
 62
     7
370
    15
100
AcDbCircle
 10
137.6574484053
 20
146.1318011257
 30
0.0
 40
0.9790539220852412
100
AcDbArc
 50
277.5744826607
 51
82.4255173393
  0
LWPOLYLINE
  5
172
330
1F
100
AcDbEntity
  8
0
  6
Continuous
 62
     7
370
    15
100
AcDbPolyline
 90
        3
 70
   128
 43
0.0
 10
137.8074486198
 20
147.1204871173
 10
137.7957065048
 20
147.1103399853
 10
137.7865020575
 20
147.102312171
  0
LINE
  5
173
330
1F
100
AcDbEntity
  8
0
  6
Continuous
 62
     7
370
    15
100
AcDbLine
 10
159.6461343969
 20
177.2818024132
 30
0.0
 11
160.6574483605
 21
177.2818024132
 31
0.0
  0
LINE
  5
174
330
1F
100
AcDbEntity
  8
0
  6
Continuous
 62
     7
370
    15
100
AcDbLine
 10
160.6365023571
 20
177.2608543608
 30
0.0
 11
160.6574483605
 21
177.2818024132
 31
0.0
  0
LINE
  5
175
330
1F
100
AcDbEntity
  8
0
  6
Continuous
 62
     7
370
    15
100
AcDbLine
 10
159.6279594506
 20
177.2608543608
 30
0.0
 11
160.6365023571
 21
177.2608543608
 31
0.0
  0
LINE
  5
176
330
1F
100
AcDbEntity
  8
0
  6
Continuous
 62
     7
370
    15
100
AcDbLine
 10
160.6574483605
 20
177.2818024132
 30
0.0
 11
160.6574483605
 21
176.9818003151
 31
0.0
  0
LINE
  5
177
330
1F
100
AcDbEntity
  8
0
  6
Continuous
 62
     7
370
    15
100
AcDbLine
 10
160.6365023571
 20
177.2608543608
 30
0.0
 11
160.6365023571
 21
177.0027483675
 31
0.0
  0
LINE
  5
178
330
1F
100
AcDbEntity
  8
0
  6
Continuous
 62
     7
370
    15
100
AcDbLine
 10
146.6574486735
 20
177.2818024132
 30
0.0
 11
146.6574486735
 21
176.9818003151
 31
0.0
  0
LINE
  5
179
330
1F
100
AcDbEntity
  8
0
  6
Continuous
 62
     7
370
    15
100
AcDbLine
 10
146.6783944907
 20
177.2608543608
 30
0.0
 11
146.6783944907
 21
177.0027483675
 31
0.0
  0
LINE
  5
17A
330
1F
100
AcDbEntity
  8
0
  6
Continuous
 62
     7
370
    15
100
AcDbLine
 10
146.6783944907
 20
177.0027483675
 30
0.0
 11
146.6574486735
 21
176.9818003151
 31
0.0
  0
LINE
  5
17B
330
1F
100
AcDbEntity
  8
0
  6
Continuous
 62
     7
370
    15
100
AcDbLine
 10
137.5074480119
 20
144.1318011704
 30
0.0
 11
137.5074480119
 21
145.1431151341
 31
0.0
  0
LWPOLYLINE
  5
17C
330
1F
100
AcDbEntity
  8
0
  6
Continuous
 62
     7
370
    15
100
AcDbPolyline
 90
        3
 70
   128
 43
0.0
 10
137.5074480119
 20
145.1431151341
 10
137.5191901269
 20
145.1532622661
 10
137.5283945742
 20
145.1612900804
  0
LINE
  5
17D
330
1F
100
AcDbEntity
  8
0
  6
Continuous
 62
     7
370
    15
100
AcDbLine
 10
137.5283945742
 20
144.1527471739
 30
0.0
 11
137.5283945742
 21
145.1612900804
 31
0.0
  0
LINE
  5
17E
330
1F
100
AcDbEntity
  8
0
  6
Continuous
 62
     7
370
    15
100
AcDbLine
 10
137.5283945742
 20
144.1527471739
 30
0.0
 11
137.5074480119
 21
144.1318011704
 31
0.0
  0
LINE
  5
17F
330
1F
100
AcDbEntity
  8
0
  6
Continuous
 62
     7
370
    15
100
AcDbLine
 10
137.8074486198
 20
147.1204871173
 30
0.0
 11
137.8074486198
 21
148.131801081
 31
0.0
  0
LINE
  5
180
330
1F
100
AcDbEntity
  8
0
  6
Continuous
 62
     7
370
    15
100
AcDbLine
 10
137.7865020575
 20
147.102312171
 30
0.0
 11
137.7865020575
 21
148.1108550775
 31
0.0
  0
LINE
  5
181
330
1F
100
AcDbEntity
  8
0
  6
Continuous
 62
     7
370
    15
100
AcDbLine
 10
137.7865020575
 20
148.1108550775
 30
0.0
 11
137.8074486198
 21
148.131801081
 31
0.0
  0
LINE
  5
182
330
1F
100
AcDbEntity
  8
0
  6
Continuous
 62
     7
370
    15
100
AcDbLine
 10
137.8074486198
 20
148.131801081
 30
0.0
 11
137.5074480119
 21
148.131801081
 31
0.0
  0
LINE
  5
183
330
1F
100
AcDbEntity
  8
0
  6
Continuous
 62
     7
370
    15
100
AcDbLine
 10
137.7865020575
 20
148.1108550775
 30
0.0
 11
137.5283945742
 21
148.1108550775
 31
0.0
  0
LINE
  5
184
330
1F
100
AcDbEntity
  8
0
  6
Continuous
 62
     7
370
    15
100
AcDbLine
 10
137.5283945742
 20
148.1108550775
 30
0.0
 11
137.5074480119
 21
148.131801081
 31
0.0
  0
LINE
  5
185
330
1F
100
AcDbEntity
  8
0
  6
Continuous
 62
     7
370
    15
100
AcDbLine
 10
137.5074480119
 20
148.131801081
 30
0.0
 11
137.5074480119
 21
147.1204871173
 31
0.0
  0
LINE
  5
186
330
1F
100
AcDbEntity
  8
0
  6
Continuous
 62
     7
370
    15
100
AcDbLine
 10
137.5283945742
 20
148.1108550775
 30
0.0
 11
137.5283945742
 21
147.102312171
 31
0.0
  0
LWPOLYLINE
  5
187
330
1F
100
AcDbEntity
  8
0
  6
Continuous
 62
     7
370
    15
100
AcDbPolyline
 90
        3
 70
   128
 43
0.0
 10
137.5074480119
 20
147.1204871173
 10
137.5191901269
 20
147.1103399853
 10
137.5283945742
 20
147.102312171
  0
ARC
  5
188
330
1F
100
AcDbEntity
  8
0
  6
Continuous
 62
     7
370
    15
100
AcDbCircle
 10
158.6574484053
 20
115.1318011257
 30
0.0
 40
0.9999999999999722
100
AcDbArc
 50
8.6269265587
 51
171.3730734413
  0
LWPOLYLINE
  5
189
330
1F
100
AcDbEntity
  8
0
  6
Continuous
 62
     7
370
    15
100
AcDbPolyline
 90
        3
 70
   128
 43
0.0
 10
159.6461343969
 20
115.2818019363
 10
159.6359872649
 20
115.2700598213
 10
159.6279594506
 20
115.2608538839
  0
ARC
  5
18A
330
1F
100
AcDbEntity
  8
0
  6
Continuous
 62
     7
370
    15
100
AcDbCircle
 10
158.6574484053
 20
115.1318011257
 30
0.0
 40
0.9790539220852449
100
AcDbArc
 50
7.5744826607
 51
172.4255173393
  0
LWPOLYLINE
  5
18B
330
1F
100
AcDbEntity
  8
0
  6
Continuous
 62
     7
370
    15
100
AcDbPolyline
 90
        3
 70
   128
 43
0.0
 10
157.6687624136
 20
115.2818019363
 10
157.6789095456
 20
115.2700598213
 10
157.6869373599
 20
115.2608538839
  0
LINE
  5
18C
330
1F
100
AcDbEntity
  8
0
  6
Continuous
 62
     7
370
    15
100
AcDbLine
 10
160.6574483605
 20
115.2818019363
 30
0.0
 11
159.6461343969
 21
115.2818019363
 31
0.0
  0
LINE
  5
18D
330
1F
100
AcDbEntity
  8
0
  6
Continuous
 62
     7
370
    15
100
AcDbLine
 10
160.6365023571
 20
115.2608538839
 30
0.0
 11
160.6574483605
 21
115.2818019363
 31
0.0
  0
LINE
  5
18E
330
1F
100
AcDbEntity
  8
0
  6
Continuous
 62
     7
370
    15
100
AcDbLine
 10
160.6365023571
 20
115.2608538839
 30
0.0
 11
159.6279594506
 21
115.2608538839
 31
0.0
  0
LINE
  5
18F
330
1F
100
AcDbEntity
  8
0
  6
Continuous
 62
     7
370
    15
100
AcDbLine
 10
160.6574483605
 20
114.9817998382
 30
0.0
 11
160.6574483605
 21
115.2818019363
 31
0.0
  0
LINE
  5
190
330
1F
100
AcDbEntity
  8
0
  6
Continuous
 62
     7
370
    15
100
AcDbLine
 10
160.6365023571
 20
115.0027478906
 30
0.0
 11
160.6574483605
 21
114.9817998382
 31
0.0
  0
LINE
  5
191
330
1F
100
AcDbEntity
  8
0
  6
Continuous
 62
     7
370
    15
100
AcDbLine
 10
160.6365023571
 20
115.0027478906
 30
0.0
 11
160.6365023571
 21
115.2608538839
 31
0.0
  0
LINE
  5
192
330
1F
100
AcDbEntity
  8
0
  6
Continuous
 62
     7
370
    15
100
AcDbLine
 10
159.6461343969
 20
114.9817998382
 30
0.0
 11
160.6574483605
 21
114.9817998382
 31
0.0
  0
LWPOLYLINE
  5
193
330
1F
100
AcDbEntity
  8
0
  6
Continuous
 62
     7
370
    15
100
AcDbPolyline
 90
        3
 70
   128
 43
0.0
 10
159.6461343969
 20
114.9817998382
 10
159.6359872649
 20
114.9935419533
 10
159.6279594506
 20
115.0027478906
  0
LINE
  5
194
330
1F
100
AcDbEntity
  8
0
  6
Continuous
 62
     7
370
    15
100
AcDbLine
 10
159.6279594506
 20
115.0027478906
 30
0.0
 11
160.6365023571
 21
115.0027478906
 31
0.0
  0
LINE
  5
195
330
1F
100
AcDbEntity
  8
0
  6
Continuous
 62
     7
370
    15
100
AcDbLine
 10
156.65744845
 20
115.2818019363
 30
0.0
 11
157.6687624136
 21
115.2818019363
 31
0.0
  0
LINE
  5
196
330
1F
100
AcDbEntity
  8
0
  6
Continuous
 62
     7
370
    15
100
AcDbLine
 10
156.6783944535
 20
115.2608538839
 30
0.0
 11
157.6869373599
 21
115.2608538839
 31
0.0
  0
LINE
  5
197
330
1F
100
AcDbEntity
  8
0
  6
Continuous
 62
     7
370
    15
100
AcDbLine
 10
156.6783944535
 20
115.2608538839
 30
0.0
 11
156.65744845
 21
115.2818019363
 31
0.0
  0
LINE
  5
198
330
1F
100
AcDbEntity
  8
0
  6
Continuous
 62
     7
370
    15
100
AcDbLine
 10
156.65744845
 20
114.9817998382
 30
0.0
 11
156.65744845
 21
115.2818019363
 31
0.0
  0
LINE
  5
199
330
1F
100
AcDbEntity
  8
0
  6
Continuous
 62
     7
370
    15
100
AcDbLine
 10
156.6783944535
 20
115.0027478906
 30
0.0
 11
156.6783944535
 21
115.2608538839
 31
0.0
  0
LINE
  5
19A
330
1F
100
AcDbEntity
  8
0
  6
Continuous
 62
     7
370
    15
100
AcDbLine
 10
156.6783944535
 20
115.0027478906
 30
0.0
 11
156.65744845
 21
114.9817998382
 31
0.0
  0
LINE
  5
19B
330
1F
100
AcDbEntity
  8
0
  6
Continuous
 62
     7
370
    15
100
AcDbLine
 10
157.6687624136
 20
114.9817998382
 30
0.0
 11
156.65744845
 21
114.9817998382
 31
0.0
  0
LINE
  5
19C
330
1F
100
AcDbEntity
  8
0
  6
Continuous
 62
     7
370
    15
100
AcDbLine
 10
157.6869373599
 20
115.0027478906
 30
0.0
 11
156.6783944535
 21
115.0027478906
 31
0.0
  0
LWPOLYLINE
  5
19D
330
1F
100
AcDbEntity
  8
0
  6
Continuous
 62
     7
370
    15
100
AcDbPolyline
 90
        3
 70
   128
 43
0.0
 10
157.6687624136
 20
114.9817998382
 10
157.6789095456
 20
114.9935419533
 10
157.6869373599
 20
115.0027478906
  0
LINE
  5
19E
330
1F
100
AcDbEntity
  8
0
  6
Continuous
 62
     7
370
    15
100
AcDbLine
 10
157.6687624136
 20
177.2818024132
 30
0.0
 11
156.65744845
 21
177.2818024132
 31
0.0
  0
LINE
  5
19F
330
1F
100
AcDbEntity
  8
0
  6
Continuous
 62
     7
370
    15
100
AcDbLine
 10
157.6869373599
 20
177.2608543608
 30
0.0
 11
156.6783944535
 21
177.2608543608
 31
0.0
  0
LINE
  5
1A0
330
1F
100
AcDbEntity
  8
0
  6
Continuous
 62
     7
370
    15
100
AcDbLine
 10
166.6574482264
 20
176.9818003151
 30
0.0
 11
166.6574482264
 21
177.2818024132
 31
0.0
  0
LINE
  5
1A1
330
1F
100
AcDbEntity
  8
0
  6
Continuous
 62
     7
370
    15
100
AcDbLine
 10
166.6783947887
 20
177.2608543608
 30
0.0
 11
166.6574482264
 21
177.2818024132
 31
0.0
  0
LINE
  5
1A2
330
1F
100
AcDbEntity
  8
0
  6
Continuous
 62
     7
370
    15
100
AcDbLine
 10
166.6783947887
 20
177.0027483675
 30
0.0
 11
166.6783947887
 21
177.2608543608
 31
0.0
  0
LINE
  5
1A3
330
1F
100
AcDbEntity
  8
0
  6
Continuous
 62
     7
370
    15
100
AcDbLine
 10
166.6783947887
 20
177.0027483675
 30
0.0
 11
166.6574482264
 21
176.9818003151
 31
0.0
  0
ARC
  5
1A4
330
1F
100
AcDbEntity
  8
0
  6
Continuous
 62
     7
370
    15
100
AcDbCircle
 10
137.6574484053
 20
146.1318011257
 30
0.0
 40
0.9790539220852449
100
AcDbArc
 50
97.5744826607
 51
262.4255173393
  0
ARC
  5
1A5
330
1F
100
AcDbEntity
  8
0
  6
Continuous
 62
     7
370
    15
100
AcDbCircle
 10
137.6574484053
 20
146.1318011257
 30
0.0
 40
0.9999999999999722
100
AcDbArc
 50
98.6269265587
 51
261.3730734413
  0
LINE
  5
1A6
330
1F
100
AcDbEntity
  8
0
  6
Continuous
 62
     7
370
    15
100
AcDbLine
 10
137.8074486198
 20
145.1431151341
 30
0.0
 11
137.8074486198
 21
144.1318011704
 31
0.0
  0
LINE
  5
1A7
330
1F
100
AcDbEntity
  8
0
  6
Continuous
 62
     7
370
    15
100
AcDbLine
 10
137.7865020575
 20
144.1527471739
 30
0.0
 11
137.8074486198
 21
144.1318011704
 31
0.0
  0
LINE
  5
1A8
330
1F
100
AcDbEntity
  8
0
  6
Continuous
 62
     7
370
    15
100
AcDbLine
 10
137.7865020575
 20
145.1612900804
 30
0.0
 11
137.7865020575
 21
144.1527471739
 31
0.0
  0
LINE
  5
1A9
330
1F
100
AcDbEntity
  8
0
  6
Continuous
 62
     7
370
    15
100
AcDbLine
 10
137.8074486198
 20
144.1318011704
 30
0.0
 11
137.5074480119
 21
144.1318011704
 31
0.0
  0
LINE
  5
1AA
330
1F
100
AcDbEntity
  8
0
  6
Continuous
 62
     7
370
    15
100
AcDbLine
 10
137.7865020575
 20
144.1527471739
 30
0.0
 11
137.5283945742
 21
144.1527471739
 31
0.0
  0
LINE
  5
1AB
330
1F
100
AcDbEntity
  8
0
  6
Continuous
 62
     7
370
    15
100
AcDbLine
 10
150.6574485841
 20
176.9818003151
 30
0.0
 11
150.6574485841
 21
177.2818024132
 31
0.0
  0
LINE
  5
1AC
330
1F
100
AcDbEntity
  8
0
  6
Continuous
 62
     7
370
    15
100
AcDbLine
 10
150.6365020218
 20
177.0027483675
 30
0.0
 11
150.6574485841
 21
176.9818003151
 31
0.0
  0
LINE
  5
1AD
330
1F
100
AcDbEntity
  8
0
  6
Continuous
 62
     7
370
    15
100
AcDbLine
 10
150.6365020218
 20
177.0027483675
 30
0.0
 11
150.6365020218
 21
177.2608543608
 31
0.0
  0
LWPOLYLINE
  5
1AE
330
1F
100
AcDbEntity
  8
0
  6
Continuous
 62
     7
370
    15
100
AcDbPolyline
 90
        3
 70
   128
 43
0.0
 10
169.646134639
 20
115.2818019363
 10
169.6359869482
 20
115.2700598213
 10
169.6279596927
 20
115.2608538839
  0
ARC
  5
1AF
330
1F
100
AcDbEntity
  8
0
  6
Continuous
 62
     7
370
    15
100
AcDbCircle
 10
168.6574484053
 20
115.1318011257
 30
0.0
 40
0.9790539220854703
100
AcDbArc
 50
7.5744826607
 51
172.4255173393
  0
LWPOLYLINE
  5
1B0
330
1F
100
AcDbEntity
  8
0
  6
Continuous
 62
     7
370
    15
100
AcDbPolyline
 90
        3
 70
   128
 43
0.0
 10
167.6687624695
 20
115.2818019363
 10
167.6789094152
 20
115.2700598213
 10
167.6869374158
 20
115.2608538839
  0
ARC
  5
1B1
330
1F
100
AcDbEntity
  8
0
  6
Continuous
 62
     7
370
    15
100
AcDbCircle
 10
168.6574484053
 20
115.1318011257
 30
0.0
 40
0.9999999999997755
100
AcDbArc
 50
8.6269265587
 51
171.3730734413
  0
LINE
  5
1B2
330
1F
100
AcDbEntity
  8
0
  6
Continuous
 62
     7
370
    15
100
AcDbLine
 10
170.657448137
 20
115.2818019363
 30
0.0
 11
169.646134639
 21
115.2818019363
 31
0.0
  0
LINE
  5
1B3
330
1F
100
AcDbEntity
  8
0
  6
Continuous
 62
     7
370
    15
100
AcDbLine
 10
170.6365023198
 20
115.2608538839
 30
0.0
 11
170.657448137
 21
115.2818019363
 31
0.0
  0
LINE
  5
1B4
330
1F
100
AcDbEntity
  8
0
  6
Continuous
 62
     7
370
    15
100
AcDbLine
 10
170.6365023198
 20
115.2608538839
 30
0.0
 11
169.6279596927
 21
115.2608538839
 31
0.0
  0
LINE
  5
1B5
330
1F
100
AcDbEntity
  8
0
  6
Continuous
 62
     7
370
    15
100
AcDbLine
 10
167.6687624695
 20
115.2818019363
 30
0.0
 11
166.6574482264
 21
115.2818019363
 31
0.0
  0
LINE
  5
1B6
330
1F
100
AcDbEntity
  8
0
  6
Continuous
 62
     7
370
    15
100
AcDbLine
 10
167.6869374158
 20
115.2608538839
 30
0.0
 11
166.6783947887
 21
115.2608538839
 31
0.0
  0
LINE
  5
1B7
330
1F
100
AcDbEntity
  8
0
  6
Continuous
 62
     7
370
    15
100
AcDbLine
 10
166.6783947887
 20
115.2608538839
 30
0.0
 11
166.6574482264
 21
115.2818019363
 31
0.0
  0
LINE
  5
1B8
330
1F
100
AcDbEntity
  8
0
  6
Continuous
 62
     7
370
    15
100
AcDbLine
 10
170.657448137
 20
114.9817998382
 30
0.0
 11
170.657448137
 21
115.2818019363
 31
0.0
  0
LINE
  5
1B9
330
1F
100
AcDbEntity
  8
0
  6
Continuous
 62
     7
370
    15
100
AcDbLine
 10
170.6365023198
 20
115.0027478906
 30
0.0
 11
170.657448137
 21
114.9817998382
 31
0.0
  0
LINE
  5
1BA
330
1F
100
AcDbEntity
  8
0
  6
Continuous
 62
     7
370
    15
100
AcDbLine
 10
170.6365023198
 20
115.0027478906
 30
0.0
 11
170.6365023198
 21
115.2608538839
 31
0.0
  0
LINE
  5
1BB
330
1F
100
AcDbEntity
  8
0
  6
Continuous
 62
     7
370
    15
100
AcDbLine
 10
166.6574482264
 20
114.9817998382
 30
0.0
 11
167.6687624695
 21
114.9817998382
 31
0.0
  0
LINE
  5
1BC
330
1F
100
AcDbEntity
  8
0
  6
Continuous
 62
     7
370
    15
100
AcDbLine
 10
166.6783947887
 20
115.0027478906
 30
0.0
 11
166.6574482264
 21
114.9817998382
 31
0.0
  0
LINE
  5
1BD
330
1F
100
AcDbEntity
  8
0
  6
Continuous
 62
     7
370
    15
100
AcDbLine
 10
166.6783947887
 20
115.0027478906
 30
0.0
 11
167.6869374158
 21
115.0027478906
 31
0.0
  0
LWPOLYLINE
  5
1BE
330
1F
100
AcDbEntity
  8
0
  6
Continuous
 62
     7
370
    15
100
AcDbPolyline
 90
        3
 70
   128
 43
0.0
 10
167.6687624695
 20
114.9817998382
 10
167.6789094152
 20
114.9935419533
 10
167.6869374158
 20
115.0027478906
  0
LINE
  5
1BF
330
1F
100
AcDbEntity
  8
0
  6
Continuous
 62
     7
370
    15
100
AcDbLine
 10
169.646134639
 20
114.9817998382
 30
0.0
 11
170.657448137
 21
114.9817998382
 31
0.0
  0
LWPOLYLINE
  5
1C0
330
1F
100
AcDbEntity
  8
0
  6
Continuous
 62
     7
370
    15
100
AcDbPolyline
 90
        3
 70
   128
 43
0.0
 10
169.646134639
 20
114.9817998382
 10
169.6359869482
 20
114.9935419533
 10
169.6279596927
 20
115.0027478906
  0
LINE
  5
1C1
330
1F
100
AcDbEntity
  8
0
  6
Continuous
 62
     7
370
    15
100
AcDbLine
 10
169.6279596927
 20
115.0027478906
 30
0.0
 11
170.6365023198
 21
115.0027478906
 31
0.0
  0
LINE
  5
1C2
330
1F
100
AcDbEntity
  8
0
  6
Continuous
 62
     7
370
    15
100
AcDbLine
 10
166.6574482264
 20
115.2818019363
 30
0.0
 11
166.6574482264
 21
114.9817998382
 31
0.0
  0
LINE
  5
1C3
330
1F
100
AcDbEntity
  8
0
  6
Continuous
 62
     7
370
    15
100
AcDbLine
 10
166.6783947887
 20
115.2608538839
 30
0.0
 11
166.6783947887
 21
115.0027478906
 31
0.0
  0
ARC
  5
1C4
330
1F
100
AcDbEntity
  8
0
  6
Continuous
 62
     7
370
    15
100
AcDbCircle
 10
168.6574484053
 20
115.1318011257
 30
0.0
 40
0.9790539220854684
100
AcDbArc
 50
187.5744826607
 51
352.4255173393
  0
ARC
  5
1C5
330
1F
100
AcDbEntity
  8
0
  6
Continuous
 62
     7
370
    15
100
AcDbCircle
 10
168.6574484053
 20
115.1318011257
 30
0.0
 40
0.9999999999997734
100
AcDbArc
 50
188.6269265587
 51
351.3730734413
  0
ARC
  5
1C6
330
1F
100
AcDbEntity
  8
0
  6
Continuous
 62
     7
370
    15
100
AcDbCircle
 10
179.6574484053
 20
136.1318011257
 30
0.0
 40
0.979053922085474
100
AcDbArc
 50
277.5744826607
 51
82.4255173393
  0
LWPOLYLINE
  5
1C7
330
1F
100
AcDbEntity
  8
0
  6
Continuous
 62
     7
370
    15
100
AcDbPolyline
 90
        3
 70
   128
 43
0.0
 10
179.8074487986
 20
137.1204870614
 10
179.7957066836
 20
137.1103401157
 10
179.7865022364
 20
137.1023121151
  0
ARC
  5
1C8
330
1F
100
AcDbEntity
  8
0
  6
Continuous
 62
     7
370
    15
100
AcDbCircle
 10
179.6574484053
 20
136.1318011257
 30
0.0
 40
0.9999999999997516
100
AcDbArc
 50
278.6269265587
 51
81.3730734413
  0
LWPOLYLINE
  5
1C9
330
1F
100
AcDbEntity
  8
0
  6
Continuous
 62
     7
370
    15
100
AcDbPolyline
 90
        3
 70
   128
 43
0.0
 10
179.8074487986
 20
135.1431148919
 10
179.7957066836
 20
135.1532625827
 10
179.7865022364
 20
135.1612898383
  0
ARC
  5
1CA
330
1F
100
AcDbEntity
  8
0
  6
Continuous
 62
     7
370
    15
100
AcDbCircle
 10
179.6574484053
 20
136.1318011257
 30
0.0
 40
0.9999999999997432
100
AcDbArc
 50
98.6269265587
 51
261.3730734413
  0
LWPOLYLINE
  5
1CB
330
1F
100
AcDbEntity
  8
0
  6
Continuous
 62
     7
370
    15
100
AcDbPolyline
 90
        3
 70
   128
 43
0.0
 10
179.5074481907
 20
137.1204870614
 10
179.5191903057
 20
137.1103401157
 10
179.528394753
 20
137.1023121151
  0
ARC
  5
1CC
330
1F
100
AcDbEntity
  8
0
  6
Continuous
 62
     7
370
    15
100
AcDbCircle
 10
179.6574484053
 20
136.1318011257
 30
0.0
 40
0.9790539220854666
100
AcDbArc
 50
97.5744826607
 51
262.4255173393
  0
LWPOLYLINE
  5
1CD
330
1F
100
AcDbEntity
  8
0
  6
Continuous
 62
     7
370
    15
100
AcDbPolyline
 90
        3
 70
   128
 43
0.0
 10
179.5074481907
 20
135.1431148919
 10
179.5191903057
 20
135.1532625827
 10
179.528394753
 20
135.1612898383
  0
LINE
  5
1CE
330
1F
100
AcDbEntity
  8
0
  6
Continuous
 62
     7
370
    15
100
AcDbLine
 10
179.8074487986
 20
134.1318013939
 30
0.0
 11
179.8074487986
 21
135.1431148919
 31
0.0
  0
LINE
  5
1CF
330
1F
100
AcDbEntity
  8
0
  6
Continuous
 62
     7
370
    15
100
AcDbLine
 10
179.7865022364
 20
134.1527472112
 30
0.0
 11
179.8074487986
 21
134.1318013939
 31
0.0
  0
LINE
  5
1D0
330
1F
100
AcDbEntity
  8
0
  6
Continuous
 62
     7
370
    15
100
AcDbLine
 10
179.7865022364
 20
134.1527472112
 30
0.0
 11
179.7865022364
 21
135.1612898383
 31
0.0
  0
LINE
  5
1D1
330
1F
100
AcDbEntity
  8
0
  6
Continuous
 62
     7
370
    15
100
AcDbLine
 10
179.8074487986
 20
137.1204870614
 30
0.0
 11
179.8074487986
 21
138.1318013045
 31
0.0
  0
LINE
  5
1D2
330
1F
100
AcDbEntity
  8
0
  6
Continuous
 62
     7
370
    15
100
AcDbLine
 10
179.7865022364
 20
137.1023121151
 30
0.0
 11
179.7865022364
 21
138.1108547422
 31
0.0
  0
LINE
  5
1D3
330
1F
100
AcDbEntity
  8
0
  6
Continuous
 62
     7
370
    15
100
AcDbLine
 10
179.7865022364
 20
138.1108547422
 30
0.0
 11
179.8074487986
 21
138.1318013045
 31
0.0
  0
LINE
  5
1D4
330
1F
100
AcDbEntity
  8
0
  6
Continuous
 62
     7
370
    15
100
AcDbLine
 10
179.5074481907
 20
134.1318013939
 30
0.0
 11
179.8074487986
 21
134.1318013939
 31
0.0
  0
LINE
  5
1D5
330
1F
100
AcDbEntity
  8
0
  6
Continuous
 62
     7
370
    15
100
AcDbLine
 10
179.528394753
 20
134.1527472112
 30
0.0
 11
179.5074481907
 21
134.1318013939
 31
0.0
  0
LINE
  5
1D6
330
1F
100
AcDbEntity
  8
0
  6
Continuous
 62
     7
370
    15
100
AcDbLine
 10
179.528394753
 20
134.1527472112
 30
0.0
 11
179.7865022364
 21
134.1527472112
 31
0.0
  0
LINE
  5
1D7
330
1F
100
AcDbEntity
  8
0
  6
Continuous
 62
     7
370
    15
100
AcDbLine
 10
179.5074481907
 20
138.1318013045
 30
0.0
 11
179.5074481907
 21
137.1204870614
 31
0.0
  0
LINE
  5
1D8
330
1F
100
AcDbEntity
  8
0
  6
Continuous
 62
     7
370
    15
100
AcDbLine
 10
179.528394753
 20
138.1108547422
 30
0.0
 11
179.5074481907
 21
138.1318013045
 31
0.0
  0
LINE
  5
1D9
330
1F
100
AcDbEntity
  8
0
  6
Continuous
 62
     7
370
    15
100
AcDbLine
 10
179.528394753
 20
138.1108547422
 30
0.0
 11
179.528394753
 21
137.1023121151
 31
0.0
  0
LINE
  5
1DA
330
1F
100
AcDbEntity
  8
0
  6
Continuous
 62
     7
370
    15
100
AcDbLine
 10
179.5074481907
 20
135.1431148919
 30
0.0
 11
179.5074481907
 21
134.1318013939
 31
0.0
  0
LINE
  5
1DB
330
1F
100
AcDbEntity
  8
0
  6
Continuous
 62
     7
370
    15
100
AcDbLine
 10
179.528394753
 20
135.1612898383
 30
0.0
 11
179.528394753
 21
134.1527472112
 31
0.0
  0
LINE
  5
1DC
330
1F
100
AcDbEntity
  8
0
  6
Continuous
 62
     7
370
    15
100
AcDbLine
 10
179.8074487986
 20
138.1318013045
 30
0.0
 11
179.5074481907
 21
138.1318013045
 31
0.0
  0
LINE
  5
1DD
330
1F
100
AcDbEntity
  8
0
  6
Continuous
 62
     7
370
    15
100
AcDbLine
 10
179.7865022364
 20
138.1108547422
 30
0.0
 11
179.528394753
 21
138.1108547422
 31
0.0
  0
ARC
  5
1DE
330
1F
100
AcDbEntity
  8
0
  6
Continuous
 62
     7
370
    15
100
AcDbCircle
 10
179.6574484053
 20
126.1318011257
 30
0.0
 40
0.979053922085474
100
AcDbArc
 50
277.5744826607
 51
82.4255173393
  0
LWPOLYLINE
  5
1DF
330
1F
100
AcDbEntity
  8
0
  6
Continuous
 62
     7
370
    15
100
AcDbPolyline
 90
        3
 70
   128
 43
0.0
 10
179.8074487986
 20
127.1204869124
 10
179.7957066836
 20
127.1103407118
 10
179.7865022364
 20
127.1023119661
  0
ARC
  5
1E0
330
1F
100
AcDbEntity
  8
0
  6
Continuous
 62
     7
370
    15
100
AcDbCircle
 10
179.6574484053
 20
126.1318011257
 30
0.0
 40
0.9999999999997657
100
AcDbArc
 50
278.6269265587
 51
81.3730734413
  0
LWPOLYLINE
  5
1E1
330
1F
100
AcDbEntity
  8
0
  6
Continuous
 62
     7
370
    15
100
AcDbPolyline
 90
        3
 70
   128
 43
0.0
 10
179.8074487986
 20
125.1431147429
 10
179.7957066836
 20
125.1532624337
 10
179.7865022364
 20
125.1612896892
  0
ARC
  5
1E2
330
1F
100
AcDbEntity
  8
0
  6
Continuous
 62
     7
370
    15
100
AcDbCircle
 10
179.6574484053
 20
126.1318011257
 30
0.0
 40
0.9999999999997572
100
AcDbArc
 50
98.6269265587
 51
261.3730734413
  0
LWPOLYLINE
  5
1E3
330
1F
100
AcDbEntity
  8
0
  6
Continuous
 62
     7
370
    15
100
AcDbPolyline
 90
        3
 70
   128
 43
0.0
 10
179.5074481907
 20
127.1204869124
 10
179.5191903057
 20
127.1103407118
 10
179.528394753
 20
127.1023119661
  0
ARC
  5
1E4
330
1F
100
AcDbEntity
  8
0
  6
Continuous
 62
     7
370
    15
100
AcDbCircle
 10
179.6574484053
 20
126.1318011257
 30
0.0
 40
0.9790539220854666
100
AcDbArc
 50
97.5744826607
 51
262.4255173393
  0
LWPOLYLINE
  5
1E5
330
1F
100
AcDbEntity
  8
0
  6
Continuous
 62
     7
370
    15
100
AcDbPolyline
 90
        3
 70
   128
 43
0.0
 10
179.5074481907
 20
125.1431147429
 10
179.5191903057
 20
125.1532624337
 10
179.528394753
 20
125.1612896892
  0
LINE
  5
1E6
330
1F
100
AcDbEntity
  8
0
  6
Continuous
 62
     7
370
    15
100
AcDbLine
 10
179.8074487986
 20
124.1318012449
 30
0.0
 11
179.8074487986
 21
125.1431147429
 31
0.0
  0
LINE
  5
1E7
330
1F
100
AcDbEntity
  8
0
  6
Continuous
 62
     7
370
    15
100
AcDbLine
 10
179.7865022364
 20
124.1527478072
 30
0.0
 11
179.8074487986
 21
124.1318012449
 31
0.0
  0
LINE
  5
1E8
330
1F
100
AcDbEntity
  8
0
  6
Continuous
 62
     7
370
    15
100
AcDbLine
 10
179.7865022364
 20
124.1527478072
 30
0.0
 11
179.7865022364
 21
125.1612896892
 31
0.0
  0
LINE
  5
1E9
330
1F
100
AcDbEntity
  8
0
  6
Continuous
 62
     7
370
    15
100
AcDbLine
 10
179.8074487986
 20
127.1204869124
 30
0.0
 11
179.8074487986
 21
128.1318004104
 31
0.0
  0
LINE
  5
1EA
330
1F
100
AcDbEntity
  8
0
  6
Continuous
 62
     7
370
    15
100
AcDbLine
 10
179.7865022364
 20
127.1023119661
 30
0.0
 11
179.7865022364
 21
128.1108553383
 31
0.0
  0
LINE
  5
1EB
330
1F
100
AcDbEntity
  8
0
  6
Continuous
 62
     7
370
    15
100
AcDbLine
 10
179.7865022364
 20
128.1108553383
 30
0.0
 11
179.8074487986
 21
128.1318004104
 31
0.0
  0
LINE
  5
1EC
330
1F
100
AcDbEntity
  8
0
  6
Continuous
 62
     7
370
    15
100
AcDbLine
 10
137.8074486198
 20
158.1318008575
 30
0.0
 11
137.5074480119
 21
158.1318008575
 31
0.0
  0
LINE
  5
1ED
330
1F
100
AcDbEntity
  8
0
  6
Continuous
 62
     7
370
    15
100
AcDbLine
 10
137.7865020575
 20
158.1108550403
 30
0.0
 11
137.8074486198
 21
158.1318008575
 31
0.0
  0
LINE
  5
1EE
330
1F
100
AcDbEntity
  8
0
  6
Continuous
 62
     7
370
    15
100
AcDbLine
 10
137.7865020575
 20
158.1108550403
 30
0.0
 11
137.5283945742
 21
158.1108550403
 31
0.0
  0
LINE
  5
1EF
330
1F
100
AcDbEntity
  8
0
  6
Continuous
 62
     7
370
    15
100
AcDbLine
 10
137.8074486198
 20
154.1318009469
 30
0.0
 11
137.8074486198
 21
155.14311519
 31
0.0
  0
LINE
  5
1F0
330
1F
100
AcDbEntity
  8
0
  6
Continuous
 62
     7
370
    15
100
AcDbLine
 10
137.7865020575
 20
154.1527475092
 30
0.0
 11
137.8074486198
 21
154.1318009469
 31
0.0
  0
LINE
  5
1F1
330
1F
100
AcDbEntity
  8
0
  6
Continuous
 62
     7
370
    15
100
AcDbLine
 10
137.7865020575
 20
154.1527475092
 30
0.0
 11
137.7865020575
 21
155.1612901363
 31
0.0
  0
LINE
  5
1F2
330
1F
100
AcDbEntity
  8
0
  6
Continuous
 62
     7
370
    15
100
AcDbLine
 10
137.8074486198
 20
157.1204873595
 30
0.0
 11
137.8074486198
 21
158.1318008575
 31
0.0
  0
LINE
  5
1F3
330
1F
100
AcDbEntity
  8
0
  6
Continuous
 62
     7
370
    15
100
AcDbLine
 10
137.7865020575
 20
157.1023124132
 30
0.0
 11
137.7865020575
 21
158.1108550403
 31
0.0
  0
LINE
  5
1F4
330
1F
100
AcDbEntity
  8
0
  6
Continuous
 62
     7
370
    15
100
AcDbLine
 10
137.5074480119
 20
154.1318009469
 30
0.0
 11
137.8074486198
 21
154.1318009469
 31
0.0
  0
LINE
  5
1F5
330
1F
100
AcDbEntity
  8
0
  6
Continuous
 62
     7
370
    15
100
AcDbLine
 10
137.5283945742
 20
154.1527475092
 30
0.0
 11
137.7865020575
 21
154.1527475092
 31
0.0
  0
LWPOLYLINE
  5
1F6
330
1F
100
AcDbEntity
  8
0
  6
Continuous
 62
     7
370
    15
100
AcDbPolyline
 90
        3
 70
   128
 43
0.0
 10
147.6687621715
 20
176.9818003151
 10
147.6789098623
 20
176.9935424301
 10
147.6869371178
 20
177.0027483675
  0
ARC
  5
1F7
330
1F
100
AcDbEntity
  8
0
  6
Continuous
 62
     7
370
    15
100
AcDbCircle
 10
148.6574484053
 20
177.1318011257
 30
0.0
 40
0.9790539220854666
100
AcDbArc
 50
187.5744826607
 51
352.4255173393
  0
LWPOLYLINE
  5
1F8
330
1F
100
AcDbEntity
  8
0
  6
Continuous
 62
     7
370
    15
100
AcDbPolyline
 90
        3
 70
   128
 43
0.0
 10
149.646134341
 20
176.9818003151
 10
149.6359873953
 20
176.9935424301
 10
149.6279593947
 20
177.0027483675
  0
ARC
  5
1F9
330
1F
100
AcDbEntity
  8
0
  6
Continuous
 62
     7
370
    15
100
AcDbCircle
 10
148.6574484053
 20
177.1318011257
 30
0.0
 40
0.9999999999997755
100
AcDbArc
 50
188.6269265587
 51
351.3730734413
  0
LINE
  5
1FA
330
1F
100
AcDbEntity
  8
0
  6
Continuous
 62
     7
370
    15
100
AcDbLine
 10
146.6574486735
 20
176.9818003151
 30
0.0
 11
147.6687621715
 21
176.9818003151
 31
0.0
  0
LINE
  5
1FB
330
1F
100
AcDbEntity
  8
0
  6
Continuous
 62
     7
370
    15
100
AcDbLine
 10
146.6783944907
 20
177.0027483675
 30
0.0
 11
147.6869371178
 21
177.0027483675
 31
0.0
  0
LINE
  5
1FC
330
1F
100
AcDbEntity
  8
0
  6
Continuous
 62
     7
370
    15
100
AcDbLine
 10
149.646134341
 20
176.9818003151
 30
0.0
 11
150.6574485841
 21
176.9818003151
 31
0.0
  0
LINE
  5
1FD
330
1F
100
AcDbEntity
  8
0
  6
Continuous
 62
     7
370
    15
100
AcDbLine
 10
149.6279593947
 20
177.0027483675
 30
0.0
 11
150.6365020218
 21
177.0027483675
 31
0.0
  0
LINE
  5
1FE
330
1F
100
AcDbEntity
  8
0
  6
Continuous
 62
     7
370
    15
100
AcDbLine
 10
149.646134341
 20
115.2818019363
 30
0.0
 11
150.6574485841
 21
115.2818019363
 31
0.0
  0
LINE
  5
1FF
330
1F
100
AcDbEntity
  8
0
  6
Continuous
 62
     7
370
    15
100
AcDbLine
 10
150.6365020218
 20
115.2608538839
 30
0.0
 11
150.6574485841
 21
115.2818019363
 31
0.0
  0
LINE
  5
200
330
1F
100
AcDbEntity
  8
0
  6
Continuous
 62
     7
370
    15
100
AcDbLine
 10
149.6279593947
 20
115.2608538839
 30
0.0
 11
150.6365020218
 21
115.2608538839
 31
0.0
  0
LWPOLYLINE
  5
201
330
1F
100
AcDbEntity
  8
0
  6
Continuous
 62
     7
370
    15
100
AcDbPolyline
 90
        3
 70
   128
 43
0.0
 10
149.646134341
 20
115.2818019363
 10
149.6359873953
 20
115.2700598213
 10
149.6279593947
 20
115.2608538839
  0
LINE
  5
202
330
1F
100
AcDbEntity
  8
0
  6
Continuous
 62
     7
370
    15
100
AcDbLine
 10
146.6574486735
 20
114.9817998382
 30
0.0
 11
146.6574486735
 21
115.2818019363
 31
0.0
  0
LINE
  5
203
330
1F
100
AcDbEntity
  8
0
  6
Continuous
 62
     7
370
    15
100
AcDbLine
 10
146.6783944907
 20
115.2608538839
 30
0.0
 11
146.6574486735
 21
115.2818019363
 31
0.0
  0
LINE
  5
204
330
1F
100
AcDbEntity
  8
0
  6
Continuous
 62
     7
370
    15
100
AcDbLine
 10
146.6783944907
 20
115.0027478906
 30
0.0
 11
146.6783944907
 21
115.2608538839
 31
0.0
  0
LINE
  5
205
330
1F
100
AcDbEntity
  8
0
  6
Continuous
 62
     7
370
    15
100
AcDbLine
 10
146.6783944907
 20
115.0027478906
 30
0.0
 11
146.6574486735
 21
114.9817998382
 31
0.0
  0
LINE
  5
206
330
1F
100
AcDbEntity
  8
0
  6
Continuous
 62
     7
370
    15
100
AcDbLine
 10
150.6574485841
 20
114.9817998382
 30
0.0
 11
149.646134341
 21
114.9817998382
 31
0.0
  0
LWPOLYLINE
  5
207
330
1F
100
AcDbEntity
  8
0
  6
Continuous
 62
     7
370
    15
100
AcDbPolyline
 90
        3
 70
   128
 43
0.0
 10
149.646134341
 20
114.9817998382
 10
149.6359873953
 20
114.9935419533
 10
149.6279593947
 20
115.0027478906
  0
LINE
  5
208
330
1F
100
AcDbEntity
  8
0
  6
Continuous
 62
     7
370
    15
100
AcDbLine
 10
150.6365020218
 20
115.0027478906
 30
0.0
 11
149.6279593947
 21
115.0027478906
 31
0.0
  0
LINE
  5
209
330
1F
100
AcDbEntity
  8
0
  6
Continuous
 62
     7
370
    15
100
AcDbLine
 10
150.6365020218
 20
115.0027478906
 30
0.0
 11
150.6574485841
 21
114.9817998382
 31
0.0
  0
LINE
  5
20A
330
1F
100
AcDbEntity
  8
0
  6
Continuous
 62
     7
370
    15
100
AcDbLine
 10
147.6687621715
 20
114.9817998382
 30
0.0
 11
146.6574486735
 21
114.9817998382
 31
0.0
  0
LINE
  5
20B
330
1F
100
AcDbEntity
  8
0
  6
Continuous
 62
     7
370
    15
100
AcDbLine
 10
147.6869371178
 20
115.0027478906
 30
0.0
 11
146.6783944907
 21
115.0027478906
 31
0.0
  0
LWPOLYLINE
  5
20C
330
1F
100
AcDbEntity
  8
0
  6
Continuous
 62
     7
370
    15
100
AcDbPolyline
 90
        3
 70
   128
 43
0.0
 10
147.6687621715
 20
114.9817998382
 10
147.6789098623
 20
114.9935419533
 10
147.6869371178
 20
115.0027478906
  0
ARC
  5
20D
330
1F
100
AcDbEntity
  8
0
  6
Continuous
 62
     7
370
    15
100
AcDbCircle
 10
148.6574484053
 20
115.1318011257
 30
0.0
 40
0.9999999999997734
100
AcDbArc
 50
188.6269265587
 51
351.3730734413
  0
ARC
  5
20E
330
1F
100
AcDbEntity
  8
0
  6
Continuous
 62
     7
370
    15
100
AcDbCircle
 10
148.6574484053
 20
115.1318011257
 30
0.0
 40
0.9790539220854684
100
AcDbArc
 50
187.5744826607
 51
352.4255173393
  0
LINE
  5
20F
330
1F
100
AcDbEntity
  8
0
  6
Continuous
 62
     7
370
    15
100
AcDbLine
 10
150.6574485841
 20
115.2818019363
 30
0.0
 11
150.6574485841
 21
114.9817998382
 31
0.0
  0
LINE
  5
210
330
1F
100
AcDbEntity
  8
0
  6
Continuous
 62
     7
370
    15
100
AcDbLine
 10
150.6365020218
 20
115.2608538839
 30
0.0
 11
150.6365020218
 21
115.0027478906
 31
0.0
  0
ARC
  5
211
330
1F
100
AcDbEntity
  8
0
  6
Continuous
 62
     7
370
    15
100
AcDbCircle
 10
137.6574484053
 20
136.1318011257
 30
0.0
 40
0.9790539220854703
100
AcDbArc
 50
97.5744826607
 51
262.4255173393
  0
LWPOLYLINE
  5
212
330
1F
100
AcDbEntity
  8
0
  6
Continuous
 62
     7
370
    15
100
AcDbPolyline
 90
        3
 70
   128
 43
0.0
 10
137.5074480119
 20
135.1431148919
 10
137.5191901269
 20
135.1532625827
 10
137.5283945742
 20
135.1612898383
  0
ARC
  5
213
330
1F
100
AcDbEntity
  8
0
  6
Continuous
 62
     7
370
    15
100
AcDbCircle
 10
137.6574484053
 20
136.1318011257
 30
0.0
 40
0.9999999999997474
100
AcDbArc
 50
98.6269265587
 51
261.3730734413
  0
LWPOLYLINE
  5
214
330
1F
100
AcDbEntity
  8
0
  6
Continuous
 62
     7
370
    15
100
AcDbPolyline
 90
        3
 70
   128
 43
0.0
 10
137.5074480119
 20
137.1204870614
 10
137.5191901269
 20
137.1103401157
 10
137.5283945742
 20
137.1023121151
  0
ARC
  5
215
330
1F
100
AcDbEntity
  8
0
  6
Continuous
 62
     7
370
    15
100
AcDbCircle
 10
137.6574484053
 20
136.1318011257
 30
0.0
 40
0.9999999999997432
100
AcDbArc
 50
278.6269265587
 51
81.3730734413
  0
LWPOLYLINE
  5
216
330
1F
100
AcDbEntity
  8
0
  6
Continuous
 62
     7
370
    15
100
AcDbPolyline
 90
        3
 70
   128
 43
0.0
 10
137.8074486198
 20
135.1431148919
 10
137.7957065048
 20
135.1532625827
 10
137.7865020575
 20
135.1612898383
  0
ARC
  5
217
330
1F
100
AcDbEntity
  8
0
  6
Continuous
 62
     7
370
    15
100
AcDbCircle
 10
137.6574484053
 20
136.1318011257
 30
0.0
 40
0.9790539220854666
100
AcDbArc
 50
277.5744826607
 51
82.4255173393
  0
LWPOLYLINE
  5
218
330
1F
100
AcDbEntity
  8
0
  6
Continuous
 62
     7
370
    15
100
AcDbPolyline
 90
        3
 70
   128
 43
0.0
 10
137.8074486198
 20
137.1204870614
 10
137.7957065048
 20
137.1103401157
 10
137.7865020575
 20
137.1023121151
  0
LINE
  5
219
330
1F
100
AcDbEntity
  8
0
  6
Continuous
 62
     7
370
    15
100
AcDbLine
 10
137.5074480119
 20
134.1318013939
 30
0.0
 11
137.5074480119
 21
135.1431148919
 31
0.0
  0
LINE
  5
21A
330
1F
100
AcDbEntity
  8
0
  6
Continuous
 62
     7
370
    15
100
AcDbLine
 10
137.5283945742
 20
134.1527472112
 30
0.0
 11
137.5283945742
 21
135.1612898383
 31
0.0
  0
LINE
  5
21B
330
1F
100
AcDbEntity
  8
0
  6
Continuous
 62
     7
370
    15
100
AcDbLine
 10
137.5283945742
 20
134.1527472112
 30
0.0
 11
137.5074480119
 21
134.1318013939
 31
0.0
  0
LINE
  5
21C
330
1F
100
AcDbEntity
  8
0
  6
Continuous
 62
     7
370
    15
100
AcDbLine
 10
137.5074480119
 20
137.1204870614
 30
0.0
 11
137.5074480119
 21
138.1318013045
 31
0.0
  0
LINE
  5
21D
330
1F
100
AcDbEntity
  8
0
  6
Continuous
 62
     7
370
    15
100
AcDbLine
 10
137.5283945742
 20
138.1108547422
 30
0.0
 11
137.5074480119
 21
138.1318013045
 31
0.0
  0
LINE
  5
21E
330
1F
100
AcDbEntity
  8
0
  6
Continuous
 62
     7
370
    15
100
AcDbLine
 10
137.5283945742
 20
137.1023121151
 30
0.0
 11
137.5283945742
 21
138.1108547422
 31
0.0
  0
LINE
  5
21F
330
1F
100
AcDbEntity
  8
0
  6
Continuous
 62
     7
370
    15
100
AcDbLine
 10
137.8074486198
 20
134.1318013939
 30
0.0
 11
137.5074480119
 21
134.1318013939
 31
0.0
  0
LINE
  5
220
330
1F
100
AcDbEntity
  8
0
  6
Continuous
 62
     7
370
    15
100
AcDbLine
 10
137.7865020575
 20
134.1527472112
 30
0.0
 11
137.5283945742
 21
134.1527472112
 31
0.0
  0
LINE
  5
221
330
1F
100
AcDbEntity
  8
0
  6
Continuous
 62
     7
370
    15
100
AcDbLine
 10
137.7865020575
 20
134.1527472112
 30
0.0
 11
137.8074486198
 21
134.1318013939
 31
0.0
  0
LINE
  5
222
330
1F
100
AcDbEntity
  8
0
  6
Continuous
 62
     7
370
    15
100
AcDbLine
 10
137.8074486198
 20
138.1318013045
 30
0.0
 11
137.8074486198
 21
137.1204870614
 31
0.0
  0
LINE
  5
223
330
1F
100
AcDbEntity
  8
0
  6
Continuous
 62
     7
370
    15
100
AcDbLine
 10
137.7865020575
 20
138.1108547422
 30
0.0
 11
137.7865020575
 21
137.1023121151
 31
0.0
  0
LINE
  5
224
330
1F
100
AcDbEntity
  8
0
  6
Continuous
 62
     7
370
    15
100
AcDbLine
 10
137.7865020575
 20
138.1108547422
 30
0.0
 11
137.8074486198
 21
138.1318013045
 31
0.0
  0
LINE
  5
225
330
1F
100
AcDbEntity
  8
0
  6
Continuous
 62
     7
370
    15
100
AcDbLine
 10
137.8074486198
 20
135.1431148919
 30
0.0
 11
137.8074486198
 21
134.1318013939
 31
0.0
  0
LINE
  5
226
330
1F
100
AcDbEntity
  8
0
  6
Continuous
 62
     7
370
    15
100
AcDbLine
 10
137.7865020575
 20
135.1612898383
 30
0.0
 11
137.7865020575
 21
134.1527472112
 31
0.0
  0
LINE
  5
227
330
1F
100
AcDbEntity
  8
0
  6
Continuous
 62
     7
370
    15
100
AcDbLine
 10
137.5074480119
 20
138.1318013045
 30
0.0
 11
137.8074486198
 21
138.1318013045
 31
0.0
  0
LINE
  5
228
330
1F
100
AcDbEntity
  8
0
  6
Continuous
 62
     7
370
    15
100
AcDbLine
 10
137.5283945742
 20
138.1108547422
 30
0.0
 11
137.7865020575
 21
138.1108547422
 31
0.0
  0
ARC
  5
229
330
1F
100
AcDbEntity
  8
0
  6
Continuous
 62
     7
370
    15
100
AcDbCircle
 10
137.6574484053
 20
126.1318011257
 30
0.0
 40
0.9790539220854703
100
AcDbArc
 50
97.5744826607
 51
262.4255173393
  0
LWPOLYLINE
  5
22A
330
1F
100
AcDbEntity
  8
0
  6
Continuous
 62
     7
370
    15
100
AcDbPolyline
 90
        3
 70
   128
 43
0.0
 10
137.5074480119
 20
125.1431147429
 10
137.5191901269
 20
125.1532624337
 10
137.5283945742
 20
125.1612896892
  0
ARC
  5
22B
330
1F
100
AcDbEntity
  8
0
  6
Continuous
 62
     7
370
    15
100
AcDbCircle
 10
137.6574484053
 20
126.1318011257
 30
0.0
 40
0.9999999999997615
100
AcDbArc
 50
98.6269265587
 51
261.3730734413
  0
LWPOLYLINE
  5
22C
330
1F
100
AcDbEntity
  8
0
  6
Continuous
 62
     7
370
    15
100
AcDbPolyline
 90
        3
 70
   128
 43
0.0
 10
137.5074480119
 20
127.1204869124
 10
137.5191901269
 20
127.1103407118
 10
137.5283945742
 20
127.1023119661
  0
ARC
  5
22D
330
1F
100
AcDbEntity
  8
0
  6
Continuous
 62
     7
370
    15
100
AcDbCircle
 10
137.6574484053
 20
126.1318011257
 30
0.0
 40
0.9999999999997572
100
AcDbArc
 50
278.6269265587
 51
81.3730734413
  0
LWPOLYLINE
  5
22E
330
1F
100
AcDbEntity
  8
0
  6
Continuous
 62
     7
370
    15
100
AcDbPolyline
 90
        3
 70
   128
 43
0.0
 10
137.8074486198
 20
125.1431147429
 10
137.7957065048
 20
125.1532624337
 10
137.7865020575
 20
125.1612896892
  0
ARC
  5
22F
330
1F
100
AcDbEntity
  8
0
  6
Continuous
 62
     7
370
    15
100
AcDbCircle
 10
137.6574484053
 20
126.1318011257
 30
0.0
 40
0.9790539220854666
100
AcDbArc
 50
277.5744826607
 51
82.4255173393
  0
LWPOLYLINE
  5
230
330
1F
100
AcDbEntity
  8
0
  6
Continuous
 62
     7
370
    15
100
AcDbPolyline
 90
        3
 70
   128
 43
0.0
 10
137.8074486198
 20
127.1204869124
 10
137.7957065048
 20
127.1103407118
 10
137.7865020575
 20
127.1023119661
  0
LINE
  5
231
330
1F
100
AcDbEntity
  8
0
  6
Continuous
 62
     7
370
    15
100
AcDbLine
 10
137.5074480119
 20
124.1318012449
 30
0.0
 11
137.5074480119
 21
125.1431147429
 31
0.0
  0
LINE
  5
232
330
1F
100
AcDbEntity
  8
0
  6
Continuous
 62
     7
370
    15
100
AcDbLine
 10
137.5283945742
 20
124.1527478072
 30
0.0
 11
137.5283945742
 21
125.1612896892
 31
0.0
  0
LINE
  5
233
330
1F
100
AcDbEntity
  8
0
  6
Continuous
 62
     7
370
    15
100
AcDbLine
 10
137.5283945742
 20
124.1527478072
 30
0.0
 11
137.5074480119
 21
124.1318012449
 31
0.0
  0
LINE
  5
234
330
1F
100
AcDbEntity
  8
0
  6
Continuous
 62
     7
370
    15
100
AcDbLine
 10
137.5074480119
 20
127.1204869124
 30
0.0
 11
137.5074480119
 21
128.1318004104
 31
0.0
  0
LINE
  5
235
330
1F
100
AcDbEntity
  8
0
  6
Continuous
 62
     7
370
    15
100
AcDbLine
 10
137.5283945742
 20
128.1108553383
 30
0.0
 11
137.5074480119
 21
128.1318004104
 31
0.0
  0
LINE
  5
236
330
1F
100
AcDbEntity
  8
0
  6
Continuous
 62
     7
370
    15
100
AcDbLine
 10
137.5283945742
 20
127.1023119661
 30
0.0
 11
137.5283945742
 21
128.1108553383
 31
0.0
  0
LINE
  5
237
330
1F
100
AcDbEntity
  8
0
  6
Continuous
 62
     7
370
    15
100
AcDbLine
 10
137.8074486198
 20
124.1318012449
 30
0.0
 11
137.5074480119
 21
124.1318012449
 31
0.0
  0
LINE
  5
238
330
1F
100
AcDbEntity
  8
0
  6
Continuous
 62
     7
370
    15
100
AcDbLine
 10
137.7865020575
 20
124.1527478072
 30
0.0
 11
137.5283945742
 21
124.1527478072
 31
0.0
  0
LINE
  5
239
330
1F
100
AcDbEntity
  8
0
  6
Continuous
 62
     7
370
    15
100
AcDbLine
 10
137.7865020575
 20
124.1527478072
 30
0.0
 11
137.8074486198
 21
124.1318012449
 31
0.0
  0
LINE
  5
23A
330
1F
100
AcDbEntity
  8
0
  6
Continuous
 62
     7
370
    15
100
AcDbLine
 10
137.8074486198
 20
128.1318004104
 30
0.0
 11
137.8074486198
 21
127.1204869124
 31
0.0
  0
LINE
  5
23B
330
1F
100
AcDbEntity
  8
0
  6
Continuous
 62
     7
370
    15
100
AcDbLine
 10
137.7865020575
 20
128.1108553383
 30
0.0
 11
137.7865020575
 21
127.1023119661
 31
0.0
  0
LINE
  5
23C
330
1F
100
AcDbEntity
  8
0
  6
Continuous
 62
     7
370
    15
100
AcDbLine
 10
137.7865020575
 20
128.1108553383
 30
0.0
 11
137.8074486198
 21
128.1318004104
 31
0.0
  0
LINE
  5
23D
330
1F
100
AcDbEntity
  8
0
  6
Continuous
 62
     7
370
    15
100
AcDbLine
 10
137.8074486198
 20
125.1431147429
 30
0.0
 11
137.8074486198
 21
124.1318012449
 31
0.0
  0
LINE
  5
23E
330
1F
100
AcDbEntity
  8
0
  6
Continuous
 62
     7
370
    15
100
AcDbLine
 10
137.7865020575
 20
125.1612896892
 30
0.0
 11
137.7865020575
 21
124.1527478072
 31
0.0
  0
LINE
  5
23F
330
1F
100
AcDbEntity
  8
0
  6
Continuous
 62
     7
370
    15
100
AcDbLine
 10
137.5074480119
 20
128.1318004104
 30
0.0
 11
137.8074486198
 21
128.1318004104
 31
0.0
  0
LINE
  5
240
330
1F
100
AcDbEntity
  8
0
  6
Continuous
 62
     7
370
    15
100
AcDbLine
 10
137.5283945742
 20
128.1108553383
 30
0.0
 11
137.7865020575
 21
128.1108553383
 31
0.0
  0
CIRCLE
  5
241
330
1F
100
AcDbEntity
  8
0
  6
Continuous
 62
     7
370
    15
100
AcDbCircle
 10
140.8574484053
 20
118.6318011257
 30
0.0
 40
1.200000000000017
  0
CIRCLE
  5
242
330
1F
100
AcDbEntity
  8
0
  6
Continuous
 62
     7
370
    15
100
AcDbCircle
 10
140.8574484053
 20
118.6318011257
 30
0.0
 40
1.179053922086212
  0
LWPOLYLINE
  5
243
330
1F
100
AcDbEntity
  8
0
  6
Continuous
 62
     7
370
    15
100
AcDbPolyline
 90
        3
 70
   128
 43
0.0
 10
169.646134639
 20
176.9818003151
 10
169.6359869482
 20
176.9935424301
 10
169.6279596927
 20
177.0027483675
  0
ARC
  5
244
330
1F
100
AcDbEntity
  8
0
  6
Continuous
 62
     7
370
    15
100
AcDbCircle
 10
168.6574484053
 20
177.1318011257
 30
0.0
 40
0.9999999999997755
100
AcDbArc
 50
188.6269265587
 51
351.3730734413
  0
LWPOLYLINE
  5
245
330
1F
100
AcDbEntity
  8
0
  6
Continuous
 62
     7
370
    15
100
AcDbPolyline
 90
        3
 70
   128
 43
0.0
 10
167.6687624695
 20
176.9818003151
 10
167.6789094152
 20
176.9935424301
 10
167.6869374158
 20
177.0027483675
  0
ARC
  5
246
330
1F
100
AcDbEntity
  8
0
  6
Continuous
 62
     7
370
    15
100
AcDbCircle
 10
168.6574484053
 20
177.1318011257
 30
0.0
 40
0.9790539220854666
100
AcDbArc
 50
187.5744826607
 51
352.4255173393
  0
LINE
  5
247
330
1F
100
AcDbEntity
  8
0
  6
Continuous
 62
     7
370
    15
100
AcDbLine
 10
170.657448137
 20
176.9818003151
 30
0.0
 11
169.646134639
 21
176.9818003151
 31
0.0
  0
LINE
  5
248
330
1F
100
AcDbEntity
  8
0
  6
Continuous
 62
     7
370
    15
100
AcDbLine
 10
170.6365023198
 20
177.0027483675
 30
0.0
 11
169.6279596927
 21
177.0027483675
 31
0.0
  0
LINE
  5
249
330
1F
100
AcDbEntity
  8
0
  6
Continuous
 62
     7
370
    15
100
AcDbLine
 10
170.6365023198
 20
177.0027483675
 30
0.0
 11
170.657448137
 21
176.9818003151
 31
0.0
  0
LINE
  5
24A
330
1F
100
AcDbEntity
  8
0
  6
Continuous
 62
     7
370
    15
100
AcDbLine
 10
167.6687624695
 20
176.9818003151
 30
0.0
 11
166.6574482264
 21
176.9818003151
 31
0.0
  0
LINE
  5
24B
330
1F
100
AcDbEntity
  8
0
  6
Continuous
 62
     7
370
    15
100
AcDbLine
 10
167.6869374158
 20
177.0027483675
 30
0.0
 11
166.6783947887
 21
177.0027483675
 31
0.0
  0
LINE
  5
24C
330
1F
100
AcDbEntity
  8
0
  6
Continuous
 62
     7
370
    15
100
AcDbLine
 10
170.657448137
 20
177.2818024132
 30
0.0
 11
170.657448137
 21
176.9818003151
 31
0.0
  0
LINE
  5
24D
330
1F
100
AcDbEntity
  8
0
  6
Continuous
 62
     7
370
    15
100
AcDbLine
 10
170.6365023198
 20
177.2608543608
 30
0.0
 11
170.6365023198
 21
177.0027483675
 31
0.0
  0
LINE
  5
24E
330
1F
100
AcDbEntity
  8
0
  6
Continuous
 62
     7
370
    15
100
AcDbLine
 10
170.6365023198
 20
177.2608543608
 30
0.0
 11
170.657448137
 21
177.2818024132
 31
0.0
  0
LINE
  5
24F
330
1F
100
AcDbEntity
  8
0
  6
Continuous
 62
     7
370
    15
100
AcDbLine
 10
166.6574482264
 20
177.2818024132
 30
0.0
 11
167.6687624695
 21
177.2818024132
 31
0.0
  0
LWPOLYLINE
  5
250
330
1F
100
AcDbEntity
  8
0
  6
Continuous
 62
     7
370
    15
100
AcDbPolyline
 90
        3
 70
   128
 43
0.0
 10
167.6687624695
 20
177.2818024132
 10
167.6789094152
 20
177.2700602981
 10
167.6869374158
 20
177.2608543608
  0
LINE
  5
251
330
1F
100
AcDbEntity
  8
0
  6
Continuous
 62
     7
370
    15
100
AcDbLine
 10
166.6783947887
 20
177.2608543608
 30
0.0
 11
167.6869374158
 21
177.2608543608
 31
0.0
  0
LINE
  5
252
330
1F
100
AcDbEntity
  8
0
  6
Continuous
 62
     7
370
    15
100
AcDbLine
 10
169.646134639
 20
177.2818024132
 30
0.0
 11
170.657448137
 21
177.2818024132
 31
0.0
  0
LINE
  5
253
330
1F
100
AcDbEntity
  8
0
  6
Continuous
 62
     7
370
    15
100
AcDbLine
 10
169.6279596927
 20
177.2608543608
 30
0.0
 11
170.6365023198
 21
177.2608543608
 31
0.0
  0
LWPOLYLINE
  5
254
330
1F
100
AcDbEntity
  8
0
  6
Continuous
 62
     7
370
    15
100
AcDbPolyline
 90
        3
 70
   128
 43
0.0
 10
169.646134639
 20
177.2818024132
 10
169.6359869482
 20
177.2700602981
 10
169.6279596927
 20
177.2608543608
  0
ARC
  5
255
330
1F
100
AcDbEntity
  8
0
  6
Continuous
 62
     7
370
    15
100
AcDbCircle
 10
168.6574484053
 20
177.1318011257
 30
0.0
 40
0.9999999999997755
100
AcDbArc
 50
8.6269265587
 51
171.3730734413
  0
ARC
  5
256
330
1F
100
AcDbEntity
  8
0
  6
Continuous
 62
     7
370
    15
100
AcDbCircle
 10
168.6574484053
 20
177.1318011257
 30
0.0
 40
0.9790539220854703
100
AcDbArc
 50
7.5744826607
 51
172.4255173393
  0
ARC
  5
257
330
1F
100
AcDbEntity
  8
0
  6
Continuous
 62
     7
370
    15
100
AcDbCircle
 10
179.6574484053
 20
156.1318011257
 30
0.0
 40
0.9790539220854458
100
AcDbArc
 50
277.5744826607
 51
82.4255173393
  0
LWPOLYLINE
  5
258
330
1F
100
AcDbEntity
  8
0
  6
Continuous
 62
     7
370
    15
100
AcDbPolyline
 90
        3
 70
   128
 43
0.0
 10
179.8074487986
 20
157.1204873595
 10
179.7957066836
 20
157.1103396687
 10
179.7865022364
 20
157.1023124132
  0
ARC
  5
259
330
1F
100
AcDbEntity
  8
0
  6
Continuous
 62
     7
370
    15
100
AcDbCircle
 10
179.6574484053
 20
156.1318011257
 30
0.0
 40
0.9999999999997516
100
AcDbArc
 50
278.6269265587
 51
81.3730734413
  0
LWPOLYLINE
  5
25A
330
1F
100
AcDbEntity
  8
0
  6
Continuous
 62
     7
370
    15
100
AcDbPolyline
 90
        3
 70
   128
 43
0.0
 10
179.8074487986
 20
155.14311519
 10
179.7957066836
 20
155.1532621357
 10
179.7865022364
 20
155.1612901363
  0
ARC
  5
25B
330
1F
100
AcDbEntity
  8
0
  6
Continuous
 62
     7
370
    15
100
AcDbCircle
 10
179.6574484053
 20
156.1318011257
 30
0.0
 40
0.9999999999997432
100
AcDbArc
 50
98.6269265587
 51
261.3730734413
  0
LWPOLYLINE
  5
25C
330
1F
100
AcDbEntity
  8
0
  6
Continuous
 62
     7
370
    15
100
AcDbPolyline
 90
        3
 70
   128
 43
0.0
 10
179.5074481907
 20
157.1204873595
 10
179.5191903057
 20
157.1103396687
 10
179.528394753
 20
157.1023124132
  0
ARC
  5
25D
330
1F
100
AcDbEntity
  8
0
  6
Continuous
 62
     7
370
    15
100
AcDbCircle
 10
179.6574484053
 20
156.1318011257
 30
0.0
 40
0.9790539220854384
100
AcDbArc
 50
97.5744826607
 51
262.4255173393
  0
LWPOLYLINE
  5
25E
330
1F
100
AcDbEntity
  8
0
  6
Continuous
 62
     7
370
    15
100
AcDbPolyline
 90
        3
 70
   128
 43
0.0
 10
179.5074481907
 20
155.14311519
 10
179.5191903057
 20
155.1532621357
 10
179.528394753
 20
155.1612901363
  0
LINE
  5
25F
330
1F
100
AcDbEntity
  8
0
  6
Continuous
 62
     7
370
    15
100
AcDbLine
 10
179.8074487986
 20
158.1318008575
 30
0.0
 11
179.8074487986
 21
157.1204873595
 31
0.0
  0
LINE
  5
260
330
1F
100
AcDbEntity
  8
0
  6
Continuous
 62
     7
370
    15
100
AcDbLine
 10
179.7865022364
 20
158.1108550403
 30
0.0
 11
179.7865022364
 21
157.1023124132
 31
0.0
  0
LINE
  5
261
330
1F
100
AcDbEntity
  8
0
  6
Continuous
 62
     7
370
    15
100
AcDbLine
 10
179.7865022364
 20
158.1108550403
 30
0.0
 11
179.8074487986
 21
158.1318008575
 31
0.0
  0
LINE
  5
262
330
1F
100
AcDbEntity
  8
0
  6
Continuous
 62
     7
370
    15
100
AcDbLine
 10
179.8074487986
 20
155.14311519
 30
0.0
 11
179.8074487986
 21
154.1318009469
 31
0.0
  0
LINE
  5
263
330
1F
100
AcDbEntity
  8
0
  6
Continuous
 62
     7
370
    15
100
AcDbLine
 10
179.7865022364
 20
154.1527475092
 30
0.0
 11
179.8074487986
 21
154.1318009469
 31
0.0
  0
LINE
  5
264
330
1F
100
AcDbEntity
  8
0
  6
Continuous
 62
     7
370
    15
100
AcDbLine
 10
179.7865022364
 20
155.1612901363
 30
0.0
 11
179.7865022364
 21
154.1527475092
 31
0.0
  0
LINE
  5
265
330
1F
100
AcDbEntity
  8
0
  6
Continuous
 62
     7
370
    15
100
AcDbLine
 10
179.5074481907
 20
158.1318008575
 30
0.0
 11
179.8074487986
 21
158.1318008575
 31
0.0
  0
LINE
  5
266
330
1F
100
AcDbEntity
  8
0
  6
Continuous
 62
     7
370
    15
100
AcDbLine
 10
179.528394753
 20
158.1108550403
 30
0.0
 11
179.7865022364
 21
158.1108550403
 31
0.0
  0
LINE
  5
267
330
1F
100
AcDbEntity
  8
0
  6
Continuous
 62
     7
370
    15
100
AcDbLine
 10
179.528394753
 20
158.1108550403
 30
0.0
 11
179.5074481907
 21
158.1318008575
 31
0.0
  0
LINE
  5
268
330
1F
100
AcDbEntity
  8
0
  6
Continuous
 62
     7
370
    15
100
AcDbLine
 10
179.5074481907
 20
154.1318009469
 30
0.0
 11
179.5074481907
 21
155.14311519
 31
0.0
  0
LINE
  5
269
330
1F
100
AcDbEntity
  8
0
  6
Continuous
 62
     7
370
    15
100
AcDbLine
 10
179.528394753
 20
154.1527475092
 30
0.0
 11
179.528394753
 21
155.1612901363
 31
0.0
  0
LINE
  5
26A
330
1F
100
AcDbEntity
  8
0
  6
Continuous
 62
     7
370
    15
100
AcDbLine
 10
179.528394753
 20
154.1527475092
 30
0.0
 11
179.5074481907
 21
154.1318009469
 31
0.0
  0
LINE
  5
26B
330
1F
100
AcDbEntity
  8
0
  6
Continuous
 62
     7
370
    15
100
AcDbLine
 10
179.5074481907
 20
157.1204873595
 30
0.0
 11
179.5074481907
 21
158.1318008575
 31
0.0
  0
LINE
  5
26C
330
1F
100
AcDbEntity
  8
0
  6
Continuous
 62
     7
370
    15
100
AcDbLine
 10
179.528394753
 20
157.1023124132
 30
0.0
 11
179.528394753
 21
158.1108550403
 31
0.0
  0
LINE
  5
26D
330
1F
100
AcDbEntity
  8
0
  6
Continuous
 62
     7
370
    15
100
AcDbLine
 10
179.8074487986
 20
154.1318009469
 30
0.0
 11
179.5074481907
 21
154.1318009469
 31
0.0
  0
LINE
  5
26E
330
1F
100
AcDbEntity
  8
0
  6
Continuous
 62
     7
370
    15
100
AcDbLine
 10
179.7865022364
 20
154.1527475092
 30
0.0
 11
179.528394753
 21
154.1527475092
 31
0.0
  0
ARC
  5
26F
330
1F
100
AcDbEntity
  8
0
  6
Continuous
 62
     7
370
    15
100
AcDbCircle
 10
179.6574484053
 20
166.1318011257
 30
0.0
 40
0.979053922085474
100
AcDbArc
 50
277.5744826607
 51
82.4255173393
  0
LWPOLYLINE
  5
270
330
1F
100
AcDbEntity
  8
0
  6
Continuous
 62
     7
370
    15
100
AcDbPolyline
 90
        3
 70
   128
 43
0.0
 10
179.8074487986
 20
167.1204875085
 10
179.7957066836
 20
167.1103398177
 10
179.7865022364
 20
167.1023125622
  0
ARC
  5
271
330
1F
100
AcDbEntity
  8
0
  6
Continuous
 62
     7
370
    15
100
AcDbCircle
 10
179.6574484053
 20
166.1318011257
 30
0.0
 40
0.9999999999997797
100
AcDbArc
 50
278.6269265587
 51
81.3730734413
  0
LWPOLYLINE
  5
272
330
1F
100
AcDbEntity
  8
0
  6
Continuous
 62
     7
370
    15
100
AcDbPolyline
 90
        3
 70
   128
 43
0.0
 10
179.8074487986
 20
165.143115339
 10
179.7957066836
 20
165.1532615396
 10
179.7865022364
 20
165.1612902853
  0
ARC
  5
273
330
1F
100
AcDbEntity
  8
0
  6
Continuous
 62
     7
370
    15
100
AcDbCircle
 10
179.6574484053
 20
166.1318011257
 30
0.0
 40
0.9999999999997713
100
AcDbArc
 50
98.6269265587
 51
261.3730734413
  0
LWPOLYLINE
  5
274
330
1F
100
AcDbEntity
  8
0
  6
Continuous
 62
     7
370
    15
100
AcDbPolyline
 90
        3
 70
   128
 43
0.0
 10
179.5074481907
 20
167.1204875085
 10
179.5191903057
 20
167.1103398177
 10
179.528394753
 20
167.1023125622
  0
ARC
  5
275
330
1F
100
AcDbEntity
  8
0
  6
Continuous
 62
     7
370
    15
100
AcDbCircle
 10
179.6574484053
 20
166.1318011257
 30
0.0
 40
0.9790539220854666
100
AcDbArc
 50
97.5744826607
 51
262.4255173393
  0
LWPOLYLINE
  5
276
330
1F
100
AcDbEntity
  8
0
  6
Continuous
 62
     7
370
    15
100
AcDbPolyline
 90
        3
 70
   128
 43
0.0
 10
179.5074481907
 20
165.143115339
 10
179.5191903057
 20
165.1532615396
 10
179.528394753
 20
165.1612902853
  0
LINE
  5
277
330
1F
100
AcDbEntity
  8
0
  6
Continuous
 62
     7
370
    15
100
AcDbLine
 10
179.8074487986
 20
168.1318010065
 30
0.0
 11
179.8074487986
 21
167.1204875085
 31
0.0
  0
LINE
  5
278
330
1F
100
AcDbEntity
  8
0
  6
Continuous
 62
     7
370
    15
100
AcDbLine
 10
179.7865022364
 20
168.1108544442
 30
0.0
 11
179.7865022364
 21
167.1023125622
 31
0.0
  0
LINE
  5
279
330
1F
100
AcDbEntity
  8
0
  6
Continuous
 62
     7
370
    15
100
AcDbLine
 10
179.7865022364
 20
168.1108544442
 30
0.0
 11
179.8074487986
 21
168.1318010065
 31
0.0
  0
LINE
  5
27A
330
1F
100
AcDbEntity
  8
0
  6
Continuous
 62
     7
370
    15
100
AcDbLine
 10
179.8074487986
 20
165.143115339
 30
0.0
 11
179.8074487986
 21
164.131801841
 31
0.0
  0
LINE
  5
27B
330
1F
100
AcDbEntity
  8
0
  6
Continuous
 62
     7
370
    15
100
AcDbLine
 10
179.7865022364
 20
164.1527469131
 30
0.0
 11
179.8074487986
 21
164.131801841
 31
0.0
  0
LINE
  5
27C
330
1F
100
AcDbEntity
  8
0
  6
Continuous
 62
     7
370
    15
100
AcDbLine
 10
179.7865022364
 20
165.1612902853
 30
0.0
 11
179.7865022364
 21
164.1527469131
 31
0.0
  0
LINE
  5
27D
330
1F
100
AcDbEntity
  8
0
  6
Continuous
 62
     7
370
    15
100
AcDbLine
 10
179.5074481907
 20
168.1318010065
 30
0.0
 11
179.8074487986
 21
168.1318010065
 31
0.0
  0
LINE
  5
27E
330
1F
100
AcDbEntity
  8
0
  6
Continuous
 62
     7
370
    15
100
AcDbLine
 10
179.528394753
 20
168.1108544442
 30
0.0
 11
179.7865022364
 21
168.1108544442
 31
0.0
  0
LINE
  5
27F
330
1F
100
AcDbEntity
  8
0
  6
Continuous
 62
     7
370
    15
100
AcDbLine
 10
179.528394753
 20
168.1108544442
 30
0.0
 11
179.5074481907
 21
168.1318010065
 31
0.0
  0
LINE
  5
280
330
1F
100
AcDbEntity
  8
0
  6
Continuous
 62
     7
370
    15
100
AcDbLine
 10
179.5074481907
 20
164.131801841
 30
0.0
 11
179.5074481907
 21
165.143115339
 31
0.0
  0
LINE
  5
281
330
1F
100
AcDbEntity
  8
0
  6
Continuous
 62
     7
370
    15
100
AcDbLine
 10
179.528394753
 20
164.1527469131
 30
0.0
 11
179.528394753
 21
165.1612902853
 31
0.0
  0
LINE
  5
282
330
1F
100
AcDbEntity
  8
0
  6
Continuous
 62
     7
370
    15
100
AcDbLine
 10
179.528394753
 20
164.1527469131
 30
0.0
 11
179.5074481907
 21
164.131801841
 31
0.0
  0
LINE
  5
283
330
1F
100
AcDbEntity
  8
0
  6
Continuous
 62
     7
370
    15
100
AcDbLine
 10
179.5074481907
 20
167.1204875085
 30
0.0
 11
179.5074481907
 21
168.1318010065
 31
0.0
  0
LINE
  5
284
330
1F
100
AcDbEntity
  8
0
  6
Continuous
 62
     7
370
    15
100
AcDbLine
 10
179.528394753
 20
167.1023125622
 30
0.0
 11
179.528394753
 21
168.1108544442
 31
0.0
  0
LINE
  5
285
330
1F
100
AcDbEntity
  8
0
  6
Continuous
 62
     7
370
    15
100
AcDbLine
 10
179.8074487986
 20
164.131801841
 30
0.0
 11
179.5074481907
 21
164.131801841
 31
0.0
  0
LINE
  5
286
330
1F
100
AcDbEntity
  8
0
  6
Continuous
 62
     7
370
    15
100
AcDbLine
 10
179.7865022364
 20
164.1527469131
 30
0.0
 11
179.528394753
 21
164.1527469131
 31
0.0
  0
CIRCLE
  5
287
330
1F
100
AcDbEntity
  8
0
  6
Continuous
 62
     7
370
    15
100
AcDbCircle
 10
176.4574484053
 20
173.6318011257
 30
0.0
 40
1.199999999999989
  0
CIRCLE
  5
288
330
1F
100
AcDbEntity
  8
0
  6
Continuous
 62
     7
370
    15
100
AcDbCircle
 10
176.4574484053
 20
173.6318011257
 30
0.0
 40
1.179053922086183
  0
CIRCLE
  5
289
330
1F
100
AcDbEntity
  8
0
  6
Continuous
 62
     7
370
    15
100
AcDbCircle
 10
140.8574484053
 20
173.6318011257
 30
0.0
 40
1.200000000000017
  0
CIRCLE
  5
28A
330
1F
100
AcDbEntity
  8
0
  6
Continuous
 62
     7
370
    15
100
AcDbCircle
 10
140.8574484053
 20
173.6318011257
 30
0.0
 40
1.179053922086212
  0
ARC
  5
28B
330
1F
100
AcDbEntity
  8
0
  6
Continuous
 62
     7
370
    15
100
AcDbCircle
 10
137.6574484053
 20
166.1318011257
 30
0.0
 40
0.9790539220854703
100
AcDbArc
 50
97.5744826607
 51
262.4255173393
  0
LWPOLYLINE
  5
28C
330
1F
100
AcDbEntity
  8
0
  6
Continuous
 62
     7
370
    15
100
AcDbPolyline
 90
        3
 70
   128
 43
0.0
 10
137.5074480119
 20
165.143115339
 10
137.5191901269
 20
165.1532615396
 10
137.5283945742
 20
165.1612902853
  0
ARC
  5
28D
330
1F
100
AcDbEntity
  8
0
  6
Continuous
 62
     7
370
    15
100
AcDbCircle
 10
137.6574484053
 20
166.1318011257
 30
0.0
 40
0.9999999999997755
100
AcDbArc
 50
98.6269265587
 51
261.3730734413
  0
LWPOLYLINE
  5
28E
330
1F
100
AcDbEntity
  8
0
  6
Continuous
 62
     7
370
    15
100
AcDbPolyline
 90
        3
 70
   128
 43
0.0
 10
137.5074480119
 20
167.1204875085
 10
137.5191901269
 20
167.1103398177
 10
137.5283945742
 20
167.1023125622
  0
ARC
  5
28F
330
1F
100
AcDbEntity
  8
0
  6
Continuous
 62
     7
370
    15
100
AcDbCircle
 10
137.6574484053
 20
166.1318011257
 30
0.0
 40
0.9999999999997713
100
AcDbArc
 50
278.6269265587
 51
81.3730734413
  0
ARC
  5
290
330
1F
100
AcDbEntity
  8
0
  6
Continuous
 62
     7
370
    15
100
AcDbCircle
 10
137.6574484053
 20
166.1318011257
 30
0.0
 40
0.9790539220854666
100
AcDbArc
 50
277.5744826607
 51
82.4255173393
  0
LINE
  5
291
330
1F
100
AcDbEntity
  8
0
  6
Continuous
 62
     7
370
    15
100
AcDbLine
 10
137.5074480119
 20
168.1318010065
 30
0.0
 11
137.5074480119
 21
167.1204875085
 31
0.0
  0
LINE
  5
292
330
1F
100
AcDbEntity
  8
0
  6
Continuous
 62
     7
370
    15
100
AcDbLine
 10
137.5283945742
 20
168.1108544442
 30
0.0
 11
137.5074480119
 21
168.1318010065
 31
0.0
  0
LINE
  5
293
330
1F
100
AcDbEntity
  8
0
  6
Continuous
 62
     7
370
    15
100
AcDbLine
 10
137.5283945742
 20
168.1108544442
 30
0.0
 11
137.5283945742
 21
167.1023125622
 31
0.0
  0
LINE
  5
294
330
1F
100
AcDbEntity
  8
0
  6
Continuous
 62
     7
370
    15
100
AcDbLine
 10
137.5074480119
 20
165.143115339
 30
0.0
 11
137.5074480119
 21
164.131801841
 31
0.0
  0
LINE
  5
295
330
1F
100
AcDbEntity
  8
0
  6
Continuous
 62
     7
370
    15
100
AcDbLine
 10
137.5283945742
 20
165.1612902853
 30
0.0
 11
137.5283945742
 21
164.1527469131
 31
0.0
  0
LINE
  5
296
330
1F
100
AcDbEntity
  8
0
  6
Continuous
 62
     7
370
    15
100
AcDbLine
 10
137.8074486198
 20
168.1318010065
 30
0.0
 11
137.5074480119
 21
168.1318010065
 31
0.0
  0
LINE
  5
297
330
1F
100
AcDbEntity
  8
0
  6
Continuous
 62
     7
370
    15
100
AcDbLine
 10
137.7865020575
 20
168.1108544442
 30
0.0
 11
137.5283945742
 21
168.1108544442
 31
0.0
  0
CIRCLE
  5
298
330
1F
100
AcDbEntity
  8
0
  6
Continuous
 62
     7
370
    15
100
AcDbCircle
 10
137.6574484053
 20
126.1318011257
 30
0.0
 40
0.4800000000000182
  0
CIRCLE
  5
299
330
1F
100
AcDbEntity
  8
0
  6
Continuous
 62
     7
370
    15
100
AcDbCircle
 10
140.8574484053
 20
118.6318011257
 30
0.0
 40
0.5999999999999943
  0
CIRCLE
  5
29A
330
1F
100
AcDbEntity
  8
0
  6
Continuous
 62
     7
370
    15
100
AcDbCircle
 10
168.6574484053
 20
177.1318011257
 30
0.0
 40
0.4799999999999898
  0
CIRCLE
  5
29B
330
1F
100
AcDbEntity
  8
0
  6
Continuous
 62
     7
370
    15
100
AcDbCircle
 10
179.6574484053
 20
156.1318011257
 30
0.0
 40
0.4800000000000182
  0
CIRCLE
  5
29C
330
1F
100
AcDbEntity
  8
0
  6
Continuous
 62
     7
370
    15
100
AcDbCircle
 10
179.6574484053
 20
166.1318011257
 30
0.0
 40
0.4800000000000182
  0
CIRCLE
  5
29D
330
1F
100
AcDbEntity
  8
0
  6
Continuous
 62
     7
370
    15
100
AcDbCircle
 10
176.4574484053
 20
173.6318011257
 30
0.0
 40
0.5999999999999659
  0
CIRCLE
  5
29E
330
1F
100
AcDbEntity
  8
0
  6
Continuous
 62
     7
370
    15
100
AcDbCircle
 10
140.8574484053
 20
173.6318011257
 30
0.0
 40
0.5999999999999943
  0
CIRCLE
  5
29F
330
1F
100
AcDbEntity
  8
0
  6
Continuous
 62
     7
370
    15
100
AcDbCircle
 10
137.6574484053
 20
166.1318011257
 30
0.0
 40
0.4800000000000182
  0
CIRCLE
  5
2A0
330
1F
100
AcDbEntity
  8
0
  6
Continuous
 62
     7
370
    15
100
AcDbCircle
 10
137.6574484053
 20
156.1318011257
 30
0.0
 40
0.4800000000000182
  0
CIRCLE
  5
2A1
330
1F
100
AcDbEntity
  8
0
  6
Continuous
 62
     7
370
    15
100
AcDbCircle
 10
148.6574484053
 20
177.1318011257
 30
0.0
 40
0.4799999999999613
  0
CIRCLE
  5
2A2
330
1F
100
AcDbEntity
  8
0
  6
Continuous
 62
     7
370
    15
100
AcDbCircle
 10
158.6574484053
 20
177.1318011257
 30
0.0
 40
0.4799999999999898
  0
CIRCLE
  5
2A3
330
1F
100
AcDbEntity
  8
0
  6
Continuous
 62
     7
370
    15
100
AcDbCircle
 10
137.6574484053
 20
146.1318011257
 30
0.0
 40
0.4799999999999898
  0
CIRCLE
  5
2A4
330
1F
100
AcDbEntity
  8
0
  6
Continuous
 62
     7
370
    15
100
AcDbCircle
 10
158.6574484053
 20
115.1318011257
 30
0.0
 40
0.4800000000000182
  0
ARC
  5
2A5
330
1F
100
AcDbEntity
  8
0
  6
Continuous
 62
     7
370
    15
100
AcDbCircle
 10
158.6574484053
 20
115.1318011257
 30
0.0
 40
0.979053922085243
100
AcDbArc
 50
187.5744826607
 51
352.4255173393
  0
ARC
  5
2A6
330
1F
100
AcDbEntity
  8
0
  6
Continuous
 62
     7
370
    15
100
AcDbCircle
 10
179.6574484053
 20
146.1318011257
 30
0.0
 40
0.9790539220852412
100
AcDbArc
 50
97.5744826607
 51
262.4255173393
  0
LWPOLYLINE
  5
2A7
330
1F
100
AcDbEntity
  8
0
  6
Continuous
 62
     7
370
    15
100
AcDbPolyline
 90
        3
 70
   128
 43
0.0
 10
179.5074481907
 20
145.1431151341
 10
179.5191903057
 20
145.1532622661
 10
179.528394753
 20
145.1612900804
  0
ARC
  5
2A8
330
1F
100
AcDbEntity
  8
0
  6
Continuous
 62
     7
370
    15
100
AcDbCircle
 10
179.6574484053
 20
146.1318011257
 30
0.0
 40
0.999999999999968
100
AcDbArc
 50
98.6269265587
 51
261.3730734413
  0
LWPOLYLINE
  5
2A9
330
1F
100
AcDbEntity
  8
0
  6
Continuous
 62
     7
370
    15
100
AcDbPolyline
 90
        3
 70
   128
 43
0.0
 10
179.5074481907
 20
147.1204871173
 10
179.5191903057
 20
147.1103399853
 10
179.528394753
 20
147.102312171
  0
ARC
  5
2AA
330
1F
100
AcDbEntity
  8
0
  6
Continuous
 62
     7
370
    15
100
AcDbCircle
 10
179.6574484053
 20
146.1318011257
 30
0.0
 40
0.9999999999999765
100
AcDbArc
 50
278.6269265587
 51
81.3730734413
  0
LWPOLYLINE
  5
2AB
330
1F
100
AcDbEntity
  8
0
  6
Continuous
 62
     7
370
    15
100
AcDbPolyline
 90
        3
 70
   128
 43
0.0
 10
179.8074487986
 20
145.1431151341
 10
179.7957066836
 20
145.1532622661
 10
179.7865022364
 20
145.1612900804
  0
ARC
  5
2AC
330
1F
100
AcDbEntity
  8
0
  6
Continuous
 62
     7
370
    15
100
AcDbCircle
 10
179.6574484053
 20
146.1318011257
 30
0.0
 40
0.9790539220852487
100
AcDbArc
 50
277.5744826607
 51
82.4255173393
  0
LWPOLYLINE
  5
2AD
330
1F
100
AcDbEntity
  8
0
  6
Continuous
 62
     7
370
    15
100
AcDbPolyline
 90
        3
 70
   128
 43
0.0
 10
179.8074487986
 20
147.1204871173
 10
179.7957066836
 20
147.1103399853
 10
179.7865022364
 20
147.102312171
  0
LINE
  5
2AE
330
1F
100
AcDbEntity
  8
0
  6
Continuous
 62
     7
370
    15
100
AcDbLine
 10
179.5074481907
 20
145.1431151341
 30
0.0
 11
179.5074481907
 21
144.1318011704
 31
0.0
  0
LINE
  5
2AF
330
1F
100
AcDbEntity
  8
0
  6
Continuous
 62
     7
370
    15
100
AcDbLine
 10
179.528394753
 20
145.1612900804
 30
0.0
 11
179.528394753
 21
144.1527471739
 31
0.0
  0
LINE
  5
2B0
330
1F
100
AcDbEntity
  8
0
  6
Continuous
 62
     7
370
    15
100
AcDbLine
 10
179.528394753
 20
144.1527471739
 30
0.0
 11
179.5074481907
 21
144.1318011704
 31
0.0
  0
LINE
  5
2B1
330
1F
100
AcDbEntity
  8
0
  6
Continuous
 62
     7
370
    15
100
AcDbLine
 10
179.5074481907
 20
144.1318011704
 30
0.0
 11
179.8074487986
 21
144.1318011704
 31
0.0
  0
LINE
  5
2B2
330
1F
100
AcDbEntity
  8
0
  6
Continuous
 62
     7
370
    15
100
AcDbLine
 10
179.528394753
 20
144.1527471739
 30
0.0
 11
179.7865022364
 21
144.1527471739
 31
0.0
  0
LINE
  5
2B3
330
1F
100
AcDbEntity
  8
0
  6
Continuous
 62
     7
370
    15
100
AcDbLine
 10
179.7865022364
 20
144.1527471739
 30
0.0
 11
179.8074487986
 21
144.1318011704
 31
0.0
  0
LINE
  5
2B4
330
1F
100
AcDbEntity
  8
0
  6
Continuous
 62
     7
370
    15
100
AcDbLine
 10
179.8074487986
 20
144.1318011704
 30
0.0
 11
179.8074487986
 21
145.1431151341
 31
0.0
  0
LINE
  5
2B5
330
1F
100
AcDbEntity
  8
0
  6
Continuous
 62
     7
370
    15
100
AcDbLine
 10
179.7865022364
 20
144.1527471739
 30
0.0
 11
179.7865022364
 21
145.1612900804
 31
0.0
  0
LINE
  5
2B6
330
1F
100
AcDbEntity
  8
0
  6
Continuous
 62
     7
370
    15
100
AcDbLine
 10
179.5074481907
 20
147.1204871173
 30
0.0
 11
179.5074481907
 21
148.131801081
 31
0.0
  0
LINE
  5
2B7
330
1F
100
AcDbEntity
  8
0
  6
Continuous
 62
     7
370
    15
100
AcDbLine
 10
179.528394753
 20
148.1108550775
 30
0.0
 11
179.5074481907
 21
148.131801081
 31
0.0
  0
LINE
  5
2B8
330
1F
100
AcDbEntity
  8
0
  6
Continuous
 62
     7
370
    15
100
AcDbLine
 10
179.528394753
 20
147.102312171
 30
0.0
 11
179.528394753
 21
148.1108550775
 31
0.0
  0
LINE
  5
2B9
330
1F
100
AcDbEntity
  8
0
  6
Continuous
 62
     7
370
    15
100
AcDbLine
 10
179.5074481907
 20
148.131801081
 30
0.0
 11
179.8074487986
 21
148.131801081
 31
0.0
  0
LINE
  5
2BA
330
1F
100
AcDbEntity
  8
0
  6
Continuous
 62
     7
370
    15
100
AcDbLine
 10
179.7865022364
 20
148.1108550775
 30
0.0
 11
179.8074487986
 21
148.131801081
 31
0.0
  0
LINE
  5
2BB
330
1F
100
AcDbEntity
  8
0
  6
Continuous
 62
     7
370
    15
100
AcDbLine
 10
179.528394753
 20
148.1108550775
 30
0.0
 11
179.7865022364
 21
148.1108550775
 31
0.0
  0
LINE
  5
2BC
330
1F
100
AcDbEntity
  8
0
  6
Continuous
 62
     7
370
    15
100
AcDbLine
 10
179.8074487986
 20
148.131801081
 30
0.0
 11
179.8074487986
 21
147.1204871173
 31
0.0
  0
LINE
  5
2BD
330
1F
100
AcDbEntity
  8
0
  6
Continuous
 62
     7
370
    15
100
AcDbLine
 10
179.7865022364
 20
148.1108550775
 30
0.0
 11
179.7865022364
 21
147.102312171
 31
0.0
  0
ARC
  5
2BE
330
1F
100
AcDbEntity
  8
0
  6
Continuous
 62
     7
370
    15
100
AcDbCircle
 10
158.6574484053
 20
115.1318011257
 30
0.0
 40
0.9999999999999701
100
AcDbArc
 50
188.6269265587
 51
351.3730734413
  0
CIRCLE
  5
2BF
330
1F
100
AcDbEntity
  8
0
  6
Continuous
 62
     7
370
    15
100
AcDbCircle
 10
179.6574484053
 20
146.1318011257
 30
0.0
 40
0.4799999999999613
  0
CIRCLE
  5
2C0
330
1F
100
AcDbEntity
  8
0
  6
Continuous
 62
     7
370
    15
100
AcDbCircle
 10
168.6574484053
 20
115.1318011257
 30
0.0
 40
0.4799999999999898
  0
CIRCLE
  5
2C1
330
1F
100
AcDbEntity
  8
0
  6
Continuous
 62
     7
370
    15
100
AcDbCircle
 10
179.6574484053
 20
136.1318011257
 30
0.0
 40
0.4800000000000182
  0
LINE
  5
2C2
330
1F
100
AcDbEntity
  8
0
  6
Continuous
 62
     7
370
    15
100
AcDbLine
 10
179.528394753
 20
128.1108553383
 30
0.0
 11
179.528394753
 21
127.1023119661
 31
0.0
  0
LINE
  5
2C3
330
1F
100
AcDbEntity
  8
0
  6
Continuous
 62
     7
370
    15
100
AcDbLine
 10
179.7865022364
 20
128.1108553383
 30
0.0
 11
179.528394753
 21
128.1108553383
 31
0.0
  0
LINE
  5
2C4
330
1F
100
AcDbEntity
  8
0
  6
Continuous
 62
     7
370
    15
100
AcDbLine
 10
179.528394753
 20
124.1527478072
 30
0.0
 11
179.7865022364
 21
124.1527478072
 31
0.0
  0
LINE
  5
2C5
330
1F
100
AcDbEntity
  8
0
  6
Continuous
 62
     7
370
    15
100
AcDbLine
 10
179.528394753
 20
125.1612896892
 30
0.0
 11
179.528394753
 21
124.1527478072
 31
0.0
  0
CIRCLE
  5
2C6
330
1F
100
AcDbEntity
  8
0
  6
Continuous
 62
     7
370
    15
100
AcDbCircle
 10
179.6574484053
 20
126.1318011257
 30
0.0
 40
0.4800000000000182
  0
CIRCLE
  5
2C7
330
1F
100
AcDbEntity
  8
0
  6
Continuous
 62
     7
370
    15
100
AcDbCircle
 10
176.4574484053
 20
118.6318011257
 30
0.0
 40
0.5999999999999659
  0
CIRCLE
  5
2C8
330
1F
100
AcDbEntity
  8
0
  6
Continuous
 62
     7
370
    15
100
AcDbCircle
 10
176.4574484053
 20
118.6318011257
 30
0.0
 40
1.179053922086183
  0
ARC
  5
2C9
330
1F
100
AcDbEntity
  8
0
  6
Continuous
 62
     7
370
    15
100
AcDbCircle
 10
148.6574484053
 20
115.1318011257
 30
0.0
 40
0.9790539220854703
100
AcDbArc
 50
7.5744826607
 51
172.4255173393
  0
LINE
  5
2CA
330
1F
100
AcDbEntity
  8
0
  6
Continuous
 62
     7
370
    15
100
AcDbLine
 10
146.6783944907
 20
115.2608538839
 30
0.0
 11
147.6869371178
 21
115.2608538839
 31
0.0
  0
CIRCLE
  5
2CB
330
1F
100
AcDbEntity
  8
0
  6
Continuous
 62
     7
370
    15
100
AcDbCircle
 10
148.6574484053
 20
115.1318011257
 30
0.0
 40
0.4799999999999613
  0
CIRCLE
  5
2CC
330
1F
100
AcDbEntity
  8
0
  6
Continuous
 62
     7
370
    15
100
AcDbCircle
 10
137.6574484053
 20
136.1318011257
 30
0.0
 40
0.4800000000000182
  0
LINE
  5
2CD
330
1F
100
AcDbEntity
  8
0
  6
Continuous
 62
     7
370
    15
100
AcDbLine
 10
179.5074481907
 20
125.1431147429
 30
0.0
 11
179.5074481907
 21
124.1318012449
 31
0.0
  0
LINE
  5
2CE
330
1F
100
AcDbEntity
  8
0
  6
Continuous
 62
     7
370
    15
100
AcDbLine
 10
179.528394753
 20
124.1527478072
 30
0.0
 11
179.5074481907
 21
124.1318012449
 31
0.0
  0
LINE
  5
2CF
330
1F
100
AcDbEntity
  8
0
  6
Continuous
 62
     7
370
    15
100
AcDbLine
 10
146.6574486735
 20
115.2818019363
 30
0.0
 11
147.6687621715
 21
115.2818019363
 31
0.0
  0
LWPOLYLINE
  5
2D0
330
1F
100
AcDbEntity
  8
0
  6
Continuous
 62
     7
370
    15
100
AcDbPolyline
 90
        3
 70
   128
 43
0.0
 10
147.6687621715
 20
115.2818019363
 10
147.6789098623
 20
115.2700598213
 10
147.6869371178
 20
115.2608538839
  0
LINE
  5
2D1
330
1F
100
AcDbEntity
  8
0
  6
Continuous
 62
     7
370
    15
100
AcDbLine
 10
179.5074481907
 20
124.1318012449
 30
0.0
 11
179.8074487986
 21
124.1318012449
 31
0.0
  0
LINE
  5
2D2
330
1F
100
AcDbEntity
  8
0
  6
Continuous
 62
     7
370
    15
100
AcDbLine
 10
179.5074481907
 20
128.1318004104
 30
0.0
 11
179.5074481907
 21
127.1204869124
 31
0.0
  0
LINE
  5
2D3
330
1F
100
AcDbEntity
  8
0
  6
Continuous
 62
     7
370
    15
100
AcDbLine
 10
179.528394753
 20
128.1108553383
 30
0.0
 11
179.5074481907
 21
128.1318004104
 31
0.0
  0
CIRCLE
  5
2D4
330
1F
100
AcDbEntity
  8
0
  6
Continuous
 62
     7
370
    15
100
AcDbCircle
 10
176.4574484053
 20
118.6318011257
 30
0.0
 40
1.199999999999989
  0
ARC
  5
2D5
330
1F
100
AcDbEntity
  8
0
  6
Continuous
 62
     7
370
    15
100
AcDbCircle
 10
148.6574484053
 20
115.1318011257
 30
0.0
 40
0.9999999999997755
100
AcDbArc
 50
8.6269265587
 51
171.3730734413
  0
LINE
  5
2D6
330
1F
100
AcDbEntity
  8
0
  6
Continuous
 62
     7
370
    15
100
AcDbLine
 10
179.8074487986
 20
128.1318004104
 30
0.0
 11
179.5074481907
 21
128.1318004104
 31
0.0
  0
CIRCLE
  5
2D7
330
1F
100
AcDbEntity
  8
0
  6
Continuous
 62
     7
370
    15
100
AcDbCircle
 10
168.6574484053
 20
115.1318011257
 30
0.0
 40
0.4200000000000159
  0
CIRCLE
  5
2D8
330
1F
100
AcDbEntity
  8
0
  6
Continuous
 62
     7
370
    15
100
AcDbCircle
 10
179.6574484053
 20
156.1318011257
 30
0.0
 40
0.4200000000000159
  0
CIRCLE
  5
2D9
330
1F
100
AcDbEntity
  8
0
  6
Continuous
 62
     7
370
    15
100
AcDbCircle
 10
179.6574484053
 20
146.1318011257
 30
0.0
 40
0.4060217804704394
  0
CIRCLE
  5
2DA
330
1F
100
AcDbEntity
  8
0
  6
Continuous
 62
     7
370
    15
100
AcDbCircle
 10
179.6574484053
 20
146.1318011257
 30
0.0
 40
0.4199999999999875
  0
CIRCLE
  5
2DB
330
1F
100
AcDbEntity
  8
0
  6
Continuous
 62
     7
370
    15
100
AcDbCircle
 10
137.6574484053
 20
136.1318011257
 30
0.0
 40
0.4200000000000159
  0
CIRCLE
  5
2DC
330
1F
100
AcDbEntity
  8
0
  6
Continuous
 62
     7
370
    15
100
AcDbCircle
 10
137.6574484053
 20
136.1318011257
 30
0.0
 40
0.4060217804703825
  0
CIRCLE
  5
2DD
330
1F
100
AcDbEntity
  8
0
  6
Continuous
 62
     7
370
    15
100
AcDbCircle
 10
137.6574484053
 20
166.1318011257
 30
0.0
 40
0.4200000000000159
  0
CIRCLE
  5
2DE
330
1F
100
AcDbEntity
  8
0
  6
Continuous
 62
     7
370
    15
100
AcDbCircle
 10
137.6574484053
 20
166.1318011257
 30
0.0
 40
0.4060217804703825
  0
CIRCLE
  5
2DF
330
1F
100
AcDbEntity
  8
0
  6
Continuous
 62
     7
370
    15
100
AcDbCircle
 10
137.6574484053
 20
156.1318011257
 30
0.0
 40
0.4200000000000159
  0
CIRCLE
  5
2E0
330
1F
100
AcDbEntity
  8
0
  6
Continuous
 62
     7
370
    15
100
AcDbCircle
 10
137.6574484053
 20
156.1318011257
 30
0.0
 40
0.4060217804703825
  0
CIRCLE
  5
2E1
330
1F
100
AcDbEntity
  8
0
  6
Continuous
 62
     7
370
    15
100
AcDbCircle
 10
179.6574484053
 20
136.1318011257
 30
0.0
 40
0.4200000000000159
  0
CIRCLE
  5
2E2
330
1F
100
AcDbEntity
  8
0
  6
Continuous
 62
     7
370
    15
100
AcDbCircle
 10
179.6574484053
 20
136.1318011257
 30
0.0
 40
0.4060217804703825
  0
CIRCLE
  5
2E3
330
1F
100
AcDbEntity
  8
0
  6
Continuous
 62
     7
370
    15
100
AcDbCircle
 10
176.4574484053
 20
118.6318011257
 30
0.0
 40
0.5199999999999818
  0
CIRCLE
  5
2E4
330
1F
100
AcDbEntity
  8
0
  6
Continuous
 62
     7
370
    15
100
AcDbCircle
 10
137.6574484053
 20
146.1318011257
 30
0.0
 40
0.4060217804704109
  0
CIRCLE
  5
2E5
330
1F
100
AcDbEntity
  8
0
  6
Continuous
 62
     7
370
    15
100
AcDbCircle
 10
137.6574484053
 20
146.1318011257
 30
0.0
 40
0.4200000000000159
  0
CIRCLE
  5
2E6
330
1F
100
AcDbEntity
  8
0
  6
Continuous
 62
     7
370
    15
100
AcDbCircle
 10
176.4574484053
 20
173.6318011257
 30
0.0
 40
0.5199999999999818
  0
CIRCLE
  5
2E7
330
1F
100
AcDbEntity
  8
0
  6
Continuous
 62
     7
370
    15
100
AcDbCircle
 10
176.4574484053
 20
173.6318011257
 30
0.0
 40
0.5060217804704052
  0
CIRCLE
  5
2E8
330
1F
100
AcDbEntity
  8
0
  6
Continuous
 62
     7
370
    15
100
AcDbCircle
 10
176.4574484053
 20
118.6318011257
 30
0.0
 40
0.5060217804704052
  0
CIRCLE
  5
2E9
330
1F
100
AcDbEntity
  8
0
  6
Continuous
 62
     7
370
    15
100
AcDbCircle
 10
179.6574484053
 20
166.1318011257
 30
0.0
 40
0.4200000000000159
  0
CIRCLE
  5
2EA
330
1F
100
AcDbEntity
  8
0
  6
Continuous
 62
     7
370
    15
100
AcDbCircle
 10
179.6574484053
 20
166.1318011257
 30
0.0
 40
0.4060217804703825
  0
CIRCLE
  5
2EB
330
1F
100
AcDbEntity
  8
0
  6
Continuous
 62
     7
370
    15
100
AcDbCircle
 10
179.6574484053
 20
126.1318011257
 30
0.0
 40
0.4200000000000159
  0
CIRCLE
  5
2EC
330
1F
100
AcDbEntity
  8
0
  6
Continuous
 62
     7
370
    15
100
AcDbCircle
 10
179.6574484053
 20
126.1318011257
 30
0.0
 40
0.4060217804703825
  0
CIRCLE
  5
2ED
330
1F
100
AcDbEntity
  8
0
  6
Continuous
 62
     7
370
    15
100
AcDbCircle
 10
179.6574484053
 20
156.1318011257
 30
0.0
 40
0.4060217804703825
  0
CIRCLE
  5
2EE
330
1F
100
AcDbEntity
  8
0
  6
Continuous
 62
     7
370
    15
100
AcDbCircle
 10
158.6574484053
 20
177.1318011257
 30
0.0
 40
0.4060217804703825
  0
CIRCLE
  5
2EF
330
1F
100
AcDbEntity
  8
0
  6
Continuous
 62
     7
370
    15
100
AcDbCircle
 10
158.6574484053
 20
177.1318011257
 30
0.0
 40
0.4199999999999875
  0
CIRCLE
  5
2F0
330
1F
100
AcDbEntity
  8
0
  6
Continuous
 62
     7
370
    15
100
AcDbCircle
 10
168.6574484053
 20
177.1318011257
 30
0.0
 40
0.4200000000000159
  0
CIRCLE
  5
2F1
330
1F
100
AcDbEntity
  8
0
  6
Continuous
 62
     7
370
    15
100
AcDbCircle
 10
168.6574484053
 20
177.1318011257
 30
0.0
 40
0.4060217804704109
  0
CIRCLE
  5
2F2
330
1F
100
AcDbEntity
  8
0
  6
Continuous
 62
     7
370
    15
100
AcDbCircle
 10
168.6574484053
 20
115.1318011257
 30
0.0
 40
0.4060217804704109
  0
CIRCLE
  5
2F3
330
1F
100
AcDbEntity
  8
0
  6
Continuous
 62
     7
370
    15
100
AcDbCircle
 10
148.6574484053
 20
177.1318011257
 30
0.0
 40
0.4199999999999875
  0
CIRCLE
  5
2F4
330
1F
100
AcDbEntity
  8
0
  6
Continuous
 62
     7
370
    15
100
AcDbCircle
 10
148.6574484053
 20
177.1318011257
 30
0.0
 40
0.4060217804704394
  0
CIRCLE
  5
2F5
330
1F
100
AcDbEntity
  8
0
  6
Continuous
 62
     7
370
    15
100
AcDbCircle
 10
137.6574484053
 20
126.1318011257
 30
0.0
 40
0.4200000000000159
  0
CIRCLE
  5
2F6
330
1F
100
AcDbEntity
  8
0
  6
Continuous
 62
     7
370
    15
100
AcDbCircle
 10
140.8574484053
 20
173.6318011257
 30
0.0
 40
0.5200000000000102
  0
CIRCLE
  5
2F7
330
1F
100
AcDbEntity
  8
0
  6
Continuous
 62
     7
370
    15
100
AcDbCircle
 10
140.8574484053
 20
173.6318011257
 30
0.0
 40
0.5060217804704052
  0
CIRCLE
  5
2F8
330
1F
100
AcDbEntity
  8
0
  6
Continuous
 62
     7
370
    15
100
AcDbCircle
 10
148.6574484053
 20
115.1318011257
 30
0.0
 40
0.4199999999999875
  0
CIRCLE
  5
2F9
330
1F
100
AcDbEntity
  8
0
  6
Continuous
 62
     7
370
    15
100
AcDbCircle
 10
140.8574484053
 20
118.6318011257
 30
0.0
 40
0.5200000000000102
  0
CIRCLE
  5
2FA
330
1F
100
AcDbEntity
  8
0
  6
Continuous
 62
     7
370
    15
100
AcDbCircle
 10
137.6574484053
 20
126.1318011257
 30
0.0
 40
0.4060217804703825
  0
CIRCLE
  5
2FB
330
1F
100
AcDbEntity
  8
0
  6
Continuous
 62
     7
370
    15
100
AcDbCircle
 10
140.8574484053
 20
118.6318011257
 30
0.0
 40
0.5060217804704052
  0
CIRCLE
  5
2FC
330
1F
100
AcDbEntity
  8
0
  6
Continuous
 62
     7
370
    15
100
AcDbCircle
 10
158.6574484053
 20
115.1318011257
 30
0.0
 40
0.4200000000000159
  0
CIRCLE
  5
2FD
330
1F
100
AcDbEntity
  8
0
  6
Continuous
 62
     7
370
    15
100
AcDbCircle
 10
158.6574484053
 20
115.1318011257
 30
0.0
 40
0.4060217804704109
  0
CIRCLE
  5
2FE
330
1F
100
AcDbEntity
  8
0
  6
Continuous
 62
     7
370
    15
100
AcDbCircle
 10
148.6574484053
 20
115.1318011257
 30
0.0
 40
0.4060217804704394
  0
ARC
  5
2FF
330
1F
100
AcDbEntity
  8
0
  6
Continuous
 62
     7
370
    15
100
AcDbCircle
 10
136.4574484053
 20
178.3318011257
 30
0.0
 40
1.048043912834557
100
AcDbArc
 50
167.7034221094
 51
192.2965778906
  0
ARC
  5
300
330
1F
100
AcDbEntity
  8
0
  6
Continuous
 62
     7
370
    15
100
AcDbCircle
 10
180.8574484053
 20
178.3318011257
 30
0.0
 40
1.048043912834585
100
AcDbArc
 50
347.7034221094
 51
12.2965778906
  0
ARC
  5
301
330
1F
100
AcDbEntity
  8
0
  6
Continuous
 62
     7
370
    15
100
AcDbCircle
 10
136.4574484053
 20
113.9318011257
 30
0.0
 40
1.048043912834557
100
AcDbArc
 50
167.7034221094
 51
192.2965778906
  0
ARC
  5
302
330
1F
100
AcDbEntity
  8
0
  6
Continuous
 62
     7
370
    15
100
AcDbCircle
 10
180.8574484053
 20
113.9318011257
 30
0.0
 40
1.04804391283388
100
AcDbArc
 50
347.7034221094
 51
12.2965778904
  0
CIRCLE
  5
303
330
1F
100
AcDbEntity
  8
0
  6
Continuous
 62
     7
370
    15
100
AcDbCircle
 10
176.4574484053
 20
173.6318011257
 30
0.0
 40
0.3060293958575642
  0
CIRCLE
  5
304
330
1F
100
AcDbEntity
  8
0
  6
Continuous
 62
     7
370
    15
100
AcDbCircle
 10
179.6574484053
 20
166.1318011257
 30
0.0
 40
0.2060293958575983
  0
CIRCLE
  5
305
330
1F
100
AcDbEntity
  8
0
  6
Continuous
 62
     7
370
    15
100
AcDbCircle
 10
137.6574484053
 20
156.1318011257
 30
0.0
 40
0.2060293958575983
  0
CIRCLE
  5
306
330
1F
100
AcDbEntity
  8
0
  6
Continuous
 62
     7
370
    15
100
AcDbCircle
 10
137.6574484053
 20
136.1318011257
 30
0.0
 40
0.2060293958575983
  0
CIRCLE
  5
307
330
1F
100
AcDbEntity
  8
0
  6
Continuous
 62
     7
370
    15
100
AcDbCircle
 10
158.6574484053
 20
177.1318011257
 30
0.0
 40
0.2060293958575983
  0
CIRCLE
  5
308
330
1F
100
AcDbEntity
  8
0
  6
Continuous
 62
     7
370
    15
100
AcDbCircle
 10
148.6574484053
 20
115.1318011257
 30
0.0
 40
0.2060293958575699
  0
CIRCLE
  5
309
330
1F
100
AcDbEntity
  8
0
  6
Continuous
 62
     7
370
    15
100
AcDbCircle
 10
168.6574484053
 20
177.1318011257
 30
0.0
 40
0.2060293958575983
  0
CIRCLE
  5
30A
330
1F
100
AcDbEntity
  8
0
  6
Continuous
 62
     7
370
    15
100
AcDbCircle
 10
137.6574484053
 20
146.1318011257
 30
0.0
 40
0.2060293958575983
  0
CIRCLE
  5
30B
330
1F
100
AcDbEntity
  8
0
  6
Continuous
 62
     7
370
    15
100
AcDbCircle
 10
179.6574484053
 20
136.1318011257
 30
0.0
 40
0.2060293958575983
  0
CIRCLE
  5
30C
330
1F
100
AcDbEntity
  8
0
  6
Continuous
 62
     7
370
    15
100
AcDbCircle
 10
179.6574484053
 20
156.1318011257
 30
0.0
 40
0.2060293958575983
  0
CIRCLE
  5
30D
330
1F
100
AcDbEntity
  8
0
  6
Continuous
 62
     7
370
    15
100
AcDbCircle
 10
179.6574484053
 20
126.1318011257
 30
0.0
 40
0.2060293958575983
  0
CIRCLE
  5
30E
330
1F
100
AcDbEntity
  8
0
  6
Continuous
 62
     7
370
    15
100
AcDbCircle
 10
148.6574484053
 20
177.1318011257
 30
0.0
 40
0.2060293958575699
  0
CIRCLE
  5
30F
330
1F
100
AcDbEntity
  8
0
  6
Continuous
 62
     7
370
    15
100
AcDbCircle
 10
168.6574484053
 20
115.1318011257
 30
0.0
 40
0.2060293958575983
  0
CIRCLE
  5
310
330
1F
100
AcDbEntity
  8
0
  6
Continuous
 62
     7
370
    15
100
AcDbCircle
 10
179.6574484053
 20
146.1318011257
 30
0.0
 40
0.2060293958575983
  0
CIRCLE
  5
311
330
1F
100
AcDbEntity
  8
0
  6
Continuous
 62
     7
370
    15
100
AcDbCircle
 10
176.4574484053
 20
118.6318011257
 30
0.0
 40
0.3060293958575642
  0
CIRCLE
  5
312
330
1F
100
AcDbEntity
  8
0
  6
Continuous
 62
     7
370
    15
100
AcDbCircle
 10
137.6574484053
 20
166.1318011257
 30
0.0
 40
0.2060293958575983
  0
CIRCLE
  5
313
330
1F
100
AcDbEntity
  8
0
  6
Continuous
 62
     7
370
    15
100
AcDbCircle
 10
140.8574484053
 20
118.6318011257
 30
0.0
 40
0.3060293958575926
  0
CIRCLE
  5
314
330
1F
100
AcDbEntity
  8
0
  6
Continuous
 62
     7
370
    15
100
AcDbCircle
 10
140.8574484053
 20
173.6318011257
 30
0.0
 40
0.3060293958575926
  0
CIRCLE
  5
315
330
1F
100
AcDbEntity
  8
0
  6
Continuous
 62
     7
370
    15
100
AcDbCircle
 10
137.6574484053
 20
126.1318011257
 30
0.0
 40
0.2060293958575983
  0
CIRCLE
  5
316
330
1F
100
AcDbEntity
  8
0
  6
Continuous
 62
     7
370
    15
100
AcDbCircle
 10
158.6574484053
 20
115.1318011257
 30
0.0
 40
0.2060293958575841
  0
LINE
  5
317
330
1F
100
AcDbEntity
  8
0
  6
Continuous
 62
     7
370
    15
100
AcDbLine
 10
115.6304099959
 20
155.1318014833
 30
0.0
 11
116.0304108065
 21
155.2389810655
 31
0.0
  0
LINE
  5
318
330
1F
100
AcDbEntity
  8
0
  6
Continuous
 62
     7
370
    15
100
AcDbLine
 10
116.0304108065
 20
157.024621484
 30
0.0
 11
115.6304099959
 21
157.1318010661
 31
0.0
  0
LINE
  5
319
330
1F
100
AcDbEntity
  8
0
  6
Continuous
 62
     7
370
    15
100
AcDbLine
 10
115.6304099959
 20
125.1318017814
 30
0.0
 11
116.0304108065
 21
125.2389813635
 31
0.0
  0
LINE
  5
31A
330
1F
100
AcDbEntity
  8
0
  6
Continuous
 62
     7
370
    15
100
AcDbLine
 10
116.0304108065
 20
127.024621782
 30
0.0
 11
115.6304099959
 21
127.1318013641
 31
0.0
  0
LINE
  5
31B
330
1F
100
AcDbEntity
  8
0
  6
Continuous
 62
     7
370
    15
100
AcDbLine
 10
115.6304099959
 20
135.1318011853
 30
0.0
 11
116.0304108065
 21
135.2389807674
 31
0.0
  0
LINE
  5
31C
330
1F
100
AcDbEntity
  8
0
  6
Continuous
 62
     7
370
    15
100
AcDbLine
 10
116.0304108065
 20
137.024621186
 30
0.0
 11
115.6304099959
 21
137.1318007681
 31
0.0
  0
LINE
  5
31D
330
1F
100
AcDbEntity
  8
0
  6
Continuous
 62
     7
370
    15
100
AcDbLine
 10
115.6304099959
 20
165.1318008873
 30
0.0
 11
116.0304108065
 21
165.2389804694
 31
0.0
  0
LINE
  5
31E
330
1F
100
AcDbEntity
  8
0
  6
Continuous
 62
     7
370
    15
100
AcDbLine
 10
116.0304108065
 20
167.0246208879
 30
0.0
 11
115.6304099959
 21
167.1318004701
 31
0.0
  0
LINE
  5
31F
330
1F
100
AcDbEntity
  8
0
  6
Continuous
 62
     7
370
    15
100
AcDbLine
 10
115.6304099959
 20
145.1318011481
 30
0.0
 11
116.0304108065
 21
145.2389808233
 31
0.0
  0
LINE
  5
320
330
1F
100
AcDbEntity
  8
0
  6
Continuous
 62
     7
370
    15
100
AcDbLine
 10
116.0304108065
 20
147.0246214281
 30
0.0
 11
115.6304099959
 21
147.1318011034
 31
0.0
  0
LINE
  5
321
330
1F
100
AcDbEntity
  8
0
  6
Continuous
 62
     7
370
    15
100
AcDbLine
 10
115.6304099959
 20
172.4318022701
 30
0.0
 11
116.0304108065
 21
172.5389803621
 31
0.0
  0
LINE
  5
322
330
1F
100
AcDbEntity
  8
0
  6
Continuous
 62
     7
370
    15
100
AcDbLine
 10
116.0304108065
 20
174.7246201012
 30
0.0
 11
115.6304099959
 21
174.8318011734
 31
0.0
  0
LINE
  5
323
330
1F
100
AcDbEntity
  8
0
  6
Continuous
 62
     7
370
    15
100
AcDbLine
 10
115.6304099959
 20
117.431801078
 30
0.0
 11
116.0304108065
 21
117.5389821503
 31
0.0
  0
LINE
  5
324
330
1F
100
AcDbEntity
  8
0
  6
Continuous
 62
     7
370
    15
100
AcDbLine
 10
116.0304108065
 20
119.7246218893
 30
0.0
 11
115.6304099959
 21
119.8317999813
 31
0.0
  0
LINE
  5
325
330
1F
100
AcDbEntity
  8
0
  6
Continuous
 62
     7
370
    15
100
AcDbLine
 10
93.0704105076
 20
180.6067432138
 30
0.0
 11
93.0704105076
 21
181.106665251
 31
0.0
  0
LINE
  5
326
330
1F
100
AcDbEntity
  8
0
  6
Continuous
 62
     7
370
    15
100
AcDbLine
 10
93.0704105076
 20
180.6067432138
 30
0.0
 11
91.6304105323
 21
180.6318784925
 31
0.0
  0
LINE
  5
327
330
1F
100
AcDbEntity
  8
0
  6
Continuous
 62
     7
370
    15
100
AcDbLine
 10
91.6304105323
 20
181.1318005297
 30
0.0
 11
91.6304105323
 21
180.6318784925
 31
0.0
  0
LINE
  5
328
330
1F
100
AcDbEntity
  8
0
  6
Continuous
 62
     7
370
    15
100
AcDbLine
 10
93.0704105076
 20
181.106665251
 30
0.0
 11
91.6304105323
 21
181.1318005297
 31
0.0
  0
LINE
  5
329
330
1F
100
AcDbEntity
  8
0
  6
Continuous
 62
     7
370
    15
100
AcDbLine
 10
93.0704105076
 20
111.6568590376
 30
0.0
 11
93.0704105076
 21
111.1569370005
 31
0.0
  0
LINE
  5
32A
330
1F
100
AcDbEntity
  8
0
  6
Continuous
 62
     7
370
    15
100
AcDbLine
 10
93.0704105076
 20
111.1569370005
 30
0.0
 11
91.6304105323
 21
111.1318017217
 31
0.0
  0
LINE
  5
32B
330
1F
100
AcDbEntity
  8
0
  6
Continuous
 62
     7
370
    15
100
AcDbLine
 10
91.6304105323
 20
111.1318017217
 30
0.0
 11
91.6304105323
 21
111.6317237589
 31
0.0
  0
LINE
  5
32C
330
1F
100
AcDbEntity
  8
0
  6
Continuous
 62
     7
370
    15
100
AcDbLine
 10
93.0704105076
 20
111.6568590376
 30
0.0
 11
91.6304105323
 21
111.6317237589
 31
0.0
  0
LINE
  5
32D
330
1F
100
AcDbEntity
  8
0
  6
Continuous
 62
     7
370
    15
100
AcDbLine
 10
93.0704105076
 20
180.6067432138
 30
0.0
 11
93.0704105076
 21
111.6568590376
 31
0.0
  0
LINE
  5
32E
330
1F
100
AcDbEntity
  8
0
  6
Continuous
 62
     7
370
    15
100
AcDbLine
 10
91.6304105323
 20
111.6317237589
 30
0.0
 11
91.6304105323
 21
180.6318784925
 31
0.0
  0
LINE
  5
32F
330
1F
100
AcDbEntity
  8
0
  6
Continuous
 62
     7
370
    15
100
AcDbLine
 10
115.6304099959
 20
180.4223651859
 30
0.0
 11
93.0704105076
 21
180.6192423078
 31
0.0
  0
LINE
  5
330
330
1F
100
AcDbEntity
  8
0
  6
Continuous
 62
     7
370
    15
100
AcDbLine
 10
115.6304099959
 20
180.6223566505
 30
0.0
 11
93.0704105076
 21
180.8192337725
 31
0.0
  0
LINE
  5
331
330
1F
100
AcDbEntity
  8
0
  6
Continuous
 62
     7
370
    15
100
AcDbLine
 10
115.6304099959
 20
180.4223651859
 30
0.0
 11
115.6304099959
 21
180.6223566505
 31
0.0
  0
LINE
  5
332
330
1F
100
AcDbEntity
  8
0
  6
Continuous
 62
     7
370
    15
100
AcDbLine
 10
115.6304099959
 20
111.8412370655
 30
0.0
 11
93.0704105076
 21
111.6443599436
 31
0.0
  0
LINE
  5
333
330
1F
100
AcDbEntity
  8
0
  6
Continuous
 62
     7
370
    15
100
AcDbLine
 10
115.6304099959
 20
111.8412370655
 30
0.0
 11
115.6304099959
 21
111.6412456009
 31
0.0
  0
LINE
  5
334
330
1F
100
AcDbEntity
  8
0
  6
Continuous
 62
     7
370
    15
100
AcDbLine
 10
115.6304099959
 20
111.6412456009
 30
0.0
 11
93.0704105076
 21
111.444368479
 31
0.0
  0
LINE
  5
335
330
1F
100
AcDbEntity
  8
0
  6
Continuous
 62
     7
370
    15
100
AcDbLine
 10
115.6304099959
 20
180.4223651859
 30
0.0
 11
115.6304099959
 21
177.9185558531
 31
0.0
  0
LINE
  5
336
330
1F
100
AcDbEntity
  8
0
  6
Continuous
 62
     7
370
    15
100
AcDbLine
 10
93.0704105076
 20
177.8370077583
 30
0.0
 11
115.6304099959
 21
177.9185558531
 31
0.0
  0
LINE
  5
337
330
1F
100
AcDbEntity
  8
0
  6
Continuous
 62
     7
370
    15
100
AcDbLine
 10
93.0704105076
 20
114.4265944931
 30
0.0
 11
115.6304099959
 21
114.3450463983
 31
0.0
  0
LINE
  5
338
330
1F
100
AcDbEntity
  8
0
  6
Continuous
 62
     7
370
    15
100
AcDbLine
 10
115.6304099959
 20
111.8412370655
 30
0.0
 11
115.6304099959
 21
114.3450463983
 31
0.0
  0
LINE
  5
339
330
1F
100
AcDbEntity
  8
0
  6
Continuous
 62
     7
370
    15
100
AcDbLine
 10
115.6304099959
 20
114.7650475475
 30
0.0
 11
115.6304099959
 21
114.3450463983
 31
0.0
  0
LINE
  5
33A
330
1F
100
AcDbEntity
  8
0
  6
Continuous
 62
     7
370
    15
100
AcDbLine
 10
93.0704105076
 20
114.8465956423
 30
0.0
 11
115.6304099959
 21
114.7650475475
 31
0.0
  0
LINE
  5
33B
330
1F
100
AcDbEntity
  8
0
  6
Continuous
 62
     7
370
    15
100
AcDbLine
 10
115.6304099959
 20
177.4985547039
 30
0.0
 11
115.6304099959
 21
177.9185558531
 31
0.0
  0
LINE
  5
33C
330
1F
100
AcDbEntity
  8
0
  6
Continuous
 62
     7
370
    15
100
AcDbLine
 10
93.0704105076
 20
177.4170066091
 30
0.0
 11
115.6304099959
 21
177.4985547039
 31
0.0
  0
LINE
  5
33D
330
1F
100
AcDbEntity
  8
0
  6
Continuous
 62
     7
370
    15
100
AcDbLine
 10
115.6304099959
 20
177.4985547039
 30
0.0
 11
115.6304099959
 21
114.7650475475
 31
0.0
  0
LINE
  5
33E
330
1F
100
AcDbEntity
  8
0
  6
Continuous
 62
     7
370
    15
100
AcDbLine
 10
91.6304105323
 20
179.94542968
 30
0.0
 11
91.0304105271
 21
179.7846610519
 31
0.0
  0
LINE
  5
33F
330
1F
100
AcDbEntity
  8
0
  6
Continuous
 62
     7
370
    15
100
AcDbLine
 10
91.0304105271
 20
180.1710302803
 30
0.0
 11
91.0304105271
 21
179.7846610519
 31
0.0
  0
LINE
  5
340
330
1F
100
AcDbEntity
  8
0
  6
Continuous
 62
     7
370
    15
100
AcDbLine
 10
91.6304105323
 20
180.3318018886
 30
0.0
 11
91.0304105271
 21
180.1710302803
 31
0.0
  0
LINE
  5
341
330
1F
100
AcDbEntity
  8
0
  6
Continuous
 62
     7
370
    15
100
AcDbLine
 10
91.6304105323
 20
112.3181725714
 30
0.0
 11
91.0304105271
 21
112.4789411995
 31
0.0
  0
LINE
  5
342
330
1F
100
AcDbEntity
  8
0
  6
Continuous
 62
     7
370
    15
100
AcDbLine
 10
91.6304105323
 20
111.9318003628
 30
0.0
 11
91.0304105271
 21
112.0925719711
 31
0.0
  0
LINE
  5
343
330
1F
100
AcDbEntity
  8
0
  6
Continuous
 62
     7
370
    15
100
AcDbLine
 10
91.0304105271
 20
112.0925719711
 30
0.0
 11
91.0304105271
 21
112.4789411995
 31
0.0
  0
LINE
  5
344
330
1F
100
AcDbEntity
  8
0
  6
Continuous
 62
     7
370
    15
100
AcDbLine
 10
91.0304105271
 20
112.4789411995
 30
0.0
 11
91.0304105271
 21
179.7846610519
 31
0.0
  0
LINE
  5
345
330
1F
100
AcDbEntity
  8
0
  6
Continuous
 62
     7
370
    15
100
AcDbLine
 10
115.6304099959
 20
175.7318015072
 30
0.0
 11
116.0304108065
 21
175.7318015072
 31
0.0
  0
LINE
  5
346
330
1F
100
AcDbEntity
  8
0
  6
Continuous
 62
     7
370
    15
100
AcDbLine
 10
115.6304099959
 20
175.231801984
 30
0.0
 11
116.0304108065
 21
175.231801984
 31
0.0
  0
LINE
  5
347
330
1F
100
AcDbEntity
  8
0
  6
Continuous
 62
     7
370
    15
100
AcDbLine
 10
116.0304108065
 20
175.231801984
 30
0.0
 11
116.0304108065
 21
175.7318015072
 31
0.0
  0
LINE
  5
348
330
1F
100
AcDbEntity
  8
0
  6
Continuous
 62
     7
370
    15
100
AcDbLine
 10
115.6304099959
 20
117.0318002674
 30
0.0
 11
116.0304108065
 21
117.0318002674
 31
0.0
  0
LINE
  5
349
330
1F
100
AcDbEntity
  8
0
  6
Continuous
 62
     7
370
    15
100
AcDbLine
 10
116.0304108065
 20
117.0318002674
 30
0.0
 11
116.0304108065
 21
116.5318007442
 31
0.0
  0
LINE
  5
34A
330
1F
100
AcDbEntity
  8
0
  6
Continuous
 62
     7
370
    15
100
AcDbLine
 10
115.6304099959
 20
116.5318007442
 30
0.0
 11
116.0304108065
 21
116.5318007442
 31
0.0
  0
LINE
  5
34B
330
1F
100
AcDbEntity
  8
0
  6
Continuous
 62
     7
370
    15
100
AcDbLine
 10
116.0304108065
 20
155.2389810655
 30
0.0
 11
116.0304108065
 21
157.024621484
 31
0.0
  0
LINE
  5
34C
330
1F
100
AcDbEntity
  8
0
  6
Continuous
 62
     7
370
    15
100
AcDbLine
 10
116.0304108065
 20
127.024621782
 30
0.0
 11
116.0304108065
 21
125.2389813635
 31
0.0
  0
LINE
  5
34D
330
1F
100
AcDbEntity
  8
0
  6
Continuous
 62
     7
370
    15
100
AcDbLine
 10
116.0304108065
 20
137.024621186
 30
0.0
 11
116.0304108065
 21
135.2389807674
 31
0.0
  0
LINE
  5
34E
330
1F
100
AcDbEntity
  8
0
  6
Continuous
 62
     7
370
    15
100
AcDbLine
 10
116.0304108065
 20
165.2389804694
 30
0.0
 11
116.0304108065
 21
167.0246208879
 31
0.0
  0
LINE
  5
34F
330
1F
100
AcDbEntity
  8
0
  6
Continuous
 62
     7
370
    15
100
AcDbLine
 10
116.0304108065
 20
146.1318011257
 30
0.0
 11
116.0304108065
 21
145.2389808233
 31
0.0
  0
LINE
  5
350
330
1F
100
AcDbEntity
  8
0
  6
Continuous
 62
     7
370
    15
100
AcDbLine
 10
116.0304108065
 20
147.0246214281
 30
0.0
 11
116.0304108065
 21
146.1318011257
 31
0.0
  0
LINE
  5
351
330
1F
100
AcDbEntity
  8
0
  6
Continuous
 62
     7
370
    15
100
AcDbLine
 10
115.6304099959
 20
115.0118495199
 30
0.0
 11
116.0304108065
 21
115.0118495199
 31
0.0
  0
LINE
  5
352
330
1F
100
AcDbEntity
  8
0
  6
Continuous
 62
     7
370
    15
100
AcDbLine
 10
116.0304108065
 20
116.5318007442
 30
0.0
 11
116.0304108065
 21
115.0118495199
 31
0.0
  0
LINE
  5
353
330
1F
100
AcDbEntity
  8
0
  6
Continuous
 62
     7
370
    15
100
AcDbLine
 10
115.6304099959
 20
177.2517527315
 30
0.0
 11
116.0304108065
 21
177.2517527315
 31
0.0
  0
LINE
  5
354
330
1F
100
AcDbEntity
  8
0
  6
Continuous
 62
     7
370
    15
100
AcDbLine
 10
116.0304108065
 20
175.7318015072
 30
0.0
 11
116.0304108065
 21
177.2517527315
 31
0.0
  0
LINE
  5
355
330
1F
100
AcDbEntity
  8
0
  6
Continuous
 62
     7
370
    15
100
AcDbLine
 10
115.6304099959
 20
179.2517508242
 30
0.0
 11
116.0304108065
 21
179.2517508242
 31
0.0
  0
LINE
  5
356
330
1F
100
AcDbEntity
  8
0
  6
Continuous
 62
     7
370
    15
100
AcDbLine
 10
116.0304108065
 20
177.2517527315
 30
0.0
 11
116.0304108065
 21
179.2517508242
 31
0.0
  0
LINE
  5
357
330
1F
100
AcDbEntity
  8
0
  6
Continuous
 62
     7
370
    15
100
AcDbLine
 10
115.6304099959
 20
113.0118514273
 30
0.0
 11
116.0304108065
 21
113.0118514273
 31
0.0
  0
LINE
  5
358
330
1F
100
AcDbEntity
  8
0
  6
Continuous
 62
     7
370
    15
100
AcDbLine
 10
116.0304108065
 20
115.0118495199
 30
0.0
 11
116.0304108065
 21
113.0118514273
 31
0.0
  0
LINE
  5
359
330
1F
100
AcDbEntity
  8
0
  6
Continuous
 62
     7
370
    15
100
AcDbLine
 10
116.0304108065
 20
172.5389803621
 30
0.0
 11
116.0304108065
 21
174.7246201012
 31
0.0
  0
LINE
  5
35A
330
1F
100
AcDbEntity
  8
0
  6
Continuous
 62
     7
370
    15
100
AcDbLine
 10
116.0304108065
 20
119.7246218893
 30
0.0
 11
116.0304108065
 21
117.5389821503
 31
0.0
  0
LINE
  5
35B
330
1F
100
AcDbEntity
  8
0
  6
Continuous
 62
     7
370
    15
100
AcDbLine
 10
147.6574484649
 20
198.2527232124
 30
0.0
 11
147.764628047
 21
197.8527224018
 31
0.0
  0
LINE
  5
35C
330
1F
100
AcDbEntity
  8
0
  6
Continuous
 62
     7
370
    15
100
AcDbLine
 10
149.5502684655
 20
197.8527224018
 30
0.0
 11
149.6574480476
 21
198.2527232124
 31
0.0
  0
LINE
  5
35D
330
1F
100
AcDbEntity
  8
0
  6
Continuous
 62
     7
370
    15
100
AcDbLine
 10
167.6574487629
 20
198.2527232124
 30
0.0
 11
167.764628345
 21
197.8527224018
 31
0.0
  0
LINE
  5
35E
330
1F
100
AcDbEntity
  8
0
  6
Continuous
 62
     7
370
    15
100
AcDbLine
 10
169.5502687635
 20
197.8527224018
 30
0.0
 11
169.6574483456
 21
198.2527232124
 31
0.0
  0
LINE
  5
35F
330
1F
100
AcDbEntity
  8
0
  6
Continuous
 62
     7
370
    15
100
AcDbLine
 10
157.6574484276
 20
198.2527232124
 30
0.0
 11
157.7646281029
 21
197.8527224018
 31
0.0
  0
LINE
  5
360
330
1F
100
AcDbEntity
  8
0
  6
Continuous
 62
     7
370
    15
100
AcDbLine
 10
159.5502687077
 20
197.8527224018
 30
0.0
 11
159.6574483829
 21
198.2527232124
 31
0.0
  0
LINE
  5
361
330
1F
100
AcDbEntity
  8
0
  6
Continuous
 62
     7
370
    15
100
AcDbLine
 10
175.2574477734
 20
198.2527232124
 30
0.0
 11
175.3646273556
 21
197.8527224018
 31
0.0
  0
LINE
  5
362
330
1F
100
AcDbEntity
  8
0
  6
Continuous
 62
     7
370
    15
100
AcDbLine
 10
177.5502685847
 20
197.8527224018
 30
0.0
 11
177.6574481668
 21
198.2527232124
 31
0.0
  0
LINE
  5
363
330
1F
100
AcDbEntity
  8
0
  6
Continuous
 62
     7
370
    15
100
AcDbLine
 10
139.6574486437
 20
198.2527232124
 30
0.0
 11
139.7646282258
 21
197.8527224018
 31
0.0
  0
LINE
  5
364
330
1F
100
AcDbEntity
  8
0
  6
Continuous
 62
     7
370
    15
100
AcDbLine
 10
141.9502694549
 20
197.8527224018
 30
0.0
 11
142.0574490371
 21
198.2527232124
 31
0.0
  0
LINE
  5
365
330
1F
100
AcDbEntity
  8
0
  6
Continuous
 62
     7
370
    15
100
AcDbLine
 10
133.8825840893
 20
220.8127227007
 30
0.0
 11
134.3825076165
 21
220.8127227007
 31
0.0
  0
LINE
  5
366
330
1F
100
AcDbEntity
  8
0
  6
Continuous
 62
     7
370
    15
100
AcDbLine
 10
133.8825840893
 20
220.8127227007
 30
0.0
 11
133.8574488106
 21
222.2527226759
 31
0.0
  0
LINE
  5
367
330
1F
100
AcDbEntity
  8
0
  6
Continuous
 62
     7
370
    15
100
AcDbLine
 10
134.3573723378
 20
222.2527226759
 30
0.0
 11
133.8574488106
 21
222.2527226759
 31
0.0
  0
LINE
  5
368
330
1F
100
AcDbEntity
  8
0
  6
Continuous
 62
     7
370
    15
100
AcDbLine
 10
134.3825076165
 20
220.8127227007
 30
0.0
 11
134.3573723378
 21
222.2527226759
 31
0.0
  0
LINE
  5
369
330
1F
100
AcDbEntity
  8
0
  6
Continuous
 62
     7
370
    15
100
AcDbLine
 10
183.4323127212
 20
220.8127227007
 30
0.0
 11
182.932389194
 21
220.8127227007
 31
0.0
  0
LINE
  5
36A
330
1F
100
AcDbEntity
  8
0
  6
Continuous
 62
     7
370
    15
100
AcDbLine
 10
182.932389194
 20
220.8127227007
 30
0.0
 11
182.9575244727
 21
222.2527226759
 31
0.0
  0
LINE
  5
36B
330
1F
100
AcDbEntity
  8
0
  6
Continuous
 62
     7
370
    15
100
AcDbLine
 10
182.9575244727
 20
222.2527226759
 30
0.0
 11
183.4574479999
 21
222.2527226759
 31
0.0
  0
LINE
  5
36C
330
1F
100
AcDbEntity
  8
0
  6
Continuous
 62
     7
370
    15
100
AcDbLine
 10
183.4323127212
 20
220.8127227007
 30
0.0
 11
183.4574479999
 21
222.2527226759
 31
0.0
  0
LINE
  5
36D
330
1F
100
AcDbEntity
  8
0
  6
Continuous
 62
     7
370
    15
100
AcDbLine
 10
182.932389194
 20
220.8127227007
 30
0.0
 11
134.3825076165
 21
220.8127227007
 31
0.0
  0
LINE
  5
36E
330
1F
100
AcDbEntity
  8
0
  6
Continuous
 62
     7
370
    15
100
AcDbLine
 10
134.3573723378
 20
222.2527226759
 30
0.0
 11
182.9575244727
 21
222.2527226759
 31
0.0
  0
LINE
  5
36F
330
1F
100
AcDbEntity
  8
0
  6
Continuous
 62
     7
370
    15
100
AcDbLine
 10
182.9480041208
 20
198.2527232124
 30
0.0
 11
183.1448812427
 21
220.8127227007
 31
0.0
  0
LINE
  5
370
330
1F
100
AcDbEntity
  8
0
  6
Continuous
 62
     7
370
    15
100
AcDbLine
 10
182.9480041208
 20
198.2527232124
 30
0.0
 11
182.7480111661
 21
198.2527232124
 31
0.0
  0
LINE
  5
371
330
1F
100
AcDbEntity
  8
0
  6
Continuous
 62
     7
370
    15
100
AcDbLine
 10
182.7480111661
 20
198.2527232124
 30
0.0
 11
182.9448897781
 21
220.8127227007
 31
0.0
  0
LINE
  5
372
330
1F
100
AcDbEntity
  8
0
  6
Continuous
 62
     7
370
    15
100
AcDbLine
 10
134.3668926897
 20
198.2527232124
 30
0.0
 11
134.1700155678
 21
220.8127227007
 31
0.0
  0
LINE
  5
373
330
1F
100
AcDbEntity
  8
0
  6
Continuous
 62
     7
370
    15
100
AcDbLine
 10
134.5668856444
 20
198.2527232124
 30
0.0
 11
134.3700070324
 21
220.8127227007
 31
0.0
  0
LINE
  5
374
330
1F
100
AcDbEntity
  8
0
  6
Continuous
 62
     7
370
    15
100
AcDbLine
 10
134.3668926897
 20
198.2527232124
 30
0.0
 11
134.5668856444
 21
198.2527232124
 31
0.0
  0
LINE
  5
375
330
1F
100
AcDbEntity
  8
0
  6
Continuous
 62
     7
370
    15
100
AcDbLine
 10
137.152243072
 20
220.8127227007
 30
0.0
 11
137.0706934872
 21
198.2527232124
 31
0.0
  0
LINE
  5
376
330
1F
100
AcDbEntity
  8
0
  6
Continuous
 62
     7
370
    15
100
AcDbLine
 10
134.5668856444
 20
198.2527232124
 30
0.0
 11
137.0706934872
 21
198.2527232124
 31
0.0
  0
LINE
  5
377
330
1F
100
AcDbEntity
  8
0
  6
Continuous
 62
     7
370
    15
100
AcDbLine
 10
182.7480111661
 20
198.2527232124
 30
0.0
 11
180.2442033234
 21
198.2527232124
 31
0.0
  0
LINE
  5
378
330
1F
100
AcDbEntity
  8
0
  6
Continuous
 62
     7
370
    15
100
AcDbLine
 10
180.1626537385
 20
220.8127227007
 30
0.0
 11
180.2442033234
 21
198.2527232124
 31
0.0
  0
LINE
  5
379
330
1F
100
AcDbEntity
  8
0
  6
Continuous
 62
     7
370
    15
100
AcDbLine
 10
180.2442033234
 20
198.2527232124
 30
0.0
 11
179.8242036643
 21
198.2527232124
 31
0.0
  0
LINE
  5
37A
330
1F
100
AcDbEntity
  8
0
  6
Continuous
 62
     7
370
    15
100
AcDbLine
 10
179.7426540794
 20
220.8127227007
 30
0.0
 11
179.8242036643
 21
198.2527232124
 31
0.0
  0
LINE
  5
37B
330
1F
100
AcDbEntity
  8
0
  6
Continuous
 62
     7
370
    15
100
AcDbLine
 10
137.0706934872
 20
198.2527232124
 30
0.0
 11
137.4906931462
 21
198.2527232124
 31
0.0
  0
LINE
  5
37C
330
1F
100
AcDbEntity
  8
0
  6
Continuous
 62
     7
370
    15
100
AcDbLine
 10
137.5722427311
 20
220.8127227007
 30
0.0
 11
137.4906931462
 21
198.2527232124
 31
0.0
  0
LINE
  5
37D
330
1F
100
AcDbEntity
  8
0
  6
Continuous
 62
     7
370
    15
100
AcDbLine
 10
179.8242036643
 20
198.2527232124
 30
0.0
 11
137.4906931462
 21
198.2527232124
 31
0.0
  0
LINE
  5
37E
330
1F
100
AcDbEntity
  8
0
  6
Continuous
 62
     7
370
    15
100
AcDbLine
 10
182.6574478688
 20
222.2527226759
 30
0.0
 11
182.4966792407
 21
222.8527226812
 31
0.0
  0
LINE
  5
37F
330
1F
100
AcDbEntity
  8
0
  6
Continuous
 62
     7
370
    15
100
AcDbLine
 10
182.2710786404
 20
222.2527226759
 30
0.0
 11
182.1103085222
 21
222.8527226812
 31
0.0
  0
LINE
  5
380
330
1F
100
AcDbEntity
  8
0
  6
Continuous
 62
     7
370
    15
100
AcDbLine
 10
182.1103085222
 20
222.8527226812
 30
0.0
 11
182.4966792407
 21
222.8527226812
 31
0.0
  0
LINE
  5
381
330
1F
100
AcDbEntity
  8
0
  6
Continuous
 62
     7
370
    15
100
AcDbLine
 10
134.6574489417
 20
222.2527226759
 30
0.0
 11
134.8182175698
 21
222.8527226812
 31
0.0
  0
LINE
  5
382
330
1F
100
AcDbEntity
  8
0
  6
Continuous
 62
     7
370
    15
100
AcDbLine
 10
135.2045882883
 20
222.8527226812
 30
0.0
 11
134.8182175698
 21
222.8527226812
 31
0.0
  0
LINE
  5
383
330
1F
100
AcDbEntity
  8
0
  6
Continuous
 62
     7
370
    15
100
AcDbLine
 10
135.0438181701
 20
222.2527226759
 30
0.0
 11
135.2045882883
 21
222.8527226812
 31
0.0
  0
LINE
  5
384
330
1F
100
AcDbEntity
  8
0
  6
Continuous
 62
     7
370
    15
100
AcDbLine
 10
135.2045882883
 20
222.8527226812
 30
0.0
 11
182.1103085222
 21
222.8527226812
 31
0.0
  0
LINE
  5
385
330
1F
100
AcDbEntity
  8
0
  6
Continuous
 62
     7
370
    15
100
AcDbLine
 10
139.557448441
 20
198.2527232124
 30
0.0
 11
139.557448441
 21
197.8527224018
 31
0.0
  0
LINE
  5
386
330
1F
100
AcDbEntity
  8
0
  6
Continuous
 62
     7
370
    15
100
AcDbLine
 10
139.0574489179
 20
198.2527232124
 30
0.0
 11
139.0574489179
 21
197.8527224018
 31
0.0
  0
LINE
  5
387
330
1F
100
AcDbEntity
  8
0
  6
Continuous
 62
     7
370
    15
100
AcDbLine
 10
139.0574489179
 20
197.8527224018
 30
0.0
 11
139.557448441
 21
197.8527224018
 31
0.0
  0
LINE
  5
388
330
1F
100
AcDbEntity
  8
0
  6
Continuous
 62
     7
370
    15
100
AcDbLine
 10
177.7574483695
 20
198.2527232124
 30
0.0
 11
177.7574483695
 21
197.8527224018
 31
0.0
  0
LINE
  5
389
330
1F
100
AcDbEntity
  8
0
  6
Continuous
 62
     7
370
    15
100
AcDbLine
 10
178.2574478927
 20
197.8527224018
 30
0.0
 11
177.7574483695
 21
197.8527224018
 31
0.0
  0
LINE
  5
38A
330
1F
100
AcDbEntity
  8
0
  6
Continuous
 62
     7
370
    15
100
AcDbLine
 10
178.2574478927
 20
198.2527232124
 30
0.0
 11
178.2574478927
 21
197.8527224018
 31
0.0
  0
LINE
  5
38B
330
1F
100
AcDbEntity
  8
0
  6
Continuous
 62
     7
370
    15
100
AcDbLine
 10
148.6574482562
 20
197.8527224018
 30
0.0
 11
149.5502684655
 21
197.8527224018
 31
0.0
  0
LINE
  5
38C
330
1F
100
AcDbEntity
  8
0
  6
Continuous
 62
     7
370
    15
100
AcDbLine
 10
147.764628047
 20
197.8527224018
 30
0.0
 11
148.6574482562
 21
197.8527224018
 31
0.0
  0
LINE
  5
38D
330
1F
100
AcDbEntity
  8
0
  6
Continuous
 62
     7
370
    15
100
AcDbLine
 10
168.6574485543
 20
197.8527224018
 30
0.0
 11
167.764628345
 21
197.8527224018
 31
0.0
  0
LINE
  5
38E
330
1F
100
AcDbEntity
  8
0
  6
Continuous
 62
     7
370
    15
100
AcDbLine
 10
169.5502687635
 20
197.8527224018
 30
0.0
 11
168.6574485543
 21
197.8527224018
 31
0.0
  0
LINE
  5
38F
330
1F
100
AcDbEntity
  8
0
  6
Continuous
 62
     7
370
    15
100
AcDbLine
 10
157.7646281029
 20
197.8527224018
 30
0.0
 11
159.5502687077
 21
197.8527224018
 31
0.0
  0
LINE
  5
390
330
1F
100
AcDbEntity
  8
0
  6
Continuous
 62
     7
370
    15
100
AcDbLine
 10
137.5369672122
 20
198.2527232124
 30
0.0
 11
137.5369672122
 21
197.8527224018
 31
0.0
  0
LINE
  5
391
330
1F
100
AcDbEntity
  8
0
  6
Continuous
 62
     7
370
    15
100
AcDbLine
 10
137.5369672122
 20
197.8527224018
 30
0.0
 11
139.0574489179
 21
197.8527224018
 31
0.0
  0
LINE
  5
392
330
1F
100
AcDbEntity
  8
0
  6
Continuous
 62
     7
370
    15
100
AcDbLine
 10
179.7779295983
 20
198.2527232124
 30
0.0
 11
179.7779295983
 21
197.8527224018
 31
0.0
  0
LINE
  5
393
330
1F
100
AcDbEntity
  8
0
  6
Continuous
 62
     7
370
    15
100
AcDbLine
 10
179.7779295983
 20
197.8527224018
 30
0.0
 11
178.2574478927
 21
197.8527224018
 31
0.0
  0
LINE
  5
394
330
1F
100
AcDbEntity
  8
0
  6
Continuous
 62
     7
370
    15
100
AcDbLine
 10
135.5369661393
 20
198.2527232124
 30
0.0
 11
135.5369661393
 21
197.8527224018
 31
0.0
  0
LINE
  5
395
330
1F
100
AcDbEntity
  8
0
  6
Continuous
 62
     7
370
    15
100
AcDbLine
 10
135.5369661393
 20
197.8527224018
 30
0.0
 11
137.5369672122
 21
197.8527224018
 31
0.0
  0
LINE
  5
396
330
1F
100
AcDbEntity
  8
0
  6
Continuous
 62
     7
370
    15
100
AcDbLine
 10
181.7779306712
 20
198.2527232124
 30
0.0
 11
181.7779306712
 21
197.8527224018
 31
0.0
  0
LINE
  5
397
330
1F
100
AcDbEntity
  8
0
  6
Continuous
 62
     7
370
    15
100
AcDbLine
 10
181.7779306712
 20
197.8527224018
 30
0.0
 11
179.7779295983
 21
197.8527224018
 31
0.0
  0
LINE
  5
398
330
1F
100
AcDbEntity
  8
0
  6
Continuous
 62
     7
370
    15
100
AcDbLine
 10
176.4574487152
 20
197.8527224018
 30
0.0
 11
175.3646273556
 21
197.8527224018
 31
0.0
  0
LINE
  5
399
330
1F
100
AcDbEntity
  8
0
  6
Continuous
 62
     7
370
    15
100
AcDbLine
 10
177.5502685847
 20
197.8527224018
 30
0.0
 11
176.4574487152
 21
197.8527224018
 31
0.0
  0
LINE
  5
39A
330
1F
100
AcDbEntity
  8
0
  6
Continuous
 62
     7
370
    15
100
AcDbLine
 10
140.8574480953
 20
197.8527224018
 30
0.0
 11
141.9502694549
 21
197.8527224018
 31
0.0
  0
LINE
  5
39B
330
1F
100
AcDbEntity
  8
0
  6
Continuous
 62
     7
370
    15
100
AcDbLine
 10
139.7646282258
 20
197.8527224018
 30
0.0
 11
140.8574480953
 21
197.8527224018
 31
0.0
  0
LINE
  5
39C
330
1F
100
AcDbEntity
  8
0
  6
Continuous
 62
     7
370
    15
100
AcDbLine
 10
159.6574483829
 20
98.1789090578
 30
0.0
 11
159.5502687077
 21
98.5789098684
 31
0.0
  0
LINE
  5
39D
330
1F
100
AcDbEntity
  8
0
  6
Continuous
 62
     7
370
    15
100
AcDbLine
 10
157.7646281029
 20
98.5789098684
 30
0.0
 11
157.6574484276
 21
98.1789090578
 31
0.0
  0
LINE
  5
39E
330
1F
100
AcDbEntity
  8
0
  6
Continuous
 62
     7
370
    15
100
AcDbLine
 10
149.6574480476
 20
98.1789090578
 30
0.0
 11
149.5502684655
 21
98.5789098684
 31
0.0
  0
LINE
  5
39F
330
1F
100
AcDbEntity
  8
0
  6
Continuous
 62
     7
370
    15
100
AcDbLine
 10
147.764628047
 20
98.5789098684
 30
0.0
 11
147.6574484649
 21
98.1789090578
 31
0.0
  0
LINE
  5
3A0
330
1F
100
AcDbEntity
  8
0
  6
Continuous
 62
     7
370
    15
100
AcDbLine
 10
169.6574483456
 20
98.1789090578
 30
0.0
 11
169.5502687635
 21
98.5789098684
 31
0.0
  0
LINE
  5
3A1
330
1F
100
AcDbEntity
  8
0
  6
Continuous
 62
     7
370
    15
100
AcDbLine
 10
167.764628345
 20
98.5789098684
 30
0.0
 11
167.6574487629
 21
98.1789090578
 31
0.0
  0
LINE
  5
3A2
330
1F
100
AcDbEntity
  8
0
  6
Continuous
 62
     7
370
    15
100
AcDbLine
 10
142.0574490371
 20
98.1789090578
 30
0.0
 11
141.9502694549
 21
98.5789098684
 31
0.0
  0
LINE
  5
3A3
330
1F
100
AcDbEntity
  8
0
  6
Continuous
 62
     7
370
    15
100
AcDbLine
 10
139.7646282258
 20
98.5789098684
 30
0.0
 11
139.6574486437
 21
98.1789090578
 31
0.0
  0
LINE
  5
3A4
330
1F
100
AcDbEntity
  8
0
  6
Continuous
 62
     7
370
    15
100
AcDbLine
 10
177.6574481668
 20
98.1789090578
 30
0.0
 11
177.5502685847
 21
98.5789098684
 31
0.0
  0
LINE
  5
3A5
330
1F
100
AcDbEntity
  8
0
  6
Continuous
 62
     7
370
    15
100
AcDbLine
 10
175.3646273556
 20
98.5789098684
 30
0.0
 11
175.2574477734
 21
98.1789090578
 31
0.0
  0
LINE
  5
3A6
330
1F
100
AcDbEntity
  8
0
  6
Continuous
 62
     7
370
    15
100
AcDbLine
 10
183.4323127212
 20
75.6189095695
 30
0.0
 11
182.932389194
 21
75.6189095695
 31
0.0
  0
LINE
  5
3A7
330
1F
100
AcDbEntity
  8
0
  6
Continuous
 62
     7
370
    15
100
AcDbLine
 10
183.4323127212
 20
75.6189095695
 30
0.0
 11
183.4574479999
 21
74.1789095942
 31
0.0
  0
LINE
  5
3A8
330
1F
100
AcDbEntity
  8
0
  6
Continuous
 62
     7
370
    15
100
AcDbLine
 10
182.9575244727
 20
74.1789095942
 30
0.0
 11
183.4574479999
 21
74.1789095942
 31
0.0
  0
LINE
  5
3A9
330
1F
100
AcDbEntity
  8
0
  6
Continuous
 62
     7
370
    15
100
AcDbLine
 10
182.932389194
 20
75.6189095695
 30
0.0
 11
182.9575244727
 21
74.1789095942
 31
0.0
  0
LINE
  5
3AA
330
1F
100
AcDbEntity
  8
0
  6
Continuous
 62
     7
370
    15
100
AcDbLine
 10
133.8825840893
 20
75.6189095695
 30
0.0
 11
134.3825076165
 21
75.6189095695
 31
0.0
  0
LINE
  5
3AB
330
1F
100
AcDbEntity
  8
0
  6
Continuous
 62
     7
370
    15
100
AcDbLine
 10
134.3825076165
 20
75.6189095695
 30
0.0
 11
134.3573723378
 21
74.1789095942
 31
0.0
  0
LINE
  5
3AC
330
1F
100
AcDbEntity
  8
0
  6
Continuous
 62
     7
370
    15
100
AcDbLine
 10
133.8825840893
 20
75.6189095695
 30
0.0
 11
133.8574488106
 21
74.1789095942
 31
0.0
  0
LINE
  5
3AD
330
1F
100
AcDbEntity
  8
0
  6
Continuous
 62
     7
370
    15
100
AcDbLine
 10
134.3573723378
 20
74.1789095942
 30
0.0
 11
133.8574488106
 21
74.1789095942
 31
0.0
  0
LINE
  5
3AE
330
1F
100
AcDbEntity
  8
0
  6
Continuous
 62
     7
370
    15
100
AcDbLine
 10
134.3825076165
 20
75.6189095695
 30
0.0
 11
182.932389194
 21
75.6189095695
 31
0.0
  0
LINE
  5
3AF
330
1F
100
AcDbEntity
  8
0
  6
Continuous
 62
     7
370
    15
100
AcDbLine
 10
182.9575244727
 20
74.1789095942
 30
0.0
 11
134.3573723378
 21
74.1789095942
 31
0.0
  0
LINE
  5
3B0
330
1F
100
AcDbEntity
  8
0
  6
Continuous
 62
     7
370
    15
100
AcDbLine
 10
182.9480041208
 20
98.1789090578
 30
0.0
 11
183.1448812427
 21
75.6189095695
 31
0.0
  0
LINE
  5
3B1
330
1F
100
AcDbEntity
  8
0
  6
Continuous
 62
     7
370
    15
100
AcDbLine
 10
182.7480111661
 20
98.1789090578
 30
0.0
 11
182.9448897781
 21
75.6189095695
 31
0.0
  0
LINE
  5
3B2
330
1F
100
AcDbEntity
  8
0
  6
Continuous
 62
     7
370
    15
100
AcDbLine
 10
182.9480041208
 20
98.1789090578
 30
0.0
 11
182.7480111661
 21
98.1789090578
 31
0.0
  0
LINE
  5
3B3
330
1F
100
AcDbEntity
  8
0
  6
Continuous
 62
     7
370
    15
100
AcDbLine
 10
134.3668926897
 20
98.1789090578
 30
0.0
 11
134.1700155678
 21
75.6189095695
 31
0.0
  0
LINE
  5
3B4
330
1F
100
AcDbEntity
  8
0
  6
Continuous
 62
     7
370
    15
100
AcDbLine
 10
134.3668926897
 20
98.1789090578
 30
0.0
 11
134.5668856444
 21
98.1789090578
 31
0.0
  0
LINE
  5
3B5
330
1F
100
AcDbEntity
  8
0
  6
Continuous
 62
     7
370
    15
100
AcDbLine
 10
134.5668856444
 20
98.1789090578
 30
0.0
 11
134.3700070324
 21
75.6189095695
 31
0.0
  0
LINE
  5
3B6
330
1F
100
AcDbEntity
  8
0
  6
Continuous
 62
     7
370
    15
100
AcDbLine
 10
134.5668856444
 20
98.1789090578
 30
0.0
 11
137.0706934872
 21
98.1789090578
 31
0.0
  0
LINE
  5
3B7
330
1F
100
AcDbEntity
  8
0
  6
Continuous
 62
     7
370
    15
100
AcDbLine
 10
137.152243072
 20
75.6189095695
 30
0.0
 11
137.0706934872
 21
98.1789090578
 31
0.0
  0
LINE
  5
3B8
330
1F
100
AcDbEntity
  8
0
  6
Continuous
 62
     7
370
    15
100
AcDbLine
 10
180.1626537385
 20
75.6189095695
 30
0.0
 11
180.2442033234
 21
98.1789090578
 31
0.0
  0
LINE
  5
3B9
330
1F
100
AcDbEntity
  8
0
  6
Continuous
 62
     7
370
    15
100
AcDbLine
 10
182.7480111661
 20
98.1789090578
 30
0.0
 11
180.2442033234
 21
98.1789090578
 31
0.0
  0
LINE
  5
3BA
330
1F
100
AcDbEntity
  8
0
  6
Continuous
 62
     7
370
    15
100
AcDbLine
 10
137.0706934872
 20
98.1789090578
 30
0.0
 11
137.4906931462
 21
98.1789090578
 31
0.0
  0
LINE
  5
3BB
330
1F
100
AcDbEntity
  8
0
  6
Continuous
 62
     7
370
    15
100
AcDbLine
 10
137.5722427311
 20
75.6189095695
 30
0.0
 11
137.4906931462
 21
98.1789090578
 31
0.0
  0
LINE
  5
3BC
330
1F
100
AcDbEntity
  8
0
  6
Continuous
 62
     7
370
    15
100
AcDbLine
 10
180.2442033234
 20
98.1789090578
 30
0.0
 11
179.8242036643
 21
98.1789090578
 31
0.0
  0
LINE
  5
3BD
330
1F
100
AcDbEntity
  8
0
  6
Continuous
 62
     7
370
    15
100
AcDbLine
 10
179.7426540794
 20
75.6189095695
 30
0.0
 11
179.8242036643
 21
98.1789090578
 31
0.0
  0
LINE
  5
3BE
330
1F
100
AcDbEntity
  8
0
  6
Continuous
 62
     7
370
    15
100
AcDbLine
 10
137.4906931462
 20
98.1789090578
 30
0.0
 11
179.8242036643
 21
98.1789090578
 31
0.0
  0
LINE
  5
3BF
330
1F
100
AcDbEntity
  8
0
  6
Continuous
 62
     7
370
    15
100
AcDbLine
 10
134.6574489417
 20
74.1789095942
 30
0.0
 11
134.8182175698
 21
73.578909589
 31
0.0
  0
LINE
  5
3C0
330
1F
100
AcDbEntity
  8
0
  6
Continuous
 62
     7
370
    15
100
AcDbLine
 10
135.0438181701
 20
74.1789095942
 30
0.0
 11
135.2045882883
 21
73.578909589
 31
0.0
  0
LINE
  5
3C1
330
1F
100
AcDbEntity
  8
0
  6
Continuous
 62
     7
370
    15
100
AcDbLine
 10
135.2045882883
 20
73.578909589
 30
0.0
 11
134.8182175698
 21
73.578909589
 31
0.0
  0
LINE
  5
3C2
330
1F
100
AcDbEntity
  8
0
  6
Continuous
 62
     7
370
    15
100
AcDbLine
 10
182.6574478688
 20
74.1789095942
 30
0.0
 11
182.4966792407
 21
73.578909589
 31
0.0
  0
LINE
  5
3C3
330
1F
100
AcDbEntity
  8
0
  6
Continuous
 62
     7
370
    15
100
AcDbLine
 10
182.1103085222
 20
73.578909589
 30
0.0
 11
182.4966792407
 21
73.578909589
 31
0.0
  0
LINE
  5
3C4
330
1F
100
AcDbEntity
  8
0
  6
Continuous
 62
     7
370
    15
100
AcDbLine
 10
182.2710786404
 20
74.1789095942
 30
0.0
 11
182.1103085222
 21
73.578909589
 31
0.0
  0
LINE
  5
3C5
330
1F
100
AcDbEntity
  8
0
  6
Continuous
 62
     7
370
    15
100
AcDbLine
 10
182.1103085222
 20
73.578909589
 30
0.0
 11
135.2045882883
 21
73.578909589
 31
0.0
  0
LINE
  5
3C6
330
1F
100
AcDbEntity
  8
0
  6
Continuous
 62
     7
370
    15
100
AcDbLine
 10
178.2574478927
 20
98.5789098684
 30
0.0
 11
177.7574483695
 21
98.5789098684
 31
0.0
  0
LINE
  5
3C7
330
1F
100
AcDbEntity
  8
0
  6
Continuous
 62
     7
370
    15
100
AcDbLine
 10
178.2574478927
 20
98.1789090578
 30
0.0
 11
178.2574478927
 21
98.5789098684
 31
0.0
  0
LINE
  5
3C8
330
1F
100
AcDbEntity
  8
0
  6
Continuous
 62
     7
370
    15
100
AcDbLine
 10
177.7574483695
 20
98.1789090578
 30
0.0
 11
177.7574483695
 21
98.5789098684
 31
0.0
  0
LINE
  5
3C9
330
1F
100
AcDbEntity
  8
0
  6
Continuous
 62
     7
370
    15
100
AcDbLine
 10
139.0574489179
 20
98.5789098684
 30
0.0
 11
139.557448441
 21
98.5789098684
 31
0.0
  0
LINE
  5
3CA
330
1F
100
AcDbEntity
  8
0
  6
Continuous
 62
     7
370
    15
100
AcDbLine
 10
139.557448441
 20
98.1789090578
 30
0.0
 11
139.557448441
 21
98.5789098684
 31
0.0
  0
LINE
  5
3CB
330
1F
100
AcDbEntity
  8
0
  6
Continuous
 62
     7
370
    15
100
AcDbLine
 10
139.0574489179
 20
98.1789090578
 30
0.0
 11
139.0574489179
 21
98.5789098684
 31
0.0
  0
LINE
  5
3CC
330
1F
100
AcDbEntity
  8
0
  6
Continuous
 62
     7
370
    15
100
AcDbLine
 10
159.5502687077
 20
98.5789098684
 30
0.0
 11
157.7646281029
 21
98.5789098684
 31
0.0
  0
LINE
  5
3CD
330
1F
100
AcDbEntity
  8
0
  6
Continuous
 62
     7
370
    15
100
AcDbLine
 10
148.6574482562
 20
98.5789098684
 30
0.0
 11
149.5502684655
 21
98.5789098684
 31
0.0
  0
LINE
  5
3CE
330
1F
100
AcDbEntity
  8
0
  6
Continuous
 62
     7
370
    15
100
AcDbLine
 10
147.764628047
 20
98.5789098684
 30
0.0
 11
148.6574482562
 21
98.5789098684
 31
0.0
  0
LINE
  5
3CF
330
1F
100
AcDbEntity
  8
0
  6
Continuous
 62
     7
370
    15
100
AcDbLine
 10
168.6574485543
 20
98.5789098684
 30
0.0
 11
167.764628345
 21
98.5789098684
 31
0.0
  0
LINE
  5
3D0
330
1F
100
AcDbEntity
  8
0
  6
Continuous
 62
     7
370
    15
100
AcDbLine
 10
169.5502687635
 20
98.5789098684
 30
0.0
 11
168.6574485543
 21
98.5789098684
 31
0.0
  0
LINE
  5
3D1
330
1F
100
AcDbEntity
  8
0
  6
Continuous
 62
     7
370
    15
100
AcDbLine
 10
179.7779295983
 20
98.1789090578
 30
0.0
 11
179.7779295983
 21
98.5789098684
 31
0.0
  0
LINE
  5
3D2
330
1F
100
AcDbEntity
  8
0
  6
Continuous
 62
     7
370
    15
100
AcDbLine
 10
179.7779295983
 20
98.5789098684
 30
0.0
 11
178.2574478927
 21
98.5789098684
 31
0.0
  0
LINE
  5
3D3
330
1F
100
AcDbEntity
  8
0
  6
Continuous
 62
     7
370
    15
100
AcDbLine
 10
137.5369672122
 20
98.1789090578
 30
0.0
 11
137.5369672122
 21
98.5789098684
 31
0.0
  0
LINE
  5
3D4
330
1F
100
AcDbEntity
  8
0
  6
Continuous
 62
     7
370
    15
100
AcDbLine
 10
137.5369672122
 20
98.5789098684
 30
0.0
 11
139.0574489179
 21
98.5789098684
 31
0.0
  0
LINE
  5
3D5
330
1F
100
AcDbEntity
  8
0
  6
Continuous
 62
     7
370
    15
100
AcDbLine
 10
135.5369661393
 20
98.1789090578
 30
0.0
 11
135.5369661393
 21
98.5789098684
 31
0.0
  0
LINE
  5
3D6
330
1F
100
AcDbEntity
  8
0
  6
Continuous
 62
     7
370
    15
100
AcDbLine
 10
135.5369661393
 20
98.5789098684
 30
0.0
 11
137.5369672122
 21
98.5789098684
 31
0.0
  0
LINE
  5
3D7
330
1F
100
AcDbEntity
  8
0
  6
Continuous
 62
     7
370
    15
100
AcDbLine
 10
181.7779306712
 20
98.1789090578
 30
0.0
 11
181.7779306712
 21
98.5789098684
 31
0.0
  0
LINE
  5
3D8
330
1F
100
AcDbEntity
  8
0
  6
Continuous
 62
     7
370
    15
100
AcDbLine
 10
181.7779306712
 20
98.5789098684
 30
0.0
 11
179.7779295983
 21
98.5789098684
 31
0.0
  0
LINE
  5
3D9
330
1F
100
AcDbEntity
  8
0
  6
Continuous
 62
     7
370
    15
100
AcDbLine
 10
140.8574480953
 20
98.5789098684
 30
0.0
 11
141.9502694549
 21
98.5789098684
 31
0.0
  0
LINE
  5
3DA
330
1F
100
AcDbEntity
  8
0
  6
Continuous
 62
     7
370
    15
100
AcDbLine
 10
139.7646282258
 20
98.5789098684
 30
0.0
 11
140.8574480953
 21
98.5789098684
 31
0.0
  0
LINE
  5
3DB
330
1F
100
AcDbEntity
  8
0
  6
Continuous
 62
     7
370
    15
100
AcDbLine
 10
176.4574487152
 20
98.5789098684
 30
0.0
 11
175.3646273556
 21
98.5789098684
 31
0.0
  0
LINE
  5
3DC
330
1F
100
AcDbEntity
  8
0
  6
Continuous
 62
     7
370
    15
100
AcDbLine
 10
177.5502685847
 20
98.5789098684
 30
0.0
 11
176.4574487152
 21
98.5789098684
 31
0.0
  0
LINE
  5
3DD
330
1F
100
AcDbEntity
  8
0
  6
Continuous
 62
     7
370
    15
100
AcDbLine
 10
199.7899277152
 20
127.1318013641
 30
0.0
 11
199.3899269046
 21
127.024621782
 31
0.0
  0
LINE
  5
3DE
330
1F
100
AcDbEntity
  8
0
  6
Continuous
 62
     7
370
    15
100
AcDbLine
 10
199.3899269046
 20
125.2389813635
 30
0.0
 11
199.7899277152
 21
125.1318017814
 31
0.0
  0
LINE
  5
3DF
330
1F
100
AcDbEntity
  8
0
  6
Continuous
 62
     7
370
    15
100
AcDbLine
 10
199.7899277152
 20
157.1318010661
 30
0.0
 11
199.3899269046
 21
157.024621484
 31
0.0
  0
LINE
  5
3E0
330
1F
100
AcDbEntity
  8
0
  6
Continuous
 62
     7
370
    15
100
AcDbLine
 10
199.3899269046
 20
155.2389810655
 30
0.0
 11
199.7899277152
 21
155.1318014833
 31
0.0
  0
LINE
  5
3E1
330
1F
100
AcDbEntity
  8
0
  6
Continuous
 62
     7
370
    15
100
AcDbLine
 10
199.7899277152
 20
137.1318007681
 30
0.0
 11
199.3899269046
 21
137.024621186
 31
0.0
  0
LINE
  5
3E2
330
1F
100
AcDbEntity
  8
0
  6
Continuous
 62
     7
370
    15
100
AcDbLine
 10
199.3899269046
 20
135.2389807674
 30
0.0
 11
199.7899277152
 21
135.1318011853
 31
0.0
  0
LINE
  5
3E3
330
1F
100
AcDbEntity
  8
0
  6
Continuous
 62
     7
370
    15
100
AcDbLine
 10
199.7899277152
 20
147.1318011034
 30
0.0
 11
199.3899269046
 21
147.0246214281
 31
0.0
  0
LINE
  5
3E4
330
1F
100
AcDbEntity
  8
0
  6
Continuous
 62
     7
370
    15
100
AcDbLine
 10
199.3899269046
 20
145.2389808233
 30
0.0
 11
199.7899277152
 21
145.1318011481
 31
0.0
  0
LINE
  5
3E5
330
1F
100
AcDbEntity
  8
0
  6
Continuous
 62
     7
370
    15
100
AcDbLine
 10
199.7899277152
 20
167.1318004701
 30
0.0
 11
199.3899269046
 21
167.0246208879
 31
0.0
  0
LINE
  5
3E6
330
1F
100
AcDbEntity
  8
0
  6
Continuous
 62
     7
370
    15
100
AcDbLine
 10
199.3899269046
 20
165.2389804694
 30
0.0
 11
199.7899277152
 21
165.1318008873
 31
0.0
  0
LINE
  5
3E7
330
1F
100
AcDbEntity
  8
0
  6
Continuous
 62
     7
370
    15
100
AcDbLine
 10
199.7899277152
 20
119.8317999813
 30
0.0
 11
199.3899269046
 21
119.7246218893
 31
0.0
  0
LINE
  5
3E8
330
1F
100
AcDbEntity
  8
0
  6
Continuous
 62
     7
370
    15
100
AcDbLine
 10
199.3899269046
 20
117.5389821503
 30
0.0
 11
199.7899277152
 21
117.431801078
 31
0.0
  0
LINE
  5
3E9
330
1F
100
AcDbEntity
  8
0
  6
Continuous
 62
     7
370
    15
100
AcDbLine
 10
199.7899277152
 20
174.8318011734
 30
0.0
 11
199.3899269046
 21
174.7246201012
 31
0.0
  0
LINE
  5
3EA
330
1F
100
AcDbEntity
  8
0
  6
Continuous
 62
     7
370
    15
100
AcDbLine
 10
199.3899269046
 20
172.5389803621
 30
0.0
 11
199.7899277152
 21
172.4318022701
 31
0.0
  0
LINE
  5
3EB
330
1F
100
AcDbEntity
  8
0
  6
Continuous
 62
     7
370
    15
100
AcDbLine
 10
222.3499272035
 20
180.6067432138
 30
0.0
 11
222.3499272035
 21
181.106665251
 31
0.0
  0
LINE
  5
3EC
330
1F
100
AcDbEntity
  8
0
  6
Continuous
 62
     7
370
    15
100
AcDbLine
 10
222.3499272035
 20
181.106665251
 30
0.0
 11
223.7899271788
 21
181.1318005297
 31
0.0
  0
LINE
  5
3ED
330
1F
100
AcDbEntity
  8
0
  6
Continuous
 62
     7
370
    15
100
AcDbLine
 10
223.7899271788
 20
181.1318005297
 30
0.0
 11
223.7899271788
 21
180.6318784925
 31
0.0
  0
LINE
  5
3EE
330
1F
100
AcDbEntity
  8
0
  6
Continuous
 62
     7
370
    15
100
AcDbLine
 10
222.3499272035
 20
180.6067432138
 30
0.0
 11
223.7899271788
 21
180.6318784925
 31
0.0
  0
LINE
  5
3EF
330
1F
100
AcDbEntity
  8
0
  6
Continuous
 62
     7
370
    15
100
AcDbLine
 10
222.3499272035
 20
111.6568590376
 30
0.0
 11
222.3499272035
 21
111.1569370005
 31
0.0
  0
LINE
  5
3F0
330
1F
100
AcDbEntity
  8
0
  6
Continuous
 62
     7
370
    15
100
AcDbLine
 10
222.3499272035
 20
111.6568590376
 30
0.0
 11
223.7899271788
 21
111.6317237589
 31
0.0
  0
LINE
  5
3F1
330
1F
100
AcDbEntity
  8
0
  6
Continuous
 62
     7
370
    15
100
AcDbLine
 10
223.7899271788
 20
111.1318017217
 30
0.0
 11
223.7899271788
 21
111.6317237589
 31
0.0
  0
LINE
  5
3F2
330
1F
100
AcDbEntity
  8
0
  6
Continuous
 62
     7
370
    15
100
AcDbLine
 10
222.3499272035
 20
111.1569370005
 30
0.0
 11
223.7899271788
 21
111.1318017217
 31
0.0
  0
LINE
  5
3F3
330
1F
100
AcDbEntity
  8
0
  6
Continuous
 62
     7
370
    15
100
AcDbLine
 10
222.3499272035
 20
111.6568590376
 30
0.0
 11
222.3499272035
 21
180.6067432138
 31
0.0
  0
LINE
  5
3F4
330
1F
100
AcDbEntity
  8
0
  6
Continuous
 62
     7
370
    15
100
AcDbLine
 10
223.7899271788
 20
180.6318784925
 30
0.0
 11
223.7899271788
 21
111.6317237589
 31
0.0
  0
LINE
  5
3F5
330
1F
100
AcDbEntity
  8
0
  6
Continuous
 62
     7
370
    15
100
AcDbLine
 10
199.7899277152
 20
111.8412370655
 30
0.0
 11
222.3499272035
 21
111.6443599436
 31
0.0
  0
LINE
  5
3F6
330
1F
100
AcDbEntity
  8
0
  6
Continuous
 62
     7
370
    15
100
AcDbLine
 10
199.7899277152
 20
111.6412456009
 30
0.0
 11
222.3499272035
 21
111.444368479
 31
0.0
  0
LINE
  5
3F7
330
1F
100
AcDbEntity
  8
0
  6
Continuous
 62
     7
370
    15
100
AcDbLine
 10
199.7899277152
 20
111.8412370655
 30
0.0
 11
199.7899277152
 21
111.6412456009
 31
0.0
  0
LINE
  5
3F8
330
1F
100
AcDbEntity
  8
0
  6
Continuous
 62
     7
370
    15
100
AcDbLine
 10
199.7899277152
 20
180.4223651859
 30
0.0
 11
222.3499272035
 21
180.6192423078
 31
0.0
  0
LINE
  5
3F9
330
1F
100
AcDbEntity
  8
0
  6
Continuous
 62
     7
370
    15
100
AcDbLine
 10
199.7899277152
 20
180.4223651859
 30
0.0
 11
199.7899277152
 21
180.6223566505
 31
0.0
  0
LINE
  5
3FA
330
1F
100
AcDbEntity
  8
0
  6
Continuous
 62
     7
370
    15
100
AcDbLine
 10
199.7899277152
 20
180.6223566505
 30
0.0
 11
222.3499272035
 21
180.8192337725
 31
0.0
  0
LINE
  5
3FB
330
1F
100
AcDbEntity
  8
0
  6
Continuous
 62
     7
370
    15
100
AcDbLine
 10
222.3499272035
 20
177.8370077583
 30
0.0
 11
199.7899277152
 21
177.9185558531
 31
0.0
  0
LINE
  5
3FC
330
1F
100
AcDbEntity
  8
0
  6
Continuous
 62
     7
370
    15
100
AcDbLine
 10
199.7899277152
 20
180.4223651859
 30
0.0
 11
199.7899277152
 21
177.9185558531
 31
0.0
  0
LINE
  5
3FD
330
1F
100
AcDbEntity
  8
0
  6
Continuous
 62
     7
370
    15
100
AcDbLine
 10
199.7899277152
 20
111.8412370655
 30
0.0
 11
199.7899277152
 21
114.3450463983
 31
0.0
  0
LINE
  5
3FE
330
1F
100
AcDbEntity
  8
0
  6
Continuous
 62
     7
370
    15
100
AcDbLine
 10
222.3499272035
 20
114.4265944931
 30
0.0
 11
199.7899277152
 21
114.3450463983
 31
0.0
  0
LINE
  5
3FF
330
1F
100
AcDbEntity
  8
0
  6
Continuous
 62
     7
370
    15
100
AcDbLine
 10
199.7899277152
 20
177.4985547039
 30
0.0
 11
199.7899277152
 21
177.9185558531
 31
0.0
  0
LINE
  5
400
330
1F
100
AcDbEntity
  8
0
  6
Continuous
 62
     7
370
    15
100
AcDbLine
 10
222.3499272035
 20
177.4170066091
 30
0.0
 11
199.7899277152
 21
177.4985547039
 31
0.0
  0
LINE
  5
401
330
1F
100
AcDbEntity
  8
0
  6
Continuous
 62
     7
370
    15
100
AcDbLine
 10
199.7899277152
 20
114.7650475475
 30
0.0
 11
199.7899277152
 21
114.3450463983
 31
0.0
  0
LINE
  5
402
330
1F
100
AcDbEntity
  8
0
  6
Continuous
 62
     7
370
    15
100
AcDbLine
 10
222.3499272035
 20
114.8465956423
 30
0.0
 11
199.7899277152
 21
114.7650475475
 31
0.0
  0
LINE
  5
403
330
1F
100
AcDbEntity
  8
0
  6
Continuous
 62
     7
370
    15
100
AcDbLine
 10
199.7899277152
 20
114.7650475475
 30
0.0
 11
199.7899277152
 21
177.4985547039
 31
0.0
  0
LINE
  5
404
330
1F
100
AcDbEntity
  8
0
  6
Continuous
 62
     7
370
    15
100
AcDbLine
 10
223.7899271788
 20
179.94542968
 30
0.0
 11
224.389927184
 21
179.7846610519
 31
0.0
  0
LINE
  5
405
330
1F
100
AcDbEntity
  8
0
  6
Continuous
 62
     7
370
    15
100
AcDbLine
 10
223.7899271788
 20
180.3318018886
 30
0.0
 11
224.389927184
 21
180.1710302803
 31
0.0
  0
LINE
  5
406
330
1F
100
AcDbEntity
  8
0
  6
Continuous
 62
     7
370
    15
100
AcDbLine
 10
224.389927184
 20
180.1710302803
 30
0.0
 11
224.389927184
 21
179.7846610519
 31
0.0
  0
LINE
  5
407
330
1F
100
AcDbEntity
  8
0
  6
Continuous
 62
     7
370
    15
100
AcDbLine
 10
223.7899271788
 20
112.3181725714
 30
0.0
 11
224.389927184
 21
112.4789411995
 31
0.0
  0
LINE
  5
408
330
1F
100
AcDbEntity
  8
0
  6
Continuous
 62
     7
370
    15
100
AcDbLine
 10
224.389927184
 20
112.0925719711
 30
0.0
 11
224.389927184
 21
112.4789411995
 31
0.0
  0
LINE
  5
409
330
1F
100
AcDbEntity
  8
0
  6
Continuous
 62
     7
370
    15
100
AcDbLine
 10
223.7899271788
 20
111.9318003628
 30
0.0
 11
224.389927184
 21
112.0925719711
 31
0.0
  0
LINE
  5
40A
330
1F
100
AcDbEntity
  8
0
  6
Continuous
 62
     7
370
    15
100
AcDbLine
 10
224.389927184
 20
179.7846610519
 30
0.0
 11
224.389927184
 21
112.4789411995
 31
0.0
  0
LINE
  5
40B
330
1F
100
AcDbEntity
  8
0
  6
Continuous
 62
     7
370
    15
100
AcDbLine
 10
199.7899277152
 20
175.7318015072
 30
0.0
 11
199.3899269046
 21
175.7318015072
 31
0.0
  0
LINE
  5
40C
330
1F
100
AcDbEntity
  8
0
  6
Continuous
 62
     7
370
    15
100
AcDbLine
 10
199.7899277152
 20
175.231801984
 30
0.0
 11
199.3899269046
 21
175.231801984
 31
0.0
  0
LINE
  5
40D
330
1F
100
AcDbEntity
  8
0
  6
Continuous
 62
     7
370
    15
100
AcDbLine
 10
199.3899269046
 20
175.231801984
 30
0.0
 11
199.3899269046
 21
175.7318015072
 31
0.0
  0
LINE
  5
40E
330
1F
100
AcDbEntity
  8
0
  6
Continuous
 62
     7
370
    15
100
AcDbLine
 10
199.7899277152
 20
116.5318007442
 30
0.0
 11
199.3899269046
 21
116.5318007442
 31
0.0
  0
LINE
  5
40F
330
1F
100
AcDbEntity
  8
0
  6
Continuous
 62
     7
370
    15
100
AcDbLine
 10
199.3899269046
 20
117.0318002674
 30
0.0
 11
199.3899269046
 21
116.5318007442
 31
0.0
  0
LINE
  5
410
330
1F
100
AcDbEntity
  8
0
  6
Continuous
 62
     7
370
    15
100
AcDbLine
 10
199.7899277152
 20
117.0318002674
 30
0.0
 11
199.3899269046
 21
117.0318002674
 31
0.0
  0
LINE
  5
411
330
1F
100
AcDbEntity
  8
0
  6
Continuous
 62
     7
370
    15
100
AcDbLine
 10
199.3899269046
 20
127.024621782
 30
0.0
 11
199.3899269046
 21
125.2389813635
 31
0.0
  0
LINE
  5
412
330
1F
100
AcDbEntity
  8
0
  6
Continuous
 62
     7
370
    15
100
AcDbLine
 10
199.3899269046
 20
155.2389810655
 30
0.0
 11
199.3899269046
 21
157.024621484
 31
0.0
  0
LINE
  5
413
330
1F
100
AcDbEntity
  8
0
  6
Continuous
 62
     7
370
    15
100
AcDbLine
 10
199.3899269046
 20
137.024621186
 30
0.0
 11
199.3899269046
 21
135.2389807674
 31
0.0
  0
LINE
  5
414
330
1F
100
AcDbEntity
  8
0
  6
Continuous
 62
     7
370
    15
100
AcDbLine
 10
199.3899269046
 20
146.1318011257
 30
0.0
 11
199.3899269046
 21
145.2389808233
 31
0.0
  0
LINE
  5
415
330
1F
100
AcDbEntity
  8
0
  6
Continuous
 62
     7
370
    15
100
AcDbLine
 10
199.3899269046
 20
147.0246214281
 30
0.0
 11
199.3899269046
 21
146.1318011257
 31
0.0
  0
LINE
  5
416
330
1F
100
AcDbEntity
  8
0
  6
Continuous
 62
     7
370
    15
100
AcDbLine
 10
199.3899269046
 20
165.2389804694
 30
0.0
 11
199.3899269046
 21
167.0246208879
 31
0.0
  0
LINE
  5
417
330
1F
100
AcDbEntity
  8
0
  6
Continuous
 62
     7
370
    15
100
AcDbLine
 10
199.7899277152
 20
177.2517527315
 30
0.0
 11
199.3899269046
 21
177.2517527315
 31
0.0
  0
LINE
  5
418
330
1F
100
AcDbEntity
  8
0
  6
Continuous
 62
     7
370
    15
100
AcDbLine
 10
199.3899269046
 20
175.7318015072
 30
0.0
 11
199.3899269046
 21
177.2517527315
 31
0.0
  0
LINE
  5
419
330
1F
100
AcDbEntity
  8
0
  6
Continuous
 62
     7
370
    15
100
AcDbLine
 10
199.7899277152
 20
115.0118495199
 30
0.0
 11
199.3899269046
 21
115.0118495199
 31
0.0
  0
LINE
  5
41A
330
1F
100
AcDbEntity
  8
0
  6
Continuous
 62
     7
370
    15
100
AcDbLine
 10
199.3899269046
 20
116.5318007442
 30
0.0
 11
199.3899269046
 21
115.0118495199
 31
0.0
  0
LINE
  5
41B
330
1F
100
AcDbEntity
  8
0
  6
Continuous
 62
     7
370
    15
100
AcDbLine
 10
199.7899277152
 20
113.0118514273
 30
0.0
 11
199.3899269046
 21
113.0118514273
 31
0.0
  0
LINE
  5
41C
330
1F
100
AcDbEntity
  8
0
  6
Continuous
 62
     7
370
    15
100
AcDbLine
 10
199.3899269046
 20
115.0118495199
 30
0.0
 11
199.3899269046
 21
113.0118514273
 31
0.0
  0
LINE
  5
41D
330
1F
100
AcDbEntity
  8
0
  6
Continuous
 62
     7
370
    15
100
AcDbLine
 10
199.7899277152
 20
179.2517508242
 30
0.0
 11
199.3899269046
 21
179.2517508242
 31
0.0
  0
LINE
  5
41E
330
1F
100
AcDbEntity
  8
0
  6
Continuous
 62
     7
370
    15
100
AcDbLine
 10
199.3899269046
 20
177.2517527315
 30
0.0
 11
199.3899269046
 21
179.2517508242
 31
0.0
  0
LINE
  5
41F
330
1F
100
AcDbEntity
  8
0
  6
Continuous
 62
     7
370
    15
100
AcDbLine
 10
199.3899269046
 20
119.7246218893
 30
0.0
 11
199.3899269046
 21
117.5389821503
 31
0.0
  0
LINE
  5
420
330
1F
100
AcDbEntity
  8
0
  6
Continuous
 62
     7
370
    15
100
AcDbLine
 10
199.3899269046
 20
172.5389803621
 30
0.0
 11
199.3899269046
 21
174.7246201012
 31
0.0
  0
LINE
  5
421
330
1F
100
AcDbEntity
  8
0
  6
Continuous
 62
     7
370
    15
100
AcDbLine
 10
257.0201126061
 20
113.0118514273
 30
0.0
 11
257.0201126061
 21
115.2190084431
 31
0.0
  0
LINE
  5
422
330
1F
100
AcDbEntity
  8
0
  6
Continuous
 62
     7
370
    15
100
AcDbLine
 10
256.520113083
 20
113.0118514273
 30
0.0
 11
257.0201126061
 21
113.0118514273
 31
0.0
  0
LINE
  5
423
330
1F
100
AcDbEntity
  8
0
  6
Continuous
 62
     7
370
    15
100
AcDbLine
 10
256.520113083
 20
115.0118495199
 30
0.0
 11
256.520113083
 21
113.0118514273
 31
0.0
  0
LINE
  5
424
330
1F
100
AcDbEntity
  8
0
  6
Continuous
 62
     7
370
    15
100
AcDbLine
 10
254.9996313773
 20
116.5318007442
 30
0.0
 11
256.520113083
 21
115.0118495199
 31
0.0
  0
LINE
  5
425
330
1F
100
AcDbEntity
  8
0
  6
Continuous
 62
     7
370
    15
100
AcDbLine
 10
252.9996303044
 20
116.5318007442
 30
0.0
 11
254.9996313773
 21
116.5318007442
 31
0.0
  0
LINE
  5
426
330
1F
100
AcDbEntity
  8
0
  6
Continuous
 62
     7
370
    15
100
AcDbLine
 10
252.9996303044
 20
117.0318002674
 30
0.0
 11
252.9996303044
 21
116.5318007442
 31
0.0
  0
LINE
  5
427
330
1F
100
AcDbEntity
  8
0
  6
Continuous
 62
     7
370
    15
100
AcDbLine
 10
257.0201126061
 20
115.2190084431
 30
0.0
 11
255.2066859923
 21
117.0318002674
 31
0.0
  0
LINE
  5
428
330
1F
100
AcDbEntity
  8
0
  6
Continuous
 62
     7
370
    15
100
AcDbLine
 10
255.2066859923
 20
117.0318002674
 30
0.0
 11
252.9996303044
 21
117.0318002674
 31
0.0
  0
LINE
  5
429
330
1F
100
AcDbEntity
  8
0
  6
Continuous
 62
     7
370
    15
100
AcDbLine
 10
257.0201126061
 20
179.2517508242
 30
0.0
 11
257.0201126061
 21
177.0445938084
 31
0.0
  0
LINE
  5
42A
330
1F
100
AcDbEntity
  8
0
  6
Continuous
 62
     7
370
    15
100
AcDbLine
 10
257.0201126061
 20
177.0445938084
 30
0.0
 11
255.2066859923
 21
175.231801984
 31
0.0
  0
LINE
  5
42B
330
1F
100
AcDbEntity
  8
0
  6
Continuous
 62
     7
370
    15
100
AcDbLine
 10
254.9996313773
 20
175.7318015072
 30
0.0
 11
256.520113083
 21
177.2517527315
 31
0.0
  0
LINE
  5
42C
330
1F
100
AcDbEntity
  8
0
  6
Continuous
 62
     7
370
    15
100
AcDbLine
 10
256.520113083
 20
177.2517527315
 30
0.0
 11
256.520113083
 21
179.2517508242
 31
0.0
  0
LINE
  5
42D
330
1F
100
AcDbEntity
  8
0
  6
Continuous
 62
     7
370
    15
100
AcDbLine
 10
256.520113083
 20
179.2517508242
 30
0.0
 11
257.0201126061
 21
179.2517508242
 31
0.0
  0
LINE
  5
42E
330
1F
100
AcDbEntity
  8
0
  6
Continuous
 62
     7
370
    15
100
AcDbLine
 10
252.9996303044
 20
175.7318015072
 30
0.0
 11
254.9996313773
 21
175.7318015072
 31
0.0
  0
LINE
  5
42F
330
1F
100
AcDbEntity
  8
0
  6
Continuous
 62
     7
370
    15
100
AcDbLine
 10
255.2066859923
 20
175.231801984
 30
0.0
 11
252.9996303044
 21
175.231801984
 31
0.0
  0
LINE
  5
430
330
1F
100
AcDbEntity
  8
0
  6
Continuous
 62
     7
370
    15
100
AcDbLine
 10
252.9996303044
 20
175.231801984
 30
0.0
 11
252.9996303044
 21
175.7318015072
 31
0.0
  0
CIRCLE
  5
431
330
1F
100
AcDbEntity
  8
0
  6
Continuous
 62
     7
370
    15
100
AcDbCircle
 10
255.1201125704
 20
166.1318011257
 30
0.0
 40
1.0
  0
CIRCLE
  5
432
330
1F
100
AcDbEntity
  8
0
  6
Continuous
 62
     7
370
    15
100
AcDbCircle
 10
255.1201125704
 20
166.1318011257
 30
0.0
 40
0.8928203230275926
  0
CIRCLE
  5
433
330
1F
100
AcDbEntity
  8
0
  6
Continuous
 62
     7
370
    15
100
AcDbCircle
 10
255.1201125704
 20
146.1318011257
 30
0.0
 40
0.892820323027621
  0
CIRCLE
  5
434
330
1F
100
AcDbEntity
  8
0
  6
Continuous
 62
     7
370
    15
100
AcDbCircle
 10
255.1201125704
 20
126.1318011257
 30
0.0
 40
1.0
  0
CIRCLE
  5
435
330
1F
100
AcDbEntity
  8
0
  6
Continuous
 62
     7
370
    15
100
AcDbCircle
 10
255.1201125704
 20
126.1318011257
 30
0.0
 40
0.8928203230275926
  0
CIRCLE
  5
436
330
1F
100
AcDbEntity
  8
0
  6
Continuous
 62
     7
370
    15
100
AcDbCircle
 10
255.1201125704
 20
136.1318011257
 30
0.0
 40
1.0
  0
CIRCLE
  5
437
330
1F
100
AcDbEntity
  8
0
  6
Continuous
 62
     7
370
    15
100
AcDbCircle
 10
255.1201125704
 20
136.1318011257
 30
0.0
 40
0.8928203230275926
  0
CIRCLE
  5
438
330
1F
100
AcDbEntity
  8
0
  6
Continuous
 62
     7
370
    15
100
AcDbCircle
 10
255.1201125704
 20
156.1318011257
 30
0.0
 40
1.000000000000028
  0
CIRCLE
  5
439
330
1F
100
AcDbEntity
  8
0
  6
Continuous
 62
     7
370
    15
100
AcDbCircle
 10
255.1201125704
 20
156.1318011257
 30
0.0
 40
0.892820323027621
  0
CIRCLE
  5
43A
330
1F
100
AcDbEntity
  8
0
  6
Continuous
 62
     7
370
    15
100
AcDbCircle
 10
255.1201125704
 20
146.1318011257
 30
0.0
 40
1.000000000000028
  0
CIRCLE
  5
43B
330
1F
100
AcDbEntity
  8
0
  6
Continuous
 62
     7
370
    15
100
AcDbCircle
 10
258.3201125704
 20
173.6318011257
 30
0.0
 40
1.09282032302761
  0
CIRCLE
  5
43C
330
1F
100
AcDbEntity
  8
0
  6
Continuous
 62
     7
370
    15
100
AcDbCircle
 10
258.3201125704
 20
173.6318011257
 30
0.0
 40
1.200000000000017
  0
CIRCLE
  5
43D
330
1F
100
AcDbEntity
  8
0
  6
Continuous
 62
     7
370
    15
100
AcDbCircle
 10
258.3201125704
 20
118.6318011257
 30
0.0
 40
1.09282032302761
  0
CIRCLE
  5
43E
330
1F
100
AcDbEntity
  8
0
  6
Continuous
 62
     7
370
    15
100
AcDbCircle
 10
258.3201125704
 20
118.6318011257
 30
0.0
 40
1.200000000000017
  0
CIRCLE
  5
43F
330
1F
100
AcDbEntity
  8
0
  6
Continuous
 62
     7
370
    15
100
AcDbCircle
 10
266.1201125704
 20
115.1318011257
 30
0.0
 40
1.0
  0
CIRCLE
  5
440
330
1F
100
AcDbEntity
  8
0
  6
Continuous
 62
     7
370
    15
100
AcDbCircle
 10
266.1201125704
 20
115.1318011257
 30
0.0
 40
0.8928203230275926
  0
CIRCLE
  5
441
330
1F
100
AcDbEntity
  8
0
  6
Continuous
 62
     7
370
    15
100
AcDbCircle
 10
266.1201125704
 20
177.1318011257
 30
0.0
 40
1.0
  0
CIRCLE
  5
442
330
1F
100
AcDbEntity
  8
0
  6
Continuous
 62
     7
370
    15
100
AcDbCircle
 10
266.1201125704
 20
177.1318011257
 30
0.0
 40
0.8928203230275926
  0
CIRCLE
  5
443
330
1F
100
AcDbEntity
  8
0
  6
Continuous
 62
     7
370
    15
100
AcDbCircle
 10
276.1201125704
 20
115.1318011257
 30
0.0
 40
0.8928203230275926
  0
CIRCLE
  5
444
330
1F
100
AcDbEntity
  8
0
  6
Continuous
 62
     7
370
    15
100
AcDbCircle
 10
276.1201125704
 20
115.1318011257
 30
0.0
 40
1.0
  0
CIRCLE
  5
445
330
1F
100
AcDbEntity
  8
0
  6
Continuous
 62
     7
370
    15
100
AcDbCircle
 10
276.1201125704
 20
177.1318011257
 30
0.0
 40
1.0
  0
CIRCLE
  5
446
330
1F
100
AcDbEntity
  8
0
  6
Continuous
 62
     7
370
    15
100
AcDbCircle
 10
276.1201125704
 20
177.1318011257
 30
0.0
 40
0.8928203230275926
  0
CIRCLE
  5
447
330
1F
100
AcDbEntity
  8
0
  6
Continuous
 62
     7
370
    15
100
AcDbCircle
 10
286.1201125704
 20
115.1318011257
 30
0.0
 40
0.8928203230275926
  0
CIRCLE
  5
448
330
1F
100
AcDbEntity
  8
0
  6
Continuous
 62
     7
370
    15
100
AcDbCircle
 10
286.1201125704
 20
177.1318011257
 30
0.0
 40
1.0
  0
CIRCLE
  5
449
330
1F
100
AcDbEntity
  8
0
  6
Continuous
 62
     7
370
    15
100
AcDbCircle
 10
286.1201125704
 20
177.1318011257
 30
0.0
 40
0.8928203230275926
  0
CIRCLE
  5
44A
330
1F
100
AcDbEntity
  8
0
  6
Continuous
 62
     7
370
    15
100
AcDbCircle
 10
286.1201125704
 20
115.1318011257
 30
0.0
 40
1.0
  0
CIRCLE
  5
44B
330
1F
100
AcDbEntity
  8
0
  6
Continuous
 62
     7
370
    15
100
AcDbCircle
 10
293.9201125704
 20
118.6318011257
 30
0.0
 40
1.200000000000017
  0
CIRCLE
  5
44C
330
1F
100
AcDbEntity
  8
0
  6
Continuous
 62
     7
370
    15
100
AcDbCircle
 10
293.9201125704
 20
118.6318011257
 30
0.0
 40
1.09282032302761
  0
CIRCLE
  5
44D
330
1F
100
AcDbEntity
  8
0
  6
Continuous
 62
     7
370
    15
100
AcDbCircle
 10
293.9201125704
 20
173.6318011257
 30
0.0
 40
1.200000000000017
  0
CIRCLE
  5
44E
330
1F
100
AcDbEntity
  8
0
  6
Continuous
 62
     7
370
    15
100
AcDbCircle
 10
293.9201125704
 20
173.6318011257
 30
0.0
 40
1.09282032302761
  0
LINE
  5
44F
330
1F
100
AcDbEntity
  8
0
  6
Continuous
 62
     7
370
    15
100
AcDbLine
 10
295.7201120578
 20
177.2517527315
 30
0.0
 11
295.7201120578
 21
179.2517508242
 31
0.0
  0
LINE
  5
450
330
1F
100
AcDbEntity
  8
0
  6
Continuous
 62
     7
370
    15
100
AcDbLine
 10
297.2405937634
 20
175.7318015072
 30
0.0
 11
295.7201120578
 21
177.2517527315
 31
0.0
  0
LINE
  5
451
330
1F
100
AcDbEntity
  8
0
  6
Continuous
 62
     7
370
    15
100
AcDbLine
 10
299.2405948363
 20
175.7318015072
 30
0.0
 11
297.2405937634
 21
175.7318015072
 31
0.0
  0
LINE
  5
452
330
1F
100
AcDbEntity
  8
0
  6
Continuous
 62
     7
370
    15
100
AcDbLine
 10
299.2405948363
 20
175.231801984
 30
0.0
 11
299.2405948363
 21
175.7318015072
 31
0.0
  0
LINE
  5
453
330
1F
100
AcDbEntity
  8
0
  6
Continuous
 62
     7
370
    15
100
AcDbLine
 10
297.0335391484
 20
175.231801984
 30
0.0
 11
299.2405948363
 21
175.231801984
 31
0.0
  0
LINE
  5
454
330
1F
100
AcDbEntity
  8
0
  6
Continuous
 62
     7
370
    15
100
AcDbLine
 10
295.2201125346
 20
177.0445938084
 30
0.0
 11
297.0335391484
 21
175.231801984
 31
0.0
  0
LINE
  5
455
330
1F
100
AcDbEntity
  8
0
  6
Continuous
 62
     7
370
    15
100
AcDbLine
 10
295.2201125346
 20
179.2517508242
 30
0.0
 11
295.2201125346
 21
177.0445938084
 31
0.0
  0
LINE
  5
456
330
1F
100
AcDbEntity
  8
0
  6
Continuous
 62
     7
370
    15
100
AcDbLine
 10
295.7201120578
 20
179.2517508242
 30
0.0
 11
295.2201125346
 21
179.2517508242
 31
0.0
  0
LINE
  5
457
330
1F
100
AcDbEntity
  8
0
  6
Continuous
 62
     7
370
    15
100
AcDbLine
 10
297.0335391484
 20
117.0318002674
 30
0.0
 11
299.2405948363
 21
117.0318002674
 31
0.0
  0
LINE
  5
458
330
1F
100
AcDbEntity
  8
0
  6
Continuous
 62
     7
370
    15
100
AcDbLine
 10
299.2405948363
 20
117.0318002674
 30
0.0
 11
299.2405948363
 21
116.5318007442
 31
0.0
  0
LINE
  5
459
330
1F
100
AcDbEntity
  8
0
  6
Continuous
 62
     7
370
    15
100
AcDbLine
 10
299.2405948363
 20
116.5318007442
 30
0.0
 11
297.2405937634
 21
116.5318007442
 31
0.0
  0
LINE
  5
45A
330
1F
100
AcDbEntity
  8
0
  6
Continuous
 62
     7
370
    15
100
AcDbLine
 10
297.2405937634
 20
116.5318007442
 30
0.0
 11
295.7201120578
 21
115.0118495199
 31
0.0
  0
LINE
  5
45B
330
1F
100
AcDbEntity
  8
0
  6
Continuous
 62
     7
370
    15
100
AcDbLine
 10
295.7201120578
 20
115.0118495199
 30
0.0
 11
295.7201120578
 21
113.0118514273
 31
0.0
  0
LINE
  5
45C
330
1F
100
AcDbEntity
  8
0
  6
Continuous
 62
     7
370
    15
100
AcDbLine
 10
295.7201120578
 20
113.0118514273
 30
0.0
 11
295.2201125346
 21
113.0118514273
 31
0.0
  0
LINE
  5
45D
330
1F
100
AcDbEntity
  8
0
  6
Continuous
 62
     7
370
    15
100
AcDbLine
 10
295.2201125346
 20
113.0118514273
 30
0.0
 11
295.2201125346
 21
115.2190084431
 31
0.0
  0
LINE
  5
45E
330
1F
100
AcDbEntity
  8
0
  6
Continuous
 62
     7
370
    15
100
AcDbLine
 10
295.2201125346
 20
115.2190084431
 30
0.0
 11
297.0335391484
 21
117.0318002674
 31
0.0
  0
CIRCLE
  5
45F
330
1F
100
AcDbEntity
  8
0
  6
Continuous
 62
     7
370
    15
100
AcDbCircle
 10
297.1201125704
 20
126.1318011257
 30
0.0
 40
1.0
  0
CIRCLE
  5
460
330
1F
100
AcDbEntity
  8
0
  6
Continuous
 62
     7
370
    15
100
AcDbCircle
 10
297.1201125704
 20
126.1318011257
 30
0.0
 40
0.8928203230275926
  0
CIRCLE
  5
461
330
1F
100
AcDbEntity
  8
0
  6
Continuous
 62
     7
370
    15
100
AcDbCircle
 10
297.1201125704
 20
136.1318011257
 30
0.0
 40
1.0
  0
CIRCLE
  5
462
330
1F
100
AcDbEntity
  8
0
  6
Continuous
 62
     7
370
    15
100
AcDbCircle
 10
297.1201125704
 20
136.1318011257
 30
0.0
 40
0.8928203230275926
  0
CIRCLE
  5
463
330
1F
100
AcDbEntity
  8
0
  6
Continuous
 62
     7
370
    15
100
AcDbCircle
 10
297.1201125704
 20
146.1318011257
 30
0.0
 40
1.0
  0
CIRCLE
  5
464
330
1F
100
AcDbEntity
  8
0
  6
Continuous
 62
     7
370
    15
100
AcDbCircle
 10
297.1201125704
 20
146.1318011257
 30
0.0
 40
0.8928203230276495
  0
CIRCLE
  5
465
330
1F
100
AcDbEntity
  8
0
  6
Continuous
 62
     7
370
    15
100
AcDbCircle
 10
297.1201125704
 20
156.1318011257
 30
0.0
 40
1.000000000000028
  0
CIRCLE
  5
466
330
1F
100
AcDbEntity
  8
0
  6
Continuous
 62
     7
370
    15
100
AcDbCircle
 10
297.1201125704
 20
156.1318011257
 30
0.0
 40
0.892820323027621
  0
CIRCLE
  5
467
330
1F
100
AcDbEntity
  8
0
  6
Continuous
 62
     7
370
    15
100
AcDbCircle
 10
297.1201125704
 20
166.1318011257
 30
0.0
 40
1.0
  0
CIRCLE
  5
468
330
1F
100
AcDbEntity
  8
0
  6
Continuous
 62
     7
370
    15
100
AcDbCircle
 10
297.1201125704
 20
166.1318011257
 30
0.0
 40
0.8928203230275926
  0
LINE
  5
469
330
1F
100
AcDbEntity
  8
0
  6
Continuous
 62
     7
370
    15
100
AcDbLine
 10
252.249558004
 20
177.4985547039
 30
0.0
 11
251.8295568548
 21
177.9185558531
 31
0.0
  0
LINE
  5
46A
330
1F
100
AcDbEntity
  8
0
  6
Continuous
 62
     7
370
    15
100
AcDbLine
 10
252.0526793919
 20
177.4170066091
 30
0.0
 11
252.249558004
 21
177.4985547039
 31
0.0
  0
LINE
  5
46B
330
1F
100
AcDbEntity
  8
0
  6
Continuous
 62
     7
370
    15
100
AcDbLine
 10
252.0526793919
 20
177.4170066091
 30
0.0
 11
251.6326797329
 21
177.8370077583
 31
0.0
  0
LINE
  5
46C
330
1F
100
AcDbEntity
  8
0
  6
Continuous
 62
     7
370
    15
100
AcDbLine
 10
251.6326797329
 20
177.8370077583
 30
0.0
 11
251.8295568548
 21
177.9185558531
 31
0.0
  0
LINE
  5
46D
330
1F
100
AcDbEntity
  8
0
  6
Continuous
 62
     7
370
    15
100
AcDbLine
 10
252.249558004
 20
114.7650475475
 30
0.0
 11
251.8295568548
 21
114.3450463983
 31
0.0
  0
LINE
  5
46E
330
1F
100
AcDbEntity
  8
0
  6
Continuous
 62
     7
370
    15
100
AcDbLine
 10
251.6326797329
 20
114.4265944931
 30
0.0
 11
251.8295568548
 21
114.3450463983
 31
0.0
  0
LINE
  5
46F
330
1F
100
AcDbEntity
  8
0
  6
Continuous
 62
     7
370
    15
100
AcDbLine
 10
252.0526793919
 20
114.8465956423
 30
0.0
 11
251.6326797329
 21
114.4265944931
 31
0.0
  0
LINE
  5
470
330
1F
100
AcDbEntity
  8
0
  6
Continuous
 62
     7
370
    15
100
AcDbLine
 10
252.0526793919
 20
114.8465956423
 30
0.0
 11
252.249558004
 21
114.7650475475
 31
0.0
  0
LINE
  5
471
330
1F
100
AcDbEntity
  8
0
  6
Continuous
 62
     7
370
    15
100
AcDbLine
 10
251.8295568548
 20
111.8412370655
 30
0.0
 11
251.6326797329
 21
111.6443599436
 31
0.0
  0
LINE
  5
472
330
1F
100
AcDbEntity
  8
0
  6
Continuous
 62
     7
370
    15
100
AcDbLine
 10
251.6326797329
 20
114.4265944931
 30
0.0
 11
251.6326797329
 21
111.6443599436
 31
0.0
  0
LINE
  5
473
330
1F
100
AcDbEntity
  8
0
  6
Continuous
 62
     7
370
    15
100
AcDbLine
 10
251.8295568548
 20
111.8412370655
 30
0.0
 11
251.8295568548
 21
114.3450463983
 31
0.0
  0
LINE
  5
474
330
1F
100
AcDbEntity
  8
0
  6
Continuous
 62
     7
370
    15
100
AcDbLine
 10
251.8295568548
 20
180.4223651859
 30
0.0
 11
251.6326797329
 21
180.6192423078
 31
0.0
  0
LINE
  5
475
330
1F
100
AcDbEntity
  8
0
  6
Continuous
 62
     7
370
    15
100
AcDbLine
 10
251.8295568548
 20
180.4223651859
 30
0.0
 11
251.8295568548
 21
177.9185558531
 31
0.0
  0
LINE
  5
476
330
1F
100
AcDbEntity
  8
0
  6
Continuous
 62
     7
370
    15
100
AcDbLine
 10
251.6326797329
 20
177.8370077583
 30
0.0
 11
251.6326797329
 21
180.6192423078
 31
0.0
  0
ELLIPSE
  5
477
330
1F
100
AcDbEntity
  8
0
  6
Continuous
 62
     7
370
    15
100
AcDbEllipse
 10
251.8326868756
 20
180.6192268204
 30
0.0
 11
0.1414321262261921
 21
-0.1414321262261637
 31
0.0
210
0.0
220
0.0
230
1.0
 40
0.9999238505
 41
2.356232566369039
 42
3.926952740810361
  0
LINE
  5
478
330
1F
100
AcDbEntity
  8
0
  6
Continuous
 62
     7
370
    15
100
AcDbLine
 10
252.0295498095
 20
180.6223566505
 30
0.0
 11
251.8326711975
 21
180.8192337725
 31
0.0
  0
ELLIPSE
  5
479
330
1F
100
AcDbEntity
  8
0
  6
Continuous
 62
     7
370
    15
100
AcDbEllipse
 10
252.029565013
 20
180.4223486831
 30
0.0
 11
0.1414321262261922
 21
-0.1414321262261922
 31
0.0
210
0.0
220
0.0
230
1.0
 40
0.9999238505
 41
2.356232566369048
 42
3.926952740810411
  0
ELLIPSE
  5
47A
330
1F
100
AcDbEntity
  8
0
  6
Continuous
 62
     7
370
    15
100
AcDbEllipse
 10
252.029565013
 20
111.8412535684
 30
0.0
 11
-0.1414321262261921
 21
-0.1414321262261637
 31
0.0
210
0.0
220
0.0
230
1.0
 40
0.9999238505
 41
5.497825219958975
 42
7.068545394400482
  0
LINE
  5
47B
330
1F
100
AcDbEntity
  8
0
  6
Continuous
 62
     7
370
    15
100
AcDbLine
 10
252.0295498095
 20
111.6412456009
 30
0.0
 11
251.8326711975
 21
111.444368479
 31
0.0
  0
ELLIPSE
  5
47C
330
1F
100
AcDbEntity
  8
0
  6
Continuous
 62
     7
370
    15
100
AcDbEllipse
 10
251.8326868756
 20
111.644375431
 30
0.0
 11
-0.1414321262261922
 21
-0.1414321262261922
 31
0.0
210
0.0
220
0.0
230
1.0
 40
0.9999238505
 41
5.497825219958729
 42
7.068545394400315
  0
LINE
  5
47D
330
1F
100
AcDbEntity
  8
0
  6
Continuous
 62
     7
370
    15
100
AcDbLine
 10
252.0295498095
 20
111.6412456009
 30
0.0
 11
254.5333576523
 21
111.6412456009
 31
0.0
  0
LINE
  5
47E
330
1F
100
AcDbEntity
  8
0
  6
Continuous
 62
     7
370
    15
100
AcDbLine
 10
254.6149072371
 20
111.444368479
 30
0.0
 11
254.5333576523
 21
111.6412456009
 31
0.0
  0
LINE
  5
47F
330
1F
100
AcDbEntity
  8
0
  6
Continuous
 62
     7
370
    15
100
AcDbLine
 10
251.8326711975
 20
111.444368479
 30
0.0
 11
254.6149072371
 21
111.444368479
 31
0.0
  0
LINE
  5
480
330
1F
100
AcDbEntity
  8
0
  6
Continuous
 62
     7
370
    15
100
AcDbLine
 10
251.8326711975
 20
180.8192337725
 30
0.0
 11
254.6149072371
 21
180.8192337725
 31
0.0
  0
LINE
  5
481
330
1F
100
AcDbEntity
  8
0
  6
Continuous
 62
     7
370
    15
100
AcDbLine
 10
254.6149072371
 20
180.8192337725
 30
0.0
 11
254.5333576523
 21
180.6223566505
 31
0.0
  0
LINE
  5
482
330
1F
100
AcDbEntity
  8
0
  6
Continuous
 62
     7
370
    15
100
AcDbLine
 10
252.0295498095
 20
180.6223566505
 30
0.0
 11
254.5333576523
 21
180.6223566505
 31
0.0
  0
CIRCLE
  5
483
330
1F
100
AcDbEntity
  8
0
  6
Continuous
 62
     7
370
    15
100
AcDbCircle
 10
298.3201125704
 20
178.3318011257
 30
0.0
 40
1.090000000000032
  0
CIRCLE
  5
484
330
1F
100
AcDbEntity
  8
0
  6
Continuous
 62
     7
370
    15
100
AcDbCircle
 10
253.9201125704
 20
178.3318011257
 30
0.0
 40
1.09000000000006
  0
CIRCLE
  5
485
330
1F
100
AcDbEntity
  8
0
  6
Continuous
 62
     7
370
    15
100
AcDbCircle
 10
298.3201125704
 20
113.9318011257
 30
0.0
 40
1.090000000000032
  0
CIRCLE
  5
486
330
1F
100
AcDbEntity
  8
0
  6
Continuous
 62
     7
370
    15
100
AcDbCircle
 10
253.9201125704
 20
113.9318011257
 30
0.0
 40
1.09000000000006
  0
LINE
  5
487
330
1F
100
AcDbEntity
  8
0
  6
Continuous
 62
     7
370
    15
100
AcDbLine
 10
254.9533573113
 20
112.0612467501
 30
0.0
 11
297.2868678294
 21
112.0612467501
 31
0.0
  0
LINE
  5
488
330
1F
100
AcDbEntity
  8
0
  6
Continuous
 62
     7
370
    15
100
AcDbLine
 10
254.5333576523
 20
111.6412456009
 30
0.0
 11
254.9533573113
 21
112.0612467501
 31
0.0
  0
LINE
  5
489
330
1F
100
AcDbEntity
  8
0
  6
Continuous
 62
     7
370
    15
100
AcDbLine
 10
252.249558004
 20
177.4985547039
 30
0.0
 11
252.249558004
 21
114.7650475475
 31
0.0
  0
LINE
  5
48A
330
1F
100
AcDbEntity
  8
0
  6
Continuous
 62
     7
370
    15
100
AcDbLine
 10
254.5333576523
 20
180.6223566505
 30
0.0
 11
254.9533573113
 21
180.2023555014
 31
0.0
  0
LINE
  5
48B
330
1F
100
AcDbEntity
  8
0
  6
Continuous
 62
     7
370
    15
100
AcDbLine
 10
297.2868678294
 20
180.2023555014
 30
0.0
 11
254.9533573113
 21
180.2023555014
 31
0.0
  0
LINE
  5
48C
330
1F
100
AcDbEntity
  8
0
  6
Continuous
 62
     7
370
    15
100
AcDbLine
 10
297.7068674885
 20
180.6223566505
 30
0.0
 11
297.2868678294
 21
180.2023555014
 31
0.0
  0
LINE
  5
48D
330
1F
100
AcDbEntity
  8
0
  6
Continuous
 62
     7
370
    15
100
AcDbLine
 10
300.2106753312
 20
180.6223566505
 30
0.0
 11
297.7068674885
 21
180.6223566505
 31
0.0
  0
ELLIPSE
  5
48E
330
1F
100
AcDbEntity
  8
0
  6
Continuous
 62
     7
370
    15
100
AcDbEllipse
 10
300.2106601277
 20
180.4223486831
 30
0.0
 11
0.1414321262262206
 21
0.1414321262261922
 31
0.0
210
0.0
220
0.0
230
1.0
 40
0.9999238505
 41
5.497825219958946
 42
7.068545394400441
  0
LINE
  5
48F
330
1F
100
AcDbEntity
  8
0
  6
Continuous
 62
     7
370
    15
100
AcDbLine
 10
300.4106682859
 20
180.4223651859
 30
0.0
 11
300.4106682859
 21
177.9185558531
 31
0.0
  0
LINE
  5
490
330
1F
100
AcDbEntity
  8
0
  6
Continuous
 62
     7
370
    15
100
AcDbLine
 10
299.9906671367
 20
177.4985547039
 30
0.0
 11
300.4106682859
 21
177.9185558531
 31
0.0
  0
LINE
  5
491
330
1F
100
AcDbEntity
  8
0
  6
Continuous
 62
     7
370
    15
100
AcDbLine
 10
299.9906671367
 20
114.7650475475
 30
0.0
 11
299.9906671367
 21
177.4985547039
 31
0.0
  0
LINE
  5
492
330
1F
100
AcDbEntity
  8
0
  6
Continuous
 62
     7
370
    15
100
AcDbLine
 10
299.9906671367
 20
114.7650475475
 30
0.0
 11
300.4106682859
 21
114.3450463983
 31
0.0
  0
LINE
  5
493
330
1F
100
AcDbEntity
  8
0
  6
Continuous
 62
     7
370
    15
100
AcDbLine
 10
300.4106682859
 20
111.8412370655
 30
0.0
 11
300.4106682859
 21
114.3450463983
 31
0.0
  0
ELLIPSE
  5
494
330
1F
100
AcDbEntity
  8
0
  6
Continuous
 62
     7
370
    15
100
AcDbEllipse
 10
300.2106601277
 20
111.8412535684
 30
0.0
 11
-0.1414321262261637
 21
0.141432126226178
 31
0.0
210
0.0
220
0.0
230
1.0
 40
0.9999238505
 41
2.356232566369215
 42
3.926952740810557
  0
LINE
  5
495
330
1F
100
AcDbEntity
  8
0
  6
Continuous
 62
     7
370
    15
100
AcDbLine
 10
300.2106753312
 20
111.6412456009
 30
0.0
 11
297.7068674885
 21
111.6412456009
 31
0.0
  0
LINE
  5
496
330
1F
100
AcDbEntity
  8
0
  6
Continuous
 62
     7
370
    15
100
AcDbLine
 10
297.7068674885
 20
111.6412456009
 30
0.0
 11
297.2868678294
 21
112.0612467501
 31
0.0
  0
LINE
  5
497
330
1F
100
AcDbEntity
  8
0
  6
Continuous
 62
     7
370
    15
100
AcDbLine
 10
252.0526793919
 20
114.8465956423
 30
0.0
 11
252.0526793919
 21
177.4170066091
 31
0.0
  0
ARC
  5
498
330
1F
100
AcDbEntity
  8
0
  6
Continuous
 62
     7
370
    15
100
AcDbCircle
 10
253.9201125704
 20
113.9318011257
 30
0.0
 40
1.048043912833824
100
AcDbArc
 50
167.7034221096
 51
192.2965778906
  0
SPLINE
  5
499
330
1F
100
AcDbEntity
  8
0
  6
Continuous
 62
     7
370
    15
100
AcDbSpline
210
0.0
220
0.0
230
1.0
 70
    24
 71
     3
 72
    24
 73
    20
 74
     0
 42
0.000000001
 43
0.00000001
 40
0.0
 40
0.0
 40
0.0
 40
0.0
 40
0.2499999999998913
 40
0.2499999999998913
 40
0.374999999999837
 40
0.374999999999837
 40
0.4374999999998196
 40
0.4374999999998196
 40
0.4687499999998191
 40
0.4687499999998191
 40
0.4999999999998185
 40
0.4999999999998185
 40
0.5624999999998366
 40
0.5624999999998366
 40
0.6249999999998547
 40
0.6249999999998547
 40
0.7499999999999032
 40
0.7499999999999032
 40
1.0
 40
1.0
 40
1.0
 40
1.0
 10
252.8961125703563
 20
113.7085970862501
 30
0.0
 10
252.8961125703563
 20
113.7309585291704
 30
0.0
 10
252.8961125703563
 20
113.7556019697536
 30
0.0
 10
252.8961125703563
 20
113.8038307562641
 30
0.0
 10
252.8961125703563
 20
113.8215954879919
 30
0.0
 10
252.8961125703563
 20
113.8558036678465
 30
0.0
 10
252.8961125703563
 20
113.8685834025822
 30
0.0
 10
252.8961125703563
 20
113.8908561457669
 30
0.0
 10
252.8961125703563
 20
113.8987002812163
 30
0.0
 10
252.8961125703563
 20
113.915645879845
 30
0.0
 10
252.8961125703563
 20
113.924784904195
 30
0.0
 10
252.8961125703563
 20
113.9519535174867
 30
0.0
 10
252.8961125703563
 20
113.968974678761
 30
0.0
 10
252.8961125703563
 20
113.9981707765206
 30
0.0
 10
252.8961125703563
 20
114.0105352712777
 30
0.0
 10
252.8961125703563
 20
114.0440617158806
 30
0.0
 10
252.8961125703563
 20
114.0616012762658
 30
0.0
 10
252.8961125703563
 20
114.108672676896
 30
0.0
 10
252.8961125703563
 20
114.1329066006263
 30
0.0
 10
252.8961125703563
 20
114.1550051651569
 30
0.0
  0
CIRCLE
  5
49A
330
1F
100
AcDbEntity
  8
0
  6
Continuous
 62
     7
370
    15
100
AcDbCircle
 10
253.9201125704
 20
113.9318011257
 30
0.0
 40
0.9501463761129401
  0
ARC
  5
49B
330
1F
100
AcDbEntity
  8
0
  6
Continuous
 62
     7
370
    15
100
AcDbCircle
 10
253.9201125704
 20
178.3318011257
 30
0.0
 40
1.048043912834529
100
AcDbArc
 50
167.7034221094
 51
192.2965778906
  0
SPLINE
  5
49C
330
1F
100
AcDbEntity
  8
0
  6
Continuous
 62
     7
370
    15
100
AcDbSpline
210
0.0
220
0.0
230
1.0
 70
    24
 71
     3
 72
    24
 73
    20
 74
     0
 42
0.000000001
 43
0.00000001
 40
0.0
 40
0.0
 40
0.0
 40
0.0
 40
0.2499999999999946
 40
0.2499999999999946
 40
0.3749999999999875
 40
0.3749999999999875
 40
0.4374999999999902
 40
0.4374999999999902
 40
0.4687499999999994
 40
0.4687499999999994
 40
0.5000000000000088
 40
0.5000000000000088
 40
0.5625000000000083
 40
0.5625000000000083
 40
0.6250000000000078
 40
0.6250000000000078
 40
0.7499999999999993
 40
0.7499999999999993
 40
1.0
 40
1.0
 40
1.0
 40
1.0
 10
252.8961125703563
 20
178.5550051651569
 30
0.0
 10
252.8961125703563
 20
178.5326437222366
 30
0.0
 10
252.8961125703563
 20
178.5080002816534
 30
0.0
 10
252.8961125703563
 20
178.4597714951429
 30
0.0
 10
252.8961125703563
 20
178.4420067634151
 30
0.0
 10
252.8961125703563
 20
178.4077985835604
 30
0.0
 10
252.8961125703563
 20
178.3950188488247
 30
0.0
 10
252.8961125703563
 20
178.37274610564
 30
0.0
 10
252.8961125703563
 20
178.3649019701905
 30
0.0
 10
252.8961125703563
 20
178.3479563715619
 30
0.0
 10
252.8961125703563
 20
178.3388173472119
 30
0.0
 10
252.8961125703563
 20
178.3116487339201
 30
0.0
 10
252.8961125703563
 20
178.2946275726458
 30
0.0
 10
252.8961125703563
 20
178.2654314748863
 30
0.0
 10
252.8961125703563
 20
178.2530669801291
 30
0.0
 10
252.8961125703563
 20
178.2195405355262
 30
0.0
 10
252.8961125703563
 20
178.2020009751411
 30
0.0
 10
252.8961125703563
 20
178.154929574511
 30
0.0
 10
252.8961125703563
 20
178.1306956507808
 30
0.0
 10
252.8961125703563
 20
178.1085970862501
 30
0.0
  0
CIRCLE
  5
49D
330
1F
100
AcDbEntity
  8
0
  6
Continuous
 62
     7
370
    15
100
AcDbCircle
 10
253.9201125704
 20
178.3318011257
 30
0.0
 40
0.9501463761129401
  0
LINE
  5
49E
330
1F
100
AcDbEntity
  8
0
  6
Continuous
 62
     7
370
    15
100
AcDbLine
 10
254.6149072371
 20
180.8192337725
 30
0.0
 11
255.0349068962
 21
180.3992356035
 31
0.0
  0
LINE
  5
49F
330
1F
100
AcDbEntity
  8
0
  6
Continuous
 62
     7
370
    15
100
AcDbLine
 10
255.0349068962
 20
180.3992356035
 30
0.0
 11
254.9533573113
 21
180.2023555014
 31
0.0
  0
LINE
  5
4A0
330
1F
100
AcDbEntity
  8
0
  6
Continuous
 62
     7
370
    15
100
AcDbLine
 10
255.0349068962
 20
111.8643666479
 30
0.0
 11
254.9533573113
 21
112.0612467501
 31
0.0
  0
LINE
  5
4A1
330
1F
100
AcDbEntity
  8
0
  6
Continuous
 62
     7
370
    15
100
AcDbLine
 10
254.6149072371
 20
111.444368479
 30
0.0
 11
255.0349068962
 21
111.8643666479
 31
0.0
  0
LINE
  5
4A2
330
1F
100
AcDbEntity
  8
0
  6
Continuous
 62
     7
370
    15
100
AcDbLine
 10
255.0349068962
 20
180.3992356035
 30
0.0
 11
297.2053182445
 21
180.3992356035
 31
0.0
  0
LINE
  5
4A3
330
1F
100
AcDbEntity
  8
0
  6
Continuous
 62
     7
370
    15
100
AcDbLine
 10
297.2053182445
 20
180.3992356035
 30
0.0
 11
297.2868678294
 21
180.2023555014
 31
0.0
  0
LINE
  5
4A4
330
1F
100
AcDbEntity
  8
0
  6
Continuous
 62
     7
370
    15
100
AcDbLine
 10
297.2053182445
 20
111.8643666479
 30
0.0
 11
255.0349068962
 21
111.8643666479
 31
0.0
  0
LINE
  5
4A5
330
1F
100
AcDbEntity
  8
0
  6
Continuous
 62
     7
370
    15
100
AcDbLine
 10
297.2053182445
 20
111.8643666479
 30
0.0
 11
297.2868678294
 21
112.0612467501
 31
0.0
  0
LINE
  5
4A6
330
1F
100
AcDbEntity
  8
0
  6
Continuous
 62
     7
370
    15
100
AcDbLine
 10
297.6253179036
 20
111.444368479
 30
0.0
 11
297.7068674885
 21
111.6412456009
 31
0.0
  0
LINE
  5
4A7
330
1F
100
AcDbEntity
  8
0
  6
Continuous
 62
     7
370
    15
100
AcDbLine
 10
297.6253179036
 20
111.444368479
 30
0.0
 11
297.2053182445
 21
111.8643666479
 31
0.0
  0
SPLINE
  5
4A8
330
1F
100
AcDbEntity
  8
0
  6
Continuous
 62
     7
370
    15
100
AcDbSpline
210
0.0
220
0.0
230
1.0
 70
    24
 71
     3
 72
    24
 73
    20
 74
     0
 42
0.000000001
 43
0.00000001
 40
0.0
 40
0.0
 40
0.0
 40
0.0
 40
0.2500000000000167
 40
0.2500000000000167
 40
0.3750000000000294
 40
0.3750000000000294
 40
0.4375000000000296
 40
0.4375000000000296
 40
0.4687500000000377
 40
0.4687500000000377
 40
0.5000000000000459
 40
0.5000000000000459
 40
0.562500000000043
 40
0.562500000000043
 40
0.62500000000004
 40
0.62500000000004
 40
0.7500000000000266
 40
0.7500000000000266
 40
1.0
 40
1.0
 40
1.0
 40
1.0
 10
299.3441125703563
 20
178.5550051651569
 30
0.0
 10
299.3441125703563
 20
178.5326437222366
 30
0.0
 10
299.3441125703563
 20
178.5080002816534
 30
0.0
 10
299.3441125703563
 20
178.4597714951429
 30
0.0
 10
299.3441125703563
 20
178.4420067634151
 30
0.0
 10
299.3441125703563
 20
178.4077985835604
 30
0.0
 10
299.3441125703563
 20
178.3950188488247
 30
0.0
 10
299.3441125703563
 20
178.37274610564
 30
0.0
 10
299.3441125703563
 20
178.3649019701905
 30
0.0
 10
299.3441125703563
 20
178.3479563715619
 30
0.0
 10
299.3441125703563
 20
178.3388173472119
 30
0.0
 10
299.3441125703563
 20
178.3116487339201
 30
0.0
 10
299.3441125703563
 20
178.2946275726458
 30
0.0
 10
299.3441125703563
 20
178.2654314748863
 30
0.0
 10
299.3441125703563
 20
178.2530669801291
 30
0.0
 10
299.3441125703563
 20
178.2195405355262
 30
0.0
 10
299.3441125703563
 20
178.2020009751411
 30
0.0
 10
299.3441125703563
 20
178.154929574511
 30
0.0
 10
299.3441125703563
 20
178.1306956507808
 30
0.0
 10
299.3441125703563
 20
178.1085970862501
 30
0.0
  0
ARC
  5
4A9
330
1F
100
AcDbEntity
  8
0
  6
Continuous
 62
     7
370
    15
100
AcDbCircle
 10
298.3201125704
 20
178.3318011257
 30
0.0
 40
1.048043912834529
100
AcDbArc
 50
347.7034221094
 51
12.2965778906
  0
CIRCLE
  5
4AA
330
1F
100
AcDbEntity
  8
0
  6
Continuous
 62
     7
370
    15
100
AcDbCircle
 10
298.3201125704
 20
178.3318011257
 30
0.0
 40
0.9501463761129685
  0
LINE
  5
4AB
330
1F
100
AcDbEntity
  8
0
  6
Continuous
 62
     7
370
    15
100
AcDbLine
 10
297.6253179036
 20
180.8192337725
 30
0.0
 11
297.2053182445
 21
180.3992356035
 31
0.0
  0
LINE
  5
4AC
330
1F
100
AcDbEntity
  8
0
  6
Continuous
 62
     7
370
    15
100
AcDbLine
 10
297.6253179036
 20
180.8192337725
 30
0.0
 11
297.7068674885
 21
180.6223566505
 31
0.0
  0
ARC
  5
4AD
330
1F
100
AcDbEntity
  8
0
  6
Continuous
 62
     7
370
    15
100
AcDbCircle
 10
298.3201125704
 20
113.9318011257
 30
0.0
 40
1.048043912834529
100
AcDbArc
 50
347.7034221094
 51
12.2965778906
  0
SPLINE
  5
4AE
330
1F
100
AcDbEntity
  8
0
  6
Continuous
 62
     7
370
    15
100
AcDbSpline
210
0.0
220
0.0
230
1.0
 70
    24
 71
     3
 72
    24
 73
    20
 74
     0
 42
0.000000001
 43
0.00000001
 40
0.0
 40
0.0
 40
0.0
 40
0.0
 40
0.2500000000000167
 40
0.2500000000000167
 40
0.3750000000000294
 40
0.3750000000000294
 40
0.4375000000000296
 40
0.4375000000000296
 40
0.4687500000000377
 40
0.4687500000000377
 40
0.5000000000000459
 40
0.5000000000000459
 40
0.562500000000043
 40
0.562500000000043
 40
0.62500000000004
 40
0.62500000000004
 40
0.7500000000000266
 40
0.7500000000000266
 40
1.0
 40
1.0
 40
1.0
 40
1.0
 10
299.3441125703563
 20
113.7085970862501
 30
0.0
 10
299.3441125703563
 20
113.7309585291704
 30
0.0
 10
299.3441125703563
 20
113.7556019697536
 30
0.0
 10
299.3441125703563
 20
113.8038307562641
 30
0.0
 10
299.3441125703563
 20
113.8215954879919
 30
0.0
 10
299.3441125703563
 20
113.8558036678466
 30
0.0
 10
299.3441125703563
 20
113.8685834025823
 30
0.0
 10
299.3441125703563
 20
113.890856145767
 30
0.0
 10
299.3441125703563
 20
113.8987002812165
 30
0.0
 10
299.3441125703563
 20
113.9156458798452
 30
0.0
 10
299.3441125703563
 20
113.9247849041951
 30
0.0
 10
299.3441125703563
 20
113.9519535174869
 30
0.0
 10
299.3441125703563
 20
113.9689746787612
 30
0.0
 10
299.3441125703563
 20
113.9981707765208
 30
0.0
 10
299.3441125703563
 20
114.0105352712779
 30
0.0
 10
299.3441125703563
 20
114.0440617158808
 30
0.0
 10
299.3441125703563
 20
114.0616012762659
 30
0.0
 10
299.3441125703563
 20
114.1086726768961
 30
0.0
 10
299.3441125703563
 20
114.1329066006262
 30
0.0
 10
299.3441125703563
 20
114.1550051651569
 30
0.0
  0
CIRCLE
  5
4AF
330
1F
100
AcDbEntity
  8
0
  6
Continuous
 62
     7
370
    15
100
AcDbCircle
 10
298.3201125704
 20
113.9318011257
 30
0.0
 40
0.9501463761129685
  0
LINE
  5
4B0
330
1F
100
AcDbEntity
  8
0
  6
Continuous
 62
     7
370
    15
100
AcDbLine
 10
300.2106753312
 20
180.6223566505
 30
0.0
 11
300.4075539432
 21
180.8192337725
 31
0.0
  0
LINE
  5
4B1
330
1F
100
AcDbEntity
  8
0
  6
Continuous
 62
     7
370
    15
100
AcDbLine
 10
300.4075539432
 20
180.8192337725
 30
0.0
 11
297.6253179036
 21
180.8192337725
 31
0.0
  0
LINE
  5
4B2
330
1F
100
AcDbEntity
  8
0
  6
Continuous
 62
     7
370
    15
100
AcDbLine
 10
300.2106753312
 20
111.6412456009
 30
0.0
 11
300.4075539432
 21
111.444368479
 31
0.0
  0
LINE
  5
4B3
330
1F
100
AcDbEntity
  8
0
  6
Continuous
 62
     7
370
    15
100
AcDbLine
 10
300.4075539432
 20
111.444368479
 30
0.0
 11
297.6253179036
 21
111.444368479
 31
0.0
  0
LINE
  5
4B4
330
1F
100
AcDbEntity
  8
0
  6
Continuous
 62
     7
370
    15
100
AcDbLine
 10
300.6075454078
 20
177.8370077583
 30
0.0
 11
300.4106682859
 21
177.9185558531
 31
0.0
  0
LINE
  5
4B5
330
1F
100
AcDbEntity
  8
0
  6
Continuous
 62
     7
370
    15
100
AcDbLine
 10
300.1875457488
 20
177.4170066091
 30
0.0
 11
300.6075454078
 21
177.8370077583
 31
0.0
  0
LINE
  5
4B6
330
1F
100
AcDbEntity
  8
0
  6
Continuous
 62
     7
370
    15
100
AcDbLine
 10
300.1875457488
 20
177.4170066091
 30
0.0
 11
299.9906671367
 21
177.4985547039
 31
0.0
  0
LINE
  5
4B7
330
1F
100
AcDbEntity
  8
0
  6
Continuous
 62
     7
370
    15
100
AcDbLine
 10
300.1875457488
 20
177.4170066091
 30
0.0
 11
300.1875457488
 21
114.8465956423
 31
0.0
  0
LINE
  5
4B8
330
1F
100
AcDbEntity
  8
0
  6
Continuous
 62
     7
370
    15
100
AcDbLine
 10
300.1875457488
 20
114.8465956423
 30
0.0
 11
299.9906671367
 21
114.7650475475
 31
0.0
  0
LINE
  5
4B9
330
1F
100
AcDbEntity
  8
0
  6
Continuous
 62
     7
370
    15
100
AcDbLine
 10
300.1875457488
 20
114.8465956423
 30
0.0
 11
300.6075454078
 21
114.4265944931
 31
0.0
  0
LINE
  5
4BA
330
1F
100
AcDbEntity
  8
0
  6
Continuous
 62
     7
370
    15
100
AcDbLine
 10
300.6075454078
 20
114.4265944931
 30
0.0
 11
300.4106682859
 21
114.3450463983
 31
0.0
  0
LINE
  5
4BB
330
1F
100
AcDbEntity
  8
0
  6
Continuous
 62
     7
370
    15
100
AcDbLine
 10
300.4106682859
 20
111.8412370655
 30
0.0
 11
300.6075454078
 21
111.6443599436
 31
0.0
  0
LINE
  5
4BC
330
1F
100
AcDbEntity
  8
0
  6
Continuous
 62
     7
370
    15
100
AcDbLine
 10
300.6075454078
 20
114.4265944931
 30
0.0
 11
300.6075454078
 21
111.6443599436
 31
0.0
  0
ELLIPSE
  5
4BD
330
1F
100
AcDbEntity
  8
0
  6
Continuous
 62
     7
370
    15
100
AcDbEllipse
 10
300.4075382651
 20
111.644375431
 30
0.0
 11
-0.1414321262262206
 21
0.1414321262261637
 31
0.0
210
0.0
220
0.0
230
1.0
 40
0.9999238505
 41
2.356232566368888
 42
3.926952740810453
  0
LINE
  5
4BE
330
1F
100
AcDbEntity
  8
0
  6
Continuous
 62
     7
370
    15
100
AcDbLine
 10
300.4106682859
 20
180.4223651859
 30
0.0
 11
300.6075454078
 21
180.6192423078
 31
0.0
  0
LINE
  5
4BF
330
1F
100
AcDbEntity
  8
0
  6
Continuous
 62
     7
370
    15
100
AcDbLine
 10
300.6075454078
 20
177.8370077583
 30
0.0
 11
300.6075454078
 21
180.6192423078
 31
0.0
  0
ELLIPSE
  5
4C0
330
1F
100
AcDbEntity
  8
0
  6
Continuous
 62
     7
370
    15
100
AcDbEllipse
 10
300.4075382651
 20
180.6192268204
 30
0.0
 11
0.1414321262261637
 21
0.1414321262261921
 31
0.0
210
0.0
220
0.0
230
1.0
 40
0.9999238505
 41
5.497825219958796
 42
7.06854539440019
  0
CIRCLE
  5
4C1
330
1F
100
AcDbEntity
  8
0
  6
Continuous
 62
     7
370
    15
100
AcDbCircle
 10
253.9201125704
 20
113.9318011257
 30
0.0
 40
0.8454477688425754
  0
CIRCLE
  5
4C2
330
1F
100
AcDbEntity
  8
0
  6
Continuous
 62
     7
370
    15
100
AcDbCircle
 10
253.9201125704
 20
113.9318011257
 30
0.0
 40
0.6999999999999602
  0
CIRCLE
  5
4C3
330
1F
100
AcDbEntity
  8
0
  6
Continuous
 62
     7
370
    15
100
AcDbCircle
 10
253.9201125704
 20
178.3318011257
 30
0.0
 40
0.8454477688425754
  0
CIRCLE
  5
4C4
330
1F
100
AcDbEntity
  8
0
  6
Continuous
 62
     7
370
    15
100
AcDbCircle
 10
253.9201125704
 20
178.3318011257
 30
0.0
 40
0.6999999999999602
  0
CIRCLE
  5
4C5
330
1F
100
AcDbEntity
  8
0
  6
Continuous
 62
     7
370
    15
100
AcDbCircle
 10
298.3201125704
 20
178.3318011257
 30
0.0
 40
0.8454477688425754
  0
CIRCLE
  5
4C6
330
1F
100
AcDbEntity
  8
0
  6
Continuous
 62
     7
370
    15
100
AcDbCircle
 10
298.3201125704
 20
113.9318011257
 30
0.0
 40
0.8454477688425754
  0
CIRCLE
  5
4C7
330
1F
100
AcDbEntity
  8
0
  6
Continuous
 62
     7
370
    15
100
AcDbCircle
 10
298.3201125704
 20
178.3318011257
 30
0.0
 40
0.6999999999999886
  0
CIRCLE
  5
4C8
330
1F
100
AcDbEntity
  8
0
  6
Continuous
 62
     7
370
    15
100
AcDbCircle
 10
298.3201125704
 20
113.9318011257
 30
0.0
 40
0.6999999999999886
  0
CIRCLE
  5
4C9
330
1F
100
AcDbEntity
  8
0
  6
Continuous
 62
     7
370
    15
100
AcDbCircle
 10
253.9201125704
 20
178.3318011257
 30
0.0
 40
0.2999999999999545
  0
CIRCLE
  5
4CA
330
1F
100
AcDbEntity
  8
0
  6
Continuous
 62
     7
370
    15
100
AcDbCircle
 10
253.9201125704
 20
113.9318011257
 30
0.0
 40
0.2999999999999545
  0
CIRCLE
  5
4CB
330
1F
100
AcDbEntity
  8
0
  6
Continuous
 62
     7
370
    15
100
AcDbCircle
 10
298.3201125704
 20
178.3318011257
 30
0.0
 40
0.2999999999999545
  0
CIRCLE
  5
4CC
330
1F
100
AcDbEntity
  8
0
  6
Continuous
 62
     7
370
    15
100
AcDbCircle
 10
298.3201125704
 20
113.9318011257
 30
0.0
 40
0.2999999999999545
  0
LINE
  5
4CD
330
1F
100
AcDbEntity
  8
0
  6
Continuous
 62
     7
370
    15
100
AcDbLine
 10
251.8451717816
 20
111.1569370005
 30
0.0
 11
300.3950533591
 21
111.1569370005
 31
0.0
  0
ELLIPSE
  5
4CE
330
1F
100
AcDbEntity
  8
0
  6
Continuous
 62
     7
370
    15
100
AcDbEllipse
 10
251.8453240279
 20
111.6570125832
 30
0.0
 11
-0.3536610945847941
 21
-0.3536610945847798
 31
0.0
210
0.0
220
0.0
230
1.0
 40
0.9996954599
 41
5.49793943701539
 42
7.068431177343808
  0
LINE
  5
4CF
330
1F
100
AcDbEntity
  8
0
  6
Continuous
 62
     7
370
    15
100
AcDbLine
 10
251.3452482544
 20
180.6067432138
 30
0.0
 11
251.3452482544
 21
111.6568590376
 31
0.0
  0
ELLIPSE
  5
4D0
330
1F
100
AcDbEntity
  8
0
  6
Continuous
 62
     7
370
    15
100
AcDbEllipse
 10
251.8453240279
 20
180.6065896682
 30
0.0
 11
0.353661094584794
 21
-0.353661094584794
 31
0.0
210
0.0
220
0.0
230
1.0
 40
0.9996954599
 41
2.356346783425582
 42
3.926838523754019
  0
LINE
  5
4D1
330
1F
100
AcDbEntity
  8
0
  6
Continuous
 62
     7
370
    15
100
AcDbLine
 10
300.3950533591
 20
181.106665251
 30
0.0
 11
251.8451717816
 21
181.106665251
 31
0.0
  0
ELLIPSE
  5
4D2
330
1F
100
AcDbEntity
  8
0
  6
Continuous
 62
     7
370
    15
100
AcDbEllipse
 10
300.3949011128
 20
180.6065896682
 30
0.0
 11
0.3536610945848224
 21
0.353661094584794
 31
0.0
210
0.0
220
0.0
230
1.0
 40
0.9996954599
 41
5.497939437015429
 42
7.068431177343838
  0
LINE
  5
4D3
330
1F
100
AcDbEntity
  8
0
  6
Continuous
 62
     7
370
    15
100
AcDbLine
 10
300.8949768863
 20
111.6568590376
 30
0.0
 11
300.8949768863
 21
180.6067432138
 31
0.0
  0
ELLIPSE
  5
4D4
330
1F
100
AcDbEntity
  8
0
  6
Continuous
 62
     7
370
    15
100
AcDbEllipse
 10
300.3949011128
 20
111.6570125832
 30
0.0
 11
-0.3536610945847656
 21
0.353661094584794
 31
0.0
210
0.0
220
0.0
230
1.0
 40
0.9996954599
 41
2.356346783425682
 42
3.926838523754027
  0
LINE
  5
4D5
330
1F
100
AcDbEntity
  8
0
  6
Continuous
 62
     7
370
    15
100
AcDbLine
 10
251.3452482544
 20
180.6067432138
 30
0.0
 11
251.3201129757
 21
180.6318784925
 31
0.0
  0
ELLIPSE
  5
4D6
330
1F
100
AcDbEntity
  8
0
  6
Continuous
 62
     7
370
    15
100
AcDbEllipse
 10
251.8201887344
 20
180.6317249617
 30
0.0
 11
0.353661094584794
 21
-0.3536610945847656
 31
0.0
210
0.0
220
0.0
230
1.0
 40
0.9996954599
 41
2.356346783425545
 42
3.926838523753918
  0
LINE
  5
4D7
330
1F
100
AcDbEntity
  8
0
  6
Continuous
 62
     7
370
    15
100
AcDbLine
 10
251.8451717816
 20
181.106665251
 30
0.0
 11
251.8200365029
 21
181.1318005297
 31
0.0
  0
LINE
  5
4D8
330
1F
100
AcDbEntity
  8
0
  6
Continuous
 62
     7
370
    15
100
AcDbLine
 10
251.8451717816
 20
111.1569370005
 30
0.0
 11
251.8200365029
 21
111.1318017217
 31
0.0
  0
ELLIPSE
  5
4D9
330
1F
100
AcDbEntity
  8
0
  6
Continuous
 62
     7
370
    15
100
AcDbEllipse
 10
251.8201887344
 20
111.6318772897
 30
0.0
 11
-0.3536610945847656
 21
-0.353661094584794
 31
0.0
210
0.0
220
0.0
230
1.0
 40
0.9996954599
 41
5.497939437015358
 42
7.068431177343804
  0
LINE
  5
4DA
330
1F
100
AcDbEntity
  8
0
  6
Continuous
 62
     7
370
    15
100
AcDbLine
 10
251.3452482544
 20
111.6568590376
 30
0.0
 11
251.3201129757
 21
111.6317237589
 31
0.0
  0
LINE
  5
4DB
330
1F
100
AcDbEntity
  8
0
  6
Continuous
 62
     7
370
    15
100
AcDbLine
 10
251.3201129757
 20
111.6317237589
 30
0.0
 11
251.3201129757
 21
180.6318784925
 31
0.0
  0
LINE
  5
4DC
330
1F
100
AcDbEntity
  8
0
  6
Continuous
 62
     7
370
    15
100
AcDbLine
 10
251.8200365029
 20
181.1318005297
 30
0.0
 11
300.4201886378
 21
181.1318005297
 31
0.0
  0
LINE
  5
4DD
330
1F
100
AcDbEntity
  8
0
  6
Continuous
 62
     7
370
    15
100
AcDbLine
 10
300.3950533591
 20
181.106665251
 30
0.0
 11
300.4201886378
 21
181.1318005297
 31
0.0
  0
LINE
  5
4DE
330
1F
100
AcDbEntity
  8
0
  6
Continuous
 62
     7
370
    15
100
AcDbLine
 10
300.4201886378
 20
111.1318017217
 30
0.0
 11
251.8200365029
 21
111.1318017217
 31
0.0
  0
LINE
  5
4DF
330
1F
100
AcDbEntity
  8
0
  6
Continuous
 62
     7
370
    15
100
AcDbLine
 10
300.3950533591
 20
111.1569370005
 30
0.0
 11
300.4201886378
 21
111.1318017217
 31
0.0
  0
LINE
  5
4E0
330
1F
100
AcDbEntity
  8
0
  6
Continuous
 62
     7
370
    15
100
AcDbLine
 10
300.8949768863
 20
111.6568590376
 30
0.0
 11
300.920112165
 21
111.6317237589
 31
0.0
  0
ELLIPSE
  5
4E1
330
1F
100
AcDbEntity
  8
0
  6
Continuous
 62
     7
370
    15
100
AcDbEllipse
 10
300.4200364063
 20
111.6318772897
 30
0.0
 11
-0.3536610945847656
 21
0.353661094584794
 31
0.0
210
0.0
220
0.0
230
1.0
 40
0.9996954599
 41
2.356346783425652
 42
3.926838523754029
  0
ELLIPSE
  5
4E2
330
1F
100
AcDbEntity
  8
0
  6
Continuous
 62
     7
370
    15
100
AcDbEllipse
 10
300.4200364063
 20
180.6317249617
 30
0.0
 11
0.3536610945847656
 21
0.353661094584794
 31
0.0
210
0.0
220
0.0
230
1.0
 40
0.9996954599
 41
5.497939437015348
 42
7.068431177343757
  0
LINE
  5
4E3
330
1F
100
AcDbEntity
  8
0
  6
Continuous
 62
     7
370
    15
100
AcDbLine
 10
300.8949768863
 20
180.6067432138
 30
0.0
 11
300.920112165
 21
180.6318784925
 31
0.0
  0
LINE
  5
4E4
330
1F
100
AcDbEntity
  8
0
  6
Continuous
 62
     7
370
    15
100
AcDbLine
 10
300.920112165
 20
180.6318784925
 30
0.0
 11
300.920112165
 21
111.6317237589
 31
0.0
  0
ENDSEC
  0
SECTION
  2
OBJECTS
  0
DICTIONARY
  5
C
330
0
100
AcDbDictionary
281
     1
  3
ACAD_GROUP
350
D
  3
ACAD_LAYOUT
350
1A
  3
ACAD_MLINESTYLE
350
17
  3
ACAD_PLOTSETTINGS
350
19
  3
ACAD_PLOTSTYLENAME
350
E
  3
ACAD_SCALELIST
350
47
  0
DICTIONARY
  5
D
102
{ACAD_REACTORS
330
C
102
}
330
C
100
AcDbDictionary
281
     1
  0
DICTIONARY
  5
1A
102
{ACAD_REACTORS
330
C
102
}
330
C
100
AcDbDictionary
281
     1
  3
Layout1
350
1E
  3
Layout2
350
26
  3
Model
350
22
  0
DICTIONARY
  5
17
102
{ACAD_REACTORS
330
C
102
}
330
C
100
AcDbDictionary
281
     1
  3
Standard
350
18
  0
DICTIONARY
  5
19
102
{ACAD_REACTORS
330
C
102
}
330
C
100
AcDbDictionary
281
     1
  0
ACDBDICTIONARYWDFLT
  5
E
102
{ACAD_REACTORS
330
C
102
}
330
C
100
AcDbDictionary
281
     1
  3
Normal
350
F
100
AcDbDictionaryWithDefault
340
F
  0
DICTIONARY
  5
47
102
{ACAD_REACTORS
330
C
102
}
330
C
100
AcDbDictionary
281
     1
  3
A0
350
48
  3
A1
350
49
  3
A2
350
4A
  3
A3
350
4B
  3
A4
350
4C
  3
A5
350
4D
  3
A6
350
4E
  3
A7
350
4F
  3
A8
350
50
  3
A9
350
51
  3
B0
350
52
  3
B1
350
53
  3
B2
350
54
  3
B3
350
55
  3
B4
350
56
  3
B5
350
57
  3
B6
350
58
  3
B7
350
59
  3
B8
350
5A
  3
B9
350
5B
  3
C0
350
5C
  3
C1
350
5D
  3
C2
350
5E
  3
C3
350
5F
  3
C4
350
60
  3
C5
350
61
  3
C6
350
62
  3
C7
350
63
  3
C8
350
64
  3
C9
350
65
  3
D0
350
66
  3
D1
350
67
  3
D2
350
68
  0
LAYOUT
  5
1E
102
{ACAD_REACTORS
330
1A
102
}
330
1A
100
AcDbPlotSettings
  1

  2
none_device
  4

  6

 40
0.0
 41
0.0
 42
0.0
 43
0.0
 44
0.0
 45
0.0
 46
0.0
 47
0.0
 48
0.0
 49
0.0
140
0.0
141
0.0
142
1.0
143
1.0
 70
   688
 72
     1
 73
     0
 74
     5
  7

 75
    16
147
1.0
148
0.0
149
0.0
100
AcDbLayout
  1
Layout1
 70
     1
 71
     1
 10
0.0
 20
0.0
 11
420.0
 21
297.0
 12
0.0
 22
0.0
 32
0.0
 14
1.0000000000E+20
 24
1.0000000000E+20
 34
1.0000000000E+20
 15
-1.0000000000E+20
 25
-1.0000000000E+20
 35
-1.0000000000E+20
146
0.0
 13
0.0
 23
0.0
 33
0.0
 16
1.0
 26
0.0
 36
0.0
 17
0.0
 27
1.0
 37
0.0
 76
     0
330
1B
  0
LAYOUT
  5
26
102
{ACAD_REACTORS
330
1A
102
}
330
1A
100
AcDbPlotSettings
  1

  2
none_device
  4

  6

 40
0.0
 41
0.0
 42
0.0
 43
0.0
 44
0.0
 45
0.0
 46
0.0
 47
0.0
 48
0.0
 49
0.0
140
0.0
141
0.0
142
1.0
143
1.0
 70
   688
 72
     1
 73
     0
 74
     5
  7

 75
    16
147
1.0
148
0.0
149
0.0
100
AcDbLayout
  1
Layout2
 70
     1
 71
     2
 10
0.0
 20
0.0
 11
0.0
 21
0.0
 12
0.0
 22
0.0
 32
0.0
 14
0.0
 24
0.0
 34
0.0
 15
0.0
 25
0.0
 35
0.0
146
0.0
 13
0.0
 23
0.0
 33
0.0
 16
1.0
 26
0.0
 36
0.0
 17
0.0
 27
1.0
 37
0.0
 76
     0
330
23
  0
LAYOUT
  5
22
102
{ACAD_REACTORS
330
1A
102
}
330
1A
100
AcDbPlotSettings
  1

  2
none_device
  4
Letter_(8.50_x_11.00_Inches)
  6

 40
6.35
 41
6.35
 42
6.35000508
 43
6.35000508
 44
215.9
 45
279.4
 46
0.0
 47
0.0
 48
0.0
 49
0.0
140
0.0
141
0.0
142
1.0
143
1.0
 70
  1712
 72
     1
 73
     0
 74
     0
  7

 75
     0
147
1.0
148
0.0
149
0.0
100
AcDbLayout
  1
Model
 70
     1
 71
     0
 10
0.0
 20
0.0
 11
420.0
 21
297.0
 12
0.0
 22
0.0
 32
0.0
 14
0.0
 24
0.0
 34
0.0
 15
420.0
 25
297.0
 35
0.0
146
0.0
 13
0.0
 23
0.0
 33
0.0
 16
1.0
 26
0.0
 36
0.0
 17
0.0
 27
1.0
 37
0.0
 76
     0
330
1F
331
29
  0
MLINESTYLE
  5
18
102
{ACAD_REACTORS
330
17
102
}
330
17
100
AcDbMlineStyle
  2
Standard
 70
     0
  3

 62
   256
 51
90.0
 52
90.0
 71
     2
 49
0.5
 62
   256
  6
BYLAYER
 49
-0.5
 62
   256
  6
BYLAYER
  0
ACDBPLACEHOLDER
  5
F
102
{ACAD_REACTORS
330
E
102
}
330
E
  0
SCALE
  5
48
102
{ACAD_REACTORS
330
47
102
}
330
47
100
AcDbScale
 70
     0
300
1:1
140
1.0
141
1.0
290
     1
  0
SCALE
  5
49
102
{ACAD_REACTORS
330
47
102
}
330
47
100
AcDbScale
 70
     0
300
1:2
140
1.0
141
2.0
290
     0
  0
SCALE
  5
4A
102
{ACAD_REACTORS
330
47
102
}
330
47
100
AcDbScale
 70
     0
300
1:4
140
1.0
141
4.0
290
     0
  0
SCALE
  5
4B
102
{ACAD_REACTORS
330
47
102
}
330
47
100
AcDbScale
 70
     0
300
1:5
140
1.0
141
5.0
290
     0
  0
SCALE
  5
4C
102
{ACAD_REACTORS
330
47
102
}
330
47
100
AcDbScale
 70
     0
300
1:8
140
1.0
141
8.0
290
     0
  0
SCALE
  5
4D
102
{ACAD_REACTORS
330
47
102
}
330
47
100
AcDbScale
 70
     0
300
1:10
140
1.0
141
10.0
290
     0
  0
SCALE
  5
4E
102
{ACAD_REACTORS
330
47
102
}
330
47
100
AcDbScale
 70
     0
300
1:16
140
1.0
141
16.0
290
     0
  0
SCALE
  5
4F
102
{ACAD_REACTORS
330
47
102
}
330
47
100
AcDbScale
 70
     0
300
1:20
140
1.0
141
20.0
290
     0
  0
SCALE
  5
50
102
{ACAD_REACTORS
330
47
102
}
330
47
100
AcDbScale
 70
     0
300
1:30
140
1.0
141
30.0
290
     0
  0
SCALE
  5
51
102
{ACAD_REACTORS
330
47
102
}
330
47
100
AcDbScale
 70
     0
300
1:40
140
1.0
141
40.0
290
     0
  0
SCALE
  5
52
102
{ACAD_REACTORS
330
47
102
}
330
47
100
AcDbScale
 70
     0
300
1:50
140
1.0
141
50.0
290
     0
  0
SCALE
  5
53
102
{ACAD_REACTORS
330
47
102
}
330
47
100
AcDbScale
 70
     0
300
1:100
140
1.0
141
100.0
290
     0
  0
SCALE
  5
54
102
{ACAD_REACTORS
330
47
102
}
330
47
100
AcDbScale
 70
     0
300
2:1
140
2.0
141
1.0
290
     0
  0
SCALE
  5
55
102
{ACAD_REACTORS
330
47
102
}
330
47
100
AcDbScale
 70
     0
300
4:1
140
4.0
141
1.0
290
     0
  0
SCALE
  5
56
102
{ACAD_REACTORS
330
47
102
}
330
47
100
AcDbScale
 70
     0
300
8:1
140
8.0
141
1.0
290
     0
  0
SCALE
  5
57
102
{ACAD_REACTORS
330
47
102
}
330
47
100
AcDbScale
 70
     0
300
10:1
140
10.0
141
1.0
290
     0
  0
SCALE
  5
58
102
{ACAD_REACTORS
330
47
102
}
330
47
100
AcDbScale
 70
     0
300
100:1
140
100.0
141
1.0
290
     0
  0
SCALE
  5
59
102
{ACAD_REACTORS
330
47
102
}
330
47
100
AcDbScale
 70
     0
300
1/128" = 1'-0"
140
0.0078125
141
12.0
290
     0
  0
SCALE
  5
5A
102
{ACAD_REACTORS
330
47
102
}
330
47
100
AcDbScale
 70
     0
300
1/64" = 1'-0"
140
0.015625
141
12.0
290
     0
  0
SCALE
  5
5B
102
{ACAD_REACTORS
330
47
102
}
330
47
100
AcDbScale
 70
     0
300
1/32" = 1'-0"
140
0.03125
141
12.0
290
     0
  0
SCALE
  5
5C
102
{ACAD_REACTORS
330
47
102
}
330
47
100
AcDbScale
 70
     0
300
1/16" = 1'-0"
140
0.0625
141
12.0
290
     0
  0
SCALE
  5
5D
102
{ACAD_REACTORS
330
47
102
}
330
47
100
AcDbScale
 70
     0
300
3/32" = 1'-0"
140
0.09375
141
12.0
290
     0
  0
SCALE
  5
5E
102
{ACAD_REACTORS
330
47
102
}
330
47
100
AcDbScale
 70
     0
300
1/8" = 1'-0"
140
0.125
141
12.0
290
     0
  0
SCALE
  5
5F
102
{ACAD_REACTORS
330
47
102
}
330
47
100
AcDbScale
 70
     0
300
3/16" = 1'-0"
140
0.1875
141
12.0
290
     0
  0
SCALE
  5
60
102
{ACAD_REACTORS
330
47
102
}
330
47
100
AcDbScale
 70
     0
300
1/4" = 1'-0"
140
0.25
141
12.0
290
     0
  0
SCALE
  5
61
102
{ACAD_REACTORS
330
47
102
}
330
47
100
AcDbScale
 70
     0
300
3/8" = 1'-0"
140
0.375
141
12.0
290
     0
  0
SCALE
  5
62
102
{ACAD_REACTORS
330
47
102
}
330
47
100
AcDbScale
 70
     0
300
1/2" = 1'-0"
140
0.5
141
12.0
290
     0
  0
SCALE
  5
63
102
{ACAD_REACTORS
330
47
102
}
330
47
100
AcDbScale
 70
     0
300
3/4" = 1'-0"
140
0.75
141
12.0
290
     0
  0
SCALE
  5
64
102
{ACAD_REACTORS
330
47
102
}
330
47
100
AcDbScale
 70
     0
300
1" = 1'-0"
140
1.0
141
12.0
290
     0
  0
SCALE
  5
65
102
{ACAD_REACTORS
330
47
102
}
330
47
100
AcDbScale
 70
     0
300
1-1/2" = 1'-0"
140
1.5
141
12.0
290
     0
  0
SCALE
  5
66
102
{ACAD_REACTORS
330
47
102
}
330
47
100
AcDbScale
 70
     0
300
3" = 1'-0"
140
3.0
141
12.0
290
     0
  0
SCALE
  5
67
102
{ACAD_REACTORS
330
47
102
}
330
47
100
AcDbScale
 70
     0
300
6" = 1'-0"
140
6.0
141
12.0
290
     0
  0
SCALE
  5
68
102
{ACAD_REACTORS
330
47
102
}
330
47
100
AcDbScale
 70
     0
300
1'-0" = 1'-0"
140
12.0
141
12.0
290
     0
  0
ENDSEC
  0
EOF
