  0
SECTION
  2
HEADER
  9
$ACADVER
  1
AC1014
  9
$ACADMAINTVER
 70
     9
  9
$DWGCODEPAGE
  3
ANSI_1252
  9
$INSBASE
 10
0.0
 20
0.0
 30
0.0
  9
$EXTMIN
 10
0.0
 20
0.0
 30
0.0
  9
$EXTMAX
 10
420.0
 20
297.0
 30
0.0
  9
$LIMMIN
 10
0.0
 20
0.0
  9
$LIMMAX
 10
420.0
 20
297.0
  9
$ORTHOMODE
 70
     0
  9
$REGENMODE
 70
     1
  9
$FILLMODE
 70
     1
  9
$QTEXTMODE
 70
     0
  9
$MIRRTEXT
 70
     1
  9
$DRAGMODE
 70
     2
  9
$LTSCALE
 40
1.0
  9
$OSMODE
 70
    37
  9
$ATTMODE
 70
     1
  9
$TEXTSIZE
 40
3.5
  9
$TRACEWID
 40
1.0
  9
$TEXTSTYLE
  7
STANDARD
  9
$CLAYER
  8
0
  9
$CELTYPE
  6
BYLAYER
  9
$CECOLOR
 62
   256
  9
$CELTSCALE
 40
1.0
  9
$DELOBJ
 70
     1
  9
$DISPSILH
 70
     0
  9
$DIMSCALE
 40
1.0
  9
$DIMASZ
 40
6.0
  9
$DIMEXO
 40
1.0
  9
$DIMDLI
 40
3.75
  9
$DIMRND
 40
0.0
  9
$DIMDLE
 40
0.0
  9
$DIMEXE
 40
1.0
  9
$DIMTP
 40
0.0
  9
$DIMTM
 40
0.0
  9
$DIMTXT
 40
3.5
  9
$DIMCEN
 40
2.5
  9
$DIMTSZ
 40
0.0
  9
$DIMTOL
 70
     0
  9
$DIMLIM
 70
     0
  9
$DIMTIH
 70
     1
  9
$DIMTOH
 70
     1
  9
$DIMSE1
 70
     0
  9
$DIMSE2
 70
     0
  9
$DIMTAD
 70
     1
  9
$DIMZIN
 70
     0
  9
$DIMBLK
  1

  9
$DIMASO
 70
     1
  9
$DIMSHO
 70
     1
  9
$DIMPOST
  1

  9
$DIMAPOST
  1

  9
$DIMALT
 70
     0
  9
$DIMALTD
 70
     3
  9
$DIMALTF
 40
0.0393700787
  9
$DIMLFAC
 40
1.0
  9
$DIMTOFL
 70
     1
  9
$DIMTVP
 40
0.0
  9
$DIMTIX
 70
     0
  9
$DIMSOXD
 70
     0
  9
$DIMSAH
 70
     0
  9
$DIMBLK1
  1

  9
$DIMBLK2
  1

  9
$DIMSTYLE
  2
ISO-25
  9
$DIMCLRD
 70
     0
  9
$DIMCLRE
 70
     0
  9
$DIMCLRT
 70
     0
  9
$DIMTFAC
 40
1.0
  9
$DIMGAP
 40
1.524
  9
$DIMJUST
 70
     0
  9
$DIMSD1
 70
     0
  9
$DIMSD2
 70
     0
  9
$DIMTOLJ
 70
     0
  9
$DIMTZIN
 70
     0
  9
$DIMALTZ
 70
     0
  9
$DIMALTTZ
 70
     0
  9
$DIMFIT
 70
     3
  9
$DIMUPT
 70
     0
  9
$DIMUNIT
 70
     2
  9
$DIMDEC
 70
     2
  9
$DIMTDEC
 70
     2
  9
$DIMALTU
 70
     2
  9
$DIMALTTD
 70
     3
  9
$DIMTXSTY
  7
STANDARD
  9
$DIMAUNIT
 70
     0
  9
$LUNITS
 70
     2
  9
$LUPREC
 70
     2
  9
$SKETCHINC
 40
1.0
  9
$FILLETRAD
 40
10.0
  9
$AUNITS
 70
     0
  9
$AUPREC
 70
     2
  9
$MENU
  1
.
  9
$ELEVATION
 40
0.0
  9
$PELEVATION
 40
0.0
  9
$THICKNESS
 40
0.0
  9
$LIMCHECK
 70
     0
  9
$CHAMFERA
 40
10.0
  9
$CHAMFERB
 40
10.0
  9
$CHAMFERC
 40
20.0
  9
$CHAMFERD
 40
0.0
  9
$SKPOLY
 70
     0
  9
$TDCREATE
 40
2455264.594092731
  9
$TDUPDATE
 40
2455264.594092743
  9
$TDINDWG
 40
0.0000000116
  9
$TDUSRTIMER
 40
0.0000000116
  9
$USRTIMER
 70
     1
  9
$ANGBASE
 50
0.0
  9
$ANGDIR
 70
     0
  9
$PDMODE
 70
     0
  9
$PDSIZE
 40
-1.0
  9
$PLINEWID
 40
0.0
  9
$COORDS
 70
     1
  9
$SPLFRAME
 70
     0
  9
$SPLINETYPE
 70
     6
  9
$SPLINESEGS
 70
     8
  9
$ATTDIA
 70
     0
  9
$ATTREQ
 70
     1
  9
$HANDLING
 70
     1
  9
$HANDSEED
  5
217
  9
$SURFTAB1
 70
     6
  9
$SURFTAB2
 70
     6
  9
$SURFTYPE
 70
     6
  9
$SURFU
 70
     6
  9
$SURFV
 70
     6
  9
$UCSNAME
  2

  9
$UCSORG
 10
0.0
 20
0.0
 30
0.0
  9
$UCSXDIR
 10
1.0
 20
0.0
 30
0.0
  9
$UCSYDIR
 10
0.0
 20
1.0
 30
0.0
  9
$PUCSNAME
  2

  9
$PUCSORG
 10
0.0
 20
0.0
 30
0.0
  9
$PUCSXDIR
 10
1.0
 20
0.0
 30
0.0
  9
$PUCSYDIR
 10
0.0
 20
1.0
 30
0.0
  9
$USERI1
 70
     0
  9
$USERI2
 70
     0
  9
$USERI3
 70
     0
  9
$USERI4
 70
     0
  9
$USERI5
 70
     0
  9
$USERR1
 40
0.0
  9
$USERR2
 40
0.0
  9
$USERR3
 40
0.0
  9
$USERR4
 40
0.0
  9
$USERR5
 40
0.0
  9
$WORLDVIEW
 70
     1
  9
$SHADEDGE
 70
     3
  9
$SHADEDIF
 70
    70
  9
$TILEMODE
 70
     1
  9
$MAXACTVP
 70
    64
  9
$PINSBASE
 10
0.0
 20
0.0
 30
0.0
  9
$PLIMCHECK
 70
     0
  9
$PEXTMIN
 10
1.0000000000E+20
 20
1.0000000000E+20
 30
1.0000000000E+20
  9
$PEXTMAX
 10
-1.0000000000E+20
 20
-1.0000000000E+20
 30
-1.0000000000E+20
  9
$PLIMMIN
 10
0.0
 20
0.0
  9
$PLIMMAX
 10
420.0
 20
297.0
  9
$UNITMODE
 70
     0
  9
$VISRETAIN
 70
     1
  9
$PLINEGEN
 70
     0
  9
$PSLTSCALE
 70
     1
  9
$TREEDEPTH
 70
  3020
  9
$PICKSTYLE
 70
     1
  9
$CMLSTYLE
  2
STANDARD
  9
$CMLJUST
 70
     0
  9
$CMLSCALE
 40
20.0
  9
$PROXYGRAPHICS
 70
     1
  9
$MEASUREMENT
 70
     1
  0
ENDSEC
  0
SECTION
  2
CLASSES
  0
CLASS
  1
ACDBDICTIONARYWDFLT
  2
AcDbDictionaryWithDefault
  3
ObjectDBX Classes
 90
        0
280
     0
281
     0
  0
CLASS
  1
VISUALSTYLE
  2
AcDbVisualStyle
  3
ObjectDBX Classes
 90
     4095
280
     0
281
     0
  0
CLASS
  1
DICTIONARYVAR
  2
AcDbDictionaryVar
  3
ObjectDBX Classes
 90
        0
280
     0
281
     0
  0
CLASS
  1
XRECORD
  2
AcDbXrecord
  3
AutoCAD 2000
 90
        0
280
     0
281
     0
  0
CLASS
  1
LWPOLYLINE
  2
AcDbPolyline
  3
AutoCAD 2000
 90
        0
280
     0
281
     1
  0
CLASS
  1
HATCH
  2
AcDbHatch
  3
AutoCAD 2000
 90
        0
280
     0
281
     1
  0
CLASS
  1
ACDBPLACEHOLDER
  2
AcDbPlaceHolder
  3
ObjectDBX Classes
 90
        0
280
     0
281
     0
  0
CLASS
  1
LAYOUT
  2
AcDbLayout
  3
ObjectDBX Classes
 90
        0
280
     0
281
     0
  0
ENDSEC
  0
SECTION
  2
TABLES
  0
TABLE
  2
VPORT
  5
8
330
0
100
AcDbSymbolTable
 70
     1
  0
VPORT
  5
29
330
8
100
AcDbSymbolTableRecord
100
AcDbViewportTableRecord
  2
*ACTIVE
 70
     0
 10
0.0
 20
0.0
 11
1.0
 21
1.0
 12
210.0
 22
148.5
 13
0.0
 23
0.0
 14
10.0
 24
10.0
 15
10.0
 25
10.0
 16
0.0
 26
0.0
 36
1.0
 17
0.0
 27
0.0
 37
0.0
 40
297.0
 41
1.4141414141
 42
50.0
 43
0.0
 44
0.0
 50
0.0
 51
0.0
 71
     0
 72
  2000
 73
     1
 74
     3
 75
     0
 76
     0
 77
     0
 78
     0
  0
ENDTAB
  0
TABLE
  2
LTYPE
  5
5
330
0
100
AcDbSymbolTable
 70
     6
  0
LTYPE
  5
14
330
5
100
AcDbSymbolTableRecord
100
AcDbLinetypeTableRecord
  2
BYBLOCK
 70
     0
  3

 72
    65
 73
     0
 40
0.0
  0
LTYPE
  5
15
330
5
100
AcDbSymbolTableRecord
100
AcDbLinetypeTableRecord
  2
BYLAYER
 70
     0
  3

 72
    65
 73
     0
 40
0.0
  0
LTYPE
  5
16
330
5
100
AcDbSymbolTableRecord
100
AcDbLinetypeTableRecord
  2
CONTINUOUS
 70
     0
  3
Solid line
 72
    65
 73
     0
 40
0.0
  0
LTYPE
  5
3B
330
5
100
AcDbSymbolTableRecord
100
AcDbLinetypeTableRecord
  2
HIDDEN
 70
     0
  3
Hidden __ __ __ __ __ __ __ __ __ __ __ __ __ __
 72
    65
 73
     2
 40
1.905
 49
1.27
 74
     0
 49
-0.635
 74
     0
  0
LTYPE
  5
3C
330
5
100
AcDbSymbolTableRecord
100
AcDbLinetypeTableRecord
  2
PHANTOM
 70
     0
  3
Phantom ______  __  __  ______  __  __  ______
 72
    65
 73
     6
 40
12.7
 49
6.35
 74
     0
 49
-1.27
 74
     0
 49
1.27
 74
     0
 49
-1.27
 74
     0
 49
1.27
 74
     0
 49
-1.27
 74
     0
  0
LTYPE
  5
3D
330
5
100
AcDbSymbolTableRecord
100
AcDbLinetypeTableRecord
  2
CENTER
 70
     0
  3
Center ____ _ ____ _ ____ _ ____ _ ____ _ ____
 72
    65
 73
     4
 40
10.16
 49
6.35
 74
     0
 49
-1.27
 74
     0
 49
1.27
 74
     0
 49
-1.27
 74
     0
  0
LTYPE
  5
3E
330
5
100
AcDbSymbolTableRecord
100
AcDbLinetypeTableRecord
  2
CENTERX2
 70
     0
  3
Center (2x) ________  __  ________  __  _____
 72
    65
 73
     4
 40
20.32
 49
12.7
 74
     0
 49
-2.54
 74
     0
 49
2.54
 74
     0
 49
-2.54
 74
     0
  0
LTYPE
  5
3F
330
5
100
AcDbSymbolTableRecord
100
AcDbLinetypeTableRecord
  2
DOT2
 70
     0
  3
Dot (.5x) ........................................
 72
    65
 73
     2
 40
0.635
 49
0.0
 74
     0
 49
-0.635
 74
     0
  0
ENDTAB
  0
TABLE
  2
LAYER
  5
2
330
0
100
AcDbSymbolTable
 70
     1
  0
LAYER
  5
10
330
2
100
AcDbSymbolTableRecord
100
AcDbLayerTableRecord
  2
0
 70
     0
 62
     7
  6
CONTINUOUS
  0
ENDTAB
  0
TABLE
  2
STYLE
  5
3
330
0
100
AcDbSymbolTable
 70
     1
  0
STYLE
  5
11
330
3
100
AcDbSymbolTableRecord
100
AcDbTextStyleTableRecord
  2
STANDARD
 70
     0
 40
0.0
 41
1.0
 50
0.0
 71
     0
 42
2.5
  3
txt
  4

  0
ENDTAB
  0
TABLE
  2
VIEW
  5
6
330
0
100
AcDbSymbolTable
 70
     0
  0
ENDTAB
  0
TABLE
  2
UCS
  5
7
330
0
100
AcDbSymbolTable
 70
     0
  0
ENDTAB
  0
TABLE
  2
APPID
  5
9
330
0
100
AcDbSymbolTable
 70
     1
  0
APPID
  5
12
330
9
100
AcDbSymbolTableRecord
100
AcDbRegAppTableRecord
  2
ACAD
 70
     0
  0
ENDTAB
  0
TABLE
  2
DIMSTYLE
  5
A
330
0
100
AcDbSymbolTable
 70
     1
  0
DIMSTYLE
105
27
330
A
100
AcDbSymbolTableRecord
100
AcDbDimStyleTableRecord
  2
ISO-25
 70
     0
  3

  4

  5

  6

  7

 40
1.0
 41
2.5
 42
0.625
 43
3.75
 44
1.25
 45
0.0
 46
0.0
 47
0.0
 48
0.0
140
2.5
141
2.5
142
0.0
143
0.0393700787
144
1.0
145
0.0
146
1.0
147
0.625
 71
     0
 72
     0
 73
     0
 74
     0
 75
     0
 76
     0
 77
     1
 78
     8
170
     0
171
     3
172
     1
173
     0
174
     0
175
     0
176
     0
177
     0
178
     0
270
     2
271
     2
272
     2
273
     2
274
     3
340
11
275
     0
280
     0
281
     0
282
     0
283
     0
284
     8
285
     0
286
     0
287
     3
288
     0
  0
ENDTAB
  0
TABLE
  2
BLOCK_RECORD
  5
1
330
0
100
AcDbSymbolTable
 70
     1
  0
BLOCK_RECORD
  5
1F
330
1
100
AcDbSymbolTableRecord
100
AcDbBlockTableRecord
  2
*MODEL_SPACE
  0
BLOCK_RECORD
  5
1B
330
1
100
AcDbSymbolTableRecord
100
AcDbBlockTableRecord
  2
*PAPER_SPACE
  0
ENDTAB
  0
ENDSEC
  0
SECTION
  2
BLOCKS
  0
BLOCK
  5
20
330
1F
100
AcDbEntity
  8
0
100
AcDbBlockBegin
  2
*MODEL_SPACE
 70
     0
 10
0.0
 20
0.0
 30
0.0
  3
*MODEL_SPACE
  1

  0
ENDBLK
  5
21
330
1F
100
AcDbEntity
  8
0
100
AcDbBlockEnd
  0
BLOCK
  5
1C
330
1B
100
AcDbEntity
 67
     1
  8
0
100
AcDbBlockBegin
  2
*PAPER_SPACE
 70
     0
 10
0.0
 20
0.0
 30
0.0
  3
*PAPER_SPACE
  1

  0
ENDBLK
  5
1D
330
1B
100
AcDbEntity
 67
     1
  8
0
100
AcDbBlockEnd
  0
ENDSEC
  0
SECTION
  2
ENTITIES
  0
LINE
  5
40
330
1F
100
AcDbEntity
  8
0
  6
CONTINUOUS
 62
     7
100
AcDbLine
 10
54.147761822
 20
160.8268053492
 30
0.0
 11
54.147761822
 21
148.3268053492
 31
0.0
  0
ELLIPSE
  5
41
330
1F
100
AcDbEntity
  8
0
  6
CONTINUOUS
 62
     7
100
AcDbEllipse
 10
54.147761822
 20
147.4451704456
 30
0.0
 11
4.999999999999993
 21
0.0
 31
0.0
210
0.0
220
0.0
230
1.0
 40
0.1763269807
 41
1.570796326794897
 42
2.87979326579067
  0
LINE
  5
42
330
1F
100
AcDbEntity
  8
0
  6
CONTINUOUS
 62
     7
100
AcDbLine
 10
49.3181326906
 20
147.6733543495
 30
0.0
 11
49.3181326906
 21
161.4802563489
 31
0.0
  0
ELLIPSE
  5
43
330
1F
100
AcDbEntity
  8
0
  6
CONTINUOUS
 62
     7
100
AcDbEllipse
 10
54.147761822
 20
161.7084402527
 30
0.0
 11
4.999999999999993
 21
0.0
 31
0.0
210
0.0
220
0.0
230
1.0
 40
0.1763269807
 41
3.403392041388991
 42
4.712388980384692
  0
ARC
  5
44
330
1F
100
AcDbEntity
  8
0
  6
CONTINUOUS
 62
     7
100
AcDbCircle
 10
57.3816349578
 20
140.3268053492
 30
0.0
 40
7.118365096457673
100
AcDbArc
 50
0.0
 51
90.0
  0
LINE
  5
45
330
1F
100
AcDbEntity
  8
0
  6
CONTINUOUS
 62
     7
100
AcDbLine
 10
57.3816349578
 20
147.4451704456
 30
0.0
 11
57.3816349578
 21
148.3268053492
 31
0.0
  0
ARC
  5
46
330
1F
100
AcDbEntity
  8
0
  6
CONTINUOUS
 62
     7
100
AcDbCircle
 10
57.3816349578
 20
140.3268053492
 30
0.0
 40
7.999999999999993
100
AcDbArc
 50
0.0
 51
90.0
  0
LINE
  5
47
330
1F
100
AcDbEntity
  8
0
  6
CONTINUOUS
 62
     7
100
AcDbLine
 10
64.5000000542
 20
140.3268053492
 30
0.0
 11
65.3816349578
 21
140.3268053492
 31
0.0
  0
LINE
  5
48
330
1F
100
AcDbEntity
  8
0
  6
CONTINUOUS
 62
     7
100
AcDbLine
 10
168.2632698613
 20
176.987059387
 30
0.0
 11
168.2632698613
 21
168.8268053492
 31
0.0
  0
LINE
  5
49
330
1F
100
AcDbEntity
  8
0
  6
CONTINUOUS
 62
     7
100
AcDbLine
 10
168.2632698613
 20
168.8268053492
 30
0.0
 11
167.3816349578
 21
168.8268053492
 31
0.0
  0
LINE
  5
4A
330
1F
100
AcDbEntity
  8
0
  6
CONTINUOUS
 62
     7
100
AcDbLine
 10
167.3816349578
 20
168.8268053492
 30
0.0
 11
167.3816349578
 21
171.810678485
 31
0.0
  0
ELLIPSE
  5
4B
330
1F
100
AcDbEntity
  8
0
  6
CONTINUOUS
 62
     7
100
AcDbEllipse
 10
168.2632698613
 20
171.810678485
 30
0.0
 11
0.0
 21
5.000000000000028
 31
0.0
210
0.0
220
0.0
230
1.0
 40
0.1763269807
 41
0.2617993877991789
 42
1.570796326794897
  0
LINE
  5
4C
330
1F
100
AcDbEntity
  8
0
  6
CONTINUOUS
 62
     7
100
AcDbLine
 10
168.0350859575
 20
176.6403076164
 30
0.0
 11
168.2632698613
 21
176.987059387
 31
0.0
  0
LINE
  5
4D
330
1F
100
AcDbEntity
  8
0
  6
CONTINUOUS
 62
     7
100
AcDbLine
 10
175.3816349578
 20
161.7084402527
 30
0.0
 11
175.3816349578
 21
160.8268053492
 31
0.0
  0
LINE
  5
4E
330
1F
100
AcDbEntity
  8
0
  6
CONTINUOUS
 62
     7
100
AcDbLine
 10
175.3816349578
 20
161.7084402527
 30
0.0
 11
183.7918889956
 21
161.7084402527
 31
0.0
  0
LINE
  5
4F
330
1F
100
AcDbEntity
  8
0
  6
CONTINUOUS
 62
     7
100
AcDbLine
 10
183.7918889956
 20
161.7084402527
 30
0.0
 11
183.445137225
 21
161.4802563489
 31
0.0
  0
ELLIPSE
  5
50
330
1F
100
AcDbEntity
  8
0
  6
CONTINUOUS
 62
     7
100
AcDbEllipse
 10
178.6155080936
 20
161.7084402527
 30
0.0
 11
5.000000000000028
 21
2.842170943040401E-14
 31
0.0
210
0.0
220
0.0
230
1.0
 40
0.1763269807
 41
4.712388980384691
 42
6.0213859193805
  0
LINE
  5
51
330
1F
100
AcDbEntity
  8
0
  6
CONTINUOUS
 62
     7
100
AcDbLine
 10
175.3816349578
 20
160.8268053492
 30
0.0
 11
178.6155080936
 21
160.8268053492
 31
0.0
  0
ARC
  5
52
330
1F
100
AcDbEntity
  8
0
  6
CONTINUOUS
 62
     7
100
AcDbCircle
 10
175.3816349578
 20
168.8268053492
 30
0.0
 40
7.118365096457694
100
AcDbArc
 50
180.0
 51
270.0
  0
ARC
  5
53
330
1F
100
AcDbEntity
  8
0
  6
CONTINUOUS
 62
     7
100
AcDbCircle
 10
175.3816349578
 20
168.8268053492
 30
0.0
 40
8.0
100
AcDbArc
 50
180.0
 51
270.0
  0
ARC
  5
54
330
1F
100
AcDbEntity
  8
0
  6
CONTINUOUS
 62
     7
100
AcDbCircle
 10
175.3816349578
 20
140.3268053492
 30
0.0
 40
8.0
100
AcDbArc
 50
90.0
 51
180.0
  0
LINE
  5
55
330
1F
100
AcDbEntity
  8
0
  6
CONTINUOUS
 62
     7
100
AcDbLine
 10
167.3816349578
 20
140.3268053492
 30
0.0
 11
167.3816349578
 21
137.3429322134
 31
0.0
  0
LINE
  5
56
330
1F
100
AcDbEntity
  8
0
  6
CONTINUOUS
 62
     7
100
AcDbLine
 10
65.3816349578
 20
137.3429322134
 30
0.0
 11
167.3816349578
 21
137.3429322134
 31
0.0
  0
LINE
  5
57
330
1F
100
AcDbEntity
  8
0
  6
CONTINUOUS
 62
     7
100
AcDbLine
 10
65.3816349578
 20
140.3268053492
 30
0.0
 11
65.3816349578
 21
137.3429322134
 31
0.0
  0
LINE
  5
58
330
1F
100
AcDbEntity
  8
0
  6
CONTINUOUS
 62
     7
100
AcDbLine
 10
57.3816349578
 20
148.3268053492
 30
0.0
 11
54.147761822
 21
148.3268053492
 31
0.0
  0
LINE
  5
59
330
1F
100
AcDbEntity
  8
0
  6
CONTINUOUS
 62
     7
100
AcDbLine
 10
57.3816349578
 20
160.8268053492
 30
0.0
 11
54.147761822
 21
160.8268053492
 31
0.0
  0
ARC
  5
5A
330
1F
100
AcDbEntity
  8
0
  6
CONTINUOUS
 62
     7
100
AcDbCircle
 10
57.3816349578
 20
168.8268053492
 30
0.0
 40
8.0
100
AcDbArc
 50
270.0
 51
0.0
  0
LINE
  5
5B
330
1F
100
AcDbEntity
  8
0
  6
CONTINUOUS
 62
     7
100
AcDbLine
 10
65.3816349578
 20
168.8268053492
 30
0.0
 11
65.3816349578
 21
171.810678485
 31
0.0
  0
LINE
  5
5C
330
1F
100
AcDbEntity
  8
0
  6
CONTINUOUS
 62
     7
100
AcDbLine
 10
167.3816349578
 20
171.810678485
 30
0.0
 11
65.3816349578
 21
171.810678485
 31
0.0
  0
LINE
  5
5D
330
1F
100
AcDbEntity
  8
0
  6
CONTINUOUS
 62
     7
100
AcDbLine
 10
178.6155080936
 20
148.3268053492
 30
0.0
 11
178.6155080936
 21
160.8268053492
 31
0.0
  0
LINE
  5
5E
330
1F
100
AcDbEntity
  8
0
  6
CONTINUOUS
 62
     7
100
AcDbLine
 10
175.3816349578
 20
148.3268053492
 30
0.0
 11
178.6155080936
 21
148.3268053492
 31
0.0
  0
CIRCLE
  5
5F
330
1F
100
AcDbEntity
  8
0
  6
CONTINUOUS
 62
     7
100
AcDbCircle
 10
102.3816349578
 20
154.5768053492
 30
0.0
 40
10.59999999999999
  0
CIRCLE
  5
60
330
1F
100
AcDbEntity
  8
0
  6
CONTINUOUS
 62
     7
100
AcDbCircle
 10
158.3816349578
 20
154.5768053492
 30
0.0
 40
10.59999999999999
  0
CIRCLE
  5
61
330
1F
100
AcDbEntity
  8
0
  6
CONTINUOUS
 62
     7
100
AcDbCircle
 10
74.3816349578
 20
154.5768053492
 30
0.0
 40
10.60000000000001
  0
CIRCLE
  5
62
330
1F
100
AcDbEntity
  8
0
  6
CONTINUOUS
 62
     7
100
AcDbCircle
 10
130.3816349578
 20
154.5768053492
 30
0.0
 40
10.60000000000002
  0
LINE
  5
63
330
1F
100
AcDbEntity
  8
0
  6
CONTINUOUS
 62
     7
100
AcDbLine
 10
183.7918889956
 20
147.4451704456
 30
0.0
 11
175.3816349578
 21
147.4451704456
 31
0.0
  0
LINE
  5
64
330
1F
100
AcDbEntity
  8
0
  6
CONTINUOUS
 62
     7
100
AcDbLine
 10
175.3816349578
 20
147.4451704456
 30
0.0
 11
175.3816349578
 21
148.3268053492
 31
0.0
  0
ELLIPSE
  5
65
330
1F
100
AcDbEntity
  8
0
  6
CONTINUOUS
 62
     7
100
AcDbEllipse
 10
178.6155080936
 20
147.4451704456
 30
0.0
 11
5.000000000000028
 21
0.0
 31
0.0
210
0.0
220
0.0
230
1.0
 40
0.1763269807
 41
0.2617993877991277
 42
1.570796326794897
  0
LINE
  5
66
330
1F
100
AcDbEntity
  8
0
  6
CONTINUOUS
 62
     7
100
AcDbLine
 10
183.445137225
 20
147.6733543495
 30
0.0
 11
183.7918889956
 21
147.4451704456
 31
0.0
  0
LINE
  5
67
330
1F
100
AcDbEntity
  8
0
  6
CONTINUOUS
 62
     7
100
AcDbLine
 10
168.2632698613
 20
140.3268053492
 30
0.0
 11
167.3816349578
 21
140.3268053492
 31
0.0
  0
LINE
  5
68
330
1F
100
AcDbEntity
  8
0
  6
CONTINUOUS
 62
     7
100
AcDbLine
 10
168.2632698613
 20
140.3268053492
 30
0.0
 11
168.2632698613
 21
132.1665513113
 31
0.0
  0
LINE
  5
69
330
1F
100
AcDbEntity
  8
0
  6
CONTINUOUS
 62
     7
100
AcDbLine
 10
168.2632698613
 20
132.1665513113
 30
0.0
 11
168.0350859575
 21
132.5133030819
 31
0.0
  0
ELLIPSE
  5
6A
330
1F
100
AcDbEntity
  8
0
  6
CONTINUOUS
 62
     7
100
AcDbEllipse
 10
168.2632698613
 20
137.3429322134
 30
0.0
 11
0.0
 21
5.0
 31
0.0
210
0.0
220
0.0
230
1.0
 40
0.1763269807
 41
1.570796326794897
 42
2.879793265790636
  0
ARC
  5
6B
330
1F
100
AcDbEntity
  8
0
  6
CONTINUOUS
 62
     7
100
AcDbCircle
 10
175.3816349578
 20
140.3268053492
 30
0.0
 40
7.118365096457694
100
AcDbArc
 50
90.0
 51
180.0
  0
LINE
  5
6C
330
1F
100
AcDbEntity
  8
0
  6
CONTINUOUS
 62
     7
100
AcDbLine
 10
64.5000000542
 20
168.8268053492
 30
0.0
 11
65.3816349578
 21
168.8268053492
 31
0.0
  0
LINE
  5
6D
330
1F
100
AcDbEntity
  8
0
  6
CONTINUOUS
 62
     7
100
AcDbLine
 10
64.5000000542
 20
168.8268053492
 30
0.0
 11
64.5000000542
 21
176.987059387
 31
0.0
  0
LINE
  5
6E
330
1F
100
AcDbEntity
  8
0
  6
CONTINUOUS
 62
     7
100
AcDbLine
 10
64.5000000542
 20
176.987059387
 30
0.0
 11
64.7281839581
 21
176.6403076164
 31
0.0
  0
ELLIPSE
  5
6F
330
1F
100
AcDbEntity
  8
0
  6
CONTINUOUS
 62
     7
100
AcDbEllipse
 10
64.5000000542
 20
171.810678485
 30
0.0
 11
0.0
 21
5.000000000000028
 31
0.0
210
0.0
220
0.0
230
1.0
 40
0.1763269807
 41
4.712388980384692
 42
6.021385919380529
  0
ARC
  5
70
330
1F
100
AcDbEntity
  8
0
  6
CONTINUOUS
 62
     7
100
AcDbCircle
 10
57.3816349578
 20
168.8268053492
 30
0.0
 40
7.118365096457694
100
AcDbArc
 50
270.0
 51
0.0
  0
LINE
  5
71
330
1F
100
AcDbEntity
  8
0
  6
CONTINUOUS
 62
     7
100
AcDbLine
 10
57.3816349578
 20
161.7084402527
 30
0.0
 11
57.3816349578
 21
160.8268053492
 31
0.0
  0
LINE
  5
72
330
1F
100
AcDbEntity
  8
0
  6
CONTINUOUS
 62
     7
100
AcDbLine
 10
183.445137225
 20
161.4802563489
 30
0.0
 11
183.445137225
 21
147.6733543495
 31
0.0
  0
LINE
  5
73
330
1F
100
AcDbEntity
  8
0
  6
CONTINUOUS
 62
     7
100
AcDbLine
 10
64.5000000542
 20
132.1665513113
 30
0.0
 11
64.5000000542
 21
140.3268053492
 31
0.0
  0
ELLIPSE
  5
74
330
1F
100
AcDbEntity
  8
0
  6
CONTINUOUS
 62
     7
100
AcDbEllipse
 10
64.5000000542
 20
137.3429322134
 30
0.0
 11
0.0
 21
5.0
 31
0.0
210
0.0
220
0.0
230
1.0
 40
0.1763269807
 41
3.40339204138902
 42
4.712388980384692
  0
LINE
  5
75
330
1F
100
AcDbEntity
  8
0
  6
CONTINUOUS
 62
     7
100
AcDbLine
 10
64.7281839581
 20
132.5133030819
 30
0.0
 11
64.5000000542
 21
132.1665513113
 31
0.0
  0
LINE
  5
76
330
1F
100
AcDbEntity
  8
0
  6
CONTINUOUS
 62
     7
100
AcDbLine
 10
57.3816349578
 20
147.4451704456
 30
0.0
 11
48.9713809199
 21
147.4451704456
 31
0.0
  0
LINE
  5
77
330
1F
100
AcDbEntity
  8
0
  6
CONTINUOUS
 62
     7
100
AcDbLine
 10
48.9713809199
 20
147.4451704456
 30
0.0
 11
49.3181326906
 21
147.6733543495
 31
0.0
  0
LINE
  5
78
330
1F
100
AcDbEntity
  8
0
  6
CONTINUOUS
 62
     7
100
AcDbLine
 10
64.7281839581
 20
176.6403076164
 30
0.0
 11
168.0350859575
 21
176.6403076164
 31
0.0
  0
LINE
  5
79
330
1F
100
AcDbEntity
  8
0
  6
CONTINUOUS
 62
     7
100
AcDbLine
 10
48.9713809199
 20
161.7084402527
 30
0.0
 11
57.3816349578
 21
161.7084402527
 31
0.0
  0
LINE
  5
7A
330
1F
100
AcDbEntity
  8
0
  6
CONTINUOUS
 62
     7
100
AcDbLine
 10
49.3181326906
 20
161.4802563489
 30
0.0
 11
48.9713809199
 21
161.7084402527
 31
0.0
  0
LINE
  5
7B
330
1F
100
AcDbEntity
  8
0
  6
CONTINUOUS
 62
     7
100
AcDbLine
 10
168.0350859575
 20
132.5133030819
 30
0.0
 11
64.7281839581
 21
132.5133030819
 31
0.0
  0
LINE
  5
7C
330
1F
100
AcDbEntity
  8
0
  6
CONTINUOUS
 62
     7
100
AcDbLine
 10
183.7918889956
 20
169.5768053492
 30
0.0
 11
183.7918889956
 21
161.7084402527
 31
0.0
  0
LINE
  5
7D
330
1F
100
AcDbEntity
  8
0
  6
CONTINUOUS
 62
     7
100
AcDbLine
 10
183.7918889956
 20
169.5768053492
 30
0.0
 11
185.1316349578
 21
169.5768053492
 31
0.0
  0
LINE
  5
7E
330
1F
100
AcDbEntity
  8
0
  6
CONTINUOUS
 62
     7
100
AcDbLine
 10
185.1316349578
 20
139.5768053492
 30
0.0
 11
185.1316349578
 21
169.5768053492
 31
0.0
  0
LINE
  5
7F
330
1F
100
AcDbEntity
  8
0
  6
CONTINUOUS
 62
     7
100
AcDbLine
 10
183.7918889956
 20
139.5768053492
 30
0.0
 11
185.1316349578
 21
139.5768053492
 31
0.0
  0
LINE
  5
80
330
1F
100
AcDbEntity
  8
0
  6
CONTINUOUS
 62
     7
100
AcDbLine
 10
183.7918889956
 20
147.4451704456
 30
0.0
 11
183.7918889956
 21
139.5768053492
 31
0.0
  0
LINE
  5
81
330
1F
100
AcDbEntity
  8
0
  6
CONTINUOUS
 62
     7
100
AcDbLine
 10
56.3816349578
 20
176.987059387
 30
0.0
 11
64.5000000542
 21
176.987059387
 31
0.0
  0
LINE
  5
82
330
1F
100
AcDbEntity
  8
0
  6
CONTINUOUS
 62
     7
100
AcDbLine
 10
56.3816349578
 20
176.987059387
 30
0.0
 11
56.3816349578
 21
178.3268053492
 31
0.0
  0
LINE
  5
83
330
1F
100
AcDbEntity
  8
0
  6
CONTINUOUS
 62
     7
100
AcDbLine
 10
176.3816349578
 20
178.3268053492
 30
0.0
 11
56.3816349578
 21
178.3268053492
 31
0.0
  0
LINE
  5
84
330
1F
100
AcDbEntity
  8
0
  6
CONTINUOUS
 62
     7
100
AcDbLine
 10
176.3816349578
 20
176.987059387
 30
0.0
 11
176.3816349578
 21
178.3268053492
 31
0.0
  0
LINE
  5
85
330
1F
100
AcDbEntity
  8
0
  6
CONTINUOUS
 62
     7
100
AcDbLine
 10
168.2632698613
 20
176.987059387
 30
0.0
 11
176.3816349578
 21
176.987059387
 31
0.0
  0
LINE
  5
86
330
1F
100
AcDbEntity
  8
0
  6
CONTINUOUS
 62
     7
100
AcDbLine
 10
48.9713809199
 20
139.5768053492
 30
0.0
 11
48.9713809199
 21
147.4451704456
 31
0.0
  0
LINE
  5
87
330
1F
100
AcDbEntity
  8
0
  6
CONTINUOUS
 62
     7
100
AcDbLine
 10
48.9713809199
 20
139.5768053492
 30
0.0
 11
47.6316349578
 21
139.5768053492
 31
0.0
  0
LINE
  5
88
330
1F
100
AcDbEntity
  8
0
  6
CONTINUOUS
 62
     7
100
AcDbLine
 10
47.6316349578
 20
169.5768053492
 30
0.0
 11
47.6316349578
 21
139.5768053492
 31
0.0
  0
LINE
  5
89
330
1F
100
AcDbEntity
  8
0
  6
CONTINUOUS
 62
     7
100
AcDbLine
 10
48.9713809199
 20
169.5768053492
 30
0.0
 11
47.6316349578
 21
169.5768053492
 31
0.0
  0
LINE
  5
8A
330
1F
100
AcDbEntity
  8
0
  6
CONTINUOUS
 62
     7
100
AcDbLine
 10
48.9713809199
 20
161.7084402527
 30
0.0
 11
48.9713809199
 21
169.5768053492
 31
0.0
  0
LINE
  5
8B
330
1F
100
AcDbEntity
  8
0
  6
CONTINUOUS
 62
     7
100
AcDbLine
 10
176.3816349578
 20
132.1665513113
 30
0.0
 11
168.2632698613
 21
132.1665513113
 31
0.0
  0
LINE
  5
8C
330
1F
100
AcDbEntity
  8
0
  6
CONTINUOUS
 62
     7
100
AcDbLine
 10
176.3816349578
 20
132.1665513113
 30
0.0
 11
176.3816349578
 21
130.8268053492
 31
0.0
  0
LINE
  5
8D
330
1F
100
AcDbEntity
  8
0
  6
CONTINUOUS
 62
     7
100
AcDbLine
 10
56.3816349578
 20
130.8268053492
 30
0.0
 11
176.3816349578
 21
130.8268053492
 31
0.0
  0
LINE
  5
8E
330
1F
100
AcDbEntity
  8
0
  6
CONTINUOUS
 62
     7
100
AcDbLine
 10
56.3816349578
 20
132.1665513113
 30
0.0
 11
56.3816349578
 21
130.8268053492
 31
0.0
  0
LINE
  5
8F
330
1F
100
AcDbEntity
  8
0
  6
CONTINUOUS
 62
     7
100
AcDbLine
 10
64.5000000542
 20
132.1665513113
 30
0.0
 11
56.3816349578
 21
132.1665513113
 31
0.0
  0
ARC
  5
90
330
1F
100
AcDbEntity
  8
0
  6
CONTINUOUS
 62
     7
100
AcDbCircle
 10
56.3816349578
 20
169.5768053492
 30
0.0
 40
8.75000000000005
100
AcDbArc
 50
90.0
 51
180.0
  0
ARC
  5
91
330
1F
100
AcDbEntity
  8
0
  6
CONTINUOUS
 62
     7
100
AcDbCircle
 10
56.3816349578
 20
169.5768053492
 30
0.0
 40
7.410254037844453
100
AcDbArc
 50
90.0
 51
180.0
  0
ARC
  5
92
330
1F
100
AcDbEntity
  8
0
  6
CONTINUOUS
 62
     7
100
AcDbCircle
 10
176.3816349578
 20
169.5768053492
 30
0.0
 40
7.410254037844425
100
AcDbArc
 50
0.0
 51
90.0
  0
CIRCLE
  5
93
330
1F
100
AcDbEntity
  8
0
  6
CONTINUOUS
 62
     7
100
AcDbCircle
 10
176.3816349578
 20
169.5768053492
 30
0.0
 40
3.5
  0
ARC
  5
94
330
1F
100
AcDbEntity
  8
0
  6
CONTINUOUS
 62
     7
100
AcDbCircle
 10
176.3816349578
 20
169.5768053492
 30
0.0
 40
8.75
100
AcDbArc
 50
0.0
 51
90.0
  0
ARC
  5
95
330
1F
100
AcDbEntity
  8
0
  6
CONTINUOUS
 62
     7
100
AcDbCircle
 10
56.3816349578
 20
139.5768053492
 30
0.0
 40
8.750000000000036
100
AcDbArc
 50
180.0
 51
270.0
  0
ARC
  5
96
330
1F
100
AcDbEntity
  8
0
  6
CONTINUOUS
 62
     7
100
AcDbCircle
 10
56.3816349578
 20
139.5768053492
 30
0.0
 40
7.410254037844453
100
AcDbArc
 50
180.0
 51
270.0
  0
ARC
  5
97
330
1F
100
AcDbEntity
  8
0
  6
CONTINUOUS
 62
     7
100
AcDbCircle
 10
176.3816349578
 20
139.5768053492
 30
0.0
 40
8.750000000000028
100
AcDbArc
 50
270.0
 51
0.0
  0
ARC
  5
98
330
1F
100
AcDbEntity
  8
0
  6
CONTINUOUS
 62
     7
100
AcDbCircle
 10
176.3816349578
 20
139.5768053492
 30
0.0
 40
7.410254037844396
100
AcDbArc
 50
270.0
 51
0.0
  0
CIRCLE
  5
99
330
1F
100
AcDbEntity
  8
0
  6
CONTINUOUS
 62
     7
100
AcDbCircle
 10
56.3816349578
 20
139.5768053492
 30
0.0
 40
3.5
  0
CIRCLE
  5
9A
330
1F
100
AcDbEntity
  8
0
  6
CONTINUOUS
 62
     7
100
AcDbCircle
 10
56.3816349578
 20
169.5768053492
 30
0.0
 40
3.5
  0
CIRCLE
  5
9B
330
1F
100
AcDbEntity
  8
0
  6
CONTINUOUS
 62
     7
100
AcDbCircle
 10
176.3816349578
 20
139.5768053492
 30
0.0
 40
3.5
  0
LINE
  5
9C
330
1F
100
AcDbEntity
  8
0
  6
CONTINUOUS
 62
     7
100
AcDbLine
 10
20.5031505596
 20
142.0768053492
 30
0.0
 11
29.6371251558
 21
142.0768053492
 31
0.0
  0
LINE
  5
9D
330
1F
100
AcDbEntity
  8
0
  6
CONTINUOUS
 62
     7
100
AcDbLine
 10
29.6371251558
 20
167.0768053492
 30
0.0
 11
20.5031505596
 21
167.0768053492
 31
0.0
  0
LINE
  5
9E
330
1F
100
AcDbEntity
  8
0
  6
CONTINUOUS
 62
     7
100
AcDbLine
 10
29.6371251558
 20
142.0768053492
 30
0.0
 11
30.5031505596
 21
143.5768053492
 31
0.0
  0
LINE
  5
9F
330
1F
100
AcDbEntity
  8
0
  6
CONTINUOUS
 62
     7
100
AcDbLine
 10
30.5031505596
 20
165.5768053492
 30
0.0
 11
29.6371251558
 21
167.0768053492
 31
0.0
  0
LINE
  5
A0
330
1F
100
AcDbEntity
  8
0
  6
CONTINUOUS
 62
     7
100
AcDbLine
 10
15.5031505596
 20
169.5768053492
 30
0.0
 11
20.5031505596
 21
169.5768053492
 31
0.0
  0
LINE
  5
A1
330
1F
100
AcDbEntity
  8
0
  6
CONTINUOUS
 62
     7
100
AcDbLine
 10
15.5031505596
 20
176.987059387
 30
0.0
 11
15.5031505596
 21
169.5768053492
 31
0.0
  0
LINE
  5
A2
330
1F
100
AcDbEntity
  8
0
  6
CONTINUOUS
 62
     7
100
AcDbLine
 10
15.5031505596
 20
176.987059387
 30
0.0
 11
20.5031505596
 21
178.3268053492
 31
0.0
  0
LINE
  5
A3
330
1F
100
AcDbEntity
  8
0
  6
CONTINUOUS
 62
     7
100
AcDbLine
 10
20.5031505596
 20
169.5768053492
 30
0.0
 11
20.5031505596
 21
178.3268053492
 31
0.0
  0
LINE
  5
A4
330
1F
100
AcDbEntity
  8
0
  6
CONTINUOUS
 62
     7
100
AcDbLine
 10
15.5031505596
 20
132.1665513113
 30
0.0
 11
20.5031505596
 21
130.8268053492
 31
0.0
  0
LINE
  5
A5
330
1F
100
AcDbEntity
  8
0
  6
CONTINUOUS
 62
     7
100
AcDbLine
 10
15.5031505596
 20
139.5768053492
 30
0.0
 11
15.5031505596
 21
132.1665513113
 31
0.0
  0
LINE
  5
A6
330
1F
100
AcDbEntity
  8
0
  6
CONTINUOUS
 62
     7
100
AcDbLine
 10
15.5031505596
 20
139.5768053492
 30
0.0
 11
20.5031505596
 21
139.5768053492
 31
0.0
  0
LINE
  5
A7
330
1F
100
AcDbEntity
  8
0
  6
CONTINUOUS
 62
     7
100
AcDbLine
 10
20.5031505596
 20
130.8268053492
 30
0.0
 11
20.5031505596
 21
139.5768053492
 31
0.0
  0
LINE
  5
A8
330
1F
100
AcDbEntity
  8
0
  6
CONTINUOUS
 62
     7
100
AcDbLine
 10
15.5031505596
 20
169.5768053492
 30
0.0
 11
15.5031505596
 21
161.7084402527
 31
0.0
  0
LINE
  5
A9
330
1F
100
AcDbEntity
  8
0
  6
CONTINUOUS
 62
     7
100
AcDbLine
 10
15.5031505596
 20
147.4451704456
 30
0.0
 11
15.5031505596
 21
139.5768053492
 31
0.0
  0
LINE
  5
AA
330
1F
100
AcDbEntity
  8
0
  6
CONTINUOUS
 62
     7
100
AcDbLine
 10
14.2090553341
 20
147.6733543495
 30
0.0
 11
15.5031505596
 21
147.4451704456
 31
0.0
  0
LINE
  5
AB
330
1F
100
AcDbEntity
  8
0
  6
CONTINUOUS
 62
     7
100
AcDbLine
 10
14.2090553341
 20
161.4802563489
 30
0.0
 11
14.2090553341
 21
147.6733543495
 31
0.0
  0
LINE
  5
AC
330
1F
100
AcDbEntity
  8
0
  6
CONTINUOUS
 62
     7
100
AcDbLine
 10
15.5031505596
 20
161.7084402527
 30
0.0
 11
14.2090553341
 21
161.4802563489
 31
0.0
  0
LINE
  5
AD
330
1F
100
AcDbEntity
  8
0
  6
CONTINUOUS
 62
     7
100
AcDbLine
 10
20.5031505596
 20
139.5768053492
 30
0.0
 11
20.5031505596
 21
169.5768053492
 31
0.0
  0
LINE
  5
AE
330
1F
100
AcDbEntity
  8
0
  6
CONTINUOUS
 62
     7
100
AcDbLine
 10
10.5031505596
 20
148.3268053492
 30
0.0
 11
10.5031505596
 21
160.8268053492
 31
0.0
  0
LINE
  5
AF
330
1F
100
AcDbEntity
  8
0
  6
CONTINUOUS
 62
     7
100
AcDbLine
 10
14.2090553341
 20
147.6733543495
 30
0.0
 11
10.5031505596
 21
148.3268053492
 31
0.0
  0
LINE
  5
B0
330
1F
100
AcDbEntity
  8
0
  6
CONTINUOUS
 62
     7
100
AcDbLine
 10
10.5031505596
 20
160.8268053492
 30
0.0
 11
14.2090553341
 21
161.4802563489
 31
0.0
  0
LINE
  5
B1
330
1F
100
AcDbEntity
  8
0
  6
CONTINUOUS
 62
     7
100
AcDbLine
 10
15.5031505596
 20
140.3268053492
 30
0.0
 11
10.5031505596
 21
140.3268053492
 31
0.0
  0
LINE
  5
B2
330
1F
100
AcDbEntity
  8
0
  6
CONTINUOUS
 62
     7
100
AcDbLine
 10
10.5031505596
 20
148.3268053492
 30
0.0
 11
10.5031505596
 21
140.3268053492
 31
0.0
  0
LINE
  5
B3
330
1F
100
AcDbEntity
  8
0
  6
CONTINUOUS
 62
     7
100
AcDbLine
 10
15.5031505596
 20
168.8268053492
 30
0.0
 11
10.5031505596
 21
168.8268053492
 31
0.0
  0
LINE
  5
B4
330
1F
100
AcDbEntity
  8
0
  6
CONTINUOUS
 62
     7
100
AcDbLine
 10
10.5031505596
 20
168.8268053492
 30
0.0
 11
10.5031505596
 21
160.8268053492
 31
0.0
  0
LINE
  5
B5
330
1F
100
AcDbEntity
  8
0
  6
CONTINUOUS
 62
     7
100
AcDbLine
 10
29.6371251558
 20
142.0768053492
 30
0.0
 11
29.6371251558
 21
167.0768053492
 31
0.0
  0
LINE
  5
B6
330
1F
100
AcDbEntity
  8
0
  6
CONTINUOUS
 62
     7
100
AcDbLine
 10
30.5031505596
 20
165.5768053492
 30
0.0
 11
30.5031505596
 21
143.5768053492
 31
0.0
  0
ARC
  5
B7
330
1F
100
AcDbEntity
  8
0
  6
CONTINUOUS
 62
     7
100
AcDbCircle
 10
15.5031505596
 20
137.3429322134
 30
0.0
 40
5.000000000000004
100
AcDbArc
 50
180.0
 51
255.0
  0
LINE
  5
B8
330
1F
100
AcDbEntity
  8
0
  6
CONTINUOUS
 62
     7
100
AcDbLine
 10
15.5031505596
 20
132.1665513113
 30
0.0
 11
14.2090553341
 21
132.5133030819
 31
0.0
  0
LINE
  5
B9
330
1F
100
AcDbEntity
  8
0
  6
CONTINUOUS
 62
     7
100
AcDbLine
 10
10.5031505596
 20
140.3268053492
 30
0.0
 11
10.5031505596
 21
137.3429322134
 31
0.0
  0
ARC
  5
BA
330
1F
100
AcDbEntity
  8
0
  6
CONTINUOUS
 62
     7
100
AcDbCircle
 10
15.5031505596
 20
171.810678485
 30
0.0
 40
5.000000000000044
100
AcDbArc
 50
105.0
 51
180.0
  0
LINE
  5
BB
330
1F
100
AcDbEntity
  8
0
  6
CONTINUOUS
 62
     7
100
AcDbLine
 10
14.2090553341
 20
176.6403076164
 30
0.0
 11
15.5031505596
 21
176.987059387
 31
0.0
  0
LINE
  5
BC
330
1F
100
AcDbEntity
  8
0
  6
CONTINUOUS
 62
     7
100
AcDbLine
 10
10.5031505596
 20
168.8268053492
 30
0.0
 11
10.5031505596
 21
171.810678485
 31
0.0
  0
LINE
  5
BD
330
1F
100
AcDbEntity
  8
0
  6
CONTINUOUS
 62
     7
100
AcDbLine
 10
145.8816349578
 20
205.3106167857
 30
0.0
 11
147.3816349578
 21
204.4445913819
 31
0.0
  0
LINE
  5
BE
330
1F
100
AcDbEntity
  8
0
  6
CONTINUOUS
 62
     7
100
AcDbLine
 10
169.3816349578
 20
204.4445913819
 30
0.0
 11
170.8816349578
 21
205.3106167857
 31
0.0
  0
LINE
  5
BF
330
1F
100
AcDbEntity
  8
0
  6
CONTINUOUS
 62
     7
100
AcDbLine
 10
61.8816349578
 20
205.3106167857
 30
0.0
 11
63.3816349578
 21
204.4445913819
 31
0.0
  0
LINE
  5
C0
330
1F
100
AcDbEntity
  8
0
  6
CONTINUOUS
 62
     7
100
AcDbLine
 10
85.3816349578
 20
204.4445913819
 30
0.0
 11
86.8816349578
 21
205.3106167857
 31
0.0
  0
LINE
  5
C1
330
1F
100
AcDbEntity
  8
0
  6
CONTINUOUS
 62
     7
100
AcDbLine
 10
89.8816349578
 20
205.3106167857
 30
0.0
 11
91.3816349578
 21
204.4445913819
 31
0.0
  0
LINE
  5
C2
330
1F
100
AcDbEntity
  8
0
  6
CONTINUOUS
 62
     7
100
AcDbLine
 10
113.3816349578
 20
204.4445913819
 30
0.0
 11
114.8816349578
 21
205.3106167857
 31
0.0
  0
LINE
  5
C3
330
1F
100
AcDbEntity
  8
0
  6
CONTINUOUS
 62
     7
100
AcDbLine
 10
117.8816349578
 20
205.3106167857
 30
0.0
 11
119.3816349578
 21
204.4445913819
 31
0.0
  0
LINE
  5
C4
330
1F
100
AcDbEntity
  8
0
  6
CONTINUOUS
 62
     7
100
AcDbLine
 10
141.3816349578
 20
204.4445913819
 30
0.0
 11
142.8816349578
 21
205.3106167857
 31
0.0
  0
LINE
  5
C5
330
1F
100
AcDbEntity
  8
0
  6
CONTINUOUS
 62
     7
100
AcDbLine
 10
89.8816349578
 20
214.4445913819
 30
0.0
 11
89.8816349578
 21
205.3106167857
 31
0.0
  0
LINE
  5
C6
330
1F
100
AcDbEntity
  8
0
  6
CONTINUOUS
 62
     7
100
AcDbLine
 10
114.8816349578
 20
205.3106167857
 30
0.0
 11
114.8816349578
 21
214.4445913819
 31
0.0
  0
LINE
  5
C7
330
1F
100
AcDbEntity
  8
0
  6
CONTINUOUS
 62
     7
100
AcDbLine
 10
61.8816349578
 20
214.4445913819
 30
0.0
 11
61.8816349578
 21
205.3106167857
 31
0.0
  0
LINE
  5
C8
330
1F
100
AcDbEntity
  8
0
  6
CONTINUOUS
 62
     7
100
AcDbLine
 10
86.8816349578
 20
205.3106167857
 30
0.0
 11
86.8816349578
 21
214.4445913819
 31
0.0
  0
LINE
  5
C9
330
1F
100
AcDbEntity
  8
0
  6
CONTINUOUS
 62
     7
100
AcDbLine
 10
145.8816349578
 20
214.4445913819
 30
0.0
 11
145.8816349578
 21
205.3106167857
 31
0.0
  0
LINE
  5
CA
330
1F
100
AcDbEntity
  8
0
  6
CONTINUOUS
 62
     7
100
AcDbLine
 10
170.8816349578
 20
205.3106167857
 30
0.0
 11
170.8816349578
 21
214.4445913819
 31
0.0
  0
LINE
  5
CB
330
1F
100
AcDbEntity
  8
0
  6
CONTINUOUS
 62
     7
100
AcDbLine
 10
117.8816349578
 20
214.4445913819
 30
0.0
 11
117.8816349578
 21
205.3106167857
 31
0.0
  0
LINE
  5
CC
330
1F
100
AcDbEntity
  8
0
  6
CONTINUOUS
 62
     7
100
AcDbLine
 10
142.8816349578
 20
205.3106167857
 30
0.0
 11
142.8816349578
 21
214.4445913819
 31
0.0
  0
LINE
  5
CD
330
1F
100
AcDbEntity
  8
0
  6
CONTINUOUS
 62
     7
100
AcDbLine
 10
176.3816349578
 20
219.4445913819
 30
0.0
 11
168.2632698613
 21
219.4445913819
 31
0.0
  0
LINE
  5
CE
330
1F
100
AcDbEntity
  8
0
  6
CONTINUOUS
 62
     7
100
AcDbLine
 10
176.3816349578
 20
219.4445913819
 30
0.0
 11
176.3816349578
 21
214.4445913819
 31
0.0
  0
LINE
  5
CF
330
1F
100
AcDbEntity
  8
0
  6
CONTINUOUS
 62
     7
100
AcDbLine
 10
56.3816349578
 20
214.4445913819
 30
0.0
 11
176.3816349578
 21
214.4445913819
 31
0.0
  0
LINE
  5
D0
330
1F
100
AcDbEntity
  8
0
  6
CONTINUOUS
 62
     7
100
AcDbLine
 10
56.3816349578
 20
219.4445913819
 30
0.0
 11
56.3816349578
 21
214.4445913819
 31
0.0
  0
LINE
  5
D1
330
1F
100
AcDbEntity
  8
0
  6
CONTINUOUS
 62
     7
100
AcDbLine
 10
64.5000000542
 20
219.4445913819
 30
0.0
 11
56.3816349578
 21
219.4445913819
 31
0.0
  0
LINE
  5
D2
330
1F
100
AcDbEntity
  8
0
  6
CONTINUOUS
 62
     7
100
AcDbLine
 10
64.7281839581
 20
220.7386866074
 30
0.0
 11
64.5000000542
 21
219.4445913819
 31
0.0
  0
LINE
  5
D3
330
1F
100
AcDbEntity
  8
0
  6
CONTINUOUS
 62
     7
100
AcDbLine
 10
168.0350859575
 20
220.7386866074
 30
0.0
 11
64.7281839581
 21
220.7386866074
 31
0.0
  0
LINE
  5
D4
330
1F
100
AcDbEntity
  8
0
  6
CONTINUOUS
 62
     7
100
AcDbLine
 10
168.2632698613
 20
219.4445913819
 30
0.0
 11
168.0350859575
 21
220.7386866074
 31
0.0
  0
LINE
  5
D5
330
1F
100
AcDbEntity
  8
0
  6
CONTINUOUS
 62
     7
100
AcDbLine
 10
176.3816349578
 20
214.4445913819
 30
0.0
 11
185.1316349578
 21
214.4445913819
 31
0.0
  0
LINE
  5
D6
330
1F
100
AcDbEntity
  8
0
  6
CONTINUOUS
 62
     7
100
AcDbLine
 10
183.7918889956
 20
219.4445913819
 30
0.0
 11
176.3816349578
 21
219.4445913819
 31
0.0
  0
LINE
  5
D7
330
1F
100
AcDbEntity
  8
0
  6
CONTINUOUS
 62
     7
100
AcDbLine
 10
183.7918889956
 20
219.4445913819
 30
0.0
 11
185.1316349578
 21
214.4445913819
 31
0.0
  0
LINE
  5
D8
330
1F
100
AcDbEntity
  8
0
  6
CONTINUOUS
 62
     7
100
AcDbLine
 10
48.9713809199
 20
219.4445913819
 30
0.0
 11
47.6316349578
 21
214.4445913819
 31
0.0
  0
LINE
  5
D9
330
1F
100
AcDbEntity
  8
0
  6
CONTINUOUS
 62
     7
100
AcDbLine
 10
56.3816349578
 20
219.4445913819
 30
0.0
 11
48.9713809199
 21
219.4445913819
 31
0.0
  0
LINE
  5
DA
330
1F
100
AcDbEntity
  8
0
  6
CONTINUOUS
 62
     7
100
AcDbLine
 10
47.6316349578
 20
214.4445913819
 30
0.0
 11
56.3816349578
 21
214.4445913819
 31
0.0
  0
LINE
  5
DB
330
1F
100
AcDbEntity
  8
0
  6
CONTINUOUS
 62
     7
100
AcDbLine
 10
65.3816349578
 20
224.4445913819
 30
0.0
 11
167.3816349578
 21
224.4445913819
 31
0.0
  0
LINE
  5
DC
330
1F
100
AcDbEntity
  8
0
  6
CONTINUOUS
 62
     7
100
AcDbLine
 10
64.7281839581
 20
220.7386866074
 30
0.0
 11
65.3816349578
 21
224.4445913819
 31
0.0
  0
LINE
  5
DD
330
1F
100
AcDbEntity
  8
0
  6
CONTINUOUS
 62
     7
100
AcDbLine
 10
167.3816349578
 20
224.4445913819
 30
0.0
 11
168.0350859575
 21
220.7386866074
 31
0.0
  0
LINE
  5
DE
330
1F
100
AcDbEntity
  8
0
  6
CONTINUOUS
 62
     7
100
AcDbLine
 10
57.3816349578
 20
219.4445913819
 30
0.0
 11
57.3816349578
 21
224.4445913819
 31
0.0
  0
LINE
  5
DF
330
1F
100
AcDbEntity
  8
0
  6
CONTINUOUS
 62
     7
100
AcDbLine
 10
65.3816349578
 20
224.4445913819
 30
0.0
 11
57.3816349578
 21
224.4445913819
 31
0.0
  0
LINE
  5
E0
330
1F
100
AcDbEntity
  8
0
  6
CONTINUOUS
 62
     7
100
AcDbLine
 10
175.3816349578
 20
219.4445913819
 30
0.0
 11
175.3816349578
 21
224.4445913819
 31
0.0
  0
LINE
  5
E1
330
1F
100
AcDbEntity
  8
0
  6
CONTINUOUS
 62
     7
100
AcDbLine
 10
175.3816349578
 20
224.4445913819
 30
0.0
 11
167.3816349578
 21
224.4445913819
 31
0.0
  0
LINE
  5
E2
330
1F
100
AcDbEntity
  8
0
  6
CONTINUOUS
 62
     7
100
AcDbLine
 10
145.8816349578
 20
205.3106167857
 30
0.0
 11
170.8816349578
 21
205.3106167857
 31
0.0
  0
LINE
  5
E3
330
1F
100
AcDbEntity
  8
0
  6
CONTINUOUS
 62
     7
100
AcDbLine
 10
169.3816349578
 20
204.4445913819
 30
0.0
 11
147.3816349578
 21
204.4445913819
 31
0.0
  0
LINE
  5
E4
330
1F
100
AcDbEntity
  8
0
  6
CONTINUOUS
 62
     7
100
AcDbLine
 10
61.8816349578
 20
205.3106167857
 30
0.0
 11
86.8816349578
 21
205.3106167857
 31
0.0
  0
LINE
  5
E5
330
1F
100
AcDbEntity
  8
0
  6
CONTINUOUS
 62
     7
100
AcDbLine
 10
85.3816349578
 20
204.4445913819
 30
0.0
 11
63.3816349578
 21
204.4445913819
 31
0.0
  0
LINE
  5
E6
330
1F
100
AcDbEntity
  8
0
  6
CONTINUOUS
 62
     7
100
AcDbLine
 10
89.8816349578
 20
205.3106167857
 30
0.0
 11
114.8816349578
 21
205.3106167857
 31
0.0
  0
LINE
  5
E7
330
1F
100
AcDbEntity
  8
0
  6
CONTINUOUS
 62
     7
100
AcDbLine
 10
113.3816349578
 20
204.4445913819
 30
0.0
 11
91.3816349578
 21
204.4445913819
 31
0.0
  0
LINE
  5
E8
330
1F
100
AcDbEntity
  8
0
  6
CONTINUOUS
 62
     7
100
AcDbLine
 10
117.8816349578
 20
205.3106167857
 30
0.0
 11
142.8816349578
 21
205.3106167857
 31
0.0
  0
LINE
  5
E9
330
1F
100
AcDbEntity
  8
0
  6
CONTINUOUS
 62
     7
100
AcDbLine
 10
141.3816349578
 20
204.4445913819
 30
0.0
 11
119.3816349578
 21
204.4445913819
 31
0.0
  0
ARC
  5
EA
330
1F
100
AcDbEntity
  8
0
  6
CONTINUOUS
 62
     7
100
AcDbCircle
 10
54.147761822
 20
219.4445913819
 30
0.0
 40
5.000000000000035
100
AcDbArc
 50
90.0
 51
165.0
  0
LINE
  5
EB
330
1F
100
AcDbEntity
  8
0
  6
CONTINUOUS
 62
     7
100
AcDbLine
 10
48.9713809199
 20
219.4445913819
 30
0.0
 11
49.3181326906
 21
220.7386866074
 31
0.0
  0
LINE
  5
EC
330
1F
100
AcDbEntity
  8
0
  6
CONTINUOUS
 62
     7
100
AcDbLine
 10
57.3816349578
 20
224.4445913819
 30
0.0
 11
54.147761822
 21
224.4445913819
 31
0.0
  0
ARC
  5
ED
330
1F
100
AcDbEntity
  8
0
  6
CONTINUOUS
 62
     7
100
AcDbCircle
 10
178.6155080936
 20
219.4445913819
 30
0.0
 40
5.0
100
AcDbArc
 50
15.0
 51
90.0
  0
LINE
  5
EE
330
1F
100
AcDbEntity
  8
0
  6
CONTINUOUS
 62
     7
100
AcDbLine
 10
183.445137225
 20
220.7386866074
 30
0.0
 11
183.7918889956
 21
219.4445913819
 31
0.0
  0
LINE
  5
EF
330
1F
100
AcDbEntity
  8
0
  6
CONTINUOUS
 62
     7
100
AcDbLine
 10
175.3816349578
 20
224.4445913819
 30
0.0
 11
178.6155080936
 21
224.4445913819
 31
0.0
  0
LINE
  5
F0
330
1F
100
AcDbEntity
  8
0
  6
CONTINUOUS
 62
     7
100
AcDbLine
 10
142.8816349578
 20
104.2931276423
 30
0.0
 11
141.3816349578
 21
105.1591530461
 31
0.0
  0
LINE
  5
F1
330
1F
100
AcDbEntity
  8
0
  6
CONTINUOUS
 62
     7
100
AcDbLine
 10
119.3816349578
 20
105.1591530461
 30
0.0
 11
117.8816349578
 21
104.2931276423
 31
0.0
  0
LINE
  5
F2
330
1F
100
AcDbEntity
  8
0
  6
CONTINUOUS
 62
     7
100
AcDbLine
 10
170.8816349578
 20
104.2931276423
 30
0.0
 11
169.3816349578
 21
105.1591530461
 31
0.0
  0
LINE
  5
F3
330
1F
100
AcDbEntity
  8
0
  6
CONTINUOUS
 62
     7
100
AcDbLine
 10
147.3816349578
 20
105.1591530461
 30
0.0
 11
145.8816349578
 21
104.2931276423
 31
0.0
  0
LINE
  5
F4
330
1F
100
AcDbEntity
  8
0
  6
CONTINUOUS
 62
     7
100
AcDbLine
 10
86.8816349578
 20
104.2931276423
 30
0.0
 11
85.3816349578
 21
105.1591530461
 31
0.0
  0
LINE
  5
F5
330
1F
100
AcDbEntity
  8
0
  6
CONTINUOUS
 62
     7
100
AcDbLine
 10
63.3816349578
 20
105.1591530461
 30
0.0
 11
61.8816349578
 21
104.2931276423
 31
0.0
  0
LINE
  5
F6
330
1F
100
AcDbEntity
  8
0
  6
CONTINUOUS
 62
     7
100
AcDbLine
 10
114.8816349578
 20
104.2931276423
 30
0.0
 11
113.3816349578
 21
105.1591530461
 31
0.0
  0
LINE
  5
F7
330
1F
100
AcDbEntity
  8
0
  6
CONTINUOUS
 62
     7
100
AcDbLine
 10
91.3816349578
 20
105.1591530461
 30
0.0
 11
89.8816349578
 21
104.2931276423
 31
0.0
  0
LINE
  5
F8
330
1F
100
AcDbEntity
  8
0
  6
CONTINUOUS
 62
     7
100
AcDbLine
 10
114.8816349578
 20
95.1591530461
 30
0.0
 11
114.8816349578
 21
104.2931276423
 31
0.0
  0
LINE
  5
F9
330
1F
100
AcDbEntity
  8
0
  6
CONTINUOUS
 62
     7
100
AcDbLine
 10
89.8816349578
 20
104.2931276423
 30
0.0
 11
89.8816349578
 21
95.1591530461
 31
0.0
  0
LINE
  5
FA
330
1F
100
AcDbEntity
  8
0
  6
CONTINUOUS
 62
     7
100
AcDbLine
 10
86.8816349578
 20
95.1591530461
 30
0.0
 11
86.8816349578
 21
104.2931276423
 31
0.0
  0
LINE
  5
FB
330
1F
100
AcDbEntity
  8
0
  6
CONTINUOUS
 62
     7
100
AcDbLine
 10
61.8816349578
 20
104.2931276423
 30
0.0
 11
61.8816349578
 21
95.1591530461
 31
0.0
  0
LINE
  5
FC
330
1F
100
AcDbEntity
  8
0
  6
CONTINUOUS
 62
     7
100
AcDbLine
 10
170.8816349578
 20
95.1591530461
 30
0.0
 11
170.8816349578
 21
104.2931276423
 31
0.0
  0
LINE
  5
FD
330
1F
100
AcDbEntity
  8
0
  6
CONTINUOUS
 62
     7
100
AcDbLine
 10
145.8816349578
 20
104.2931276423
 30
0.0
 11
145.8816349578
 21
95.1591530461
 31
0.0
  0
LINE
  5
FE
330
1F
100
AcDbEntity
  8
0
  6
CONTINUOUS
 62
     7
100
AcDbLine
 10
142.8816349578
 20
95.1591530461
 30
0.0
 11
142.8816349578
 21
104.2931276423
 31
0.0
  0
LINE
  5
FF
330
1F
100
AcDbEntity
  8
0
  6
CONTINUOUS
 62
     7
100
AcDbLine
 10
117.8816349578
 20
104.2931276423
 30
0.0
 11
117.8816349578
 21
95.1591530461
 31
0.0
  0
LINE
  5
100
330
1F
100
AcDbEntity
  8
0
  6
CONTINUOUS
 62
     7
100
AcDbLine
 10
56.3816349578
 20
90.1591530461
 30
0.0
 11
64.5000000542
 21
90.1591530461
 31
0.0
  0
LINE
  5
101
330
1F
100
AcDbEntity
  8
0
  6
CONTINUOUS
 62
     7
100
AcDbLine
 10
56.3816349578
 20
90.1591530461
 30
0.0
 11
56.3816349578
 21
95.1591530461
 31
0.0
  0
LINE
  5
102
330
1F
100
AcDbEntity
  8
0
  6
CONTINUOUS
 62
     7
100
AcDbLine
 10
176.3816349578
 20
90.1591530461
 30
0.0
 11
176.3816349578
 21
95.1591530461
 31
0.0
  0
LINE
  5
103
330
1F
100
AcDbEntity
  8
0
  6
CONTINUOUS
 62
     7
100
AcDbLine
 10
168.2632698613
 20
90.1591530461
 30
0.0
 11
176.3816349578
 21
90.1591530461
 31
0.0
  0
LINE
  5
104
330
1F
100
AcDbEntity
  8
0
  6
CONTINUOUS
 62
     7
100
AcDbLine
 10
168.0350859575
 20
88.8650578205
 30
0.0
 11
168.2632698613
 21
90.1591530461
 31
0.0
  0
LINE
  5
105
330
1F
100
AcDbEntity
  8
0
  6
CONTINUOUS
 62
     7
100
AcDbLine
 10
64.7281839581
 20
88.8650578205
 30
0.0
 11
168.0350859575
 21
88.8650578205
 31
0.0
  0
LINE
  5
106
330
1F
100
AcDbEntity
  8
0
  6
CONTINUOUS
 62
     7
100
AcDbLine
 10
64.5000000542
 20
90.1591530461
 30
0.0
 11
64.7281839581
 21
88.8650578205
 31
0.0
  0
LINE
  5
107
330
1F
100
AcDbEntity
  8
0
  6
CONTINUOUS
 62
     7
100
AcDbLine
 10
176.3816349578
 20
95.1591530461
 30
0.0
 11
56.3816349578
 21
95.1591530461
 31
0.0
  0
LINE
  5
108
330
1F
100
AcDbEntity
  8
0
  6
CONTINUOUS
 62
     7
100
AcDbLine
 10
48.9713809199
 20
90.1591530461
 30
0.0
 11
56.3816349578
 21
90.1591530461
 31
0.0
  0
LINE
  5
109
330
1F
100
AcDbEntity
  8
0
  6
CONTINUOUS
 62
     7
100
AcDbLine
 10
48.9713809199
 20
90.1591530461
 30
0.0
 11
47.6316349578
 21
95.1591530461
 31
0.0
  0
LINE
  5
10A
330
1F
100
AcDbEntity
  8
0
  6
CONTINUOUS
 62
     7
100
AcDbLine
 10
56.3816349578
 20
95.1591530461
 30
0.0
 11
47.6316349578
 21
95.1591530461
 31
0.0
  0
LINE
  5
10B
330
1F
100
AcDbEntity
  8
0
  6
CONTINUOUS
 62
     7
100
AcDbLine
 10
183.7918889956
 20
90.1591530461
 30
0.0
 11
185.1316349578
 21
95.1591530461
 31
0.0
  0
LINE
  5
10C
330
1F
100
AcDbEntity
  8
0
  6
CONTINUOUS
 62
     7
100
AcDbLine
 10
176.3816349578
 20
90.1591530461
 30
0.0
 11
183.7918889956
 21
90.1591530461
 31
0.0
  0
LINE
  5
10D
330
1F
100
AcDbEntity
  8
0
  6
CONTINUOUS
 62
     7
100
AcDbLine
 10
185.1316349578
 20
95.1591530461
 30
0.0
 11
176.3816349578
 21
95.1591530461
 31
0.0
  0
LINE
  5
10E
330
1F
100
AcDbEntity
  8
0
  6
CONTINUOUS
 62
     7
100
AcDbLine
 10
167.3816349578
 20
85.1591530461
 30
0.0
 11
65.3816349578
 21
85.1591530461
 31
0.0
  0
LINE
  5
10F
330
1F
100
AcDbEntity
  8
0
  6
CONTINUOUS
 62
     7
100
AcDbLine
 10
168.0350859575
 20
88.8650578205
 30
0.0
 11
167.3816349578
 21
85.1591530461
 31
0.0
  0
LINE
  5
110
330
1F
100
AcDbEntity
  8
0
  6
CONTINUOUS
 62
     7
100
AcDbLine
 10
65.3816349578
 20
85.1591530461
 30
0.0
 11
64.7281839581
 21
88.8650578205
 31
0.0
  0
LINE
  5
111
330
1F
100
AcDbEntity
  8
0
  6
CONTINUOUS
 62
     7
100
AcDbLine
 10
57.3816349578
 20
90.1591530461
 30
0.0
 11
57.3816349578
 21
85.1591530461
 31
0.0
  0
LINE
  5
112
330
1F
100
AcDbEntity
  8
0
  6
CONTINUOUS
 62
     7
100
AcDbLine
 10
57.3816349578
 20
85.1591530461
 30
0.0
 11
65.3816349578
 21
85.1591530461
 31
0.0
  0
LINE
  5
113
330
1F
100
AcDbEntity
  8
0
  6
CONTINUOUS
 62
     7
100
AcDbLine
 10
175.3816349578
 20
90.1591530461
 30
0.0
 11
175.3816349578
 21
85.1591530461
 31
0.0
  0
LINE
  5
114
330
1F
100
AcDbEntity
  8
0
  6
CONTINUOUS
 62
     7
100
AcDbLine
 10
167.3816349578
 20
85.1591530461
 30
0.0
 11
175.3816349578
 21
85.1591530461
 31
0.0
  0
LINE
  5
115
330
1F
100
AcDbEntity
  8
0
  6
CONTINUOUS
 62
     7
100
AcDbLine
 10
142.8816349578
 20
104.2931276423
 30
0.0
 11
117.8816349578
 21
104.2931276423
 31
0.0
  0
LINE
  5
116
330
1F
100
AcDbEntity
  8
0
  6
CONTINUOUS
 62
     7
100
AcDbLine
 10
119.3816349578
 20
105.1591530461
 30
0.0
 11
141.3816349578
 21
105.1591530461
 31
0.0
  0
LINE
  5
117
330
1F
100
AcDbEntity
  8
0
  6
CONTINUOUS
 62
     7
100
AcDbLine
 10
170.8816349578
 20
104.2931276423
 30
0.0
 11
145.8816349578
 21
104.2931276423
 31
0.0
  0
LINE
  5
118
330
1F
100
AcDbEntity
  8
0
  6
CONTINUOUS
 62
     7
100
AcDbLine
 10
147.3816349578
 20
105.1591530461
 30
0.0
 11
169.3816349578
 21
105.1591530461
 31
0.0
  0
LINE
  5
119
330
1F
100
AcDbEntity
  8
0
  6
CONTINUOUS
 62
     7
100
AcDbLine
 10
86.8816349578
 20
104.2931276423
 30
0.0
 11
61.8816349578
 21
104.2931276423
 31
0.0
  0
LINE
  5
11A
330
1F
100
AcDbEntity
  8
0
  6
CONTINUOUS
 62
     7
100
AcDbLine
 10
63.3816349578
 20
105.1591530461
 30
0.0
 11
85.3816349578
 21
105.1591530461
 31
0.0
  0
LINE
  5
11B
330
1F
100
AcDbEntity
  8
0
  6
CONTINUOUS
 62
     7
100
AcDbLine
 10
114.8816349578
 20
104.2931276423
 30
0.0
 11
89.8816349578
 21
104.2931276423
 31
0.0
  0
LINE
  5
11C
330
1F
100
AcDbEntity
  8
0
  6
CONTINUOUS
 62
     7
100
AcDbLine
 10
91.3816349578
 20
105.1591530461
 30
0.0
 11
113.3816349578
 21
105.1591530461
 31
0.0
  0
ARC
  5
11D
330
1F
100
AcDbEntity
  8
0
  6
CONTINUOUS
 62
     7
100
AcDbCircle
 10
178.6155080936
 20
90.1591530461
 30
0.0
 40
5.000000000000014
100
AcDbArc
 50
270.0
 51
345.0
  0
LINE
  5
11E
330
1F
100
AcDbEntity
  8
0
  6
CONTINUOUS
 62
     7
100
AcDbLine
 10
183.7918889956
 20
90.1591530461
 30
0.0
 11
183.445137225
 21
88.8650578205
 31
0.0
  0
LINE
  5
11F
330
1F
100
AcDbEntity
  8
0
  6
CONTINUOUS
 62
     7
100
AcDbLine
 10
175.3816349578
 20
85.1591530461
 30
0.0
 11
178.6155080936
 21
85.1591530461
 31
0.0
  0
ARC
  5
120
330
1F
100
AcDbEntity
  8
0
  6
CONTINUOUS
 62
     7
100
AcDbCircle
 10
54.147761822
 20
90.1591530461
 30
0.0
 40
5.000000000000044
100
AcDbArc
 50
195.0
 51
270.0
  0
LINE
  5
121
330
1F
100
AcDbEntity
  8
0
  6
CONTINUOUS
 62
     7
100
AcDbLine
 10
49.3181326906
 20
88.8650578205
 30
0.0
 11
48.9713809199
 21
90.1591530461
 31
0.0
  0
LINE
  5
122
330
1F
100
AcDbEntity
  8
0
  6
CONTINUOUS
 62
     7
100
AcDbLine
 10
57.3816349578
 20
85.1591530461
 30
0.0
 11
54.147761822
 21
85.1591530461
 31
0.0
  0
LINE
  5
123
330
1F
100
AcDbEntity
  8
0
  6
CONTINUOUS
 62
     7
100
AcDbLine
 10
212.1288193512
 20
167.0768053492
 30
0.0
 11
211.2627939474
 21
165.5768053492
 31
0.0
  0
LINE
  5
124
330
1F
100
AcDbEntity
  8
0
  6
CONTINUOUS
 62
     7
100
AcDbLine
 10
211.2627939474
 20
143.5768053492
 30
0.0
 11
212.1288193512
 21
142.0768053492
 31
0.0
  0
LINE
  5
125
330
1F
100
AcDbEntity
  8
0
  6
CONTINUOUS
 62
     7
100
AcDbLine
 10
221.2627939474
 20
167.0768053492
 30
0.0
 11
212.1288193512
 21
167.0768053492
 31
0.0
  0
LINE
  5
126
330
1F
100
AcDbEntity
  8
0
  6
CONTINUOUS
 62
     7
100
AcDbLine
 10
212.1288193512
 20
142.0768053492
 30
0.0
 11
221.2627939474
 21
142.0768053492
 31
0.0
  0
LINE
  5
127
330
1F
100
AcDbEntity
  8
0
  6
CONTINUOUS
 62
     7
100
AcDbLine
 10
226.2627939474
 20
176.987059387
 30
0.0
 11
221.2627939474
 21
178.3268053492
 31
0.0
  0
LINE
  5
128
330
1F
100
AcDbEntity
  8
0
  6
CONTINUOUS
 62
     7
100
AcDbLine
 10
226.2627939474
 20
169.5768053492
 30
0.0
 11
226.2627939474
 21
176.987059387
 31
0.0
  0
LINE
  5
129
330
1F
100
AcDbEntity
  8
0
  6
CONTINUOUS
 62
     7
100
AcDbLine
 10
226.2627939474
 20
169.5768053492
 30
0.0
 11
221.2627939474
 21
169.5768053492
 31
0.0
  0
LINE
  5
12A
330
1F
100
AcDbEntity
  8
0
  6
CONTINUOUS
 62
     7
100
AcDbLine
 10
221.2627939474
 20
178.3268053492
 30
0.0
 11
221.2627939474
 21
169.5768053492
 31
0.0
  0
LINE
  5
12B
330
1F
100
AcDbEntity
  8
0
  6
CONTINUOUS
 62
     7
100
AcDbLine
 10
226.2627939474
 20
139.5768053492
 30
0.0
 11
226.2627939474
 21
147.4451704456
 31
0.0
  0
LINE
  5
12C
330
1F
100
AcDbEntity
  8
0
  6
CONTINUOUS
 62
     7
100
AcDbLine
 10
226.2627939474
 20
139.5768053492
 30
0.0
 11
221.2627939474
 21
139.5768053492
 31
0.0
  0
LINE
  5
12D
330
1F
100
AcDbEntity
  8
0
  6
CONTINUOUS
 62
     7
100
AcDbLine
 10
226.2627939474
 20
161.7084402527
 30
0.0
 11
226.2627939474
 21
169.5768053492
 31
0.0
  0
LINE
  5
12E
330
1F
100
AcDbEntity
  8
0
  6
CONTINUOUS
 62
     7
100
AcDbLine
 10
227.5568891729
 20
161.4802563489
 30
0.0
 11
226.2627939474
 21
161.7084402527
 31
0.0
  0
LINE
  5
12F
330
1F
100
AcDbEntity
  8
0
  6
CONTINUOUS
 62
     7
100
AcDbLine
 10
227.5568891729
 20
147.6733543495
 30
0.0
 11
227.5568891729
 21
161.4802563489
 31
0.0
  0
LINE
  5
130
330
1F
100
AcDbEntity
  8
0
  6
CONTINUOUS
 62
     7
100
AcDbLine
 10
226.2627939474
 20
147.4451704456
 30
0.0
 11
227.5568891729
 21
147.6733543495
 31
0.0
  0
LINE
  5
131
330
1F
100
AcDbEntity
  8
0
  6
CONTINUOUS
 62
     7
100
AcDbLine
 10
221.2627939474
 20
169.5768053492
 30
0.0
 11
221.2627939474
 21
139.5768053492
 31
0.0
  0
LINE
  5
132
330
1F
100
AcDbEntity
  8
0
  6
CONTINUOUS
 62
     7
100
AcDbLine
 10
226.2627939474
 20
132.1665513113
 30
0.0
 11
226.2627939474
 21
139.5768053492
 31
0.0
  0
LINE
  5
133
330
1F
100
AcDbEntity
  8
0
  6
CONTINUOUS
 62
     7
100
AcDbLine
 10
226.2627939474
 20
132.1665513113
 30
0.0
 11
221.2627939474
 21
130.8268053492
 31
0.0
  0
LINE
  5
134
330
1F
100
AcDbEntity
  8
0
  6
CONTINUOUS
 62
     7
100
AcDbLine
 10
221.2627939474
 20
139.5768053492
 30
0.0
 11
221.2627939474
 21
130.8268053492
 31
0.0
  0
LINE
  5
135
330
1F
100
AcDbEntity
  8
0
  6
CONTINUOUS
 62
     7
100
AcDbLine
 10
231.2627939474
 20
160.8268053492
 30
0.0
 11
231.2627939474
 21
148.3268053492
 31
0.0
  0
LINE
  5
136
330
1F
100
AcDbEntity
  8
0
  6
CONTINUOUS
 62
     7
100
AcDbLine
 10
231.2627939474
 20
148.3268053492
 30
0.0
 11
227.5568891729
 21
147.6733543495
 31
0.0
  0
LINE
  5
137
330
1F
100
AcDbEntity
  8
0
  6
CONTINUOUS
 62
     7
100
AcDbLine
 10
227.5568891729
 20
161.4802563489
 30
0.0
 11
231.2627939474
 21
160.8268053492
 31
0.0
  0
LINE
  5
138
330
1F
100
AcDbEntity
  8
0
  6
CONTINUOUS
 62
     7
100
AcDbLine
 10
226.2627939474
 20
168.8268053492
 30
0.0
 11
231.2627939474
 21
168.8268053492
 31
0.0
  0
LINE
  5
139
330
1F
100
AcDbEntity
  8
0
  6
CONTINUOUS
 62
     7
100
AcDbLine
 10
231.2627939474
 20
160.8268053492
 30
0.0
 11
231.2627939474
 21
168.8268053492
 31
0.0
  0
LINE
  5
13A
330
1F
100
AcDbEntity
  8
0
  6
CONTINUOUS
 62
     7
100
AcDbLine
 10
226.2627939474
 20
140.3268053492
 30
0.0
 11
231.2627939474
 21
140.3268053492
 31
0.0
  0
LINE
  5
13B
330
1F
100
AcDbEntity
  8
0
  6
CONTINUOUS
 62
     7
100
AcDbLine
 10
231.2627939474
 20
140.3268053492
 30
0.0
 11
231.2627939474
 21
148.3268053492
 31
0.0
  0
LINE
  5
13C
330
1F
100
AcDbEntity
  8
0
  6
CONTINUOUS
 62
     7
100
AcDbLine
 10
212.1288193512
 20
154.5768053492
 30
0.0
 11
212.1288193512
 21
142.0768053492
 31
0.0
  0
LINE
  5
13D
330
1F
100
AcDbEntity
  8
0
  6
CONTINUOUS
 62
     7
100
AcDbLine
 10
212.1288193512
 20
167.0768053492
 30
0.0
 11
212.1288193512
 21
154.5768053492
 31
0.0
  0
LINE
  5
13E
330
1F
100
AcDbEntity
  8
0
  6
CONTINUOUS
 62
     7
100
AcDbLine
 10
211.2627939474
 20
154.5768053492
 30
0.0
 11
211.2627939474
 21
165.5768053492
 31
0.0
  0
LINE
  5
13F
330
1F
100
AcDbEntity
  8
0
  6
CONTINUOUS
 62
     7
100
AcDbLine
 10
211.2627939474
 20
143.5768053492
 30
0.0
 11
211.2627939474
 21
154.5768053492
 31
0.0
  0
ARC
  5
140
330
1F
100
AcDbEntity
  8
0
  6
CONTINUOUS
 62
     7
100
AcDbCircle
 10
226.2627939474
 20
171.810678485
 30
0.0
 40
4.999999999999986
100
AcDbArc
 50
0.0
 51
75.0
  0
LINE
  5
141
330
1F
100
AcDbEntity
  8
0
  6
CONTINUOUS
 62
     7
100
AcDbLine
 10
226.2627939474
 20
176.987059387
 30
0.0
 11
227.5568891729
 21
176.6403076164
 31
0.0
  0
LINE
  5
142
330
1F
100
AcDbEntity
  8
0
  6
CONTINUOUS
 62
     7
100
AcDbLine
 10
231.2627939474
 20
168.8268053492
 30
0.0
 11
231.2627939474
 21
171.810678485
 31
0.0
  0
ARC
  5
143
330
1F
100
AcDbEntity
  8
0
  6
CONTINUOUS
 62
     7
100
AcDbCircle
 10
226.2627939474
 20
137.3429322134
 30
0.0
 40
4.999999999999972
100
AcDbArc
 50
285.0
 51
0.0
  0
LINE
  5
144
330
1F
100
AcDbEntity
  8
0
  6
CONTINUOUS
 62
     7
100
AcDbLine
 10
227.5568891729
 20
132.5133030819
 30
0.0
 11
226.2627939474
 21
132.1665513113
 31
0.0
  0
LINE
  5
145
330
1F
100
AcDbEntity
  8
0
  6
CONTINUOUS
 62
     7
100
AcDbLine
 10
231.2627939474
 20
140.3268053492
 30
0.0
 11
231.2627939474
 21
137.3429322134
 31
0.0
  0
CIRCLE
  5
146
330
1F
100
AcDbEntity
  8
0
  6
CONTINUOUS
 62
     7
100
AcDbCircle
 10
286.8447553144
 20
154.5768053492
 30
0.0
 40
12.5
  0
CIRCLE
  5
147
330
1F
100
AcDbEntity
  8
0
  6
CONTINUOUS
 62
     7
100
AcDbCircle
 10
286.8447553144
 20
154.5768053492
 30
0.0
 40
11.0
  0
CIRCLE
  5
148
330
1F
100
AcDbEntity
  8
0
  6
CONTINUOUS
 62
     7
100
AcDbCircle
 10
314.8447553144
 20
154.5768053492
 30
0.0
 40
12.5
  0
CIRCLE
  5
149
330
1F
100
AcDbEntity
  8
0
  6
CONTINUOUS
 62
     7
100
AcDbCircle
 10
314.8447553144
 20
154.5768053492
 30
0.0
 40
11.0
  0
CIRCLE
  5
14A
330
1F
100
AcDbEntity
  8
0
  6
CONTINUOUS
 62
     7
100
AcDbCircle
 10
342.8447553144
 20
154.5768053492
 30
0.0
 40
12.5
  0
CIRCLE
  5
14B
330
1F
100
AcDbEntity
  8
0
  6
CONTINUOUS
 62
     7
100
AcDbCircle
 10
342.8447553144
 20
154.5768053492
 30
0.0
 40
11.0
  0
CIRCLE
  5
14C
330
1F
100
AcDbEntity
  8
0
  6
CONTINUOUS
 62
     7
100
AcDbCircle
 10
370.8447553144
 20
154.5768053492
 30
0.0
 40
12.5
  0
CIRCLE
  5
14D
330
1F
100
AcDbEntity
  8
0
  6
CONTINUOUS
 62
     7
100
AcDbCircle
 10
370.8447553144
 20
154.5768053492
 30
0.0
 40
11.0
  0
LINE
  5
14E
330
1F
100
AcDbEntity
  8
0
  6
CONTINUOUS
 62
     7
100
AcDbLine
 10
397.5947553144
 20
169.5768053492
 30
0.0
 11
397.5947553144
 21
139.5768053492
 31
0.0
  0
ARC
  5
14F
330
1F
100
AcDbEntity
  8
0
  6
CONTINUOUS
 62
     7
100
AcDbCircle
 10
388.8447553144
 20
139.5768053492
 30
0.0
 40
8.750000000000057
100
AcDbArc
 50
270.0
 51
0.0
  0
LINE
  5
150
330
1F
100
AcDbEntity
  8
0
  6
CONTINUOUS
 62
     7
100
AcDbLine
 10
388.8447553144
 20
130.8268053492
 30
0.0
 11
268.8447553144
 21
130.8268053492
 31
0.0
  0
LINE
  5
151
330
1F
100
AcDbEntity
  8
0
  6
CONTINUOUS
 62
     7
100
AcDbLine
 10
268.8447553144
 20
178.3268053492
 30
0.0
 11
388.8447553144
 21
178.3268053492
 31
0.0
  0
ARC
  5
152
330
1F
100
AcDbEntity
  8
0
  6
CONTINUOUS
 62
     7
100
AcDbCircle
 10
388.8447553144
 20
169.5768053492
 30
0.0
 40
8.750000000000057
100
AcDbArc
 50
0.0
 51
90.0
  0
LINE
  5
153
330
1F
100
AcDbEntity
  8
0
  6
CONTINUOUS
 62
     7
100
AcDbLine
 10
268.8447553144
 20
164.5768053492
 30
0.0
 11
266.3447553144
 21
164.5768053492
 31
0.0
  0
ARC
  5
154
330
1F
100
AcDbEntity
  8
0
  6
CONTINUOUS
 62
     7
100
AcDbCircle
 10
266.3447553144
 20
163.0768053492
 30
0.0
 40
1.5
100
AcDbArc
 50
90.0
 51
180.0
  0
LINE
  5
155
330
1F
100
AcDbEntity
  8
0
  6
CONTINUOUS
 62
     7
100
AcDbLine
 10
264.8447553144
 20
163.0768053492
 30
0.0
 11
264.8447553144
 21
146.0768053492
 31
0.0
  0
ARC
  5
156
330
1F
100
AcDbEntity
  8
0
  6
CONTINUOUS
 62
     7
100
AcDbCircle
 10
266.3447553144
 20
146.0768053492
 30
0.0
 40
1.5
100
AcDbArc
 50
180.0
 51
270.0
  0
LINE
  5
157
330
1F
100
AcDbEntity
  8
0
  6
CONTINUOUS
 62
     7
100
AcDbLine
 10
266.3447553144
 20
144.5768053492
 30
0.0
 11
268.8447553144
 21
144.5768053492
 31
0.0
  0
ARC
  5
158
330
1F
100
AcDbEntity
  8
0
  6
CONTINUOUS
 62
     7
100
AcDbCircle
 10
268.8447553144
 20
139.5768053492
 30
0.0
 40
5.0
100
AcDbArc
 50
0.0
 51
90.0
  0
LINE
  5
159
330
1F
100
AcDbEntity
  8
0
  6
CONTINUOUS
 62
     7
100
AcDbLine
 10
273.8447553144
 20
139.5768053492
 30
0.0
 11
273.8447553144
 21
137.5768053492
 31
0.0
  0
ARC
  5
15A
330
1F
100
AcDbEntity
  8
0
  6
CONTINUOUS
 62
     7
100
AcDbCircle
 10
275.3447553144
 20
137.5768053492
 30
0.0
 40
1.5
100
AcDbArc
 50
180.0
 51
270.0
  0
LINE
  5
15B
330
1F
100
AcDbEntity
  8
0
  6
CONTINUOUS
 62
     7
100
AcDbLine
 10
275.3447553144
 20
136.0768053492
 30
0.0
 11
382.3447553144
 21
136.0768053492
 31
0.0
  0
ARC
  5
15C
330
1F
100
AcDbEntity
  8
0
  6
CONTINUOUS
 62
     7
100
AcDbCircle
 10
382.3447553144
 20
137.5768053492
 30
0.0
 40
1.5
100
AcDbArc
 50
270.0
 51
0.0
  0
LINE
  5
15D
330
1F
100
AcDbEntity
  8
0
  6
CONTINUOUS
 62
     7
100
AcDbLine
 10
383.8447553144
 20
137.5768053492
 30
0.0
 11
383.8447553144
 21
139.5768053492
 31
0.0
  0
ARC
  5
15E
330
1F
100
AcDbEntity
  8
0
  6
CONTINUOUS
 62
     7
100
AcDbCircle
 10
388.8447553144
 20
139.5768053492
 30
0.0
 40
5.0
100
AcDbArc
 50
90.0
 51
180.0
  0
LINE
  5
15F
330
1F
100
AcDbEntity
  8
0
  6
CONTINUOUS
 62
     7
100
AcDbLine
 10
388.8447553144
 20
144.5768053492
 30
0.0
 11
391.3447553144
 21
144.5768053492
 31
0.0
  0
ARC
  5
160
330
1F
100
AcDbEntity
  8
0
  6
CONTINUOUS
 62
     7
100
AcDbCircle
 10
391.3447553144
 20
146.0768053492
 30
0.0
 40
1.5
100
AcDbArc
 50
270.0
 51
0.0
  0
LINE
  5
161
330
1F
100
AcDbEntity
  8
0
  6
CONTINUOUS
 62
     7
100
AcDbLine
 10
392.8447553144
 20
146.0768053492
 30
0.0
 11
392.8447553144
 21
163.0768053492
 31
0.0
  0
ARC
  5
162
330
1F
100
AcDbEntity
  8
0
  6
CONTINUOUS
 62
     7
100
AcDbCircle
 10
391.3447553144
 20
163.0768053492
 30
0.0
 40
1.5
100
AcDbArc
 50
0.0
 51
90.0
  0
LINE
  5
163
330
1F
100
AcDbEntity
  8
0
  6
CONTINUOUS
 62
     7
100
AcDbLine
 10
391.3447553144
 20
164.5768053492
 30
0.0
 11
388.8447553144
 21
164.5768053492
 31
0.0
  0
ARC
  5
164
330
1F
100
AcDbEntity
  8
0
  6
CONTINUOUS
 62
     7
100
AcDbCircle
 10
388.8447553144
 20
169.5768053492
 30
0.0
 40
5.0
100
AcDbArc
 50
180.0
 51
270.0
  0
LINE
  5
165
330
1F
100
AcDbEntity
  8
0
  6
CONTINUOUS
 62
     7
100
AcDbLine
 10
383.8447553144
 20
169.5768053492
 30
0.0
 11
383.8447553144
 21
171.5768053492
 31
0.0
  0
ARC
  5
166
330
1F
100
AcDbEntity
  8
0
  6
CONTINUOUS
 62
     7
100
AcDbCircle
 10
382.3447553144
 20
171.5768053492
 30
0.0
 40
1.500000000000057
100
AcDbArc
 50
0.0
 51
90.0
  0
LINE
  5
167
330
1F
100
AcDbEntity
  8
0
  6
CONTINUOUS
 62
     7
100
AcDbLine
 10
382.3447553144
 20
173.0768053492
 30
0.0
 11
275.3447553144
 21
173.0768053492
 31
0.0
  0
ARC
  5
168
330
1F
100
AcDbEntity
  8
0
  6
CONTINUOUS
 62
     7
100
AcDbCircle
 10
275.3447553144
 20
171.5768053492
 30
0.0
 40
1.5
100
AcDbArc
 50
90.0
 51
180.0
  0
LINE
  5
169
330
1F
100
AcDbEntity
  8
0
  6
CONTINUOUS
 62
     7
100
AcDbLine
 10
273.8447553144
 20
171.5768053492
 30
0.0
 11
273.8447553144
 21
169.5768053492
 31
0.0
  0
ARC
  5
16A
330
1F
100
AcDbEntity
  8
0
  6
CONTINUOUS
 62
     7
100
AcDbCircle
 10
268.8447553144
 20
169.5768053492
 30
0.0
 40
5.000000000000057
100
AcDbArc
 50
270.0
 51
0.0
  0
CIRCLE
  5
16B
330
1F
100
AcDbEntity
  8
0
  6
CONTINUOUS
 62
     7
100
AcDbCircle
 10
388.8447553144
 20
169.5768053492
 30
0.0
 40
3.5
  0
CIRCLE
  5
16C
330
1F
100
AcDbEntity
  8
0
  6
CONTINUOUS
 62
     7
100
AcDbCircle
 10
388.8447553144
 20
139.5768053492
 30
0.0
 40
3.5
  0
CIRCLE
  5
16D
330
1F
100
AcDbEntity
  8
0
  6
CONTINUOUS
 62
     7
100
AcDbCircle
 10
268.8447553144
 20
169.5768053492
 30
0.0
 40
3.5
  0
CIRCLE
  5
16E
330
1F
100
AcDbEntity
  8
0
  6
CONTINUOUS
 62
     7
100
AcDbCircle
 10
268.8447553144
 20
139.5768053492
 30
0.0
 40
3.5
  0
ARC
  5
16F
330
1F
100
AcDbEntity
  8
0
  6
CONTINUOUS
 62
     7
100
AcDbCircle
 10
268.8447553144
 20
169.5768053492
 30
0.0
 40
8.75
100
AcDbArc
 50
90.0
 51
180.0
  0
ARC
  5
170
330
1F
100
AcDbEntity
  8
0
  6
CONTINUOUS
 62
     7
100
AcDbCircle
 10
268.8447553144
 20
139.5768053492
 30
0.0
 40
8.750000000000028
100
AcDbArc
 50
180.0
 51
270.0
  0
LINE
  5
171
330
1F
100
AcDbEntity
  8
0
  6
CONTINUOUS
 62
     7
100
AcDbLine
 10
260.0947553144
 20
139.5768053492
 30
0.0
 11
260.0947553144
 21
169.5768053492
 31
0.0
  0
LINE
  5
172
330
1F
100
AcDbEntity
  8
0
  6
CONTINUOUS
 62
     7
100
AcDbLine
 10
266.3447553144
 20
164.5593502843
 30
0.0
 11
266.3447553144
 21
164.5768053492
 31
0.0
  0
ARC
  5
173
330
1F
100
AcDbEntity
  8
0
  6
CONTINUOUS
 62
     7
100
AcDbCircle
 10
266.3447553144
 20
163.0768053492
 30
0.0
 40
1.482544935071758
100
AcDbArc
 50
90.0
 51
180.0
  0
LINE
  5
174
330
1F
100
AcDbEntity
  8
0
  6
CONTINUOUS
 62
     7
100
AcDbLine
 10
264.8622103793
 20
163.0768053492
 30
0.0
 11
264.8447553144
 21
163.0768053492
 31
0.0
  0
LINE
  5
175
330
1F
100
AcDbEntity
  8
0
  6
CONTINUOUS
 62
     7
100
AcDbLine
 10
264.8622103793
 20
163.0768053492
 30
0.0
 11
264.8622103793
 21
157.0768053492
 31
0.0
  0
LINE
  5
176
330
1F
100
AcDbEntity
  8
0
  6
CONTINUOUS
 62
     7
100
AcDbLine
 10
264.9407581715
 20
157.0768053492
 30
0.0
 11
264.8622103793
 21
157.0768053492
 31
0.0
  0
LINE
  5
177
330
1F
100
AcDbEntity
  8
0
  6
CONTINUOUS
 62
     7
100
AcDbLine
 10
264.9407581715
 20
157.0768053492
 30
0.0
 11
264.9407581715
 21
152.0768053492
 31
0.0
  0
LINE
  5
178
330
1F
100
AcDbEntity
  8
0
  6
CONTINUOUS
 62
     7
100
AcDbLine
 10
264.9407581715
 20
152.0768053492
 30
0.0
 11
264.8622103793
 21
152.0768053492
 31
0.0
  0
LINE
  5
179
330
1F
100
AcDbEntity
  8
0
  6
CONTINUOUS
 62
     7
100
AcDbLine
 10
264.8622103793
 20
152.0768053492
 30
0.0
 11
264.8622103793
 21
146.0768053492
 31
0.0
  0
LINE
  5
17A
330
1F
100
AcDbEntity
  8
0
  6
CONTINUOUS
 62
     7
100
AcDbLine
 10
264.8622103793
 20
146.0768053492
 30
0.0
 11
264.8447553144
 21
146.0768053492
 31
0.0
  0
ARC
  5
17B
330
1F
100
AcDbEntity
  8
0
  6
CONTINUOUS
 62
     7
100
AcDbCircle
 10
266.3447553144
 20
146.0768053492
 30
0.0
 40
1.482544935071758
100
AcDbArc
 50
180.0
 51
270.0
  0
LINE
  5
17C
330
1F
100
AcDbEntity
  8
0
  6
CONTINUOUS
 62
     7
100
AcDbLine
 10
266.3447553144
 20
144.5942604141
 30
0.0
 11
266.3447553144
 21
144.5768053492
 31
0.0
  0
LINE
  5
17D
330
1F
100
AcDbEntity
  8
0
  6
CONTINUOUS
 62
     7
100
AcDbLine
 10
266.3447553144
 20
144.5942604141
 30
0.0
 11
268.8447553144
 21
144.5942604141
 31
0.0
  0
LINE
  5
17E
330
1F
100
AcDbEntity
  8
0
  6
CONTINUOUS
 62
     7
100
AcDbLine
 10
268.8447553144
 20
144.5942604141
 30
0.0
 11
268.8447553144
 21
144.5768053492
 31
0.0
  0
LINE
  5
17F
330
1F
100
AcDbEntity
  8
0
  6
CONTINUOUS
 62
     7
100
AcDbLine
 10
268.8447553144
 20
164.5593502843
 30
0.0
 11
268.8447553144
 21
164.5768053492
 31
0.0
  0
LINE
  5
180
330
1F
100
AcDbEntity
  8
0
  6
CONTINUOUS
 62
     7
100
AcDbLine
 10
268.8447553144
 20
164.5593502843
 30
0.0
 11
266.3447553144
 21
164.5593502843
 31
0.0
  0
ARC
  5
181
330
1F
100
AcDbEntity
  8
0
  6
CONTINUOUS
 62
     7
100
AcDbCircle
 10
268.8447553144
 20
139.5768053492
 30
0.0
 40
5.017455064928242
100
AcDbArc
 50
0.0
 51
90.0
  0
LINE
  5
182
330
1F
100
AcDbEntity
  8
0
  6
CONTINUOUS
 62
     7
100
AcDbLine
 10
273.8622103793
 20
139.5768053492
 30
0.0
 11
273.8447553144
 21
139.5768053492
 31
0.0
  0
LINE
  5
183
330
1F
100
AcDbEntity
  8
0
  6
CONTINUOUS
 62
     7
100
AcDbLine
 10
273.8622103793
 20
169.5768053492
 30
0.0
 11
273.8447553144
 21
169.5768053492
 31
0.0
  0
ARC
  5
184
330
1F
100
AcDbEntity
  8
0
  6
CONTINUOUS
 62
     7
100
AcDbCircle
 10
268.8447553144
 20
169.5768053492
 30
0.0
 40
5.017455064928242
100
AcDbArc
 50
270.0
 51
0.0
  0
LINE
  5
185
330
1F
100
AcDbEntity
  8
0
  6
CONTINUOUS
 62
     7
100
AcDbLine
 10
273.8622103793
 20
137.5768053492
 30
0.0
 11
273.8447553144
 21
137.5768053492
 31
0.0
  0
ARC
  5
186
330
1F
100
AcDbEntity
  8
0
  6
CONTINUOUS
 62
     7
100
AcDbCircle
 10
275.3447553144
 20
137.5768053492
 30
0.0
 40
1.482544935071815
100
AcDbArc
 50
180.0
 51
270.0
  0
LINE
  5
187
330
1F
100
AcDbEntity
  8
0
  6
CONTINUOUS
 62
     7
100
AcDbLine
 10
275.3447553144
 20
136.0942604141
 30
0.0
 11
275.3447553144
 21
136.0768053492
 31
0.0
  0
LINE
  5
188
330
1F
100
AcDbEntity
  8
0
  6
CONTINUOUS
 62
     7
100
AcDbLine
 10
273.8622103793
 20
139.5768053492
 30
0.0
 11
273.8622103793
 21
137.5768053492
 31
0.0
  0
LINE
  5
189
330
1F
100
AcDbEntity
  8
0
  6
CONTINUOUS
 62
     7
100
AcDbLine
 10
275.3447553144
 20
173.0593502843
 30
0.0
 11
275.3447553144
 21
173.0768053492
 31
0.0
  0
ARC
  5
18A
330
1F
100
AcDbEntity
  8
0
  6
CONTINUOUS
 62
     7
100
AcDbCircle
 10
275.3447553144
 20
171.5768053492
 30
0.0
 40
1.482544935071786
100
AcDbArc
 50
90.0
 51
180.0
  0
LINE
  5
18B
330
1F
100
AcDbEntity
  8
0
  6
CONTINUOUS
 62
     7
100
AcDbLine
 10
273.8622103793
 20
171.5768053492
 30
0.0
 11
273.8447553144
 21
171.5768053492
 31
0.0
  0
LINE
  5
18C
330
1F
100
AcDbEntity
  8
0
  6
CONTINUOUS
 62
     7
100
AcDbLine
 10
273.8622103793
 20
171.5768053492
 30
0.0
 11
273.8622103793
 21
169.5768053492
 31
0.0
  0
LINE
  5
18D
330
1F
100
AcDbEntity
  8
0
  6
CONTINUOUS
 62
     7
100
AcDbLine
 10
275.3447553144
 20
136.0942604141
 30
0.0
 11
281.3447553144
 21
136.0942604141
 31
0.0
  0
LINE
  5
18E
330
1F
100
AcDbEntity
  8
0
  6
CONTINUOUS
 62
     7
100
AcDbLine
 10
281.3447553144
 20
136.1728082063
 30
0.0
 11
281.3447553144
 21
136.0942604141
 31
0.0
  0
LINE
  5
18F
330
1F
100
AcDbEntity
  8
0
  6
CONTINUOUS
 62
     7
100
AcDbLine
 10
281.3447553144
 20
136.1728082063
 30
0.0
 11
376.3447553144
 21
136.1728082063
 31
0.0
  0
LINE
  5
190
330
1F
100
AcDbEntity
  8
0
  6
CONTINUOUS
 62
     7
100
AcDbLine
 10
376.3447553144
 20
136.1728082063
 30
0.0
 11
376.3447553144
 21
136.0942604141
 31
0.0
  0
LINE
  5
191
330
1F
100
AcDbEntity
  8
0
  6
CONTINUOUS
 62
     7
100
AcDbLine
 10
376.3447553144
 20
136.0942604141
 30
0.0
 11
382.3447553144
 21
136.0942604141
 31
0.0
  0
LINE
  5
192
330
1F
100
AcDbEntity
  8
0
  6
CONTINUOUS
 62
     7
100
AcDbLine
 10
382.3447553144
 20
136.0942604141
 30
0.0
 11
382.3447553144
 21
136.0768053492
 31
0.0
  0
LINE
  5
193
330
1F
100
AcDbEntity
  8
0
  6
CONTINUOUS
 62
     7
100
AcDbLine
 10
382.3447553144
 20
173.0593502843
 30
0.0
 11
382.3447553144
 21
173.0768053492
 31
0.0
  0
LINE
  5
194
330
1F
100
AcDbEntity
  8
0
  6
CONTINUOUS
 62
     7
100
AcDbLine
 10
382.3447553144
 20
173.0593502843
 30
0.0
 11
376.3447553144
 21
173.0593502843
 31
0.0
  0
LINE
  5
195
330
1F
100
AcDbEntity
  8
0
  6
CONTINUOUS
 62
     7
100
AcDbLine
 10
376.3447553144
 20
172.9808024921
 30
0.0
 11
376.3447553144
 21
173.0593502843
 31
0.0
  0
LINE
  5
196
330
1F
100
AcDbEntity
  8
0
  6
CONTINUOUS
 62
     7
100
AcDbLine
 10
376.3447553144
 20
172.9808024921
 30
0.0
 11
281.3447553144
 21
172.9808024921
 31
0.0
  0
LINE
  5
197
330
1F
100
AcDbEntity
  8
0
  6
CONTINUOUS
 62
     7
100
AcDbLine
 10
281.3447553144
 20
172.9808024921
 30
0.0
 11
281.3447553144
 21
173.0593502843
 31
0.0
  0
LINE
  5
198
330
1F
100
AcDbEntity
  8
0
  6
CONTINUOUS
 62
     7
100
AcDbLine
 10
281.3447553144
 20
173.0593502843
 30
0.0
 11
275.3447553144
 21
173.0593502843
 31
0.0
  0
LINE
  5
199
330
1F
100
AcDbEntity
  8
0
  6
CONTINUOUS
 62
     7
100
AcDbLine
 10
383.8273002495
 20
171.5768053492
 30
0.0
 11
383.8447553144
 21
171.5768053492
 31
0.0
  0
ARC
  5
19A
330
1F
100
AcDbEntity
  8
0
  6
CONTINUOUS
 62
     7
100
AcDbCircle
 10
382.3447553144
 20
171.5768053492
 30
0.0
 40
1.482544935071815
100
AcDbArc
 50
0.0
 51
90.0
  0
ARC
  5
19B
330
1F
100
AcDbEntity
  8
0
  6
CONTINUOUS
 62
     7
100
AcDbCircle
 10
382.3447553144
 20
137.5768053492
 30
0.0
 40
1.482544935071786
100
AcDbArc
 50
270.0
 51
0.0
  0
LINE
  5
19C
330
1F
100
AcDbEntity
  8
0
  6
CONTINUOUS
 62
     7
100
AcDbLine
 10
383.8273002495
 20
137.5768053492
 30
0.0
 11
383.8447553144
 21
137.5768053492
 31
0.0
  0
LINE
  5
19D
330
1F
100
AcDbEntity
  8
0
  6
CONTINUOUS
 62
     7
100
AcDbLine
 10
383.8273002495
 20
137.5768053492
 30
0.0
 11
383.8273002495
 21
139.5768053492
 31
0.0
  0
LINE
  5
19E
330
1F
100
AcDbEntity
  8
0
  6
CONTINUOUS
 62
     7
100
AcDbLine
 10
383.8273002495
 20
139.5768053492
 30
0.0
 11
383.8447553144
 21
139.5768053492
 31
0.0
  0
LINE
  5
19F
330
1F
100
AcDbEntity
  8
0
  6
CONTINUOUS
 62
     7
100
AcDbLine
 10
383.8273002495
 20
169.5768053492
 30
0.0
 11
383.8447553144
 21
169.5768053492
 31
0.0
  0
LINE
  5
1A0
330
1F
100
AcDbEntity
  8
0
  6
CONTINUOUS
 62
     7
100
AcDbLine
 10
383.8273002495
 20
169.5768053492
 30
0.0
 11
383.8273002495
 21
171.5768053492
 31
0.0
  0
ARC
  5
1A1
330
1F
100
AcDbEntity
  8
0
  6
CONTINUOUS
 62
     7
100
AcDbCircle
 10
388.8447553144
 20
139.5768053492
 30
0.0
 40
5.017455064928242
100
AcDbArc
 50
90.0
 51
180.0
  0
LINE
  5
1A2
330
1F
100
AcDbEntity
  8
0
  6
CONTINUOUS
 62
     7
100
AcDbLine
 10
388.8447553144
 20
144.5942604141
 30
0.0
 11
388.8447553144
 21
144.5768053492
 31
0.0
  0
LINE
  5
1A3
330
1F
100
AcDbEntity
  8
0
  6
CONTINUOUS
 62
     7
100
AcDbLine
 10
388.8447553144
 20
164.5593502843
 30
0.0
 11
388.8447553144
 21
164.5768053492
 31
0.0
  0
ARC
  5
1A4
330
1F
100
AcDbEntity
  8
0
  6
CONTINUOUS
 62
     7
100
AcDbCircle
 10
388.8447553144
 20
169.5768053492
 30
0.0
 40
5.017455064928242
100
AcDbArc
 50
180.0
 51
270.0
  0
LINE
  5
1A5
330
1F
100
AcDbEntity
  8
0
  6
CONTINUOUS
 62
     7
100
AcDbLine
 10
388.8447553144
 20
144.5942604141
 30
0.0
 11
391.3447553144
 21
144.5942604141
 31
0.0
  0
LINE
  5
1A6
330
1F
100
AcDbEntity
  8
0
  6
CONTINUOUS
 62
     7
100
AcDbLine
 10
391.3447553144
 20
144.5942604141
 30
0.0
 11
391.3447553144
 21
144.5768053492
 31
0.0
  0
LINE
  5
1A7
330
1F
100
AcDbEntity
  8
0
  6
CONTINUOUS
 62
     7
100
AcDbLine
 10
391.3447553144
 20
164.5593502843
 30
0.0
 11
391.3447553144
 21
164.5768053492
 31
0.0
  0
LINE
  5
1A8
330
1F
100
AcDbEntity
  8
0
  6
CONTINUOUS
 62
     7
100
AcDbLine
 10
391.3447553144
 20
164.5593502843
 30
0.0
 11
388.8447553144
 21
164.5593502843
 31
0.0
  0
LINE
  5
1A9
330
1F
100
AcDbEntity
  8
0
  6
CONTINUOUS
 62
     7
100
AcDbLine
 10
392.8273002495
 20
163.0768053492
 30
0.0
 11
392.8447553144
 21
163.0768053492
 31
0.0
  0
ARC
  5
1AA
330
1F
100
AcDbEntity
  8
0
  6
CONTINUOUS
 62
     7
100
AcDbCircle
 10
391.3447553144
 20
163.0768053492
 30
0.0
 40
1.482544935071758
100
AcDbArc
 50
0.0
 51
90.0
  0
ARC
  5
1AB
330
1F
100
AcDbEntity
  8
0
  6
CONTINUOUS
 62
     7
100
AcDbCircle
 10
391.3447553144
 20
146.0768053492
 30
0.0
 40
1.482544935071758
100
AcDbArc
 50
270.0
 51
0.0
  0
LINE
  5
1AC
330
1F
100
AcDbEntity
  8
0
  6
CONTINUOUS
 62
     7
100
AcDbLine
 10
392.8273002495
 20
146.0768053492
 30
0.0
 11
392.8447553144
 21
146.0768053492
 31
0.0
  0
LINE
  5
1AD
330
1F
100
AcDbEntity
  8
0
  6
CONTINUOUS
 62
     7
100
AcDbLine
 10
392.8273002495
 20
146.0768053492
 30
0.0
 11
392.8273002495
 21
152.0768053492
 31
0.0
  0
LINE
  5
1AE
330
1F
100
AcDbEntity
  8
0
  6
CONTINUOUS
 62
     7
100
AcDbLine
 10
392.7487524573
 20
152.0768053492
 30
0.0
 11
392.8273002495
 21
152.0768053492
 31
0.0
  0
LINE
  5
1AF
330
1F
100
AcDbEntity
  8
0
  6
CONTINUOUS
 62
     7
100
AcDbLine
 10
392.7487524573
 20
152.0768053492
 30
0.0
 11
392.7487524573
 21
157.0768053492
 31
0.0
  0
LINE
  5
1B0
330
1F
100
AcDbEntity
  8
0
  6
CONTINUOUS
 62
     7
100
AcDbLine
 10
392.7487524573
 20
157.0768053492
 30
0.0
 11
392.8273002495
 21
157.0768053492
 31
0.0
  0
LINE
  5
1B1
330
1F
100
AcDbEntity
  8
0
  6
CONTINUOUS
 62
     7
100
AcDbLine
 10
392.8273002495
 20
157.0768053492
 30
0.0
 11
392.8273002495
 21
163.0768053492
 31
0.0
  0
LINE
  5
1B2
330
1F
100
AcDbEntity
  8
0
  6
CONTINUOUS
 62
     7
100
AcDbLine
 10
266.3622103793
 20
158.498257557
 30
0.0
 11
266.3622103793
 21
158.5768053492
 31
0.0
  0
ARC
  5
1B3
330
1F
100
AcDbEntity
  8
0
  6
CONTINUOUS
 62
     7
100
AcDbCircle
 10
266.3622103793
 20
157.0768053492
 30
0.0
 40
1.421452207823052
100
AcDbArc
 50
90.0
 51
180.0
  0
ARC
  5
1B4
330
1F
100
AcDbEntity
  8
0
  6
CONTINUOUS
 62
     7
100
AcDbCircle
 10
266.3622103793
 20
157.0768053492
 30
0.0
 40
1.5
100
AcDbArc
 50
90.0
 51
180.0
  0
ARC
  5
1B5
330
1F
100
AcDbEntity
  8
0
  6
CONTINUOUS
 62
     7
100
AcDbCircle
 10
268.8447553144
 20
139.5768053492
 30
0.0
 40
10.99999999999996
100
AcDbArc
 50
0.0
 51
35.1148987851
  0
LINE
  5
1B6
330
1F
100
AcDbEntity
  8
0
  6
CONTINUOUS
 62
     7
100
AcDbLine
 10
279.8447553144
 20
139.5768053492
 30
0.0
 11
279.8447553144
 21
137.5942604141
 31
0.0
  0
ARC
  5
1B7
330
1F
100
AcDbEntity
  8
0
  6
CONTINUOUS
 62
     7
100
AcDbCircle
 10
281.3447553144
 20
137.5942604141
 30
0.0
 40
1.5
100
AcDbArc
 50
180.0
 51
270.0
  0
ARC
  5
1B8
330
1F
100
AcDbEntity
  8
0
  6
CONTINUOUS
 62
     7
100
AcDbCircle
 10
266.3622103793
 20
152.0768053492
 30
0.0
 40
1.5
100
AcDbArc
 50
180.0
 51
270.0
  0
LINE
  5
1B9
330
1F
100
AcDbEntity
  8
0
  6
CONTINUOUS
 62
     7
100
AcDbLine
 10
266.3622103793
 20
150.5768053492
 30
0.0
 11
268.8447553144
 21
150.5768053492
 31
0.0
  0
ARC
  5
1BA
330
1F
100
AcDbEntity
  8
0
  6
CONTINUOUS
 62
     7
100
AcDbCircle
 10
268.8447553144
 20
139.5768053492
 30
0.0
 40
11.0000000000008
100
AcDbArc
 50
44.4962433995
 51
90.0
  0
ARC
  5
1BB
330
1F
100
AcDbEntity
  8
0
  6
CONTINUOUS
 62
     7
100
AcDbCircle
 10
268.8447553144
 20
169.5768053492
 30
0.0
 40
11.00000000000001
100
AcDbArc
 50
270.0
 51
315.5037566005
  0
LINE
  5
1BC
330
1F
100
AcDbEntity
  8
0
  6
CONTINUOUS
 62
     7
100
AcDbLine
 10
268.8447553144
 20
158.5768053492
 30
0.0
 11
266.3622103793
 21
158.5768053492
 31
0.0
  0
ARC
  5
1BD
330
1F
100
AcDbEntity
  8
0
  6
CONTINUOUS
 62
     7
100
AcDbCircle
 10
281.3447553144
 20
171.5593502843
 30
0.0
 40
1.500000000000028
100
AcDbArc
 50
90.0
 51
180.0
  0
LINE
  5
1BE
330
1F
100
AcDbEntity
  8
0
  6
CONTINUOUS
 62
     7
100
AcDbLine
 10
279.8447553144
 20
171.5593502843
 30
0.0
 11
279.8447553144
 21
169.5768053492
 31
0.0
  0
ARC
  5
1BF
330
1F
100
AcDbEntity
  8
0
  6
CONTINUOUS
 62
     7
100
AcDbCircle
 10
268.8447553144
 20
169.5768053492
 30
0.0
 40
11.00000000000083
100
AcDbArc
 50
324.885101215
 51
0.0
  0
ARC
  5
1C0
330
1F
100
AcDbEntity
  8
0
  6
CONTINUOUS
 62
     7
100
AcDbCircle
 10
266.3622103793
 20
152.0768053492
 30
0.0
 40
1.421452207823052
100
AcDbArc
 50
180.0
 51
270.0
  0
LINE
  5
1C1
330
1F
100
AcDbEntity
  8
0
  6
CONTINUOUS
 62
     7
100
AcDbLine
 10
266.3622103793
 20
150.6553531414
 30
0.0
 11
266.3622103793
 21
150.5768053492
 31
0.0
  0
LINE
  5
1C2
330
1F
100
AcDbEntity
  8
0
  6
CONTINUOUS
 62
     7
100
AcDbLine
 10
266.3622103793
 20
150.6553531414
 30
0.0
 11
268.8447553144
 21
150.6553531414
 31
0.0
  0
LINE
  5
1C3
330
1F
100
AcDbEntity
  8
0
  6
CONTINUOUS
 62
     7
100
AcDbLine
 10
268.8447553144
 20
150.6553531414
 30
0.0
 11
268.8447553144
 21
150.5768053492
 31
0.0
  0
LINE
  5
1C4
330
1F
100
AcDbEntity
  8
0
  6
CONTINUOUS
 62
     7
100
AcDbLine
 10
268.8447553144
 20
158.498257557
 30
0.0
 11
268.8447553144
 21
158.5768053492
 31
0.0
  0
LINE
  5
1C5
330
1F
100
AcDbEntity
  8
0
  6
CONTINUOUS
 62
     7
100
AcDbLine
 10
268.8447553144
 20
158.498257557
 30
0.0
 11
266.3622103793
 21
158.498257557
 31
0.0
  0
ARC
  5
1C6
330
1F
100
AcDbEntity
  8
0
  6
CONTINUOUS
 62
     7
100
AcDbCircle
 10
268.8447553144
 20
169.5768053492
 30
0.0
 40
11.07854779217762
100
AcDbArc
 50
270.0
 51
313.3747747241
  0
ARC
  5
1C7
330
1F
100
AcDbEntity
  8
0
  6
CONTINUOUS
 62
     7
100
AcDbCircle
 10
268.8447553144
 20
139.5768053492
 30
0.0
 40
11.078547792177
100
AcDbArc
 50
46.6252252759
 51
90.0
  0
LINE
  5
1C8
330
1F
100
AcDbEntity
  8
0
  6
CONTINUOUS
 62
     7
100
AcDbLine
 10
279.9233031066
 20
139.5768053492
 30
0.0
 11
279.8447553144
 21
139.5768053492
 31
0.0
  0
ARC
  5
1C9
330
1F
100
AcDbEntity
  8
0
  6
CONTINUOUS
 62
     7
100
AcDbCircle
 10
268.8447553144
 20
139.5768053492
 30
0.0
 40
11.07854779217765
100
AcDbArc
 50
0.0
 51
32.9859169087
  0
LINE
  5
1CA
330
1F
100
AcDbEntity
  8
0
  6
CONTINUOUS
 62
     7
100
AcDbLine
 10
279.9233031066
 20
169.5768053492
 30
0.0
 11
279.8447553144
 21
169.5768053492
 31
0.0
  0
ARC
  5
1CB
330
1F
100
AcDbEntity
  8
0
  6
CONTINUOUS
 62
     7
100
AcDbCircle
 10
268.8447553144
 20
169.5768053492
 30
0.0
 40
11.0785477921777
100
AcDbArc
 50
327.0140830913
 51
0.0
  0
ARC
  5
1CC
330
1F
100
AcDbEntity
  8
0
  6
CONTINUOUS
 62
     7
100
AcDbCircle
 10
281.3447553144
 20
171.5593502843
 30
0.0
 40
1.421452207823052
100
AcDbArc
 50
90.0
 51
180.0
  0
LINE
  5
1CD
330
1F
100
AcDbEntity
  8
0
  6
CONTINUOUS
 62
     7
100
AcDbLine
 10
279.9233031066
 20
171.5593502843
 30
0.0
 11
279.8447553144
 21
171.5593502843
 31
0.0
  0
LINE
  5
1CE
330
1F
100
AcDbEntity
  8
0
  6
CONTINUOUS
 62
     7
100
AcDbLine
 10
279.9233031066
 20
139.5768053492
 30
0.0
 11
279.9233031066
 21
137.5942604141
 31
0.0
  0
LINE
  5
1CF
330
1F
100
AcDbEntity
  8
0
  6
CONTINUOUS
 62
     7
100
AcDbLine
 10
279.9233031066
 20
137.5942604141
 30
0.0
 11
279.8447553144
 21
137.5942604141
 31
0.0
  0
LINE
  5
1D0
330
1F
100
AcDbEntity
  8
0
  6
CONTINUOUS
 62
     7
100
AcDbLine
 10
279.9233031066
 20
171.5593502843
 30
0.0
 11
279.9233031066
 21
169.5768053492
 31
0.0
  0
ARC
  5
1D1
330
1F
100
AcDbEntity
  8
0
  6
CONTINUOUS
 62
     7
100
AcDbCircle
 10
281.3447553144
 20
137.5942604141
 30
0.0
 40
1.421452207823023
100
AcDbArc
 50
180.0
 51
270.0
  0
ARC
  5
1D2
330
1F
100
AcDbEntity
  8
0
  6
CONTINUOUS
 62
     7
100
AcDbCircle
 10
388.8447553144
 20
169.5768053492
 30
0.0
 40
11.0
100
AcDbArc
 50
180.0
 51
215.1148987851
  0
LINE
  5
1D3
330
1F
100
AcDbEntity
  8
0
  6
CONTINUOUS
 62
     7
100
AcDbLine
 10
377.8447553144
 20
169.5768053492
 30
0.0
 11
377.8447553144
 21
171.5593502843
 31
0.0
  0
ARC
  5
1D4
330
1F
100
AcDbEntity
  8
0
  6
CONTINUOUS
 62
     7
100
AcDbCircle
 10
376.3447553144
 20
171.5593502843
 30
0.0
 40
1.500000000000028
100
AcDbArc
 50
360.0
 51
90.0
  0
ARC
  5
1D5
330
1F
100
AcDbEntity
  8
0
  6
CONTINUOUS
 62
     7
100
AcDbCircle
 10
391.3273002495
 20
157.0768053492
 30
0.0
 40
1.500000000000057
100
AcDbArc
 50
0.0
 51
90.0
  0
LINE
  5
1D6
330
1F
100
AcDbEntity
  8
0
  6
CONTINUOUS
 62
     7
100
AcDbLine
 10
391.3273002495
 20
158.5768053492
 30
0.0
 11
388.8447553144
 21
158.5768053492
 31
0.0
  0
ARC
  5
1D7
330
1F
100
AcDbEntity
  8
0
  6
CONTINUOUS
 62
     7
100
AcDbCircle
 10
388.8447553144
 20
169.5768053492
 30
0.0
 40
11.0000000000008
100
AcDbArc
 50
224.4962433995
 51
270.0
  0
ARC
  5
1D8
330
1F
100
AcDbEntity
  8
0
  6
CONTINUOUS
 62
     7
100
AcDbCircle
 10
376.3447553144
 20
137.5942604141
 30
0.0
 40
1.421452207822995
100
AcDbArc
 50
270.0
 51
0.0
  0
LINE
  5
1D9
330
1F
100
AcDbEntity
  8
0
  6
CONTINUOUS
 62
     7
100
AcDbLine
 10
377.7662075222
 20
137.5942604141
 30
0.0
 11
377.8447553144
 21
137.5942604141
 31
0.0
  0
ARC
  5
1DA
330
1F
100
AcDbEntity
  8
0
  6
CONTINUOUS
 62
     7
100
AcDbCircle
 10
376.3447553144
 20
137.5942604141
 30
0.0
 40
1.5
100
AcDbArc
 50
270.0
 51
0.0
  0
LINE
  5
1DB
330
1F
100
AcDbEntity
  8
0
  6
CONTINUOUS
 62
     7
100
AcDbLine
 10
377.7662075222
 20
171.5593502843
 30
0.0
 11
377.8447553144
 21
171.5593502843
 31
0.0
  0
ARC
  5
1DC
330
1F
100
AcDbEntity
  8
0
  6
CONTINUOUS
 62
     7
100
AcDbCircle
 10
376.3447553144
 20
171.5593502843
 30
0.0
 40
1.421452207822995
100
AcDbArc
 50
360.0
 51
90.0
  0
ARC
  5
1DD
330
1F
100
AcDbEntity
  8
0
  6
CONTINUOUS
 62
     7
100
AcDbCircle
 10
388.8447553144
 20
139.5768053492
 30
0.0
 40
11.0
100
AcDbArc
 50
90.0
 51
135.5037566005
  0
LINE
  5
1DE
330
1F
100
AcDbEntity
  8
0
  6
CONTINUOUS
 62
     7
100
AcDbLine
 10
388.8447553144
 20
150.5768053492
 30
0.0
 11
391.3273002495
 21
150.5768053492
 31
0.0
  0
ARC
  5
1DF
330
1F
100
AcDbEntity
  8
0
  6
CONTINUOUS
 62
     7
100
AcDbCircle
 10
391.3273002495
 20
152.0768053492
 30
0.0
 40
1.500000000000057
100
AcDbArc
 50
270.0
 51
0.0
  0
LINE
  5
1E0
330
1F
100
AcDbEntity
  8
0
  6
CONTINUOUS
 62
     7
100
AcDbLine
 10
377.8447553144
 20
137.5942604141
 30
0.0
 11
377.8447553144
 21
139.5768053492
 31
0.0
  0
ARC
  5
1E1
330
1F
100
AcDbEntity
  8
0
  6
CONTINUOUS
 62
     7
100
AcDbCircle
 10
388.8447553144
 20
139.5768053492
 30
0.0
 40
11.00000000000085
100
AcDbArc
 50
144.885101215
 51
180.0
  0
LINE
  5
1E2
330
1F
100
AcDbEntity
  8
0
  6
CONTINUOUS
 62
     7
100
AcDbLine
 10
377.7662075222
 20
169.5768053492
 30
0.0
 11
377.8447553144
 21
169.5768053492
 31
0.0
  0
ARC
  5
1E3
330
1F
100
AcDbEntity
  8
0
  6
CONTINUOUS
 62
     7
100
AcDbCircle
 10
388.8447553144
 20
169.5768053492
 30
0.0
 40
11.0785477921777
100
AcDbArc
 50
180.0
 51
212.9859169087
  0
LINE
  5
1E4
330
1F
100
AcDbEntity
  8
0
  6
CONTINUOUS
 62
     7
100
AcDbLine
 10
377.7662075222
 20
137.5942604141
 30
0.0
 11
377.7662075222
 21
139.5768053492
 31
0.0
  0
LINE
  5
1E5
330
1F
100
AcDbEntity
  8
0
  6
CONTINUOUS
 62
     7
100
AcDbLine
 10
377.7662075222
 20
139.5768053492
 30
0.0
 11
377.8447553144
 21
139.5768053492
 31
0.0
  0
LINE
  5
1E6
330
1F
100
AcDbEntity
  8
0
  6
CONTINUOUS
 62
     7
100
AcDbLine
 10
377.7662075222
 20
169.5768053492
 30
0.0
 11
377.7662075222
 21
171.5593502843
 31
0.0
  0
ARC
  5
1E7
330
1F
100
AcDbEntity
  8
0
  6
CONTINUOUS
 62
     7
100
AcDbCircle
 10
388.8447553144
 20
139.5768053492
 30
0.0
 40
11.07854779217701
100
AcDbArc
 50
147.0140830913
 51
180.0
  0
LINE
  5
1E8
330
1F
100
AcDbEntity
  8
0
  6
CONTINUOUS
 62
     7
100
AcDbLine
 10
388.8447553144
 20
158.498257557
 30
0.0
 11
388.8447553144
 21
158.5768053492
 31
0.0
  0
ARC
  5
1E9
330
1F
100
AcDbEntity
  8
0
  6
CONTINUOUS
 62
     7
100
AcDbCircle
 10
388.8447553144
 20
169.5768053492
 30
0.0
 40
11.07854779217762
100
AcDbArc
 50
226.6252252759
 51
270.0
  0
LINE
  5
1EA
330
1F
100
AcDbEntity
  8
0
  6
CONTINUOUS
 62
     7
100
AcDbLine
 10
388.8447553144
 20
150.6553531414
 30
0.0
 11
388.8447553144
 21
150.5768053492
 31
0.0
  0
ARC
  5
1EB
330
1F
100
AcDbEntity
  8
0
  6
CONTINUOUS
 62
     7
100
AcDbCircle
 10
388.8447553144
 20
139.5768053492
 30
0.0
 40
11.07854779217766
100
AcDbArc
 50
90.0
 51
133.3747747241
  0
LINE
  5
1EC
330
1F
100
AcDbEntity
  8
0
  6
CONTINUOUS
 62
     7
100
AcDbLine
 10
391.3273002495
 20
158.498257557
 30
0.0
 11
391.3273002495
 21
158.5768053492
 31
0.0
  0
LINE
  5
1ED
330
1F
100
AcDbEntity
  8
0
  6
CONTINUOUS
 62
     7
100
AcDbLine
 10
391.3273002495
 20
158.498257557
 30
0.0
 11
388.8447553144
 21
158.498257557
 31
0.0
  0
LINE
  5
1EE
330
1F
100
AcDbEntity
  8
0
  6
CONTINUOUS
 62
     7
100
AcDbLine
 10
388.8447553144
 20
150.6553531414
 30
0.0
 11
391.3273002495
 21
150.6553531414
 31
0.0
  0
LINE
  5
1EF
330
1F
100
AcDbEntity
  8
0
  6
CONTINUOUS
 62
     7
100
AcDbLine
 10
391.3273002495
 20
150.6553531414
 30
0.0
 11
391.3273002495
 21
150.5768053492
 31
0.0
  0
ARC
  5
1F0
330
1F
100
AcDbEntity
  8
0
  6
CONTINUOUS
 62
     7
100
AcDbCircle
 10
391.3273002495
 20
152.0768053492
 30
0.0
 40
1.421452207823108
100
AcDbArc
 50
270.0
 51
0.0
  0
ARC
  5
1F1
330
1F
100
AcDbEntity
  8
0
  6
CONTINUOUS
 62
     7
100
AcDbCircle
 10
391.3273002495
 20
157.0768053492
 30
0.0
 40
1.421452207823108
100
AcDbArc
 50
0.0
 51
90.0
  0
ENDSEC
  0
SECTION
  2
OBJECTS
  0
DICTIONARY
  5
C
330
0
100
AcDbDictionary
  3
ACAD_GROUP
350
D
  3
ACAD_LAYOUT
350
1A
  3
ACAD_MLEADERSTYLE
350
213
  3
ACAD_MLINESTYLE
350
17
  3
ACAD_PLOTSETTINGS
350
19
  3
ACAD_TABLESTYLE
350
212
  3
ACAD_VISUALSTYLE
350
2A
  3
ACDBHEADERROUNDTRIPXREC
350
1F2
  3
ACDBVARIABLEDICTIONARY
350
214
  0
DICTIONARY
  5
D
102
{ACAD_REACTORS
330
C
102
}
330
C
100
AcDbDictionary
  0
DICTIONARY
  5
1A
102
{ACAD_REACTORS
330
C
102
}
330
C
100
AcDbDictionary
  0
DICTIONARY
  5
213
102
{ACAD_REACTORS
330
C
102
}
330
C
100
AcDbDictionary
  0
DICTIONARY
  5
17
102
{ACAD_REACTORS
330
C
102
}
330
C
100
AcDbDictionary
  3
STANDARD
350
18
  0
DICTIONARY
  5
19
102
{ACAD_REACTORS
330
C
102
}
330
C
100
AcDbDictionary
  0
DICTIONARY
  5
212
102
{ACAD_REACTORS
330
C
102
}
330
C
100
AcDbDictionary
  0
DICTIONARY
  5
2A
102
{ACAD_REACTORS
330
C
102
}
330
C
100
AcDbDictionary
  3
2DWIREFRAME
350
2F
  3
3D_HIDDEN
350
31
  3
3DWIREFRAME
350
30
  3
BASIC
350
32
  3
BRIGHTEN
350
36
  3
COLORCHANGE
350
3A
  3
CONCEPTUAL
350
34
  3
DIM
350
35
  3
FACEPATTERN
350
39
  3
FLAT
350
2B
  3
FLATWITHEDGES
350
2C
  3
GOURAUD
350
2D
  3
GOURAUDWITHEDGES
350
2E
  3
LINEPATTERN
350
38
  3
REALISTIC
350
33
  3
THICKEN
350
37
  0
DICTIONARY
  5
1F2
102
{ACAD_REACTORS
330
C
102
}
330
C
100
AcDbDictionary
  3
CEPSNTYPE
350
1FB
  3
DIMSTYLEDATA
350
211
  3
FINGERPRINTGUID
350
1FC
  3
HYPERLINKBASE
350
1F5
  3
INSUNITS
350
1FA
  3
LAYOUTDICT
350
1F7
  3
LWETCUNION
350
1F9
  3
PLOTSETDICT
350
1F8
  3
PSVPSCALE
350
1FE
  3
PUCSBASE
350
201
  3
PUCSORGBACK
350
207
  3
PUCSORGBOTTOM
350
203
  3
PUCSORGFRONT
350
206
  3
PUCSORGLEFT
350
204
  3
PUCSORGRIGHT
350
205
  3
PUCSORGTOP
350
202
  3
PUCSORTHOREF
350
1FF
  3
PUCSORTHOVIEW
350
200
  3
STYLESHEET
350
1F6
  3
TSTACKALIGN
350
1F3
  3
TSTACKSIZE
350
1F4
  3
UCSBASE
350
20A
  3
UCSORGBACK
350
210
  3
UCSORGBOTTOM
350
20C
  3
UCSORGFRONT
350
20F
  3
UCSORGLEFT
350
20D
  3
UCSORGRIGHT
350
20E
  3
UCSORGTOP
350
20B
  3
UCSORTHOREF
350
208
  3
UCSORTHOVIEW
350
209
  3
VERSIONGUID
350
1FD
  0
DICTIONARY
  5
214
102
{ACAD_REACTORS
330
C
102
}
330
C
100
AcDbDictionary
  3
PSOLHEIGHT
350
216
  3
PSOLWIDTH
350
215
  0
MLINESTYLE
  5
18
102
{ACAD_REACTORS
330
17
102
}
330
17
100
AcDbMlineStyle
  2
Standard
 70
     0
  3

 62
   256
 51
90.0
 52
90.0
 71
     2
 49
0.5
 62
   256
  6
BYLAYER
 49
-0.5
 62
   256
  6
BYLAYER
  0
VISUALSTYLE
  5
2F
102
{ACAD_REACTORS
330
2A
102
}
330
2A
100
AcDbVisualStyle
  2
2dWireframe
 70
     4
 71
     0
 72
     2
 73
     0
 90
        0
 40
-0.6
 41
-30.0
 62
     5
 63
     7
 74
     1
 91
        4
 64
     7
 65
   257
 75
     1
175
     1
 42
1.0
 92
        0
 66
   257
 43
1.0
 76
     1
 77
     6
 78
     2
 67
     7
 79
     5
170
     0
171
     0
290
     0
174
     0
 93
        1
 44
0.0
173
     0
291
     0
 45
0.0
1001
ACAD
1000
AcDbSavedByObjectVersion
1070
     0
  0
VISUALSTYLE
  5
31
102
{ACAD_REACTORS
330
2A
102
}
330
2A
100
AcDbVisualStyle
  2
3D Hidden
 70
     6
 71
     1
 72
     2
 73
     2
 90
        0
 40
-0.6
 41
-30.0
 62
     5
 63
     7
 74
     2
 91
        2
 64
     7
 65
   257
 75
     2
175
     1
 42
40.0
 92
        0
 66
   257
 43
1.0
 76
     1
 77
     6
 78
     2
 67
     7
 79
     3
170
     0
171
     0
290
     0
174
     0
 93
        1
 44
0.0
173
     0
291
     0
 45
0.0
1001
ACAD
1000
AcDbSavedByObjectVersion
1070
     0
  0
VISUALSTYLE
  5
30
102
{ACAD_REACTORS
330
2A
102
}
330
2A
100
AcDbVisualStyle
  2
3dWireframe
 70
     5
 71
     0
 72
     2
 73
     0
 90
        0
 40
-0.6
 41
-30.0
 62
     5
 63
     7
 74
     1
 91
        4
 64
     7
 65
   257
 75
     1
175
     1
 42
1.0
 92
        0
 66
   257
 43
1.0
 76
     1
 77
     6
 78
     2
 67
     7
 79
     5
170
     0
171
     0
290
     0
174
     0
 93
        1
 44
0.0
173
     0
291
     0
 45
0.0
1001
ACAD
1000
AcDbSavedByObjectVersion
1070
     0
  0
VISUALSTYLE
  5
32
102
{ACAD_REACTORS
330
2A
102
}
330
2A
100
AcDbVisualStyle
  2
Basic
 70
     7
 71
     1
 72
     0
 73
     1
 90
        0
 40
-0.6
 41
-30.0
 62
     5
 63
     7
 74
     0
 91
        4
 64
     7
 65
   257
 75
     1
175
     1
 42
1.0
 92
        8
 66
     7
 43
1.0
 76
     1
 77
     6
 78
     2
 67
     7
 79
     5
170
     0
171
     0
290
     0
174
     0
 93
        1
 44
0.0
173
     0
291
     1
 45
0.0
1001
ACAD
1000
AcDbSavedByObjectVersion
1070
     0
  0
VISUALSTYLE
  5
36
102
{ACAD_REACTORS
330
2A
102
}
330
2A
100
AcDbVisualStyle
  2
Brighten
 70
    12
 71
     2
 72
     2
 73
     0
 90
        0
 40
-0.6
 41
-30.0
 62
     5
 63
     7
 74
     1
 91
        4
 64
     7
 65
   257
 75
     1
175
     1
 42
1.0
 92
        8
 66
     7
 43
1.0
 76
     1
 77
     6
 78
     2
 67
     7
 79
     5
170
     0
171
     0
290
     0
174
     0
 93
        1
 44
50.0
173
     0
291
     1
 45
0.0
1001
ACAD
1000
AcDbSavedByObjectVersion
1070
     0
  0
VISUALSTYLE
  5
3A
102
{ACAD_REACTORS
330
2A
102
}
330
2A
100
AcDbVisualStyle
  2
ColorChange
 70
    16
 71
     2
 72
     2
 73
     3
 90
        0
 40
-0.6
 41
-30.0
 62
     5
 63
     8
 74
     1
 91
        4
 64
     7
 65
   257
 75
     1
175
     1
 42
1.0
 92
        8
 66
     8
 43
1.0
 76
     1
 77
     6
 78
     2
 67
     7
 79
     5
170
     0
171
     0
290
     0
174
     0
 93
        1
 44
0.0
173
     0
291
     1
 45
0.0
1001
ACAD
1000
AcDbSavedByObjectVersion
1070
     0
  0
VISUALSTYLE
  5
34
102
{ACAD_REACTORS
330
2A
102
}
330
2A
100
AcDbVisualStyle
  2
Conceptual
 70
     9
 71
     3
 72
     2
 73
     0
 90
        0
 40
-0.6
 41
-30.0
 62
     5
 63
     7
 74
     2
 91
        2
 64
     7
 65
   257
 75
     1
175
     1
 42
40.0
 92
        8
 66
     7
 43
1.0
 76
     1
 77
     6
 78
     2
 67
     7
 79
     3
170
     0
171
     0
290
     0
174
     0
 93
        1
 44
0.0
173
     0
291
     0
 45
0.0
1001
ACAD
1000
AcDbSavedByObjectVersion
1070
     0
  0
VISUALSTYLE
  5
35
102
{ACAD_REACTORS
330
2A
102
}
330
2A
100
AcDbVisualStyle
  2
Dim
 70
    11
 71
     2
 72
     2
 73
     0
 90
        0
 40
-0.6
 41
-30.0
 62
     5
 63
     7
 74
     1
 91
        4
 64
     7
 65
   257
 75
     1
175
     1
 42
1.0
 92
        8
 66
     7
 43
1.0
 76
     1
 77
     6
 78
     2
 67
     7
 79
     5
170
     0
171
     0
290
     0
174
     0
 93
        1
 44
-50.0
173
     0
291
     1
 45
0.0
1001
ACAD
1000
AcDbSavedByObjectVersion
1070
     0
  0
VISUALSTYLE
  5
39
102
{ACAD_REACTORS
330
2A
102
}
330
2A
100
AcDbVisualStyle
  2
Facepattern
 70
    15
 71
     2
 72
     2
 73
     0
 90
        0
 40
-0.6
 41
-30.0
 62
     5
 63
     7
 74
     1
 91
        4
 64
     7
 65
   257
 75
     1
175
     1
 42
1.0
 92
        8
 66
     7
 43
1.0
 76
     1
 77
     6
 78
     2
 67
     7
 79
     5
170
     0
171
     0
290
     0
174
     0
 93
        1
 44
0.0
173
     0
291
     1
 45
0.0
1001
ACAD
1000
AcDbSavedByObjectVersion
1070
     0
  0
VISUALSTYLE
  5
2B
102
{ACAD_REACTORS
330
2A
102
}
330
2A
100
AcDbVisualStyle
  2
Flat
 70
     0
 71
     2
 72
     1
 73
     1
 90
        2
 40
-0.6
 41
30.0
 62
     5
 63
     7
 74
     0
 91
        4
 64
     7
 65
   257
 75
     1
175
     1
 42
1.0
 92
        8
 66
     7
 43
1.0
 76
     1
 77
     6
 78
     2
 67
     7
 79
     5
170
     0
171
     0
290
     0
174
     0
 93
       13
 44
0.0
173
     0
291
     1
 45
0.0
1001
ACAD
1000
AcDbSavedByObjectVersion
1070
     0
  0
VISUALSTYLE
  5
2C
102
{ACAD_REACTORS
330
2A
102
}
330
2A
100
AcDbVisualStyle
  2
FlatWithEdges
 70
     1
 71
     2
 72
     1
 73
     1
 90
        2
 40
-0.6
 41
30.0
 62
     5
 63
     7
 74
     1
 91
        4
 64
     7
 65
   257
 75
     1
175
     1
 42
1.0
 92
        0
 66
   257
 43
1.0
 76
     1
 77
     6
 78
     2
 67
     7
 79
     5
170
     0
171
     0
290
     0
174
     0
 93
       13
 44
0.0
173
     0
291
     1
 45
0.0
1001
ACAD
1000
AcDbSavedByObjectVersion
1070
     0
  0
VISUALSTYLE
  5
2D
102
{ACAD_REACTORS
330
2A
102
}
330
2A
100
AcDbVisualStyle
  2
Gouraud
 70
     2
 71
     2
 72
     2
 73
     1
 90
        2
 40
-0.6
 41
30.0
 62
     5
 63
     7
 74
     0
 91
        4
 64
     7
 65
   257
 75
     1
175
     1
 42
1.0
 92
        0
 66
     7
 43
1.0
 76
     1
 77
     6
 78
     2
 67
     7
 79
     5
170
     0
171
     0
290
     0
174
     0
 93
       13
 44
0.0
173
     0
291
     1
 45
0.0
1001
ACAD
1000
AcDbSavedByObjectVersion
1070
     0
  0
VISUALSTYLE
  5
2E
102
{ACAD_REACTORS
330
2A
102
}
330
2A
100
AcDbVisualStyle
  2
GouraudWithEdges
 70
     3
 71
     2
 72
     2
 73
     1
 90
        2
 40
-0.6
 41
30.0
 62
     5
 63
     7
 74
     1
 91
        4
 64
     7
 65
   257
 75
     1
175
     1
 42
1.0
 92
        0
 66
   257
 43
1.0
 76
     1
 77
     6
 78
     2
 67
     7
 79
     5
170
     0
171
     0
290
     0
174
     0
 93
       13
 44
0.0
173
     0
291
     1
 45
0.0
1001
ACAD
1000
AcDbSavedByObjectVersion
1070
     0
  0
VISUALSTYLE
  5
38
102
{ACAD_REACTORS
330
2A
102
}
330
2A
100
AcDbVisualStyle
  2
Linepattern
 70
    14
 71
     2
 72
     2
 73
     0
 90
        0
 40
-0.6
 41
-30.0
 62
     5
 63
     7
 74
     1
 91
        4
 64
     7
 65
   257
 75
     7
175
     7
 42
1.0
 92
        8
 66
     7
 43
1.0
 76
     1
 77
     6
 78
     2
 67
     7
 79
     5
170
     0
171
     0
290
     0
174
     0
 93
        1
 44
0.0
173
     0
291
     1
 45
0.0
1001
ACAD
1000
AcDbSavedByObjectVersion
1070
     0
  0
VISUALSTYLE
  5
33
102
{ACAD_REACTORS
330
2A
102
}
330
2A
100
AcDbVisualStyle
  2
Realistic
 70
     8
 71
     2
 72
     2
 73
     0
 90
        0
 40
-0.6
 41
-30.0
 62
     5
 63
     7
 74
     1
 91
        0
 64
     7
 65
   257
 75
     1
175
     1
 42
1.0
 92
        8
 66
     8
 43
1.0
 76
     1
 77
     6
 78
     2
 67
     7
 79
     5
170
     0
171
     0
290
     0
174
     0
 93
       13
 44
0.0
173
     0
291
     0
 45
0.0
1001
ACAD
1000
AcDbSavedByObjectVersion
1070
     0
  0
VISUALSTYLE
  5
37
102
{ACAD_REACTORS
330
2A
102
}
330
2A
100
AcDbVisualStyle
  2
Thicken
 70
    13
 71
     2
 72
     2
 73
     0
 90
        0
 40
-0.6
 41
-30.0
 62
     5
 63
     7
 74
     1
 91
        4
 64
     7
 65
   257
 75
     1
175
     1
 42
1.0
 92
       12
 66
     7
 43
1.0
 76
     1
 77
     6
 78
     2
 67
     7
 79
     5
170
     0
171
     0
290
     0
174
     0
 93
        1
 44
0.0
173
     0
291
     1
 45
0.0
1001
ACAD
1000
AcDbSavedByObjectVersion
1070
     0
  0
XRECORD
  5
1FB
102
{ACAD_REACTORS
330
1F2
102
}
330
1F2
100
AcDbXrecord
 90
        0
  0
XRECORD
  5
211
102
{ACAD_REACTORS
330
1F2
102
}
330
1F2
100
AcDbXrecord
1000
DSTYLE
1002
{
1070
   179
 70
     2
1070
   143
 40
0.0393700787
1070
    41
 40
6.0
1070
    44
 40
1.0
1070
    42
 40
1.0
1070
   147
 40
1.524
1070
    73
 70
     1
1070
    74
 70
     1
1070
   340
340
11
1070
   140
 40
3.5
1070
   284
 70
     0
1070
    78
 70
     0
1002
}
  0
XRECORD
  5
1FC
102
{ACAD_REACTORS
330
1F2
102
}
330
1F2
100
AcDbXrecord
  1
{25813E0F-7039-44F8-A960-979F7A38AFF6}
  0
XRECORD
  5
1F5
102
{ACAD_REACTORS
330
1F2
102
}
330
1F2
100
AcDbXrecord
  1

  0
XRECORD
  5
1FA
102
{ACAD_REACTORS
330
1F2
102
}
330
1F2
100
AcDbXrecord
 90
        4
  0
XRECORD
  5
1F7
102
{ACAD_REACTORS
330
1F2
102
}
330
1F2
100
AcDbXrecord
340
1A
  0
XRECORD
  5
1F9
102
{ACAD_REACTORS
330
1F2
102
}
330
1F2
100
AcDbXrecord
 90
    10269
  0
XRECORD
  5
1F8
102
{ACAD_REACTORS
330
1F2
102
}
330
1F2
100
AcDbXrecord
340
19
  0
XRECORD
  5
1FE
102
{ACAD_REACTORS
330
1F2
102
}
330
1F2
100
AcDbXrecord
 40
0.0
  0
XRECORD
  5
201
102
{ACAD_REACTORS
330
1F2
102
}
330
1F2
100
AcDbXrecord
340
0
  0
XRECORD
  5
207
102
{ACAD_REACTORS
330
1F2
102
}
330
1F2
100
AcDbXrecord
 10
0.0
 20
0.0
 30
0.0
  0
XRECORD
  5
203
102
{ACAD_REACTORS
330
1F2
102
}
330
1F2
100
AcDbXrecord
 10
0.0
 20
0.0
 30
0.0
  0
XRECORD
  5
206
102
{ACAD_REACTORS
330
1F2
102
}
330
1F2
100
AcDbXrecord
 10
0.0
 20
0.0
 30
0.0
  0
XRECORD
  5
204
102
{ACAD_REACTORS
330
1F2
102
}
330
1F2
100
AcDbXrecord
 10
0.0
 20
0.0
 30
0.0
  0
XRECORD
  5
205
102
{ACAD_REACTORS
330
1F2
102
}
330
1F2
100
AcDbXrecord
 10
0.0
 20
0.0
 30
0.0
  0
XRECORD
  5
202
102
{ACAD_REACTORS
330
1F2
102
}
330
1F2
100
AcDbXrecord
 10
0.0
 20
0.0
 30
0.0
  0
XRECORD
  5
1FF
102
{ACAD_REACTORS
330
1F2
102
}
330
1F2
100
AcDbXrecord
340
0
  0
XRECORD
  5
200
102
{ACAD_REACTORS
330
1F2
102
}
330
1F2
100
AcDbXrecord
 70
     0
  0
XRECORD
  5
1F6
102
{ACAD_REACTORS
330
1F2
102
}
330
1F2
100
AcDbXrecord
  1

  0
XRECORD
  5
1F3
102
{ACAD_REACTORS
330
1F2
102
}
330
1F2
100
AcDbXrecord
 90
        1
  0
XRECORD
  5
1F4
102
{ACAD_REACTORS
330
1F2
102
}
330
1F2
100
AcDbXrecord
 90
       70
  0
XRECORD
  5
20A
102
{ACAD_REACTORS
330
1F2
102
}
330
1F2
100
AcDbXrecord
340
0
  0
XRECORD
  5
210
102
{ACAD_REACTORS
330
1F2
102
}
330
1F2
100
AcDbXrecord
 10
0.0
 20
0.0
 30
0.0
  0
XRECORD
  5
20C
102
{ACAD_REACTORS
330
1F2
102
}
330
1F2
100
AcDbXrecord
 10
0.0
 20
0.0
 30
0.0
  0
XRECORD
  5
20F
102
{ACAD_REACTORS
330
1F2
102
}
330
1F2
100
AcDbXrecord
 10
0.0
 20
0.0
 30
0.0
  0
XRECORD
  5
20D
102
{ACAD_REACTORS
330
1F2
102
}
330
1F2
100
AcDbXrecord
 10
0.0
 20
0.0
 30
0.0
  0
XRECORD
  5
20E
102
{ACAD_REACTORS
330
1F2
102
}
330
1F2
100
AcDbXrecord
 10
0.0
 20
0.0
 30
0.0
  0
XRECORD
  5
20B
102
{ACAD_REACTORS
330
1F2
102
}
330
1F2
100
AcDbXrecord
 10
0.0
 20
0.0
 30
0.0
  0
XRECORD
  5
208
102
{ACAD_REACTORS
330
1F2
102
}
330
1F2
100
AcDbXrecord
340
0
  0
XRECORD
  5
209
102
{ACAD_REACTORS
330
1F2
102
}
330
1F2
100
AcDbXrecord
 70
     0
  0
XRECORD
  5
1FD
102
{ACAD_REACTORS
330
1F2
102
}
330
1F2
100
AcDbXrecord
  1
{FAEB1C32-E019-11D5-929B-00C0DF256EC4}
  0
DICTIONARYVAR
  5
216
102
{ACAD_REACTORS
330
214
102
}
330
214
100
DictionaryVariables
280
     0
  1
80.000000
  0
DICTIONARYVAR
  5
215
102
{ACAD_REACTORS
330
214
102
}
330
214
100
DictionaryVariables
280
     0
  1
5.000000
  0
ENDSEC
  0
EOF
