  0
SECTION
  2
HEADER
  9
$ACADVER
  1
AC1014
  9
$ACADMAINTVER
 70
     9
  9
$DWGCODEPAGE
  3
ANSI_1252
  9
$INSBASE
 10
0.0
 20
0.0
 30
0.0
  9
$EXTMIN
 10
0.0
 20
0.0
 30
0.0
  9
$EXTMAX
 10
840.0
 20
594.0
 30
0.0
  9
$LIMMIN
 10
0.0
 20
0.0
  9
$LIMMAX
 10
840.0
 20
594.0
  9
$ORTHOMODE
 70
     0
  9
$REGENMODE
 70
     1
  9
$FILLMODE
 70
     1
  9
$QTEXTMODE
 70
     0
  9
$MIRRTEXT
 70
     1
  9
$DRAGMODE
 70
     2
  9
$LTSCALE
 40
1.0
  9
$OSMODE
 70
    37
  9
$ATTMODE
 70
     1
  9
$TEXTSIZE
 40
7.0
  9
$TRACEWID
 40
1.0
  9
$TEXTSTYLE
  7
STANDARD
  9
$CLAYER
  8
0
  9
$CELTYPE
  6
BYLAYER
  9
$CECOLOR
 62
   256
  9
$CELTSCALE
 40
1.0
  9
$DELOBJ
 70
     1
  9
$DISPSILH
 70
     0
  9
$DIMSCALE
 40
1.0
  9
$DIMASZ
 40
12.0
  9
$DIMEXO
 40
2.0
  9
$DIMDLI
 40
3.75
  9
$DIMRND
 40
0.0
  9
$DIMDLE
 40
0.0
  9
$DIMEXE
 40
2.0
  9
$DIMTP
 40
0.0
  9
$DIMTM
 40
0.0
  9
$DIMTXT
 40
7.0
  9
$DIMCEN
 40
2.5
  9
$DIMTSZ
 40
0.0
  9
$DIMTOL
 70
     0
  9
$DIMLIM
 70
     0
  9
$DIMTIH
 70
     1
  9
$DIMTOH
 70
     1
  9
$DIMSE1
 70
     0
  9
$DIMSE2
 70
     0
  9
$DIMTAD
 70
     1
  9
$DIMZIN
 70
     0
  9
$DIMBLK
  1

  9
$DIMASO
 70
     1
  9
$DIMSHO
 70
     1
  9
$DIMPOST
  1

  9
$DIMAPOST
  1

  9
$DIMALT
 70
     0
  9
$DIMALTD
 70
     3
  9
$DIMALTF
 40
0.0393700787
  9
$DIMLFAC
 40
1.0
  9
$DIMTOFL
 70
     1
  9
$DIMTVP
 40
0.0
  9
$DIMTIX
 70
     0
  9
$DIMSOXD
 70
     0
  9
$DIMSAH
 70
     0
  9
$DIMBLK1
  1

  9
$DIMBLK2
  1

  9
$DIMSTYLE
  2
ISO-25
  9
$DIMCLRD
 70
     0
  9
$DIMCLRE
 70
     0
  9
$DIMCLRT
 70
     0
  9
$DIMTFAC
 40
1.0
  9
$DIMGAP
 40
3.048
  9
$DIMJUST
 70
     0
  9
$DIMSD1
 70
     0
  9
$DIMSD2
 70
     0
  9
$DIMTOLJ
 70
     0
  9
$DIMTZIN
 70
     0
  9
$DIMALTZ
 70
     0
  9
$DIMALTTZ
 70
     0
  9
$DIMFIT
 70
     3
  9
$DIMUPT
 70
     0
  9
$DIMUNIT
 70
     2
  9
$DIMDEC
 70
     2
  9
$DIMTDEC
 70
     2
  9
$DIMALTU
 70
     2
  9
$DIMALTTD
 70
     3
  9
$DIMTXSTY
  7
STANDARD
  9
$DIMAUNIT
 70
     0
  9
$LUNITS
 70
     2
  9
$LUPREC
 70
     2
  9
$SKETCHINC
 40
1.0
  9
$FILLETRAD
 40
10.0
  9
$AUNITS
 70
     0
  9
$AUPREC
 70
     2
  9
$MENU
  1
.
  9
$ELEVATION
 40
0.0
  9
$PELEVATION
 40
0.0
  9
$THICKNESS
 40
0.0
  9
$LIMCHECK
 70
     0
  9
$CHAMFERA
 40
10.0
  9
$CHAMFERB
 40
10.0
  9
$CHAMFERC
 40
20.0
  9
$CHAMFERD
 40
0.0
  9
$SKPOLY
 70
     0
  9
$TDCREATE
 40
2455264.597853611
  9
$TDUPDATE
 40
2455264.597853623
  9
$TDINDWG
 40
0.0000000116
  9
$TDUSRTIMER
 40
0.0000000116
  9
$USRTIMER
 70
     1
  9
$ANGBASE
 50
0.0
  9
$ANGDIR
 70
     0
  9
$PDMODE
 70
     0
  9
$PDSIZE
 40
-1.0
  9
$PLINEWID
 40
0.0
  9
$COORDS
 70
     1
  9
$SPLFRAME
 70
     0
  9
$SPLINETYPE
 70
     6
  9
$SPLINESEGS
 70
     8
  9
$ATTDIA
 70
     0
  9
$ATTREQ
 70
     1
  9
$HANDLING
 70
     1
  9
$HANDSEED
  5
38A
  9
$SURFTAB1
 70
     6
  9
$SURFTAB2
 70
     6
  9
$SURFTYPE
 70
     6
  9
$SURFU
 70
     6
  9
$SURFV
 70
     6
  9
$UCSNAME
  2

  9
$UCSORG
 10
0.0
 20
0.0
 30
0.0
  9
$UCSXDIR
 10
1.0
 20
0.0
 30
0.0
  9
$UCSYDIR
 10
0.0
 20
1.0
 30
0.0
  9
$PUCSNAME
  2

  9
$PUCSORG
 10
0.0
 20
0.0
 30
0.0
  9
$PUCSXDIR
 10
1.0
 20
0.0
 30
0.0
  9
$PUCSYDIR
 10
0.0
 20
1.0
 30
0.0
  9
$USERI1
 70
     0
  9
$USERI2
 70
     0
  9
$USERI3
 70
     0
  9
$USERI4
 70
     0
  9
$USERI5
 70
     0
  9
$USERR1
 40
0.0
  9
$USERR2
 40
0.0
  9
$USERR3
 40
0.0
  9
$USERR4
 40
0.0
  9
$USERR5
 40
0.0
  9
$WORLDVIEW
 70
     1
  9
$SHADEDGE
 70
     3
  9
$SHADEDIF
 70
    70
  9
$TILEMODE
 70
     1
  9
$MAXACTVP
 70
    64
  9
$PINSBASE
 10
0.0
 20
0.0
 30
0.0
  9
$PLIMCHECK
 70
     0
  9
$PEXTMIN
 10
1.0000000000E+20
 20
1.0000000000E+20
 30
1.0000000000E+20
  9
$PEXTMAX
 10
-1.0000000000E+20
 20
-1.0000000000E+20
 30
-1.0000000000E+20
  9
$PLIMMIN
 10
0.0
 20
0.0
  9
$PLIMMAX
 10
420.0
 20
297.0
  9
$UNITMODE
 70
     0
  9
$VISRETAIN
 70
     1
  9
$PLINEGEN
 70
     0
  9
$PSLTSCALE
 70
     1
  9
$TREEDEPTH
 70
  3020
  9
$PICKSTYLE
 70
     1
  9
$CMLSTYLE
  2
STANDARD
  9
$CMLJUST
 70
     0
  9
$CMLSCALE
 40
20.0
  9
$PROXYGRAPHICS
 70
     1
  9
$MEASUREMENT
 70
     1
  0
ENDSEC
  0
SECTION
  2
CLASSES
  0
CLASS
  1
ACDBDICTIONARYWDFLT
  2
AcDbDictionaryWithDefault
  3
ObjectDBX Classes
 90
        0
280
     0
281
     0
  0
CLASS
  1
VISUALSTYLE
  2
AcDbVisualStyle
  3
ObjectDBX Classes
 90
     4095
280
     0
281
     0
  0
CLASS
  1
DICTIONARYVAR
  2
AcDbDictionaryVar
  3
ObjectDBX Classes
 90
        0
280
     0
281
     0
  0
CLASS
  1
XRECORD
  2
AcDbXrecord
  3
AutoCAD 2000
 90
        0
280
     0
281
     0
  0
CLASS
  1
LWPOLYLINE
  2
AcDbPolyline
  3
AutoCAD 2000
 90
        0
280
     0
281
     1
  0
CLASS
  1
HATCH
  2
AcDbHatch
  3
AutoCAD 2000
 90
        0
280
     0
281
     1
  0
CLASS
  1
ACDBPLACEHOLDER
  2
AcDbPlaceHolder
  3
ObjectDBX Classes
 90
        0
280
     0
281
     0
  0
CLASS
  1
LAYOUT
  2
AcDbLayout
  3
ObjectDBX Classes
 90
        0
280
     0
281
     0
  0
ENDSEC
  0
SECTION
  2
TABLES
  0
TABLE
  2
VPORT
  5
8
330
0
100
AcDbSymbolTable
 70
     1
  0
VPORT
  5
29
330
8
100
AcDbSymbolTableRecord
100
AcDbViewportTableRecord
  2
*ACTIVE
 70
     0
 10
0.0
 20
0.0
 11
1.0
 21
1.0
 12
420.0
 22
297.0
 13
0.0
 23
0.0
 14
10.0
 24
10.0
 15
10.0
 25
10.0
 16
0.0
 26
0.0
 36
1.0
 17
0.0
 27
0.0
 37
0.0
 40
594.0
 41
1.4141414141
 42
50.0
 43
0.0
 44
0.0
 50
0.0
 51
0.0
 71
     0
 72
  2000
 73
     1
 74
     3
 75
     0
 76
     0
 77
     0
 78
     0
  0
ENDTAB
  0
TABLE
  2
LTYPE
  5
5
330
0
100
AcDbSymbolTable
 70
     6
  0
LTYPE
  5
14
330
5
100
AcDbSymbolTableRecord
100
AcDbLinetypeTableRecord
  2
BYBLOCK
 70
     0
  3

 72
    65
 73
     0
 40
0.0
  0
LTYPE
  5
15
330
5
100
AcDbSymbolTableRecord
100
AcDbLinetypeTableRecord
  2
BYLAYER
 70
     0
  3

 72
    65
 73
     0
 40
0.0
  0
LTYPE
  5
16
330
5
100
AcDbSymbolTableRecord
100
AcDbLinetypeTableRecord
  2
CONTINUOUS
 70
     0
  3
Solid line
 72
    65
 73
     0
 40
0.0
  0
LTYPE
  5
3B
330
5
100
AcDbSymbolTableRecord
100
AcDbLinetypeTableRecord
  2
HIDDEN
 70
     0
  3
Hidden __ __ __ __ __ __ __ __ __ __ __ __ __ __
 72
    65
 73
     2
 40
1.905
 49
1.27
 74
     0
 49
-0.635
 74
     0
  0
LTYPE
  5
3C
330
5
100
AcDbSymbolTableRecord
100
AcDbLinetypeTableRecord
  2
PHANTOM
 70
     0
  3
Phantom ______  __  __  ______  __  __  ______
 72
    65
 73
     6
 40
12.7
 49
6.35
 74
     0
 49
-1.27
 74
     0
 49
1.27
 74
     0
 49
-1.27
 74
     0
 49
1.27
 74
     0
 49
-1.27
 74
     0
  0
LTYPE
  5
3D
330
5
100
AcDbSymbolTableRecord
100
AcDbLinetypeTableRecord
  2
CENTER
 70
     0
  3
Center ____ _ ____ _ ____ _ ____ _ ____ _ ____
 72
    65
 73
     4
 40
10.16
 49
6.35
 74
     0
 49
-1.27
 74
     0
 49
1.27
 74
     0
 49
-1.27
 74
     0
  0
LTYPE
  5
3E
330
5
100
AcDbSymbolTableRecord
100
AcDbLinetypeTableRecord
  2
CENTERX2
 70
     0
  3
Center (2x) ________  __  ________  __  _____
 72
    65
 73
     4
 40
20.32
 49
12.7
 74
     0
 49
-2.54
 74
     0
 49
2.54
 74
     0
 49
-2.54
 74
     0
  0
LTYPE
  5
3F
330
5
100
AcDbSymbolTableRecord
100
AcDbLinetypeTableRecord
  2
DOT2
 70
     0
  3
Dot (.5x) ........................................
 72
    65
 73
     2
 40
0.635
 49
0.0
 74
     0
 49
-0.635
 74
     0
  0
ENDTAB
  0
TABLE
  2
LAYER
  5
2
330
0
100
AcDbSymbolTable
 70
     1
  0
LAYER
  5
10
330
2
100
AcDbSymbolTableRecord
100
AcDbLayerTableRecord
  2
0
 70
     0
 62
     7
  6
CONTINUOUS
  0
ENDTAB
  0
TABLE
  2
STYLE
  5
3
330
0
100
AcDbSymbolTable
 70
     1
  0
STYLE
  5
11
330
3
100
AcDbSymbolTableRecord
100
AcDbTextStyleTableRecord
  2
STANDARD
 70
     0
 40
0.0
 41
1.0
 50
0.0
 71
     0
 42
2.5
  3
txt
  4

  0
ENDTAB
  0
TABLE
  2
VIEW
  5
6
330
0
100
AcDbSymbolTable
 70
     0
  0
ENDTAB
  0
TABLE
  2
UCS
  5
7
330
0
100
AcDbSymbolTable
 70
     0
  0
ENDTAB
  0
TABLE
  2
APPID
  5
9
330
0
100
AcDbSymbolTable
 70
     1
  0
APPID
  5
12
330
9
100
AcDbSymbolTableRecord
100
AcDbRegAppTableRecord
  2
ACAD
 70
     0
  0
ENDTAB
  0
TABLE
  2
DIMSTYLE
  5
A
330
0
100
AcDbSymbolTable
 70
     1
  0
DIMSTYLE
105
27
330
A
100
AcDbSymbolTableRecord
100
AcDbDimStyleTableRecord
  2
ISO-25
 70
     0
  3

  4

  5

  6

  7

 40
1.0
 41
2.5
 42
0.625
 43
3.75
 44
1.25
 45
0.0
 46
0.0
 47
0.0
 48
0.0
140
2.5
141
2.5
142
0.0
143
0.0393700787
144
1.0
145
0.0
146
1.0
147
0.625
 71
     0
 72
     0
 73
     0
 74
     0
 75
     0
 76
     0
 77
     1
 78
     8
170
     0
171
     3
172
     1
173
     0
174
     0
175
     0
176
     0
177
     0
178
     0
270
     2
271
     2
272
     2
273
     2
274
     3
340
11
275
     0
280
     0
281
     0
282
     0
283
     0
284
     8
285
     0
286
     0
287
     3
288
     0
  0
ENDTAB
  0
TABLE
  2
BLOCK_RECORD
  5
1
330
0
100
AcDbSymbolTable
 70
     1
  0
BLOCK_RECORD
  5
1F
330
1
100
AcDbSymbolTableRecord
100
AcDbBlockTableRecord
  2
*MODEL_SPACE
  0
BLOCK_RECORD
  5
1B
330
1
100
AcDbSymbolTableRecord
100
AcDbBlockTableRecord
  2
*PAPER_SPACE
  0
ENDTAB
  0
ENDSEC
  0
SECTION
  2
BLOCKS
  0
BLOCK
  5
20
330
1F
100
AcDbEntity
  8
0
100
AcDbBlockBegin
  2
*MODEL_SPACE
 70
     0
 10
0.0
 20
0.0
 30
0.0
  3
*MODEL_SPACE
  1

  0
ENDBLK
  5
21
330
1F
100
AcDbEntity
  8
0
100
AcDbBlockEnd
  0
BLOCK
  5
1C
330
1B
100
AcDbEntity
 67
     1
  8
0
100
AcDbBlockBegin
  2
*PAPER_SPACE
 70
     0
 10
0.0
 20
0.0
 30
0.0
  3
*PAPER_SPACE
  1

  0
ENDBLK
  5
1D
330
1B
100
AcDbEntity
 67
     1
  8
0
100
AcDbBlockEnd
  0
ENDSEC
  0
SECTION
  2
ENTITIES
  0
SPLINE
  5
40
330
1F
100
AcDbEntity
  8
0
  6
CONTINUOUS
 62
     7
100
AcDbSpline
210
0.0
220
0.0
230
1.0
 70
    11
 71
     3
 72
    22
 73
    18
 74
     0
 42
0.00000001
 43
0.00000001
 40
0.0
 40
0.0
 40
0.0
 40
0.0
 40
0.125
 40
0.125
 40
0.25
 40
0.25
 40
0.375
 40
0.375
 40
0.5
 40
0.5
 40
0.625
 40
0.625
 40
0.75
 40
0.75
 40
0.8749999999999999
 40
0.8749999999999999
 40
1.0
 40
1.0
 40
1.0
 40
1.0
 10
237.2727211691855
 20
317.2560178306092
 30
0.0
 10
237.2727211691855
 20
313.4337216454147
 30
0.0
 10
235.7542004557904
 20
309.7676883443918
 30
0.0
 10
230.3486573512815
 20
304.362145239883
 30
0.0
 10
226.6826240502586
 20
302.8436245264879
 30
0.0
 10
219.0380316798698
 20
302.8436245264879
 30
0.0
 10
215.371998378847
 20
304.362145239883
 30
0.0
 10
209.9664552743381
 20
309.7676883443918
 30
0.0
 10
208.447934560943
 20
313.4337216454147
 30
0.0
 10
208.447934560943
 20
321.0783140158035
 30
0.0
 10
209.966455274338
 20
324.7443473168264
 30
0.0
 10
215.3719983788469
 20
330.1498904213353
 30
0.0
 10
219.0380316798698
 20
331.6684111347303
 30
0.0
 10
226.6826240502586
 20
331.6684111347304
 30
0.0
 10
230.3486573512815
 20
330.1498904213353
 30
0.0
 10
235.7542004557903
 20
324.7443473168265
 30
0.0
 10
237.2727211691855
 20
321.0783140158036
 30
0.0
 10
237.2727211691855
 20
317.2560178306092
 30
0.0
  0
SPLINE
  5
41
330
1F
100
AcDbEntity
  8
0
  6
CONTINUOUS
 62
     7
100
AcDbSpline
210
0.0
220
0.0
230
1.0
 70
    11
 71
     3
 72
    22
 73
    18
 74
     0
 42
0.00000001
 43
0.00000001
 40
0.0
 40
0.0
 40
0.0
 40
0.0
 40
0.125
 40
0.125
 40
0.25
 40
0.25
 40
0.375
 40
0.375
 40
0.5
 40
0.5
 40
0.625
 40
0.625
 40
0.75
 40
0.75
 40
0.8749999999999999
 40
0.8749999999999999
 40
1.0
 40
1.0
 40
1.0
 40
1.0
 10
296.2727211691854
 20
317.2560178306092
 30
0.0
 10
296.2727211691854
 20
314.7597665654148
 30
0.0
 10
295.2810111947676
 20
312.3655668952346
 30
0.0
 10
291.7507788004388
 20
308.8353345009057
 30
0.0
 10
289.3565791302586
 20
307.8436245264879
 30
0.0
 10
284.3640765998699
 20
307.8436245264879
 30
0.0
 10
281.9698769296897
 20
308.8353345009057
 30
0.0
 10
278.4396445353608
 20
312.3655668952346
 30
0.0
 10
277.447934560943
 20
314.7597665654148
 30
0.0
 10
277.447934560943
 20
319.7522690958035
 30
0.0
 10
278.4396445353608
 20
322.1464687659836
 30
0.0
 10
281.9698769296897
 20
325.6767011603126
 30
0.0
 10
284.3640765998699
 20
326.6684111347304
 30
0.0
 10
289.3565791302586
 20
326.6684111347304
 30
0.0
 10
291.7507788004388
 20
325.6767011603126
 30
0.0
 10
295.2810111947676
 20
322.1464687659836
 30
0.0
 10
296.2727211691854
 20
319.7522690958035
 30
0.0
 10
296.2727211691854
 20
317.2560178306092
 30
0.0
  0
SPLINE
  5
42
330
1F
100
AcDbEntity
  8
0
  6
CONTINUOUS
 62
     7
100
AcDbSpline
210
0.0
220
0.0
230
1.0
 70
    11
 71
     3
 72
    22
 73
    18
 74
     0
 42
0.00000001
 43
0.00000001
 40
0.0
 40
0.0
 40
0.0
 40
0.0
 40
0.125
 40
0.125
 40
0.25
 40
0.25
 40
0.375
 40
0.375
 40
0.5
 40
0.5
 40
0.625
 40
0.625
 40
0.75
 40
0.75
 40
0.8749999999999999
 40
0.8749999999999999
 40
1.0
 40
1.0
 40
1.0
 40
1.0
 10
168.2727211691854
 20
317.2560178306092
 30
0.0
 10
168.2727211691854
 20
314.7597665654148
 30
0.0
 10
167.2810111947676
 20
312.3655668952346
 30
0.0
 10
163.7507788004388
 20
308.8353345009057
 30
0.0
 10
161.3565791302586
 20
307.8436245264879
 30
0.0
 10
156.3640765998698
 20
307.8436245264879
 30
0.0
 10
153.9698769296897
 20
308.8353345009057
 30
0.0
 10
150.4396445353608
 20
312.3655668952346
 30
0.0
 10
149.447934560943
 20
314.7597665654148
 30
0.0
 10
149.447934560943
 20
319.7522690958035
 30
0.0
 10
150.4396445353608
 20
322.1464687659836
 30
0.0
 10
153.9698769296897
 20
325.6767011603126
 30
0.0
 10
156.3640765998698
 20
326.6684111347304
 30
0.0
 10
161.3565791302586
 20
326.6684111347304
 30
0.0
 10
163.7507788004388
 20
325.6767011603126
 30
0.0
 10
167.2810111947676
 20
322.1464687659836
 30
0.0
 10
168.2727211691854
 20
319.7522690958035
 30
0.0
 10
168.2727211691854
 20
317.2560178306092
 30
0.0
  0
CIRCLE
  5
43
330
1F
100
AcDbEntity
  8
0
  6
CONTINUOUS
 62
     7
100
AcDbCircle
 10
286.8603278651
 20
317.2560178306
 30
0.0
 40
9.912088717630752
  0
CIRCLE
  5
44
330
1F
100
AcDbEntity
  8
0
  6
CONTINUOUS
 62
     7
100
AcDbCircle
 10
158.8603278651
 20
317.2560178306
 30
0.0
 40
9.912088717630752
  0
CIRCLE
  5
45
330
1F
100
AcDbEntity
  8
0
  6
CONTINUOUS
 62
     7
100
AcDbCircle
 10
222.8603278651
 20
317.2560178306
 30
0.0
 40
14.91208871763078
  0
CIRCLE
  5
46
330
1F
100
AcDbEntity
  8
0
  6
CONTINUOUS
 62
     7
100
AcDbCircle
 10
286.8603278651
 20
317.2560178306
 30
0.0
 40
10.0
  0
CIRCLE
  5
47
330
1F
100
AcDbEntity
  8
0
  6
CONTINUOUS
 62
     7
100
AcDbCircle
 10
158.8603278651
 20
317.2560178306
 30
0.0
 40
10.0
  0
CIRCLE
  5
48
330
1F
100
AcDbEntity
  8
0
  6
CONTINUOUS
 62
     7
100
AcDbCircle
 10
222.8603278651
 20
317.2560178306
 30
0.0
 40
14.99999999999997
  0
SPLINE
  5
49
330
1F
100
AcDbEntity
  8
0
  6
CONTINUOUS
 62
     7
100
AcDbSpline
210
0.0
220
0.0
230
1.0
 70
    11
 71
     3
 72
    22
 73
    18
 74
     0
 42
0.00000001
 43
0.00000001
 40
0.0
 40
0.0
 40
0.0
 40
0.0
 40
0.125
 40
0.125
 40
0.25
 40
0.25
 40
0.375
 40
0.375
 40
0.5
 40
0.5
 40
0.625
 40
0.625
 40
0.75
 40
0.75
 40
0.8749999999999999
 40
0.8749999999999999
 40
1.0
 40
1.0
 40
1.0
 40
1.0
 10
245.7549560122902
 20
317.2560178306092
 30
0.0
 10
245.7549560122902
 20
311.1841567606256
 30
0.0
 10
243.3427288177201
 20
305.3605251519693
 30
0.0
 10
234.7558205437041
 20
296.7736168779532
 30
0.0
 10
228.9321889350479
 20
294.3613896833832
 30
0.0
 10
216.7884667950806
 20
294.3613896833832
 30
0.0
 10
210.9648351864244
 20
296.7736168779532
 30
0.0
 10
202.3779269124084
 20
305.3605251519693
 30
0.0
 10
199.9656997178383
 20
311.1841567606256
 30
0.0
 10
199.9656997178383
 20
323.3278789005927
 30
0.0
 10
202.3779269124084
 20
329.151510509249
 30
0.0
 10
210.9648351864243
 20
337.738418783265
 30
0.0
 10
216.7884667950806
 20
340.150645977835
 30
0.0
 10
228.9321889350478
 20
340.150645977835
 30
0.0
 10
234.7558205437041
 20
337.738418783265
 30
0.0
 10
243.3427288177201
 20
329.151510509249
 30
0.0
 10
245.7549560122902
 20
323.3278789005927
 30
0.0
 10
245.7549560122902
 20
317.2560178306092
 30
0.0
  0
SPLINE
  5
4A
330
1F
100
AcDbEntity
  8
0
  6
CONTINUOUS
 62
     7
100
AcDbSpline
210
0.0
220
0.0
230
1.0
 70
    11
 71
     3
 72
    22
 73
    18
 74
     0
 42
0.00000001
 43
0.00000001
 40
0.0
 40
0.0
 40
0.0
 40
0.0
 40
0.125
 40
0.125
 40
0.25
 40
0.25
 40
0.375
 40
0.375
 40
0.5
 40
0.5
 40
0.625
 40
0.625
 40
0.75
 40
0.75
 40
0.8749999999999999
 40
0.8749999999999999
 40
1.0
 40
1.0
 40
1.0
 40
1.0
 10
307.2549560122902
 20
317.2560178306092
 30
0.0
 10
307.2549560122902
 20
311.8471792206255
 30
0.0
 10
305.1061341872088
 20
306.6594644273907
 30
0.0
 10
297.4568812682828
 20
299.0102115084646
 30
0.0
 10
292.2691664750478
 20
296.8613896833832
 30
0.0
 10
281.4514892550806
 20
296.8613896833832
 30
0.0
 10
276.2637744618457
 20
299.0102115084646
 30
0.0
 10
268.6145215429197
 20
306.6594644273907
 30
0.0
 10
266.4656997178383
 20
311.8471792206255
 30
0.0
 10
266.4656997178383
 20
322.6648564405928
 30
0.0
 10
268.6145215429197
 20
327.8525712338276
 30
0.0
 10
276.2637744618457
 20
335.5018241527537
 30
0.0
 10
281.4514892550806
 20
337.6506459778351
 30
0.0
 10
292.2691664750478
 20
337.6506459778351
 30
0.0
 10
297.4568812682827
 20
335.5018241527537
 30
0.0
 10
305.1061341872088
 20
327.8525712338276
 30
0.0
 10
307.2549560122902
 20
322.6648564405928
 30
0.0
 10
307.2549560122902
 20
317.2560178306092
 30
0.0
  0
SPLINE
  5
4B
330
1F
100
AcDbEntity
  8
0
  6
CONTINUOUS
 62
     7
100
AcDbSpline
210
0.0
220
0.0
230
1.0
 70
    11
 71
     3
 72
    22
 73
    18
 74
     0
 42
0.00000001
 43
0.00000001
 40
0.0
 40
0.0
 40
0.0
 40
0.0
 40
0.125
 40
0.125
 40
0.25
 40
0.25
 40
0.375
 40
0.375
 40
0.5
 40
0.5
 40
0.625
 40
0.625
 40
0.75
 40
0.75
 40
0.8749999999999999
 40
0.8749999999999999
 40
1.0
 40
1.0
 40
1.0
 40
1.0
 10
179.2549560122901
 20
317.2560178306092
 30
0.0
 10
179.2549560122901
 20
311.8471792206255
 30
0.0
 10
177.1061341872087
 20
306.6594644273907
 30
0.0
 10
169.4568812682827
 20
299.0102115084646
 30
0.0
 10
164.2691664750478
 20
296.8613896833832
 30
0.0
 10
153.4514892550806
 20
296.8613896833832
 30
0.0
 10
148.2637744618457
 20
299.0102115084646
 30
0.0
 10
140.6145215429197
 20
306.6594644273907
 30
0.0
 10
138.4656997178383
 20
311.8471792206255
 30
0.0
 10
138.4656997178383
 20
322.6648564405928
 30
0.0
 10
140.6145215429197
 20
327.8525712338276
 30
0.0
 10
148.2637744618458
 20
335.5018241527537
 30
0.0
 10
153.4514892550806
 20
337.650645977835
 30
0.0
 10
164.2691664750478
 20
337.650645977835
 30
0.0
 10
169.4568812682827
 20
335.5018241527537
 30
0.0
 10
177.1061341872087
 20
327.8525712338276
 30
0.0
 10
179.2549560122901
 20
322.6648564405928
 30
0.0
 10
179.2549560122901
 20
317.2560178306091
 30
0.0
  0
CIRCLE
  5
4C
330
1F
100
AcDbEntity
  8
0
  6
CONTINUOUS
 62
     7
100
AcDbCircle
 10
222.8603278651
 20
317.2560178306
 30
0.0
 40
23.89401897424503
  0
CIRCLE
  5
4D
330
1F
100
AcDbEntity
  8
0
  6
CONTINUOUS
 62
     7
100
AcDbCircle
 10
286.8603278651
 20
317.2560178306
 30
0.0
 40
21.394018974245
  0
CIRCLE
  5
4E
330
1F
100
AcDbEntity
  8
0
  6
CONTINUOUS
 62
     7
100
AcDbCircle
 10
158.8603278651
 20
317.2560178306
 30
0.0
 40
21.39401897424503
  0
CIRCLE
  5
4F
330
1F
100
AcDbEntity
  8
0
  6
CONTINUOUS
 62
     7
100
AcDbCircle
 10
158.8603278651
 20
317.2560178306
 30
0.0
 40
21.5
  0
CIRCLE
  5
50
330
1F
100
AcDbEntity
  8
0
  6
CONTINUOUS
 62
     7
100
AcDbCircle
 10
286.8603278651
 20
317.2560178306
 30
0.0
 40
21.49999999999994
  0
CIRCLE
  5
51
330
1F
100
AcDbEntity
  8
0
  6
CONTINUOUS
 62
     7
100
AcDbCircle
 10
222.8603278651
 20
317.2560178306
 30
0.0
 40
23.99999999999997
  0
SPLINE
  5
52
330
1F
100
AcDbEntity
  8
0
  6
CONTINUOUS
 62
     7
100
AcDbSpline
210
0.0
220
0.0
230
1.0
 70
    11
 71
     3
 72
    22
 73
    18
 74
     0
 42
0.00000001
 43
0.00000001
 40
0.0
 40
0.0
 40
0.0
 40
0.0
 40
0.125
 40
0.125
 40
0.25
 40
0.25
 40
0.375
 40
0.375
 40
0.5
 40
0.5
 40
0.625
 40
0.625
 40
0.75
 40
0.75
 40
0.8749999999999999
 40
0.8749999999999999
 40
1.0
 40
1.0
 40
1.0
 40
1.0
 10
256.3404314413294
 20
342.2560178306092
 30
0.0
 10
256.3404314413294
 20
341.8634810649331
 30
0.0
 10
256.1844845495744
 20
341.4869919638482
 30
0.0
 10
255.6293537318252
 20
340.931861146099
 30
0.0
 10
255.2528646307402
 20
340.7759142543439
 30
0.0
 10
254.4677910993882
 20
340.7759142543439
 30
0.0
 10
254.0913019983032
 20
340.931861146099
 30
0.0
 10
253.5361711805541
 20
341.4869919638482
 30
0.0
 10
253.380224288799
 20
341.8634810649331
 30
0.0
 10
253.380224288799
 20
342.6485545962852
 30
0.0
 10
253.5361711805541
 20
343.0250436973701
 30
0.0
 10
254.0913019983032
 20
343.5801745151193
 30
0.0
 10
254.4677910993882
 20
343.7361214068743
 30
0.0
 10
255.2528646307402
 20
343.7361214068743
 30
0.0
 10
255.6293537318252
 20
343.5801745151193
 30
0.0
 10
256.1844845495744
 20
343.0250436973701
 30
0.0
 10
256.3404314413294
 20
342.6485545962852
 30
0.0
 10
256.3404314413294
 20
342.2560178306092
 30
0.0
  0
SPLINE
  5
53
330
1F
100
AcDbEntity
  8
0
  6
CONTINUOUS
 62
     7
100
AcDbSpline
210
0.0
220
0.0
230
1.0
 70
    11
 71
     3
 72
    22
 73
    18
 74
     0
 42
0.00000001
 43
0.00000001
 40
0.0
 40
0.0
 40
0.0
 40
0.0
 40
0.125
 40
0.125
 40
0.25
 40
0.25
 40
0.375
 40
0.375
 40
0.5
 40
0.5
 40
0.625
 40
0.625
 40
0.75
 40
0.75
 40
0.8749999999999999
 40
0.8749999999999999
 40
1.0
 40
1.0
 40
1.0
 40
1.0
 10
192.3404314413294
 20
342.2560178306092
 30
0.0
 10
192.3404314413294
 20
341.8634810649331
 30
0.0
 10
192.1844845495744
 20
341.4869919638482
 30
0.0
 10
191.6293537318252
 20
340.931861146099
 30
0.0
 10
191.2528646307402
 20
340.775914254344
 30
0.0
 10
190.4677910993882
 20
340.775914254344
 30
0.0
 10
190.0913019983032
 20
340.931861146099
 30
0.0
 10
189.5361711805541
 20
341.4869919638482
 30
0.0
 10
189.380224288799
 20
341.8634810649331
 30
0.0
 10
189.380224288799
 20
342.6485545962852
 30
0.0
 10
189.5361711805541
 20
343.0250436973701
 30
0.0
 10
190.0913019983032
 20
343.5801745151193
 30
0.0
 10
190.4677910993882
 20
343.7361214068743
 30
0.0
 10
191.2528646307402
 20
343.7361214068743
 30
0.0
 10
191.6293537318252
 20
343.5801745151193
 30
0.0
 10
192.1844845495744
 20
343.0250436973701
 30
0.0
 10
192.3404314413294
 20
342.6485545962852
 30
0.0
 10
192.3404314413294
 20
342.2560178306092
 30
0.0
  0
SPLINE
  5
54
330
1F
100
AcDbEntity
  8
0
  6
CONTINUOUS
 62
     7
100
AcDbSpline
210
0.0
220
0.0
230
1.0
 70
    11
 71
     3
 72
    22
 73
    18
 74
     0
 42
0.00000001
 43
0.00000001
 40
0.0
 40
0.0
 40
0.0
 40
0.0
 40
0.125
 40
0.125
 40
0.25
 40
0.25
 40
0.375
 40
0.375
 40
0.5
 40
0.5
 40
0.625
 40
0.625
 40
0.75
 40
0.75
 40
0.8749999999999999
 40
0.8749999999999999
 40
1.0
 40
1.0
 40
1.0
 40
1.0
 10
256.3404314413294
 20
292.2560178306092
 30
0.0
 10
256.3404314413294
 20
291.8634810649331
 30
0.0
 10
256.1844845495744
 20
291.4869919638481
 30
0.0
 10
255.6293537318252
 20
290.931861146099
 30
0.0
 10
255.2528646307402
 20
290.7759142543439
 30
0.0
 10
254.4677910993882
 20
290.7759142543439
 30
0.0
 10
254.0913019983032
 20
290.931861146099
 30
0.0
 10
253.5361711805541
 20
291.4869919638481
 30
0.0
 10
253.380224288799
 20
291.8634810649331
 30
0.0
 10
253.380224288799
 20
292.6485545962852
 30
0.0
 10
253.5361711805541
 20
293.0250436973702
 30
0.0
 10
254.0913019983032
 20
293.5801745151193
 30
0.0
 10
254.4677910993882
 20
293.7361214068743
 30
0.0
 10
255.2528646307402
 20
293.7361214068743
 30
0.0
 10
255.6293537318252
 20
293.5801745151193
 30
0.0
 10
256.1844845495744
 20
293.0250436973702
 30
0.0
 10
256.3404314413294
 20
292.6485545962852
 30
0.0
 10
256.3404314413294
 20
292.2560178306092
 30
0.0
  0
SPLINE
  5
55
330
1F
100
AcDbEntity
  8
0
  6
CONTINUOUS
 62
     7
100
AcDbSpline
210
0.0
220
0.0
230
1.0
 70
    11
 71
     3
 72
    22
 73
    18
 74
     0
 42
0.00000001
 43
0.00000001
 40
0.0
 40
0.0
 40
0.0
 40
0.0
 40
0.125
 40
0.125
 40
0.25
 40
0.25
 40
0.375
 40
0.375
 40
0.5
 40
0.5
 40
0.625
 40
0.625
 40
0.75
 40
0.75
 40
0.8749999999999999
 40
0.8749999999999999
 40
1.0
 40
1.0
 40
1.0
 40
1.0
 10
192.3404314413294
 20
292.2560178306092
 30
0.0
 10
192.3404314413294
 20
291.8634810649331
 30
0.0
 10
192.1844845495744
 20
291.4869919638481
 30
0.0
 10
191.6293537318252
 20
290.931861146099
 30
0.0
 10
191.2528646307402
 20
290.7759142543439
 30
0.0
 10
190.4677910993882
 20
290.7759142543439
 30
0.0
 10
190.0913019983032
 20
290.931861146099
 30
0.0
 10
189.5361711805541
 20
291.4869919638481
 30
0.0
 10
189.380224288799
 20
291.8634810649331
 30
0.0
 10
189.380224288799
 20
292.6485545962852
 30
0.0
 10
189.5361711805541
 20
293.0250436973702
 30
0.0
 10
190.0913019983032
 20
293.5801745151193
 30
0.0
 10
190.4677910993882
 20
293.7361214068743
 30
0.0
 10
191.2528646307402
 20
293.7361214068743
 30
0.0
 10
191.6293537318252
 20
293.5801745151193
 30
0.0
 10
192.1844845495744
 20
293.0250436973702
 30
0.0
 10
192.3404314413294
 20
292.6485545962852
 30
0.0
 10
192.3404314413294
 20
292.2560178306092
 30
0.0
  0
CIRCLE
  5
56
330
1F
100
AcDbEntity
  8
0
  6
CONTINUOUS
 62
     7
100
AcDbCircle
 10
254.8603278651
 20
342.2560178306
 30
0.0
 40
1.980027423844973
  0
CIRCLE
  5
57
330
1F
100
AcDbEntity
  8
0
  6
CONTINUOUS
 62
     7
100
AcDbCircle
 10
190.8603278651
 20
342.2560178306
 30
0.0
 40
1.980027423844945
  0
CIRCLE
  5
58
330
1F
100
AcDbEntity
  8
0
  6
CONTINUOUS
 62
     7
100
AcDbCircle
 10
254.8603278651
 20
292.2560178306
 30
0.0
 40
1.980027423844973
  0
CIRCLE
  5
59
330
1F
100
AcDbEntity
  8
0
  6
CONTINUOUS
 62
     7
100
AcDbCircle
 10
190.8603278651
 20
292.2560178306
 30
0.0
 40
1.980027423844945
  0
CIRCLE
  5
5A
330
1F
100
AcDbEntity
  8
0
  6
CONTINUOUS
 62
     7
100
AcDbCircle
 10
190.8603278651
 20
342.2560178306
 30
0.0
 40
2.015089870144209
  0
CIRCLE
  5
5B
330
1F
100
AcDbEntity
  8
0
  6
CONTINUOUS
 62
     7
100
AcDbCircle
 10
254.8603278651
 20
342.2560178306
 30
0.0
 40
2.015089870144266
  0
CIRCLE
  5
5C
330
1F
100
AcDbEntity
  8
0
  6
CONTINUOUS
 62
     7
100
AcDbCircle
 10
190.8603278651
 20
292.2560178306
 30
0.0
 40
2.015089870144209
  0
CIRCLE
  5
5D
330
1F
100
AcDbEntity
  8
0
  6
CONTINUOUS
 62
     7
100
AcDbCircle
 10
254.8603278651
 20
292.2560178306
 30
0.0
 40
2.015089870144209
  0
SPLINE
  5
5E
330
1F
100
AcDbEntity
  8
0
  6
CONTINUOUS
 62
     7
100
AcDbSpline
210
0.0
220
0.0
230
1.0
 70
    11
 71
     3
 72
    22
 73
    18
 74
     0
 42
0.00000001
 43
0.00000001
 40
0.0
 40
0.0
 40
0.0
 40
0.0
 40
0.125
 40
0.125
 40
0.25
 40
0.25
 40
0.375
 40
0.375
 40
0.5
 40
0.5
 40
0.625
 40
0.625
 40
0.75
 40
0.75
 40
0.8749999999999999
 40
0.8749999999999999
 40
1.0
 40
1.0
 40
1.0
 40
1.0
 10
315.7898767817819
 20
317.2560178306092
 30
0.0
 10
315.7898767817819
 20
309.5836415548281
 30
0.0
 10
312.7417973731627
 20
302.2249269073496
 30
0.0
 10
301.8914187883237
 20
291.3745483225106
 30
0.0
 10
294.5327041408453
 20
288.3264689138915
 30
0.0
 10
279.1879515892832
 20
288.3264689138915
 30
0.0
 10
271.8292369418047
 20
291.3745483225106
 30
0.0
 10
260.9788583569656
 20
302.2249269073496
 30
0.0
 10
257.9307789483465
 20
309.5836415548281
 30
0.0
 10
257.9307789483465
 20
324.9283941063901
 30
0.0
 10
260.9788583569656
 20
332.2871087538686
 30
0.0
 10
271.8292369418048
 20
343.1374873387077
 30
0.0
 10
279.1879515892832
 20
346.1855667473268
 30
0.0
 10
294.5327041408453
 20
346.1855667473268
 30
0.0
 10
301.8914187883237
 20
343.1374873387076
 30
0.0
 10
312.7417973731627
 20
332.2871087538686
 30
0.0
 10
315.7898767817819
 20
324.9283941063901
 30
0.0
 10
315.7898767817819
 20
317.2560178306091
 30
0.0
  0
SPLINE
  5
5F
330
1F
100
AcDbEntity
  8
0
  6
CONTINUOUS
 62
     7
100
AcDbSpline
210
0.0
220
0.0
230
1.0
 70
    11
 71
     3
 72
    22
 73
    18
 74
     0
 42
0.00000001
 43
0.00000001
 40
0.0
 40
0.0
 40
0.0
 40
0.0
 40
0.125
 40
0.125
 40
0.25
 40
0.25
 40
0.375
 40
0.375
 40
0.5
 40
0.5
 40
0.625
 40
0.625
 40
0.75
 40
0.75
 40
0.8749999999999999
 40
0.8749999999999999
 40
1.0
 40
1.0
 40
1.0
 40
1.0
 10
251.7898767817819
 20
317.2560178306092
 30
0.0
 10
251.7898767817819
 20
309.5836415548281
 30
0.0
 10
248.7417973731628
 20
302.2249269073496
 30
0.0
 10
237.8914187883237
 20
291.3745483225106
 30
0.0
 10
230.5327041408453
 20
288.3264689138915
 30
0.0
 10
215.1879515892832
 20
288.3264689138915
 30
0.0
 10
207.8292369418047
 20
291.3745483225106
 30
0.0
 10
196.9788583569656
 20
302.2249269073496
 30
0.0
 10
193.9307789483465
 20
309.5836415548281
 30
0.0
 10
193.9307789483465
 20
324.9283941063901
 30
0.0
 10
196.9788583569656
 20
332.2871087538686
 30
0.0
 10
207.8292369418048
 20
343.1374873387077
 30
0.0
 10
215.1879515892832
 20
346.1855667473268
 30
0.0
 10
230.5327041408453
 20
346.1855667473268
 30
0.0
 10
237.8914187883237
 20
343.1374873387076
 30
0.0
 10
248.7417973731628
 20
332.2871087538686
 30
0.0
 10
251.7898767817819
 20
324.9283941063901
 30
0.0
 10
251.7898767817819
 20
317.2560178306091
 30
0.0
  0
SPLINE
  5
60
330
1F
100
AcDbEntity
  8
0
  6
CONTINUOUS
 62
     7
100
AcDbSpline
210
0.0
220
0.0
230
1.0
 70
    11
 71
     3
 72
    22
 73
    18
 74
     0
 42
0.00000001
 43
0.00000001
 40
0.0
 40
0.0
 40
0.0
 40
0.0
 40
0.125
 40
0.125
 40
0.25
 40
0.25
 40
0.375
 40
0.375
 40
0.5
 40
0.5
 40
0.625
 40
0.625
 40
0.75
 40
0.75
 40
0.8749999999999999
 40
0.8749999999999999
 40
1.0
 40
1.0
 40
1.0
 40
1.0
 10
187.7898767817819
 20
317.2560178306092
 30
0.0
 10
187.7898767817819
 20
309.5836415548281
 30
0.0
 10
184.7417973731628
 20
302.2249269073497
 30
0.0
 10
173.8914187883237
 20
291.3745483225106
 30
0.0
 10
166.5327041408452
 20
288.3264689138915
 30
0.0
 10
151.1879515892832
 20
288.3264689138915
 30
0.0
 10
143.8292369418047
 20
291.3745483225106
 30
0.0
 10
132.9788583569657
 20
302.2249269073497
 30
0.0
 10
129.9307789483466
 20
309.5836415548281
 30
0.0
 10
129.9307789483466
 20
324.9283941063901
 30
0.0
 10
132.9788583569657
 20
332.2871087538686
 30
0.0
 10
143.8292369418048
 20
343.1374873387077
 30
0.0
 10
151.1879515892833
 20
346.1855667473268
 30
0.0
 10
166.5327041408453
 20
346.1855667473267
 30
0.0
 10
173.8914187883237
 20
343.1374873387076
 30
0.0
 10
184.7417973731628
 20
332.2871087538686
 30
0.0
 10
187.7898767817819
 20
324.9283941063901
 30
0.0
 10
187.7898767817819
 20
317.2560178306091
 30
0.0
  0
CIRCLE
  5
61
330
1F
100
AcDbEntity
  8
0
  6
CONTINUOUS
 62
     7
100
AcDbCircle
 10
286.8603278651
 20
317.2560178306
 30
0.0
 40
29.92893974373675
  0
CIRCLE
  5
62
330
1F
100
AcDbEntity
  8
0
  6
CONTINUOUS
 62
     7
100
AcDbCircle
 10
222.8603278651
 20
317.2560178306
 30
0.0
 40
29.92893974373678
  0
CIRCLE
  5
63
330
1F
100
AcDbEntity
  8
0
  6
CONTINUOUS
 62
     7
100
AcDbCircle
 10
158.8603278651
 20
317.2560178306
 30
0.0
 40
29.92893974373678
  0
CIRCLE
  5
64
330
1F
100
AcDbEntity
  8
0
  6
CONTINUOUS
 62
     7
100
AcDbCircle
 10
286.8603278651
 20
317.2560178306
 30
0.0
 40
29.99999999999994
  0
CIRCLE
  5
65
330
1F
100
AcDbEntity
  8
0
  6
CONTINUOUS
 62
     7
100
AcDbCircle
 10
222.8603278651
 20
317.2560178306
 30
0.0
 40
29.99999999999997
  0
CIRCLE
  5
66
330
1F
100
AcDbEntity
  8
0
  6
CONTINUOUS
 62
     7
100
AcDbCircle
 10
158.8603278651
 20
317.2560178306
 30
0.0
 40
29.99999999999997
  0
SPLINE
  5
67
330
1F
100
AcDbEntity
  8
0
  6
CONTINUOUS
 62
     7
100
AcDbSpline
210
0.0
220
0.0
230
1.0
 70
    11
 71
     3
 72
    22
 73
    18
 74
     0
 42
0.00000001
 43
0.00000001
 40
0.0
 40
0.0
 40
0.0
 40
0.0
 40
0.125
 40
0.125
 40
0.25
 40
0.25
 40
0.375
 40
0.375
 40
0.5
 40
0.5
 40
0.625
 40
0.625
 40
0.75
 40
0.75
 40
0.8749999999999999
 40
0.8749999999999999
 40
1.0
 40
1.0
 40
1.0
 40
1.0
 10
195.8247975512736
 20
292.2560178306092
 30
0.0
 10
195.8247975512736
 20
290.9393958690307
 30
0.0
 10
195.3017303624692
 20
289.6765999677866
 30
0.0
 10
193.4397457278868
 20
287.8146153332042
 30
0.0
 10
192.1769498266426
 20
287.2915481443997
 30
0.0
 10
189.5437059034858
 20
287.2915481443997
 30
0.0
 10
188.2809100022417
 20
287.8146153332042
 30
0.0
 10
186.4189253676593
 20
289.6765999677866
 30
0.0
 10
185.8958581788548
 20
290.9393958690307
 30
0.0
 10
185.8958581788548
 20
293.5726397921875
 30
0.0
 10
186.4189253676593
 20
294.8354356934316
 30
0.0
 10
188.2809100022417
 20
296.6974203280141
 30
0.0
 10
189.5437059034858
 20
297.2204875168186
 30
0.0
 10
192.1769498266426
 20
297.2204875168186
 30
0.0
 10
193.4397457278868
 20
296.6974203280141
 30
0.0
 10
195.3017303624692
 20
294.8354356934316
 30
0.0
 10
195.8247975512736
 20
293.5726397921875
 30
0.0
 10
195.8247975512736
 20
292.2560178306092
 30
0.0
  0
SPLINE
  5
68
330
1F
100
AcDbEntity
  8
0
  6
CONTINUOUS
 62
     7
100
AcDbSpline
210
0.0
220
0.0
230
1.0
 70
    11
 71
     3
 72
    22
 73
    18
 74
     0
 42
0.00000001
 43
0.00000001
 40
0.0
 40
0.0
 40
0.0
 40
0.0
 40
0.125
 40
0.125
 40
0.25
 40
0.25
 40
0.375
 40
0.375
 40
0.5
 40
0.5
 40
0.625
 40
0.625
 40
0.75
 40
0.75
 40
0.8749999999999999
 40
0.8749999999999999
 40
1.0
 40
1.0
 40
1.0
 40
1.0
 10
195.8247975512736
 20
342.2560178306092
 30
0.0
 10
195.8247975512736
 20
340.9393958690308
 30
0.0
 10
195.3017303624692
 20
339.6765999677867
 30
0.0
 10
193.4397457278868
 20
337.8146153332042
 30
0.0
 10
192.1769498266426
 20
337.2915481443998
 30
0.0
 10
189.5437059034858
 20
337.2915481443998
 30
0.0
 10
188.2809100022417
 20
337.8146153332042
 30
0.0
 10
186.4189253676593
 20
339.6765999677867
 30
0.0
 10
185.8958581788548
 20
340.9393958690308
 30
0.0
 10
185.8958581788548
 20
343.5726397921875
 30
0.0
 10
186.4189253676593
 20
344.8354356934317
 30
0.0
 10
188.2809100022417
 20
346.6974203280141
 30
0.0
 10
189.5437059034858
 20
347.2204875168185
 30
0.0
 10
192.1769498266426
 20
347.2204875168185
 30
0.0
 10
193.4397457278868
 20
346.6974203280141
 30
0.0
 10
195.3017303624692
 20
344.8354356934317
 30
0.0
 10
195.8247975512736
 20
343.5726397921875
 30
0.0
 10
195.8247975512736
 20
342.2560178306092
 30
0.0
  0
SPLINE
  5
69
330
1F
100
AcDbEntity
  8
0
  6
CONTINUOUS
 62
     7
100
AcDbSpline
210
0.0
220
0.0
230
1.0
 70
    11
 71
     3
 72
    22
 73
    18
 74
     0
 42
0.00000001
 43
0.00000001
 40
0.0
 40
0.0
 40
0.0
 40
0.0
 40
0.125
 40
0.125
 40
0.25
 40
0.25
 40
0.375
 40
0.375
 40
0.5
 40
0.5
 40
0.625
 40
0.625
 40
0.75
 40
0.75
 40
0.8749999999999999
 40
0.8749999999999999
 40
1.0
 40
1.0
 40
1.0
 40
1.0
 10
259.8247975512737
 20
292.2560178306092
 30
0.0
 10
259.8247975512737
 20
290.9393958690307
 30
0.0
 10
259.3017303624692
 20
289.6765999677866
 30
0.0
 10
257.4397457278868
 20
287.8146153332042
 30
0.0
 10
256.1769498266426
 20
287.2915481443997
 30
0.0
 10
253.5437059034858
 20
287.2915481443997
 30
0.0
 10
252.2809100022417
 20
287.8146153332042
 30
0.0
 10
250.4189253676593
 20
289.6765999677866
 30
0.0
 10
249.8958581788548
 20
290.9393958690307
 30
0.0
 10
249.8958581788548
 20
293.5726397921875
 30
0.0
 10
250.4189253676593
 20
294.8354356934317
 30
0.0
 10
252.2809100022417
 20
296.6974203280142
 30
0.0
 10
253.5437059034858
 20
297.2204875168186
 30
0.0
 10
256.1769498266426
 20
297.2204875168186
 30
0.0
 10
257.4397457278868
 20
296.6974203280142
 30
0.0
 10
259.3017303624692
 20
294.8354356934317
 30
0.0
 10
259.8247975512737
 20
293.5726397921875
 30
0.0
 10
259.8247975512737
 20
292.2560178306092
 30
0.0
  0
SPLINE
  5
6A
330
1F
100
AcDbEntity
  8
0
  6
CONTINUOUS
 62
     7
100
AcDbSpline
210
0.0
220
0.0
230
1.0
 70
    11
 71
     3
 72
    22
 73
    18
 74
     0
 42
0.00000001
 43
0.00000001
 40
0.0
 40
0.0
 40
0.0
 40
0.0
 40
0.125
 40
0.125
 40
0.25
 40
0.25
 40
0.375
 40
0.375
 40
0.5
 40
0.5
 40
0.625
 40
0.625
 40
0.75
 40
0.75
 40
0.8749999999999999
 40
0.8749999999999999
 40
1.0
 40
1.0
 40
1.0
 40
1.0
 10
259.8247975512737
 20
342.2560178306092
 30
0.0
 10
259.8247975512737
 20
340.9393958690308
 30
0.0
 10
259.3017303624692
 20
339.6765999677867
 30
0.0
 10
257.4397457278868
 20
337.8146153332042
 30
0.0
 10
256.1769498266426
 20
337.2915481443997
 30
0.0
 10
253.5437059034858
 20
337.2915481443997
 30
0.0
 10
252.2809100022417
 20
337.8146153332042
 30
0.0
 10
250.4189253676593
 20
339.6765999677867
 30
0.0
 10
249.8958581788548
 20
340.9393958690308
 30
0.0
 10
249.8958581788548
 20
343.5726397921875
 30
0.0
 10
250.4189253676593
 20
344.8354356934317
 30
0.0
 10
252.2809100022417
 20
346.6974203280142
 30
0.0
 10
253.5437059034858
 20
347.2204875168186
 30
0.0
 10
256.1769498266426
 20
347.2204875168186
 30
0.0
 10
257.4397457278868
 20
346.6974203280142
 30
0.0
 10
259.3017303624692
 20
344.8354356934317
 30
0.0
 10
259.8247975512737
 20
343.5726397921876
 30
0.0
 10
259.8247975512737
 20
342.2560178306092
 30
0.0
  0
CIRCLE
  5
6B
330
1F
100
AcDbEntity
  8
0
  6
CONTINUOUS
 62
     7
100
AcDbCircle
 10
190.8603278651
 20
292.2560178306
 30
0.0
 40
5.963860513228923
  0
CIRCLE
  5
6C
330
1F
100
AcDbEntity
  8
0
  6
CONTINUOUS
 62
     7
100
AcDbCircle
 10
190.8603278651
 20
342.2560178306
 30
0.0
 40
5.963860513228923
  0
CIRCLE
  5
6D
330
1F
100
AcDbEntity
  8
0
  6
CONTINUOUS
 62
     7
100
AcDbCircle
 10
254.8603278651
 20
292.2560178306
 30
0.0
 40
5.96386051322898
  0
CIRCLE
  5
6E
330
1F
100
AcDbEntity
  8
0
  6
CONTINUOUS
 62
     7
100
AcDbCircle
 10
254.8603278651
 20
342.2560178306
 30
0.0
 40
5.96386051322898
  0
CIRCLE
  5
6F
330
1F
100
AcDbEntity
  8
0
  6
CONTINUOUS
 62
     7
100
AcDbCircle
 10
254.8603278651
 20
342.2560178306
 30
0.0
 40
5.999999999999744
  0
CIRCLE
  5
70
330
1F
100
AcDbEntity
  8
0
  6
CONTINUOUS
 62
     7
100
AcDbCircle
 10
190.8603278651
 20
342.2560178306
 30
0.0
 40
5.999999999999687
  0
CIRCLE
  5
71
330
1F
100
AcDbEntity
  8
0
  6
CONTINUOUS
 62
     7
100
AcDbCircle
 10
254.8603278651
 20
292.2560178306
 30
0.0
 40
5.999999999999744
  0
CIRCLE
  5
72
330
1F
100
AcDbEntity
  8
0
  6
CONTINUOUS
 62
     7
100
AcDbCircle
 10
190.8603278651
 20
292.2560178306
 30
0.0
 40
5.999999999999687
  0
LINE
  5
73
330
1F
100
AcDbEntity
  8
0
  6
CONTINUOUS
 62
     7
100
AcDbLine
 10
133.6904546843
 20
357.0843572125
 30
0.0
 11
134.3603289352
 21
354.5843595967
 31
0.0
  0
LINE
  5
74
330
1F
100
AcDbEntity
  8
0
  6
CONTINUOUS
 62
     7
100
AcDbLine
 10
134.3603289352
 20
354.5843595967
 30
0.0
 11
134.3603289352
 21
348.2560152516
 31
0.0
  0
LINE
  5
75
330
1F
100
AcDbEntity
  8
0
  6
CONTINUOUS
 62
     7
100
AcDbLine
 10
133.6904546843
 20
348.2560152516
 30
0.0
 11
134.3603289352
 21
348.2560152516
 31
0.0
  0
LINE
  5
76
330
1F
100
AcDbEntity
  8
0
  6
CONTINUOUS
 62
     7
100
AcDbLine
 10
133.6904546843
 20
348.2560152516
 30
0.0
 11
133.6904546843
 21
357.0843572125
 31
0.0
  0
LINE
  5
77
330
1F
100
AcDbEntity
  8
0
  6
CONTINUOUS
 62
     7
100
AcDbLine
 10
126.3603276239
 20
357.0843572125
 30
0.0
 11
133.6904546843
 21
357.0843572125
 31
0.0
  0
LINE
  5
78
330
1F
100
AcDbEntity
  8
0
  6
CONTINUOUS
 62
     7
100
AcDbLine
 10
126.3603276239
 20
359.5813149914
 30
0.0
 11
126.3603276239
 21
357.0843572125
 31
0.0
  0
LINE
  5
79
330
1F
100
AcDbEntity
  8
0
  6
CONTINUOUS
 62
     7
100
AcDbLine
 10
319.3603350446
 20
359.5813149914
 30
0.0
 11
126.3603276239
 21
359.5813149914
 31
0.0
  0
LINE
  5
7A
330
1F
100
AcDbEntity
  8
0
  6
CONTINUOUS
 62
     7
100
AcDbLine
 10
319.3603350446
 20
357.0843572125
 30
0.0
 11
319.3603350446
 21
359.5813149914
 31
0.0
  0
LINE
  5
7B
330
1F
100
AcDbEntity
  8
0
  6
CONTINUOUS
 62
     7
100
AcDbLine
 10
312.0302005336
 20
357.0843572125
 30
0.0
 11
319.3603350446
 21
357.0843572125
 31
0.0
  0
LINE
  5
7C
330
1F
100
AcDbEntity
  8
0
  6
CONTINUOUS
 62
     7
100
AcDbLine
 10
311.3603337333
 20
354.5843595967
 30
0.0
 11
312.0302005336
 21
357.0843572125
 31
0.0
  0
LINE
  5
7D
330
1F
100
AcDbEntity
  8
0
  6
CONTINUOUS
 62
     7
100
AcDbLine
 10
311.3603337333
 20
354.5843595967
 30
0.0
 11
134.3603289352
 21
354.5843595967
 31
0.0
  0
LINE
  5
7E
330
1F
100
AcDbEntity
  8
0
  6
CONTINUOUS
 62
     7
100
AcDbLine
 10
120.031992592
 20
340.2560288414
 30
0.0
 11
120.031992592
 21
294.2560250267
 31
0.0
  0
LINE
  5
7F
330
1F
100
AcDbEntity
  8
0
  6
CONTINUOUS
 62
     7
100
AcDbLine
 10
126.3603276239
 20
340.2560288414
 30
0.0
 11
120.031992592
 21
340.2560288414
 31
0.0
  0
ARC
  5
80
330
1F
100
AcDbEntity
  8
0
  6
CONTINUOUS
 62
     7
100
AcDbCircle
 10
126.3603278651
 20
348.2560178306
 30
0.0
 40
8.0
100
AcDbArc
 50
270.0
 51
0.0
  0
LINE
  5
81
330
1F
100
AcDbEntity
  8
0
  6
CONTINUOUS
 62
     7
100
AcDbLine
 10
311.3603337333
 20
348.2560152516
 30
0.0
 11
311.3603337333
 21
354.5843595967
 31
0.0
  0
ARC
  5
82
330
1F
100
AcDbEntity
  8
0
  6
CONTINUOUS
 62
     7
100
AcDbCircle
 10
319.3603278651
 20
348.2560178306
 30
0.0
 40
8.000000000000057
100
AcDbArc
 50
180.0
 51
270.0
  0
LINE
  5
83
330
1F
100
AcDbEntity
  8
0
  6
CONTINUOUS
 62
     7
100
AcDbLine
 10
325.6886644886
 20
340.2560288414
 30
0.0
 11
319.3603350446
 21
340.2560288414
 31
0.0
  0
LINE
  5
84
330
1F
100
AcDbEntity
  8
0
  6
CONTINUOUS
 62
     7
100
AcDbLine
 10
325.6886644886
 20
294.2560250267
 30
0.0
 11
325.6886644886
 21
340.2560288414
 31
0.0
  0
LINE
  5
85
330
1F
100
AcDbEntity
  8
0
  6
CONTINUOUS
 62
     7
100
AcDbLine
 10
319.3603350446
 20
294.2560250267
 30
0.0
 11
325.6886644886
 21
294.2560250267
 31
0.0
  0
ARC
  5
86
330
1F
100
AcDbEntity
  8
0
  6
CONTINUOUS
 62
     7
100
AcDbCircle
 10
319.3603278651
 20
286.2560178306
 30
0.0
 40
8.000000000000227
100
AcDbArc
 50
90.0
 51
180.0
  0
LINE
  5
87
330
1F
100
AcDbEntity
  8
0
  6
CONTINUOUS
 62
     7
100
AcDbLine
 10
311.3603337333
 20
279.9276793703
 30
0.0
 11
311.3603337333
 21
286.2560237154
 31
0.0
  0
LINE
  5
88
330
1F
100
AcDbEntity
  8
0
  6
CONTINUOUS
 62
     7
100
AcDbLine
 10
134.3603289352
 20
279.9276793703
 30
0.0
 11
311.3603337333
 21
279.9276793703
 31
0.0
  0
LINE
  5
89
330
1F
100
AcDbEntity
  8
0
  6
CONTINUOUS
 62
     7
100
AcDbLine
 10
134.3603289352
 20
286.2560237154
 30
0.0
 11
134.3603289352
 21
279.9276793703
 31
0.0
  0
ARC
  5
8A
330
1F
100
AcDbEntity
  8
0
  6
CONTINUOUS
 62
     7
100
AcDbCircle
 10
126.3603278651
 20
286.2560178306
 30
0.0
 40
8.000000000000014
100
AcDbArc
 50
0.0
 51
90.0
  0
LINE
  5
8B
330
1F
100
AcDbEntity
  8
0
  6
CONTINUOUS
 62
     7
100
AcDbLine
 10
120.031992592
 20
294.2560250267
 30
0.0
 11
126.3603276239
 21
294.2560250267
 31
0.0
  0
LINE
  5
8C
330
1F
100
AcDbEntity
  8
0
  6
CONTINUOUS
 62
     7
100
AcDbLine
 10
328.1886621044
 20
340.9258956417
 30
0.0
 11
325.6886644886
 21
340.2560288414
 31
0.0
  0
LINE
  5
8D
330
1F
100
AcDbEntity
  8
0
  6
CONTINUOUS
 62
     7
100
AcDbLine
 10
319.3603350446
 20
340.9258956417
 30
0.0
 11
319.3603350446
 21
340.2560288414
 31
0.0
  0
LINE
  5
8E
330
1F
100
AcDbEntity
  8
0
  6
CONTINUOUS
 62
     7
100
AcDbLine
 10
319.3603350446
 20
340.9258956417
 30
0.0
 11
328.1886621044
 21
340.9258956417
 31
0.0
  0
LINE
  5
8F
330
1F
100
AcDbEntity
  8
0
  6
CONTINUOUS
 62
     7
100
AcDbLine
 10
328.1886621044
 20
286.2560237154
 30
0.0
 11
330.6856198833
 21
286.2560237154
 31
0.0
  0
LINE
  5
90
330
1F
100
AcDbEntity
  8
0
  6
CONTINUOUS
 62
     7
100
AcDbLine
 10
328.1886621044
 20
293.5861433253
 30
0.0
 11
328.1886621044
 21
286.2560237154
 31
0.0
  0
LINE
  5
91
330
1F
100
AcDbEntity
  8
0
  6
CONTINUOUS
 62
     7
100
AcDbLine
 10
325.6886644886
 20
294.2560250267
 30
0.0
 11
328.1886621044
 21
293.5861433253
 31
0.0
  0
LINE
  5
92
330
1F
100
AcDbEntity
  8
0
  6
CONTINUOUS
 62
     7
100
AcDbLine
 10
328.1886621044
 20
348.2560152516
 30
0.0
 11
328.1886621044
 21
340.9258956417
 31
0.0
  0
LINE
  5
93
330
1F
100
AcDbEntity
  8
0
  6
CONTINUOUS
 62
     7
100
AcDbLine
 10
330.6856198833
 20
348.2560152516
 30
0.0
 11
328.1886621044
 21
348.2560152516
 31
0.0
  0
LINE
  5
94
330
1F
100
AcDbEntity
  8
0
  6
CONTINUOUS
 62
     7
100
AcDbLine
 10
330.6856198833
 20
286.2560237154
 30
0.0
 11
330.6856198833
 21
348.2560152516
 31
0.0
  0
LINE
  5
95
330
1F
100
AcDbEntity
  8
0
  6
CONTINUOUS
 62
     7
100
AcDbLine
 10
117.5319931135
 20
348.2560152516
 30
0.0
 11
115.0350381286
 21
348.2560152516
 31
0.0
  0
LINE
  5
96
330
1F
100
AcDbEntity
  8
0
  6
CONTINUOUS
 62
     7
100
AcDbLine
 10
117.5319931135
 20
340.9258956417
 30
0.0
 11
117.5319931135
 21
348.2560152516
 31
0.0
  0
LINE
  5
97
330
1F
100
AcDbEntity
  8
0
  6
CONTINUOUS
 62
     7
100
AcDbLine
 10
120.031992592
 20
340.2560288414
 30
0.0
 11
117.5319931135
 21
340.9258956417
 31
0.0
  0
LINE
  5
98
330
1F
100
AcDbEntity
  8
0
  6
CONTINUOUS
 62
     7
100
AcDbLine
 10
117.5319931135
 20
293.5861433253
 30
0.0
 11
120.031992592
 21
294.2560250267
 31
0.0
  0
LINE
  5
99
330
1F
100
AcDbEntity
  8
0
  6
CONTINUOUS
 62
     7
100
AcDbLine
 10
117.5319931135
 20
286.2560237154
 30
0.0
 11
117.5319931135
 21
293.5861433253
 31
0.0
  0
LINE
  5
9A
330
1F
100
AcDbEntity
  8
0
  6
CONTINUOUS
 62
     7
100
AcDbLine
 10
115.0350381286
 20
286.2560237154
 30
0.0
 11
117.5319931135
 21
286.2560237154
 31
0.0
  0
LINE
  5
9B
330
1F
100
AcDbEntity
  8
0
  6
CONTINUOUS
 62
     7
100
AcDbLine
 10
115.0350381286
 20
348.2560152516
 30
0.0
 11
115.0350381286
 21
286.2560237154
 31
0.0
  0
LINE
  5
9C
330
1F
100
AcDbEntity
  8
0
  6
CONTINUOUS
 62
     7
100
AcDbLine
 10
117.5319931135
 20
340.9258956417
 30
0.0
 11
126.3603276239
 21
340.9258956417
 31
0.0
  0
LINE
  5
9D
330
1F
100
AcDbEntity
  8
0
  6
CONTINUOUS
 62
     7
100
AcDbLine
 10
126.3603276239
 20
340.9258956417
 30
0.0
 11
126.3603276239
 21
340.2560288414
 31
0.0
  0
LINE
  5
9E
330
1F
100
AcDbEntity
  8
0
  6
CONTINUOUS
 62
     7
100
AcDbLine
 10
328.1886621044
 20
293.5861433253
 30
0.0
 11
319.3603350446
 21
293.5861433253
 31
0.0
  0
LINE
  5
9F
330
1F
100
AcDbEntity
  8
0
  6
CONTINUOUS
 62
     7
100
AcDbLine
 10
319.3603350446
 20
293.5861433253
 30
0.0
 11
319.3603350446
 21
294.2560250267
 31
0.0
  0
LINE
  5
A0
330
1F
100
AcDbEntity
  8
0
  6
CONTINUOUS
 62
     7
100
AcDbLine
 10
319.3603350446
 20
277.4276817545
 30
0.0
 11
312.0302005336
 21
277.4276817545
 31
0.0
  0
LINE
  5
A1
330
1F
100
AcDbEntity
  8
0
  6
CONTINUOUS
 62
     7
100
AcDbLine
 10
319.3603350446
 20
274.9307239756
 30
0.0
 11
319.3603350446
 21
277.4276817545
 31
0.0
  0
LINE
  5
A2
330
1F
100
AcDbEntity
  8
0
  6
CONTINUOUS
 62
     7
100
AcDbLine
 10
126.3603276239
 20
274.9307239756
 30
0.0
 11
319.3603350446
 21
274.9307239756
 31
0.0
  0
LINE
  5
A3
330
1F
100
AcDbEntity
  8
0
  6
CONTINUOUS
 62
     7
100
AcDbLine
 10
126.3603276239
 20
277.4276817545
 30
0.0
 11
126.3603276239
 21
274.9307239756
 31
0.0
  0
LINE
  5
A4
330
1F
100
AcDbEntity
  8
0
  6
CONTINUOUS
 62
     7
100
AcDbLine
 10
133.6904546843
 20
277.4276817545
 30
0.0
 11
126.3603276239
 21
277.4276817545
 31
0.0
  0
LINE
  5
A5
330
1F
100
AcDbEntity
  8
0
  6
CONTINUOUS
 62
     7
100
AcDbLine
 10
134.3603289352
 20
279.9276793703
 30
0.0
 11
133.6904546843
 21
277.4276817545
 31
0.0
  0
LINE
  5
A6
330
1F
100
AcDbEntity
  8
0
  6
CONTINUOUS
 62
     7
100
AcDbLine
 10
312.0302005336
 20
277.4276817545
 30
0.0
 11
311.3603337333
 21
279.9276793703
 31
0.0
  0
LINE
  5
A7
330
1F
100
AcDbEntity
  8
0
  6
CONTINUOUS
 62
     7
100
AcDbLine
 10
133.6904546843
 20
277.4276817545
 30
0.0
 11
133.6904546843
 21
286.2560237154
 31
0.0
  0
LINE
  5
A8
330
1F
100
AcDbEntity
  8
0
  6
CONTINUOUS
 62
     7
100
AcDbLine
 10
134.3603289352
 20
286.2560237154
 30
0.0
 11
133.6904546843
 21
286.2560237154
 31
0.0
  0
LINE
  5
A9
330
1F
100
AcDbEntity
  8
0
  6
CONTINUOUS
 62
     7
100
AcDbLine
 10
126.3603276239
 20
293.5861433253
 30
0.0
 11
126.3603276239
 21
294.2560250267
 31
0.0
  0
LINE
  5
AA
330
1F
100
AcDbEntity
  8
0
  6
CONTINUOUS
 62
     7
100
AcDbLine
 10
126.3603276239
 20
293.5861433253
 30
0.0
 11
117.5319931135
 21
293.5861433253
 31
0.0
  0
LINE
  5
AB
330
1F
100
AcDbEntity
  8
0
  6
CONTINUOUS
 62
     7
100
AcDbLine
 10
312.0302005336
 20
286.2560237154
 30
0.0
 11
311.3603337333
 21
286.2560237154
 31
0.0
  0
LINE
  5
AC
330
1F
100
AcDbEntity
  8
0
  6
CONTINUOUS
 62
     7
100
AcDbLine
 10
312.0302005336
 20
286.2560237154
 30
0.0
 11
312.0302005336
 21
277.4276817545
 31
0.0
  0
LINE
  5
AD
330
1F
100
AcDbEntity
  8
0
  6
CONTINUOUS
 62
     7
100
AcDbLine
 10
312.0302005336
 20
357.0843572125
 30
0.0
 11
312.0302005336
 21
348.2560152516
 31
0.0
  0
LINE
  5
AE
330
1F
100
AcDbEntity
  8
0
  6
CONTINUOUS
 62
     7
100
AcDbLine
 10
312.0302005336
 20
348.2560152516
 30
0.0
 11
311.3603337333
 21
348.2560152516
 31
0.0
  0
ARC
  5
AF
330
1F
100
AcDbEntity
  8
0
  6
CONTINUOUS
 62
     7
100
AcDbCircle
 10
319.3603278651
 20
286.2560178306
 30
0.0
 40
7.330127018922212
100
AcDbArc
 50
90.0
 51
180.0
  0
ARC
  5
B0
330
1F
100
AcDbEntity
  8
0
  6
CONTINUOUS
 62
     7
100
AcDbCircle
 10
319.3603278651
 20
348.2560178306
 30
0.0
 40
7.330127018922212
100
AcDbArc
 50
180.0
 51
270.0
  0
ARC
  5
B1
330
1F
100
AcDbEntity
  8
0
  6
CONTINUOUS
 62
     7
100
AcDbCircle
 10
126.3603278651
 20
348.2560178306
 30
0.0
 40
7.330127018922212
100
AcDbArc
 50
270.0
 51
0.0
  0
ARC
  5
B2
330
1F
100
AcDbEntity
  8
0
  6
CONTINUOUS
 62
     7
100
AcDbCircle
 10
126.3603278651
 20
286.2560178306
 30
0.0
 40
7.330127018922227
100
AcDbArc
 50
0.0
 51
90.0
  0
ARC
  5
B3
330
1F
100
AcDbEntity
  8
0
  6
CONTINUOUS
 62
     7
100
AcDbCircle
 10
319.3603278651
 20
286.2560178306
 30
0.0
 40
8.82833565349955
100
AcDbArc
 50
270.0
 51
0.0
  0
ARC
  5
B4
330
1F
100
AcDbEntity
  8
0
  6
CONTINUOUS
 62
     7
100
AcDbCircle
 10
319.3603278651
 20
286.2560178306
 30
0.0
 40
7.330127018922212
100
AcDbArc
 50
180.0
 51
90.0
  0
ARC
  5
B5
330
1F
100
AcDbEntity
  8
0
  6
CONTINUOUS
 62
     7
100
AcDbCircle
 10
126.3603278651
 20
286.2560178306
 30
0.0
 40
8.828335653499607
100
AcDbArc
 50
180.0
 51
270.0
  0
ARC
  5
B6
330
1F
100
AcDbEntity
  8
0
  6
CONTINUOUS
 62
     7
100
AcDbCircle
 10
126.3603278651
 20
286.2560178306
 30
0.0
 40
7.330127018922227
100
AcDbArc
 50
90.0
 51
0.0
  0
ARC
  5
B7
330
1F
100
AcDbEntity
  8
0
  6
CONTINUOUS
 62
     7
100
AcDbCircle
 10
319.3603278651
 20
348.2560178306
 30
0.0
 40
8.82833565349955
100
AcDbArc
 50
0.0
 51
90.0
  0
ARC
  5
B8
330
1F
100
AcDbEntity
  8
0
  6
CONTINUOUS
 62
     7
100
AcDbCircle
 10
319.3603278651
 20
348.2560178306
 30
0.0
 40
7.330127018922212
100
AcDbArc
 50
270.0
 51
180.0
  0
ARC
  5
B9
330
1F
100
AcDbEntity
  8
0
  6
CONTINUOUS
 62
     7
100
AcDbCircle
 10
126.3603278651
 20
348.2560178306
 30
0.0
 40
8.828335653499593
100
AcDbArc
 50
90.0
 51
180.0
  0
ARC
  5
BA
330
1F
100
AcDbEntity
  8
0
  6
CONTINUOUS
 62
     7
100
AcDbCircle
 10
126.3603278651
 20
348.2560178306
 30
0.0
 40
7.330127018922212
100
AcDbArc
 50
0.0
 51
270.0
  0
ARC
  5
BB
330
1F
100
AcDbEntity
  8
0
  6
CONTINUOUS
 62
     7
100
AcDbCircle
 10
319.3603278651
 20
286.2560178306
 30
0.0
 40
11.32528978859506
100
AcDbArc
 50
270.0
 51
0.0
  0
ARC
  5
BC
330
1F
100
AcDbEntity
  8
0
  6
CONTINUOUS
 62
     7
100
AcDbCircle
 10
319.3603278651
 20
348.2560178306
 30
0.0
 40
11.32528978859506
100
AcDbArc
 50
0.0
 51
90.0
  0
ARC
  5
BD
330
1F
100
AcDbEntity
  8
0
  6
CONTINUOUS
 62
     7
100
AcDbCircle
 10
126.3603278651
 20
348.2560178306
 30
0.0
 40
11.32528978859503
100
AcDbArc
 50
90.0
 51
180.0
  0
ARC
  5
BE
330
1F
100
AcDbEntity
  8
0
  6
CONTINUOUS
 62
     7
100
AcDbCircle
 10
126.3603278651
 20
286.2560178306
 30
0.0
 40
11.32528978859507
100
AcDbArc
 50
180.0
 51
270.0
  0
CIRCLE
  5
BF
330
1F
100
AcDbEntity
  8
0
  6
CONTINUOUS
 62
     7
100
AcDbCircle
 10
319.3603278651
 20
286.2560178306
 30
0.0
 40
7.241963528567965
  0
CIRCLE
  5
C0
330
1F
100
AcDbEntity
  8
0
  6
CONTINUOUS
 62
     7
100
AcDbCircle
 10
126.3603278651
 20
286.2560178306
 30
0.0
 40
7.241963528567965
  0
CIRCLE
  5
C1
330
1F
100
AcDbEntity
  8
0
  6
CONTINUOUS
 62
     7
100
AcDbCircle
 10
126.3603278651
 20
348.2560178306
 30
0.0
 40
7.241963528567965
  0
CIRCLE
  5
C2
330
1F
100
AcDbEntity
  8
0
  6
CONTINUOUS
 62
     7
100
AcDbCircle
 10
319.3603278651
 20
348.2560178306
 30
0.0
 40
7.241963528567965
  0
CIRCLE
  5
C3
330
1F
100
AcDbEntity
  8
0
  6
CONTINUOUS
 62
     7
100
AcDbCircle
 10
126.3603278651
 20
348.2560178306
 30
0.0
 40
4.355554613559292
  0
CIRCLE
  5
C4
330
1F
100
AcDbEntity
  8
0
  6
CONTINUOUS
 62
     7
100
AcDbCircle
 10
319.3603278651
 20
286.2560178306
 30
0.0
 40
4.355554613557103
  0
CIRCLE
  5
C5
330
1F
100
AcDbEntity
  8
0
  6
CONTINUOUS
 62
     7
100
AcDbCircle
 10
319.3603278651
 20
348.2560178306
 30
0.0
 40
4.355554613557103
  0
CIRCLE
  5
C6
330
1F
100
AcDbEntity
  8
0
  6
CONTINUOUS
 62
     7
100
AcDbCircle
 10
126.3603278651
 20
286.2560178306
 30
0.0
 40
4.355554613559292
  0
LINE
  5
C7
330
1F
100
AcDbEntity
  8
0
  6
CONTINUOUS
 62
     7
100
AcDbLine
 10
319.3603350446
 20
359.5813149914
 30
0.0
 11
319.3603350446
 21
359.7560162052
 31
0.0
  0
LINE
  5
C8
330
1F
100
AcDbEntity
  8
0
  6
CONTINUOUS
 62
     7
100
AcDbLine
 10
126.3603276239
 20
359.7560162052
 30
0.0
 11
126.3603276239
 21
359.5813149914
 31
0.0
  0
LINE
  5
C9
330
1F
100
AcDbEntity
  8
0
  6
CONTINUOUS
 62
     7
100
AcDbLine
 10
319.3603350446
 20
359.7560162052
 30
0.0
 11
126.3603276239
 21
359.7560162052
 31
0.0
  0
LINE
  5
CA
330
1F
100
AcDbEntity
  8
0
  6
CONTINUOUS
 62
     7
100
AcDbLine
 10
330.8603210971
 20
348.2560152516
 30
0.0
 11
330.6856198833
 21
348.2560152516
 31
0.0
  0
ARC
  5
CB
330
1F
100
AcDbEntity
  8
0
  6
CONTINUOUS
 62
     7
100
AcDbCircle
 10
319.3603278651
 20
348.2560178306
 30
0.0
 40
11.50000000000006
100
AcDbArc
 50
0.0
 51
90.0
  0
LINE
  5
CC
330
1F
100
AcDbEntity
  8
0
  6
CONTINUOUS
 62
     7
100
AcDbLine
 10
114.8603276015
 20
286.2560237154
 30
0.0
 11
115.0350381286
 21
286.2560237154
 31
0.0
  0
LINE
  5
CD
330
1F
100
AcDbEntity
  8
0
  6
CONTINUOUS
 62
     7
100
AcDbLine
 10
126.3603276239
 20
274.9307239756
 30
0.0
 11
126.3603276239
 21
274.7560227618
 31
0.0
  0
ARC
  5
CE
330
1F
100
AcDbEntity
  8
0
  6
CONTINUOUS
 62
     7
100
AcDbCircle
 10
126.3603278651
 20
286.2560178306
 30
0.0
 40
11.50000000000007
100
AcDbArc
 50
180.0
 51
270.0
  0
LINE
  5
CF
330
1F
100
AcDbEntity
  8
0
  6
CONTINUOUS
 62
     7
100
AcDbLine
 10
319.3603350446
 20
274.7560227618
 30
0.0
 11
319.3603350446
 21
274.9307239756
 31
0.0
  0
LINE
  5
D0
330
1F
100
AcDbEntity
  8
0
  6
CONTINUOUS
 62
     7
100
AcDbLine
 10
126.3603276239
 20
274.7560227618
 30
0.0
 11
319.3603350446
 21
274.7560227618
 31
0.0
  0
LINE
  5
D1
330
1F
100
AcDbEntity
  8
0
  6
CONTINUOUS
 62
     7
100
AcDbLine
 10
330.6856198833
 20
286.2560237154
 30
0.0
 11
330.8603210971
 21
286.2560237154
 31
0.0
  0
ARC
  5
D2
330
1F
100
AcDbEntity
  8
0
  6
CONTINUOUS
 62
     7
100
AcDbCircle
 10
319.3603278651
 20
286.2560178306
 30
0.0
 40
11.50000000000006
100
AcDbArc
 50
270.0
 51
0.0
  0
LINE
  5
D3
330
1F
100
AcDbEntity
  8
0
  6
CONTINUOUS
 62
     7
100
AcDbLine
 10
115.0350381286
 20
348.2560152516
 30
0.0
 11
114.8603276015
 21
348.2560152516
 31
0.0
  0
ARC
  5
D4
330
1F
100
AcDbEntity
  8
0
  6
CONTINUOUS
 62
     7
100
AcDbCircle
 10
126.3603278651
 20
348.2560178306
 30
0.0
 40
11.50000000000007
100
AcDbArc
 50
90.0
 51
180.0
  0
LINE
  5
D5
330
1F
100
AcDbEntity
  8
0
  6
CONTINUOUS
 62
     7
100
AcDbLine
 10
114.8603276015
 20
348.2560152516
 30
0.0
 11
114.8603276015
 21
286.2560237154
 31
0.0
  0
LINE
  5
D6
330
1F
100
AcDbEntity
  8
0
  6
CONTINUOUS
 62
     7
100
AcDbLine
 10
330.8603210971
 20
286.2560237154
 30
0.0
 11
330.8603210971
 21
348.2560152516
 31
0.0
  0
LINE
  5
D7
330
1F
100
AcDbEntity
  8
0
  6
CONTINUOUS
 62
     7
100
AcDbLine
 10
53.1120080663
 20
347.2560281262
 30
0.0
 11
51.0771082876
 21
347.1849495873
 31
0.0
  0
LINE
  5
D8
330
1F
100
AcDbEntity
  8
0
  6
CONTINUOUS
 62
     7
100
AcDbLine
 10
51.0771082876
 20
287.3270744786
 30
0.0
 11
53.1120080663
 21
287.2560108408
 31
0.0
  0
ARC
  5
D9
330
1F
100
AcDbEntity
  8
0
  6
CONTINUOUS
 62
     7
100
AcDbCircle
 10
51.1120078428
 20
346.1855667473
 30
0.0
 40
1.000000000000015
100
AcDbArc
 50
92.0
 51
180.0
  0
ARC
  5
DA
330
1F
100
AcDbEntity
  8
0
  6
CONTINUOUS
 62
     7
100
AcDbCircle
 10
51.1120078428
 20
288.3264689139
 30
0.0
 40
1.000000000000015
100
AcDbArc
 50
180.0
 51
268.0
  0
LINE
  5
DB
330
1F
100
AcDbEntity
  8
0
  6
CONTINUOUS
 62
     7
100
AcDbLine
 10
50.1120075746
 20
338.756018351
 30
0.0
 11
47.0771085633
 21
338.6500412926
 31
0.0
  0
LINE
  5
DC
330
1F
100
AcDbEntity
  8
0
  6
CONTINUOUS
 62
     7
100
AcDbLine
 10
47.0771085633
 20
295.8619976744
 30
0.0
 11
50.1120075746
 21
295.756020616
 31
0.0
  0
ARC
  5
DD
330
1F
100
AcDbEntity
  8
0
  6
CONTINUOUS
 62
     7
100
AcDbCircle
 10
47.1120078428
 20
337.6506459778
 30
0.0
 40
1.000000000000072
100
AcDbArc
 50
92.0
 51
180.0
  0
ARC
  5
DE
330
1F
100
AcDbEntity
  8
0
  6
CONTINUOUS
 62
     7
100
AcDbCircle
 10
47.1120078428
 20
296.8613896834
 30
0.0
 40
1.000000000000015
100
AcDbArc
 50
180.0
 51
268.0
  0
LINE
  5
DF
330
1F
100
AcDbEntity
  8
0
  6
CONTINUOUS
 62
     7
100
AcDbLine
 10
46.1120069189
 20
327.2560173973
 30
0.0
 11
43.5945581807
 21
327.1681005463
 31
0.0
  0
LINE
  5
E0
330
1F
100
AcDbEntity
  8
0
  6
CONTINUOUS
 62
     7
100
AcDbLine
 10
43.5945581807
 20
307.3439235195
 30
0.0
 11
46.1120069189
 21
307.2560215697
 31
0.0
  0
ARC
  5
E1
330
1F
100
AcDbEntity
  8
0
  6
CONTINUOUS
 62
     7
100
AcDbCircle
 10
43.6120078428
 20
326.6684111347
 30
0.0
 40
0.5000000000000363
100
AcDbArc
 50
92.0
 51
180.0
  0
ARC
  5
E2
330
1F
100
AcDbEntity
  8
0
  6
CONTINUOUS
 62
     7
100
AcDbCircle
 10
43.6120078428
 20
307.8436245265
 30
0.0
 40
0.5000000000000363
100
AcDbArc
 50
180.0
 51
268.0
  0
LINE
  5
E3
330
1F
100
AcDbEntity
  8
0
  6
CONTINUOUS
 62
     7
100
AcDbLine
 10
53.1120080663
 20
348.2560152516
 30
0.0
 11
52.0771084515
 21
348.2198650345
 31
0.0
  0
LINE
  5
E4
330
1F
100
AcDbEntity
  8
0
  6
CONTINUOUS
 62
     7
100
AcDbLine
 10
52.0771084515
 20
286.2921590313
 30
0.0
 11
53.1120080663
 21
286.2560237154
 31
0.0
  0
ARC
  5
E5
330
1F
100
AcDbEntity
  8
0
  6
CONTINUOUS
 62
     7
100
AcDbCircle
 10
52.1120078428
 20
287.2915481444
 30
0.0
 40
1.0
100
AcDbArc
 50
180.0
 51
268.0000000014
  0
ARC
  5
E6
330
1F
100
AcDbEntity
  8
0
  6
CONTINUOUS
 62
     7
100
AcDbCircle
 10
52.1120078428
 20
347.2204875168
 30
0.0
 40
1.0
100
AcDbArc
 50
91.9999999986
 51
180.0
  0
LINE
  5
E7
330
1F
100
AcDbEntity
  8
0
  6
CONTINUOUS
 62
     7
100
AcDbLine
 10
50.1120075746
 20
344.2536527619
 30
0.0
 11
49.1032818494
 21
344.2360395893
 31
0.0
  0
LINE
  5
E8
330
1F
100
AcDbEntity
  8
0
  6
CONTINUOUS
 62
     7
100
AcDbLine
 10
49.1032818494
 20
340.2759963974
 30
0.0
 11
50.1120075746
 21
340.2583832249
 31
0.0
  0
LINE
  5
E9
330
1F
100
AcDbEntity
  8
0
  6
CONTINUOUS
 62
     7
100
AcDbLine
 10
50.1120075746
 20
294.2536557421
 30
0.0
 11
49.1032818494
 21
294.2360425696
 31
0.0
  0
LINE
  5
EA
330
1F
100
AcDbEntity
  8
0
  6
CONTINUOUS
 62
     7
100
AcDbLine
 10
49.1032818494
 20
290.2759844765
 30
0.0
 11
50.1120075746
 21
290.2583862051
 31
0.0
  0
ARC
  5
EB
330
1F
100
AcDbEntity
  8
0
  6
CONTINUOUS
 62
     7
100
AcDbCircle
 10
49.1120078428
 20
343.7361214069
 30
0.0
 40
0.5000000000007243
100
AcDbArc
 50
90.999999998
 51
180.0
  0
ARC
  5
EC
330
1F
100
AcDbEntity
  8
0
  6
CONTINUOUS
 62
     7
100
AcDbCircle
 10
49.1120078428
 20
340.7759142543
 30
0.0
 40
0.5000000000006106
100
AcDbArc
 50
180.0
 51
269.000000002
  0
ARC
  5
ED
330
1F
100
AcDbEntity
  8
0
  6
CONTINUOUS
 62
     7
100
AcDbCircle
 10
49.1120078428
 20
293.7361214069
 30
0.0
 40
0.5000000000006675
100
AcDbArc
 50
90.999999998
 51
180.0
  0
ARC
  5
EE
330
1F
100
AcDbEntity
  8
0
  6
CONTINUOUS
 62
     7
100
AcDbCircle
 10
49.1120078428
 20
290.7759142543
 30
0.0
 40
0.5000000000006675
100
AcDbArc
 50
180.0
 51
269.000000002
  0
LINE
  5
EF
330
1F
100
AcDbEntity
  8
0
  6
CONTINUOUS
 62
     7
100
AcDbLine
 10
50.1120075746
 20
341.2560159668
 30
0.0
 11
47.0771085633
 21
341.1500389084
 31
0.0
  0
LINE
  5
F0
330
1F
100
AcDbEntity
  8
0
  6
CONTINUOUS
 62
     7
100
AcDbLine
 10
47.0771085633
 20
293.3620000586
 30
0.0
 11
48.6313807009
 21
293.3077151284
 31
0.0
  0
ARC
  5
F1
330
1F
100
AcDbEntity
  8
0
  6
CONTINUOUS
 62
     7
100
AcDbCircle
 10
47.1120078428
 20
340.1506459778
 30
0.0
 40
1.000000000000015
100
AcDbArc
 50
92.0
 51
180.0
  0
ARC
  5
F2
330
1F
100
AcDbEntity
  8
0
  6
CONTINUOUS
 62
     7
100
AcDbCircle
 10
47.1120078428
 20
294.3613896834
 30
0.0
 40
1.000000000000015
100
AcDbArc
 50
180.0
 51
268.0
  0
LINE
  5
F3
330
1F
100
AcDbEntity
  8
0
  6
CONTINUOUS
 62
     7
100
AcDbLine
 10
46.1120069189
 20
332.256012629
 30
0.0
 11
43.5945581807
 21
332.1680957779
 31
0.0
  0
LINE
  5
F4
330
1F
100
AcDbEntity
  8
0
  6
CONTINUOUS
 62
     7
100
AcDbLine
 10
43.5945581807
 20
302.3439282879
 30
0.0
 11
46.1120069189
 21
302.2560114369
 31
0.0
  0
ARC
  5
F5
330
1F
100
AcDbEntity
  8
0
  6
CONTINUOUS
 62
     7
100
AcDbCircle
 10
43.6120078428
 20
331.6684111347
 30
0.0
 40
0.5000000000000363
100
AcDbArc
 50
92.0
 51
180.0
  0
ARC
  5
F6
330
1F
100
AcDbEntity
  8
0
  6
CONTINUOUS
 62
     7
100
AcDbCircle
 10
43.6120078428
 20
302.8436245265
 30
0.0
 40
0.5000000000000363
100
AcDbArc
 50
180.0
 51
268.0
  0
LINE
  5
F7
330
1F
100
AcDbEntity
  8
0
  6
CONTINUOUS
 62
     7
100
AcDbLine
 10
63.1120078428
 20
348.2560152516
 30
0.0
 11
58.1089620641
 21
348.2560152516
 31
0.0
  0
LINE
  5
F8
330
1F
100
AcDbEntity
  8
0
  6
CONTINUOUS
 62
     7
100
AcDbLine
 10
58.1089620641
 20
348.2560152516
 30
0.0
 11
58.1089620641
 21
359.5813149914
 31
0.0
  0
LINE
  5
F9
330
1F
100
AcDbEntity
  8
0
  6
CONTINUOUS
 62
     7
100
AcDbLine
 10
58.1089620641
 20
359.5813149914
 30
0.0
 11
63.1120078428
 21
359.7560162052
 31
0.0
  0
LINE
  5
FA
330
1F
100
AcDbEntity
  8
0
  6
CONTINUOUS
 62
     7
100
AcDbLine
 10
63.1120078428
 20
348.2560152516
 30
0.0
 11
63.1120078428
 21
359.7560162052
 31
0.0
  0
LINE
  5
FB
330
1F
100
AcDbEntity
  8
0
  6
CONTINUOUS
 62
     7
100
AcDbLine
 10
58.1089620641
 20
286.2560237154
 30
0.0
 11
63.1120078428
 21
286.2560237154
 31
0.0
  0
LINE
  5
FC
330
1F
100
AcDbEntity
  8
0
  6
CONTINUOUS
 62
     7
100
AcDbLine
 10
58.1089620641
 20
286.2560237154
 30
0.0
 11
58.1089620641
 21
348.2560152516
 31
0.0
  0
LINE
  5
FD
330
1F
100
AcDbEntity
  8
0
  6
CONTINUOUS
 62
     7
100
AcDbLine
 10
63.1120078428
 20
286.2560237154
 30
0.0
 11
63.1120078428
 21
348.2560152516
 31
0.0
  0
LINE
  5
FE
330
1F
100
AcDbEntity
  8
0
  6
CONTINUOUS
 62
     7
100
AcDbLine
 10
63.1120078428
 20
274.7560227618
 30
0.0
 11
58.1089620641
 21
274.9307239756
 31
0.0
  0
LINE
  5
FF
330
1F
100
AcDbEntity
  8
0
  6
CONTINUOUS
 62
     7
100
AcDbLine
 10
58.1089620641
 20
274.9307239756
 30
0.0
 11
58.1089620641
 21
286.2560237154
 31
0.0
  0
LINE
  5
100
330
1F
100
AcDbEntity
  8
0
  6
CONTINUOUS
 62
     7
100
AcDbLine
 10
63.1120078428
 20
274.7560227618
 30
0.0
 11
63.1120078428
 21
286.2560237154
 31
0.0
  0
LINE
  5
101
330
1F
100
AcDbEntity
  8
0
  6
CONTINUOUS
 62
     7
100
AcDbLine
 10
58.1089620641
 20
274.9307239756
 30
0.0
 11
55.6120080104
 21
277.4276817545
 31
0.0
  0
LINE
  5
102
330
1F
100
AcDbEntity
  8
0
  6
CONTINUOUS
 62
     7
100
AcDbLine
 10
55.6120080104
 20
286.2560237154
 30
0.0
 11
55.6120080104
 21
277.4276817545
 31
0.0
  0
LINE
  5
103
330
1F
100
AcDbEntity
  8
0
  6
CONTINUOUS
 62
     7
100
AcDbLine
 10
55.6120080104
 20
286.2560237154
 30
0.0
 11
58.1089620641
 21
286.2560237154
 31
0.0
  0
LINE
  5
104
330
1F
100
AcDbEntity
  8
0
  6
CONTINUOUS
 62
     7
100
AcDbLine
 10
55.6120080104
 20
293.5861433253
 30
0.0
 11
55.6120080104
 21
286.2560237154
 31
0.0
  0
LINE
  5
105
330
1F
100
AcDbEntity
  8
0
  6
CONTINUOUS
 62
     7
100
AcDbLine
 10
53.1120080663
 20
294.2560250267
 30
0.0
 11
55.6120080104
 21
293.5861433253
 31
0.0
  0
LINE
  5
106
330
1F
100
AcDbEntity
  8
0
  6
CONTINUOUS
 62
     7
100
AcDbLine
 10
53.1120080663
 20
294.2560250267
 30
0.0
 11
53.1120080663
 21
340.2560288414
 31
0.0
  0
LINE
  5
107
330
1F
100
AcDbEntity
  8
0
  6
CONTINUOUS
 62
     7
100
AcDbLine
 10
55.6120080104
 20
340.9258956417
 30
0.0
 11
53.1120080663
 21
340.2560288414
 31
0.0
  0
LINE
  5
108
330
1F
100
AcDbEntity
  8
0
  6
CONTINUOUS
 62
     7
100
AcDbLine
 10
55.6120080104
 20
348.2560152516
 30
0.0
 11
55.6120080104
 21
340.9258956417
 31
0.0
  0
LINE
  5
109
330
1F
100
AcDbEntity
  8
0
  6
CONTINUOUS
 62
     7
100
AcDbLine
 10
58.1089620641
 20
348.2560152516
 30
0.0
 11
55.6120080104
 21
348.2560152516
 31
0.0
  0
LINE
  5
10A
330
1F
100
AcDbEntity
  8
0
  6
CONTINUOUS
 62
     7
100
AcDbLine
 10
55.6120080104
 20
357.0843572125
 30
0.0
 11
55.6120080104
 21
348.2560152516
 31
0.0
  0
LINE
  5
10B
330
1F
100
AcDbEntity
  8
0
  6
CONTINUOUS
 62
     7
100
AcDbLine
 10
55.6120080104
 20
357.0843572125
 30
0.0
 11
58.1089620641
 21
359.5813149914
 31
0.0
  0
LINE
  5
10C
330
1F
100
AcDbEntity
  8
0
  6
CONTINUOUS
 62
     7
100
AcDbLine
 10
64.3120078998
 20
286.2560237154
 30
0.0
 11
63.1120078428
 21
286.2560237154
 31
0.0
  0
LINE
  5
10D
330
1F
100
AcDbEntity
  8
0
  6
CONTINUOUS
 62
     7
100
AcDbLine
 10
64.3120078998
 20
276.5189046368
 30
0.0
 11
64.3120078998
 21
286.2560237154
 31
0.0
  0
LINE
  5
10E
330
1F
100
AcDbEntity
  8
0
  6
CONTINUOUS
 62
     7
100
AcDbLine
 10
64.3120078998
 20
276.5189046368
 30
0.0
 11
63.1120078428
 21
276.4560217366
 31
0.0
  0
LINE
  5
10F
330
1F
100
AcDbEntity
  8
0
  6
CONTINUOUS
 62
     7
100
AcDbLine
 10
64.3120078998
 20
357.993119429
 30
0.0
 11
63.1120078428
 21
358.0560321316
 31
0.0
  0
LINE
  5
110
330
1F
100
AcDbEntity
  8
0
  6
CONTINUOUS
 62
     7
100
AcDbLine
 10
64.3120078998
 20
348.2560152516
 30
0.0
 11
64.3120078998
 21
357.993119429
 31
0.0
  0
LINE
  5
111
330
1F
100
AcDbEntity
  8
0
  6
CONTINUOUS
 62
     7
100
AcDbLine
 10
64.3120078998
 20
348.2560152516
 30
0.0
 11
63.1120078428
 21
348.2560152516
 31
0.0
  0
LINE
  5
112
330
1F
100
AcDbEntity
  8
0
  6
CONTINUOUS
 62
     7
100
AcDbLine
 10
64.3120078998
 20
286.2560237154
 30
0.0
 11
64.3120078998
 21
348.2560152516
 31
0.0
  0
LINE
  5
113
330
1F
100
AcDbEntity
  8
0
  6
CONTINUOUS
 62
     7
100
AcDbLine
 10
64.3120078998
 20
348.714106749
 30
0.0
 11
73.1120076193
 21
348.4068150029
 31
0.0
  0
LINE
  5
114
330
1F
100
AcDbEntity
  8
0
  6
CONTINUOUS
 62
     7
100
AcDbLine
 10
73.1120076193
 20
318.7560076222
 30
0.0
 11
73.1120076193
 21
348.4068150029
 31
0.0
  0
LINE
  5
115
330
1F
100
AcDbEntity
  8
0
  6
CONTINUOUS
 62
     7
100
AcDbLine
 10
73.1120076193
 20
286.1052239641
 30
0.0
 11
73.1120076193
 21
315.7560164437
 31
0.0
  0
LINE
  5
116
330
1F
100
AcDbEntity
  8
0
  6
CONTINUOUS
 62
     7
100
AcDbLine
 10
73.1120076193
 20
286.1052239641
 30
0.0
 11
64.3120078998
 21
285.7979173168
 31
0.0
  0
LINE
  5
117
330
1F
100
AcDbEntity
  8
0
  6
CONTINUOUS
 62
     7
100
AcDbLine
 10
73.1120076193
 20
315.7560164437
 30
0.0
 11
73.1120076193
 21
318.7560076222
 31
0.0
  0
LINE
  5
118
330
1F
100
AcDbEntity
  8
0
  6
CONTINUOUS
 62
     7
100
AcDbLine
 10
55.6120080104
 20
348.2560152516
 30
0.0
 11
53.1120080663
 21
348.2560152516
 31
0.0
  0
LINE
  5
119
330
1F
100
AcDbEntity
  8
0
  6
CONTINUOUS
 62
     7
100
AcDbLine
 10
53.1120080663
 20
340.2560288414
 30
0.0
 11
53.1120080663
 21
348.2560152516
 31
0.0
  0
LINE
  5
11A
330
1F
100
AcDbEntity
  8
0
  6
CONTINUOUS
 62
     7
100
AcDbLine
 10
55.6120080104
 20
286.2560237154
 30
0.0
 11
53.1120080663
 21
286.2560237154
 31
0.0
  0
LINE
  5
11B
330
1F
100
AcDbEntity
  8
0
  6
CONTINUOUS
 62
     7
100
AcDbLine
 10
53.1120080663
 20
286.2560237154
 30
0.0
 11
53.1120080663
 21
294.2560250267
 31
0.0
  0
SPLINE
  5
11C
330
1F
100
AcDbEntity
  8
0
  6
CONTINUOUS
 62
     7
100
AcDbSpline
210
0.0
220
0.0
230
1.0
 70
    24
 71
     3
 72
    10
 73
     6
 74
     0
 42
0.00000001
 43
0.00000001
 40
0.0
 40
0.0
 40
0.0
 40
0.0
 40
0.5
 40
0.5
 40
1.0
 40
1.0
 40
1.0
 40
1.0
 10
50.11200784277564
 20
317.2560178306092
 30
0.0
 10
50.11200784277564
 20
309.5836404244025
 30
0.0
 10
50.11200784277565
 20
302.2249247859134
 30
0.0
 10
50.1120078427757
 20
291.3745458268949
 30
0.0
 10
50.11200784277572
 20
288.3264671822104
 30
0.0
 10
50.11200784277575
 20
288.3264689138921
 30
0.0
  0
LINE
  5
11D
330
1F
100
AcDbEntity
  8
0
  6
CONTINUOUS
 62
     7
100
AcDbLine
 10
50.1120075746
 20
346.1855585083
 30
0.0
 11
50.1120075746
 21
317.2560269341
 31
0.0
  0
LINE
  5
11E
330
1F
100
AcDbEntity
  8
0
  6
CONTINUOUS
 62
     7
100
AcDbLine
 10
55.6120080104
 20
277.4276817545
 30
0.0
 11
53.1120080663
 21
279.9276793703
 31
0.0
  0
LINE
  5
11F
330
1F
100
AcDbEntity
  8
0
  6
CONTINUOUS
 62
     7
100
AcDbLine
 10
53.1120080663
 20
279.9276793703
 30
0.0
 11
53.1120080663
 21
286.2560237154
 31
0.0
  0
LINE
  5
120
330
1F
100
AcDbEntity
  8
0
  6
CONTINUOUS
 62
     7
100
AcDbLine
 10
53.1120080663
 20
354.5843595967
 30
0.0
 11
55.6120080104
 21
357.0843572125
 31
0.0
  0
LINE
  5
121
330
1F
100
AcDbEntity
  8
0
  6
CONTINUOUS
 62
     7
100
AcDbLine
 10
53.1120080663
 20
348.2560152516
 30
0.0
 11
53.1120080663
 21
354.5843595967
 31
0.0
  0
SPLINE
  5
122
330
1F
100
AcDbEntity
  8
0
  6
CONTINUOUS
 62
     7
100
AcDbSpline
210
0.0
220
0.0
230
1.0
 70
    24
 71
     3
 72
    10
 73
     6
 74
     0
 42
0.00000001
 43
0.00000001
 40
0.0
 40
0.0
 40
0.0
 40
0.0
 40
0.5
 40
0.5
 40
1.0
 40
1.0
 40
1.0
 40
1.0
 10
46.11200784277568
 20
317.2560178306092
 30
0.0
 10
46.11200784277568
 20
311.8471780902014
 30
0.0
 10
46.11200784277568
 20
306.6594623059532
 30
0.0
 10
46.1120078427757
 20
299.0102090128501
 30
0.0
 10
46.11200784277572
 20
296.8613879517023
 30
0.0
 10
46.11200784277575
 20
296.8613896833842
 30
0.0
  0
LINE
  5
123
330
1F
100
AcDbEntity
  8
0
  6
CONTINUOUS
 62
     7
100
AcDbLine
 10
46.1120069189
 20
337.6506502137
 30
0.0
 11
46.1120069189
 21
317.2560269341
 31
0.0
  0
SPLINE
  5
124
330
1F
100
AcDbEntity
  8
0
  6
CONTINUOUS
 62
     7
100
AcDbSpline
210
0.0
220
0.0
230
1.0
 70
    24
 71
     3
 72
    10
 73
     6
 74
     0
 42
0.00000001
 43
0.00000001
 40
0.0
 40
0.0
 40
0.0
 40
0.0
 40
0.5
 40
0.5
 40
1.0
 40
1.0
 40
1.0
 40
1.0
 10
43.11200784277572
 20
317.2560178306092
 30
0.0
 10
43.11200784277572
 20
314.7597654349933
 30
0.0
 10
43.11200784277572
 20
312.365564773797
 30
0.0
 10
43.11200784277573
 20
308.8353320052945
 30
0.0
 10
43.11200784277574
 20
307.8436227948089
 30
0.0
 10
43.11200784277575
 20
307.8436245264901
 30
0.0
  0
LINE
  5
125
330
1F
100
AcDbEntity
  8
0
  6
CONTINUOUS
 62
     7
100
AcDbLine
 10
43.1120082898
 20
326.6684050068
 30
0.0
 11
43.1120082898
 21
317.2560269341
 31
0.0
  0
SPLINE
  5
126
330
1F
100
AcDbEntity
  8
0
  6
CONTINUOUS
 62
     7
100
AcDbSpline
210
0.0
220
0.0
230
1.0
 70
    24
 71
     3
 72
    10
 73
     6
 74
     0
 42
0.00000001
 43
0.00000001
 40
0.0
 40
0.0
 40
0.0
 40
0.0
 40
0.2326451344512376
 40
0.5028676739791533
 40
1.0
 40
1.0
 40
1.0
 40
1.0
 10
48.61200826000837
 20
343.2696992859169
 30
0.0
 10
48.61200826000837
 20
343.2046804484366
 30
0.0
 10
48.61200826000837
 20
343.0641407735121
 30
0.0
 10
48.61200826000837
 20
342.7281805415096
 30
0.0
 10
48.61200826000837
 20
342.4416393526948
 30
0.0
 10
48.61200826000837
 20
342.2560030922218
 30
0.0
  0
SPLINE
  5
127
330
1F
100
AcDbEntity
  8
0
  6
CONTINUOUS
 62
     7
100
AcDbSpline
210
0.0
220
0.0
230
1.0
 70
    24
 71
     3
 72
    10
 73
     6
 74
     0
 42
0.00000001
 43
0.00000001
 40
0.0
 40
0.0
 40
0.0
 40
0.0
 40
0.2326484796670958
 40
0.5028867639664774
 40
1.0
 40
1.0
 40
1.0
 40
1.0
 10
48.61200826000837
 20
293.2697022661491
 30
0.0
 10
48.61200826000837
 20
293.2046836326527
 30
0.0
 10
48.61200826000837
 20
293.0641410843269
 30
0.0
 10
48.61200826000837
 20
292.728179542066
 30
0.0
 10
48.61200826000837
 20
292.4416459763697
 30
0.0
 10
48.61200826000837
 20
292.2560209736153
 30
0.0
  0
SPLINE
  5
128
330
1F
100
AcDbEntity
  8
0
  6
CONTINUOUS
 62
     7
100
AcDbSpline
210
0.0
220
0.0
230
1.0
 70
    24
 71
     3
 72
    11
 73
     7
 74
     0
 42
0.00000001
 43
0.00000001
 40
0.0
 40
0.0
 40
0.0
 40
0.0
 40
0.1555548754632307
 40
0.4451563963793984
 40
0.7268255712528252
 40
1.0
 40
1.0
 40
1.0
 40
1.0
 10
46.11200691890394
 20
296.627321313314
 30
0.0
 10
46.11200691890394
 20
296.3994990685118
 30
0.0
 10
46.11200691890395
 20
295.7475328141003
 30
0.0
 10
46.11200691890396
 20
295.0173150135855
 30
0.0
 10
46.11200691890397
 20
294.4592723203503
 30
0.0
 10
46.11200691890397
 20
294.3936834731536
 30
0.0
 10
46.11200691890398
 20
294.3613911375328
 30
0.0
  0
SPLINE
  5
129
330
1F
100
AcDbEntity
  8
0
  6
CONTINUOUS
 62
     7
100
AcDbSpline
210
0.0
220
0.0
230
1.0
 70
    24
 71
     3
 72
    11
 73
     7
 74
     0
 42
0.00000001
 43
0.00000001
 40
0.0
 40
0.0
 40
0.0
 40
0.0
 40
0.2732220856573032
 40
0.5548908150808568
 40
0.8444479350662429
 40
1.0
 40
1.0
 40
1.0
 40
1.0
 10
46.11200691890398
 20
340.1506478294655
 30
0.0
 10
46.11200691890398
 20
340.1183542951809
 30
0.0
 10
46.11200691890397
 20
340.05276887401
 30
0.0
 10
46.11200691890395
 20
339.4946008614659
 30
0.0
 10
46.11200691890395
 20
338.7644318154129
 30
0.0
 10
46.11200691890394
 20
338.1125355034987
 30
0.0
 10
46.11200691890394
 20
337.8847176536843
 30
0.0
  0
SPLINE
  5
12A
330
1F
100
AcDbEntity
  8
0
  6
CONTINUOUS
 62
     7
100
AcDbSpline
210
0.0
220
0.0
230
1.0
 70
    24
 71
     3
 72
    12
 73
     8
 74
     0
 42
0.00000001
 43
0.00000001
 40
0.0
 40
0.0
 40
0.0
 40
0.0
 40
0.0584605202669989
 40
0.3058198162007804
 40
0.5480393656057373
 40
0.7805904671722647
 40
1.0
 40
1.0
 40
1.0
 40
1.0
 10
43.11200828981077
 20
307.6095516189857
 30
0.0
 10
43.11200828981077
 20
307.4252563845512
 30
0.0
 10
43.11200828981077
 20
306.4611675522235
 30
0.0
 10
43.11200828981079
 20
305.1379842453864
 30
0.0
 10
43.11200828981079
 20
303.7835498832
 30
0.0
 10
43.1120082898108
 20
302.9878437812308
 30
0.0
 10
43.11200828981081
 20
302.8907561461043
 30
0.0
 10
43.11200828981081
 20
302.8436238273903
 30
0.0
  0
SPLINE
  5
12B
330
1F
100
AcDbEntity
  8
0
  6
CONTINUOUS
 62
     7
100
AcDbSpline
210
0.0
220
0.0
230
1.0
 70
    24
 71
     3
 72
    13
 73
     9
 74
     0
 42
0.00000001
 43
0.00000001
 40
0.0
 40
0.0
 40
0.0
 40
0.0
 40
0.2193411024760605
 40
0.4518197952209542
 40
0.5730688531031229
 40
0.694275406106808
 40
0.9415576824306281
 40
1.0
 40
1.0
 40
1.0
 40
1.0
 10
43.11200828981081
 20
331.6684002384468
 30
0.0
 10
43.11200828981081
 20
331.6219606559833
 30
0.0
 10
43.1120082898108
 20
331.526299959461
 30
0.0
 10
43.1120082898108
 20
330.8599184814749
 30
0.0
 10
43.11200828981078
 20
330.0773646980666
 30
0.0
 10
43.11200828981078
 20
329.075119542641
 30
0.0
 10
43.11200828981077
 20
328.0512779512554
 30
0.0
 10
43.11200828981077
 20
327.086835314538
 30
0.0
 10
43.11200828981077
 20
326.9024724468513
 30
0.0
  0
LINE
  5
12C
330
1F
100
AcDbEntity
  8
0
  6
CONTINUOUS
 62
     7
100
AcDbLine
 10
73.1120076193
 20
318.7560076222
 30
0.0
 11
64.3120078998
 21
318.7560076222
 31
0.0
  0
LINE
  5
12D
330
1F
100
AcDbEntity
  8
0
  6
CONTINUOUS
 62
     7
100
AcDbLine
 10
73.1120076193
 20
315.7560164437
 30
0.0
 11
64.3120078998
 21
315.7560164437
 31
0.0
  0
LINE
  5
12E
330
1F
100
AcDbEntity
  8
0
  6
CONTINUOUS
 62
     7
100
AcDbLine
 10
51.0771082876
 20
317.2560269341
 30
0.0
 11
51.0771082876
 21
287.3270744786
 31
0.0
  0
LINE
  5
12F
330
1F
100
AcDbEntity
  8
0
  6
CONTINUOUS
 62
     7
100
AcDbLine
 10
51.0771082876
 20
347.1849495873
 30
0.0
 11
51.0771082876
 21
317.2560269341
 31
0.0
  0
LINE
  5
130
330
1F
100
AcDbEntity
  8
0
  6
CONTINUOUS
 62
     7
100
AcDbLine
 10
47.0771085633
 20
317.2560269341
 30
0.0
 11
47.0771085633
 21
295.8619976744
 31
0.0
  0
LINE
  5
131
330
1F
100
AcDbEntity
  8
0
  6
CONTINUOUS
 62
     7
100
AcDbLine
 10
47.0771085633
 20
338.6500412926
 30
0.0
 11
47.0771085633
 21
317.2560269341
 31
0.0
  0
LINE
  5
132
330
1F
100
AcDbEntity
  8
0
  6
CONTINUOUS
 62
     7
100
AcDbLine
 10
43.5945581807
 20
317.2560269341
 30
0.0
 11
43.5945581807
 21
307.3439235195
 31
0.0
  0
LINE
  5
133
330
1F
100
AcDbEntity
  8
0
  6
CONTINUOUS
 62
     7
100
AcDbLine
 10
43.5945581807
 20
327.1681005463
 30
0.0
 11
43.5945581807
 21
317.2560269341
 31
0.0
  0
LINE
  5
134
330
1F
100
AcDbEntity
  8
0
  6
CONTINUOUS
 62
     7
100
AcDbLine
 10
52.0771084515
 20
348.2198650345
 30
0.0
 11
52.0771084515
 21
347.2198779091
 31
0.0
  0
LINE
  5
135
330
1F
100
AcDbEntity
  8
0
  6
CONTINUOUS
 62
     7
100
AcDbLine
 10
52.0771084515
 20
287.2921610579
 30
0.0
 11
52.0771084515
 21
286.2921590313
 31
0.0
  0
LINE
  5
136
330
1F
100
AcDbEntity
  8
0
  6
CONTINUOUS
 62
     7
100
AcDbLine
 10
49.1032818494
 20
342.2560030922
 30
0.0
 11
49.1032818494
 21
340.2759963974
 31
0.0
  0
LINE
  5
137
330
1F
100
AcDbEntity
  8
0
  6
CONTINUOUS
 62
     7
100
AcDbLine
 10
49.1032818494
 20
344.2360395893
 30
0.0
 11
49.1032818494
 21
342.2560030922
 31
0.0
  0
LINE
  5
138
330
1F
100
AcDbEntity
  8
0
  6
CONTINUOUS
 62
     7
100
AcDbLine
 10
49.1032818494
 20
292.2560209736
 30
0.0
 11
49.1032818494
 21
290.2759844765
 31
0.0
  0
LINE
  5
139
330
1F
100
AcDbEntity
  8
0
  6
CONTINUOUS
 62
     7
100
AcDbLine
 10
49.1032818494
 20
294.2360425696
 30
0.0
 11
49.1032818494
 21
292.2560209736
 31
0.0
  0
LINE
  5
13A
330
1F
100
AcDbEntity
  8
0
  6
CONTINUOUS
 62
     7
100
AcDbLine
 10
47.0771085633
 20
295.8619976744
 30
0.0
 11
47.0771085633
 21
293.3620000586
 31
0.0
  0
LINE
  5
13B
330
1F
100
AcDbEntity
  8
0
  6
CONTINUOUS
 62
     7
100
AcDbLine
 10
47.0771085633
 20
341.1500389084
 30
0.0
 11
47.0771085633
 21
338.6500412926
 31
0.0
  0
LINE
  5
13C
330
1F
100
AcDbEntity
  8
0
  6
CONTINUOUS
 62
     7
100
AcDbLine
 10
43.5945581807
 20
307.3439235195
 30
0.0
 11
43.5945581807
 21
302.3439282879
 31
0.0
  0
LINE
  5
13D
330
1F
100
AcDbEntity
  8
0
  6
CONTINUOUS
 62
     7
100
AcDbLine
 10
43.5945581807
 20
332.1680957779
 30
0.0
 11
43.5945581807
 21
327.1681005463
 31
0.0
  0
LINE
  5
13E
330
1F
100
AcDbEntity
  8
0
  6
CONTINUOUS
 62
     7
100
AcDbLine
 10
260.8603282497
 20
426.6864178671
 30
0.0
 11
260.8241929338
 21
427.7213174819
 31
0.0
  0
LINE
  5
13F
330
1F
100
AcDbEntity
  8
0
  6
CONTINUOUS
 62
     7
100
AcDbLine
 10
248.8964690492
 20
427.7213174819
 30
0.0
 11
248.8603337333
 21
426.6864178671
 31
0.0
  0
LINE
  5
140
330
1F
100
AcDbEntity
  8
0
  6
CONTINUOUS
 62
     7
100
AcDbLine
 10
196.8603252099
 20
426.6864178671
 30
0.0
 11
196.824189894
 21
427.7213174819
 31
0.0
  0
LINE
  5
141
330
1F
100
AcDbEntity
  8
0
  6
CONTINUOUS
 62
     7
100
AcDbLine
 10
184.8964660094
 20
427.7213174819
 30
0.0
 11
184.8603306935
 21
426.6864178671
 31
0.0
  0
ARC
  5
142
330
1F
100
AcDbEntity
  8
0
  6
CONTINUOUS
 62
     7
100
AcDbCircle
 10
195.8247975513
 20
427.6864180906
 30
0.0
 40
1.0
100
AcDbArc
 50
1.9999999986
 51
90.0
  0
ARC
  5
143
330
1F
100
AcDbEntity
  8
0
  6
CONTINUOUS
 62
     7
100
AcDbCircle
 10
185.8958581789
 20
427.6864180906
 30
0.0
 40
1.0
100
AcDbArc
 50
90.0
 51
178.0000000014
  0
ARC
  5
144
330
1F
100
AcDbEntity
  8
0
  6
CONTINUOUS
 62
     7
100
AcDbCircle
 10
259.8247975513
 20
427.6864180906
 30
0.0
 40
1.0
100
AcDbArc
 50
1.9999999986
 51
90.0
  0
ARC
  5
145
330
1F
100
AcDbEntity
  8
0
  6
CONTINUOUS
 62
     7
100
AcDbCircle
 10
249.8958581789
 20
427.6864180906
 30
0.0
 40
1.0
100
AcDbArc
 50
90.0
 51
178.0000000014
  0
LINE
  5
146
330
1F
100
AcDbEntity
  8
0
  6
CONTINUOUS
 62
     7
100
AcDbLine
 10
128.9313888774
 20
428.7213176458
 30
0.0
 11
128.8603271023
 21
426.6864178671
 31
0.0
  0
LINE
  5
147
330
1F
100
AcDbEntity
  8
0
  6
CONTINUOUS
 62
     7
100
AcDbLine
 10
316.8603225277
 20
426.6864178671
 30
0.0
 11
316.7892737911
 21
428.7213176458
 31
0.0
  0
ARC
  5
148
330
1F
100
AcDbEntity
  8
0
  6
CONTINUOUS
 62
     7
100
AcDbCircle
 10
315.7898767818
 20
428.6864180906
 30
0.0
 40
1.0
100
AcDbArc
 50
2.0
 51
90.0
  0
ARC
  5
149
330
1F
100
AcDbEntity
  8
0
  6
CONTINUOUS
 62
     7
100
AcDbCircle
 10
257.9307789483
 20
428.6864180906
 30
0.0
 40
1.000000000000013
100
AcDbArc
 50
90.0
 51
178.0
  0
ARC
  5
14A
330
1F
100
AcDbEntity
  8
0
  6
CONTINUOUS
 62
     7
100
AcDbCircle
 10
251.7898767818
 20
428.6864180906
 30
0.0
 40
1.000000000000015
100
AcDbArc
 50
2.0
 51
90.0
  0
ARC
  5
14B
330
1F
100
AcDbEntity
  8
0
  6
CONTINUOUS
 62
     7
100
AcDbCircle
 10
193.9307789483
 20
428.6864180906
 30
0.0
 40
1.000000000000013
100
AcDbArc
 50
90.0
 51
178.0
  0
ARC
  5
14C
330
1F
100
AcDbEntity
  8
0
  6
CONTINUOUS
 62
     7
100
AcDbCircle
 10
187.7898767818
 20
428.6864180906
 30
0.0
 40
1.0
100
AcDbArc
 50
2.0
 51
90.0
  0
ARC
  5
14D
330
1F
100
AcDbEntity
  8
0
  6
CONTINUOUS
 62
     7
100
AcDbCircle
 10
129.9307789483
 20
428.6864180906
 30
0.0
 40
1.000000000000013
100
AcDbArc
 50
90.0
 51
178.0
  0
LINE
  5
14E
330
1F
100
AcDbEntity
  8
0
  6
CONTINUOUS
 62
     7
100
AcDbLine
 10
256.8754150198
 20
428.6864181949
 30
0.0
 11
256.8403525875
 21
430.695144084
 31
0.0
  0
LINE
  5
14F
330
1F
100
AcDbEntity
  8
0
  6
CONTINUOUS
 62
     7
100
AcDbLine
 10
252.8802944944
 20
430.695144084
 30
0.0
 11
252.8452320621
 21
428.6864181949
 31
0.0
  0
LINE
  5
150
330
1F
100
AcDbEntity
  8
0
  6
CONTINUOUS
 62
     7
100
AcDbLine
 10
192.8754194305
 20
428.6864181949
 30
0.0
 11
192.8403569982
 21
430.695144084
 31
0.0
  0
LINE
  5
151
330
1F
100
AcDbEntity
  8
0
  6
CONTINUOUS
 62
     7
100
AcDbLine
 10
188.8802989051
 20
430.695144084
 30
0.0
 11
188.8452364729
 21
428.6864181949
 31
0.0
  0
ARC
  5
152
330
1F
100
AcDbEntity
  8
0
  6
CONTINUOUS
 62
     7
100
AcDbCircle
 10
256.3404314413
 20
430.6864180906
 30
0.0
 40
0.5000000000007243
100
AcDbArc
 50
0.999999998
 51
90.0
  0
ARC
  5
153
330
1F
100
AcDbEntity
  8
0
  6
CONTINUOUS
 62
     7
100
AcDbCircle
 10
253.3802242888
 20
430.6864180906
 30
0.0
 40
0.5000000000006106
100
AcDbArc
 50
90.0
 51
179.000000002
  0
ARC
  5
154
330
1F
100
AcDbEntity
  8
0
  6
CONTINUOUS
 62
     7
100
AcDbCircle
 10
192.3404314413
 20
430.6864180906
 30
0.0
 40
0.500000000000639
100
AcDbArc
 50
0.999999998
 51
90.0
  0
ARC
  5
155
330
1F
100
AcDbEntity
  8
0
  6
CONTINUOUS
 62
     7
100
AcDbCircle
 10
189.3802242888
 20
430.6864180906
 30
0.0
 40
0.500000000000639
100
AcDbArc
 50
90.0
 51
179.000000002
  0
LINE
  5
156
330
1F
100
AcDbEntity
  8
0
  6
CONTINUOUS
 62
     7
100
AcDbLine
 10
246.8603296802
 20
429.6864183589
 30
0.0
 11
246.7543526218
 21
432.7213173701
 31
0.0
  0
LINE
  5
157
330
1F
100
AcDbEntity
  8
0
  6
CONTINUOUS
 62
     7
100
AcDbLine
 10
198.9663063214
 20
432.7213173701
 30
0.0
 11
198.860329263
 21
429.6864183589
 31
0.0
  0
ARC
  5
158
330
1F
100
AcDbEntity
  8
0
  6
CONTINUOUS
 62
     7
100
AcDbCircle
 10
245.7549560123
 20
432.6864180906
 30
0.0
 40
1.000000000000015
100
AcDbArc
 50
2.0
 51
90.0
  0
ARC
  5
159
330
1F
100
AcDbEntity
  8
0
  6
CONTINUOUS
 62
     7
100
AcDbCircle
 10
199.9656997178
 20
432.6864180906
 30
0.0
 40
1.000000000000015
100
AcDbArc
 50
90.0
 51
178.0
  0
LINE
  5
15A
330
1F
100
AcDbEntity
  8
0
  6
CONTINUOUS
 62
     7
100
AcDbLine
 10
180.3603290246
 20
429.6864183589
 30
0.0
 11
180.2543445156
 21
432.7213173701
 31
0.0
  0
LINE
  5
15B
330
1F
100
AcDbEntity
  8
0
  6
CONTINUOUS
 62
     7
100
AcDbLine
 10
137.466308348
 20
432.7213173701
 30
0.0
 11
137.3603275643
 21
429.6864183589
 31
0.0
  0
LINE
  5
15C
330
1F
100
AcDbEntity
  8
0
  6
CONTINUOUS
 62
     7
100
AcDbLine
 10
308.3603276537
 20
429.6864183589
 30
0.0
 11
308.2543505952
 21
432.7213173701
 31
0.0
  0
LINE
  5
15D
330
1F
100
AcDbEntity
  8
0
  6
CONTINUOUS
 62
     7
100
AcDbLine
 10
265.466306977
 20
432.7213173701
 30
0.0
 11
265.3603299186
 21
429.6864183589
 31
0.0
  0
ARC
  5
15E
330
1F
100
AcDbEntity
  8
0
  6
CONTINUOUS
 62
     7
100
AcDbCircle
 10
307.2549560123
 20
432.6864180906
 30
0.0
 40
1.000000000000015
100
AcDbArc
 50
2.0
 51
90.0
  0
ARC
  5
15F
330
1F
100
AcDbEntity
  8
0
  6
CONTINUOUS
 62
     7
100
AcDbCircle
 10
266.4656997178
 20
432.6864180906
 30
0.0
 40
1.000000000000013
100
AcDbArc
 50
90.0
 51
178.0
  0
ARC
  5
160
330
1F
100
AcDbEntity
  8
0
  6
CONTINUOUS
 62
     7
100
AcDbCircle
 10
179.2549560123
 20
432.6864180906
 30
0.0
 40
1.0
100
AcDbArc
 50
2.0
 51
90.0
  0
ARC
  5
161
330
1F
100
AcDbEntity
  8
0
  6
CONTINUOUS
 62
     7
100
AcDbCircle
 10
138.4656997178
 20
432.6864180906
 30
0.0
 40
1.000000000000013
100
AcDbArc
 50
90.0
 51
178.0
  0
LINE
  5
162
330
1F
100
AcDbEntity
  8
0
  6
CONTINUOUS
 62
     7
100
AcDbLine
 10
237.8603263424
 20
433.6864190145
 30
0.0
 11
237.7724094913
 21
436.2038677527
 31
0.0
  0
LINE
  5
163
330
1F
100
AcDbEntity
  8
0
  6
CONTINUOUS
 62
     7
100
AcDbLine
 10
207.9482420013
 20
436.2038677527
 30
0.0
 11
207.8603251503
 21
433.6864190145
 31
0.0
  0
ARC
  5
164
330
1F
100
AcDbEntity
  8
0
  6
CONTINUOUS
 62
     7
100
AcDbCircle
 10
237.2727211692
 20
436.1864180906
 30
0.0
 40
0.5
100
AcDbArc
 50
2.0
 51
90.0
  0
ARC
  5
165
330
1F
100
AcDbEntity
  8
0
  6
CONTINUOUS
 62
     7
100
AcDbCircle
 10
208.4479345609
 20
436.1864180906
 30
0.0
 40
0.5000000000000095
100
AcDbArc
 50
90.0
 51
178.0
  0
LINE
  5
166
330
1F
100
AcDbEntity
  8
0
  6
CONTINUOUS
 62
     7
100
AcDbLine
 10
168.8603280709
 20
433.6864190145
 30
0.0
 11
168.7724186704
 21
436.2038677527
 31
0.0
  0
LINE
  5
167
330
1F
100
AcDbEntity
  8
0
  6
CONTINUOUS
 62
     7
100
AcDbLine
 10
148.9482379184
 20
436.2038677527
 30
0.0
 11
148.8603285179
 21
433.6864190145
 31
0.0
  0
LINE
  5
168
330
1F
100
AcDbEntity
  8
0
  6
CONTINUOUS
 62
     7
100
AcDbLine
 10
296.8603267
 20
433.6864190145
 30
0.0
 11
296.7724098489
 21
436.2038677527
 31
0.0
  0
LINE
  5
169
330
1F
100
AcDbEntity
  8
0
  6
CONTINUOUS
 62
     7
100
AcDbLine
 10
276.9482328222
 20
436.2038677527
 30
0.0
 11
276.8603308723
 21
433.6864190145
 31
0.0
  0
ARC
  5
16A
330
1F
100
AcDbEntity
  8
0
  6
CONTINUOUS
 62
     7
100
AcDbCircle
 10
296.2727211692
 20
436.1864180906
 30
0.0
 40
0.500000000000038
100
AcDbArc
 50
2.0
 51
90.0
  0
ARC
  5
16B
330
1F
100
AcDbEntity
  8
0
  6
CONTINUOUS
 62
     7
100
AcDbCircle
 10
277.4479345609
 20
436.1864180906
 30
0.0
 40
0.500000000000038
100
AcDbArc
 50
90.0
 51
178.0
  0
ARC
  5
16C
330
1F
100
AcDbEntity
  8
0
  6
CONTINUOUS
 62
     7
100
AcDbCircle
 10
168.2727211692
 20
436.1864180906
 30
0.0
 40
0.5
100
AcDbArc
 50
2.0
 51
90.0
  0
ARC
  5
16D
330
1F
100
AcDbEntity
  8
0
  6
CONTINUOUS
 62
     7
100
AcDbCircle
 10
149.4479345609
 20
436.1864180906
 30
0.0
 40
0.5000000000000095
100
AcDbArc
 50
90.0
 51
178.0
  0
LINE
  5
16E
330
1F
100
AcDbEntity
  8
0
  6
CONTINUOUS
 62
     7
100
AcDbLine
 10
126.3603276239
 20
421.6894638694
 30
0.0
 11
126.3603276239
 21
416.6864180906
 31
0.0
  0
LINE
  5
16F
330
1F
100
AcDbEntity
  8
0
  6
CONTINUOUS
 62
     7
100
AcDbLine
 10
126.3603276239
 20
421.6894638694
 30
0.0
 11
319.3603350446
 21
421.6894638694
 31
0.0
  0
LINE
  5
170
330
1F
100
AcDbEntity
  8
0
  6
CONTINUOUS
 62
     7
100
AcDbLine
 10
319.3603350446
 20
416.6864180906
 30
0.0
 11
319.3603350446
 21
421.6894638694
 31
0.0
  0
LINE
  5
171
330
1F
100
AcDbEntity
  8
0
  6
CONTINUOUS
 62
     7
100
AcDbLine
 10
126.3603276239
 20
416.6864180906
 30
0.0
 11
319.3603350446
 21
416.6864180906
 31
0.0
  0
LINE
  5
172
330
1F
100
AcDbEntity
  8
0
  6
CONTINUOUS
 62
     7
100
AcDbLine
 10
114.8603276015
 20
416.6864180906
 30
0.0
 11
115.0350381286
 21
421.6894638694
 31
0.0
  0
LINE
  5
173
330
1F
100
AcDbEntity
  8
0
  6
CONTINUOUS
 62
     7
100
AcDbLine
 10
115.0350381286
 20
421.6894638694
 30
0.0
 11
126.3603276239
 21
421.6894638694
 31
0.0
  0
LINE
  5
174
330
1F
100
AcDbEntity
  8
0
  6
CONTINUOUS
 62
     7
100
AcDbLine
 10
114.8603276015
 20
416.6864180906
 30
0.0
 11
126.3603276239
 21
416.6864180906
 31
0.0
  0
LINE
  5
175
330
1F
100
AcDbEntity
  8
0
  6
CONTINUOUS
 62
     7
100
AcDbLine
 10
319.3603350446
 20
421.6894638694
 30
0.0
 11
330.6856198833
 21
421.6894638694
 31
0.0
  0
LINE
  5
176
330
1F
100
AcDbEntity
  8
0
  6
CONTINUOUS
 62
     7
100
AcDbLine
 10
330.6856198833
 20
421.6894638694
 30
0.0
 11
330.8603210971
 21
416.6864180906
 31
0.0
  0
LINE
  5
177
330
1F
100
AcDbEntity
  8
0
  6
CONTINUOUS
 62
     7
100
AcDbLine
 10
319.3603350446
 20
416.6864180906
 30
0.0
 11
330.8603210971
 21
416.6864180906
 31
0.0
  0
LINE
  5
178
330
1F
100
AcDbEntity
  8
0
  6
CONTINUOUS
 62
     7
100
AcDbLine
 10
319.3603350446
 20
424.186417923
 30
0.0
 11
312.0302005336
 21
424.186417923
 31
0.0
  0
LINE
  5
179
330
1F
100
AcDbEntity
  8
0
  6
CONTINUOUS
 62
     7
100
AcDbLine
 10
319.3603350446
 20
421.6894638694
 30
0.0
 11
319.3603350446
 21
424.186417923
 31
0.0
  0
LINE
  5
17A
330
1F
100
AcDbEntity
  8
0
  6
CONTINUOUS
 62
     7
100
AcDbLine
 10
126.3603276239
 20
424.186417923
 30
0.0
 11
126.3603276239
 21
421.6894638694
 31
0.0
  0
LINE
  5
17B
330
1F
100
AcDbEntity
  8
0
  6
CONTINUOUS
 62
     7
100
AcDbLine
 10
133.6904546843
 20
424.186417923
 30
0.0
 11
126.3603276239
 21
424.186417923
 31
0.0
  0
LINE
  5
17C
330
1F
100
AcDbEntity
  8
0
  6
CONTINUOUS
 62
     7
100
AcDbLine
 10
134.3603289352
 20
426.6864178671
 30
0.0
 11
133.6904546843
 21
424.186417923
 31
0.0
  0
LINE
  5
17D
330
1F
100
AcDbEntity
  8
0
  6
CONTINUOUS
 62
     7
100
AcDbLine
 10
134.3603289352
 20
426.6864178671
 30
0.0
 11
311.3603337333
 21
426.6864178671
 31
0.0
  0
LINE
  5
17E
330
1F
100
AcDbEntity
  8
0
  6
CONTINUOUS
 62
     7
100
AcDbLine
 10
312.0302005336
 20
424.186417923
 30
0.0
 11
311.3603337333
 21
426.6864178671
 31
0.0
  0
LINE
  5
17F
330
1F
100
AcDbEntity
  8
0
  6
CONTINUOUS
 62
     7
100
AcDbLine
 10
115.0350381286
 20
421.6894638694
 30
0.0
 11
117.5319931135
 21
424.186417923
 31
0.0
  0
LINE
  5
180
330
1F
100
AcDbEntity
  8
0
  6
CONTINUOUS
 62
     7
100
AcDbLine
 10
117.5319931135
 20
424.186417923
 30
0.0
 11
126.3603276239
 21
424.186417923
 31
0.0
  0
LINE
  5
181
330
1F
100
AcDbEntity
  8
0
  6
CONTINUOUS
 62
     7
100
AcDbLine
 10
328.1886621044
 20
424.186417923
 30
0.0
 11
319.3603350446
 21
424.186417923
 31
0.0
  0
LINE
  5
182
330
1F
100
AcDbEntity
  8
0
  6
CONTINUOUS
 62
     7
100
AcDbLine
 10
328.1886621044
 20
424.186417923
 30
0.0
 11
330.6856198833
 21
421.6894638694
 31
0.0
  0
LINE
  5
183
330
1F
100
AcDbEntity
  8
0
  6
CONTINUOUS
 62
     7
100
AcDbLine
 10
126.3603276239
 20
416.6864180906
 30
0.0
 11
126.3603276239
 21
415.4864180336
 31
0.0
  0
LINE
  5
184
330
1F
100
AcDbEntity
  8
0
  6
CONTINUOUS
 62
     7
100
AcDbLine
 10
319.3603350446
 20
415.4864180336
 30
0.0
 11
319.3603350446
 21
416.6864180906
 31
0.0
  0
LINE
  5
185
330
1F
100
AcDbEntity
  8
0
  6
CONTINUOUS
 62
     7
100
AcDbLine
 10
126.3603276239
 20
415.4864180336
 30
0.0
 11
319.3603350446
 21
415.4864180336
 31
0.0
  0
LINE
  5
186
330
1F
100
AcDbEntity
  8
0
  6
CONTINUOUS
 62
     7
100
AcDbLine
 10
116.6232178584
 20
415.4864180336
 30
0.0
 11
126.3603276239
 21
415.4864180336
 31
0.0
  0
LINE
  5
187
330
1F
100
AcDbEntity
  8
0
  6
CONTINUOUS
 62
     7
100
AcDbLine
 10
116.6232178584
 20
415.4864180336
 30
0.0
 11
116.5603275076
 21
416.6864180906
 31
0.0
  0
LINE
  5
188
330
1F
100
AcDbEntity
  8
0
  6
CONTINUOUS
 62
     7
100
AcDbLine
 10
329.0974392221
 20
415.4864180336
 30
0.0
 11
329.1603221223
 21
416.6864180906
 31
0.0
  0
LINE
  5
189
330
1F
100
AcDbEntity
  8
0
  6
CONTINUOUS
 62
     7
100
AcDbLine
 10
319.3603350446
 20
415.4864180336
 30
0.0
 11
329.0974392221
 21
415.4864180336
 31
0.0
  0
LINE
  5
18A
330
1F
100
AcDbEntity
  8
0
  6
CONTINUOUS
 62
     7
100
AcDbLine
 10
156.3603288159
 20
406.6864183142
 30
0.0
 11
289.3603338525
 21
406.6864183142
 31
0.0
  0
LINE
  5
18B
330
1F
100
AcDbEntity
  8
0
  6
CONTINUOUS
 62
     7
100
AcDbLine
 10
126.7095363364
 20
406.6864183142
 30
0.0
 11
156.3603288159
 21
406.6864183142
 31
0.0
  0
LINE
  5
18C
330
1F
100
AcDbEntity
  8
0
  6
CONTINUOUS
 62
     7
100
AcDbLine
 10
126.7095363364
 20
406.6864183142
 30
0.0
 11
126.4022334144
 21
415.4864180336
 31
0.0
  0
LINE
  5
18D
330
1F
100
AcDbEntity
  8
0
  6
CONTINUOUS
 62
     7
100
AcDbLine
 10
319.0111263321
 20
406.6864183142
 30
0.0
 11
319.3184180782
 21
415.4864180336
 31
0.0
  0
LINE
  5
18E
330
1F
100
AcDbEntity
  8
0
  6
CONTINUOUS
 62
     7
100
AcDbLine
 10
289.3603338525
 20
406.6864183142
 30
0.0
 11
319.0111263321
 21
406.6864183142
 31
0.0
  0
LINE
  5
18F
330
1F
100
AcDbEntity
  8
0
  6
CONTINUOUS
 62
     7
100
AcDbLine
 10
126.3603276239
 20
424.186417923
 30
0.0
 11
126.3603276239
 21
426.6864178671
 31
0.0
  0
LINE
  5
190
330
1F
100
AcDbEntity
  8
0
  6
CONTINUOUS
 62
     7
100
AcDbLine
 10
126.3603276239
 20
426.6864178671
 30
0.0
 11
134.3603289352
 21
426.6864178671
 31
0.0
  0
LINE
  5
191
330
1F
100
AcDbEntity
  8
0
  6
CONTINUOUS
 62
     7
100
AcDbLine
 10
319.3603350446
 20
424.186417923
 30
0.0
 11
319.3603350446
 21
426.6864178671
 31
0.0
  0
LINE
  5
192
330
1F
100
AcDbEntity
  8
0
  6
CONTINUOUS
 62
     7
100
AcDbLine
 10
311.3603337333
 20
426.6864178671
 30
0.0
 11
319.3603350446
 21
426.6864178671
 31
0.0
  0
SPLINE
  5
193
330
1F
100
AcDbEntity
  8
0
  6
CONTINUOUS
 62
     7
100
AcDbSpline
210
0.0
220
0.0
230
1.0
 70
    24
 71
     3
 72
    12
 73
     8
 74
     0
 42
0.00000001
 43
0.00000001
 40
0.0
 40
0.0
 40
0.0
 40
0.0
 40
0.3333333333333333
 40
0.3333333333333333
 40
0.6666666666666666
 40
0.6666666666666666
 40
0.9999999999999999
 40
0.9999999999999999
 40
0.9999999999999999
 40
0.9999999999999999
 10
195.8247975512736
 20
428.6864180906389
 30
0.0
 10
195.8247975512736
 20
428.6864180906389
 30
0.0
 10
194.8783503265284
 20
428.6864180906389
 30
0.0
 10
191.8067732751909
 20
428.6864180906389
 30
0.0
 10
189.9138791716468
 20
428.6864180906389
 30
0.0
 10
186.8423032430356
 20
428.6864180906389
 30
0.0
 10
185.8958570561296
 20
428.6864180906389
 30
0.0
 10
185.8958581788558
 20
428.6864180906389
 30
0.0
  0
SPLINE
  5
194
330
1F
100
AcDbEntity
  8
0
  6
CONTINUOUS
 62
     7
100
AcDbSpline
210
0.0
220
0.0
230
1.0
 70
    24
 71
     3
 72
    12
 73
     8
 74
     0
 42
0.00000001
 43
0.00000001
 40
0.0
 40
0.0
 40
0.0
 40
0.0
 40
0.3333333333333334
 40
0.3333333333333334
 40
0.6666666666666669
 40
0.6666666666666669
 40
0.9999999999999999
 40
0.9999999999999999
 40
0.9999999999999999
 40
0.9999999999999999
 10
259.8247975512737
 20
428.6864180906389
 30
0.0
 10
259.8247975512737
 20
428.6864180906389
 30
0.0
 10
258.8783503265282
 20
428.6864180906389
 30
0.0
 10
255.80677327519
 20
428.6864180906389
 30
0.0
 10
253.9138791716457
 20
428.6864180906389
 30
0.0
 10
250.8423032430345
 20
428.6864180906389
 30
0.0
 10
249.8958570561289
 20
428.6864180906389
 30
0.0
 10
249.8958581788558
 20
428.6864180906389
 30
0.0
  0
SPLINE
  5
195
330
1F
100
AcDbEntity
  8
0
  6
CONTINUOUS
 62
     7
100
AcDbSpline
210
0.0
220
0.0
230
1.0
 70
    24
 71
     3
 72
    12
 73
     8
 74
     0
 42
0.00000001
 43
0.00000001
 40
0.0
 40
0.0
 40
0.0
 40
0.0
 40
0.3333333333333333
 40
0.3333333333333333
 40
0.6666666666666666
 40
0.6666666666666666
 40
1.0
 40
1.0
 40
1.0
 40
1.0
 10
315.7898767817819
 20
429.6864180906389
 30
0.0
 10
315.7898767817819
 20
429.6864180906389
 30
0.0
 10
310.2746279736982
 20
429.6864180906389
 30
0.0
 10
292.3755714172372
 20
429.6864180906389
 30
0.0
 10
281.3450748030781
 20
429.6864180906389
 30
0.0
 10
263.4460214985119
 20
429.6864180906389
 30
0.0
 10
257.9307756964536
 20
429.6864180906389
 30
0.0
 10
257.930778948348
 20
429.6864180906389
 30
0.0
  0
SPLINE
  5
196
330
1F
100
AcDbEntity
  8
0
  6
CONTINUOUS
 62
     7
100
AcDbSpline
210
0.0
220
0.0
230
1.0
 70
    24
 71
     3
 72
    12
 73
     8
 74
     0
 42
0.00000001
 43
0.00000001
 40
0.0
 40
0.0
 40
0.0
 40
0.0
 40
0.3333333333333334
 40
0.3333333333333334
 40
0.6666666666666669
 40
0.6666666666666669
 40
1.0
 40
1.0
 40
1.0
 40
1.0
 10
251.7898767817819
 20
429.6864180906389
 30
0.0
 10
251.7898767817819
 20
429.6864180906389
 30
0.0
 10
246.2746279736979
 20
429.6864180906389
 30
0.0
 10
228.3755714172365
 20
429.6864180906389
 30
0.0
 10
217.3450748030773
 20
429.6864180906389
 30
0.0
 10
199.446021498511
 20
429.6864180906389
 30
0.0
 10
193.9307756964531
 20
429.6864180906389
 30
0.0
 10
193.930778948348
 20
429.6864180906389
 30
0.0
  0
SPLINE
  5
197
330
1F
100
AcDbEntity
  8
0
  6
CONTINUOUS
 62
     7
100
AcDbSpline
210
0.0
220
0.0
230
1.0
 70
    24
 71
     3
 72
    12
 73
     8
 74
     0
 42
0.00000001
 43
0.00000001
 40
0.0
 40
0.0
 40
0.0
 40
0.0
 40
0.3333333333333334
 40
0.3333333333333334
 40
0.6666666666666669
 40
0.6666666666666669
 40
0.9999999999999999
 40
0.9999999999999999
 40
0.9999999999999999
 40
0.9999999999999999
 10
187.7898767817819
 20
429.6864180906389
 30
0.0
 10
187.7898767817819
 20
429.6864180906389
 30
0.0
 10
182.274627973698
 20
429.6864180906389
 30
0.0
 10
164.3755714172367
 20
429.6864180906389
 30
0.0
 10
153.3450748030775
 20
429.6864180906389
 30
0.0
 10
135.4460214985113
 20
429.6864180906389
 30
0.0
 10
129.9307756964532
 20
429.6864180906389
 30
0.0
 10
129.930778948348
 20
429.6864180906389
 30
0.0
  0
SPLINE
  5
198
330
1F
100
AcDbEntity
  8
0
  6
CONTINUOUS
 62
     7
100
AcDbSpline
210
0.0
220
0.0
230
1.0
 70
    24
 71
     3
 72
    12
 73
     8
 74
     0
 42
0.00000001
 43
0.00000001
 40
0.0
 40
0.0
 40
0.0
 40
0.0
 40
0.3333333333333334
 40
0.3333333333333334
 40
0.6666666666666667
 40
0.6666666666666667
 40
1.0
 40
1.0
 40
1.0
 40
1.0
 10
256.3404314413294
 20
431.1864180906389
 30
0.0
 10
256.3404314413294
 20
431.1864180906389
 30
0.0
 10
256.0582580388601
 20
431.1864180906389
 30
0.0
 10
255.1424994529117
 20
431.1864180906389
 30
0.0
 10
254.5781529939203
 20
431.1864180906389
 30
0.0
 10
253.6623955307012
 20
431.1864180906389
 30
0.0
 10
253.3802231660738
 20
431.1864180906389
 30
0.0
 10
253.3802242888024
 20
431.1864180906389
 30
0.0
  0
SPLINE
  5
199
330
1F
100
AcDbEntity
  8
0
  6
CONTINUOUS
 62
     7
100
AcDbSpline
210
0.0
220
0.0
230
1.0
 70
    24
 71
     3
 72
    12
 73
     8
 74
     0
 42
0.00000001
 43
0.00000001
 40
0.0
 40
0.0
 40
0.0
 40
0.0
 40
0.3333333333333332
 40
0.3333333333333332
 40
0.6666666666666664
 40
0.6666666666666664
 40
1.0
 40
1.0
 40
1.0
 40
1.0
 10
192.3404314413294
 20
431.1864180906389
 30
0.0
 10
192.3404314413294
 20
431.1864180906389
 30
0.0
 10
192.0582580388608
 20
431.1864180906389
 30
0.0
 10
191.1424994529146
 20
431.1864180906389
 30
0.0
 10
190.5781529939242
 20
431.1864180906389
 30
0.0
 10
189.6623955307049
 20
431.1864180906389
 30
0.0
 10
189.3802231660761
 20
431.1864180906389
 30
0.0
 10
189.3802242888024
 20
431.1864180906389
 30
0.0
  0
SPLINE
  5
19A
330
1F
100
AcDbEntity
  8
0
  6
CONTINUOUS
 62
     7
100
AcDbSpline
210
0.0
220
0.0
230
1.0
 70
    24
 71
     3
 72
    12
 73
     8
 74
     0
 42
0.00000001
 43
0.00000001
 40
0.0
 40
0.0
 40
0.0
 40
0.0
 40
0.3333333333333334
 40
0.3333333333333334
 40
0.6666666666666669
 40
0.6666666666666669
 40
0.9999999999999999
 40
0.9999999999999999
 40
0.9999999999999999
 40
0.9999999999999999
 10
245.7549560122902
 20
433.6864180906389
 30
0.0
 10
245.7549560122902
 20
433.6864180906389
 30
0.0
 10
241.3902292102749
 20
433.6864180906389
 30
0.0
 10
227.2250494111726
 20
433.6864180906389
 30
0.0
 10
218.4955968091498
 20
433.6864180906389
 30
0.0
 10
204.33042026194
 20
433.6864180906389
 30
0.0
 10
199.9656964659481
 20
433.6864180906389
 30
0.0
 10
199.9656997178401
 20
433.6864180906389
 30
0.0
  0
LINE
  5
19B
330
1F
100
AcDbEntity
  8
0
  6
CONTINUOUS
 62
     7
100
AcDbLine
 10
325.6886644886
 20
426.6864178671
 30
0.0
 11
328.1886621044
 21
424.186417923
 31
0.0
  0
LINE
  5
19C
330
1F
100
AcDbEntity
  8
0
  6
CONTINUOUS
 62
     7
100
AcDbLine
 10
319.3603350446
 20
426.6864178671
 30
0.0
 11
325.6886644886
 21
426.6864178671
 31
0.0
  0
LINE
  5
19D
330
1F
100
AcDbEntity
  8
0
  6
CONTINUOUS
 62
     7
100
AcDbLine
 10
117.5319931135
 20
424.186417923
 30
0.0
 11
120.031992592
 21
426.6864178671
 31
0.0
  0
LINE
  5
19E
330
1F
100
AcDbEntity
  8
0
  6
CONTINUOUS
 62
     7
100
AcDbLine
 10
120.031992592
 20
426.6864178671
 30
0.0
 11
126.3603276239
 21
426.6864178671
 31
0.0
  0
SPLINE
  5
19F
330
1F
100
AcDbEntity
  8
0
  6
CONTINUOUS
 62
     7
100
AcDbSpline
210
0.0
220
0.0
230
1.0
 70
    24
 71
     3
 72
    12
 73
     8
 74
     0
 42
0.00000001
 43
0.00000001
 40
0.0
 40
0.0
 40
0.0
 40
0.0
 40
0.3333333333333333
 40
0.3333333333333333
 40
0.6666666666666665
 40
0.6666666666666665
 40
1.0
 40
1.0
 40
1.0
 40
1.0
 10
307.2549560122902
 20
433.6864180906389
 30
0.0
 10
307.2549560122902
 20
433.6864180906389
 30
0.0
 10
303.3668394467691
 20
433.6864180906389
 30
0.0
 10
290.7484391746801
 20
433.6864180906389
 30
0.0
 10
282.9722070456454
 20
433.6864180906389
 30
0.0
 10
270.3538100254478
 20
433.6864180906389
 30
0.0
 10
266.4656964659493
 20
433.6864180906389
 30
0.0
 10
266.4656997178403
 20
433.6864180906389
 30
0.0
  0
SPLINE
  5
1A0
330
1F
100
AcDbEntity
  8
0
  6
CONTINUOUS
 62
     7
100
AcDbSpline
210
0.0
220
0.0
230
1.0
 70
    24
 71
     3
 72
    12
 73
     8
 74
     0
 42
0.00000001
 43
0.00000001
 40
0.0
 40
0.0
 40
0.0
 40
0.0
 40
0.3333333333333334
 40
0.3333333333333334
 40
0.6666666666666669
 40
0.6666666666666669
 40
1.0
 40
1.0
 40
1.0
 40
1.0
 10
179.2549560122901
 20
433.6864180906389
 30
0.0
 10
179.2549560122901
 20
433.6864180906389
 30
0.0
 10
175.3668394467689
 20
433.6864180906389
 30
0.0
 10
162.7484391746798
 20
433.6864180906389
 30
0.0
 10
154.972207045645
 20
433.6864180906389
 30
0.0
 10
142.3538100254475
 20
433.6864180906389
 30
0.0
 10
138.4656964659491
 20
433.6864180906389
 30
0.0
 10
138.4656997178404
 20
433.6864180906389
 30
0.0
  0
SPLINE
  5
1A1
330
1F
100
AcDbEntity
  8
0
  6
CONTINUOUS
 62
     7
100
AcDbSpline
210
0.0
220
0.0
230
1.0
 70
    24
 71
     3
 72
    12
 73
     8
 74
     0
 42
0.00000001
 43
0.00000001
 40
0.0
 40
0.0
 40
0.0
 40
0.0
 40
0.3333333333333334
 40
0.3333333333333334
 40
0.6666666666666669
 40
0.6666666666666669
 40
1.0
 40
1.0
 40
1.0
 40
1.0
 10
237.2727211691855
 20
436.6864180906388
 30
0.0
 10
237.2727211691855
 20
436.6864180906389
 30
0.0
 10
234.5250823489984
 20
436.6864180906389
 30
0.0
 10
225.6079614293485
 20
436.6864180906389
 30
0.0
 10
220.1126847909817
 20
436.6864180906389
 30
0.0
 10
211.195567123222
 20
436.6864180906389
 30
0.0
 10
208.4479313090563
 20
436.6864180906389
 30
0.0
 10
208.4479345609459
 20
436.6864180906388
 30
0.0
  0
SPLINE
  5
1A2
330
1F
100
AcDbEntity
  8
0
  6
CONTINUOUS
 62
     7
100
AcDbSpline
210
0.0
220
0.0
230
1.0
 70
    24
 71
     3
 72
    12
 73
     8
 74
     0
 42
0.00000001
 43
0.00000001
 40
0.0
 40
0.0
 40
0.0
 40
0.0
 40
0.3333333333333334
 40
0.3333333333333334
 40
0.6666666666666669
 40
0.6666666666666669
 40
1.0
 40
1.0
 40
1.0
 40
1.0
 10
296.2727211691854
 20
436.6864180906388
 30
0.0
 10
296.2727211691854
 20
436.6864180906389
 30
0.0
 10
294.4783028219878
 20
436.6864180906389
 30
0.0
 10
288.654740956367
 20
436.6864180906389
 30
0.0
 10
285.0659052639778
 20
436.6864180906389
 30
0.0
 10
279.2423466502428
 20
436.6864180906389
 30
0.0
 10
277.4479313090625
 20
436.6864180906389
 30
0.0
 10
277.4479345609474
 20
436.6864180906388
 30
0.0
  0
SPLINE
  5
1A3
330
1F
100
AcDbEntity
  8
0
  6
CONTINUOUS
 62
     7
100
AcDbSpline
210
0.0
220
0.0
230
1.0
 70
    24
 71
     3
 72
    12
 73
     8
 74
     0
 42
0.00000001
 43
0.00000001
 40
0.0
 40
0.0
 40
0.0
 40
0.0
 40
0.3333333333333332
 40
0.3333333333333332
 40
0.6666666666666664
 40
0.6666666666666664
 40
1.0
 40
1.0
 40
1.0
 40
1.0
 10
168.2727211691854
 20
436.6864180906388
 30
0.0
 10
168.2727211691854
 20
436.6864180906389
 30
0.0
 10
166.4783028219872
 20
436.6864180906389
 30
0.0
 10
160.6547409563648
 20
436.6864180906389
 30
0.0
 10
157.0659052639748
 20
436.6864180906389
 30
0.0
 10
151.2423466502401
 20
436.6864180906389
 30
0.0
 10
149.4479313090607
 20
436.6864180906389
 30
0.0
 10
149.4479345609474
 20
436.6864180906388
 30
0.0
  0
LINE
  5
1A4
330
1F
100
AcDbEntity
  8
0
  6
CONTINUOUS
 62
     7
100
AcDbLine
 10
289.3603338525
 20
406.6864183142
 30
0.0
 11
289.3603338525
 21
415.4864180336
 31
0.0
  0
LINE
  5
1A5
330
1F
100
AcDbEntity
  8
0
  6
CONTINUOUS
 62
     7
100
AcDbLine
 10
156.3603288159
 20
406.6864183142
 30
0.0
 11
156.3603288159
 21
415.4864180336
 31
0.0
  0
LINE
  5
1A6
330
1F
100
AcDbEntity
  8
0
  6
CONTINUOUS
 62
     7
100
AcDbLine
 10
260.8241929338
 20
427.7213174819
 30
0.0
 11
248.8964690492
 21
427.7213174819
 31
0.0
  0
LINE
  5
1A7
330
1F
100
AcDbEntity
  8
0
  6
CONTINUOUS
 62
     7
100
AcDbLine
 10
196.824189894
 20
427.7213174819
 30
0.0
 11
184.8964660094
 21
427.7213174819
 31
0.0
  0
LINE
  5
1A8
330
1F
100
AcDbEntity
  8
0
  6
CONTINUOUS
 62
     7
100
AcDbLine
 10
249.7683955953
 20
428.7213176458
 30
0.0
 11
195.9937630818
 21
428.7213176458
 31
0.0
  0
LINE
  5
1A9
330
1F
100
AcDbEntity
  8
0
  6
CONTINUOUS
 62
     7
100
AcDbLine
 10
185.7684000061
 20
428.7213176458
 30
0.0
 11
128.9313888774
 21
428.7213176458
 31
0.0
  0
LINE
  5
1AA
330
1F
100
AcDbEntity
  8
0
  6
CONTINUOUS
 62
     7
100
AcDbLine
 10
316.7892737911
 20
428.7213176458
 30
0.0
 11
259.9937661216
 21
428.7213176458
 31
0.0
  0
LINE
  5
1AB
330
1F
100
AcDbEntity
  8
0
  6
CONTINUOUS
 62
     7
100
AcDbLine
 10
256.8403525875
 20
430.695144084
 30
0.0
 11
252.8802944944
 21
430.695144084
 31
0.0
  0
LINE
  5
1AC
330
1F
100
AcDbEntity
  8
0
  6
CONTINUOUS
 62
     7
100
AcDbLine
 10
192.8403569982
 20
430.695144084
 30
0.0
 11
188.8802989051
 21
430.695144084
 31
0.0
  0
LINE
  5
1AD
330
1F
100
AcDbEntity
  8
0
  6
CONTINUOUS
 62
     7
100
AcDbLine
 10
246.7543526218
 20
432.7213173701
 30
0.0
 11
198.9663063214
 21
432.7213173701
 31
0.0
  0
LINE
  5
1AE
330
1F
100
AcDbEntity
  8
0
  6
CONTINUOUS
 62
     7
100
AcDbLine
 10
180.2543445156
 20
432.7213173701
 30
0.0
 11
137.466308348
 21
432.7213173701
 31
0.0
  0
LINE
  5
1AF
330
1F
100
AcDbEntity
  8
0
  6
CONTINUOUS
 62
     7
100
AcDbLine
 10
308.2543505952
 20
432.7213173701
 30
0.0
 11
265.466306977
 21
432.7213173701
 31
0.0
  0
LINE
  5
1B0
330
1F
100
AcDbEntity
  8
0
  6
CONTINUOUS
 62
     7
100
AcDbLine
 10
237.7724094913
 20
436.2038677527
 30
0.0
 11
207.9482420013
 21
436.2038677527
 31
0.0
  0
LINE
  5
1B1
330
1F
100
AcDbEntity
  8
0
  6
CONTINUOUS
 62
     7
100
AcDbLine
 10
168.7724186704
 20
436.2038677527
 30
0.0
 11
148.9482379184
 21
436.2038677527
 31
0.0
  0
LINE
  5
1B2
330
1F
100
AcDbEntity
  8
0
  6
CONTINUOUS
 62
     7
100
AcDbLine
 10
296.7724098489
 20
436.2038677527
 30
0.0
 11
276.9482328222
 21
436.2038677527
 31
0.0
  0
LINE
  5
1B3
330
1F
100
AcDbEntity
  8
0
  6
CONTINUOUS
 62
     7
100
AcDbLine
 10
248.8603337333
 20
178.1167916425
 30
0.0
 11
248.8964690492
 21
177.0818920278
 31
0.0
  0
LINE
  5
1B4
330
1F
100
AcDbEntity
  8
0
  6
CONTINUOUS
 62
     7
100
AcDbLine
 10
260.8241929338
 20
177.0818920278
 30
0.0
 11
260.8603282497
 21
178.1167916425
 31
0.0
  0
LINE
  5
1B5
330
1F
100
AcDbEntity
  8
0
  6
CONTINUOUS
 62
     7
100
AcDbLine
 10
184.8603306935
 20
178.1167916425
 30
0.0
 11
184.8964660094
 21
177.0818920278
 31
0.0
  0
LINE
  5
1B6
330
1F
100
AcDbEntity
  8
0
  6
CONTINUOUS
 62
     7
100
AcDbLine
 10
196.824189894
 20
177.0818920278
 30
0.0
 11
196.8603252099
 21
178.1167916425
 31
0.0
  0
ARC
  5
1B7
330
1F
100
AcDbEntity
  8
0
  6
CONTINUOUS
 62
     7
100
AcDbCircle
 10
185.8958581789
 20
177.116791419
 30
0.0
 40
1.0
100
AcDbArc
 50
181.9999999986
 51
270.0
  0
ARC
  5
1B8
330
1F
100
AcDbEntity
  8
0
  6
CONTINUOUS
 62
     7
100
AcDbCircle
 10
195.8247975513
 20
177.116791419
 30
0.0
 40
1.0
100
AcDbArc
 50
270.0
 51
358.0000000014
  0
ARC
  5
1B9
330
1F
100
AcDbEntity
  8
0
  6
CONTINUOUS
 62
     7
100
AcDbCircle
 10
249.8958581789
 20
177.116791419
 30
0.0
 40
1.0
100
AcDbArc
 50
181.9999999986
 51
270.0
  0
ARC
  5
1BA
330
1F
100
AcDbEntity
  8
0
  6
CONTINUOUS
 62
     7
100
AcDbCircle
 10
259.8247975513
 20
177.116791419
 30
0.0
 40
1.0
100
AcDbArc
 50
270.0
 51
358.0000000014
  0
LINE
  5
1BB
330
1F
100
AcDbEntity
  8
0
  6
CONTINUOUS
 62
     7
100
AcDbLine
 10
128.8603271023
 20
178.1167916425
 30
0.0
 11
128.9313888774
 21
176.0818918639
 31
0.0
  0
LINE
  5
1BC
330
1F
100
AcDbEntity
  8
0
  6
CONTINUOUS
 62
     7
100
AcDbLine
 10
316.7892737911
 20
176.0818918639
 30
0.0
 11
316.8603225277
 21
178.1167916425
 31
0.0
  0
ARC
  5
1BD
330
1F
100
AcDbEntity
  8
0
  6
CONTINUOUS
 62
     7
100
AcDbCircle
 10
257.9307789483
 20
176.116791419
 30
0.0
 40
1.000000000000014
100
AcDbArc
 50
182.0
 51
270.0
  0
ARC
  5
1BE
330
1F
100
AcDbEntity
  8
0
  6
CONTINUOUS
 62
     7
100
AcDbCircle
 10
315.7898767818
 20
176.116791419
 30
0.0
 40
1.0
100
AcDbArc
 50
270.0
 51
358.0
  0
ARC
  5
1BF
330
1F
100
AcDbEntity
  8
0
  6
CONTINUOUS
 62
     7
100
AcDbCircle
 10
193.9307789483
 20
176.116791419
 30
0.0
 40
1.000000000000014
100
AcDbArc
 50
182.0
 51
270.0
  0
ARC
  5
1C0
330
1F
100
AcDbEntity
  8
0
  6
CONTINUOUS
 62
     7
100
AcDbCircle
 10
251.7898767818
 20
176.116791419
 30
0.0
 40
1.000000000000015
100
AcDbArc
 50
270.0
 51
358.0
  0
ARC
  5
1C1
330
1F
100
AcDbEntity
  8
0
  6
CONTINUOUS
 62
     7
100
AcDbCircle
 10
129.9307789483
 20
176.116791419
 30
0.0
 40
1.000000000000014
100
AcDbArc
 50
182.0
 51
270.0
  0
ARC
  5
1C2
330
1F
100
AcDbEntity
  8
0
  6
CONTINUOUS
 62
     7
100
AcDbCircle
 10
187.7898767818
 20
176.116791419
 30
0.0
 40
1.0
100
AcDbArc
 50
270.0
 51
358.0
  0
LINE
  5
1C3
330
1F
100
AcDbEntity
  8
0
  6
CONTINUOUS
 62
     7
100
AcDbLine
 10
252.8452320621
 20
176.1167913147
 30
0.0
 11
252.8802944944
 21
174.1080654257
 31
0.0
  0
LINE
  5
1C4
330
1F
100
AcDbEntity
  8
0
  6
CONTINUOUS
 62
     7
100
AcDbLine
 10
256.8403525875
 20
174.1080654257
 30
0.0
 11
256.8754150198
 21
176.1167913147
 31
0.0
  0
LINE
  5
1C5
330
1F
100
AcDbEntity
  8
0
  6
CONTINUOUS
 62
     7
100
AcDbLine
 10
188.8452364729
 20
176.1167913147
 30
0.0
 11
188.8802989051
 21
174.1080654257
 31
0.0
  0
LINE
  5
1C6
330
1F
100
AcDbEntity
  8
0
  6
CONTINUOUS
 62
     7
100
AcDbLine
 10
192.8403569982
 20
174.1080654257
 30
0.0
 11
192.8754194305
 21
176.1167913147
 31
0.0
  0
ARC
  5
1C7
330
1F
100
AcDbEntity
  8
0
  6
CONTINUOUS
 62
     7
100
AcDbCircle
 10
253.3802242888
 20
174.116791419
 30
0.0
 40
0.5000000000006106
100
AcDbArc
 50
180.999999998
 51
270.0
  0
ARC
  5
1C8
330
1F
100
AcDbEntity
  8
0
  6
CONTINUOUS
 62
     7
100
AcDbCircle
 10
256.3404314413
 20
174.116791419
 30
0.0
 40
0.5000000000007243
100
AcDbArc
 50
270.0
 51
359.000000002
  0
ARC
  5
1C9
330
1F
100
AcDbEntity
  8
0
  6
CONTINUOUS
 62
     7
100
AcDbCircle
 10
189.3802242888
 20
174.116791419
 30
0.0
 40
0.500000000000639
100
AcDbArc
 50
180.999999998
 51
270.0
  0
ARC
  5
1CA
330
1F
100
AcDbEntity
  8
0
  6
CONTINUOUS
 62
     7
100
AcDbCircle
 10
192.3404314413
 20
174.116791419
 30
0.0
 40
0.500000000000639
100
AcDbArc
 50
270.0
 51
359.000000002
  0
LINE
  5
1CB
330
1F
100
AcDbEntity
  8
0
  6
CONTINUOUS
 62
     7
100
AcDbLine
 10
198.860329263
 20
175.1167911508
 30
0.0
 11
198.9663063214
 21
172.0818921395
 31
0.0
  0
LINE
  5
1CC
330
1F
100
AcDbEntity
  8
0
  6
CONTINUOUS
 62
     7
100
AcDbLine
 10
246.7543526218
 20
172.0818921395
 30
0.0
 11
246.8603296802
 21
175.1167911508
 31
0.0
  0
ARC
  5
1CD
330
1F
100
AcDbEntity
  8
0
  6
CONTINUOUS
 62
     7
100
AcDbCircle
 10
199.9656997178
 20
172.116791419
 30
0.0
 40
1.000000000000014
100
AcDbArc
 50
182.0
 51
270.0
  0
ARC
  5
1CE
330
1F
100
AcDbEntity
  8
0
  6
CONTINUOUS
 62
     7
100
AcDbCircle
 10
245.7549560123
 20
172.116791419
 30
0.0
 40
1.000000000000015
100
AcDbArc
 50
270.0
 51
358.0
  0
LINE
  5
1CF
330
1F
100
AcDbEntity
  8
0
  6
CONTINUOUS
 62
     7
100
AcDbLine
 10
137.3603275643
 20
175.1167911508
 30
0.0
 11
137.466308348
 21
172.0818921395
 31
0.0
  0
LINE
  5
1D0
330
1F
100
AcDbEntity
  8
0
  6
CONTINUOUS
 62
     7
100
AcDbLine
 10
180.2543445156
 20
172.0818921395
 30
0.0
 11
180.3603290246
 21
175.1167911508
 31
0.0
  0
LINE
  5
1D1
330
1F
100
AcDbEntity
  8
0
  6
CONTINUOUS
 62
     7
100
AcDbLine
 10
265.3603299186
 20
175.1167911508
 30
0.0
 11
265.466306977
 21
172.0818921395
 31
0.0
  0
LINE
  5
1D2
330
1F
100
AcDbEntity
  8
0
  6
CONTINUOUS
 62
     7
100
AcDbLine
 10
308.2543505952
 20
172.0818921395
 30
0.0
 11
308.3603276537
 21
175.1167911508
 31
0.0
  0
ARC
  5
1D3
330
1F
100
AcDbEntity
  8
0
  6
CONTINUOUS
 62
     7
100
AcDbCircle
 10
266.4656997178
 20
172.116791419
 30
0.0
 40
1.000000000000014
100
AcDbArc
 50
182.0
 51
270.0
  0
ARC
  5
1D4
330
1F
100
AcDbEntity
  8
0
  6
CONTINUOUS
 62
     7
100
AcDbCircle
 10
307.2549560123
 20
172.116791419
 30
0.0
 40
1.000000000000015
100
AcDbArc
 50
270.0
 51
358.0
  0
ARC
  5
1D5
330
1F
100
AcDbEntity
  8
0
  6
CONTINUOUS
 62
     7
100
AcDbCircle
 10
138.4656997178
 20
172.116791419
 30
0.0
 40
1.000000000000014
100
AcDbArc
 50
182.0
 51
270.0
  0
ARC
  5
1D6
330
1F
100
AcDbEntity
  8
0
  6
CONTINUOUS
 62
     7
100
AcDbCircle
 10
179.2549560123
 20
172.116791419
 30
0.0
 40
1.0
100
AcDbArc
 50
270.0
 51
358.0
  0
LINE
  5
1D7
330
1F
100
AcDbEntity
  8
0
  6
CONTINUOUS
 62
     7
100
AcDbLine
 10
207.8603251503
 20
171.1167904951
 30
0.0
 11
207.9482420013
 21
168.5993417569
 31
0.0
  0
LINE
  5
1D8
330
1F
100
AcDbEntity
  8
0
  6
CONTINUOUS
 62
     7
100
AcDbLine
 10
237.7724094913
 20
168.5993417569
 30
0.0
 11
237.8603263424
 21
171.1167904951
 31
0.0
  0
ARC
  5
1D9
330
1F
100
AcDbEntity
  8
0
  6
CONTINUOUS
 62
     7
100
AcDbCircle
 10
208.4479345609
 20
168.616791419
 30
0.0
 40
0.5000000000000077
100
AcDbArc
 50
182.0
 51
270.0
  0
ARC
  5
1DA
330
1F
100
AcDbEntity
  8
0
  6
CONTINUOUS
 62
     7
100
AcDbCircle
 10
237.2727211692
 20
168.616791419
 30
0.0
 40
0.5
100
AcDbArc
 50
270.0
 51
358.0
  0
LINE
  5
1DB
330
1F
100
AcDbEntity
  8
0
  6
CONTINUOUS
 62
     7
100
AcDbLine
 10
148.8603285179
 20
171.1167904951
 30
0.0
 11
148.9482379184
 21
168.5993417569
 31
0.0
  0
LINE
  5
1DC
330
1F
100
AcDbEntity
  8
0
  6
CONTINUOUS
 62
     7
100
AcDbLine
 10
168.7724186704
 20
168.5993417569
 30
0.0
 11
168.8603280709
 21
171.1167904951
 31
0.0
  0
LINE
  5
1DD
330
1F
100
AcDbEntity
  8
0
  6
CONTINUOUS
 62
     7
100
AcDbLine
 10
276.8603308723
 20
171.1167904951
 30
0.0
 11
276.9482328222
 21
168.5993417569
 31
0.0
  0
LINE
  5
1DE
330
1F
100
AcDbEntity
  8
0
  6
CONTINUOUS
 62
     7
100
AcDbLine
 10
296.7724098489
 20
168.5993417569
 30
0.0
 11
296.8603267
 21
171.1167904951
 31
0.0
  0
ARC
  5
1DF
330
1F
100
AcDbEntity
  8
0
  6
CONTINUOUS
 62
     7
100
AcDbCircle
 10
277.4479345609
 20
168.616791419
 30
0.0
 40
0.500000000000036
100
AcDbArc
 50
182.0
 51
270.0
  0
ARC
  5
1E0
330
1F
100
AcDbEntity
  8
0
  6
CONTINUOUS
 62
     7
100
AcDbCircle
 10
296.2727211692
 20
168.616791419
 30
0.0
 40
0.500000000000037
100
AcDbArc
 50
270.0
 51
358.0
  0
ARC
  5
1E1
330
1F
100
AcDbEntity
  8
0
  6
CONTINUOUS
 62
     7
100
AcDbCircle
 10
149.4479345609
 20
168.616791419
 30
0.0
 40
0.5000000000000077
100
AcDbArc
 50
182.0
 51
270.0
  0
ARC
  5
1E2
330
1F
100
AcDbEntity
  8
0
  6
CONTINUOUS
 62
     7
100
AcDbCircle
 10
168.2727211692
 20
168.616791419
 30
0.0
 40
0.5
100
AcDbArc
 50
270.0
 51
358.0
  0
LINE
  5
1E3
330
1F
100
AcDbEntity
  8
0
  6
CONTINUOUS
 62
     7
100
AcDbLine
 10
126.3603276239
 20
188.116791419
 30
0.0
 11
126.3603276239
 21
183.1137456403
 31
0.0
  0
LINE
  5
1E4
330
1F
100
AcDbEntity
  8
0
  6
CONTINUOUS
 62
     7
100
AcDbLine
 10
126.3603276239
 20
183.1137456403
 30
0.0
 11
115.0350381286
 21
183.1137456403
 31
0.0
  0
LINE
  5
1E5
330
1F
100
AcDbEntity
  8
0
  6
CONTINUOUS
 62
     7
100
AcDbLine
 10
115.0350381286
 20
183.1137456403
 30
0.0
 11
114.8603276015
 21
188.116791419
 31
0.0
  0
LINE
  5
1E6
330
1F
100
AcDbEntity
  8
0
  6
CONTINUOUS
 62
     7
100
AcDbLine
 10
126.3603276239
 20
188.116791419
 30
0.0
 11
114.8603276015
 21
188.116791419
 31
0.0
  0
LINE
  5
1E7
330
1F
100
AcDbEntity
  8
0
  6
CONTINUOUS
 62
     7
100
AcDbLine
 10
319.3603350446
 20
183.1137456403
 30
0.0
 11
319.3603350446
 21
188.116791419
 31
0.0
  0
LINE
  5
1E8
330
1F
100
AcDbEntity
  8
0
  6
CONTINUOUS
 62
     7
100
AcDbLine
 10
319.3603350446
 20
183.1137456403
 30
0.0
 11
126.3603276239
 21
183.1137456403
 31
0.0
  0
LINE
  5
1E9
330
1F
100
AcDbEntity
  8
0
  6
CONTINUOUS
 62
     7
100
AcDbLine
 10
319.3603350446
 20
188.116791419
 30
0.0
 11
126.3603276239
 21
188.116791419
 31
0.0
  0
LINE
  5
1EA
330
1F
100
AcDbEntity
  8
0
  6
CONTINUOUS
 62
     7
100
AcDbLine
 10
330.8603210971
 20
188.116791419
 30
0.0
 11
330.6856198833
 21
183.1137456403
 31
0.0
  0
LINE
  5
1EB
330
1F
100
AcDbEntity
  8
0
  6
CONTINUOUS
 62
     7
100
AcDbLine
 10
330.6856198833
 20
183.1137456403
 30
0.0
 11
319.3603350446
 21
183.1137456403
 31
0.0
  0
LINE
  5
1EC
330
1F
100
AcDbEntity
  8
0
  6
CONTINUOUS
 62
     7
100
AcDbLine
 10
330.8603210971
 20
188.116791419
 30
0.0
 11
319.3603350446
 21
188.116791419
 31
0.0
  0
LINE
  5
1ED
330
1F
100
AcDbEntity
  8
0
  6
CONTINUOUS
 62
     7
100
AcDbLine
 10
330.6856198833
 20
183.1137456403
 30
0.0
 11
328.1886621044
 21
180.6167915867
 31
0.0
  0
LINE
  5
1EE
330
1F
100
AcDbEntity
  8
0
  6
CONTINUOUS
 62
     7
100
AcDbLine
 10
319.3603350446
 20
180.6167915867
 30
0.0
 11
328.1886621044
 21
180.6167915867
 31
0.0
  0
LINE
  5
1EF
330
1F
100
AcDbEntity
  8
0
  6
CONTINUOUS
 62
     7
100
AcDbLine
 10
319.3603350446
 20
180.6167915867
 30
0.0
 11
319.3603350446
 21
183.1137456403
 31
0.0
  0
LINE
  5
1F0
330
1F
100
AcDbEntity
  8
0
  6
CONTINUOUS
 62
     7
100
AcDbLine
 10
126.3603276239
 20
180.6167915867
 30
0.0
 11
133.6904546843
 21
180.6167915867
 31
0.0
  0
LINE
  5
1F1
330
1F
100
AcDbEntity
  8
0
  6
CONTINUOUS
 62
     7
100
AcDbLine
 10
126.3603276239
 20
183.1137456403
 30
0.0
 11
126.3603276239
 21
180.6167915867
 31
0.0
  0
LINE
  5
1F2
330
1F
100
AcDbEntity
  8
0
  6
CONTINUOUS
 62
     7
100
AcDbLine
 10
312.0302005336
 20
180.6167915867
 30
0.0
 11
319.3603350446
 21
180.6167915867
 31
0.0
  0
LINE
  5
1F3
330
1F
100
AcDbEntity
  8
0
  6
CONTINUOUS
 62
     7
100
AcDbLine
 10
311.3603337333
 20
178.1167916425
 30
0.0
 11
312.0302005336
 21
180.6167915867
 31
0.0
  0
LINE
  5
1F4
330
1F
100
AcDbEntity
  8
0
  6
CONTINUOUS
 62
     7
100
AcDbLine
 10
311.3603337333
 20
178.1167916425
 30
0.0
 11
134.3603289352
 21
178.1167916425
 31
0.0
  0
LINE
  5
1F5
330
1F
100
AcDbEntity
  8
0
  6
CONTINUOUS
 62
     7
100
AcDbLine
 10
133.6904546843
 20
180.6167915867
 30
0.0
 11
134.3603289352
 21
178.1167916425
 31
0.0
  0
LINE
  5
1F6
330
1F
100
AcDbEntity
  8
0
  6
CONTINUOUS
 62
     7
100
AcDbLine
 10
117.5319931135
 20
180.6167915867
 30
0.0
 11
126.3603276239
 21
180.6167915867
 31
0.0
  0
LINE
  5
1F7
330
1F
100
AcDbEntity
  8
0
  6
CONTINUOUS
 62
     7
100
AcDbLine
 10
117.5319931135
 20
180.6167915867
 30
0.0
 11
115.0350381286
 21
183.1137456403
 31
0.0
  0
LINE
  5
1F8
330
1F
100
AcDbEntity
  8
0
  6
CONTINUOUS
 62
     7
100
AcDbLine
 10
126.3603276239
 20
189.316791476
 30
0.0
 11
126.3603276239
 21
188.116791419
 31
0.0
  0
LINE
  5
1F9
330
1F
100
AcDbEntity
  8
0
  6
CONTINUOUS
 62
     7
100
AcDbLine
 10
319.3603350446
 20
189.316791476
 30
0.0
 11
126.3603276239
 21
189.316791476
 31
0.0
  0
LINE
  5
1FA
330
1F
100
AcDbEntity
  8
0
  6
CONTINUOUS
 62
     7
100
AcDbLine
 10
319.3603350446
 20
189.316791476
 30
0.0
 11
319.3603350446
 21
188.116791419
 31
0.0
  0
LINE
  5
1FB
330
1F
100
AcDbEntity
  8
0
  6
CONTINUOUS
 62
     7
100
AcDbLine
 10
116.6232178584
 20
189.316791476
 30
0.0
 11
116.5603275076
 21
188.116791419
 31
0.0
  0
LINE
  5
1FC
330
1F
100
AcDbEntity
  8
0
  6
CONTINUOUS
 62
     7
100
AcDbLine
 10
126.3603276239
 20
189.316791476
 30
0.0
 11
116.6232178584
 21
189.316791476
 31
0.0
  0
LINE
  5
1FD
330
1F
100
AcDbEntity
  8
0
  6
CONTINUOUS
 62
     7
100
AcDbLine
 10
329.0974392221
 20
189.316791476
 30
0.0
 11
319.3603350446
 21
189.316791476
 31
0.0
  0
LINE
  5
1FE
330
1F
100
AcDbEntity
  8
0
  6
CONTINUOUS
 62
     7
100
AcDbLine
 10
329.0974392221
 20
189.316791476
 30
0.0
 11
329.1603221223
 21
188.116791419
 31
0.0
  0
LINE
  5
1FF
330
1F
100
AcDbEntity
  8
0
  6
CONTINUOUS
 62
     7
100
AcDbLine
 10
126.7095363364
 20
198.1167911955
 30
0.0
 11
126.4022334144
 21
189.316791476
 31
0.0
  0
LINE
  5
200
330
1F
100
AcDbEntity
  8
0
  6
CONTINUOUS
 62
     7
100
AcDbLine
 10
156.3603288159
 20
198.1167911955
 30
0.0
 11
126.7095363364
 21
198.1167911955
 31
0.0
  0
LINE
  5
201
330
1F
100
AcDbEntity
  8
0
  6
CONTINUOUS
 62
     7
100
AcDbLine
 10
319.0111263321
 20
198.1167911955
 30
0.0
 11
289.3603338525
 21
198.1167911955
 31
0.0
  0
LINE
  5
202
330
1F
100
AcDbEntity
  8
0
  6
CONTINUOUS
 62
     7
100
AcDbLine
 10
319.0111263321
 20
198.1167911955
 30
0.0
 11
319.3184180782
 21
189.316791476
 31
0.0
  0
LINE
  5
203
330
1F
100
AcDbEntity
  8
0
  6
CONTINUOUS
 62
     7
100
AcDbLine
 10
289.3603338525
 20
198.1167911955
 30
0.0
 11
156.3603288159
 21
198.1167911955
 31
0.0
  0
LINE
  5
204
330
1F
100
AcDbEntity
  8
0
  6
CONTINUOUS
 62
     7
100
AcDbLine
 10
319.3603350446
 20
180.6167915867
 30
0.0
 11
319.3603350446
 21
178.1167916425
 31
0.0
  0
LINE
  5
205
330
1F
100
AcDbEntity
  8
0
  6
CONTINUOUS
 62
     7
100
AcDbLine
 10
319.3603350446
 20
178.1167916425
 30
0.0
 11
311.3603337333
 21
178.1167916425
 31
0.0
  0
LINE
  5
206
330
1F
100
AcDbEntity
  8
0
  6
CONTINUOUS
 62
     7
100
AcDbLine
 10
126.3603276239
 20
180.6167915867
 30
0.0
 11
126.3603276239
 21
178.1167916425
 31
0.0
  0
LINE
  5
207
330
1F
100
AcDbEntity
  8
0
  6
CONTINUOUS
 62
     7
100
AcDbLine
 10
134.3603289352
 20
178.1167916425
 30
0.0
 11
126.3603276239
 21
178.1167916425
 31
0.0
  0
LINE
  5
208
330
1F
100
AcDbEntity
  8
0
  6
CONTINUOUS
 62
     7
100
AcDbLine
 10
185.8958570883
 20
176.1167913147
 30
0.0
 11
195.824798815
 21
176.1167913147
 31
0.0
  0
LINE
  5
209
330
1F
100
AcDbEntity
  8
0
  6
CONTINUOUS
 62
     7
100
AcDbLine
 10
249.8958601282
 20
176.1167913147
 30
0.0
 11
259.8248018549
 21
176.1167913147
 31
0.0
  0
LINE
  5
20A
330
1F
100
AcDbEntity
  8
0
  6
CONTINUOUS
 62
     7
100
AcDbLine
 10
257.9307748602
 20
175.1167911508
 30
0.0
 11
315.7898827121
 21
175.1167911508
 31
0.0
  0
LINE
  5
20B
330
1F
100
AcDbEntity
  8
0
  6
CONTINUOUS
 62
     7
100
AcDbLine
 10
193.9307792709
 20
175.1167911508
 30
0.0
 11
251.7898722217
 21
175.1167911508
 31
0.0
  0
LINE
  5
20C
330
1F
100
AcDbEntity
  8
0
  6
CONTINUOUS
 62
     7
100
AcDbLine
 10
129.9307780937
 20
175.1167911508
 30
0.0
 11
187.7898766325
 21
175.1167911508
 31
0.0
  0
LINE
  5
20D
330
1F
100
AcDbEntity
  8
0
  6
CONTINUOUS
 62
     7
100
AcDbLine
 10
253.3802284525
 20
173.6167918363
 30
0.0
 11
256.3404335306
 21
173.6167918363
 31
0.0
  0
LINE
  5
20E
330
1F
100
AcDbEntity
  8
0
  6
CONTINUOUS
 62
     7
100
AcDbLine
 10
189.3802254126
 20
173.6167918363
 30
0.0
 11
192.3404304907
 21
173.6167918363
 31
0.0
  0
LINE
  5
20F
330
1F
100
AcDbEntity
  8
0
  6
CONTINUOUS
 62
     7
100
AcDbLine
 10
199.9656974003
 20
171.1167904951
 30
0.0
 11
245.7549615429
 21
171.1167904951
 31
0.0
  0
LINE
  5
210
330
1F
100
AcDbEntity
  8
0
  6
CONTINUOUS
 62
     7
100
AcDbLine
 10
328.1886621044
 20
180.6167915867
 30
0.0
 11
325.6886644886
 21
178.1167916425
 31
0.0
  0
LINE
  5
211
330
1F
100
AcDbEntity
  8
0
  6
CONTINUOUS
 62
     7
100
AcDbLine
 10
325.6886644886
 20
178.1167916425
 30
0.0
 11
319.3603350446
 21
178.1167916425
 31
0.0
  0
LINE
  5
212
330
1F
100
AcDbEntity
  8
0
  6
CONTINUOUS
 62
     7
100
AcDbLine
 10
120.031992592
 20
178.1167916425
 30
0.0
 11
117.5319931135
 21
180.6167915867
 31
0.0
  0
LINE
  5
213
330
1F
100
AcDbEntity
  8
0
  6
CONTINUOUS
 62
     7
100
AcDbLine
 10
126.3603276239
 20
178.1167916425
 30
0.0
 11
120.031992592
 21
178.1167916425
 31
0.0
  0
LINE
  5
214
330
1F
100
AcDbEntity
  8
0
  6
CONTINUOUS
 62
     7
100
AcDbLine
 10
266.465698056
 20
171.1167904951
 30
0.0
 11
307.2549595163
 21
171.1167904951
 31
0.0
  0
LINE
  5
215
330
1F
100
AcDbEntity
  8
0
  6
CONTINUOUS
 62
     7
100
AcDbLine
 10
138.4656994269
 20
171.1167904951
 30
0.0
 11
179.2549534366
 21
171.1167904951
 31
0.0
  0
LINE
  5
216
330
1F
100
AcDbEntity
  8
0
  6
CONTINUOUS
 62
     7
100
AcDbLine
 10
208.4479375408
 20
168.1167918661
 30
0.0
 11
237.2727139518
 21
168.1167918661
 31
0.0
  0
LINE
  5
217
330
1F
100
AcDbEntity
  8
0
  6
CONTINUOUS
 62
     7
100
AcDbLine
 10
277.4479283617
 20
168.1167918661
 30
0.0
 11
296.2727143095
 21
168.1167918661
 31
0.0
  0
LINE
  5
218
330
1F
100
AcDbEntity
  8
0
  6
CONTINUOUS
 62
     7
100
AcDbLine
 10
149.4479334579
 20
168.1167918661
 30
0.0
 11
168.272723131
 21
168.1167918661
 31
0.0
  0
LINE
  5
219
330
1F
100
AcDbEntity
  8
0
  6
CONTINUOUS
 62
     7
100
AcDbLine
 10
156.3603288159
 20
198.1167911955
 30
0.0
 11
156.3603288159
 21
189.316791476
 31
0.0
  0
LINE
  5
21A
330
1F
100
AcDbEntity
  8
0
  6
CONTINUOUS
 62
     7
100
AcDbLine
 10
289.3603338525
 20
189.316791476
 30
0.0
 11
289.3603338525
 21
198.1167911955
 31
0.0
  0
LINE
  5
21B
330
1F
100
AcDbEntity
  8
0
  6
CONTINUOUS
 62
     7
100
AcDbLine
 10
248.8964690492
 20
177.0818920278
 30
0.0
 11
260.8241929338
 21
177.0818920278
 31
0.0
  0
LINE
  5
21C
330
1F
100
AcDbEntity
  8
0
  6
CONTINUOUS
 62
     7
100
AcDbLine
 10
184.8964660094
 20
177.0818920278
 30
0.0
 11
196.824189894
 21
177.0818920278
 31
0.0
  0
LINE
  5
21D
330
1F
100
AcDbEntity
  8
0
  6
CONTINUOUS
 62
     7
100
AcDbLine
 10
195.9651006982
 20
176.0818918639
 30
0.0
 11
249.6943070219
 21
176.0818918639
 31
0.0
  0
LINE
  5
21E
330
1F
100
AcDbEntity
  8
0
  6
CONTINUOUS
 62
     7
100
AcDbLine
 10
128.9313888774
 20
176.0818918639
 30
0.0
 11
185.694303982
 21
176.0818918639
 31
0.0
  0
LINE
  5
21F
330
1F
100
AcDbEntity
  8
0
  6
CONTINUOUS
 62
     7
100
AcDbLine
 10
259.9650962875
 20
176.0818918639
 30
0.0
 11
316.7892737911
 21
176.0818918639
 31
0.0
  0
LINE
  5
220
330
1F
100
AcDbEntity
  8
0
  6
CONTINUOUS
 62
     7
100
AcDbLine
 10
252.8802944944
 20
174.1080654257
 30
0.0
 11
256.8403525875
 21
174.1080654257
 31
0.0
  0
LINE
  5
221
330
1F
100
AcDbEntity
  8
0
  6
CONTINUOUS
 62
     7
100
AcDbLine
 10
188.8802989051
 20
174.1080654257
 30
0.0
 11
192.8403569982
 21
174.1080654257
 31
0.0
  0
LINE
  5
222
330
1F
100
AcDbEntity
  8
0
  6
CONTINUOUS
 62
     7
100
AcDbLine
 10
198.9663063214
 20
172.0818921395
 30
0.0
 11
246.7543526218
 21
172.0818921395
 31
0.0
  0
LINE
  5
223
330
1F
100
AcDbEntity
  8
0
  6
CONTINUOUS
 62
     7
100
AcDbLine
 10
137.466308348
 20
172.0818921395
 30
0.0
 11
180.2543445156
 21
172.0818921395
 31
0.0
  0
LINE
  5
224
330
1F
100
AcDbEntity
  8
0
  6
CONTINUOUS
 62
     7
100
AcDbLine
 10
265.466306977
 20
172.0818921395
 30
0.0
 11
308.2543505952
 21
172.0818921395
 31
0.0
  0
LINE
  5
225
330
1F
100
AcDbEntity
  8
0
  6
CONTINUOUS
 62
     7
100
AcDbLine
 10
207.9482420013
 20
168.5993417569
 30
0.0
 11
237.7724094913
 21
168.5993417569
 31
0.0
  0
LINE
  5
226
330
1F
100
AcDbEntity
  8
0
  6
CONTINUOUS
 62
     7
100
AcDbLine
 10
148.9482379184
 20
168.5993417569
 30
0.0
 11
168.7724186704
 21
168.5993417569
 31
0.0
  0
LINE
  5
227
330
1F
100
AcDbEntity
  8
0
  6
CONTINUOUS
 62
     7
100
AcDbLine
 10
276.9482328222
 20
168.5993417569
 30
0.0
 11
296.7724098489
 21
168.5993417569
 31
0.0
  0
LINE
  5
228
330
1F
100
AcDbEntity
  8
0
  6
CONTINUOUS
 62
     7
100
AcDbLine
 10
392.6086476638
 20
287.2560108408
 30
0.0
 11
394.6435474425
 21
287.3270744786
 31
0.0
  0
LINE
  5
229
330
1F
100
AcDbEntity
  8
0
  6
CONTINUOUS
 62
     7
100
AcDbLine
 10
394.6435474425
 20
347.1849495873
 30
0.0
 11
392.6086476638
 21
347.2560281262
 31
0.0
  0
ARC
  5
22A
330
1F
100
AcDbEntity
  8
0
  6
CONTINUOUS
 62
     7
100
AcDbCircle
 10
394.6086478874
 20
288.3264689139
 30
0.0
 40
1.000000000000015
100
AcDbArc
 50
272.0
 51
0.0
  0
ARC
  5
22B
330
1F
100
AcDbEntity
  8
0
  6
CONTINUOUS
 62
     7
100
AcDbCircle
 10
394.6086478874
 20
346.1855667473
 30
0.0
 40
1.000000000000015
100
AcDbArc
 50
0.0
 51
88.0
  0
LINE
  5
22C
330
1F
100
AcDbEntity
  8
0
  6
CONTINUOUS
 62
     7
100
AcDbLine
 10
395.6086481556
 20
295.756020616
 30
0.0
 11
398.6435471668
 21
295.8619976744
 31
0.0
  0
LINE
  5
22D
330
1F
100
AcDbEntity
  8
0
  6
CONTINUOUS
 62
     7
100
AcDbLine
 10
398.6435471668
 20
338.6500412926
 30
0.0
 11
395.6086481556
 21
338.756018351
 31
0.0
  0
ARC
  5
22E
330
1F
100
AcDbEntity
  8
0
  6
CONTINUOUS
 62
     7
100
AcDbCircle
 10
398.6086478874
 20
296.8613896834
 30
0.0
 40
1.000000000000015
100
AcDbArc
 50
272.0
 51
0.0
  0
ARC
  5
22F
330
1F
100
AcDbEntity
  8
0
  6
CONTINUOUS
 62
     7
100
AcDbCircle
 10
398.6086478874
 20
337.6506459778
 30
0.0
 40
1.000000000000072
100
AcDbArc
 50
0.0
 51
88.0
  0
LINE
  5
230
330
1F
100
AcDbEntity
  8
0
  6
CONTINUOUS
 62
     7
100
AcDbLine
 10
399.6086488112
 20
307.2560215697
 30
0.0
 11
402.1260975494
 21
307.3439235195
 31
0.0
  0
LINE
  5
231
330
1F
100
AcDbEntity
  8
0
  6
CONTINUOUS
 62
     7
100
AcDbLine
 10
402.1260975494
 20
327.1681005463
 30
0.0
 11
399.6086488112
 21
327.2560173973
 31
0.0
  0
ARC
  5
232
330
1F
100
AcDbEntity
  8
0
  6
CONTINUOUS
 62
     7
100
AcDbCircle
 10
402.1086478874
 20
307.8436245265
 30
0.0
 40
0.500000000000038
100
AcDbArc
 50
272.0
 51
0.0
  0
ARC
  5
233
330
1F
100
AcDbEntity
  8
0
  6
CONTINUOUS
 62
     7
100
AcDbCircle
 10
402.1086478874
 20
326.6684111347
 30
0.0
 40
0.500000000000038
100
AcDbArc
 50
0.0
 51
88.0
  0
LINE
  5
234
330
1F
100
AcDbEntity
  8
0
  6
CONTINUOUS
 62
     7
100
AcDbLine
 10
393.6435472786
 20
348.2198650345
 30
0.0
 11
392.6086476638
 21
348.2560152516
 31
0.0
  0
LINE
  5
235
330
1F
100
AcDbEntity
  8
0
  6
CONTINUOUS
 62
     7
100
AcDbLine
 10
392.6086476638
 20
286.2560237154
 30
0.0
 11
393.6435472786
 21
286.2921590313
 31
0.0
  0
ARC
  5
236
330
1F
100
AcDbEntity
  8
0
  6
CONTINUOUS
 62
     7
100
AcDbCircle
 10
393.6086478874
 20
287.2915481444
 30
0.0
 40
1.0
100
AcDbArc
 50
271.9999999986
 51
0.0
  0
ARC
  5
237
330
1F
100
AcDbEntity
  8
0
  6
CONTINUOUS
 62
     7
100
AcDbCircle
 10
393.6086478874
 20
347.2204875168
 30
0.0
 40
1.0
100
AcDbArc
 50
0.0
 51
88.0000000014
  0
LINE
  5
238
330
1F
100
AcDbEntity
  8
0
  6
CONTINUOUS
 62
     7
100
AcDbLine
 10
395.6086481556
 20
290.2583862051
 30
0.0
 11
396.6173738807
 21
290.2759844765
 31
0.0
  0
LINE
  5
239
330
1F
100
AcDbEntity
  8
0
  6
CONTINUOUS
 62
     7
100
AcDbLine
 10
396.6173738807
 20
294.2360425696
 30
0.0
 11
395.6086481556
 21
294.2536557421
 31
0.0
  0
LINE
  5
23A
330
1F
100
AcDbEntity
  8
0
  6
CONTINUOUS
 62
     7
100
AcDbLine
 10
395.6086481556
 20
340.2583832249
 30
0.0
 11
396.6173738807
 21
340.2759963974
 31
0.0
  0
LINE
  5
23B
330
1F
100
AcDbEntity
  8
0
  6
CONTINUOUS
 62
     7
100
AcDbLine
 10
396.6173738807
 20
344.2360395893
 30
0.0
 11
395.6086481556
 21
344.2536527619
 31
0.0
  0
ARC
  5
23C
330
1F
100
AcDbEntity
  8
0
  6
CONTINUOUS
 62
     7
100
AcDbCircle
 10
396.6086478874
 20
340.7759142543
 30
0.0
 40
0.5000000000006675
100
AcDbArc
 50
270.999999998
 51
0.0
  0
ARC
  5
23D
330
1F
100
AcDbEntity
  8
0
  6
CONTINUOUS
 62
     7
100
AcDbCircle
 10
396.6086478874
 20
343.7361214069
 30
0.0
 40
0.5000000000007243
100
AcDbArc
 50
0.0
 51
89.000000002
  0
ARC
  5
23E
330
1F
100
AcDbEntity
  8
0
  6
CONTINUOUS
 62
     7
100
AcDbCircle
 10
396.6086478874
 20
290.7759142543
 30
0.0
 40
0.5000000000006675
100
AcDbArc
 50
270.999999998
 51
360.0
  0
ARC
  5
23F
330
1F
100
AcDbEntity
  8
0
  6
CONTINUOUS
 62
     7
100
AcDbCircle
 10
396.6086478874
 20
293.7361214069
 30
0.0
 40
0.5000000000006675
100
AcDbArc
 50
0.0
 51
89.000000002
  0
LINE
  5
240
330
1F
100
AcDbEntity
  8
0
  6
CONTINUOUS
 62
     7
100
AcDbLine
 10
397.1086474701
 20
293.3084005818
 30
0.0
 11
398.6435471668
 21
293.3620000586
 31
0.0
  0
LINE
  5
241
330
1F
100
AcDbEntity
  8
0
  6
CONTINUOUS
 62
     7
100
AcDbLine
 10
398.6435471668
 20
341.1500389084
 30
0.0
 11
397.1086474701
 21
341.2036234841
 31
0.0
  0
ARC
  5
242
330
1F
100
AcDbEntity
  8
0
  6
CONTINUOUS
 62
     7
100
AcDbCircle
 10
398.6086478874
 20
294.3613896834
 30
0.0
 40
1.000000000000015
100
AcDbArc
 50
272.0
 51
0.0
  0
ARC
  5
243
330
1F
100
AcDbEntity
  8
0
  6
CONTINUOUS
 62
     7
100
AcDbCircle
 10
398.6086478874
 20
340.1506459778
 30
0.0
 40
1.000000000000015
100
AcDbArc
 50
0.0
 51
88.0
  0
LINE
  5
244
330
1F
100
AcDbEntity
  8
0
  6
CONTINUOUS
 62
     7
100
AcDbLine
 10
399.6086488112
 20
302.2560114369
 30
0.0
 11
402.1260975494
 21
302.3439282879
 31
0.0
  0
LINE
  5
245
330
1F
100
AcDbEntity
  8
0
  6
CONTINUOUS
 62
     7
100
AcDbLine
 10
402.1260975494
 20
332.1680957779
 30
0.0
 11
399.6086488112
 21
332.256012629
 31
0.0
  0
ARC
  5
246
330
1F
100
AcDbEntity
  8
0
  6
CONTINUOUS
 62
     7
100
AcDbCircle
 10
402.1086478874
 20
302.8436245265
 30
0.0
 40
0.500000000000038
100
AcDbArc
 50
272.0
 51
0.0
  0
ARC
  5
247
330
1F
100
AcDbEntity
  8
0
  6
CONTINUOUS
 62
     7
100
AcDbCircle
 10
402.1086478874
 20
331.6684111347
 30
0.0
 40
0.500000000000038
100
AcDbArc
 50
0.0
 51
88.0
  0
LINE
  5
248
330
1F
100
AcDbEntity
  8
0
  6
CONTINUOUS
 62
     7
100
AcDbLine
 10
382.6086478874
 20
359.7560162052
 30
0.0
 11
387.6116936661
 21
359.5813149914
 31
0.0
  0
LINE
  5
249
330
1F
100
AcDbEntity
  8
0
  6
CONTINUOUS
 62
     7
100
AcDbLine
 10
387.6116936661
 20
359.5813149914
 30
0.0
 11
387.6116936661
 21
348.2560152516
 31
0.0
  0
LINE
  5
24A
330
1F
100
AcDbEntity
  8
0
  6
CONTINUOUS
 62
     7
100
AcDbLine
 10
387.6116936661
 20
348.2560152516
 30
0.0
 11
382.6086478874
 21
348.2560152516
 31
0.0
  0
LINE
  5
24B
330
1F
100
AcDbEntity
  8
0
  6
CONTINUOUS
 62
     7
100
AcDbLine
 10
382.6086478874
 20
359.7560162052
 30
0.0
 11
382.6086478874
 21
348.2560152516
 31
0.0
  0
LINE
  5
24C
330
1F
100
AcDbEntity
  8
0
  6
CONTINUOUS
 62
     7
100
AcDbLine
 10
387.6116936661
 20
348.2560152516
 30
0.0
 11
387.6116936661
 21
286.2560237154
 31
0.0
  0
LINE
  5
24D
330
1F
100
AcDbEntity
  8
0
  6
CONTINUOUS
 62
     7
100
AcDbLine
 10
382.6086478874
 20
286.2560237154
 30
0.0
 11
387.6116936661
 21
286.2560237154
 31
0.0
  0
LINE
  5
24E
330
1F
100
AcDbEntity
  8
0
  6
CONTINUOUS
 62
     7
100
AcDbLine
 10
382.6086478874
 20
348.2560152516
 30
0.0
 11
382.6086478874
 21
286.2560237154
 31
0.0
  0
LINE
  5
24F
330
1F
100
AcDbEntity
  8
0
  6
CONTINUOUS
 62
     7
100
AcDbLine
 10
387.6116936661
 20
286.2560237154
 30
0.0
 11
387.6116936661
 21
274.9307239756
 31
0.0
  0
LINE
  5
250
330
1F
100
AcDbEntity
  8
0
  6
CONTINUOUS
 62
     7
100
AcDbLine
 10
387.6116936661
 20
274.9307239756
 30
0.0
 11
382.6086478874
 21
274.7560227618
 31
0.0
  0
LINE
  5
251
330
1F
100
AcDbEntity
  8
0
  6
CONTINUOUS
 62
     7
100
AcDbLine
 10
382.6086478874
 20
286.2560237154
 30
0.0
 11
382.6086478874
 21
274.7560227618
 31
0.0
  0
LINE
  5
252
330
1F
100
AcDbEntity
  8
0
  6
CONTINUOUS
 62
     7
100
AcDbLine
 10
390.1086477197
 20
348.2560152516
 30
0.0
 11
387.6116936661
 21
348.2560152516
 31
0.0
  0
LINE
  5
253
330
1F
100
AcDbEntity
  8
0
  6
CONTINUOUS
 62
     7
100
AcDbLine
 10
390.1086477197
 20
340.9258956417
 30
0.0
 11
390.1086477197
 21
348.2560152516
 31
0.0
  0
LINE
  5
254
330
1F
100
AcDbEntity
  8
0
  6
CONTINUOUS
 62
     7
100
AcDbLine
 10
392.6086476638
 20
340.2560288414
 30
0.0
 11
390.1086477197
 21
340.9258956417
 31
0.0
  0
LINE
  5
255
330
1F
100
AcDbEntity
  8
0
  6
CONTINUOUS
 62
     7
100
AcDbLine
 10
392.6086476638
 20
340.2560288414
 30
0.0
 11
392.6086476638
 21
294.2560250267
 31
0.0
  0
LINE
  5
256
330
1F
100
AcDbEntity
  8
0
  6
CONTINUOUS
 62
     7
100
AcDbLine
 10
390.1086477197
 20
293.5861433253
 30
0.0
 11
392.6086476638
 21
294.2560250267
 31
0.0
  0
LINE
  5
257
330
1F
100
AcDbEntity
  8
0
  6
CONTINUOUS
 62
     7
100
AcDbLine
 10
390.1086477197
 20
286.2560237154
 30
0.0
 11
390.1086477197
 21
293.5861433253
 31
0.0
  0
LINE
  5
258
330
1F
100
AcDbEntity
  8
0
  6
CONTINUOUS
 62
     7
100
AcDbLine
 10
387.6116936661
 20
286.2560237154
 30
0.0
 11
390.1086477197
 21
286.2560237154
 31
0.0
  0
LINE
  5
259
330
1F
100
AcDbEntity
  8
0
  6
CONTINUOUS
 62
     7
100
AcDbLine
 10
387.6116936661
 20
359.5813149914
 30
0.0
 11
390.1086477197
 21
357.0843572125
 31
0.0
  0
LINE
  5
25A
330
1F
100
AcDbEntity
  8
0
  6
CONTINUOUS
 62
     7
100
AcDbLine
 10
390.1086477197
 20
348.2560152516
 30
0.0
 11
390.1086477197
 21
357.0843572125
 31
0.0
  0
LINE
  5
25B
330
1F
100
AcDbEntity
  8
0
  6
CONTINUOUS
 62
     7
100
AcDbLine
 10
390.1086477197
 20
286.2560237154
 30
0.0
 11
390.1086477197
 21
277.4276817545
 31
0.0
  0
LINE
  5
25C
330
1F
100
AcDbEntity
  8
0
  6
CONTINUOUS
 62
     7
100
AcDbLine
 10
390.1086477197
 20
277.4276817545
 30
0.0
 11
387.6116936661
 21
274.9307239756
 31
0.0
  0
LINE
  5
25D
330
1F
100
AcDbEntity
  8
0
  6
CONTINUOUS
 62
     7
100
AcDbLine
 10
381.4086478304
 20
348.2560152516
 30
0.0
 11
382.6086478874
 21
348.2560152516
 31
0.0
  0
LINE
  5
25E
330
1F
100
AcDbEntity
  8
0
  6
CONTINUOUS
 62
     7
100
AcDbLine
 10
381.4086478304
 20
357.993119429
 30
0.0
 11
381.4086478304
 21
348.2560152516
 31
0.0
  0
LINE
  5
25F
330
1F
100
AcDbEntity
  8
0
  6
CONTINUOUS
 62
     7
100
AcDbLine
 10
381.4086478304
 20
357.993119429
 30
0.0
 11
382.6086478874
 21
358.0560321316
 31
0.0
  0
LINE
  5
260
330
1F
100
AcDbEntity
  8
0
  6
CONTINUOUS
 62
     7
100
AcDbLine
 10
381.4086478304
 20
286.2560237154
 30
0.0
 11
382.6086478874
 21
286.2560237154
 31
0.0
  0
LINE
  5
261
330
1F
100
AcDbEntity
  8
0
  6
CONTINUOUS
 62
     7
100
AcDbLine
 10
381.4086478304
 20
348.2560152516
 30
0.0
 11
381.4086478304
 21
286.2560237154
 31
0.0
  0
LINE
  5
262
330
1F
100
AcDbEntity
  8
0
  6
CONTINUOUS
 62
     7
100
AcDbLine
 10
382.6086478874
 20
276.4560217366
 30
0.0
 11
381.4086478304
 21
276.5189046368
 31
0.0
  0
LINE
  5
263
330
1F
100
AcDbEntity
  8
0
  6
CONTINUOUS
 62
     7
100
AcDbLine
 10
381.4086478304
 20
286.2560237154
 30
0.0
 11
381.4086478304
 21
276.5189046368
 31
0.0
  0
LINE
  5
264
330
1F
100
AcDbEntity
  8
0
  6
CONTINUOUS
 62
     7
100
AcDbLine
 10
372.6086481109
 20
286.1052239641
 30
0.0
 11
381.4086478304
 21
285.7979173168
 31
0.0
  0
LINE
  5
265
330
1F
100
AcDbEntity
  8
0
  6
CONTINUOUS
 62
     7
100
AcDbLine
 10
372.6086481109
 20
315.7560164437
 30
0.0
 11
372.6086481109
 21
286.1052239641
 31
0.0
  0
LINE
  5
266
330
1F
100
AcDbEntity
  8
0
  6
CONTINUOUS
 62
     7
100
AcDbLine
 10
372.6086481109
 20
348.4068150029
 30
0.0
 11
372.6086481109
 21
318.7560076222
 31
0.0
  0
LINE
  5
267
330
1F
100
AcDbEntity
  8
0
  6
CONTINUOUS
 62
     7
100
AcDbLine
 10
372.6086481109
 20
348.4068150029
 30
0.0
 11
381.4086478304
 21
348.714106749
 31
0.0
  0
LINE
  5
268
330
1F
100
AcDbEntity
  8
0
  6
CONTINUOUS
 62
     7
100
AcDbLine
 10
372.6086481109
 20
318.7560076222
 30
0.0
 11
372.6086481109
 21
315.7560164437
 31
0.0
  0
LINE
  5
269
330
1F
100
AcDbEntity
  8
0
  6
CONTINUOUS
 62
     7
100
AcDbLine
 10
392.6086476638
 20
286.2560237154
 30
0.0
 11
390.1086477197
 21
286.2560237154
 31
0.0
  0
LINE
  5
26A
330
1F
100
AcDbEntity
  8
0
  6
CONTINUOUS
 62
     7
100
AcDbLine
 10
392.6086476638
 20
294.2560250267
 30
0.0
 11
392.6086476638
 21
286.2560237154
 31
0.0
  0
LINE
  5
26B
330
1F
100
AcDbEntity
  8
0
  6
CONTINUOUS
 62
     7
100
AcDbLine
 10
390.1086477197
 20
348.2560152516
 30
0.0
 11
392.6086476638
 21
348.2560152516
 31
0.0
  0
LINE
  5
26C
330
1F
100
AcDbEntity
  8
0
  6
CONTINUOUS
 62
     7
100
AcDbLine
 10
392.6086476638
 20
348.2560152516
 30
0.0
 11
392.6086476638
 21
340.2560288414
 31
0.0
  0
SPLINE
  5
26D
330
1F
100
AcDbEntity
  8
0
  6
CONTINUOUS
 62
     7
100
AcDbSpline
210
0.0
220
0.0
230
1.0
 70
    24
 71
     3
 72
    14
 73
    10
 74
     0
 42
0.00000001
 43
0.00000001
 40
0.0
 40
0.0
 40
0.0
 40
0.0
 40
0.2499999999999999
 40
0.2499999999999999
 40
0.4999999999999999
 40
0.4999999999999999
 40
0.7499999999999999
 40
0.7499999999999999
 40
1.0
 40
1.0
 40
1.0
 40
1.0
 10
395.6086478873527
 20
288.3264689138915
 30
0.0
 10
395.6086478873527
 20
288.3264692940159
 30
0.0
 10
395.6086478873527
 20
291.3745488704909
 30
0.0
 10
395.6086478873528
 20
302.2249273729537
 30
0.0
 10
395.6086478873528
 20
309.5836418032788
 30
0.0
 10
395.6086478873528
 20
324.9283938581863
 30
0.0
 10
395.6086478873528
 20
332.2871082884853
 30
0.0
 10
395.6086478873527
 20
343.1374867908556
 30
0.0
 10
395.6086478873527
 20
346.1855663672678
 30
0.0
 10
395.6086478873527
 20
346.1855667473267
 30
0.0
  0
LINE
  5
26E
330
1F
100
AcDbEntity
  8
0
  6
CONTINUOUS
 62
     7
100
AcDbLine
 10
392.6086476638
 20
279.9276793703
 30
0.0
 11
390.1086477197
 21
277.4276817545
 31
0.0
  0
LINE
  5
26F
330
1F
100
AcDbEntity
  8
0
  6
CONTINUOUS
 62
     7
100
AcDbLine
 10
392.6086476638
 20
286.2560237154
 30
0.0
 11
392.6086476638
 21
279.9276793703
 31
0.0
  0
LINE
  5
270
330
1F
100
AcDbEntity
  8
0
  6
CONTINUOUS
 62
     7
100
AcDbLine
 10
390.1086477197
 20
357.0843572125
 30
0.0
 11
392.6086476638
 21
354.5843595967
 31
0.0
  0
LINE
  5
271
330
1F
100
AcDbEntity
  8
0
  6
CONTINUOUS
 62
     7
100
AcDbLine
 10
392.6086476638
 20
354.5843595967
 30
0.0
 11
392.6086476638
 21
348.2560152516
 31
0.0
  0
SPLINE
  5
272
330
1F
100
AcDbEntity
  8
0
  6
CONTINUOUS
 62
     7
100
AcDbSpline
210
0.0
220
0.0
230
1.0
 70
    24
 71
     3
 72
    14
 73
    10
 74
     0
 42
0.00000001
 43
0.00000001
 40
0.0
 40
0.0
 40
0.0
 40
0.0
 40
0.2500000000000001
 40
0.2500000000000001
 40
0.5000000000000001
 40
0.5000000000000001
 40
0.7500000000000002
 40
0.7500000000000002
 40
1.0
 40
1.0
 40
1.0
 40
1.0
 10
399.6086478873527
 20
296.8613896833833
 30
0.0
 10
399.6086478873527
 20
296.8613900635076
 30
0.0
 10
399.6086478873527
 20
299.0102120564385
 30
0.0
 10
399.6086478873528
 20
306.6594648929755
 30
0.0
 10
399.6086478873528
 20
311.8471794690444
 30
0.0
 10
399.6086478873528
 20
322.6648561923485
 30
0.0
 10
399.6086478873528
 20
327.8525707683989
 30
0.0
 10
399.6086478873527
 20
335.5018236048705
 30
0.0
 10
399.6086478873527
 20
337.650645597757
 30
0.0
 10
399.6086478873527
 20
337.650645977835
 30
0.0
  0
SPLINE
  5
273
330
1F
100
AcDbEntity
  8
0
  6
CONTINUOUS
 62
     7
100
AcDbSpline
210
0.0
220
0.0
230
1.0
 70
    24
 71
     3
 72
    14
 73
    10
 74
     0
 42
0.00000001
 43
0.00000001
 40
0.0
 40
0.0
 40
0.0
 40
0.0
 40
0.2499999999999998
 40
0.2499999999999998
 40
0.4999999999999997
 40
0.4999999999999997
 40
0.7499999999999996
 40
0.7499999999999996
 40
1.0
 40
1.0
 40
1.0
 40
1.0
 10
402.6086478873527
 20
307.843624526488
 30
0.0
 10
402.6086478873527
 20
307.843624906612
 30
0.0
 10
402.6086478873527
 20
308.8353350488708
 30
0.0
 10
402.6086478873527
 20
312.3655673607935
 30
0.0
 10
402.6086478873527
 20
314.7597668137913
 30
0.0
 10
402.6086478873527
 20
319.7522688475057
 30
0.0
 10
402.6086478873527
 20
322.1464683004951
 30
0.0
 10
402.6086478873527
 20
325.6767006123883
 30
0.0
 10
402.6086478873527
 20
326.6684107546271
 30
0.0
 10
402.6086478873527
 20
326.6684111347303
 30
0.0
  0
LINE
  5
274
330
1F
100
AcDbEntity
  8
0
  6
CONTINUOUS
 62
     7
100
AcDbLine
 10
394.6086479917
 20
347.1861714825
 30
0.0
 11
394.6086479917
 21
347.2204739556
 31
0.0
  0
SPLINE
  5
275
330
1F
100
AcDbEntity
  8
0
  6
CONTINUOUS
 62
     7
100
AcDbSpline
210
0.0
220
0.0
230
1.0
 70
    24
 71
     3
 72
    19
 73
    15
 74
     0
 42
0.00000001
 43
0.00000001
 40
0.0
 40
0.0
 40
0.0
 40
0.0
 40
0.1197206844428211
 40
0.1849179321868551
 40
0.2500018459231991
 40
0.3151968964542074
 40
0.3802760177067168
 40
0.4999967021495379
 40
0.6197237056044456
 40
0.6849173576053404
 40
0.749997991682332
 40
0.815197338225169
 40
0.8802793155571788
 40
0.9999999999999999
 40
0.9999999999999999
 40
0.9999999999999999
 40
0.9999999999999999
 10
397.1086474701201
 20
340.7759005531594
 30
0.0
 10
397.1086474701201
 20
340.7957808023836
 30
0.0
 10
397.1086474701201
 20
340.8264873974471
 30
0.0
 10
397.1086474701201
 20
341.0108221630561
 30
0.0
 10
397.1086474701201
 20
341.2021868315445
 30
0.0
 10
397.1086474701201
 20
341.4376390357349
 30
0.0
 10
397.1086474701201
 20
341.782569166299
 30
0.0
 10
397.1086474701201
 20
342.2560134244539
 30
0.0
 10
397.1086474701201
 20
342.7296331561346
 30
0.0
 10
397.1086474701201
 20
343.074553679916
 30
0.0
 10
397.1086474701201
 20
343.3100971817154
 30
0.0
 10
397.1086474701201
 20
343.5013202170812
 30
0.0
 10
397.1086474701201
 20
343.6855685670431
 30
0.0
 10
397.1086474701201
 20
343.7162555132318
 30
0.0
 10
397.1086474701201
 20
343.7361354336067
 30
0.0
  0
SPLINE
  5
276
330
1F
100
AcDbEntity
  8
0
  6
CONTINUOUS
 62
     7
100
AcDbSpline
210
0.0
220
0.0
230
1.0
 70
    24
 71
     3
 72
    12
 73
     8
 74
     0
 42
0.00000001
 43
0.00000001
 40
0.0
 40
0.0
 40
0.0
 40
0.0
 40
0.3333333333333332
 40
0.3333333333333332
 40
0.6666666666666664
 40
0.6666666666666664
 40
1.0
 40
1.0
 40
1.0
 40
1.0
 10
397.1086478873526
 20
290.775914254344
 30
0.0
 10
397.1086478873526
 20
290.775914223403
 30
0.0
 10
397.1086478873526
 20
291.0580872228516
 30
0.0
 10
397.1086478873526
 20
291.9738448121001
 30
0.0
 10
397.1086478873526
 20
292.5381908491314
 30
0.0
 10
397.1086478873526
 20
293.4539484383753
 30
0.0
 10
397.1086478873526
 20
293.7361214378198
 30
0.0
 10
397.1086478873526
 20
293.7361214068743
 30
0.0
  0
SPLINE
  5
277
330
1F
100
AcDbEntity
  8
0
  6
CONTINUOUS
 62
     7
100
AcDbSpline
210
0.0
220
0.0
230
1.0
 70
    24
 71
     3
 72
    11
 73
     7
 74
     0
 42
0.00000001
 43
0.00000001
 40
0.0
 40
0.0
 40
0.0
 40
0.0
 40
0.2732199352122928
 40
0.5548897428157678
 40
0.8444450786832035
 40
1.0
 40
1.0
 40
1.0
 40
1.0
 10
399.6086488112245
 20
294.3613911375328
 30
0.0
 10
399.6086488112245
 20
294.3936769610751
 30
0.0
 10
399.6086488112245
 20
294.45924711176
 30
0.0
 10
399.6086488112245
 20
295.0174481861936
 30
0.0
 10
399.6086488112245
 20
295.7475863100294
 30
0.0
 10
399.6086488112245
 20
296.3995064150085
 30
0.0
 10
399.6086488112245
 20
296.6273362144752
 30
0.0
  0
SPLINE
  5
278
330
1F
100
AcDbEntity
  8
0
  6
CONTINUOUS
 62
     7
100
AcDbSpline
210
0.0
220
0.0
230
1.0
 70
    24
 71
     3
 72
    11
 73
     7
 74
     0
 42
0.00000001
 43
0.00000001
 40
0.0
 40
0.0
 40
0.0
 40
0.0
 40
0.1555549655856238
 40
0.4451558498661041
 40
0.7268263339233827
 40
1.0
 40
1.0
 40
1.0
 40
1.0
 10
399.6086488112245
 20
337.8847176536842
 30
0.0
 10
399.6086488112245
 20
338.1125342586646
 30
0.0
 10
399.6086488112245
 20
338.7644831953113
 30
0.0
 10
399.6086488112245
 20
339.4947025785696
 30
0.0
 10
399.6086488112245
 20
340.0527929719673
 30
0.0
 10
399.6086488112245
 20
340.1183642606305
 30
0.0
 10
399.6086488112245
 20
340.1506478294655
 30
0.0
  0
SPLINE
  5
279
330
1F
100
AcDbEntity
  8
0
  6
CONTINUOUS
 62
     7
100
AcDbSpline
210
0.0
220
0.0
230
1.0
 70
    24
 71
     3
 72
    13
 73
     9
 74
     0
 42
0.00000001
 43
0.00000001
 40
0.0
 40
0.0
 40
0.0
 40
0.0
 40
0.2193402066754292
 40
0.4518190811209961
 40
0.5730679227291431
 40
0.6942736335753567
 40
0.9415554688175439
 40
1.0
 40
1.0
 40
1.0
 40
1.0
 10
402.6086474403177
 20
302.8436238273903
 30
0.0
 10
402.6086474403177
 20
302.8900703014536
 30
0.0
 10
402.6086474403177
 20
302.9857454334813
 30
0.0
 10
402.6086474403177
 20
303.6521168482876
 30
0.0
 10
402.6086474403177
 20
304.4346766473862
 30
0.0
 10
402.6086474403177
 20
305.436898725973
 30
0.0
 10
402.6086474403177
 20
306.4607423815283
 30
0.0
 10
402.6086474403177
 20
307.42520820663
 30
0.0
 10
402.6086474403177
 20
307.6095814213082
 30
0.0
  0
SPLINE
  5
27A
330
1F
100
AcDbEntity
  8
0
  6
CONTINUOUS
 62
     7
100
AcDbSpline
210
0.0
220
0.0
230
1.0
 70
    24
 71
     3
 72
    12
 73
     8
 74
     0
 42
0.00000001
 43
0.00000001
 40
0.0
 40
0.0
 40
0.0
 40
0.0
 40
0.0584604947735858
 40
0.3058196828391399
 40
0.5480396976908236
 40
0.7805912944101228
 40
1.0
 40
1.0
 40
1.0
 40
1.0
 10
402.6086474403177
 20
326.9024724468513
 30
0.0
 10
402.6086474403177
 20
327.0867677157302
 30
0.0
 10
402.6086474403177
 20
328.050856728243
 30
0.0
 10
402.6086474403177
 20
329.3740366693214
 30
0.0
 10
402.6086474403177
 20
330.7284929472897
 30
0.0
 10
402.6086474403177
 20
331.524196735704
 30
0.0
 10
402.6086474403177
 20
331.6212733923963
 30
0.0
 10
402.6086474403177
 20
331.6684002384468
 30
0.0
  0
LINE
  5
27B
330
1F
100
AcDbEntity
  8
0
  6
CONTINUOUS
 62
     7
100
AcDbLine
 10
372.6086481109
 20
315.7560164437
 30
0.0
 11
381.4086478304
 21
315.7560164437
 31
0.0
  0
LINE
  5
27C
330
1F
100
AcDbEntity
  8
0
  6
CONTINUOUS
 62
     7
100
AcDbLine
 10
372.6086481109
 20
318.7560076222
 30
0.0
 11
381.4086478304
 21
318.7560076222
 31
0.0
  0
LINE
  5
27D
330
1F
100
AcDbEntity
  8
0
  6
CONTINUOUS
 62
     7
100
AcDbLine
 10
394.6435474425
 20
287.3270744786
 30
0.0
 11
394.6435474425
 21
347.1849495873
 31
0.0
  0
LINE
  5
27E
330
1F
100
AcDbEntity
  8
0
  6
CONTINUOUS
 62
     7
100
AcDbLine
 10
398.6435471668
 20
295.8619976744
 30
0.0
 11
398.6435471668
 21
338.6500412926
 31
0.0
  0
LINE
  5
27F
330
1F
100
AcDbEntity
  8
0
  6
CONTINUOUS
 62
     7
100
AcDbLine
 10
402.1260975494
 20
307.3439235195
 30
0.0
 11
402.1260975494
 21
327.1681005463
 31
0.0
  0
LINE
  5
280
330
1F
100
AcDbEntity
  8
0
  6
CONTINUOUS
 62
     7
100
AcDbLine
 10
393.6435472786
 20
347.2198779091
 30
0.0
 11
393.6435472786
 21
348.2198650345
 31
0.0
  0
LINE
  5
281
330
1F
100
AcDbEntity
  8
0
  6
CONTINUOUS
 62
     7
100
AcDbLine
 10
393.6435472786
 20
286.2921590313
 30
0.0
 11
393.6435472786
 21
287.2921610579
 31
0.0
  0
LINE
  5
282
330
1F
100
AcDbEntity
  8
0
  6
CONTINUOUS
 62
     7
100
AcDbLine
 10
396.6173738807
 20
290.2759844765
 30
0.0
 11
396.6173738807
 21
294.2360425696
 31
0.0
  0
LINE
  5
283
330
1F
100
AcDbEntity
  8
0
  6
CONTINUOUS
 62
     7
100
AcDbLine
 10
396.6173738807
 20
340.2759963974
 30
0.0
 11
396.6173738807
 21
344.2360395893
 31
0.0
  0
LINE
  5
284
330
1F
100
AcDbEntity
  8
0
  6
CONTINUOUS
 62
     7
100
AcDbLine
 10
398.6435471668
 20
293.3620000586
 30
0.0
 11
398.6435471668
 21
295.8619976744
 31
0.0
  0
LINE
  5
285
330
1F
100
AcDbEntity
  8
0
  6
CONTINUOUS
 62
     7
100
AcDbLine
 10
398.6435471668
 20
338.6500412926
 30
0.0
 11
398.6435471668
 21
341.1500389084
 31
0.0
  0
LINE
  5
286
330
1F
100
AcDbEntity
  8
0
  6
CONTINUOUS
 62
     7
100
AcDbLine
 10
402.1260975494
 20
302.3439282879
 30
0.0
 11
402.1260975494
 21
307.3439235195
 31
0.0
  0
LINE
  5
287
330
1F
100
AcDbEntity
  8
0
  6
CONTINUOUS
 62
     7
100
AcDbLine
 10
402.1260975494
 20
327.1681005463
 30
0.0
 11
402.1260975494
 21
332.1680957779
 31
0.0
  0
LINE
  5
288
330
1F
100
AcDbEntity
  8
0
  6
CONTINUOUS
 62
     7
100
AcDbLine
 10
487.7167805125
 20
318.7560076222
 30
0.0
 11
487.3675717999
 21
318.7560076222
 31
0.0
  0
LINE
  5
289
330
1F
100
AcDbEntity
  8
0
  6
CONTINUOUS
 62
     7
100
AcDbLine
 10
487.7167805125
 20
315.7560164437
 30
0.0
 11
487.7167805125
 21
318.7560076222
 31
0.0
  0
LINE
  5
28A
330
1F
100
AcDbEntity
  8
0
  6
CONTINUOUS
 62
     7
100
AcDbLine
 10
487.7167805125
 20
315.7560164437
 30
0.0
 11
487.3675717999
 21
315.7560164437
 31
0.0
  0
LINE
  5
28B
330
1F
100
AcDbEntity
  8
0
  6
CONTINUOUS
 62
     7
100
AcDbLine
 10
487.3675717999
 20
318.7560076222
 30
0.0
 11
487.3675717999
 21
315.7560164437
 31
0.0
  0
ARC
  5
28C
330
1F
100
AcDbEntity
  8
0
  6
CONTINUOUS
 62
     7
100
AcDbCircle
 10
517.3675789795
 20
315.7560178306
 30
0.0
 40
29.65079230508252
100
AcDbArc
 50
180.0
 51
270.0
  0
LINE
  5
28D
330
1F
100
AcDbEntity
  8
0
  6
CONTINUOUS
 62
     7
100
AcDbLine
 10
517.367572992
 20
286.1052239641
 30
0.0
 11
517.367572992
 21
285.7560152516
 31
0.0
  0
ARC
  5
28E
330
1F
100
AcDbEntity
  8
0
  6
CONTINUOUS
 62
     7
100
AcDbCircle
 10
517.3675789795
 20
315.7560178306
 30
0.0
 40
30.0
100
AcDbArc
 50
180.0
 51
270.0
  0
LINE
  5
28F
330
1F
100
AcDbEntity
  8
0
  6
CONTINUOUS
 62
     7
100
AcDbLine
 10
517.367572992
 20
348.7560088143
 30
0.0
 11
517.367572992
 21
348.4068150029
 31
0.0
  0
ARC
  5
290
330
1F
100
AcDbEntity
  8
0
  6
CONTINUOUS
 62
     7
100
AcDbCircle
 10
517.3675789795
 20
318.7560178306
 30
0.0
 40
29.65079230508252
100
AcDbArc
 50
90.0
 51
180.0
  0
ARC
  5
291
330
1F
100
AcDbEntity
  8
0
  6
CONTINUOUS
 62
     7
100
AcDbCircle
 10
517.3675789795
 20
318.7560178306
 30
0.0
 40
30.0
100
AcDbArc
 50
90.0
 51
180.0
  0
LINE
  5
292
330
1F
100
AcDbEntity
  8
0
  6
CONTINUOUS
 62
     7
100
AcDbLine
 10
601.4743982841
 20
287.2560108408
 30
0.0
 11
630.2607595016
 21
287.2560108408
 31
0.0
  0
ARC
  5
293
330
1F
100
AcDbEntity
  8
0
  6
CONTINUOUS
 62
     7
100
AcDbCircle
 10
630.2607621178
 20
288.7560178306
 30
0.0
 40
1.500000000001467
100
AcDbArc
 50
270.0
 51
58.2929306724
  0
ARC
  5
294
330
1F
100
AcDbEntity
  8
0
  6
CONTINUOUS
 62
     7
100
AcDbCircle
 10
647.8675789795
 20
317.2560178306
 30
0.0
 40
32.00000000000168
100
AcDbArc
 50
194.1411102339
 51
238.2929306724
  0
ARC
  5
295
330
1F
100
AcDbEntity
  8
0
  6
CONTINUOUS
 62
     7
100
AcDbCircle
 10
615.8675789795
 20
309.1937600823
 30
0.0
 40
0.999999999998324
100
AcDbArc
 50
14.1411102339
 51
165.8588897661
  0
ARC
  5
296
330
1F
100
AcDbEntity
  8
0
  6
CONTINUOUS
 62
     7
100
AcDbCircle
 10
583.8675789795
 20
317.2560178306
 30
0.0
 40
32.0000000000036
100
AcDbArc
 50
301.7070693276
 51
345.8588897661
  0
ARC
  5
297
330
1F
100
AcDbEntity
  8
0
  6
CONTINUOUS
 62
     7
100
AcDbCircle
 10
601.4743958411
 20
288.7560178306
 30
0.0
 40
1.499999999999773
100
AcDbArc
 50
121.7070693277
 51
270.0
  0
LINE
  5
298
330
1F
100
AcDbEntity
  8
0
  6
CONTINUOUS
 62
     7
100
AcDbLine
 10
537.4743952443
 20
287.2560108408
 30
0.0
 11
566.2607564618
 21
287.2560108408
 31
0.0
  0
ARC
  5
299
330
1F
100
AcDbEntity
  8
0
  6
CONTINUOUS
 62
     7
100
AcDbCircle
 10
566.2607621178
 20
288.7560178306
 30
0.0
 40
1.499999999999773
100
AcDbArc
 50
270.0
 51
58.2929306724
  0
ARC
  5
29A
330
1F
100
AcDbEntity
  8
0
  6
CONTINUOUS
 62
     7
100
AcDbCircle
 10
583.8675789795
 20
317.2560178306
 30
0.0
 40
32.00000000000345
100
AcDbArc
 50
194.1411102339
 51
238.2929306724
  0
ARC
  5
29B
330
1F
100
AcDbEntity
  8
0
  6
CONTINUOUS
 62
     7
100
AcDbCircle
 10
551.8675789795
 20
309.1937600823
 30
0.0
 40
0.9999999999965332
100
AcDbArc
 50
14.1411102339
 51
165.8588897661
  0
ARC
  5
29C
330
1F
100
AcDbEntity
  8
0
  6
CONTINUOUS
 62
     7
100
AcDbCircle
 10
519.8675789795
 20
317.2560178306
 30
0.0
 40
32.00000000000362
100
AcDbArc
 50
301.7070693276
 51
345.8588897661
  0
ARC
  5
29D
330
1F
100
AcDbEntity
  8
0
  6
CONTINUOUS
 62
     7
100
AcDbCircle
 10
537.4743958411
 20
288.7560178306
 30
0.0
 40
1.500000000002587
100
AcDbArc
 50
121.7070693276
 51
270.0
  0
LINE
  5
29E
330
1F
100
AcDbEntity
  8
0
  6
CONTINUOUS
 62
     7
100
AcDbLine
 10
630.2607595016
 20
347.2560281262
 30
0.0
 11
601.4743982841
 21
347.2560281262
 31
0.0
  0
ARC
  5
29F
330
1F
100
AcDbEntity
  8
0
  6
CONTINUOUS
 62
     7
100
AcDbCircle
 10
601.4743958411
 20
345.7560178306
 30
0.0
 40
1.49999999999978
100
AcDbArc
 50
90.0
 51
238.2929306724
  0
ARC
  5
2A0
330
1F
100
AcDbEntity
  8
0
  6
CONTINUOUS
 62
     7
100
AcDbCircle
 10
583.8675789795
 20
317.2560178306
 30
0.0
 40
32.00000000000157
100
AcDbArc
 50
14.1411102339
 51
58.2929306724
  0
ARC
  5
2A1
330
1F
100
AcDbEntity
  8
0
  6
CONTINUOUS
 62
     7
100
AcDbCircle
 10
615.8675789795
 20
325.3182755789
 30
0.0
 40
0.999999999998422
100
AcDbArc
 50
194.1411102339
 51
345.8588897661
  0
ARC
  5
2A2
330
1F
100
AcDbEntity
  8
0
  6
CONTINUOUS
 62
     7
100
AcDbCircle
 10
647.8675789795
 20
317.2560178306
 30
0.0
 40
32.00000000000361
100
AcDbArc
 50
121.7070693276
 51
165.8588897661
  0
ARC
  5
2A3
330
1F
100
AcDbEntity
  8
0
  6
CONTINUOUS
 62
     7
100
AcDbCircle
 10
630.2607621178
 20
345.7560178306
 30
0.0
 40
1.499999999999716
100
AcDbArc
 50
301.7070693277
 51
90.0
  0
ARC
  5
2A4
330
1F
100
AcDbEntity
  8
0
  6
CONTINUOUS
 62
     7
100
AcDbCircle
 10
519.8675789795
 20
317.2560178306
 30
0.0
 40
32.0000000000002
100
AcDbArc
 50
14.1411102339
 51
58.2929306724
  0
ARC
  5
2A5
330
1F
100
AcDbEntity
  8
0
  6
CONTINUOUS
 62
     7
100
AcDbCircle
 10
551.8675789795
 20
325.3182755789
 30
0.0
 40
0.9999999999998006
100
AcDbArc
 50
194.1411102339
 51
345.8588897661
  0
ARC
  5
2A6
330
1F
100
AcDbEntity
  8
0
  6
CONTINUOUS
 62
     7
100
AcDbCircle
 10
583.8675789795
 20
317.2560178306
 30
0.0
 40
32.00000000000364
100
AcDbArc
 50
121.7070693276
 51
165.8588897661
  0
ARC
  5
2A7
330
1F
100
AcDbEntity
  8
0
  6
CONTINUOUS
 62
     7
100
AcDbCircle
 10
566.2607621178
 20
345.7560178306
 30
0.0
 40
1.500000000002121
100
AcDbArc
 50
301.7070693276
 51
90.0
  0
LINE
  5
2A8
330
1F
100
AcDbEntity
  8
0
  6
CONTINUOUS
 62
     7
100
AcDbLine
 10
566.2607564618
 20
347.2560281262
 30
0.0
 11
537.4743952443
 21
347.2560281262
 31
0.0
  0
ARC
  5
2A9
330
1F
100
AcDbEntity
  8
0
  6
CONTINUOUS
 62
     7
100
AcDbCircle
 10
537.4743958411
 20
345.7560178306
 30
0.0
 40
1.499999999999839
100
AcDbArc
 50
90.0
 51
238.2929306724
  0
CIRCLE
  5
2AA
330
1F
100
AcDbEntity
  8
0
  6
CONTINUOUS
 62
     7
100
AcDbCircle
 10
519.8675789795
 20
317.2560178306
 30
0.0
 40
29.14999999999998
  0
CIRCLE
  5
2AB
330
1F
100
AcDbEntity
  8
0
  6
CONTINUOUS
 62
     7
100
AcDbCircle
 10
647.8675789795
 20
317.2560178306
 30
0.0
 40
29.14999999999998
  0
CIRCLE
  5
2AC
330
1F
100
AcDbEntity
  8
0
  6
CONTINUOUS
 62
     7
100
AcDbCircle
 10
583.8675789795
 20
317.2560178306
 30
0.0
 40
29.15000000000009
  0
LINE
  5
2AD
330
1F
100
AcDbEntity
  8
0
  6
CONTINUOUS
 62
     7
100
AcDbLine
 10
517.367572992
 20
348.4068150029
 30
0.0
 11
650.3675780286
 21
348.4068150029
 31
0.0
  0
ARC
  5
2AE
330
1F
100
AcDbEntity
  8
0
  6
CONTINUOUS
 62
     7
100
AcDbCircle
 10
650.3675789795
 20
318.7560178306
 30
0.0
 40
29.65079230508263
100
AcDbArc
 50
0.0
 51
90.0
  0
LINE
  5
2AF
330
1F
100
AcDbEntity
  8
0
  6
CONTINUOUS
 62
     7
100
AcDbLine
 10
680.0183705081
 20
318.7560076222
 30
0.0
 11
680.0183705081
 21
315.7560164437
 31
0.0
  0
ARC
  5
2B0
330
1F
100
AcDbEntity
  8
0
  6
CONTINUOUS
 62
     7
100
AcDbCircle
 10
650.3675789795
 20
315.7560178306
 30
0.0
 40
29.65079230508263
100
AcDbArc
 50
270.0
 51
0.0
  0
LINE
  5
2B1
330
1F
100
AcDbEntity
  8
0
  6
CONTINUOUS
 62
     7
100
AcDbLine
 10
650.3675780286
 20
286.1052239641
 30
0.0
 11
517.367572992
 21
286.1052239641
 31
0.0
  0
CIRCLE
  5
2B2
330
1F
100
AcDbEntity
  8
0
  6
CONTINUOUS
 62
     7
100
AcDbCircle
 10
519.8675789795
 20
317.2560178306
 30
0.0
 40
28.97544935071789
  0
CIRCLE
  5
2B3
330
1F
100
AcDbEntity
  8
0
  6
CONTINUOUS
 62
     7
100
AcDbCircle
 10
519.8675789795
 20
317.2560178306
 30
0.0
 40
27.49999999999994
  0
CIRCLE
  5
2B4
330
1F
100
AcDbEntity
  8
0
  6
CONTINUOUS
 62
     7
100
AcDbCircle
 10
519.8675789795
 20
317.2560178306
 30
0.0
 40
10.17949192431121
  0
CIRCLE
  5
2B5
330
1F
100
AcDbEntity
  8
0
  6
CONTINUOUS
 62
     7
100
AcDbCircle
 10
519.8675789795
 20
317.2560178306
 30
0.0
 40
9.5
  0
LINE
  5
2B6
330
1F
100
AcDbEntity
  8
0
  6
CONTINUOUS
 62
     7
100
AcDbLine
 10
650.3675780286
 20
286.1052239641
 30
0.0
 11
650.3675780286
 21
285.7560152516
 31
0.0
  0
LINE
  5
2B7
330
1F
100
AcDbEntity
  8
0
  6
CONTINUOUS
 62
     7
100
AcDbLine
 10
517.367572992
 20
285.7560152516
 30
0.0
 11
650.3675780286
 21
285.7560152516
 31
0.0
  0
LINE
  5
2B8
330
1F
100
AcDbEntity
  8
0
  6
CONTINUOUS
 62
     7
100
AcDbLine
 10
650.3675780286
 20
348.4068150029
 30
0.0
 11
650.3675780286
 21
348.7560088143
 31
0.0
  0
LINE
  5
2B9
330
1F
100
AcDbEntity
  8
0
  6
CONTINUOUS
 62
     7
100
AcDbLine
 10
650.3675780286
 20
348.7560088143
 30
0.0
 11
517.367572992
 21
348.7560088143
 31
0.0
  0
CIRCLE
  5
2BA
330
1F
100
AcDbEntity
  8
0
  6
CONTINUOUS
 62
     7
100
AcDbCircle
 10
583.8675789795
 20
317.2560178306
 30
0.0
 40
28.97544935071789
  0
CIRCLE
  5
2BB
330
1F
100
AcDbEntity
  8
0
  6
CONTINUOUS
 62
     7
100
AcDbCircle
 10
583.8675789795
 20
317.2560178306
 30
0.0
 40
27.49999999999989
  0
CIRCLE
  5
2BC
330
1F
100
AcDbEntity
  8
0
  6
CONTINUOUS
 62
     7
100
AcDbCircle
 10
583.8675789795
 20
317.2560178306
 30
0.0
 40
15.58246407405795
  0
CIRCLE
  5
2BD
330
1F
100
AcDbEntity
  8
0
  6
CONTINUOUS
 62
     7
100
AcDbCircle
 10
583.8675789795
 20
317.2560178306
 30
0.0
 40
13.5
  0
CIRCLE
  5
2BE
330
1F
100
AcDbEntity
  8
0
  6
CONTINUOUS
 62
     7
100
AcDbCircle
 10
647.8675789795
 20
317.2560178306
 30
0.0
 40
28.97544935071767
  0
CIRCLE
  5
2BF
330
1F
100
AcDbEntity
  8
0
  6
CONTINUOUS
 62
     7
100
AcDbCircle
 10
647.8675789795
 20
317.2560178306
 30
0.0
 40
27.50000000000011
  0
CIRCLE
  5
2C0
330
1F
100
AcDbEntity
  8
0
  6
CONTINUOUS
 62
     7
100
AcDbCircle
 10
647.8675789795
 20
317.2560178306
 30
0.0
 40
10.17949192431126
  0
CIRCLE
  5
2C1
330
1F
100
AcDbEntity
  8
0
  6
CONTINUOUS
 62
     7
100
AcDbCircle
 10
647.8675789795
 20
317.2560178306
 30
0.0
 40
9.5
  0
LINE
  5
2C2
330
1F
100
AcDbEntity
  8
0
  6
CONTINUOUS
 62
     7
100
AcDbLine
 10
680.0183705081
 20
315.7560164437
 30
0.0
 11
680.3675792207
 21
315.7560164437
 31
0.0
  0
ARC
  5
2C3
330
1F
100
AcDbEntity
  8
0
  6
CONTINUOUS
 62
     7
100
AcDbCircle
 10
650.3675789795
 20
315.7560178306
 30
0.0
 40
30.00000000000011
100
AcDbArc
 50
270.0
 51
0.0
  0
LINE
  5
2C4
330
1F
100
AcDbEntity
  8
0
  6
CONTINUOUS
 62
     7
100
AcDbLine
 10
680.0183705081
 20
318.7560076222
 30
0.0
 11
680.3675792207
 21
318.7560076222
 31
0.0
  0
ARC
  5
2C5
330
1F
100
AcDbEntity
  8
0
  6
CONTINUOUS
 62
     7
100
AcDbCircle
 10
650.3675789795
 20
318.7560178306
 30
0.0
 40
30.00000000000011
100
AcDbArc
 50
0.0
 51
90.0
  0
LINE
  5
2C6
330
1F
100
AcDbEntity
  8
0
  6
CONTINUOUS
 62
     7
100
AcDbLine
 10
680.3675792207
 20
315.7560164437
 30
0.0
 11
680.3675792207
 21
318.7560076222
 31
0.0
  0
ARC
  5
2C7
330
1F
100
AcDbEntity
  8
0
  6
CONTINUOUS
 62
     7
100
AcDbCircle
 10
519.8675789795
 20
317.2560178306
 30
0.0
 40
32.68130113068298
100
AcDbArc
 50
301.7070693276
 51
345.8588897661
  0
LINE
  5
2C8
330
1F
100
AcDbEntity
  8
0
  6
CONTINUOUS
 62
     7
100
AcDbLine
 10
536.6860344102
 20
290.0321418747
 30
0.0
 11
537.0441093136
 21
289.4525165066
 31
0.0
  0
LINE
  5
2C9
330
1F
100
AcDbEntity
  8
0
  6
CONTINUOUS
 62
     7
100
AcDbLine
 10
550.8978827883
 20
309.4380731091
 30
0.0
 11
551.558540671
 21
309.2716271385
 31
0.0
  0
ARC
  5
2CA
330
1F
100
AcDbEntity
  8
0
  6
CONTINUOUS
 62
     7
100
AcDbCircle
 10
551.8675789795
 20
309.1937600823
 30
0.0
 40
0.3186988693176732
100
AcDbArc
 50
14.1411102339
 51
165.8588897661
  0
LINE
  5
2CB
330
1F
100
AcDbEntity
  8
0
  6
CONTINUOUS
 62
     7
100
AcDbLine
 10
552.8372689177
 20
309.4380731091
 30
0.0
 11
552.1766259362
 21
309.2716271385
 31
0.0
  0
ARC
  5
2CC
330
1F
100
AcDbEntity
  8
0
  6
CONTINUOUS
 62
     7
100
AcDbCircle
 10
551.8675789795
 20
325.3182755789
 30
0.0
 40
0.3186988693171497
100
AcDbArc
 50
194.1411102339
 51
345.8588897661
  0
LINE
  5
2CD
330
1F
100
AcDbEntity
  8
0
  6
CONTINUOUS
 62
     7
100
AcDbLine
 10
552.8372689177
 20
325.0739509568
 30
0.0
 11
552.1766259362
 21
325.2404267296
 31
0.0
  0
LINE
  5
2CE
330
1F
100
AcDbEntity
  8
0
  6
CONTINUOUS
 62
     7
100
AcDbLine
 10
551.558540671
 20
325.2404267296
 30
0.0
 11
550.8978827883
 21
325.0739509568
 31
0.0
  0
ARC
  5
2CF
330
1F
100
AcDbEntity
  8
0
  6
CONTINUOUS
 62
     7
100
AcDbCircle
 10
583.8675789795
 20
317.2560178306
 30
0.0
 40
32.68130113068231
100
AcDbArc
 50
194.1411102339
 51
238.2929306724
  0
LINE
  5
2D0
330
1F
100
AcDbEntity
  8
0
  6
CONTINUOUS
 62
     7
100
AcDbLine
 10
567.0491321971
 20
290.0321418747
 30
0.0
 11
566.6910572936
 21
289.4525165066
 31
0.0
  0
ARC
  5
2D1
330
1F
100
AcDbEntity
  8
0
  6
CONTINUOUS
 62
     7
100
AcDbCircle
 10
583.8675789795
 20
317.2560178306
 30
0.0
 40
32.68130113068287
100
AcDbArc
 50
121.7070693276
 51
165.8588897661
  0
LINE
  5
2D2
330
1F
100
AcDbEntity
  8
0
  6
CONTINUOUS
 62
     7
100
AcDbLine
 10
567.0491321971
 20
344.4799119934
 30
0.0
 11
566.6910572936
 21
345.0595075592
 31
0.0
  0
ARC
  5
2D3
330
1F
100
AcDbEntity
  8
0
  6
CONTINUOUS
 62
     7
100
AcDbCircle
 10
537.4743958411
 20
345.7560178306
 30
0.0
 40
0.8186988693209226
100
AcDbArc
 50
90.0
 51
238.2929306724
  0
LINE
  5
2D4
330
1F
100
AcDbEntity
  8
0
  6
CONTINUOUS
 62
     7
100
AcDbLine
 10
536.6860344102
 20
344.4799119934
 30
0.0
 11
537.0441093136
 21
345.0595075592
 31
0.0
  0
LINE
  5
2D5
330
1F
100
AcDbEntity
  8
0
  6
CONTINUOUS
 62
     7
100
AcDbLine
 10
537.4743952443
 20
347.2560281262
 30
0.0
 11
537.4743952443
 21
346.5747172341
 31
0.0
  0
ARC
  5
2D6
330
1F
100
AcDbEntity
  8
0
  6
CONTINUOUS
 62
     7
100
AcDbCircle
 10
537.4743958411
 20
288.7560178306
 30
0.0
 40
0.8186988693214233
100
AcDbArc
 50
121.7070693277
 51
270.0
  0
LINE
  5
2D7
330
1F
100
AcDbEntity
  8
0
  6
CONTINUOUS
 62
     7
100
AcDbLine
 10
537.4743952443
 20
287.2560108408
 30
0.0
 11
537.4743952443
 21
287.9373217329
 31
0.0
  0
ARC
  5
2D8
330
1F
100
AcDbEntity
  8
0
  6
CONTINUOUS
 62
     7
100
AcDbCircle
 10
519.8675789795
 20
317.2560178306
 30
0.0
 40
32.68130113068294
100
AcDbArc
 50
14.1411102339
 51
58.2929306724
  0
SPLINE
  5
2D9
330
1F
100
AcDbEntity
  8
0
  6
CONTINUOUS
 62
     7
100
AcDbSpline
210
0.0
220
0.0
230
1.0
 70
     8
 71
     3
 72
    16
 73
    12
 74
     0
 42
0.00000001
 43
0.00000001
 40
0.0
 40
0.0
 40
0.0
 40
0.0
 40
0.2499999999999998
 40
0.2499999999999998
 40
0.3749999999999998
 40
0.3749999999999998
 40
0.4999999999999999
 40
0.4999999999999999
 40
0.7499999999999999
 40
0.7499999999999999
 40
1.0
 40
1.0
 40
1.0
 40
1.0
 10
549.512703519579
 20
287.8849111820089
 30
0.0
 10
549.8855241085062
 20
287.8760529238884
 30
0.0
 10
550.2657769570222
 20
287.8686730199856
 30
0.0
 10
550.852699867368
 20
287.8608938667908
 30
0.0
 10
551.0511149030341
 20
287.8588526063972
 30
0.0
 10
551.4544840457104
 20
287.8560707753385
 30
0.0
 10
551.6613643456558
 20
287.8553367300877
 30
0.0
 10
552.2746088191532
 20
287.8553242404022
 30
0.0
 10
552.6747918027227
 20
287.8581826917184
 30
0.0
 10
553.4612083560385
 20
287.8685244835441
 30
0.0
 10
553.8486575985356
 20
287.8760297280359
 30
0.0
 10
554.2224544393753
 20
287.8849111820089
 30
0.0
  0
SPLINE
  5
2DA
330
1F
100
AcDbEntity
  8
0
  6
CONTINUOUS
 62
     7
100
AcDbSpline
210
0.0
220
0.0
230
1.0
 70
     8
 71
     3
 72
     9
 73
     5
 74
     0
 42
0.00000001
 43
0.00000001
 40
0.0
 40
0.0
 40
0.0
 40
0.0
 40
0.4918519894229872
 40
1.0
 40
1.0
 40
1.0
 40
1.0
 10
554.2224544394032
 20
287.8849111820043
 30
0.0
 10
554.250184386568
 20
287.8934972302254
 30
0.0
 10
554.3065630284381
 20
287.9109537992865
 30
0.0
 10
554.3600766244255
 20
287.9284356126193
 30
0.0
 10
554.3872694517653
 20
287.9373189612856
 30
0.0
  0
LINE
  5
2DB
330
1F
100
AcDbEntity
  8
0
  6
CONTINUOUS
 62
     7
100
AcDbLine
 10
554.3872728039
 20
287.9373217329
 30
0.0
 11
566.2607564618
 21
287.9373217329
 31
0.0
  0
LINE
  5
2DC
330
1F
100
AcDbEntity
  8
0
  6
CONTINUOUS
 62
     7
100
AcDbLine
 10
566.2607564618
 20
287.9373217329
 30
0.0
 11
566.2607564618
 21
287.2560108408
 31
0.0
  0
LINE
  5
2DD
330
1F
100
AcDbEntity
  8
0
  6
CONTINUOUS
 62
     7
100
AcDbLine
 10
537.4743952443
 20
287.9373217329
 30
0.0
 11
549.3478938033
 21
287.9373217329
 31
0.0
  0
SPLINE
  5
2DE
330
1F
100
AcDbEntity
  8
0
  6
CONTINUOUS
 62
     7
100
AcDbSpline
210
0.0
220
0.0
230
1.0
 70
     8
 71
     3
 72
     9
 73
     5
 74
     0
 42
0.00000001
 43
0.00000001
 40
0.0
 40
0.0
 40
0.0
 40
0.0
 40
0.5081480109443868
 40
1.0
 40
1.0
 40
1.0
 40
1.0
 10
549.347888507189
 20
287.9373189612856
 30
0.0
 10
549.3750813345497
 20
287.9284356126122
 30
0.0
 10
549.4285949305395
 20
287.9109537992782
 30
0.0
 10
549.4849735724079
 20
287.8934972302184
 30
0.0
 10
549.5127035195511
 20
287.8849111820043
 30
0.0
  0
SPLINE
  5
2DF
330
1F
100
AcDbEntity
  8
0
  6
CONTINUOUS
 62
     7
100
AcDbSpline
210
0.0
220
0.0
230
1.0
 70
     8
 71
     3
 72
    12
 73
     8
 74
     0
 42
0.00000001
 43
0.00000001
 40
0.0
 40
0.0
 40
0.0
 40
0.0
 40
0.2229371123605113
 40
0.4531483566358576
 40
0.6542314743021508
 40
0.863702658201161
 40
1.0
 40
1.0
 40
1.0
 40
1.0
 10
554.2224510599698
 20
346.6271097168251
 30
0.0
 10
553.8868110100727
 20
346.6343419691109
 30
0.0
 10
553.2045794362373
 20
346.6490424521456
 30
0.0
 10
552.1445259680252
 20
346.6583516980416
 30
0.0
 10
551.0985590715871
 20
346.6551588905301
 30
0.0
 10
550.2333603491704
 20
346.6432373698765
 30
0.0
 10
549.7164570380876
 20
346.6316695838237
 30
0.0
 10
549.5127006460751
 20
346.6271097168251
 30
0.0
  0
LINE
  5
2E0
330
1F
100
AcDbEntity
  8
0
  6
CONTINUOUS
 62
     7
100
AcDbLine
 10
549.5127006461
 20
346.6271097168
 30
0.0
 11
549.3478938033
 21
346.5747172341
 31
0.0
  0
LINE
  5
2E1
330
1F
100
AcDbEntity
  8
0
  6
CONTINUOUS
 62
     7
100
AcDbLine
 10
549.3478938033
 20
346.5747172341
 30
0.0
 11
537.4743952443
 21
346.5747172341
 31
0.0
  0
LINE
  5
2E2
330
1F
100
AcDbEntity
  8
0
  6
CONTINUOUS
 62
     7
100
AcDbLine
 10
566.2607564618
 20
347.2560281262
 30
0.0
 11
566.2607564618
 21
346.5747172341
 31
0.0
  0
LINE
  5
2E3
330
1F
100
AcDbEntity
  8
0
  6
CONTINUOUS
 62
     7
100
AcDbLine
 10
566.2607564618
 20
346.5747172341
 30
0.0
 11
554.3872728039
 21
346.5747172341
 31
0.0
  0
LINE
  5
2E4
330
1F
100
AcDbEntity
  8
0
  6
CONTINUOUS
 62
     7
100
AcDbLine
 10
554.3872728039
 20
346.5747172341
 30
0.0
 11
554.22245106
 21
346.6271097168
 31
0.0
  0
ARC
  5
2E5
330
1F
100
AcDbEntity
  8
0
  6
CONTINUOUS
 62
     7
100
AcDbCircle
 10
566.2607621178
 20
288.7560178306
 30
0.0
 40
0.8186988693208264
100
AcDbArc
 50
270.0
 51
58.2929306724
  0
ARC
  5
2E6
330
1F
100
AcDbEntity
  8
0
  6
CONTINUOUS
 62
     7
100
AcDbCircle
 10
566.2607621178
 20
345.7560178306
 30
0.0
 40
0.8186988693230475
100
AcDbArc
 50
301.7070693274
 51
90.0
  0
ARC
  5
2E7
330
1F
100
AcDbEntity
  8
0
  6
CONTINUOUS
 62
     7
100
AcDbCircle
 10
583.8675789795
 20
317.2560178306
 30
0.0
 40
32.68130113068212
100
AcDbArc
 50
14.1411102339
 51
58.2929306724
  0
LINE
  5
2E8
330
1F
100
AcDbEntity
  8
0
  6
CONTINUOUS
 62
     7
100
AcDbLine
 10
614.8978783776
 20
325.0739509568
 30
0.0
 11
615.5585362603
 21
325.2404267296
 31
0.0
  0
LINE
  5
2E9
330
1F
100
AcDbEntity
  8
0
  6
CONTINUOUS
 62
     7
100
AcDbLine
 10
600.6860299994
 20
344.4799119934
 30
0.0
 11
601.0441049029
 21
345.0595075592
 31
0.0
  0
ARC
  5
2EA
330
1F
100
AcDbEntity
  8
0
  6
CONTINUOUS
 62
     7
100
AcDbCircle
 10
583.8675789795
 20
317.2560178306
 30
0.0
 40
32.68130113068285
100
AcDbArc
 50
301.7070693276
 51
345.8588897661
  0
LINE
  5
2EB
330
1F
100
AcDbEntity
  8
0
  6
CONTINUOUS
 62
     7
100
AcDbLine
 10
600.6860299994
 20
290.0321418747
 30
0.0
 11
601.0441049029
 21
289.4525165066
 31
0.0
  0
LINE
  5
2EC
330
1F
100
AcDbEntity
  8
0
  6
CONTINUOUS
 62
     7
100
AcDbLine
 10
614.8978783776
 20
309.4380731091
 30
0.0
 11
615.5585362603
 21
309.2716271385
 31
0.0
  0
ARC
  5
2ED
330
1F
100
AcDbEntity
  8
0
  6
CONTINUOUS
 62
     7
100
AcDbCircle
 10
647.8675789795
 20
317.2560178306
 30
0.0
 40
32.68130113068234
100
AcDbArc
 50
194.1411102339
 51
238.2929306724
  0
LINE
  5
2EE
330
1F
100
AcDbEntity
  8
0
  6
CONTINUOUS
 62
     7
100
AcDbLine
 10
616.8372794081
 20
309.4380731091
 30
0.0
 11
616.1766215254
 21
309.2716271385
 31
0.0
  0
LINE
  5
2EF
330
1F
100
AcDbEntity
  8
0
  6
CONTINUOUS
 62
     7
100
AcDbLine
 10
631.0491277863
 20
290.0321418747
 30
0.0
 11
630.6910528828
 21
289.4525165066
 31
0.0
  0
ARC
  5
2F0
330
1F
100
AcDbEntity
  8
0
  6
CONTINUOUS
 62
     7
100
AcDbCircle
 10
615.8675789795
 20
325.3182755789
 30
0.0
 40
0.3186988693179909
100
AcDbArc
 50
194.141110234
 51
345.8588897661
  0
LINE
  5
2F1
330
1F
100
AcDbEntity
  8
0
  6
CONTINUOUS
 62
     7
100
AcDbLine
 10
616.8372794081
 20
325.0739509568
 30
0.0
 11
616.1766215254
 21
325.2404267296
 31
0.0
  0
ARC
  5
2F2
330
1F
100
AcDbEntity
  8
0
  6
CONTINUOUS
 62
     7
100
AcDbCircle
 10
615.8675789795
 20
309.1937600823
 30
0.0
 40
0.3186988693175621
100
AcDbArc
 50
14.1411102338
 51
165.8588897661
  0
ARC
  5
2F3
330
1F
100
AcDbEntity
  8
0
  6
CONTINUOUS
 62
     7
100
AcDbCircle
 10
647.8675789795
 20
317.2560178306
 30
0.0
 40
32.68130113068284
100
AcDbArc
 50
121.7070693276
 51
165.8588897661
  0
LINE
  5
2F4
330
1F
100
AcDbEntity
  8
0
  6
CONTINUOUS
 62
     7
100
AcDbLine
 10
631.0491277863
 20
344.4799119934
 30
0.0
 11
630.6910528828
 21
345.0595075592
 31
0.0
  0
ARC
  5
2F5
330
1F
100
AcDbEntity
  8
0
  6
CONTINUOUS
 62
     7
100
AcDbCircle
 10
601.4743958411
 20
345.7560178306
 30
0.0
 40
0.8186988693208832
100
AcDbArc
 50
90.0
 51
238.2929306724
  0
LINE
  5
2F6
330
1F
100
AcDbEntity
  8
0
  6
CONTINUOUS
 62
     7
100
AcDbLine
 10
601.4743982841
 20
346.5747172341
 30
0.0
 11
601.4743982841
 21
347.2560281262
 31
0.0
  0
ARC
  5
2F7
330
1F
100
AcDbEntity
  8
0
  6
CONTINUOUS
 62
     7
100
AcDbCircle
 10
601.4743958411
 20
288.7560178306
 30
0.0
 40
0.8186988693214717
100
AcDbArc
 50
121.7070693277
 51
270.0
  0
LINE
  5
2F8
330
1F
100
AcDbEntity
  8
0
  6
CONTINUOUS
 62
     7
100
AcDbLine
 10
601.4743982841
 20
287.2560108408
 30
0.0
 11
601.4743982841
 21
287.9373217329
 31
0.0
  0
ARC
  5
2F9
330
1F
100
AcDbEntity
  8
0
  6
CONTINUOUS
 62
     7
100
AcDbCircle
 10
630.2607621178
 20
288.7560178306
 30
0.0
 40
0.8186988693221402
100
AcDbArc
 50
270.0
 51
58.2929306724
  0
LINE
  5
2FA
330
1F
100
AcDbEntity
  8
0
  6
CONTINUOUS
 62
     7
100
AcDbLine
 10
630.2607595016
 20
287.9373217329
 30
0.0
 11
630.2607595016
 21
287.2560108408
 31
0.0
  0
SPLINE
  5
2FB
330
1F
100
AcDbEntity
  8
0
  6
CONTINUOUS
 62
     7
100
AcDbSpline
210
0.0
220
0.0
230
1.0
 70
     8
 71
     3
 72
    12
 73
     8
 74
     0
 42
0.00000001
 43
0.00000001
 40
0.0
 40
0.0
 40
0.0
 40
0.0
 40
0.2229385668494889
 40
0.4531498323338694
 40
0.6542314424469887
 40
0.8637026456442808
 40
0.9999999999999999
 40
0.9999999999999999
 40
0.9999999999999999
 40
0.9999999999999999
 10
618.2224540998068
 20
346.6271097168251
 30
0.0
 10
617.8868115280181
 20
346.6343419626148
 30
0.0
 10
617.2045770574217
 20
346.6490423844095
 30
0.0
 10
616.1445240879643
 20
346.6583517052309
 30
0.0
 10
615.0985596688537
 20
346.6551588551259
 30
0.0
 10
614.23336339333
 20
346.6432373702053
 30
0.0
 10
613.7164600791466
 20
346.6316695839167
 30
0.0
 10
613.5127036859121
 20
346.6271097168251
 30
0.0
  0
LINE
  5
2FC
330
1F
100
AcDbEntity
  8
0
  6
CONTINUOUS
 62
     7
100
AcDbLine
 10
613.5127036859
 20
346.6271097168
 30
0.0
 11
613.3478893925
 21
346.5747172341
 31
0.0
  0
LINE
  5
2FD
330
1F
100
AcDbEntity
  8
0
  6
CONTINUOUS
 62
     7
100
AcDbLine
 10
613.3478893925
 20
346.5747172341
 30
0.0
 11
601.4743982841
 21
346.5747172341
 31
0.0
  0
LINE
  5
2FE
330
1F
100
AcDbEntity
  8
0
  6
CONTINUOUS
 62
     7
100
AcDbLine
 10
630.2607595016
 20
347.2560281262
 30
0.0
 11
630.2607595016
 21
346.5747172341
 31
0.0
  0
LINE
  5
2FF
330
1F
100
AcDbEntity
  8
0
  6
CONTINUOUS
 62
     7
100
AcDbLine
 10
630.2607595016
 20
346.5747172341
 30
0.0
 11
618.3872683932
 21
346.5747172341
 31
0.0
  0
LINE
  5
300
330
1F
100
AcDbEntity
  8
0
  6
CONTINUOUS
 62
     7
100
AcDbLine
 10
618.3872683932
 20
346.5747172341
 30
0.0
 11
618.2224540998
 21
346.6271097168
 31
0.0
  0
SPLINE
  5
301
330
1F
100
AcDbEntity
  8
0
  6
CONTINUOUS
 62
     7
100
AcDbSpline
210
0.0
220
0.0
230
1.0
 70
     8
 71
     3
 72
    16
 73
    12
 74
     0
 42
0.00000001
 43
0.00000001
 40
0.0
 40
0.0
 40
0.0
 40
0.0
 40
0.2500000000000042
 40
0.2500000000000042
 40
0.3750000000000063
 40
0.3750000000000063
 40
0.5000000000000084
 40
0.5000000000000084
 40
0.7500000000000042
 40
0.7500000000000042
 40
1.0
 40
1.0
 40
1.0
 40
1.0
 10
613.5127035195593
 20
287.8849111820076
 30
0.0
 10
613.8855241084902
 20
287.8760529238871
 30
0.0
 10
614.265776957042
 20
287.8686730199838
 30
0.0
 10
614.8526998673939
 20
287.860893866789
 30
0.0
 10
615.0511149030622
 20
287.8588526063955
 30
0.0
 10
615.4544840457427
 20
287.8560707753368
 30
0.0
 10
615.6613643456901
 20
287.8553367300863
 30
0.0
 10
616.2746088191926
 20
287.855324240401
 30
0.0
 10
616.6747918027655
 20
287.8581826917175
 30
0.0
 10
617.4612083560876
 20
287.8685244835435
 30
0.0
 10
617.8486575985514
 20
287.8760297280345
 30
0.0
 10
618.222454439395
 20
287.8849111820076
 30
0.0
  0
SPLINE
  5
302
330
1F
100
AcDbEntity
  8
0
  6
CONTINUOUS
 62
     7
100
AcDbSpline
210
0.0
220
0.0
230
1.0
 70
     8
 71
     3
 72
     9
 73
     5
 74
     0
 42
0.00000001
 43
0.00000001
 40
0.0
 40
0.0
 40
0.0
 40
0.0
 40
0.4918519894228116
 40
0.9999999999999999
 40
0.9999999999999999
 40
0.9999999999999999
 40
0.9999999999999999
 10
618.2224544394031
 20
287.8849111820044
 30
0.0
 10
618.250184386568
 20
287.8934972302254
 30
0.0
 10
618.306563028438
 20
287.9109537992865
 30
0.0
 10
618.3600766244253
 20
287.9284356126193
 30
0.0
 10
618.3872694517652
 20
287.9373189612856
 30
0.0
  0
LINE
  5
303
330
1F
100
AcDbEntity
  8
0
  6
CONTINUOUS
 62
     7
100
AcDbLine
 10
618.3872683932
 20
287.9373217329
 30
0.0
 11
630.2607595016
 21
287.9373217329
 31
0.0
  0
LINE
  5
304
330
1F
100
AcDbEntity
  8
0
  6
CONTINUOUS
 62
     7
100
AcDbLine
 10
601.4743982841
 20
287.9373217329
 30
0.0
 11
613.3478893925
 21
287.9373217329
 31
0.0
  0
SPLINE
  5
305
330
1F
100
AcDbEntity
  8
0
  6
CONTINUOUS
 62
     7
100
AcDbSpline
210
0.0
220
0.0
230
1.0
 70
     8
 71
     3
 72
     9
 73
     5
 74
     0
 42
0.00000001
 43
0.00000001
 40
0.0
 40
0.0
 40
0.0
 40
0.0
 40
0.5081480105773616
 40
0.9999999999999999
 40
0.9999999999999999
 40
0.9999999999999999
 40
0.9999999999999999
 10
613.347888507189
 20
287.9373189612856
 30
0.0
 10
613.3750813345289
 20
287.9284356126193
 30
0.0
 10
613.4285949305164
 20
287.9109537992865
 30
0.0
 10
613.4849735723864
 20
287.8934972302255
 30
0.0
 10
613.5127035195511
 20
287.8849111820044
 30
0.0
  0
ARC
  5
306
330
1F
100
AcDbEntity
  8
0
  6
CONTINUOUS
 62
     7
100
AcDbCircle
 10
630.2607621178
 20
345.7560178306
 30
0.0
 40
0.8186988693208832
100
AcDbArc
 50
301.7070693278
 51
90.0
  0
CIRCLE
  5
307
330
1F
100
AcDbEntity
  8
0
  6
CONTINUOUS
 62
     7
100
AcDbCircle
 10
551.8675789795
 20
292.2560178306
 30
0.0
 40
1.307601714263228
  0
CIRCLE
  5
308
330
1F
100
AcDbEntity
  8
0
  6
CONTINUOUS
 62
     7
100
AcDbCircle
 10
551.8675789795
 20
292.2560178306
 30
0.0
 40
1.665079230529614
  0
CIRCLE
  5
309
330
1F
100
AcDbEntity
  8
0
  6
CONTINUOUS
 62
     7
100
AcDbCircle
 10
551.8675789795
 20
342.2560178306
 30
0.0
 40
1.307601714263228
  0
CIRCLE
  5
30A
330
1F
100
AcDbEntity
  8
0
  6
CONTINUOUS
 62
     7
100
AcDbCircle
 10
551.8675789795
 20
342.2560178306
 30
0.0
 40
1.665079230529614
  0
CIRCLE
  5
30B
330
1F
100
AcDbEntity
  8
0
  6
CONTINUOUS
 62
     7
100
AcDbCircle
 10
551.8675789795
 20
342.2560178306
 30
0.0
 40
1.29712867530634
  0
CIRCLE
  5
30C
330
1F
100
AcDbEntity
  8
0
  6
CONTINUOUS
 62
     7
100
AcDbCircle
 10
551.8675789795
 20
292.2560178306
 30
0.0
 40
1.29712867530634
  0
ARC
  5
30D
330
1F
100
AcDbEntity
  8
0
  6
CONTINUOUS
 62
     7
100
AcDbCircle
 10
615.8675789795
 20
342.2560178306
 30
0.0
 40
4.965079230521219
100
AcDbArc
 50
118.3129751838
 51
61.6870248162
  0
CIRCLE
  5
30E
330
1F
100
AcDbEntity
  8
0
  6
CONTINUOUS
 62
     7
100
AcDbCircle
 10
615.8675789795
 20
342.2560178306
 30
0.0
 40
1.665079230451511
  0
CIRCLE
  5
30F
330
1F
100
AcDbEntity
  8
0
  6
CONTINUOUS
 62
     7
100
AcDbCircle
 10
615.8675789795
 20
292.2560178306
 30
0.0
 40
1.665079230451511
  0
ARC
  5
310
330
1F
100
AcDbEntity
  8
0
  6
CONTINUOUS
 62
     7
100
AcDbCircle
 10
615.8675789795
 20
292.2560178306
 30
0.0
 40
4.96507923052117
100
AcDbArc
 50
298.3129751838
 51
241.6870248162
  0
CIRCLE
  5
311
330
1F
100
AcDbEntity
  8
0
  6
CONTINUOUS
 62
     7
100
AcDbCircle
 10
615.8675789795
 20
342.2560178306
 30
0.0
 40
1.307601714263228
  0
CIRCLE
  5
312
330
1F
100
AcDbEntity
  8
0
  6
CONTINUOUS
 62
     7
100
AcDbCircle
 10
615.8675789795
 20
292.2560178306
 30
0.0
 40
1.307601714263228
  0
CIRCLE
  5
313
330
1F
100
AcDbEntity
  8
0
  6
CONTINUOUS
 62
     7
100
AcDbCircle
 10
615.8675789795
 20
292.2560178306
 30
0.0
 40
1.297128675306226
  0
CIRCLE
  5
314
330
1F
100
AcDbEntity
  8
0
  6
CONTINUOUS
 62
     7
100
AcDbCircle
 10
615.8675789795
 20
342.2560178306
 30
0.0
 40
1.297128675306226
  0
ARC
  5
315
330
1F
100
AcDbEntity
  8
0
  6
CONTINUOUS
 62
     7
100
AcDbCircle
 10
551.8675789795
 20
342.2560178306
 30
0.0
 40
4.965079230503379
100
AcDbArc
 50
118.3129751834
 51
61.6870248166
  0
ARC
  5
316
330
1F
100
AcDbEntity
  8
0
  6
CONTINUOUS
 62
     7
100
AcDbCircle
 10
551.8675789795
 20
292.2560178306
 30
0.0
 40
4.965079230503437
100
AcDbArc
 50
298.3129751834
 51
241.6870248166
  0
LINE
  5
317
330
1F
100
AcDbEntity
  8
0
  6
CONTINUOUS
 62
     7
100
AcDbLine
 10
477.6304676224
 20
348.2560152516
 30
0.0
 11
477.5675847222
 21
348.2560152516
 31
0.0
  0
LINE
  5
318
330
1F
100
AcDbEntity
  8
0
  6
CONTINUOUS
 62
     7
100
AcDbLine
 10
477.6304676224
 20
286.2560237154
 30
0.0
 11
477.6304676224
 21
348.2560152516
 31
0.0
  0
LINE
  5
319
330
1F
100
AcDbEntity
  8
0
  6
CONTINUOUS
 62
     7
100
AcDbLine
 10
477.6304676224
 20
286.2560237154
 30
0.0
 11
477.5675847222
 21
286.2560237154
 31
0.0
  0
LINE
  5
31A
330
1F
100
AcDbEntity
  8
0
  6
CONTINUOUS
 62
     7
100
AcDbLine
 10
477.5675847222
 20
348.2560152516
 30
0.0
 11
477.5675847222
 21
286.2560237154
 31
0.0
  0
ARC
  5
31B
330
1F
100
AcDbEntity
  8
0
  6
CONTINUOUS
 62
     7
100
AcDbCircle
 10
487.3675789795
 20
286.2560178306
 30
0.0
 40
9.737110664860381
100
AcDbArc
 50
180.0
 51
270.0
  0
LINE
  5
31C
330
1F
100
AcDbEntity
  8
0
  6
CONTINUOUS
 62
     7
100
AcDbLine
 10
487.3675717999
 20
276.5189046368
 30
0.0
 11
487.3675717999
 21
276.4560217366
 31
0.0
  0
ARC
  5
31D
330
1F
100
AcDbEntity
  8
0
  6
CONTINUOUS
 62
     7
100
AcDbCircle
 10
487.3675789795
 20
286.2560178306
 30
0.0
 40
9.800000000000011
100
AcDbArc
 50
180.0
 51
270.0
  0
LINE
  5
31E
330
1F
100
AcDbEntity
  8
0
  6
CONTINUOUS
 62
     7
100
AcDbLine
 10
680.3675792207
 20
276.5189046368
 30
0.0
 11
487.3675717999
 21
276.5189046368
 31
0.0
  0
ARC
  5
31F
330
1F
100
AcDbEntity
  8
0
  6
CONTINUOUS
 62
     7
100
AcDbCircle
 10
487.3675789795
 20
348.2560178306
 30
0.0
 40
9.737110664860325
100
AcDbArc
 50
90.0
 51
180.0
  0
LINE
  5
320
330
1F
100
AcDbEntity
  8
0
  6
CONTINUOUS
 62
     7
100
AcDbLine
 10
487.3675717999
 20
357.993119429
 30
0.0
 11
680.3675792207
 21
357.993119429
 31
0.0
  0
ARC
  5
321
330
1F
100
AcDbEntity
  8
0
  6
CONTINUOUS
 62
     7
100
AcDbCircle
 10
680.3675789795
 20
348.2560178306
 30
0.0
 40
9.737110664860325
100
AcDbArc
 50
0.0
 51
90.0
  0
LINE
  5
322
330
1F
100
AcDbEntity
  8
0
  6
CONTINUOUS
 62
     7
100
AcDbLine
 10
690.1046889861
 20
348.2560152516
 30
0.0
 11
690.1046889861
 21
286.2560237154
 31
0.0
  0
ARC
  5
323
330
1F
100
AcDbEntity
  8
0
  6
CONTINUOUS
 62
     7
100
AcDbCircle
 10
680.3675789795
 20
286.2560178306
 30
0.0
 40
9.737110664860381
100
AcDbArc
 50
270.0
 51
0.0
  0
LINE
  5
324
330
1F
100
AcDbEntity
  8
0
  6
CONTINUOUS
 62
     7
100
AcDbLine
 10
487.3675717999
 20
279.1931266293
 30
0.0
 11
680.3675792207
 21
279.1931266293
 31
0.0
  0
ARC
  5
325
330
1F
100
AcDbEntity
  8
0
  6
CONTINUOUS
 62
     7
100
AcDbCircle
 10
680.3675789795
 20
286.2560178306
 30
0.0
 40
7.06288933513963
100
AcDbArc
 50
270.0
 51
0.0
  0
LINE
  5
326
330
1F
100
AcDbEntity
  8
0
  6
CONTINUOUS
 62
     7
100
AcDbLine
 10
687.4304688562
 20
286.2560237154
 30
0.0
 11
687.4304688562
 21
348.2560152516
 31
0.0
  0
ARC
  5
327
330
1F
100
AcDbEntity
  8
0
  6
CONTINUOUS
 62
     7
100
AcDbCircle
 10
680.3675789795
 20
348.2560178306
 30
0.0
 40
7.06288933513963
100
AcDbArc
 50
0.0
 51
90.0
  0
LINE
  5
328
330
1F
100
AcDbEntity
  8
0
  6
CONTINUOUS
 62
     7
100
AcDbLine
 10
680.3675792207
 20
355.3188974366
 30
0.0
 11
487.3675717999
 21
355.3188974366
 31
0.0
  0
ARC
  5
329
330
1F
100
AcDbEntity
  8
0
  6
CONTINUOUS
 62
     7
100
AcDbCircle
 10
487.3675789795
 20
348.2560178306
 30
0.0
 40
7.06288933513963
100
AcDbArc
 50
90.0
 51
180.0
  0
LINE
  5
32A
330
1F
100
AcDbEntity
  8
0
  6
CONTINUOUS
 62
     7
100
AcDbLine
 10
480.3046896149
 20
348.2560152516
 30
0.0
 11
480.3046896149
 21
286.2560237154
 31
0.0
  0
ARC
  5
32B
330
1F
100
AcDbEntity
  8
0
  6
CONTINUOUS
 62
     7
100
AcDbCircle
 10
487.3675789795
 20
286.2560178306
 30
0.0
 40
7.06288933513963
100
AcDbArc
 50
180.0
 51
270.0
  0
LINE
  5
32C
330
1F
100
AcDbEntity
  8
0
  6
CONTINUOUS
 62
     7
100
AcDbLine
 10
487.3675717999
 20
357.993119429
 30
0.0
 11
487.3675717999
 21
358.0560321316
 31
0.0
  0
ARC
  5
32D
330
1F
100
AcDbEntity
  8
0
  6
CONTINUOUS
 62
     7
100
AcDbCircle
 10
487.3675789795
 20
348.2560178306
 30
0.0
 40
9.800000000000011
100
AcDbArc
 50
90.0
 51
180.0
  0
LINE
  5
32E
330
1F
100
AcDbEntity
  8
0
  6
CONTINUOUS
 62
     7
100
AcDbLine
 10
480.3046896149
 20
286.2560237154
 30
0.0
 11
480.3675725152
 21
286.2560237154
 31
0.0
  0
LINE
  5
32F
330
1F
100
AcDbEntity
  8
0
  6
CONTINUOUS
 62
     7
100
AcDbLine
 10
480.3046896149
 20
348.2560152516
 30
0.0
 11
480.3675725152
 21
348.2560152516
 31
0.0
  0
LINE
  5
330
330
1F
100
AcDbEntity
  8
0
  6
CONTINUOUS
 62
     7
100
AcDbLine
 10
480.3675725152
 20
286.2560237154
 30
0.0
 11
480.3675725152
 21
348.2560152516
 31
0.0
  0
LINE
  5
331
330
1F
100
AcDbEntity
  8
0
  6
CONTINUOUS
 62
     7
100
AcDbLine
 10
487.3675717999
 20
355.3188974366
 30
0.0
 11
487.3675717999
 21
355.2560145363
 31
0.0
  0
ARC
  5
332
330
1F
100
AcDbEntity
  8
0
  6
CONTINUOUS
 62
     7
100
AcDbCircle
 10
487.3675789795
 20
348.2560178306
 30
0.0
 40
7.0
100
AcDbArc
 50
90.0
 51
180.0
  0
LINE
  5
333
330
1F
100
AcDbEntity
  8
0
  6
CONTINUOUS
 62
     7
100
AcDbLine
 10
487.3675717999
 20
279.2560244307
 30
0.0
 11
487.3675717999
 21
279.1931266293
 31
0.0
  0
ARC
  5
334
330
1F
100
AcDbEntity
  8
0
  6
CONTINUOUS
 62
     7
100
AcDbCircle
 10
487.3675789795
 20
286.2560178306
 30
0.0
 40
7.000000000000057
100
AcDbArc
 50
180.0
 51
270.0
  0
LINE
  5
335
330
1F
100
AcDbEntity
  8
0
  6
CONTINUOUS
 62
     7
100
AcDbLine
 10
680.3675792207
 20
355.3188974366
 30
0.0
 11
680.3675792207
 21
355.2560145363
 31
0.0
  0
LINE
  5
336
330
1F
100
AcDbEntity
  8
0
  6
CONTINUOUS
 62
     7
100
AcDbLine
 10
487.3675717999
 20
355.2560145363
 30
0.0
 11
680.3675792207
 21
355.2560145363
 31
0.0
  0
LINE
  5
337
330
1F
100
AcDbEntity
  8
0
  6
CONTINUOUS
 62
     7
100
AcDbLine
 10
680.3675792207
 20
276.4560217366
 30
0.0
 11
680.3675792207
 21
276.5189046368
 31
0.0
  0
LINE
  5
338
330
1F
100
AcDbEntity
  8
0
  6
CONTINUOUS
 62
     7
100
AcDbLine
 10
487.3675717999
 20
276.4560217366
 30
0.0
 11
680.3675792207
 21
276.4560217366
 31
0.0
  0
LINE
  5
339
330
1F
100
AcDbEntity
  8
0
  6
CONTINUOUS
 62
     7
100
AcDbLine
 10
680.3675792207
 20
279.1931266293
 30
0.0
 11
680.3675792207
 21
279.2560244307
 31
0.0
  0
LINE
  5
33A
330
1F
100
AcDbEntity
  8
0
  6
CONTINUOUS
 62
     7
100
AcDbLine
 10
680.3675792207
 20
279.2560244307
 30
0.0
 11
487.3675717999
 21
279.2560244307
 31
0.0
  0
LINE
  5
33B
330
1F
100
AcDbEntity
  8
0
  6
CONTINUOUS
 62
     7
100
AcDbLine
 10
680.3675792207
 20
357.993119429
 30
0.0
 11
680.3675792207
 21
358.0560321316
 31
0.0
  0
LINE
  5
33C
330
1F
100
AcDbEntity
  8
0
  6
CONTINUOUS
 62
     7
100
AcDbLine
 10
680.3675792207
 20
358.0560321316
 30
0.0
 11
487.3675717999
 21
358.0560321316
 31
0.0
  0
LINE
  5
33D
330
1F
100
AcDbEntity
  8
0
  6
CONTINUOUS
 62
     7
100
AcDbLine
 10
687.4304688562
 20
348.2560152516
 30
0.0
 11
687.3675785054
 21
348.2560152516
 31
0.0
  0
ARC
  5
33E
330
1F
100
AcDbEntity
  8
0
  6
CONTINUOUS
 62
     7
100
AcDbCircle
 10
680.3675789795
 20
348.2560178306
 30
0.0
 40
7.0
100
AcDbArc
 50
0.0
 51
90.0
  0
LINE
  5
33F
330
1F
100
AcDbEntity
  8
0
  6
CONTINUOUS
 62
     7
100
AcDbLine
 10
690.1046889861
 20
286.2560237154
 30
0.0
 11
690.1675793369
 21
286.2560237154
 31
0.0
  0
ARC
  5
340
330
1F
100
AcDbEntity
  8
0
  6
CONTINUOUS
 62
     7
100
AcDbCircle
 10
680.3675789795
 20
286.2560178306
 30
0.0
 40
9.800000000000011
100
AcDbArc
 50
270.0
 51
0.0
  0
LINE
  5
341
330
1F
100
AcDbEntity
  8
0
  6
CONTINUOUS
 62
     7
100
AcDbLine
 10
687.4304688562
 20
286.2560237154
 30
0.0
 11
687.3675785054
 21
286.2560237154
 31
0.0
  0
ARC
  5
342
330
1F
100
AcDbEntity
  8
0
  6
CONTINUOUS
 62
     7
100
AcDbCircle
 10
680.3675789795
 20
286.2560178306
 30
0.0
 40
7.0
100
AcDbArc
 50
270.0
 51
0.0
  0
LINE
  5
343
330
1F
100
AcDbEntity
  8
0
  6
CONTINUOUS
 62
     7
100
AcDbLine
 10
690.1046889861
 20
348.2560152516
 30
0.0
 11
690.1675793369
 21
348.2560152516
 31
0.0
  0
ARC
  5
344
330
1F
100
AcDbEntity
  8
0
  6
CONTINUOUS
 62
     7
100
AcDbCircle
 10
680.3675789795
 20
348.2560178306
 30
0.0
 40
9.799999999999955
100
AcDbArc
 50
0.0
 51
90.0
  0
LINE
  5
345
330
1F
100
AcDbEntity
  8
0
  6
CONTINUOUS
 62
     7
100
AcDbLine
 10
687.3675785054
 20
348.2560152516
 30
0.0
 11
687.3675785054
 21
286.2560237154
 31
0.0
  0
LINE
  5
346
330
1F
100
AcDbEntity
  8
0
  6
CONTINUOUS
 62
     7
100
AcDbLine
 10
690.1675793369
 20
286.2560237154
 30
0.0
 11
690.1675793369
 21
348.2560152516
 31
0.0
  0
LINE
  5
347
330
1F
100
AcDbEntity
  8
0
  6
CONTINUOUS
 62
     7
100
AcDbLine
 10
691.867579243
 20
348.2560152516
 30
0.0
 11
691.867579243
 21
286.2560237154
 31
0.0
  0
ARC
  5
348
330
1F
100
AcDbEntity
  8
0
  6
CONTINUOUS
 62
     7
100
AcDbCircle
 10
680.3675789795
 20
286.2560178306
 30
0.0
 40
11.50000000000006
100
AcDbArc
 50
270.0
 51
0.0
  0
ARC
  5
349
330
1F
100
AcDbEntity
  8
0
  6
CONTINUOUS
 62
     7
100
AcDbCircle
 10
680.3675789795
 20
348.2560178306
 30
0.0
 40
11.5
100
AcDbArc
 50
0.0
 51
90.0
  0
LINE
  5
34A
330
1F
100
AcDbEntity
  8
0
  6
CONTINUOUS
 62
     7
100
AcDbLine
 10
487.3675717999
 20
359.7560162052
 30
0.0
 11
680.3675792207
 21
359.7560162052
 31
0.0
  0
LINE
  5
34B
330
1F
100
AcDbEntity
  8
0
  6
CONTINUOUS
 62
     7
100
AcDbLine
 10
680.3675792207
 20
274.7560227618
 30
0.0
 11
487.3675717999
 21
274.7560227618
 31
0.0
  0
LINE
  5
34C
330
1F
100
AcDbEntity
  8
0
  6
CONTINUOUS
 62
     7
100
AcDbLine
 10
475.8675857474
 20
286.2560237154
 30
0.0
 11
475.8675857474
 21
348.2560152516
 31
0.0
  0
ARC
  5
34D
330
1F
100
AcDbEntity
  8
0
  6
CONTINUOUS
 62
     7
100
AcDbCircle
 10
487.3675789795
 20
348.2560178306
 30
0.0
 40
11.5
100
AcDbArc
 50
90.0
 51
180.0
  0
ARC
  5
34E
330
1F
100
AcDbEntity
  8
0
  6
CONTINUOUS
 62
     7
100
AcDbCircle
 10
487.3675789795
 20
286.2560178306
 30
0.0
 40
11.5
100
AcDbArc
 50
180.0
 51
270.0
  0
CIRCLE
  5
34F
330
1F
100
AcDbEntity
  8
0
  6
CONTINUOUS
 62
     7
100
AcDbCircle
 10
487.3675789795
 20
348.2560178306
 30
0.0
 40
4.599999999999966
  0
CIRCLE
  5
350
330
1F
100
AcDbEntity
  8
0
  6
CONTINUOUS
 62
     7
100
AcDbCircle
 10
487.3675789795
 20
286.2560178306
 30
0.0
 40
4.599999999999909
  0
CIRCLE
  5
351
330
1F
100
AcDbEntity
  8
0
  6
CONTINUOUS
 62
     7
100
AcDbCircle
 10
680.3675789795
 20
348.2560178306
 30
0.0
 40
4.600000000001955
  0
CIRCLE
  5
352
330
1F
100
AcDbEntity
  8
0
  6
CONTINUOUS
 62
     7
100
AcDbCircle
 10
680.3675789795
 20
286.2560178306
 30
0.0
 40
4.600000000001955
  0
CIRCLE
  5
353
330
1F
100
AcDbEntity
  8
0
  6
CONTINUOUS
 62
     7
100
AcDbCircle
 10
487.3675789795
 20
348.2560178306
 30
0.0
 40
4.355554613557103
  0
CIRCLE
  5
354
330
1F
100
AcDbEntity
  8
0
  6
CONTINUOUS
 62
     7
100
AcDbCircle
 10
487.3675789795
 20
286.2560178306
 30
0.0
 40
4.355554613557217
  0
CIRCLE
  5
355
330
1F
100
AcDbEntity
  8
0
  6
CONTINUOUS
 62
     7
100
AcDbCircle
 10
680.3675789795
 20
286.2560178306
 30
0.0
 40
4.355554613559207
  0
CIRCLE
  5
356
330
1F
100
AcDbEntity
  8
0
  6
CONTINUOUS
 62
     7
100
AcDbCircle
 10
680.3675789795
 20
348.2560178306
 30
0.0
 40
4.355554613559207
  0
ARC
  5
357
330
1F
100
AcDbEntity
  8
0
  6
CONTINUOUS
 62
     7
100
AcDbCircle
 10
551.8675789795
 20
292.2560178306
 30
0.0
 40
5.000000000003685
100
AcDbArc
 50
300.2608860495
 51
239.7391139505
  0
ARC
  5
358
330
1F
100
AcDbEntity
  8
0
  6
CONTINUOUS
 62
     7
100
AcDbCircle
 10
551.8675789795
 20
342.2560178306
 30
0.0
 40
5.00000000000362
100
AcDbArc
 50
120.2608860495
 51
59.7391139505
  0
ARC
  5
359
330
1F
100
AcDbEntity
  8
0
  6
CONTINUOUS
 62
     7
100
AcDbCircle
 10
615.8675789795
 20
342.2560178306
 30
0.0
 40
5.00000000000362
100
AcDbArc
 50
120.2608860495
 51
59.7391139505
  0
ARC
  5
35A
330
1F
100
AcDbEntity
  8
0
  6
CONTINUOUS
 62
     7
100
AcDbCircle
 10
615.8675789795
 20
292.2560178306
 30
0.0
 40
5.000000000003628
100
AcDbArc
 50
300.2608860495
 51
239.7391139505
  0
CIRCLE
  5
35B
330
1F
100
AcDbEntity
  8
0
  6
CONTINUOUS
 62
     7
100
AcDbCircle
 10
551.8675789795
 20
342.2560178306
 30
0.0
 40
1.249999999980218
  0
CIRCLE
  5
35C
330
1F
100
AcDbEntity
  8
0
  6
CONTINUOUS
 62
     7
100
AcDbCircle
 10
551.8675789795
 20
292.2560178306
 30
0.0
 40
1.249999999980218
  0
CIRCLE
  5
35D
330
1F
100
AcDbEntity
  8
0
  6
CONTINUOUS
 62
     7
100
AcDbCircle
 10
615.8675789795
 20
342.2560178306
 30
0.0
 40
1.250000000015689
  0
CIRCLE
  5
35E
330
1F
100
AcDbEntity
  8
0
  6
CONTINUOUS
 62
     7
100
AcDbCircle
 10
615.8675789795
 20
292.2560178306
 30
0.0
 40
1.250000000015689
  0
CIRCLE
  5
35F
330
1F
100
AcDbEntity
  8
0
  6
CONTINUOUS
 62
     7
100
AcDbCircle
 10
519.8675789795
 20
317.2560178306
 30
0.0
 40
9.028569611861428
  0
CIRCLE
  5
360
330
1F
100
AcDbEntity
  8
0
  6
CONTINUOUS
 62
     7
100
AcDbCircle
 10
519.8675789795
 20
317.2560178306
 30
0.0
 40
8.906346918640281
  0
CIRCLE
  5
361
330
1F
100
AcDbEntity
  8
0
  6
CONTINUOUS
 62
     7
100
AcDbCircle
 10
583.8675789795
 20
317.2560178306
 30
0.0
 40
13.30793576779536
  0
CIRCLE
  5
362
330
1F
100
AcDbEntity
  8
0
  6
CONTINUOUS
 62
     7
100
AcDbCircle
 10
583.8675789795
 20
317.2560178306
 30
0.0
 40
13.18571307457427
  0
CIRCLE
  5
363
330
1F
100
AcDbEntity
  8
0
  6
CONTINUOUS
 62
     7
100
AcDbCircle
 10
647.8675789795
 20
317.2560178306
 30
0.0
 40
9.028569611861371
  0
CIRCLE
  5
364
330
1F
100
AcDbEntity
  8
0
  6
CONTINUOUS
 62
     7
100
AcDbCircle
 10
647.8675789795
 20
317.2560178306
 30
0.0
 40
8.906346918640281
  0
ENDSEC
  0
SECTION
  2
OBJECTS
  0
DICTIONARY
  5
C
330
0
100
AcDbDictionary
  3
ACAD_GROUP
350
D
  3
ACAD_LAYOUT
350
1A
  3
ACAD_MLEADERSTYLE
350
386
  3
ACAD_MLINESTYLE
350
17
  3
ACAD_PLOTSETTINGS
350
19
  3
ACAD_TABLESTYLE
350
385
  3
ACAD_VISUALSTYLE
350
2A
  3
ACDBHEADERROUNDTRIPXREC
350
365
  3
ACDBVARIABLEDICTIONARY
350
387
  0
DICTIONARY
  5
D
102
{ACAD_REACTORS
330
C
102
}
330
C
100
AcDbDictionary
  0
DICTIONARY
  5
1A
102
{ACAD_REACTORS
330
C
102
}
330
C
100
AcDbDictionary
  0
DICTIONARY
  5
386
102
{ACAD_REACTORS
330
C
102
}
330
C
100
AcDbDictionary
  0
DICTIONARY
  5
17
102
{ACAD_REACTORS
330
C
102
}
330
C
100
AcDbDictionary
  3
STANDARD
350
18
  0
DICTIONARY
  5
19
102
{ACAD_REACTORS
330
C
102
}
330
C
100
AcDbDictionary
  0
DICTIONARY
  5
385
102
{ACAD_REACTORS
330
C
102
}
330
C
100
AcDbDictionary
  0
DICTIONARY
  5
2A
102
{ACAD_REACTORS
330
C
102
}
330
C
100
AcDbDictionary
  3
2DWIREFRAME
350
2F
  3
3D_HIDDEN
350
31
  3
3DWIREFRAME
350
30
  3
BASIC
350
32
  3
BRIGHTEN
350
36
  3
COLORCHANGE
350
3A
  3
CONCEPTUAL
350
34
  3
DIM
350
35
  3
FACEPATTERN
350
39
  3
FLAT
350
2B
  3
FLATWITHEDGES
350
2C
  3
GOURAUD
350
2D
  3
GOURAUDWITHEDGES
350
2E
  3
LINEPATTERN
350
38
  3
REALISTIC
350
33
  3
THICKEN
350
37
  0
DICTIONARY
  5
365
102
{ACAD_REACTORS
330
C
102
}
330
C
100
AcDbDictionary
  3
CEPSNTYPE
350
36E
  3
DIMSTYLEDATA
350
384
  3
FINGERPRINTGUID
350
36F
  3
HYPERLINKBASE
350
368
  3
INSUNITS
350
36D
  3
LAYOUTDICT
350
36A
  3
LWETCUNION
350
36C
  3
PLOTSETDICT
350
36B
  3
PSVPSCALE
350
371
  3
PUCSBASE
350
374
  3
PUCSORGBACK
350
37A
  3
PUCSORGBOTTOM
350
376
  3
PUCSORGFRONT
350
379
  3
PUCSORGLEFT
350
377
  3
PUCSORGRIGHT
350
378
  3
PUCSORGTOP
350
375
  3
PUCSORTHOREF
350
372
  3
PUCSORTHOVIEW
350
373
  3
STYLESHEET
350
369
  3
TSTACKALIGN
350
366
  3
TSTACKSIZE
350
367
  3
UCSBASE
350
37D
  3
UCSORGBACK
350
383
  3
UCSORGBOTTOM
350
37F
  3
UCSORGFRONT
350
382
  3
UCSORGLEFT
350
380
  3
UCSORGRIGHT
350
381
  3
UCSORGTOP
350
37E
  3
UCSORTHOREF
350
37B
  3
UCSORTHOVIEW
350
37C
  3
VERSIONGUID
350
370
  0
DICTIONARY
  5
387
102
{ACAD_REACTORS
330
C
102
}
330
C
100
AcDbDictionary
  3
PSOLHEIGHT
350
389
  3
PSOLWIDTH
350
388
  0
MLINESTYLE
  5
18
102
{ACAD_REACTORS
330
17
102
}
330
17
100
AcDbMlineStyle
  2
Standard
 70
     0
  3

 62
   256
 51
90.0
 52
90.0
 71
     2
 49
0.5
 62
   256
  6
BYLAYER
 49
-0.5
 62
   256
  6
BYLAYER
  0
VISUALSTYLE
  5
2F
102
{ACAD_REACTORS
330
2A
102
}
330
2A
100
AcDbVisualStyle
  2
2dWireframe
 70
     4
 71
     0
 72
     2
 73
     0
 90
        0
 40
-0.6
 41
-30.0
 62
     5
 63
     7
 74
     1
 91
        4
 64
     7
 65
   257
 75
     1
175
     1
 42
1.0
 92
        0
 66
   257
 43
1.0
 76
     1
 77
     6
 78
     2
 67
     7
 79
     5
170
     0
171
     0
290
     0
174
     0
 93
        1
 44
0.0
173
     0
291
     0
 45
0.0
1001
ACAD
1000
AcDbSavedByObjectVersion
1070
     0
  0
VISUALSTYLE
  5
31
102
{ACAD_REACTORS
330
2A
102
}
330
2A
100
AcDbVisualStyle
  2
3D Hidden
 70
     6
 71
     1
 72
     2
 73
     2
 90
        0
 40
-0.6
 41
-30.0
 62
     5
 63
     7
 74
     2
 91
        2
 64
     7
 65
   257
 75
     2
175
     1
 42
40.0
 92
        0
 66
   257
 43
1.0
 76
     1
 77
     6
 78
     2
 67
     7
 79
     3
170
     0
171
     0
290
     0
174
     0
 93
        1
 44
0.0
173
     0
291
     0
 45
0.0
1001
ACAD
1000
AcDbSavedByObjectVersion
1070
     0
  0
VISUALSTYLE
  5
30
102
{ACAD_REACTORS
330
2A
102
}
330
2A
100
AcDbVisualStyle
  2
3dWireframe
 70
     5
 71
     0
 72
     2
 73
     0
 90
        0
 40
-0.6
 41
-30.0
 62
     5
 63
     7
 74
     1
 91
        4
 64
     7
 65
   257
 75
     1
175
     1
 42
1.0
 92
        0
 66
   257
 43
1.0
 76
     1
 77
     6
 78
     2
 67
     7
 79
     5
170
     0
171
     0
290
     0
174
     0
 93
        1
 44
0.0
173
     0
291
     0
 45
0.0
1001
ACAD
1000
AcDbSavedByObjectVersion
1070
     0
  0
VISUALSTYLE
  5
32
102
{ACAD_REACTORS
330
2A
102
}
330
2A
100
AcDbVisualStyle
  2
Basic
 70
     7
 71
     1
 72
     0
 73
     1
 90
        0
 40
-0.6
 41
-30.0
 62
     5
 63
     7
 74
     0
 91
        4
 64
     7
 65
   257
 75
     1
175
     1
 42
1.0
 92
        8
 66
     7
 43
1.0
 76
     1
 77
     6
 78
     2
 67
     7
 79
     5
170
     0
171
     0
290
     0
174
     0
 93
        1
 44
0.0
173
     0
291
     1
 45
0.0
1001
ACAD
1000
AcDbSavedByObjectVersion
1070
     0
  0
VISUALSTYLE
  5
36
102
{ACAD_REACTORS
330
2A
102
}
330
2A
100
AcDbVisualStyle
  2
Brighten
 70
    12
 71
     2
 72
     2
 73
     0
 90
        0
 40
-0.6
 41
-30.0
 62
     5
 63
     7
 74
     1
 91
        4
 64
     7
 65
   257
 75
     1
175
     1
 42
1.0
 92
        8
 66
     7
 43
1.0
 76
     1
 77
     6
 78
     2
 67
     7
 79
     5
170
     0
171
     0
290
     0
174
     0
 93
        1
 44
50.0
173
     0
291
     1
 45
0.0
1001
ACAD
1000
AcDbSavedByObjectVersion
1070
     0
  0
VISUALSTYLE
  5
3A
102
{ACAD_REACTORS
330
2A
102
}
330
2A
100
AcDbVisualStyle
  2
ColorChange
 70
    16
 71
     2
 72
     2
 73
     3
 90
        0
 40
-0.6
 41
-30.0
 62
     5
 63
     8
 74
     1
 91
        4
 64
     7
 65
   257
 75
     1
175
     1
 42
1.0
 92
        8
 66
     8
 43
1.0
 76
     1
 77
     6
 78
     2
 67
     7
 79
     5
170
     0
171
     0
290
     0
174
     0
 93
        1
 44
0.0
173
     0
291
     1
 45
0.0
1001
ACAD
1000
AcDbSavedByObjectVersion
1070
     0
  0
VISUALSTYLE
  5
34
102
{ACAD_REACTORS
330
2A
102
}
330
2A
100
AcDbVisualStyle
  2
Conceptual
 70
     9
 71
     3
 72
     2
 73
     0
 90
        0
 40
-0.6
 41
-30.0
 62
     5
 63
     7
 74
     2
 91
        2
 64
     7
 65
   257
 75
     1
175
     1
 42
40.0
 92
        8
 66
     7
 43
1.0
 76
     1
 77
     6
 78
     2
 67
     7
 79
     3
170
     0
171
     0
290
     0
174
     0
 93
        1
 44
0.0
173
     0
291
     0
 45
0.0
1001
ACAD
1000
AcDbSavedByObjectVersion
1070
     0
  0
VISUALSTYLE
  5
35
102
{ACAD_REACTORS
330
2A
102
}
330
2A
100
AcDbVisualStyle
  2
Dim
 70
    11
 71
     2
 72
     2
 73
     0
 90
        0
 40
-0.6
 41
-30.0
 62
     5
 63
     7
 74
     1
 91
        4
 64
     7
 65
   257
 75
     1
175
     1
 42
1.0
 92
        8
 66
     7
 43
1.0
 76
     1
 77
     6
 78
     2
 67
     7
 79
     5
170
     0
171
     0
290
     0
174
     0
 93
        1
 44
-50.0
173
     0
291
     1
 45
0.0
1001
ACAD
1000
AcDbSavedByObjectVersion
1070
     0
  0
VISUALSTYLE
  5
39
102
{ACAD_REACTORS
330
2A
102
}
330
2A
100
AcDbVisualStyle
  2
Facepattern
 70
    15
 71
     2
 72
     2
 73
     0
 90
        0
 40
-0.6
 41
-30.0
 62
     5
 63
     7
 74
     1
 91
        4
 64
     7
 65
   257
 75
     1
175
     1
 42
1.0
 92
        8
 66
     7
 43
1.0
 76
     1
 77
     6
 78
     2
 67
     7
 79
     5
170
     0
171
     0
290
     0
174
     0
 93
        1
 44
0.0
173
     0
291
     1
 45
0.0
1001
ACAD
1000
AcDbSavedByObjectVersion
1070
     0
  0
VISUALSTYLE
  5
2B
102
{ACAD_REACTORS
330
2A
102
}
330
2A
100
AcDbVisualStyle
  2
Flat
 70
     0
 71
     2
 72
     1
 73
     1
 90
        2
 40
-0.6
 41
30.0
 62
     5
 63
     7
 74
     0
 91
        4
 64
     7
 65
   257
 75
     1
175
     1
 42
1.0
 92
        8
 66
     7
 43
1.0
 76
     1
 77
     6
 78
     2
 67
     7
 79
     5
170
     0
171
     0
290
     0
174
     0
 93
       13
 44
0.0
173
     0
291
     1
 45
0.0
1001
ACAD
1000
AcDbSavedByObjectVersion
1070
     0
  0
VISUALSTYLE
  5
2C
102
{ACAD_REACTORS
330
2A
102
}
330
2A
100
AcDbVisualStyle
  2
FlatWithEdges
 70
     1
 71
     2
 72
     1
 73
     1
 90
        2
 40
-0.6
 41
30.0
 62
     5
 63
     7
 74
     1
 91
        4
 64
     7
 65
   257
 75
     1
175
     1
 42
1.0
 92
        0
 66
   257
 43
1.0
 76
     1
 77
     6
 78
     2
 67
     7
 79
     5
170
     0
171
     0
290
     0
174
     0
 93
       13
 44
0.0
173
     0
291
     1
 45
0.0
1001
ACAD
1000
AcDbSavedByObjectVersion
1070
     0
  0
VISUALSTYLE
  5
2D
102
{ACAD_REACTORS
330
2A
102
}
330
2A
100
AcDbVisualStyle
  2
Gouraud
 70
     2
 71
     2
 72
     2
 73
     1
 90
        2
 40
-0.6
 41
30.0
 62
     5
 63
     7
 74
     0
 91
        4
 64
     7
 65
   257
 75
     1
175
     1
 42
1.0
 92
        0
 66
     7
 43
1.0
 76
     1
 77
     6
 78
     2
 67
     7
 79
     5
170
     0
171
     0
290
     0
174
     0
 93
       13
 44
0.0
173
     0
291
     1
 45
0.0
1001
ACAD
1000
AcDbSavedByObjectVersion
1070
     0
  0
VISUALSTYLE
  5
2E
102
{ACAD_REACTORS
330
2A
102
}
330
2A
100
AcDbVisualStyle
  2
GouraudWithEdges
 70
     3
 71
     2
 72
     2
 73
     1
 90
        2
 40
-0.6
 41
30.0
 62
     5
 63
     7
 74
     1
 91
        4
 64
     7
 65
   257
 75
     1
175
     1
 42
1.0
 92
        0
 66
   257
 43
1.0
 76
     1
 77
     6
 78
     2
 67
     7
 79
     5
170
     0
171
     0
290
     0
174
     0
 93
       13
 44
0.0
173
     0
291
     1
 45
0.0
1001
ACAD
1000
AcDbSavedByObjectVersion
1070
     0
  0
VISUALSTYLE
  5
38
102
{ACAD_REACTORS
330
2A
102
}
330
2A
100
AcDbVisualStyle
  2
Linepattern
 70
    14
 71
     2
 72
     2
 73
     0
 90
        0
 40
-0.6
 41
-30.0
 62
     5
 63
     7
 74
     1
 91
        4
 64
     7
 65
   257
 75
     7
175
     7
 42
1.0
 92
        8
 66
     7
 43
1.0
 76
     1
 77
     6
 78
     2
 67
     7
 79
     5
170
     0
171
     0
290
     0
174
     0
 93
        1
 44
0.0
173
     0
291
     1
 45
0.0
1001
ACAD
1000
AcDbSavedByObjectVersion
1070
     0
  0
VISUALSTYLE
  5
33
102
{ACAD_REACTORS
330
2A
102
}
330
2A
100
AcDbVisualStyle
  2
Realistic
 70
     8
 71
     2
 72
     2
 73
     0
 90
        0
 40
-0.6
 41
-30.0
 62
     5
 63
     7
 74
     1
 91
        0
 64
     7
 65
   257
 75
     1
175
     1
 42
1.0
 92
        8
 66
     8
 43
1.0
 76
     1
 77
     6
 78
     2
 67
     7
 79
     5
170
     0
171
     0
290
     0
174
     0
 93
       13
 44
0.0
173
     0
291
     0
 45
0.0
1001
ACAD
1000
AcDbSavedByObjectVersion
1070
     0
  0
VISUALSTYLE
  5
37
102
{ACAD_REACTORS
330
2A
102
}
330
2A
100
AcDbVisualStyle
  2
Thicken
 70
    13
 71
     2
 72
     2
 73
     0
 90
        0
 40
-0.6
 41
-30.0
 62
     5
 63
     7
 74
     1
 91
        4
 64
     7
 65
   257
 75
     1
175
     1
 42
1.0
 92
       12
 66
     7
 43
1.0
 76
     1
 77
     6
 78
     2
 67
     7
 79
     5
170
     0
171
     0
290
     0
174
     0
 93
        1
 44
0.0
173
     0
291
     1
 45
0.0
1001
ACAD
1000
AcDbSavedByObjectVersion
1070
     0
  0
XRECORD
  5
36E
102
{ACAD_REACTORS
330
365
102
}
330
365
100
AcDbXrecord
 90
        0
  0
XRECORD
  5
384
102
{ACAD_REACTORS
330
365
102
}
330
365
100
AcDbXrecord
1000
DSTYLE
1002
{
1070
   179
 70
     2
1070
   143
 40
0.0393700787
1070
    41
 40
12.0
1070
    44
 40
2.0
1070
    42
 40
2.0
1070
   147
 40
3.048
1070
    73
 70
     1
1070
    74
 70
     1
1070
   340
340
11
1070
   140
 40
7.0
1070
   284
 70
     0
1070
    78
 70
     0
1002
}
  0
XRECORD
  5
36F
102
{ACAD_REACTORS
330
365
102
}
330
365
100
AcDbXrecord
  1
{35105ACD-1904-4CFF-A994-030DAA10F906}
  0
XRECORD
  5
368
102
{ACAD_REACTORS
330
365
102
}
330
365
100
AcDbXrecord
  1

  0
XRECORD
  5
36D
102
{ACAD_REACTORS
330
365
102
}
330
365
100
AcDbXrecord
 90
        4
  0
XRECORD
  5
36A
102
{ACAD_REACTORS
330
365
102
}
330
365
100
AcDbXrecord
340
1A
  0
XRECORD
  5
36C
102
{ACAD_REACTORS
330
365
102
}
330
365
100
AcDbXrecord
 90
    10269
  0
XRECORD
  5
36B
102
{ACAD_REACTORS
330
365
102
}
330
365
100
AcDbXrecord
340
19
  0
XRECORD
  5
371
102
{ACAD_REACTORS
330
365
102
}
330
365
100
AcDbXrecord
 40
0.0
  0
XRECORD
  5
374
102
{ACAD_REACTORS
330
365
102
}
330
365
100
AcDbXrecord
340
0
  0
XRECORD
  5
37A
102
{ACAD_REACTORS
330
365
102
}
330
365
100
AcDbXrecord
 10
0.0
 20
0.0
 30
0.0
  0
XRECORD
  5
376
102
{ACAD_REACTORS
330
365
102
}
330
365
100
AcDbXrecord
 10
0.0
 20
0.0
 30
0.0
  0
XRECORD
  5
379
102
{ACAD_REACTORS
330
365
102
}
330
365
100
AcDbXrecord
 10
0.0
 20
0.0
 30
0.0
  0
XRECORD
  5
377
102
{ACAD_REACTORS
330
365
102
}
330
365
100
AcDbXrecord
 10
0.0
 20
0.0
 30
0.0
  0
XRECORD
  5
378
102
{ACAD_REACTORS
330
365
102
}
330
365
100
AcDbXrecord
 10
0.0
 20
0.0
 30
0.0
  0
XRECORD
  5
375
102
{ACAD_REACTORS
330
365
102
}
330
365
100
AcDbXrecord
 10
0.0
 20
0.0
 30
0.0
  0
XRECORD
  5
372
102
{ACAD_REACTORS
330
365
102
}
330
365
100
AcDbXrecord
340
0
  0
XRECORD
  5
373
102
{ACAD_REACTORS
330
365
102
}
330
365
100
AcDbXrecord
 70
     0
  0
XRECORD
  5
369
102
{ACAD_REACTORS
330
365
102
}
330
365
100
AcDbXrecord
  1

  0
XRECORD
  5
366
102
{ACAD_REACTORS
330
365
102
}
330
365
100
AcDbXrecord
 90
        1
  0
XRECORD
  5
367
102
{ACAD_REACTORS
330
365
102
}
330
365
100
AcDbXrecord
 90
       70
  0
XRECORD
  5
37D
102
{ACAD_REACTORS
330
365
102
}
330
365
100
AcDbXrecord
340
0
  0
XRECORD
  5
383
102
{ACAD_REACTORS
330
365
102
}
330
365
100
AcDbXrecord
 10
0.0
 20
0.0
 30
0.0
  0
XRECORD
  5
37F
102
{ACAD_REACTORS
330
365
102
}
330
365
100
AcDbXrecord
 10
0.0
 20
0.0
 30
0.0
  0
XRECORD
  5
382
102
{ACAD_REACTORS
330
365
102
}
330
365
100
AcDbXrecord
 10
0.0
 20
0.0
 30
0.0
  0
XRECORD
  5
380
102
{ACAD_REACTORS
330
365
102
}
330
365
100
AcDbXrecord
 10
0.0
 20
0.0
 30
0.0
  0
XRECORD
  5
381
102
{ACAD_REACTORS
330
365
102
}
330
365
100
AcDbXrecord
 10
0.0
 20
0.0
 30
0.0
  0
XRECORD
  5
37E
102
{ACAD_REACTORS
330
365
102
}
330
365
100
AcDbXrecord
 10
0.0
 20
0.0
 30
0.0
  0
XRECORD
  5
37B
102
{ACAD_REACTORS
330
365
102
}
330
365
100
AcDbXrecord
340
0
  0
XRECORD
  5
37C
102
{ACAD_REACTORS
330
365
102
}
330
365
100
AcDbXrecord
 70
     0
  0
XRECORD
  5
370
102
{ACAD_REACTORS
330
365
102
}
330
365
100
AcDbXrecord
  1
{FAEB1C32-E019-11D5-929B-00C0DF256EC4}
  0
DICTIONARYVAR
  5
389
102
{ACAD_REACTORS
330
387
102
}
330
387
100
DictionaryVariables
280
     0
  1
80.000000
  0
DICTIONARYVAR
  5
388
102
{ACAD_REACTORS
330
387
102
}
330
387
100
DictionaryVariables
280
     0
  1
5.000000
  0
ENDSEC
  0
EOF
