  0
SECTION
  2
HEADER
  9
$ACADVER
  1
AC1014
  9
$ACADMAINTVER
 70
     9
  9
$DWGCODEPAGE
  3
ANSI_1252
  9
$INSBASE
 10
0.0
 20
0.0
 30
0.0
  9
$EXTMIN
 10
0.0
 20
0.0
 30
0.0
  9
$EXTMAX
 10
4200.0
 20
2970.0
 30
0.0
  9
$LIMMIN
 10
0.0
 20
0.0
  9
$LIMMAX
 10
4200.0
 20
2970.0
  9
$ORTHOMODE
 70
     0
  9
$REGENMODE
 70
     1
  9
$FILLMODE
 70
     1
  9
$QTEXTMODE
 70
     0
  9
$MIRRTEXT
 70
     1
  9
$DRAGMODE
 70
     2
  9
$LTSCALE
 40
10.0
  9
$OSMODE
 70
    37
  9
$ATTMODE
 70
     1
  9
$TEXTSIZE
 40
35.0
  9
$TRACEWID
 40
1.0
  9
$TEXTSTYLE
  7
STANDARD
  9
$CLAYER
  8
0
  9
$CELTYPE
  6
BYLAYER
  9
$CECOLOR
 62
   256
  9
$CELTSCALE
 40
1.0
  9
$DELOBJ
 70
     1
  9
$DISPSILH
 70
     0
  9
$DIMSCALE
 40
1.0
  9
$DIMASZ
 40
60.0
  9
$DIMEXO
 40
10.0
  9
$DIMDLI
 40
3.75
  9
$DIMRND
 40
0.0
  9
$DIMDLE
 40
0.0
  9
$DIMEXE
 40
10.0
  9
$DIMTP
 40
0.0
  9
$DIMTM
 40
0.0
  9
$DIMTXT
 40
35.0
  9
$DIMCEN
 40
2.5
  9
$DIMTSZ
 40
0.0
  9
$DIMTOL
 70
     0
  9
$DIMLIM
 70
     0
  9
$DIMTIH
 70
     1
  9
$DIMTOH
 70
     1
  9
$DIMSE1
 70
     0
  9
$DIMSE2
 70
     0
  9
$DIMTAD
 70
     1
  9
$DIMZIN
 70
     0
  9
$DIMBLK
  1

  9
$DIMASO
 70
     1
  9
$DIMSHO
 70
     1
  9
$DIMPOST
  1

  9
$DIMAPOST
  1

  9
$DIMALT
 70
     0
  9
$DIMALTD
 70
     3
  9
$DIMALTF
 40
0.0393700787
  9
$DIMLFAC
 40
1.0
  9
$DIMTOFL
 70
     1
  9
$DIMTVP
 40
0.0
  9
$DIMTIX
 70
     0
  9
$DIMSOXD
 70
     0
  9
$DIMSAH
 70
     0
  9
$DIMBLK1
  1

  9
$DIMBLK2
  1

  9
$DIMSTYLE
  2
ISO-25
  9
$DIMCLRD
 70
     0
  9
$DIMCLRE
 70
     0
  9
$DIMCLRT
 70
     0
  9
$DIMTFAC
 40
1.0
  9
$DIMGAP
 40
15.24
  9
$DIMJUST
 70
     0
  9
$DIMSD1
 70
     0
  9
$DIMSD2
 70
     0
  9
$DIMTOLJ
 70
     0
  9
$DIMTZIN
 70
     0
  9
$DIMALTZ
 70
     0
  9
$DIMALTTZ
 70
     0
  9
$DIMFIT
 70
     3
  9
$DIMUPT
 70
     0
  9
$DIMUNIT
 70
     2
  9
$DIMDEC
 70
     2
  9
$DIMTDEC
 70
     2
  9
$DIMALTU
 70
     2
  9
$DIMALTTD
 70
     3
  9
$DIMTXSTY
  7
STANDARD
  9
$DIMAUNIT
 70
     0
  9
$LUNITS
 70
     2
  9
$LUPREC
 70
     2
  9
$SKETCHINC
 40
1.0
  9
$FILLETRAD
 40
10.0
  9
$AUNITS
 70
     0
  9
$AUPREC
 70
     2
  9
$MENU
  1
.
  9
$ELEVATION
 40
0.0
  9
$PELEVATION
 40
0.0
  9
$THICKNESS
 40
0.0
  9
$LIMCHECK
 70
     0
  9
$CHAMFERA
 40
10.0
  9
$CHAMFERB
 40
10.0
  9
$CHAMFERC
 40
20.0
  9
$CHAMFERD
 40
0.0
  9
$SKPOLY
 70
     0
  9
$TDCREATE
 40
2456498.531570232
  9
$TDUPDATE
 40
2456498.531571319
  9
$TDINDWG
 40
0.0000000116
  9
$TDUSRTIMER
 40
0.0000000116
  9
$USRTIMER
 70
     1
  9
$ANGBASE
 50
0.0
  9
$ANGDIR
 70
     0
  9
$PDMODE
 70
     0
  9
$PDSIZE
 40
-1.0
  9
$PLINEWID
 40
0.0
  9
$COORDS
 70
     1
  9
$SPLFRAME
 70
     0
  9
$SPLINETYPE
 70
     6
  9
$SPLINESEGS
 70
     8
  9
$ATTDIA
 70
     0
  9
$ATTREQ
 70
     1
  9
$HANDLING
 70
     1
  9
$HANDSEED
  5
4EA
  9
$SURFTAB1
 70
     6
  9
$SURFTAB2
 70
     6
  9
$SURFTYPE
 70
     6
  9
$SURFU
 70
     6
  9
$SURFV
 70
     6
  9
$UCSNAME
  2

  9
$UCSORG
 10
0.0
 20
0.0
 30
0.0
  9
$UCSXDIR
 10
1.0
 20
0.0
 30
0.0
  9
$UCSYDIR
 10
0.0
 20
1.0
 30
0.0
  9
$PUCSNAME
  2

  9
$PUCSORG
 10
0.0
 20
0.0
 30
0.0
  9
$PUCSXDIR
 10
1.0
 20
0.0
 30
0.0
  9
$PUCSYDIR
 10
0.0
 20
1.0
 30
0.0
  9
$USERI1
 70
     0
  9
$USERI2
 70
     0
  9
$USERI3
 70
     0
  9
$USERI4
 70
     0
  9
$USERI5
 70
     0
  9
$USERR1
 40
0.0
  9
$USERR2
 40
0.0
  9
$USERR3
 40
0.0
  9
$USERR4
 40
0.0
  9
$USERR5
 40
0.0
  9
$WORLDVIEW
 70
     1
  9
$SHADEDGE
 70
     3
  9
$SHADEDIF
 70
    70
  9
$TILEMODE
 70
     1
  9
$MAXACTVP
 70
    64
  9
$PINSBASE
 10
0.0
 20
0.0
 30
0.0
  9
$PLIMCHECK
 70
     0
  9
$PEXTMIN
 10
1.0000000000E+20
 20
1.0000000000E+20
 30
1.0000000000E+20
  9
$PEXTMAX
 10
-1.0000000000E+20
 20
-1.0000000000E+20
 30
-1.0000000000E+20
  9
$PLIMMIN
 10
0.0
 20
0.0
  9
$PLIMMAX
 10
420.0
 20
297.0
  9
$UNITMODE
 70
     0
  9
$VISRETAIN
 70
     1
  9
$PLINEGEN
 70
     0
  9
$PSLTSCALE
 70
     1
  9
$TREEDEPTH
 70
  3020
  9
$PICKSTYLE
 70
     1
  9
$CMLSTYLE
  2
STANDARD
  9
$CMLJUST
 70
     0
  9
$CMLSCALE
 40
20.0
  9
$PROXYGRAPHICS
 70
     1
  9
$MEASUREMENT
 70
     1
  0
ENDSEC
  0
SECTION
  2
CLASSES
  0
CLASS
  1
ACDBDICTIONARYWDFLT
  2
AcDbDictionaryWithDefault
  3
ObjectDBX Classes
 90
        0
280
     0
281
     0
  0
CLASS
  1
VISUALSTYLE
  2
AcDbVisualStyle
  3
ObjectDBX Classes
 90
     4095
280
     0
281
     0
  0
CLASS
  1
MATERIAL
  2
AcDbMaterial
  3
ObjectDBX Classes
 90
     1153
280
     0
281
     0
  0
CLASS
  1
XRECORD
  2
AcDbXrecord
  3
AutoCAD 2000
 90
        0
280
     0
281
     0
  0
CLASS
  1
LWPOLYLINE
  2
AcDbPolyline
  3
AutoCAD 2000
 90
        0
280
     0
281
     1
  0
CLASS
  1
HATCH
  2
AcDbHatch
  3
AutoCAD 2000
 90
        0
280
     0
281
     1
  0
ENDSEC
  0
SECTION
  2
TABLES
  0
TABLE
  2
VPORT
  5
8
330
0
100
AcDbSymbolTable
 70
     1
  0
VPORT
  5
29
330
8
100
AcDbSymbolTableRecord
100
AcDbViewportTableRecord
  2
*ACTIVE
 70
     0
 10
0.0
 20
0.0
 11
1.0
 21
1.0
 12
2100.0
 22
1485.0
 13
0.0
 23
0.0
 14
10.0
 24
10.0
 15
10.0
 25
10.0
 16
0.0
 26
0.0
 36
1.0
 17
0.0
 27
0.0
 37
0.0
 40
2970.0
 41
1.4141414141
 42
50.0
 43
0.0
 44
0.0
 50
0.0
 51
0.0
 71
     0
 72
  2000
 73
     1
 74
     3
 75
     0
 76
     0
 77
     0
 78
     0
  0
ENDTAB
  0
TABLE
  2
LTYPE
  5
5
330
0
100
AcDbSymbolTable
 70
     6
  0
LTYPE
  5
14
330
5
100
AcDbSymbolTableRecord
100
AcDbLinetypeTableRecord
  2
BYBLOCK
 70
     0
  3

 72
    65
 73
     0
 40
0.0
  0
LTYPE
  5
15
330
5
100
AcDbSymbolTableRecord
100
AcDbLinetypeTableRecord
  2
BYLAYER
 70
     0
  3

 72
    65
 73
     0
 40
0.0
  0
LTYPE
  5
16
330
5
100
AcDbSymbolTableRecord
100
AcDbLinetypeTableRecord
  2
CONTINUOUS
 70
     0
  3
Solid line
 72
    65
 73
     0
 40
0.0
  0
LTYPE
  5
3F
330
5
100
AcDbSymbolTableRecord
100
AcDbLinetypeTableRecord
  2
HIDDEN
 70
     0
  3
Hidden __ __ __ __ __ __ __ __ __ __ __ __ __ __
 72
    65
 73
     2
 40
1.905
 49
1.27
 74
     0
 49
-0.635
 74
     0
  0
LTYPE
  5
40
330
5
100
AcDbSymbolTableRecord
100
AcDbLinetypeTableRecord
  2
PHANTOM
 70
     0
  3
Phantom ______  __  __  ______  __  __  ______
 72
    65
 73
     6
 40
12.7
 49
6.35
 74
     0
 49
-1.27
 74
     0
 49
1.27
 74
     0
 49
-1.27
 74
     0
 49
1.27
 74
     0
 49
-1.27
 74
     0
  0
LTYPE
  5
41
330
5
100
AcDbSymbolTableRecord
100
AcDbLinetypeTableRecord
  2
CENTER
 70
     0
  3
Center ____ _ ____ _ ____ _ ____ _ ____ _ ____
 72
    65
 73
     4
 40
10.16
 49
6.35
 74
     0
 49
-1.27
 74
     0
 49
1.27
 74
     0
 49
-1.27
 74
     0
  0
LTYPE
  5
42
330
5
100
AcDbSymbolTableRecord
100
AcDbLinetypeTableRecord
  2
CENTERX2
 70
     0
  3
Center (2x) ________  __  ________  __  _____
 72
    65
 73
     4
 40
20.32
 49
12.7
 74
     0
 49
-2.54
 74
     0
 49
2.54
 74
     0
 49
-2.54
 74
     0
  0
LTYPE
  5
43
330
5
100
AcDbSymbolTableRecord
100
AcDbLinetypeTableRecord
  2
DOT2
 70
     0
  3
Dot (.5x) ........................................
 72
    65
 73
     2
 40
0.635
 49
0.0
 74
     0
 49
-0.635
 74
     0
  0
ENDTAB
  0
TABLE
  2
LAYER
  5
2
330
0
100
AcDbSymbolTable
 70
     1
  0
LAYER
  5
10
330
2
100
AcDbSymbolTableRecord
100
AcDbLayerTableRecord
  2
0
 70
     0
 62
     7
  6
CONTINUOUS
  0
ENDTAB
  0
TABLE
  2
STYLE
  5
3
330
0
100
AcDbSymbolTable
 70
     1
  0
STYLE
  5
11
330
3
100
AcDbSymbolTableRecord
100
AcDbTextStyleTableRecord
  2
STANDARD
 70
     0
 40
0.0
 41
1.0
 50
0.0
 71
     0
 42
35.0
  3
txt
  4

  0
ENDTAB
  0
TABLE
  2
VIEW
  5
6
330
0
100
AcDbSymbolTable
 70
     0
  0
ENDTAB
  0
TABLE
  2
UCS
  5
7
330
0
100
AcDbSymbolTable
 70
     0
  0
ENDTAB
  0
TABLE
  2
APPID
  5
9
330
0
100
AcDbSymbolTable
 70
     1
  0
APPID
  5
12
330
9
100
AcDbSymbolTableRecord
100
AcDbRegAppTableRecord
  2
ACAD
 70
     0
  0
ENDTAB
  0
TABLE
  2
DIMSTYLE
  5
A
330
0
100
AcDbSymbolTable
 70
     1
  0
DIMSTYLE
105
27
330
A
100
AcDbSymbolTableRecord
100
AcDbDimStyleTableRecord
  2
ISO-25
 70
     0
  3

  4

  5

  6

  7

 40
1.0
 41
2.5
 42
0.625
 43
3.75
 44
1.25
 45
0.0
 46
0.0
 47
0.0
 48
0.0
140
2.5
141
2.5
142
0.0
143
0.0393700787
144
1.0
145
0.0
146
1.0
147
0.625
 71
     0
 72
     0
 73
     0
 74
     0
 75
     0
 76
     0
 77
     1
 78
     8
170
     0
171
     3
172
     1
173
     0
174
     0
175
     0
176
     0
177
     0
178
     0
270
     2
271
     2
272
     2
273
     2
274
     3
340
11
275
     0
280
     0
281
     0
282
     0
283
     0
284
     8
285
     0
286
     0
287
     3
288
     0
  0
ENDTAB
  0
TABLE
  2
BLOCK_RECORD
  5
1
330
0
100
AcDbSymbolTable
 70
     1
  0
BLOCK_RECORD
  5
1F
330
1
100
AcDbSymbolTableRecord
100
AcDbBlockTableRecord
  2
*MODEL_SPACE
  0
BLOCK_RECORD
  5
1B
330
1
100
AcDbSymbolTableRecord
100
AcDbBlockTableRecord
  2
*PAPER_SPACE
  0
BLOCK_RECORD
  5
23
330
1
100
AcDbSymbolTableRecord
100
AcDbBlockTableRecord
  2
*PAPER_SPACE0
  0
ENDTAB
  0
ENDSEC
  0
SECTION
  2
BLOCKS
  0
BLOCK
  5
20
330
1F
100
AcDbEntity
  8
0
100
AcDbBlockBegin
  2
*MODEL_SPACE
 70
     0
 10
0.0
 20
0.0
 30
0.0
  3
*MODEL_SPACE
  1

  0
ENDBLK
  5
21
330
1F
100
AcDbEntity
  8
0
100
AcDbBlockEnd
  0
BLOCK
  5
1C
330
1B
100
AcDbEntity
 67
     1
  8
0
100
AcDbBlockBegin
  2
*PAPER_SPACE
 70
     0
 10
0.0
 20
0.0
 30
0.0
  3
*PAPER_SPACE
  1

  0
ENDBLK
  5
1D
330
1B
100
AcDbEntity
 67
     1
  8
0
100
AcDbBlockEnd
  0
BLOCK
  5
24
330
23
100
AcDbEntity
  8
0
100
AcDbBlockBegin
  2
*PAPER_SPACE0
 70
     0
 10
0.0
 20
0.0
 30
0.0
  3
*PAPER_SPACE0
  1

  0
ENDBLK
  5
25
330
23
100
AcDbEntity
  8
0
100
AcDbBlockEnd
  0
ENDSEC
  0
SECTION
  2
ENTITIES
  0
LINE
  5
44
330
1F
100
AcDbEntity
  8
0
  6
CONTINUOUS
 62
     7
100
AcDbLine
 10
1734.3891565372
 20
1257.9287808497
 30
0.0
 11
1734.3891565372
 21
1213.6232178766
 31
0.0
  0
LINE
  5
45
330
1F
100
AcDbEntity
  8
0
  6
CONTINUOUS
 62
     7
100
AcDbLine
 10
1734.3891565372
 20
1213.6231284697
 30
0.0
 11
1734.3891565372
 21
1213.6232178766
 31
0.0
  0
LINE
  5
46
330
1F
100
AcDbEntity
  8
0
  6
CONTINUOUS
 62
     7
100
AcDbLine
 10
1336.3891546299
 20
1213.6231284697
 30
0.0
 11
1734.3891565372
 21
1213.6231284697
 31
0.0
  0
LINE
  5
47
330
1F
100
AcDbEntity
  8
0
  6
CONTINUOUS
 62
     7
100
AcDbLine
 10
1336.3891546299
 20
1213.6232178766
 30
0.0
 11
1336.3891546299
 21
1213.6231284697
 31
0.0
  0
LINE
  5
48
330
1F
100
AcDbEntity
  8
0
  6
CONTINUOUS
 62
     7
100
AcDbLine
 10
1336.3891546299
 20
1257.928810652
 30
0.0
 11
1336.3891546299
 21
1213.6232178766
 31
0.0
  0
LINE
  5
49
330
1F
100
AcDbEntity
  8
0
  6
CONTINUOUS
 62
     7
100
AcDbLine
 10
1734.3891565372
 20
1257.928810652
 30
0.0
 11
1336.3891546299
 21
1257.928810652
 31
0.0
  0
LINE
  5
4A
330
1F
100
AcDbEntity
  8
0
  6
CONTINUOUS
 62
     7
100
AcDbLine
 10
1734.3891565372
 20
1257.928810652
 30
0.0
 11
1778.6947493126
 21
1257.928810652
 31
0.0
  0
LWPOLYLINE
  5
4B
330
1F
100
AcDbEntity
  8
0
  6
CONTINUOUS
 62
     7
100
AcDbPolyline
 90
        4
 70
   128
 43
0.0
 10
1778.645888405
 20
1214.6712463457
 10
1778.6504630615
 20
1218.6703603823
 10
1778.6686722805
 20
1234.6668165285
 10
1778.6947493126
 20
1257.928810652
  0
SPLINE
  5
4C
330
1F
100
AcDbEntity
  8
0
  6
CONTINUOUS
 62
     7
100
AcDbSpline
210
0.0
220
0.0
230
1.0
 70
     8
 71
     3
 72
    12
 73
     8
 74
     0
 42
0.00000001
 43
0.00000001
 12
1.0
 22
0.0
 32
0.0
 13
1.0
 23
0.0
 33
0.0
 40
0.0
 40
0.0
 40
0.0
 40
0.0
 40
0.4999999999999623
 40
0.4999999999999623
 40
0.7499999999999811
 40
0.7499999999999811
 40
1.0
 40
1.0
 40
1.0
 40
1.0
 10
1777.646704807943
 20
1213.672066493398
 30
0.0
 10
1777.910513599351
 20
1213.672368394376
 30
0.0
 10
1778.169280274214
 20
1213.780677568204
 30
0.0
 10
1778.445578919695
 20
1214.057185553916
 30
0.0
 10
1778.519677859177
 20
1214.167999205829
 30
0.0
 10
1778.619800579414
 20
1214.409880746736
 30
0.0
 10
1778.645742312069
 20
1214.539343792319
 30
0.0
 10
1778.645894722494
 20
1214.671245266052
 30
0.0
  0
LWPOLYLINE
  5
4D
330
1F
100
AcDbEntity
  8
0
  6
CONTINUOUS
 62
     7
100
AcDbPolyline
 90
        4
 70
   128
 43
0.0
 10
1734.3891565372
 20
1213.6232178766
 10
1738.3882705738
 20
1213.6276584227
 10
1754.3847416212
 20
1213.6455994207
 10
1777.6467059423
 20
1213.672063883
  0
LINE
  5
4E
330
1F
100
AcDbEntity
  8
0
  6
CONTINUOUS
 62
     7
100
AcDbLine
 10
1778.6947493126
 20
1855.9288006384
 30
0.0
 11
1778.6948387195
 21
1855.9288006384
 31
0.0
  0
LINE
  5
4F
330
1F
100
AcDbEntity
  8
0
  6
CONTINUOUS
 62
     7
100
AcDbLine
 10
1778.6948387195
 20
1257.928810652
 30
0.0
 11
1778.6948387195
 21
1855.9288006384
 31
0.0
  0
LINE
  5
50
330
1F
100
AcDbEntity
  8
0
  6
CONTINUOUS
 62
     7
100
AcDbLine
 10
1778.6947493126
 20
1257.928810652
 30
0.0
 11
1778.6948387195
 21
1257.928810652
 31
0.0
  0
LINE
  5
51
330
1F
100
AcDbEntity
  8
0
  6
CONTINUOUS
 62
     7
100
AcDbLine
 10
1734.3891565372
 20
1257.928810652
 30
0.0
 11
1734.3891565372
 21
1855.9288006384
 31
0.0
  0
LINE
  5
52
330
1F
100
AcDbEntity
  8
0
  6
CONTINUOUS
 62
     7
100
AcDbLine
 10
1734.3891565372
 20
1855.9288006384
 30
0.0
 11
1778.6947493126
 21
1855.9288006384
 31
0.0
  0
LINE
  5
53
330
1F
100
AcDbEntity
  8
0
  6
CONTINUOUS
 62
     7
100
AcDbLine
 10
1336.3891546299
 20
1257.928810652
 30
0.0
 11
1336.3891546299
 21
1855.9288006384
 31
0.0
  0
LINE
  5
54
330
1F
100
AcDbEntity
  8
0
  6
CONTINUOUS
 62
     7
100
AcDbLine
 10
1734.3891565372
 20
1855.9288006384
 30
0.0
 11
1336.3891546299
 21
1855.9288006384
 31
0.0
  0
SPLINE
  5
55
330
1F
100
AcDbEntity
  8
0
  6
CONTINUOUS
 62
     7
100
AcDbSpline
210
0.0
220
0.0
230
1.0
 70
     8
 71
     3
 72
    12
 73
     8
 74
     0
 42
0.00000001
 43
0.00000001
 12
1.0
 22
0.0
 32
0.0
 13
1.0
 23
0.0
 33
0.0
 40
0.0
 40
0.0
 40
0.0
 40
0.0
 40
0.5
 40
0.5
 40
0.75
 40
0.75
 40
1.0
 40
1.0
 40
1.0
 40
1.0
 10
1292.132416444166
 20
1214.671245623468
 30
0.0
 10
1292.132721177692
 20
1214.407437093718
 30
0.0
 10
1292.241033017167
 20
1214.148671445021
 30
0.0
 10
1292.517544241538
 20
1213.872375568028
 30
0.0
 10
1292.628358562238
 20
1213.798277915633
 30
0.0
 10
1292.870241558701
 20
1213.698157703957
 30
0.0
 10
1292.999704606789
 20
1213.672217440862
 30
0.0
 10
1293.13160635913
 20
1213.672066493398
 30
0.0
  0
LWPOLYLINE
  5
56
330
1F
100
AcDbEntity
  8
0
  6
CONTINUOUS
 62
     7
100
AcDbPolyline
 90
        4
 70
   128
 43
0.0
 10
1292.0835618545
 20
1257.928810652
 10
1292.0880024006
 20
1253.9296966154
 10
1292.1059433986
 20
1237.9332106668
 10
1292.1324227621
 20
1214.6712463457
  0
LINE
  5
57
330
1F
100
AcDbEntity
  8
0
  6
CONTINUOUS
 62
     7
100
AcDbLine
 10
1336.3891546299
 20
1257.928810652
 30
0.0
 11
1292.0835618545
 21
1257.928810652
 31
0.0
  0
LWPOLYLINE
  5
58
330
1F
100
AcDbEntity
  8
0
  6
CONTINUOUS
 62
     7
100
AcDbPolyline
 90
        4
 70
   128
 43
0.0
 10
1293.1316052248
 20
1213.672063883
 10
1297.1307192613
 20
1213.6675041277
 10
1313.1271605064
 20
1213.6492949087
 10
1336.3891546299
 20
1213.6232178766
  0
LINE
  5
59
330
1F
100
AcDbEntity
  8
0
  6
CONTINUOUS
 62
     7
100
AcDbLine
 10
1734.3891565372
 20
1900.2343934137
 30
0.0
 11
1734.3891565372
 21
1900.2344828207
 31
0.0
  0
LINE
  5
5A
330
1F
100
AcDbEntity
  8
0
  6
CONTINUOUS
 62
     7
100
AcDbLine
 10
1734.3891565372
 20
1855.9288006384
 30
0.0
 11
1734.3891565372
 21
1900.2343934137
 31
0.0
  0
LINE
  5
5B
330
1F
100
AcDbEntity
  8
0
  6
CONTINUOUS
 62
     7
100
AcDbLine
 10
1336.3891546299
 20
1855.9288006384
 30
0.0
 11
1336.3891546299
 21
1900.2343934137
 31
0.0
  0
LINE
  5
5C
330
1F
100
AcDbEntity
  8
0
  6
CONTINUOUS
 62
     7
100
AcDbLine
 10
1336.3891546299
 20
1900.2344828207
 30
0.0
 11
1336.3891546299
 21
1900.2343934137
 31
0.0
  0
LINE
  5
5D
330
1F
100
AcDbEntity
  8
0
  6
CONTINUOUS
 62
     7
100
AcDbLine
 10
1734.3891565372
 20
1900.2344828207
 30
0.0
 11
1336.3891546299
 21
1900.2344828207
 31
0.0
  0
SPLINE
  5
5E
330
1F
100
AcDbEntity
  8
0
  6
CONTINUOUS
 62
     7
100
AcDbSpline
210
0.0
220
0.0
230
1.0
 70
     8
 71
     3
 72
    12
 73
     8
 74
     0
 42
0.00000001
 43
0.00000001
 12
1.0
 22
0.0
 32
0.0
 13
1.0
 23
0.0
 33
0.0
 40
0.0
 40
0.0
 40
0.0
 40
0.0
 40
0.4999999999999811
 40
0.4999999999999811
 40
0.7499999999999906
 40
0.7499999999999906
 40
1.0
 40
1.0
 40
1.0
 40
1.0
 10
1778.645894722907
 20
1899.186365666897
 30
0.0
 10
1778.64558998938
 20
1899.450174196647
 30
0.0
 10
1778.537278149906
 20
1899.708939845343
 30
0.0
 10
1778.260766925535
 20
1899.985235722337
 30
0.0
 10
1778.149952604835
 20
1900.059333374732
 30
0.0
 10
1777.908069608372
 20
1900.159453586408
 30
0.0
 10
1777.778606560283
 20
1900.185393849503
 30
0.0
 10
1777.646704807943
 20
1900.185544796967
 30
0.0
  0
LWPOLYLINE
  5
5F
330
1F
100
AcDbEntity
  8
0
  6
CONTINUOUS
 62
     7
100
AcDbPolyline
 90
        4
 70
   128
 43
0.0
 10
1778.6947493126
 20
1855.9288006384
 10
1778.6903087665
 20
1859.927914675
 10
1778.6723677684
 20
1875.9244006235
 10
1778.645888405
 20
1899.1863649447
  0
LWPOLYLINE
  5
60
330
1F
100
AcDbEntity
  8
0
  6
CONTINUOUS
 62
     7
100
AcDbPolyline
 90
        4
 70
   128
 43
0.0
 10
1777.6467059423
 20
1900.1855474073
 10
1773.6475919057
 20
1900.1901071627
 10
1757.6511506607
 20
1900.2083163816
 10
1734.3891565372
 20
1900.2343934137
  0
LINE
  5
61
330
1F
100
AcDbEntity
  8
0
  6
CONTINUOUS
 62
     7
100
AcDbLine
 10
1336.3891546299
 20
1855.9288006384
 30
0.0
 11
1292.0835618545
 21
1855.9288006384
 31
0.0
  0
LWPOLYLINE
  5
62
330
1F
100
AcDbEntity
  8
0
  6
CONTINUOUS
 62
     7
100
AcDbPolyline
 90
        4
 70
   128
 43
0.0
 10
1292.1324227621
 20
1899.1863649447
 10
1292.1278481056
 20
1895.1872509081
 10
1292.1096388866
 20
1879.1907947619
 10
1292.0835618545
 20
1855.9288006384
  0
SPLINE
  5
63
330
1F
100
AcDbEntity
  8
0
  6
CONTINUOUS
 62
     7
100
AcDbSpline
210
0.0
220
0.0
230
1.0
 70
     8
 71
     3
 72
    12
 73
     8
 74
     0
 42
0.00000001
 43
0.00000001
 12
1.0
 22
0.0
 32
0.0
 13
1.0
 23
0.0
 33
0.0
 40
0.0
 40
0.0
 40
0.0
 40
0.0
 40
0.4999999999999811
 40
0.4999999999999811
 40
0.7499999999999906
 40
0.7499999999999906
 40
1.0
 40
1.0
 40
1.0
 40
1.0
 10
1293.13160635913
 20
1900.185544796967
 30
0.0
 10
1292.867797567721
 20
1900.185242895989
 30
0.0
 10
1292.609030892858
 20
1900.076933722161
 30
0.0
 10
1292.332732247378
 20
1899.800425736449
 30
0.0
 10
1292.258633307895
 20
1899.689612084536
 30
0.0
 10
1292.158510587659
 20
1899.447730543629
 30
0.0
 10
1292.132568855004
 20
1899.318267498046
 30
0.0
 10
1292.132416444579
 20
1899.186366024313
 30
0.0
  0
LWPOLYLINE
  5
64
330
1F
100
AcDbEntity
  8
0
  6
CONTINUOUS
 62
     7
100
AcDbPolyline
 90
        4
 70
   128
 43
0.0
 10
1336.3891546299
 20
1900.2343934137
 10
1332.3900405933
 20
1900.2299528677
 10
1316.3935695459
 20
1900.2120118696
 10
1293.1316052248
 20
1900.1855474073
  0
LINE
  5
65
330
1F
100
AcDbEntity
  8
0
  6
CONTINUOUS
 62
     7
100
AcDbLine
 10
1292.0835618545
 20
1855.9288006384
 30
0.0
 11
1292.0834724476
 21
1855.9288006384
 31
0.0
  0
LINE
  5
66
330
1F
100
AcDbEntity
  8
0
  6
CONTINUOUS
 62
     7
100
AcDbLine
 10
1292.0835618545
 20
1257.928810652
 30
0.0
 11
1292.0834724476
 21
1257.928810652
 31
0.0
  0
LINE
  5
67
330
1F
100
AcDbEntity
  8
0
  6
CONTINUOUS
 62
     7
100
AcDbLine
 10
1292.0834724476
 20
1855.9288006384
 30
0.0
 11
1292.0834724476
 21
1257.928810652
 31
0.0
  0
SPLINE
  5
68
330
1F
100
AcDbEntity
  8
0
  6
CONTINUOUS
 62
     7
100
AcDbSpline
210
0.0
220
0.0
230
1.0
 70
     8
 71
     3
 72
    12
 73
     8
 74
     0
 42
0.00000001
 43
0.00000001
 12
1.0
 22
0.0
 32
0.0
 13
1.0
 23
0.0
 33
0.0
 40
0.0
 40
0.0
 40
0.0
 40
0.0
 40
0.2416167768593724
 40
0.4832258054770752
 40
0.724846186457579
 40
0.9779409905369595
 40
1.0
 40
1.0
 40
1.0
 40
1.0
 10
1734.389156537211
 20
1213.623128469661
 30
0.0
 10
1734.388503622283
 20
1213.401026725937
 30
0.0
 10
1734.387197813364
 20
1212.956830360919
 30
0.0
 10
1734.382507679218
 20
1212.390393199574
 30
0.0
 10
1734.376216685835
 20
1211.975466245901
 30
0.0
 10
1734.371135867319
 20
1211.831786154282
 30
0.0
 10
1734.368409199647
 20
1211.807023044455
 30
0.0
 10
1734.368190603411
 20
1211.805037792399
 30
0.0
  0
LINE
  5
69
330
1F
100
AcDbEntity
  8
0
  6
CONTINUOUS
 62
     7
100
AcDbLine
 10
1734.3681906034
 20
1211.8050377924
 30
0.0
 11
1336.4101205637
 21
1211.8050377924
 31
0.0
  0
SPLINE
  5
6A
330
1F
100
AcDbEntity
  8
0
  6
CONTINUOUS
 62
     7
100
AcDbSpline
210
0.0
220
0.0
230
1.0
 70
     8
 71
     3
 72
    12
 73
     8
 74
     0
 42
0.00000001
 43
0.00000001
 12
1.0
 22
0.0
 32
0.0
 13
1.0
 23
0.0
 33
0.0
 40
0.0
 40
0.0
 40
0.0
 40
0.0
 40
0.2416167768593724
 40
0.4832258054770752
 40
0.724846186457579
 40
0.9779409905369595
 40
1.0
 40
1.0
 40
1.0
 40
1.0
 10
1336.389154629862
 20
1213.623128469661
 30
0.0
 10
1336.38980754479
 20
1213.401026725937
 30
0.0
 10
1336.391113353709
 20
1212.956830360919
 30
0.0
 10
1336.395803487855
 20
1212.390393199574
 30
0.0
 10
1336.402094481238
 20
1211.975466245901
 30
0.0
 10
1336.407175299754
 20
1211.831786154282
 30
0.0
 10
1336.409901967426
 20
1211.807023044455
 30
0.0
 10
1336.410120563662
 20
1211.805037792399
 30
0.0
  0
LWPOLYLINE
  5
6B
330
1F
100
AcDbEntity
  8
0
  6
CONTINUOUS
 62
     7
100
AcDbPolyline
 90
        5
 70
   128
 43
0.0
 10
1336.4101205637
 20
1211.8050377924
 10
1330.9214268495
 20
1211.7948752005
 10
1318.3389012386
 20
1211.771539982
 10
1305.7563607265
 20
1211.7482047636
 10
1293.1738351156
 20
1211.7248993475
  0
ARC
  5
6C
330
1F
100
AcDbEntity
  8
0
  6
CONTINUOUS
 62
     7
100
AcDbCircle
 10
1320.9872601103
 20
1213.3021540638
 30
0.0
 40
27.85811089033566
100
AcDbArc
 50
179.2391840787
 51
183.2456755339
  0
ARC
  5
6D
330
1F
100
AcDbEntity
  8
0
  6
CONTINUOUS
 62
     7
100
AcDbCircle
 10
1749.7910510568
 20
1213.3021540638
 30
0.0
 40
27.85811089031766
100
AcDbArc
 50
356.7543244661
 51
0.7608159213
  0
LWPOLYLINE
  5
6E
330
1F
100
AcDbEntity
  8
0
  6
CONTINUOUS
 62
     7
100
AcDbPolyline
 90
        5
 70
   128
 43
0.0
 10
1777.6044760515
 20
1211.7248993475
 10
1765.0219504406
 20
1211.7482047636
 10
1752.4394099285
 20
1211.771539982
 10
1739.8568843176
 20
1211.7948752005
 10
1734.3681906034
 20
1211.8050377924
  0
SPLINE
  5
6F
330
1F
100
AcDbEntity
  8
0
  6
CONTINUOUS
 62
     7
100
AcDbSpline
210
0.0
220
0.0
230
1.0
 70
     8
 71
     3
 72
    12
 73
     8
 74
     0
 42
0.00000001
 43
0.00000001
 12
1.0
 22
0.0
 32
0.0
 13
1.0
 23
0.0
 33
0.0
 40
0.0
 40
0.0
 40
0.0
 40
0.0
 40
0.0220590094630406
 40
0.275153813542421
 40
0.5167741945229248
 40
0.7583832231406276
 40
1.0
 40
1.0
 40
1.0
 40
1.0
 10
1734.368190603411
 20
1902.052573497966
 30
0.0
 10
1734.368409199647
 20
1902.05058824591
 30
0.0
 10
1734.371135867319
 20
1902.025825136082
 30
0.0
 10
1734.376216685835
 20
1901.882145044465
 30
0.0
 10
1734.382507679218
 20
1901.467218090791
 30
0.0
 10
1734.387197813364
 20
1900.900780929446
 30
0.0
 10
1734.388503622283
 20
1900.456584564427
 30
0.0
 10
1734.389156537211
 20
1900.234482820704
 30
0.0
  0
LWPOLYLINE
  5
70
330
1F
100
AcDbEntity
  8
0
  6
CONTINUOUS
 62
     7
100
AcDbPolyline
 90
        5
 70
   128
 43
0.0
 10
1734.3681906034
 20
1902.052573498
 10
1739.8568843176
 20
1902.0627360899
 10
1752.4394099285
 20
1902.0860713083
 10
1765.0219504406
 20
1902.1094065268
 10
1777.6044760515
 20
1902.1327119429
  0
ARC
  5
71
330
1F
100
AcDbEntity
  8
0
  6
CONTINUOUS
 62
     7
100
AcDbCircle
 10
1749.7910510568
 20
1900.5554572266
 30
0.0
 40
27.85811089031789
100
AcDbArc
 50
359.2391840787
 51
3.2456755339
  0
ARC
  5
72
330
1F
100
AcDbEntity
  8
0
  6
CONTINUOUS
 62
     7
100
AcDbCircle
 10
1320.9872601103
 20
1900.5554572266
 30
0.0
 40
27.85811089033566
100
AcDbArc
 50
176.7543244661
 51
180.7608159213
  0
LWPOLYLINE
  5
73
330
1F
100
AcDbEntity
  8
0
  6
CONTINUOUS
 62
     7
100
AcDbPolyline
 90
        5
 70
   128
 43
0.0
 10
1293.1738351156
 20
1902.1327119429
 10
1305.7563607265
 20
1902.1094065268
 10
1318.3389012386
 20
1902.0860713083
 10
1330.9214268495
 20
1902.0627360899
 10
1336.4101205637
 20
1902.052573498
  0
SPLINE
  5
74
330
1F
100
AcDbEntity
  8
0
  6
CONTINUOUS
 62
     7
100
AcDbSpline
210
0.0
220
0.0
230
1.0
 70
     8
 71
     3
 72
    12
 73
     8
 74
     0
 42
0.00000001
 43
0.00000001
 12
1.0
 22
0.0
 32
0.0
 13
1.0
 23
0.0
 33
0.0
 40
0.0
 40
0.0
 40
0.0
 40
0.0
 40
0.0220590094630406
 40
0.275153813542421
 40
0.5167741945229248
 40
0.7583832231406276
 40
1.0
 40
1.0
 40
1.0
 40
1.0
 10
1336.410120563662
 20
1902.052573497966
 30
0.0
 10
1336.409901967426
 20
1902.05058824591
 30
0.0
 10
1336.407175299754
 20
1902.025825136082
 30
0.0
 10
1336.402094481238
 20
1901.882145044465
 30
0.0
 10
1336.395803487855
 20
1901.467218090791
 30
0.0
 10
1336.391113353709
 20
1900.900780929446
 30
0.0
 10
1336.38980754479
 20
1900.456584564427
 30
0.0
 10
1336.389154629862
 20
1900.234482820704
 30
0.0
  0
LINE
  5
75
330
1F
100
AcDbEntity
  8
0
  6
CONTINUOUS
 62
     7
100
AcDbLine
 10
1336.4101205637
 20
1902.052573498
 30
0.0
 11
1734.3681906034
 21
1902.052573498
 31
0.0
  0
SPLINE
  5
76
330
1F
100
AcDbEntity
  8
0
  6
CONTINUOUS
 62
     7
100
AcDbSpline
210
0.0
220
0.0
230
1.0
 70
     8
 71
     3
 72
    12
 73
     8
 74
     0
 42
0.00000001
 43
0.00000001
 12
1.0
 22
0.0
 32
0.0
 13
1.0
 23
0.0
 33
0.0
 40
0.0
 40
0.0
 40
0.0
 40
0.0
 40
0.2416128537928013
 40
0.4832231102751505
 40
0.7248448036467106
 40
0.9779409872326533
 40
1.0
 40
1.0
 40
1.0
 40
1.0
 10
1778.694838719523
 20
1855.928800638392
 30
0.0
 10
1778.916935226815
 20
1855.928146703717
 30
0.0
 10
1779.361125853888
 20
1855.926838841396
 30
0.0
 10
1779.92755920671
 20
1855.922163907167
 30
0.0
 10
1780.342486067109
 20
1855.915905228351
 30
0.0
 10
1780.486165991382
 20
1855.910654679917
 30
0.0
 10
1780.510929241963
 20
1855.908057796227
 30
0.0
 10
1780.512914495623
 20
1855.907849605754
 30
0.0
  0
LINE
  5
77
330
1F
100
AcDbEntity
  8
0
  6
CONTINUOUS
 62
     7
100
AcDbLine
 10
1780.5129144956
 20
1855.9078496058
 30
0.0
 11
1780.5129144956
 21
1257.9497616846
 31
0.0
  0
SPLINE
  5
78
330
1F
100
AcDbEntity
  8
0
  6
CONTINUOUS
 62
     7
100
AcDbSpline
210
0.0
220
0.0
230
1.0
 70
     8
 71
     3
 72
    12
 73
     8
 74
     0
 42
0.00000001
 43
0.00000001
 12
1.0
 22
0.0
 32
0.0
 13
1.0
 23
0.0
 33
0.0
 40
0.0
 40
0.0
 40
0.0
 40
0.0
 40
0.2416128537928013
 40
0.4832231102751505
 40
0.7248448036467106
 40
0.9779409872326533
 40
1.0
 40
1.0
 40
1.0
 40
1.0
 10
1778.694838719523
 20
1257.928810651973
 30
0.0
 10
1778.916935226815
 20
1257.929464586648
 30
0.0
 10
1779.361125853888
 20
1257.930772448969
 30
0.0
 10
1779.92755920671
 20
1257.935447383197
 30
0.0
 10
1780.342486067109
 20
1257.941706062014
 30
0.0
 10
1780.486165991382
 20
1257.946956610448
 30
0.0
 10
1780.510929241963
 20
1257.949553494138
 30
0.0
 10
1780.512914495623
 20
1257.949761684611
 30
0.0
  0
ARC
  5
79
330
1F
100
AcDbEntity
  8
0
  6
CONTINUOUS
 62
     7
100
AcDbCircle
 10
1779.0153899646
 20
1871.3113290516
 30
0.0
 40
27.87748477612559
100
AcDbArc
 50
86.7557114057
 51
90.7594479917
  0
LWPOLYLINE
  5
7A
330
1F
100
AcDbEntity
  8
0
  6
CONTINUOUS
 62
     7
100
AcDbPolyline
 90
        5
 70
   128
 43
0.0
 10
1780.5930678417
 20
1899.1441350538
 10
1780.5697475244
 20
1886.5615945417
 10
1780.5464272071
 20
1873.9790540297
 10
1780.5230919887
 20
1861.3965433199
 10
1780.5129144956
 20
1855.9078496058
  0
LWPOLYLINE
  5
7B
330
1F
100
AcDbEntity
  8
0
  6
CONTINUOUS
 62
     7
100
AcDbPolyline
 90
        5
 70
   128
 43
0.0
 10
1780.5129144956
 20
1257.9497616846
 10
1780.5230919887
 20
1252.4610679705
 10
1780.5464272071
 20
1239.8785572607
 10
1780.5697475244
 20
1227.2960167486
 10
1780.5930678417
 20
1214.7134762365
  0
ARC
  5
7C
330
1F
100
AcDbEntity
  8
0
  6
CONTINUOUS
 62
     7
100
AcDbCircle
 10
1779.0153899646
 20
1242.5462822389
 30
0.0
 40
27.87748477626878
100
AcDbArc
 50
269.2405520083
 51
273.2442885943
  0
SPLINE
  5
7D
330
1F
100
AcDbEntity
  8
0
  6
CONTINUOUS
 62
     7
100
AcDbSpline
210
0.0
220
0.0
230
1.0
 70
     8
 71
     3
 72
    12
 73
     8
 74
     0
 42
0.00000001
 43
0.00000001
 12
1.0
 22
0.0
 32
0.0
 13
1.0
 23
0.0
 33
0.0
 40
0.0
 40
0.0
 40
0.0
 40
0.0
 40
0.0220590127673466
 40
0.2751551963532894
 40
0.5167768897248496
 40
0.7583871462071987
 40
1.0
 40
1.0
 40
1.0
 40
1.0
 10
1290.26539667145
 20
1855.907849605754
 30
0.0
 10
1290.26738192511
 20
1855.908057796227
 30
0.0
 10
1290.292145175691
 20
1855.910654679917
 30
0.0
 10
1290.435825099964
 20
1855.915905228351
 30
0.0
 10
1290.850751960363
 20
1855.922163907167
 30
0.0
 10
1291.417185313185
 20
1855.926838841396
 30
0.0
 10
1291.861375940257
 20
1855.928146703717
 30
0.0
 10
1292.08347244755
 20
1855.928800638392
 30
0.0
  0
LWPOLYLINE
  5
7E
330
1F
100
AcDbEntity
  8
0
  6
CONTINUOUS
 62
     7
100
AcDbPolyline
 90
        5
 70
   128
 43
0.0
 10
1290.2653966714
 20
1855.9078496058
 10
1290.2552191784
 20
1861.3965433199
 10
1290.2318839599
 20
1873.9790540297
 10
1290.2085636427
 20
1886.5615945417
 10
1290.1852433254
 20
1899.1441350538
  0
ARC
  5
7F
330
1F
100
AcDbEntity
  8
0
  6
CONTINUOUS
 62
     7
100
AcDbCircle
 10
1291.7629212025
 20
1871.3113290516
 30
0.0
 40
27.87748477611901
100
AcDbArc
 50
89.2405520083
 51
93.2442885943
  0
SPLINE
  5
80
330
1F
100
AcDbEntity
  8
0
  6
CONTINUOUS
 62
     7
100
AcDbSpline
210
0.0
220
0.0
230
1.0
 70
     8
 71
     3
 72
    12
 73
     8
 74
     0
 42
0.00000001
 43
0.00000001
 12
1.0
 22
0.0
 32
0.0
 13
1.0
 23
0.0
 33
0.0
 40
0.0
 40
0.0
 40
0.0
 40
0.0
 40
0.0220590127673466
 40
0.2751551963532894
 40
0.5167768897248496
 40
0.7583871462071987
 40
1.0
 40
1.0
 40
1.0
 40
1.0
 10
1290.26539667145
 20
1257.949761684611
 30
0.0
 10
1290.26738192511
 20
1257.949553494138
 30
0.0
 10
1290.292145175691
 20
1257.946956610448
 30
0.0
 10
1290.435825099964
 20
1257.941706062014
 30
0.0
 10
1290.850751960363
 20
1257.935447383197
 30
0.0
 10
1291.417185313185
 20
1257.930772448969
 30
0.0
 10
1291.861375940257
 20
1257.929464586648
 30
0.0
 10
1292.08347244755
 20
1257.928810651973
 30
0.0
  0
LINE
  5
81
330
1F
100
AcDbEntity
  8
0
  6
CONTINUOUS
 62
     7
100
AcDbLine
 10
1290.2653966714
 20
1257.9497616846
 30
0.0
 11
1290.2653966714
 21
1855.9078496058
 31
0.0
  0
ARC
  5
82
330
1F
100
AcDbEntity
  8
0
  6
CONTINUOUS
 62
     7
100
AcDbCircle
 10
1291.7629212025
 20
1242.5462822389
 30
0.0
 40
27.87748477626219
100
AcDbArc
 50
266.7557114057
 51
270.7594479917
  0
LWPOLYLINE
  5
83
330
1F
100
AcDbEntity
  8
0
  6
CONTINUOUS
 62
     7
100
AcDbPolyline
 90
        5
 70
   128
 43
0.0
 10
1290.1852433254
 20
1214.7134762365
 10
1290.2085636427
 20
1227.2960167486
 10
1290.2318839599
 20
1239.8785572607
 10
1290.2552191784
 20
1252.4610679705
 10
1290.2653966714
 20
1257.9497616846
  0
SPLINE
  5
84
330
1F
100
AcDbEntity
  8
0
  6
CONTINUOUS
 62
     7
100
AcDbSpline
210
0.0
220
0.0
230
1.0
 70
     8
 71
     3
 72
    22
 73
    18
 74
     0
 42
0.00000001
 43
0.00000001
 12
1.0
 22
0.0
 32
0.0
 13
1.0
 23
0.0
 33
0.0
 40
0.0
 40
0.0
 40
0.0
 40
0.0
 40
0.125
 40
0.125
 40
0.25
 40
0.25
 40
0.375
 40
0.375
 40
0.5
 40
0.5
 40
0.625
 40
0.625
 40
0.75
 40
0.75
 40
0.875
 40
0.875
 40
1.0
 40
1.0
 40
1.0
 40
1.0
 10
1293.173833384891
 20
1211.724899352262
 30
0.0
 10
1292.976941407874
 20
1211.725770997868
 30
0.0
 10
1292.783335621746
 20
1211.745836397241
 30
0.0
 10
1292.402435205969
 20
1211.822831640234
 30
0.0
 10
1292.213182871509
 20
1211.880677930875
 30
0.0
 10
1291.852232609628
 20
1212.031151204572
 30
0.0
 10
1291.680986685108
 20
1212.123040482952
 30
0.0
 10
1291.356796026535
 20
1212.339840894943
 30
0.0
 10
1291.203236664761
 20
1212.465903251609
 30
0.0
 10
1290.927764186627
 20
1212.741166263803
 30
0.0
 10
1290.804048207482
 20
1212.891297053991
 30
0.0
 10
1290.585319999865
 20
1213.217148495561
 30
0.0
 10
1290.492240042521
 20
1213.390565147491
 30
0.0
 10
1290.342357849011
 20
1213.74919394129
 30
0.0
 10
1290.284450032423
 20
1213.936879809494
 30
0.0
 10
1290.206193483557
 20
1214.321897997581
 30
0.0
 10
1290.186120940296
 20
1214.516590549109
 30
0.0
 10
1290.185249290616
 20
1214.713483446537
 30
0.0
  0
SPLINE
  5
85
330
1F
100
AcDbEntity
  8
0
  6
CONTINUOUS
 62
     7
100
AcDbSpline
210
0.0
220
0.0
230
1.0
 70
     8
 71
     3
 72
    22
 73
    18
 74
     0
 42
0.00000001
 43
0.00000001
 12
1.0
 22
0.0
 32
0.0
 13
1.0
 23
0.0
 33
0.0
 40
0.0
 40
0.0
 40
0.0
 40
0.0
 40
0.125
 40
0.125
 40
0.25
 40
0.25
 40
0.375
 40
0.375
 40
0.5
 40
0.5
 40
0.625
 40
0.625
 40
0.75
 40
0.75
 40
0.875
 40
0.875
 40
1.0
 40
1.0
 40
1.0
 40
1.0
 10
1780.593061876457
 20
1214.713483446537
 30
0.0
 10
1780.592190230851
 20
1214.51659146952
 30
0.0
 10
1780.572124831477
 20
1214.322985683392
 30
0.0
 10
1780.495129588484
 20
1213.942085267615
 30
0.0
 10
1780.437283297844
 20
1213.752832933156
 30
0.0
 10
1780.286810024146
 20
1213.391882671274
 30
0.0
 10
1780.194920745767
 20
1213.220636746754
 30
0.0
 10
1779.978120333776
 20
1212.896446088181
 30
0.0
 10
1779.85205797711
 20
1212.742886726407
 30
0.0
 10
1779.576794964916
 20
1212.467414248272
 30
0.0
 10
1779.426664174727
 20
1212.343698269128
 30
0.0
 10
1779.100812733158
 20
1212.124970061511
 30
0.0
 10
1778.927396081228
 20
1212.031890104167
 30
0.0
 10
1778.568767287429
 20
1211.882007910657
 30
0.0
 10
1778.381081419225
 20
1211.824100094069
 30
0.0
 10
1777.996063231137
 20
1211.745843545203
 30
0.0
 10
1777.801370679609
 20
1211.725771001943
 30
0.0
 10
1777.604477782182
 20
1211.724899352262
 30
0.0
  0
SPLINE
  5
86
330
1F
100
AcDbEntity
  8
0
  6
CONTINUOUS
 62
     7
100
AcDbSpline
210
0.0
220
0.0
230
1.0
 70
     8
 71
     3
 72
    22
 73
    18
 74
     0
 42
0.00000001
 43
0.00000001
 12
1.0
 22
0.0
 32
0.0
 13
1.0
 23
0.0
 33
0.0
 40
0.0
 40
0.0
 40
0.0
 40
0.0
 40
0.125
 40
0.125
 40
0.25
 40
0.25
 40
0.375
 40
0.375
 40
0.5
 40
0.5
 40
0.625
 40
0.625
 40
0.75
 40
0.75
 40
0.875
 40
0.875
 40
1.0
 40
1.0
 40
1.0
 40
1.0
 10
1777.604477782182
 20
1902.132711938103
 30
0.0
 10
1777.801369759199
 20
1902.131840292497
 30
0.0
 10
1777.994975545327
 20
1902.111774893124
 30
0.0
 10
1778.375875961104
 20
1902.034779650131
 30
0.0
 10
1778.565128295563
 20
1901.97693335949
 30
0.0
 10
1778.926078557445
 20
1901.826460085793
 30
0.0
 10
1779.097324481965
 20
1901.734570807413
 30
0.0
 10
1779.421515140537
 20
1901.517770395422
 30
0.0
 10
1779.575074502312
 20
1901.391708038756
 30
0.0
 10
1779.850546980446
 20
1901.116445026562
 30
0.0
 10
1779.974262959591
 20
1900.966314236374
 30
0.0
 10
1780.192991167208
 20
1900.640462794804
 30
0.0
 10
1780.286071124552
 20
1900.467046142874
 30
0.0
 10
1780.435953318062
 20
1900.108417349075
 30
0.0
 10
1780.493861134649
 20
1899.920731480871
 30
0.0
 10
1780.572117683515
 20
1899.535713292783
 30
0.0
 10
1780.592190226776
 20
1899.341020741256
 30
0.0
 10
1780.593061876457
 20
1899.144127843828
 30
0.0
  0
SPLINE
  5
87
330
1F
100
AcDbEntity
  8
0
  6
CONTINUOUS
 62
     7
100
AcDbSpline
210
0.0
220
0.0
230
1.0
 70
     8
 71
     3
 72
    22
 73
    18
 74
     0
 42
0.00000001
 43
0.00000001
 12
1.0
 22
0.0
 32
0.0
 13
1.0
 23
0.0
 33
0.0
 40
0.0
 40
0.0
 40
0.0
 40
0.0
 40
0.125
 40
0.125
 40
0.25
 40
0.25
 40
0.375
 40
0.375
 40
0.5
 40
0.5
 40
0.625
 40
0.625
 40
0.75
 40
0.75
 40
0.875
 40
0.875
 40
1.0
 40
1.0
 40
1.0
 40
1.0
 10
1290.185249290616
 20
1899.144127843828
 30
0.0
 10
1290.186120936222
 20
1899.341019820845
 30
0.0
 10
1290.206186335595
 20
1899.534625606973
 30
0.0
 10
1290.283181578588
 20
1899.91552602275
 30
0.0
 10
1290.341027869229
 20
1900.104778357209
 30
0.0
 10
1290.491501142926
 20
1900.465728619091
 30
0.0
 10
1290.583390421306
 20
1900.636974543611
 30
0.0
 10
1290.800190833297
 20
1900.961165202183
 30
0.0
 10
1290.926253189963
 20
1901.114724563958
 30
0.0
 10
1291.201516202157
 20
1901.390197042092
 30
0.0
 10
1291.351646992345
 20
1901.513913021237
 30
0.0
 10
1291.677498433915
 20
1901.732641228854
 30
0.0
 10
1291.850915085845
 20
1901.825721186198
 30
0.0
 10
1292.209543879644
 20
1901.975603379708
 30
0.0
 10
1292.397229747848
 20
1902.033511196295
 30
0.0
 10
1292.782247935935
 20
1902.111767745162
 30
0.0
 10
1292.976940487463
 20
1902.131840288422
 30
0.0
 10
1293.173833384891
 20
1902.132711938103
 30
0.0
  0
LINE
  5
88
330
1F
100
AcDbEntity
  8
0
  6
CONTINUOUS
 62
     7
100
AcDbLine
 10
1781.4005766679
 20
1207.928798731
 30
0.0
 11
1777.6044760515
 21
1211.7248993475
 31
0.0
  0
LINE
  5
89
330
1F
100
AcDbEntity
  8
0
  6
CONTINUOUS
 62
     7
100
AcDbLine
 10
1289.3777344991
 20
1207.928798731
 30
0.0
 11
1781.4005766679
 21
1207.928798731
 31
0.0
  0
LINE
  5
8A
330
1F
100
AcDbEntity
  8
0
  6
CONTINUOUS
 62
     7
100
AcDbLine
 10
1293.1738351156
 20
1211.7248993475
 30
0.0
 11
1289.3777344991
 21
1207.928798731
 31
0.0
  0
LINE
  5
8B
330
1F
100
AcDbEntity
  8
0
  6
CONTINUOUS
 62
     7
100
AcDbLine
 10
1289.3777344991
 20
1905.9288125593
 30
0.0
 11
1293.1738351156
 21
1902.1327119429
 31
0.0
  0
LINE
  5
8C
330
1F
100
AcDbEntity
  8
0
  6
CONTINUOUS
 62
     7
100
AcDbLine
 10
1289.3777344991
 20
1905.9288125593
 30
0.0
 11
1781.4005766679
 21
1905.9288125593
 31
0.0
  0
LINE
  5
8D
330
1F
100
AcDbEntity
  8
0
  6
CONTINUOUS
 62
     7
100
AcDbLine
 10
1777.6044760515
 20
1902.1327119429
 30
0.0
 11
1781.4005766679
 21
1905.9288125593
 31
0.0
  0
LINE
  5
8E
330
1F
100
AcDbEntity
  8
0
  6
CONTINUOUS
 62
     7
100
AcDbLine
 10
1784.389153557
 20
1902.9402356703
 30
0.0
 11
1780.5930678417
 21
1899.1441350538
 31
0.0
  0
LINE
  5
8F
330
1F
100
AcDbEntity
  8
0
  6
CONTINUOUS
 62
     7
100
AcDbLine
 10
1784.389153557
 20
1210.9173756201
 30
0.0
 11
1784.389153557
 21
1902.9402356703
 31
0.0
  0
LINE
  5
90
330
1F
100
AcDbEntity
  8
0
  6
CONTINUOUS
 62
     7
100
AcDbLine
 10
1780.5930678417
 20
1214.7134762365
 30
0.0
 11
1784.389153557
 21
1210.9173756201
 31
0.0
  0
LINE
  5
91
330
1F
100
AcDbEntity
  8
0
  6
CONTINUOUS
 62
     7
100
AcDbLine
 10
1286.3891576101
 20
1210.9173756201
 30
0.0
 11
1290.1852433254
 21
1214.7134762365
 31
0.0
  0
LINE
  5
92
330
1F
100
AcDbEntity
  8
0
  6
CONTINUOUS
 62
     7
100
AcDbLine
 10
1286.3891576101
 20
1210.9173756201
 30
0.0
 11
1286.3891576101
 21
1305.9288185198
 31
0.0
  0
LINE
  5
93
330
1F
100
AcDbEntity
  8
0
  6
CONTINUOUS
 62
     7
100
AcDbLine
 10
1287.7889726926
 20
1305.9288185198
 30
0.0
 11
1286.3891576101
 21
1305.9288185198
 31
0.0
  0
LINE
  5
94
330
1F
100
AcDbEntity
  8
0
  6
CONTINUOUS
 62
     7
100
AcDbLine
 10
1287.7889726926
 20
1305.9288185198
 30
0.0
 11
1287.7889726926
 21
1407.9288017113
 31
0.0
  0
LINE
  5
95
330
1F
100
AcDbEntity
  8
0
  6
CONTINUOUS
 62
     7
100
AcDbLine
 10
1286.3891576101
 20
1407.9288017113
 30
0.0
 11
1287.7889726926
 21
1407.9288017113
 31
0.0
  0
LINE
  5
96
330
1F
100
AcDbEntity
  8
0
  6
CONTINUOUS
 62
     7
100
AcDbLine
 10
1286.3891576101
 20
1407.9288017113
 30
0.0
 11
1286.3891576101
 21
1705.9288095791
 31
0.0
  0
LINE
  5
97
330
1F
100
AcDbEntity
  8
0
  6
CONTINUOUS
 62
     7
100
AcDbLine
 10
1287.7889726926
 20
1705.9288095791
 30
0.0
 11
1286.3891576101
 21
1705.9288095791
 31
0.0
  0
LINE
  5
98
330
1F
100
AcDbEntity
  8
0
  6
CONTINUOUS
 62
     7
100
AcDbLine
 10
1287.7889726926
 20
1705.9288095791
 30
0.0
 11
1287.7889726926
 21
1807.9287927706
 31
0.0
  0
LINE
  5
99
330
1F
100
AcDbEntity
  8
0
  6
CONTINUOUS
 62
     7
100
AcDbLine
 10
1286.3891576101
 20
1807.9287927706
 30
0.0
 11
1287.7889726926
 21
1807.9287927706
 31
0.0
  0
LINE
  5
9A
330
1F
100
AcDbEntity
  8
0
  6
CONTINUOUS
 62
     7
100
AcDbLine
 10
1286.3891576101
 20
1807.9287927706
 30
0.0
 11
1286.3891576101
 21
1902.9402356703
 31
0.0
  0
LINE
  5
9B
330
1F
100
AcDbEntity
  8
0
  6
CONTINUOUS
 62
     7
100
AcDbLine
 10
1290.1852433254
 20
1899.1441350538
 30
0.0
 11
1286.3891576101
 21
1902.9402356703
 31
0.0
  0
ELLIPSE
  5
9C
330
1F
100
AcDbEntity
  8
0
  6
CONTINUOUS
 62
     7
100
AcDbEllipse
 10
1781.3776960709
 20
1210.9402651578
 30
0.0
 11
-2.137495823670861
 21
2.137495823670861
 31
0.0
210
0.0
220
0.0
230
1.0
 40
0.9924325091
 41
2.359992588465654
 42
3.923192718713946
  0
ELLIPSE
  5
9D
330
1F
100
AcDbEntity
  8
0
  6
CONTINUOUS
 62
     7
100
AcDbEllipse
 10
1781.3776960709
 20
1902.9173461326
 30
0.0
 11
-2.137495823670633
 21
-2.137495823670861
 31
0.0
210
0.0
220
0.0
230
1.0
 40
0.9924325091
 41
2.359992588465525
 42
3.923192718713893
  0
ELLIPSE
  5
9E
330
1F
100
AcDbEntity
  8
0
  6
CONTINUOUS
 62
     7
100
AcDbEllipse
 10
1289.4006150962
 20
1210.9402651578
 30
0.0
 11
-2.137495823670861
 21
-2.137495823670861
 31
0.0
210
0.0
220
0.0
230
1.0
 40
0.9924325091
 41
5.501585242055461
 42
7.064785372303725
  0
ELLIPSE
  5
9F
330
1F
100
AcDbEntity
  8
0
  6
CONTINUOUS
 62
     7
100
AcDbEllipse
 10
1289.4006150962
 20
1902.9173461326
 30
0.0
 11
-2.137495823670861
 21
2.137495823670861
 31
0.0
210
0.0
220
0.0
230
1.0
 40
0.9924325091
 41
5.501585242055435
 42
7.064785372303827
  0
LINE
  5
A0
330
1F
100
AcDbEntity
  8
0
  6
CONTINUOUS
 62
     7
100
AcDbLine
 10
1030.5721806178
 20
1905.9288125593
 30
0.0
 11
1030.5721806178
 21
1902.9402356703
 31
0.0
  0
LINE
  5
A1
330
1F
100
AcDbEntity
  8
0
  6
CONTINUOUS
 62
     7
100
AcDbLine
 10
1030.5721806178
 20
1902.9402356703
 30
0.0
 11
987.1826292763
 21
1899.1441350538
 31
0.0
  0
SPLINE
  5
A2
330
1F
100
AcDbEntity
  8
0
  6
CONTINUOUS
 62
     7
100
AcDbSpline
210
0.0
220
0.0
230
1.0
 70
     8
 71
     3
 72
    22
 73
    18
 74
     0
 42
0.00000001
 43
0.00000001
 12
1.0
 22
0.0
 32
0.0
 13
1.0
 23
0.0
 33
0.0
 40
0.0
 40
0.0
 40
0.0
 40
0.0
 40
0.125
 40
0.125
 40
0.25
 40
0.25
 40
0.375
 40
0.375
 40
0.5
 40
0.5
 40
0.625
 40
0.625
 40
0.75
 40
0.75
 40
0.875
 40
0.875
 40
1.0
 40
1.0
 40
1.0
 40
1.0
 10
987.1826309996898
 20
1902.132711938103
 30
0.0
 10
987.1726680448199
 20
1902.131840292497
 30
0.0
 10
987.163837949975
 20
1902.111774893124
 30
0.0
 10
987.1483645089645
 20
1902.034779650131
 30
0.0
 10
987.1416680017502
 20
1901.97693335949
 30
0.0
 10
987.1309374964941
 20
1901.826460085793
 30
0.0
 10
987.1268890798816
 20
1901.734570807413
 30
0.0
 10
987.1214097487256
 20
1901.517770395422
 30
0.0
 10
987.1200062157094
 20
1901.391708038756
 30
0.0
 10
987.1199955252962
 20
1901.116445026562
 30
0.0
 10
987.1213438316213
 20
1900.966314236374
 30
0.0
 10
987.1268095652148
 20
1900.640462794804
 30
0.0
 10
987.1309079712041
 20
1900.467046142874
 30
0.0
 10
987.1415503096576
 20
1900.108417349075
 30
0.0
 10
987.1481639886022
 20
1899.920731480871
 30
0.0
 10
987.1637829993006
 20
1899.535713292783
 30
0.0
 10
987.1726679982461
 20
1899.341020741256
 30
0.0
 10
987.1826309996896
 20
1899.144127843828
 30
0.0
  0
LINE
  5
A3
330
1F
100
AcDbEntity
  8
0
  6
CONTINUOUS
 62
     7
100
AcDbLine
 10
987.1826292763
 20
1902.1327119429
 30
0.0
 11
1030.5721806178
 21
1905.9288125593
 31
0.0
  0
LWPOLYLINE
  5
A4
330
1F
100
AcDbEntity
  8
0
  6
CONTINUOUS
 62
     7
100
AcDbPolyline
 90
        5
 70
   128
 43
0.0
 10
987.1826292763
 20
1899.1441350538
 10
986.9162300417
 20
1886.5615945417
 10
986.6496594438
 20
1873.9790540297
 10
986.3829174826
 20
1861.3965433199
 10
986.2665021608
 20
1855.9078496058
  0
LINE
  5
A5
330
1F
100
AcDbEntity
  8
0
  6
CONTINUOUS
 62
     7
100
AcDbLine
 10
987.1826292763
 20
1214.7134762365
 30
0.0
 11
1030.5721806178
 21
1210.9173756201
 31
0.0
  0
LWPOLYLINE
  5
A6
330
1F
100
AcDbEntity
  8
0
  6
CONTINUOUS
 62
     7
100
AcDbPolyline
 90
        5
 70
   128
 43
0.0
 10
986.2665021608
 20
1257.9497616846
 10
986.3829174826
 20
1252.4610679705
 10
986.6496594438
 20
1239.8785572607
 10
986.9162300417
 20
1227.2960167486
 10
987.1826292763
 20
1214.7134762365
  0
LINE
  5
A7
330
1F
100
AcDbEntity
  8
0
  6
CONTINUOUS
 62
     7
100
AcDbLine
 10
986.2665021608
 20
1855.9078496058
 30
0.0
 11
986.2665021608
 21
1257.9497616846
 31
0.0
  0
LINE
  5
A8
330
1F
100
AcDbEntity
  8
0
  6
CONTINUOUS
 62
     7
100
AcDbLine
 10
1030.5721806178
 20
1210.9173756201
 30
0.0
 11
1030.5721806178
 21
1902.9402356703
 31
0.0
  0
LINE
  5
A9
330
1F
100
AcDbEntity
  8
0
  6
CONTINUOUS
 62
     7
100
AcDbLine
 10
1030.5721806178
 20
1207.928798731
 30
0.0
 11
987.1826292763
 21
1211.7248993475
 31
0.0
  0
SPLINE
  5
AA
330
1F
100
AcDbEntity
  8
0
  6
CONTINUOUS
 62
     7
100
AcDbSpline
210
0.0
220
0.0
230
1.0
 70
     8
 71
     3
 72
    22
 73
    18
 74
     0
 42
0.00000001
 43
0.00000001
 12
1.0
 22
0.0
 32
0.0
 13
1.0
 23
0.0
 33
0.0
 40
0.0
 40
0.0
 40
0.0
 40
0.0
 40
0.125
 40
0.125
 40
0.25
 40
0.25
 40
0.375
 40
0.375
 40
0.5
 40
0.5
 40
0.625
 40
0.625
 40
0.75
 40
0.75
 40
0.875
 40
0.875
 40
1.0
 40
1.0
 40
1.0
 40
1.0
 10
987.1826309996896
 20
1214.713483446537
 30
0.0
 10
987.1726680448199
 20
1214.51659146952
 30
0.0
 10
987.163837949975
 20
1214.322985683392
 30
0.0
 10
987.1483645089645
 20
1213.942085267615
 30
0.0
 10
987.1416680017502
 20
1213.752832933156
 30
0.0
 10
987.1309374964941
 20
1213.391882671274
 30
0.0
 10
987.1268890798816
 20
1213.220636746754
 30
0.0
 10
987.1214097487256
 20
1212.896446088181
 30
0.0
 10
987.1200062157094
 20
1212.742886726407
 30
0.0
 10
987.1199955252962
 20
1212.467414248272
 30
0.0
 10
987.1213438316213
 20
1212.343698269128
 30
0.0
 10
987.1268095652148
 20
1212.124970061511
 30
0.0
 10
987.1309079712041
 20
1212.031890104167
 30
0.0
 10
987.1415503096576
 20
1211.882007910657
 30
0.0
 10
987.1481639886022
 20
1211.824100094069
 30
0.0
 10
987.1637829993006
 20
1211.745843545203
 30
0.0
 10
987.1726679982461
 20
1211.725771001943
 30
0.0
 10
987.1826309996898
 20
1211.724899352262
 30
0.0
  0
LINE
  5
AB
330
1F
100
AcDbEntity
  8
0
  6
CONTINUOUS
 62
     7
100
AcDbLine
 10
1030.5721806178
 20
1210.9173756201
 30
0.0
 11
1030.5721806178
 21
1207.928798731
 31
0.0
  0
SPLINE
  5
AC
330
1F
100
AcDbEntity
  8
0
  6
CONTINUOUS
 62
     7
100
AcDbSpline
210
0.0
220
0.0
230
1.0
 70
     8
 71
     3
 72
    12
 73
     8
 74
     0
 42
0.00000001
 43
0.00000001
 12
1.0
 22
0.0
 32
0.0
 13
1.0
 23
0.0
 33
0.0
 40
0.0
 40
0.0
 40
0.0
 40
0.0
 40
0.4999999999999623
 40
0.4999999999999623
 40
0.7499999999999811
 40
0.7499999999999811
 40
1.0
 40
1.0
 40
1.0
 40
1.0
 10
985.3578997577918
 20
1213.672066493398
 30
0.0
 10
985.3634655257642
 20
1213.672368394376
 30
0.0
 10
985.3665156436398
 20
1213.780677568204
 30
0.0
 10
985.3665113512226
 20
1214.057185553916
 30
0.0
 10
985.3657612727443
 20
1214.167999205829
 30
0.0
 10
985.3628318068032
 20
1214.409880746736
 30
0.0
 10
985.3606827823719
 20
1214.539343792319
 30
0.0
 10
985.3578999931298
 20
1214.671245266052
 30
0.0
  0
ARC
  5
AD
330
1F
100
AcDbEntity
  8
0
  6
CONTINUOUS
 62
     7
100
AcDbCircle
 10
992.0668911852
 20
964.2234854701
 30
0.0
 40
250.5376049390068
100
AcDbArc
 50
91.1170591457
 51
91.5344715526
  0
ARC
  5
AE
330
1F
100
AcDbEntity
  8
0
  6
CONTINUOUS
 62
     7
100
AcDbCircle
 10
987.3570894041
 20
1213.7169680704
 30
0.0
 40
1.99969350977112
100
AcDbArc
 50
181.2867155297
 51
264.9949564753
  0
ARC
  5
AF
330
1F
100
AcDbEntity
  8
0
  6
CONTINUOUS
 62
     7
100
AcDbCircle
 10
992.0668911856
 20
2149.634125834
 30
0.0
 40
250.5376049526803
100
AcDbArc
 50
268.4655284474
 51
268.8829408543
  0
SPLINE
  5
B0
330
1F
100
AcDbEntity
  8
0
  6
CONTINUOUS
 62
     7
100
AcDbSpline
210
0.0
220
0.0
230
1.0
 70
     8
 71
     3
 72
    12
 73
     8
 74
     0
 42
0.00000001
 43
0.00000001
 12
1.0
 22
0.0
 32
0.0
 13
1.0
 23
0.0
 33
0.0
 40
0.0
 40
0.0
 40
0.0
 40
0.0
 40
0.4999999999999811
 40
0.4999999999999811
 40
0.7499999999999906
 40
0.7499999999999906
 40
1.0
 40
1.0
 40
1.0
 40
1.0
 10
985.3578999855893
 20
1899.186365666897
 30
0.0
 10
985.3634656839664
 20
1899.450174196647
 30
0.0
 10
985.3665157256347
 20
1899.708939845343
 30
0.0
 10
985.366511310044
 20
1899.985235722337
 30
0.0
 10
985.3657611914533
 20
1900.059333374732
 30
0.0
 10
985.3628316423358
 20
1900.159453586408
 30
0.0
 10
985.3606825860089
 20
1900.185393849503
 30
0.0
 10
985.3578997577918
 20
1900.185544796967
 30
0.0
  0
ARC
  5
B1
330
1F
100
AcDbEntity
  8
0
  6
CONTINUOUS
 62
     7
100
AcDbCircle
 10
987.3570894041
 20
1900.14064322
 30
0.0
 40
1.999693509771346
100
AcDbArc
 50
95.0050435247
 51
178.7132844703
  0
LWPOLYLINE
  5
B2
330
1F
100
AcDbEntity
  8
0
  6
CONTINUOUS
 62
     7
100
AcDbPolyline
 90
        4
 70
   128
 43
0.0
 10
985.3579001317
 20
1214.6712463457
 10
985.273555834
 20
1218.6703603823
 10
984.9367188105
 20
1234.6668165285
 10
984.4484189341
 20
1257.928810652
  0
LINE
  5
B3
330
1F
100
AcDbEntity
  8
0
  6
CONTINUOUS
 62
     7
100
AcDbLine
 10
984.4484189341
 20
1257.928810652
 30
0.0
 11
984.4484263847
 21
1257.928810652
 31
0.0
  0
SPLINE
  5
B4
330
1F
100
AcDbEntity
  8
0
  6
CONTINUOUS
 62
     7
100
AcDbSpline
210
0.0
220
0.0
230
1.0
 70
     8
 71
     3
 72
    12
 73
     8
 74
     0
 42
0.00000001
 43
0.00000001
 12
1.0
 22
0.0
 32
0.0
 13
1.0
 23
0.0
 33
0.0
 40
0.0
 40
0.0
 40
0.0
 40
0.0
 40
0.2416128537928013
 40
0.4832231102751505
 40
0.7248448036467106
 40
0.9779409872326533
 40
1.0
 40
1.0
 40
1.0
 40
1.0
 10
984.4484263846666
 20
1257.928810651973
 30
0.0
 10
984.4900398714294
 20
1257.929464586648
 30
0.0
 10
984.5732663976148
 20
1257.930772448969
 30
0.0
 10
984.969065433246
 20
1257.935447383197
 30
0.0
 10
985.522378163806
 20
1257.941706062014
 30
0.0
 10
985.9925194611347
 20
1257.946956610448
 30
0.0
 10
986.2461673729816
 20
1257.949553494138
 30
0.0
 10
986.2665021607668
 20
1257.949761684611
 30
0.0
  0
LINE
  5
B5
330
1F
100
AcDbEntity
  8
0
  6
CONTINUOUS
 62
     7
100
AcDbLine
 10
984.4484189341
 20
1855.9288006384
 30
0.0
 11
984.4484263847
 21
1855.9288006384
 31
0.0
  0
LWPOLYLINE
  5
B6
330
1F
100
AcDbEntity
  8
0
  6
CONTINUOUS
 62
     7
100
AcDbPolyline
 90
        4
 70
   128
 43
0.0
 10
984.4484189341
 20
1855.9288006384
 10
984.5322379658
 20
1859.927914675
 10
984.8680468092
 20
1875.9244006235
 10
985.3579001317
 20
1899.1863649447
  0
SPLINE
  5
B7
330
1F
100
AcDbEntity
  8
0
  6
CONTINUOUS
 62
     7
100
AcDbSpline
210
0.0
220
0.0
230
1.0
 70
     8
 71
     3
 72
    12
 73
     8
 74
     0
 42
0.00000001
 43
0.00000001
 12
1.0
 22
0.0
 32
0.0
 13
1.0
 23
0.0
 33
0.0
 40
0.0
 40
0.0
 40
0.0
 40
0.0
 40
0.2416128537928013
 40
0.4832231102751505
 40
0.7248448036467106
 40
0.9779409872326533
 40
1.0
 40
1.0
 40
1.0
 40
1.0
 10
984.4484263846666
 20
1855.928800638392
 30
0.0
 10
984.4900398714294
 20
1855.928146703717
 30
0.0
 10
984.5732663976148
 20
1855.926838841396
 30
0.0
 10
984.969065433246
 20
1855.922163907167
 30
0.0
 10
985.522378163806
 20
1855.915905228351
 30
0.0
 10
985.9925194611347
 20
1855.910654679917
 30
0.0
 10
986.2461673729816
 20
1855.908057796227
 30
0.0
 10
986.2665021607668
 20
1855.907849605754
 30
0.0
  0
LINE
  5
B8
330
1F
100
AcDbEntity
  8
0
  6
CONTINUOUS
 62
     7
100
AcDbLine
 10
984.4484263847
 20
1257.928810652
 30
0.0
 11
984.4484263847
 21
1855.9288006384
 31
0.0
  0
LINE
  5
B9
330
1F
100
AcDbEntity
  8
0
  6
CONTINUOUS
 62
     7
100
AcDbLine
 10
980.5721798727
 20
1257.9287808497
 30
0.0
 11
984.4484189341
 21
1213.6232178766
 31
0.0
  0
LINE
  5
BA
330
1F
100
AcDbEntity
  8
0
  6
CONTINUOUS
 62
     7
100
AcDbLine
 10
980.5721798727
 20
1257.928810652
 30
0.0
 11
984.4484189341
 21
1257.928810652
 31
0.0
  0
LWPOLYLINE
  5
BB
330
1F
100
AcDbEntity
  8
0
  6
CONTINUOUS
 62
     7
100
AcDbPolyline
 90
        4
 70
   128
 43
0.0
 10
984.4484189341
 20
1213.6232178766
 10
984.5322379658
 20
1213.6276584227
 10
984.8680468092
 20
1213.6455994207
 10
985.3579001317
 20
1213.672063883
  0
LINE
  5
BC
330
1F
100
AcDbEntity
  8
0
  6
CONTINUOUS
 62
     7
100
AcDbLine
 10
980.5721798727
 20
1855.9288006384
 30
0.0
 11
984.4484189341
 21
1855.9288006384
 31
0.0
  0
LINE
  5
BD
330
1F
100
AcDbEntity
  8
0
  6
CONTINUOUS
 62
     7
100
AcDbLine
 10
980.5721798727
 20
1855.9288006384
 30
0.0
 11
984.4484189341
 21
1900.2343934137
 31
0.0
  0
LWPOLYLINE
  5
BE
330
1F
100
AcDbEntity
  8
0
  6
CONTINUOUS
 62
     7
100
AcDbPolyline
 90
        4
 70
   128
 43
0.0
 10
985.3579001317
 20
1900.1855474073
 10
985.273555834
 20
1900.1901071627
 10
984.9367188105
 20
1900.2083163816
 10
984.4484189341
 20
1900.2343934137
  0
LINE
  5
BF
330
1F
100
AcDbEntity
  8
0
  6
CONTINUOUS
 62
     7
100
AcDbLine
 10
980.5721798727
 20
1257.928810652
 30
0.0
 11
980.5721798727
 21
1855.9288006384
 31
0.0
  0
LINE
  5
C0
330
1F
100
AcDbEntity
  8
0
  6
CONTINUOUS
 62
     7
100
AcDbLine
 10
984.4484189341
 20
1900.2343934137
 30
0.0
 11
984.4484263847
 21
1900.2344828207
 31
0.0
  0
SPLINE
  5
C1
330
1F
100
AcDbEntity
  8
0
  6
CONTINUOUS
 62
     7
100
AcDbSpline
210
0.0
220
0.0
230
1.0
 70
     8
 71
     3
 72
    12
 73
     8
 74
     0
 42
0.00000001
 43
0.00000001
 12
1.0
 22
0.0
 32
0.0
 13
1.0
 23
0.0
 33
0.0
 40
0.0
 40
0.0
 40
0.0
 40
0.0
 40
0.0220590094630406
 40
0.275153813542421
 40
0.5167741945229248
 40
0.7583832231406276
 40
1.0
 40
1.0
 40
1.0
 40
1.0
 10
986.2665021607668
 20
1902.052573497966
 30
0.0
 10
986.246167377884
 20
1902.05058824591
 30
0.0
 10
985.992520763918
 20
1902.025825136082
 30
0.0
 10
985.5223776348338
 20
1901.882145044465
 30
0.0
 10
984.9690655842961
 20
1901.467218090791
 30
0.0
 10
984.5732631109962
 20
1900.900780929446
 30
0.0
 10
984.4900390715927
 20
1900.456584564427
 30
0.0
 10
984.4484263846666
 20
1900.234482820704
 30
0.0
  0
LWPOLYLINE
  5
C2
330
1F
100
AcDbEntity
  8
0
  6
CONTINUOUS
 62
     7
100
AcDbPolyline
 90
        5
 70
   128
 43
0.0
 10
986.2665021608
 20
1902.052573498
 10
986.3829174826
 20
1902.0627360899
 10
986.6496594438
 20
1902.0860713083
 10
986.9162300417
 20
1902.1094065268
 10
987.1826292763
 20
1902.1327119429
  0
LINE
  5
C3
330
1F
100
AcDbEntity
  8
0
  6
CONTINUOUS
 62
     7
100
AcDbLine
 10
984.4484263847
 20
1213.6231284697
 30
0.0
 11
984.4484189341
 21
1213.6232178766
 31
0.0
  0
SPLINE
  5
C4
330
1F
100
AcDbEntity
  8
0
  6
CONTINUOUS
 62
     7
100
AcDbSpline
210
0.0
220
0.0
230
1.0
 70
     8
 71
     3
 72
    12
 73
     8
 74
     0
 42
0.00000001
 43
0.00000001
 12
1.0
 22
0.0
 32
0.0
 13
1.0
 23
0.0
 33
0.0
 40
0.0
 40
0.0
 40
0.0
 40
0.0
 40
0.2416167768593724
 40
0.4832258054770752
 40
0.724846186457579
 40
0.9779409905369595
 40
1.0
 40
1.0
 40
1.0
 40
1.0
 10
984.4484263846666
 20
1213.623128469661
 30
0.0
 10
984.4900390715926
 20
1213.401026725937
 30
0.0
 10
984.5732631109962
 20
1212.956830360919
 30
0.0
 10
984.9690655842961
 20
1212.390393199574
 30
0.0
 10
985.5223776348338
 20
1211.975466245901
 30
0.0
 10
985.992520763918
 20
1211.831786154282
 30
0.0
 10
986.246167377884
 20
1211.807023044455
 30
0.0
 10
986.2665021607668
 20
1211.805037792399
 30
0.0
  0
LWPOLYLINE
  5
C5
330
1F
100
AcDbEntity
  8
0
  6
CONTINUOUS
 62
     7
100
AcDbPolyline
 90
        5
 70
   128
 43
0.0
 10
987.1826292763
 20
1211.7248993475
 10
986.9162300417
 20
1211.7482047636
 10
986.6496594438
 20
1211.771539982
 10
986.3829174826
 20
1211.7948752005
 10
986.2665021608
 20
1211.8050377924
  0
LWPOLYLINE
  5
C6
330
1F
100
AcDbEntity
  8
0
  6
CONTINUOUS
 62
     7
100
AcDbPolyline
 90
        5
 70
   128
 43
0.0
 10
1777.6044760515
 20
2087.5917208195
 10
1765.0219504406
 20
2087.858120054
 10
1752.4394099285
 20
2088.1246906519
 10
1739.8568843176
 20
2088.3914326132
 10
1734.3681906034
 20
2088.507847935
  0
LINE
  5
C7
330
1F
100
AcDbEntity
  8
0
  6
CONTINUOUS
 62
     7
100
AcDbLine
 10
1781.4005766679
 20
2044.202169478
 30
0.0
 11
1777.6044760515
 21
2087.5917208195
 31
0.0
  0
LINE
  5
C8
330
1F
100
AcDbEntity
  8
0
  6
CONTINUOUS
 62
     7
100
AcDbLine
 10
1289.3777344991
 20
2044.202169478
 30
0.0
 11
1781.4005766679
 21
2044.202169478
 31
0.0
  0
LINE
  5
C9
330
1F
100
AcDbEntity
  8
0
  6
CONTINUOUS
 62
     7
100
AcDbLine
 10
1293.1738351156
 20
2087.5917208195
 30
0.0
 11
1289.3777344991
 21
2044.202169478
 31
0.0
  0
LWPOLYLINE
  5
CA
330
1F
100
AcDbEntity
  8
0
  6
CONTINUOUS
 62
     7
100
AcDbPolyline
 90
        5
 70
   128
 43
0.0
 10
1336.4101205637
 20
2088.507847935
 10
1330.9214268495
 20
2088.3914326132
 10
1318.3389012386
 20
2088.1246906519
 10
1305.7563607265
 20
2087.858120054
 10
1293.1738351156
 20
2087.5917208195
  0
LINE
  5
CB
330
1F
100
AcDbEntity
  8
0
  6
CONTINUOUS
 62
     7
100
AcDbLine
 10
1734.3681906034
 20
2088.507847935
 30
0.0
 11
1336.4101205637
 21
2088.507847935
 31
0.0
  0
LINE
  5
CC
330
1F
100
AcDbEntity
  8
0
  6
CONTINUOUS
 62
     7
100
AcDbLine
 10
1289.3777344991
 20
2044.202169478
 30
0.0
 11
1286.3891576101
 21
2044.202169478
 31
0.0
  0
LINE
  5
CD
330
1F
100
AcDbEntity
  8
0
  6
CONTINUOUS
 62
     7
100
AcDbLine
 10
1286.3891576101
 20
2044.202169478
 30
0.0
 11
1290.1852433254
 21
2087.5917208195
 31
0.0
  0
SPLINE
  5
CE
330
1F
100
AcDbEntity
  8
0
  6
CONTINUOUS
 62
     7
100
AcDbSpline
210
0.0
220
0.0
230
1.0
 70
     8
 71
     3
 72
    22
 73
    18
 74
     0
 42
0.00000001
 43
0.00000001
 12
1.0
 22
0.0
 32
0.0
 13
1.0
 23
0.0
 33
0.0
 40
0.0
 40
0.0
 40
0.0
 40
0.0
 40
0.125
 40
0.125
 40
0.25
 40
0.25
 40
0.375
 40
0.375
 40
0.5
 40
0.5
 40
0.625
 40
0.625
 40
0.75
 40
0.75
 40
0.875
 40
0.875
 40
1.0
 40
1.0
 40
1.0
 40
1.0
 10
1293.173833384891
 20
2087.591719096058
 30
0.0
 10
1292.976941407874
 20
2087.601682050928
 30
0.0
 10
1292.783335621746
 20
2087.610512145773
 30
0.0
 10
1292.402435205969
 20
2087.625985586783
 30
0.0
 10
1292.213182871509
 20
2087.632682093997
 30
0.0
 10
1291.852232609628
 20
2087.643412599254
 30
0.0
 10
1291.680986685108
 20
2087.647461015866
 30
0.0
 10
1291.356796026535
 20
2087.652940347022
 30
0.0
 10
1291.203236664761
 20
2087.654343880038
 30
0.0
 10
1290.927764186627
 20
2087.654354570452
 30
0.0
 10
1290.804048207482
 20
2087.653006264126
 30
0.0
 10
1290.585319999865
 20
2087.647540530533
 30
0.0
 10
1290.492240042521
 20
2087.643442124544
 30
0.0
 10
1290.342357849011
 20
2087.63279978609
 30
0.0
 10
1290.284450032423
 20
2087.626186107145
 30
0.0
 10
1290.206193483557
 20
2087.610567096447
 30
0.0
 10
1290.186120940296
 20
2087.601682097501
 30
0.0
 10
1290.185249290616
 20
2087.591719096058
 30
0.0
  0
SPLINE
  5
CF
330
1F
100
AcDbEntity
  8
0
  6
CONTINUOUS
 62
     7
100
AcDbSpline
210
0.0
220
0.0
230
1.0
 70
     8
 71
     3
 72
    22
 73
    18
 74
     0
 42
0.00000001
 43
0.00000001
 12
1.0
 22
0.0
 32
0.0
 13
1.0
 23
0.0
 33
0.0
 40
0.0
 40
0.0
 40
0.0
 40
0.0
 40
0.125
 40
0.125
 40
0.25
 40
0.25
 40
0.375
 40
0.375
 40
0.5
 40
0.5
 40
0.625
 40
0.625
 40
0.75
 40
0.75
 40
0.875
 40
0.875
 40
1.0
 40
1.0
 40
1.0
 40
1.0
 10
1780.593061876457
 20
2087.591719096058
 30
0.0
 10
1780.592190230851
 20
2087.601682050928
 30
0.0
 10
1780.572124831477
 20
2087.610512145773
 30
0.0
 10
1780.495129588484
 20
2087.625985586783
 30
0.0
 10
1780.437283297844
 20
2087.632682093998
 30
0.0
 10
1780.286810024146
 20
2087.643412599254
 30
0.0
 10
1780.194920745767
 20
2087.647461015866
 30
0.0
 10
1779.978120333776
 20
2087.652940347022
 30
0.0
 10
1779.85205797711
 20
2087.654343880038
 30
0.0
 10
1779.576794964916
 20
2087.654354570452
 30
0.0
 10
1779.426664174727
 20
2087.653006264126
 30
0.0
 10
1779.100812733158
 20
2087.647540530533
 30
0.0
 10
1778.927396081228
 20
2087.643442124544
 30
0.0
 10
1778.568767287429
 20
2087.63279978609
 30
0.0
 10
1778.381081419225
 20
2087.626186107145
 30
0.0
 10
1777.996063231137
 20
2087.610567096447
 30
0.0
 10
1777.801370679609
 20
2087.601682097501
 30
0.0
 10
1777.604477782182
 20
2087.591719096058
 30
0.0
  0
LINE
  5
D0
330
1F
100
AcDbEntity
  8
0
  6
CONTINUOUS
 62
     7
100
AcDbLine
 10
1780.5930678417
 20
2087.5917208195
 30
0.0
 11
1784.389153557
 21
2044.202169478
 31
0.0
  0
LINE
  5
D1
330
1F
100
AcDbEntity
  8
0
  6
CONTINUOUS
 62
     7
100
AcDbLine
 10
1784.389153557
 20
2044.202169478
 30
0.0
 11
1781.4005766679
 21
2044.202169478
 31
0.0
  0
SPLINE
  5
D2
330
1F
100
AcDbEntity
  8
0
  6
CONTINUOUS
 62
     7
100
AcDbSpline
210
0.0
220
0.0
230
1.0
 70
     8
 71
     3
 72
    12
 73
     8
 74
     0
 42
0.00000001
 43
0.00000001
 12
1.0
 22
0.0
 32
0.0
 13
1.0
 23
0.0
 33
0.0
 40
0.0
 40
0.0
 40
0.0
 40
0.0
 40
0.4999999999999623
 40
0.4999999999999623
 40
0.7499999999999811
 40
0.7499999999999811
 40
1.0
 40
1.0
 40
1.0
 40
1.0
 10
1777.646704807943
 20
2089.416450337956
 30
0.0
 10
1777.910513599351
 20
2089.410884569983
 30
0.0
 10
1778.169280274214
 20
2089.407834452108
 30
0.0
 10
1778.445578919695
 20
2089.407838744525
 30
0.0
 10
1778.519677859177
 20
2089.408588823003
 30
0.0
 10
1778.619800579414
 20
2089.411518288944
 30
0.0
 10
1778.645742312069
 20
2089.413667313376
 30
0.0
 10
1778.645894722494
 20
2089.416450102618
 30
0.0
  0
ARC
  5
D3
330
1F
100
AcDbEntity
  8
0
  6
CONTINUOUS
 62
     7
100
AcDbCircle
 10
1778.6009678184
 20
2087.4172269242
 30
0.0
 40
1.999727637058863
100
AcDbArc
 50
5.0059290936
 51
88.7128364468
  0
ARC
  5
D4
330
1F
100
AcDbEntity
  8
0
  6
CONTINUOUS
 62
     7
100
AcDbCircle
 10
2028.6664213232
 20
2082.6942221096
 30
0.0
 40
251.1097088071581
100
AcDbArc
 50
178.4660039453
 51
178.8824653564
  0
SPLINE
  5
D5
330
1F
100
AcDbEntity
  8
0
  6
CONTINUOUS
 62
     7
100
AcDbSpline
210
0.0
220
0.0
230
1.0
 70
     8
 71
     3
 72
    12
 73
     8
 74
     0
 42
0.00000001
 43
0.00000001
 12
1.0
 22
0.0
 32
0.0
 13
1.0
 23
0.0
 33
0.0
 40
0.0
 40
0.0
 40
0.0
 40
0.0
 40
0.5
 40
0.5
 40
0.75
 40
0.75
 40
1.0
 40
1.0
 40
1.0
 40
1.0
 10
1292.132416444166
 20
2089.416450110158
 30
0.0
 10
1292.132721177692
 20
2089.410884411781
 30
0.0
 10
1292.241033017167
 20
2089.407834370113
 30
0.0
 10
1292.517544241538
 20
2089.407838785703
 30
0.0
 10
1292.628358562238
 20
2089.408588904294
 30
0.0
 10
1292.870241558701
 20
2089.411518453412
 30
0.0
 10
1292.999704606789
 20
2089.413667509738
 30
0.0
 10
1293.13160635913
 20
2089.416450337956
 30
0.0
  0
ARC
  5
D6
330
1F
100
AcDbEntity
  8
0
  6
CONTINUOUS
 62
     7
100
AcDbCircle
 10
1042.1118898572
 20
2082.69422211
 30
0.0
 40
251.1097087938895
100
AcDbArc
 50
1.1175346436
 51
1.5339960547
  0
ARC
  5
D7
330
1F
100
AcDbEntity
  8
0
  6
CONTINUOUS
 62
     7
100
AcDbCircle
 10
1292.1773433487
 20
2087.4172269242
 30
0.0
 40
1.999727637058863
100
AcDbArc
 50
91.2871635532
 51
174.9940709064
  0
LWPOLYLINE
  5
D8
330
1F
100
AcDbEntity
  8
0
  6
CONTINUOUS
 62
     7
100
AcDbPolyline
 90
        4
 70
   128
 43
0.0
 10
1293.1316052248
 20
2089.4164499641
 10
1297.1307192613
 20
2089.5007942617
 10
1313.1271605064
 20
2089.8376312852
 10
1336.3891546299
 20
2090.3259311617
  0
LINE
  5
D9
330
1F
100
AcDbEntity
  8
0
  6
CONTINUOUS
 62
     7
100
AcDbLine
 10
1336.3891546299
 20
2090.3259311617
 30
0.0
 11
1336.3891546299
 21
2090.3259237111
 31
0.0
  0
SPLINE
  5
DA
330
1F
100
AcDbEntity
  8
0
  6
CONTINUOUS
 62
     7
100
AcDbSpline
210
0.0
220
0.0
230
1.0
 70
     8
 71
     3
 72
    12
 73
     8
 74
     0
 42
0.00000001
 43
0.00000001
 12
1.0
 22
0.0
 32
0.0
 13
1.0
 23
0.0
 33
0.0
 40
0.0
 40
0.0
 40
0.0
 40
0.0
 40
0.2416167768593724
 40
0.4832258054770752
 40
0.724846186457579
 40
0.9779409905369595
 40
1.0
 40
1.0
 40
1.0
 40
1.0
 10
1336.389154629862
 20
2090.325923711081
 30
0.0
 10
1336.38980754479
 20
2090.284311024155
 30
0.0
 10
1336.391113353709
 20
2090.201086984751
 30
0.0
 10
1336.395803487855
 20
2089.805284511452
 30
0.0
 10
1336.402094481238
 20
2089.251972460914
 30
0.0
 10
1336.407175299754
 20
2088.78182933183
 30
0.0
 10
1336.409901967426
 20
2088.528182717863
 30
0.0
 10
1336.410120563662
 20
2088.507847934981
 30
0.0
  0
LINE
  5
DB
330
1F
100
AcDbEntity
  8
0
  6
CONTINUOUS
 62
     7
100
AcDbLine
 10
1734.3891565372
 20
2090.3259237111
 30
0.0
 11
1734.3891565372
 21
2090.3259311617
 31
0.0
  0
LWPOLYLINE
  5
DC
330
1F
100
AcDbEntity
  8
0
  6
CONTINUOUS
 62
     7
100
AcDbPolyline
 90
        4
 70
   128
 43
0.0
 10
1734.3891565372
 20
2090.3259311617
 10
1738.3882705738
 20
2090.2421121299
 10
1754.3847416212
 20
2089.9063032866
 10
1777.6467059423
 20
2089.4164499641
  0
SPLINE
  5
DD
330
1F
100
AcDbEntity
  8
0
  6
CONTINUOUS
 62
     7
100
AcDbSpline
210
0.0
220
0.0
230
1.0
 70
     8
 71
     3
 72
    12
 73
     8
 74
     0
 42
0.00000001
 43
0.00000001
 12
1.0
 22
0.0
 32
0.0
 13
1.0
 23
0.0
 33
0.0
 40
0.0
 40
0.0
 40
0.0
 40
0.0
 40
0.2416167768593724
 40
0.4832258054770752
 40
0.724846186457579
 40
0.9779409905369595
 40
1.0
 40
1.0
 40
1.0
 40
1.0
 10
1734.389156537211
 20
2090.325923711081
 30
0.0
 10
1734.388503622283
 20
2090.284311024155
 30
0.0
 10
1734.387197813364
 20
2090.201086984751
 30
0.0
 10
1734.382507679218
 20
2089.805284511452
 30
0.0
 10
1734.376216685835
 20
2089.251972460914
 30
0.0
 10
1734.371135867319
 20
2088.78182933183
 30
0.0
 10
1734.368409199647
 20
2088.528182717863
 30
0.0
 10
1734.368190603411
 20
2088.507847934981
 30
0.0
  0
LINE
  5
DE
330
1F
100
AcDbEntity
  8
0
  6
CONTINUOUS
 62
     7
100
AcDbLine
 10
1336.3891546299
 20
2090.3259237111
 30
0.0
 11
1734.3891565372
 21
2090.3259237111
 31
0.0
  0
LINE
  5
DF
330
1F
100
AcDbEntity
  8
0
  6
CONTINUOUS
 62
     7
100
AcDbLine
 10
1734.3891565372
 20
2094.202170223
 30
0.0
 11
1734.3891565372
 21
2090.3259311617
 31
0.0
  0
LINE
  5
E0
330
1F
100
AcDbEntity
  8
0
  6
CONTINUOUS
 62
     7
100
AcDbLine
 10
1734.3891565372
 20
2094.202170223
 30
0.0
 11
1778.6947493126
 21
2090.3259311617
 31
0.0
  0
LWPOLYLINE
  5
E1
330
1F
100
AcDbEntity
  8
0
  6
CONTINUOUS
 62
     7
100
AcDbPolyline
 90
        4
 70
   128
 43
0.0
 10
1778.645888405
 20
2089.4164499641
 10
1778.6504630615
 20
2089.5007942617
 10
1778.6686722805
 20
2089.8376312852
 10
1778.6947493126
 20
2090.3259311617
  0
LWPOLYLINE
  5
E2
330
1F
100
AcDbEntity
  8
0
  6
CONTINUOUS
 62
     7
100
AcDbPolyline
 90
        4
 70
   128
 43
0.0
 10
1292.0835618545
 20
2090.3259311617
 10
1292.0880024006
 20
2090.2421121299
 10
1292.1059433986
 20
2089.9063032866
 10
1292.1324227621
 20
2089.4164499641
  0
LINE
  5
E3
330
1F
100
AcDbEntity
  8
0
  6
CONTINUOUS
 62
     7
100
AcDbLine
 10
1336.3891546299
 20
2094.202170223
 30
0.0
 11
1292.0835618545
 21
2090.3259311617
 31
0.0
  0
LINE
  5
E4
330
1F
100
AcDbEntity
  8
0
  6
CONTINUOUS
 62
     7
100
AcDbLine
 10
1336.3891546299
 20
2094.202170223
 30
0.0
 11
1336.3891546299
 21
2090.3259311617
 31
0.0
  0
LINE
  5
E5
330
1F
100
AcDbEntity
  8
0
  6
CONTINUOUS
 62
     7
100
AcDbLine
 10
1734.3891565372
 20
2094.202170223
 30
0.0
 11
1336.3891546299
 21
2094.202170223
 31
0.0
  0
LINE
  5
E6
330
1F
100
AcDbEntity
  8
0
  6
CONTINUOUS
 62
     7
100
AcDbLine
 10
1292.0835618545
 20
2090.3259311617
 30
0.0
 11
1292.0834724476
 21
2090.3259237111
 31
0.0
  0
SPLINE
  5
E7
330
1F
100
AcDbEntity
  8
0
  6
CONTINUOUS
 62
     7
100
AcDbSpline
210
0.0
220
0.0
230
1.0
 70
     8
 71
     3
 72
    12
 73
     8
 74
     0
 42
0.00000001
 43
0.00000001
 12
1.0
 22
0.0
 32
0.0
 13
1.0
 23
0.0
 33
0.0
 40
0.0
 40
0.0
 40
0.0
 40
0.0
 40
0.0220590127673466
 40
0.2751551963532894
 40
0.5167768897248496
 40
0.7583871462071987
 40
1.0
 40
1.0
 40
1.0
 40
1.0
 10
1290.26539667145
 20
2088.507847934981
 30
0.0
 10
1290.26738192511
 20
2088.528182722766
 30
0.0
 10
1290.292145175691
 20
2088.781830634613
 30
0.0
 10
1290.435825099964
 20
2089.251971931942
 30
0.0
 10
1290.850751960363
 20
2089.805284662501
 30
0.0
 10
1291.417185313185
 20
2090.201083698133
 30
0.0
 10
1291.861375940257
 20
2090.284310224318
 30
0.0
 10
1292.08347244755
 20
2090.325923711081
 30
0.0
  0
LWPOLYLINE
  5
E8
330
1F
100
AcDbEntity
  8
0
  6
CONTINUOUS
 62
     7
100
AcDbPolyline
 90
        5
 70
   128
 43
0.0
 10
1290.1852433254
 20
2087.5917208195
 10
1290.2085636427
 20
2087.858120054
 10
1290.2318839599
 20
2088.1246906519
 10
1290.2552191784
 20
2088.3914326132
 10
1290.2653966714
 20
2088.507847935
  0
LINE
  5
E9
330
1F
100
AcDbEntity
  8
0
  6
CONTINUOUS
 62
     7
100
AcDbLine
 10
1778.6947493126
 20
2090.3259311617
 30
0.0
 11
1778.6948387195
 21
2090.3259237111
 31
0.0
  0
SPLINE
  5
EA
330
1F
100
AcDbEntity
  8
0
  6
CONTINUOUS
 62
     7
100
AcDbSpline
210
0.0
220
0.0
230
1.0
 70
     8
 71
     3
 72
    12
 73
     8
 74
     0
 42
0.00000001
 43
0.00000001
 12
1.0
 22
0.0
 32
0.0
 13
1.0
 23
0.0
 33
0.0
 40
0.0
 40
0.0
 40
0.0
 40
0.0
 40
0.2416128537928013
 40
0.4832231102751505
 40
0.7248448036467106
 40
0.9779409872326533
 40
1.0
 40
1.0
 40
1.0
 40
1.0
 10
1778.694838719523
 20
2090.325923711081
 30
0.0
 10
1778.916935226815
 20
2090.284310224318
 30
0.0
 10
1779.361125853888
 20
2090.201083698133
 30
0.0
 10
1779.92755920671
 20
2089.805284662501
 30
0.0
 10
1780.342486067109
 20
2089.251971931942
 30
0.0
 10
1780.486165991382
 20
2088.781830634613
 30
0.0
 10
1780.510929241963
 20
2088.528182722766
 30
0.0
 10
1780.512914495623
 20
2088.507847934981
 30
0.0
  0
LWPOLYLINE
  5
EB
330
1F
100
AcDbEntity
  8
0
  6
CONTINUOUS
 62
     7
100
AcDbPolyline
 90
        5
 70
   128
 43
0.0
 10
1780.5129144956
 20
2088.507847935
 10
1780.5230919887
 20
2088.3914326132
 10
1780.5464272071
 20
2088.1246906519
 10
1780.5697475244
 20
2087.858120054
 10
1780.5930678417
 20
2087.5917208195
  0
LINE
  5
EC
330
1F
100
AcDbEntity
  8
0
  6
CONTINUOUS
 62
     7
100
AcDbLine
 10
1781.4005766679
 20
1073.164164039
 30
0.0
 11
1784.389153557
 21
1073.164164039
 31
0.0
  0
LINE
  5
ED
330
1F
100
AcDbEntity
  8
0
  6
CONTINUOUS
 62
     7
100
AcDbLine
 10
1784.389153557
 20
1073.164164039
 30
0.0
 11
1780.5930678417
 21
1029.7746126975
 31
0.0
  0
SPLINE
  5
EE
330
1F
100
AcDbEntity
  8
0
  6
CONTINUOUS
 62
     7
100
AcDbSpline
210
0.0
220
0.0
230
1.0
 70
     8
 71
     3
 72
    22
 73
    18
 74
     0
 42
0.00000001
 43
0.00000001
 12
1.0
 22
0.0
 32
0.0
 13
1.0
 23
0.0
 33
0.0
 40
0.0
 40
0.0
 40
0.0
 40
0.0
 40
0.125
 40
0.125
 40
0.25
 40
0.25
 40
0.375
 40
0.375
 40
0.5
 40
0.5
 40
0.625
 40
0.625
 40
0.75
 40
0.75
 40
0.875
 40
0.875
 40
1.0
 40
1.0
 40
1.0
 40
1.0
 10
1777.604477782182
 20
1029.774614420902
 30
0.0
 10
1777.801369759199
 20
1029.764651466032
 30
0.0
 10
1777.994975545327
 20
1029.755821371187
 30
0.0
 10
1778.375875961104
 20
1029.740347930176
 30
0.0
 10
1778.565128295563
 20
1029.733651422962
 30
0.0
 10
1778.926078557445
 20
1029.722920917706
 30
0.0
 10
1779.097324481965
 20
1029.718872501094
 30
0.0
 10
1779.421515140537
 20
1029.713393169937
 30
0.0
 10
1779.575074502312
 20
1029.711989636921
 30
0.0
 10
1779.850546980446
 20
1029.711978946508
 30
0.0
 10
1779.974262959591
 20
1029.713327252833
 30
0.0
 10
1780.192991167208
 20
1029.718792986427
 30
0.0
 10
1780.286071124552
 20
1029.722891392416
 30
0.0
 10
1780.435953318062
 20
1029.73353373087
 30
0.0
 10
1780.493861134649
 20
1029.740147409814
 30
0.0
 10
1780.572117683515
 20
1029.755766420512
 30
0.0
 10
1780.592190226776
 20
1029.764651419458
 30
0.0
 10
1780.593061876457
 20
1029.774614420902
 30
0.0
  0
LINE
  5
EF
330
1F
100
AcDbEntity
  8
0
  6
CONTINUOUS
 62
     7
100
AcDbLine
 10
1777.6044760515
 20
1029.7746126975
 30
0.0
 11
1781.4005766679
 21
1073.164164039
 31
0.0
  0
LINE
  5
F0
330
1F
100
AcDbEntity
  8
0
  6
CONTINUOUS
 62
     7
100
AcDbLine
 10
1289.3777344991
 20
1073.164164039
 30
0.0
 11
1293.1738351156
 21
1029.7746126975
 31
0.0
  0
SPLINE
  5
F1
330
1F
100
AcDbEntity
  8
0
  6
CONTINUOUS
 62
     7
100
AcDbSpline
210
0.0
220
0.0
230
1.0
 70
     8
 71
     3
 72
    22
 73
    18
 74
     0
 42
0.00000001
 43
0.00000001
 12
1.0
 22
0.0
 32
0.0
 13
1.0
 23
0.0
 33
0.0
 40
0.0
 40
0.0
 40
0.0
 40
0.0
 40
0.125
 40
0.125
 40
0.25
 40
0.25
 40
0.375
 40
0.375
 40
0.5
 40
0.5
 40
0.625
 40
0.625
 40
0.75
 40
0.75
 40
0.875
 40
0.875
 40
1.0
 40
1.0
 40
1.0
 40
1.0
 10
1290.185249290616
 20
1029.774614420902
 30
0.0
 10
1290.186120936222
 20
1029.764651466032
 30
0.0
 10
1290.206186335595
 20
1029.755821371187
 30
0.0
 10
1290.283181578588
 20
1029.740347930176
 30
0.0
 10
1290.341027869229
 20
1029.733651422962
 30
0.0
 10
1290.491501142926
 20
1029.722920917706
 30
0.0
 10
1290.583390421306
 20
1029.718872501094
 30
0.0
 10
1290.800190833297
 20
1029.713393169937
 30
0.0
 10
1290.926253189963
 20
1029.711989636921
 30
0.0
 10
1291.201516202157
 20
1029.711978946508
 30
0.0
 10
1291.351646992345
 20
1029.713327252833
 30
0.0
 10
1291.677498433915
 20
1029.718792986427
 30
0.0
 10
1291.850915085845
 20
1029.722891392416
 30
0.0
 10
1292.209543879644
 20
1029.73353373087
 30
0.0
 10
1292.397229747848
 20
1029.740147409814
 30
0.0
 10
1292.782247935935
 20
1029.755766420512
 30
0.0
 10
1292.976940487463
 20
1029.764651419458
 30
0.0
 10
1293.173833384891
 20
1029.774614420902
 30
0.0
  0
LINE
  5
F2
330
1F
100
AcDbEntity
  8
0
  6
CONTINUOUS
 62
     7
100
AcDbLine
 10
1290.1852433254
 20
1029.7746126975
 30
0.0
 11
1286.3891576101
 21
1073.164164039
 31
0.0
  0
LINE
  5
F3
330
1F
100
AcDbEntity
  8
0
  6
CONTINUOUS
 62
     7
100
AcDbLine
 10
1286.3891576101
 20
1073.164164039
 30
0.0
 11
1289.3777344991
 21
1073.164164039
 31
0.0
  0
LWPOLYLINE
  5
F4
330
1F
100
AcDbEntity
  8
0
  6
CONTINUOUS
 62
     7
100
AcDbPolyline
 90
        5
 70
   128
 43
0.0
 10
1293.1738351156
 20
1029.7746126975
 10
1305.7563607265
 20
1029.5082134629
 10
1318.3389012386
 20
1029.241642865
 10
1330.9214268495
 20
1028.9749009038
 10
1336.4101205637
 20
1028.858485582
  0
LWPOLYLINE
  5
F5
330
1F
100
AcDbEntity
  8
0
  6
CONTINUOUS
 62
     7
100
AcDbPolyline
 90
        5
 70
   128
 43
0.0
 10
1734.3681906034
 20
1028.858485582
 10
1739.8568843176
 20
1028.9749009038
 10
1752.4394099285
 20
1029.241642865
 10
1765.0219504406
 20
1029.5082134629
 10
1777.6044760515
 20
1029.7746126975
  0
LINE
  5
F6
330
1F
100
AcDbEntity
  8
0
  6
CONTINUOUS
 62
     7
100
AcDbLine
 10
1336.4101205637
 20
1028.858485582
 30
0.0
 11
1734.3681906034
 21
1028.858485582
 31
0.0
  0
LINE
  5
F7
330
1F
100
AcDbEntity
  8
0
  6
CONTINUOUS
 62
     7
100
AcDbLine
 10
1289.3777344991
 20
1073.164164039
 30
0.0
 11
1781.4005766679
 21
1073.164164039
 31
0.0
  0
ARC
  5
F8
330
1F
100
AcDbEntity
  8
0
  6
CONTINUOUS
 62
     7
100
AcDbCircle
 10
1778.6009678184
 20
1029.9491065928
 30
0.0
 40
1.999727637059793
100
AcDbArc
 50
271.2871635532
 51
354.9940709064
  0
SPLINE
  5
F9
330
1F
100
AcDbEntity
  8
0
  6
CONTINUOUS
 62
     7
100
AcDbSpline
210
0.0
220
0.0
230
1.0
 70
     8
 71
     3
 72
    12
 73
     8
 74
     0
 42
0.00000001
 43
0.00000001
 12
1.0
 22
0.0
 32
0.0
 13
1.0
 23
0.0
 33
0.0
 40
0.0
 40
0.0
 40
0.0
 40
0.0
 40
0.4999999999999811
 40
0.4999999999999811
 40
0.7499999999999906
 40
0.7499999999999906
 40
1.0
 40
1.0
 40
1.0
 40
1.0
 10
1778.645894722907
 20
1027.949883406801
 30
0.0
 10
1778.64558998938
 20
1027.955449105178
 30
0.0
 10
1778.537278149906
 20
1027.958499146847
 30
0.0
 10
1778.260766925535
 20
1027.958494731256
 30
0.0
 10
1778.149952604835
 20
1027.957744612665
 30
0.0
 10
1777.908069608372
 20
1027.954815063548
 30
0.0
 10
1777.778606560283
 20
1027.952666007221
 30
0.0
 10
1777.646704807943
 20
1027.949883179004
 30
0.0
  0
ARC
  5
FA
330
1F
100
AcDbEntity
  8
0
  6
CONTINUOUS
 62
     7
100
AcDbCircle
 10
2028.6664213248
 20
1034.6721114073
 30
0.0
 40
251.1097088087883
100
AcDbArc
 50
181.1175346436
 51
181.5339960547
  0
ARC
  5
FB
330
1F
100
AcDbEntity
  8
0
  6
CONTINUOUS
 62
     7
100
AcDbCircle
 10
1042.1118898555
 20
1034.672111407
 30
0.0
 40
251.1097087955193
100
AcDbArc
 50
358.4660039453
 51
358.8824653564
  0
SPLINE
  5
FC
330
1F
100
AcDbEntity
  8
0
  6
CONTINUOUS
 62
     7
100
AcDbSpline
210
0.0
220
0.0
230
1.0
 70
     8
 71
     3
 72
    12
 73
     8
 74
     0
 42
0.00000001
 43
0.00000001
 12
1.0
 22
0.0
 32
0.0
 13
1.0
 23
0.0
 33
0.0
 40
0.0
 40
0.0
 40
0.0
 40
0.0
 40
0.4999999999999811
 40
0.4999999999999811
 40
0.7499999999999906
 40
0.7499999999999906
 40
1.0
 40
1.0
 40
1.0
 40
1.0
 10
1293.13160635913
 20
1027.949883179004
 30
0.0
 10
1292.867797567721
 20
1027.955448946976
 30
0.0
 10
1292.609030892858
 20
1027.958499064852
 30
0.0
 10
1292.332732247378
 20
1027.958494772435
 30
0.0
 10
1292.258633307895
 20
1027.957744693956
 30
0.0
 10
1292.158510587659
 20
1027.954815228015
 30
0.0
 10
1292.132568855004
 20
1027.952666203584
 30
0.0
 10
1292.132416444579
 20
1027.949883414342
 30
0.0
  0
ARC
  5
FD
330
1F
100
AcDbEntity
  8
0
  6
CONTINUOUS
 62
     7
100
AcDbCircle
 10
1292.1773433487
 20
1029.9491065928
 30
0.0
 40
1.999727637060001
100
AcDbArc
 50
185.0059290936
 51
268.7128364468
  0
LINE
  5
FE
330
1F
100
AcDbEntity
  8
0
  6
CONTINUOUS
 62
     7
100
AcDbLine
 10
1336.3891546299
 20
1027.0404098059
 30
0.0
 11
1336.3891546299
 21
1027.0404023553
 31
0.0
  0
LWPOLYLINE
  5
FF
330
1F
100
AcDbEntity
  8
0
  6
CONTINUOUS
 62
     7
100
AcDbPolyline
 90
        4
 70
   128
 43
0.0
 10
1336.3891546299
 20
1027.0404023553
 10
1332.3900405933
 20
1027.124221387
 10
1316.3935695459
 20
1027.4600302304
 10
1293.1316052248
 20
1027.9498835529
  0
SPLINE
  5
100
330
1F
100
AcDbEntity
  8
0
  6
CONTINUOUS
 62
     7
100
AcDbSpline
210
0.0
220
0.0
230
1.0
 70
     8
 71
     3
 72
    12
 73
     8
 74
     0
 42
0.00000001
 43
0.00000001
 12
1.0
 22
0.0
 32
0.0
 13
1.0
 23
0.0
 33
0.0
 40
0.0
 40
0.0
 40
0.0
 40
0.0
 40
0.0220590094630406
 40
0.275153813542421
 40
0.5167741945229248
 40
0.7583832231406276
 40
1.0
 40
1.0
 40
1.0
 40
1.0
 10
1336.410120563662
 20
1028.858485581979
 30
0.0
 10
1336.409901967426
 20
1028.838150799096
 30
0.0
 10
1336.407175299754
 20
1028.58450418513
 30
0.0
 10
1336.402094481238
 20
1028.114361056045
 30
0.0
 10
1336.395803487855
 20
1027.561049005508
 30
0.0
 10
1336.391113353709
 20
1027.165246532208
 30
0.0
 10
1336.38980754479
 20
1027.082022492805
 30
0.0
 10
1336.389154629862
 20
1027.040409805878
 30
0.0
  0
LWPOLYLINE
  5
101
330
1F
100
AcDbEntity
  8
0
  6
CONTINUOUS
 62
     7
100
AcDbPolyline
 90
        4
 70
   128
 43
0.0
 10
1777.6467059423
 20
1027.9498835529
 10
1773.6475919057
 20
1027.8655392552
 10
1757.6511506607
 20
1027.5287022317
 10
1734.3891565372
 20
1027.0404023553
  0
LINE
  5
102
330
1F
100
AcDbEntity
  8
0
  6
CONTINUOUS
 62
     7
100
AcDbLine
 10
1734.3891565372
 20
1027.0404023553
 30
0.0
 11
1734.3891565372
 21
1027.0404098059
 31
0.0
  0
SPLINE
  5
103
330
1F
100
AcDbEntity
  8
0
  6
CONTINUOUS
 62
     7
100
AcDbSpline
210
0.0
220
0.0
230
1.0
 70
     8
 71
     3
 72
    12
 73
     8
 74
     0
 42
0.00000001
 43
0.00000001
 12
1.0
 22
0.0
 32
0.0
 13
1.0
 23
0.0
 33
0.0
 40
0.0
 40
0.0
 40
0.0
 40
0.0
 40
0.0220590094630406
 40
0.275153813542421
 40
0.5167741945229248
 40
0.7583832231406276
 40
1.0
 40
1.0
 40
1.0
 40
1.0
 10
1734.368190603411
 20
1028.858485581979
 30
0.0
 10
1734.368409199647
 20
1028.838150799096
 30
0.0
 10
1734.371135867319
 20
1028.58450418513
 30
0.0
 10
1734.376216685835
 20
1028.114361056045
 30
0.0
 10
1734.382507679218
 20
1027.561049005508
 30
0.0
 10
1734.387197813364
 20
1027.165246532208
 30
0.0
 10
1734.388503622283
 20
1027.082022492805
 30
0.0
 10
1734.389156537211
 20
1027.040409805878
 30
0.0
  0
LINE
  5
104
330
1F
100
AcDbEntity
  8
0
  6
CONTINUOUS
 62
     7
100
AcDbLine
 10
1734.3891565372
 20
1027.0404098059
 30
0.0
 11
1336.3891546299
 21
1027.0404098059
 31
0.0
  0
LWPOLYLINE
  5
105
330
1F
100
AcDbEntity
  8
0
  6
CONTINUOUS
 62
     7
100
AcDbPolyline
 90
        4
 70
   128
 43
0.0
 10
1778.6947493126
 20
1027.0404023553
 10
1778.6903087665
 20
1027.124221387
 10
1778.6723677684
 20
1027.4600302304
 10
1778.645888405
 20
1027.9498835529
  0
LINE
  5
106
330
1F
100
AcDbEntity
  8
0
  6
CONTINUOUS
 62
     7
100
AcDbLine
 10
1734.3891565372
 20
1023.1641632939
 30
0.0
 11
1778.6947493126
 21
1027.0404023553
 31
0.0
  0
LINE
  5
107
330
1F
100
AcDbEntity
  8
0
  6
CONTINUOUS
 62
     7
100
AcDbLine
 10
1734.3891565372
 20
1023.1641632939
 30
0.0
 11
1734.3891565372
 21
1027.0404023553
 31
0.0
  0
LINE
  5
108
330
1F
100
AcDbEntity
  8
0
  6
CONTINUOUS
 62
     7
100
AcDbLine
 10
1336.3891546299
 20
1023.1641632939
 30
0.0
 11
1292.0835618545
 21
1027.0404023553
 31
0.0
  0
LWPOLYLINE
  5
109
330
1F
100
AcDbEntity
  8
0
  6
CONTINUOUS
 62
     7
100
AcDbPolyline
 90
        4
 70
   128
 43
0.0
 10
1292.1324227621
 20
1027.9498835529
 10
1292.1278481056
 20
1027.8655392552
 10
1292.1096388866
 20
1027.5287022317
 10
1292.0835618545
 20
1027.0404023553
  0
LINE
  5
10A
330
1F
100
AcDbEntity
  8
0
  6
CONTINUOUS
 62
     7
100
AcDbLine
 10
1336.3891546299
 20
1023.1641632939
 30
0.0
 11
1336.3891546299
 21
1027.0404023553
 31
0.0
  0
LINE
  5
10B
330
1F
100
AcDbEntity
  8
0
  6
CONTINUOUS
 62
     7
100
AcDbLine
 10
1734.3891565372
 20
1023.1641632939
 30
0.0
 11
1336.3891546299
 21
1023.1641632939
 31
0.0
  0
LINE
  5
10C
330
1F
100
AcDbEntity
  8
0
  6
CONTINUOUS
 62
     7
100
AcDbLine
 10
1778.6947493126
 20
1027.0404023553
 30
0.0
 11
1778.6948387195
 21
1027.0404098059
 31
0.0
  0
SPLINE
  5
10D
330
1F
100
AcDbEntity
  8
0
  6
CONTINUOUS
 62
     7
100
AcDbSpline
210
0.0
220
0.0
230
1.0
 70
     8
 71
     3
 72
    12
 73
     8
 74
     0
 42
0.00000001
 43
0.00000001
 12
1.0
 22
0.0
 32
0.0
 13
1.0
 23
0.0
 33
0.0
 40
0.0
 40
0.0
 40
0.0
 40
0.0
 40
0.2416128537928013
 40
0.4832231102751505
 40
0.7248448036467106
 40
0.9779409872326533
 40
1.0
 40
1.0
 40
1.0
 40
1.0
 10
1778.694838719523
 20
1027.040409805878
 30
0.0
 10
1778.916935226815
 20
1027.082023292641
 30
0.0
 10
1779.361125853888
 20
1027.165249818827
 30
0.0
 10
1779.92755920671
 20
1027.561048854458
 30
0.0
 10
1780.342486067109
 20
1028.114361585018
 30
0.0
 10
1780.486165991382
 20
1028.584502882347
 30
0.0
 10
1780.510929241963
 20
1028.838150794194
 30
0.0
 10
1780.512914495623
 20
1028.858485581979
 30
0.0
  0
LWPOLYLINE
  5
10E
330
1F
100
AcDbEntity
  8
0
  6
CONTINUOUS
 62
     7
100
AcDbPolyline
 90
        5
 70
   128
 43
0.0
 10
1780.5930678417
 20
1029.7746126975
 10
1780.5697475244
 20
1029.5082134629
 10
1780.5464272071
 20
1029.241642865
 10
1780.5230919887
 20
1028.9749009038
 10
1780.5129144956
 20
1028.858485582
  0
LINE
  5
10F
330
1F
100
AcDbEntity
  8
0
  6
CONTINUOUS
 62
     7
100
AcDbLine
 10
1292.0835618545
 20
1027.0404023553
 30
0.0
 11
1292.0834724476
 21
1027.0404098059
 31
0.0
  0
SPLINE
  5
110
330
1F
100
AcDbEntity
  8
0
  6
CONTINUOUS
 62
     7
100
AcDbSpline
210
0.0
220
0.0
230
1.0
 70
     8
 71
     3
 72
    12
 73
     8
 74
     0
 42
0.00000001
 43
0.00000001
 12
1.0
 22
0.0
 32
0.0
 13
1.0
 23
0.0
 33
0.0
 40
0.0
 40
0.0
 40
0.0
 40
0.0
 40
0.0220590127673466
 40
0.2751551963532894
 40
0.5167768897248496
 40
0.7583871462071987
 40
1.0
 40
1.0
 40
1.0
 40
1.0
 10
1290.26539667145
 20
1028.858485581979
 30
0.0
 10
1290.26738192511
 20
1028.838150794193
 30
0.0
 10
1290.292145175691
 20
1028.584502882347
 30
0.0
 10
1290.435825099964
 20
1028.114361585018
 30
0.0
 10
1290.850751960363
 20
1027.561048854458
 30
0.0
 10
1291.417185313185
 20
1027.165249818827
 30
0.0
 10
1291.861375940257
 20
1027.082023292641
 30
0.0
 10
1292.08347244755
 20
1027.040409805878
 30
0.0
  0
LWPOLYLINE
  5
111
330
1F
100
AcDbEntity
  8
0
  6
CONTINUOUS
 62
     7
100
AcDbPolyline
 90
        5
 70
   128
 43
0.0
 10
1290.2653966714
 20
1028.858485582
 10
1290.2552191784
 20
1028.9749009038
 10
1290.2318839599
 20
1029.241642865
 10
1290.2085636427
 20
1029.5082134629
 10
1290.1852433254
 20
1029.7746126975
  0
LINE
  5
112
330
1F
100
AcDbEntity
  8
0
  6
CONTINUOUS
 62
     7
100
AcDbLine
 10
1977.0491304706
 20
1905.9288125593
 30
0.0
 11
2020.4386818121
 21
1902.1327119429
 31
0.0
  0
SPLINE
  5
113
330
1F
100
AcDbEntity
  8
0
  6
CONTINUOUS
 62
     7
100
AcDbSpline
210
0.0
220
0.0
230
1.0
 70
     8
 71
     3
 72
    22
 73
    18
 74
     0
 42
0.00000001
 43
0.00000001
 12
1.0
 22
0.0
 32
0.0
 13
1.0
 23
0.0
 33
0.0
 40
0.0
 40
0.0
 40
0.0
 40
0.0
 40
0.125
 40
0.125
 40
0.25
 40
0.25
 40
0.375
 40
0.375
 40
0.5
 40
0.5
 40
0.625
 40
0.625
 40
0.75
 40
0.75
 40
0.875
 40
0.875
 40
1.0
 40
1.0
 40
1.0
 40
1.0
 10
2020.438680088686
 20
1899.144127843828
 30
0.0
 10
2020.448643043556
 20
1899.341019820845
 30
0.0
 10
2020.457473138401
 20
1899.534625606973
 30
0.0
 10
2020.472946579411
 20
1899.91552602275
 30
0.0
 10
2020.479643086625
 20
1900.104778357209
 30
0.0
 10
2020.490373591882
 20
1900.465728619091
 30
0.0
 10
2020.494422008494
 20
1900.636974543611
 30
0.0
 10
2020.49990133965
 20
1900.961165202183
 30
0.0
 10
2020.501304872666
 20
1901.114724563958
 30
0.0
 10
2020.50131556308
 20
1901.390197042092
 30
0.0
 10
2020.499967256754
 20
1901.513913021237
 30
0.0
 10
2020.494501523161
 20
1901.732641228854
 30
0.0
 10
2020.490403117172
 20
1901.825721186198
 30
0.0
 10
2020.479760778718
 20
1901.975603379708
 30
0.0
 10
2020.473147099773
 20
1902.033511196295
 30
0.0
 10
2020.457528089075
 20
1902.111767745162
 30
0.0
 10
2020.44864309013
 20
1902.131840288422
 30
0.0
 10
2020.438680088686
 20
1902.132711938103
 30
0.0
  0
LINE
  5
114
330
1F
100
AcDbEntity
  8
0
  6
CONTINUOUS
 62
     7
100
AcDbLine
 10
2020.4386818121
 20
1899.1441350538
 30
0.0
 11
1977.0491304706
 21
1902.9402356703
 31
0.0
  0
LINE
  5
115
330
1F
100
AcDbEntity
  8
0
  6
CONTINUOUS
 62
     7
100
AcDbLine
 10
1977.0491304706
 20
1902.9402356703
 30
0.0
 11
1977.0491304706
 21
1905.9288125593
 31
0.0
  0
LINE
  5
116
330
1F
100
AcDbEntity
  8
0
  6
CONTINUOUS
 62
     7
100
AcDbLine
 10
1977.0491304706
 20
1210.9173756201
 30
0.0
 11
2020.4386818121
 21
1214.7134762365
 31
0.0
  0
SPLINE
  5
117
330
1F
100
AcDbEntity
  8
0
  6
CONTINUOUS
 62
     7
100
AcDbSpline
210
0.0
220
0.0
230
1.0
 70
     8
 71
     3
 72
    22
 73
    18
 74
     0
 42
0.00000001
 43
0.00000001
 12
1.0
 22
0.0
 32
0.0
 13
1.0
 23
0.0
 33
0.0
 40
0.0
 40
0.0
 40
0.0
 40
0.0
 40
0.125
 40
0.125
 40
0.25
 40
0.25
 40
0.375
 40
0.375
 40
0.5
 40
0.5
 40
0.625
 40
0.625
 40
0.75
 40
0.75
 40
0.875
 40
0.875
 40
1.0
 40
1.0
 40
1.0
 40
1.0
 10
2020.438680088686
 20
1211.724899352262
 30
0.0
 10
2020.448643043556
 20
1211.725770997868
 30
0.0
 10
2020.457473138401
 20
1211.745836397241
 30
0.0
 10
2020.472946579411
 20
1211.822831640234
 30
0.0
 10
2020.479643086625
 20
1211.880677930875
 30
0.0
 10
2020.490373591882
 20
1212.031151204572
 30
0.0
 10
2020.494422008494
 20
1212.123040482952
 30
0.0
 10
2020.49990133965
 20
1212.339840894943
 30
0.0
 10
2020.501304872666
 20
1212.465903251609
 30
0.0
 10
2020.50131556308
 20
1212.741166263803
 30
0.0
 10
2020.499967256754
 20
1212.891297053991
 30
0.0
 10
2020.494501523161
 20
1213.217148495561
 30
0.0
 10
2020.490403117172
 20
1213.390565147491
 30
0.0
 10
2020.479760778718
 20
1213.74919394129
 30
0.0
 10
2020.473147099773
 20
1213.936879809494
 30
0.0
 10
2020.457528089075
 20
1214.321897997581
 30
0.0
 10
2020.44864309013
 20
1214.516590549109
 30
0.0
 10
2020.438680088686
 20
1214.713483446537
 30
0.0
  0
LINE
  5
118
330
1F
100
AcDbEntity
  8
0
  6
CONTINUOUS
 62
     7
100
AcDbLine
 10
2020.4386818121
 20
1211.7248993475
 30
0.0
 11
1977.0491304706
 21
1207.928798731
 31
0.0
  0
LINE
  5
119
330
1F
100
AcDbEntity
  8
0
  6
CONTINUOUS
 62
     7
100
AcDbLine
 10
1977.0491304706
 20
1207.928798731
 30
0.0
 11
1977.0491304706
 21
1210.9173756201
 31
0.0
  0
LWPOLYLINE
  5
11A
330
1F
100
AcDbEntity
  8
0
  6
CONTINUOUS
 62
     7
100
AcDbPolyline
 90
        5
 70
   128
 43
0.0
 10
2020.4386818121
 20
1214.7134762365
 10
2020.7050810467
 20
1227.2960167486
 10
2020.9716516445
 20
1239.8785572607
 10
2021.2383936058
 20
1252.4610679705
 10
2021.3548089276
 20
1257.9497616846
  0
LINE
  5
11B
330
1F
100
AcDbEntity
  8
0
  6
CONTINUOUS
 62
     7
100
AcDbLine
 10
1993.0491312305
 20
1305.9288185198
 30
0.0
 11
1993.0491312305
 21
1407.9288017113
 31
0.0
  0
LINE
  5
11C
330
1F
100
AcDbEntity
  8
0
  6
CONTINUOUS
 62
     7
100
AcDbLine
 10
1993.0491312305
 20
1705.9288095791
 30
0.0
 11
1993.0491312305
 21
1807.9287927706
 31
0.0
  0
LWPOLYLINE
  5
11D
330
1F
100
AcDbEntity
  8
0
  6
CONTINUOUS
 62
     7
100
AcDbPolyline
 90
        5
 70
   128
 43
0.0
 10
2021.3548089276
 20
1855.9078496058
 10
2021.2383936058
 20
1861.3965433199
 10
2020.9716516445
 20
1873.9790540297
 10
2020.7050810467
 20
1886.5615945417
 10
2020.4386818121
 20
1899.1441350538
  0
LINE
  5
11E
330
1F
100
AcDbEntity
  8
0
  6
CONTINUOUS
 62
     7
100
AcDbLine
 10
2021.3548089276
 20
1257.9497616846
 30
0.0
 11
2021.3548089276
 21
1855.9078496058
 31
0.0
  0
LINE
  5
11F
330
1F
100
AcDbEntity
  8
0
  6
CONTINUOUS
 62
     7
100
AcDbLine
 10
1977.0491304706
 20
1407.9288017113
 30
0.0
 11
1977.0491304706
 21
1705.9288095791
 31
0.0
  0
LINE
  5
120
330
1F
100
AcDbEntity
  8
0
  6
CONTINUOUS
 62
     7
100
AcDbLine
 10
1977.0491304706
 20
1407.9288017113
 30
0.0
 11
1993.0491312305
 21
1407.9288017113
 31
0.0
  0
LINE
  5
121
330
1F
100
AcDbEntity
  8
0
  6
CONTINUOUS
 62
     7
100
AcDbLine
 10
1993.0491312305
 20
1705.9288095791
 30
0.0
 11
1977.0491304706
 21
1705.9288095791
 31
0.0
  0
LINE
  5
122
330
1F
100
AcDbEntity
  8
0
  6
CONTINUOUS
 62
     7
100
AcDbLine
 10
1977.0491304706
 20
1210.9173756201
 30
0.0
 11
1977.0491304706
 21
1305.9288185198
 31
0.0
  0
LINE
  5
123
330
1F
100
AcDbEntity
  8
0
  6
CONTINUOUS
 62
     7
100
AcDbLine
 10
1977.0491304706
 20
1807.9287927706
 30
0.0
 11
1977.0491304706
 21
1902.9402356703
 31
0.0
  0
LINE
  5
124
330
1F
100
AcDbEntity
  8
0
  6
CONTINUOUS
 62
     7
100
AcDbLine
 10
1993.0491312305
 20
1305.9288185198
 30
0.0
 11
1977.0491304706
 21
1305.9288185198
 31
0.0
  0
LINE
  5
125
330
1F
100
AcDbEntity
  8
0
  6
CONTINUOUS
 62
     7
100
AcDbLine
 10
1977.0491304706
 20
1807.9287927706
 30
0.0
 11
1993.0491312305
 21
1807.9287927706
 31
0.0
  0
SPLINE
  5
126
330
1F
100
AcDbEntity
  8
0
  6
CONTINUOUS
 62
     7
100
AcDbSpline
210
0.0
220
0.0
230
1.0
 70
     8
 71
     3
 72
    12
 73
     8
 74
     0
 42
0.00000001
 43
0.00000001
 12
1.0
 22
0.0
 32
0.0
 13
1.0
 23
0.0
 33
0.0
 40
0.0
 40
0.0
 40
0.0
 40
0.0
 40
0.5
 40
0.5
 40
0.75
 40
0.75
 40
1.0
 40
1.0
 40
1.0
 40
1.0
 10
2022.263411102786
 20
1214.671245623468
 30
0.0
 10
2022.257845404409
 20
1214.407437093718
 30
0.0
 10
2022.254795362741
 20
1214.148671445021
 30
0.0
 10
2022.254799778332
 20
1213.872375568028
 30
0.0
 10
2022.255549896922
 20
1213.798277915633
 30
0.0
 10
2022.25847944604
 20
1213.698157703957
 30
0.0
 10
2022.260628502367
 20
1213.672217440862
 30
0.0
 10
2022.263411330584
 20
1213.672066493398
 30
0.0
  0
ARC
  5
127
330
1F
100
AcDbEntity
  8
0
  6
CONTINUOUS
 62
     7
100
AcDbCircle
 10
2020.2642216843
 20
1213.7169680704
 30
0.0
 40
1.999693509770647
100
AcDbArc
 50
275.0050435247
 51
358.7132844703
  0
ARC
  5
128
330
1F
100
AcDbEntity
  8
0
  6
CONTINUOUS
 62
     7
100
AcDbCircle
 10
2015.5544199032
 20
964.2234854709
 30
0.0
 40
250.5376049381979
100
AcDbArc
 50
88.4655284474
 51
88.8829408543
  0
ARC
  5
129
330
1F
100
AcDbEntity
  8
0
  6
CONTINUOUS
 62
     7
100
AcDbCircle
 10
2020.2642216843
 20
1900.14064322
 30
0.0
 40
1.999693509770601
100
AcDbArc
 50
1.2867155297
 51
84.9949564753
  0
SPLINE
  5
12A
330
1F
100
AcDbEntity
  8
0
  6
CONTINUOUS
 62
     7
100
AcDbSpline
210
0.0
220
0.0
230
1.0
 70
     8
 71
     3
 72
    12
 73
     8
 74
     0
 42
0.00000001
 43
0.00000001
 12
1.0
 22
0.0
 32
0.0
 13
1.0
 23
0.0
 33
0.0
 40
0.0
 40
0.0
 40
0.0
 40
0.0
 40
0.4999999999999811
 40
0.4999999999999811
 40
0.7499999999999906
 40
0.7499999999999906
 40
1.0
 40
1.0
 40
1.0
 40
1.0
 10
2022.263411330584
 20
1900.185544796967
 30
0.0
 10
2022.257845562611
 20
1900.185242895989
 30
0.0
 10
2022.254795444736
 20
1900.076933722161
 30
0.0
 10
2022.254799737153
 20
1899.800425736449
 30
0.0
 10
2022.255549815631
 20
1899.689612084536
 30
0.0
 10
2022.258479281572
 20
1899.447730543629
 30
0.0
 10
2022.260628306004
 20
1899.318267498046
 30
0.0
 10
2022.263411095246
 20
1899.186366024313
 30
0.0
  0
ARC
  5
12B
330
1F
100
AcDbEntity
  8
0
  6
CONTINUOUS
 62
     7
100
AcDbCircle
 10
2015.5544199028
 20
2149.6341258331
 30
0.0
 40
250.537604951872
100
AcDbArc
 50
271.1170591457
 51
271.5344715526
  0
LINE
  5
12C
330
1F
100
AcDbEntity
  8
0
  6
CONTINUOUS
 62
     7
100
AcDbLine
 10
2023.1728921543
 20
1257.928810652
 30
0.0
 11
2023.1728847037
 21
1257.928810652
 31
0.0
  0
LWPOLYLINE
  5
12D
330
1F
100
AcDbEntity
  8
0
  6
CONTINUOUS
 62
     7
100
AcDbPolyline
 90
        4
 70
   128
 43
0.0
 10
2023.1728921543
 20
1257.928810652
 10
2023.0890731226
 20
1253.9296966154
 10
2022.7532642792
 20
1237.9332106668
 10
2022.2634109567
 20
1214.6712463457
  0
SPLINE
  5
12E
330
1F
100
AcDbEntity
  8
0
  6
CONTINUOUS
 62
     7
100
AcDbSpline
210
0.0
220
0.0
230
1.0
 70
     8
 71
     3
 72
    12
 73
     8
 74
     0
 42
0.00000001
 43
0.00000001
 12
1.0
 22
0.0
 32
0.0
 13
1.0
 23
0.0
 33
0.0
 40
0.0
 40
0.0
 40
0.0
 40
0.0
 40
0.0220590127673466
 40
0.2751551963532894
 40
0.5167768897248496
 40
0.7583871462071987
 40
1.0
 40
1.0
 40
1.0
 40
1.0
 10
2021.354808927609
 20
1257.949761684611
 30
0.0
 10
2021.375143715394
 20
1257.949553494138
 30
0.0
 10
2021.628791627241
 20
1257.946956610448
 30
0.0
 10
2022.09893292457
 20
1257.941706062014
 30
0.0
 10
2022.65224565513
 20
1257.935447383197
 30
0.0
 10
2023.048044690761
 20
1257.930772448969
 30
0.0
 10
2023.131271216946
 20
1257.929464586648
 30
0.0
 10
2023.172884703709
 20
1257.928810651973
 30
0.0
  0
LWPOLYLINE
  5
12F
330
1F
100
AcDbEntity
  8
0
  6
CONTINUOUS
 62
     7
100
AcDbPolyline
 90
        4
 70
   128
 43
0.0
 10
2022.2634109567
 20
1899.1863649447
 10
2022.3477552543
 20
1895.1872509081
 10
2022.6845922778
 20
1879.1907947619
 10
2023.1728921543
 20
1855.9288006384
  0
LINE
  5
130
330
1F
100
AcDbEntity
  8
0
  6
CONTINUOUS
 62
     7
100
AcDbLine
 10
2023.1728921543
 20
1855.9288006384
 30
0.0
 11
2023.1728847037
 21
1855.9288006384
 31
0.0
  0
SPLINE
  5
131
330
1F
100
AcDbEntity
  8
0
  6
CONTINUOUS
 62
     7
100
AcDbSpline
210
0.0
220
0.0
230
1.0
 70
     8
 71
     3
 72
    12
 73
     8
 74
     0
 42
0.00000001
 43
0.00000001
 12
1.0
 22
0.0
 32
0.0
 13
1.0
 23
0.0
 33
0.0
 40
0.0
 40
0.0
 40
0.0
 40
0.0
 40
0.0220590127673466
 40
0.2751551963532894
 40
0.5167768897248496
 40
0.7583871462071987
 40
1.0
 40
1.0
 40
1.0
 40
1.0
 10
2021.354808927609
 20
1855.907849605754
 30
0.0
 10
2021.375143715394
 20
1855.908057796227
 30
0.0
 10
2021.628791627241
 20
1855.910654679917
 30
0.0
 10
2022.09893292457
 20
1855.915905228351
 30
0.0
 10
2022.65224565513
 20
1855.922163907167
 30
0.0
 10
2023.048044690761
 20
1855.926838841396
 30
0.0
 10
2023.131271216946
 20
1855.928146703717
 30
0.0
 10
2023.172884703709
 20
1855.928800638392
 30
0.0
  0
LINE
  5
132
330
1F
100
AcDbEntity
  8
0
  6
CONTINUOUS
 62
     7
100
AcDbLine
 10
2023.1728847037
 20
1855.9288006384
 30
0.0
 11
2023.1728847037
 21
1257.928810652
 31
0.0
  0
LINE
  5
133
330
1F
100
AcDbEntity
  8
0
  6
CONTINUOUS
 62
     7
100
AcDbLine
 10
2027.0491312156
 20
1257.928810652
 30
0.0
 11
2023.1728921543
 21
1257.928810652
 31
0.0
  0
LINE
  5
134
330
1F
100
AcDbEntity
  8
0
  6
CONTINUOUS
 62
     7
100
AcDbLine
 10
2027.0491312156
 20
1257.928810652
 30
0.0
 11
2023.1728921543
 21
1213.6232178766
 31
0.0
  0
LWPOLYLINE
  5
135
330
1F
100
AcDbEntity
  8
0
  6
CONTINUOUS
 62
     7
100
AcDbPolyline
 90
        4
 70
   128
 43
0.0
 10
2022.2634109567
 20
1213.672063883
 10
2022.3477552543
 20
1213.6675041277
 10
2022.6845922778
 20
1213.6492949087
 10
2023.1728921543
 20
1213.6232178766
  0
LINE
  5
136
330
1F
100
AcDbEntity
  8
0
  6
CONTINUOUS
 62
     7
100
AcDbLine
 10
2027.0491312156
 20
1855.9288006384
 30
0.0
 11
2023.1728921543
 21
1855.9288006384
 31
0.0
  0
LWPOLYLINE
  5
137
330
1F
100
AcDbEntity
  8
0
  6
CONTINUOUS
 62
     7
100
AcDbPolyline
 90
        4
 70
   128
 43
0.0
 10
2023.1728921543
 20
1900.2343934137
 10
2023.0890731226
 20
1900.2299528677
 10
2022.7532642792
 20
1900.2120118696
 10
2022.2634109567
 20
1900.1855474073
  0
LINE
  5
138
330
1F
100
AcDbEntity
  8
0
  6
CONTINUOUS
 62
     7
100
AcDbLine
 10
2027.0491312156
 20
1855.9288006384
 30
0.0
 11
2023.1728921543
 21
1900.2343934137
 31
0.0
  0
LINE
  5
139
330
1F
100
AcDbEntity
  8
0
  6
CONTINUOUS
 62
     7
100
AcDbLine
 10
2027.0491312156
 20
1257.928810652
 30
0.0
 11
2027.0491312156
 21
1855.9288006384
 31
0.0
  0
LINE
  5
13A
330
1F
100
AcDbEntity
  8
0
  6
CONTINUOUS
 62
     7
100
AcDbLine
 10
2023.1728847037
 20
1900.2344828207
 30
0.0
 11
2023.1728921543
 21
1900.2343934137
 31
0.0
  0
SPLINE
  5
13B
330
1F
100
AcDbEntity
  8
0
  6
CONTINUOUS
 62
     7
100
AcDbSpline
210
0.0
220
0.0
230
1.0
 70
     8
 71
     3
 72
    12
 73
     8
 74
     0
 42
0.00000001
 43
0.00000001
 12
1.0
 22
0.0
 32
0.0
 13
1.0
 23
0.0
 33
0.0
 40
0.0
 40
0.0
 40
0.0
 40
0.0
 40
0.0220590094630406
 40
0.275153813542421
 40
0.5167741945229248
 40
0.7583832231406276
 40
1.0
 40
1.0
 40
1.0
 40
1.0
 10
2021.354808927609
 20
1902.052573497966
 30
0.0
 10
2021.375143710492
 20
1902.05058824591
 30
0.0
 10
2021.628790324458
 20
1902.025825136082
 30
0.0
 10
2022.098933453542
 20
1901.882145044465
 30
0.0
 10
2022.65224550408
 20
1901.467218090791
 30
0.0
 10
2023.048047977379
 20
1900.900780929446
 30
0.0
 10
2023.131272016783
 20
1900.456584564427
 30
0.0
 10
2023.172884703709
 20
1900.234482820704
 30
0.0
  0
LWPOLYLINE
  5
13C
330
1F
100
AcDbEntity
  8
0
  6
CONTINUOUS
 62
     7
100
AcDbPolyline
 90
        5
 70
   128
 43
0.0
 10
2020.4386818121
 20
1902.1327119429
 10
2020.7050810467
 20
1902.1094065268
 10
2020.9716516445
 20
1902.0860713083
 10
2021.2383936058
 20
1902.0627360899
 10
2021.3548089276
 20
1902.052573498
  0
LINE
  5
13D
330
1F
100
AcDbEntity
  8
0
  6
CONTINUOUS
 62
     7
100
AcDbLine
 10
2023.1728921543
 20
1213.6232178766
 30
0.0
 11
2023.1728847037
 21
1213.6231284697
 31
0.0
  0
SPLINE
  5
13E
330
1F
100
AcDbEntity
  8
0
  6
CONTINUOUS
 62
     7
100
AcDbSpline
210
0.0
220
0.0
230
1.0
 70
     8
 71
     3
 72
    12
 73
     8
 74
     0
 42
0.00000001
 43
0.00000001
 12
1.0
 22
0.0
 32
0.0
 13
1.0
 23
0.0
 33
0.0
 40
0.0
 40
0.0
 40
0.0
 40
0.0
 40
0.2416167768593724
 40
0.4832258054770752
 40
0.724846186457579
 40
0.9779409905369595
 40
1.0
 40
1.0
 40
1.0
 40
1.0
 10
2023.172884703709
 20
1213.623128469661
 30
0.0
 10
2023.131272016783
 20
1213.401026725937
 30
0.0
 10
2023.048047977379
 20
1212.956830360919
 30
0.0
 10
2022.65224550408
 20
1212.390393199574
 30
0.0
 10
2022.098933453542
 20
1211.975466245901
 30
0.0
 10
2021.628790324458
 20
1211.831786154282
 30
0.0
 10
2021.375143710492
 20
1211.807023044455
 30
0.0
 10
2021.354808927609
 20
1211.805037792399
 30
0.0
  0
LWPOLYLINE
  5
13F
330
1F
100
AcDbEntity
  8
0
  6
CONTINUOUS
 62
     7
100
AcDbPolyline
 90
        5
 70
   128
 43
0.0
 10
2021.3548089276
 20
1211.8050377924
 10
2021.2383936058
 20
1211.7948752005
 10
2020.9716516445
 20
1211.771539982
 10
2020.7050810467
 20
1211.7482047636
 10
2020.4386818121
 20
1211.7248993475
  0
LINE
  5
140
330
1F
100
AcDbEntity
  8
0
  6
CONTINUOUS
 62
     7
100
AcDbLine
 10
1977.0491304706
 20
1305.9288185198
 30
0.0
 11
1977.0491304706
 21
1407.9288017113
 31
0.0
  0
LINE
  5
141
330
1F
100
AcDbEntity
  8
0
  6
CONTINUOUS
 62
     7
100
AcDbLine
 10
1977.0491304706
 20
1705.9288095791
 30
0.0
 11
1977.0491304706
 21
1807.9287927706
 31
0.0
  0
LINE
  5
142
330
1F
100
AcDbEntity
  8
0
  6
CONTINUOUS
 62
     7
100
AcDbLine
 10
2708.2179915147
 20
1807.9287927706
 30
0.0
 11
2708.2179915147
 21
1811.9288008768
 31
0.0
  0
LINE
  5
143
330
1F
100
AcDbEntity
  8
0
  6
CONTINUOUS
 62
     7
100
AcDbLine
 10
2708.2179915147
 20
1811.9288008768
 30
0.0
 11
2714.2179887729
 21
1811.9288008768
 31
0.0
  0
LINE
  5
144
330
1F
100
AcDbEntity
  8
0
  6
CONTINUOUS
 62
     7
100
AcDbLine
 10
2714.2179887729
 20
1811.9288008768
 30
0.0
 11
2714.2179887729
 21
1807.9287927706
 31
0.0
  0
LINE
  5
145
330
1F
100
AcDbEntity
  8
0
  6
CONTINUOUS
 62
     7
100
AcDbLine
 10
2714.2179887729
 20
1807.9287927706
 30
0.0
 11
2708.2179915147
 21
1807.9287927706
 31
0.0
  0
LINE
  5
146
330
1F
100
AcDbEntity
  8
0
  6
CONTINUOUS
 62
     7
100
AcDbLine
 10
2708.2179915147
 20
1701.9288014729
 30
0.0
 11
2708.2179915147
 21
1705.9288095791
 31
0.0
  0
LINE
  5
147
330
1F
100
AcDbEntity
  8
0
  6
CONTINUOUS
 62
     7
100
AcDbLine
 10
2708.2179915147
 20
1705.9288095791
 30
0.0
 11
2714.2179887729
 21
1705.9288095791
 31
0.0
  0
LINE
  5
148
330
1F
100
AcDbEntity
  8
0
  6
CONTINUOUS
 62
     7
100
AcDbLine
 10
2714.2179887729
 20
1705.9288095791
 30
0.0
 11
2714.2179887729
 21
1701.9288014729
 31
0.0
  0
LINE
  5
149
330
1F
100
AcDbEntity
  8
0
  6
CONTINUOUS
 62
     7
100
AcDbLine
 10
2714.2179887729
 20
1701.9288014729
 30
0.0
 11
2708.2179915147
 21
1701.9288014729
 31
0.0
  0
LINE
  5
14A
330
1F
100
AcDbEntity
  8
0
  6
CONTINUOUS
 62
     7
100
AcDbLine
 10
2718.9524751144
 20
1816.9287961084
 30
0.0
 11
2718.9524751144
 21
1811.9288008768
 31
0.0
  0
LINE
  5
14B
330
1F
100
AcDbEntity
  8
0
  6
CONTINUOUS
 62
     7
100
AcDbLine
 10
2716.7008053499
 20
1816.9287961084
 30
0.0
 11
2718.9524751144
 21
1816.9287961084
 31
0.0
  0
LINE
  5
14C
330
1F
100
AcDbEntity
  8
0
  6
CONTINUOUS
 62
     7
100
AcDbLine
 10
2716.7008053499
 20
1816.9287961084
 30
0.0
 11
2716.7008053499
 21
1901.4116149504
 31
0.0
  0
LINE
  5
14D
330
1F
100
AcDbEntity
  8
0
  6
CONTINUOUS
 62
     7
100
AcDbLine
 10
2716.7008053499
 20
1901.4116149504
 30
0.0
 11
2227.7351748185
 21
1901.4116149504
 31
0.0
  0
LINE
  5
14E
330
1F
100
AcDbEntity
  8
0
  6
CONTINUOUS
 62
     7
100
AcDbLine
 10
2227.7351748185
 20
1212.44599634
 30
0.0
 11
2227.7351748185
 21
1901.4116149504
 31
0.0
  0
LINE
  5
14F
330
1F
100
AcDbEntity
  8
0
  6
CONTINUOUS
 62
     7
100
AcDbLine
 10
2716.7008053499
 20
1212.44599634
 30
0.0
 11
2227.7351748185
 21
1212.44599634
 31
0.0
  0
LINE
  5
150
330
1F
100
AcDbEntity
  8
0
  6
CONTINUOUS
 62
     7
100
AcDbLine
 10
2716.7008053499
 20
1212.44599634
 30
0.0
 11
2716.7008053499
 21
1296.9288151819
 31
0.0
  0
LINE
  5
151
330
1F
100
AcDbEntity
  8
0
  6
CONTINUOUS
 62
     7
100
AcDbLine
 10
2718.9524751144
 20
1296.9288151819
 30
0.0
 11
2716.7008053499
 21
1296.9288151819
 31
0.0
  0
LINE
  5
152
330
1F
100
AcDbEntity
  8
0
  6
CONTINUOUS
 62
     7
100
AcDbLine
 10
2718.9524751144
 20
1296.9288151819
 30
0.0
 11
2718.9524751144
 21
1301.9288104136
 31
0.0
  0
LINE
  5
153
330
1F
100
AcDbEntity
  8
0
  6
CONTINUOUS
 62
     7
100
AcDbLine
 10
2714.2179887729
 20
1301.9288104136
 30
0.0
 11
2718.9524751144
 21
1301.9288104136
 31
0.0
  0
LINE
  5
154
330
1F
100
AcDbEntity
  8
0
  6
CONTINUOUS
 62
     7
100
AcDbLine
 10
2714.2179887729
 20
1305.9288185198
 30
0.0
 11
2714.2179887729
 21
1301.9288104136
 31
0.0
  0
LINE
  5
155
330
1F
100
AcDbEntity
  8
0
  6
CONTINUOUS
 62
     7
100
AcDbLine
 10
2721.2179880576
 20
1305.9288185198
 30
0.0
 11
2714.2179887729
 21
1305.9288185198
 31
0.0
  0
LINE
  5
156
330
1F
100
AcDbEntity
  8
0
  6
CONTINUOUS
 62
     7
100
AcDbLine
 10
2721.2179880576
 20
1210.9173756201
 30
0.0
 11
2721.2179880576
 21
1305.9288185198
 31
0.0
  0
ELLIPSE
  5
157
330
1F
100
AcDbEntity
  8
0
  6
CONTINUOUS
 62
     7
100
AcDbEllipse
 10
2718.2065305716
 20
1210.9402651578
 30
0.0
 11
2.137495823671088
 21
-2.137495823670861
 31
0.0
210
0.0
220
0.0
230
1.0
 40
0.9924325091
 41
5.501585242055354
 42
7.064785372303725
  0
LINE
  5
158
330
1F
100
AcDbEntity
  8
0
  6
CONTINUOUS
 62
     7
100
AcDbLine
 10
2718.2294111686
 20
1207.928798731
 30
0.0
 11
2226.2065689998
 21
1207.928798731
 31
0.0
  0
ELLIPSE
  5
159
330
1F
100
AcDbEntity
  8
0
  6
CONTINUOUS
 62
     7
100
AcDbEllipse
 10
2226.2294495968
 20
1210.9402651578
 30
0.0
 11
2.137495823670633
 21
2.137495823670861
 31
0.0
210
0.0
220
0.0
230
1.0
 40
0.9924325091
 41
2.3599925884656
 42
3.923192718713893
  0
LINE
  5
15A
330
1F
100
AcDbEntity
  8
0
  6
CONTINUOUS
 62
     7
100
AcDbLine
 10
2223.2179921108
 20
1210.9173756201
 30
0.0
 11
2223.2179921108
 21
1902.9402356703
 31
0.0
  0
ELLIPSE
  5
15B
330
1F
100
AcDbEntity
  8
0
  6
CONTINUOUS
 62
     7
100
AcDbEllipse
 10
2226.2294495968
 20
1902.9173461326
 30
0.0
 11
2.137495823670633
 21
-2.137495823670861
 31
0.0
210
0.0
220
0.0
230
1.0
 40
0.9924325091
 41
2.359992588465707
 42
3.923192718714075
  0
LINE
  5
15C
330
1F
100
AcDbEntity
  8
0
  6
CONTINUOUS
 62
     7
100
AcDbLine
 10
2718.2294111686
 20
1905.9288125593
 30
0.0
 11
2226.2065689998
 21
1905.9288125593
 31
0.0
  0
ELLIPSE
  5
15D
330
1F
100
AcDbEntity
  8
0
  6
CONTINUOUS
 62
     7
100
AcDbEllipse
 10
2718.2065305716
 20
1902.9173461326
 30
0.0
 11
2.137495823671088
 21
2.137495823670861
 31
0.0
210
0.0
220
0.0
230
1.0
 40
0.9924325091
 41
5.501585242055385
 42
7.064785372303831
  0
LINE
  5
15E
330
1F
100
AcDbEntity
  8
0
  6
CONTINUOUS
 62
     7
100
AcDbLine
 10
2721.2179880576
 20
1807.9287927706
 30
0.0
 11
2721.2179880576
 21
1902.9402356703
 31
0.0
  0
LINE
  5
15F
330
1F
100
AcDbEntity
  8
0
  6
CONTINUOUS
 62
     7
100
AcDbLine
 10
2721.2179880576
 20
1807.9287927706
 30
0.0
 11
2714.2179887729
 21
1807.9287927706
 31
0.0
  0
LINE
  5
160
330
1F
100
AcDbEntity
  8
0
  6
CONTINUOUS
 62
     7
100
AcDbLine
 10
2714.2179887729
 20
1811.9288008768
 30
0.0
 11
2718.9524751144
 21
1811.9288008768
 31
0.0
  0
LINE
  5
161
330
1F
100
AcDbEntity
  8
0
  6
CONTINUOUS
 62
     7
100
AcDbLine
 10
2716.7008053499
 20
1212.44599634
 30
0.0
 11
2713.1314706045
 21
1216.0153310854
 31
0.0
  0
LINE
  5
162
330
1F
100
AcDbEntity
  8
0
  6
CONTINUOUS
 62
     7
100
AcDbLine
 10
2227.7351748185
 20
1212.44599634
 30
0.0
 11
2231.304509564
 21
1216.0153310854
 31
0.0
  0
LWPOLYLINE
  5
163
330
1F
100
AcDbEntity
  8
0
  6
CONTINUOUS
 62
     7
100
AcDbPolyline
 90
        4
 70
   128
 43
0.0
 10
2231.304509564
 20
1216.0153310854
 10
2243.9331095653
 20
1216.0423915941
 10
2256.5617095666
 20
1216.0694223005
 10
2273.2721846538
 20
1216.1050956804
  0
LINE
  5
164
330
1F
100
AcDbEntity
  8
0
  6
CONTINUOUS
 62
     7
100
AcDbLine
 10
2273.2721846538
 20
1216.1050956804
 30
0.0
 11
2671.1637955146
 21
1216.1050956804
 31
0.0
  0
LWPOLYLINE
  5
165
330
1F
100
AcDbEntity
  8
0
  6
CONTINUOUS
 62
     7
100
AcDbPolyline
 90
        4
 70
   128
 43
0.0
 10
2671.1637955146
 20
1216.1050956804
 10
2683.7924104171
 20
1216.078154381
 10
2696.4210104184
 20
1216.0511534769
 10
2713.1314706045
 20
1216.0153310854
  0
LINE
  5
166
330
1F
100
AcDbEntity
  8
0
  6
CONTINUOUS
 62
     7
100
AcDbLine
 10
2227.7351748185
 20
1901.4116149504
 30
0.0
 11
2231.304509564
 21
1897.842280205
 31
0.0
  0
LWPOLYLINE
  5
167
330
1F
100
AcDbEntity
  8
0
  6
CONTINUOUS
 62
     7
100
AcDbPolyline
 90
        4
 70
   128
 43
0.0
 10
2231.304509564
 20
1897.842280205
 10
2231.3315849738
 20
1885.2136951048
 10
2231.3586007791
 20
1872.5850802023
 10
2231.394274159
 20
1855.8746200163
  0
LINE
  5
168
330
1F
100
AcDbEntity
  8
0
  6
CONTINUOUS
 62
     7
100
AcDbLine
 10
2231.394274159
 20
1855.8746200163
 30
0.0
 11
2231.394274159
 21
1257.9829912741
 31
0.0
  0
LWPOLYLINE
  5
169
330
1F
100
AcDbEntity
  8
0
  6
CONTINUOUS
 62
     7
100
AcDbPolyline
 90
        4
 70
   128
 43
0.0
 10
2231.394274159
 20
1257.9829912741
 10
2231.3673328596
 20
1245.3543763716
 10
2231.3403319555
 20
1232.7257912714
 10
2231.304509564
 20
1216.0153310854
  0
LWPOLYLINE
  5
16A
330
1F
100
AcDbEntity
  8
0
  6
CONTINUOUS
 62
     7
100
AcDbPolyline
 90
        4
 70
   128
 43
0.0
 10
2231.304509564
 20
1897.842280205
 10
2243.9331095653
 20
1897.8152196962
 10
2256.5617095666
 20
1897.7881889898
 10
2273.2721846538
 20
1897.7525156099
  0
LINE
  5
16B
330
1F
100
AcDbEntity
  8
0
  6
CONTINUOUS
 62
     7
100
AcDbLine
 10
2716.7008053499
 20
1901.4116149504
 30
0.0
 11
2713.1314706045
 21
1897.842280205
 31
0.0
  0
LWPOLYLINE
  5
16C
330
1F
100
AcDbEntity
  8
0
  6
CONTINUOUS
 62
     7
100
AcDbPolyline
 90
        4
 70
   128
 43
0.0
 10
2713.1314706045
 20
1897.842280205
 10
2700.5028706031
 20
1897.8152196962
 10
2687.8742706018
 20
1897.7881889898
 10
2671.1637955146
 20
1897.7525156099
  0
LINE
  5
16D
330
1F
100
AcDbEntity
  8
0
  6
CONTINUOUS
 62
     7
100
AcDbLine
 10
2273.2721846538
 20
1897.7525156099
 30
0.0
 11
2671.1637955146
 21
1897.7525156099
 31
0.0
  0
LINE
  5
16E
330
1F
100
AcDbEntity
  8
0
  6
CONTINUOUS
 62
     7
100
AcDbLine
 10
2708.2179915147
 20
1301.9288104136
 30
0.0
 11
2708.2179915147
 21
1305.9288185198
 31
0.0
  0
LINE
  5
16F
330
1F
100
AcDbEntity
  8
0
  6
CONTINUOUS
 62
     7
100
AcDbLine
 10
2708.2179915147
 20
1305.9288185198
 30
0.0
 11
2714.2179887729
 21
1305.9288185198
 31
0.0
  0
LINE
  5
170
330
1F
100
AcDbEntity
  8
0
  6
CONTINUOUS
 62
     7
100
AcDbLine
 10
2714.2179887729
 20
1301.9288104136
 30
0.0
 11
2708.2179915147
 21
1301.9288104136
 31
0.0
  0
LINE
  5
171
330
1F
100
AcDbEntity
  8
0
  6
CONTINUOUS
 62
     7
100
AcDbLine
 10
2714.2179887729
 20
1411.9288098175
 30
0.0
 11
2714.2179887729
 21
1407.9288017113
 31
0.0
  0
LINE
  5
172
330
1F
100
AcDbEntity
  8
0
  6
CONTINUOUS
 62
     7
100
AcDbLine
 10
2714.2179887729
 20
1407.9288017113
 30
0.0
 11
2708.2179915147
 21
1407.9288017113
 31
0.0
  0
LINE
  5
173
330
1F
100
AcDbEntity
  8
0
  6
CONTINUOUS
 62
     7
100
AcDbLine
 10
2708.2179915147
 20
1407.9288017113
 30
0.0
 11
2708.2179915147
 21
1411.9288098175
 31
0.0
  0
LINE
  5
174
330
1F
100
AcDbEntity
  8
0
  6
CONTINUOUS
 62
     7
100
AcDbLine
 10
2708.2179915147
 20
1411.9288098175
 30
0.0
 11
2714.2179887729
 21
1411.9288098175
 31
0.0
  0
LINE
  5
175
330
1F
100
AcDbEntity
  8
0
  6
CONTINUOUS
 62
     7
100
AcDbLine
 10
2716.7008053499
 20
1816.9287961084
 30
0.0
 11
2715.9571778016
 21
1816.9287961084
 31
0.0
  0
LINE
  5
176
330
1F
100
AcDbEntity
  8
0
  6
CONTINUOUS
 62
     7
100
AcDbLine
 10
2715.9571778016
 20
1811.9288008768
 30
0.0
 11
2715.9571778016
 21
1816.9287961084
 31
0.0
  0
LINE
  5
177
330
1F
100
AcDbEntity
  8
0
  6
CONTINUOUS
 62
     7
100
AcDbLine
 10
2713.0417060094
 20
1855.8746200163
 30
0.0
 11
2713.0417060094
 21
1811.9288008768
 31
0.0
  0
LWPOLYLINE
  5
178
330
1F
100
AcDbEntity
  8
0
  6
CONTINUOUS
 62
     7
100
AcDbPolyline
 90
        4
 70
   128
 43
0.0
 10
2713.1314706045
 20
1897.842280205
 10
2713.1043951946
 20
1885.2136951048
 10
2713.0773793893
 20
1872.5850802023
 10
2713.0417060094
 20
1855.8746200163
  0
LINE
  5
179
330
1F
100
AcDbEntity
  8
0
  6
CONTINUOUS
 62
     7
100
AcDbLine
 10
2715.9571778016
 20
1596.9288047511
 30
0.0
 11
2715.9571778016
 21
1701.9288014729
 31
0.0
  0
LINE
  5
17A
330
1F
100
AcDbEntity
  8
0
  6
CONTINUOUS
 62
     7
100
AcDbLine
 10
2715.9571778016
 20
1596.9288047511
 30
0.0
 11
2716.7008053499
 21
1596.9288047511
 31
0.0
  0
LINE
  5
17B
330
1F
100
AcDbEntity
  8
0
  6
CONTINUOUS
 62
     7
100
AcDbLine
 10
2716.7008053499
 20
1516.9288065393
 30
0.0
 11
2716.7008053499
 21
1596.9288047511
 31
0.0
  0
LINE
  5
17C
330
1F
100
AcDbEntity
  8
0
  6
CONTINUOUS
 62
     7
100
AcDbLine
 10
2716.7008053499
 20
1516.9288065393
 30
0.0
 11
2715.9571778016
 21
1516.9288065393
 31
0.0
  0
LINE
  5
17D
330
1F
100
AcDbEntity
  8
0
  6
CONTINUOUS
 62
     7
100
AcDbLine
 10
2715.9571778016
 20
1516.9288065393
 30
0.0
 11
2715.9571778016
 21
1411.9288098175
 31
0.0
  0
LINE
  5
17E
330
1F
100
AcDbEntity
  8
0
  6
CONTINUOUS
 62
     7
100
AcDbLine
 10
2713.0417060094
 20
1701.9288014729
 30
0.0
 11
2713.0417060094
 21
1411.9288098175
 31
0.0
  0
LINE
  5
17F
330
1F
100
AcDbEntity
  8
0
  6
CONTINUOUS
 62
     7
100
AcDbLine
 10
2715.9571778016
 20
1301.9288104136
 30
0.0
 11
2715.9571778016
 21
1296.9288151819
 31
0.0
  0
LINE
  5
180
330
1F
100
AcDbEntity
  8
0
  6
CONTINUOUS
 62
     7
100
AcDbLine
 10
2715.9571778016
 20
1296.9288151819
 30
0.0
 11
2716.7008053499
 21
1296.9288151819
 31
0.0
  0
LWPOLYLINE
  5
181
330
1F
100
AcDbEntity
  8
0
  6
CONTINUOUS
 62
     7
100
AcDbPolyline
 90
        4
 70
   128
 43
0.0
 10
2713.1314706045
 20
1216.0153310854
 10
2713.1043951946
 20
1228.6439161856
 10
2713.0773793893
 20
1241.2725310881
 10
2713.0417060094
 20
1257.9829912741
  0
LINE
  5
182
330
1F
100
AcDbEntity
  8
0
  6
CONTINUOUS
 62
     7
100
AcDbLine
 10
2713.0417060094
 20
1301.9288104136
 30
0.0
 11
2713.0417060094
 21
1257.9829912741
 31
0.0
  0
LINE
  5
183
330
1F
100
AcDbEntity
  8
0
  6
CONTINUOUS
 62
     7
100
AcDbLine
 10
2721.2179880576
 20
1407.9288017113
 30
0.0
 11
2721.2179880576
 21
1705.9288095791
 31
0.0
  0
LINE
  5
184
330
1F
100
AcDbEntity
  8
0
  6
CONTINUOUS
 62
     7
100
AcDbLine
 10
2718.9524751144
 20
1411.9288098175
 30
0.0
 11
2718.9524751144
 21
1516.9288065393
 31
0.0
  0
LINE
  5
185
330
1F
100
AcDbEntity
  8
0
  6
CONTINUOUS
 62
     7
100
AcDbLine
 10
2716.7008053499
 20
1516.9288065393
 30
0.0
 11
2718.9524751144
 21
1516.9288065393
 31
0.0
  0
LINE
  5
186
330
1F
100
AcDbEntity
  8
0
  6
CONTINUOUS
 62
     7
100
AcDbLine
 10
2718.9524751144
 20
1596.9288047511
 30
0.0
 11
2716.7008053499
 21
1596.9288047511
 31
0.0
  0
LINE
  5
187
330
1F
100
AcDbEntity
  8
0
  6
CONTINUOUS
 62
     7
100
AcDbLine
 10
2718.9524751144
 20
1701.9288014729
 30
0.0
 11
2718.9524751144
 21
1596.9288047511
 31
0.0
  0
LINE
  5
188
330
1F
100
AcDbEntity
  8
0
  6
CONTINUOUS
 62
     7
100
AcDbLine
 10
2714.2179887729
 20
1407.9288017113
 30
0.0
 11
2721.2179880576
 21
1407.9288017113
 31
0.0
  0
LINE
  5
189
330
1F
100
AcDbEntity
  8
0
  6
CONTINUOUS
 62
     7
100
AcDbLine
 10
2718.9524751144
 20
1411.9288098175
 30
0.0
 11
2714.2179887729
 21
1411.9288098175
 31
0.0
  0
LINE
  5
18A
330
1F
100
AcDbEntity
  8
0
  6
CONTINUOUS
 62
     7
100
AcDbLine
 10
2714.2179887729
 20
1705.9288095791
 30
0.0
 11
2721.2179880576
 21
1705.9288095791
 31
0.0
  0
LINE
  5
18B
330
1F
100
AcDbEntity
  8
0
  6
CONTINUOUS
 62
     7
100
AcDbLine
 10
2718.9524751144
 20
1701.9288014729
 30
0.0
 11
2714.2179887729
 21
1701.9288014729
 31
0.0
  0
LINE
  5
18C
330
1F
100
AcDbEntity
  8
0
  6
CONTINUOUS
 62
     7
100
AcDbLine
 10
2718.4084784227
 20
1516.9288065393
 30
0.0
 11
2718.4084784227
 21
1411.9288098175
 31
0.0
  0
LINE
  5
18D
330
1F
100
AcDbEntity
  8
0
  6
CONTINUOUS
 62
     7
100
AcDbLine
 10
2718.4084784227
 20
1816.9287961084
 30
0.0
 11
2718.4084784227
 21
1811.9288008768
 31
0.0
  0
LINE
  5
18E
330
1F
100
AcDbEntity
  8
0
  6
CONTINUOUS
 62
     7
100
AcDbLine
 10
2718.4084784227
 20
1596.9288047511
 30
0.0
 11
2718.4084784227
 21
1701.9288014729
 31
0.0
  0
LINE
  5
18F
330
1F
100
AcDbEntity
  8
0
  6
CONTINUOUS
 62
     7
100
AcDbLine
 10
2718.4084784227
 20
1296.9288151819
 30
0.0
 11
2718.4084784227
 21
1301.9288104136
 31
0.0
  0
LINE
  5
190
330
1F
100
AcDbEntity
  8
0
  6
CONTINUOUS
 62
     7
100
AcDbLine
 10
2715.2187507587
 20
1705.9288095791
 30
0.0
 11
2715.2187507587
 21
1807.9287927706
 31
0.0
  0
LINE
  5
191
330
1F
100
AcDbEntity
  8
0
  6
CONTINUOUS
 62
     7
100
AcDbLine
 10
2717.8009878831
 20
1807.9287927706
 30
0.0
 11
2717.8009878831
 21
1705.9288095791
 31
0.0
  0
LINE
  5
192
330
1F
100
AcDbEntity
  8
0
  6
CONTINUOUS
 62
     7
100
AcDbLine
 10
2715.2187507587
 20
1305.9288185198
 30
0.0
 11
2715.2187507587
 21
1407.9288017113
 31
0.0
  0
LINE
  5
193
330
1F
100
AcDbEntity
  8
0
  6
CONTINUOUS
 62
     7
100
AcDbLine
 10
2717.8009878831
 20
1407.9288017113
 30
0.0
 11
2717.8009878831
 21
1305.9288185198
 31
0.0
  0
LINE
  5
194
330
1F
100
AcDbEntity
  8
0
  6
CONTINUOUS
 62
     7
100
AcDbLine
 10
2719.8181729751
 20
1705.9288095791
 30
0.0
 11
2719.8181729751
 21
1807.9287927706
 31
0.0
  0
LINE
  5
195
330
1F
100
AcDbEntity
  8
0
  6
CONTINUOUS
 62
     7
100
AcDbLine
 10
2719.8181729751
 20
1305.9288185198
 30
0.0
 11
2719.8181729751
 21
1407.9288017113
 31
0.0
  0
LINE
  5
196
330
1F
100
AcDbEntity
  8
0
  6
CONTINUOUS
 62
     7
100
AcDbLine
 10
2713.0417060094
 20
1407.9288017113
 30
0.0
 11
2713.0417060094
 21
1305.9288185198
 31
0.0
  0
LINE
  5
197
330
1F
100
AcDbEntity
  8
0
  6
CONTINUOUS
 62
     7
100
AcDbLine
 10
2713.0417060094
 20
1807.9287927706
 30
0.0
 11
2713.0417060094
 21
1705.9288095791
 31
0.0
  0
SPLINE
  5
198
330
1F
100
AcDbEntity
  8
0
  6
CONTINUOUS
 62
     7
100
AcDbSpline
210
0.0
220
0.0
230
1.0
 70
     8
 71
     3
 72
    14
 73
    10
 74
     0
 42
0.00000001
 43
0.00000001
 12
1.0
 22
0.0
 32
0.0
 13
1.0
 23
0.0
 33
0.0
 40
0.0
 40
0.0
 40
0.0
 40
0.0
 40
0.25
 40
0.25
 40
0.5
 40
0.5
 40
0.75
 40
0.75
 40
1.0
 40
1.0
 40
1.0
 40
1.0
 10
2238.988757551845
 20
1855.849108615578
 30
0.0
 10
2239.070098267816
 20
1856.603520190441
 30
0.0
 10
2239.21428300225
 20
1857.340644617416
 30
0.0
 10
2239.623550034452
 20
1858.781621441897
 30
0.0
 10
2239.889533360644
 20
1859.48735308235
 30
0.0
 10
2240.54449766177
 20
1860.856099859959
 30
0.0
 10
2240.925362228747
 20
1861.502981840692
 30
0.0
 10
2241.789530653429
 20
1862.724810395941
 30
0.0
 10
2242.272831911894
 20
1863.29975876513
 30
0.0
 10
2242.809709578939
 20
1863.837086150448
 30
0.0
  0
LINE
  5
199
330
1F
100
AcDbEntity
  8
0
  6
CONTINUOUS
 62
     7
100
AcDbLine
 10
2242.8097110229
 20
1863.8370853025
 30
0.0
 11
2243.0255990463
 21
1863.6211972792
 31
0.0
  0
ARC
  5
19A
330
1F
100
AcDbEntity
  8
0
  6
CONTINUOUS
 62
     7
100
AcDbCircle
 10
2252.2179900842
 20
1854.4288056452
 30
0.0
 40
13.0
100
AcDbArc
 50
135.0
 51
180.0
  0
LINE
  5
19B
330
1F
100
AcDbEntity
  8
0
  6
CONTINUOUS
 62
     7
100
AcDbLine
 10
2238.9128487544
 20
1854.4288199503
 30
0.0
 11
2239.2179947334
 21
1854.4288199503
 31
0.0
  0
ELLIPSE
  5
19C
330
1F
100
AcDbEntity
  8
0
  6
CONTINUOUS
 62
     7
100
AcDbEllipse
 10
2252.238339711
 20
1854.4288056452
 30
0.0
 11
13.32549034120211
 21
0.0
 31
0.0
210
0.0
220
0.0
230
1.0
 40
0.999998834
 41
3.034805210669661
 42
3.141592653589793
  0
LINE
  5
19D
330
1F
100
AcDbEntity
  8
0
  6
CONTINUOUS
 62
     7
100
AcDbLine
 10
2238.9128487544
 20
1259.4287913401
 30
0.0
 11
2239.2179947334
 21
1259.4287913401
 31
0.0
  0
ARC
  5
19E
330
1F
100
AcDbEntity
  8
0
  6
CONTINUOUS
 62
     7
100
AcDbCircle
 10
2252.2179900842
 20
1259.4288056452
 30
0.0
 40
12.99999999999978
100
AcDbArc
 50
180.0
 51
225.0
  0
LINE
  5
19F
330
1F
100
AcDbEntity
  8
0
  6
CONTINUOUS
 62
     7
100
AcDbLine
 10
2242.8097110229
 20
1250.0205259878
 30
0.0
 11
2243.0255990463
 21
1250.2364140112
 31
0.0
  0
SPLINE
  5
1A0
330
1F
100
AcDbEntity
  8
0
  6
CONTINUOUS
 62
     7
100
AcDbSpline
210
0.0
220
0.0
230
1.0
 70
     8
 71
     3
 72
    14
 73
    10
 74
     0
 42
0.00000001
 43
0.00000001
 12
1.0
 22
0.0
 32
0.0
 13
1.0
 23
0.0
 33
0.0
 40
0.0
 40
0.0
 40
0.0
 40
0.0
 40
0.25
 40
0.25
 40
0.5
 40
0.5
 40
0.75
 40
0.75
 40
1.0
 40
1.0
 40
1.0
 40
1.0
 10
2242.809709578939
 20
1250.020525139917
 30
0.0
 10
2242.272831613865
 20
1250.557852823512
 30
0.0
 10
2241.789280497164
 20
1251.133053740283
 30
0.0
 10
2240.924415565666
 20
1252.356068899762
 30
0.0
 10
2240.542831297591
 20
1253.004446003841
 30
0.0
 10
2239.887610690231
 20
1254.374827020008
 30
0.0
 10
2239.622992933795
 20
1255.077723431324
 30
0.0
 10
2239.21423395335
 20
1256.517367603234
 30
0.0
 10
2239.070095558024
 20
1257.254116225382
 30
0.0
 10
2238.988757550416
 20
1258.008502688035
 30
0.0
  0
ELLIPSE
  5
1A1
330
1F
100
AcDbEntity
  8
0
  6
CONTINUOUS
 62
     7
100
AcDbEllipse
 10
2252.238339711
 20
1259.4288056452
 30
0.0
 11
13.32549034120211
 21
0.0
 31
0.0
210
0.0
220
0.0
230
1.0
 40
0.999998834
 41
3.141592653589824
 42
3.248380096509717
  0
CIRCLE
  5
1A2
330
1F
100
AcDbEntity
  8
0
  6
CONTINUOUS
 62
     7
100
AcDbCircle
 10
2277.2179900842
 20
1261.9288056452
 30
0.0
 40
2.5
  0
LINE
  5
1A3
330
1F
100
AcDbEntity
  8
0
  6
CONTINUOUS
 62
     7
100
AcDbLine
 10
2693.2179909187
 20
1384.8430138189
 30
0.0
 11
2681.1322104173
 21
1396.9288092215
 31
0.0
  0
LINE
  5
1A4
330
1F
100
AcDbEntity
  8
0
  6
CONTINUOUS
 62
     7
100
AcDbLine
 10
2693.2179909187
 20
1384.8430138189
 30
0.0
 11
2693.2179909187
 21
1409.0145897228
 31
0.0
  0
LINE
  5
1A5
330
1F
100
AcDbEntity
  8
0
  6
CONTINUOUS
 62
     7
100
AcDbLine
 10
2681.1322104173
 20
1396.9288092215
 30
0.0
 11
2693.2179909187
 21
1409.0145897228
 31
0.0
  0
LINE
  5
1A6
330
1F
100
AcDbEntity
  8
0
  6
CONTINUOUS
 62
     7
100
AcDbLine
 10
2679.7179859119
 20
1427.5145899612
 30
0.0
 11
2693.2179909187
 21
1414.0145849545
 31
0.0
  0
LINE
  5
1A7
330
1F
100
AcDbEntity
  8
0
  6
CONTINUOUS
 62
     7
100
AcDbLine
 10
2679.7179859119
 20
1398.3430188257
 30
0.0
 11
2679.7179859119
 21
1427.5145899612
 31
0.0
  0
LINE
  5
1A8
330
1F
100
AcDbEntity
  8
0
  6
CONTINUOUS
 62
     7
100
AcDbLine
 10
2679.7179859119
 20
1398.3430188257
 30
0.0
 11
2693.2179909187
 21
1411.8430238325
 31
0.0
  0
LINE
  5
1A9
330
1F
100
AcDbEntity
  8
0
  6
CONTINUOUS
 62
     7
100
AcDbLine
 10
2693.2179909187
 20
1411.8430238325
 30
0.0
 11
2693.2179909187
 21
1414.0145849545
 31
0.0
  0
CIRCLE
  5
1AA
330
1F
100
AcDbEntity
  8
0
  6
CONTINUOUS
 62
     7
100
AcDbCircle
 10
2667.2179900842
 20
1406.9288056452
 30
0.0
 40
2.5
  0
LINE
  5
1AB
330
1F
100
AcDbEntity
  8
0
  6
CONTINUOUS
 62
     7
100
AcDbLine
 10
2681.1322104173
 20
1524.9288041253
 30
0.0
 11
2693.2179909187
 21
1537.0145920772
 31
0.0
  0
LINE
  5
1AC
330
1F
100
AcDbEntity
  8
0
  6
CONTINUOUS
 62
     7
100
AcDbLine
 10
2693.2179909187
 20
1512.8430198986
 30
0.0
 11
2681.1322104173
 21
1524.9288041253
 31
0.0
  0
LINE
  5
1AD
330
1F
100
AcDbEntity
  8
0
  6
CONTINUOUS
 62
     7
100
AcDbLine
 10
2693.2179909187
 20
1512.8430198986
 30
0.0
 11
2693.2179909187
 21
1537.0145920772
 31
0.0
  0
LINE
  5
1AE
330
1F
100
AcDbEntity
  8
0
  6
CONTINUOUS
 62
     7
100
AcDbLine
 10
2679.7179859119
 20
1555.5145920828
 30
0.0
 11
2693.2179909187
 21
1542.0145919655
 31
0.0
  0
LINE
  5
1AF
330
1F
100
AcDbEntity
  8
0
  6
CONTINUOUS
 62
     7
100
AcDbLine
 10
2679.7179859119
 20
1526.3430193175
 30
0.0
 11
2679.7179859119
 21
1555.5145920828
 31
0.0
  0
LINE
  5
1B0
330
1F
100
AcDbEntity
  8
0
  6
CONTINUOUS
 62
     7
100
AcDbLine
 10
2679.7179859119
 20
1526.3430193175
 30
0.0
 11
2693.2179909187
 21
1539.8430187363
 31
0.0
  0
LINE
  5
1B1
330
1F
100
AcDbEntity
  8
0
  6
CONTINUOUS
 62
     7
100
AcDbLine
 10
2693.2179909187
 20
1539.8430187363
 30
0.0
 11
2693.2179909187
 21
1542.0145919655
 31
0.0
  0
LINE
  5
1B2
330
1F
100
AcDbEntity
  8
0
  6
CONTINUOUS
 62
     7
100
AcDbLine
 10
2681.1322104173
 20
1492.9288026053
 30
0.0
 11
2693.2179909187
 21
1505.0145905573
 31
0.0
  0
LINE
  5
1B3
330
1F
100
AcDbEntity
  8
0
  6
CONTINUOUS
 62
     7
100
AcDbLine
 10
2693.2179909187
 20
1480.843022104
 30
0.0
 11
2681.1322104173
 21
1492.9288026053
 31
0.0
  0
LINE
  5
1B4
330
1F
100
AcDbEntity
  8
0
  6
CONTINUOUS
 62
     7
100
AcDbLine
 10
2693.2179909187
 20
1480.843022104
 30
0.0
 11
2693.2179909187
 21
1505.0145905573
 31
0.0
  0
LINE
  5
1B5
330
1F
100
AcDbEntity
  8
0
  6
CONTINUOUS
 62
     7
100
AcDbLine
 10
2679.7179859119
 20
1523.5145907957
 30
0.0
 11
2693.2179909187
 21
1510.0145932395
 31
0.0
  0
LINE
  5
1B6
330
1F
100
AcDbEntity
  8
0
  6
CONTINUOUS
 62
     7
100
AcDbLine
 10
2679.7179859119
 20
1494.3430196602
 30
0.0
 11
2679.7179859119
 21
1523.5145907957
 31
0.0
  0
LINE
  5
1B7
330
1F
100
AcDbEntity
  8
0
  6
CONTINUOUS
 62
     7
100
AcDbLine
 10
2679.7179859119
 20
1494.3430196602
 30
0.0
 11
2693.2179909187
 21
1507.8430209417
 31
0.0
  0
LINE
  5
1B8
330
1F
100
AcDbEntity
  8
0
  6
CONTINUOUS
 62
     7
100
AcDbLine
 10
2693.2179909187
 20
1507.8430209417
 30
0.0
 11
2693.2179909187
 21
1510.0145932395
 31
0.0
  0
LINE
  5
1B9
330
1F
100
AcDbEntity
  8
0
  6
CONTINUOUS
 62
     7
100
AcDbLine
 10
2681.1322104173
 20
1460.9288048107
 30
0.0
 11
2693.2179909187
 21
1473.0145927627
 31
0.0
  0
LINE
  5
1BA
330
1F
100
AcDbEntity
  8
0
  6
CONTINUOUS
 62
     7
100
AcDbLine
 10
2693.2179909187
 20
1448.8430168588
 30
0.0
 11
2681.1322104173
 21
1460.9288048107
 31
0.0
  0
LINE
  5
1BB
330
1F
100
AcDbEntity
  8
0
  6
CONTINUOUS
 62
     7
100
AcDbLine
 10
2693.2179909187
 20
1448.8430168588
 30
0.0
 11
2693.2179909187
 21
1473.0145927627
 31
0.0
  0
LINE
  5
1BC
330
1F
100
AcDbEntity
  8
0
  6
CONTINUOUS
 62
     7
100
AcDbLine
 10
2679.7179859119
 20
1491.5145930011
 30
0.0
 11
2693.2179909187
 21
1478.0145954449
 31
0.0
  0
LINE
  5
1BD
330
1F
100
AcDbEntity
  8
0
  6
CONTINUOUS
 62
     7
100
AcDbLine
 10
2679.7179859119
 20
1462.3430218656
 30
0.0
 11
2679.7179859119
 21
1491.5145930011
 31
0.0
  0
LINE
  5
1BE
330
1F
100
AcDbEntity
  8
0
  6
CONTINUOUS
 62
     7
100
AcDbLine
 10
2679.7179859119
 20
1462.3430218656
 30
0.0
 11
2693.2179909187
 21
1475.8430194218
 31
0.0
  0
LINE
  5
1BF
330
1F
100
AcDbEntity
  8
0
  6
CONTINUOUS
 62
     7
100
AcDbLine
 10
2693.2179909187
 20
1475.8430194218
 30
0.0
 11
2693.2179909187
 21
1478.0145954449
 31
0.0
  0
LINE
  5
1C0
330
1F
100
AcDbEntity
  8
0
  6
CONTINUOUS
 62
     7
100
AcDbLine
 10
2681.1322104173
 20
1428.9287995655
 30
0.0
 11
2693.2179909187
 21
1441.014594968
 31
0.0
  0
LINE
  5
1C1
330
1F
100
AcDbEntity
  8
0
  6
CONTINUOUS
 62
     7
100
AcDbLine
 10
2693.2179909187
 20
1416.8430190641
 30
0.0
 11
2681.1322104173
 21
1428.9287995655
 31
0.0
  0
LINE
  5
1C2
330
1F
100
AcDbEntity
  8
0
  6
CONTINUOUS
 62
     7
100
AcDbLine
 10
2693.2179909187
 20
1416.8430190641
 30
0.0
 11
2693.2179909187
 21
1441.014594968
 31
0.0
  0
LINE
  5
1C3
330
1F
100
AcDbEntity
  8
0
  6
CONTINUOUS
 62
     7
100
AcDbLine
 10
2679.7179859119
 20
1459.5145952065
 30
0.0
 11
2693.2179909187
 21
1446.0145901997
 31
0.0
  0
LINE
  5
1C4
330
1F
100
AcDbEntity
  8
0
  6
CONTINUOUS
 62
     7
100
AcDbLine
 10
2679.7179859119
 20
1430.3430240709
 30
0.0
 11
2679.7179859119
 21
1459.5145952065
 31
0.0
  0
LINE
  5
1C5
330
1F
100
AcDbEntity
  8
0
  6
CONTINUOUS
 62
     7
100
AcDbLine
 10
2679.7179859119
 20
1430.3430240709
 30
0.0
 11
2693.2179909187
 21
1443.8430216271
 31
0.0
  0
LINE
  5
1C6
330
1F
100
AcDbEntity
  8
0
  6
CONTINUOUS
 62
     7
100
AcDbLine
 10
2693.2179909187
 20
1443.8430216271
 30
0.0
 11
2693.2179909187
 21
1446.0145901997
 31
0.0
  0
LINE
  5
1C7
330
1F
100
AcDbEntity
  8
0
  6
CONTINUOUS
 62
     7
100
AcDbLine
 10
2693.2179909187
 20
1704.8430215675
 30
0.0
 11
2681.1322104173
 21
1716.9288020689
 31
0.0
  0
LINE
  5
1C8
330
1F
100
AcDbEntity
  8
0
  6
CONTINUOUS
 62
     7
100
AcDbLine
 10
2693.2179909187
 20
1704.8430215675
 30
0.0
 11
2693.2179909187
 21
1729.0145974714
 31
0.0
  0
LINE
  5
1C9
330
1F
100
AcDbEntity
  8
0
  6
CONTINUOUS
 62
     7
100
AcDbLine
 10
2681.1322104173
 20
1716.9288020689
 30
0.0
 11
2693.2179909187
 21
1729.0145974714
 31
0.0
  0
LINE
  5
1CA
330
1F
100
AcDbEntity
  8
0
  6
CONTINUOUS
 62
     7
100
AcDbLine
 10
2679.7179859119
 20
1686.3430213291
 30
0.0
 11
2679.7179859119
 21
1715.5145924646
 31
0.0
  0
LINE
  5
1CB
330
1F
100
AcDbEntity
  8
0
  6
CONTINUOUS
 62
     7
100
AcDbLine
 10
2679.7179859119
 20
1686.3430213291
 30
0.0
 11
2693.2179909187
 21
1699.8430263359
 31
0.0
  0
LINE
  5
1CC
330
1F
100
AcDbEntity
  8
0
  6
CONTINUOUS
 62
     7
100
AcDbLine
 10
2693.2179909187
 20
1699.8430263359
 30
0.0
 11
2693.2179909187
 21
1702.0145874579
 31
0.0
  0
LINE
  5
1CD
330
1F
100
AcDbEntity
  8
0
  6
CONTINUOUS
 62
     7
100
AcDbLine
 10
2679.7179859119
 20
1715.5145924646
 30
0.0
 11
2693.2179909187
 21
1702.0145874579
 31
0.0
  0
CIRCLE
  5
1CE
330
1F
100
AcDbEntity
  8
0
  6
CONTINUOUS
 62
     7
100
AcDbCircle
 10
2667.2179900842
 20
1706.9288056452
 30
0.0
 40
2.5
  0
CIRCLE
  5
1CF
330
1F
100
AcDbEntity
  8
0
  6
CONTINUOUS
 62
     7
100
AcDbCircle
 10
2667.2179900842
 20
1851.9288056452
 30
0.0
 40
2.5
  0
LINE
  5
1D0
330
1F
100
AcDbEntity
  8
0
  6
CONTINUOUS
 62
     7
100
AcDbLine
 10
2299.814013763
 20
1878.4185569841
 30
0.0
 11
2310.8037691551
 21
1867.4288015921
 31
0.0
  0
LINE
  5
1D1
330
1F
100
AcDbEntity
  8
0
  6
CONTINUOUS
 62
     7
100
AcDbLine
 10
2299.814013763
 20
1878.4185569841
 30
0.0
 11
2292.4942057567
 21
1878.2907944281
 31
0.0
  0
LINE
  5
1D2
330
1F
100
AcDbEntity
  8
0
  6
CONTINUOUS
 62
     7
100
AcDbLine
 10
2281.6321980195
 20
1867.4288015921
 30
0.0
 11
2292.4942057567
 21
1878.2907944281
 31
0.0
  0
LINE
  5
1D3
330
1F
100
AcDbEntity
  8
0
  6
CONTINUOUS
 62
     7
100
AcDbLine
 10
2310.8037691551
 20
1867.4288015921
 30
0.0
 11
2281.6321980195
 21
1867.4288015921
 31
0.0
  0
LINE
  5
1D4
330
1F
100
AcDbEntity
  8
0
  6
CONTINUOUS
 62
     7
100
AcDbLine
 10
2344.2179840045
 20
1868.8430111963
 30
0.0
 11
2354.752494021
 21
1879.3775361139
 31
0.0
  0
LINE
  5
1D5
330
1F
100
AcDbEntity
  8
0
  6
CONTINUOUS
 62
     7
100
AcDbLine
 10
2354.752494021
 20
1879.3775361139
 30
0.0
 11
2334.0449314552
 21
1879.0160637457
 31
0.0
  0
LINE
  5
1D6
330
1F
100
AcDbEntity
  8
0
  6
CONTINUOUS
 62
     7
100
AcDbLine
 10
2344.2179840045
 20
1868.8430111963
 30
0.0
 11
2334.0449314552
 21
1879.0160637457
 31
0.0
  0
LINE
  5
1D7
330
1F
100
AcDbEntity
  8
0
  6
CONTINUOUS
 62
     7
100
AcDbLine
 10
2362.7160545426
 20
1879.5165341455
 30
0.0
 11
2374.8037796455
 21
1867.4288015921
 31
0.0
  0
LINE
  5
1D8
330
1F
100
AcDbEntity
  8
0
  6
CONTINUOUS
 62
     7
100
AcDbLine
 10
2362.7160545426
 20
1879.5165341455
 30
0.0
 11
2357.6311673956
 21
1879.4277828295
 31
0.0
  0
LINE
  5
1D9
330
1F
100
AcDbEntity
  8
0
  6
CONTINUOUS
 62
     7
100
AcDbLine
 10
2345.63220851
 20
1867.4288015921
 30
0.0
 11
2357.6311673956
 21
1879.4277828295
 31
0.0
  0
LINE
  5
1DA
330
1F
100
AcDbEntity
  8
0
  6
CONTINUOUS
 62
     7
100
AcDbLine
 10
2374.8037796455
 20
1867.4288015921
 30
0.0
 11
2345.63220851
 21
1867.4288015921
 31
0.0
  0
LINE
  5
1DB
330
1F
100
AcDbEntity
  8
0
  6
CONTINUOUS
 62
     7
100
AcDbLine
 10
2408.2179870444
 20
1868.8430111963
 30
0.0
 11
2419.8894631105
 21
1880.514494713
 31
0.0
  0
LINE
  5
1DC
330
1F
100
AcDbEntity
  8
0
  6
CONTINUOUS
 62
     7
100
AcDbLine
 10
2419.8894631105
 20
1880.514494713
 30
0.0
 11
2396.9469796853
 21
1880.1140409071
 31
0.0
  0
LINE
  5
1DD
330
1F
100
AcDbEntity
  8
0
  6
CONTINUOUS
 62
     7
100
AcDbLine
 10
2408.2179870444
 20
1868.8430111963
 30
0.0
 11
2396.9469796853
 21
1880.1140409071
 31
0.0
  0
LINE
  5
1DE
330
1F
100
AcDbEntity
  8
0
  6
CONTINUOUS
 62
     7
100
AcDbLine
 10
2425.6180953222
 20
1880.6144815046
 30
0.0
 11
2438.8037752347
 21
1867.4288015921
 31
0.0
  0
LINE
  5
1DF
330
1F
100
AcDbEntity
  8
0
  6
CONTINUOUS
 62
     7
100
AcDbLine
 10
2425.6180953222
 20
1880.6144815046
 30
0.0
 11
2422.7681402104
 21
1880.5647414286
 31
0.0
  0
LINE
  5
1E0
330
1F
100
AcDbEntity
  8
0
  6
CONTINUOUS
 62
     7
100
AcDbLine
 10
2409.6322040992
 20
1867.4288015921
 30
0.0
 11
2422.7681402104
 21
1880.5647414286
 31
0.0
  0
LINE
  5
1E1
330
1F
100
AcDbEntity
  8
0
  6
CONTINUOUS
 62
     7
100
AcDbLine
 10
2438.8037752347
 20
1867.4288015921
 30
0.0
 11
2409.6322040992
 21
1867.4288015921
 31
0.0
  0
LINE
  5
1E2
330
1F
100
AcDbEntity
  8
0
  6
CONTINUOUS
 62
     7
100
AcDbLine
 10
2651.9417744117
 20
1878.2907944281
 30
0.0
 11
2644.6219664054
 21
1878.4185569841
 31
0.0
  0
LINE
  5
1E3
330
1F
100
AcDbEntity
  8
0
  6
CONTINUOUS
 62
     7
100
AcDbLine
 10
2633.6322110134
 20
1867.4288015921
 30
0.0
 11
2644.6219664054
 21
1878.4185569841
 31
0.0
  0
LINE
  5
1E4
330
1F
100
AcDbEntity
  8
0
  6
CONTINUOUS
 62
     7
100
AcDbLine
 10
2662.8037821489
 20
1867.4288015921
 30
0.0
 11
2633.6322110134
 21
1867.4288015921
 31
0.0
  0
LINE
  5
1E5
330
1F
100
AcDbEntity
  8
0
  6
CONTINUOUS
 62
     7
100
AcDbLine
 10
2662.8037821489
 20
1867.4288015921
 30
0.0
 11
2651.9417744117
 21
1878.2907944281
 31
0.0
  0
LINE
  5
1E6
330
1F
100
AcDbEntity
  8
0
  6
CONTINUOUS
 62
     7
100
AcDbLine
 10
2569.6322005229
 20
1867.4288015921
 30
0.0
 11
2581.7199256258
 21
1879.5165341455
 31
0.0
  0
LINE
  5
1E7
330
1F
100
AcDbEntity
  8
0
  6
CONTINUOUS
 62
     7
100
AcDbLine
 10
2598.8037716585
 20
1867.4288015921
 30
0.0
 11
2569.6322005229
 21
1867.4288015921
 31
0.0
  0
LINE
  5
1E8
330
1F
100
AcDbEntity
  8
0
  6
CONTINUOUS
 62
     7
100
AcDbLine
 10
2586.8048127728
 20
1879.4277828295
 30
0.0
 11
2598.8037716585
 21
1867.4288015921
 31
0.0
  0
LINE
  5
1E9
330
1F
100
AcDbEntity
  8
0
  6
CONTINUOUS
 62
     7
100
AcDbLine
 10
2586.8048127728
 20
1879.4277828295
 30
0.0
 11
2581.7199256258
 21
1879.5165341455
 31
0.0
  0
LINE
  5
1EA
330
1F
100
AcDbEntity
  8
0
  6
CONTINUOUS
 62
     7
100
AcDbLine
 10
2600.2179961639
 20
1868.8430111963
 30
0.0
 11
2589.6834861474
 21
1879.3775361139
 31
0.0
  0
LINE
  5
1EB
330
1F
100
AcDbEntity
  8
0
  6
CONTINUOUS
 62
     7
100
AcDbLine
 10
2600.2179961639
 20
1868.8430111963
 30
0.0
 11
2610.3910487132
 21
1879.0160637457
 31
0.0
  0
LINE
  5
1EC
330
1F
100
AcDbEntity
  8
0
  6
CONTINUOUS
 62
     7
100
AcDbLine
 10
2610.3910487132
 20
1879.0160637457
 30
0.0
 11
2589.6834861474
 21
1879.3775361139
 31
0.0
  0
LINE
  5
1ED
330
1F
100
AcDbEntity
  8
0
  6
CONTINUOUS
 62
     7
100
AcDbLine
 10
2505.6322049337
 20
1867.4288015921
 30
0.0
 11
2518.8178848462
 21
1880.6144815046
 31
0.0
  0
LINE
  5
1EE
330
1F
100
AcDbEntity
  8
0
  6
CONTINUOUS
 62
     7
100
AcDbLine
 10
2534.8037760692
 20
1867.4288015921
 30
0.0
 11
2505.6322049337
 21
1867.4288015921
 31
0.0
  0
LINE
  5
1EF
330
1F
100
AcDbEntity
  8
0
  6
CONTINUOUS
 62
     7
100
AcDbLine
 10
2521.667839958
 20
1880.5647414286
 30
0.0
 11
2534.8037760692
 21
1867.4288015921
 31
0.0
  0
LINE
  5
1F0
330
1F
100
AcDbEntity
  8
0
  6
CONTINUOUS
 62
     7
100
AcDbLine
 10
2521.667839958
 20
1880.5647414286
 30
0.0
 11
2518.8178848462
 21
1880.6144815046
 31
0.0
  0
LINE
  5
1F1
330
1F
100
AcDbEntity
  8
0
  6
CONTINUOUS
 62
     7
100
AcDbLine
 10
2536.217993124
 20
1868.8430111963
 30
0.0
 11
2524.5465170579
 21
1880.514494713
 31
0.0
  0
LINE
  5
1F2
330
1F
100
AcDbEntity
  8
0
  6
CONTINUOUS
 62
     7
100
AcDbLine
 10
2536.217993124
 20
1868.8430111963
 30
0.0
 11
2547.4890004831
 21
1880.1140409071
 31
0.0
  0
LINE
  5
1F3
330
1F
100
AcDbEntity
  8
0
  6
CONTINUOUS
 62
     7
100
AcDbLine
 10
2547.4890004831
 20
1880.1140409071
 30
0.0
 11
2524.5465170579
 21
1880.514494713
 31
0.0
  0
LINE
  5
1F4
330
1F
100
AcDbEntity
  8
0
  6
CONTINUOUS
 62
     7
100
AcDbLine
 10
2472.2179900842
 20
1868.8430111963
 30
0.0
 11
2484.5869615661
 21
1881.2119882662
 31
0.0
  0
LINE
  5
1F5
330
1F
100
AcDbEntity
  8
0
  6
CONTINUOUS
 62
     7
100
AcDbLine
 10
2484.5869615661
 20
1881.2119882662
 30
0.0
 11
2472.2179900842
 21
1881.4279060919
 31
0.0
  0
LINE
  5
1F6
330
1F
100
AcDbEntity
  8
0
  6
CONTINUOUS
 62
     7
100
AcDbLine
 10
2472.2179900842
 20
1881.4279060919
 30
0.0
 11
2459.8490186023
 21
1881.2119882662
 31
0.0
  0
LINE
  5
1F7
330
1F
100
AcDbEntity
  8
0
  6
CONTINUOUS
 62
     7
100
AcDbLine
 10
2472.2179900842
 20
1868.8430111963
 30
0.0
 11
2459.8490186023
 21
1881.2119882662
 31
0.0
  0
LINE
  5
1F8
330
1F
100
AcDbEntity
  8
0
  6
CONTINUOUS
 62
     7
100
AcDbLine
 10
2504.2179916041
 20
1868.8430111963
 30
0.0
 11
2491.9780306505
 21
1881.0829740126
 31
0.0
  0
LINE
  5
1F9
330
1F
100
AcDbEntity
  8
0
  6
CONTINUOUS
 62
     7
100
AcDbLine
 10
2504.2179916041
 20
1868.8430111963
 30
0.0
 11
2516.0379800933
 21
1880.6629996855
 31
0.0
  0
LINE
  5
1FA
330
1F
100
AcDbEntity
  8
0
  6
CONTINUOUS
 62
     7
100
AcDbLine
 10
2516.0379800933
 20
1880.6629996855
 30
0.0
 11
2491.9780306505
 21
1881.0829740126
 31
0.0
  0
LINE
  5
1FB
330
1F
100
AcDbEntity
  8
0
  6
CONTINUOUS
 62
     7
100
AcDbLine
 10
2473.6322036466
 20
1867.4288015921
 30
0.0
 11
2487.3668653878
 21
1881.1634700853
 31
0.0
  0
LINE
  5
1FC
330
1F
100
AcDbEntity
  8
0
  6
CONTINUOUS
 62
     7
100
AcDbLine
 10
2502.8037764119
 20
1867.4288015921
 30
0.0
 11
2473.6322036466
 21
1867.4288015921
 31
0.0
  0
LINE
  5
1FD
330
1F
100
AcDbEntity
  8
0
  6
CONTINUOUS
 62
     7
100
AcDbLine
 10
2489.0993554132
 20
1881.1332207281
 30
0.0
 11
2502.8037764119
 21
1867.4288015921
 31
0.0
  0
LINE
  5
1FE
330
1F
100
AcDbEntity
  8
0
  6
CONTINUOUS
 62
     7
100
AcDbLine
 10
2489.0993554132
 20
1881.1332207281
 30
0.0
 11
2487.3668653878
 21
1881.1634700853
 31
0.0
  0
LINE
  5
1FF
330
1F
100
AcDbEntity
  8
0
  6
CONTINUOUS
 62
     7
100
AcDbLine
 10
2568.2179909187
 20
1868.8430111963
 30
0.0
 11
2557.1150016027
 21
1879.9460154135
 31
0.0
  0
LINE
  5
200
330
1F
100
AcDbEntity
  8
0
  6
CONTINUOUS
 62
     7
100
AcDbLine
 10
2568.2179909187
 20
1868.8430111963
 30
0.0
 11
2578.9400245982
 21
1879.5650523264
 31
0.0
  0
LINE
  5
201
330
1F
100
AcDbEntity
  8
0
  6
CONTINUOUS
 62
     7
100
AcDbLine
 10
2578.9400245982
 20
1879.5650523264
 30
0.0
 11
2557.1150016027
 21
1879.9460154135
 31
0.0
  0
LINE
  5
202
330
1F
100
AcDbEntity
  8
0
  6
CONTINUOUS
 62
     7
100
AcDbLine
 10
2537.6322027283
 20
1867.4288015921
 30
0.0
 11
2550.2689089613
 21
1880.0655227263
 31
0.0
  0
LINE
  5
203
330
1F
100
AcDbEntity
  8
0
  6
CONTINUOUS
 62
     7
100
AcDbLine
 10
2566.8037738638
 20
1867.4288015921
 30
0.0
 11
2537.6322027283
 21
1867.4288015921
 31
0.0
  0
LINE
  5
204
330
1F
100
AcDbEntity
  8
0
  6
CONTINUOUS
 62
     7
100
AcDbLine
 10
2554.236328228
 20
1879.996262129
 30
0.0
 11
2566.8037738638
 21
1867.4288015921
 31
0.0
  0
LINE
  5
205
330
1F
100
AcDbEntity
  8
0
  6
CONTINUOUS
 62
     7
100
AcDbLine
 10
2554.236328228
 20
1879.996262129
 30
0.0
 11
2550.2689089613
 21
1880.0655227263
 31
0.0
  0
LINE
  5
206
330
1F
100
AcDbEntity
  8
0
  6
CONTINUOUS
 62
     7
100
AcDbLine
 10
2632.2179865079
 20
1868.8430111963
 30
0.0
 11
2622.2519706922
 21
1878.8090270121
 31
0.0
  0
LINE
  5
207
330
1F
100
AcDbEntity
  8
0
  6
CONTINUOUS
 62
     7
100
AcDbLine
 10
2632.2179865079
 20
1868.8430111963
 30
0.0
 11
2641.8420653777
 21
1878.4671049673
 31
0.0
  0
LINE
  5
208
330
1F
100
AcDbEntity
  8
0
  6
CONTINUOUS
 62
     7
100
AcDbLine
 10
2641.8420653777
 20
1878.4671049673
 30
0.0
 11
2622.2519706922
 21
1878.8090270121
 31
0.0
  0
LINE
  5
209
330
1F
100
AcDbEntity
  8
0
  6
CONTINUOUS
 62
     7
100
AcDbLine
 10
2601.6322057681
 20
1867.4288015921
 30
0.0
 11
2613.1709497409
 21
1878.9675455648
 31
0.0
  0
LINE
  5
20A
330
1F
100
AcDbEntity
  8
0
  6
CONTINUOUS
 62
     7
100
AcDbLine
 10
2630.8037769037
 20
1867.4288015921
 30
0.0
 11
2601.6322057681
 21
1867.4288015921
 31
0.0
  0
LINE
  5
20B
330
1F
100
AcDbEntity
  8
0
  6
CONTINUOUS
 62
     7
100
AcDbLine
 10
2619.373289867
 20
1878.8592737276
 30
0.0
 11
2630.8037769037
 21
1867.4288015921
 31
0.0
  0
LINE
  5
20C
330
1F
100
AcDbEntity
  8
0
  6
CONTINUOUS
 62
     7
100
AcDbLine
 10
2619.373289867
 20
1878.8592737276
 30
0.0
 11
2613.1709497409
 21
1878.9675455648
 31
0.0
  0
LINE
  5
20D
330
1F
100
AcDbEntity
  8
0
  6
CONTINUOUS
 62
     7
100
AcDbLine
 10
2457.0691147806
 20
1881.1634700853
 30
0.0
 11
2470.8037765218
 21
1867.4288015921
 31
0.0
  0
LINE
  5
20E
330
1F
100
AcDbEntity
  8
0
  6
CONTINUOUS
 62
     7
100
AcDbLine
 10
2457.0691147806
 20
1881.1634700853
 30
0.0
 11
2455.3366247552
 21
1881.1332207281
 31
0.0
  0
LINE
  5
20F
330
1F
100
AcDbEntity
  8
0
  6
CONTINUOUS
 62
     7
100
AcDbLine
 10
2441.6322037565
 20
1867.4288015921
 30
0.0
 11
2455.3366247552
 21
1881.1332207281
 31
0.0
  0
LINE
  5
210
330
1F
100
AcDbEntity
  8
0
  6
CONTINUOUS
 62
     7
100
AcDbLine
 10
2470.8037765218
 20
1867.4288015921
 30
0.0
 11
2441.6322037565
 21
1867.4288015921
 31
0.0
  0
LINE
  5
211
330
1F
100
AcDbEntity
  8
0
  6
CONTINUOUS
 62
     7
100
AcDbLine
 10
2440.2179885643
 20
1868.8430111963
 30
0.0
 11
2452.4579495179
 21
1881.0829740126
 31
0.0
  0
LINE
  5
212
330
1F
100
AcDbEntity
  8
0
  6
CONTINUOUS
 62
     7
100
AcDbLine
 10
2452.4579495179
 20
1881.0829740126
 30
0.0
 11
2428.3980000751
 21
1880.6629996855
 31
0.0
  0
LINE
  5
213
330
1F
100
AcDbEntity
  8
0
  6
CONTINUOUS
 62
     7
100
AcDbLine
 10
2440.2179885643
 20
1868.8430111963
 30
0.0
 11
2428.3980000751
 21
1880.6629996855
 31
0.0
  0
LINE
  5
214
330
1F
100
AcDbEntity
  8
0
  6
CONTINUOUS
 62
     7
100
AcDbLine
 10
2394.1670712071
 20
1880.0655227263
 30
0.0
 11
2406.8037774401
 21
1867.4288015921
 31
0.0
  0
LINE
  5
215
330
1F
100
AcDbEntity
  8
0
  6
CONTINUOUS
 62
     7
100
AcDbLine
 10
2394.1670712071
 20
1880.0655227263
 30
0.0
 11
2390.1996519404
 21
1879.996262129
 31
0.0
  0
LINE
  5
216
330
1F
100
AcDbEntity
  8
0
  6
CONTINUOUS
 62
     7
100
AcDbLine
 10
2377.6322063046
 20
1867.4288015921
 30
0.0
 11
2390.1996519404
 21
1879.996262129
 31
0.0
  0
LINE
  5
217
330
1F
100
AcDbEntity
  8
0
  6
CONTINUOUS
 62
     7
100
AcDbLine
 10
2406.8037774401
 20
1867.4288015921
 30
0.0
 11
2377.6322063046
 21
1867.4288015921
 31
0.0
  0
LINE
  5
218
330
1F
100
AcDbEntity
  8
0
  6
CONTINUOUS
 62
     7
100
AcDbLine
 10
2376.2179892497
 20
1868.8430111963
 30
0.0
 11
2387.3209785657
 21
1879.9460154135
 31
0.0
  0
LINE
  5
219
330
1F
100
AcDbEntity
  8
0
  6
CONTINUOUS
 62
     7
100
AcDbLine
 10
2387.3209785657
 20
1879.9460154135
 30
0.0
 11
2365.4959555703
 21
1879.5650523264
 31
0.0
  0
LINE
  5
21A
330
1F
100
AcDbEntity
  8
0
  6
CONTINUOUS
 62
     7
100
AcDbLine
 10
2376.2179892497
 20
1868.8430111963
 30
0.0
 11
2365.4959555703
 21
1879.5650523264
 31
0.0
  0
LINE
  5
21B
330
1F
100
AcDbEntity
  8
0
  6
CONTINUOUS
 62
     7
100
AcDbLine
 10
2331.2650304275
 20
1878.9675455648
 30
0.0
 11
2342.8037744003
 21
1867.4288015921
 31
0.0
  0
LINE
  5
21C
330
1F
100
AcDbEntity
  8
0
  6
CONTINUOUS
 62
     7
100
AcDbLine
 10
2331.2650304275
 20
1878.9675455648
 30
0.0
 11
2325.0626903015
 21
1878.8592737276
 31
0.0
  0
LINE
  5
21D
330
1F
100
AcDbEntity
  8
0
  6
CONTINUOUS
 62
     7
100
AcDbLine
 10
2313.6322032647
 20
1867.4288015921
 30
0.0
 11
2325.0626903015
 21
1878.8592737276
 31
0.0
  0
LINE
  5
21E
330
1F
100
AcDbEntity
  8
0
  6
CONTINUOUS
 62
     7
100
AcDbLine
 10
2342.8037744003
 20
1867.4288015921
 30
0.0
 11
2313.6322032647
 21
1867.4288015921
 31
0.0
  0
LINE
  5
21F
330
1F
100
AcDbEntity
  8
0
  6
CONTINUOUS
 62
     7
100
AcDbLine
 10
2312.2179936605
 20
1868.8430111963
 30
0.0
 11
2322.1840094762
 21
1878.8090270121
 31
0.0
  0
LINE
  5
220
330
1F
100
AcDbEntity
  8
0
  6
CONTINUOUS
 62
     7
100
AcDbLine
 10
2322.1840094762
 20
1878.8090270121
 30
0.0
 11
2302.5939147907
 21
1878.4671049673
 31
0.0
  0
LINE
  5
221
330
1F
100
AcDbEntity
  8
0
  6
CONTINUOUS
 62
     7
100
AcDbLine
 10
2312.2179936605
 20
1868.8430111963
 30
0.0
 11
2302.5939147907
 21
1878.4671049673
 31
0.0
  0
LINE
  5
222
330
1F
100
AcDbEntity
  8
0
  6
CONTINUOUS
 62
     7
100
AcDbLine
 10
2693.2179909187
 20
1736.8430119116
 30
0.0
 11
2681.1322104173
 21
1748.9288073141
 31
0.0
  0
LINE
  5
223
330
1F
100
AcDbEntity
  8
0
  6
CONTINUOUS
 62
     7
100
AcDbLine
 10
2693.2179909187
 20
1736.8430119116
 30
0.0
 11
2693.2179909187
 21
1761.0145878155
 31
0.0
  0
LINE
  5
224
330
1F
100
AcDbEntity
  8
0
  6
CONTINUOUS
 62
     7
100
AcDbLine
 10
2681.1322104173
 20
1748.9288073141
 30
0.0
 11
2693.2179909187
 21
1761.0145878155
 31
0.0
  0
LINE
  5
225
330
1F
100
AcDbEntity
  8
0
  6
CONTINUOUS
 62
     7
100
AcDbLine
 10
2679.7179859119
 20
1718.3430265743
 30
0.0
 11
2679.7179859119
 21
1747.5145977098
 31
0.0
  0
LINE
  5
226
330
1F
100
AcDbEntity
  8
0
  6
CONTINUOUS
 62
     7
100
AcDbLine
 10
2679.7179859119
 20
1718.3430265743
 30
0.0
 11
2693.2179909187
 21
1731.84301668
 31
0.0
  0
LINE
  5
227
330
1F
100
AcDbEntity
  8
0
  6
CONTINUOUS
 62
     7
100
AcDbLine
 10
2693.2179909187
 20
1731.84301668
 30
0.0
 11
2693.2179909187
 21
1734.0145927031
 31
0.0
  0
LINE
  5
228
330
1F
100
AcDbEntity
  8
0
  6
CONTINUOUS
 62
     7
100
AcDbLine
 10
2679.7179859119
 20
1747.5145977098
 30
0.0
 11
2693.2179909187
 21
1734.0145927031
 31
0.0
  0
LINE
  5
229
330
1F
100
AcDbEntity
  8
0
  6
CONTINUOUS
 62
     7
100
AcDbLine
 10
2693.2179909187
 20
1768.8430171568
 30
0.0
 11
2681.1322104173
 21
1780.9288125593
 31
0.0
  0
LINE
  5
22A
330
1F
100
AcDbEntity
  8
0
  6
CONTINUOUS
 62
     7
100
AcDbLine
 10
2693.2179909187
 20
1768.8430171568
 30
0.0
 11
2693.2179909187
 21
1793.0145930607
 31
0.0
  0
LINE
  5
22B
330
1F
100
AcDbEntity
  8
0
  6
CONTINUOUS
 62
     7
100
AcDbLine
 10
2681.1322104173
 20
1780.9288125593
 30
0.0
 11
2693.2179909187
 21
1793.0145930607
 31
0.0
  0
LINE
  5
22C
330
1F
100
AcDbEntity
  8
0
  6
CONTINUOUS
 62
     7
100
AcDbLine
 10
2679.7179859119
 20
1750.3430169184
 30
0.0
 11
2679.7179859119
 21
1779.5145880539
 31
0.0
  0
LINE
  5
22D
330
1F
100
AcDbEntity
  8
0
  6
CONTINUOUS
 62
     7
100
AcDbLine
 10
2679.7179859119
 20
1750.3430169184
 30
0.0
 11
2693.2179909187
 21
1763.8430219252
 31
0.0
  0
LINE
  5
22E
330
1F
100
AcDbEntity
  8
0
  6
CONTINUOUS
 62
     7
100
AcDbLine
 10
2693.2179909187
 20
1763.8430219252
 30
0.0
 11
2693.2179909187
 21
1766.0145979483
 31
0.0
  0
LINE
  5
22F
330
1F
100
AcDbEntity
  8
0
  6
CONTINUOUS
 62
     7
100
AcDbLine
 10
2679.7179859119
 20
1779.5145880539
 30
0.0
 11
2693.2179909187
 21
1766.0145979483
 31
0.0
  0
LINE
  5
230
330
1F
100
AcDbEntity
  8
0
  6
CONTINUOUS
 62
     7
100
AcDbLine
 10
2693.2179909187
 20
1800.843022402
 30
0.0
 11
2681.1322104173
 21
1812.9288178045
 31
0.0
  0
LINE
  5
231
330
1F
100
AcDbEntity
  8
0
  6
CONTINUOUS
 62
     7
100
AcDbLine
 10
2693.2179909187
 20
1800.843022402
 30
0.0
 11
2693.2179909187
 21
1825.0145834047
 31
0.0
  0
LINE
  5
232
330
1F
100
AcDbEntity
  8
0
  6
CONTINUOUS
 62
     7
100
AcDbLine
 10
2681.1322104173
 20
1812.9288178045
 30
0.0
 11
2693.2179909187
 21
1825.0145834047
 31
0.0
  0
LINE
  5
233
330
1F
100
AcDbEntity
  8
0
  6
CONTINUOUS
 62
     7
100
AcDbLine
 10
2679.7179859119
 20
1782.3430221636
 30
0.0
 11
2679.7179859119
 21
1811.5145783979
 31
0.0
  0
LINE
  5
234
330
1F
100
AcDbEntity
  8
0
  6
CONTINUOUS
 62
     7
100
AcDbLine
 10
2679.7179859119
 20
1782.3430221636
 30
0.0
 11
2693.2179909187
 21
1795.8430122692
 31
0.0
  0
LINE
  5
235
330
1F
100
AcDbEntity
  8
0
  6
CONTINUOUS
 62
     7
100
AcDbLine
 10
2693.2179909187
 20
1795.8430122692
 30
0.0
 11
2693.2179909187
 21
1798.0145882923
 31
0.0
  0
LINE
  5
236
330
1F
100
AcDbEntity
  8
0
  6
CONTINUOUS
 62
     7
100
AcDbLine
 10
2679.7179859119
 20
1811.5145783979
 30
0.0
 11
2693.2179909187
 21
1798.0145882923
 31
0.0
  0
LINE
  5
237
330
1F
100
AcDbEntity
  8
0
  6
CONTINUOUS
 62
     7
100
AcDbLine
 10
2679.7179859119
 20
1814.3430274088
 30
0.0
 11
2679.7179859119
 21
1843.5145836432
 31
0.0
  0
LINE
  5
238
330
1F
100
AcDbEntity
  8
0
  6
CONTINUOUS
 62
     7
100
AcDbLine
 10
2679.7179859119
 20
1814.3430274088
 30
0.0
 11
2693.2179909187
 21
1827.8430324156
 31
0.0
  0
LINE
  5
239
330
1F
100
AcDbEntity
  8
0
  6
CONTINUOUS
 62
     7
100
AcDbLine
 10
2693.2179909187
 20
1827.8430324156
 30
0.0
 11
2693.2179909187
 21
1830.0145786364
 31
0.0
  0
LINE
  5
23A
330
1F
100
AcDbEntity
  8
0
  6
CONTINUOUS
 62
     7
100
AcDbLine
 10
2679.7179859119
 20
1843.5145836432
 30
0.0
 11
2693.2179909187
 21
1830.0145786364
 31
0.0
  0
LINE
  5
23B
330
1F
100
AcDbEntity
  8
0
  6
CONTINUOUS
 62
     7
100
AcDbLine
 10
2693.2179909187
 20
1832.8430276472
 30
0.0
 11
2681.1322104173
 21
1844.9287932474
 31
0.0
  0
LINE
  5
23C
330
1F
100
AcDbEntity
  8
0
  6
CONTINUOUS
 62
     7
100
AcDbLine
 10
2693.2179909187
 20
1832.8430276472
 30
0.0
 11
2693.2179909187
 21
1854.4288199503
 31
0.0
  0
ARC
  5
23D
330
1F
100
AcDbEntity
  8
0
  6
CONTINUOUS
 62
     7
100
AcDbCircle
 10
2692.2179900842
 20
1854.4288056452
 30
0.0
 40
1.000000000000008
100
AcDbArc
 50
0.0
 51
45.0
  0
LINE
  5
23E
330
1F
100
AcDbEntity
  8
0
  6
CONTINUOUS
 62
     7
100
AcDbLine
 10
2692.9250936942
 20
1855.1359098513
 30
0.0
 11
2692.1322029071
 21
1855.9288006384
 31
0.0
  0
LINE
  5
23F
330
1F
100
AcDbEntity
  8
0
  6
CONTINUOUS
 62
     7
100
AcDbLine
 10
2681.1322104173
 20
1844.9287932474
 30
0.0
 11
2692.1322029071
 21
1855.9288006384
 31
0.0
  0
LINE
  5
240
330
1F
100
AcDbEntity
  8
0
  6
CONTINUOUS
 62
     7
100
AcDbLine
 10
2668.2179849582
 20
1867.4288015921
 30
0.0
 11
2665.6322013574
 21
1867.4288015921
 31
0.0
  0
ARC
  5
241
330
1F
100
AcDbEntity
  8
0
  6
CONTINUOUS
 62
     7
100
AcDbCircle
 10
2668.2179900842
 20
1855.9288056452
 30
0.0
 40
11.5
100
AcDbArc
 50
0.0
 51
90.0
  0
LINE
  5
242
330
1F
100
AcDbEntity
  8
0
  6
CONTINUOUS
 62
     7
100
AcDbLine
 10
2679.7179859119
 20
1846.343032654
 30
0.0
 11
2679.7179859119
 21
1855.9288006384
 31
0.0
  0
LINE
  5
243
330
1F
100
AcDbEntity
  8
0
  6
CONTINUOUS
 62
     7
100
AcDbLine
 10
2679.7179859119
 20
1846.343032654
 30
0.0
 11
2690.7179933029
 21
1857.3430102427
 31
0.0
  0
LINE
  5
244
330
1F
100
AcDbEntity
  8
0
  6
CONTINUOUS
 62
     7
100
AcDbLine
 10
2690.7179933029
 20
1857.3430102427
 30
0.0
 11
2673.132209106
 21
1874.9287944395
 31
0.0
  0
LINE
  5
245
330
1F
100
AcDbEntity
  8
0
  6
CONTINUOUS
 62
     7
100
AcDbLine
 10
2665.6322013574
 20
1867.4288015921
 30
0.0
 11
2673.132209106
 21
1874.9287944395
 31
0.0
  0
LINE
  5
246
330
1F
100
AcDbEntity
  8
0
  6
CONTINUOUS
 62
     7
100
AcDbLine
 10
2664.2179917531
 20
1868.8430111963
 30
0.0
 11
2671.7179846006
 21
1876.3430338461
 31
0.0
  0
LINE
  5
247
330
1F
100
AcDbEntity
  8
0
  6
CONTINUOUS
 62
     7
100
AcDbLine
 10
2671.7179846006
 20
1876.3430338461
 30
0.0
 11
2670.372618361
 21
1877.6884000856
 31
0.0
  0
ARC
  5
248
330
1F
100
AcDbEntity
  8
0
  6
CONTINUOUS
 62
     7
100
AcDbCircle
 10
2669.6655157611
 20
1876.9812799683
 30
0.0
 40
1.00000000000046
100
AcDbArc
 50
45.0
 51
89.0
  0
LINE
  5
249
330
1F
100
AcDbEntity
  8
0
  6
CONTINUOUS
 62
     7
100
AcDbLine
 10
2669.6829628187
 20
1877.9811184961
 30
0.0
 11
2654.8204552369
 21
1878.2405477125
 31
0.0
  0
LINE
  5
24A
330
1F
100
AcDbEntity
  8
0
  6
CONTINUOUS
 62
     7
100
AcDbLine
 10
2664.2179917531
 20
1868.8430111963
 30
0.0
 11
2654.8204552369
 21
1878.2405477125
 31
0.0
  0
LINE
  5
24B
330
1F
100
AcDbEntity
  8
0
  6
CONTINUOUS
 62
     7
100
AcDbLine
 10
2679.7179859119
 20
1654.3430160839
 30
0.0
 11
2679.7179859119
 21
1683.5145872194
 31
0.0
  0
LINE
  5
24C
330
1F
100
AcDbEntity
  8
0
  6
CONTINUOUS
 62
     7
100
AcDbLine
 10
2679.7179859119
 20
1654.3430160839
 30
0.0
 11
2693.2179909187
 21
1667.8430210907
 31
0.0
  0
LINE
  5
24D
330
1F
100
AcDbEntity
  8
0
  6
CONTINUOUS
 62
     7
100
AcDbLine
 10
2693.2179909187
 20
1667.8430210907
 30
0.0
 11
2693.2179909187
 21
1670.0145896632
 31
0.0
  0
LINE
  5
24E
330
1F
100
AcDbEntity
  8
0
  6
CONTINUOUS
 62
     7
100
AcDbLine
 10
2679.7179859119
 20
1683.5145872194
 30
0.0
 11
2693.2179909187
 21
1670.0145896632
 31
0.0
  0
LINE
  5
24F
330
1F
100
AcDbEntity
  8
0
  6
CONTINUOUS
 62
     7
100
AcDbLine
 10
2693.2179909187
 20
1672.8430163223
 30
0.0
 11
2681.1322104173
 21
1684.9288117249
 31
0.0
  0
LINE
  5
250
330
1F
100
AcDbEntity
  8
0
  6
CONTINUOUS
 62
     7
100
AcDbLine
 10
2693.2179909187
 20
1672.8430163223
 30
0.0
 11
2693.2179909187
 21
1697.0145922262
 31
0.0
  0
LINE
  5
251
330
1F
100
AcDbEntity
  8
0
  6
CONTINUOUS
 62
     7
100
AcDbLine
 10
2681.1322104173
 20
1684.9288117249
 30
0.0
 11
2693.2179909187
 21
1697.0145922262
 31
0.0
  0
LINE
  5
252
330
1F
100
AcDbEntity
  8
0
  6
CONTINUOUS
 62
     7
100
AcDbLine
 10
2679.7179859119
 20
1622.3430182893
 30
0.0
 11
2679.7179859119
 21
1651.5145894248
 31
0.0
  0
LINE
  5
253
330
1F
100
AcDbEntity
  8
0
  6
CONTINUOUS
 62
     7
100
AcDbLine
 10
2679.7179859119
 20
1622.3430182893
 30
0.0
 11
2693.2179909187
 21
1635.8430158455
 31
0.0
  0
LINE
  5
254
330
1F
100
AcDbEntity
  8
0
  6
CONTINUOUS
 62
     7
100
AcDbLine
 10
2693.2179909187
 20
1635.8430158455
 30
0.0
 11
2693.2179909187
 21
1638.0145918686
 31
0.0
  0
LINE
  5
255
330
1F
100
AcDbEntity
  8
0
  6
CONTINUOUS
 62
     7
100
AcDbLine
 10
2679.7179859119
 20
1651.5145894248
 30
0.0
 11
2693.2179909187
 21
1638.0145918686
 31
0.0
  0
LINE
  5
256
330
1F
100
AcDbEntity
  8
0
  6
CONTINUOUS
 62
     7
100
AcDbLine
 10
2693.2179909187
 20
1640.8430185277
 30
0.0
 11
2681.1322104173
 21
1652.9288064796
 31
0.0
  0
LINE
  5
257
330
1F
100
AcDbEntity
  8
0
  6
CONTINUOUS
 62
     7
100
AcDbLine
 10
2693.2179909187
 20
1640.8430185277
 30
0.0
 11
2693.2179909187
 21
1665.0145944316
 31
0.0
  0
LINE
  5
258
330
1F
100
AcDbEntity
  8
0
  6
CONTINUOUS
 62
     7
100
AcDbLine
 10
2681.1322104173
 20
1652.9288064796
 30
0.0
 11
2693.2179909187
 21
1665.0145944316
 31
0.0
  0
LINE
  5
259
330
1F
100
AcDbEntity
  8
0
  6
CONTINUOUS
 62
     7
100
AcDbLine
 10
2679.7179859119
 20
1590.3430204947
 30
0.0
 11
2679.7179859119
 21
1619.5145916302
 31
0.0
  0
LINE
  5
25A
330
1F
100
AcDbEntity
  8
0
  6
CONTINUOUS
 62
     7
100
AcDbLine
 10
2679.7179859119
 20
1590.3430204947
 30
0.0
 11
2693.2179909187
 21
1603.8430180509
 31
0.0
  0
LINE
  5
25B
330
1F
100
AcDbEntity
  8
0
  6
CONTINUOUS
 62
     7
100
AcDbLine
 10
2693.2179909187
 20
1603.8430180509
 30
0.0
 11
2693.2179909187
 21
1606.0145903487
 31
0.0
  0
LINE
  5
25C
330
1F
100
AcDbEntity
  8
0
  6
CONTINUOUS
 62
     7
100
AcDbLine
 10
2679.7179859119
 20
1619.5145916302
 30
0.0
 11
2693.2179909187
 21
1606.0145903487
 31
0.0
  0
LINE
  5
25D
330
1F
100
AcDbEntity
  8
0
  6
CONTINUOUS
 62
     7
100
AcDbLine
 10
2693.2179909187
 20
1608.8430207331
 30
0.0
 11
2681.1322104173
 21
1620.928808685
 31
0.0
  0
LINE
  5
25E
330
1F
100
AcDbEntity
  8
0
  6
CONTINUOUS
 62
     7
100
AcDbLine
 10
2693.2179909187
 20
1608.8430207331
 30
0.0
 11
2693.2179909187
 21
1633.0145891864
 31
0.0
  0
LINE
  5
25F
330
1F
100
AcDbEntity
  8
0
  6
CONTINUOUS
 62
     7
100
AcDbLine
 10
2681.1322104173
 20
1620.928808685
 30
0.0
 11
2693.2179909187
 21
1633.0145891864
 31
0.0
  0
LINE
  5
260
330
1F
100
AcDbEntity
  8
0
  6
CONTINUOUS
 62
     7
100
AcDbLine
 10
2679.7179859119
 20
1558.3430192076
 30
0.0
 11
2679.7179859119
 21
1587.5145919729
 31
0.0
  0
LINE
  5
261
330
1F
100
AcDbEntity
  8
0
  6
CONTINUOUS
 62
     7
100
AcDbLine
 10
2679.7179859119
 20
1558.3430192076
 30
0.0
 11
2693.2179909187
 21
1571.8430193249
 31
0.0
  0
LINE
  5
262
330
1F
100
AcDbEntity
  8
0
  6
CONTINUOUS
 62
     7
100
AcDbLine
 10
2693.2179909187
 20
1571.8430193249
 30
0.0
 11
2693.2179909187
 21
1574.014592554
 31
0.0
  0
LINE
  5
263
330
1F
100
AcDbEntity
  8
0
  6
CONTINUOUS
 62
     7
100
AcDbLine
 10
2679.7179859119
 20
1587.5145919729
 30
0.0
 11
2693.2179909187
 21
1574.014592554
 31
0.0
  0
LINE
  5
264
330
1F
100
AcDbEntity
  8
0
  6
CONTINUOUS
 62
     7
100
AcDbLine
 10
2693.2179909187
 20
1576.8430192132
 30
0.0
 11
2681.1322104173
 21
1588.9288071651
 31
0.0
  0
LINE
  5
265
330
1F
100
AcDbEntity
  8
0
  6
CONTINUOUS
 62
     7
100
AcDbLine
 10
2693.2179909187
 20
1576.8430192132
 30
0.0
 11
2693.2179909187
 21
1601.0145913918
 31
0.0
  0
LINE
  5
266
330
1F
100
AcDbEntity
  8
0
  6
CONTINUOUS
 62
     7
100
AcDbLine
 10
2681.1322104173
 20
1588.9288071651
 30
0.0
 11
2693.2179909187
 21
1601.0145913918
 31
0.0
  0
CIRCLE
  5
267
330
1F
100
AcDbEntity
  8
0
  6
CONTINUOUS
 62
     7
100
AcDbCircle
 10
2667.2179900842
 20
1556.9288056452
 30
0.0
 40
2.5
  0
LINE
  5
268
330
1F
100
AcDbEntity
  8
0
  6
CONTINUOUS
 62
     7
100
AcDbLine
 10
2693.2179909187
 20
1544.8430195559
 30
0.0
 11
2681.1322104173
 21
1556.9288056452
 31
0.0
  0
LINE
  5
269
330
1F
100
AcDbEntity
  8
0
  6
CONTINUOUS
 62
     7
100
AcDbLine
 10
2693.2179909187
 20
1544.8430195559
 30
0.0
 11
2693.2179909187
 21
1569.0145917345
 31
0.0
  0
LINE
  5
26A
330
1F
100
AcDbEntity
  8
0
  6
CONTINUOUS
 62
     7
100
AcDbLine
 10
2681.1322104173
 20
1556.9288056452
 30
0.0
 11
2693.2179909187
 21
1569.0145917345
 31
0.0
  0
LINE
  5
26B
330
1F
100
AcDbEntity
  8
0
  6
CONTINUOUS
 62
     7
100
AcDbLine
 10
2670.372618361
 20
1236.1692112047
 30
0.0
 11
2671.7179846006
 21
1237.5145774443
 31
0.0
  0
LINE
  5
26C
330
1F
100
AcDbEntity
  8
0
  6
CONTINUOUS
 62
     7
100
AcDbLine
 10
2664.2179917531
 20
1245.014600094
 30
0.0
 11
2671.7179846006
 21
1237.5145774443
 31
0.0
  0
LINE
  5
26D
330
1F
100
AcDbEntity
  8
0
  6
CONTINUOUS
 62
     7
100
AcDbLine
 10
2654.8204552369
 20
1235.6170635778
 30
0.0
 11
2664.2179917531
 21
1245.014600094
 31
0.0
  0
LINE
  5
26E
330
1F
100
AcDbEntity
  8
0
  6
CONTINUOUS
 62
     7
100
AcDbLine
 10
2654.8204552369
 20
1235.6170635778
 30
0.0
 11
2669.6829628187
 21
1235.8764927942
 31
0.0
  0
ARC
  5
26F
330
1F
100
AcDbEntity
  8
0
  6
CONTINUOUS
 62
     7
100
AcDbCircle
 10
2669.6655157611
 20
1236.8763313221
 30
0.0
 40
0.9999999999999978
100
AcDbArc
 50
271.0
 51
315.0
  0
LINE
  5
270
330
1F
100
AcDbEntity
  8
0
  6
CONTINUOUS
 62
     7
100
AcDbLine
 10
2690.7179933029
 20
1256.5146010477
 30
0.0
 11
2679.7179859119
 21
1267.5145786364
 31
0.0
  0
LINE
  5
271
330
1F
100
AcDbEntity
  8
0
  6
CONTINUOUS
 62
     7
100
AcDbLine
 10
2679.7179859119
 20
1257.928810652
 30
0.0
 11
2679.7179859119
 21
1267.5145786364
 31
0.0
  0
ARC
  5
272
330
1F
100
AcDbEntity
  8
0
  6
CONTINUOUS
 62
     7
100
AcDbCircle
 10
2668.2179900842
 20
1257.9288056452
 30
0.0
 40
11.5
100
AcDbArc
 50
270.0
 51
0.0
  0
LINE
  5
273
330
1F
100
AcDbEntity
  8
0
  6
CONTINUOUS
 62
     7
100
AcDbLine
 10
2665.6322013574
 20
1246.4288096983
 30
0.0
 11
2668.2179849582
 21
1246.4288096983
 31
0.0
  0
LINE
  5
274
330
1F
100
AcDbEntity
  8
0
  6
CONTINUOUS
 62
     7
100
AcDbLine
 10
2665.6322013574
 20
1246.4288096983
 30
0.0
 11
2673.132209106
 21
1238.9288168509
 31
0.0
  0
LINE
  5
275
330
1F
100
AcDbEntity
  8
0
  6
CONTINUOUS
 62
     7
100
AcDbLine
 10
2673.132209106
 20
1238.9288168509
 30
0.0
 11
2690.7179933029
 21
1256.5146010477
 31
0.0
  0
CIRCLE
  5
276
330
1F
100
AcDbEntity
  8
0
  6
CONTINUOUS
 62
     7
100
AcDbCircle
 10
2667.2179900842
 20
1261.9288056452
 30
0.0
 40
2.5
  0
LINE
  5
277
330
1F
100
AcDbEntity
  8
0
  6
CONTINUOUS
 62
     7
100
AcDbLine
 10
2693.2179909187
 20
1283.843032654
 30
0.0
 11
2693.2179909187
 21
1286.0145788748
 31
0.0
  0
LINE
  5
278
330
1F
100
AcDbEntity
  8
0
  6
CONTINUOUS
 62
     7
100
AcDbLine
 10
2679.7179859119
 20
1299.5145838816
 30
0.0
 11
2693.2179909187
 21
1286.0145788748
 31
0.0
  0
LINE
  5
279
330
1F
100
AcDbEntity
  8
0
  6
CONTINUOUS
 62
     7
100
AcDbLine
 10
2679.7179859119
 20
1270.3430276472
 30
0.0
 11
2679.7179859119
 21
1299.5145838816
 31
0.0
  0
LINE
  5
27A
330
1F
100
AcDbEntity
  8
0
  6
CONTINUOUS
 62
     7
100
AcDbLine
 10
2679.7179859119
 20
1270.3430276472
 30
0.0
 11
2693.2179909187
 21
1283.843032654
 31
0.0
  0
ARC
  5
27B
330
1F
100
AcDbEntity
  8
0
  6
CONTINUOUS
 62
     7
100
AcDbCircle
 10
2692.2179900842
 20
1259.4288056452
 30
0.0
 40
1.000000000000169
100
AcDbArc
 50
315.0
 51
0.0
  0
LINE
  5
27C
330
1F
100
AcDbEntity
  8
0
  6
CONTINUOUS
 62
     7
100
AcDbLine
 10
2693.2179909187
 20
1259.4287913401
 30
0.0
 11
2693.2179909187
 21
1281.0145836432
 31
0.0
  0
LINE
  5
27D
330
1F
100
AcDbEntity
  8
0
  6
CONTINUOUS
 62
     7
100
AcDbLine
 10
2681.1322104173
 20
1268.9288180429
 30
0.0
 11
2693.2179909187
 21
1281.0145836432
 31
0.0
  0
LINE
  5
27E
330
1F
100
AcDbEntity
  8
0
  6
CONTINUOUS
 62
     7
100
AcDbLine
 10
2692.1322029071
 20
1257.928810652
 30
0.0
 11
2681.1322104173
 21
1268.9288180429
 31
0.0
  0
LINE
  5
27F
330
1F
100
AcDbEntity
  8
0
  6
CONTINUOUS
 62
     7
100
AcDbLine
 10
2692.1322029071
 20
1257.928810652
 30
0.0
 11
2692.9250936942
 21
1258.7217014391
 31
0.0
  0
LINE
  5
280
330
1F
100
AcDbEntity
  8
0
  6
CONTINUOUS
 62
     7
100
AcDbLine
 10
2679.7179859119
 20
1331.5145891268
 30
0.0
 11
2693.2179909187
 21
1318.0145990212
 31
0.0
  0
LINE
  5
281
330
1F
100
AcDbEntity
  8
0
  6
CONTINUOUS
 62
     7
100
AcDbLine
 10
2679.7179859119
 20
1302.3430328924
 30
0.0
 11
2679.7179859119
 21
1331.5145891268
 31
0.0
  0
LINE
  5
282
330
1F
100
AcDbEntity
  8
0
  6
CONTINUOUS
 62
     7
100
AcDbLine
 10
2679.7179859119
 20
1302.3430328924
 30
0.0
 11
2693.2179909187
 21
1315.843022998
 31
0.0
  0
LINE
  5
283
330
1F
100
AcDbEntity
  8
0
  6
CONTINUOUS
 62
     7
100
AcDbLine
 10
2693.2179909187
 20
1315.843022998
 30
0.0
 11
2693.2179909187
 21
1318.0145990212
 31
0.0
  0
LINE
  5
284
330
1F
100
AcDbEntity
  8
0
  6
CONTINUOUS
 62
     7
100
AcDbLine
 10
2681.1322104173
 20
1300.9287934858
 30
0.0
 11
2693.2179909187
 21
1313.0145888884
 31
0.0
  0
LINE
  5
285
330
1F
100
AcDbEntity
  8
0
  6
CONTINUOUS
 62
     7
100
AcDbLine
 10
2693.2179909187
 20
1288.8430278856
 30
0.0
 11
2681.1322104173
 21
1300.9287934858
 31
0.0
  0
LINE
  5
286
330
1F
100
AcDbEntity
  8
0
  6
CONTINUOUS
 62
     7
100
AcDbLine
 10
2693.2179909187
 20
1288.8430278856
 30
0.0
 11
2693.2179909187
 21
1313.0145888884
 31
0.0
  0
LINE
  5
287
330
1F
100
AcDbEntity
  8
0
  6
CONTINUOUS
 62
     7
100
AcDbLine
 10
2693.2179909187
 20
1347.8430133421
 30
0.0
 11
2693.2179909187
 21
1350.0145893652
 31
0.0
  0
LINE
  5
288
330
1F
100
AcDbEntity
  8
0
  6
CONTINUOUS
 62
     7
100
AcDbLine
 10
2679.7179859119
 20
1363.514594372
 30
0.0
 11
2693.2179909187
 21
1350.0145893652
 31
0.0
  0
LINE
  5
289
330
1F
100
AcDbEntity
  8
0
  6
CONTINUOUS
 62
     7
100
AcDbLine
 10
2679.7179859119
 20
1334.3430232365
 30
0.0
 11
2679.7179859119
 21
1363.514594372
 31
0.0
  0
LINE
  5
28A
330
1F
100
AcDbEntity
  8
0
  6
CONTINUOUS
 62
     7
100
AcDbLine
 10
2679.7179859119
 20
1334.3430232365
 30
0.0
 11
2693.2179909187
 21
1347.8430133421
 31
0.0
  0
LINE
  5
28B
330
1F
100
AcDbEntity
  8
0
  6
CONTINUOUS
 62
     7
100
AcDbLine
 10
2681.1322104173
 20
1332.928798731
 30
0.0
 11
2693.2179909187
 21
1345.0145941336
 31
0.0
  0
LINE
  5
28C
330
1F
100
AcDbEntity
  8
0
  6
CONTINUOUS
 62
     7
100
AcDbLine
 10
2693.2179909187
 20
1320.8430182297
 30
0.0
 11
2681.1322104173
 21
1332.928798731
 31
0.0
  0
LINE
  5
28D
330
1F
100
AcDbEntity
  8
0
  6
CONTINUOUS
 62
     7
100
AcDbLine
 10
2693.2179909187
 20
1320.8430182297
 30
0.0
 11
2693.2179909187
 21
1345.0145941336
 31
0.0
  0
LINE
  5
28E
330
1F
100
AcDbEntity
  8
0
  6
CONTINUOUS
 62
     7
100
AcDbLine
 10
2679.7179859119
 20
1395.514584716
 30
0.0
 11
2693.2179909187
 21
1382.0145946104
 31
0.0
  0
LINE
  5
28F
330
1F
100
AcDbEntity
  8
0
  6
CONTINUOUS
 62
     7
100
AcDbLine
 10
2679.7179859119
 20
1366.3430135805
 30
0.0
 11
2679.7179859119
 21
1395.514584716
 31
0.0
  0
LINE
  5
290
330
1F
100
AcDbEntity
  8
0
  6
CONTINUOUS
 62
     7
100
AcDbLine
 10
2679.7179859119
 20
1366.3430135805
 30
0.0
 11
2693.2179909187
 21
1379.8430185873
 31
0.0
  0
LINE
  5
291
330
1F
100
AcDbEntity
  8
0
  6
CONTINUOUS
 62
     7
100
AcDbLine
 10
2693.2179909187
 20
1379.8430185873
 30
0.0
 11
2693.2179909187
 21
1382.0145946104
 31
0.0
  0
LINE
  5
292
330
1F
100
AcDbEntity
  8
0
  6
CONTINUOUS
 62
     7
100
AcDbLine
 10
2681.1322104173
 20
1364.9288039763
 30
0.0
 11
2693.2179909187
 21
1377.0145993788
 31
0.0
  0
LINE
  5
293
330
1F
100
AcDbEntity
  8
0
  6
CONTINUOUS
 62
     7
100
AcDbLine
 10
2693.2179909187
 20
1352.8430234749
 30
0.0
 11
2681.1322104173
 21
1364.9288039763
 31
0.0
  0
LINE
  5
294
330
1F
100
AcDbEntity
  8
0
  6
CONTINUOUS
 62
     7
100
AcDbLine
 10
2693.2179909187
 20
1352.8430234749
 30
0.0
 11
2693.2179909187
 21
1377.0145993788
 31
0.0
  0
LINE
  5
295
330
1F
100
AcDbEntity
  8
0
  6
CONTINUOUS
 62
     7
100
AcDbLine
 10
2292.4942057567
 20
1235.5668168623
 30
0.0
 11
2299.814013763
 21
1235.4390543062
 31
0.0
  0
LINE
  5
296
330
1F
100
AcDbEntity
  8
0
  6
CONTINUOUS
 62
     7
100
AcDbLine
 10
2310.8037691551
 20
1246.4288096983
 30
0.0
 11
2299.814013763
 21
1235.4390543062
 31
0.0
  0
LINE
  5
297
330
1F
100
AcDbEntity
  8
0
  6
CONTINUOUS
 62
     7
100
AcDbLine
 10
2281.6321980195
 20
1246.4288096983
 30
0.0
 11
2310.8037691551
 21
1246.4288096983
 31
0.0
  0
LINE
  5
298
330
1F
100
AcDbEntity
  8
0
  6
CONTINUOUS
 62
     7
100
AcDbLine
 10
2281.6321980195
 20
1246.4288096983
 30
0.0
 11
2292.4942057567
 21
1235.5668168623
 31
0.0
  0
LINE
  5
299
330
1F
100
AcDbEntity
  8
0
  6
CONTINUOUS
 62
     7
100
AcDbLine
 10
2342.8037744003
 20
1246.4288096983
 30
0.0
 11
2331.2650304275
 21
1234.8900657255
 31
0.0
  0
LINE
  5
29A
330
1F
100
AcDbEntity
  8
0
  6
CONTINUOUS
 62
     7
100
AcDbLine
 10
2313.6322032647
 20
1246.4288096983
 30
0.0
 11
2342.8037744003
 21
1246.4288096983
 31
0.0
  0
LINE
  5
29B
330
1F
100
AcDbEntity
  8
0
  6
CONTINUOUS
 62
     7
100
AcDbLine
 10
2313.6322032647
 20
1246.4288096983
 30
0.0
 11
2325.0626903015
 21
1234.9983375628
 31
0.0
  0
LINE
  5
29C
330
1F
100
AcDbEntity
  8
0
  6
CONTINUOUS
 62
     7
100
AcDbLine
 10
2325.0626903015
 20
1234.9983375628
 30
0.0
 11
2331.2650304275
 21
1234.8900657255
 31
0.0
  0
LINE
  5
29D
330
1F
100
AcDbEntity
  8
0
  6
CONTINUOUS
 62
     7
100
AcDbLine
 10
2312.2179936605
 20
1245.014600094
 30
0.0
 11
2322.1840094762
 21
1235.0485842783
 31
0.0
  0
LINE
  5
29E
330
1F
100
AcDbEntity
  8
0
  6
CONTINUOUS
 62
     7
100
AcDbLine
 10
2302.5939147907
 20
1235.3905063231
 30
0.0
 11
2312.2179936605
 21
1245.014600094
 31
0.0
  0
LINE
  5
29F
330
1F
100
AcDbEntity
  8
0
  6
CONTINUOUS
 62
     7
100
AcDbLine
 10
2302.5939147907
 20
1235.3905063231
 30
0.0
 11
2322.1840094762
 21
1235.0485842783
 31
0.0
  0
LINE
  5
2A0
330
1F
100
AcDbEntity
  8
0
  6
CONTINUOUS
 62
     7
100
AcDbLine
 10
2374.8037796455
 20
1246.4288096983
 30
0.0
 11
2362.7160545426
 21
1234.3410771448
 31
0.0
  0
LINE
  5
2A1
330
1F
100
AcDbEntity
  8
0
  6
CONTINUOUS
 62
     7
100
AcDbLine
 10
2345.63220851
 20
1246.4288096983
 30
0.0
 11
2374.8037796455
 21
1246.4288096983
 31
0.0
  0
LINE
  5
2A2
330
1F
100
AcDbEntity
  8
0
  6
CONTINUOUS
 62
     7
100
AcDbLine
 10
2345.63220851
 20
1246.4288096983
 30
0.0
 11
2357.6311673956
 21
1234.4298284609
 31
0.0
  0
LINE
  5
2A3
330
1F
100
AcDbEntity
  8
0
  6
CONTINUOUS
 62
     7
100
AcDbLine
 10
2357.6311673956
 20
1234.4298284609
 30
0.0
 11
2362.7160545426
 21
1234.3410771448
 31
0.0
  0
LINE
  5
2A4
330
1F
100
AcDbEntity
  8
0
  6
CONTINUOUS
 62
     7
100
AcDbLine
 10
2344.2179840045
 20
1245.014600094
 30
0.0
 11
2354.752494021
 21
1234.4800751764
 31
0.0
  0
LINE
  5
2A5
330
1F
100
AcDbEntity
  8
0
  6
CONTINUOUS
 62
     7
100
AcDbLine
 10
2334.0449314552
 20
1234.8415475447
 30
0.0
 11
2344.2179840045
 21
1245.014600094
 31
0.0
  0
LINE
  5
2A6
330
1F
100
AcDbEntity
  8
0
  6
CONTINUOUS
 62
     7
100
AcDbLine
 10
2334.0449314552
 20
1234.8415475447
 30
0.0
 11
2354.752494021
 21
1234.4800751764
 31
0.0
  0
LINE
  5
2A7
330
1F
100
AcDbEntity
  8
0
  6
CONTINUOUS
 62
     7
100
AcDbLine
 10
2406.8037774401
 20
1246.4288096983
 30
0.0
 11
2394.1670712071
 21
1233.7920885641
 31
0.0
  0
LINE
  5
2A8
330
1F
100
AcDbEntity
  8
0
  6
CONTINUOUS
 62
     7
100
AcDbLine
 10
2377.6322063046
 20
1246.4288096983
 30
0.0
 11
2406.8037774401
 21
1246.4288096983
 31
0.0
  0
LINE
  5
2A9
330
1F
100
AcDbEntity
  8
0
  6
CONTINUOUS
 62
     7
100
AcDbLine
 10
2377.6322063046
 20
1246.4288096983
 30
0.0
 11
2390.1996519404
 21
1233.8613491613
 31
0.0
  0
LINE
  5
2AA
330
1F
100
AcDbEntity
  8
0
  6
CONTINUOUS
 62
     7
100
AcDbLine
 10
2390.1996519404
 20
1233.8613491613
 30
0.0
 11
2394.1670712071
 21
1233.7920885641
 31
0.0
  0
LINE
  5
2AB
330
1F
100
AcDbEntity
  8
0
  6
CONTINUOUS
 62
     7
100
AcDbLine
 10
2376.2179892497
 20
1245.014600094
 30
0.0
 11
2387.3209785657
 21
1233.9115958769
 31
0.0
  0
LINE
  5
2AC
330
1F
100
AcDbEntity
  8
0
  6
CONTINUOUS
 62
     7
100
AcDbLine
 10
2365.4959555703
 20
1234.292558964
 30
0.0
 11
2376.2179892497
 21
1245.014600094
 31
0.0
  0
LINE
  5
2AD
330
1F
100
AcDbEntity
  8
0
  6
CONTINUOUS
 62
     7
100
AcDbLine
 10
2365.4959555703
 20
1234.292558964
 30
0.0
 11
2387.3209785657
 21
1233.9115958769
 31
0.0
  0
LINE
  5
2AE
330
1F
100
AcDbEntity
  8
0
  6
CONTINUOUS
 62
     7
100
AcDbLine
 10
2438.8037752347
 20
1246.4288096983
 30
0.0
 11
2425.6180953222
 21
1233.2431297857
 31
0.0
  0
LINE
  5
2AF
330
1F
100
AcDbEntity
  8
0
  6
CONTINUOUS
 62
     7
100
AcDbLine
 10
2409.6322040992
 20
1246.4288096983
 30
0.0
 11
2438.8037752347
 21
1246.4288096983
 31
0.0
  0
LINE
  5
2B0
330
1F
100
AcDbEntity
  8
0
  6
CONTINUOUS
 62
     7
100
AcDbLine
 10
2409.6322040992
 20
1246.4288096983
 30
0.0
 11
2422.7681402104
 21
1233.2928698618
 31
0.0
  0
LINE
  5
2B1
330
1F
100
AcDbEntity
  8
0
  6
CONTINUOUS
 62
     7
100
AcDbLine
 10
2422.7681402104
 20
1233.2928698618
 30
0.0
 11
2425.6180953222
 21
1233.2431297857
 31
0.0
  0
LINE
  5
2B2
330
1F
100
AcDbEntity
  8
0
  6
CONTINUOUS
 62
     7
100
AcDbLine
 10
2408.2179870444
 20
1245.014600094
 30
0.0
 11
2419.8894631105
 21
1233.3431165773
 31
0.0
  0
LINE
  5
2B3
330
1F
100
AcDbEntity
  8
0
  6
CONTINUOUS
 62
     7
100
AcDbLine
 10
2396.9469796853
 20
1233.7435703833
 30
0.0
 11
2408.2179870444
 21
1245.014600094
 31
0.0
  0
LINE
  5
2B4
330
1F
100
AcDbEntity
  8
0
  6
CONTINUOUS
 62
     7
100
AcDbLine
 10
2396.9469796853
 20
1233.7435703833
 30
0.0
 11
2419.8894631105
 21
1233.3431165773
 31
0.0
  0
LINE
  5
2B5
330
1F
100
AcDbEntity
  8
0
  6
CONTINUOUS
 62
     7
100
AcDbLine
 10
2470.8037765218
 20
1246.4288096983
 30
0.0
 11
2457.0691147806
 21
1232.694141205
 31
0.0
  0
LINE
  5
2B6
330
1F
100
AcDbEntity
  8
0
  6
CONTINUOUS
 62
     7
100
AcDbLine
 10
2441.6322037565
 20
1246.4288096983
 30
0.0
 11
2470.8037765218
 21
1246.4288096983
 31
0.0
  0
LINE
  5
2B7
330
1F
100
AcDbEntity
  8
0
  6
CONTINUOUS
 62
     7
100
AcDbLine
 10
2441.6322037565
 20
1246.4288096983
 30
0.0
 11
2455.3366247552
 21
1232.7243905623
 31
0.0
  0
LINE
  5
2B8
330
1F
100
AcDbEntity
  8
0
  6
CONTINUOUS
 62
     7
100
AcDbLine
 10
2455.3366247552
 20
1232.7243905623
 30
0.0
 11
2457.0691147806
 21
1232.694141205
 31
0.0
  0
LINE
  5
2B9
330
1F
100
AcDbEntity
  8
0
  6
CONTINUOUS
 62
     7
100
AcDbLine
 10
2440.2179885643
 20
1245.014600094
 30
0.0
 11
2452.4579495179
 21
1232.7746372778
 31
0.0
  0
LINE
  5
2BA
330
1F
100
AcDbEntity
  8
0
  6
CONTINUOUS
 62
     7
100
AcDbLine
 10
2428.3980000751
 20
1233.1946116049
 30
0.0
 11
2440.2179885643
 21
1245.014600094
 31
0.0
  0
LINE
  5
2BB
330
1F
100
AcDbEntity
  8
0
  6
CONTINUOUS
 62
     7
100
AcDbLine
 10
2428.3980000751
 20
1233.1946116049
 30
0.0
 11
2452.4579495179
 21
1232.7746372778
 31
0.0
  0
LINE
  5
2BC
330
1F
100
AcDbEntity
  8
0
  6
CONTINUOUS
 62
     7
100
AcDbLine
 10
2633.6322110134
 20
1246.4288096983
 30
0.0
 11
2662.8037821489
 21
1246.4288096983
 31
0.0
  0
LINE
  5
2BD
330
1F
100
AcDbEntity
  8
0
  6
CONTINUOUS
 62
     7
100
AcDbLine
 10
2633.6322110134
 20
1246.4288096983
 30
0.0
 11
2644.6219664054
 21
1235.4390543062
 31
0.0
  0
LINE
  5
2BE
330
1F
100
AcDbEntity
  8
0
  6
CONTINUOUS
 62
     7
100
AcDbLine
 10
2644.6219664054
 20
1235.4390543062
 30
0.0
 11
2651.9417744117
 21
1235.5668168623
 31
0.0
  0
LINE
  5
2BF
330
1F
100
AcDbEntity
  8
0
  6
CONTINUOUS
 62
     7
100
AcDbLine
 10
2662.8037821489
 20
1246.4288096983
 30
0.0
 11
2651.9417744117
 21
1235.5668168623
 31
0.0
  0
LINE
  5
2C0
330
1F
100
AcDbEntity
  8
0
  6
CONTINUOUS
 62
     7
100
AcDbLine
 10
2601.6322057681
 20
1246.4288096983
 30
0.0
 11
2630.8037769037
 21
1246.4288096983
 31
0.0
  0
LINE
  5
2C1
330
1F
100
AcDbEntity
  8
0
  6
CONTINUOUS
 62
     7
100
AcDbLine
 10
2601.6322057681
 20
1246.4288096983
 30
0.0
 11
2613.1709497409
 21
1234.8900657255
 31
0.0
  0
LINE
  5
2C2
330
1F
100
AcDbEntity
  8
0
  6
CONTINUOUS
 62
     7
100
AcDbLine
 10
2613.1709497409
 20
1234.8900657255
 30
0.0
 11
2619.373289867
 21
1234.9983375628
 31
0.0
  0
LINE
  5
2C3
330
1F
100
AcDbEntity
  8
0
  6
CONTINUOUS
 62
     7
100
AcDbLine
 10
2630.8037769037
 20
1246.4288096983
 30
0.0
 11
2619.373289867
 21
1234.9983375628
 31
0.0
  0
LINE
  5
2C4
330
1F
100
AcDbEntity
  8
0
  6
CONTINUOUS
 62
     7
100
AcDbLine
 10
2622.2519706922
 20
1235.0485842783
 30
0.0
 11
2632.2179865079
 21
1245.014600094
 31
0.0
  0
LINE
  5
2C5
330
1F
100
AcDbEntity
  8
0
  6
CONTINUOUS
 62
     7
100
AcDbLine
 10
2622.2519706922
 20
1235.0485842783
 30
0.0
 11
2641.8420653777
 21
1235.3905063231
 31
0.0
  0
LINE
  5
2C6
330
1F
100
AcDbEntity
  8
0
  6
CONTINUOUS
 62
     7
100
AcDbLine
 10
2632.2179865079
 20
1245.014600094
 30
0.0
 11
2641.8420653777
 21
1235.3905063231
 31
0.0
  0
LINE
  5
2C7
330
1F
100
AcDbEntity
  8
0
  6
CONTINUOUS
 62
     7
100
AcDbLine
 10
2569.6322005229
 20
1246.4288096983
 30
0.0
 11
2598.8037716585
 21
1246.4288096983
 31
0.0
  0
LINE
  5
2C8
330
1F
100
AcDbEntity
  8
0
  6
CONTINUOUS
 62
     7
100
AcDbLine
 10
2569.6322005229
 20
1246.4288096983
 30
0.0
 11
2581.7199256258
 21
1234.3410771448
 31
0.0
  0
LINE
  5
2C9
330
1F
100
AcDbEntity
  8
0
  6
CONTINUOUS
 62
     7
100
AcDbLine
 10
2581.7199256258
 20
1234.3410771448
 30
0.0
 11
2586.8048127728
 21
1234.4298284609
 31
0.0
  0
LINE
  5
2CA
330
1F
100
AcDbEntity
  8
0
  6
CONTINUOUS
 62
     7
100
AcDbLine
 10
2598.8037716585
 20
1246.4288096983
 30
0.0
 11
2586.8048127728
 21
1234.4298284609
 31
0.0
  0
LINE
  5
2CB
330
1F
100
AcDbEntity
  8
0
  6
CONTINUOUS
 62
     7
100
AcDbLine
 10
2589.6834861474
 20
1234.4800751764
 30
0.0
 11
2600.2179961639
 21
1245.014600094
 31
0.0
  0
LINE
  5
2CC
330
1F
100
AcDbEntity
  8
0
  6
CONTINUOUS
 62
     7
100
AcDbLine
 10
2589.6834861474
 20
1234.4800751764
 30
0.0
 11
2610.3910487132
 21
1234.8415475447
 31
0.0
  0
LINE
  5
2CD
330
1F
100
AcDbEntity
  8
0
  6
CONTINUOUS
 62
     7
100
AcDbLine
 10
2600.2179961639
 20
1245.014600094
 30
0.0
 11
2610.3910487132
 21
1234.8415475447
 31
0.0
  0
LINE
  5
2CE
330
1F
100
AcDbEntity
  8
0
  6
CONTINUOUS
 62
     7
100
AcDbLine
 10
2537.6322027283
 20
1246.4288096983
 30
0.0
 11
2566.8037738638
 21
1246.4288096983
 31
0.0
  0
LINE
  5
2CF
330
1F
100
AcDbEntity
  8
0
  6
CONTINUOUS
 62
     7
100
AcDbLine
 10
2537.6322027283
 20
1246.4288096983
 30
0.0
 11
2550.2689089613
 21
1233.7920885641
 31
0.0
  0
LINE
  5
2D0
330
1F
100
AcDbEntity
  8
0
  6
CONTINUOUS
 62
     7
100
AcDbLine
 10
2550.2689089613
 20
1233.7920885641
 30
0.0
 11
2554.236328228
 21
1233.8613491613
 31
0.0
  0
LINE
  5
2D1
330
1F
100
AcDbEntity
  8
0
  6
CONTINUOUS
 62
     7
100
AcDbLine
 10
2566.8037738638
 20
1246.4288096983
 30
0.0
 11
2554.236328228
 21
1233.8613491613
 31
0.0
  0
LINE
  5
2D2
330
1F
100
AcDbEntity
  8
0
  6
CONTINUOUS
 62
     7
100
AcDbLine
 10
2557.1150016027
 20
1233.9115958769
 30
0.0
 11
2568.2179909187
 21
1245.014600094
 31
0.0
  0
LINE
  5
2D3
330
1F
100
AcDbEntity
  8
0
  6
CONTINUOUS
 62
     7
100
AcDbLine
 10
2557.1150016027
 20
1233.9115958769
 30
0.0
 11
2578.9400245982
 21
1234.292558964
 31
0.0
  0
LINE
  5
2D4
330
1F
100
AcDbEntity
  8
0
  6
CONTINUOUS
 62
     7
100
AcDbLine
 10
2568.2179909187
 20
1245.014600094
 30
0.0
 11
2578.9400245982
 21
1234.292558964
 31
0.0
  0
LINE
  5
2D5
330
1F
100
AcDbEntity
  8
0
  6
CONTINUOUS
 62
     7
100
AcDbLine
 10
2505.6322049337
 20
1246.4288096983
 30
0.0
 11
2534.8037760692
 21
1246.4288096983
 31
0.0
  0
LINE
  5
2D6
330
1F
100
AcDbEntity
  8
0
  6
CONTINUOUS
 62
     7
100
AcDbLine
 10
2505.6322049337
 20
1246.4288096983
 30
0.0
 11
2518.8178848462
 21
1233.2431297857
 31
0.0
  0
LINE
  5
2D7
330
1F
100
AcDbEntity
  8
0
  6
CONTINUOUS
 62
     7
100
AcDbLine
 10
2518.8178848462
 20
1233.2431297857
 30
0.0
 11
2521.667839958
 21
1233.2928698618
 31
0.0
  0
LINE
  5
2D8
330
1F
100
AcDbEntity
  8
0
  6
CONTINUOUS
 62
     7
100
AcDbLine
 10
2534.8037760692
 20
1246.4288096983
 30
0.0
 11
2521.667839958
 21
1233.2928698618
 31
0.0
  0
LINE
  5
2D9
330
1F
100
AcDbEntity
  8
0
  6
CONTINUOUS
 62
     7
100
AcDbLine
 10
2524.5465170579
 20
1233.3431165773
 30
0.0
 11
2536.217993124
 21
1245.014600094
 31
0.0
  0
LINE
  5
2DA
330
1F
100
AcDbEntity
  8
0
  6
CONTINUOUS
 62
     7
100
AcDbLine
 10
2524.5465170579
 20
1233.3431165773
 30
0.0
 11
2547.4890004831
 21
1233.7435703833
 31
0.0
  0
LINE
  5
2DB
330
1F
100
AcDbEntity
  8
0
  6
CONTINUOUS
 62
     7
100
AcDbLine
 10
2536.217993124
 20
1245.014600094
 30
0.0
 11
2547.4890004831
 21
1233.7435703833
 31
0.0
  0
LINE
  5
2DC
330
1F
100
AcDbEntity
  8
0
  6
CONTINUOUS
 62
     7
100
AcDbLine
 10
2473.6322036466
 20
1246.4288096983
 30
0.0
 11
2502.8037764119
 21
1246.4288096983
 31
0.0
  0
LINE
  5
2DD
330
1F
100
AcDbEntity
  8
0
  6
CONTINUOUS
 62
     7
100
AcDbLine
 10
2473.6322036466
 20
1246.4288096983
 30
0.0
 11
2487.3668653878
 21
1232.694141205
 31
0.0
  0
LINE
  5
2DE
330
1F
100
AcDbEntity
  8
0
  6
CONTINUOUS
 62
     7
100
AcDbLine
 10
2487.3668653878
 20
1232.694141205
 30
0.0
 11
2489.0993554132
 21
1232.7243905623
 31
0.0
  0
LINE
  5
2DF
330
1F
100
AcDbEntity
  8
0
  6
CONTINUOUS
 62
     7
100
AcDbLine
 10
2502.8037764119
 20
1246.4288096983
 30
0.0
 11
2489.0993554132
 21
1232.7243905623
 31
0.0
  0
LINE
  5
2E0
330
1F
100
AcDbEntity
  8
0
  6
CONTINUOUS
 62
     7
100
AcDbLine
 10
2491.9780306505
 20
1232.7746372778
 30
0.0
 11
2504.2179916041
 21
1245.014600094
 31
0.0
  0
LINE
  5
2E1
330
1F
100
AcDbEntity
  8
0
  6
CONTINUOUS
 62
     7
100
AcDbLine
 10
2491.9780306505
 20
1232.7746372778
 30
0.0
 11
2516.0379800933
 21
1233.1946116049
 31
0.0
  0
LINE
  5
2E2
330
1F
100
AcDbEntity
  8
0
  6
CONTINUOUS
 62
     7
100
AcDbLine
 10
2504.2179916041
 20
1245.014600094
 30
0.0
 11
2516.0379800933
 21
1233.1946116049
 31
0.0
  0
LINE
  5
2E3
330
1F
100
AcDbEntity
  8
0
  6
CONTINUOUS
 62
     7
100
AcDbLine
 10
2459.8490186023
 20
1232.6456230242
 30
0.0
 11
2472.2179900842
 21
1245.014600094
 31
0.0
  0
LINE
  5
2E4
330
1F
100
AcDbEntity
  8
0
  6
CONTINUOUS
 62
     7
100
AcDbLine
 10
2459.8490186023
 20
1232.6456230242
 30
0.0
 11
2472.2179900842
 21
1232.4297051985
 31
0.0
  0
LINE
  5
2E5
330
1F
100
AcDbEntity
  8
0
  6
CONTINUOUS
 62
     7
100
AcDbLine
 10
2472.2179900842
 20
1232.4297051985
 30
0.0
 11
2484.5869615661
 21
1232.6456230242
 31
0.0
  0
LINE
  5
2E6
330
1F
100
AcDbEntity
  8
0
  6
CONTINUOUS
 62
     7
100
AcDbLine
 10
2472.2179900842
 20
1245.014600094
 30
0.0
 11
2484.5869615661
 21
1232.6456230242
 31
0.0
  0
LINE
  5
2E7
330
1F
100
AcDbEntity
  8
0
  6
CONTINUOUS
 62
     7
100
AcDbLine
 10
2263.3037697511
 20
1396.9288092215
 30
0.0
 11
2251.2179892497
 21
1409.0145897228
 31
0.0
  0
LINE
  5
2E8
330
1F
100
AcDbEntity
  8
0
  6
CONTINUOUS
 62
     7
100
AcDbLine
 10
2251.2179892497
 20
1409.0145897228
 30
0.0
 11
2251.2179892497
 21
1384.8430138189
 31
0.0
  0
LINE
  5
2E9
330
1F
100
AcDbEntity
  8
0
  6
CONTINUOUS
 62
     7
100
AcDbLine
 10
2263.3037697511
 20
1396.9288092215
 30
0.0
 11
2251.2179892497
 21
1384.8430138189
 31
0.0
  0
LINE
  5
2EA
330
1F
100
AcDbEntity
  8
0
  6
CONTINUOUS
 62
     7
100
AcDbLine
 10
2264.7179942565
 20
1427.5145899612
 30
0.0
 11
2264.7179942565
 21
1398.3430188257
 31
0.0
  0
LINE
  5
2EB
330
1F
100
AcDbEntity
  8
0
  6
CONTINUOUS
 62
     7
100
AcDbLine
 10
2251.2179892497
 20
1414.0145849545
 30
0.0
 11
2264.7179942565
 21
1427.5145899612
 31
0.0
  0
LINE
  5
2EC
330
1F
100
AcDbEntity
  8
0
  6
CONTINUOUS
 62
     7
100
AcDbLine
 10
2251.2179892497
 20
1414.0145849545
 30
0.0
 11
2251.2179892497
 21
1411.8430238325
 31
0.0
  0
LINE
  5
2ED
330
1F
100
AcDbEntity
  8
0
  6
CONTINUOUS
 62
     7
100
AcDbLine
 10
2264.7179942565
 20
1398.3430188257
 30
0.0
 11
2251.2179892497
 21
1411.8430238325
 31
0.0
  0
LINE
  5
2EE
330
1F
100
AcDbEntity
  8
0
  6
CONTINUOUS
 62
     7
100
AcDbLine
 10
2263.3037697511
 20
1428.9287995655
 30
0.0
 11
2251.2179892497
 21
1441.014594968
 31
0.0
  0
LINE
  5
2EF
330
1F
100
AcDbEntity
  8
0
  6
CONTINUOUS
 62
     7
100
AcDbLine
 10
2251.2179892497
 20
1441.014594968
 30
0.0
 11
2251.2179892497
 21
1416.8430190641
 31
0.0
  0
LINE
  5
2F0
330
1F
100
AcDbEntity
  8
0
  6
CONTINUOUS
 62
     7
100
AcDbLine
 10
2263.3037697511
 20
1428.9287995655
 30
0.0
 11
2251.2179892497
 21
1416.8430190641
 31
0.0
  0
LINE
  5
2F1
330
1F
100
AcDbEntity
  8
0
  6
CONTINUOUS
 62
     7
100
AcDbLine
 10
2251.2179892497
 20
1446.0145901997
 30
0.0
 11
2264.7179942565
 21
1459.5145952065
 31
0.0
  0
LINE
  5
2F2
330
1F
100
AcDbEntity
  8
0
  6
CONTINUOUS
 62
     7
100
AcDbLine
 10
2251.2179892497
 20
1446.0145901997
 30
0.0
 11
2251.2179892497
 21
1443.8430216271
 31
0.0
  0
LINE
  5
2F3
330
1F
100
AcDbEntity
  8
0
  6
CONTINUOUS
 62
     7
100
AcDbLine
 10
2264.7179942565
 20
1430.3430240709
 30
0.0
 11
2251.2179892497
 21
1443.8430216271
 31
0.0
  0
LINE
  5
2F4
330
1F
100
AcDbEntity
  8
0
  6
CONTINUOUS
 62
     7
100
AcDbLine
 10
2264.7179942565
 20
1459.5145952065
 30
0.0
 11
2264.7179942565
 21
1430.3430240709
 31
0.0
  0
LINE
  5
2F5
330
1F
100
AcDbEntity
  8
0
  6
CONTINUOUS
 62
     7
100
AcDbLine
 10
2263.3037697511
 20
1492.9288026053
 30
0.0
 11
2251.2179892497
 21
1505.0145905573
 31
0.0
  0
LINE
  5
2F6
330
1F
100
AcDbEntity
  8
0
  6
CONTINUOUS
 62
     7
100
AcDbLine
 10
2251.2179892497
 20
1505.0145905573
 30
0.0
 11
2251.2179892497
 21
1480.843022104
 31
0.0
  0
LINE
  5
2F7
330
1F
100
AcDbEntity
  8
0
  6
CONTINUOUS
 62
     7
100
AcDbLine
 10
2263.3037697511
 20
1492.9288026053
 30
0.0
 11
2251.2179892497
 21
1480.843022104
 31
0.0
  0
LINE
  5
2F8
330
1F
100
AcDbEntity
  8
0
  6
CONTINUOUS
 62
     7
100
AcDbLine
 10
2251.2179892497
 20
1510.0145932395
 30
0.0
 11
2264.7179942565
 21
1523.5145907957
 31
0.0
  0
LINE
  5
2F9
330
1F
100
AcDbEntity
  8
0
  6
CONTINUOUS
 62
     7
100
AcDbLine
 10
2251.2179892497
 20
1510.0145932395
 30
0.0
 11
2251.2179892497
 21
1507.8430209417
 31
0.0
  0
LINE
  5
2FA
330
1F
100
AcDbEntity
  8
0
  6
CONTINUOUS
 62
     7
100
AcDbLine
 10
2264.7179942565
 20
1494.3430196602
 30
0.0
 11
2251.2179892497
 21
1507.8430209417
 31
0.0
  0
LINE
  5
2FB
330
1F
100
AcDbEntity
  8
0
  6
CONTINUOUS
 62
     7
100
AcDbLine
 10
2264.7179942565
 20
1523.5145907957
 30
0.0
 11
2264.7179942565
 21
1494.3430196602
 31
0.0
  0
LINE
  5
2FC
330
1F
100
AcDbEntity
  8
0
  6
CONTINUOUS
 62
     7
100
AcDbLine
 10
2251.2179892497
 20
1542.0145919655
 30
0.0
 11
2264.7179942565
 21
1555.5145920828
 31
0.0
  0
LINE
  5
2FD
330
1F
100
AcDbEntity
  8
0
  6
CONTINUOUS
 62
     7
100
AcDbLine
 10
2251.2179892497
 20
1542.0145919655
 30
0.0
 11
2251.2179892497
 21
1539.8430187363
 31
0.0
  0
LINE
  5
2FE
330
1F
100
AcDbEntity
  8
0
  6
CONTINUOUS
 62
     7
100
AcDbLine
 10
2264.7179942565
 20
1526.3430193175
 30
0.0
 11
2251.2179892497
 21
1539.8430187363
 31
0.0
  0
LINE
  5
2FF
330
1F
100
AcDbEntity
  8
0
  6
CONTINUOUS
 62
     7
100
AcDbLine
 10
2264.7179942565
 20
1555.5145920828
 30
0.0
 11
2264.7179942565
 21
1526.3430193175
 31
0.0
  0
LINE
  5
300
330
1F
100
AcDbEntity
  8
0
  6
CONTINUOUS
 62
     7
100
AcDbLine
 10
2263.3037697511
 20
1524.9288041253
 30
0.0
 11
2251.2179892497
 21
1537.0145920772
 31
0.0
  0
LINE
  5
301
330
1F
100
AcDbEntity
  8
0
  6
CONTINUOUS
 62
     7
100
AcDbLine
 10
2251.2179892497
 20
1537.0145920772
 30
0.0
 11
2251.2179892497
 21
1512.8430198986
 31
0.0
  0
LINE
  5
302
330
1F
100
AcDbEntity
  8
0
  6
CONTINUOUS
 62
     7
100
AcDbLine
 10
2263.3037697511
 20
1524.9288041253
 30
0.0
 11
2251.2179892497
 21
1512.8430198986
 31
0.0
  0
LINE
  5
303
330
1F
100
AcDbEntity
  8
0
  6
CONTINUOUS
 62
     7
100
AcDbLine
 10
2251.2179892497
 20
1478.0145954449
 30
0.0
 11
2264.7179942565
 21
1491.5145930011
 31
0.0
  0
LINE
  5
304
330
1F
100
AcDbEntity
  8
0
  6
CONTINUOUS
 62
     7
100
AcDbLine
 10
2251.2179892497
 20
1478.0145954449
 30
0.0
 11
2251.2179892497
 21
1475.8430194218
 31
0.0
  0
LINE
  5
305
330
1F
100
AcDbEntity
  8
0
  6
CONTINUOUS
 62
     7
100
AcDbLine
 10
2264.7179942565
 20
1462.3430218656
 30
0.0
 11
2251.2179892497
 21
1475.8430194218
 31
0.0
  0
LINE
  5
306
330
1F
100
AcDbEntity
  8
0
  6
CONTINUOUS
 62
     7
100
AcDbLine
 10
2264.7179942565
 20
1491.5145930011
 30
0.0
 11
2264.7179942565
 21
1462.3430218656
 31
0.0
  0
LINE
  5
307
330
1F
100
AcDbEntity
  8
0
  6
CONTINUOUS
 62
     7
100
AcDbLine
 10
2263.3037697511
 20
1460.9288048107
 30
0.0
 11
2251.2179892497
 21
1473.0145927627
 31
0.0
  0
LINE
  5
308
330
1F
100
AcDbEntity
  8
0
  6
CONTINUOUS
 62
     7
100
AcDbLine
 10
2251.2179892497
 20
1473.0145927627
 30
0.0
 11
2251.2179892497
 21
1448.8430168588
 31
0.0
  0
LINE
  5
309
330
1F
100
AcDbEntity
  8
0
  6
CONTINUOUS
 62
     7
100
AcDbLine
 10
2263.3037697511
 20
1460.9288048107
 30
0.0
 11
2251.2179892497
 21
1448.8430168588
 31
0.0
  0
LINE
  5
30A
330
1F
100
AcDbEntity
  8
0
  6
CONTINUOUS
 62
     7
100
AcDbLine
 10
2263.3037697511
 20
1716.9288020689
 30
0.0
 11
2251.2179892497
 21
1729.0145974714
 31
0.0
  0
LINE
  5
30B
330
1F
100
AcDbEntity
  8
0
  6
CONTINUOUS
 62
     7
100
AcDbLine
 10
2251.2179892497
 20
1729.0145974714
 30
0.0
 11
2251.2179892497
 21
1704.8430215675
 31
0.0
  0
LINE
  5
30C
330
1F
100
AcDbEntity
  8
0
  6
CONTINUOUS
 62
     7
100
AcDbLine
 10
2263.3037697511
 20
1716.9288020689
 30
0.0
 11
2251.2179892497
 21
1704.8430215675
 31
0.0
  0
LINE
  5
30D
330
1F
100
AcDbEntity
  8
0
  6
CONTINUOUS
 62
     7
100
AcDbLine
 10
2251.2179892497
 20
1702.0145874579
 30
0.0
 11
2251.2179892497
 21
1699.8430263359
 31
0.0
  0
LINE
  5
30E
330
1F
100
AcDbEntity
  8
0
  6
CONTINUOUS
 62
     7
100
AcDbLine
 10
2264.7179942565
 20
1686.3430213291
 30
0.0
 11
2251.2179892497
 21
1699.8430263359
 31
0.0
  0
LINE
  5
30F
330
1F
100
AcDbEntity
  8
0
  6
CONTINUOUS
 62
     7
100
AcDbLine
 10
2264.7179942565
 20
1715.5145924646
 30
0.0
 11
2264.7179942565
 21
1686.3430213291
 31
0.0
  0
LINE
  5
310
330
1F
100
AcDbEntity
  8
0
  6
CONTINUOUS
 62
     7
100
AcDbLine
 10
2251.2179892497
 20
1702.0145874579
 30
0.0
 11
2264.7179942565
 21
1715.5145924646
 31
0.0
  0
LINE
  5
311
330
1F
100
AcDbEntity
  8
0
  6
CONTINUOUS
 62
     7
100
AcDbLine
 10
2251.2179892497
 20
1830.0145786364
 30
0.0
 11
2251.2179892497
 21
1827.8430324156
 31
0.0
  0
LINE
  5
312
330
1F
100
AcDbEntity
  8
0
  6
CONTINUOUS
 62
     7
100
AcDbLine
 10
2264.7179942565
 20
1814.3430274088
 30
0.0
 11
2251.2179892497
 21
1827.8430324156
 31
0.0
  0
LINE
  5
313
330
1F
100
AcDbEntity
  8
0
  6
CONTINUOUS
 62
     7
100
AcDbLine
 10
2264.7179942565
 20
1843.5145836432
 30
0.0
 11
2264.7179942565
 21
1814.3430274088
 31
0.0
  0
LINE
  5
314
330
1F
100
AcDbEntity
  8
0
  6
CONTINUOUS
 62
     7
100
AcDbLine
 10
2264.7179942565
 20
1843.5145836432
 30
0.0
 11
2251.2179892497
 21
1830.0145786364
 31
0.0
  0
LINE
  5
315
330
1F
100
AcDbEntity
  8
0
  6
CONTINUOUS
 62
     7
100
AcDbLine
 10
2263.3037697511
 20
1844.9287932474
 30
0.0
 11
2252.3037772613
 21
1855.9288006384
 31
0.0
  0
LINE
  5
316
330
1F
100
AcDbEntity
  8
0
  6
CONTINUOUS
 62
     7
100
AcDbLine
 10
2252.3037772613
 20
1855.9288006384
 30
0.0
 11
2251.5108864742
 21
1855.1359098513
 31
0.0
  0
ARC
  5
317
330
1F
100
AcDbEntity
  8
0
  6
CONTINUOUS
 62
     7
100
AcDbCircle
 10
2252.2179900842
 20
1854.4288056452
 30
0.0
 40
1.0
100
AcDbArc
 50
135.0
 51
180.0
  0
LINE
  5
318
330
1F
100
AcDbEntity
  8
0
  6
CONTINUOUS
 62
     7
100
AcDbLine
 10
2251.2179892497
 20
1854.4288199503
 30
0.0
 11
2251.2179892497
 21
1832.8430276472
 31
0.0
  0
LINE
  5
319
330
1F
100
AcDbEntity
  8
0
  6
CONTINUOUS
 62
     7
100
AcDbLine
 10
2263.3037697511
 20
1844.9287932474
 30
0.0
 11
2251.2179892497
 21
1832.8430276472
 31
0.0
  0
LINE
  5
31A
330
1F
100
AcDbEntity
  8
0
  6
CONTINUOUS
 62
     7
100
AcDbLine
 10
2264.7179942565
 20
1750.3430169184
 30
0.0
 11
2251.2179892497
 21
1763.8430219252
 31
0.0
  0
LINE
  5
31B
330
1F
100
AcDbEntity
  8
0
  6
CONTINUOUS
 62
     7
100
AcDbLine
 10
2264.7179942565
 20
1779.5145880539
 30
0.0
 11
2264.7179942565
 21
1750.3430169184
 31
0.0
  0
LINE
  5
31C
330
1F
100
AcDbEntity
  8
0
  6
CONTINUOUS
 62
     7
100
AcDbLine
 10
2251.2179892497
 20
1766.0145979483
 30
0.0
 11
2264.7179942565
 21
1779.5145880539
 31
0.0
  0
LINE
  5
31D
330
1F
100
AcDbEntity
  8
0
  6
CONTINUOUS
 62
     7
100
AcDbLine
 10
2251.2179892497
 20
1766.0145979483
 30
0.0
 11
2251.2179892497
 21
1763.8430219252
 31
0.0
  0
LINE
  5
31E
330
1F
100
AcDbEntity
  8
0
  6
CONTINUOUS
 62
     7
100
AcDbLine
 10
2263.3037697511
 20
1780.9288125593
 30
0.0
 11
2251.2179892497
 21
1768.8430171568
 31
0.0
  0
LINE
  5
31F
330
1F
100
AcDbEntity
  8
0
  6
CONTINUOUS
 62
     7
100
AcDbLine
 10
2263.3037697511
 20
1780.9288125593
 30
0.0
 11
2251.2179892497
 21
1793.0145930607
 31
0.0
  0
LINE
  5
320
330
1F
100
AcDbEntity
  8
0
  6
CONTINUOUS
 62
     7
100
AcDbLine
 10
2251.2179892497
 20
1793.0145930607
 30
0.0
 11
2251.2179892497
 21
1768.8430171568
 31
0.0
  0
LINE
  5
321
330
1F
100
AcDbEntity
  8
0
  6
CONTINUOUS
 62
     7
100
AcDbLine
 10
2263.3037697511
 20
1748.9288073141
 30
0.0
 11
2251.2179892497
 21
1736.8430119116
 31
0.0
  0
LINE
  5
322
330
1F
100
AcDbEntity
  8
0
  6
CONTINUOUS
 62
     7
100
AcDbLine
 10
2263.3037697511
 20
1748.9288073141
 30
0.0
 11
2251.2179892497
 21
1761.0145878155
 31
0.0
  0
LINE
  5
323
330
1F
100
AcDbEntity
  8
0
  6
CONTINUOUS
 62
     7
100
AcDbLine
 10
2251.2179892497
 20
1761.0145878155
 30
0.0
 11
2251.2179892497
 21
1736.8430119116
 31
0.0
  0
LINE
  5
324
330
1F
100
AcDbEntity
  8
0
  6
CONTINUOUS
 62
     7
100
AcDbLine
 10
2264.7179942565
 20
1718.3430265743
 30
0.0
 11
2251.2179892497
 21
1731.84301668
 31
0.0
  0
LINE
  5
325
330
1F
100
AcDbEntity
  8
0
  6
CONTINUOUS
 62
     7
100
AcDbLine
 10
2264.7179942565
 20
1747.5145977098
 30
0.0
 11
2264.7179942565
 21
1718.3430265743
 31
0.0
  0
LINE
  5
326
330
1F
100
AcDbEntity
  8
0
  6
CONTINUOUS
 62
     7
100
AcDbLine
 10
2251.2179892497
 20
1734.0145927031
 30
0.0
 11
2264.7179942565
 21
1747.5145977098
 31
0.0
  0
LINE
  5
327
330
1F
100
AcDbEntity
  8
0
  6
CONTINUOUS
 62
     7
100
AcDbLine
 10
2251.2179892497
 20
1734.0145927031
 30
0.0
 11
2251.2179892497
 21
1731.84301668
 31
0.0
  0
LINE
  5
328
330
1F
100
AcDbEntity
  8
0
  6
CONTINUOUS
 62
     7
100
AcDbLine
 10
2263.3037697511
 20
1812.9288178045
 30
0.0
 11
2251.2179892497
 21
1800.843022402
 31
0.0
  0
LINE
  5
329
330
1F
100
AcDbEntity
  8
0
  6
CONTINUOUS
 62
     7
100
AcDbLine
 10
2263.3037697511
 20
1812.9288178045
 30
0.0
 11
2251.2179892497
 21
1825.0145834047
 31
0.0
  0
LINE
  5
32A
330
1F
100
AcDbEntity
  8
0
  6
CONTINUOUS
 62
     7
100
AcDbLine
 10
2251.2179892497
 20
1825.0145834047
 30
0.0
 11
2251.2179892497
 21
1800.843022402
 31
0.0
  0
LINE
  5
32B
330
1F
100
AcDbEntity
  8
0
  6
CONTINUOUS
 62
     7
100
AcDbLine
 10
2264.7179942565
 20
1782.3430221636
 30
0.0
 11
2251.2179892497
 21
1795.8430122692
 31
0.0
  0
LINE
  5
32C
330
1F
100
AcDbEntity
  8
0
  6
CONTINUOUS
 62
     7
100
AcDbLine
 10
2264.7179942565
 20
1811.5145783979
 30
0.0
 11
2264.7179942565
 21
1782.3430221636
 31
0.0
  0
LINE
  5
32D
330
1F
100
AcDbEntity
  8
0
  6
CONTINUOUS
 62
     7
100
AcDbLine
 10
2251.2179892497
 20
1798.0145882923
 30
0.0
 11
2264.7179942565
 21
1811.5145783979
 31
0.0
  0
LINE
  5
32E
330
1F
100
AcDbEntity
  8
0
  6
CONTINUOUS
 62
     7
100
AcDbLine
 10
2251.2179892497
 20
1798.0145882923
 30
0.0
 11
2251.2179892497
 21
1795.8430122692
 31
0.0
  0
LINE
  5
32F
330
1F
100
AcDbEntity
  8
0
  6
CONTINUOUS
 62
     7
100
AcDbLine
 10
2264.7179942565
 20
1654.3430160839
 30
0.0
 11
2251.2179892497
 21
1667.8430210907
 31
0.0
  0
LINE
  5
330
330
1F
100
AcDbEntity
  8
0
  6
CONTINUOUS
 62
     7
100
AcDbLine
 10
2264.7179942565
 20
1683.5145872194
 30
0.0
 11
2264.7179942565
 21
1654.3430160839
 31
0.0
  0
LINE
  5
331
330
1F
100
AcDbEntity
  8
0
  6
CONTINUOUS
 62
     7
100
AcDbLine
 10
2251.2179892497
 20
1670.0145896632
 30
0.0
 11
2264.7179942565
 21
1683.5145872194
 31
0.0
  0
LINE
  5
332
330
1F
100
AcDbEntity
  8
0
  6
CONTINUOUS
 62
     7
100
AcDbLine
 10
2251.2179892497
 20
1670.0145896632
 30
0.0
 11
2251.2179892497
 21
1667.8430210907
 31
0.0
  0
LINE
  5
333
330
1F
100
AcDbEntity
  8
0
  6
CONTINUOUS
 62
     7
100
AcDbLine
 10
2263.3037697511
 20
1684.9288117249
 30
0.0
 11
2251.2179892497
 21
1672.8430163223
 31
0.0
  0
LINE
  5
334
330
1F
100
AcDbEntity
  8
0
  6
CONTINUOUS
 62
     7
100
AcDbLine
 10
2263.3037697511
 20
1684.9288117249
 30
0.0
 11
2251.2179892497
 21
1697.0145922262
 31
0.0
  0
LINE
  5
335
330
1F
100
AcDbEntity
  8
0
  6
CONTINUOUS
 62
     7
100
AcDbLine
 10
2251.2179892497
 20
1697.0145922262
 30
0.0
 11
2251.2179892497
 21
1672.8430163223
 31
0.0
  0
LINE
  5
336
330
1F
100
AcDbEntity
  8
0
  6
CONTINUOUS
 62
     7
100
AcDbLine
 10
2264.7179942565
 20
1590.3430204947
 30
0.0
 11
2251.2179892497
 21
1603.8430180509
 31
0.0
  0
LINE
  5
337
330
1F
100
AcDbEntity
  8
0
  6
CONTINUOUS
 62
     7
100
AcDbLine
 10
2264.7179942565
 20
1619.5145916302
 30
0.0
 11
2264.7179942565
 21
1590.3430204947
 31
0.0
  0
LINE
  5
338
330
1F
100
AcDbEntity
  8
0
  6
CONTINUOUS
 62
     7
100
AcDbLine
 10
2251.2179892497
 20
1606.0145903487
 30
0.0
 11
2264.7179942565
 21
1619.5145916302
 31
0.0
  0
LINE
  5
339
330
1F
100
AcDbEntity
  8
0
  6
CONTINUOUS
 62
     7
100
AcDbLine
 10
2251.2179892497
 20
1606.0145903487
 30
0.0
 11
2251.2179892497
 21
1603.8430180509
 31
0.0
  0
LINE
  5
33A
330
1F
100
AcDbEntity
  8
0
  6
CONTINUOUS
 62
     7
100
AcDbLine
 10
2263.3037697511
 20
1620.928808685
 30
0.0
 11
2251.2179892497
 21
1608.8430207331
 31
0.0
  0
LINE
  5
33B
330
1F
100
AcDbEntity
  8
0
  6
CONTINUOUS
 62
     7
100
AcDbLine
 10
2263.3037697511
 20
1620.928808685
 30
0.0
 11
2251.2179892497
 21
1633.0145891864
 31
0.0
  0
LINE
  5
33C
330
1F
100
AcDbEntity
  8
0
  6
CONTINUOUS
 62
     7
100
AcDbLine
 10
2251.2179892497
 20
1633.0145891864
 30
0.0
 11
2251.2179892497
 21
1608.8430207331
 31
0.0
  0
LINE
  5
33D
330
1F
100
AcDbEntity
  8
0
  6
CONTINUOUS
 62
     7
100
AcDbLine
 10
2263.3037697511
 20
1588.9288071651
 30
0.0
 11
2251.2179892497
 21
1576.8430192132
 31
0.0
  0
LINE
  5
33E
330
1F
100
AcDbEntity
  8
0
  6
CONTINUOUS
 62
     7
100
AcDbLine
 10
2263.3037697511
 20
1588.9288071651
 30
0.0
 11
2251.2179892497
 21
1601.0145913918
 31
0.0
  0
LINE
  5
33F
330
1F
100
AcDbEntity
  8
0
  6
CONTINUOUS
 62
     7
100
AcDbLine
 10
2251.2179892497
 20
1601.0145913918
 30
0.0
 11
2251.2179892497
 21
1576.8430192132
 31
0.0
  0
LINE
  5
340
330
1F
100
AcDbEntity
  8
0
  6
CONTINUOUS
 62
     7
100
AcDbLine
 10
2264.7179942565
 20
1558.3430192076
 30
0.0
 11
2251.2179892497
 21
1571.8430193249
 31
0.0
  0
LINE
  5
341
330
1F
100
AcDbEntity
  8
0
  6
CONTINUOUS
 62
     7
100
AcDbLine
 10
2264.7179942565
 20
1587.5145919729
 30
0.0
 11
2264.7179942565
 21
1558.3430192076
 31
0.0
  0
LINE
  5
342
330
1F
100
AcDbEntity
  8
0
  6
CONTINUOUS
 62
     7
100
AcDbLine
 10
2251.2179892497
 20
1574.014592554
 30
0.0
 11
2264.7179942565
 21
1587.5145919729
 31
0.0
  0
LINE
  5
343
330
1F
100
AcDbEntity
  8
0
  6
CONTINUOUS
 62
     7
100
AcDbLine
 10
2251.2179892497
 20
1574.014592554
 30
0.0
 11
2251.2179892497
 21
1571.8430193249
 31
0.0
  0
LINE
  5
344
330
1F
100
AcDbEntity
  8
0
  6
CONTINUOUS
 62
     7
100
AcDbLine
 10
2263.3037697511
 20
1652.9288064796
 30
0.0
 11
2251.2179892497
 21
1640.8430185277
 31
0.0
  0
LINE
  5
345
330
1F
100
AcDbEntity
  8
0
  6
CONTINUOUS
 62
     7
100
AcDbLine
 10
2263.3037697511
 20
1652.9288064796
 30
0.0
 11
2251.2179892497
 21
1665.0145944316
 31
0.0
  0
LINE
  5
346
330
1F
100
AcDbEntity
  8
0
  6
CONTINUOUS
 62
     7
100
AcDbLine
 10
2251.2179892497
 20
1665.0145944316
 30
0.0
 11
2251.2179892497
 21
1640.8430185277
 31
0.0
  0
LINE
  5
347
330
1F
100
AcDbEntity
  8
0
  6
CONTINUOUS
 62
     7
100
AcDbLine
 10
2264.7179942565
 20
1622.3430182893
 30
0.0
 11
2251.2179892497
 21
1635.8430158455
 31
0.0
  0
LINE
  5
348
330
1F
100
AcDbEntity
  8
0
  6
CONTINUOUS
 62
     7
100
AcDbLine
 10
2264.7179942565
 20
1651.5145894248
 30
0.0
 11
2264.7179942565
 21
1622.3430182893
 31
0.0
  0
LINE
  5
349
330
1F
100
AcDbEntity
  8
0
  6
CONTINUOUS
 62
     7
100
AcDbLine
 10
2251.2179892497
 20
1638.0145918686
 30
0.0
 11
2264.7179942565
 21
1651.5145894248
 31
0.0
  0
LINE
  5
34A
330
1F
100
AcDbEntity
  8
0
  6
CONTINUOUS
 62
     7
100
AcDbLine
 10
2251.2179892497
 20
1638.0145918686
 30
0.0
 11
2251.2179892497
 21
1635.8430158455
 31
0.0
  0
LINE
  5
34B
330
1F
100
AcDbEntity
  8
0
  6
CONTINUOUS
 62
     7
100
AcDbLine
 10
2263.3037697511
 20
1556.9288056452
 30
0.0
 11
2251.2179892497
 21
1569.0145917345
 31
0.0
  0
LINE
  5
34C
330
1F
100
AcDbEntity
  8
0
  6
CONTINUOUS
 62
     7
100
AcDbLine
 10
2251.2179892497
 20
1569.0145917345
 30
0.0
 11
2251.2179892497
 21
1544.8430195559
 31
0.0
  0
LINE
  5
34D
330
1F
100
AcDbEntity
  8
0
  6
CONTINUOUS
 62
     7
100
AcDbLine
 10
2263.3037697511
 20
1556.9288056452
 30
0.0
 11
2251.2179892497
 21
1544.8430195559
 31
0.0
  0
LINE
  5
34E
330
1F
100
AcDbEntity
  8
0
  6
CONTINUOUS
 62
     7
100
AcDbLine
 10
2264.7179942565
 20
1299.5145838816
 30
0.0
 11
2264.7179942565
 21
1270.3430276472
 31
0.0
  0
LINE
  5
34F
330
1F
100
AcDbEntity
  8
0
  6
CONTINUOUS
 62
     7
100
AcDbLine
 10
2251.2179892497
 20
1286.0145788748
 30
0.0
 11
2264.7179942565
 21
1299.5145838816
 31
0.0
  0
LINE
  5
350
330
1F
100
AcDbEntity
  8
0
  6
CONTINUOUS
 62
     7
100
AcDbLine
 10
2251.2179892497
 20
1286.0145788748
 30
0.0
 11
2251.2179892497
 21
1283.843032654
 31
0.0
  0
LINE
  5
351
330
1F
100
AcDbEntity
  8
0
  6
CONTINUOUS
 62
     7
100
AcDbLine
 10
2264.7179942565
 20
1270.3430276472
 30
0.0
 11
2251.2179892497
 21
1283.843032654
 31
0.0
  0
LINE
  5
352
330
1F
100
AcDbEntity
  8
0
  6
CONTINUOUS
 62
     7
100
AcDbLine
 10
2263.3037697511
 20
1268.9288180429
 30
0.0
 11
2251.2179892497
 21
1281.0145836432
 31
0.0
  0
LINE
  5
353
330
1F
100
AcDbEntity
  8
0
  6
CONTINUOUS
 62
     7
100
AcDbLine
 10
2251.2179892497
 20
1281.0145836432
 30
0.0
 11
2251.2179892497
 21
1259.4287913401
 31
0.0
  0
ARC
  5
354
330
1F
100
AcDbEntity
  8
0
  6
CONTINUOUS
 62
     7
100
AcDbCircle
 10
2252.2179900842
 20
1259.4288056452
 30
0.0
 40
0.9999999999996865
100
AcDbArc
 50
180.0
 51
225.0
  0
LINE
  5
355
330
1F
100
AcDbEntity
  8
0
  6
CONTINUOUS
 62
     7
100
AcDbLine
 10
2251.5108864742
 20
1258.7217014391
 30
0.0
 11
2252.3037772613
 21
1257.928810652
 31
0.0
  0
LINE
  5
356
330
1F
100
AcDbEntity
  8
0
  6
CONTINUOUS
 62
     7
100
AcDbLine
 10
2263.3037697511
 20
1268.9288180429
 30
0.0
 11
2252.3037772613
 21
1257.928810652
 31
0.0
  0
LINE
  5
357
330
1F
100
AcDbEntity
  8
0
  6
CONTINUOUS
 62
     7
100
AcDbLine
 10
2263.3037697511
 20
1332.928798731
 30
0.0
 11
2251.2179892497
 21
1345.0145941336
 31
0.0
  0
LINE
  5
358
330
1F
100
AcDbEntity
  8
0
  6
CONTINUOUS
 62
     7
100
AcDbLine
 10
2251.2179892497
 20
1345.0145941336
 30
0.0
 11
2251.2179892497
 21
1320.8430182297
 31
0.0
  0
LINE
  5
359
330
1F
100
AcDbEntity
  8
0
  6
CONTINUOUS
 62
     7
100
AcDbLine
 10
2263.3037697511
 20
1332.928798731
 30
0.0
 11
2251.2179892497
 21
1320.8430182297
 31
0.0
  0
LINE
  5
35A
330
1F
100
AcDbEntity
  8
0
  6
CONTINUOUS
 62
     7
100
AcDbLine
 10
2251.2179892497
 20
1350.0145893652
 30
0.0
 11
2264.7179942565
 21
1363.514594372
 31
0.0
  0
LINE
  5
35B
330
1F
100
AcDbEntity
  8
0
  6
CONTINUOUS
 62
     7
100
AcDbLine
 10
2251.2179892497
 20
1350.0145893652
 30
0.0
 11
2251.2179892497
 21
1347.8430133421
 31
0.0
  0
LINE
  5
35C
330
1F
100
AcDbEntity
  8
0
  6
CONTINUOUS
 62
     7
100
AcDbLine
 10
2264.7179942565
 20
1334.3430232365
 30
0.0
 11
2251.2179892497
 21
1347.8430133421
 31
0.0
  0
LINE
  5
35D
330
1F
100
AcDbEntity
  8
0
  6
CONTINUOUS
 62
     7
100
AcDbLine
 10
2264.7179942565
 20
1363.514594372
 30
0.0
 11
2264.7179942565
 21
1334.3430232365
 31
0.0
  0
LINE
  5
35E
330
1F
100
AcDbEntity
  8
0
  6
CONTINUOUS
 62
     7
100
AcDbLine
 10
2251.2179892497
 20
1382.0145946104
 30
0.0
 11
2264.7179942565
 21
1395.514584716
 31
0.0
  0
LINE
  5
35F
330
1F
100
AcDbEntity
  8
0
  6
CONTINUOUS
 62
     7
100
AcDbLine
 10
2251.2179892497
 20
1382.0145946104
 30
0.0
 11
2251.2179892497
 21
1379.8430185873
 31
0.0
  0
LINE
  5
360
330
1F
100
AcDbEntity
  8
0
  6
CONTINUOUS
 62
     7
100
AcDbLine
 10
2264.7179942565
 20
1366.3430135805
 30
0.0
 11
2251.2179892497
 21
1379.8430185873
 31
0.0
  0
LINE
  5
361
330
1F
100
AcDbEntity
  8
0
  6
CONTINUOUS
 62
     7
100
AcDbLine
 10
2264.7179942565
 20
1395.514584716
 30
0.0
 11
2264.7179942565
 21
1366.3430135805
 31
0.0
  0
LINE
  5
362
330
1F
100
AcDbEntity
  8
0
  6
CONTINUOUS
 62
     7
100
AcDbLine
 10
2263.3037697511
 20
1364.9288039763
 30
0.0
 11
2251.2179892497
 21
1377.0145993788
 31
0.0
  0
LINE
  5
363
330
1F
100
AcDbEntity
  8
0
  6
CONTINUOUS
 62
     7
100
AcDbLine
 10
2251.2179892497
 20
1377.0145993788
 30
0.0
 11
2251.2179892497
 21
1352.8430234749
 31
0.0
  0
LINE
  5
364
330
1F
100
AcDbEntity
  8
0
  6
CONTINUOUS
 62
     7
100
AcDbLine
 10
2263.3037697511
 20
1364.9288039763
 30
0.0
 11
2251.2179892497
 21
1352.8430234749
 31
0.0
  0
LINE
  5
365
330
1F
100
AcDbEntity
  8
0
  6
CONTINUOUS
 62
     7
100
AcDbLine
 10
2251.2179892497
 20
1318.0145990212
 30
0.0
 11
2264.7179942565
 21
1331.5145891268
 31
0.0
  0
LINE
  5
366
330
1F
100
AcDbEntity
  8
0
  6
CONTINUOUS
 62
     7
100
AcDbLine
 10
2251.2179892497
 20
1318.0145990212
 30
0.0
 11
2251.2179892497
 21
1315.843022998
 31
0.0
  0
LINE
  5
367
330
1F
100
AcDbEntity
  8
0
  6
CONTINUOUS
 62
     7
100
AcDbLine
 10
2264.7179942565
 20
1302.3430328924
 30
0.0
 11
2251.2179892497
 21
1315.843022998
 31
0.0
  0
LINE
  5
368
330
1F
100
AcDbEntity
  8
0
  6
CONTINUOUS
 62
     7
100
AcDbLine
 10
2264.7179942565
 20
1331.5145891268
 30
0.0
 11
2264.7179942565
 21
1302.3430328924
 31
0.0
  0
LINE
  5
369
330
1F
100
AcDbEntity
  8
0
  6
CONTINUOUS
 62
     7
100
AcDbLine
 10
2263.3037697511
 20
1300.9287934858
 30
0.0
 11
2251.2179892497
 21
1313.0145888884
 31
0.0
  0
LINE
  5
36A
330
1F
100
AcDbEntity
  8
0
  6
CONTINUOUS
 62
     7
100
AcDbLine
 10
2251.2179892497
 20
1313.0145888884
 30
0.0
 11
2251.2179892497
 21
1288.8430278856
 31
0.0
  0
LINE
  5
36B
330
1F
100
AcDbEntity
  8
0
  6
CONTINUOUS
 62
     7
100
AcDbLine
 10
2263.3037697511
 20
1300.9287934858
 30
0.0
 11
2251.2179892497
 21
1288.8430278856
 31
0.0
  0
LINE
  5
36C
330
1F
100
AcDbEntity
  8
0
  6
CONTINUOUS
 62
     7
100
AcDbLine
 10
2669.8923986392
 20
1889.9792950708
 30
0.0
 11
2472.2179900842
 21
1893.4297185499
 31
0.0
  0
ARC
  5
36D
330
1F
100
AcDbEntity
  8
0
  6
CONTINUOUS
 62
     7
100
AcDbCircle
 10
2669.6655157611
 20
1876.9812799683
 30
0.0
 40
13.0000000000004
100
AcDbArc
 50
45.0
 51
89.0
  0
LINE
  5
36E
330
1F
100
AcDbEntity
  8
0
  6
CONTINUOUS
 62
     7
100
AcDbLine
 10
2701.4103811221
 20
1863.6211972792
 30
0.0
 11
2678.8579057889
 21
1886.1736577112
 31
0.0
  0
ARC
  5
36F
330
1F
100
AcDbEntity
  8
0
  6
CONTINUOUS
 62
     7
100
AcDbCircle
 10
2692.2179900842
 20
1854.4288056452
 30
0.0
 40
13.0000000000001
100
AcDbArc
 50
0.0
 51
45.0
  0
LINE
  5
370
330
1F
100
AcDbEntity
  8
0
  6
CONTINUOUS
 62
     7
100
AcDbLine
 10
2705.217985435
 20
1259.4287913401
 30
0.0
 11
2705.217985435
 21
1854.4288199503
 31
0.0
  0
ARC
  5
371
330
1F
100
AcDbEntity
  8
0
  6
CONTINUOUS
 62
     7
100
AcDbCircle
 10
2692.2179900842
 20
1259.4288056452
 30
0.0
 40
13.0000000000001
100
AcDbArc
 50
315.0
 51
360.0
  0
LINE
  5
372
330
1F
100
AcDbEntity
  8
0
  6
CONTINUOUS
 62
     7
100
AcDbLine
 10
2678.8579057889
 20
1227.6839535791
 30
0.0
 11
2701.4103811221
 21
1250.2364140112
 31
0.0
  0
ARC
  5
373
330
1F
100
AcDbEntity
  8
0
  6
CONTINUOUS
 62
     7
100
AcDbCircle
 10
2669.6655157611
 20
1236.8763313221
 30
0.0
 40
12.99999999999994
100
AcDbArc
 50
271.0
 51
315.0
  0
LINE
  5
374
330
1F
100
AcDbEntity
  8
0
  6
CONTINUOUS
 62
     7
100
AcDbLine
 10
2472.2179900842
 20
1220.4278927404
 30
0.0
 11
2669.8923986392
 21
1223.8783162195
 31
0.0
  0
LINE
  5
375
330
1F
100
AcDbEntity
  8
0
  6
CONTINUOUS
 62
     7
100
AcDbLine
 10
2274.5435815292
 20
1223.8783162195
 30
0.0
 11
2472.2179900842
 21
1220.4278927404
 31
0.0
  0
ARC
  5
376
330
1F
100
AcDbEntity
  8
0
  6
CONTINUOUS
 62
     7
100
AcDbCircle
 10
2274.7704644073
 20
1236.8763313221
 30
0.0
 40
12.99999999999994
100
AcDbArc
 50
225.0
 51
269.0
  0
LINE
  5
377
330
1F
100
AcDbEntity
  8
0
  6
CONTINUOUS
 62
     7
100
AcDbLine
 10
2243.0255990463
 20
1250.2364140112
 30
0.0
 11
2265.5780743795
 21
1227.6839535791
 31
0.0
  0
LINE
  5
378
330
1F
100
AcDbEntity
  8
0
  6
CONTINUOUS
 62
     7
100
AcDbLine
 10
2239.2179947334
 20
1854.4288199503
 30
0.0
 11
2239.2179947334
 21
1259.4287913401
 31
0.0
  0
LINE
  5
379
330
1F
100
AcDbEntity
  8
0
  6
CONTINUOUS
 62
     7
100
AcDbLine
 10
2265.5780743795
 20
1886.1736577112
 30
0.0
 11
2243.0255990463
 21
1863.6211972792
 31
0.0
  0
ARC
  5
37A
330
1F
100
AcDbEntity
  8
0
  6
CONTINUOUS
 62
     7
100
AcDbCircle
 10
2274.7704644073
 20
1876.9812799683
 30
0.0
 40
13.0000000000004
100
AcDbArc
 50
91.0
 51
135.0
  0
LINE
  5
37B
330
1F
100
AcDbEntity
  8
0
  6
CONTINUOUS
 62
     7
100
AcDbLine
 10
2472.2179900842
 20
1893.4297185499
 30
0.0
 11
2274.5435815292
 21
1889.9792950708
 31
0.0
  0
ARC
  5
37C
330
1F
100
AcDbEntity
  8
0
  6
CONTINUOUS
 62
     7
100
AcDbCircle
 10
2276.2179900842
 20
1257.9288056452
 30
0.0
 40
11.5
100
AcDbArc
 50
180.0
 51
270.0
  0
LINE
  5
37D
330
1F
100
AcDbEntity
  8
0
  6
CONTINUOUS
 62
     7
100
AcDbLine
 10
2264.7179942565
 20
1267.5145786364
 30
0.0
 11
2264.7179942565
 21
1257.928810652
 31
0.0
  0
LINE
  5
37E
330
1F
100
AcDbEntity
  8
0
  6
CONTINUOUS
 62
     7
100
AcDbLine
 10
2253.7179868656
 20
1256.5146010477
 30
0.0
 11
2264.7179942565
 21
1267.5145786364
 31
0.0
  0
LINE
  5
37F
330
1F
100
AcDbEntity
  8
0
  6
CONTINUOUS
 62
     7
100
AcDbLine
 10
2253.7179868656
 20
1256.5146010477
 30
0.0
 11
2271.3037710624
 21
1238.9288168509
 31
0.0
  0
LINE
  5
380
330
1F
100
AcDbEntity
  8
0
  6
CONTINUOUS
 62
     7
100
AcDbLine
 10
2271.3037710624
 20
1238.9288168509
 30
0.0
 11
2278.803778811
 21
1246.4288096983
 31
0.0
  0
LINE
  5
381
330
1F
100
AcDbEntity
  8
0
  6
CONTINUOUS
 62
     7
100
AcDbLine
 10
2276.2179952102
 20
1246.4288096983
 30
0.0
 11
2278.803778811
 21
1246.4288096983
 31
0.0
  0
LINE
  5
382
330
1F
100
AcDbEntity
  8
0
  6
CONTINUOUS
 62
     7
100
AcDbLine
 10
2272.7179955678
 20
1237.5145774443
 30
0.0
 11
2280.2179884153
 21
1245.014600094
 31
0.0
  0
LINE
  5
383
330
1F
100
AcDbEntity
  8
0
  6
CONTINUOUS
 62
     7
100
AcDbLine
 10
2272.7179955678
 20
1237.5145774443
 30
0.0
 11
2274.0633618074
 21
1236.1692112047
 31
0.0
  0
ARC
  5
384
330
1F
100
AcDbEntity
  8
0
  6
CONTINUOUS
 62
     7
100
AcDbCircle
 10
2274.7704644073
 20
1236.8763313221
 30
0.0
 40
1.000000000000008
100
AcDbArc
 50
225.0
 51
269.0
  0
LINE
  5
385
330
1F
100
AcDbEntity
  8
0
  6
CONTINUOUS
 62
     7
100
AcDbLine
 10
2274.7530173498
 20
1235.8764927942
 30
0.0
 11
2289.6155249315
 21
1235.6170635778
 31
0.0
  0
LINE
  5
386
330
1F
100
AcDbEntity
  8
0
  6
CONTINUOUS
 62
     7
100
AcDbLine
 10
2280.2179884153
 20
1245.014600094
 30
0.0
 11
2289.6155249315
 21
1235.6170635778
 31
0.0
  0
CIRCLE
  5
387
330
1F
100
AcDbEntity
  8
0
  6
CONTINUOUS
 62
     7
100
AcDbCircle
 10
2277.2179900842
 20
1406.9288056452
 30
0.0
 40
2.5
  0
CIRCLE
  5
388
330
1F
100
AcDbEntity
  8
0
  6
CONTINUOUS
 62
     7
100
AcDbCircle
 10
2277.2179900842
 20
1556.9288056452
 30
0.0
 40
2.5
  0
CIRCLE
  5
389
330
1F
100
AcDbEntity
  8
0
  6
CONTINUOUS
 62
     7
100
AcDbCircle
 10
2277.2179900842
 20
1706.9288056452
 30
0.0
 40
2.5
  0
LINE
  5
38A
330
1F
100
AcDbEntity
  8
0
  6
CONTINUOUS
 62
     7
100
AcDbLine
 10
2277.0570497947
 20
1857.9266589243
 30
0.0
 11
2277.0570497947
 21
1865.9287911016
 31
0.0
  0
LINE
  5
38B
330
1F
100
AcDbEntity
  8
0
  6
CONTINUOUS
 62
     7
100
AcDbLine
 10
2277.0570497947
 20
1865.9287911016
 30
0.0
 11
2276.2179952102
 21
1865.9287911016
 31
0.0
  0
ARC
  5
38C
330
1F
100
AcDbEntity
  8
0
  6
CONTINUOUS
 62
     7
100
AcDbCircle
 10
2276.2179900842
 20
1855.9288056452
 30
0.0
 40
10.00000000000023
100
AcDbArc
 50
90.0
 51
180.0
  0
LINE
  5
38D
330
1F
100
AcDbEntity
  8
0
  6
CONTINUOUS
 62
     7
100
AcDbLine
 10
2266.2179898458
 20
1855.9288006384
 30
0.0
 11
2266.2179898458
 21
1707.6788019497
 31
0.0
  0
LINE
  5
38E
330
1F
100
AcDbEntity
  8
0
  6
CONTINUOUS
 62
     7
100
AcDbLine
 10
2271.2650429445
 20
1707.6788019497
 30
0.0
 11
2266.2179898458
 21
1707.6788019497
 31
0.0
  0
ARC
  5
38F
330
1F
100
AcDbEntity
  8
0
  6
CONTINUOUS
 62
     7
100
AcDbCircle
 10
2277.2179900842
 20
1706.9288056452
 30
0.0
 40
5.999999999999994
100
AcDbArc
 50
187.1807557815
 51
172.8192442185
  0
LINE
  5
390
330
1F
100
AcDbEntity
  8
0
  6
CONTINUOUS
 62
     7
100
AcDbLine
 10
2266.2179898458
 20
1706.1788063604
 30
0.0
 11
2271.2650429445
 21
1706.1788063604
 31
0.0
  0
LINE
  5
391
330
1F
100
AcDbEntity
  8
0
  6
CONTINUOUS
 62
     7
100
AcDbLine
 10
2266.2179898458
 20
1706.1788063604
 30
0.0
 11
2266.2179898458
 21
1557.6788056517
 31
0.0
  0
LINE
  5
392
330
1F
100
AcDbEntity
  8
0
  6
CONTINUOUS
 62
     7
100
AcDbLine
 10
2271.2650429445
 20
1557.6788056517
 30
0.0
 11
2266.2179898458
 21
1557.6788056517
 31
0.0
  0
ARC
  5
393
330
1F
100
AcDbEntity
  8
0
  6
CONTINUOUS
 62
     7
100
AcDbCircle
 10
2277.2179900842
 20
1556.9288056452
 30
0.0
 40
5.999999999999994
100
AcDbArc
 50
187.1807557815
 51
172.8192442185
  0
LINE
  5
394
330
1F
100
AcDbEntity
  8
0
  6
CONTINUOUS
 62
     7
100
AcDbLine
 10
2266.2179898458
 20
1556.1788056387
 30
0.0
 11
2271.2650429445
 21
1556.1788056387
 31
0.0
  0
LINE
  5
395
330
1F
100
AcDbEntity
  8
0
  6
CONTINUOUS
 62
     7
100
AcDbLine
 10
2266.2179898458
 20
1556.1788056387
 30
0.0
 11
2266.2179898458
 21
1407.6788049299
 31
0.0
  0
LINE
  5
396
330
1F
100
AcDbEntity
  8
0
  6
CONTINUOUS
 62
     7
100
AcDbLine
 10
2271.2650429445
 20
1407.6788049299
 30
0.0
 11
2266.2179898458
 21
1407.6788049299
 31
0.0
  0
ARC
  5
397
330
1F
100
AcDbEntity
  8
0
  6
CONTINUOUS
 62
     7
100
AcDbCircle
 10
2277.2179900842
 20
1406.9288056452
 30
0.0
 40
6.000000000000022
100
AcDbArc
 50
187.1807557815
 51
172.8192442185
  0
LINE
  5
398
330
1F
100
AcDbEntity
  8
0
  6
CONTINUOUS
 62
     7
100
AcDbLine
 10
2266.2179898458
 20
1406.1788093407
 30
0.0
 11
2271.2650429445
 21
1406.1788093407
 31
0.0
  0
LINE
  5
399
330
1F
100
AcDbEntity
  8
0
  6
CONTINUOUS
 62
     7
100
AcDbLine
 10
2266.2179898458
 20
1406.1788093407
 30
0.0
 11
2266.2179898458
 21
1257.928810652
 31
0.0
  0
ARC
  5
39A
330
1F
100
AcDbEntity
  8
0
  6
CONTINUOUS
 62
     7
100
AcDbCircle
 10
2276.2179900842
 20
1257.9288056452
 30
0.0
 40
10.0
100
AcDbArc
 50
180.0
 51
270.0
  0
LINE
  5
39B
330
1F
100
AcDbEntity
  8
0
  6
CONTINUOUS
 62
     7
100
AcDbLine
 10
2276.2179952102
 20
1247.9288201887
 30
0.0
 11
2276.4679919916
 21
1247.9288201887
 31
0.0
  0
LINE
  5
39C
330
1F
100
AcDbEntity
  8
0
  6
CONTINUOUS
 62
     7
100
AcDbLine
 10
2276.4679919916
 20
1247.9288201887
 30
0.0
 11
2276.4679919916
 21
1255.9758644659
 31
0.0
  0
ARC
  5
39D
330
1F
100
AcDbEntity
  8
0
  6
CONTINUOUS
 62
     7
100
AcDbCircle
 10
2277.2179900842
 20
1261.9288056452
 30
0.0
 40
6.000000000000164
100
AcDbArc
 50
277.1807557815
 51
262.8192442185
  0
LINE
  5
39E
330
1F
100
AcDbEntity
  8
0
  6
CONTINUOUS
 62
     7
100
AcDbLine
 10
2277.9679875808
 20
1247.9288201887
 30
0.0
 11
2277.9679875808
 21
1255.9758644659
 31
0.0
  0
LINE
  5
39F
330
1F
100
AcDbEntity
  8
0
  6
CONTINUOUS
 62
     7
100
AcDbLine
 10
2277.9679875808
 20
1247.9288201887
 30
0.0
 11
2666.4679925876
 21
1247.9288201887
 31
0.0
  0
LINE
  5
3A0
330
1F
100
AcDbEntity
  8
0
  6
CONTINUOUS
 62
     7
100
AcDbLine
 10
2666.4679925876
 20
1255.9758644659
 30
0.0
 11
2666.4679925876
 21
1247.9288201887
 31
0.0
  0
ARC
  5
3A1
330
1F
100
AcDbEntity
  8
0
  6
CONTINUOUS
 62
     7
100
AcDbCircle
 10
2667.2179900842
 20
1261.9288056452
 30
0.0
 40
6.000000000000107
100
AcDbArc
 50
277.1807557815
 51
262.8192442185
  0
LINE
  5
3A2
330
1F
100
AcDbEntity
  8
0
  6
CONTINUOUS
 62
     7
100
AcDbLine
 10
2667.9679881769
 20
1247.9288201887
 30
0.0
 11
2667.9679881769
 21
1255.9758644659
 31
0.0
  0
LINE
  5
3A3
330
1F
100
AcDbEntity
  8
0
  6
CONTINUOUS
 62
     7
100
AcDbLine
 10
2667.9679881769
 20
1247.9288201887
 30
0.0
 11
2668.2179849582
 21
1247.9288201887
 31
0.0
  0
ARC
  5
3A4
330
1F
100
AcDbEntity
  8
0
  6
CONTINUOUS
 62
     7
100
AcDbCircle
 10
2668.2179900842
 20
1257.9288056452
 30
0.0
 40
10.0
100
AcDbArc
 50
270.0
 51
0.0
  0
LINE
  5
3A5
330
1F
100
AcDbEntity
  8
0
  6
CONTINUOUS
 62
     7
100
AcDbLine
 10
2678.2179903226
 20
1257.928810652
 30
0.0
 11
2678.2179903226
 21
1406.1788093407
 31
0.0
  0
LINE
  5
3A6
330
1F
100
AcDbEntity
  8
0
  6
CONTINUOUS
 62
     7
100
AcDbLine
 10
2673.1709372239
 20
1406.1788093407
 30
0.0
 11
2678.2179903226
 21
1406.1788093407
 31
0.0
  0
ARC
  5
3A7
330
1F
100
AcDbEntity
  8
0
  6
CONTINUOUS
 62
     7
100
AcDbCircle
 10
2667.2179900842
 20
1406.9288056452
 30
0.0
 40
6.000000000000022
100
AcDbArc
 50
7.1807557815
 51
352.8192442185
  0
LINE
  5
3A8
330
1F
100
AcDbEntity
  8
0
  6
CONTINUOUS
 62
     7
100
AcDbLine
 10
2678.2179903226
 20
1407.6788049299
 30
0.0
 11
2673.1709372239
 21
1407.6788049299
 31
0.0
  0
LINE
  5
3A9
330
1F
100
AcDbEntity
  8
0
  6
CONTINUOUS
 62
     7
100
AcDbLine
 10
2678.2179903226
 20
1407.6788049299
 30
0.0
 11
2678.2179903226
 21
1556.1788056387
 31
0.0
  0
LINE
  5
3AA
330
1F
100
AcDbEntity
  8
0
  6
CONTINUOUS
 62
     7
100
AcDbLine
 10
2673.1709372239
 20
1556.1788056387
 30
0.0
 11
2678.2179903226
 21
1556.1788056387
 31
0.0
  0
ARC
  5
3AB
330
1F
100
AcDbEntity
  8
0
  6
CONTINUOUS
 62
     7
100
AcDbCircle
 10
2667.2179900842
 20
1556.9288056452
 30
0.0
 40
5.999999999999994
100
AcDbArc
 50
7.1807557815
 51
352.8192442185
  0
LINE
  5
3AC
330
1F
100
AcDbEntity
  8
0
  6
CONTINUOUS
 62
     7
100
AcDbLine
 10
2678.2179903226
 20
1557.6788056517
 30
0.0
 11
2673.1709372239
 21
1557.6788056517
 31
0.0
  0
LINE
  5
3AD
330
1F
100
AcDbEntity
  8
0
  6
CONTINUOUS
 62
     7
100
AcDbLine
 10
2678.2179903226
 20
1557.6788056517
 30
0.0
 11
2678.2179903226
 21
1706.1788063604
 31
0.0
  0
LINE
  5
3AE
330
1F
100
AcDbEntity
  8
0
  6
CONTINUOUS
 62
     7
100
AcDbLine
 10
2673.1709372239
 20
1706.1788063604
 30
0.0
 11
2678.2179903226
 21
1706.1788063604
 31
0.0
  0
ARC
  5
3AF
330
1F
100
AcDbEntity
  8
0
  6
CONTINUOUS
 62
     7
100
AcDbCircle
 10
2667.2179900842
 20
1706.9288056452
 30
0.0
 40
6.000000000000022
100
AcDbArc
 50
7.1807557815
 51
352.8192442185
  0
LINE
  5
3B0
330
1F
100
AcDbEntity
  8
0
  6
CONTINUOUS
 62
     7
100
AcDbLine
 10
2678.2179903226
 20
1707.6788019497
 30
0.0
 11
2673.1709372239
 21
1707.6788019497
 31
0.0
  0
LINE
  5
3B1
330
1F
100
AcDbEntity
  8
0
  6
CONTINUOUS
 62
     7
100
AcDbLine
 10
2678.2179903226
 20
1707.6788019497
 30
0.0
 11
2678.2179903226
 21
1855.9288006384
 31
0.0
  0
ARC
  5
3B2
330
1F
100
AcDbEntity
  8
0
  6
CONTINUOUS
 62
     7
100
AcDbCircle
 10
2668.2179900842
 20
1855.9288056452
 30
0.0
 40
10.00000000000023
100
AcDbArc
 50
0.0
 51
90.0
  0
LINE
  5
3B3
330
1F
100
AcDbEntity
  8
0
  6
CONTINUOUS
 62
     7
100
AcDbLine
 10
2668.2179849582
 20
1865.9287911016
 30
0.0
 11
2667.9679881769
 21
1865.9287911016
 31
0.0
  0
LINE
  5
3B4
330
1F
100
AcDbEntity
  8
0
  6
CONTINUOUS
 62
     7
100
AcDbLine
 10
2667.9679881769
 20
1865.9287911016
 30
0.0
 11
2667.9679881769
 21
1857.8817468245
 31
0.0
  0
ARC
  5
3B5
330
1F
100
AcDbEntity
  8
0
  6
CONTINUOUS
 62
     7
100
AcDbCircle
 10
2667.2179900842
 20
1851.9288056452
 30
0.0
 40
5.999999999999882
100
AcDbArc
 50
97.1807557815
 51
82.8192442185
  0
LINE
  5
3B6
330
1F
100
AcDbEntity
  8
0
  6
CONTINUOUS
 62
     7
100
AcDbLine
 10
2666.4679925876
 20
1865.9287911016
 30
0.0
 11
2666.4679925876
 21
1857.8817468245
 31
0.0
  0
LINE
  5
3B7
330
1F
100
AcDbEntity
  8
0
  6
CONTINUOUS
 62
     7
100
AcDbLine
 10
2666.4679925876
 20
1865.9287911016
 30
0.0
 11
2278.557045384
 21
1865.9287911016
 31
0.0
  0
LINE
  5
3B8
330
1F
100
AcDbEntity
  8
0
  6
CONTINUOUS
 62
     7
100
AcDbLine
 10
2278.557045384
 20
1857.7774684984
 30
0.0
 11
2278.557045384
 21
1865.9287911016
 31
0.0
  0
ARC
  5
3B9
330
1F
100
AcDbEntity
  8
0
  6
CONTINUOUS
 62
     7
100
AcDbCircle
 10
2277.2179900842
 20
1851.9288056452
 30
0.0
 40
6.000000000000099
100
AcDbArc
 50
91.5370343065
 51
77.1043030717
  0
CIRCLE
  5
3BA
330
1F
100
AcDbEntity
  8
0
  6
CONTINUOUS
 62
     7
100
AcDbCircle
 10
2277.2179900842
 20
1851.9288056452
 30
0.0
 40
2.5
  0
LINE
  5
3BB
330
1F
100
AcDbEntity
  8
0
  6
CONTINUOUS
 62
     7
100
AcDbLine
 10
2271.3037710624
 20
1874.9287944395
 30
0.0
 11
2253.7179868656
 21
1857.3430102427
 31
0.0
  0
LINE
  5
3BC
330
1F
100
AcDbEntity
  8
0
  6
CONTINUOUS
 62
     7
100
AcDbLine
 10
2264.7179942565
 20
1846.343032654
 30
0.0
 11
2253.7179868656
 21
1857.3430102427
 31
0.0
  0
LINE
  5
3BD
330
1F
100
AcDbEntity
  8
0
  6
CONTINUOUS
 62
     7
100
AcDbLine
 10
2264.7179942565
 20
1855.9288006384
 30
0.0
 11
2264.7179942565
 21
1846.343032654
 31
0.0
  0
ARC
  5
3BE
330
1F
100
AcDbEntity
  8
0
  6
CONTINUOUS
 62
     7
100
AcDbCircle
 10
2276.2179900842
 20
1855.9288056452
 30
0.0
 40
11.5
100
AcDbArc
 50
90.0
 51
180.0
  0
LINE
  5
3BF
330
1F
100
AcDbEntity
  8
0
  6
CONTINUOUS
 62
     7
100
AcDbLine
 10
2278.803778811
 20
1867.4288015921
 30
0.0
 11
2276.2179952102
 21
1867.4288015921
 31
0.0
  0
LINE
  5
3C0
330
1F
100
AcDbEntity
  8
0
  6
CONTINUOUS
 62
     7
100
AcDbLine
 10
2271.3037710624
 20
1874.9287944395
 30
0.0
 11
2278.803778811
 21
1867.4288015921
 31
0.0
  0
LINE
  5
3C1
330
1F
100
AcDbEntity
  8
0
  6
CONTINUOUS
 62
     7
100
AcDbLine
 10
2274.0633618074
 20
1877.6884000856
 30
0.0
 11
2272.7179955678
 21
1876.3430338461
 31
0.0
  0
LINE
  5
3C2
330
1F
100
AcDbEntity
  8
0
  6
CONTINUOUS
 62
     7
100
AcDbLine
 10
2272.7179955678
 20
1876.3430338461
 30
0.0
 11
2280.2179884153
 21
1868.8430111963
 31
0.0
  0
LINE
  5
3C3
330
1F
100
AcDbEntity
  8
0
  6
CONTINUOUS
 62
     7
100
AcDbLine
 10
2280.2179884153
 20
1868.8430111963
 30
0.0
 11
2289.6155249315
 21
1878.2405477125
 31
0.0
  0
LINE
  5
3C4
330
1F
100
AcDbEntity
  8
0
  6
CONTINUOUS
 62
     7
100
AcDbLine
 10
2289.6155249315
 20
1878.2405477125
 30
0.0
 11
2274.7530173498
 21
1877.9811184961
 31
0.0
  0
ARC
  5
3C5
330
1F
100
AcDbEntity
  8
0
  6
CONTINUOUS
 62
     7
100
AcDbCircle
 10
2274.7704644073
 20
1876.9812799683
 30
0.0
 40
1.00000000000033
100
AcDbArc
 50
91.0
 51
135.0
  0
LINE
  5
3C6
330
1F
100
AcDbEntity
  8
0
  6
CONTINUOUS
 62
     7
100
AcDbLine
 10
2238.9128487544
 20
1259.4287913401
 30
0.0
 11
2238.9128487544
 21
1854.4288199503
 31
0.0
  0
SPLINE
  5
3C7
330
1F
100
AcDbEntity
  8
0
  6
CONTINUOUS
 62
     7
100
AcDbSpline
210
0.0
220
0.0
230
1.0
 70
     8
 71
     3
 72
     8
 73
     4
 74
     0
 42
0.00000001
 43
0.00000001
 12
1.0
 22
0.0
 32
0.0
 13
1.0
 23
0.0
 33
0.0
 40
0.0
 40
0.0
 40
0.0
 40
0.0
 40
1.0
 40
1.0
 40
1.0
 40
1.0
 10
2242.809709578939
 20
1863.837086150448
 30
0.0
 10
2250.324063913852
 20
1871.357734921983
 30
0.0
 10
2257.841562703305
 20
1878.875219014527
 30
0.0
 10
2265.362205921739
 20
1886.389538453801
 30
0.0
  0
LINE
  5
3C8
330
1F
100
AcDbEntity
  8
0
  6
CONTINUOUS
 62
     7
100
AcDbLine
 10
2265.3622012573
 20
1886.3895457346
 30
0.0
 11
2265.5780743795
 21
1886.1736577112
 31
0.0
  0
SPLINE
  5
3C9
330
1F
100
AcDbEntity
  8
0
  6
CONTINUOUS
 62
     7
100
AcDbSpline
210
0.0
220
0.0
230
1.0
 70
     8
 71
     3
 72
     8
 73
     4
 74
     0
 42
0.00000001
 43
0.00000001
 12
1.0
 22
0.0
 32
0.0
 13
1.0
 23
0.0
 33
0.0
 40
0.0
 40
0.0
 40
0.0
 40
0.0
 40
1.0
 40
1.0
 40
1.0
 40
1.0
 10
2265.362205921739
 20
1227.468072836564
 30
0.0
 10
2257.841562703305
 20
1234.982392275838
 30
0.0
 10
2250.324063913852
 20
1242.499876368382
 30
0.0
 10
2242.809709578939
 20
1250.020525139917
 30
0.0
  0
LINE
  5
3CA
330
1F
100
AcDbEntity
  8
0
  6
CONTINUOUS
 62
     7
100
AcDbLine
 10
2265.3622012573
 20
1227.4680655558
 30
0.0
 11
2265.5780743795
 21
1227.6839535791
 31
0.0
  0
LINE
  5
3CB
330
1F
100
AcDbEntity
  8
0
  6
CONTINUOUS
 62
     7
100
AcDbLine
 10
2251.5424173313
 20
1385.1674419004
 30
0.0
 11
2251.5424173313
 21
1408.6901616413
 31
0.0
  0
LINE
  5
3CC
330
1F
100
AcDbEntity
  8
0
  6
CONTINUOUS
 62
     7
100
AcDbLine
 10
2251.5424173313
 20
1411.518595751
 30
0.0
 11
2251.5424173313
 21
1414.339013036
 31
0.0
  0
LINE
  5
3CD
330
1F
100
AcDbEntity
  8
0
  6
CONTINUOUS
 62
     7
100
AcDbLine
 10
2251.5424173313
 20
1577.1674472947
 30
0.0
 11
2251.5424173313
 21
1600.6901633102
 31
0.0
  0
LINE
  5
3CE
330
1F
100
AcDbEntity
  8
0
  6
CONTINUOUS
 62
     7
100
AcDbLine
 10
2251.5424173313
 20
1603.5185899694
 30
0.0
 11
2251.5424173313
 21
1606.3390184302
 31
0.0
  0
LINE
  5
3CF
330
1F
100
AcDbEntity
  8
0
  6
CONTINUOUS
 62
     7
100
AcDbLine
 10
2251.5424173313
 20
1475.5185913403
 30
0.0
 11
2251.5424173313
 21
1478.3390160758
 31
0.0
  0
LINE
  5
3D0
330
1F
100
AcDbEntity
  8
0
  6
CONTINUOUS
 62
     7
100
AcDbLine
 10
2251.740498467
 20
1854.9062829573
 30
0.0
 11
2251.5108864742
 21
1855.1359098513
 31
0.0
  0
ARC
  5
3D1
330
1F
100
AcDbEntity
  8
0
  6
CONTINUOUS
 62
     7
100
AcDbCircle
 10
2252.216959977
 20
1854.4288056452
 30
0.0
 40
0.6745423082238631
100
AcDbArc
 50
134.9381298422
 51
180.0
  0
LINE
  5
3D2
330
1F
100
AcDbEntity
  8
0
  6
CONTINUOUS
 62
     7
100
AcDbLine
 10
2251.5424173313
 20
1854.4288199503
 30
0.0
 11
2251.2179892497
 21
1854.4288199503
 31
0.0
  0
LINE
  5
3D3
330
1F
100
AcDbEntity
  8
0
  6
CONTINUOUS
 62
     7
100
AcDbLine
 10
2251.5424173313
 20
1259.4287913401
 30
0.0
 11
2251.2179892497
 21
1259.4287913401
 31
0.0
  0
LINE
  5
3D4
330
1F
100
AcDbEntity
  8
0
  6
CONTINUOUS
 62
     7
100
AcDbLine
 10
2251.5424173313
 20
1259.4287913401
 30
0.0
 11
2251.5424173313
 21
1280.6901555616
 31
0.0
  0
ARC
  5
3D5
330
1F
100
AcDbEntity
  8
0
  6
CONTINUOUS
 62
     7
100
AcDbCircle
 10
2252.216959977
 20
1259.4288056452
 30
0.0
 40
0.6745423082234083
100
AcDbArc
 50
180.0
 51
225.0618701578
  0
LINE
  5
3D6
330
1F
100
AcDbEntity
  8
0
  6
CONTINUOUS
 62
     7
100
AcDbLine
 10
2251.740498467
 20
1258.9513283331
 30
0.0
 11
2251.5108864742
 21
1258.7217014391
 31
0.0
  0
LINE
  5
3D7
330
1F
100
AcDbEntity
  8
0
  6
CONTINUOUS
 62
     7
100
AcDbLine
 10
2251.5424173313
 20
1513.1674479801
 30
0.0
 11
2251.5424173313
 21
1536.6901639957
 31
0.0
  0
LINE
  5
3D8
330
1F
100
AcDbEntity
  8
0
  6
CONTINUOUS
 62
     7
100
AcDbLine
 10
2251.5424173313
 20
1449.1674449403
 30
0.0
 11
2251.5424173313
 21
1472.6901646812
 31
0.0
  0
LINE
  5
3D9
330
1F
100
AcDbEntity
  8
0
  6
CONTINUOUS
 62
     7
100
AcDbLine
 10
2251.5424173313
 20
1763.5185938437
 30
0.0
 11
2251.5424173313
 21
1766.3390260298
 31
0.0
  0
LINE
  5
3DA
330
1F
100
AcDbEntity
  8
0
  6
CONTINUOUS
 62
     7
100
AcDbLine
 10
2251.5424173313
 20
1705.1674496491
 30
0.0
 11
2251.5424173313
 21
1728.6901693899
 31
0.0
  0
LINE
  5
3DB
330
1F
100
AcDbEntity
  8
0
  6
CONTINUOUS
 62
     7
100
AcDbLine
 10
2251.5424173313
 20
1731.5185885984
 30
0.0
 11
2251.5424173313
 21
1734.3390207846
 31
0.0
  0
LINE
  5
3DC
330
1F
100
AcDbEntity
  8
0
  6
CONTINUOUS
 62
     7
100
AcDbLine
 10
2251.5424173313
 20
1417.1674471457
 30
0.0
 11
2251.5424173313
 21
1440.6901668865
 31
0.0
  0
LINE
  5
3DD
330
1F
100
AcDbEntity
  8
0
  6
CONTINUOUS
 62
     7
100
AcDbLine
 10
2251.5424173313
 20
1443.5185935456
 30
0.0
 11
2251.5424173313
 21
1446.3390182812
 31
0.0
  0
LINE
  5
3DE
330
1F
100
AcDbEntity
  8
0
  6
CONTINUOUS
 62
     7
100
AcDbLine
 10
2251.5424173313
 20
1737.1674399931
 30
0.0
 11
2251.5424173313
 21
1760.690159734
 31
0.0
  0
LINE
  5
3DF
330
1F
100
AcDbEntity
  8
0
  6
CONTINUOUS
 62
     7
100
AcDbLine
 10
2251.5424173313
 20
1641.1674466092
 30
0.0
 11
2251.5424173313
 21
1664.6901663501
 31
0.0
  0
LINE
  5
3E0
330
1F
100
AcDbEntity
  8
0
  6
CONTINUOUS
 62
     7
100
AcDbLine
 10
2251.5424173313
 20
1667.5185930092
 30
0.0
 11
2251.5424173313
 21
1670.3390177447
 31
0.0
  0
LINE
  5
3E1
330
1F
100
AcDbEntity
  8
0
  6
CONTINUOUS
 62
     7
100
AcDbLine
 10
2251.5424173313
 20
1609.1674450893
 30
0.0
 11
2251.5424173313
 21
1632.6901611049
 31
0.0
  0
LINE
  5
3E2
330
1F
100
AcDbEntity
  8
0
  6
CONTINUOUS
 62
     7
100
AcDbLine
 10
2251.5424173313
 20
1635.5185952146
 30
0.0
 11
2251.5424173313
 21
1638.3390199501
 31
0.0
  0
LINE
  5
3E3
330
1F
100
AcDbEntity
  8
0
  6
CONTINUOUS
 62
     7
100
AcDbLine
 10
2251.5424173313
 20
1571.5185912434
 30
0.0
 11
2251.5424173313
 21
1574.3390187729
 31
0.0
  0
LINE
  5
3E4
330
1F
100
AcDbEntity
  8
0
  6
CONTINUOUS
 62
     7
100
AcDbLine
 10
2251.5424173313
 20
1283.5186045725
 30
0.0
 11
2251.5424173313
 21
1286.3390069563
 31
0.0
  0
LINE
  5
3E5
330
1F
100
AcDbEntity
  8
0
  6
CONTINUOUS
 62
     7
100
AcDbLine
 10
2251.5424173313
 20
1289.1674559671
 30
0.0
 11
2251.5424173313
 21
1312.6901608068
 31
0.0
  0
LINE
  5
3E6
330
1F
100
AcDbEntity
  8
0
  6
CONTINUOUS
 62
     7
100
AcDbLine
 10
2251.5424173313
 20
1315.5185949165
 30
0.0
 11
2251.5424173313
 21
1318.3390271027
 31
0.0
  0
LINE
  5
3E7
330
1F
100
AcDbEntity
  8
0
  6
CONTINUOUS
 62
     7
100
AcDbLine
 10
2251.5424173313
 20
1321.1674463112
 30
0.0
 11
2251.5424173313
 21
1344.6901660521
 31
0.0
  0
LINE
  5
3E8
330
1F
100
AcDbEntity
  8
0
  6
CONTINUOUS
 62
     7
100
AcDbLine
 10
2251.5424173313
 20
1347.5185852606
 30
0.0
 11
2251.5424173313
 21
1350.3390174467
 31
0.0
  0
LINE
  5
3E9
330
1F
100
AcDbEntity
  8
0
  6
CONTINUOUS
 62
     7
100
AcDbLine
 10
2251.5424173313
 20
1795.5185841877
 30
0.0
 11
2251.5424173313
 21
1798.3390163738
 31
0.0
  0
LINE
  5
3EA
330
1F
100
AcDbEntity
  8
0
  6
CONTINUOUS
 62
     7
100
AcDbLine
 10
2251.5424173313
 20
1353.1674515564
 30
0.0
 11
2251.5424173313
 21
1376.6901712973
 31
0.0
  0
LINE
  5
3EB
330
1F
100
AcDbEntity
  8
0
  6
CONTINUOUS
 62
     7
100
AcDbLine
 10
2251.5424173313
 20
1379.5185905058
 30
0.0
 11
2251.5424173313
 21
1382.3390226919
 31
0.0
  0
LINE
  5
3EC
330
1F
100
AcDbEntity
  8
0
  6
CONTINUOUS
 62
     7
100
AcDbLine
 10
2251.5424173313
 20
1545.1674467061
 30
0.0
 11
2251.5424173313
 21
1568.6901645843
 31
0.0
  0
LINE
  5
3ED
330
1F
100
AcDbEntity
  8
0
  6
CONTINUOUS
 62
     7
100
AcDbLine
 10
2251.5424173313
 20
1481.1674501855
 30
0.0
 11
2251.5424173313
 21
1504.6901662011
 31
0.0
  0
LINE
  5
3EE
330
1F
100
AcDbEntity
  8
0
  6
CONTINUOUS
 62
     7
100
AcDbLine
 10
2251.5424173313
 20
1699.5185982544
 30
0.0
 11
2251.5424173313
 21
1702.3390155394
 31
0.0
  0
LINE
  5
3EF
330
1F
100
AcDbEntity
  8
0
  6
CONTINUOUS
 62
     7
100
AcDbLine
 10
2251.5424173313
 20
1507.5185928602
 30
0.0
 11
2251.5424173313
 21
1510.339021321
 31
0.0
  0
LINE
  5
3F0
330
1F
100
AcDbEntity
  8
0
  6
CONTINUOUS
 62
     7
100
AcDbLine
 10
2251.5424173313
 20
1673.1674444038
 30
0.0
 11
2251.5424173313
 21
1696.6901641447
 31
0.0
  0
LINE
  5
3F1
330
1F
100
AcDbEntity
  8
0
  6
CONTINUOUS
 62
     7
100
AcDbLine
 10
2251.5424173313
 20
1539.5185925175
 30
0.0
 11
2251.5424173313
 21
1542.339020047
 31
0.0
  0
LINE
  5
3F2
330
1F
100
AcDbEntity
  8
0
  6
CONTINUOUS
 62
     7
100
AcDbLine
 10
2251.5424173313
 20
1827.5186043341
 30
0.0
 11
2251.5424173313
 21
1830.3390067179
 31
0.0
  0
LINE
  5
3F3
330
1F
100
AcDbEntity
  8
0
  6
CONTINUOUS
 62
     7
100
AcDbLine
 10
2251.5424173313
 20
1833.1674557287
 30
0.0
 11
2251.5424173313
 21
1854.4288199503
 31
0.0
  0
LINE
  5
3F4
330
1F
100
AcDbEntity
  8
0
  6
CONTINUOUS
 62
     7
100
AcDbLine
 10
2251.5424173313
 20
1769.1674452383
 30
0.0
 11
2251.5424173313
 21
1792.6901649792
 31
0.0
  0
LINE
  5
3F5
330
1F
100
AcDbEntity
  8
0
  6
CONTINUOUS
 62
     7
100
AcDbLine
 10
2251.5424173313
 20
1801.1674504835
 30
0.0
 11
2251.5424173313
 21
1824.6901553232
 31
0.0
  0
LINE
  5
3F6
330
1F
100
AcDbEntity
  8
0
  6
CONTINUOUS
 62
     7
100
AcDbLine
 10
2251.740498467
 20
1854.9062829573
 30
0.0
 11
2252.5342535215
 21
1855.6983392794
 31
0.0
  0
LINE
  5
3F7
330
1F
100
AcDbEntity
  8
0
  6
CONTINUOUS
 62
     7
100
AcDbLine
 10
2252.5342535215
 20
1258.159272011
 30
0.0
 11
2251.740498467
 21
1258.9513283331
 31
0.0
  0
SPLINE
  5
3F8
330
1F
100
AcDbEntity
  8
0
  6
CONTINUOUS
 62
     7
100
AcDbSpline
210
0.0
220
0.0
230
1.0
 70
     8
 71
     3
 72
     8
 73
     4
 74
     0
 42
0.00000001
 43
0.00000001
 12
1.0
 22
0.0
 32
0.0
 13
1.0
 23
0.0
 33
0.0
 40
0.0
 40
0.0
 40
0.0
 40
0.0
 40
1.0
 40
1.0
 40
1.0
 40
1.0
 10
2271.535010719149
 20
1239.160026705274
 30
0.0
 10
2265.674949264581
 20
1245.023827254853
 30
0.0
 10
2259.812963552396
 20
1250.885703546815
 30
0.0
 10
2253.949053583401
 20
1256.745655581967
 30
0.0
  0
SPLINE
  5
3F9
330
1F
100
AcDbEntity
  8
0
  6
CONTINUOUS
 62
     7
100
AcDbSpline
210
0.0
220
0.0
230
1.0
 70
     8
 71
     3
 72
     8
 73
     4
 74
     0
 42
0.00000001
 43
0.00000001
 12
1.0
 22
0.0
 32
0.0
 13
1.0
 23
0.0
 33
0.0
 40
0.0
 40
0.0
 40
0.0
 40
0.0
 40
1.0
 40
1.0
 40
1.0
 40
1.0
 10
2253.949053583382
 20
1857.111955708379
 30
0.0
 10
2259.812963552383
 20
1862.971907743537
 30
0.0
 10
2265.674949264574
 20
1868.833784035505
 30
0.0
 10
2271.535010719149
 20
1874.69758458509
 30
0.0
  0
SPLINE
  5
3FA
330
1F
100
AcDbEntity
  8
0
  6
CONTINUOUS
 62
     7
100
AcDbSpline
210
0.0
220
0.0
230
1.0
 70
     8
 71
     3
 72
    14
 73
    10
 74
     0
 42
0.00000001
 43
0.00000001
 12
1.0
 22
0.0
 32
0.0
 13
1.0
 23
0.0
 33
0.0
 40
0.0
 40
0.0
 40
0.0
 40
0.0
 40
0.25
 40
0.25
 40
0.5
 40
0.5
 40
0.75
 40
0.75
 40
1.0
 40
1.0
 40
1.0
 40
1.0
 10
2273.297543051549
 20
1223.652925513612
 30
0.0
 10
2272.547966920458
 20
1223.736757640043
 30
0.0
 10
2271.81572326329
 20
1223.882621847975
 30
0.0
 10
2270.384592745507
 20
1224.293680019213
 30
0.0
 10
2269.684269590864
 20
1224.559563183079
 30
0.0
 10
2268.324489309678
 20
1225.21346212903
 30
0.0
 10
2267.681779018228
 20
1225.593125004962
 30
0.0
 10
2266.467692464378
 20
1226.453601244073
 30
0.0
 10
2265.896315003167
 20
1226.934412864045
 30
0.0
 10
2265.362205921739
 20
1227.468072836563
 30
0.0
  0
LINE
  5
3FB
330
1F
100
AcDbEntity
  8
0
  6
CONTINUOUS
 62
     7
100
AcDbLine
 10
2274.5382618146
 20
1223.5732894499
 30
0.0
 11
2274.5435815292
 21
1223.8783162195
 31
0.0
  0
ELLIPSE
  5
3FC
330
1F
100
AcDbEntity
  8
0
  6
CONTINUOUS
 62
     7
100
AcDbEllipse
 10
2274.7704644073
 20
1236.8966808266
 30
0.0
 11
0.0
 21
13.32541020641111
 31
0.0
210
0.0
220
0.0
230
1.0
 40
0.999998834
 41
3.030831407495055
 42
3.124165992677867
  0
LINE
  5
3FD
330
1F
100
AcDbEntity
  8
0
  6
CONTINUOUS
 62
     7
100
AcDbLine
 10
2274.5382618146
 20
1890.2843218405
 30
0.0
 11
2274.5435815292
 21
1889.9792950708
 31
0.0
  0
SPLINE
  5
3FE
330
1F
100
AcDbEntity
  8
0
  6
CONTINUOUS
 62
     7
100
AcDbSpline
210
0.0
220
0.0
230
1.0
 70
     8
 71
     3
 72
    14
 73
    10
 74
     0
 42
0.00000001
 43
0.00000001
 12
1.0
 22
0.0
 32
0.0
 13
1.0
 23
0.0
 33
0.0
 40
0.0
 40
0.0
 40
0.0
 40
0.0
 40
0.25
 40
0.25
 40
0.5
 40
0.5
 40
0.75
 40
0.75
 40
1.0
 40
1.0
 40
1.0
 40
1.0
 10
2265.362205921739
 20
1886.389538453801
 30
0.0
 10
2265.896315187903
 20
1886.9231986109
 30
0.0
 10
2266.467848749875
 20
1887.404164694212
 30
0.0
 10
2267.682668431961
 20
1888.265072732472
 30
0.0
 10
2268.326041123324
 20
1888.645057391468
 30
0.0
 10
2269.687367240233
 20
1889.299375183399
 30
0.0
 10
2270.385664025278
 20
1889.564278825787
 30
0.0
 10
2271.815971109624
 20
1889.975020738551
 30
0.0
 10
2272.547982496099
 20
1890.120855392292
 30
0.0
 10
2273.297543051548
 20
1890.204685776753
 30
0.0
  0
ELLIPSE
  5
3FF
330
1F
100
AcDbEntity
  8
0
  6
CONTINUOUS
 62
     7
100
AcDbEllipse
 10
2274.7704644073
 20
1876.9609304638
 30
0.0
 11
0.0
 21
13.32541020641133
 31
0.0
210
0.0
220
0.0
230
1.0
 40
0.999998834
 41
0.0174266609119957
 42
0.1107612460948783
  0
LINE
  5
400
330
1F
100
AcDbEntity
  8
0
  6
CONTINUOUS
 62
     7
100
AcDbLine
 10
2266.2179898458
 20
1555.8319666764
 30
0.0
 11
2270.9605675178
 21
1555.8247242464
 31
0.0
  0
SPLINE
  5
401
330
1F
100
AcDbEntity
  8
0
  6
CONTINUOUS
 62
     7
100
AcDbSpline
210
0.0
220
0.0
230
1.0
 70
     8
 71
     3
 72
    14
 73
    10
 74
     0
 42
0.00000001
 43
0.00000001
 12
1.0
 22
0.0
 32
0.0
 13
1.0
 23
0.0
 33
0.0
 40
0.0002149440331439
 40
0.0002149440331439
 40
0.0002149440331439
 40
0.0002149440331439
 40
0.0124975525851697
 40
0.0124975525851697
 40
0.0124975525851697
 40
0.0174487955577817
 40
0.0174487955577817
 40
0.0174487955577817
 40
0.020505630643816
 40
0.020505630643816
 40
0.020505630643816
 40
0.020505630643816
 10
2270.960566089565
 20
1555.824724211973
 30
0.0
 10
2271.020509554383
 20
1555.896170245321
 30
0.0
 10
2271.081313220548
 20
1555.967616060726
 30
0.0
 10
2271.143056982527
 20
1556.039061627099
 30
0.0
 10
2271.167946514162
 20
1556.067862053693
 30
0.0
 10
2271.192988943118
 20
1556.096662440173
 30
0.0
 10
2271.218190084205
 20
1556.12546278423
 30
0.0
 10
2271.233748951528
 20
1556.143243754166
 30
0.0
 10
2271.249368321697
 20
1556.161024708009
 30
0.0
 10
2271.265049634309
 20
1556.178805645183
 30
0.0
  0
LINE
  5
402
330
1F
100
AcDbEntity
  8
0
  6
CONTINUOUS
 62
     7
100
AcDbLine
 10
2266.2179898458
 20
1708.0256413776
 30
0.0
 11
2270.9605675178
 21
1708.032883342
 31
0.0
  0
SPLINE
  5
403
330
1F
100
AcDbEntity
  8
0
  6
CONTINUOUS
 62
     7
100
AcDbSpline
210
0.0
220
0.0
230
1.0
 70
     8
 71
     3
 72
    14
 73
    10
 74
     0
 42
0.00000001
 43
0.00000001
 12
1.0
 22
0.0
 32
0.0
 13
1.0
 23
0.0
 33
0.0
 40
0.0002149440331439
 40
0.0002149440331439
 40
0.0002149440331439
 40
0.0002149440331439
 40
0.0124975525851697
 40
0.0124975525851697
 40
0.0124975525851697
 40
0.0174487955577836
 40
0.0174487955577836
 40
0.0174487955577836
 40
0.020505630643816
 40
0.020505630643816
 40
0.020505630643816
 40
0.020505630643816
 10
2270.960566089565
 20
1708.032887078392
 30
0.0
 10
2271.020509554383
 20
1707.961441045044
 30
0.0
 10
2271.081313220548
 20
1707.889995229639
 30
0.0
 10
2271.143056982527
 20
1707.818549663265
 30
0.0
 10
2271.167946514162
 20
1707.789749236671
 30
0.0
 10
2271.192988943118
 20
1707.760948850191
 30
0.0
 10
2271.218190084205
 20
1707.732148506135
 30
0.0
 10
2271.233748951528
 20
1707.714367536199
 30
0.0
 10
2271.249368321697
 20
1707.696586582355
 30
0.0
 10
2271.265049634309
 20
1707.678805645182
 30
0.0
  0
LINE
  5
404
330
1F
100
AcDbEntity
  8
0
  6
CONTINUOUS
 62
     7
100
AcDbLine
 10
2266.2179898458
 20
1705.8319669325
 30
0.0
 11
2270.9605675178
 21
1705.8247249681
 31
0.0
  0
SPLINE
  5
405
330
1F
100
AcDbEntity
  8
0
  6
CONTINUOUS
 62
     7
100
AcDbSpline
210
0.0
220
0.0
230
1.0
 70
     8
 71
     3
 72
    14
 73
    10
 74
     0
 42
0.00000001
 43
0.00000001
 12
1.0
 22
0.0
 32
0.0
 13
1.0
 23
0.0
 33
0.0
 40
0.0002149440331439
 40
0.0002149440331439
 40
0.0002149440331439
 40
0.0002149440331439
 40
0.0124975525851697
 40
0.0124975525851697
 40
0.0124975525851697
 40
0.0174487955577799
 40
0.0174487955577799
 40
0.0174487955577799
 40
0.020505630643816
 40
0.020505630643816
 40
0.020505630643816
 40
0.020505630643816
 10
2270.960566089565
 20
1705.824724211973
 30
0.0
 10
2271.020509554383
 20
1705.896170245321
 30
0.0
 10
2271.081313220548
 20
1705.967616060725
 30
0.0
 10
2271.143056982527
 20
1706.039061627099
 30
0.0
 10
2271.167946514161
 20
1706.067862053693
 30
0.0
 10
2271.192988943118
 20
1706.096662440174
 30
0.0
 10
2271.218190084205
 20
1706.12546278423
 30
0.0
 10
2271.233748951528
 20
1706.143243754166
 30
0.0
 10
2271.249368321697
 20
1706.161024708009
 30
0.0
 10
2271.265049634309
 20
1706.178805645182
 30
0.0
  0
LINE
  5
406
330
1F
100
AcDbEntity
  8
0
  6
CONTINUOUS
 62
     7
100
AcDbLine
 10
2266.2179898458
 20
1558.025644614
 30
0.0
 11
2270.9605675178
 21
1558.032887044
 31
0.0
  0
SPLINE
  5
407
330
1F
100
AcDbEntity
  8
0
  6
CONTINUOUS
 62
     7
100
AcDbSpline
210
0.0
220
0.0
230
1.0
 70
     8
 71
     3
 72
    14
 73
    10
 74
     0
 42
0.00000001
 43
0.00000001
 12
1.0
 22
0.0
 32
0.0
 13
1.0
 23
0.0
 33
0.0
 40
0.0002149440331439
 40
0.0002149440331439
 40
0.0002149440331439
 40
0.0002149440331439
 40
0.0124975525851697
 40
0.0124975525851697
 40
0.0124975525851697
 40
0.0174487955577817
 40
0.0174487955577817
 40
0.0174487955577817
 40
0.020505630643816
 40
0.020505630643816
 40
0.020505630643816
 40
0.020505630643816
 10
2270.960566089565
 20
1558.032887078392
 30
0.0
 10
2271.020509554383
 20
1557.961441045044
 30
0.0
 10
2271.081313220548
 20
1557.889995229639
 30
0.0
 10
2271.143056982527
 20
1557.818549663265
 30
0.0
 10
2271.167946514162
 20
1557.789749236671
 30
0.0
 10
2271.192988943118
 20
1557.760948850191
 30
0.0
 10
2271.218190084205
 20
1557.732148506135
 30
0.0
 10
2271.233748951528
 20
1557.714367536199
 30
0.0
 10
2271.249368321697
 20
1557.696586582356
 30
0.0
 10
2271.265049634309
 20
1557.678805645182
 30
0.0
  0
LINE
  5
408
330
1F
100
AcDbEntity
  8
0
  6
CONTINUOUS
 62
     7
100
AcDbLine
 10
2266.2179898458
 20
1408.0256443579
 30
0.0
 11
2270.9605675178
 21
1408.0328863222
 31
0.0
  0
SPLINE
  5
409
330
1F
100
AcDbEntity
  8
0
  6
CONTINUOUS
 62
     7
100
AcDbSpline
210
0.0
220
0.0
230
1.0
 70
     8
 71
     3
 72
    14
 73
    10
 74
     0
 42
0.00000001
 43
0.00000001
 12
1.0
 22
0.0
 32
0.0
 13
1.0
 23
0.0
 33
0.0
 40
0.0002149440331439
 40
0.0002149440331439
 40
0.0002149440331439
 40
0.0002149440331439
 40
0.0124975525851697
 40
0.0124975525851697
 40
0.0124975525851697
 40
0.0174487955577817
 40
0.0174487955577817
 40
0.0174487955577817
 40
0.020505630643816
 40
0.020505630643816
 40
0.020505630643816
 40
0.020505630643816
 10
2270.960566089565
 20
1408.032887078392
 30
0.0
 10
2271.020509554383
 20
1407.961441045044
 30
0.0
 10
2271.081313220548
 20
1407.889995229639
 30
0.0
 10
2271.143056982527
 20
1407.818549663265
 30
0.0
 10
2271.167946514162
 20
1407.789749236672
 30
0.0
 10
2271.192988943118
 20
1407.760948850191
 30
0.0
 10
2271.218190084205
 20
1407.732148506135
 30
0.0
 10
2271.233748951528
 20
1407.714367536199
 30
0.0
 10
2271.249368321697
 20
1407.696586582355
 30
0.0
 10
2271.265049634309
 20
1407.678805645183
 30
0.0
  0
LINE
  5
40A
330
1F
100
AcDbEntity
  8
0
  6
CONTINUOUS
 62
     7
100
AcDbLine
 10
2266.2179898458
 20
1405.8319699127
 30
0.0
 11
2270.9605675178
 21
1405.8247279484
 31
0.0
  0
SPLINE
  5
40B
330
1F
100
AcDbEntity
  8
0
  6
CONTINUOUS
 62
     7
100
AcDbSpline
210
0.0
220
0.0
230
1.0
 70
     8
 71
     3
 72
    14
 73
    10
 74
     0
 42
0.00000001
 43
0.00000001
 12
1.0
 22
0.0
 32
0.0
 13
1.0
 23
0.0
 33
0.0
 40
0.0002149440331439
 40
0.0002149440331439
 40
0.0002149440331439
 40
0.0002149440331439
 40
0.0124975525851697
 40
0.0124975525851697
 40
0.0124975525851697
 40
0.0174487955577817
 40
0.0174487955577817
 40
0.0174487955577817
 40
0.020505630643816
 40
0.020505630643816
 40
0.020505630643816
 40
0.020505630643816
 10
2270.960566089565
 20
1405.824724211973
 30
0.0
 10
2271.020509554383
 20
1405.896170245321
 30
0.0
 10
2271.081313220548
 20
1405.967616060726
 30
0.0
 10
2271.143056982527
 20
1406.039061627099
 30
0.0
 10
2271.167946514162
 20
1406.067862053693
 30
0.0
 10
2271.192988943118
 20
1406.096662440174
 30
0.0
 10
2271.218190084205
 20
1406.12546278423
 30
0.0
 10
2271.233748951528
 20
1406.143243754166
 30
0.0
 10
2271.249368321697
 20
1406.161024708009
 30
0.0
 10
2271.265049634309
 20
1406.178805645182
 30
0.0
  0
ARC
  5
40C
330
1F
100
AcDbEntity
  8
0
  6
CONTINUOUS
 62
     7
100
AcDbCircle
 10
2277.2277081465
 20
1406.9288056452
 30
0.0
 40
6.363651889718732
100
AcDbArc
 50
126.8142689031
 51
170.0087320699
  0
ARC
  5
40D
330
1F
100
AcDbEntity
  8
0
  6
CONTINUOUS
 62
     7
100
AcDbCircle
 10
2277.2179900842
 20
1406.9288056452
 30
0.0
 40
6.357828831028414
100
AcDbArc
 50
233.2558442504
 51
126.7441557496
  0
ARC
  5
40E
330
1F
100
AcDbEntity
  8
0
  6
CONTINUOUS
 62
     7
100
AcDbCircle
 10
2277.2277081465
 20
1406.9288056452
 30
0.0
 40
6.363651889718692
100
AcDbArc
 50
189.9912679301
 51
233.1857310969
  0
ARC
  5
40F
330
1F
100
AcDbEntity
  8
0
  6
CONTINUOUS
 62
     7
100
AcDbCircle
 10
2277.2277081465
 20
1706.9288056452
 30
0.0
 40
6.363651889718652
100
AcDbArc
 50
126.8142689031
 51
170.0087320699
  0
ARC
  5
410
330
1F
100
AcDbEntity
  8
0
  6
CONTINUOUS
 62
     7
100
AcDbCircle
 10
2277.2179900842
 20
1706.9288056452
 30
0.0
 40
6.357828831028414
100
AcDbArc
 50
233.2558442504
 51
126.7441557496
  0
ARC
  5
411
330
1F
100
AcDbEntity
  8
0
  6
CONTINUOUS
 62
     7
100
AcDbCircle
 10
2277.2277081465
 20
1706.9288056452
 30
0.0
 40
6.363651889718692
100
AcDbArc
 50
189.9912679301
 51
233.1857310969
  0
ARC
  5
412
330
1F
100
AcDbEntity
  8
0
  6
CONTINUOUS
 62
     7
100
AcDbCircle
 10
2277.2277081465
 20
1556.9288056452
 30
0.0
 40
6.363651889718692
100
AcDbArc
 50
126.8142689031
 51
170.0087320699
  0
ARC
  5
413
330
1F
100
AcDbEntity
  8
0
  6
CONTINUOUS
 62
     7
100
AcDbCircle
 10
2277.2179900842
 20
1556.9288056452
 30
0.0
 40
6.357828831028414
100
AcDbArc
 50
233.2558442504
 51
126.7441557496
  0
ARC
  5
414
330
1F
100
AcDbEntity
  8
0
  6
CONTINUOUS
 62
     7
100
AcDbCircle
 10
2277.2277081465
 20
1556.9288056452
 30
0.0
 40
6.363651889718652
100
AcDbArc
 50
189.9912679301
 51
233.1857310969
  0
LINE
  5
415
330
1F
100
AcDbEntity
  8
0
  6
CONTINUOUS
 62
     7
100
AcDbLine
 10
2274.2929141956
 20
1877.4588327963
 30
0.0
 11
2274.0633618074
 21
1877.6884000856
 31
0.0
  0
LINE
  5
416
330
1F
100
AcDbEntity
  8
0
  6
CONTINUOUS
 62
     7
100
AcDbLine
 10
2273.3435165124
 20
1876.5073638517
 30
0.0
 11
2274.2929141956
 21
1877.4588327963
 31
0.0
  0
SPLINE
  5
417
330
1F
100
AcDbEntity
  8
0
  6
CONTINUOUS
 62
     7
100
AcDbSpline
210
0.0
220
0.0
230
1.0
 70
     8
 71
     3
 72
     8
 73
     4
 74
     0
 42
0.00000001
 43
0.00000001
 12
1.0
 22
0.0
 32
0.0
 13
1.0
 23
0.0
 33
0.0
 40
0.0
 40
0.0
 40
0.0
 40
0.0
 40
1.0
 40
1.0
 40
1.0
 40
1.0
 10
2272.948729347067
 20
1876.112279944665
 30
0.0
 10
2273.08032405541
 20
1876.24397252386
 30
0.0
 10
2273.211917793288
 20
1876.375666073519
 30
0.0
 10
2273.3435105607
 20
1876.507360593643
 30
0.0
  0
SPLINE
  5
418
330
1F
100
AcDbEntity
  8
0
  6
CONTINUOUS
 62
     7
100
AcDbSpline
210
0.0
220
0.0
230
1.0
 70
     8
 71
     3
 72
     8
 73
     4
 74
     0
 42
0.00000001
 43
0.00000001
 12
1.0
 22
0.0
 32
0.0
 13
1.0
 23
0.0
 33
0.0
 40
0.0
 40
0.0
 40
0.0
 40
0.0
 40
1.0
 40
1.0
 40
1.0
 40
1.0
 10
2273.343510560692
 20
1237.35025069673
 30
0.0
 10
2273.211917793287
 20
1237.481945216846
 30
0.0
 10
2273.080324055416
 20
1237.613638766498
 30
0.0
 10
2272.948729347081
 20
1237.745331345685
 30
0.0
  0
LINE
  5
419
330
1F
100
AcDbEntity
  8
0
  6
CONTINUOUS
 62
     7
100
AcDbLine
 10
2274.2929141956
 20
1236.3987784941
 30
0.0
 11
2273.3435165124
 21
1237.3502474386
 31
0.0
  0
LINE
  5
41A
330
1F
100
AcDbEntity
  8
0
  6
CONTINUOUS
 62
     7
100
AcDbLine
 10
2274.2929141956
 20
1236.3987784941
 30
0.0
 11
2274.0633618074
 21
1236.1692112047
 31
0.0
  0
LINE
  5
41B
330
1F
100
AcDbEntity
  8
0
  6
CONTINUOUS
 62
     7
100
AcDbLine
 10
2274.758679791
 20
1877.6568394262
 30
0.0
 11
2274.7530173498
 21
1877.9811184961
 31
0.0
  0
ARC
  5
41C
330
1F
100
AcDbEntity
  8
0
  6
CONTINUOUS
 62
     7
100
AcDbCircle
 10
2274.7704644073
 20
1876.9823101979
 30
0.0
 40
0.6746224427742078
100
AcDbArc
 50
91.0015270428
 51
135.0618701578
  0
ARC
  5
41D
330
1F
100
AcDbEntity
  8
0
  6
CONTINUOUS
 62
     7
100
AcDbCircle
 10
2274.7704644073
 20
1236.8753010925
 30
0.0
 40
0.6746224427742078
100
AcDbArc
 50
224.9381298422
 51
268.9984729572
  0
LINE
  5
41E
330
1F
100
AcDbEntity
  8
0
  6
CONTINUOUS
 62
     7
100
AcDbLine
 10
2274.758679791
 20
1236.2007718641
 30
0.0
 11
2274.7530173498
 21
1235.8764927942
 31
0.0
  0
LINE
  5
41F
330
1F
100
AcDbEntity
  8
0
  6
CONTINUOUS
 62
     7
100
AcDbLine
 10
2274.5382618146
 20
1890.2843218405
 30
0.0
 11
2472.2179900842
 21
1893.7295597155
 31
0.0
  0
LINE
  5
420
330
1F
100
AcDbEntity
  8
0
  6
CONTINUOUS
 62
     7
100
AcDbLine
 10
2472.2179900842
 20
1893.7295597155
 30
0.0
 11
2472.2179900842
 21
1893.4297185499
 31
0.0
  0
LINE
  5
421
330
1F
100
AcDbEntity
  8
0
  6
CONTINUOUS
 62
     7
100
AcDbLine
 10
2472.2179900842
 20
1220.1280515749
 30
0.0
 11
2274.5382618146
 21
1223.5732894499
 31
0.0
  0
LINE
  5
422
330
1F
100
AcDbEntity
  8
0
  6
CONTINUOUS
 62
     7
100
AcDbLine
 10
2472.2179900842
 20
1220.1280515749
 30
0.0
 11
2472.2179900842
 21
1220.4278927404
 31
0.0
  0
LINE
  5
423
330
1F
100
AcDbEntity
  8
0
  6
CONTINUOUS
 62
     7
100
AcDbLine
 10
2289.2857622342
 20
1235.9468262751
 30
0.0
 11
2274.758679791
 21
1236.2007718641
 31
0.0
  0
LINE
  5
424
330
1F
100
AcDbEntity
  8
0
  6
CONTINUOUS
 62
     7
100
AcDbLine
 10
2274.758679791
 20
1877.6568394262
 30
0.0
 11
2289.2857622342
 21
1877.9107850153
 31
0.0
  0
LINE
  5
425
330
1F
100
AcDbEntity
  8
0
  6
CONTINUOUS
 62
     7
100
AcDbLine
 10
2276.1257272201
 20
1247.9292374212
 30
0.0
 11
2276.1133592563
 21
1256.0313563902
 31
0.0
  0
LINE
  5
426
330
1F
100
AcDbEntity
  8
0
  6
CONTINUOUS
 62
     7
100
AcDbLine
 10
2276.7147999244
 20
1865.9287911016
 30
0.0
 11
2276.7025362687
 21
1857.9066317637
 31
0.0
  0
LINE
  5
427
330
1F
100
AcDbEntity
  8
0
  6
CONTINUOUS
 62
     7
100
AcDbLine
 10
2278.3102523523
 20
1247.9288201887
 30
0.0
 11
2278.3226203161
 21
1256.0313563902
 31
0.0
  0
LINE
  5
428
330
1F
100
AcDbEntity
  8
0
  6
CONTINUOUS
 62
     7
100
AcDbLine
 10
2278.8993101554
 20
1865.9287911016
 30
0.0
 11
2278.9119016366
 21
1857.6847236712
 31
0.0
  0
LINE
  5
429
330
1F
100
AcDbEntity
  8
0
  6
CONTINUOUS
 62
     7
100
AcDbLine
 10
2300.1321833568
 20
1235.7571940977
 30
0.0
 11
2292.1645175653
 21
1235.8964901526
 31
0.0
  0
LINE
  5
42A
330
1F
100
AcDbEntity
  8
0
  6
CONTINUOUS
 62
     7
100
AcDbLine
 10
2292.1645175653
 20
1877.9611211378
 30
0.0
 11
2300.1321833568
 21
1878.1004171927
 31
0.0
  0
LINE
  5
42B
330
1F
100
AcDbEntity
  8
0
  6
CONTINUOUS
 62
     7
100
AcDbLine
 10
2302.9120098787
 20
1878.1489949781
 30
0.0
 11
2321.8551259475
 21
1878.4801583845
 31
0.0
  0
LINE
  5
42C
330
1F
100
AcDbEntity
  8
0
  6
CONTINUOUS
 62
     7
100
AcDbLine
 10
2321.8551259475
 20
1235.3774529058
 30
0.0
 11
2302.9120098787
 21
1235.7086163122
 31
0.0
  0
LINE
  5
42D
330
1F
100
AcDbEntity
  8
0
  6
CONTINUOUS
 62
     7
100
AcDbLine
 10
2324.7338812785
 20
1878.530494507
 30
0.0
 11
2331.5823804574
 21
1878.6502104361
 31
0.0
  0
LINE
  5
42E
330
1F
100
AcDbEntity
  8
0
  6
CONTINUOUS
 62
     7
100
AcDbLine
 10
2331.5823804574
 20
1235.2074008543
 30
0.0
 11
2324.7338812785
 21
1235.3271167833
 31
0.0
  0
LINE
  5
42F
330
1F
100
AcDbEntity
  8
0
  6
CONTINUOUS
 62
     7
100
AcDbLine
 10
2334.3622069793
 20
1878.6988180239
 30
0.0
 11
2354.4244971114
 21
1879.0495317537
 31
0.0
  0
LINE
  5
430
330
1F
100
AcDbEntity
  8
0
  6
CONTINUOUS
 62
     7
100
AcDbLine
 10
2354.4244971114
 20
1234.8080795366
 30
0.0
 11
2334.3622069793
 21
1235.1587932665
 31
0.0
  0
LINE
  5
431
330
1F
100
AcDbEntity
  8
0
  6
CONTINUOUS
 62
     7
100
AcDbLine
 10
2363.0325701075
 20
1234.6576076109
 30
0.0
 11
2357.3032524424
 21
1234.7577434141
 31
0.0
  0
LINE
  5
432
330
1F
100
AcDbEntity
  8
0
  6
CONTINUOUS
 62
     7
100
AcDbLine
 10
2357.3032524424
 20
1879.0998678762
 30
0.0
 11
2363.0325701075
 21
1879.2000036795
 31
0.0
  0
LINE
  5
433
330
1F
100
AcDbEntity
  8
0
  6
CONTINUOUS
 62
     7
100
AcDbLine
 10
2386.9938682752
 20
1234.2387061674
 30
0.0
 11
2365.8123966294
 21
1234.6090000231
 31
0.0
  0
LINE
  5
434
330
1F
100
AcDbEntity
  8
0
  6
CONTINUOUS
 62
     7
100
AcDbLine
 10
2365.8123966294
 20
1879.2486112673
 30
0.0
 11
2386.9938682752
 21
1879.618905123
 31
0.0
  0
LINE
  5
435
330
1F
100
AcDbEntity
  8
0
  6
CONTINUOUS
 62
     7
100
AcDbLine
 10
2389.8726236062
 20
1879.6692114431
 30
0.0
 11
2394.4827672081
 21
1879.7498267252
 31
0.0
  0
LINE
  5
436
330
1F
100
AcDbEntity
  8
0
  6
CONTINUOUS
 62
     7
100
AcDbLine
 10
2394.4827672081
 20
1234.1077845652
 30
0.0
 11
2389.8726236062
 21
1234.1883998472
 31
0.0
  0
LINE
  5
437
330
1F
100
AcDbEntity
  8
0
  6
CONTINUOUS
 62
     7
100
AcDbLine
 10
2397.26259373
 20
1879.7984045107
 30
0.0
 11
2419.563239439
 21
1880.1882784922
 31
0.0
  0
LINE
  5
438
330
1F
100
AcDbEntity
  8
0
  6
CONTINUOUS
 62
     7
100
AcDbLine
 10
2419.563239439
 20
1233.6693327982
 30
0.0
 11
2397.26259373
 21
1234.0592067797
 31
0.0
  0
LINE
  5
439
330
1F
100
AcDbEntity
  8
0
  6
CONTINUOUS
 62
     7
100
AcDbLine
 10
2422.4419910448
 20
1880.2385848124
 30
0.0
 11
2425.9329605835
 21
1880.2996199686
 31
0.0
  0
LINE
  5
43A
330
1F
100
AcDbEntity
  8
0
  6
CONTINUOUS
 62
     7
100
AcDbLine
 10
2425.9329605835
 20
1233.5579913218
 30
0.0
 11
2422.4419910448
 21
1233.619026478
 31
0.0
  0
LINE
  5
43B
330
1F
100
AcDbEntity
  8
0
  6
CONTINUOUS
 62
     7
100
AcDbLine
 10
2428.7127908306
 20
1880.3482275564
 30
0.0
 11
2452.1326106029
 21
1880.7576518614
 31
0.0
  0
LINE
  5
43C
330
1F
100
AcDbEntity
  8
0
  6
CONTINUOUS
 62
     7
100
AcDbLine
 10
2452.1326106029
 20
1233.099959429
 30
0.0
 11
2428.7127908306
 21
1233.5093837339
 31
0.0
  0
LINE
  5
43D
330
1F
100
AcDbEntity
  8
0
  6
CONTINUOUS
 62
     7
100
AcDbLine
 10
2457.3831539588
 20
1233.0081980783
 30
0.0
 11
2455.0113622086
 21
1233.0496531088
 31
0.0
  0
LINE
  5
43E
330
1F
100
AcDbEntity
  8
0
  6
CONTINUOUS
 62
     7
100
AcDbLine
 10
2455.0113622086
 20
1880.8079581816
 30
0.0
 11
2457.3831539588
 21
1880.849413212
 31
0.0
  0
LINE
  5
43F
330
1F
100
AcDbEntity
  8
0
  6
CONTINUOUS
 62
     7
100
AcDbLine
 10
2472.2179900842
 20
1232.7488582689
 30
0.0
 11
2472.2179900842
 21
1232.4297051985
 31
0.0
  0
LINE
  5
440
330
1F
100
AcDbEntity
  8
0
  6
CONTINUOUS
 62
     7
100
AcDbLine
 10
2472.2179900842
 20
1232.7488582689
 30
0.0
 11
2460.1629851373
 21
1232.9595904905
 31
0.0
  0
LINE
  5
441
330
1F
100
AcDbEntity
  8
0
  6
CONTINUOUS
 62
     7
100
AcDbLine
 10
2472.2179900842
 20
1881.1087530214
 30
0.0
 11
2472.2179900842
 21
1881.4279060919
 31
0.0
  0
LINE
  5
442
330
1F
100
AcDbEntity
  8
0
  6
CONTINUOUS
 62
     7
100
AcDbLine
 10
2460.1629851373
 20
1880.8980207998
 30
0.0
 11
2472.2179900842
 21
1881.1087530214
 31
0.0
  0
LINE
  5
443
330
1F
100
AcDbEntity
  8
0
  6
CONTINUOUS
 62
     7
100
AcDbLine
 10
2484.2729950311
 20
1232.9595904905
 30
0.0
 11
2472.2179900842
 21
1232.7488582689
 31
0.0
  0
LINE
  5
444
330
1F
100
AcDbEntity
  8
0
  6
CONTINUOUS
 62
     7
100
AcDbLine
 10
2472.2179900842
 20
1881.1087530214
 30
0.0
 11
2484.2729950311
 21
1880.8980207998
 31
0.0
  0
LINE
  5
445
330
1F
100
AcDbEntity
  8
0
  6
CONTINUOUS
 62
     7
100
AcDbLine
 10
2472.2179900842
 20
1893.7295597155
 30
0.0
 11
2669.8977183538
 21
1890.2843218405
 31
0.0
  0
LINE
  5
446
330
1F
100
AcDbEntity
  8
0
  6
CONTINUOUS
 62
     7
100
AcDbLine
 10
2669.8977183538
 20
1890.2843218405
 30
0.0
 11
2669.8923986392
 21
1889.9792950708
 31
0.0
  0
LINE
  5
447
330
1F
100
AcDbEntity
  8
0
  6
CONTINUOUS
 62
     7
100
AcDbLine
 10
2669.8977183538
 20
1223.5732894499
 30
0.0
 11
2472.2179900842
 21
1220.1280515749
 31
0.0
  0
LINE
  5
448
330
1F
100
AcDbEntity
  8
0
  6
CONTINUOUS
 62
     7
100
AcDbLine
 10
2669.8977183538
 20
1223.5732894499
 30
0.0
 11
2669.8923986392
 21
1223.8783162195
 31
0.0
  0
LINE
  5
449
330
1F
100
AcDbEntity
  8
0
  6
CONTINUOUS
 62
     7
100
AcDbLine
 10
2487.0528262096
 20
1880.849413212
 30
0.0
 11
2489.4246179598
 21
1880.8079581816
 31
0.0
  0
LINE
  5
44A
330
1F
100
AcDbEntity
  8
0
  6
CONTINUOUS
 62
     7
100
AcDbLine
 10
2489.4246179598
 20
1233.0496531088
 30
0.0
 11
2487.0528262096
 21
1233.0081980783
 31
0.0
  0
LINE
  5
44B
330
1F
100
AcDbEntity
  8
0
  6
CONTINUOUS
 62
     7
100
AcDbLine
 10
2515.7231893378
 20
1233.5093837339
 30
0.0
 11
2492.3033695655
 21
1233.099959429
 31
0.0
  0
LINE
  5
44C
330
1F
100
AcDbEntity
  8
0
  6
CONTINUOUS
 62
     7
100
AcDbLine
 10
2492.3033695655
 20
1880.7576518614
 30
0.0
 11
2515.7231893378
 21
1880.3482275564
 31
0.0
  0
LINE
  5
44D
330
1F
100
AcDbEntity
  8
0
  6
CONTINUOUS
 62
     7
100
AcDbLine
 10
2521.9939891236
 20
1233.619026478
 30
0.0
 11
2518.5030195849
 21
1233.5579913218
 31
0.0
  0
LINE
  5
44E
330
1F
100
AcDbEntity
  8
0
  6
CONTINUOUS
 62
     7
100
AcDbLine
 10
2518.5030195849
 20
1880.2996199686
 30
0.0
 11
2521.9939891236
 21
1880.2385848124
 31
0.0
  0
LINE
  5
44F
330
1F
100
AcDbEntity
  8
0
  6
CONTINUOUS
 62
     7
100
AcDbLine
 10
2524.8727407294
 20
1880.1882784922
 30
0.0
 11
2547.1733864384
 21
1879.7984045107
 31
0.0
  0
LINE
  5
450
330
1F
100
AcDbEntity
  8
0
  6
CONTINUOUS
 62
     7
100
AcDbLine
 10
2547.1733864384
 20
1234.0592067797
 30
0.0
 11
2524.8727407294
 21
1233.6693327982
 31
0.0
  0
LINE
  5
451
330
1F
100
AcDbEntity
  8
0
  6
CONTINUOUS
 62
     7
100
AcDbLine
 10
2554.5633565622
 20
1234.1883998472
 30
0.0
 11
2549.9532129603
 21
1234.1077845652
 31
0.0
  0
LINE
  5
452
330
1F
100
AcDbEntity
  8
0
  6
CONTINUOUS
 62
     7
100
AcDbLine
 10
2549.9532129603
 20
1879.7498267252
 30
0.0
 11
2554.5633565622
 21
1879.6692114431
 31
0.0
  0
LINE
  5
453
330
1F
100
AcDbEntity
  8
0
  6
CONTINUOUS
 62
     7
100
AcDbLine
 10
2557.4421118932
 20
1879.618905123
 30
0.0
 11
2578.623583539
 21
1879.2486112673
 31
0.0
  0
LINE
  5
454
330
1F
100
AcDbEntity
  8
0
  6
CONTINUOUS
 62
     7
100
AcDbLine
 10
2578.623583539
 20
1234.6090000231
 30
0.0
 11
2557.4421118932
 21
1234.2387061674
 31
0.0
  0
LINE
  5
455
330
1F
100
AcDbEntity
  8
0
  6
CONTINUOUS
 62
     7
100
AcDbLine
 10
2581.4034100609
 20
1879.2000036795
 30
0.0
 11
2587.132727726
 21
1879.0998678762
 31
0.0
  0
LINE
  5
456
330
1F
100
AcDbEntity
  8
0
  6
CONTINUOUS
 62
     7
100
AcDbLine
 10
2587.132727726
 20
1234.7577434141
 30
0.0
 11
2581.4034100609
 21
1234.6576076109
 31
0.0
  0
LINE
  5
457
330
1F
100
AcDbEntity
  8
0
  6
CONTINUOUS
 62
     7
100
AcDbLine
 10
2610.0737731891
 20
1235.1587932665
 30
0.0
 11
2590.0114830571
 21
1234.8080795366
 31
0.0
  0
LINE
  5
458
330
1F
100
AcDbEntity
  8
0
  6
CONTINUOUS
 62
     7
100
AcDbLine
 10
2590.0114830571
 20
1879.0495317537
 30
0.0
 11
2610.0737731891
 21
1878.6988180239
 31
0.0
  0
LINE
  5
459
330
1F
100
AcDbEntity
  8
0
  6
CONTINUOUS
 62
     7
100
AcDbLine
 10
2619.7020988899
 20
1235.3271167833
 30
0.0
 11
2612.853599711
 21
1235.2074008543
 31
0.0
  0
LINE
  5
45A
330
1F
100
AcDbEntity
  8
0
  6
CONTINUOUS
 62
     7
100
AcDbLine
 10
2612.853599711
 20
1878.6502104361
 30
0.0
 11
2619.7020988899
 21
1878.530494507
 31
0.0
  0
LINE
  5
45B
330
1F
100
AcDbEntity
  8
0
  6
CONTINUOUS
 62
     7
100
AcDbLine
 10
2622.5808542209
 20
1878.4801583845
 30
0.0
 11
2641.5239702897
 21
1878.1489949781
 31
0.0
  0
LINE
  5
45C
330
1F
100
AcDbEntity
  8
0
  6
CONTINUOUS
 62
     7
100
AcDbLine
 10
2641.5239702897
 20
1235.7086163122
 30
0.0
 11
2622.5808542209
 21
1235.3774529058
 31
0.0
  0
LINE
  5
45D
330
1F
100
AcDbEntity
  8
0
  6
CONTINUOUS
 62
     7
100
AcDbLine
 10
2652.2714626031
 20
1235.8964901526
 30
0.0
 11
2644.3037968116
 21
1235.7571940977
 31
0.0
  0
LINE
  5
45E
330
1F
100
AcDbEntity
  8
0
  6
CONTINUOUS
 62
     7
100
AcDbLine
 10
2644.3037968116
 20
1878.1004171927
 30
0.0
 11
2652.2714626031
 21
1877.9611211378
 31
0.0
  0
LINE
  5
45F
330
1F
100
AcDbEntity
  8
0
  6
CONTINUOUS
 62
     7
100
AcDbLine
 10
2669.6773003774
 20
1877.6568394262
 30
0.0
 11
2669.6829628187
 21
1877.9811184961
 31
0.0
  0
LINE
  5
460
330
1F
100
AcDbEntity
  8
0
  6
CONTINUOUS
 62
     7
100
AcDbLine
 10
2655.1502179342
 20
1877.9107850153
 30
0.0
 11
2669.6773003774
 21
1877.6568394262
 31
0.0
  0
LINE
  5
461
330
1F
100
AcDbEntity
  8
0
  6
CONTINUOUS
 62
     7
100
AcDbLine
 10
2669.6773003774
 20
1236.2007718641
 30
0.0
 11
2669.6829628187
 21
1235.8764927942
 31
0.0
  0
LINE
  5
462
330
1F
100
AcDbEntity
  8
0
  6
CONTINUOUS
 62
     7
100
AcDbLine
 10
2669.6773003774
 20
1236.2007718641
 30
0.0
 11
2655.1502179342
 21
1235.9468262751
 31
0.0
  0
SPLINE
  5
463
330
1F
100
AcDbEntity
  8
0
  6
CONTINUOUS
 62
     7
100
AcDbSpline
210
0.0
220
0.0
230
1.0
 70
     8
 71
     3
 72
    14
 73
    10
 74
     0
 42
0.00000001
 43
0.00000001
 12
1.0
 22
0.0
 32
0.0
 13
1.0
 23
0.0
 33
0.0
 40
0.0002149440331439
 40
0.0002149440331439
 40
0.0002149440331439
 40
0.0002149440331439
 40
0.0124975525851697
 40
0.0124975525851697
 40
0.0124975525851697
 40
0.0174487955577817
 40
0.0174487955577817
 40
0.0174487955577817
 40
0.020505630643816
 40
0.020505630643816
 40
0.020505630643816
 40
0.020505630643816
 10
2673.475414078846
 20
1558.032887078392
 30
0.0
 10
2673.415470614027
 20
1557.961441045044
 30
0.0
 10
2673.354666947862
 20
1557.889995229639
 30
0.0
 10
2673.292923185884
 20
1557.818549663265
 30
0.0
 10
2673.268033654248
 20
1557.789749236671
 30
0.0
 10
2673.242991225292
 20
1557.760948850191
 30
0.0
 10
2673.217790084205
 20
1557.732148506135
 30
0.0
 10
2673.202231216882
 20
1557.714367536199
 30
0.0
 10
2673.186611846713
 20
1557.696586582356
 30
0.0
 10
2673.170930534101
 20
1557.678805645182
 30
0.0
  0
SPLINE
  5
464
330
1F
100
AcDbEntity
  8
0
  6
CONTINUOUS
 62
     7
100
AcDbSpline
210
0.0
220
0.0
230
1.0
 70
     8
 71
     3
 72
    14
 73
    10
 74
     0
 42
0.00000001
 43
0.00000001
 12
1.0
 22
0.0
 32
0.0
 13
1.0
 23
0.0
 33
0.0
 40
0.0002149440331439
 40
0.0002149440331439
 40
0.0002149440331439
 40
0.0002149440331439
 40
0.0124975525851697
 40
0.0124975525851697
 40
0.0124975525851697
 40
0.0174487955577817
 40
0.0174487955577817
 40
0.0174487955577817
 40
0.020505630643816
 40
0.020505630643816
 40
0.020505630643816
 40
0.020505630643816
 10
2673.475414078846
 20
1555.824724211973
 30
0.0
 10
2673.415470614027
 20
1555.896170245321
 30
0.0
 10
2673.354666947862
 20
1555.967616060726
 30
0.0
 10
2673.292923185884
 20
1556.039061627099
 30
0.0
 10
2673.268033654248
 20
1556.067862053693
 30
0.0
 10
2673.242991225292
 20
1556.096662440173
 30
0.0
 10
2673.217790084205
 20
1556.12546278423
 30
0.0
 10
2673.202231216882
 20
1556.143243754166
 30
0.0
 10
2673.186611846713
 20
1556.161024708009
 30
0.0
 10
2673.170930534101
 20
1556.178805645183
 30
0.0
  0
ARC
  5
465
330
1F
100
AcDbEntity
  8
0
  6
CONTINUOUS
 62
     7
100
AcDbCircle
 10
2667.2082720219
 20
1556.9288056452
 30
0.0
 40
6.363651889718652
100
AcDbArc
 50
306.8142689031
 51
350.0087320699
  0
ARC
  5
466
330
1F
100
AcDbEntity
  8
0
  6
CONTINUOUS
 62
     7
100
AcDbCircle
 10
2667.2179900842
 20
1556.9288056452
 30
0.0
 40
6.357828831028596
100
AcDbArc
 50
53.2558442504
 51
306.7441557496
  0
ARC
  5
467
330
1F
100
AcDbEntity
  8
0
  6
CONTINUOUS
 62
     7
100
AcDbCircle
 10
2667.2082720219
 20
1556.9288056452
 30
0.0
 40
6.363651889718692
100
AcDbArc
 50
9.9912679301
 51
53.1857310969
  0
SPLINE
  5
468
330
1F
100
AcDbEntity
  8
0
  6
CONTINUOUS
 62
     7
100
AcDbSpline
210
0.0
220
0.0
230
1.0
 70
     8
 71
     3
 72
    14
 73
    10
 74
     0
 42
0.00000001
 43
0.00000001
 12
1.0
 22
0.0
 32
0.0
 13
1.0
 23
0.0
 33
0.0
 40
0.0002149440331439
 40
0.0002149440331439
 40
0.0002149440331439
 40
0.0002149440331439
 40
0.0124975525851697
 40
0.0124975525851697
 40
0.0124975525851697
 40
0.0174487955577817
 40
0.0174487955577817
 40
0.0174487955577817
 40
0.020505630643816
 40
0.020505630643816
 40
0.020505630643816
 40
0.020505630643816
 10
2673.475414078846
 20
1708.032887078392
 30
0.0
 10
2673.415470614027
 20
1707.961441045044
 30
0.0
 10
2673.354666947862
 20
1707.889995229639
 30
0.0
 10
2673.292923185884
 20
1707.818549663265
 30
0.0
 10
2673.268033654248
 20
1707.789749236672
 30
0.0
 10
2673.242991225292
 20
1707.760948850191
 30
0.0
 10
2673.217790084205
 20
1707.732148506135
 30
0.0
 10
2673.202231216882
 20
1707.714367536199
 30
0.0
 10
2673.186611846713
 20
1707.696586582355
 30
0.0
 10
2673.170930534101
 20
1707.678805645183
 30
0.0
  0
SPLINE
  5
469
330
1F
100
AcDbEntity
  8
0
  6
CONTINUOUS
 62
     7
100
AcDbSpline
210
0.0
220
0.0
230
1.0
 70
     8
 71
     3
 72
    14
 73
    10
 74
     0
 42
0.00000001
 43
0.00000001
 12
1.0
 22
0.0
 32
0.0
 13
1.0
 23
0.0
 33
0.0
 40
0.0002149440331439
 40
0.0002149440331439
 40
0.0002149440331439
 40
0.0002149440331439
 40
0.0124975525851697
 40
0.0124975525851697
 40
0.0124975525851697
 40
0.0174487955577817
 40
0.0174487955577817
 40
0.0174487955577817
 40
0.020505630643816
 40
0.020505630643816
 40
0.020505630643816
 40
0.020505630643816
 10
2673.475414078846
 20
1705.824724211973
 30
0.0
 10
2673.415470614027
 20
1705.896170245321
 30
0.0
 10
2673.354666947862
 20
1705.967616060726
 30
0.0
 10
2673.292923185884
 20
1706.039061627099
 30
0.0
 10
2673.268033654248
 20
1706.067862053693
 30
0.0
 10
2673.242991225292
 20
1706.096662440174
 30
0.0
 10
2673.217790084205
 20
1706.12546278423
 30
0.0
 10
2673.202231216882
 20
1706.143243754166
 30
0.0
 10
2673.186611846713
 20
1706.16102470801
 30
0.0
 10
2673.170930534101
 20
1706.178805645182
 30
0.0
  0
ARC
  5
46A
330
1F
100
AcDbEntity
  8
0
  6
CONTINUOUS
 62
     7
100
AcDbCircle
 10
2667.2082720219
 20
1706.9288056452
 30
0.0
 40
6.363651889718692
100
AcDbArc
 50
306.8142689031
 51
350.0087320699
  0
ARC
  5
46B
330
1F
100
AcDbEntity
  8
0
  6
CONTINUOUS
 62
     7
100
AcDbCircle
 10
2667.2179900842
 20
1706.9288056452
 30
0.0
 40
6.357828831028596
100
AcDbArc
 50
53.2558442504
 51
306.7441557496
  0
ARC
  5
46C
330
1F
100
AcDbEntity
  8
0
  6
CONTINUOUS
 62
     7
100
AcDbCircle
 10
2667.2082720219
 20
1706.9288056452
 30
0.0
 40
6.363651889718732
100
AcDbArc
 50
9.9912679301
 51
53.1857310969
  0
SPLINE
  5
46D
330
1F
100
AcDbEntity
  8
0
  6
CONTINUOUS
 62
     7
100
AcDbSpline
210
0.0
220
0.0
230
1.0
 70
     8
 71
     3
 72
    14
 73
    10
 74
     0
 42
0.00000001
 43
0.00000001
 12
1.0
 22
0.0
 32
0.0
 13
1.0
 23
0.0
 33
0.0
 40
0.0002149440331439
 40
0.0002149440331439
 40
0.0002149440331439
 40
0.0002149440331439
 40
0.0124975525851697
 40
0.0124975525851697
 40
0.0124975525851697
 40
0.0174487955577817
 40
0.0174487955577817
 40
0.0174487955577817
 40
0.020505630643816
 40
0.020505630643816
 40
0.020505630643816
 40
0.020505630643816
 10
2673.475414078846
 20
1408.032887078392
 30
0.0
 10
2673.415470614027
 20
1407.961441045044
 30
0.0
 10
2673.354666947862
 20
1407.889995229639
 30
0.0
 10
2673.292923185884
 20
1407.818549663265
 30
0.0
 10
2673.268033654248
 20
1407.789749236672
 30
0.0
 10
2673.242991225292
 20
1407.760948850191
 30
0.0
 10
2673.217790084205
 20
1407.732148506135
 30
0.0
 10
2673.202231216882
 20
1407.714367536199
 30
0.0
 10
2673.186611846713
 20
1407.696586582355
 30
0.0
 10
2673.170930534101
 20
1407.678805645183
 30
0.0
  0
SPLINE
  5
46E
330
1F
100
AcDbEntity
  8
0
  6
CONTINUOUS
 62
     7
100
AcDbSpline
210
0.0
220
0.0
230
1.0
 70
     8
 71
     3
 72
    14
 73
    10
 74
     0
 42
0.00000001
 43
0.00000001
 12
1.0
 22
0.0
 32
0.0
 13
1.0
 23
0.0
 33
0.0
 40
0.0002149440331439
 40
0.0002149440331439
 40
0.0002149440331439
 40
0.0002149440331439
 40
0.0124975525851697
 40
0.0124975525851697
 40
0.0124975525851697
 40
0.0174487955577817
 40
0.0174487955577817
 40
0.0174487955577817
 40
0.020505630643816
 40
0.020505630643816
 40
0.020505630643816
 40
0.020505630643816
 10
2673.475414078846
 20
1405.824724211973
 30
0.0
 10
2673.415470614027
 20
1405.896170245321
 30
0.0
 10
2673.354666947862
 20
1405.967616060726
 30
0.0
 10
2673.292923185884
 20
1406.039061627099
 30
0.0
 10
2673.268033654248
 20
1406.067862053693
 30
0.0
 10
2673.242991225292
 20
1406.096662440174
 30
0.0
 10
2673.217790084205
 20
1406.12546278423
 30
0.0
 10
2673.202231216882
 20
1406.143243754166
 30
0.0
 10
2673.186611846713
 20
1406.161024708009
 30
0.0
 10
2673.170930534101
 20
1406.178805645182
 30
0.0
  0
ARC
  5
46F
330
1F
100
AcDbEntity
  8
0
  6
CONTINUOUS
 62
     7
100
AcDbCircle
 10
2667.2082720219
 20
1406.9288056452
 30
0.0
 40
6.363651889718692
100
AcDbArc
 50
306.8142689031
 51
350.0087320699
  0
ARC
  5
470
330
1F
100
AcDbEntity
  8
0
  6
CONTINUOUS
 62
     7
100
AcDbCircle
 10
2667.2179900842
 20
1406.9288056452
 30
0.0
 40
6.357828831028778
100
AcDbArc
 50
53.2558442504
 51
306.7441557496
  0
ARC
  5
471
330
1F
100
AcDbEntity
  8
0
  6
CONTINUOUS
 62
     7
100
AcDbCircle
 10
2667.2082720219
 20
1406.9288056452
 30
0.0
 40
6.363651889718732
100
AcDbArc
 50
9.9912679301
 51
53.1857310969
  0
LINE
  5
472
330
1F
100
AcDbEntity
  8
0
  6
CONTINUOUS
 62
     7
100
AcDbLine
 10
2666.1257278161
 20
1247.9288201887
 30
0.0
 11
2666.1133598523
 21
1256.0313563902
 31
0.0
  0
LINE
  5
473
330
1F
100
AcDbEntity
  8
0
  6
CONTINUOUS
 62
     7
100
AcDbLine
 10
2666.1257278161
 20
1865.9287911016
 30
0.0
 11
2666.1133598523
 21
1857.8262549002
 31
0.0
  0
LINE
  5
474
330
1F
100
AcDbEntity
  8
0
  6
CONTINUOUS
 62
     7
100
AcDbLine
 10
2668.3102529483
 20
1247.9292374212
 30
0.0
 11
2668.3226209121
 21
1256.0313563902
 31
0.0
  0
LINE
  5
475
330
1F
100
AcDbEntity
  8
0
  6
CONTINUOUS
 62
     7
100
AcDbLine
 10
2668.3102529483
 20
1865.9283738691
 30
0.0
 11
2668.3226209121
 21
1857.8262549002
 31
0.0
  0
ARC
  5
476
330
1F
100
AcDbEntity
  8
0
  6
CONTINUOUS
 62
     7
100
AcDbCircle
 10
2669.6655157611
 20
1236.8753010925
 30
0.0
 40
0.6746224427744192
100
AcDbArc
 50
271.0015270427
 51
315.0618701578
  0
LINE
  5
477
330
1F
100
AcDbEntity
  8
0
  6
CONTINUOUS
 62
     7
100
AcDbLine
 10
2670.1430659728
 20
1236.3987784941
 30
0.0
 11
2670.372618361
 21
1236.1692112047
 31
0.0
  0
LINE
  5
478
330
1F
100
AcDbEntity
  8
0
  6
CONTINUOUS
 62
     7
100
AcDbLine
 10
2670.1430659728
 20
1877.4588327963
 30
0.0
 11
2670.372618361
 21
1877.6884000856
 31
0.0
  0
ARC
  5
479
330
1F
100
AcDbEntity
  8
0
  6
CONTINUOUS
 62
     7
100
AcDbCircle
 10
2669.6655157611
 20
1876.9823101979
 30
0.0
 40
0.6746224427742078
100
AcDbArc
 50
44.9381298422
 51
88.9984729572
  0
LINE
  5
47A
330
1F
100
AcDbEntity
  8
0
  6
CONTINUOUS
 62
     7
100
AcDbLine
 10
2679.0737789111
 20
1227.4680655558
 30
0.0
 11
2678.8579057889
 21
1227.6839535791
 31
0.0
  0
SPLINE
  5
47B
330
1F
100
AcDbEntity
  8
0
  6
CONTINUOUS
 62
     7
100
AcDbSpline
210
0.0
220
0.0
230
1.0
 70
     8
 71
     3
 72
    14
 73
    10
 74
     0
 42
0.00000001
 43
0.00000001
 12
1.0
 22
0.0
 32
0.0
 13
1.0
 23
0.0
 33
0.0
 40
0.0
 40
0.0
 40
0.0
 40
0.0
 40
0.25
 40
0.25
 40
0.5
 40
0.5
 40
0.75
 40
0.75
 40
1.0
 40
1.0
 40
1.0
 40
1.0
 10
2679.073774246671
 20
1227.468072836563
 30
0.0
 10
2678.539664980507
 20
1226.934412679464
 30
0.0
 10
2677.968131418535
 20
1226.453446596153
 30
0.0
 10
2676.753311736448
 20
1225.592538557892
 30
0.0
 10
2676.109939045085
 20
1225.212553898896
 30
0.0
 10
2674.748612928176
 20
1224.558236106965
 30
0.0
 10
2674.050316143131
 20
1224.293332464577
 30
0.0
 10
2672.620009058785
 20
1223.882590551814
 30
0.0
 10
2671.887997672309
 20
1223.736755898073
 30
0.0
 10
2671.138437116861
 20
1223.652925513612
 30
0.0
  0
ELLIPSE
  5
47C
330
1F
100
AcDbEntity
  8
0
  6
CONTINUOUS
 62
     7
100
AcDbEllipse
 10
2669.6655157611
 20
1236.8966808266
 30
0.0
 11
0.0
 21
13.32541020641111
 31
0.0
210
0.0
220
0.0
230
1.0
 40
0.999998834
 41
3.159019314501803
 42
3.252353899684549
  0
LINE
  5
47D
330
1F
100
AcDbEntity
  8
0
  6
CONTINUOUS
 62
     7
100
AcDbLine
 10
2671.092463656
 20
1237.3502474386
 30
0.0
 11
2670.1430659728
 21
1236.3987784941
 31
0.0
  0
SPLINE
  5
47E
330
1F
100
AcDbEntity
  8
0
  6
CONTINUOUS
 62
     7
100
AcDbSpline
210
0.0
220
0.0
230
1.0
 70
     8
 71
     3
 72
     8
 73
     4
 74
     0
 42
0.00000001
 43
0.00000001
 12
1.0
 22
0.0
 32
0.0
 13
1.0
 23
0.0
 33
0.0
 40
0.0
 40
0.0
 40
0.0
 40
0.0
 40
1.0
 40
1.0
 40
1.0
 40
1.0
 10
2671.487250821329
 20
1237.745331345685
 30
0.0
 10
2671.355656112994
 20
1237.613638766499
 30
0.0
 10
2671.224062375124
 20
1237.481945216846
 30
0.0
 10
2671.092469607718
 20
1237.35025069673
 30
0.0
  0
LINE
  5
47F
330
1F
100
AcDbEntity
  8
0
  6
CONTINUOUS
 62
     7
100
AcDbLine
 10
2670.1430659728
 20
1877.4588327963
 30
0.0
 11
2671.092463656
 21
1876.5073638517
 31
0.0
  0
SPLINE
  5
480
330
1F
100
AcDbEntity
  8
0
  6
CONTINUOUS
 62
     7
100
AcDbSpline
210
0.0
220
0.0
230
1.0
 70
     8
 71
     3
 72
     8
 73
     4
 74
     0
 42
0.00000001
 43
0.00000001
 12
1.0
 22
0.0
 32
0.0
 13
1.0
 23
0.0
 33
0.0
 40
0.0
 40
0.0
 40
0.0
 40
0.0
 40
1.0
 40
1.0
 40
1.0
 40
1.0
 10
2671.09246960771
 20
1876.507360593644
 30
0.0
 10
2671.224062375118
 20
1876.375666073524
 30
0.0
 10
2671.355656112991
 20
1876.243972523869
 30
0.0
 10
2671.487250821329
 20
1876.11227994468
 30
0.0
  0
SPLINE
  5
481
330
1F
100
AcDbEntity
  8
0
  6
CONTINUOUS
 62
     7
100
AcDbSpline
210
0.0
220
0.0
230
1.0
 70
     8
 71
     3
 72
    14
 73
    10
 74
     0
 42
0.00000001
 43
0.00000001
 12
1.0
 22
0.0
 32
0.0
 13
1.0
 23
0.0
 33
0.0
 40
0.0
 40
0.0
 40
0.0
 40
0.0
 40
0.25
 40
0.25
 40
0.5
 40
0.5
 40
0.75
 40
0.75
 40
1.0
 40
1.0
 40
1.0
 40
1.0
 10
2671.138437116861
 20
1890.204685776753
 30
0.0
 10
2671.888013247953
 20
1890.120853650322
 30
0.0
 10
2672.62025690512
 20
1889.97498944239
 30
0.0
 10
2674.051387422903
 20
1889.563931271152
 30
0.0
 10
2674.751710577546
 20
1889.298048107286
 30
0.0
 10
2676.111490858732
 20
1888.644149161335
 30
0.0
 10
2676.754201150182
 20
1888.264486285403
 30
0.0
 10
2677.968287704033
 20
1887.404010046292
 30
0.0
 10
2678.539665165243
 20
1886.923198426319
 30
0.0
 10
2679.073774246671
 20
1886.389538453802
 30
0.0
  0
LINE
  5
482
330
1F
100
AcDbEntity
  8
0
  6
CONTINUOUS
 62
     7
100
AcDbLine
 10
2679.0737789111
 20
1886.3895457346
 30
0.0
 11
2678.8579057889
 21
1886.1736577112
 31
0.0
  0
ELLIPSE
  5
483
330
1F
100
AcDbEntity
  8
0
  6
CONTINUOUS
 62
     7
100
AcDbEllipse
 10
2669.6655157611
 20
1876.9609304638
 30
0.0
 11
0.0
 21
13.32541020641133
 31
0.0
210
0.0
220
0.0
230
1.0
 40
0.999998834
 41
6.172424061084855
 42
6.265758646267672
  0
LINE
  5
484
330
1F
100
AcDbEntity
  8
0
  6
CONTINUOUS
 62
     7
100
AcDbLine
 10
2678.2179903226
 20
1708.0256413776
 30
0.0
 11
2673.4754126506
 21
1708.032883342
 31
0.0
  0
SPLINE
  5
485
330
1F
100
AcDbEntity
  8
0
  6
CONTINUOUS
 62
     7
100
AcDbSpline
210
0.0
220
0.0
230
1.0
 70
     8
 71
     3
 72
     8
 73
     4
 74
     0
 42
0.00000001
 43
0.00000001
 12
1.0
 22
0.0
 32
0.0
 13
1.0
 23
0.0
 33
0.0
 40
0.0
 40
0.0
 40
0.0
 40
0.0
 40
1.0
 40
1.0
 40
1.0
 40
1.0
 10
2672.900969449261
 20
1874.69758458509
 30
0.0
 10
2678.761030903835
 20
1868.833784035505
 30
0.0
 10
2684.623016616027
 20
1862.971907743537
 30
0.0
 10
2690.486926585029
 20
1857.111955708379
 30
0.0
  0
SPLINE
  5
486
330
1F
100
AcDbEntity
  8
0
  6
CONTINUOUS
 62
     7
100
AcDbSpline
210
0.0
220
0.0
230
1.0
 70
     8
 71
     3
 72
     8
 73
     4
 74
     0
 42
0.00000001
 43
0.00000001
 12
1.0
 22
0.0
 32
0.0
 13
1.0
 23
0.0
 33
0.0
 40
0.0
 40
0.0
 40
0.0
 40
0.0
 40
1.0
 40
1.0
 40
1.0
 40
1.0
 10
2690.486926585028
 20
1256.745655581986
 30
0.0
 10
2684.623016616027
 20
1250.885703546828
 30
0.0
 10
2678.761030903835
 20
1245.023827254859
 30
0.0
 10
2672.900969449261
 20
1239.160026705274
 30
0.0
  0
LINE
  5
487
330
1F
100
AcDbEntity
  8
0
  6
CONTINUOUS
 62
     7
100
AcDbLine
 10
2678.2179903226
 20
1705.8319669325
 30
0.0
 11
2673.4754126506
 21
1705.8247249681
 31
0.0
  0
LINE
  5
488
330
1F
100
AcDbEntity
  8
0
  6
CONTINUOUS
 62
     7
100
AcDbLine
 10
2678.2179903226
 20
1558.025644614
 30
0.0
 11
2673.4754126506
 21
1558.032887044
 31
0.0
  0
LINE
  5
489
330
1F
100
AcDbEntity
  8
0
  6
CONTINUOUS
 62
     7
100
AcDbLine
 10
2678.2179903226
 20
1555.8319666764
 30
0.0
 11
2673.4754126506
 21
1555.8247242464
 31
0.0
  0
LINE
  5
48A
330
1F
100
AcDbEntity
  8
0
  6
CONTINUOUS
 62
     7
100
AcDbLine
 10
2678.2179903226
 20
1405.8319699127
 30
0.0
 11
2673.4754126506
 21
1405.8247279484
 31
0.0
  0
LINE
  5
48B
330
1F
100
AcDbEntity
  8
0
  6
CONTINUOUS
 62
     7
100
AcDbLine
 10
2678.2179903226
 20
1408.0256443579
 30
0.0
 11
2673.4754126506
 21
1408.0328863222
 31
0.0
  0
SPLINE
  5
48C
330
1F
100
AcDbEntity
  8
0
  6
CONTINUOUS
 62
     7
100
AcDbSpline
210
0.0
220
0.0
230
1.0
 70
     8
 71
     3
 72
     8
 73
     4
 74
     0
 42
0.00000001
 43
0.00000001
 12
1.0
 22
0.0
 32
0.0
 13
1.0
 23
0.0
 33
0.0
 40
0.0
 40
0.0
 40
0.0
 40
0.0
 40
1.0
 40
1.0
 40
1.0
 40
1.0
 10
2679.073774246671
 20
1886.389538453801
 30
0.0
 10
2686.594417465106
 20
1878.875219014527
 30
0.0
 10
2694.111916254558
 20
1871.357734921983
 30
0.0
 10
2701.626270589471
 20
1863.837086150448
 30
0.0
  0
LINE
  5
48D
330
1F
100
AcDbEntity
  8
0
  6
CONTINUOUS
 62
     7
100
AcDbLine
 10
2701.6262691455
 20
1863.8370853025
 30
0.0
 11
2701.4103811221
 21
1863.6211972792
 31
0.0
  0
SPLINE
  5
48E
330
1F
100
AcDbEntity
  8
0
  6
CONTINUOUS
 62
     7
100
AcDbSpline
210
0.0
220
0.0
230
1.0
 70
     8
 71
     3
 72
     8
 73
     4
 74
     0
 42
0.00000001
 43
0.00000001
 12
1.0
 22
0.0
 32
0.0
 13
1.0
 23
0.0
 33
0.0
 40
0.0
 40
0.0
 40
0.0
 40
0.0
 40
1.0
 40
1.0
 40
1.0
 40
1.0
 10
2701.626270589471
 20
1250.020525139917
 30
0.0
 10
2694.111916254558
 20
1242.499876368382
 30
0.0
 10
2686.594417465106
 20
1234.982392275838
 30
0.0
 10
2679.073774246671
 20
1227.468072836563
 30
0.0
  0
LINE
  5
48F
330
1F
100
AcDbEntity
  8
0
  6
CONTINUOUS
 62
     7
100
AcDbLine
 10
2701.6262691455
 20
1250.0205259878
 30
0.0
 11
2701.4103811221
 21
1250.2364140112
 31
0.0
  0
LINE
  5
490
330
1F
100
AcDbEntity
  8
0
  6
CONTINUOUS
 62
     7
100
AcDbLine
 10
2692.6954817014
 20
1258.9513283331
 30
0.0
 11
2692.9250936942
 21
1258.7217014391
 31
0.0
  0
LINE
  5
491
330
1F
100
AcDbEntity
  8
0
  6
CONTINUOUS
 62
     7
100
AcDbLine
 10
2692.6954817014
 20
1258.9513283331
 30
0.0
 11
2691.9017266469
 21
1258.159272011
 31
0.0
  0
LINE
  5
492
330
1F
100
AcDbEntity
  8
0
  6
CONTINUOUS
 62
     7
100
AcDbLine
 10
2692.6954817014
 20
1854.9062829573
 30
0.0
 11
2692.9250936942
 21
1855.1359098513
 31
0.0
  0
LINE
  5
493
330
1F
100
AcDbEntity
  8
0
  6
CONTINUOUS
 62
     7
100
AcDbLine
 10
2691.9017266469
 20
1855.6983392794
 30
0.0
 11
2692.6954817014
 21
1854.9062829573
 31
0.0
  0
LINE
  5
494
330
1F
100
AcDbEntity
  8
0
  6
CONTINUOUS
 62
     7
100
AcDbLine
 10
2692.8935628372
 20
1350.3390174467
 30
0.0
 11
2692.8935628372
 21
1347.5185852606
 31
0.0
  0
LINE
  5
495
330
1F
100
AcDbEntity
  8
0
  6
CONTINUOUS
 62
     7
100
AcDbLine
 10
2692.8935628372
 20
1798.3390163738
 30
0.0
 11
2692.8935628372
 21
1795.5185841877
 31
0.0
  0
LINE
  5
496
330
1F
100
AcDbEntity
  8
0
  6
CONTINUOUS
 62
     7
100
AcDbLine
 10
2692.8935628372
 20
1854.4288199503
 30
0.0
 11
2693.2179909187
 21
1854.4288199503
 31
0.0
  0
ARC
  5
497
330
1F
100
AcDbEntity
  8
0
  6
CONTINUOUS
 62
     7
100
AcDbCircle
 10
2692.2190201915
 20
1854.4288056452
 30
0.0
 40
0.6745423082234083
100
AcDbArc
 50
0.0
 51
45.0618701578
  0
LINE
  5
498
330
1F
100
AcDbEntity
  8
0
  6
CONTINUOUS
 62
     7
100
AcDbLine
 10
2692.8935628372
 20
1702.3390155394
 30
0.0
 11
2692.8935628372
 21
1699.5185982544
 31
0.0
  0
LINE
  5
499
330
1F
100
AcDbEntity
  8
0
  6
CONTINUOUS
 62
     7
100
AcDbLine
 10
2692.8935628372
 20
1259.4287913401
 30
0.0
 11
2693.2179909187
 21
1259.4287913401
 31
0.0
  0
LINE
  5
49A
330
1F
100
AcDbEntity
  8
0
  6
CONTINUOUS
 62
     7
100
AcDbLine
 10
2692.8935628372
 20
1280.6901555616
 30
0.0
 11
2692.8935628372
 21
1259.4287913401
 31
0.0
  0
LINE
  5
49B
330
1F
100
AcDbEntity
  8
0
  6
CONTINUOUS
 62
     7
100
AcDbLine
 10
2692.8935628372
 20
1478.3390160758
 30
0.0
 11
2692.8935628372
 21
1475.5185913403
 31
0.0
  0
LINE
  5
49C
330
1F
100
AcDbEntity
  8
0
  6
CONTINUOUS
 62
     7
100
AcDbLine
 10
2692.8935628372
 20
1734.3390207846
 30
0.0
 11
2692.8935628372
 21
1731.5185885984
 31
0.0
  0
LINE
  5
49D
330
1F
100
AcDbEntity
  8
0
  6
CONTINUOUS
 62
     7
100
AcDbLine
 10
2692.8935628372
 20
1574.3390187729
 30
0.0
 11
2692.8935628372
 21
1571.5185912434
 31
0.0
  0
LINE
  5
49E
330
1F
100
AcDbEntity
  8
0
  6
CONTINUOUS
 62
     7
100
AcDbLine
 10
2692.8935628372
 20
1830.3390067179
 30
0.0
 11
2692.8935628372
 21
1827.5186043341
 31
0.0
  0
LINE
  5
49F
330
1F
100
AcDbEntity
  8
0
  6
CONTINUOUS
 62
     7
100
AcDbLine
 10
2692.8935628372
 20
1638.3390199501
 30
0.0
 11
2692.8935628372
 21
1635.5185952146
 31
0.0
  0
LINE
  5
4A0
330
1F
100
AcDbEntity
  8
0
  6
CONTINUOUS
 62
     7
100
AcDbLine
 10
2692.8935628372
 20
1440.6901668865
 30
0.0
 11
2692.8935628372
 21
1417.1674471457
 31
0.0
  0
LINE
  5
4A1
330
1F
100
AcDbEntity
  8
0
  6
CONTINUOUS
 62
     7
100
AcDbLine
 10
2692.8935628372
 20
1510.339021321
 30
0.0
 11
2692.8935628372
 21
1507.5185928602
 31
0.0
  0
LINE
  5
4A2
330
1F
100
AcDbEntity
  8
0
  6
CONTINUOUS
 62
     7
100
AcDbLine
 10
2692.8935628372
 20
1286.3390069563
 30
0.0
 11
2692.8935628372
 21
1283.5186045725
 31
0.0
  0
LINE
  5
4A3
330
1F
100
AcDbEntity
  8
0
  6
CONTINUOUS
 62
     7
100
AcDbLine
 10
2692.8935628372
 20
1446.3390182812
 30
0.0
 11
2692.8935628372
 21
1443.5185935456
 31
0.0
  0
LINE
  5
4A4
330
1F
100
AcDbEntity
  8
0
  6
CONTINUOUS
 62
     7
100
AcDbLine
 10
2692.8935628372
 20
1542.339020047
 30
0.0
 11
2692.8935628372
 21
1539.5185925175
 31
0.0
  0
LINE
  5
4A5
330
1F
100
AcDbEntity
  8
0
  6
CONTINUOUS
 62
     7
100
AcDbLine
 10
2692.8935628372
 20
1382.3390226919
 30
0.0
 11
2692.8935628372
 21
1379.5185905058
 31
0.0
  0
LINE
  5
4A6
330
1F
100
AcDbEntity
  8
0
  6
CONTINUOUS
 62
     7
100
AcDbLine
 10
2692.8935628372
 20
1600.6901633102
 30
0.0
 11
2692.8935628372
 21
1577.1674472947
 31
0.0
  0
LINE
  5
4A7
330
1F
100
AcDbEntity
  8
0
  6
CONTINUOUS
 62
     7
100
AcDbLine
 10
2692.8935628372
 20
1760.690159734
 30
0.0
 11
2692.8935628372
 21
1737.1674399931
 31
0.0
  0
LINE
  5
4A8
330
1F
100
AcDbEntity
  8
0
  6
CONTINUOUS
 62
     7
100
AcDbLine
 10
2692.8935628372
 20
1664.6901663501
 30
0.0
 11
2692.8935628372
 21
1641.1674466092
 31
0.0
  0
LINE
  5
4A9
330
1F
100
AcDbEntity
  8
0
  6
CONTINUOUS
 62
     7
100
AcDbLine
 10
2692.8935628372
 20
1318.3390271027
 30
0.0
 11
2692.8935628372
 21
1315.5185949165
 31
0.0
  0
LINE
  5
4AA
330
1F
100
AcDbEntity
  8
0
  6
CONTINUOUS
 62
     7
100
AcDbLine
 10
2692.8935628372
 20
1766.3390260298
 30
0.0
 11
2692.8935628372
 21
1763.5185938437
 31
0.0
  0
LINE
  5
4AB
330
1F
100
AcDbEntity
  8
0
  6
CONTINUOUS
 62
     7
100
AcDbLine
 10
2692.8935628372
 20
1670.3390177447
 30
0.0
 11
2692.8935628372
 21
1667.5185930092
 31
0.0
  0
LINE
  5
4AC
330
1F
100
AcDbEntity
  8
0
  6
CONTINUOUS
 62
     7
100
AcDbLine
 10
2692.8935628372
 20
1854.4288199503
 30
0.0
 11
2692.8935628372
 21
1833.1674557287
 31
0.0
  0
LINE
  5
4AD
330
1F
100
AcDbEntity
  8
0
  6
CONTINUOUS
 62
     7
100
AcDbLine
 10
2692.8935628372
 20
1504.6901662011
 30
0.0
 11
2692.8935628372
 21
1481.1674501855
 31
0.0
  0
LINE
  5
4AE
330
1F
100
AcDbEntity
  8
0
  6
CONTINUOUS
 62
     7
100
AcDbLine
 10
2692.8935628372
 20
1792.6901649792
 30
0.0
 11
2692.8935628372
 21
1769.1674452383
 31
0.0
  0
LINE
  5
4AF
330
1F
100
AcDbEntity
  8
0
  6
CONTINUOUS
 62
     7
100
AcDbLine
 10
2692.8935628372
 20
1376.6901712973
 30
0.0
 11
2692.8935628372
 21
1353.1674515564
 31
0.0
  0
LINE
  5
4B0
330
1F
100
AcDbEntity
  8
0
  6
CONTINUOUS
 62
     7
100
AcDbLine
 10
2692.8935628372
 20
1696.6901641447
 30
0.0
 11
2692.8935628372
 21
1673.1674444038
 31
0.0
  0
LINE
  5
4B1
330
1F
100
AcDbEntity
  8
0
  6
CONTINUOUS
 62
     7
100
AcDbLine
 10
2692.8935628372
 20
1606.3390184302
 30
0.0
 11
2692.8935628372
 21
1603.5185899694
 31
0.0
  0
LINE
  5
4B2
330
1F
100
AcDbEntity
  8
0
  6
CONTINUOUS
 62
     7
100
AcDbLine
 10
2692.8935628372
 20
1568.6901645843
 30
0.0
 11
2692.8935628372
 21
1545.1674467061
 31
0.0
  0
LINE
  5
4B3
330
1F
100
AcDbEntity
  8
0
  6
CONTINUOUS
 62
     7
100
AcDbLine
 10
2692.8935628372
 20
1312.6901608068
 30
0.0
 11
2692.8935628372
 21
1289.1674559671
 31
0.0
  0
ARC
  5
4B4
330
1F
100
AcDbEntity
  8
0
  6
CONTINUOUS
 62
     7
100
AcDbCircle
 10
2692.2190201915
 20
1259.4288056452
 30
0.0
 40
0.6745423082238631
100
AcDbArc
 50
314.9381298422
 51
0.0
  0
LINE
  5
4B5
330
1F
100
AcDbEntity
  8
0
  6
CONTINUOUS
 62
     7
100
AcDbLine
 10
2692.8935628372
 20
1632.6901611049
 30
0.0
 11
2692.8935628372
 21
1609.1674450893
 31
0.0
  0
LINE
  5
4B6
330
1F
100
AcDbEntity
  8
0
  6
CONTINUOUS
 62
     7
100
AcDbLine
 10
2692.8935628372
 20
1414.339013036
 30
0.0
 11
2692.8935628372
 21
1411.518595751
 31
0.0
  0
LINE
  5
4B7
330
1F
100
AcDbEntity
  8
0
  6
CONTINUOUS
 62
     7
100
AcDbLine
 10
2692.8935628372
 20
1728.6901693899
 30
0.0
 11
2692.8935628372
 21
1705.1674496491
 31
0.0
  0
LINE
  5
4B8
330
1F
100
AcDbEntity
  8
0
  6
CONTINUOUS
 62
     7
100
AcDbLine
 10
2692.8935628372
 20
1472.6901646812
 30
0.0
 11
2692.8935628372
 21
1449.1674449403
 31
0.0
  0
LINE
  5
4B9
330
1F
100
AcDbEntity
  8
0
  6
CONTINUOUS
 62
     7
100
AcDbLine
 10
2692.8935628372
 20
1536.6901639957
 30
0.0
 11
2692.8935628372
 21
1513.1674479801
 31
0.0
  0
LINE
  5
4BA
330
1F
100
AcDbEntity
  8
0
  6
CONTINUOUS
 62
     7
100
AcDbLine
 10
2692.8935628372
 20
1344.6901660521
 30
0.0
 11
2692.8935628372
 21
1321.1674463112
 31
0.0
  0
LINE
  5
4BB
330
1F
100
AcDbEntity
  8
0
  6
CONTINUOUS
 62
     7
100
AcDbLine
 10
2692.8935628372
 20
1824.6901553232
 30
0.0
 11
2692.8935628372
 21
1801.1674504835
 31
0.0
  0
LINE
  5
4BC
330
1F
100
AcDbEntity
  8
0
  6
CONTINUOUS
 62
     7
100
AcDbLine
 10
2692.8935628372
 20
1408.6901616413
 30
0.0
 11
2692.8935628372
 21
1385.1674419004
 31
0.0
  0
SPLINE
  5
4BD
330
1F
100
AcDbEntity
  8
0
  6
CONTINUOUS
 62
     7
100
AcDbSpline
210
0.0
220
0.0
230
1.0
 70
     8
 71
     3
 72
    14
 73
    10
 74
     0
 42
0.00000001
 43
0.00000001
 12
1.0
 22
0.0
 32
0.0
 13
1.0
 23
0.0
 33
0.0
 40
0.0
 40
0.0
 40
0.0
 40
0.0
 40
0.25
 40
0.25
 40
0.5
 40
0.5
 40
0.75
 40
0.75
 40
1.0
 40
1.0
 40
1.0
 40
1.0
 10
2705.447222616565
 20
1258.008502674787
 30
0.0
 10
2705.365881900595
 20
1257.254091099924
 30
0.0
 10
2705.22169716616
 20
1256.516966672949
 30
0.0
 10
2704.812430133958
 20
1255.075989848468
 30
0.0
 10
2704.546446807766
 20
1254.370258208015
 30
0.0
 10
2703.89148250664
 20
1253.001511430406
 30
0.0
 10
2703.510617939663
 20
1252.354629449673
 30
0.0
 10
2702.646449514982
 20
1251.132800894424
 30
0.0
 10
2702.163148256516
 20
1250.557852525234
 30
0.0
 10
2701.626270589471
 20
1250.020525139917
 30
0.0
  0
LINE
  5
4BE
330
1F
100
AcDbEntity
  8
0
  6
CONTINUOUS
 62
     7
100
AcDbLine
 10
2705.523131414
 20
1259.4287913401
 30
0.0
 11
2705.217985435
 21
1259.4287913401
 31
0.0
  0
ELLIPSE
  5
4BF
330
1F
100
AcDbEntity
  8
0
  6
CONTINUOUS
 62
     7
100
AcDbEllipse
 10
2692.1976404574
 20
1259.4288056452
 30
0.0
 11
13.32549034120211
 21
0.0
 31
0.0
210
0.0
220
0.0
230
1.0
 40
0.999998834
 41
6.176397864259465
 42
6.283185307179586
  0
LINE
  5
4C0
330
1F
100
AcDbEntity
  8
0
  6
CONTINUOUS
 62
     7
100
AcDbLine
 10
2705.523131414
 20
1854.4288199503
 30
0.0
 11
2705.217985435
 21
1854.4288199503
 31
0.0
  0
SPLINE
  5
4C1
330
1F
100
AcDbEntity
  8
0
  6
CONTINUOUS
 62
     7
100
AcDbSpline
210
0.0
220
0.0
230
1.0
 70
     8
 71
     3
 72
    14
 73
    10
 74
     0
 42
0.00000001
 43
0.00000001
 12
1.0
 22
0.0
 32
0.0
 13
1.0
 23
0.0
 33
0.0
 40
0.0
 40
0.0
 40
0.0
 40
0.0
 40
0.25
 40
0.25
 40
0.5
 40
0.5
 40
0.75
 40
0.75
 40
1.0
 40
1.0
 40
1.0
 40
1.0
 10
2701.626270589471
 20
1863.837086150448
 30
0.0
 10
2702.163148554545
 20
1863.299758466853
 30
0.0
 10
2702.646699671246
 20
1862.724557550082
 30
0.0
 10
2703.511564602744
 20
1861.501542390602
 30
0.0
 10
2703.893148870819
 20
1860.853165286524
 30
0.0
 10
2704.54836947818
 20
1859.482784270356
 30
0.0
 10
2704.812987234615
 20
1858.779887859041
 30
0.0
 10
2705.22174621506
 20
1857.340243687131
 30
0.0
 10
2705.365884610386
 20
1856.603495064983
 30
0.0
 10
2705.447222617994
 20
1855.84910860233
 30
0.0
  0
ELLIPSE
  5
4C2
330
1F
100
AcDbEntity
  8
0
  6
CONTINUOUS
 62
     7
100
AcDbEllipse
 10
2692.1976404574
 20
1854.4288056452
 30
0.0
 11
13.32549034120211
 21
0.0
 31
0.0
210
0.0
220
0.0
230
1.0
 40
0.999998834
 41
0.0
 42
0.1067874429199215
  0
LINE
  5
4C3
330
1F
100
AcDbEntity
  8
0
  6
CONTINUOUS
 62
     7
100
AcDbLine
 10
2705.523131414
 20
1854.4288199503
 30
0.0
 11
2705.523131414
 21
1259.4287913401
 31
0.0
  0
LINE
  5
4C4
330
1F
100
AcDbEntity
  8
0
  6
CONTINUOUS
 62
     7
100
AcDbLine
 10
2273.2975464301
 20
1223.6529212553
 30
0.0
 11
2273.2721846538
 21
1216.1050956804
 31
0.0
  0
LINE
  5
4C5
330
1F
100
AcDbEntity
  8
0
  6
CONTINUOUS
 62
     7
100
AcDbLine
 10
2238.9887552696
 20
1258.008502062
 30
0.0
 11
2231.394274159
 21
1257.9829912741
 31
0.0
  0
LINE
  5
4C6
330
1F
100
AcDbEntity
  8
0
  6
CONTINUOUS
 62
     7
100
AcDbLine
 10
2238.9887552696
 20
1855.8491092283
 30
0.0
 11
2231.394274159
 21
1855.8746200163
 31
0.0
  0
LINE
  5
4C7
330
1F
100
AcDbEntity
  8
0
  6
CONTINUOUS
 62
     7
100
AcDbLine
 10
2273.2975464301
 20
1890.2046900351
 30
0.0
 11
2273.2721846538
 21
1897.7525156099
 31
0.0
  0
LINE
  5
4C8
330
1F
100
AcDbEntity
  8
0
  6
CONTINUOUS
 62
     7
100
AcDbLine
 10
2705.4472248988
 20
1258.008502062
 30
0.0
 11
2713.0417060094
 21
1257.9829912741
 31
0.0
  0
LINE
  5
4C9
330
1F
100
AcDbEntity
  8
0
  6
CONTINUOUS
 62
     7
100
AcDbLine
 10
2671.1384337383
 20
1223.6529212553
 30
0.0
 11
2671.1637955146
 21
1216.1050956804
 31
0.0
  0
LINE
  5
4CA
330
1F
100
AcDbEntity
  8
0
  6
CONTINUOUS
 62
     7
100
AcDbLine
 10
2671.1384337383
 20
1890.2046900351
 30
0.0
 11
2671.1637955146
 21
1897.7525156099
 31
0.0
  0
LINE
  5
4CB
330
1F
100
AcDbEntity
  8
0
  6
CONTINUOUS
 62
     7
100
AcDbLine
 10
2705.4472248988
 20
1855.8491092283
 30
0.0
 11
2713.0417060094
 21
1855.8746200163
 31
0.0
  0
LWPOLYLINE
  5
4CC
330
1F
100
AcDbEntity
  8
0
  6
CONTINUOUS
 62
     7
100
AcDbPolyline
 90
        3
 70
   128
 43
0.0
 10
2264.7179942565
 20
1855.7628017027
 10
2264.0412580209
 20
1855.7650666792
 10
2255.266530438
 20
1855.7944815714
  0
LINE
  5
4CD
330
1F
100
AcDbEntity
  8
0
  6
CONTINUOUS
 62
     7
100
AcDbLine
 10
2273.3751367765
 20
1867.0718889792
 30
0.0
 11
2273.35567586
 21
1872.8769045431
 31
0.0
  0
LWPOLYLINE
  5
4CE
330
1F
100
AcDbEntity
  8
0
  6
CONTINUOUS
 62
     7
100
AcDbPolyline
 90
        3
 70
   128
 43
0.0
 10
2264.7179942565
 20
1258.0948095877
 10
2264.0412580209
 20
1258.0925446112
 10
2255.266530438
 20
1258.063129719
  0
LINE
  5
4CF
330
1F
100
AcDbEntity
  8
0
  6
CONTINUOUS
 62
     7
100
AcDbLine
 10
2273.3751367765
 20
1246.7857223112
 30
0.0
 11
2273.35567586
 21
1240.9807067472
 31
0.0
  0
LINE
  5
4D0
330
1F
100
AcDbEntity
  8
0
  6
CONTINUOUS
 62
     7
100
AcDbLine
 10
2671.0608433919
 20
1246.7857223112
 30
0.0
 11
2671.0803043084
 21
1240.9807067472
 31
0.0
  0
LWPOLYLINE
  5
4D1
330
1F
100
AcDbEntity
  8
0
  6
CONTINUOUS
 62
     7
100
AcDbPolyline
 90
        3
 70
   128
 43
0.0
 10
2679.7179859119
 20
1258.0948095877
 10
2680.3947221475
 20
1258.0925446112
 10
2689.1694497304
 20
1258.063129719
  0
LWPOLYLINE
  5
4D2
330
1F
100
AcDbEntity
  8
0
  6
CONTINUOUS
 62
     7
100
AcDbPolyline
 90
        3
 70
   128
 43
0.0
 10
2679.7179859119
 20
1855.7628017027
 10
2680.3947221475
 20
1855.7650666792
 10
2689.1694497304
 20
1855.7944815714
  0
LINE
  5
4D3
330
1F
100
AcDbEntity
  8
0
  6
CONTINUOUS
 62
     7
100
AcDbLine
 10
2671.0608433919
 20
1867.0718889792
 30
0.0
 11
2671.0803043084
 21
1872.8769045431
 31
0.0
  0
LINE
  5
4D4
330
1F
100
AcDbEntity
  8
0
  6
CONTINUOUS
 62
     7
100
AcDbLine
 10
2273.3461689191
 20
1875.7148306925
 30
0.0
 11
2273.3435165124
 21
1876.5073638517
 31
0.0
  0
LINE
  5
4D5
330
1F
100
AcDbEntity
  8
0
  6
CONTINUOUS
 62
     7
100
AcDbLine
 10
2273.3461689191
 20
1238.1427805979
 30
0.0
 11
2273.3435165124
 21
1237.3502474386
 31
0.0
  0
LINE
  5
4D6
330
1F
100
AcDbEntity
  8
0
  6
CONTINUOUS
 62
     7
100
AcDbLine
 10
2671.0898112493
 20
1238.1427805979
 30
0.0
 11
2671.092463656
 21
1237.3502474386
 31
0.0
  0
LINE
  5
4D7
330
1F
100
AcDbEntity
  8
0
  6
CONTINUOUS
 62
     7
100
AcDbLine
 10
2671.0898112493
 20
1875.7148306925
 30
0.0
 11
2671.092463656
 21
1876.5073638517
 31
0.0
  0
LWPOLYLINE
  5
4D8
330
1F
100
AcDbEntity
  8
0
  6
CONTINUOUS
 62
     7
100
AcDbPolyline
 90
        3
 70
   128
 43
0.0
 10
2273.4102886157
 20
1856.5657656748
 10
2273.3808886247
 20
1865.3508346636
 10
2273.3803372817
 20
1865.5177574713
  0
LINE
  5
4D9
330
1F
100
AcDbEntity
  8
0
  6
CONTINUOUS
 62
     7
100
AcDbLine
 10
2272.5810240941
 20
1855.7365160543
 30
0.0
 11
2266.2179898458
 21
1855.7577949125
 31
0.0
  0
LWPOLYLINE
  5
4DA
330
1F
100
AcDbEntity
  8
0
  6
CONTINUOUS
 62
     7
100
AcDbPolyline
 90
        3
 70
   128
 43
0.0
 10
2671.0256915527
 20
1257.2918456156
 10
2671.0550915437
 20
1248.5067766268
 10
2671.0556428867
 20
1248.3398538191
  0
LINE
  5
4DB
330
1F
100
AcDbEntity
  8
0
  6
CONTINUOUS
 62
     7
100
AcDbLine
 10
2671.8549560743
 20
1258.121095236
 30
0.0
 11
2678.2179903226
 21
1258.0998163778
 31
0.0
  0
LINE
  5
4DC
330
1F
100
AcDbEntity
  8
0
  6
CONTINUOUS
 62
     7
100
AcDbLine
 10
2272.5810240941
 20
1258.121095236
 30
0.0
 11
2266.2179898458
 21
1258.0998163778
 31
0.0
  0
LWPOLYLINE
  5
4DD
330
1F
100
AcDbEntity
  8
0
  6
CONTINUOUS
 62
     7
100
AcDbPolyline
 90
        3
 70
   128
 43
0.0
 10
2273.4102886157
 20
1257.2918456156
 10
2273.3808886247
 20
1248.5067766268
 10
2273.3803372817
 20
1248.3398538191
  0
LINE
  5
4DE
330
1F
100
AcDbEntity
  8
0
  6
CONTINUOUS
 62
     7
100
AcDbLine
 10
2671.8549560743
 20
1855.7365160543
 30
0.0
 11
2678.2179903226
 21
1855.7577949125
 31
0.0
  0
LINE
  5
4DF
330
1F
100
AcDbEntity
  8
0
  6
CONTINUOUS
 62
     7
100
AcDbLine
 10
2671.0256915527
 20
1856.5657656748
 30
0.0
 11
2671.0556428867
 21
1865.5177574713
 31
0.0
  0
LINE
  5
4E0
330
1F
100
AcDbEntity
  8
0
  6
CONTINUOUS
 62
     7
100
AcDbLine
 10
2281.8583827453
 20
1855.7323437292
 30
0.0
 11
2662.5775974231
 21
1855.7323437292
 31
0.0
  0
LINE
  5
4E1
330
1F
100
AcDbEntity
  8
0
  6
CONTINUOUS
 62
     7
100
AcDbLine
 10
2281.8583827453
 20
1258.1252675612
 30
0.0
 11
2662.5775974231
 21
1258.1252675612
 31
0.0
  0
LINE
  5
4E2
330
1F
100
AcDbEntity
  8
0
  6
CONTINUOUS
 62
     7
100
AcDbLine
 10
2273.4144609409
 20
1712.0234292109
 30
0.0
 11
2273.4144609409
 21
1847.2884219248
 31
0.0
  0
LINE
  5
4E3
330
1F
100
AcDbEntity
  8
0
  6
CONTINUOUS
 62
     7
100
AcDbLine
 10
2273.4144609409
 20
1266.5691893656
 30
0.0
 11
2273.4144609409
 21
1401.8341820795
 31
0.0
  0
LINE
  5
4E4
330
1F
100
AcDbEntity
  8
0
  6
CONTINUOUS
 62
     7
100
AcDbLine
 10
2671.0215192275
 20
1712.0234292109
 30
0.0
 11
2671.0215192275
 21
1847.2884219248
 31
0.0
  0
LINE
  5
4E5
330
1F
100
AcDbEntity
  8
0
  6
CONTINUOUS
 62
     7
100
AcDbLine
 10
2671.0215192275
 20
1266.5691893656
 30
0.0
 11
2671.0215192275
 21
1401.8341820795
 31
0.0
  0
LINE
  5
4E6
330
1F
100
AcDbEntity
  8
0
  6
CONTINUOUS
 62
     7
100
AcDbLine
 10
2273.4144609409
 20
1562.0234283727
 30
0.0
 11
2273.4144609409
 21
1701.8341790993
 31
0.0
  0
LINE
  5
4E7
330
1F
100
AcDbEntity
  8
0
  6
CONTINUOUS
 62
     7
100
AcDbLine
 10
2273.4144609409
 20
1412.0234321911
 30
0.0
 11
2273.4144609409
 21
1551.8341829177
 31
0.0
  0
LINE
  5
4E8
330
1F
100
AcDbEntity
  8
0
  6
CONTINUOUS
 62
     7
100
AcDbLine
 10
2671.0215192275
 20
1412.0234321911
 30
0.0
 11
2671.0215192275
 21
1551.8341829177
 31
0.0
  0
LINE
  5
4E9
330
1F
100
AcDbEntity
  8
0
  6
CONTINUOUS
 62
     7
100
AcDbLine
 10
2671.0215192275
 20
1562.0234283727
 30
0.0
 11
2671.0215192275
 21
1701.8341790993
 31
0.0
  0
ENDSEC
  0
SECTION
  2
OBJECTS
  0
DICTIONARY
  5
C
330
0
100
AcDbDictionary
  3
ACAD_GROUP
350
D
  3
ACAD_MLINESTYLE
350
17
  0
DICTIONARY
  5
D
102
{ACAD_REACTORS
330
C
102
}
330
C
100
AcDbDictionary
  0
DICTIONARY
  5
17
102
{ACAD_REACTORS
330
C
102
}
330
C
100
AcDbDictionary
  3
STANDARD
350
18
  0
MLINESTYLE
  5
18
102
{ACAD_REACTORS
330
17
102
}
330
17
100
AcDbMlineStyle
  2
Standard
 70
     0
  3

 62
   256
 51
90.0
 52
90.0
 71
     2
 49
0.5
 62
   256
  6
BYLAYER
 49
-0.5
 62
   256
  6
BYLAYER
  0
ENDSEC
  0
EOF
