  0
SECTION
  2
HEADER
  9
$ACADVER
  1
AC1015
  9
$ACADMAINTVER
 70
     6
  9
$DWGCODEPAGE
  3
ANSI_1252
  9
$INSBASE
 10
0.0
 20
0.0
 30
0.0
  9
$EXTMIN
 10
0.0
 20
0.0
 30
0.0
  9
$EXTMAX
 10
2100.0
 20
1485.0
 30
0.0
  9
$LIMMIN
 10
0.0
 20
0.0
  9
$LIMMAX
 10
2100.0
 20
1485.0
  9
$ORTHOMODE
 70
     0
  9
$REGENMODE
 70
     1
  9
$FILLMODE
 70
     1
  9
$QTEXTMODE
 70
     0
  9
$MIRRTEXT
 70
     1
  9
$LTSCALE
 40
5.0
  9
$ATTMODE
 70
     1
  9
$TEXTSIZE
 40
17.5
  9
$TRACEWID
 40
1.0
  9
$TEXTSTYLE
  7
Standard
  9
$CLAYER
  8
0
  9
$CELTYPE
  6
ByLayer
  9
$CECOLOR
 62
   256
  9
$CELTSCALE
 40
1.0
  9
$DISPSILH
 70
     0
  9
$DIMSCALE
 40
1.0
  9
$DIMASZ
 40
30.0
  9
$DIMEXO
 40
5.0
  9
$DIMDLI
 40
3.75
  9
$DIMRND
 40
0.0
  9
$DIMDLE
 40
0.0
  9
$DIMEXE
 40
5.0
  9
$DIMTP
 40
0.0
  9
$DIMTM
 40
0.0
  9
$DIMTXT
 40
17.5
  9
$DIMCEN
 40
2.5
  9
$DIMTSZ
 40
0.0
  9
$DIMTOL
 70
     0
  9
$DIMLIM
 70
     0
  9
$DIMTIH
 70
     1
  9
$DIMTOH
 70
     1
  9
$DIMSE1
 70
     0
  9
$DIMSE2
 70
     0
  9
$DIMTAD
 70
     1
  9
$DIMZIN
 70
     0
  9
$DIMBLK
  1

  9
$DIMASO
 70
     1
  9
$DIMSHO
 70
     1
  9
$DIMPOST
  1

  9
$DIMAPOST
  1

  9
$DIMALT
 70
     0
  9
$DIMALTD
 70
     3
  9
$DIMALTF
 40
0.0393700787
  9
$DIMLFAC
 40
1.0
  9
$DIMTOFL
 70
     1
  9
$DIMTVP
 40
0.0
  9
$DIMTIX
 70
     0
  9
$DIMSOXD
 70
     0
  9
$DIMSAH
 70
     0
  9
$DIMBLK1
  1

  9
$DIMBLK2
  1

  9
$DIMSTYLE
  2
ISO-25
  9
$DIMCLRD
 70
     0
  9
$DIMCLRE
 70
     0
  9
$DIMCLRT
 70
     0
  9
$DIMTFAC
 40
1.0
  9
$DIMGAP
 40
7.62
  9
$DIMJUST
 70
     0
  9
$DIMSD1
 70
     0
  9
$DIMSD2
 70
     0
  9
$DIMTOLJ
 70
     0
  9
$DIMTZIN
 70
     0
  9
$DIMALTZ
 70
     0
  9
$DIMALTTZ
 70
     0
  9
$DIMUPT
 70
     0
  9
$DIMDEC
 70
     2
  9
$DIMTDEC
 70
     2
  9
$DIMALTU
 70
     2
  9
$DIMALTTD
 70
     3
  9
$DIMTXSTY
  7
Standard
  9
$DIMAUNIT
 70
     0
  9
$DIMADEC
 70
     2
  9
$DIMALTRND
 40
0.0
  9
$DIMAZIN
 70
     0
  9
$DIMDSEP
 70
    44
  9
$DIMATFIT
 70
     3
  9
$DIMFRAC
 70
     0
  9
$DIMLDRBLK
  1

  9
$DIMLUNIT
 70
     2
  9
$DIMLWD
 70
    -2
  9
$DIMLWE
 70
    -2
  9
$DIMTMOVE
 70
     0
  9
$LUNITS
 70
     2
  9
$LUPREC
 70
     2
  9
$SKETCHINC
 40
1.0
  9
$FILLETRAD
 40
10.0
  9
$AUNITS
 70
     0
  9
$AUPREC
 70
     2
  9
$MENU
  1
.
  9
$ELEVATION
 40
0.0
  9
$PELEVATION
 40
0.0
  9
$THICKNESS
 40
0.0
  9
$LIMCHECK
 70
     0
  9
$CHAMFERA
 40
0.0
  9
$CHAMFERB
 40
0.0
  9
$CHAMFERC
 40
0.0
  9
$CHAMFERD
 40
0.0
  9
$SKPOLY
 70
     0
  9
$TDCREATE
 40
2457539.402170405
  9
$TDUCREATE
 40
2457539.277170405
  9
$TDUPDATE
 40
2457539.402171204
  9
$TDUUPDATE
 40
2457539.277171204
  9
$TDINDWG
 40
0.0000000116
  9
$TDUSRTIMER
 40
0.0000000116
  9
$USRTIMER
 70
     1
  9
$ANGBASE
 50
0.0
  9
$ANGDIR
 70
     0
  9
$PDMODE
 70
     0
  9
$PDSIZE
 40
-1.0
  9
$PLINEWID
 40
0.0
  9
$SPLFRAME
 70
     0
  9
$SPLINETYPE
 70
     6
  9
$SPLINESEGS
 70
     8
  9
$HANDSEED
  5
54F
  9
$SURFTAB1
 70
     6
  9
$SURFTAB2
 70
     6
  9
$SURFTYPE
 70
     6
  9
$SURFU
 70
     6
  9
$SURFV
 70
     6
  9
$UCSBASE
  2

  9
$UCSNAME
  2

  9
$UCSORG
 10
0.0
 20
0.0
 30
0.0
  9
$UCSXDIR
 10
1.0
 20
0.0
 30
0.0
  9
$UCSYDIR
 10
0.0
 20
1.0
 30
0.0
  9
$UCSORTHOREF
  2

  9
$UCSORTHOVIEW
 70
     0
  9
$UCSORGTOP
 10
0.0
 20
0.0
 30
0.0
  9
$UCSORGBOTTOM
 10
0.0
 20
0.0
 30
0.0
  9
$UCSORGLEFT
 10
0.0
 20
0.0
 30
0.0
  9
$UCSORGRIGHT
 10
0.0
 20
0.0
 30
0.0
  9
$UCSORGFRONT
 10
0.0
 20
0.0
 30
0.0
  9
$UCSORGBACK
 10
0.0
 20
0.0
 30
0.0
  9
$PUCSBASE
  2

  9
$PUCSNAME
  2

  9
$PUCSORG
 10
0.0
 20
0.0
 30
0.0
  9
$PUCSXDIR
 10
1.0
 20
0.0
 30
0.0
  9
$PUCSYDIR
 10
0.0
 20
1.0
 30
0.0
  9
$PUCSORTHOREF
  2

  9
$PUCSORTHOVIEW
 70
     0
  9
$PUCSORGTOP
 10
0.0
 20
0.0
 30
0.0
  9
$PUCSORGBOTTOM
 10
0.0
 20
0.0
 30
0.0
  9
$PUCSORGLEFT
 10
0.0
 20
0.0
 30
0.0
  9
$PUCSORGRIGHT
 10
0.0
 20
0.0
 30
0.0
  9
$PUCSORGFRONT
 10
0.0
 20
0.0
 30
0.0
  9
$PUCSORGBACK
 10
0.0
 20
0.0
 30
0.0
  9
$USERI1
 70
     0
  9
$USERI2
 70
     0
  9
$USERI3
 70
     0
  9
$USERI4
 70
     0
  9
$USERI5
 70
     0
  9
$USERR1
 40
0.0
  9
$USERR2
 40
0.0
  9
$USERR3
 40
0.0
  9
$USERR4
 40
0.0
  9
$USERR5
 40
0.0
  9
$WORLDVIEW
 70
     1
  9
$SHADEDGE
 70
     3
  9
$SHADEDIF
 70
    70
  9
$TILEMODE
 70
     1
  9
$MAXACTVP
 70
    64
  9
$PINSBASE
 10
0.0
 20
0.0
 30
0.0
  9
$PLIMCHECK
 70
     0
  9
$PEXTMIN
 10
1.0000000000E+20
 20
1.0000000000E+20
 30
1.0000000000E+20
  9
$PEXTMAX
 10
-1.0000000000E+20
 20
-1.0000000000E+20
 30
-1.0000000000E+20
  9
$PLIMMIN
 10
0.0
 20
0.0
  9
$PLIMMAX
 10
420.0
 20
297.0
  9
$UNITMODE
 70
     0
  9
$VISRETAIN
 70
     1
  9
$PLINEGEN
 70
     0
  9
$PSLTSCALE
 70
     1
  9
$TREEDEPTH
 70
  3020
  9
$CMLSTYLE
  2
Standard
  9
$CMLJUST
 70
     0
  9
$CMLSCALE
 40
20.0
  9
$PROXYGRAPHICS
 70
     1
  9
$MEASUREMENT
 70
     1
  9
$CELWEIGHT
370
    -1
  9
$ENDCAPS
280
     0
  9
$JOINSTYLE
280
     0
  9
$LWDISPLAY
290
     1
  9
$INSUNITS
 70
     4
  9
$HYPERLINKBASE
  1

  9
$STYLESHEET
  1

  9
$XEDIT
290
     1
  9
$CEPSNTYPE
380
     0
  9
$PSTYLEMODE
290
     1
  9
$FINGERPRINTGUID
  2
{E7B45BF9-946C-4FBD-9BE2-8F8705D37ED5}
  9
$VERSIONGUID
  2
{FAEB1C32-E019-11D5-929B-00C0DF256EC4}
  9
$EXTNAMES
290
     1
  9
$PSVPSCALE
 40
0.0
  9
$OLESTARTUP
290
     0
  0
ENDSEC
  0
SECTION
  2
CLASSES
  0
CLASS
  1
ACDBDICTIONARYWDFLT
  2
AcDbDictionaryWithDefault
  3
ObjectDBX Classes
 90
        0
280
     0
281
     0
  0
CLASS
  1
VISUALSTYLE
  2
AcDbVisualStyle
  3
ObjectDBX Classes
 90
     4095
280
     0
281
     0
  0
CLASS
  1
MATERIAL
  2
AcDbMaterial
  3
ObjectDBX Classes
 90
     1153
280
     0
281
     0
  0
CLASS
  1
SCALE
  2
AcDbScale
  3
ObjectDBX Classes
 90
     1153
280
     0
281
     0
  0
CLASS
  1
TABLESTYLE
  2
AcDbTableStyle
  3
ObjectDBX Classes
 90
     4095
280
     0
281
     0
  0
CLASS
  1
MLEADERSTYLE
  2
AcDbMLeaderStyle
  3
ACDB_MLEADERSTYLE_CLASS
 90
     4095
280
     0
281
     0
  0
CLASS
  1
SUN
  2
AcDbSun
  3
SCENEOE
 90
     1153
280
     0
281
     0
  0
CLASS
  1
ACDBPLACEHOLDER
  2
AcDbPlaceHolder
  3
ObjectDBX Classes
 90
        0
280
     0
281
     0
  0
CLASS
  1
LAYOUT
  2
AcDbLayout
  3
ObjectDBX Classes
 90
        0
280
     0
281
     0
  0
ENDSEC
  0
SECTION
  2
TABLES
  0
TABLE
  2
VPORT
  5
8
330
0
100
AcDbSymbolTable
 70
     1
  0
VPORT
  5
29
330
8
100
AcDbSymbolTableRecord
100
AcDbViewportTableRecord
  2
*Active
 70
     0
 10
0.0
 20
0.0
 11
1.0
 21
1.0
 12
1050.0
 22
742.5
 13
0.0
 23
0.0
 14
10.0
 24
10.0
 15
10.0
 25
10.0
 16
0.0
 26
0.0
 36
1.0
 17
0.0
 27
0.0
 37
0.0
 40
1485.0
 41
1.4141414141
 42
50.0
 43
0.0
 44
0.0
 50
0.0
 51
0.0
 71
     0
 72
  2000
 73
     1
 74
     3
 75
     0
 76
     0
 77
     0
 78
     0
281
     0
 65
     1
110
0.0
120
0.0
130
0.0
111
1.0
121
0.0
131
0.0
112
0.0
122
1.0
132
0.0
 79
     0
146
0.0
  0
ENDTAB
  0
TABLE
  2
LTYPE
  5
5
330
0
100
AcDbSymbolTable
 70
     6
  0
LTYPE
  5
14
330
5
100
AcDbSymbolTableRecord
100
AcDbLinetypeTableRecord
  2
ByBlock
 70
     0
  3

 72
    65
 73
     0
 40
0.0
  0
LTYPE
  5
15
330
5
100
AcDbSymbolTableRecord
100
AcDbLinetypeTableRecord
  2
ByLayer
 70
     0
  3

 72
    65
 73
     0
 40
0.0
  0
LTYPE
  5
16
330
5
100
AcDbSymbolTableRecord
100
AcDbLinetypeTableRecord
  2
Continuous
 70
     0
  3
Solid line
 72
    65
 73
     0
 40
0.0
  0
LTYPE
  5
6E
330
5
100
AcDbSymbolTableRecord
100
AcDbLinetypeTableRecord
  2
HIDDEN
 70
     0
  3
Hidden __ __ __ __ __ __ __ __ __ __ __ __ __ __
 72
    65
 73
     2
 40
1.905
 49
1.27
 74
     0
 49
-0.635
 74
     0
  0
LTYPE
  5
6F
330
5
100
AcDbSymbolTableRecord
100
AcDbLinetypeTableRecord
  2
PHANTOM
 70
     0
  3
Phantom ______  __  __  ______  __  __  ______
 72
    65
 73
     6
 40
12.7
 49
6.35
 74
     0
 49
-1.27
 74
     0
 49
1.27
 74
     0
 49
-1.27
 74
     0
 49
1.27
 74
     0
 49
-1.27
 74
     0
  0
LTYPE
  5
70
330
5
100
AcDbSymbolTableRecord
100
AcDbLinetypeTableRecord
  2
CENTER
 70
     0
  3
Center ____ _ ____ _ ____ _ ____ _ ____ _ ____
 72
    65
 73
     4
 40
10.16
 49
6.35
 74
     0
 49
-1.27
 74
     0
 49
1.27
 74
     0
 49
-1.27
 74
     0
  0
LTYPE
  5
71
330
5
100
AcDbSymbolTableRecord
100
AcDbLinetypeTableRecord
  2
CENTERX2
 70
     0
  3
Center (2x) ________  __  ________  __  _____
 72
    65
 73
     4
 40
20.32
 49
12.7
 74
     0
 49
-2.54
 74
     0
 49
2.54
 74
     0
 49
-2.54
 74
     0
  0
LTYPE
  5
72
330
5
100
AcDbSymbolTableRecord
100
AcDbLinetypeTableRecord
  2
DOT2
 70
     0
  3
Dot (.5x) ........................................
 72
    65
 73
     2
 40
0.635
 49
0.0
 74
     0
 49
-0.635
 74
     0
  0
ENDTAB
  0
TABLE
  2
LAYER
  5
2
330
0
100
AcDbSymbolTable
 70
     1
  0
LAYER
  5
10
330
2
100
AcDbSymbolTableRecord
100
AcDbLayerTableRecord
  2
0
 70
     0
 62
     7
  6
Continuous
370
    -3
390
F
  0
ENDTAB
  0
TABLE
  2
STYLE
  5
3
330
0
100
AcDbSymbolTable
 70
     1
  0
STYLE
  5
11
330
3
100
AcDbSymbolTableRecord
100
AcDbTextStyleTableRecord
  2
Standard
 70
     0
 40
0.0
 41
1.0
 50
0.0
 71
     0
 42
17.5
  3
txt
  4

  0
ENDTAB
  0
TABLE
  2
VIEW
  5
6
330
0
100
AcDbSymbolTable
 70
     0
  0
ENDTAB
  0
TABLE
  2
UCS
  5
7
330
0
100
AcDbSymbolTable
 70
     0
  0
ENDTAB
  0
TABLE
  2
APPID
  5
9
330
0
100
AcDbSymbolTable
 70
     1
  0
APPID
  5
12
330
9
100
AcDbSymbolTableRecord
100
AcDbRegAppTableRecord
  2
ACAD
 70
     0
  0
ENDTAB
  0
TABLE
  2
DIMSTYLE
  5
A
330
0
100
AcDbSymbolTable
 70
     1
100
AcDbDimStyleTable
  0
DIMSTYLE
105
27
330
A
100
AcDbSymbolTableRecord
100
AcDbDimStyleTableRecord
  2
ISO-25
 70
     0
 41
2.5
 42
0.625
 43
3.75
 44
1.25
 73
     0
 74
     0
 77
     1
 78
     8
140
2.5
141
2.5
143
0.0393700787
147
0.625
171
     3
172
     1
178
     0
271
     2
272
     2
274
     3
278
    44
283
     0
284
     8
340
11
  0
ENDTAB
  0
TABLE
  2
BLOCK_RECORD
  5
1
330
0
100
AcDbSymbolTable
 70
     1
  0
BLOCK_RECORD
  5
1F
330
1
100
AcDbSymbolTableRecord
100
AcDbBlockTableRecord
  2
*Model_Space
340
22
  0
BLOCK_RECORD
  5
1B
330
1
100
AcDbSymbolTableRecord
100
AcDbBlockTableRecord
  2
*Paper_Space
340
1E
  0
BLOCK_RECORD
  5
23
330
1
100
AcDbSymbolTableRecord
100
AcDbBlockTableRecord
  2
*Paper_Space0
340
26
  0
ENDTAB
  0
ENDSEC
  0
SECTION
  2
BLOCKS
  0
BLOCK
  5
20
330
1F
100
AcDbEntity
  8
0
100
AcDbBlockBegin
  2
*Model_Space
 70
     0
 10
0.0
 20
0.0
 30
0.0
  3
*Model_Space
  1

  0
ENDBLK
  5
21
330
1F
100
AcDbEntity
  8
0
100
AcDbBlockEnd
  0
BLOCK
  5
1C
330
1B
100
AcDbEntity
 67
     1
  8
0
100
AcDbBlockBegin
  2
*Paper_Space
 70
     0
 10
0.0
 20
0.0
 30
0.0
  3
*Paper_Space
  1

  0
ENDBLK
  5
1D
330
1B
100
AcDbEntity
 67
     1
  8
0
100
AcDbBlockEnd
  0
BLOCK
  5
24
330
23
100
AcDbEntity
  8
0
100
AcDbBlockBegin
  2
*Paper_Space0
 70
     0
 10
0.0
 20
0.0
 30
0.0
  3
*Paper_Space0
  1

  0
ENDBLK
  5
25
330
23
100
AcDbEntity
  8
0
100
AcDbBlockEnd
  0
ENDSEC
  0
SECTION
  2
ENTITIES
  0
LINE
  5
73
330
1F
100
AcDbEntity
  8
0
  6
Continuous
 62
     7
370
    15
100
AcDbLine
 10
923.2313002416
 20
598.575179829
 30
0.0
 11
924.9439503022
 21
597.8657653469
 31
0.0
  0
ELLIPSE
  5
74
330
1F
100
AcDbEntity
  8
0
  6
Continuous
 62
     7
370
    15
100
AcDbEllipse
 10
916.9436420344
 20
597.8660234925
 30
0.0
 11
-7.391365984995105
 21
3.061604035448113
 31
0.0
210
0.0
220
0.0
230
1.0
 40
0.9999553905
 41
2.748909343822783
 42
3.534275963356814
  0
LINE
  5
75
330
1F
100
AcDbEntity
  8
0
  6
Continuous
 62
     7
370
    15
100
AcDbLine
 10
922.6008917161
 20
592.2091355461
 30
0.0
 11
920.8882416554
 21
592.9185351271
 31
0.0
  0
ELLIPSE
  5
76
330
1F
100
AcDbEntity
  8
0
  6
Continuous
 62
     7
370
    15
100
AcDbEllipse
 10
915.2309942305
 20
598.5754254405
 30
0.0
 11
-7.391365984995105
 21
3.061604035448113
 31
0.0
210
0.0
220
0.0
230
1.0
 40
0.9999553905
 41
2.748909343822781
 42
3.534275963356802
  0
LINE
  5
77
330
1F
100
AcDbEntity
  8
0
  6
Continuous
 62
     7
370
    15
100
AcDbLine
 10
906.3384274908
 20
578.368728413
 30
0.0
 11
907.0724214383
 21
576.6806652683
 31
0.0
  0
ELLIPSE
  5
78
330
1F
100
AcDbEntity
  8
0
  6
Continuous
 62
     7
370
    15
100
AcDbEllipse
 10
901.4155201268
 20
582.337901585
 30
0.0
 11
-3.190132868666865
 21
7.336803302697149
 31
0.0
210
0.0
220
0.0
230
1.0
 40
0.9999560152
 41
2.766361863270617
 42
3.516823443909006
  0
LINE
  5
79
330
1F
100
AcDbEntity
  8
0
  6
Continuous
 62
     7
370
    15
100
AcDbLine
 10
901.6949648925
 20
574.3424793619
 30
0.0
 11
900.9609783956
 21
576.0305425066
 31
0.0
  0
ELLIPSE
  5
7A
330
1F
100
AcDbEntity
  8
0
  6
Continuous
 62
     7
370
    15
100
AcDbEllipse
 10
900.6815306358
 20
584.0259618458
 30
0.0
 11
-3.190132868666751
 21
7.336803302697035
 31
0.0
210
0.0
220
0.0
230
1.0
 40
0.9999560152
 41
2.766361863270625
 42
3.516823443909004
  0
LINE
  5
7B
330
1F
100
AcDbEntity
  8
0
  6
Continuous
 62
     7
370
    15
100
AcDbLine
 10
687.5778402158
 20
576.0305425066
 30
0.0
 11
686.8438537189
 21
574.3424793619
 31
0.0
  0
ELLIPSE
  5
7C
330
1F
100
AcDbEntity
  8
0
  6
Continuous
 62
     7
370
    15
100
AcDbEllipse
 10
687.1232984845
 20
582.337901585
 30
0.0
 11
3.190132868666865
 21
7.336803302697149
 31
0.0
210
0.0
220
0.0
230
1.0
 40
0.9999560152
 41
2.766361863270602
 42
3.516823443908999
  0
LINE
  5
7D
330
1F
100
AcDbEntity
  8
0
  6
Continuous
 62
     7
370
    15
100
AcDbLine
 10
681.466397173
 20
576.6806652683
 30
0.0
 11
682.2003911205
 21
578.368728413
 31
0.0
  0
ELLIPSE
  5
7E
330
1F
100
AcDbEntity
  8
0
  6
Continuous
 62
     7
370
    15
100
AcDbEllipse
 10
687.8572879756
 20
584.0259618458
 30
0.0
 11
3.190132868666865
 21
7.336803302697149
 31
0.0
210
0.0
220
0.0
230
1.0
 40
0.9999560152
 41
2.766361863270592
 42
3.516823443908985
  0
LINE
  5
7F
330
1F
100
AcDbEntity
  8
0
  6
Continuous
 62
     7
370
    15
100
AcDbLine
 10
667.6505769559
 20
592.9185351271
 30
0.0
 11
665.9379268952
 21
592.2091355461
 31
0.0
  0
ELLIPSE
  5
80
330
1F
100
AcDbEntity
  8
0
  6
Continuous
 62
     7
370
    15
100
AcDbEllipse
 10
671.5951765769
 20
597.8660234925
 30
0.0
 11
7.391365984995105
 21
3.061604035448113
 31
0.0
210
0.0
220
0.0
230
1.0
 40
0.9999553905
 41
2.748909343822798
 42
3.534275963356819
  0
LINE
  5
81
330
1F
100
AcDbEntity
  8
0
  6
Continuous
 62
     7
370
    15
100
AcDbLine
 10
663.5948683091
 20
597.8657653469
 30
0.0
 11
665.3075183698
 21
598.575179829
 31
0.0
  0
ELLIPSE
  5
82
330
1F
100
AcDbEntity
  8
0
  6
Continuous
 62
     7
370
    15
100
AcDbEllipse
 10
673.3078243809
 20
598.5754254405
 30
0.0
 11
7.391365984995218
 21
3.061604035448113
 31
0.0
210
0.0
220
0.0
230
1.0
 40
0.9999553905
 41
2.748909343822783
 42
3.534275963356841
  0
LINE
  5
83
330
1F
100
AcDbEntity
  8
0
  6
Continuous
 62
     7
370
    15
100
AcDbLine
 10
908.3378652998
 20
575.5126079458
 30
0.0
 11
908.4119166204
 21
575.4385640759
 31
0.0
  0
LINE
  5
84
330
1F
100
AcDbEntity
  8
0
  6
Continuous
 62
     7
370
    15
100
AcDbLine
 10
908.3378652998
 20
575.5126079458
 30
0.0
 11
923.7664307424
 21
590.941180839
 31
0.0
  0
LINE
  5
85
330
1F
100
AcDbEntity
  8
0
  6
Continuous
 62
     7
370
    15
100
AcDbLine
 10
923.8404746123
 20
590.8671220679
 30
0.0
 11
923.7664307424
 21
590.941180839
 31
0.0
  0
LINE
  5
86
330
1F
100
AcDbEntity
  8
0
  6
Continuous
 62
     7
370
    15
100
AcDbLine
 10
908.4119166204
 20
575.4385640759
 30
0.0
 11
923.8404746123
 21
590.8671220679
 31
0.0
  0
ARC
  5
87
330
1F
100
AcDbEntity
  8
0
  6
Continuous
 62
     7
370
    15
100
AcDbCircle
 10
916.7694093057
 20
912.3107760538
 30
0.0
 40
9.895279287885991
100
AcDbArc
 50
0.0
 51
45.0
  0
LINE
  5
88
330
1F
100
AcDbEntity
  8
0
  6
Continuous
 62
     7
370
    15
100
AcDbLine
 10
923.7664307424
 20
919.3077882666
 30
0.0
 11
923.8404746123
 21
919.3818470377
 31
0.0
  0
LINE
  5
89
330
1F
100
AcDbEntity
  8
0
  6
Continuous
 62
     7
370
    15
100
AcDbLine
 10
923.8405886392
 20
919.3817323396
 30
0.0
 11
923.8404771175
 21
919.3818438657
 31
0.0
  0
SPLINE
  5
8A
330
1F
100
AcDbEntity
  8
0
  6
Continuous
 62
     7
370
    15
100
AcDbSpline
210
0.0
220
0.0
230
1.0
 70
     8
 71
     3
 72
    18
 73
    14
 74
     0
 42
0.000000001
 43
0.00000001
 40
0.0
 40
0.0
 40
0.0
 40
0.0
 40
0.2499999999999884
 40
0.2499999999999884
 40
0.37499999999999
 40
0.37499999999999
 40
0.4999999999999916
 40
0.4999999999999916
 40
0.7499999999999947
 40
0.7499999999999947
 40
0.8749999999999973
 40
0.8749999999999973
 40
1.0
 40
1.0
 40
1.0
 40
1.0
 10
923.8405886391909
 20
919.3817323396121
 30
0.0
 10
924.307642383628
 20
918.9146417631018
 30
0.0
 10
924.721074171424
 20
918.4095345240428
 30
0.0
 10
925.2640733123409
 20
917.5971789127844
 30
0.0
 10
925.4321194320107
 20
917.3172101830968
 30
0.0
 10
925.7417134549435
 20
916.7384867585753
 30
0.0
 10
925.8834859880595
 20
916.4387461779162
 30
0.0
 10
926.2595238757933
 20
915.5304630443707
 30
0.0
 10
926.4484865701412
 20
914.9072355529526
 30
0.0
 10
926.6401713662939
 20
913.9460757498402
 30
0.0
 10
926.6887688088221
 20
913.6201459180477
 30
0.0
 10
926.7534713845594
 20
912.9641220090977
 30
0.0
 10
926.7693964436359
 20
912.6370651084239
 30
0.0
 10
926.7694093025625
 20
912.310933772342
 30
0.0
  0
LINE
  5
8B
330
1F
100
AcDbEntity
  8
0
  6
Continuous
 62
     7
370
    15
100
AcDbLine
 10
926.7694093057
 20
912.3107760538
 30
0.0
 11
926.7694093026
 21
912.3109337723
 31
0.0
  0
LINE
  5
8C
330
1F
100
AcDbEntity
  8
0
  6
Continuous
 62
     7
370
    15
100
AcDbLine
 10
926.7694021531
 20
912.3107692141
 30
0.0
 11
926.6646916934
 21
912.3107692141
 31
0.0
  0
LINE
  5
8D
330
1F
100
AcDbEntity
  8
0
  6
Continuous
 62
     7
370
    15
100
AcDbLine
 10
908.4119166204
 20
934.8104050297
 30
0.0
 11
908.3378652998
 21
934.7363611597
 31
0.0
  0
LINE
  5
8E
330
1F
100
AcDbEntity
  8
0
  6
Continuous
 62
     7
370
    15
100
AcDbLine
 10
923.8404746123
 20
919.3818470377
 30
0.0
 11
908.4119166204
 21
934.8104050297
 31
0.0
  0
LINE
  5
8F
330
1F
100
AcDbEntity
  8
0
  6
Continuous
 62
     7
370
    15
100
AcDbLine
 10
923.7664307424
 20
919.3077882666
 30
0.0
 11
908.3378652998
 21
934.7363611597
 31
0.0
  0
LINE
  5
90
330
1F
100
AcDbEntity
  8
0
  6
Continuous
 62
     7
370
    15
100
AcDbLine
 10
665.3075183698
 20
910.2292707104
 30
0.0
 11
663.8828630515
 21
909.3744804997
 31
0.0
  0
LINE
  5
91
330
1F
100
AcDbEntity
  8
0
  6
Continuous
 62
     7
370
    15
100
AcDbLine
 10
663.8828630515
 20
906.8744828839
 30
0.0
 11
663.8828630515
 21
909.3744804997
 31
0.0
  0
LINE
  5
92
330
1F
100
AcDbEntity
  8
0
  6
Continuous
 62
     7
370
    15
100
AcDbLine
 10
663.8828630515
 20
906.8744828839
 30
0.0
 11
665.3075183698
 21
906.0197075743
 31
0.0
  0
LINE
  5
93
330
1F
100
AcDbEntity
  8
0
  6
Continuous
 62
     7
370
    15
100
AcDbLine
 10
665.3075183698
 20
881.0304900545
 30
0.0
 11
665.3075183698
 21
906.0197075743
 31
0.0
  0
LINE
  5
94
330
1F
100
AcDbEntity
  8
0
  6
Continuous
 62
     7
370
    15
100
AcDbLine
 10
665.3075183698
 20
881.0304900545
 30
0.0
 11
663.8784970113
 21
880.9555968184
 31
0.0
  0
LINE
  5
95
330
1F
100
AcDbEntity
  8
0
  6
Continuous
 62
     7
370
    15
100
AcDbLine
 10
663.8784970113
 20
829.1903188366
 30
0.0
 11
663.8784970113
 21
880.9555968184
 31
0.0
  0
LINE
  5
96
330
1F
100
AcDbEntity
  8
0
  6
Continuous
 62
     7
370
    15
100
AcDbLine
 10
663.8784970113
 20
681.058650269
 30
0.0
 11
663.8784970113
 21
829.1903188366
 31
0.0
  0
LINE
  5
97
330
1F
100
AcDbEntity
  8
0
  6
Continuous
 62
     7
370
    15
100
AcDbLine
 10
663.8784970113
 20
629.2933722872
 30
0.0
 11
663.8784970113
 21
681.058650269
 31
0.0
  0
LINE
  5
98
330
1F
100
AcDbEntity
  8
0
  6
Continuous
 62
     7
370
    15
100
AcDbLine
 10
665.3075183698
 20
629.218479051
 30
0.0
 11
663.8784970113
 21
629.2933722872
 31
0.0
  0
LINE
  5
99
330
1F
100
AcDbEntity
  8
0
  6
Continuous
 62
     7
370
    15
100
AcDbLine
 10
665.3075183698
 20
604.2292615313
 30
0.0
 11
665.3075183698
 21
629.218479051
 31
0.0
  0
LINE
  5
9A
330
1F
100
AcDbEntity
  8
0
  6
Continuous
 62
     7
370
    15
100
AcDbLine
 10
663.8828630515
 20
603.3744862217
 30
0.0
 11
665.3075183698
 21
604.2292615313
 31
0.0
  0
LINE
  5
9B
330
1F
100
AcDbEntity
  8
0
  6
Continuous
 62
     7
370
    15
100
AcDbLine
 10
663.8828630515
 20
600.8744886059
 30
0.0
 11
663.8828630515
 21
603.3744862217
 31
0.0
  0
LINE
  5
9C
330
1F
100
AcDbEntity
  8
0
  6
Continuous
 62
     7
370
    15
100
AcDbLine
 10
665.3075183698
 20
600.0196983952
 30
0.0
 11
663.8828630515
 21
600.8744886059
 31
0.0
  0
LINE
  5
9D
330
1F
100
AcDbEntity
  8
0
  6
Continuous
 62
     7
370
    15
100
AcDbLine
 10
665.3075183698
 20
598.575179829
 30
0.0
 11
665.3075183698
 21
600.0196983952
 31
0.0
  0
LINE
  5
9E
330
1F
100
AcDbEntity
  8
0
  6
Continuous
 62
     7
370
    15
100
AcDbLine
 10
663.5948683091
 20
912.3832037586
 30
0.0
 11
663.5948683091
 21
597.8657653469
 31
0.0
  0
LINE
  5
9F
330
1F
100
AcDbEntity
  8
0
  6
Continuous
 62
     7
370
    15
100
AcDbLine
 10
665.3075183698
 20
911.6737892765
 30
0.0
 11
663.5948683091
 21
912.3832037586
 31
0.0
  0
LINE
  5
A0
330
1F
100
AcDbEntity
  8
0
  6
Continuous
 62
     7
370
    15
100
AcDbLine
 10
665.3075183698
 20
910.2292707104
 30
0.0
 11
665.3075183698
 21
911.6737892765
 31
0.0
  0
LINE
  5
A1
330
1F
100
AcDbEntity
  8
0
  6
Continuous
 62
     7
370
    15
100
AcDbLine
 10
663.8653988906
 20
874.5145996947
 30
0.0
 11
663.8043190309
 21
874.4349827904
 31
0.0
  0
LINE
  5
A2
330
1F
100
AcDbEntity
  8
0
  6
Continuous
 62
     7
370
    15
100
AcDbLine
 10
663.8043190309
 20
835.8139818448
 30
0.0
 11
663.8043190309
 21
874.4349827904
 31
0.0
  0
LINE
  5
A3
330
1F
100
AcDbEntity
  8
0
  6
Continuous
 62
     7
370
    15
100
AcDbLine
 10
663.8043190309
 20
835.8139818448
 30
0.0
 11
663.8653988906
 21
835.7343723911
 31
0.0
  0
LINE
  5
A4
330
1F
100
AcDbEntity
  8
0
  6
Continuous
 62
     7
370
    15
100
AcDbLine
 10
663.8653988906
 20
835.7343723911
 30
0.0
 11
663.8653988906
 21
874.5145996947
 31
0.0
  0
LINE
  5
A5
330
1F
100
AcDbEntity
  8
0
  6
Continuous
 62
     7
370
    15
100
AcDbLine
 10
663.7912209102
 20
682.9895203847
 30
0.0
 11
663.7912209102
 21
827.2594487209
 31
0.0
  0
LINE
  5
A6
330
1F
100
AcDbEntity
  8
0
  6
Continuous
 62
     7
370
    15
100
AcDbLine
 10
663.8610477515
 20
683.0587288279
 30
0.0
 11
663.7912209102
 21
682.9895203847
 31
0.0
  0
LINE
  5
A7
330
1F
100
AcDbEntity
  8
0
  6
Continuous
 62
     7
370
    15
100
AcDbLine
 10
663.8610477515
 20
827.1902402777
 30
0.0
 11
663.8610477515
 21
683.0587288279
 31
0.0
  0
LINE
  5
A8
330
1F
100
AcDbEntity
  8
0
  6
Continuous
 62
     7
370
    15
100
AcDbLine
 10
663.8610477515
 20
827.1902402777
 30
0.0
 11
663.7912209102
 21
827.2594487209
 31
0.0
  0
LINE
  5
A9
330
1F
100
AcDbEntity
  8
0
  6
Continuous
 62
     7
370
    15
100
AcDbLine
 10
663.8043190309
 20
674.4349872607
 30
0.0
 11
663.8653988906
 21
674.5145967144
 31
0.0
  0
LINE
  5
AA
330
1F
100
AcDbEntity
  8
0
  6
Continuous
 62
     7
370
    15
100
AcDbLine
 10
663.8043190309
 20
635.8139863152
 30
0.0
 11
663.8043190309
 21
674.4349872607
 31
0.0
  0
LINE
  5
AB
330
1F
100
AcDbEntity
  8
0
  6
Continuous
 62
     7
370
    15
100
AcDbLine
 10
663.8653988906
 20
635.7343694109
 30
0.0
 11
663.8043190309
 21
635.8139863152
 31
0.0
  0
LINE
  5
AC
330
1F
100
AcDbEntity
  8
0
  6
Continuous
 62
     7
370
    15
100
AcDbLine
 10
663.8653988906
 20
635.7343694109
 30
0.0
 11
663.8653988906
 21
674.5145967144
 31
0.0
  0
LINE
  5
AD
330
1F
100
AcDbEntity
  8
0
  6
Continuous
 62
     7
370
    15
100
AcDbLine
 10
751.2630934783
 20
572.3634561438
 30
0.0
 11
751.1896829077
 21
572.2919454712
 31
0.0
  0
LINE
  5
AE
330
1F
100
AcDbEntity
  8
0
  6
Continuous
 62
     7
370
    15
100
AcDbLine
 10
794.2694093057
 20
570.7875689406
 30
0.0
 11
751.1896829077
 21
572.2919454712
 31
0.0
  0
LINE
  5
AF
330
1F
100
AcDbEntity
  8
0
  6
Continuous
 62
     7
370
    15
100
AcDbLine
 10
794.2694093057
 20
570.7875689406
 30
0.0
 11
794.2694093057
 21
570.7657387394
 31
0.0
  0
LINE
  5
B0
330
1F
100
AcDbEntity
  8
0
  6
Continuous
 62
     7
370
    15
100
AcDbLine
 10
794.2694093057
 20
570.7657387394
 30
0.0
 11
697.4690894552
 21
574.1460820574
 31
0.0
  0
LINE
  5
B1
330
1F
100
AcDbEntity
  8
0
  6
Continuous
 62
     7
370
    15
100
AcDbLine
 10
794.2694093057
 20
570.5910971302
 30
0.0
 11
794.2694093057
 21
570.7657387394
 31
0.0
  0
LINE
  5
B2
330
1F
100
AcDbEntity
  8
0
  6
Continuous
 62
     7
370
    15
100
AcDbLine
 10
686.8438537189
 20
574.3424793619
 30
0.0
 11
794.2694093057
 21
570.5910971302
 31
0.0
  0
LINE
  5
B3
330
1F
100
AcDbEntity
  8
0
  6
Continuous
 62
     7
370
    15
100
AcDbLine
 10
689.1646276184
 20
575.9751250881
 30
0.0
 11
687.5778402158
 21
576.0305425066
 31
0.0
  0
LINE
  5
B4
330
1F
100
AcDbEntity
  8
0
  6
Continuous
 62
     7
370
    15
100
AcDbLine
 10
690.0194103786
 20
574.5197435755
 30
0.0
 11
689.1646276184
 21
575.9751250881
 31
0.0
  0
LINE
  5
B5
330
1F
100
AcDbEntity
  8
0
  6
Continuous
 62
     7
370
    15
100
AcDbLine
 10
692.5194079944
 20
574.4324525732
 30
0.0
 11
690.0194103786
 21
574.5197435755
 31
0.0
  0
LINE
  5
B6
330
1F
100
AcDbEntity
  8
0
  6
Continuous
 62
     7
370
    15
100
AcDbLine
 10
693.3741907545
 20
575.828125133
 30
0.0
 11
692.5194079944
 21
574.4324525732
 31
0.0
  0
LINE
  5
B7
330
1F
100
AcDbEntity
  8
0
  6
Continuous
 62
     7
370
    15
100
AcDbLine
 10
697.3882804581
 20
575.6879499096
 30
0.0
 11
693.3741907545
 21
575.828125133
 31
0.0
  0
LINE
  5
B8
330
1F
100
AcDbEntity
  8
0
  6
Continuous
 62
     7
370
    15
100
AcDbLine
 10
697.3882804581
 20
575.6879499096
 30
0.0
 11
697.4633599587
 21
574.2554267782
 31
0.0
  0
LINE
  5
B9
330
1F
100
AcDbEntity
  8
0
  6
Continuous
 62
     7
370
    15
100
AcDbLine
 10
704.7391573854
 20
573.9882340569
 30
0.0
 11
697.4632407495
 21
574.2423435587
 31
0.0
  0
LINE
  5
BA
330
1F
100
AcDbEntity
  8
0
  6
Continuous
 62
     7
370
    15
100
AcDbLine
 10
704.8225815364
 20
573.9242186684
 30
0.0
 11
704.7391573854
 21
573.9882340569
 31
0.0
  0
LINE
  5
BB
330
1F
100
AcDbEntity
  8
0
  6
Continuous
 62
     7
370
    15
100
AcDbLine
 10
740.1789876588
 20
572.6895531553
 30
0.0
 11
704.8225815364
 21
573.9242186684
 31
0.0
  0
LINE
  5
BC
330
1F
100
AcDbEntity
  8
0
  6
Continuous
 62
     7
370
    15
100
AcDbLine
 10
740.255035735
 20
572.7479061026
 30
0.0
 11
740.1789876588
 21
572.6895531553
 31
0.0
  0
LINE
  5
BD
330
1F
100
AcDbEntity
  8
0
  6
Continuous
 62
     7
370
    15
100
AcDbLine
 10
751.2630934783
 20
572.3634561438
 30
0.0
 11
740.255035735
 21
572.7479061026
 31
0.0
  0
LINE
  5
BE
330
1F
100
AcDbEntity
  8
0
  6
Continuous
 62
     7
370
    15
100
AcDbLine
 10
674.7458542653
 20
583.8331630367
 30
0.0
 11
676.337916679
 21
584.2311879534
 31
0.0
  0
LINE
  5
BF
330
1F
100
AcDbEntity
  8
0
  6
Continuous
 62
     7
370
    15
100
AcDbLine
 10
682.2003911205
 20
578.368728413
 30
0.0
 11
676.337916679
 21
584.2311879534
 31
0.0
  0
LINE
  5
C0
330
1F
100
AcDbEntity
  8
0
  6
Continuous
 62
     7
370
    15
100
AcDbLine
 10
665.9379268952
 20
592.2091355461
 30
0.0
 11
681.466397173
 21
576.6806652683
 31
0.0
  0
LINE
  5
C1
330
1F
100
AcDbEntity
  8
0
  6
Continuous
 62
     7
370
    15
100
AcDbLine
 10
673.3761171766
 20
587.1929874558
 30
0.0
 11
667.6505769559
 21
592.9185351271
 31
0.0
  0
LINE
  5
C2
330
1F
100
AcDbEntity
  8
0
  6
Continuous
 62
     7
370
    15
100
AcDbLine
 10
673.3761171766
 20
587.1929874558
 30
0.0
 11
672.9780848094
 21
585.6009324927
 31
0.0
  0
LINE
  5
C3
330
1F
100
AcDbEntity
  8
0
  6
Continuous
 62
     7
370
    15
100
AcDbLine
 10
674.7458542653
 20
583.8331630367
 30
0.0
 11
672.9780848094
 21
585.6009324927
 31
0.0
  0
LINE
  5
C4
330
1F
100
AcDbEntity
  8
0
  6
Continuous
 62
     7
370
    15
100
AcDbLine
 10
680.2009533115
 20
934.7363611597
 30
0.0
 11
680.126901991
 21
934.8104050297
 31
0.0
  0
LINE
  5
C5
330
1F
100
AcDbEntity
  8
0
  6
Continuous
 62
     7
370
    15
100
AcDbLine
 10
680.1270076549
 20
934.8105100227
 30
0.0
 11
680.1269015954
 21
934.8104039673
 31
0.0
  0
SPLINE
  5
C6
330
1F
100
AcDbEntity
  8
0
  6
Continuous
 62
     7
370
    15
100
AcDbSpline
210
0.0
220
0.0
230
1.0
 70
     8
 71
     3
 72
    18
 73
    14
 74
     0
 42
0.000000001
 43
0.00000001
 40
0.0
 40
0.0
 40
0.0
 40
0.0
 40
0.2499999999999968
 40
0.2499999999999968
 40
0.3749999999999984
 40
0.3749999999999984
 40
0.5
 40
0.5
 40
0.7499999999999987
 40
0.7499999999999987
 40
0.8749999999999993
 40
0.8749999999999993
 40
1.0
 40
1.0
 40
1.0
 40
1.0
 10
680.1270076548684
 20
934.8105100227485
 30
0.0
 10
680.5732935516543
 20
935.2567624528556
 30
0.0
 10
681.0543138718565
 20
935.6540222395731
 30
0.0
 10
681.8257866493323
 20
936.1794668658235
 30
0.0
 10
682.0913248326373
 20
936.3427940360133
 30
0.0
 10
682.6394743926346
 20
936.6453660880658
 30
0.0
 10
682.9236094367028
 20
936.7851926281747
 30
0.0
 10
683.7868581783782
 20
937.1604470693719
 30
0.0
 10
684.3786378692977
 20
937.353855192295
 30
0.0
 10
685.2902215435046
 20
937.5605910241741
 30
0.0
 10
685.598094436671
 20
937.6155163256964
 30
0.0
 10
686.2221010781103
 20
937.6965652513348
 30
0.0
 10
686.5365855256953
 20
937.7223238394605
 30
0.0
 10
686.8488245437724
 20
937.7332391882653
 30
0.0
  0
LINE
  5
C7
330
1F
100
AcDbEntity
  8
0
  6
Continuous
 62
     7
370
    15
100
AcDbLine
 10
686.8489744402
 20
937.7332444256
 30
0.0
 11
686.8488245438
 21
937.7332391883
 31
0.0
  0
LINE
  5
C8
330
1F
100
AcDbEntity
  8
0
  6
Continuous
 62
     7
370
    15
100
AcDbLine
 10
686.8489722677
 20
937.7332379955
 30
0.0
 11
686.8526305028
 21
937.6285871405
 31
0.0
  0
ARC
  5
C9
330
1F
100
AcDbEntity
  8
0
  6
Continuous
 62
     7
370
    15
100
AcDbCircle
 10
687.1979694073
 20
927.7393361554
 30
0.0
 40
9.895279287885991
100
AcDbArc
 50
92.0
 51
135.0
  0
ARC
  5
CA
330
1F
100
AcDbEntity
  8
0
  6
Continuous
 62
     7
370
    15
100
AcDbCircle
 10
671.7694093057
 20
912.3107760538
 30
0.0
 40
9.89527928788615
100
AcDbArc
 50
135.0
 51
180.0
  0
LINE
  5
CB
330
1F
100
AcDbEntity
  8
0
  6
Continuous
 62
     7
370
    15
100
AcDbLine
 10
661.8741269179
 20
912.3107692141
 30
0.0
 11
661.7694164582
 21
912.3107692141
 31
0.0
  0
LINE
  5
CC
330
1F
100
AcDbEntity
  8
0
  6
Continuous
 62
     7
370
    15
100
AcDbLine
 10
661.7694093088
 20
912.3109337723
 30
0.0
 11
661.7694093057
 21
912.3107760538
 31
0.0
  0
SPLINE
  5
CD
330
1F
100
AcDbEntity
  8
0
  6
Continuous
 62
     7
370
    15
100
AcDbSpline
210
0.0
220
0.0
230
1.0
 70
     8
 71
     3
 72
    18
 73
    14
 74
     0
 42
0.000000001
 43
0.00000001
 40
0.0
 40
0.0
 40
0.0
 40
0.0
 40
0.2499999999999959
 40
0.2499999999999959
 40
0.3749999999999938
 40
0.3749999999999938
 40
0.4999999999999918
 40
0.4999999999999918
 40
0.7499999999999974
 40
0.7499999999999974
 40
0.8749999999999987
 40
0.8749999999999987
 40
1.0
 40
1.0
 40
1.0
 40
1.0
 10
661.7694093087808
 20
912.310933772342
 30
0.0
 10
661.7694353529896
 20
912.9714735562909
 30
0.0
 10
661.834259686246
 20
913.6209787309646
 30
0.0
 10
662.0247234729809
 20
914.5793592671408
 30
0.0
 10
662.1038647094928
 20
914.8961536051941
 30
0.0
 10
662.2941679343727
 20
915.5242888961351
 30
0.0
 10
662.4058682120011
 20
915.8364858128684
 30
0.0
 10
662.782222434569
 20
916.7446379162354
 30
0.0
 10
663.0892940174081
 20
917.3189431042038
 30
0.0
 10
663.6333950127828
 20
918.1341273379984
 30
0.0
 10
663.8294986258743
 20
918.39895811341
 30
0.0
 10
664.2476259504491
 20
918.908588698113
 30
0.0
 10
664.4676293854857
 20
919.1511135676772
 30
0.0
 10
664.6982299721525
 20
919.3817323396122
 30
0.0
  0
LINE
  5
CE
330
1F
100
AcDbEntity
  8
0
  6
Continuous
 62
     7
370
    15
100
AcDbLine
 10
664.6983414938
 20
919.3818438657
 30
0.0
 11
664.6982299722
 21
919.3817323396
 31
0.0
  0
LINE
  5
CF
330
1F
100
AcDbEntity
  8
0
  6
Continuous
 62
     7
370
    15
100
AcDbLine
 10
664.698343999
 20
919.3818470377
 30
0.0
 11
664.772387869
 21
919.3077882666
 31
0.0
  0
LINE
  5
D0
330
1F
100
AcDbEntity
  8
0
  6
Continuous
 62
     7
370
    15
100
AcDbLine
 10
794.2694093057
 20
939.461400165
 30
0.0
 11
837.3491357037
 21
937.9570236344
 31
0.0
  0
LINE
  5
D1
330
1F
100
AcDbEntity
  8
0
  6
Continuous
 62
     7
370
    15
100
AcDbLine
 10
794.2694093057
 20
939.461400165
 30
0.0
 11
794.2694093057
 21
939.4832303662
 31
0.0
  0
LINE
  5
D2
330
1F
100
AcDbEntity
  8
0
  6
Continuous
 62
     7
370
    15
100
AcDbLine
 10
794.2694093057
 20
939.4832303662
 30
0.0
 11
891.0697291561
 21
936.1028870482
 31
0.0
  0
LINE
  5
D3
330
1F
100
AcDbEntity
  8
0
  6
Continuous
 62
     7
370
    15
100
AcDbLine
 10
794.2694093057
 20
939.6578719753
 30
0.0
 11
794.2694093057
 21
939.4832303662
 31
0.0
  0
LINE
  5
D4
330
1F
100
AcDbEntity
  8
0
  6
Continuous
 62
     7
370
    15
100
AcDbLine
 10
901.6949648925
 20
935.9064897436
 30
0.0
 11
794.2694093057
 21
939.6578719753
 31
0.0
  0
LINE
  5
D5
330
1F
100
AcDbEntity
  8
0
  6
Continuous
 62
     7
370
    15
100
AcDbLine
 10
900.9609783956
 20
934.2184265989
 30
0.0
 11
901.6949648925
 21
935.9064897436
 31
0.0
  0
LINE
  5
D6
330
1F
100
AcDbEntity
  8
0
  6
Continuous
 62
     7
370
    15
100
AcDbLine
 10
899.3741909929
 20
934.2738440174
 30
0.0
 11
900.9609783956
 21
934.2184265989
 31
0.0
  0
LINE
  5
D7
330
1F
100
AcDbEntity
  8
0
  6
Continuous
 62
     7
370
    15
100
AcDbLine
 10
898.5194082328
 20
935.7292255301
 30
0.0
 11
899.3741909929
 21
934.2738440174
 31
0.0
  0
LINE
  5
D8
330
1F
100
AcDbEntity
  8
0
  6
Continuous
 62
     7
370
    15
100
AcDbLine
 10
896.019410617
 20
935.8165165323
 30
0.0
 11
898.5194082328
 21
935.7292255301
 31
0.0
  0
LINE
  5
D9
330
1F
100
AcDbEntity
  8
0
  6
Continuous
 62
     7
370
    15
100
AcDbLine
 10
895.1646278568
 20
934.4208439726
 30
0.0
 11
896.019410617
 21
935.8165165323
 31
0.0
  0
LINE
  5
DA
330
1F
100
AcDbEntity
  8
0
  6
Continuous
 62
     7
370
    15
100
AcDbLine
 10
891.1505381533
 20
934.561019196
 30
0.0
 11
895.1646278568
 21
934.4208439726
 31
0.0
  0
LINE
  5
DB
330
1F
100
AcDbEntity
  8
0
  6
Continuous
 62
     7
370
    15
100
AcDbLine
 10
891.1505381533
 20
934.561019196
 30
0.0
 11
891.0754586526
 21
935.9935423273
 31
0.0
  0
LINE
  5
DC
330
1F
100
AcDbEntity
  8
0
  6
Continuous
 62
     7
370
    15
100
AcDbLine
 10
891.0755778619
 20
936.0066255469
 30
0.0
 11
883.7996612259
 21
936.2607350487
 31
0.0
  0
LINE
  5
DD
330
1F
100
AcDbEntity
  8
0
  6
Continuous
 62
     7
370
    15
100
AcDbLine
 10
883.716237075
 20
936.3247504372
 30
0.0
 11
883.7996612259
 21
936.2607350487
 31
0.0
  0
LINE
  5
DE
330
1F
100
AcDbEntity
  8
0
  6
Continuous
 62
     7
370
    15
100
AcDbLine
 10
848.3598309525
 20
937.5594159502
 30
0.0
 11
883.716237075
 21
936.3247504372
 31
0.0
  0
LINE
  5
DF
330
1F
100
AcDbEntity
  8
0
  6
Continuous
 62
     7
370
    15
100
AcDbLine
 10
848.2837828764
 20
937.501063003
 30
0.0
 11
848.3598309525
 21
937.5594159502
 31
0.0
  0
LINE
  5
E0
330
1F
100
AcDbEntity
  8
0
  6
Continuous
 62
     7
370
    15
100
AcDbLine
 10
848.2837828764
 20
937.501063003
 30
0.0
 11
837.275725133
 21
937.8855129618
 31
0.0
  0
LINE
  5
E1
330
1F
100
AcDbEntity
  8
0
  6
Continuous
 62
     7
370
    15
100
AcDbLine
 10
837.275725133
 20
937.8855129618
 30
0.0
 11
837.3491357037
 21
937.9570236344
 31
0.0
  0
LINE
  5
E2
330
1F
100
AcDbEntity
  8
0
  6
Continuous
 62
     7
370
    15
100
AcDbLine
 10
693.3741907545
 20
934.4208439726
 30
0.0
 11
697.3882804581
 21
934.561019196
 31
0.0
  0
LINE
  5
E3
330
1F
100
AcDbEntity
  8
0
  6
Continuous
 62
     7
370
    15
100
AcDbLine
 10
693.3741907545
 20
934.4208439726
 30
0.0
 11
692.5194079944
 21
935.8165165323
 31
0.0
  0
LINE
  5
E4
330
1F
100
AcDbEntity
  8
0
  6
Continuous
 62
     7
370
    15
100
AcDbLine
 10
690.0194103786
 20
935.7292255301
 30
0.0
 11
692.5194079944
 21
935.8165165323
 31
0.0
  0
LINE
  5
E5
330
1F
100
AcDbEntity
  8
0
  6
Continuous
 62
     7
370
    15
100
AcDbLine
 10
690.0194103786
 20
935.7292255301
 30
0.0
 11
689.1646276184
 21
934.2738440174
 31
0.0
  0
LINE
  5
E6
330
1F
100
AcDbEntity
  8
0
  6
Continuous
 62
     7
370
    15
100
AcDbLine
 10
687.5778402158
 20
934.2184265989
 30
0.0
 11
689.1646276184
 21
934.2738440174
 31
0.0
  0
LINE
  5
E7
330
1F
100
AcDbEntity
  8
0
  6
Continuous
 62
     7
370
    15
100
AcDbLine
 10
686.8438537189
 20
935.9064897436
 30
0.0
 11
687.5778402158
 21
934.2184265989
 31
0.0
  0
LINE
  5
E8
330
1F
100
AcDbEntity
  8
0
  6
Continuous
 62
     7
370
    15
100
AcDbLine
 10
794.2694093057
 20
939.6578719753
 30
0.0
 11
686.8438537189
 21
935.9064897436
 31
0.0
  0
LINE
  5
E9
330
1F
100
AcDbEntity
  8
0
  6
Continuous
 62
     7
370
    15
100
AcDbLine
 10
697.4690894552
 20
936.1028870482
 30
0.0
 11
794.2694093057
 21
939.4832303662
 31
0.0
  0
LINE
  5
EA
330
1F
100
AcDbEntity
  8
0
  6
Continuous
 62
     7
370
    15
100
AcDbLine
 10
751.1896829077
 20
937.9570236344
 30
0.0
 11
794.2694093057
 21
939.461400165
 31
0.0
  0
LINE
  5
EB
330
1F
100
AcDbEntity
  8
0
  6
Continuous
 62
     7
370
    15
100
AcDbLine
 10
751.2630934783
 20
937.8855129618
 30
0.0
 11
751.1896829077
 21
937.9570236344
 31
0.0
  0
LINE
  5
EC
330
1F
100
AcDbEntity
  8
0
  6
Continuous
 62
     7
370
    15
100
AcDbLine
 10
751.2630934783
 20
937.8855129618
 30
0.0
 11
740.255035735
 21
937.501063003
 31
0.0
  0
LINE
  5
ED
330
1F
100
AcDbEntity
  8
0
  6
Continuous
 62
     7
370
    15
100
AcDbLine
 10
740.255035735
 20
937.501063003
 30
0.0
 11
740.1789876588
 21
937.5594159502
 31
0.0
  0
LINE
  5
EE
330
1F
100
AcDbEntity
  8
0
  6
Continuous
 62
     7
370
    15
100
AcDbLine
 10
704.8225815364
 20
936.3247504372
 30
0.0
 11
740.1789876588
 21
937.5594159502
 31
0.0
  0
LINE
  5
EF
330
1F
100
AcDbEntity
  8
0
  6
Continuous
 62
     7
370
    15
100
AcDbLine
 10
704.8225815364
 20
936.3247504372
 30
0.0
 11
704.7391573854
 21
936.2607350487
 31
0.0
  0
LINE
  5
F0
330
1F
100
AcDbEntity
  8
0
  6
Continuous
 62
     7
370
    15
100
AcDbLine
 10
704.7391573854
 20
936.2607350487
 30
0.0
 11
697.4632407495
 21
936.0066255469
 31
0.0
  0
LINE
  5
F1
330
1F
100
AcDbEntity
  8
0
  6
Continuous
 62
     7
370
    15
100
AcDbLine
 10
697.3882804581
 20
934.561019196
 30
0.0
 11
697.4633599587
 21
935.9935423273
 31
0.0
  0
ARC
  5
F2
330
1F
100
AcDbEntity
  8
0
  6
Continuous
 62
     7
370
    15
100
AcDbCircle
 10
671.7694093057
 20
597.9381930518
 30
0.0
 40
9.895279287885991
100
AcDbArc
 50
180.0
 51
225.0
  0
LINE
  5
F3
330
1F
100
AcDbEntity
  8
0
  6
Continuous
 62
     7
370
    15
100
AcDbLine
 10
664.772387869
 20
590.941180839
 30
0.0
 11
664.698343999
 21
590.8671220679
 31
0.0
  0
LINE
  5
F4
330
1F
100
AcDbEntity
  8
0
  6
Continuous
 62
     7
370
    15
100
AcDbLine
 10
664.6982299722
 20
590.867236766
 30
0.0
 11
664.6983414938
 21
590.8671252399
 31
0.0
  0
SPLINE
  5
F5
330
1F
100
AcDbEntity
  8
0
  6
Continuous
 62
     7
370
    15
100
AcDbSpline
210
0.0
220
0.0
230
1.0
 70
     8
 71
     3
 72
    18
 73
    14
 74
     0
 42
0.000000001
 43
0.00000001
 40
0.0
 40
0.0
 40
0.0
 40
0.0
 40
0.2500000000000041
 40
0.2500000000000041
 40
0.3750000000000016
 40
0.3750000000000016
 40
0.4999999999999992
 40
0.4999999999999992
 40
0.7499999999999986
 40
0.7499999999999986
 40
0.8749999999999993
 40
0.8749999999999993
 40
1.0
 40
1.0
 40
1.0
 40
1.0
 10
664.6982299721527
 20
590.8672367659525
 30
0.0
 10
664.2311762277154
 20
591.3343273424628
 30
0.0
 10
663.8177444399196
 20
591.8394345815218
 30
0.0
 10
663.2747452990026
 20
592.65179019278
 30
0.0
 10
663.1066991793327
 20
592.9317589224679
 30
0.0
 10
662.7971051564001
 20
593.5104823469894
 30
0.0
 10
662.6553326232839
 20
593.8102229276483
 30
0.0
 10
662.2792947355501
 20
594.7185060611939
 30
0.0
 10
662.0903320412023
 20
595.3417335526121
 30
0.0
 10
661.8986472450496
 20
596.3028933557244
 30
0.0
 10
661.8500498025213
 20
596.628823187517
 30
0.0
 10
661.785347226784
 20
597.2848470964668
 30
0.0
 10
661.7694221677076
 20
597.6119039971408
 30
0.0
 10
661.769409308781
 20
597.9380353332227
 30
0.0
  0
LINE
  5
F6
330
1F
100
AcDbEntity
  8
0
  6
Continuous
 62
     7
370
    15
100
AcDbLine
 10
661.7694093057
 20
597.9381930518
 30
0.0
 11
661.7694093088
 21
597.9380353332
 31
0.0
  0
LINE
  5
F7
330
1F
100
AcDbEntity
  8
0
  6
Continuous
 62
     7
370
    15
100
AcDbLine
 10
661.7694164582
 20
597.9381998915
 30
0.0
 11
661.8741269179
 21
597.9381998915
 31
0.0
  0
LINE
  5
F8
330
1F
100
AcDbEntity
  8
0
  6
Continuous
 62
     7
370
    15
100
AcDbLine
 10
794.2694093057
 20
570.5910971302
 30
0.0
 11
901.6949648925
 21
574.3424793619
 31
0.0
  0
LINE
  5
F9
330
1F
100
AcDbEntity
  8
0
  6
Continuous
 62
     7
370
    15
100
AcDbLine
 10
907.0724214383
 20
576.6806652683
 30
0.0
 11
922.6008917161
 21
592.2091355461
 31
0.0
  0
LINE
  5
FA
330
1F
100
AcDbEntity
  8
0
  6
Continuous
 62
     7
370
    15
100
AcDbLine
 10
924.9439503022
 20
597.8657653469
 30
0.0
 11
924.9439503022
 21
912.3832037586
 31
0.0
  0
ELLIPSE
  5
FB
330
1F
100
AcDbEntity
  8
0
  6
Continuous
 62
     7
370
    15
100
AcDbEllipse
 10
916.9436420344
 20
912.382945613
 30
0.0
 11
-7.391365984995105
 21
-3.061604035448113
 31
0.0
210
0.0
220
0.0
230
1.0
 40
0.9999553905
 41
2.748909343822779
 42
3.534275963356823
  0
LINE
  5
FC
330
1F
100
AcDbEntity
  8
0
  6
Continuous
 62
     7
370
    15
100
AcDbLine
 10
922.6008917161
 20
918.0398335594
 30
0.0
 11
907.0724214383
 21
933.5683038372
 31
0.0
  0
ELLIPSE
  5
FD
330
1F
100
AcDbEntity
  8
0
  6
Continuous
 62
     7
370
    15
100
AcDbEllipse
 10
901.4155201268
 20
927.9110675206
 30
0.0
 11
-3.190132868666865
 21
-7.336803302697036
 31
0.0
210
0.0
220
0.0
230
1.0
 40
0.9999560152
 41
2.766361863270597
 42
3.516823443908976
  0
ELLIPSE
  5
FE
330
1F
100
AcDbEntity
  8
0
  6
Continuous
 62
     7
370
    15
100
AcDbEllipse
 10
687.1232984845
 20
927.9110675206
 30
0.0
 11
3.190132868666865
 21
-7.336803302697036
 31
0.0
210
0.0
220
0.0
230
1.0
 40
0.9999560152
 41
2.766361863270594
 42
3.516823443909005
  0
LINE
  5
FF
330
1F
100
AcDbEntity
  8
0
  6
Continuous
 62
     7
370
    15
100
AcDbLine
 10
681.466397173
 20
933.5683038372
 30
0.0
 11
665.9379268952
 21
918.0398335594
 31
0.0
  0
ELLIPSE
  5
100
330
1F
100
AcDbEntity
  8
0
  6
Continuous
 62
     7
370
    15
100
AcDbEllipse
 10
671.5951765769
 20
912.382945613
 30
0.0
 11
7.391365984994992
 21
-3.061604035448113
 31
0.0
210
0.0
220
0.0
230
1.0
 40
0.9999553905
 41
2.748909343822779
 42
3.534275963356819
  0
LINE
  5
101
330
1F
100
AcDbEntity
  8
0
  6
Continuous
 62
     7
370
    15
100
AcDbLine
 10
901.6861881085
 20
937.6285871405
 30
0.0
 11
794.2694093057
 21
941.379671349
 31
0.0
  0
ARC
  5
102
330
1F
100
AcDbEntity
  8
0
  6
Continuous
 62
     7
370
    15
100
AcDbCircle
 10
901.3408492041
 20
927.7393361554
 30
0.0
 40
9.895279287886071
100
AcDbArc
 50
45.0
 51
88.0
  0
LINE
  5
103
330
1F
100
AcDbEntity
  8
0
  6
Continuous
 62
     7
370
    15
100
AcDbLine
 10
926.6646916934
 20
597.9381998915
 30
0.0
 11
926.6646916934
 21
912.3107692141
 31
0.0
  0
ARC
  5
104
330
1F
100
AcDbEntity
  8
0
  6
Continuous
 62
     7
370
    15
100
AcDbCircle
 10
916.7694093057
 20
597.9381930518
 30
0.0
 40
9.895279287885991
100
AcDbArc
 50
315.0
 51
0.0
  0
ARC
  5
105
330
1F
100
AcDbEntity
  8
0
  6
Continuous
 62
     7
370
    15
100
AcDbCircle
 10
901.3408492041
 20
582.5096329502
 30
0.0
 40
9.895279287886071
100
AcDbArc
 50
272.0
 51
315.0
  0
LINE
  5
106
330
1F
100
AcDbEntity
  8
0
  6
Continuous
 62
     7
370
    15
100
AcDbLine
 10
794.2694093057
 20
568.8692977566
 30
0.0
 11
901.6861881085
 21
572.6203819651
 31
0.0
  0
LINE
  5
107
330
1F
100
AcDbEntity
  8
0
  6
Continuous
 62
     7
370
    15
100
AcDbLine
 10
686.8526305028
 20
572.6203819651
 30
0.0
 11
794.2694093057
 21
568.8692977566
 31
0.0
  0
ARC
  5
108
330
1F
100
AcDbEntity
  8
0
  6
Continuous
 62
     7
370
    15
100
AcDbCircle
 10
687.1979694073
 20
582.5096329502
 30
0.0
 40
9.895279287885991
100
AcDbArc
 50
225.0
 51
268.0
  0
LINE
  5
109
330
1F
100
AcDbEntity
  8
0
  6
Continuous
 62
     7
370
    15
100
AcDbLine
 10
664.772387869
 20
590.941180839
 30
0.0
 11
680.2009533115
 21
575.5126079458
 31
0.0
  0
LINE
  5
10A
330
1F
100
AcDbEntity
  8
0
  6
Continuous
 62
     7
370
    15
100
AcDbLine
 10
661.8741269179
 20
912.3107692141
 30
0.0
 11
661.8741269179
 21
597.9381998915
 31
0.0
  0
LINE
  5
10B
330
1F
100
AcDbEntity
  8
0
  6
Continuous
 62
     7
370
    15
100
AcDbLine
 10
680.2009533115
 20
934.7363611597
 30
0.0
 11
664.772387869
 21
919.3077882666
 31
0.0
  0
LINE
  5
10C
330
1F
100
AcDbEntity
  8
0
  6
Continuous
 62
     7
370
    15
100
AcDbLine
 10
794.2694093057
 20
941.379671349
 30
0.0
 11
686.8526305028
 21
937.6285871405
 31
0.0
  0
LINE
  5
10D
330
1F
100
AcDbEntity
  8
0
  6
Continuous
 62
     7
370
    15
100
AcDbLine
 10
686.8526305028
 20
572.6203819651
 30
0.0
 11
686.8489722677
 21
572.51573111
 31
0.0
  0
LINE
  5
10E
330
1F
100
AcDbEntity
  8
0
  6
Continuous
 62
     7
370
    15
100
AcDbLine
 10
686.8488245438
 20
572.5157299173
 30
0.0
 11
686.8489744402
 21
572.51572468
 31
0.0
  0
SPLINE
  5
10F
330
1F
100
AcDbEntity
  8
0
  6
Continuous
 62
     7
370
    15
100
AcDbSpline
210
0.0
220
0.0
230
1.0
 70
     8
 71
     3
 72
    18
 73
    14
 74
     0
 42
0.000000001
 43
0.00000001
 40
0.0
 40
0.0
 40
0.0
 40
0.0
 40
0.2499999999999968
 40
0.2499999999999968
 40
0.3749999999999991
 40
0.3749999999999991
 40
0.5000000000000014
 40
0.5000000000000014
 40
0.7500000000000061
 40
0.7500000000000061
 40
0.875000000000003
 40
0.875000000000003
 40
1.0
 40
1.0
 40
1.0
 40
1.0
 10
686.8488245437725
 20
572.5157299172994
 30
0.0
 10
686.2180899274302
 20
572.5377793343873
 30
0.0
 10
685.599497442375
 20
572.618644803061
 30
0.0
 10
684.6890684008997
 20
572.82451190116
 30
0.0
 10
684.3885218648584
 20
572.9073253722182
 30
0.0
 10
683.793397573596
 20
573.1018629386626
 30
0.0
 10
683.4973552818119
 20
573.214304683854
 30
0.0
 10
682.6341773310448
 20
573.5897219329939
 30
0.0
 10
682.0891348056965
 20
573.8906181778348
 30
0.0
 10
681.3162392189254
 20
574.4163147739938
 30
0.0
 10
681.0661005880974
 20
574.6040197884751
 30
0.0
 10
680.5812536501898
 20
575.0051141211565
 30
0.0
 10
680.3479371338975
 20
575.2175461711402
 30
0.0
 10
680.1270076548684
 20
575.4384590828164
 30
0.0
  0
LINE
  5
110
330
1F
100
AcDbEntity
  8
0
  6
Continuous
 62
     7
370
    15
100
AcDbLine
 10
680.1269015954
 20
575.4385651383
 30
0.0
 11
680.1270076549
 21
575.4384590828
 31
0.0
  0
LINE
  5
111
330
1F
100
AcDbEntity
  8
0
  6
Continuous
 62
     7
370
    15
100
AcDbLine
 10
680.126901991
 20
575.4385640759
 30
0.0
 11
680.2009533115
 21
575.5126079458
 31
0.0
  0
LINE
  5
112
330
1F
100
AcDbEntity
  8
0
  6
Continuous
 62
     7
370
    15
100
AcDbLine
 10
661.7694164582
 20
626.9004693169
 30
0.0
 11
661.7694164582
 21
597.9381998915
 31
0.0
  0
LINE
  5
113
330
1F
100
AcDbEntity
  8
0
  6
Continuous
 62
     7
370
    15
100
AcDbLine
 10
661.7694164582
 20
629.6244909901
 30
0.0
 11
661.7694164582
 21
626.9004693169
 31
0.0
  0
LINE
  5
114
330
1F
100
AcDbEntity
  8
0
  6
Continuous
 62
     7
370
    15
100
AcDbLine
 10
661.7694164582
 20
629.6244909901
 30
0.0
 11
661.7694164582
 21
680.6244825858
 31
0.0
  0
LINE
  5
115
330
1F
100
AcDbEntity
  8
0
  6
Continuous
 62
     7
370
    15
100
AcDbLine
 10
661.7694164582
 20
829.6244865197
 30
0.0
 11
661.7694164582
 21
680.6244825858
 31
0.0
  0
LINE
  5
116
330
1F
100
AcDbEntity
  8
0
  6
Continuous
 62
     7
370
    15
100
AcDbLine
 10
661.7694164582
 20
829.6244865197
 30
0.0
 11
661.7694164582
 21
880.6244781155
 31
0.0
  0
LINE
  5
117
330
1F
100
AcDbEntity
  8
0
  6
Continuous
 62
     7
370
    15
100
AcDbLine
 10
661.7694164582
 20
883.3484997887
 30
0.0
 11
661.7694164582
 21
880.6244781155
 31
0.0
  0
LINE
  5
118
330
1F
100
AcDbEntity
  8
0
  6
Continuous
 62
     7
370
    15
100
AcDbLine
 10
661.7694164582
 20
912.3107692141
 30
0.0
 11
661.7694164582
 21
883.3484997887
 31
0.0
  0
LINE
  5
119
330
1F
100
AcDbEntity
  8
0
  6
Continuous
 62
     7
370
    15
100
AcDbLine
 10
908.4118109565
 20
575.4384590828
 30
0.0
 11
908.4119170159
 21
575.4385651383
 31
0.0
  0
SPLINE
  5
11A
330
1F
100
AcDbEntity
  8
0
  6
Continuous
 62
     7
370
    15
100
AcDbSpline
210
0.0
220
0.0
230
1.0
 70
     8
 71
     3
 72
    18
 73
    14
 74
     0
 42
0.000000001
 43
0.00000001
 40
0.0
 40
0.0
 40
0.0
 40
0.0
 40
0.2500000000000013
 40
0.2500000000000013
 40
0.375000000000002
 40
0.375000000000002
 40
0.5000000000000027
 40
0.5000000000000027
 40
0.750000000000004
 40
0.750000000000004
 40
0.875000000000002
 40
0.875000000000002
 40
1.0
 40
1.0
 40
1.0
 40
1.0
 10
908.4118109564749
 20
575.4384590828162
 30
0.0
 10
907.9655250596891
 20
574.9922066527092
 30
0.0
 10
907.4845047394866
 20
574.5949468659916
 30
0.0
 10
906.7130319620111
 20
574.0695022397413
 30
0.0
 10
906.447493778706
 20
573.9061750695515
 30
0.0
 10
905.8993442187085
 20
573.6036030174989
 30
0.0
 10
905.6152091746404
 20
573.4637764773898
 30
0.0
 10
904.7519604329651
 20
573.0885220361929
 30
0.0
 10
904.1601807420454
 20
572.8951139132698
 30
0.0
 10
903.2485970678387
 20
572.6883780813907
 30
0.0
 10
902.9407241746721
 20
572.6334527798683
 30
0.0
 10
902.3167175332329
 20
572.55240385423
 30
0.0
 10
902.002233085648
 20
572.5266452661042
 30
0.0
 10
901.6899940675708
 20
572.5157299172995
 30
0.0
  0
LINE
  5
11B
330
1F
100
AcDbEntity
  8
0
  6
Continuous
 62
     7
370
    15
100
AcDbLine
 10
901.6898441711
 20
572.51572468
 30
0.0
 11
901.6899940676
 21
572.5157299173
 31
0.0
  0
LINE
  5
11C
330
1F
100
AcDbEntity
  8
0
  6
Continuous
 62
     7
370
    15
100
AcDbLine
 10
901.6898463436
 20
572.51573111
 30
0.0
 11
901.6861881085
 21
572.6203819651
 31
0.0
  0
LINE
  5
11D
330
1F
100
AcDbEntity
  8
0
  6
Continuous
 62
     7
370
    15
100
AcDbLine
 10
794.2694093057
 20
568.8692977566
 30
0.0
 11
794.2694093057
 21
568.7645276922
 31
0.0
  0
LINE
  5
11E
330
1F
100
AcDbEntity
  8
0
  6
Continuous
 62
     7
370
    15
100
AcDbLine
 10
748.8053145774
 20
570.3521570105
 30
0.0
 11
794.2694093057
 21
568.7645276922
 31
0.0
  0
LINE
  5
11F
330
1F
100
AcDbEntity
  8
0
  6
Continuous
 62
     7
370
    15
100
AcDbLine
 10
748.8053145774
 20
570.3521570105
 30
0.0
 11
697.8053118058
 21
572.133113994
 31
0.0
  0
LINE
  5
120
330
1F
100
AcDbEntity
  8
0
  6
Continuous
 62
     7
370
    15
100
AcDbLine
 10
695.0661431023
 20
572.2287794489
 30
0.0
 11
697.8053118058
 21
572.133113994
 31
0.0
  0
LINE
  5
121
330
1F
100
AcDbEntity
  8
0
  6
Continuous
 62
     7
370
    15
100
AcDbLine
 10
686.8489722677
 20
572.51573111
 30
0.0
 11
695.0661431023
 21
572.2287794489
 31
0.0
  0
LINE
  5
122
330
1F
100
AcDbEntity
  8
0
  6
Continuous
 62
     7
370
    15
100
AcDbLine
 10
926.6646916934
 20
597.9381998915
 30
0.0
 11
926.7694021531
 21
597.9381998915
 31
0.0
  0
LINE
  5
123
330
1F
100
AcDbEntity
  8
0
  6
Continuous
 62
     7
370
    15
100
AcDbLine
 10
926.7694093026
 20
597.9380353332
 30
0.0
 11
926.7694093057
 21
597.9381930518
 31
0.0
  0
SPLINE
  5
124
330
1F
100
AcDbEntity
  8
0
  6
Continuous
 62
     7
370
    15
100
AcDbSpline
210
0.0
220
0.0
230
1.0
 70
     8
 71
     3
 72
    16
 73
    12
 74
     0
 42
0.000000001
 43
0.00000001
 40
0.0
 40
0.0
 40
0.0
 40
0.0
 40
0.2500000000000078
 40
0.2500000000000078
 40
0.3750000000000065
 40
0.3750000000000065
 40
0.5000000000000052
 40
0.5000000000000052
 40
0.7500000000000026
 40
0.7500000000000026
 40
1.0
 40
1.0
 40
1.0
 40
1.0
 10
926.7694093025625
 20
597.9380353332226
 30
0.0
 10
926.7693832814406
 20
597.2780810787519
 30
0.0
 10
926.7046727091083
 20
596.6291420647939
 30
0.0
 10
926.514544529079
 20
595.6715826742297
 30
0.0
 10
926.4355430472444
 20
595.3550573021814
 30
0.0
 10
926.2455790836169
 20
594.7274497668919
 30
0.0
 10
926.1340726646453
 20
594.4154910158659
 30
0.0
 10
925.7583534311718
 20
593.507976910083
 30
0.0
 10
925.4517971202521
 20
592.9340460961673
 30
0.0
 10
924.7275694497316
 20
591.8477662680943
 30
0.0
 10
924.3072283108122
 20
591.333913236993
 30
0.0
 10
923.8405886391909
 20
590.8672367659526
 30
0.0
  0
LINE
  5
125
330
1F
100
AcDbEntity
  8
0
  6
Continuous
 62
     7
370
    15
100
AcDbLine
 10
923.8404771175
 20
590.8671252399
 30
0.0
 11
923.8405886392
 21
590.867236766
 31
0.0
  0
LINE
  5
126
330
1F
100
AcDbEntity
  8
0
  6
Continuous
 62
     7
370
    15
100
AcDbLine
 10
915.5607338019
 20
585.6009324927
 30
0.0
 11
913.792964346
 21
583.8331630367
 31
0.0
  0
LINE
  5
127
330
1F
100
AcDbEntity
  8
0
  6
Continuous
 62
     7
370
    15
100
AcDbLine
 10
915.1627014347
 20
587.1929874558
 30
0.0
 11
915.5607338019
 21
585.6009324927
 31
0.0
  0
LINE
  5
128
330
1F
100
AcDbEntity
  8
0
  6
Continuous
 62
     7
370
    15
100
AcDbLine
 10
920.8882416554
 20
592.9185351271
 30
0.0
 11
915.1627014347
 21
587.1929874558
 31
0.0
  0
LINE
  5
129
330
1F
100
AcDbEntity
  8
0
  6
Continuous
 62
     7
370
    15
100
AcDbLine
 10
912.2009019323
 20
584.2311879534
 30
0.0
 11
906.3384274908
 21
578.368728413
 31
0.0
  0
LINE
  5
12A
330
1F
100
AcDbEntity
  8
0
  6
Continuous
 62
     7
370
    15
100
AcDbLine
 10
913.792964346
 20
583.8331630367
 30
0.0
 11
912.2009019323
 21
584.2311879534
 31
0.0
  0
LINE
  5
12B
330
1F
100
AcDbEntity
  8
0
  6
Continuous
 62
     7
370
    15
100
AcDbLine
 10
926.7694021531
 20
883.3484997887
 30
0.0
 11
926.7694021531
 21
912.3107692141
 31
0.0
  0
LINE
  5
12C
330
1F
100
AcDbEntity
  8
0
  6
Continuous
 62
     7
370
    15
100
AcDbLine
 10
926.7694021531
 20
880.6244781155
 30
0.0
 11
926.7694021531
 21
883.3484997887
 31
0.0
  0
LINE
  5
12D
330
1F
100
AcDbEntity
  8
0
  6
Continuous
 62
     7
370
    15
100
AcDbLine
 10
926.7694021531
 20
829.6244865197
 30
0.0
 11
926.7694021531
 21
880.6244781155
 31
0.0
  0
LINE
  5
12E
330
1F
100
AcDbEntity
  8
0
  6
Continuous
 62
     7
370
    15
100
AcDbLine
 10
926.7694021531
 20
680.6244825858
 30
0.0
 11
926.7694021531
 21
829.6244865197
 31
0.0
  0
LINE
  5
12F
330
1F
100
AcDbEntity
  8
0
  6
Continuous
 62
     7
370
    15
100
AcDbLine
 10
926.7694021531
 20
629.6244909901
 30
0.0
 11
926.7694021531
 21
680.6244825858
 31
0.0
  0
LINE
  5
130
330
1F
100
AcDbEntity
  8
0
  6
Continuous
 62
     7
370
    15
100
AcDbLine
 10
926.7694021531
 20
626.9004693169
 30
0.0
 11
926.7694021531
 21
629.6244909901
 31
0.0
  0
LINE
  5
131
330
1F
100
AcDbEntity
  8
0
  6
Continuous
 62
     7
370
    15
100
AcDbLine
 10
926.7694021531
 20
597.9381998915
 30
0.0
 11
926.7694021531
 21
626.9004693169
 31
0.0
  0
LINE
  5
132
330
1F
100
AcDbEntity
  8
0
  6
Continuous
 62
     7
370
    15
100
AcDbLine
 10
682.2003911205
 20
931.8802406925
 30
0.0
 11
681.466397173
 21
933.5683038372
 31
0.0
  0
ELLIPSE
  5
133
330
1F
100
AcDbEntity
  8
0
  6
Continuous
 62
     7
370
    15
100
AcDbEllipse
 10
687.8572879756
 20
926.2230072598
 30
0.0
 11
3.190132868666979
 21
-7.336803302697037
 31
0.0
210
0.0
220
0.0
230
1.0
 40
0.9999560152
 41
2.766361863270595
 42
3.516823443908992
  0
LINE
  5
134
330
1F
100
AcDbEntity
  8
0
  6
Continuous
 62
     7
370
    15
100
AcDbLine
 10
901.6861881085
 20
937.6285871405
 30
0.0
 11
901.6898463436
 21
937.7332379955
 31
0.0
  0
LINE
  5
135
330
1F
100
AcDbEntity
  8
0
  6
Continuous
 62
     7
370
    15
100
AcDbLine
 10
901.6899940676
 20
937.7332391883
 30
0.0
 11
901.6898441711
 21
937.7332444256
 31
0.0
  0
SPLINE
  5
136
330
1F
100
AcDbEntity
  8
0
  6
Continuous
 62
     7
370
    15
100
AcDbSpline
210
0.0
220
0.0
230
1.0
 70
     8
 71
     3
 72
    18
 73
    14
 74
     0
 42
0.000000001
 43
0.00000001
 40
0.0
 40
0.0
 40
0.0
 40
0.0
 40
0.2499999999999945
 40
0.2499999999999945
 40
0.3749999999999957
 40
0.3749999999999957
 40
0.4999999999999969
 40
0.4999999999999969
 40
0.7499999999999992
 40
0.7499999999999992
 40
0.8749999999999997
 40
0.8749999999999997
 40
1.0
 40
1.0
 40
1.0
 40
1.0
 10
901.689994067571
 20
937.7332391882653
 30
0.0
 10
902.3207286839133
 20
937.7111897711776
 30
0.0
 10
902.9393211689684
 20
937.6303243025038
 30
0.0
 10
903.8497502104436
 20
937.4244572044048
 30
0.0
 10
904.1502967464851
 20
937.3416437333465
 30
0.0
 10
904.7454210377474
 20
937.1471061669022
 30
0.0
 10
905.0414633295314
 20
937.0346644217108
 30
0.0
 10
905.9046412802985
 20
936.6592471725708
 30
0.0
 10
906.4496838056469
 20
936.3583509277302
 30
0.0
 10
907.222579392418
 20
935.8326543315709
 30
0.0
 10
907.4727180232461
 20
935.6449493170895
 30
0.0
 10
907.9575649611536
 20
935.2438549844084
 30
0.0
 10
908.190881477446
 20
935.0314229344247
 30
0.0
 10
908.411810956475
 20
934.8105100227484
 30
0.0
  0
LINE
  5
137
330
1F
100
AcDbEntity
  8
0
  6
Continuous
 62
     7
370
    15
100
AcDbLine
 10
908.4119170159
 20
934.8104039673
 30
0.0
 11
908.4118109565
 21
934.8105100227
 31
0.0
  0
LINE
  5
138
330
1F
100
AcDbEntity
  8
0
  6
Continuous
 62
     7
370
    15
100
AcDbLine
 10
697.8053118058
 20
938.1158551115
 30
0.0
 11
695.0661431023
 21
938.0201896567
 31
0.0
  0
LINE
  5
139
330
1F
100
AcDbEntity
  8
0
  6
Continuous
 62
     7
370
    15
100
AcDbLine
 10
697.8053118058
 20
938.1158551115
 30
0.0
 11
748.8053145774
 21
939.8968120951
 31
0.0
  0
LINE
  5
13A
330
1F
100
AcDbEntity
  8
0
  6
Continuous
 62
     7
370
    15
100
AcDbLine
 10
794.2694093057
 20
941.4844414133
 30
0.0
 11
748.8053145774
 21
939.8968120951
 31
0.0
  0
LINE
  5
13B
330
1F
100
AcDbEntity
  8
0
  6
Continuous
 62
     7
370
    15
100
AcDbLine
 10
794.2694093057
 20
941.379671349
 30
0.0
 11
794.2694093057
 21
941.4844414133
 31
0.0
  0
LINE
  5
13C
330
1F
100
AcDbEntity
  8
0
  6
Continuous
 62
     7
370
    15
100
AcDbLine
 10
686.8489722677
 20
937.7332379955
 30
0.0
 11
695.0661431023
 21
938.0201896567
 31
0.0
  0
LINE
  5
13D
330
1F
100
AcDbEntity
  8
0
  6
Continuous
 62
     7
370
    15
100
AcDbLine
 10
923.2313002416
 20
600.0196983952
 30
0.0
 11
923.2313002416
 21
598.575179829
 31
0.0
  0
LINE
  5
13E
330
1F
100
AcDbEntity
  8
0
  6
Continuous
 62
     7
370
    15
100
AcDbLine
 10
923.2313002416
 20
600.0196983952
 30
0.0
 11
924.6559555598
 21
600.8744886059
 31
0.0
  0
LINE
  5
13F
330
1F
100
AcDbEntity
  8
0
  6
Continuous
 62
     7
370
    15
100
AcDbLine
 10
924.6559555598
 20
603.3744862217
 30
0.0
 11
924.6559555598
 21
600.8744886059
 31
0.0
  0
LINE
  5
140
330
1F
100
AcDbEntity
  8
0
  6
Continuous
 62
     7
370
    15
100
AcDbLine
 10
924.6559555598
 20
603.3744862217
 30
0.0
 11
923.2313002416
 21
604.2292615313
 31
0.0
  0
LINE
  5
141
330
1F
100
AcDbEntity
  8
0
  6
Continuous
 62
     7
370
    15
100
AcDbLine
 10
923.2313002416
 20
629.218479051
 30
0.0
 11
923.2313002416
 21
604.2292615313
 31
0.0
  0
LINE
  5
142
330
1F
100
AcDbEntity
  8
0
  6
Continuous
 62
     7
370
    15
100
AcDbLine
 10
923.2313002416
 20
629.218479051
 30
0.0
 11
924.6603216001
 21
629.2933722872
 31
0.0
  0
LINE
  5
143
330
1F
100
AcDbEntity
  8
0
  6
Continuous
 62
     7
370
    15
100
AcDbLine
 10
924.6603216001
 20
629.2933722872
 30
0.0
 11
924.6603216001
 21
681.058650269
 31
0.0
  0
LINE
  5
144
330
1F
100
AcDbEntity
  8
0
  6
Continuous
 62
     7
370
    15
100
AcDbLine
 10
924.6603216001
 20
681.058650269
 30
0.0
 11
924.6603216001
 21
829.1903188366
 31
0.0
  0
LINE
  5
145
330
1F
100
AcDbEntity
  8
0
  6
Continuous
 62
     7
370
    15
100
AcDbLine
 10
924.6603216001
 20
829.1903188366
 30
0.0
 11
924.6603216001
 21
880.9555968184
 31
0.0
  0
LINE
  5
146
330
1F
100
AcDbEntity
  8
0
  6
Continuous
 62
     7
370
    15
100
AcDbLine
 10
923.2313002416
 20
881.0304900545
 30
0.0
 11
924.6603216001
 21
880.9555968184
 31
0.0
  0
LINE
  5
147
330
1F
100
AcDbEntity
  8
0
  6
Continuous
 62
     7
370
    15
100
AcDbLine
 10
923.2313002416
 20
906.0197075743
 30
0.0
 11
923.2313002416
 21
881.0304900545
 31
0.0
  0
LINE
  5
148
330
1F
100
AcDbEntity
  8
0
  6
Continuous
 62
     7
370
    15
100
AcDbLine
 10
924.6559555598
 20
906.8744828839
 30
0.0
 11
923.2313002416
 21
906.0197075743
 31
0.0
  0
LINE
  5
149
330
1F
100
AcDbEntity
  8
0
  6
Continuous
 62
     7
370
    15
100
AcDbLine
 10
924.6559555598
 20
909.3744804997
 30
0.0
 11
924.6559555598
 21
906.8744828839
 31
0.0
  0
LINE
  5
14A
330
1F
100
AcDbEntity
  8
0
  6
Continuous
 62
     7
370
    15
100
AcDbLine
 10
923.2313002416
 20
910.2292707104
 30
0.0
 11
924.6559555598
 21
909.3744804997
 31
0.0
  0
LINE
  5
14B
330
1F
100
AcDbEntity
  8
0
  6
Continuous
 62
     7
370
    15
100
AcDbLine
 10
923.2313002416
 20
911.6737892765
 30
0.0
 11
923.2313002416
 21
910.2292707104
 31
0.0
  0
LINE
  5
14C
330
1F
100
AcDbEntity
  8
0
  6
Continuous
 62
     7
370
    15
100
AcDbLine
 10
924.9439503022
 20
912.3832037586
 30
0.0
 11
923.2313002416
 21
911.6737892765
 31
0.0
  0
LINE
  5
14D
330
1F
100
AcDbEntity
  8
0
  6
Continuous
 62
     7
370
    15
100
AcDbLine
 10
924.6777708598
 20
683.0587288279
 30
0.0
 11
924.7475977012
 21
682.9895203847
 31
0.0
  0
LINE
  5
14E
330
1F
100
AcDbEntity
  8
0
  6
Continuous
 62
     7
370
    15
100
AcDbLine
 10
924.7475977012
 20
827.2594487209
 30
0.0
 11
924.7475977012
 21
682.9895203847
 31
0.0
  0
LINE
  5
14F
330
1F
100
AcDbEntity
  8
0
  6
Continuous
 62
     7
370
    15
100
AcDbLine
 10
924.6777708598
 20
827.1902402777
 30
0.0
 11
924.7475977012
 21
827.2594487209
 31
0.0
  0
LINE
  5
150
330
1F
100
AcDbEntity
  8
0
  6
Continuous
 62
     7
370
    15
100
AcDbLine
 10
924.6777708598
 20
827.1902402777
 30
0.0
 11
924.6777708598
 21
683.0587288279
 31
0.0
  0
LINE
  5
151
330
1F
100
AcDbEntity
  8
0
  6
Continuous
 62
     7
370
    15
100
AcDbLine
 10
924.7344995805
 20
835.8139818448
 30
0.0
 11
924.6734197207
 21
835.7343723911
 31
0.0
  0
LINE
  5
152
330
1F
100
AcDbEntity
  8
0
  6
Continuous
 62
     7
370
    15
100
AcDbLine
 10
924.7344995805
 20
874.4349827904
 30
0.0
 11
924.7344995805
 21
835.8139818448
 31
0.0
  0
LINE
  5
153
330
1F
100
AcDbEntity
  8
0
  6
Continuous
 62
     7
370
    15
100
AcDbLine
 10
924.6734197207
 20
874.5145996947
 30
0.0
 11
924.7344995805
 21
874.4349827904
 31
0.0
  0
LINE
  5
154
330
1F
100
AcDbEntity
  8
0
  6
Continuous
 62
     7
370
    15
100
AcDbLine
 10
924.6734197207
 20
874.5145996947
 30
0.0
 11
924.6734197207
 21
835.7343723911
 31
0.0
  0
LINE
  5
155
330
1F
100
AcDbEntity
  8
0
  6
Continuous
 62
     7
370
    15
100
AcDbLine
 10
924.6734197207
 20
635.7343694109
 30
0.0
 11
924.7344995805
 21
635.8139863152
 31
0.0
  0
LINE
  5
156
330
1F
100
AcDbEntity
  8
0
  6
Continuous
 62
     7
370
    15
100
AcDbLine
 10
924.7344995805
 20
674.4349872607
 30
0.0
 11
924.7344995805
 21
635.8139863152
 31
0.0
  0
LINE
  5
157
330
1F
100
AcDbEntity
  8
0
  6
Continuous
 62
     7
370
    15
100
AcDbLine
 10
924.7344995805
 20
674.4349872607
 30
0.0
 11
924.6734197207
 21
674.5145967144
 31
0.0
  0
LINE
  5
158
330
1F
100
AcDbEntity
  8
0
  6
Continuous
 62
     7
370
    15
100
AcDbLine
 10
924.6734197207
 20
674.5145967144
 30
0.0
 11
924.6734197207
 21
635.7343694109
 31
0.0
  0
LINE
  5
159
330
1F
100
AcDbEntity
  8
0
  6
Continuous
 62
     7
370
    15
100
AcDbLine
 10
672.9780848094
 20
924.6480366129
 30
0.0
 11
674.7458542653
 21
926.4158060688
 31
0.0
  0
LINE
  5
15A
330
1F
100
AcDbEntity
  8
0
  6
Continuous
 62
     7
370
    15
100
AcDbLine
 10
673.3761171766
 20
923.0559816498
 30
0.0
 11
672.9780848094
 21
924.6480366129
 31
0.0
  0
LINE
  5
15B
330
1F
100
AcDbEntity
  8
0
  6
Continuous
 62
     7
370
    15
100
AcDbLine
 10
667.6505769559
 20
917.3304339785
 30
0.0
 11
673.3761171766
 21
923.0559816498
 31
0.0
  0
LINE
  5
15C
330
1F
100
AcDbEntity
  8
0
  6
Continuous
 62
     7
370
    15
100
AcDbLine
 10
665.9379268952
 20
918.0398335594
 30
0.0
 11
667.6505769559
 21
917.3304339785
 31
0.0
  0
LINE
  5
15D
330
1F
100
AcDbEntity
  8
0
  6
Continuous
 62
     7
370
    15
100
AcDbLine
 10
676.337916679
 20
926.0177811522
 30
0.0
 11
682.2003911205
 21
931.8802406925
 31
0.0
  0
LINE
  5
15E
330
1F
100
AcDbEntity
  8
0
  6
Continuous
 62
     7
370
    15
100
AcDbLine
 10
674.7458542653
 20
926.4158060688
 30
0.0
 11
676.337916679
 21
926.0177811522
 31
0.0
  0
LINE
  5
15F
330
1F
100
AcDbEntity
  8
0
  6
Continuous
 62
     7
370
    15
100
AcDbLine
 10
848.2837828764
 20
572.7479061026
 30
0.0
 11
848.3598309525
 21
572.6895531553
 31
0.0
  0
LINE
  5
160
330
1F
100
AcDbEntity
  8
0
  6
Continuous
 62
     7
370
    15
100
AcDbLine
 10
883.716237075
 20
573.9242186684
 30
0.0
 11
848.3598309525
 21
572.6895531553
 31
0.0
  0
LINE
  5
161
330
1F
100
AcDbEntity
  8
0
  6
Continuous
 62
     7
370
    15
100
AcDbLine
 10
883.716237075
 20
573.9242186684
 30
0.0
 11
883.7996612259
 21
573.9882340569
 31
0.0
  0
LINE
  5
162
330
1F
100
AcDbEntity
  8
0
  6
Continuous
 62
     7
370
    15
100
AcDbLine
 10
891.0755778619
 20
574.2423435587
 30
0.0
 11
883.7996612259
 21
573.9882340569
 31
0.0
  0
LINE
  5
163
330
1F
100
AcDbEntity
  8
0
  6
Continuous
 62
     7
370
    15
100
AcDbLine
 10
891.1505381533
 20
575.6879499096
 30
0.0
 11
891.0754586526
 21
574.2554267782
 31
0.0
  0
LINE
  5
164
330
1F
100
AcDbEntity
  8
0
  6
Continuous
 62
     7
370
    15
100
AcDbLine
 10
895.1646278568
 20
575.828125133
 30
0.0
 11
891.1505381533
 21
575.6879499096
 31
0.0
  0
LINE
  5
165
330
1F
100
AcDbEntity
  8
0
  6
Continuous
 62
     7
370
    15
100
AcDbLine
 10
895.1646278568
 20
575.828125133
 30
0.0
 11
896.019410617
 21
574.4324525732
 31
0.0
  0
LINE
  5
166
330
1F
100
AcDbEntity
  8
0
  6
Continuous
 62
     7
370
    15
100
AcDbLine
 10
898.5194082328
 20
574.5197435755
 30
0.0
 11
896.019410617
 21
574.4324525732
 31
0.0
  0
LINE
  5
167
330
1F
100
AcDbEntity
  8
0
  6
Continuous
 62
     7
370
    15
100
AcDbLine
 10
898.5194082328
 20
574.5197435755
 30
0.0
 11
899.3741909929
 21
575.9751250881
 31
0.0
  0
LINE
  5
168
330
1F
100
AcDbEntity
  8
0
  6
Continuous
 62
     7
370
    15
100
AcDbLine
 10
900.9609783956
 20
576.0305425066
 30
0.0
 11
899.3741909929
 21
575.9751250881
 31
0.0
  0
LINE
  5
169
330
1F
100
AcDbEntity
  8
0
  6
Continuous
 62
     7
370
    15
100
AcDbLine
 10
891.0697291561
 20
574.1460820574
 30
0.0
 11
794.2694093057
 21
570.7657387394
 31
0.0
  0
LINE
  5
16A
330
1F
100
AcDbEntity
  8
0
  6
Continuous
 62
     7
370
    15
100
AcDbLine
 10
837.3491357037
 20
572.2919454712
 30
0.0
 11
794.2694093057
 21
570.7875689406
 31
0.0
  0
LINE
  5
16B
330
1F
100
AcDbEntity
  8
0
  6
Continuous
 62
     7
370
    15
100
AcDbLine
 10
837.275725133
 20
572.3634561438
 30
0.0
 11
837.3491357037
 21
572.2919454712
 31
0.0
  0
LINE
  5
16C
330
1F
100
AcDbEntity
  8
0
  6
Continuous
 62
     7
370
    15
100
AcDbLine
 10
848.2837828764
 20
572.7479061026
 30
0.0
 11
837.275725133
 21
572.3634561438
 31
0.0
  0
LINE
  5
16D
330
1F
100
AcDbEntity
  8
0
  6
Continuous
 62
     7
370
    15
100
AcDbLine
 10
890.7335068055
 20
572.133113994
 30
0.0
 11
893.4726755091
 21
572.2287794489
 31
0.0
  0
LINE
  5
16E
330
1F
100
AcDbEntity
  8
0
  6
Continuous
 62
     7
370
    15
100
AcDbLine
 10
839.7335040339
 20
570.3521570105
 30
0.0
 11
890.7335068055
 21
572.133113994
 31
0.0
  0
LINE
  5
16F
330
1F
100
AcDbEntity
  8
0
  6
Continuous
 62
     7
370
    15
100
AcDbLine
 10
794.2694093057
 20
568.7645276922
 30
0.0
 11
839.7335040339
 21
570.3521570105
 31
0.0
  0
LINE
  5
170
330
1F
100
AcDbEntity
  8
0
  6
Continuous
 62
     7
370
    15
100
AcDbLine
 10
901.6898463436
 20
572.51573111
 30
0.0
 11
893.4726755091
 21
572.2287794489
 31
0.0
  0
ELLIPSE
  5
171
330
1F
100
AcDbEntity
  8
0
  6
Continuous
 62
     7
370
    15
100
AcDbEllipse
 10
673.3078243809
 20
911.6735436651
 30
0.0
 11
7.391365984994992
 21
-3.061604035448
 31
0.0
210
0.0
220
0.0
230
1.0
 40
0.9999553905
 41
2.748909343822772
 42
3.534275963356786
  0
LINE
  5
172
330
1F
100
AcDbEntity
  8
0
  6
Continuous
 62
     7
370
    15
100
AcDbLine
 10
664.698343999
 20
590.8671220679
 30
0.0
 11
680.126901991
 21
575.4385640759
 31
0.0
  0
LINE
  5
173
330
1F
100
AcDbEntity
  8
0
  6
Continuous
 62
     7
370
    15
100
AcDbLine
 10
907.0724214383
 20
933.5683038372
 30
0.0
 11
906.3384274908
 21
931.8802406925
 31
0.0
  0
ELLIPSE
  5
174
330
1F
100
AcDbEntity
  8
0
  6
Continuous
 62
     7
370
    15
100
AcDbEllipse
 10
900.6815306358
 20
926.2230072598
 30
0.0
 11
-3.190132868666979
 21
-7.336803302697037
 31
0.0
210
0.0
220
0.0
230
1.0
 40
0.9999560152
 41
2.766361863270617
 42
3.516823443909022
  0
LINE
  5
175
330
1F
100
AcDbEntity
  8
0
  6
Continuous
 62
     7
370
    15
100
AcDbLine
 10
920.8882416554
 20
917.3304339785
 30
0.0
 11
922.6008917161
 21
918.0398335594
 31
0.0
  0
ELLIPSE
  5
176
330
1F
100
AcDbEntity
  8
0
  6
Continuous
 62
     7
370
    15
100
AcDbEllipse
 10
915.2309942305
 20
911.6735436651
 30
0.0
 11
-7.391365984995105
 21
-3.061604035448
 31
0.0
210
0.0
220
0.0
230
1.0
 40
0.9999553905
 41
2.748909343822808
 42
3.534275963356834
  0
LINE
  5
177
330
1F
100
AcDbEntity
  8
0
  6
Continuous
 62
     7
370
    15
100
AcDbLine
 10
680.126901991
 20
934.8104050297
 30
0.0
 11
664.698343999
 21
919.3818470377
 31
0.0
  0
LINE
  5
178
330
1F
100
AcDbEntity
  8
0
  6
Continuous
 62
     7
370
    15
100
AcDbLine
 10
839.7335040339
 20
939.8968120951
 30
0.0
 11
794.2694093057
 21
941.4844414133
 31
0.0
  0
LINE
  5
179
330
1F
100
AcDbEntity
  8
0
  6
Continuous
 62
     7
370
    15
100
AcDbLine
 10
890.7335068055
 20
938.1158551115
 30
0.0
 11
839.7335040339
 21
939.8968120951
 31
0.0
  0
LINE
  5
17A
330
1F
100
AcDbEntity
  8
0
  6
Continuous
 62
     7
370
    15
100
AcDbLine
 10
893.4726755091
 20
938.0201896567
 30
0.0
 11
890.7335068055
 21
938.1158551115
 31
0.0
  0
LINE
  5
17B
330
1F
100
AcDbEntity
  8
0
  6
Continuous
 62
     7
370
    15
100
AcDbLine
 10
901.6898463436
 20
937.7332379955
 30
0.0
 11
893.4726755091
 21
938.0201896567
 31
0.0
  0
LINE
  5
17C
330
1F
100
AcDbEntity
  8
0
  6
Continuous
 62
     7
370
    15
100
AcDbLine
 10
913.792964346
 20
926.4158060688
 30
0.0
 11
912.2009019323
 21
926.0177811522
 31
0.0
  0
LINE
  5
17D
330
1F
100
AcDbEntity
  8
0
  6
Continuous
 62
     7
370
    15
100
AcDbLine
 10
906.3384274908
 20
931.8802406925
 30
0.0
 11
912.2009019323
 21
926.0177811522
 31
0.0
  0
LINE
  5
17E
330
1F
100
AcDbEntity
  8
0
  6
Continuous
 62
     7
370
    15
100
AcDbLine
 10
915.1627014347
 20
923.0559816498
 30
0.0
 11
920.8882416554
 21
917.3304339785
 31
0.0
  0
LINE
  5
17F
330
1F
100
AcDbEntity
  8
0
  6
Continuous
 62
     7
370
    15
100
AcDbLine
 10
915.1627014347
 20
923.0559816498
 30
0.0
 11
915.5607338019
 21
924.6480366129
 31
0.0
  0
LINE
  5
180
330
1F
100
AcDbEntity
  8
0
  6
Continuous
 62
     7
370
    15
100
AcDbLine
 10
913.792964346
 20
926.4158060688
 30
0.0
 11
915.5607338019
 21
924.6480366129
 31
0.0
  0
LINE
  5
181
330
1F
100
AcDbEntity
  8
0
  6
Continuous
 62
     7
370
    15
100
AcDbLine
 10
660.2313036986
 20
597.3009219307
 30
0.0
 11
661.7694164582
 21
597.9380359787
 31
0.0
  0
LINE
  5
182
330
1F
100
AcDbEntity
  8
0
  6
Continuous
 62
     7
370
    15
100
AcDbLine
 10
664.6982247897
 20
590.8672412771
 30
0.0
 11
663.1601269313
 21
590.2301272291
 31
0.0
  0
ELLIPSE
  5
183
330
1F
100
AcDbEntity
  8
0
  6
Continuous
 62
     7
370
    15
100
AcDbEllipse
 10
670.2316796414
 20
597.3012445696
 30
0.0
 11
9.239207481243852
 21
3.827005044310226
 31
0.0
210
0.0
220
0.0
230
1.0
 40
0.9999553905
 41
2.748909343822775
 42
3.534275963356804
  0
LINE
  5
184
330
1F
100
AcDbEntity
  8
0
  6
Continuous
 62
     7
370
    15
100
AcDbLine
 10
925.3786916801
 20
590.2301272291
 30
0.0
 11
923.8405938216
 21
590.8672412771
 31
0.0
  0
LINE
  5
185
330
1F
100
AcDbEntity
  8
0
  6
Continuous
 62
     7
370
    15
100
AcDbLine
 10
926.7694021531
 20
597.9380359787
 30
0.0
 11
928.3075149127
 21
597.3009219307
 31
0.0
  0
ELLIPSE
  5
186
330
1F
100
AcDbEntity
  8
0
  6
Continuous
 62
     7
370
    15
100
AcDbEllipse
 10
918.3071389699
 20
597.3012445696
 30
0.0
 11
-9.239207481243739
 21
3.827005044310113
 31
0.0
210
0.0
220
0.0
230
1.0
 40
0.9999553905
 41
2.748909343822791
 42
3.534275963356799
  0
LINE
  5
187
330
1F
100
AcDbEntity
  8
0
  6
Continuous
 62
     7
370
    15
100
AcDbLine
 10
928.3075149127
 20
912.9480471749
 30
0.0
 11
926.7694021531
 21
912.3109331268
 31
0.0
  0
LINE
  5
188
330
1F
100
AcDbEntity
  8
0
  6
Continuous
 62
     7
370
    15
100
AcDbLine
 10
923.8405938216
 20
919.3817278284
 30
0.0
 11
925.3786916801
 21
920.0188418764
 31
0.0
  0
ELLIPSE
  5
189
330
1F
100
AcDbEntity
  8
0
  6
Continuous
 62
     7
370
    15
100
AcDbEllipse
 10
918.3071389699
 20
912.947724536
 30
0.0
 11
-9.239207481243737
 21
-3.827005044309998
 31
0.0
210
0.0
220
0.0
230
1.0
 40
0.9999553905
 41
2.74890934382281
 42
3.534275963356829
  0
LINE
  5
18A
330
1F
100
AcDbEntity
  8
0
  6
Continuous
 62
     7
370
    15
100
AcDbLine
 10
663.1601269313
 20
920.0188418764
 30
0.0
 11
664.6982247897
 21
919.3817278284
 31
0.0
  0
LINE
  5
18B
330
1F
100
AcDbEntity
  8
0
  6
Continuous
 62
     7
370
    15
100
AcDbLine
 10
661.7694164582
 20
912.3109331268
 30
0.0
 11
660.2313036986
 21
912.9480471749
 31
0.0
  0
ELLIPSE
  5
18C
330
1F
100
AcDbEntity
  8
0
  6
Continuous
 62
     7
370
    15
100
AcDbEllipse
 10
670.2316796414
 20
912.947724536
 30
0.0
 11
9.239207481243852
 21
-3.827005044310226
 31
0.0
210
0.0
220
0.0
230
1.0
 40
0.9999553905
 41
2.748909343822797
 42
3.534275963356836
  0
LINE
  5
18D
330
1F
100
AcDbEntity
  8
0
  6
Continuous
 62
     7
370
    15
100
AcDbLine
 10
679.4678161808
 20
573.922430529
 30
0.0
 11
680.1270062991
 21
575.4384597677
 31
0.0
  0
LINE
  5
18E
330
1F
100
AcDbEntity
  8
0
  6
Continuous
 62
     7
370
    15
100
AcDbLine
 10
686.8488232561
 20
572.51573111
 30
0.0
 11
686.1896331378
 21
570.9997018713
 31
0.0
  0
ELLIPSE
  5
18F
330
1F
100
AcDbEntity
  8
0
  6
Continuous
 62
     7
370
    15
100
AcDbEllipse
 10
686.5389445855
 20
580.9939796255
 30
0.0
 11
3.987666085833553
 21
9.171004128371351
 31
0.0
210
0.0
220
0.0
230
1.0
 40
0.9999560152
 41
2.766361863270598
 42
3.516823443908978
  0
LINE
  5
190
330
1F
100
AcDbEntity
  8
0
  6
Continuous
 62
     7
370
    15
100
AcDbLine
 10
902.3491854735
 20
570.9997018713
 30
0.0
 11
901.6899953552
 21
572.51573111
 31
0.0
  0
LINE
  5
191
330
1F
100
AcDbEntity
  8
0
  6
Continuous
 62
     7
370
    15
100
AcDbLine
 10
908.4118123122
 20
575.4384597677
 30
0.0
 11
909.0710024305
 21
573.922430529
 31
0.0
  0
ELLIPSE
  5
192
330
1F
100
AcDbEntity
  8
0
  6
Continuous
 62
     7
370
    15
100
AcDbEllipse
 10
901.9998740258
 20
580.9939796255
 30
0.0
 11
-3.987666085833554
 21
9.171004128371239
 31
0.0
210
0.0
220
0.0
230
1.0
 40
0.9999560152
 41
2.766361863270608
 42
3.516823443908996
  0
LINE
  5
193
330
1F
100
AcDbEntity
  8
0
  6
Continuous
 62
     7
370
    15
100
AcDbLine
 10
909.0710024305
 20
936.3265385765
 30
0.0
 11
908.4118123122
 21
934.8105093378
 31
0.0
  0
LINE
  5
194
330
1F
100
AcDbEntity
  8
0
  6
Continuous
 62
     7
370
    15
100
AcDbLine
 10
901.6899953552
 20
937.7332379955
 30
0.0
 11
902.3491854735
 21
939.2492672342
 31
0.0
  0
ELLIPSE
  5
195
330
1F
100
AcDbEntity
  8
0
  6
Continuous
 62
     7
370
    15
100
AcDbEllipse
 10
901.9998740258
 20
929.2549894801
 30
0.0
 11
-3.987666085833666
 21
-9.171004128371351
 31
0.0
210
0.0
220
0.0
230
1.0
 40
0.9999560152
 41
2.766361863270618
 42
3.516823443908998
  0
LINE
  5
196
330
1F
100
AcDbEntity
  8
0
  6
Continuous
 62
     7
370
    15
100
AcDbLine
 10
686.1896331378
 20
939.2492672342
 30
0.0
 11
686.8488232561
 21
937.7332379955
 31
0.0
  0
LINE
  5
197
330
1F
100
AcDbEntity
  8
0
  6
Continuous
 62
     7
370
    15
100
AcDbLine
 10
680.1270062991
 20
934.8105093378
 30
0.0
 11
679.4678161808
 21
936.3265385765
 31
0.0
  0
ELLIPSE
  5
198
330
1F
100
AcDbEntity
  8
0
  6
Continuous
 62
     7
370
    15
100
AcDbEllipse
 10
686.5389445855
 20
929.2549894801
 30
0.0
 11
3.987666085833553
 21
-9.171004128371351
 31
0.0
210
0.0
220
0.0
230
1.0
 40
0.9999560152
 41
2.766361863270622
 42
3.516823443909002
  0
LINE
  5
199
330
1F
100
AcDbEntity
  8
0
  6
Continuous
 62
     7
370
    15
100
AcDbLine
 10
663.1601269313
 20
590.2301272291
 30
0.0
 11
679.4678161808
 21
573.922430529
 31
0.0
  0
LINE
  5
19A
330
1F
100
AcDbEntity
  8
0
  6
Continuous
 62
     7
370
    15
100
AcDbLine
 10
925.3786916801
 20
590.2301272291
 30
0.0
 11
909.0710024305
 21
573.922430529
 31
0.0
  0
LINE
  5
19B
330
1F
100
AcDbEntity
  8
0
  6
Continuous
 62
     7
370
    15
100
AcDbLine
 10
925.3786916801
 20
920.0188418764
 30
0.0
 11
909.0710024305
 21
936.3265385765
 31
0.0
  0
LINE
  5
19C
330
1F
100
AcDbEntity
  8
0
  6
Continuous
 62
     7
370
    15
100
AcDbLine
 10
928.3075149127
 20
886.348565473
 30
0.0
 11
926.7694021531
 21
883.3484997887
 31
0.0
  0
LINE
  5
19D
330
1F
100
AcDbEntity
  8
0
  6
Continuous
 62
     7
370
    15
100
AcDbLine
 10
928.3075149127
 20
886.348565473
 30
0.0
 11
928.3075149127
 21
912.9480471749
 31
0.0
  0
LINE
  5
19E
330
1F
100
AcDbEntity
  8
0
  6
Continuous
 62
     7
370
    15
100
AcDbLine
 10
663.1601269313
 20
920.0188418764
 30
0.0
 11
679.4678161808
 21
936.3265385765
 31
0.0
  0
LINE
  5
19F
330
1F
100
AcDbEntity
  8
0
  6
Continuous
 62
     7
370
    15
100
AcDbLine
 10
928.3075149127
 20
623.9004036326
 30
0.0
 11
926.7694021531
 21
626.9004693169
 31
0.0
  0
LINE
  5
1A0
330
1F
100
AcDbEntity
  8
0
  6
Continuous
 62
     7
370
    15
100
AcDbLine
 10
928.3075149127
 20
623.9004036326
 30
0.0
 11
928.3075149127
 21
597.3009219307
 31
0.0
  0
LINE
  5
1A1
330
1F
100
AcDbEntity
  8
0
  6
Continuous
 62
     7
370
    15
100
AcDbLine
 10
660.2313036986
 20
623.9004036326
 30
0.0
 11
661.7694164582
 21
626.9004693169
 31
0.0
  0
LINE
  5
1A2
330
1F
100
AcDbEntity
  8
0
  6
Continuous
 62
     7
370
    15
100
AcDbLine
 10
660.2313036986
 20
623.9004036326
 30
0.0
 11
660.2313036986
 21
597.3009219307
 31
0.0
  0
LINE
  5
1A3
330
1F
100
AcDbEntity
  8
0
  6
Continuous
 62
     7
370
    15
100
AcDbLine
 10
660.2313036986
 20
886.348565473
 30
0.0
 11
661.7694164582
 21
883.3484997887
 31
0.0
  0
LINE
  5
1A4
330
1F
100
AcDbEntity
  8
0
  6
Continuous
 62
     7
370
    15
100
AcDbLine
 10
660.2313036986
 20
886.348565473
 30
0.0
 11
660.2313036986
 21
912.9480471749
 31
0.0
  0
LINE
  5
1A5
330
1F
100
AcDbEntity
  8
0
  6
Continuous
 62
     7
370
    15
100
AcDbLine
 10
896.4781950184
 20
570.7946767945
 30
0.0
 11
893.4726755091
 21
572.2287794489
 31
0.0
  0
LINE
  5
1A6
330
1F
100
AcDbEntity
  8
0
  6
Continuous
 62
     7
370
    15
100
AcDbLine
 10
902.3491854735
 20
570.9997018713
 30
0.0
 11
896.4781950184
 21
570.7946767945
 31
0.0
  0
LINE
  5
1A7
330
1F
100
AcDbEntity
  8
0
  6
Continuous
 62
     7
370
    15
100
AcDbLine
 10
692.060623593
 20
570.7946767945
 30
0.0
 11
695.0661431023
 21
572.2287794489
 31
0.0
  0
LINE
  5
1A8
330
1F
100
AcDbEntity
  8
0
  6
Continuous
 62
     7
370
    15
100
AcDbLine
 10
686.1896331378
 20
570.9997018713
 30
0.0
 11
692.060623593
 21
570.7946767945
 31
0.0
  0
LINE
  5
1A9
330
1F
100
AcDbEntity
  8
0
  6
Continuous
 62
     7
370
    15
100
AcDbLine
 10
692.060623593
 20
939.4542923111
 30
0.0
 11
695.0661431023
 21
938.0201896567
 31
0.0
  0
LINE
  5
1AA
330
1F
100
AcDbEntity
  8
0
  6
Continuous
 62
     7
370
    15
100
AcDbLine
 10
686.1896331378
 20
939.2492672342
 30
0.0
 11
692.060623593
 21
939.4542923111
 31
0.0
  0
LINE
  5
1AB
330
1F
100
AcDbEntity
  8
0
  6
Continuous
 62
     7
370
    15
100
AcDbLine
 10
896.4781950184
 20
939.4542923111
 30
0.0
 11
893.4726755091
 21
938.0201896567
 31
0.0
  0
LINE
  5
1AC
330
1F
100
AcDbEntity
  8
0
  6
Continuous
 62
     7
370
    15
100
AcDbLine
 10
902.3491854735
 20
939.2492672342
 30
0.0
 11
896.4781950184
 21
939.4542923111
 31
0.0
  0
LINE
  5
1AD
330
1F
100
AcDbEntity
  8
0
  6
Continuous
 62
     7
370
    15
100
AcDbLine
 10
695.0661431023
 20
572.2287794489
 30
0.0
 11
695.8053152033
 21
558.1244876522
 31
0.0
  0
LINE
  5
1AE
330
1F
100
AcDbEntity
  8
0
  6
Continuous
 62
     7
370
    15
100
AcDbLine
 10
692.5634036728
 20
561.2009366888
 30
0.0
 11
695.8053152033
 21
558.1244876522
 31
0.0
  0
LINE
  5
1AF
330
1F
100
AcDbEntity
  8
0
  6
Continuous
 62
     7
370
    15
100
AcDbLine
 10
692.060623593
 20
570.7946767945
 30
0.0
 11
692.5634036728
 21
561.2009366888
 31
0.0
  0
LINE
  5
1B0
330
1F
100
AcDbEntity
  8
0
  6
Continuous
 62
     7
370
    15
100
AcDbLine
 10
890.7335068055
 20
558.1244876522
 30
0.0
 11
839.7335040339
 21
558.1244876522
 31
0.0
  0
LINE
  5
1B1
330
1F
100
AcDbEntity
  8
0
  6
Continuous
 62
     7
370
    15
100
AcDbLine
 10
890.7335068055
 20
572.133113994
 30
0.0
 11
890.7335068055
 21
558.1244876522
 31
0.0
  0
LINE
  5
1B2
330
1F
100
AcDbEntity
  8
0
  6
Continuous
 62
     7
370
    15
100
AcDbLine
 10
893.4726755091
 20
572.2287794489
 30
0.0
 11
892.7335034081
 21
558.1244876522
 31
0.0
  0
LINE
  5
1B3
330
1F
100
AcDbEntity
  8
0
  6
Continuous
 62
     7
370
    15
100
AcDbLine
 10
892.7335034081
 20
558.1244876522
 30
0.0
 11
941.2694091865
 21
558.1244876522
 31
0.0
  0
LINE
  5
1B4
330
1F
100
AcDbEntity
  8
0
  6
Continuous
 62
     7
370
    15
100
AcDbLine
 10
941.2694091865
 20
558.1244876522
 30
0.0
 11
941.2694091865
 21
627.6603838343
 31
0.0
  0
LINE
  5
1B5
330
1F
100
AcDbEntity
  8
0
  6
Continuous
 62
     7
370
    15
100
AcDbLine
 10
941.2694091865
 20
627.6603838343
 30
0.0
 11
926.7694021531
 21
626.9004693169
 31
0.0
  0
LINE
  5
1B6
330
1F
100
AcDbEntity
  8
0
  6
Continuous
 62
     7
370
    15
100
AcDbLine
 10
941.2694091865
 20
629.6244909901
 30
0.0
 11
926.7694021531
 21
629.6244909901
 31
0.0
  0
LINE
  5
1B7
330
1F
100
AcDbEntity
  8
0
  6
Continuous
 62
     7
370
    15
100
AcDbLine
 10
941.2694091865
 20
680.6244825858
 30
0.0
 11
941.2694091865
 21
629.6244909901
 31
0.0
  0
LINE
  5
1B8
330
1F
100
AcDbEntity
  8
0
  6
Continuous
 62
     7
370
    15
100
AcDbLine
 10
926.7694021531
 20
680.6244825858
 30
0.0
 11
941.2694091865
 21
680.6244825858
 31
0.0
  0
LINE
  5
1B9
330
1F
100
AcDbEntity
  8
0
  6
Continuous
 62
     7
370
    15
100
AcDbLine
 10
941.2694091865
 20
829.6244865197
 30
0.0
 11
926.7694021531
 21
829.6244865197
 31
0.0
  0
LINE
  5
1BA
330
1F
100
AcDbEntity
  8
0
  6
Continuous
 62
     7
370
    15
100
AcDbLine
 10
941.2694091865
 20
880.6244781155
 30
0.0
 11
941.2694091865
 21
829.6244865197
 31
0.0
  0
LINE
  5
1BB
330
1F
100
AcDbEntity
  8
0
  6
Continuous
 62
     7
370
    15
100
AcDbLine
 10
926.7694021531
 20
880.6244781155
 30
0.0
 11
941.2694091865
 21
880.6244781155
 31
0.0
  0
LINE
  5
1BC
330
1F
100
AcDbEntity
  8
0
  6
Continuous
 62
     7
370
    15
100
AcDbLine
 10
941.2694091865
 20
882.5885852713
 30
0.0
 11
926.7694021531
 21
883.3484997887
 31
0.0
  0
LINE
  5
1BD
330
1F
100
AcDbEntity
  8
0
  6
Continuous
 62
     7
370
    15
100
AcDbLine
 10
941.2694091865
 20
952.1244814533
 30
0.0
 11
941.2694091865
 21
882.5885852713
 31
0.0
  0
LINE
  5
1BE
330
1F
100
AcDbEntity
  8
0
  6
Continuous
 62
     7
370
    15
100
AcDbLine
 10
892.7335034081
 20
952.1244814533
 30
0.0
 11
941.2694091865
 21
952.1244814533
 31
0.0
  0
LINE
  5
1BF
330
1F
100
AcDbEntity
  8
0
  6
Continuous
 62
     7
370
    15
100
AcDbLine
 10
893.4726755091
 20
938.0201896567
 30
0.0
 11
892.7335034081
 21
952.1244814533
 31
0.0
  0
LINE
  5
1C0
330
1F
100
AcDbEntity
  8
0
  6
Continuous
 62
     7
370
    15
100
AcDbLine
 10
890.7335068055
 20
952.1244814533
 30
0.0
 11
890.7335068055
 21
938.1158551115
 31
0.0
  0
LINE
  5
1C1
330
1F
100
AcDbEntity
  8
0
  6
Continuous
 62
     7
370
    15
100
AcDbLine
 10
839.7335040339
 20
952.1244814533
 30
0.0
 11
890.7335068055
 21
952.1244814533
 31
0.0
  0
LINE
  5
1C2
330
1F
100
AcDbEntity
  8
0
  6
Continuous
 62
     7
370
    15
100
AcDbLine
 10
839.7335040339
 20
939.8968120951
 30
0.0
 11
839.7335040339
 21
952.1244814533
 31
0.0
  0
LINE
  5
1C3
330
1F
100
AcDbEntity
  8
0
  6
Continuous
 62
     7
370
    15
100
AcDbLine
 10
748.8053145774
 20
939.8968120951
 30
0.0
 11
748.8053145774
 21
952.1244814533
 31
0.0
  0
LINE
  5
1C4
330
1F
100
AcDbEntity
  8
0
  6
Continuous
 62
     7
370
    15
100
AcDbLine
 10
748.8053145774
 20
952.1244814533
 30
0.0
 11
697.8053118058
 21
952.1244814533
 31
0.0
  0
LINE
  5
1C5
330
1F
100
AcDbEntity
  8
0
  6
Continuous
 62
     7
370
    15
100
AcDbLine
 10
697.8053118058
 20
952.1244814533
 30
0.0
 11
697.8053118058
 21
938.1158551115
 31
0.0
  0
LINE
  5
1C6
330
1F
100
AcDbEntity
  8
0
  6
Continuous
 62
     7
370
    15
100
AcDbLine
 10
695.0661431023
 20
938.0201896567
 30
0.0
 11
695.8053152033
 21
952.1244814533
 31
0.0
  0
LINE
  5
1C7
330
1F
100
AcDbEntity
  8
0
  6
Continuous
 62
     7
370
    15
100
AcDbLine
 10
695.8053152033
 20
952.1244814533
 30
0.0
 11
647.2694094249
 21
952.1244814533
 31
0.0
  0
LINE
  5
1C8
330
1F
100
AcDbEntity
  8
0
  6
Continuous
 62
     7
370
    15
100
AcDbLine
 10
647.2694094249
 20
952.1244814533
 30
0.0
 11
647.2694094249
 21
882.5885852713
 31
0.0
  0
LINE
  5
1C9
330
1F
100
AcDbEntity
  8
0
  6
Continuous
 62
     7
370
    15
100
AcDbLine
 10
647.2694094249
 20
882.5885852713
 30
0.0
 11
661.7694164582
 21
883.3484997887
 31
0.0
  0
LINE
  5
1CA
330
1F
100
AcDbEntity
  8
0
  6
Continuous
 62
     7
370
    15
100
AcDbLine
 10
661.7694164582
 20
880.6244781155
 30
0.0
 11
647.2694094249
 21
880.6244781155
 31
0.0
  0
LINE
  5
1CB
330
1F
100
AcDbEntity
  8
0
  6
Continuous
 62
     7
370
    15
100
AcDbLine
 10
647.2694094249
 20
880.6244781155
 30
0.0
 11
647.2694094249
 21
829.6244865197
 31
0.0
  0
LINE
  5
1CC
330
1F
100
AcDbEntity
  8
0
  6
Continuous
 62
     7
370
    15
100
AcDbLine
 10
647.2694094249
 20
829.6244865197
 30
0.0
 11
661.7694164582
 21
829.6244865197
 31
0.0
  0
LINE
  5
1CD
330
1F
100
AcDbEntity
  8
0
  6
Continuous
 62
     7
370
    15
100
AcDbLine
 10
661.7694164582
 20
680.6244825858
 30
0.0
 11
647.2694094249
 21
680.6244825858
 31
0.0
  0
LINE
  5
1CE
330
1F
100
AcDbEntity
  8
0
  6
Continuous
 62
     7
370
    15
100
AcDbLine
 10
647.2694094249
 20
680.6244825858
 30
0.0
 11
647.2694094249
 21
629.6244909901
 31
0.0
  0
LINE
  5
1CF
330
1F
100
AcDbEntity
  8
0
  6
Continuous
 62
     7
370
    15
100
AcDbLine
 10
647.2694094249
 20
629.6244909901
 30
0.0
 11
661.7694164582
 21
629.6244909901
 31
0.0
  0
LINE
  5
1D0
330
1F
100
AcDbEntity
  8
0
  6
Continuous
 62
     7
370
    15
100
AcDbLine
 10
647.2694094249
 20
627.6603838343
 30
0.0
 11
661.7694164582
 21
626.9004693169
 31
0.0
  0
LINE
  5
1D1
330
1F
100
AcDbEntity
  8
0
  6
Continuous
 62
     7
370
    15
100
AcDbLine
 10
647.2694094249
 20
558.1244876522
 30
0.0
 11
647.2694094249
 21
627.6603838343
 31
0.0
  0
LINE
  5
1D2
330
1F
100
AcDbEntity
  8
0
  6
Continuous
 62
     7
370
    15
100
AcDbLine
 10
695.8053152033
 20
558.1244876522
 30
0.0
 11
647.2694094249
 21
558.1244876522
 31
0.0
  0
LINE
  5
1D3
330
1F
100
AcDbEntity
  8
0
  6
Continuous
 62
     7
370
    15
100
AcDbLine
 10
697.8053118058
 20
572.133113994
 30
0.0
 11
697.8053118058
 21
558.1244876522
 31
0.0
  0
LINE
  5
1D4
330
1F
100
AcDbEntity
  8
0
  6
Continuous
 62
     7
370
    15
100
AcDbLine
 10
697.8053118058
 20
558.1244876522
 30
0.0
 11
748.8053145774
 21
558.1244876522
 31
0.0
  0
LINE
  5
1D5
330
1F
100
AcDbEntity
  8
0
  6
Continuous
 62
     7
370
    15
100
AcDbLine
 10
748.8053145774
 20
558.1244876522
 30
0.0
 11
748.8053145774
 21
570.3521570105
 31
0.0
  0
LINE
  5
1D6
330
1F
100
AcDbEntity
  8
0
  6
Continuous
 62
     7
370
    15
100
AcDbLine
 10
839.7335040339
 20
558.1244876522
 30
0.0
 11
839.7335040339
 21
570.3521570105
 31
0.0
  0
ELLIPSE
  5
1D7
330
1F
100
AcDbEntity
  8
0
  6
Continuous
 62
     7
370
    15
100
AcDbEllipse
 10
646.2697139618
 20
557.1247892089
 30
0.0
 11
-1.414644378339176
 21
-1.414644378339062
 31
0.0
210
0.0
220
0.0
230
1.0
 40
0.9996954599
 41
5.497939437029747
 42
7.068431177329519
  0
LINE
  5
1D8
330
1F
100
AcDbEntity
  8
0
  6
Continuous
 62
     7
370
    15
100
AcDbLine
 10
644.2694033452
 20
953.1247964043
 30
0.0
 11
644.2694033452
 21
557.1241727013
 31
0.0
  0
ELLIPSE
  5
1D9
330
1F
100
AcDbEntity
  8
0
  6
Continuous
 62
     7
370
    15
100
AcDbEllipse
 10
646.2697139618
 20
953.1241798967
 30
0.0
 11
-1.414644378339176
 21
1.414644378339176
 31
0.0
210
0.0
220
0.0
230
1.0
 40
0.9996954599
 41
5.497939437029667
 42
7.068431177329463
  0
LINE
  5
1DA
330
1F
100
AcDbEntity
  8
0
  6
Continuous
 62
     7
370
    15
100
AcDbLine
 10
942.2697092362
 20
955.124487533
 30
0.0
 11
646.2691093751
 21
955.124487533
 31
0.0
  0
ELLIPSE
  5
1DB
330
1F
100
AcDbEntity
  8
0
  6
Continuous
 62
     7
370
    15
100
AcDbEllipse
 10
942.2691046496
 20
953.1241798967
 30
0.0
 11
1.414644378339062
 21
1.414644378339176
 31
0.0
210
0.0
220
0.0
230
1.0
 40
0.9996954599
 41
5.497939437029743
 42
7.068431177329476
  0
LINE
  5
1DC
330
1F
100
AcDbEntity
  8
0
  6
Continuous
 62
     7
370
    15
100
AcDbLine
 10
944.2694152661
 20
557.1241727013
 30
0.0
 11
944.2694152661
 21
953.1247964043
 31
0.0
  0
ELLIPSE
  5
1DD
330
1F
100
AcDbEntity
  8
0
  6
Continuous
 62
     7
370
    15
100
AcDbEllipse
 10
942.2691046496
 20
557.1247892089
 30
0.0
 11
1.414644378339176
 21
-1.414644378339062
 31
0.0
210
0.0
220
0.0
230
1.0
 40
0.9996954599
 41
5.497939437029784
 42
7.068431177329378
  0
LINE
  5
1DE
330
1F
100
AcDbEntity
  8
0
  6
Continuous
 62
     7
370
    15
100
AcDbLine
 10
646.2691093751
 20
555.1244815726
 30
0.0
 11
942.2697092362
 21
555.1244815726
 31
0.0
  0
LINE
  5
1DF
330
1F
100
AcDbEntity
  8
0
  6
Continuous
 62
     7
370
    15
100
AcDbLine
 10
896.4781950184
 20
570.7946767945
 30
0.0
 11
895.9754149385
 21
561.2009366888
 31
0.0
  0
LINE
  5
1E0
330
1F
100
AcDbEntity
  8
0
  6
Continuous
 62
     7
370
    15
100
AcDbLine
 10
895.9754149385
 20
561.2009366888
 30
0.0
 11
892.7335034081
 21
558.1244876522
 31
0.0
  0
LINE
  5
1E1
330
1F
100
AcDbEntity
  8
0
  6
Continuous
 62
     7
370
    15
100
AcDbLine
 10
895.9754149385
 20
949.0480324167
 30
0.0
 11
892.7335034081
 21
952.1244814533
 31
0.0
  0
LINE
  5
1E2
330
1F
100
AcDbEntity
  8
0
  6
Continuous
 62
     7
370
    15
100
AcDbLine
 10
896.4781950184
 20
939.4542923111
 30
0.0
 11
895.9754149385
 21
949.0480324167
 31
0.0
  0
LINE
  5
1E3
330
1F
100
AcDbEntity
  8
0
  6
Continuous
 62
     7
370
    15
100
AcDbLine
 10
655.3458685943
 20
624.1564502854
 30
0.0
 11
660.2313036986
 21
623.9004036326
 31
0.0
  0
LINE
  5
1E4
330
1F
100
AcDbEntity
  8
0
  6
Continuous
 62
     7
370
    15
100
AcDbLine
 10
650.2570326396
 20
624.5120813984
 30
0.0
 11
655.3458685943
 21
624.1564502854
 31
0.0
  0
LINE
  5
1E5
330
1F
100
AcDbEntity
  8
0
  6
Continuous
 62
     7
370
    15
100
AcDbLine
 10
650.2570326396
 20
624.5120813984
 30
0.0
 11
647.2694094249
 21
627.6603838343
 31
0.0
  0
LINE
  5
1E6
330
1F
100
AcDbEntity
  8
0
  6
Continuous
 62
     7
370
    15
100
AcDbLine
 10
692.060623593
 20
939.4542923111
 30
0.0
 11
692.5634036728
 21
949.0480324167
 31
0.0
  0
LINE
  5
1E7
330
1F
100
AcDbEntity
  8
0
  6
Continuous
 62
     7
370
    15
100
AcDbLine
 10
692.5634036728
 20
949.0480324167
 30
0.0
 11
695.8053152033
 21
952.1244814533
 31
0.0
  0
LINE
  5
1E8
330
1F
100
AcDbEntity
  8
0
  6
Continuous
 62
     7
370
    15
100
AcDbLine
 10
650.2585972615
 20
885.7385268349
 30
0.0
 11
647.2694094249
 21
882.5885852713
 31
0.0
  0
LINE
  5
1E9
330
1F
100
AcDbEntity
  8
0
  6
Continuous
 62
     7
370
    15
100
AcDbLine
 10
655.4354692765
 20
886.0972275871
 30
0.0
 11
650.2585972615
 21
885.7385268349
 31
0.0
  0
LINE
  5
1EA
330
1F
100
AcDbEntity
  8
0
  6
Continuous
 62
     7
370
    15
100
AcDbLine
 10
655.4354692765
 20
886.0972275871
 30
0.0
 11
660.2313036986
 21
886.348565473
 31
0.0
  0
LINE
  5
1EB
330
1F
100
AcDbEntity
  8
0
  6
Continuous
 62
     7
370
    15
100
AcDbLine
 10
705.2602137395
 20
571.697702064
 30
0.0
 11
739.7794539996
 21
570.4922726292
 31
0.0
  0
LINE
  5
1EC
330
1F
100
AcDbEntity
  8
0
  6
Continuous
 62
     7
370
    15
100
AcDbLine
 10
705.2602137395
 20
571.697702064
 30
0.0
 11
705.9761027761
 21
570.9723731417
 31
0.0
  0
LINE
  5
1ED
330
1F
100
AcDbEntity
  8
0
  6
Continuous
 62
     7
370
    15
100
AcDbLine
 10
705.9761027761
 20
570.9723731417
 30
0.0
 11
698.680203683
 21
571.2271531958
 31
0.0
  0
LINE
  5
1EE
330
1F
100
AcDbEntity
  8
0
  6
Continuous
 62
     7
370
    15
100
AcDbLine
 10
698.680203683
 20
571.2271531958
 30
0.0
 11
697.8053118058
 21
572.133113994
 31
0.0
  0
LINE
  5
1EF
330
1F
100
AcDbEntity
  8
0
  6
Continuous
 62
     7
370
    15
100
AcDbLine
 10
747.9304264256
 20
569.5072909731
 30
0.0
 11
748.8053145774
 21
570.3521570105
 31
0.0
  0
LINE
  5
1F0
330
1F
100
AcDbEntity
  8
0
  6
Continuous
 62
     7
370
    15
100
AcDbLine
 10
747.9304264256
 20
569.5072909731
 30
0.0
 11
739.1258890697
 21
569.8147615332
 31
0.0
  0
LINE
  5
1F1
330
1F
100
AcDbEntity
  8
0
  6
Continuous
 62
     7
370
    15
100
AcDbLine
 10
739.1258890697
 20
569.8147615332
 30
0.0
 11
739.7794539996
 21
570.4922726292
 31
0.0
  0
LINE
  5
1F2
330
1F
100
AcDbEntity
  8
0
  6
Continuous
 62
     7
370
    15
100
AcDbLine
 10
747.9304264256
 20
558.9993646282
 30
0.0
 11
748.8053145774
 21
558.1244876522
 31
0.0
  0
LINE
  5
1F3
330
1F
100
AcDbEntity
  8
0
  6
Continuous
 62
     7
370
    15
100
AcDbLine
 10
747.9304264256
 20
558.9993646282
 30
0.0
 11
747.9304264256
 21
569.5072909731
 31
0.0
  0
LINE
  5
1F4
330
1F
100
AcDbEntity
  8
0
  6
Continuous
 62
     7
370
    15
100
AcDbLine
 10
698.680203683
 20
571.2271531958
 30
0.0
 11
698.680203683
 21
558.9993646282
 31
0.0
  0
LINE
  5
1F5
330
1F
100
AcDbEntity
  8
0
  6
Continuous
 62
     7
370
    15
100
AcDbLine
 10
698.680203683
 20
558.9993646282
 30
0.0
 11
697.8053118058
 21
558.1244876522
 31
0.0
  0
LINE
  5
1F6
330
1F
100
AcDbEntity
  8
0
  6
Continuous
 62
     7
370
    15
100
AcDbLine
 10
889.8586149283
 20
558.9993646282
 30
0.0
 11
890.7335068055
 21
558.1244876522
 31
0.0
  0
LINE
  5
1F7
330
1F
100
AcDbEntity
  8
0
  6
Continuous
 62
     7
370
    15
100
AcDbLine
 10
889.8586149283
 20
571.2271531958
 30
0.0
 11
889.8586149283
 21
558.9993646282
 31
0.0
  0
LINE
  5
1F8
330
1F
100
AcDbEntity
  8
0
  6
Continuous
 62
     7
370
    15
100
AcDbLine
 10
889.8586149283
 20
571.2271531958
 30
0.0
 11
890.7335068055
 21
572.133113994
 31
0.0
  0
LINE
  5
1F9
330
1F
100
AcDbEntity
  8
0
  6
Continuous
 62
     7
370
    15
100
AcDbLine
 10
883.2786048718
 20
571.697702064
 30
0.0
 11
848.7593646117
 21
570.4922726292
 31
0.0
  0
LINE
  5
1FA
330
1F
100
AcDbEntity
  8
0
  6
Continuous
 62
     7
370
    15
100
AcDbLine
 10
848.7593646117
 20
570.4922726292
 30
0.0
 11
849.4129295417
 21
569.8147615332
 31
0.0
  0
LINE
  5
1FB
330
1F
100
AcDbEntity
  8
0
  6
Continuous
 62
     7
370
    15
100
AcDbLine
 10
840.6083921858
 20
569.5072909731
 30
0.0
 11
849.4129295417
 21
569.8147615332
 31
0.0
  0
LINE
  5
1FC
330
1F
100
AcDbEntity
  8
0
  6
Continuous
 62
     7
370
    15
100
AcDbLine
 10
840.6083921858
 20
569.5072909731
 30
0.0
 11
839.7335040339
 21
570.3521570105
 31
0.0
  0
LINE
  5
1FD
330
1F
100
AcDbEntity
  8
0
  6
Continuous
 62
     7
370
    15
100
AcDbLine
 10
882.5627158352
 20
570.9723731417
 30
0.0
 11
889.8586149283
 21
571.2271531958
 31
0.0
  0
LINE
  5
1FE
330
1F
100
AcDbEntity
  8
0
  6
Continuous
 62
     7
370
    15
100
AcDbLine
 10
882.5627158352
 20
570.9723731417
 30
0.0
 11
883.2786048718
 21
571.697702064
 31
0.0
  0
LINE
  5
1FF
330
1F
100
AcDbEntity
  8
0
  6
Continuous
 62
     7
370
    15
100
AcDbLine
 10
840.6083921858
 20
558.9993646282
 30
0.0
 11
840.6083921858
 21
569.5072909731
 31
0.0
  0
LINE
  5
200
330
1F
100
AcDbEntity
  8
0
  6
Continuous
 62
     7
370
    15
100
AcDbLine
 10
840.6083921858
 20
558.9993646282
 30
0.0
 11
839.7335040339
 21
558.1244876522
 31
0.0
  0
LINE
  5
201
330
1F
100
AcDbEntity
  8
0
  6
Continuous
 62
     7
370
    15
100
AcDbLine
 10
648.1443013021
 20
830.4993709463
 30
0.0
 11
647.2694094249
 21
829.6244865197
 31
0.0
  0
LINE
  5
202
330
1F
100
AcDbEntity
  8
0
  6
Continuous
 62
     7
370
    15
100
AcDbLine
 10
648.1443013021
 20
830.4993709463
 30
0.0
 11
660.8945245811
 21
830.4993709463
 31
0.0
  0
LINE
  5
203
330
1F
100
AcDbEntity
  8
0
  6
Continuous
 62
     7
370
    15
100
AcDbLine
 10
660.8945245811
 20
830.4993709463
 30
0.0
 11
661.7694164582
 21
829.6244865197
 31
0.0
  0
LINE
  5
204
330
1F
100
AcDbEntity
  8
0
  6
Continuous
 62
     7
370
    15
100
AcDbLine
 10
660.8945245811
 20
879.7496011395
 30
0.0
 11
661.7694164582
 21
880.6244781155
 31
0.0
  0
LINE
  5
205
330
1F
100
AcDbEntity
  8
0
  6
Continuous
 62
     7
370
    15
100
AcDbLine
 10
660.8945245811
 20
830.4993709463
 30
0.0
 11
660.8945245811
 21
836.9126966137
 31
0.0
  0
LINE
  5
206
330
1F
100
AcDbEntity
  8
0
  6
Continuous
 62
     7
370
    15
100
AcDbLine
 10
661.5944321223
 20
836.229940309
 30
0.0
 11
660.8945245811
 21
836.9126966137
 31
0.0
  0
LINE
  5
207
330
1F
100
AcDbEntity
  8
0
  6
Continuous
 62
     7
370
    15
100
AcDbLine
 10
661.5944321223
 20
874.0190243262
 30
0.0
 11
661.5944321223
 21
836.229940309
 31
0.0
  0
LINE
  5
208
330
1F
100
AcDbEntity
  8
0
  6
Continuous
 62
     7
370
    15
100
AcDbLine
 10
660.8945245811
 20
873.3362754721
 30
0.0
 11
661.5944321223
 21
874.0190243262
 31
0.0
  0
LINE
  5
209
330
1F
100
AcDbEntity
  8
0
  6
Continuous
 62
     7
370
    15
100
AcDbLine
 10
660.8945245811
 20
873.3362754721
 30
0.0
 11
660.8945245811
 21
879.7496011395
 31
0.0
  0
LINE
  5
20A
330
1F
100
AcDbEntity
  8
0
  6
Continuous
 62
     7
370
    15
100
AcDbLine
 10
660.8945245811
 20
879.7496011395
 30
0.0
 11
648.1443013021
 21
879.7496011395
 31
0.0
  0
LINE
  5
20B
330
1F
100
AcDbEntity
  8
0
  6
Continuous
 62
     7
370
    15
100
AcDbLine
 10
648.1443013021
 20
879.7496011395
 30
0.0
 11
647.2694094249
 21
880.6244781155
 31
0.0
  0
LINE
  5
20C
330
1F
100
AcDbEntity
  8
0
  6
Continuous
 62
     7
370
    15
100
AcDbLine
 10
661.5944321223
 20
674.0190287966
 30
0.0
 11
661.5944321223
 21
636.2299447793
 31
0.0
  0
LINE
  5
20D
330
1F
100
AcDbEntity
  8
0
  6
Continuous
 62
     7
370
    15
100
AcDbLine
 10
661.5944321223
 20
674.0190287966
 30
0.0
 11
660.8945245811
 21
673.3362724919
 31
0.0
  0
LINE
  5
20E
330
1F
100
AcDbEntity
  8
0
  6
Continuous
 62
     7
370
    15
100
AcDbLine
 10
660.8945245811
 20
673.3362724919
 30
0.0
 11
660.8945245811
 21
679.7495981592
 31
0.0
  0
LINE
  5
20F
330
1F
100
AcDbEntity
  8
0
  6
Continuous
 62
     7
370
    15
100
AcDbLine
 10
660.8945245811
 20
679.7495981592
 30
0.0
 11
661.7694164582
 21
680.6244825858
 31
0.0
  0
LINE
  5
210
330
1F
100
AcDbEntity
  8
0
  6
Continuous
 62
     7
370
    15
100
AcDbLine
 10
660.8945245811
 20
630.4993679661
 30
0.0
 11
661.7694164582
 21
629.6244909901
 31
0.0
  0
LINE
  5
211
330
1F
100
AcDbEntity
  8
0
  6
Continuous
 62
     7
370
    15
100
AcDbLine
 10
660.8945245811
 20
630.4993679661
 30
0.0
 11
660.8945245811
 21
636.9126936335
 31
0.0
  0
LINE
  5
212
330
1F
100
AcDbEntity
  8
0
  6
Continuous
 62
     7
370
    15
100
AcDbLine
 10
660.8945245811
 20
636.9126936335
 30
0.0
 11
661.5944321223
 21
636.2299447793
 31
0.0
  0
LINE
  5
213
330
1F
100
AcDbEntity
  8
0
  6
Continuous
 62
     7
370
    15
100
AcDbLine
 10
648.1443013021
 20
630.4993679661
 30
0.0
 11
647.2694094249
 21
629.6244909901
 31
0.0
  0
LINE
  5
214
330
1F
100
AcDbEntity
  8
0
  6
Continuous
 62
     7
370
    15
100
AcDbLine
 10
648.1443013021
 20
630.4993679661
 30
0.0
 11
660.8945245811
 21
630.4993679661
 31
0.0
  0
LINE
  5
215
330
1F
100
AcDbEntity
  8
0
  6
Continuous
 62
     7
370
    15
100
AcDbLine
 10
660.8945245811
 20
679.7495981592
 30
0.0
 11
648.1443013021
 21
679.7495981592
 31
0.0
  0
LINE
  5
216
330
1F
100
AcDbEntity
  8
0
  6
Continuous
 62
     7
370
    15
100
AcDbLine
 10
648.1443013021
 20
679.7495981592
 30
0.0
 11
647.2694094249
 21
680.6244825858
 31
0.0
  0
LINE
  5
217
330
1F
100
AcDbEntity
  8
0
  6
Continuous
 62
     7
370
    15
100
AcDbLine
 10
938.2802213498
 20
624.5104422707
 30
0.0
 11
941.2694091865
 21
627.6603838343
 31
0.0
  0
LINE
  5
218
330
1F
100
AcDbEntity
  8
0
  6
Continuous
 62
     7
370
    15
100
AcDbLine
 10
933.1033493348
 20
624.1517415184
 30
0.0
 11
938.2802213498
 21
624.5104422707
 31
0.0
  0
LINE
  5
219
330
1F
100
AcDbEntity
  8
0
  6
Continuous
 62
     7
370
    15
100
AcDbLine
 10
933.1033493348
 20
624.1517415184
 30
0.0
 11
928.3075149127
 21
623.9004036326
 31
0.0
  0
LINE
  5
21A
330
1F
100
AcDbEntity
  8
0
  6
Continuous
 62
     7
370
    15
100
AcDbLine
 10
927.6442940303
 20
836.9126966137
 30
0.0
 11
926.944386489
 21
836.229940309
 31
0.0
  0
LINE
  5
21B
330
1F
100
AcDbEntity
  8
0
  6
Continuous
 62
     7
370
    15
100
AcDbLine
 10
927.6442940303
 20
830.4993709463
 30
0.0
 11
927.6442940303
 21
836.9126966137
 31
0.0
  0
LINE
  5
21C
330
1F
100
AcDbEntity
  8
0
  6
Continuous
 62
     7
370
    15
100
AcDbLine
 10
927.6442940303
 20
830.4993709463
 30
0.0
 11
926.7694021531
 21
829.6244865197
 31
0.0
  0
LINE
  5
21D
330
1F
100
AcDbEntity
  8
0
  6
Continuous
 62
     7
370
    15
100
AcDbLine
 10
927.6442940303
 20
879.7496011395
 30
0.0
 11
926.7694021531
 21
880.6244781155
 31
0.0
  0
LINE
  5
21E
330
1F
100
AcDbEntity
  8
0
  6
Continuous
 62
     7
370
    15
100
AcDbLine
 10
927.6442940303
 20
873.3362754721
 30
0.0
 11
927.6442940303
 21
879.7496011395
 31
0.0
  0
LINE
  5
21F
330
1F
100
AcDbEntity
  8
0
  6
Continuous
 62
     7
370
    15
100
AcDbLine
 10
926.944386489
 20
874.0190243262
 30
0.0
 11
927.6442940303
 21
873.3362754721
 31
0.0
  0
LINE
  5
220
330
1F
100
AcDbEntity
  8
0
  6
Continuous
 62
     7
370
    15
100
AcDbLine
 10
926.944386489
 20
874.0190243262
 30
0.0
 11
926.944386489
 21
836.229940309
 31
0.0
  0
LINE
  5
221
330
1F
100
AcDbEntity
  8
0
  6
Continuous
 62
     7
370
    15
100
AcDbLine
 10
940.3945173093
 20
879.7496011395
 30
0.0
 11
941.2694091865
 21
880.6244781155
 31
0.0
  0
LINE
  5
222
330
1F
100
AcDbEntity
  8
0
  6
Continuous
 62
     7
370
    15
100
AcDbLine
 10
927.6442940303
 20
879.7496011395
 30
0.0
 11
940.3945173093
 21
879.7496011395
 31
0.0
  0
LINE
  5
223
330
1F
100
AcDbEntity
  8
0
  6
Continuous
 62
     7
370
    15
100
AcDbLine
 10
882.5627158352
 20
939.2765959639
 30
0.0
 11
883.2786048718
 21
938.5512670416
 31
0.0
  0
LINE
  5
224
330
1F
100
AcDbEntity
  8
0
  6
Continuous
 62
     7
370
    15
100
AcDbLine
 10
889.8586149283
 20
939.0218159098
 30
0.0
 11
882.5627158352
 21
939.2765959639
 31
0.0
  0
LINE
  5
225
330
1F
100
AcDbEntity
  8
0
  6
Continuous
 62
     7
370
    15
100
AcDbLine
 10
889.8586149283
 20
939.0218159098
 30
0.0
 11
890.7335068055
 21
938.1158551115
 31
0.0
  0
LINE
  5
226
330
1F
100
AcDbEntity
  8
0
  6
Continuous
 62
     7
370
    15
100
AcDbLine
 10
840.6083921858
 20
940.7416781325
 30
0.0
 11
839.7335040339
 21
939.8968120951
 31
0.0
  0
LINE
  5
227
330
1F
100
AcDbEntity
  8
0
  6
Continuous
 62
     7
370
    15
100
AcDbLine
 10
849.4129295417
 20
940.4342075724
 30
0.0
 11
840.6083921858
 21
940.7416781325
 31
0.0
  0
LINE
  5
228
330
1F
100
AcDbEntity
  8
0
  6
Continuous
 62
     7
370
    15
100
AcDbLine
 10
848.7593646117
 20
939.7566964764
 30
0.0
 11
849.4129295417
 21
940.4342075724
 31
0.0
  0
LINE
  5
229
330
1F
100
AcDbEntity
  8
0
  6
Continuous
 62
     7
370
    15
100
AcDbLine
 10
848.7593646117
 20
939.7566964764
 30
0.0
 11
883.2786048718
 21
938.5512670416
 31
0.0
  0
LINE
  5
22A
330
1F
100
AcDbEntity
  8
0
  6
Continuous
 62
     7
370
    15
100
AcDbLine
 10
889.8586149283
 20
951.2496044773
 30
0.0
 11
889.8586149283
 21
939.0218159098
 31
0.0
  0
LINE
  5
22B
330
1F
100
AcDbEntity
  8
0
  6
Continuous
 62
     7
370
    15
100
AcDbLine
 10
889.8586149283
 20
951.2496044773
 30
0.0
 11
890.7335068055
 21
952.1244814533
 31
0.0
  0
LINE
  5
22C
330
1F
100
AcDbEntity
  8
0
  6
Continuous
 62
     7
370
    15
100
AcDbLine
 10
648.1443013021
 20
879.7496011395
 30
0.0
 11
648.1443013021
 21
830.4993709463
 31
0.0
  0
LINE
  5
22D
330
1F
100
AcDbEntity
  8
0
  6
Continuous
 62
     7
370
    15
100
AcDbLine
 10
940.3945173093
 20
630.4993679661
 30
0.0
 11
941.2694091865
 21
629.6244909901
 31
0.0
  0
LINE
  5
22E
330
1F
100
AcDbEntity
  8
0
  6
Continuous
 62
     7
370
    15
100
AcDbLine
 10
940.3945173093
 20
679.7495981592
 30
0.0
 11
940.3945173093
 21
630.4993679661
 31
0.0
  0
LINE
  5
22F
330
1F
100
AcDbEntity
  8
0
  6
Continuous
 62
     7
370
    15
100
AcDbLine
 10
940.3945173093
 20
679.7495981592
 30
0.0
 11
941.2694091865
 21
680.6244825858
 31
0.0
  0
LINE
  5
230
330
1F
100
AcDbEntity
  8
0
  6
Continuous
 62
     7
370
    15
100
AcDbLine
 10
940.3945173093
 20
830.4993709463
 30
0.0
 11
941.2694091865
 21
829.6244865197
 31
0.0
  0
LINE
  5
231
330
1F
100
AcDbEntity
  8
0
  6
Continuous
 62
     7
370
    15
100
AcDbLine
 10
940.3945173093
 20
879.7496011395
 30
0.0
 11
940.3945173093
 21
830.4993709463
 31
0.0
  0
LINE
  5
232
330
1F
100
AcDbEntity
  8
0
  6
Continuous
 62
     7
370
    15
100
AcDbLine
 10
747.9304264256
 20
940.7416781325
 30
0.0
 11
748.8053145774
 21
939.8968120951
 31
0.0
  0
LINE
  5
233
330
1F
100
AcDbEntity
  8
0
  6
Continuous
 62
     7
370
    15
100
AcDbLine
 10
747.9304264256
 20
940.7416781325
 30
0.0
 11
747.9304264256
 21
951.2496044773
 31
0.0
  0
LINE
  5
234
330
1F
100
AcDbEntity
  8
0
  6
Continuous
 62
     7
370
    15
100
AcDbLine
 10
747.9304264256
 20
951.2496044773
 30
0.0
 11
748.8053145774
 21
952.1244814533
 31
0.0
  0
LINE
  5
235
330
1F
100
AcDbEntity
  8
0
  6
Continuous
 62
     7
370
    15
100
AcDbLine
 10
889.8586149283
 20
558.9993646282
 30
0.0
 11
840.6083921858
 21
558.9993646282
 31
0.0
  0
LINE
  5
236
330
1F
100
AcDbEntity
  8
0
  6
Continuous
 62
     7
370
    15
100
AcDbLine
 10
747.9304264256
 20
951.2496044773
 30
0.0
 11
698.680203683
 21
951.2496044773
 31
0.0
  0
LINE
  5
237
330
1F
100
AcDbEntity
  8
0
  6
Continuous
 62
     7
370
    15
100
AcDbLine
 10
698.680203683
 20
951.2496044773
 30
0.0
 11
697.8053118058
 21
952.1244814533
 31
0.0
  0
LINE
  5
238
330
1F
100
AcDbEntity
  8
0
  6
Continuous
 62
     7
370
    15
100
AcDbLine
 10
927.6442940303
 20
679.7495981592
 30
0.0
 11
940.3945173093
 21
679.7495981592
 31
0.0
  0
LINE
  5
239
330
1F
100
AcDbEntity
  8
0
  6
Continuous
 62
     7
370
    15
100
AcDbLine
 10
927.6442940303
 20
679.7495981592
 30
0.0
 11
926.7694021531
 21
680.6244825858
 31
0.0
  0
LINE
  5
23A
330
1F
100
AcDbEntity
  8
0
  6
Continuous
 62
     7
370
    15
100
AcDbLine
 10
648.1443013021
 20
679.7495981592
 30
0.0
 11
648.1443013021
 21
630.4993679661
 31
0.0
  0
LINE
  5
23B
330
1F
100
AcDbEntity
  8
0
  6
Continuous
 62
     7
370
    15
100
AcDbLine
 10
940.3945173093
 20
830.4993709463
 30
0.0
 11
927.6442940303
 21
830.4993709463
 31
0.0
  0
LINE
  5
23C
330
1F
100
AcDbEntity
  8
0
  6
Continuous
 62
     7
370
    15
100
AcDbLine
 10
840.6083921858
 20
951.2496044773
 30
0.0
 11
889.8586149283
 21
951.2496044773
 31
0.0
  0
LINE
  5
23D
330
1F
100
AcDbEntity
  8
0
  6
Continuous
 62
     7
370
    15
100
AcDbLine
 10
840.6083921858
 20
951.2496044773
 30
0.0
 11
839.7335040339
 21
952.1244814533
 31
0.0
  0
LINE
  5
23E
330
1F
100
AcDbEntity
  8
0
  6
Continuous
 62
     7
370
    15
100
AcDbLine
 10
840.6083921858
 20
940.7416781325
 30
0.0
 11
840.6083921858
 21
951.2496044773
 31
0.0
  0
LINE
  5
23F
330
1F
100
AcDbEntity
  8
0
  6
Continuous
 62
     7
370
    15
100
AcDbLine
 10
698.680203683
 20
558.9993646282
 30
0.0
 11
747.9304264256
 21
558.9993646282
 31
0.0
  0
LINE
  5
240
330
1F
100
AcDbEntity
  8
0
  6
Continuous
 62
     7
370
    15
100
AcDbLine
 10
938.2817859717
 20
885.7368877072
 30
0.0
 11
941.2694091865
 21
882.5885852713
 31
0.0
  0
LINE
  5
241
330
1F
100
AcDbEntity
  8
0
  6
Continuous
 62
     7
370
    15
100
AcDbLine
 10
938.2817859717
 20
949.1368582386
 30
0.0
 11
938.2817859717
 21
885.7368877072
 31
0.0
  0
LINE
  5
242
330
1F
100
AcDbEntity
  8
0
  6
Continuous
 62
     7
370
    15
100
AcDbLine
 10
938.2817859717
 20
949.1368582386
 30
0.0
 11
941.2694091865
 21
952.1244814533
 31
0.0
  0
LINE
  5
243
330
1F
100
AcDbEntity
  8
0
  6
Continuous
 62
     7
370
    15
100
AcDbLine
 10
698.680203683
 20
951.2496044773
 30
0.0
 11
698.680203683
 21
939.0218159098
 31
0.0
  0
LINE
  5
244
330
1F
100
AcDbEntity
  8
0
  6
Continuous
 62
     7
370
    15
100
AcDbLine
 10
698.680203683
 20
939.0218159098
 30
0.0
 11
697.8053118058
 21
938.1158551115
 31
0.0
  0
LINE
  5
245
330
1F
100
AcDbEntity
  8
0
  6
Continuous
 62
     7
370
    15
100
AcDbLine
 10
938.2802213498
 20
561.1136754889
 30
0.0
 11
941.2694091865
 21
558.1244876522
 31
0.0
  0
LINE
  5
246
330
1F
100
AcDbEntity
  8
0
  6
Continuous
 62
     7
370
    15
100
AcDbLine
 10
938.2802213498
 20
624.5104422707
 30
0.0
 11
938.2802213498
 21
561.1136754889
 31
0.0
  0
LINE
  5
247
330
1F
100
AcDbEntity
  8
0
  6
Continuous
 62
     7
370
    15
100
AcDbLine
 10
933.1929500171
 20
886.0925188202
 30
0.0
 11
928.3075149127
 21
886.348565473
 31
0.0
  0
LINE
  5
248
330
1F
100
AcDbEntity
  8
0
  6
Continuous
 62
     7
370
    15
100
AcDbLine
 10
938.2817859717
 20
885.7368877072
 30
0.0
 11
933.1929500171
 21
886.0925188202
 31
0.0
  0
LINE
  5
249
330
1F
100
AcDbEntity
  8
0
  6
Continuous
 62
     7
370
    15
100
AcDbLine
 10
650.2585972615
 20
949.1352936167
 30
0.0
 11
647.2694094249
 21
952.1244814533
 31
0.0
  0
LINE
  5
24A
330
1F
100
AcDbEntity
  8
0
  6
Continuous
 62
     7
370
    15
100
AcDbLine
 10
650.2585972615
 20
885.7385268349
 30
0.0
 11
650.2585972615
 21
949.1352936167
 31
0.0
  0
LINE
  5
24B
330
1F
100
AcDbEntity
  8
0
  6
Continuous
 62
     7
370
    15
100
AcDbLine
 10
933.1929500171
 20
949.0480324167
 30
0.0
 11
938.2817859717
 21
949.1368582386
 31
0.0
  0
LINE
  5
24C
330
1F
100
AcDbEntity
  8
0
  6
Continuous
 62
     7
370
    15
100
AcDbLine
 10
895.9754149385
 20
949.0480324167
 30
0.0
 11
933.1929500171
 21
949.0480324167
 31
0.0
  0
LINE
  5
24D
330
1F
100
AcDbEntity
  8
0
  6
Continuous
 62
     7
370
    15
100
AcDbLine
 10
650.2570326396
 20
561.1121108669
 30
0.0
 11
650.2570326396
 21
624.5120813984
 31
0.0
  0
LINE
  5
24E
330
1F
100
AcDbEntity
  8
0
  6
Continuous
 62
     7
370
    15
100
AcDbLine
 10
650.2570326396
 20
561.1121108669
 30
0.0
 11
647.2694094249
 21
558.1244876522
 31
0.0
  0
LINE
  5
24F
330
1F
100
AcDbEntity
  8
0
  6
Continuous
 62
     7
370
    15
100
AcDbLine
 10
692.5634036728
 20
949.0480324167
 30
0.0
 11
655.4354692765
 21
949.0480324167
 31
0.0
  0
LINE
  5
250
330
1F
100
AcDbEntity
  8
0
  6
Continuous
 62
     7
370
    15
100
AcDbLine
 10
650.2585972615
 20
949.1352936167
 30
0.0
 11
655.4354692765
 21
949.0480324167
 31
0.0
  0
LINE
  5
251
330
1F
100
AcDbEntity
  8
0
  6
Continuous
 62
     7
370
    15
100
AcDbLine
 10
895.9754149385
 20
561.2009366888
 30
0.0
 11
933.1033493348
 21
561.2009366888
 31
0.0
  0
LINE
  5
252
330
1F
100
AcDbEntity
  8
0
  6
Continuous
 62
     7
370
    15
100
AcDbLine
 10
938.2802213498
 20
561.1136754889
 30
0.0
 11
933.1033493348
 21
561.2009366888
 31
0.0
  0
LINE
  5
253
330
1F
100
AcDbEntity
  8
0
  6
Continuous
 62
     7
370
    15
100
AcDbLine
 10
655.3458685943
 20
561.2009366888
 30
0.0
 11
650.2570326396
 21
561.1121108669
 31
0.0
  0
LINE
  5
254
330
1F
100
AcDbEntity
  8
0
  6
Continuous
 62
     7
370
    15
100
AcDbLine
 10
692.5634036728
 20
561.2009366888
 30
0.0
 11
655.3458685943
 21
561.2009366888
 31
0.0
  0
LINE
  5
255
330
1F
100
AcDbEntity
  8
0
  6
Continuous
 62
     7
370
    15
100
AcDbLine
 10
927.6442940303
 20
630.4993679661
 30
0.0
 11
926.7694021531
 21
629.6244909901
 31
0.0
  0
LINE
  5
256
330
1F
100
AcDbEntity
  8
0
  6
Continuous
 62
     7
370
    15
100
AcDbLine
 10
940.3945173093
 20
630.4993679661
 30
0.0
 11
927.6442940303
 21
630.4993679661
 31
0.0
  0
LINE
  5
257
330
1F
100
AcDbEntity
  8
0
  6
Continuous
 62
     7
370
    15
100
AcDbLine
 10
739.1258890697
 20
940.4342075724
 30
0.0
 11
739.7794539996
 21
939.7566964764
 31
0.0
  0
LINE
  5
258
330
1F
100
AcDbEntity
  8
0
  6
Continuous
 62
     7
370
    15
100
AcDbLine
 10
739.1258890697
 20
940.4342075724
 30
0.0
 11
747.9304264256
 21
940.7416781325
 31
0.0
  0
LINE
  5
259
330
1F
100
AcDbEntity
  8
0
  6
Continuous
 62
     7
370
    15
100
AcDbLine
 10
698.680203683
 20
939.0218159098
 30
0.0
 11
705.9761027761
 21
939.2765959639
 31
0.0
  0
LINE
  5
25A
330
1F
100
AcDbEntity
  8
0
  6
Continuous
 62
     7
370
    15
100
AcDbLine
 10
705.2602137395
 20
938.5512670416
 30
0.0
 11
705.9761027761
 21
939.2765959639
 31
0.0
  0
LINE
  5
25B
330
1F
100
AcDbEntity
  8
0
  6
Continuous
 62
     7
370
    15
100
AcDbLine
 10
739.7794539996
 20
939.7566964764
 30
0.0
 11
705.2602137395
 21
938.5512670416
 31
0.0
  0
LINE
  5
25C
330
1F
100
AcDbEntity
  8
0
  6
Continuous
 62
     7
370
    15
100
AcDbLine
 10
927.6442940303
 20
630.4993679661
 30
0.0
 11
927.6442940303
 21
636.9126936335
 31
0.0
  0
LINE
  5
25D
330
1F
100
AcDbEntity
  8
0
  6
Continuous
 62
     7
370
    15
100
AcDbLine
 10
927.6442940303
 20
673.3362724919
 30
0.0
 11
927.6442940303
 21
679.7495981592
 31
0.0
  0
LINE
  5
25E
330
1F
100
AcDbEntity
  8
0
  6
Continuous
 62
     7
370
    15
100
AcDbLine
 10
927.6442940303
 20
673.3362724919
 30
0.0
 11
926.944386489
 21
674.0190287966
 31
0.0
  0
LINE
  5
25F
330
1F
100
AcDbEntity
  8
0
  6
Continuous
 62
     7
370
    15
100
AcDbLine
 10
926.944386489
 20
674.0190287966
 30
0.0
 11
926.944386489
 21
636.2299447793
 31
0.0
  0
LINE
  5
260
330
1F
100
AcDbEntity
  8
0
  6
Continuous
 62
     7
370
    15
100
AcDbLine
 10
926.944386489
 20
636.2299447793
 30
0.0
 11
927.6442940303
 21
636.9126936335
 31
0.0
  0
LINE
  5
261
330
1F
100
AcDbEntity
  8
0
  6
Continuous
 62
     7
370
    15
100
AcDbLine
 10
710.6126512357
 20
567.5906291145
 30
0.0
 11
705.2602137395
 21
571.697702064
 31
0.0
  0
LINE
  5
262
330
1F
100
AcDbEntity
  8
0
  6
Continuous
 62
     7
370
    15
100
AcDbLine
 10
710.5652506419
 20
567.450990333
 30
0.0
 11
710.6126512357
 21
567.5906291145
 31
0.0
  0
LINE
  5
263
330
1F
100
AcDbEntity
  8
0
  6
Continuous
 62
     7
370
    15
100
AcDbLine
 10
705.9761027761
 20
570.9723731417
 30
0.0
 11
710.5652506419
 21
567.450990333
 31
0.0
  0
ELLIPSE
  5
264
330
1F
100
AcDbEntity
  8
0
  6
Continuous
 62
     7
370
    15
100
AcDbEllipse
 10
716.7003738847
 20
575.5260078332
 30
0.0
 11
3.214940711794725
 21
9.470909932193649
 31
0.0
210
0.0
220
0.0
230
1.0
 40
0.9998301497
 41
2.814395118915043
 42
3.468790188264593
  0
LINE
  5
265
330
1F
100
AcDbEntity
  8
0
  6
Continuous
 62
     7
370
    15
100
AcDbLine
 10
739.7794539996
 20
570.4922726292
 30
0.0
 11
735.9979751476
 21
567.5906291145
 31
0.0
  0
ELLIPSE
  5
266
330
1F
100
AcDbEntity
  8
0
  6
Continuous
 62
     7
370
    15
100
AcDbEllipse
 10
729.9102545394
 20
575.5260078332
 30
0.0
 11
-3.214940711794725
 21
9.470909932193649
 31
0.0
210
0.0
220
0.0
230
1.0
 40
0.9998301497
 41
2.814395118915013
 42
3.468790188264552
  0
LINE
  5
267
330
1F
100
AcDbEntity
  8
0
  6
Continuous
 62
     7
370
    15
100
AcDbLine
 10
729.9112866589
 20
565.5244788069
 30
0.0
 11
716.6993434497
 21
565.5244788069
 31
0.0
  0
LINE
  5
268
330
1F
100
AcDbEntity
  8
0
  6
Continuous
 62
     7
370
    15
100
AcDbLine
 10
931.8429048129
 20
867.86454673
 30
0.0
 11
927.6442940303
 21
873.3362754721
 31
0.0
  0
LINE
  5
269
330
1F
100
AcDbEntity
  8
0
  6
Continuous
 62
     7
370
    15
100
AcDbLine
 10
931.7032511302
 20
867.8171461362
 30
0.0
 11
931.8429048129
 21
867.86454673
 31
0.0
  0
LINE
  5
26A
330
1F
100
AcDbEntity
  8
0
  6
Continuous
 62
     7
370
    15
100
AcDbLine
 10
926.944386489
 20
874.0190243262
 30
0.0
 11
931.7032511302
 21
867.8171461362
 31
0.0
  0
ELLIPSE
  5
26B
330
1F
100
AcDbEntity
  8
0
  6
Continuous
 62
     7
370
    15
100
AcDbEllipse
 10
923.7678860252
 20
848.5195442254
 30
0.0
 11
-9.470909932193763
 21
3.214940711794725
 31
0.0
210
0.0
220
0.0
230
1.0
 40
0.9998301497
 41
2.81439511891504
 42
3.468790188264588
  0
LINE
  5
26C
330
1F
100
AcDbEntity
  8
0
  6
Continuous
 62
     7
370
    15
100
AcDbLine
 10
931.7032511302
 20
842.4318259496
 30
0.0
 11
926.944386489
 21
836.229940309
 31
0.0
  0
ELLIPSE
  5
26D
330
1F
100
AcDbEntity
  8
0
  6
Continuous
 62
     7
370
    15
100
AcDbEllipse
 10
923.7678860252
 20
861.7294248801
 30
0.0
 11
-9.470909932193763
 21
-3.214940711794612
 31
0.0
210
0.0
220
0.0
230
1.0
 40
0.9998301497
 41
2.814395118915022
 42
3.468790188264581
  0
LINE
  5
26E
330
1F
100
AcDbEntity
  8
0
  6
Continuous
 62
     7
370
    15
100
AcDbLine
 10
933.769416339
 20
861.7304613728
 30
0.0
 11
933.769416339
 21
848.518510713
 31
0.0
  0
CIRCLE
  5
26F
330
1F
100
AcDbEntity
  8
0
  6
Continuous
 62
     7
370
    15
100
AcDbCircle
 10
933.7694093057
 20
837.6244845528
 30
0.0
 40
4.0
  0
CIRCLE
  5
270
330
1F
100
AcDbEntity
  8
0
  6
Continuous
 62
     7
370
    15
100
AcDbCircle
 10
933.7694093057
 20
837.6244845528
 30
0.0
 40
3.580737765735762
  0
CIRCLE
  5
271
330
1F
100
AcDbEntity
  8
0
  6
Continuous
 62
     7
370
    15
100
AcDbCircle
 10
933.7694093057
 20
872.6244845528
 30
0.0
 40
4.0
  0
CIRCLE
  5
272
330
1F
100
AcDbEntity
  8
0
  6
Continuous
 62
     7
370
    15
100
AcDbCircle
 10
933.7694093057
 20
872.6244845528
 30
0.0
 40
3.580737765735762
  0
LINE
  5
273
330
1F
100
AcDbEntity
  8
0
  6
Continuous
 62
     7
370
    15
100
AcDbLine
 10
852.49344287
 20
567.450990333
 30
0.0
 11
852.5408434638
 21
567.5906291145
 31
0.0
  0
ELLIPSE
  5
274
330
1F
100
AcDbEntity
  8
0
  6
Continuous
 62
     7
370
    15
100
AcDbEllipse
 10
858.628564072
 20
575.5260078332
 30
0.0
 11
3.214940711794497
 21
9.470909932193649
 31
0.0
210
0.0
220
0.0
230
1.0
 40
0.9998301497
 41
2.81439511891503
 42
3.468790188264562
  0
LINE
  5
275
330
1F
100
AcDbEntity
  8
0
  6
Continuous
 62
     7
370
    15
100
AcDbLine
 10
858.6275319525
 20
565.5244788069
 30
0.0
 11
858.5801313587
 21
565.3848400253
 31
0.0
  0
ELLIPSE
  5
276
330
1F
100
AcDbEntity
  8
0
  6
Continuous
 62
     7
370
    15
100
AcDbEllipse
 10
858.5811625029
 20
575.3863673138
 30
0.0
 11
3.214940711794612
 21
9.470909932193763
 31
0.0
210
0.0
220
0.0
230
1.0
 40
0.9998301497
 41
2.814395118915035
 42
3.468790188264571
  0
LINE
  5
277
330
1F
100
AcDbEntity
  8
0
  6
Continuous
 62
     7
370
    15
100
AcDbLine
 10
933.769416339
 20
848.518510713
 30
0.0
 11
933.9090551206
 21
848.4711101193
 31
0.0
  0
LINE
  5
278
330
1F
100
AcDbEntity
  8
0
  6
Continuous
 62
     7
370
    15
100
AcDbLine
 10
933.9090551206
 20
861.7778619665
 30
0.0
 11
933.769416339
 21
861.7304613728
 31
0.0
  0
LINE
  5
279
330
1F
100
AcDbEntity
  8
0
  6
Continuous
 62
     7
370
    15
100
AcDbLine
 10
933.9090551206
 20
848.4711101193
 30
0.0
 11
933.9090551206
 21
861.7778619665
 31
0.0
  0
CIRCLE
  5
27A
330
1F
100
AcDbEntity
  8
0
  6
Continuous
 62
     7
370
    15
100
AcDbCircle
 10
933.7694093057
 20
837.6244845528
 30
0.0
 40
2.100000000000023
  0
CIRCLE
  5
27B
330
1F
100
AcDbEntity
  8
0
  6
Continuous
 62
     7
370
    15
100
AcDbCircle
 10
933.7694093057
 20
837.6244845528
 30
0.0
 40
2.057675497039099
  0
LINE
  5
27C
330
1F
100
AcDbEntity
  8
0
  6
Continuous
 62
     7
370
    15
100
AcDbLine
 10
871.886883206
 20
565.3848400253
 30
0.0
 11
871.8394751617
 21
565.5244788069
 31
0.0
  0
ELLIPSE
  5
27D
330
1F
100
AcDbEntity
  8
0
  6
Continuous
 62
     7
370
    15
100
AcDbEllipse
 10
871.8384447266
 20
575.5260078332
 30
0.0
 11
-3.214940711794497
 21
9.470909932193649
 31
0.0
210
0.0
220
0.0
230
1.0
 40
0.9998301497
 41
2.814395118915037
 42
3.468790188264571
  0
LINE
  5
27E
330
1F
100
AcDbEntity
  8
0
  6
Continuous
 62
     7
370
    15
100
AcDbLine
 10
877.9261673757
 20
567.5906291145
 30
0.0
 11
877.9735679694
 21
567.450990333
 31
0.0
  0
ELLIPSE
  5
27F
330
1F
100
AcDbEntity
  8
0
  6
Continuous
 62
     7
370
    15
100
AcDbEllipse
 10
871.8858462957
 20
575.3863673138
 30
0.0
 11
-3.214940711794612
 21
9.470909932193763
 31
0.0
210
0.0
220
0.0
230
1.0
 40
0.9998301497
 41
2.814395118915024
 42
3.46879018826457
  0
LINE
  5
280
330
1F
100
AcDbEntity
  8
0
  6
Continuous
 62
     7
370
    15
100
AcDbLine
 10
931.8429048129
 20
642.3844223756
 30
0.0
 11
931.7032511302
 21
642.4318229694
 31
0.0
  0
ELLIPSE
  5
281
330
1F
100
AcDbEntity
  8
0
  6
Continuous
 62
     7
370
    15
100
AcDbEllipse
 10
923.7678860252
 20
648.5195442254
 30
0.0
 11
-9.470909932193763
 21
3.214940711794612
 31
0.0
210
0.0
220
0.0
230
1.0
 40
0.9998301497
 41
2.81439511891503
 42
3.468790188264576
  0
LINE
  5
282
330
1F
100
AcDbEntity
  8
0
  6
Continuous
 62
     7
370
    15
100
AcDbLine
 10
933.769416339
 20
648.5185077328
 30
0.0
 11
933.9090551206
 21
648.471107139
 31
0.0
  0
ELLIPSE
  5
283
330
1F
100
AcDbEntity
  8
0
  6
Continuous
 62
     7
370
    15
100
AcDbEllipse
 10
923.9075265447
 20
648.4721426564
 30
0.0
 11
-9.470909932193763
 21
3.214940711794498
 31
0.0
210
0.0
220
0.0
230
1.0
 40
0.9998301497
 41
2.814395118915012
 42
3.468790188264564
  0
CIRCLE
  5
284
330
1F
100
AcDbEntity
  8
0
  6
Continuous
 62
     7
370
    15
100
AcDbCircle
 10
933.7694093057
 20
637.6244845528
 30
0.0
 40
2.100000000000023
  0
CIRCLE
  5
285
330
1F
100
AcDbEntity
  8
0
  6
Continuous
 62
     7
370
    15
100
AcDbCircle
 10
933.7694093057
 20
637.6244845528
 30
0.0
 40
2.057675497039213
  0
LINE
  5
286
330
1F
100
AcDbEntity
  8
0
  6
Continuous
 62
     7
370
    15
100
AcDbLine
 10
716.6519354054
 20
944.8641290802
 30
0.0
 11
716.6993434497
 21
944.7244902987
 31
0.0
  0
ELLIPSE
  5
287
330
1F
100
AcDbEntity
  8
0
  6
Continuous
 62
     7
370
    15
100
AcDbEllipse
 10
716.7003738847
 20
934.7229612723
 30
0.0
 11
3.214940711794725
 21
-9.470909932193649
 31
0.0
210
0.0
220
0.0
230
1.0
 40
0.9998301497
 41
2.814395118915013
 42
3.468790188264552
  0
LINE
  5
288
330
1F
100
AcDbEntity
  8
0
  6
Continuous
 62
     7
370
    15
100
AcDbLine
 10
710.6126512357
 20
942.658339991
 30
0.0
 11
710.5652506419
 21
942.7979787726
 31
0.0
  0
ELLIPSE
  5
289
330
1F
100
AcDbEntity
  8
0
  6
Continuous
 62
     7
370
    15
100
AcDbEllipse
 10
716.6529723157
 20
934.8626017918
 30
0.0
 11
3.214940711794725
 21
-9.470909932193763
 31
0.0
210
0.0
220
0.0
230
1.0
 40
0.9998301497
 41
2.814395118915012
 42
3.46879018826456
  0
CIRCLE
  5
28A
330
1F
100
AcDbEntity
  8
0
  6
Continuous
 62
     7
370
    15
100
AcDbCircle
 10
882.7335043993
 20
565.6244845528
 30
0.0
 40
2.100000000000023
  0
CIRCLE
  5
28B
330
1F
100
AcDbEntity
  8
0
  6
Continuous
 62
     7
370
    15
100
AcDbCircle
 10
882.7335043993
 20
565.6244845528
 30
0.0
 40
2.057675497039213
  0
LINE
  5
28C
330
1F
100
AcDbEntity
  8
0
  6
Continuous
 62
     7
370
    15
100
AcDbLine
 10
654.6297634908
 20
848.4711101193
 30
0.0
 11
654.7694022723
 21
848.518510713
 31
0.0
  0
ELLIPSE
  5
28D
330
1F
100
AcDbEntity
  8
0
  6
Continuous
 62
     7
370
    15
100
AcDbEllipse
 10
664.7709325861
 20
848.5195442254
 30
0.0
 11
9.470909932193763
 21
3.214940711794725
 31
0.0
210
0.0
220
0.0
230
1.0
 40
0.9998301497
 41
2.814395118915015
 42
3.468790188264565
  0
LINE
  5
28E
330
1F
100
AcDbEntity
  8
0
  6
Continuous
 62
     7
370
    15
100
AcDbLine
 10
656.8355674811
 20
842.4318259496
 30
0.0
 11
656.6959137984
 21
842.3844179053
 31
0.0
  0
ELLIPSE
  5
28F
330
1F
100
AcDbEntity
  8
0
  6
Continuous
 62
     7
370
    15
100
AcDbEllipse
 10
664.6312920667
 20
848.4721426564
 30
0.0
 11
9.470909932193763
 21
3.214940711794612
 31
0.0
210
0.0
220
0.0
230
1.0
 40
0.9998301497
 41
2.814395118915024
 42
3.46879018826457
  0
LINE
  5
290
330
1F
100
AcDbEntity
  8
0
  6
Continuous
 62
     7
370
    15
100
AcDbLine
 10
877.9261673757
 20
567.5906291145
 30
0.0
 11
883.2786048718
 21
571.697702064
 31
0.0
  0
LINE
  5
291
330
1F
100
AcDbEntity
  8
0
  6
Continuous
 62
     7
370
    15
100
AcDbLine
 10
858.6275319525
 20
565.5244788069
 30
0.0
 11
871.8394751617
 21
565.5244788069
 31
0.0
  0
LINE
  5
292
330
1F
100
AcDbEntity
  8
0
  6
Continuous
 62
     7
370
    15
100
AcDbLine
 10
848.7593646117
 20
570.4922726292
 30
0.0
 11
852.5408434638
 21
567.5906291145
 31
0.0
  0
CIRCLE
  5
293
330
1F
100
AcDbEntity
  8
0
  6
Continuous
 62
     7
370
    15
100
AcDbCircle
 10
882.7335043993
 20
944.6244845528
 30
0.0
 40
4.000000000000114
  0
CIRCLE
  5
294
330
1F
100
AcDbEntity
  8
0
  6
Continuous
 62
     7
370
    15
100
AcDbCircle
 10
882.7335043993
 20
944.6244845528
 30
0.0
 40
3.580737765735648
  0
CIRCLE
  5
295
330
1F
100
AcDbEntity
  8
0
  6
Continuous
 62
     7
370
    15
100
AcDbCircle
 10
654.7694093057
 20
872.6244845528
 30
0.0
 40
2.099999999999909
  0
CIRCLE
  5
296
330
1F
100
AcDbEntity
  8
0
  6
Continuous
 62
     7
370
    15
100
AcDbCircle
 10
654.7694093057
 20
872.6244845528
 30
0.0
 40
2.057675497039213
  0
LINE
  5
297
330
1F
100
AcDbEntity
  8
0
  6
Continuous
 62
     7
370
    15
100
AcDbLine
 10
931.8429048129
 20
842.3844179053
 30
0.0
 11
931.7032511302
 21
842.4318259496
 31
0.0
  0
LINE
  5
298
330
1F
100
AcDbEntity
  8
0
  6
Continuous
 62
     7
370
    15
100
AcDbLine
 10
931.8429048129
 20
842.3844179053
 30
0.0
 11
927.6442940303
 21
836.9126966137
 31
0.0
  0
CIRCLE
  5
299
330
1F
100
AcDbEntity
  8
0
  6
Continuous
 62
     7
370
    15
100
AcDbCircle
 10
654.7694093057
 20
637.6244845528
 30
0.0
 40
4.0
  0
CIRCLE
  5
29A
330
1F
100
AcDbEntity
  8
0
  6
Continuous
 62
     7
370
    15
100
AcDbCircle
 10
654.7694093057
 20
637.6244845528
 30
0.0
 40
3.580737765735535
  0
CIRCLE
  5
29B
330
1F
100
AcDbEntity
  8
0
  6
Continuous
 62
     7
370
    15
100
AcDbCircle
 10
847.7335043993
 20
944.6244845528
 30
0.0
 40
2.100000000000023
  0
CIRCLE
  5
29C
330
1F
100
AcDbEntity
  8
0
  6
Continuous
 62
     7
370
    15
100
AcDbCircle
 10
847.7335043993
 20
944.6244845528
 30
0.0
 40
2.057675497039327
  0
CIRCLE
  5
29D
330
1F
100
AcDbEntity
  8
0
  6
Continuous
 62
     7
370
    15
100
AcDbCircle
 10
882.7335043993
 20
944.6244845528
 30
0.0
 40
2.100000000000023
  0
CIRCLE
  5
29E
330
1F
100
AcDbEntity
  8
0
  6
Continuous
 62
     7
370
    15
100
AcDbCircle
 10
882.7335043993
 20
944.6244845528
 30
0.0
 40
2.057675497039213
  0
LINE
  5
29F
330
1F
100
AcDbEntity
  8
0
  6
Continuous
 62
     7
370
    15
100
AcDbLine
 10
656.6959137984
 20
667.8645512003
 30
0.0
 11
656.8355674811
 21
667.817143156
 31
0.0
  0
ELLIPSE
  5
2A0
330
1F
100
AcDbEntity
  8
0
  6
Continuous
 62
     7
370
    15
100
AcDbEllipse
 10
664.7709325861
 20
661.7294248801
 30
0.0
 11
9.470909932193763
 21
-3.214940711794612
 31
0.0
210
0.0
220
0.0
230
1.0
 40
0.9998301497
 41
2.814395118915024
 42
3.468790188264576
  0
LINE
  5
2A1
330
1F
100
AcDbEntity
  8
0
  6
Continuous
 62
     7
370
    15
100
AcDbLine
 10
654.7694022723
 20
661.7304583925
 30
0.0
 11
654.6297634908
 21
661.7778589863
 31
0.0
  0
ELLIPSE
  5
2A2
330
1F
100
AcDbEntity
  8
0
  6
Continuous
 62
     7
370
    15
100
AcDbEllipse
 10
664.6312920667
 20
661.7768264491
 30
0.0
 11
9.470909932193763
 21
-3.214940711794612
 31
0.0
210
0.0
220
0.0
230
1.0
 40
0.9998301497
 41
2.81439511891503
 42
3.468790188264576
  0
LINE
  5
2A3
330
1F
100
AcDbEntity
  8
0
  6
Continuous
 62
     7
370
    15
100
AcDbLine
 10
656.6959137984
 20
867.86454673
 30
0.0
 11
656.8355674811
 21
867.8171461362
 31
0.0
  0
ELLIPSE
  5
2A4
330
1F
100
AcDbEntity
  8
0
  6
Continuous
 62
     7
370
    15
100
AcDbEllipse
 10
664.7709325861
 20
861.7294248801
 30
0.0
 11
9.470909932193763
 21
-3.214940711794612
 31
0.0
210
0.0
220
0.0
230
1.0
 40
0.9998301497
 41
2.814395118915014
 42
3.468790188264576
  0
LINE
  5
2A5
330
1F
100
AcDbEntity
  8
0
  6
Continuous
 62
     7
370
    15
100
AcDbLine
 10
654.7694022723
 20
861.7304613728
 30
0.0
 11
654.6297634908
 21
861.7778619665
 31
0.0
  0
ELLIPSE
  5
2A6
330
1F
100
AcDbEntity
  8
0
  6
Continuous
 62
     7
370
    15
100
AcDbEllipse
 10
664.6312920667
 20
861.7768264491
 30
0.0
 11
9.470909932193763
 21
-3.214940711794612
 31
0.0
210
0.0
220
0.0
230
1.0
 40
0.9998301497
 41
2.814395118915034
 42
3.468790188264573
  0
LINE
  5
2A7
330
1F
100
AcDbEntity
  8
0
  6
Continuous
 62
     7
370
    15
100
AcDbLine
 10
716.6993434497
 20
565.5244788069
 30
0.0
 11
716.6519354054
 21
565.3848400253
 31
0.0
  0
LINE
  5
2A8
330
1F
100
AcDbEntity
  8
0
  6
Continuous
 62
     7
370
    15
100
AcDbLine
 10
729.9586872526
 20
565.3848400253
 30
0.0
 11
729.9112866589
 21
565.5244788069
 31
0.0
  0
LINE
  5
2A9
330
1F
100
AcDbEntity
  8
0
  6
Continuous
 62
     7
370
    15
100
AcDbLine
 10
716.6519354054
 20
565.3848400253
 30
0.0
 11
729.9586872526
 21
565.3848400253
 31
0.0
  0
CIRCLE
  5
2AA
330
1F
100
AcDbEntity
  8
0
  6
Continuous
 62
     7
370
    15
100
AcDbCircle
 10
654.7694093057
 20
837.6244845528
 30
0.0
 40
4.0
  0
CIRCLE
  5
2AB
330
1F
100
AcDbEntity
  8
0
  6
Continuous
 62
     7
370
    15
100
AcDbCircle
 10
654.7694093057
 20
837.6244845528
 30
0.0
 40
3.580737765735648
  0
CIRCLE
  5
2AC
330
1F
100
AcDbEntity
  8
0
  6
Continuous
 62
     7
370
    15
100
AcDbCircle
 10
654.7694093057
 20
872.6244845528
 30
0.0
 40
3.580737765735648
  0
CIRCLE
  5
2AD
330
1F
100
AcDbEntity
  8
0
  6
Continuous
 62
     7
370
    15
100
AcDbCircle
 10
654.7694093057
 20
837.6244845528
 30
0.0
 40
2.099999999999909
  0
CIRCLE
  5
2AE
330
1F
100
AcDbEntity
  8
0
  6
Continuous
 62
     7
370
    15
100
AcDbCircle
 10
654.7694093057
 20
837.6244845528
 30
0.0
 40
2.057675497039213
  0
LINE
  5
2AF
330
1F
100
AcDbEntity
  8
0
  6
Continuous
 62
     7
370
    15
100
AcDbLine
 10
661.5944321223
 20
874.0190243262
 30
0.0
 11
656.8355674811
 21
867.8171461362
 31
0.0
  0
LINE
  5
2B0
330
1F
100
AcDbEntity
  8
0
  6
Continuous
 62
     7
370
    15
100
AcDbLine
 10
656.6959137984
 20
867.86454673
 30
0.0
 11
660.8945245811
 21
873.3362754721
 31
0.0
  0
CIRCLE
  5
2B1
330
1F
100
AcDbEntity
  8
0
  6
Continuous
 62
     7
370
    15
100
AcDbCircle
 10
933.7694093057
 20
672.6244845528
 30
0.0
 40
4.0
  0
CIRCLE
  5
2B2
330
1F
100
AcDbEntity
  8
0
  6
Continuous
 62
     7
370
    15
100
AcDbCircle
 10
933.7694093057
 20
672.6244845528
 30
0.0
 40
3.580737765735762
  0
LINE
  5
2B3
330
1F
100
AcDbEntity
  8
0
  6
Continuous
 62
     7
370
    15
100
AcDbLine
 10
656.8355674811
 20
842.4318259496
 30
0.0
 11
661.5944321223
 21
836.229940309
 31
0.0
  0
LINE
  5
2B4
330
1F
100
AcDbEntity
  8
0
  6
Continuous
 62
     7
370
    15
100
AcDbLine
 10
654.7694022723
 20
861.7304613728
 30
0.0
 11
654.7694022723
 21
848.518510713
 31
0.0
  0
LINE
  5
2B5
330
1F
100
AcDbEntity
  8
0
  6
Continuous
 62
     7
370
    15
100
AcDbLine
 10
660.8945245811
 20
836.9126966137
 30
0.0
 11
656.6959137984
 21
842.3844179053
 31
0.0
  0
LINE
  5
2B6
330
1F
100
AcDbEntity
  8
0
  6
Continuous
 62
     7
370
    15
100
AcDbLine
 10
871.8394751617
 20
944.7244902987
 30
0.0
 11
871.886883206
 21
944.8641290802
 31
0.0
  0
LINE
  5
2B7
330
1F
100
AcDbEntity
  8
0
  6
Continuous
 62
     7
370
    15
100
AcDbLine
 10
858.6275319525
 20
944.7244902987
 30
0.0
 11
871.8394751617
 21
944.7244902987
 31
0.0
  0
LINE
  5
2B8
330
1F
100
AcDbEntity
  8
0
  6
Continuous
 62
     7
370
    15
100
AcDbLine
 10
858.5801313587
 20
944.8641290802
 30
0.0
 11
858.6275319525
 21
944.7244902987
 31
0.0
  0
LINE
  5
2B9
330
1F
100
AcDbEntity
  8
0
  6
Continuous
 62
     7
370
    15
100
AcDbLine
 10
871.886883206
 20
944.8641290802
 30
0.0
 11
858.5801313587
 21
944.8641290802
 31
0.0
  0
LINE
  5
2BA
330
1F
100
AcDbEntity
  8
0
  6
Continuous
 62
     7
370
    15
100
AcDbLine
 10
852.49344287
 20
942.7979787726
 30
0.0
 11
849.4129295417
 21
940.4342075724
 31
0.0
  0
LINE
  5
2BB
330
1F
100
AcDbEntity
  8
0
  6
Continuous
 62
     7
370
    15
100
AcDbLine
 10
852.5408434638
 20
942.658339991
 30
0.0
 11
852.49344287
 21
942.7979787726
 31
0.0
  0
LINE
  5
2BC
330
1F
100
AcDbEntity
  8
0
  6
Continuous
 62
     7
370
    15
100
AcDbLine
 10
848.7593646117
 20
939.7566964764
 30
0.0
 11
852.5408434638
 21
942.658339991
 31
0.0
  0
LINE
  5
2BD
330
1F
100
AcDbEntity
  8
0
  6
Continuous
 62
     7
370
    15
100
AcDbLine
 10
852.49344287
 20
567.450990333
 30
0.0
 11
849.4129295417
 21
569.8147615332
 31
0.0
  0
CIRCLE
  5
2BE
330
1F
100
AcDbEntity
  8
0
  6
Continuous
 62
     7
370
    15
100
AcDbCircle
 10
740.805314212
 20
565.6244845528
 30
0.0
 40
4.0
  0
CIRCLE
  5
2BF
330
1F
100
AcDbEntity
  8
0
  6
Continuous
 62
     7
370
    15
100
AcDbCircle
 10
740.805314212
 20
565.6244845528
 30
0.0
 40
3.580737765735648
  0
CIRCLE
  5
2C0
330
1F
100
AcDbEntity
  8
0
  6
Continuous
 62
     7
370
    15
100
AcDbCircle
 10
933.7694093057
 20
872.6244845528
 30
0.0
 40
2.100000000000023
  0
CIRCLE
  5
2C1
330
1F
100
AcDbEntity
  8
0
  6
Continuous
 62
     7
370
    15
100
AcDbCircle
 10
705.805314212
 20
565.6244845528
 30
0.0
 40
2.100000000000023
  0
CIRCLE
  5
2C2
330
1F
100
AcDbEntity
  8
0
  6
Continuous
 62
     7
370
    15
100
AcDbCircle
 10
705.805314212
 20
565.6244845528
 30
0.0
 40
2.057675497039099
  0
CIRCLE
  5
2C3
330
1F
100
AcDbEntity
  8
0
  6
Continuous
 62
     7
370
    15
100
AcDbCircle
 10
654.7694093057
 20
637.6244845528
 30
0.0
 40
2.100000000000023
  0
LINE
  5
2C4
330
1F
100
AcDbEntity
  8
0
  6
Continuous
 62
     7
370
    15
100
AcDbLine
 10
716.6519354054
 20
944.8641290802
 30
0.0
 11
729.9586872526
 21
944.8641290802
 31
0.0
  0
LINE
  5
2C5
330
1F
100
AcDbEntity
  8
0
  6
Continuous
 62
     7
370
    15
100
AcDbLine
 10
729.9112866589
 20
944.7244902987
 30
0.0
 11
729.9586872526
 21
944.8641290802
 31
0.0
  0
LINE
  5
2C6
330
1F
100
AcDbEntity
  8
0
  6
Continuous
 62
     7
370
    15
100
AcDbLine
 10
729.9112866589
 20
944.7244902987
 30
0.0
 11
716.6993434497
 21
944.7244902987
 31
0.0
  0
CIRCLE
  5
2C7
330
1F
100
AcDbEntity
  8
0
  6
Continuous
 62
     7
370
    15
100
AcDbCircle
 10
705.805314212
 20
565.6244845528
 30
0.0
 40
3.580737765735762
  0
LINE
  5
2C8
330
1F
100
AcDbEntity
  8
0
  6
Continuous
 62
     7
370
    15
100
AcDbLine
 10
736.0453757413
 20
942.7979787726
 30
0.0
 11
735.9979751476
 21
942.658339991
 31
0.0
  0
ELLIPSE
  5
2C9
330
1F
100
AcDbEntity
  8
0
  6
Continuous
 62
     7
370
    15
100
AcDbEllipse
 10
729.9102545394
 20
934.7229612723
 30
0.0
 11
-3.214940711794612
 21
-9.470909932193651
 31
0.0
210
0.0
220
0.0
230
1.0
 40
0.9998301497
 41
2.814395118915027
 42
3.468790188264578
  0
ELLIPSE
  5
2CA
330
1F
100
AcDbEntity
  8
0
  6
Continuous
 62
     7
370
    15
100
AcDbEllipse
 10
729.9576561084
 20
934.8626017918
 30
0.0
 11
-3.214940711794498
 21
-9.470909932193763
 31
0.0
210
0.0
220
0.0
230
1.0
 40
0.9998301497
 41
2.814395118914999
 42
3.468790188264556
  0
CIRCLE
  5
2CB
330
1F
100
AcDbEntity
  8
0
  6
Continuous
 62
     7
370
    15
100
AcDbCircle
 10
933.7694093057
 20
637.6244845528
 30
0.0
 40
3.580737765735762
  0
CIRCLE
  5
2CC
330
1F
100
AcDbEntity
  8
0
  6
Continuous
 62
     7
370
    15
100
AcDbCircle
 10
933.7694093057
 20
672.6244845528
 30
0.0
 40
2.100000000000023
  0
CIRCLE
  5
2CD
330
1F
100
AcDbEntity
  8
0
  6
Continuous
 62
     7
370
    15
100
AcDbCircle
 10
740.805314212
 20
944.6244845528
 30
0.0
 40
4.0
  0
CIRCLE
  5
2CE
330
1F
100
AcDbEntity
  8
0
  6
Continuous
 62
     7
370
    15
100
AcDbCircle
 10
740.805314212
 20
944.6244845528
 30
0.0
 40
3.580737765735648
  0
LINE
  5
2CF
330
1F
100
AcDbEntity
  8
0
  6
Continuous
 62
     7
370
    15
100
AcDbLine
 10
933.9090551206
 20
661.7778589863
 30
0.0
 11
933.769416339
 21
661.7304583925
 31
0.0
  0
ELLIPSE
  5
2D0
330
1F
100
AcDbEntity
  8
0
  6
Continuous
 62
     7
370
    15
100
AcDbEllipse
 10
923.7678860252
 20
661.7294248801
 30
0.0
 11
-9.470909932193763
 21
-3.214940711794612
 31
0.0
210
0.0
220
0.0
230
1.0
 40
0.9998301497
 41
2.814395118915029
 42
3.468790188264566
  0
LINE
  5
2D1
330
1F
100
AcDbEntity
  8
0
  6
Continuous
 62
     7
370
    15
100
AcDbLine
 10
931.7032511302
 20
667.817143156
 30
0.0
 11
931.8429048129
 21
667.8645512003
 31
0.0
  0
ELLIPSE
  5
2D2
330
1F
100
AcDbEntity
  8
0
  6
Continuous
 62
     7
370
    15
100
AcDbEllipse
 10
923.9075265447
 20
661.7768264491
 30
0.0
 11
-9.470909932193763
 21
-3.214940711794612
 31
0.0
210
0.0
220
0.0
230
1.0
 40
0.9998301497
 41
2.814395118915024
 42
3.468790188264578
  0
ELLIPSE
  5
2D3
330
1F
100
AcDbEntity
  8
0
  6
Continuous
 62
     7
370
    15
100
AcDbEllipse
 10
871.8384447266
 20
934.7229612723
 30
0.0
 11
-3.214940711794497
 21
-9.470909932193649
 31
0.0
210
0.0
220
0.0
230
1.0
 40
0.9998301497
 41
2.81439511891503
 42
3.468790188264562
  0
LINE
  5
2D4
330
1F
100
AcDbEntity
  8
0
  6
Continuous
 62
     7
370
    15
100
AcDbLine
 10
877.9261673757
 20
942.658339991
 30
0.0
 11
883.2786048718
 21
938.5512670416
 31
0.0
  0
ELLIPSE
  5
2D5
330
1F
100
AcDbEntity
  8
0
  6
Continuous
 62
     7
370
    15
100
AcDbEllipse
 10
858.628564072
 20
934.7229612723
 30
0.0
 11
3.214940711794497
 21
-9.470909932193649
 31
0.0
210
0.0
220
0.0
230
1.0
 40
0.9998301497
 41
2.814395118915037
 42
3.468790188264571
  0
LINE
  5
2D6
330
1F
100
AcDbEntity
  8
0
  6
Continuous
 62
     7
370
    15
100
AcDbLine
 10
656.6959137984
 20
642.3844223756
 30
0.0
 11
660.8945245811
 21
636.9126936335
 31
0.0
  0
LINE
  5
2D7
330
1F
100
AcDbEntity
  8
0
  6
Continuous
 62
     7
370
    15
100
AcDbLine
 10
656.8355674811
 20
642.4318229694
 30
0.0
 11
656.6959137984
 21
642.3844223756
 31
0.0
  0
LINE
  5
2D8
330
1F
100
AcDbEntity
  8
0
  6
Continuous
 62
     7
370
    15
100
AcDbLine
 10
661.5944321223
 20
636.2299447793
 30
0.0
 11
656.8355674811
 21
642.4318229694
 31
0.0
  0
LINE
  5
2D9
330
1F
100
AcDbEntity
  8
0
  6
Continuous
 62
     7
370
    15
100
AcDbLine
 10
656.8355674811
 20
667.817143156
 30
0.0
 11
661.5944321223
 21
674.0190287966
 31
0.0
  0
LINE
  5
2DA
330
1F
100
AcDbEntity
  8
0
  6
Continuous
 62
     7
370
    15
100
AcDbLine
 10
660.8945245811
 20
673.3362724919
 30
0.0
 11
656.6959137984
 21
667.8645512003
 31
0.0
  0
CIRCLE
  5
2DB
330
1F
100
AcDbEntity
  8
0
  6
Continuous
 62
     7
370
    15
100
AcDbCircle
 10
654.7694093057
 20
672.6244845528
 30
0.0
 40
4.000000000000114
  0
CIRCLE
  5
2DC
330
1F
100
AcDbEntity
  8
0
  6
Continuous
 62
     7
370
    15
100
AcDbCircle
 10
654.7694093057
 20
672.6244845528
 30
0.0
 40
3.580737765735535
  0
CIRCLE
  5
2DD
330
1F
100
AcDbEntity
  8
0
  6
Continuous
 62
     7
370
    15
100
AcDbCircle
 10
705.805314212
 20
944.6244845528
 30
0.0
 40
4.0
  0
CIRCLE
  5
2DE
330
1F
100
AcDbEntity
  8
0
  6
Continuous
 62
     7
370
    15
100
AcDbCircle
 10
705.805314212
 20
944.6244845528
 30
0.0
 40
3.580737765735762
  0
ELLIPSE
  5
2DF
330
1F
100
AcDbEntity
  8
0
  6
Continuous
 62
     7
370
    15
100
AcDbEllipse
 10
664.7709325861
 20
648.5195442254
 30
0.0
 11
9.470909932193763
 21
3.214940711794612
 31
0.0
210
0.0
220
0.0
230
1.0
 40
0.9998301497
 41
2.814395118915026
 42
3.468790188264574
  0
LINE
  5
2E0
330
1F
100
AcDbEntity
  8
0
  6
Continuous
 62
     7
370
    15
100
AcDbLine
 10
654.7694022723
 20
648.5185077328
 30
0.0
 11
654.7694022723
 21
661.7304583925
 31
0.0
  0
LINE
  5
2E1
330
1F
100
AcDbEntity
  8
0
  6
Continuous
 62
     7
370
    15
100
AcDbLine
 10
735.9979751476
 20
567.5906291145
 30
0.0
 11
736.0453757413
 21
567.450990333
 31
0.0
  0
ELLIPSE
  5
2E2
330
1F
100
AcDbEntity
  8
0
  6
Continuous
 62
     7
370
    15
100
AcDbEllipse
 10
729.9576561084
 20
575.3863673138
 30
0.0
 11
-3.214940711794498
 21
9.470909932193763
 31
0.0
210
0.0
220
0.0
230
1.0
 40
0.9998301497
 41
2.814395118915051
 42
3.468790188264594
  0
ELLIPSE
  5
2E3
330
1F
100
AcDbEntity
  8
0
  6
Continuous
 62
     7
370
    15
100
AcDbEllipse
 10
716.6529723157
 20
575.3863673138
 30
0.0
 11
3.214940711794725
 21
9.470909932193763
 31
0.0
210
0.0
220
0.0
230
1.0
 40
0.9998301497
 41
2.814395118915045
 42
3.468790188264583
  0
CIRCLE
  5
2E4
330
1F
100
AcDbEntity
  8
0
  6
Continuous
 62
     7
370
    15
100
AcDbCircle
 10
654.7694093057
 20
872.6244845528
 30
0.0
 40
4.000000000000114
  0
CIRCLE
  5
2E5
330
1F
100
AcDbEntity
  8
0
  6
Continuous
 62
     7
370
    15
100
AcDbCircle
 10
740.805314212
 20
565.6244845528
 30
0.0
 40
2.100000000000023
  0
CIRCLE
  5
2E6
330
1F
100
AcDbEntity
  8
0
  6
Continuous
 62
     7
370
    15
100
AcDbCircle
 10
847.7335043993
 20
565.6244845528
 30
0.0
 40
3.580737765735762
  0
CIRCLE
  5
2E7
330
1F
100
AcDbEntity
  8
0
  6
Continuous
 62
     7
370
    15
100
AcDbCircle
 10
847.7335043993
 20
565.6244845528
 30
0.0
 40
2.099999999999909
  0
LINE
  5
2E8
330
1F
100
AcDbEntity
  8
0
  6
Continuous
 62
     7
370
    15
100
AcDbLine
 10
871.886883206
 20
565.3848400253
 30
0.0
 11
858.5801313587
 21
565.3848400253
 31
0.0
  0
CIRCLE
  5
2E9
330
1F
100
AcDbEntity
  8
0
  6
Continuous
 62
     7
370
    15
100
AcDbCircle
 10
847.7335043993
 20
944.6244845528
 30
0.0
 40
3.580737765735535
  0
LINE
  5
2EA
330
1F
100
AcDbEntity
  8
0
  6
Continuous
 62
     7
370
    15
100
AcDbLine
 10
877.9735679694
 20
567.450990333
 30
0.0
 11
882.5627158352
 21
570.9723731417
 31
0.0
  0
CIRCLE
  5
2EB
330
1F
100
AcDbEntity
  8
0
  6
Continuous
 62
     7
370
    15
100
AcDbCircle
 10
847.7335043993
 20
565.6244845528
 30
0.0
 40
2.057675497039099
  0
CIRCLE
  5
2EC
330
1F
100
AcDbEntity
  8
0
  6
Continuous
 62
     7
370
    15
100
AcDbCircle
 10
705.805314212
 20
944.6244845528
 30
0.0
 40
2.100000000000023
  0
LINE
  5
2ED
330
1F
100
AcDbEntity
  8
0
  6
Continuous
 62
     7
370
    15
100
AcDbLine
 10
710.6126512357
 20
942.658339991
 30
0.0
 11
705.2602137395
 21
938.5512670416
 31
0.0
  0
LINE
  5
2EE
330
1F
100
AcDbEntity
  8
0
  6
Continuous
 62
     7
370
    15
100
AcDbLine
 10
739.7794539996
 20
939.7566964764
 30
0.0
 11
735.9979751476
 21
942.658339991
 31
0.0
  0
LINE
  5
2EF
330
1F
100
AcDbEntity
  8
0
  6
Continuous
 62
     7
370
    15
100
AcDbLine
 10
931.8429048129
 20
667.8645512003
 30
0.0
 11
927.6442940303
 21
673.3362724919
 31
0.0
  0
LINE
  5
2F0
330
1F
100
AcDbEntity
  8
0
  6
Continuous
 62
     7
370
    15
100
AcDbLine
 10
931.7032511302
 20
667.817143156
 30
0.0
 11
926.944386489
 21
674.0190287966
 31
0.0
  0
CIRCLE
  5
2F1
330
1F
100
AcDbEntity
  8
0
  6
Continuous
 62
     7
370
    15
100
AcDbCircle
 10
705.805314212
 20
565.6244845528
 30
0.0
 40
4.0
  0
CIRCLE
  5
2F2
330
1F
100
AcDbEntity
  8
0
  6
Continuous
 62
     7
370
    15
100
AcDbCircle
 10
847.7335043993
 20
944.6244845528
 30
0.0
 40
4.000000000000114
  0
CIRCLE
  5
2F3
330
1F
100
AcDbEntity
  8
0
  6
Continuous
 62
     7
370
    15
100
AcDbCircle
 10
847.7335043993
 20
565.6244845528
 30
0.0
 40
4.0
  0
CIRCLE
  5
2F4
330
1F
100
AcDbEntity
  8
0
  6
Continuous
 62
     7
370
    15
100
AcDbCircle
 10
740.805314212
 20
944.6244845528
 30
0.0
 40
2.100000000000023
  0
CIRCLE
  5
2F5
330
1F
100
AcDbEntity
  8
0
  6
Continuous
 62
     7
370
    15
100
AcDbCircle
 10
740.805314212
 20
944.6244845528
 30
0.0
 40
2.057675497039213
  0
LINE
  5
2F6
330
1F
100
AcDbEntity
  8
0
  6
Continuous
 62
     7
370
    15
100
AcDbLine
 10
654.6297634908
 20
648.471107139
 30
0.0
 11
654.7694022723
 21
648.5185077328
 31
0.0
  0
LINE
  5
2F7
330
1F
100
AcDbEntity
  8
0
  6
Continuous
 62
     7
370
    15
100
AcDbLine
 10
654.6297634908
 20
661.7778589863
 30
0.0
 11
654.6297634908
 21
648.471107139
 31
0.0
  0
ELLIPSE
  5
2F8
330
1F
100
AcDbEntity
  8
0
  6
Continuous
 62
     7
370
    15
100
AcDbEllipse
 10
664.6312920667
 20
648.4721426564
 30
0.0
 11
9.470909932193763
 21
3.214940711794498
 31
0.0
210
0.0
220
0.0
230
1.0
 40
0.9998301497
 41
2.814395118915039
 42
3.468790188264585
  0
CIRCLE
  5
2F9
330
1F
100
AcDbEntity
  8
0
  6
Continuous
 62
     7
370
    15
100
AcDbCircle
 10
654.7694093057
 20
637.6244845528
 30
0.0
 40
2.057675497039213
  0
LINE
  5
2FA
330
1F
100
AcDbEntity
  8
0
  6
Continuous
 62
     7
370
    15
100
AcDbLine
 10
736.0453757413
 20
567.450990333
 30
0.0
 11
739.1258890697
 21
569.8147615332
 31
0.0
  0
LINE
  5
2FB
330
1F
100
AcDbEntity
  8
0
  6
Continuous
 62
     7
370
    15
100
AcDbLine
 10
933.769416339
 20
648.5185077328
 30
0.0
 11
933.769416339
 21
661.7304583925
 31
0.0
  0
LINE
  5
2FC
330
1F
100
AcDbEntity
  8
0
  6
Continuous
 62
     7
370
    15
100
AcDbLine
 10
926.944386489
 20
636.2299447793
 30
0.0
 11
931.7032511302
 21
642.4318229694
 31
0.0
  0
CIRCLE
  5
2FD
330
1F
100
AcDbEntity
  8
0
  6
Continuous
 62
     7
370
    15
100
AcDbCircle
 10
882.7335043993
 20
565.6244845528
 30
0.0
 40
4.0
  0
CIRCLE
  5
2FE
330
1F
100
AcDbEntity
  8
0
  6
Continuous
 62
     7
370
    15
100
AcDbCircle
 10
882.7335043993
 20
565.6244845528
 30
0.0
 40
3.580737765735648
  0
ELLIPSE
  5
2FF
330
1F
100
AcDbEntity
  8
0
  6
Continuous
 62
     7
370
    15
100
AcDbEllipse
 10
923.9075265447
 20
861.7768264491
 30
0.0
 11
-9.470909932193763
 21
-3.214940711794612
 31
0.0
210
0.0
220
0.0
230
1.0
 40
0.9998301497
 41
2.81439511891502
 42
3.468790188264574
  0
ELLIPSE
  5
300
330
1F
100
AcDbEntity
  8
0
  6
Continuous
 62
     7
370
    15
100
AcDbEllipse
 10
923.9075265447
 20
848.4721426564
 30
0.0
 11
-9.470909932193763
 21
3.214940711794612
 31
0.0
210
0.0
220
0.0
230
1.0
 40
0.9998301497
 41
2.81439511891503
 42
3.468790188264576
  0
LINE
  5
301
330
1F
100
AcDbEntity
  8
0
  6
Continuous
 62
     7
370
    15
100
AcDbLine
 10
654.6297634908
 20
848.4711101193
 30
0.0
 11
654.6297634908
 21
861.7778619665
 31
0.0
  0
ELLIPSE
  5
302
330
1F
100
AcDbEntity
  8
0
  6
Continuous
 62
     7
370
    15
100
AcDbEllipse
 10
858.5811625029
 20
934.8626017918
 30
0.0
 11
3.214940711794612
 21
-9.470909932193763
 31
0.0
210
0.0
220
0.0
230
1.0
 40
0.9998301497
 41
2.814395118915024
 42
3.468790188264578
  0
LINE
  5
303
330
1F
100
AcDbEntity
  8
0
  6
Continuous
 62
     7
370
    15
100
AcDbLine
 10
933.9090551206
 20
661.7778589863
 30
0.0
 11
933.9090551206
 21
648.471107139
 31
0.0
  0
LINE
  5
304
330
1F
100
AcDbEntity
  8
0
  6
Continuous
 62
     7
370
    15
100
AcDbLine
 10
931.8429048129
 20
642.3844223756
 30
0.0
 11
927.6442940303
 21
636.9126936335
 31
0.0
  0
CIRCLE
  5
305
330
1F
100
AcDbEntity
  8
0
  6
Continuous
 62
     7
370
    15
100
AcDbCircle
 10
740.805314212
 20
565.6244845528
 30
0.0
 40
2.057675497039213
  0
CIRCLE
  5
306
330
1F
100
AcDbEntity
  8
0
  6
Continuous
 62
     7
370
    15
100
AcDbCircle
 10
933.7694093057
 20
637.6244845528
 30
0.0
 40
4.0
  0
LINE
  5
307
330
1F
100
AcDbEntity
  8
0
  6
Continuous
 62
     7
370
    15
100
AcDbLine
 10
877.9735679694
 20
942.7979787726
 30
0.0
 11
877.9261673757
 21
942.658339991
 31
0.0
  0
LINE
  5
308
330
1F
100
AcDbEntity
  8
0
  6
Continuous
 62
     7
370
    15
100
AcDbLine
 10
877.9735679694
 20
942.7979787726
 30
0.0
 11
882.5627158352
 21
939.2765959639
 31
0.0
  0
CIRCLE
  5
309
330
1F
100
AcDbEntity
  8
0
  6
Continuous
 62
     7
370
    15
100
AcDbCircle
 10
933.7694093057
 20
872.6244845528
 30
0.0
 40
2.057675497039099
  0
LINE
  5
30A
330
1F
100
AcDbEntity
  8
0
  6
Continuous
 62
     7
370
    15
100
AcDbLine
 10
705.9761027761
 20
939.2765959639
 30
0.0
 11
710.5652506419
 21
942.7979787726
 31
0.0
  0
CIRCLE
  5
30B
330
1F
100
AcDbEntity
  8
0
  6
Continuous
 62
     7
370
    15
100
AcDbCircle
 10
933.7694093057
 20
672.6244845528
 30
0.0
 40
2.057675497039213
  0
LINE
  5
30C
330
1F
100
AcDbEntity
  8
0
  6
Continuous
 62
     7
370
    15
100
AcDbLine
 10
736.0453757413
 20
942.7979787726
 30
0.0
 11
739.1258890697
 21
940.4342075724
 31
0.0
  0
CIRCLE
  5
30D
330
1F
100
AcDbEntity
  8
0
  6
Continuous
 62
     7
370
    15
100
AcDbCircle
 10
654.7694093057
 20
672.6244845528
 30
0.0
 40
2.100000000000023
  0
CIRCLE
  5
30E
330
1F
100
AcDbEntity
  8
0
  6
Continuous
 62
     7
370
    15
100
AcDbCircle
 10
654.7694093057
 20
672.6244845528
 30
0.0
 40
2.057675497039213
  0
ELLIPSE
  5
30F
330
1F
100
AcDbEntity
  8
0
  6
Continuous
 62
     7
370
    15
100
AcDbEllipse
 10
871.8858462957
 20
934.8626017918
 30
0.0
 11
-3.214940711794612
 21
-9.470909932193763
 31
0.0
210
0.0
220
0.0
230
1.0
 40
0.9998301497
 41
2.814395118915034
 42
3.468790188264573
  0
CIRCLE
  5
310
330
1F
100
AcDbEntity
  8
0
  6
Continuous
 62
     7
370
    15
100
AcDbCircle
 10
705.805314212
 20
944.6244845528
 30
0.0
 40
2.057675497039099
  0
LINE
  5
311
330
1F
100
AcDbEntity
  8
0
  6
Continuous
 62
     7
370
    15
100
AcDbLine
 10
663.7912209102
 20
827.1896367807
 30
0.0
 11
663.8610477515
 21
827.1902402777
 31
0.0
  0
LINE
  5
312
330
1F
100
AcDbEntity
  8
0
  6
Continuous
 62
     7
370
    15
100
AcDbLine
 10
924.7475977012
 20
683.0593323249
 30
0.0
 11
924.6777708598
 21
683.0587288279
 31
0.0
  0
LINE
  5
313
330
1F
100
AcDbEntity
  8
0
  6
Continuous
 62
     7
370
    15
100
AcDbLine
 10
924.6777708598
 20
827.1902402777
 30
0.0
 11
924.7475977012
 21
827.1896367807
 31
0.0
  0
LINE
  5
314
330
1F
100
AcDbEntity
  8
0
  6
Continuous
 62
     7
370
    15
100
AcDbLine
 10
751.2637342282
 20
937.9596015352
 30
0.0
 11
751.2630934783
 21
937.8855129618
 31
0.0
  0
LINE
  5
315
330
1F
100
AcDbEntity
  8
0
  6
Continuous
 62
     7
370
    15
100
AcDbLine
 10
837.2750843831
 20
572.2893675703
 30
0.0
 11
837.275725133
 21
572.3634561438
 31
0.0
  0
LINE
  5
316
330
1F
100
AcDbEntity
  8
0
  6
Continuous
 62
     7
370
    15
100
AcDbLine
 10
751.2637342282
 20
572.2893675703
 30
0.0
 11
751.2630934783
 21
572.3634561438
 31
0.0
  0
LINE
  5
317
330
1F
100
AcDbEntity
  8
0
  6
Continuous
 62
     7
370
    15
100
AcDbLine
 10
837.2750843831
 20
937.9596015352
 30
0.0
 11
837.275725133
 21
937.8855129618
 31
0.0
  0
LINE
  5
318
330
1F
100
AcDbEntity
  8
0
  6
Continuous
 62
     7
370
    15
100
AcDbLine
 10
663.8610477515
 20
683.0587288279
 30
0.0
 11
663.7912209102
 21
683.0593323249
 31
0.0
  0
LINE
  5
319
330
1F
100
AcDbEntity
  8
0
  6
Continuous
 62
     7
370
    15
100
AcDbLine
 10
697.4632407495
 20
574.2423435587
 30
0.0
 11
697.4633599587
 21
574.2554267782
 31
0.0
  0
LINE
  5
31A
330
1F
100
AcDbEntity
  8
0
  6
Continuous
 62
     7
370
    15
100
AcDbLine
 10
697.4633599587
 20
574.2554267782
 30
0.0
 11
891.0754586526
 21
574.2554267782
 31
0.0
  0
LINE
  5
31B
330
1F
100
AcDbEntity
  8
0
  6
Continuous
 62
     7
370
    15
100
AcDbLine
 10
891.0755778619
 20
574.2423435587
 30
0.0
 11
891.0754586526
 21
574.2554267782
 31
0.0
  0
LINE
  5
31C
330
1F
100
AcDbEntity
  8
0
  6
Continuous
 62
     7
370
    15
100
AcDbLine
 10
891.0755778619
 20
936.0066255469
 30
0.0
 11
891.0754586526
 21
935.9935423273
 31
0.0
  0
LINE
  5
31D
330
1F
100
AcDbEntity
  8
0
  6
Continuous
 62
     7
370
    15
100
AcDbLine
 10
697.4633599587
 20
935.9935423273
 30
0.0
 11
891.0754586526
 21
935.9935423273
 31
0.0
  0
LINE
  5
31E
330
1F
100
AcDbEntity
  8
0
  6
Continuous
 62
     7
370
    15
100
AcDbLine
 10
697.4632407495
 20
936.0066255469
 30
0.0
 11
697.4633599587
 21
935.9935423273
 31
0.0
  0
LINE
  5
31F
330
1F
100
AcDbEntity
  8
0
  6
Continuous
 62
     7
370
    15
100
AcDbLine
 10
663.8828630515
 20
603.3744862217
 30
0.0
 11
667.2694052526
 21
603.3744862217
 31
0.0
  0
LINE
  5
320
330
1F
100
AcDbEntity
  8
0
  6
Continuous
 62
     7
370
    15
100
AcDbLine
 10
667.2694052526
 20
603.3744862217
 30
0.0
 11
667.2694052526
 21
600.8744886059
 31
0.0
  0
LINE
  5
321
330
1F
100
AcDbEntity
  8
0
  6
Continuous
 62
     7
370
    15
100
AcDbLine
 10
667.2694052526
 20
600.8744886059
 30
0.0
 11
663.8828630515
 21
600.8744886059
 31
0.0
  0
LINE
  5
322
330
1F
100
AcDbEntity
  8
0
  6
Continuous
 62
     7
370
    15
100
AcDbLine
 10
667.2694052526
 20
909.3744804997
 30
0.0
 11
663.8828630515
 21
909.3744804997
 31
0.0
  0
LINE
  5
323
330
1F
100
AcDbEntity
  8
0
  6
Continuous
 62
     7
370
    15
100
AcDbLine
 10
667.2694052526
 20
906.8744828839
 30
0.0
 11
667.2694052526
 21
909.3744804997
 31
0.0
  0
LINE
  5
324
330
1F
100
AcDbEntity
  8
0
  6
Continuous
 62
     7
370
    15
100
AcDbLine
 10
663.8828630515
 20
906.8744828839
 30
0.0
 11
667.2694052526
 21
906.8744828839
 31
0.0
  0
LINE
  5
325
330
1F
100
AcDbEntity
  8
0
  6
Continuous
 62
     7
370
    15
100
AcDbLine
 10
668.1241954633
 20
600.0196983952
 30
0.0
 11
667.2694052526
 21
600.8744886059
 31
0.0
  0
LINE
  5
326
330
1F
100
AcDbEntity
  8
0
  6
Continuous
 62
     7
370
    15
100
AcDbLine
 10
668.1241954633
 20
604.2292615313
 30
0.0
 11
667.2694052526
 21
603.3744862217
 31
0.0
  0
LINE
  5
327
330
1F
100
AcDbEntity
  8
0
  6
Continuous
 62
     7
370
    15
100
AcDbLine
 10
668.1241954633
 20
604.2292615313
 30
0.0
 11
668.1241954633
 21
600.0196983952
 31
0.0
  0
LINE
  5
328
330
1F
100
AcDbEntity
  8
0
  6
Continuous
 62
     7
370
    15
100
AcDbLine
 10
668.1241954633
 20
600.0196983952
 30
0.0
 11
665.3075183698
 21
600.0196983952
 31
0.0
  0
LINE
  5
329
330
1F
100
AcDbEntity
  8
0
  6
Continuous
 62
     7
370
    15
100
AcDbLine
 10
920.4146231481
 20
604.2292615313
 30
0.0
 11
921.2694133588
 21
603.3744862217
 31
0.0
  0
LINE
  5
32A
330
1F
100
AcDbEntity
  8
0
  6
Continuous
 62
     7
370
    15
100
AcDbLine
 10
923.2313002416
 20
604.2292615313
 30
0.0
 11
920.4146231481
 21
604.2292615313
 31
0.0
  0
LINE
  5
32B
330
1F
100
AcDbEntity
  8
0
  6
Continuous
 62
     7
370
    15
100
AcDbLine
 10
924.6559555598
 20
603.3744862217
 30
0.0
 11
921.2694133588
 21
603.3744862217
 31
0.0
  0
LINE
  5
32C
330
1F
100
AcDbEntity
  8
0
  6
Continuous
 62
     7
370
    15
100
AcDbLine
 10
895.1646278568
 20
931.2696954149
 30
0.0
 11
896.019410617
 21
932.1244856257
 31
0.0
  0
LINE
  5
32D
330
1F
100
AcDbEntity
  8
0
  6
Continuous
 62
     7
370
    15
100
AcDbLine
 10
898.5194082328
 20
932.1244856257
 30
0.0
 11
896.019410617
 21
932.1244856257
 31
0.0
  0
LINE
  5
32E
330
1F
100
AcDbEntity
  8
0
  6
Continuous
 62
     7
370
    15
100
AcDbLine
 10
899.3741909929
 20
931.2696954149
 30
0.0
 11
898.5194082328
 21
932.1244856257
 31
0.0
  0
LINE
  5
32F
330
1F
100
AcDbEntity
  8
0
  6
Continuous
 62
     7
370
    15
100
AcDbLine
 10
899.3741909929
 20
931.2696954149
 30
0.0
 11
895.1646278568
 21
931.2696954149
 31
0.0
  0
LINE
  5
330
330
1F
100
AcDbEntity
  8
0
  6
Continuous
 62
     7
370
    15
100
AcDbLine
 10
923.2313002416
 20
906.0197075743
 30
0.0
 11
920.4146231481
 21
906.0197075743
 31
0.0
  0
LINE
  5
331
330
1F
100
AcDbEntity
  8
0
  6
Continuous
 62
     7
370
    15
100
AcDbLine
 10
920.4146231481
 20
906.0197075743
 30
0.0
 11
921.2694133588
 21
906.8744828839
 31
0.0
  0
LINE
  5
332
330
1F
100
AcDbEntity
  8
0
  6
Continuous
 62
     7
370
    15
100
AcDbLine
 10
924.6559555598
 20
906.8744828839
 30
0.0
 11
921.2694133588
 21
906.8744828839
 31
0.0
  0
LINE
  5
333
330
1F
100
AcDbEntity
  8
0
  6
Continuous
 62
     7
370
    15
100
AcDbLine
 10
899.3741909929
 20
934.2738440174
 30
0.0
 11
899.3741909929
 21
931.2696954149
 31
0.0
  0
LINE
  5
334
330
1F
100
AcDbEntity
  8
0
  6
Continuous
 62
     7
370
    15
100
AcDbLine
 10
898.5194082328
 20
935.7292255301
 30
0.0
 11
898.5194082328
 21
932.1244856257
 31
0.0
  0
LINE
  5
335
330
1F
100
AcDbEntity
  8
0
  6
Continuous
 62
     7
370
    15
100
AcDbLine
 10
896.019410617
 20
932.1244856257
 30
0.0
 11
896.019410617
 21
935.8165165323
 31
0.0
  0
LINE
  5
336
330
1F
100
AcDbEntity
  8
0
  6
Continuous
 62
     7
370
    15
100
AcDbLine
 10
693.3741907545
 20
931.2696954149
 30
0.0
 11
692.5194079944
 21
932.1244856257
 31
0.0
  0
LINE
  5
337
330
1F
100
AcDbEntity
  8
0
  6
Continuous
 62
     7
370
    15
100
AcDbLine
 10
692.5194079944
 20
932.1244856257
 30
0.0
 11
692.5194079944
 21
935.8165165323
 31
0.0
  0
LINE
  5
338
330
1F
100
AcDbEntity
  8
0
  6
Continuous
 62
     7
370
    15
100
AcDbLine
 10
693.3741907545
 20
931.2696954149
 30
0.0
 11
693.3741907545
 21
934.4208439726
 31
0.0
  0
LINE
  5
339
330
1F
100
AcDbEntity
  8
0
  6
Continuous
 62
     7
370
    15
100
AcDbLine
 10
665.3075183698
 20
604.2292615313
 30
0.0
 11
668.1241954633
 21
604.2292615313
 31
0.0
  0
LINE
  5
33A
330
1F
100
AcDbEntity
  8
0
  6
Continuous
 62
     7
370
    15
100
AcDbLine
 10
690.0194103786
 20
574.5197435755
 30
0.0
 11
690.0194103786
 21
578.1244834799
 31
0.0
  0
LINE
  5
33B
330
1F
100
AcDbEntity
  8
0
  6
Continuous
 62
     7
370
    15
100
AcDbLine
 10
690.0194103786
 20
578.1244834799
 30
0.0
 11
692.5194079944
 21
578.1244834799
 31
0.0
  0
LINE
  5
33C
330
1F
100
AcDbEntity
  8
0
  6
Continuous
 62
     7
370
    15
100
AcDbLine
 10
692.5194079944
 20
578.1244834799
 30
0.0
 11
692.5194079944
 21
574.4324525732
 31
0.0
  0
LINE
  5
33D
330
1F
100
AcDbEntity
  8
0
  6
Continuous
 62
     7
370
    15
100
AcDbLine
 10
895.1646278568
 20
578.9792736906
 30
0.0
 11
896.019410617
 21
578.1244834799
 31
0.0
  0
LINE
  5
33E
330
1F
100
AcDbEntity
  8
0
  6
Continuous
 62
     7
370
    15
100
AcDbLine
 10
896.019410617
 20
578.1244834799
 30
0.0
 11
896.019410617
 21
574.4324525732
 31
0.0
  0
LINE
  5
33F
330
1F
100
AcDbEntity
  8
0
  6
Continuous
 62
     7
370
    15
100
AcDbLine
 10
895.1646278568
 20
578.9792736906
 30
0.0
 11
895.1646278568
 21
575.828125133
 31
0.0
  0
LINE
  5
340
330
1F
100
AcDbEntity
  8
0
  6
Continuous
 62
     7
370
    15
100
AcDbLine
 10
921.2694133588
 20
600.8744886059
 30
0.0
 11
924.6559555598
 21
600.8744886059
 31
0.0
  0
LINE
  5
341
330
1F
100
AcDbEntity
  8
0
  6
Continuous
 62
     7
370
    15
100
AcDbLine
 10
921.2694133588
 20
603.3744862217
 30
0.0
 11
921.2694133588
 21
600.8744886059
 31
0.0
  0
LINE
  5
342
330
1F
100
AcDbEntity
  8
0
  6
Continuous
 62
     7
370
    15
100
AcDbLine
 10
690.0194103786
 20
932.1244856257
 30
0.0
 11
692.5194079944
 21
932.1244856257
 31
0.0
  0
LINE
  5
343
330
1F
100
AcDbEntity
  8
0
  6
Continuous
 62
     7
370
    15
100
AcDbLine
 10
689.1646276184
 20
931.2696954149
 30
0.0
 11
693.3741907545
 21
931.2696954149
 31
0.0
  0
LINE
  5
344
330
1F
100
AcDbEntity
  8
0
  6
Continuous
 62
     7
370
    15
100
AcDbLine
 10
689.1646276184
 20
931.2696954149
 30
0.0
 11
690.0194103786
 21
932.1244856257
 31
0.0
  0
LINE
  5
345
330
1F
100
AcDbEntity
  8
0
  6
Continuous
 62
     7
370
    15
100
AcDbLine
 10
920.4146231481
 20
910.2292707104
 30
0.0
 11
921.2694133588
 21
909.3744804997
 31
0.0
  0
LINE
  5
346
330
1F
100
AcDbEntity
  8
0
  6
Continuous
 62
     7
370
    15
100
AcDbLine
 10
921.2694133588
 20
906.8744828839
 30
0.0
 11
921.2694133588
 21
909.3744804997
 31
0.0
  0
LINE
  5
347
330
1F
100
AcDbEntity
  8
0
  6
Continuous
 62
     7
370
    15
100
AcDbLine
 10
920.4146231481
 20
906.0197075743
 30
0.0
 11
920.4146231481
 21
910.2292707104
 31
0.0
  0
LINE
  5
348
330
1F
100
AcDbEntity
  8
0
  6
Continuous
 62
     7
370
    15
100
AcDbLine
 10
895.1646278568
 20
931.2696954149
 30
0.0
 11
895.1646278568
 21
934.4208439726
 31
0.0
  0
LINE
  5
349
330
1F
100
AcDbEntity
  8
0
  6
Continuous
 62
     7
370
    15
100
AcDbLine
 10
689.1646276184
 20
934.2738440174
 30
0.0
 11
689.1646276184
 21
931.2696954149
 31
0.0
  0
LINE
  5
34A
330
1F
100
AcDbEntity
  8
0
  6
Continuous
 62
     7
370
    15
100
AcDbLine
 10
690.0194103786
 20
935.7292255301
 30
0.0
 11
690.0194103786
 21
932.1244856257
 31
0.0
  0
LINE
  5
34B
330
1F
100
AcDbEntity
  8
0
  6
Continuous
 62
     7
370
    15
100
AcDbLine
 10
668.1241954633
 20
910.2292707104
 30
0.0
 11
667.2694052526
 21
909.3744804997
 31
0.0
  0
LINE
  5
34C
330
1F
100
AcDbEntity
  8
0
  6
Continuous
 62
     7
370
    15
100
AcDbLine
 10
668.1241954633
 20
906.0197075743
 30
0.0
 11
668.1241954633
 21
910.2292707104
 31
0.0
  0
LINE
  5
34D
330
1F
100
AcDbEntity
  8
0
  6
Continuous
 62
     7
370
    15
100
AcDbLine
 10
668.1241954633
 20
906.0197075743
 30
0.0
 11
667.2694052526
 21
906.8744828839
 31
0.0
  0
LINE
  5
34E
330
1F
100
AcDbEntity
  8
0
  6
Continuous
 62
     7
370
    15
100
AcDbLine
 10
921.2694133588
 20
909.3744804997
 30
0.0
 11
924.6559555598
 21
909.3744804997
 31
0.0
  0
LINE
  5
34F
330
1F
100
AcDbEntity
  8
0
  6
Continuous
 62
     7
370
    15
100
AcDbLine
 10
898.5194082328
 20
578.1244834799
 30
0.0
 11
896.019410617
 21
578.1244834799
 31
0.0
  0
LINE
  5
350
330
1F
100
AcDbEntity
  8
0
  6
Continuous
 62
     7
370
    15
100
AcDbLine
 10
898.5194082328
 20
574.5197435755
 30
0.0
 11
898.5194082328
 21
578.1244834799
 31
0.0
  0
LINE
  5
351
330
1F
100
AcDbEntity
  8
0
  6
Continuous
 62
     7
370
    15
100
AcDbLine
 10
899.3741909929
 20
578.9792736906
 30
0.0
 11
895.1646278568
 21
578.9792736906
 31
0.0
  0
LINE
  5
352
330
1F
100
AcDbEntity
  8
0
  6
Continuous
 62
     7
370
    15
100
AcDbLine
 10
899.3741909929
 20
578.9792736906
 30
0.0
 11
898.5194082328
 21
578.1244834799
 31
0.0
  0
LINE
  5
353
330
1F
100
AcDbEntity
  8
0
  6
Continuous
 62
     7
370
    15
100
AcDbLine
 10
920.4146231481
 20
600.0196983952
 30
0.0
 11
921.2694133588
 21
600.8744886059
 31
0.0
  0
LINE
  5
354
330
1F
100
AcDbEntity
  8
0
  6
Continuous
 62
     7
370
    15
100
AcDbLine
 10
920.4146231481
 20
604.2292615313
 30
0.0
 11
920.4146231481
 21
600.0196983952
 31
0.0
  0
LINE
  5
355
330
1F
100
AcDbEntity
  8
0
  6
Continuous
 62
     7
370
    15
100
AcDbLine
 10
920.4146231481
 20
600.0196983952
 30
0.0
 11
923.2313002416
 21
600.0196983952
 31
0.0
  0
LINE
  5
356
330
1F
100
AcDbEntity
  8
0
  6
Continuous
 62
     7
370
    15
100
AcDbLine
 10
920.4146231481
 20
910.2292707104
 30
0.0
 11
923.2313002416
 21
910.2292707104
 31
0.0
  0
LINE
  5
357
330
1F
100
AcDbEntity
  8
0
  6
Continuous
 62
     7
370
    15
100
AcDbLine
 10
693.3741907545
 20
578.9792736906
 30
0.0
 11
692.5194079944
 21
578.1244834799
 31
0.0
  0
LINE
  5
358
330
1F
100
AcDbEntity
  8
0
  6
Continuous
 62
     7
370
    15
100
AcDbLine
 10
693.3741907545
 20
578.9792736906
 30
0.0
 11
693.3741907545
 21
575.828125133
 31
0.0
  0
LINE
  5
359
330
1F
100
AcDbEntity
  8
0
  6
Continuous
 62
     7
370
    15
100
AcDbLine
 10
689.1646276184
 20
575.9751250881
 30
0.0
 11
689.1646276184
 21
578.9792736906
 31
0.0
  0
LINE
  5
35A
330
1F
100
AcDbEntity
  8
0
  6
Continuous
 62
     7
370
    15
100
AcDbLine
 10
689.1646276184
 20
578.9792736906
 30
0.0
 11
690.0194103786
 21
578.1244834799
 31
0.0
  0
LINE
  5
35B
330
1F
100
AcDbEntity
  8
0
  6
Continuous
 62
     7
370
    15
100
AcDbLine
 10
668.1241954633
 20
910.2292707104
 30
0.0
 11
665.3075183698
 21
910.2292707104
 31
0.0
  0
LINE
  5
35C
330
1F
100
AcDbEntity
  8
0
  6
Continuous
 62
     7
370
    15
100
AcDbLine
 10
665.3075183698
 20
906.0197075743
 30
0.0
 11
668.1241954633
 21
906.0197075743
 31
0.0
  0
LINE
  5
35D
330
1F
100
AcDbEntity
  8
0
  6
Continuous
 62
     7
370
    15
100
AcDbLine
 10
689.1646276184
 20
578.9792736906
 30
0.0
 11
693.3741907545
 21
578.9792736906
 31
0.0
  0
LINE
  5
35E
330
1F
100
AcDbEntity
  8
0
  6
Continuous
 62
     7
370
    15
100
AcDbLine
 10
899.3741909929
 20
575.9751250881
 30
0.0
 11
899.3741909929
 21
578.9792736906
 31
0.0
  0
LINE
  5
35F
330
1F
100
AcDbEntity
  8
0
  6
Continuous
 62
     7
370
    15
100
AcDbLine
 10
905.3021485873
 20
589.6367927927
 30
0.0
 11
907.2427566119
 21
591.5774008173
 31
0.0
  0
LINE
  5
360
330
1F
100
AcDbEntity
  8
0
  6
Continuous
 62
     7
370
    15
100
AcDbLine
 10
907.2427566119
 20
591.5774008173
 30
0.0
 11
907.2427566119
 21
590.3833707709
 31
0.0
  0
LINE
  5
361
330
1F
100
AcDbEntity
  8
0
  6
Continuous
 62
     7
370
    15
100
AcDbLine
 10
906.1502183744
 20
589.2908325333
 30
0.0
 11
907.2427566119
 21
590.3833707709
 31
0.0
  0
ARC
  5
362
330
1F
100
AcDbEntity
  8
0
  6
Continuous
 62
     7
370
    15
100
AcDbCircle
 10
914.122396775
 20
610.0458726712
 30
0.0
 40
22.2334729536451
100
AcDbArc
 50
246.6273148398
 51
248.9878145412
  0
LINE
  5
363
330
1F
100
AcDbEntity
  8
0
  6
Continuous
 62
     7
370
    15
100
AcDbLine
 10
911.5105236836
 20
924.1333654064
 30
0.0
 11
913.792964346
 21
926.4158060688
 31
0.0
  0
LINE
  5
364
330
1F
100
AcDbEntity
  8
0
  6
Continuous
 62
     7
370
    15
100
AcDbLine
 10
915.5607338019
 20
924.6480366129
 30
0.0
 11
913.2782931396
 21
922.3655959505
 31
0.0
  0
ARC
  5
365
330
1F
100
AcDbEntity
  8
0
  6
Continuous
 62
     7
370
    15
100
AcDbCircle
 10
909.8944093057
 20
920.7494845528
 30
0.0
 40
3.749999999999951
100
AcDbArc
 50
273.1896851042
 51
25.5287793655
  0
LINE
  5
366
330
1F
100
AcDbEntity
  8
0
  6
Continuous
 62
     7
370
    15
100
AcDbLine
 10
909.0105260678
 20
918.0978288788
 30
0.0
 11
910.1030643054
 21
917.0052906412
 31
0.0
  0
LINE
  5
367
330
1F
100
AcDbEntity
  8
0
  6
Continuous
 62
     7
370
    15
100
AcDbLine
 10
909.5413575836
 20
918.6286678452
 30
0.0
 11
909.0105260678
 21
918.0978288788
 31
0.0
  0
ARC
  5
368
330
1F
100
AcDbEntity
  8
0
  6
Continuous
 62
     7
370
    15
100
AcDbCircle
 10
909.8944093057
 20
920.7494845528
 30
0.0
 40
2.149999999999967
100
AcDbArc
 50
260.5487440029
 51
189.4512559971
  0
LINE
  5
369
330
1F
100
AcDbEntity
  8
0
  6
Continuous
 62
     7
370
    15
100
AcDbLine
 10
907.2427566119
 20
919.8655983347
 30
0.0
 11
907.7735955783
 21
920.3964373011
 31
0.0
  0
LINE
  5
36A
330
1F
100
AcDbEntity
  8
0
  6
Continuous
 62
     7
370
    15
100
AcDbLine
 10
906.1502183744
 20
920.9581365723
 30
0.0
 11
907.2427566119
 21
919.8655983347
 31
0.0
  0
ARC
  5
36B
330
1F
100
AcDbEntity
  8
0
  6
Continuous
 62
     7
370
    15
100
AcDbCircle
 10
909.8944093057
 20
920.7494845528
 30
0.0
 40
3.750000000000064
100
AcDbArc
 50
64.4712206345
 51
176.8103148958
  0
ARC
  5
36C
330
1F
100
AcDbEntity
  8
0
  6
Continuous
 62
     7
370
    15
100
AcDbCircle
 10
678.6444093057
 20
589.4994845528
 30
0.0
 40
3.750000000000066
100
AcDbArc
 50
93.1896851042
 51
205.5287793655
  0
SPLINE
  5
36D
330
1F
100
AcDbEntity
  8
0
  6
Continuous
 62
     7
370
    15
100
AcDbSpline
210
0.0
220
0.0
230
1.0
 70
     8
 71
     3
 72
     8
 73
     4
 74
     0
 42
0.000000001
 43
0.00000001
 40
0.0
 40
0.0
 40
0.0
 40
0.0
 40
1.0
 40
1.0
 40
1.0
 40
1.0
 10
674.2720071824541
 20
588.0888850839035
 30
0.0
 10
674.592678973029
 20
588.0115446598278
 30
0.0
 10
674.9208017402203
 20
587.9416554680029
 30
0.0
 10
675.2605258291885
 20
587.8833680292656
 30
0.0
  0
ARC
  5
36E
330
1F
100
AcDbEntity
  8
0
  6
Continuous
 62
     7
370
    15
100
AcDbCircle
 10
678.6444093057
 20
589.4994845528
 30
0.0
 40
4.594310741419512
100
AcDbArc
 50
88.2873324559
 51
197.8804433376
  0
ARC
  5
36F
330
1F
100
AcDbEntity
  8
0
  6
Continuous
 62
     7
370
    15
100
AcDbCircle
 10
699.110426977
 20
585.3041064475
 30
0.0
 40
22.1467580893201
100
AcDbArc
 50
156.6222577675
 51
158.9920085213
  0
LINE
  5
370
330
1F
100
AcDbEntity
  8
0
  6
Continuous
 62
     7
370
    15
100
AcDbLine
 10
672.9780848094
 20
924.6480366129
 30
0.0
 11
675.2605254718
 21
922.3655959505
 31
0.0
  0
SPLINE
  5
371
330
1F
100
AcDbEntity
  8
0
  6
Continuous
 62
     7
370
    15
100
AcDbSpline
210
0.0
220
0.0
230
1.0
 70
     8
 71
     3
 72
     8
 73
     4
 74
     0
 42
0.000000001
 43
0.00000001
 40
0.0
 40
0.0
 40
0.0
 40
0.0
 40
1.0
 40
1.0
 40
1.0
 40
1.0
 10
674.2720071824541
 20
922.1600840216612
 30
0.0
 10
674.592678973029
 20
922.2374244457369
 30
0.0
 10
674.9208017402203
 20
922.3073136375618
 30
0.0
 10
675.2605258291885
 20
922.3656010762992
 30
0.0
  0
LINE
  5
372
330
1F
100
AcDbEntity
  8
0
  6
Continuous
 62
     7
370
    15
100
AcDbLine
 10
673.3761171766
 20
923.0559816498
 30
0.0
 11
674.2720047899
 21
922.1600791353
 31
0.0
  0
ARC
  5
373
330
1F
100
AcDbEntity
  8
0
  6
Continuous
 62
     7
370
    15
100
AcDbCircle
 10
678.6444093057
 20
589.4994845528
 30
0.0
 40
4.594310741419191
100
AcDbArc
 50
252.1195566624
 51
1.7126675441
  0
SPLINE
  5
374
330
1F
100
AcDbEntity
  8
0
  6
Continuous
 62
     7
370
    15
100
AcDbSpline
210
0.0
220
0.0
230
1.0
 70
     8
 71
     3
 72
     8
 73
     4
 74
     0
 42
0.000000001
 43
0.00000001
 40
0.0
 40
0.0
 40
0.0
 40
0.0
 40
1.0
 40
1.0
 40
1.0
 40
1.0
 10
677.2338098367927
 20
585.1270824295649
 30
0.0
 10
677.156469412717
 20
585.4477542201398
 30
0.0
 10
677.0865802208921
 20
585.775876987331
 30
0.0
 10
677.0282927821548
 20
586.1156010762993
 30
0.0
  0
ARC
  5
375
330
1F
100
AcDbEntity
  8
0
  6
Continuous
 62
     7
370
    15
100
AcDbCircle
 10
678.6444093057
 20
589.4994845528
 30
0.0
 40
3.750000000000066
100
AcDbArc
 50
244.4712206345
 51
356.8103148958
  0
ARC
  5
376
330
1F
100
AcDbEntity
  8
0
  6
Continuous
 62
     7
370
    15
100
AcDbCircle
 10
675.0172129931
 20
608.5731230866
 30
0.0
 40
20.64325746778219
100
AcDbArc
 50
290.921252689
 51
293.46361793
  0
LINE
  5
377
330
1F
100
AcDbEntity
  8
0
  6
Continuous
 62
     7
370
    15
100
AcDbLine
 10
915.5607338019
 20
585.6009324927
 30
0.0
 11
913.2782931396
 21
587.883373155
 31
0.0
  0
SPLINE
  5
378
330
1F
100
AcDbEntity
  8
0
  6
Continuous
 62
     7
370
    15
100
AcDbSpline
210
0.0
220
0.0
230
1.0
 70
     8
 71
     3
 72
     8
 73
     4
 74
     0
 42
0.000000001
 43
0.00000001
 40
0.0
 40
0.0
 40
0.0
 40
0.0
 40
1.0
 40
1.0
 40
1.0
 40
1.0
 10
914.2668114288894
 20
588.0888850839035
 30
0.0
 10
913.9461396383143
 20
588.0115446598278
 30
0.0
 10
913.618016871123
 20
587.9416554680029
 30
0.0
 10
913.2782927821547
 20
587.8833680292656
 30
0.0
  0
LINE
  5
379
330
1F
100
AcDbEntity
  8
0
  6
Continuous
 62
     7
370
    15
100
AcDbLine
 10
915.1627014347
 20
587.1929874558
 30
0.0
 11
914.2668138214
 21
588.0888899702
 31
0.0
  0
LINE
  5
37A
330
1F
100
AcDbEntity
  8
0
  6
Continuous
 62
     7
370
    15
100
AcDbLine
 10
907.2427566119
 20
591.5774008173
 30
0.0
 11
908.729981906
 21
590.0901904244
 31
0.0
  0
SPLINE
  5
37B
330
1F
100
AcDbEntity
  8
0
  6
Continuous
 62
     7
370
    15
100
AcDbSpline
210
0.0
220
0.0
230
1.0
 70
     8
 71
     3
 72
     8
 73
     4
 74
     0
 42
0.000000001
 43
0.00000001
 40
0.0
 40
0.0
 40
0.0
 40
0.0
 40
1.0
 40
1.0
 40
1.0
 40
1.0
 10
908.7299786778817
 20
590.0901839289783
 30
0.0
 10
908.3866575314363
 20
590.0354940280363
 30
0.0
 10
908.0749882321657
 20
589.9491511333536
 30
0.0
 10
907.7735941415033
 20
589.8525327639846
 30
0.0
  0
LINE
  5
37C
330
1F
100
AcDbEntity
  8
0
  6
Continuous
 62
     7
370
    15
100
AcDbLine
 10
907.2427566119
 20
590.3833707709
 30
0.0
 11
907.7735955783
 21
589.8525318045
 31
0.0
  0
LINE
  5
37D
330
1F
100
AcDbEntity
  8
0
  6
Continuous
 62
     7
370
    15
100
AcDbLine
 10
909.0105260678
 20
592.1511402268
 30
0.0
 11
910.1030643054
 21
593.2436784643
 31
0.0
  0
LINE
  5
37E
330
1F
100
AcDbEntity
  8
0
  6
Continuous
 62
     7
370
    15
100
AcDbLine
 10
907.8164885708
 20
592.1511402268
 30
0.0
 11
909.0105260678
 21
592.1511402268
 31
0.0
  0
LINE
  5
37F
330
1F
100
AcDbEntity
  8
0
  6
Continuous
 62
     7
370
    15
100
AcDbLine
 10
907.8164885708
 20
592.1511402268
 30
0.0
 11
909.7570965954
 21
594.0917482514
 31
0.0
  0
ARC
  5
380
330
1F
100
AcDbEntity
  8
0
  6
Continuous
 62
     7
370
    15
100
AcDbCircle
 10
890.8097514685
 20
585.8676283485
 30
0.0
 40
20.65521811873143
100
AcDbArc
 50
20.9224165451
 51
23.4633171661
  0
LINE
  5
381
330
1F
100
AcDbEntity
  8
0
  6
Continuous
 62
     7
370
    15
100
AcDbLine
 10
909.3037064143
 20
590.6639149326
 30
0.0
 11
907.8164885708
 21
592.1511402268
 31
0.0
  0
LINE
  5
382
330
1F
100
AcDbEntity
  8
0
  6
Continuous
 62
     7
370
    15
100
AcDbLine
 10
909.5413575836
 20
591.6203012604
 30
0.0
 11
909.0105260678
 21
592.1511402268
 31
0.0
  0
SPLINE
  5
383
330
1F
100
AcDbEntity
  8
0
  6
Continuous
 62
     7
370
    15
100
AcDbSpline
210
0.0
220
0.0
230
1.0
 70
     8
 71
     3
 72
     8
 73
     4
 74
     0
 42
0.000000001
 43
0.00000001
 40
0.0
 40
0.0
 40
0.0
 40
0.0
 40
1.0
 40
1.0
 40
1.0
 40
1.0
 10
909.3037099294759
 20
590.6639151805724
 30
0.0
 10
909.358399830418
 20
591.0072363270178
 30
0.0
 10
909.4447427251006
 20
591.3189056262885
 30
0.0
 10
909.5413610944696
 20
591.6202997169509
 30
0.0
  0
ARC
  5
384
330
1F
100
AcDbEntity
  8
0
  6
Continuous
 62
     7
370
    15
100
AcDbCircle
 10
678.6444093057
 20
920.7494845528
 30
0.0
 40
4.594310741419342
100
AcDbArc
 50
162.1195566624
 51
271.7126675441
  0
ARC
  5
385
330
1F
100
AcDbEntity
  8
0
  6
Continuous
 62
     7
370
    15
100
AcDbCircle
 10
678.6444093057
 20
920.7494845528
 30
0.0
 40
3.750000000000115
100
AcDbArc
 50
154.4712206345
 51
266.8103148958
  0
ARC
  5
386
330
1F
100
AcDbEntity
  8
0
  6
Continuous
 62
     7
370
    15
100
AcDbCircle
 10
697.7290671445
 20
924.3813407577
 30
0.0
 40
20.65521812053105
100
AcDbArc
 50
200.9224165452
 51
203.463317166
  0
LINE
  5
387
330
1F
100
AcDbEntity
  8
0
  6
Continuous
 62
     7
370
    15
100
AcDbLine
 10
677.0282949277
 20
586.1156036991
 30
0.0
 11
674.7458542653
 21
583.8331630367
 31
0.0
  0
LINE
  5
388
330
1F
100
AcDbEntity
  8
0
  6
Continuous
 62
     7
370
    15
100
AcDbLine
 10
672.9780848094
 20
585.6009324927
 30
0.0
 11
675.2605254718
 21
587.883373155
 31
0.0
  0
LINE
  5
389
330
1F
100
AcDbEntity
  8
0
  6
Continuous
 62
     7
370
    15
100
AcDbLine
 10
679.5282925435
 20
592.1511402268
 30
0.0
 11
678.4357543059
 21
593.2436784643
 31
0.0
  0
LINE
  5
38A
330
1F
100
AcDbEntity
  8
0
  6
Continuous
 62
     7
370
    15
100
AcDbLine
 10
678.9974610277
 20
591.6203012604
 30
0.0
 11
679.5282925435
 21
592.1511402268
 31
0.0
  0
ARC
  5
38B
330
1F
100
AcDbEntity
  8
0
  6
Continuous
 62
     7
370
    15
100
AcDbCircle
 10
678.6444093057
 20
589.4994845528
 30
0.0
 40
2.149999999999967
100
AcDbArc
 50
80.5487440029
 51
9.4512559971
  0
LINE
  5
38C
330
1F
100
AcDbEntity
  8
0
  6
Continuous
 62
     7
370
    15
100
AcDbLine
 10
681.2960619994
 20
590.3833707709
 30
0.0
 11
680.7652230331
 21
589.8525318045
 31
0.0
  0
LINE
  5
38D
330
1F
100
AcDbEntity
  8
0
  6
Continuous
 62
     7
370
    15
100
AcDbLine
 10
682.388600237
 20
589.2908325333
 30
0.0
 11
681.2960619994
 21
590.3833707709
 31
0.0
  0
LINE
  5
38E
330
1F
100
AcDbEntity
  8
0
  6
Continuous
 62
     7
370
    15
100
AcDbLine
 10
681.2960619994
 20
591.5774008173
 30
0.0
 11
681.2960619994
 21
590.3833707709
 31
0.0
  0
SPLINE
  5
38F
330
1F
100
AcDbEntity
  8
0
  6
Continuous
 62
     7
370
    15
100
AcDbSpline
210
0.0
220
0.0
230
1.0
 70
     8
 71
     3
 72
     8
 73
     4
 74
     0
 42
0.000000001
 43
0.00000001
 40
0.0
 40
0.0
 40
0.0
 40
0.0
 40
1.0
 40
1.0
 40
1.0
 40
1.0
 10
679.8088399334616
 20
590.0901839289783
 30
0.0
 10
680.1521610799072
 20
590.0354940280363
 30
0.0
 10
680.4638303791777
 20
589.9491511333536
 30
0.0
 10
680.7652244698402
 20
589.8525327639846
 30
0.0
  0
LINE
  5
390
330
1F
100
AcDbEntity
  8
0
  6
Continuous
 62
     7
370
    15
100
AcDbLine
 10
681.2960619994
 20
591.5774008173
 30
0.0
 11
679.8088367053
 21
590.0901904244
 31
0.0
  0
SPLINE
  5
391
330
1F
100
AcDbEntity
  8
0
  6
Continuous
 62
     7
370
    15
100
AcDbSpline
210
0.0
220
0.0
230
1.0
 70
     8
 71
     3
 72
     8
 73
     4
 74
     0
 42
0.000000001
 43
0.00000001
 40
0.0
 40
0.0
 40
0.0
 40
0.0
 40
1.0
 40
1.0
 40
1.0
 40
1.0
 10
679.2351086818675
 20
590.6639151805724
 30
0.0
 10
679.1804187809254
 20
591.0072363270178
 30
0.0
 10
679.0940758862428
 20
591.3189056262885
 30
0.0
 10
678.9974575168737
 20
591.6202997169509
 30
0.0
  0
ARC
  5
392
330
1F
100
AcDbEntity
  8
0
  6
Continuous
 62
     7
370
    15
100
AcDbCircle
 10
678.6444093057
 20
589.4994845528
 30
0.0
 40
1.305689258580776
100
AcDbArc
 50
63.1019566017
 51
26.8980433983
  0
ARC
  5
393
330
1F
100
AcDbEntity
  8
0
  6
Continuous
 62
     7
370
    15
100
AcDbCircle
 10
678.6444093057
 20
920.7494845528
 30
0.0
 40
3.750000000000066
100
AcDbArc
 50
3.1896851042
 51
115.5287793655
  0
SPLINE
  5
394
330
1F
100
AcDbEntity
  8
0
  6
Continuous
 62
     7
370
    15
100
AcDbSpline
210
0.0
220
0.0
230
1.0
 70
     8
 71
     3
 72
     8
 73
     4
 74
     0
 42
0.000000001
 43
0.00000001
 40
0.0
 40
0.0
 40
0.0
 40
0.0
 40
1.0
 40
1.0
 40
1.0
 40
1.0
 10
677.2338098367927
 20
925.1218866759998
 30
0.0
 10
677.156469412717
 20
924.8012148854249
 30
0.0
 10
677.0865802208921
 20
924.4730921182337
 30
0.0
 10
677.0282927821548
 20
924.1333680292654
 30
0.0
  0
ARC
  5
395
330
1F
100
AcDbEntity
  8
0
  6
Continuous
 62
     7
370
    15
100
AcDbCircle
 10
678.6444093057
 20
920.7494845528
 30
0.0
 40
4.594310741419261
100
AcDbArc
 50
358.2873324559
 51
107.8804433376
  0
ARC
  5
396
330
1F
100
AcDbEntity
  8
0
  6
Continuous
 62
     7
370
    15
100
AcDbCircle
 10
674.4164218363
 20
900.2030964342
 30
0.0
 40
22.23347295377005
100
AcDbArc
 50
66.6273148398
 51
68.9878145412
  0
ARC
  5
397
330
1F
100
AcDbEntity
  8
0
  6
Continuous
 62
     7
370
    15
100
AcDbCircle
 10
678.6444093057
 20
920.7494845528
 30
0.0
 40
1.305689258580776
100
AcDbArc
 50
333.1019566017
 51
296.8980433983
  0
SPLINE
  5
398
330
1F
100
AcDbEntity
  8
0
  6
Continuous
 62
     7
370
    15
100
AcDbSpline
210
0.0
220
0.0
230
1.0
 70
     8
 71
     3
 72
     8
 73
     4
 74
     0
 42
0.000000001
 43
0.00000001
 40
0.0
 40
0.0
 40
0.0
 40
0.0
 40
1.0
 40
1.0
 40
1.0
 40
1.0
 10
679.2351086818675
 20
919.5850539249924
 30
0.0
 10
679.1804187809254
 20
919.2417327785469
 30
0.0
 10
679.0940758862428
 20
918.9300634792763
 30
0.0
 10
678.9974575168737
 20
918.6286693886138
 30
0.0
  0
ARC
  5
399
330
1F
100
AcDbEntity
  8
0
  6
Continuous
 62
     7
370
    15
100
AcDbCircle
 10
678.6444093057
 20
920.7494845528
 30
0.0
 40
2.149999999999967
100
AcDbArc
 50
350.5487440029
 51
279.4512559971
  0
SPLINE
  5
39A
330
1F
100
AcDbEntity
  8
0
  6
Continuous
 62
     7
370
    15
100
AcDbSpline
210
0.0
220
0.0
230
1.0
 70
     8
 71
     3
 72
     8
 73
     4
 74
     0
 42
0.000000001
 43
0.00000001
 40
0.0
 40
0.0
 40
0.0
 40
0.0
 40
1.0
 40
1.0
 40
1.0
 40
1.0
 10
679.8088399334616
 20
920.1587851765864
 30
0.0
 10
680.1521610799072
 20
920.2134750775284
 30
0.0
 10
680.4638303791777
 20
920.2998179722111
 30
0.0
 10
680.7652244698402
 20
920.39643634158
 30
0.0
  0
ARC
  5
39B
330
1F
100
AcDbEntity
  8
0
  6
Continuous
 62
     7
370
    15
100
AcDbCircle
 10
909.8944093057
 20
589.4994845528
 30
0.0
 40
1.305689258580877
100
AcDbArc
 50
153.1019566017
 51
116.8980433983
  0
ARC
  5
39C
330
1F
100
AcDbEntity
  8
0
  6
Continuous
 62
     7
370
    15
100
AcDbCircle
 10
909.8944093057
 20
589.4994845528
 30
0.0
 40
2.149999999999967
100
AcDbArc
 50
170.5487440029
 51
99.4512559971
  0
LINE
  5
39D
330
1F
100
AcDbEntity
  8
0
  6
Continuous
 62
     7
370
    15
100
AcDbLine
 10
677.0282949277
 20
924.1333654064
 30
0.0
 11
674.7458542653
 21
926.4158060688
 31
0.0
  0
LINE
  5
39E
330
1F
100
AcDbEntity
  8
0
  6
Continuous
 62
     7
370
    15
100
AcDbLine
 10
682.388600237
 20
920.9581365723
 30
0.0
 11
681.2960619994
 21
919.8655983347
 31
0.0
  0
LINE
  5
39F
330
1F
100
AcDbEntity
  8
0
  6
Continuous
 62
     7
370
    15
100
AcDbLine
 10
681.2960619994
 20
919.8655983347
 30
0.0
 11
680.7652230331
 21
920.3964373011
 31
0.0
  0
LINE
  5
3A0
330
1F
100
AcDbEntity
  8
0
  6
Continuous
 62
     7
370
    15
100
AcDbLine
 10
678.9974610277
 20
918.6286678452
 30
0.0
 11
679.5282925435
 21
918.0978288788
 31
0.0
  0
LINE
  5
3A1
330
1F
100
AcDbEntity
  8
0
  6
Continuous
 62
     7
370
    15
100
AcDbLine
 10
679.5282925435
 20
918.0978288788
 30
0.0
 11
678.4357543059
 21
917.0052906412
 31
0.0
  0
LINE
  5
3A2
330
1F
100
AcDbEntity
  8
0
  6
Continuous
 62
     7
370
    15
100
AcDbLine
 10
677.2338117429
 20
925.1218935389
 30
0.0
 11
676.337916679
 21
926.0177811522
 31
0.0
  0
SPLINE
  5
3A3
330
1F
100
AcDbEntity
  8
0
  6
Continuous
 62
     7
370
    15
100
AcDbSpline
210
0.0
220
0.0
230
1.0
 70
     8
 71
     3
 72
     8
 73
     4
 74
     0
 42
0.000000001
 43
0.00000001
 40
0.0
 40
0.0
 40
0.0
 40
0.0
 40
1.0
 40
1.0
 40
1.0
 40
1.0
 10
911.3050087745507
 20
925.1218866759998
 30
0.0
 10
911.3823491986263
 20
924.8012148854249
 30
0.0
 10
911.4522383904513
 20
924.4730921182337
 30
0.0
 10
911.5105258291885
 20
924.1333680292654
 30
0.0
  0
LINE
  5
3A4
330
1F
100
AcDbEntity
  8
0
  6
Continuous
 62
     7
370
    15
100
AcDbLine
 10
911.3050068685
 20
925.1218935389
 30
0.0
 11
912.2009019323
 21
926.0177811522
 31
0.0
  0
SPLINE
  5
3A5
330
1F
100
AcDbEntity
  8
0
  6
Continuous
 62
     7
370
    15
100
AcDbSpline
210
0.0
220
0.0
230
1.0
 70
     8
 71
     3
 72
     8
 73
     4
 74
     0
 42
0.000000001
 43
0.00000001
 40
0.0
 40
0.0
 40
0.0
 40
0.0
 40
1.0
 40
1.0
 40
1.0
 40
1.0
 10
914.2668114288894
 20
922.1600840216612
 30
0.0
 10
913.9461396383143
 20
922.2374244457369
 30
0.0
 10
913.618016871123
 20
922.3073136375618
 30
0.0
 10
913.2782927821547
 20
922.3656010762992
 30
0.0
  0
LINE
  5
3A6
330
1F
100
AcDbEntity
  8
0
  6
Continuous
 62
     7
370
    15
100
AcDbLine
 10
915.1627014347
 20
923.0559816498
 30
0.0
 11
914.2668138214
 21
922.1600791353
 31
0.0
  0
ARC
  5
3A7
330
1F
100
AcDbEntity
  8
0
  6
Continuous
 62
     7
370
    15
100
AcDbCircle
 10
909.8944093057
 20
589.4994845528
 30
0.0
 40
3.749999999999951
100
AcDbArc
 50
334.4712206345
 51
86.8103148958
  0
LINE
  5
3A8
330
1F
100
AcDbEntity
  8
0
  6
Continuous
 62
     7
370
    15
100
AcDbLine
 10
911.5105236836
 20
586.1156036991
 30
0.0
 11
913.792964346
 21
583.8331630367
 31
0.0
  0
ARC
  5
3A9
330
1F
100
AcDbEntity
  8
0
  6
Continuous
 62
     7
370
    15
100
AcDbCircle
 10
909.8944093057
 20
589.4994845528
 30
0.0
 40
3.750000000000064
100
AcDbArc
 50
183.1896851042
 51
295.5287793655
  0
LINE
  5
3AA
330
1F
100
AcDbEntity
  8
0
  6
Continuous
 62
     7
370
    15
100
AcDbLine
 10
911.3050068685
 20
585.1270755667
 30
0.0
 11
912.2009019323
 21
584.2311879534
 31
0.0
  0
SPLINE
  5
3AB
330
1F
100
AcDbEntity
  8
0
  6
Continuous
 62
     7
370
    15
100
AcDbSpline
210
0.0
220
0.0
230
1.0
 70
     8
 71
     3
 72
     8
 73
     4
 74
     0
 42
0.000000001
 43
0.00000001
 40
0.0
 40
0.0
 40
0.0
 40
0.0
 40
1.0
 40
1.0
 40
1.0
 40
1.0
 10
911.3050087745507
 20
585.1270824295649
 30
0.0
 10
911.3823491986263
 20
585.4477542201398
 30
0.0
 10
911.4522383904513
 20
585.775876987331
 30
0.0
 10
911.5105258291885
 20
586.1156010762993
 30
0.0
  0
LINE
  5
3AC
330
1F
100
AcDbEntity
  8
0
  6
Continuous
 62
     7
370
    15
100
AcDbLine
 10
907.8164885708
 20
918.0978288788
 30
0.0
 11
909.7570965954
 21
916.1572208542
 31
0.0
  0
LINE
  5
3AD
330
1F
100
AcDbEntity
  8
0
  6
Continuous
 62
     7
370
    15
100
AcDbLine
 10
907.8164885708
 20
918.0978288788
 30
0.0
 11
909.0105260678
 21
918.0978288788
 31
0.0
  0
ARC
  5
3AE
330
1F
100
AcDbEntity
  8
0
  6
Continuous
 62
     7
370
    15
100
AcDbCircle
 10
889.4283916346
 20
924.9448626579
 30
0.0
 40
22.14675808902211
100
AcDbArc
 50
336.6222577675
 51
338.9920085213
  0
LINE
  5
3AF
330
1F
100
AcDbEntity
  8
0
  6
Continuous
 62
     7
370
    15
100
AcDbLine
 10
673.3761171766
 20
587.1929874558
 30
0.0
 11
674.2720047899
 21
588.0888899702
 31
0.0
  0
SPLINE
  5
3B0
330
1F
100
AcDbEntity
  8
0
  6
Continuous
 62
     7
370
    15
100
AcDbSpline
210
0.0
220
0.0
230
1.0
 70
     8
 71
     3
 72
     8
 73
     4
 74
     0
 42
0.000000001
 43
0.00000001
 40
0.0
 40
0.0
 40
0.0
 40
0.0
 40
1.0
 40
1.0
 40
1.0
 40
1.0
 10
908.7299786778817
 20
920.1587851765864
 30
0.0
 10
908.3866575314363
 20
920.2134750775284
 30
0.0
 10
908.0749882321657
 20
920.2998179722111
 30
0.0
 10
907.7735941415033
 20
920.39643634158
 30
0.0
  0
SPLINE
  5
3B1
330
1F
100
AcDbEntity
  8
0
  6
Continuous
 62
     7
370
    15
100
AcDbSpline
210
0.0
220
0.0
230
1.0
 70
     8
 71
     3
 72
     8
 73
     4
 74
     0
 42
0.000000001
 43
0.00000001
 40
0.0
 40
0.0
 40
0.0
 40
0.0
 40
1.0
 40
1.0
 40
1.0
 40
1.0
 10
909.3037099294759
 20
919.5850539249924
 30
0.0
 10
909.358399830418
 20
919.2417327785469
 30
0.0
 10
909.4447427251006
 20
918.9300634792763
 30
0.0
 10
909.5413610944696
 20
918.6286693886138
 30
0.0
  0
ARC
  5
3B2
330
1F
100
AcDbEntity
  8
0
  6
Continuous
 62
     7
370
    15
100
AcDbCircle
 10
909.8944093057
 20
920.7494845528
 30
0.0
 40
1.305689258580877
100
AcDbArc
 50
243.1019566017
 51
206.8980433983
  0
ARC
  5
3B3
330
1F
100
AcDbEntity
  8
0
  6
Continuous
 62
     7
370
    15
100
AcDbCircle
 10
909.8944093057
 20
920.7494845528
 30
0.0
 40
4.594310741419404
100
AcDbArc
 50
268.2873324559
 51
17.8804433376
  0
LINE
  5
3B4
330
1F
100
AcDbEntity
  8
0
  6
Continuous
 62
     7
370
    15
100
AcDbLine
 10
683.236670024
 20
589.6367927927
 30
0.0
 11
681.2960619994
 21
591.5774008173
 31
0.0
  0
LINE
  5
3B5
330
1F
100
AcDbEntity
  8
0
  6
Continuous
 62
     7
370
    15
100
AcDbLine
 10
680.7223300406
 20
592.1511402268
 30
0.0
 11
678.781722016
 21
594.0917482514
 31
0.0
  0
LINE
  5
3B6
330
1F
100
AcDbEntity
  8
0
  6
Continuous
 62
     7
370
    15
100
AcDbLine
 10
680.7223300406
 20
592.1511402268
 30
0.0
 11
679.5282925435
 21
592.1511402268
 31
0.0
  0
LINE
  5
3B7
330
1F
100
AcDbEntity
  8
0
  6
Continuous
 62
     7
370
    15
100
AcDbLine
 10
683.236670024
 20
920.6121763128
 30
0.0
 11
681.2960619994
 21
918.6715682882
 31
0.0
  0
LINE
  5
3B8
330
1F
100
AcDbEntity
  8
0
  6
Continuous
 62
     7
370
    15
100
AcDbLine
 10
681.2960619994
 20
918.6715682882
 30
0.0
 11
681.2960619994
 21
919.8655983347
 31
0.0
  0
LINE
  5
3B9
330
1F
100
AcDbEntity
  8
0
  6
Continuous
 62
     7
370
    15
100
AcDbLine
 10
677.2338117429
 20
585.1270755667
 30
0.0
 11
676.337916679
 21
584.2311879534
 31
0.0
  0
LINE
  5
3BA
330
1F
100
AcDbEntity
  8
0
  6
Continuous
 62
     7
370
    15
100
AcDbLine
 10
679.235112197
 20
590.6639149326
 30
0.0
 11
680.7223300406
 21
592.1511402268
 31
0.0
  0
LINE
  5
3BB
330
1F
100
AcDbEntity
  8
0
  6
Continuous
 62
     7
370
    15
100
AcDbLine
 10
681.2960619994
 20
918.6715682882
 30
0.0
 11
679.8088367053
 21
920.1587786812
 31
0.0
  0
ARC
  5
3BC
330
1F
100
AcDbEntity
  8
0
  6
Continuous
 62
     7
370
    15
100
AcDbCircle
 10
909.8944093057
 20
589.4994845528
 30
0.0
 40
4.594310741419226
100
AcDbArc
 50
178.2873324559
 51
287.8804433376
  0
LINE
  5
3BD
330
1F
100
AcDbEntity
  8
0
  6
Continuous
 62
     7
370
    15
100
AcDbLine
 10
907.2427566119
 20
918.6715682882
 30
0.0
 11
907.2427566119
 21
919.8655983347
 31
0.0
  0
LINE
  5
3BE
330
1F
100
AcDbEntity
  8
0
  6
Continuous
 62
     7
370
    15
100
AcDbLine
 10
907.2427566119
 20
918.6715682882
 30
0.0
 11
908.729981906
 21
920.1587786812
 31
0.0
  0
LINE
  5
3BF
330
1F
100
AcDbEntity
  8
0
  6
Continuous
 62
     7
370
    15
100
AcDbLine
 10
680.7223300406
 20
918.0978288788
 30
0.0
 11
679.5282925435
 21
918.0978288788
 31
0.0
  0
LINE
  5
3C0
330
1F
100
AcDbEntity
  8
0
  6
Continuous
 62
     7
370
    15
100
AcDbLine
 10
680.7223300406
 20
918.0978288788
 30
0.0
 11
678.781722016
 21
916.1572208542
 31
0.0
  0
ARC
  5
3C1
330
1F
100
AcDbEntity
  8
0
  6
Continuous
 62
     7
370
    15
100
AcDbCircle
 10
909.8944093057
 20
589.4994845528
 30
0.0
 40
4.594310741419342
100
AcDbArc
 50
342.1195566624
 51
91.7126675441
  0
LINE
  5
3C2
330
1F
100
AcDbEntity
  8
0
  6
Continuous
 62
     7
370
    15
100
AcDbLine
 10
905.3021485873
 20
920.6121763128
 30
0.0
 11
907.2427566119
 21
918.6715682882
 31
0.0
  0
ARC
  5
3C3
330
1F
100
AcDbEntity
  8
0
  6
Continuous
 62
     7
370
    15
100
AcDbCircle
 10
913.5216056182
 20
901.6758460191
 30
0.0
 40
20.64325746766108
100
AcDbArc
 50
110.921252689
 51
113.46361793
  0
LINE
  5
3C4
330
1F
100
AcDbEntity
  8
0
  6
Continuous
 62
     7
370
    15
100
AcDbLine
 10
679.235112197
 20
919.5850541729
 30
0.0
 11
680.7223300406
 21
918.0978288788
 31
0.0
  0
LINE
  5
3C5
330
1F
100
AcDbEntity
  8
0
  6
Continuous
 62
     7
370
    15
100
AcDbLine
 10
909.3037064143
 20
919.5850541729
 30
0.0
 11
907.8164885708
 21
918.0978288788
 31
0.0
  0
ARC
  5
3C6
330
1F
100
AcDbEntity
  8
0
  6
Continuous
 62
     7
370
    15
100
AcDbCircle
 10
909.8944093057
 20
920.7494845528
 30
0.0
 40
4.594310741419191
100
AcDbArc
 50
72.1195566624
 51
181.7126675441
  0
CIRCLE
  5
3C7
330
1F
100
AcDbEntity
  8
0
  6
Continuous
 62
     7
370
    15
100
AcDbCircle
 10
899.2694093057
 20
910.1244845528
 30
0.0
 40
2.600000000000136
  0
CIRCLE
  5
3C8
330
1F
100
AcDbEntity
  8
0
  6
Continuous
 62
     7
370
    15
100
AcDbCircle
 10
899.2694093057
 20
910.1244845528
 30
0.0
 40
2.512731322092577
  0
CIRCLE
  5
3C9
330
1F
100
AcDbEntity
  8
0
  6
Continuous
 62
     7
370
    15
100
AcDbCircle
 10
689.2694093057
 20
910.1244845528
 30
0.0
 40
6.0
  0
CIRCLE
  5
3CA
330
1F
100
AcDbEntity
  8
0
  6
Continuous
 62
     7
370
    15
100
AcDbCircle
 10
689.2694093057
 20
910.1244845528
 30
0.0
 40
5.580737765735648
  0
CIRCLE
  5
3CB
330
1F
100
AcDbEntity
  8
0
  6
Continuous
 62
     7
370
    15
100
AcDbCircle
 10
689.2694093057
 20
910.1244845528
 30
0.0
 40
2.599999999999909
  0
CIRCLE
  5
3CC
330
1F
100
AcDbEntity
  8
0
  6
Continuous
 62
     7
370
    15
100
AcDbCircle
 10
689.2694093057
 20
910.1244845528
 30
0.0
 40
2.51273132209235
  0
CIRCLE
  5
3CD
330
1F
100
AcDbEntity
  8
0
  6
Continuous
 62
     7
370
    15
100
AcDbCircle
 10
899.2694093057
 20
910.1244845528
 30
0.0
 40
5.999999999999886
  0
CIRCLE
  5
3CE
330
1F
100
AcDbEntity
  8
0
  6
Continuous
 62
     7
370
    15
100
AcDbCircle
 10
899.2694093057
 20
910.1244845528
 30
0.0
 40
5.580737765735762
  0
CIRCLE
  5
3CF
330
1F
100
AcDbEntity
  8
0
  6
Continuous
 62
     7
370
    15
100
AcDbCircle
 10
899.2694093057
 20
600.1244845528
 30
0.0
 40
5.580737765735762
  0
CIRCLE
  5
3D0
330
1F
100
AcDbEntity
  8
0
  6
Continuous
 62
     7
370
    15
100
AcDbCircle
 10
899.2694093057
 20
600.1244845528
 30
0.0
 40
2.600000000000136
  0
CIRCLE
  5
3D1
330
1F
100
AcDbEntity
  8
0
  6
Continuous
 62
     7
370
    15
100
AcDbCircle
 10
899.2694093057
 20
600.1244845528
 30
0.0
 40
2.512731322092577
  0
CIRCLE
  5
3D2
330
1F
100
AcDbEntity
  8
0
  6
Continuous
 62
     7
370
    15
100
AcDbCircle
 10
689.2694093057
 20
600.1244845528
 30
0.0
 40
2.599999999999909
  0
CIRCLE
  5
3D3
330
1F
100
AcDbEntity
  8
0
  6
Continuous
 62
     7
370
    15
100
AcDbCircle
 10
689.2694093057
 20
600.1244845528
 30
0.0
 40
2.51273132209235
  0
CIRCLE
  5
3D4
330
1F
100
AcDbEntity
  8
0
  6
Continuous
 62
     7
370
    15
100
AcDbCircle
 10
689.2694093057
 20
600.1244845528
 30
0.0
 40
5.580737765735648
  0
CIRCLE
  5
3D5
330
1F
100
AcDbEntity
  8
0
  6
Continuous
 62
     7
370
    15
100
AcDbCircle
 10
899.2694093057
 20
600.1244845528
 30
0.0
 40
5.999999999999886
  0
CIRCLE
  5
3D6
330
1F
100
AcDbEntity
  8
0
  6
Continuous
 62
     7
370
    15
100
AcDbCircle
 10
689.2694093057
 20
600.1244845528
 30
0.0
 40
6.0
  0
LINE
  5
3D7
330
1F
100
AcDbEntity
  8
0
  6
Continuous
 62
     7
370
    15
100
AcDbLine
 10
933.1929500171
 20
886.0925188202
 30
0.0
 11
933.1929500171
 21
949.0480324167
 31
0.0
  0
LINE
  5
3D8
330
1F
100
AcDbEntity
  8
0
  6
Continuous
 62
     7
370
    15
100
AcDbLine
 10
655.3458685943
 20
624.1564502854
 30
0.0
 11
655.3458685943
 21
561.2009366888
 31
0.0
  0
LINE
  5
3D9
330
1F
100
AcDbEntity
  8
0
  6
Continuous
 62
     7
370
    15
100
AcDbLine
 10
655.4354692765
 20
949.0480324167
 30
0.0
 11
655.4354692765
 21
886.0972275871
 31
0.0
  0
LINE
  5
3DA
330
1F
100
AcDbEntity
  8
0
  6
Continuous
 62
     7
370
    15
100
AcDbLine
 10
933.1033493348
 20
561.2009366888
 30
0.0
 11
933.1033493348
 21
624.1517415184
 31
0.0
  0
CIRCLE
  5
3DB
330
1F
100
AcDbEntity
  8
0
  6
Continuous
 62
     7
370
    15
100
AcDbCircle
 10
924.2694093057
 20
575.1244845528
 30
0.0
 40
4.0
  0
CIRCLE
  5
3DC
330
1F
100
AcDbEntity
  8
0
  6
Continuous
 62
     7
370
    15
100
AcDbCircle
 10
664.2694093057
 20
935.1244845528
 30
0.0
 40
4.0
  0
CIRCLE
  5
3DD
330
1F
100
AcDbEntity
  8
0
  6
Continuous
 62
     7
370
    15
100
AcDbCircle
 10
924.2694093057
 20
935.1244845528
 30
0.0
 40
4.0
  0
CIRCLE
  5
3DE
330
1F
100
AcDbEntity
  8
0
  6
Continuous
 62
     7
370
    15
100
AcDbCircle
 10
664.2694093057
 20
575.1244845528
 30
0.0
 40
4.000000000000114
  0
ELLIPSE
  5
3DF
330
1F
100
AcDbEntity
  8
0
  6
Continuous
 62
     7
370
    15
100
AcDbEllipse
 10
513.807627798
 20
950.0606819939
 30
0.0
 11
0.01121229774457789
 21
2.000073810198842
 31
0.0
210
0.0
220
0.0
230
1.0
 40
0.5002600786
 41
1.552528304803495
 42
1.56456474650429
  0
LINE
  5
3E0
330
1F
100
AcDbEntity
  8
0
  6
Continuous
 62
     7
370
    15
100
AcDbLine
 10
512.8071661077
 20
950.0787606377
 30
0.0
 11
338.2999504886
 21
953.1247964043
 31
0.0
  0
LINE
  5
3E1
330
1F
100
AcDbEntity
  8
0
  6
Continuous
 62
     7
370
    15
100
AcDbLine
 10
338.2999504886
 20
953.1247964043
 30
0.0
 11
338.2999504886
 21
955.124487533
 31
0.0
  0
LINE
  5
3E2
330
1F
100
AcDbEntity
  8
0
  6
Continuous
 62
     7
370
    15
100
AcDbLine
 10
338.2999504886
 20
955.124487533
 30
0.0
 11
512.4031956277
 21
952.0855000157
 31
0.0
  0
ELLIPSE
  5
3E3
330
1F
100
AcDbEntity
  8
0
  6
Continuous
 62
     7
370
    15
100
AcDbEllipse
 10
512.3682905098
 20
950.0858057197
 30
0.0
 11
0.03490481287451531
 21
1.999695390312809
 31
0.0
210
0.0
220
0.0
230
1.0
 40
0.2194107328
 41
4.724730008580574
 42
6.283185307179586
  0
LINE
  5
3E4
330
1F
100
AcDbEntity
  8
0
  6
Continuous
 62
     7
370
    15
100
AcDbLine
 10
338.2999504886
 20
555.1244815726
 30
0.0
 11
338.2999504886
 21
557.1241727013
 31
0.0
  0
LINE
  5
3E5
330
1F
100
AcDbEntity
  8
0
  6
Continuous
 62
     7
370
    15
100
AcDbLine
 10
338.2999504886
 20
557.1241727013
 30
0.0
 11
512.8071661077
 21
560.1702084679
 31
0.0
  0
ELLIPSE
  5
3E6
330
1F
100
AcDbEntity
  8
0
  6
Continuous
 62
     7
370
    15
100
AcDbEllipse
 10
513.807627798
 20
560.1882871117
 30
0.0
 11
-0.01121229774457788
 21
2.000073810199069
 31
0.0
210
0.0
220
0.0
230
1.0
 40
0.5002600786
 41
1.577027907085558
 42
1.589064348786237
  0
ELLIPSE
  5
3E7
330
1F
100
AcDbEntity
  8
0
  6
Continuous
 62
     7
370
    15
100
AcDbEllipse
 10
512.3682905098
 20
560.1631633859
 30
0.0
 11
-0.0349048128745153
 21
1.999695390312695
 31
0.0
210
0.0
220
0.0
230
1.0
 40
0.2194107328
 41
3.141592653590106
 42
4.700047952188814
  0
LINE
  5
3E8
330
1F
100
AcDbEntity
  8
0
  6
Continuous
 62
     7
370
    15
100
AcDbLine
 10
512.4031956277
 20
558.1634690899
 30
0.0
 11
338.2999504886
 21
555.1244815726
 31
0.0
  0
LINE
  5
3E9
330
1F
100
AcDbEntity
  8
0
  6
Continuous
 62
     7
370
    15
100
AcDbLine
 10
512.8071661077
 20
560.1702084679
 30
0.0
 11
512.8071661077
 21
950.0787606377
 31
0.0
  0
LINE
  5
3EA
330
1F
100
AcDbEntity
  8
0
  6
Continuous
 62
     7
370
    15
100
AcDbLine
 10
338.2999504886
 20
557.1241727013
 30
0.0
 11
338.2999504886
 21
953.1247964043
 31
0.0
  0
ELLIPSE
  5
3EB
330
1F
100
AcDbEntity
  8
0
  6
Continuous
 62
     7
370
    15
100
AcDbEllipse
 10
514.5147345792
 20
950.0606819939
 30
0.0
 11
0.9405245924612019
 21
-0.3992290035257611
 31
0.0
210
0.0
220
0.0
230
1.0
 40
0.9751955544
 41
3.522026853716585
 42
3.534063295417282
  0
LINE
  5
3EC
330
1F
100
AcDbEntity
  8
0
  6
Continuous
 62
     7
370
    15
100
AcDbLine
 10
513.49682165
 20
950.0787606377
 30
0.0
 11
512.8071661077
 21
950.0787606377
 31
0.0
  0
ARC
  5
3ED
330
1F
100
AcDbEntity
  8
0
  6
Continuous
 62
     7
370
    15
100
AcDbCircle
 10
512.1003347543
 20
889.8677945793
 30
0.0
 40
60.23918178972971
100
AcDbArc
 50
88.6715724315
 51
89.3274210513
  0
LINE
  5
3EE
330
1F
100
AcDbEntity
  8
0
  6
Continuous
 62
     7
370
    15
100
AcDbLine
 10
513.49682165
 20
950.0787606377
 30
0.0
 11
513.49682165
 21
560.1702084679
 31
0.0
  0
LINE
  5
3EF
330
1F
100
AcDbEntity
  8
0
  6
Continuous
 62
     7
370
    15
100
AcDbLine
 10
512.8071661077
 20
560.1702084679
 30
0.0
 11
513.49682165
 21
560.1702084679
 31
0.0
  0
ELLIPSE
  5
3F0
330
1F
100
AcDbEntity
  8
0
  6
Continuous
 62
     7
370
    15
100
AcDbEllipse
 10
514.5147345792
 20
560.1882871117
 30
0.0
 11
0.9405245924612016
 21
0.3992290035258746
 31
0.0
210
0.0
220
0.0
230
1.0
 40
0.9751955544
 41
2.749122011762106
 42
2.761158453462804
  0
ARC
  5
3F1
330
1F
100
AcDbEntity
  8
0
  6
Continuous
 62
     7
370
    15
100
AcDbCircle
 10
512.1003347543
 20
620.3811745262
 30
0.0
 40
60.23918178972993
100
AcDbArc
 50
270.6725789487
 51
271.3284275685
  0
ELLIPSE
  5
3F2
330
1F
100
AcDbEntity
  8
0
  6
Continuous
 62
     7
370
    15
100
AcDbEllipse
 10
512.3682905098
 20
950.0858057197
 30
0.0
 11
0.03490481287451531
 21
1.999695390312809
 31
0.0
210
0.0
220
0.0
230
1.0
 40
0.5642123218
 41
4.724730008580599
 42
6.283185307179586
  0
ELLIPSE
  5
3F3
330
1F
100
AcDbEntity
  8
0
  6
Continuous
 62
     7
370
    15
100
AcDbEllipse
 10
512.3682905098
 20
560.1631633859
 30
0.0
 11
-0.0349048128745153
 21
1.999695390312695
 31
0.0
210
0.0
220
0.0
230
1.0
 40
0.5642123218
 41
3.141592653589915
 42
4.700047952188794
  0
LINE
  5
3F4
330
1F
100
AcDbEntity
  8
0
  6
Continuous
 62
     7
370
    15
100
AcDbLine
 10
518.0070604167
 20
950.0120630402
 30
0.0
 11
513.4968812547
 21
950.0907858748
 31
0.0
  0
LINE
  5
3F5
330
1F
100
AcDbEntity
  8
0
  6
Continuous
 62
     7
370
    15
100
AcDbLine
 10
518.0070604167
 20
560.2369060654
 30
0.0
 11
518.0070604167
 21
950.0120630402
 31
0.0
  0
LINE
  5
3F6
330
1F
100
AcDbEntity
  8
0
  6
Continuous
 62
     7
370
    15
100
AcDbLine
 10
513.4968812547
 20
560.1581832308
 30
0.0
 11
518.0070604167
 21
560.2369060654
 31
0.0
  0
ELLIPSE
  5
3F7
330
1F
100
AcDbEntity
  8
0
  6
Continuous
 62
     7
370
    15
100
AcDbEllipse
 10
517.2999504886
 20
949.9997232745
 30
0.0
 11
0.01495979449202878
 21
2.00003109914519
 31
0.0
210
0.0
220
0.0
230
1.0
 40
0.3534956924
 41
4.721204263592721
 42
4.726316527916756
  0
ELLIPSE
  5
3F8
330
1F
100
AcDbEntity
  8
0
  6
Continuous
 62
     7
370
    15
100
AcDbEllipse
 10
516.2999504886
 20
950.0171783395
 30
0.0
 11
0.03490481287462899
 21
1.999695390312809
 31
0.0
210
0.0
220
0.0
230
1.0
 40
0.8535264636
 41
4.729842272904654
 42
6.283185307179586
  0
LINE
  5
3F9
330
1F
100
AcDbEntity
  8
0
  6
Continuous
 62
     7
370
    15
100
AcDbLine
 10
512.4031956277
 20
952.0855000157
 30
0.0
 11
516.3348521075
 21
952.0168801684
 31
0.0
  0
ELLIPSE
  5
3FA
330
1F
100
AcDbEntity
  8
0
  6
Continuous
 62
     7
370
    15
100
AcDbEllipse
 10
517.2999504886
 20
560.249245831
 30
0.0
 11
-0.01495979449202878
 21
2.000031099145304
 31
0.0
210
0.0
220
0.0
230
1.0
 40
0.3534956924
 41
4.698461432852577
 42
4.703573697176669
  0
ELLIPSE
  5
3FB
330
1F
100
AcDbEntity
  8
0
  6
Continuous
 62
     7
370
    15
100
AcDbEllipse
 10
516.2999504886
 20
560.2317907661
 30
0.0
 11
-0.03490481287462899
 21
1.999695390312695
 31
0.0
210
0.0
220
0.0
230
1.0
 40
0.8535264636
 41
3.141592653589792
 42
4.694935687864691
  0
LINE
  5
3FC
330
1F
100
AcDbEntity
  8
0
  6
Continuous
 62
     7
370
    15
100
AcDbLine
 10
516.3348521075
 20
558.2320889372
 30
0.0
 11
512.4031956277
 21
558.1634690899
 31
0.0
  0
LINE
  5
3FD
330
1F
100
AcDbEntity
  8
0
  6
Continuous
 62
     7
370
    15
100
AcDbLine
 10
518.0070604167
 20
560.2369060654
 30
0.0
 11
518.2999576411
 21
560.2369060654
 31
0.0
  0
LINE
  5
3FE
330
1F
100
AcDbEntity
  8
0
  6
Continuous
 62
     7
370
    15
100
AcDbLine
 10
518.2999576411
 20
560.2369060654
 30
0.0
 11
518.2999576411
 21
560.2317949671
 31
0.0
  0
ARC
  5
3FF
330
1F
100
AcDbEntity
  8
0
  6
Continuous
 62
     7
370
    15
100
AcDbCircle
 10
518.049757968
 20
566.1750592945
 30
0.0
 40
5.948528451783393
100
AcDbArc
 50
269.5890239202
 51
272.4106155994
  0
LINE
  5
400
330
1F
100
AcDbEntity
  8
0
  6
Continuous
 62
     7
370
    15
100
AcDbLine
 10
518.2999576411
 20
950.0120630402
 30
0.0
 11
518.0070604167
 21
950.0120630402
 31
0.0
  0
ARC
  5
401
330
1F
100
AcDbEntity
  8
0
  6
Continuous
 62
     7
370
    15
100
AcDbCircle
 10
518.049757968
 20
944.0739098111
 30
0.0
 40
5.948528451783507
100
AcDbArc
 50
87.5893844006
 51
90.4109760798
  0
LINE
  5
402
330
1F
100
AcDbEntity
  8
0
  6
Continuous
 62
     7
370
    15
100
AcDbLine
 10
518.2999576411
 20
950.0171741385
 30
0.0
 11
518.2999576411
 21
950.0120630402
 31
0.0
  0
LINE
  5
403
330
1F
100
AcDbEntity
  8
0
  6
Continuous
 62
     7
370
    15
100
AcDbLine
 10
518.2999576411
 20
950.0120630402
 30
0.0
 11
518.2999576411
 21
560.2369060654
 31
0.0
  0
ARC
  5
404
330
1F
100
AcDbEntity
  8
0
  6
Continuous
 62
     7
370
    15
100
AcDbCircle
 10
516.2999504886
 20
950.0171783395
 30
0.0
 40
2.000000000000027
100
AcDbArc
 50
0.0
 51
89.0
  0
ARC
  5
405
330
1F
100
AcDbEntity
  8
0
  6
Continuous
 62
     7
370
    15
100
AcDbCircle
 10
516.2999504886
 20
560.2317907661
 30
0.0
 40
2.000000000000027
100
AcDbArc
 50
271.0
 51
0.0
  0
SPLINE
  5
406
330
1F
100
AcDbEntity
  8
0
  6
Continuous
 62
     7
370
    15
100
AcDbSpline
210
0.0
220
0.0
230
1.0
 70
     8
 71
     3
 72
    18
 73
    14
 74
     0
 42
0.000000001
 43
0.00000001
 40
0.0
 40
0.0
 40
0.0
 40
0.0
 40
0.2499999999999884
 40
0.2499999999999884
 40
0.37499999999999
 40
0.37499999999999
 40
0.4999999999999916
 40
0.4999999999999916
 40
0.7499999999999947
 40
0.7499999999999947
 40
0.8749999999999973
 40
0.8749999999999973
 40
1.0
 40
1.0
 40
1.0
 40
1.0
 10
338.2999501322675
 20
919.3817323396121
 30
0.0
 10
338.2969657615575
 20
918.9146417631018
 30
0.0
 10
338.2950510125156
 20
918.4095345240428
 30
0.0
 10
338.2931347359803
 20
917.5971789127844
 30
0.0
 10
338.292665466034
 20
917.3172101830968
 30
0.0
 10
338.2920391142414
 20
916.7384867585753
 30
0.0
 10
338.2918838500273
 20
916.4387461779162
 30
0.0
 10
338.291885492533
 20
915.5304630443707
 30
0.0
 10
338.2924837228209
 20
914.9072355529526
 30
0.0
 10
338.2943987309832
 20
913.9460757498402
 30
0.0
 10
338.2952135598608
 20
913.6201459180477
 30
0.0
 10
338.2972584147648
 20
912.9641220090977
 30
0.0
 10
338.2984766452421
 20
912.6370651084239
 30
0.0
 10
338.2999501322771
 20
912.310933772342
 30
0.0
  0
SPLINE
  5
407
330
1F
100
AcDbEntity
  8
0
  6
Continuous
 62
     7
370
    15
100
AcDbSpline
210
0.0
220
0.0
230
1.0
 70
     8
 71
     3
 72
    16
 73
    12
 74
     0
 42
0.000000001
 43
0.00000001
 40
0.0
 40
0.0
 40
0.0
 40
0.0
 40
0.2500000000000078
 40
0.2500000000000078
 40
0.3750000000000065
 40
0.3750000000000065
 40
0.5000000000000052
 40
0.5000000000000052
 40
0.7500000000000026
 40
0.7500000000000026
 40
1.0
 40
1.0
 40
1.0
 40
1.0
 10
338.2999501322805
 20
597.9380353332226
 30
0.0
 10
338.2969684070362
 20
597.2780810787519
 30
0.0
 10
338.2950544909189
 20
596.6291420647939
 30
0.0
 10
338.2931380951953
 20
595.6715826742297
 30
0.0
 10
338.292668527472
 20
595.3550573021814
 30
0.0
 10
338.2920410564986
 20
594.7274497668919
 30
0.0
 10
338.2918849453638
 20
594.4154910158659
 30
0.0
 10
338.2918833018608
 20
593.507976910083
 30
0.0
 10
338.2924784100814
 20
592.9340460961673
 30
0.0
 10
338.2950220390188
 20
591.8477662680943
 30
0.0
 10
338.296968407388
 20
591.333913236993
 30
0.0
 10
338.2999501322637
 20
590.8672367659526
 30
0.0
  0
LINE
  5
408
330
1F
100
AcDbEntity
  8
0
  6
Continuous
 62
     7
370
    15
100
AcDbLine
 10
318.2999509356
 20
590.941180839
 30
0.0
 11
318.2999509356
 21
597.9381998915
 31
0.0
  0
LINE
  5
409
330
1F
100
AcDbEntity
  8
0
  6
Continuous
 62
     7
370
    15
100
AcDbLine
 10
318.2999509356
 20
597.9381998915
 30
0.0
 11
338.2999504886
 21
597.9381998915
 31
0.0
  0
LINE
  5
40A
330
1F
100
AcDbEntity
  8
0
  6
Continuous
 62
     7
370
    15
100
AcDbLine
 10
338.2999504886
 20
590.8671220679
 30
0.0
 11
318.2999509356
 21
590.941180839
 31
0.0
  0
LINE
  5
40B
330
1F
100
AcDbEntity
  8
0
  6
Continuous
 62
     7
370
    15
100
AcDbLine
 10
318.2999509356
 20
912.3107692141
 30
0.0
 11
318.2999509356
 21
919.3077882666
 31
0.0
  0
LINE
  5
40C
330
1F
100
AcDbEntity
  8
0
  6
Continuous
 62
     7
370
    15
100
AcDbLine
 10
318.2999509356
 20
919.3077882666
 30
0.0
 11
338.2999504886
 21
919.3818470377
 31
0.0
  0
LINE
  5
40D
330
1F
100
AcDbEntity
  8
0
  6
Continuous
 62
     7
370
    15
100
AcDbLine
 10
338.2999504886
 20
912.3107692141
 30
0.0
 11
318.2999509356
 21
912.3107692141
 31
0.0
  0
LINE
  5
40E
330
1F
100
AcDbEntity
  8
0
  6
Continuous
 62
     7
370
    15
100
AcDbLine
 10
318.2999509356
 20
597.9381998915
 30
0.0
 11
318.2999509356
 21
912.3107692141
 31
0.0
  0
LINE
  5
40F
330
1F
100
AcDbEntity
  8
0
  6
Continuous
 62
     7
370
    15
100
AcDbLine
 10
318.2999509356
 20
575.5126079458
 30
0.0
 11
338.2999504886
 21
575.4385640759
 31
0.0
  0
LINE
  5
410
330
1F
100
AcDbEntity
  8
0
  6
Continuous
 62
     7
370
    15
100
AcDbLine
 10
318.2999509356
 20
575.5126079458
 30
0.0
 11
318.2999509356
 21
590.941180839
 31
0.0
  0
LINE
  5
411
330
1F
100
AcDbEntity
  8
0
  6
Continuous
 62
     7
370
    15
100
AcDbLine
 10
338.2999504886
 20
934.8104050297
 30
0.0
 11
318.2999509356
 21
934.7363611597
 31
0.0
  0
LINE
  5
412
330
1F
100
AcDbEntity
  8
0
  6
Continuous
 62
     7
370
    15
100
AcDbLine
 10
318.2999509356
 20
919.3077882666
 30
0.0
 11
318.2999509356
 21
934.7363611597
 31
0.0
  0
SPLINE
  5
413
330
1F
100
AcDbEntity
  8
0
  6
Continuous
 62
     7
370
    15
100
AcDbSpline
210
0.0
220
0.0
230
1.0
 70
     8
 71
     3
 72
    18
 73
    14
 74
     0
 42
0.000000001
 43
0.00000001
 40
0.0
 40
0.0
 40
0.0
 40
0.0
 40
0.2499999999999945
 40
0.2499999999999945
 40
0.3749999999999957
 40
0.3749999999999957
 40
0.4999999999999969
 40
0.4999999999999969
 40
0.7499999999999992
 40
0.7499999999999992
 40
0.8749999999999997
 40
0.8749999999999997
 40
1.0
 40
1.0
 40
1.0
 40
1.0
 10
338.2999501663505
 20
937.7332391882653
 30
0.0
 10
338.2972384814622
 20
937.7111897711776
 30
0.0
 10
338.2954762904466
 20
937.6303243025038
 30
0.0
 10
338.2937155268972
 20
937.4244572044048
 30
0.0
 10
338.2932838734642
 20
937.3416437333465
 30
0.0
 10
338.2927075278797
 20
937.1471061669022
 30
0.0
 10
338.292563706727
 20
937.0346644217108
 30
0.0
 10
338.2925645662414
 20
936.6592471725708
 30
0.0
 10
338.293119281115
 20
936.3583509277302
 30
0.0
 10
338.2948761219134
 20
935.8326543315709
 30
0.0
 10
338.2956187112895
 20
935.6449493170895
 30
0.0
 10
338.2974864167232
 20
935.2438549844084
 30
0.0
 10
338.2986077731923
 20
935.0314229344247
 30
0.0
 10
338.2999501663385
 20
934.8105100227484
 30
0.0
  0
SPLINE
  5
414
330
1F
100
AcDbEntity
  8
0
  6
Continuous
 62
     7
370
    15
100
AcDbSpline
210
0.0
220
0.0
230
1.0
 70
     8
 71
     3
 72
    18
 73
    14
 74
     0
 42
0.000000001
 43
0.00000001
 40
0.0
 40
0.0
 40
0.0
 40
0.0
 40
0.2500000000000013
 40
0.2500000000000013
 40
0.375000000000002
 40
0.375000000000002
 40
0.5000000000000027
 40
0.5000000000000027
 40
0.750000000000004
 40
0.750000000000004
 40
0.875000000000002
 40
0.875000000000002
 40
1.0
 40
1.0
 40
1.0
 40
1.0
 10
338.299950166341
 20
575.4384590828162
 30
0.0
 10
338.2972384814524
 20
574.9922066527092
 30
0.0
 10
338.2954762904363
 20
574.5949468659916
 30
0.0
 10
338.2937155268863
 20
574.0695022397413
 30
0.0
 10
338.2932838734533
 20
573.9061750695515
 30
0.0
 10
338.2927075278685
 20
573.6036030174989
 30
0.0
 10
338.2925637067158
 20
573.4637764773898
 30
0.0
 10
338.2925645662295
 20
573.0885220361929
 30
0.0
 10
338.2931192811027
 20
572.8951139132698
 30
0.0
 10
338.2948761219
 20
572.6883780813907
 30
0.0
 10
338.295618711275
 20
572.6334527798683
 30
0.0
 10
338.2974864167078
 20
572.55240385423
 30
0.0
 10
338.2986077731765
 20
572.5266452661042
 30
0.0
 10
338.299950166322
 20
572.5157299172995
 30
0.0
  0
LINE
  5
415
330
1F
100
AcDbEntity
  8
0
  6
Continuous
 62
     7
370
    15
100
AcDbLine
 10
338.2999504885
 20
572.51573111
 30
0.0
 11
318.2999509356
 21
572.6203819651
 31
0.0
  0
LINE
  5
416
330
1F
100
AcDbEntity
  8
0
  6
Continuous
 62
     7
370
    15
100
AcDbLine
 10
318.2999509356
 20
572.6203819651
 30
0.0
 11
318.2999509356
 21
575.5126079458
 31
0.0
  0
LINE
  5
417
330
1F
100
AcDbEntity
  8
0
  6
Continuous
 62
     7
370
    15
100
AcDbLine
 10
318.2999509356
 20
937.6285871405
 30
0.0
 11
338.2999504886
 21
937.7332379955
 31
0.0
  0
LINE
  5
418
330
1F
100
AcDbEntity
  8
0
  6
Continuous
 62
     7
370
    15
100
AcDbLine
 10
318.2999509356
 20
934.7363611597
 30
0.0
 11
318.2999509356
 21
937.6285871405
 31
0.0
  0
LINE
  5
419
330
1F
100
AcDbEntity
  8
0
  6
Continuous
 62
     7
370
    15
100
AcDbLine
 10
318.2999509356
 20
941.379671349
 30
0.0
 11
338.2999504886
 21
941.4844414133
 31
0.0
  0
LINE
  5
41A
330
1F
100
AcDbEntity
  8
0
  6
Continuous
 62
     7
370
    15
100
AcDbLine
 10
318.2999509356
 20
937.6285871405
 30
0.0
 11
318.2999509356
 21
941.379671349
 31
0.0
  0
LINE
  5
41B
330
1F
100
AcDbEntity
  8
0
  6
Continuous
 62
     7
370
    15
100
AcDbLine
 10
318.2999509356
 20
568.8692977566
 30
0.0
 11
338.2999504886
 21
568.7645276922
 31
0.0
  0
LINE
  5
41C
330
1F
100
AcDbEntity
  8
0
  6
Continuous
 62
     7
370
    15
100
AcDbLine
 10
318.2999509356
 20
568.8692977566
 30
0.0
 11
318.2999509356
 21
572.6203819651
 31
0.0
  0
LINE
  5
41D
330
1F
100
AcDbEntity
  8
0
  6
CENTERX2
 62
     7
370
     0
100
AcDbLine
 10
350.7999504886
 20
880.1359193177
 30
0.0
 11
512.5502550983
 21
880.2838854538
 31
0.0
  0
LINE
  5
41E
330
1F
100
AcDbEntity
  8
0
  6
CENTERX2
 62
     7
370
     0
100
AcDbLine
 10
350.7999504886
 20
880.9555940866
 30
0.0
 11
350.7999504886
 21
629.293375019
 31
0.0
  0
LINE
  5
41F
330
1F
100
AcDbEntity
  8
0
  6
CENTERX2
 62
     7
370
     0
100
AcDbLine
 10
512.5502550983
 20
880.2838854538
 30
0.0
 11
512.5502550983
 21
629.9650836518
 31
0.0
  0
LINE
  5
420
330
1F
100
AcDbEntity
  8
0
  6
CENTERX2
 62
     7
370
     0
100
AcDbLine
 10
512.5502550983
 20
629.9650836518
 30
0.0
 11
350.7999504886
 21
630.1130497879
 31
0.0
  0
LINE
  5
421
330
1F
100
AcDbEntity
  8
0
  6
Continuous
 62
     7
370
     0
100
AcDbLine
 10
514.5499504886
 20
561.2009397464
 30
0.0
 11
514.5499504886
 21
949.0480293592
 31
0.0
  0
LINE
  5
422
330
1F
100
AcDbEntity
  8
0
  6
Continuous
 62
     7
370
     0
100
AcDbLine
 10
338.2999504886
 20
953.1247891625
 30
0.0
 11
338.2999504886
 21
557.1241799431
 31
0.0
  0
LINE
  5
423
330
1F
100
AcDbEntity
  8
0
  6
Continuous
 62
     7
370
     0
100
AcDbLine
 10
338.2999504886
 20
557.1241799431
 30
0.0
 11
512.8071600134
 21
560.1702146158
 31
0.0
  0
LINE
  5
424
330
1F
100
AcDbEntity
  8
0
  6
Continuous
 62
     7
370
     0
100
AcDbLine
 10
512.8071600134
 20
560.1702146158
 30
0.0
 11
512.8071600134
 21
950.0787544898
 31
0.0
  0
LINE
  5
425
330
1F
100
AcDbEntity
  8
0
  6
Continuous
 62
     7
370
     0
100
AcDbLine
 10
512.8071600134
 20
950.0787544898
 30
0.0
 11
338.2999504886
 21
953.1247891625
 31
0.0
  0
CIRCLE
  5
426
330
1F
100
AcDbEntity
  8
0
  6
CENTERX2
 62
     7
370
     0
100
AcDbCircle
 10
363.2986793809
 20
870.1244845528
 30
0.0
 40
4.171953069990201
  0
CIRCLE
  5
427
330
1F
100
AcDbEntity
  8
0
  6
CENTERX2
 62
     7
370
     0
100
AcDbCircle
 10
363.2986793809
 20
640.1244845528
 30
0.0
 40
4.171953069990234
  0
CIRCLE
  5
428
330
1F
100
AcDbEntity
  8
0
  6
CENTERX2
 62
     7
370
     0
100
AcDbCircle
 10
498.2986919128
 20
640.1244845528
 30
0.0
 40
4.130821361799233
  0
CIRCLE
  5
429
330
1F
100
AcDbEntity
  8
0
  6
CENTERX2
 62
     7
370
     0
100
AcDbCircle
 10
498.2986919128
 20
870.1244845528
 30
0.0
 40
4.1308213617992
  0
LINE
  5
42A
330
1F
100
AcDbEntity
  8
0
  6
Continuous
 62
     7
370
    15
100
AcDbLine
 10
644.2694033452
 20
1210.4666056904
 30
0.0
 11
646.2691093751
 21
1210.4666056904
 31
0.0
  0
LINE
  5
42B
330
1F
100
AcDbEntity
  8
0
  6
Continuous
 62
     7
370
    15
100
AcDbLine
 10
646.2691093751
 20
1210.4666056904
 30
0.0
 11
649.3080819913
 21
1036.3633605513
 31
0.0
  0
ELLIPSE
  5
42C
330
1F
100
AcDbEntity
  8
0
  6
Continuous
 62
     7
370
    15
100
AcDbEllipse
 10
649.3080881388
 20
1036.3982656691
 30
0.0
 11
1.992632582808028
 21
0.4388800973868001
 31
0.0
210
0.0
220
0.0
230
1.0
 40
0.0167066037
 41
3.150254045689292
 42
4.708709344298223
  0
ELLIPSE
  5
42D
330
1F
100
AcDbEntity
  8
0
  6
Continuous
 62
     7
370
    15
100
AcDbEllipse
 10
649.3332118646
 20
1034.9589283809
 30
0.0
 11
2.017756166500703
 21
-1.000523592119634
 31
0.0
210
0.0
220
0.0
230
1.0
 40
0.0068802904
 41
3.145155226999457
 42
3.157191668698682
  0
LINE
  5
42E
330
1F
100
AcDbEntity
  8
0
  6
Continuous
 62
     7
370
    15
100
AcDbLine
 10
647.3154391118
 20
1035.9593900713
 30
0.0
 11
644.2694033452
 21
1210.4666056904
 31
0.0
  0
LINE
  5
42F
330
1F
100
AcDbEntity
  8
0
  6
Continuous
 62
     7
370
    15
100
AcDbLine
 10
942.2697092362
 20
1210.4666056904
 30
0.0
 11
944.2694152661
 21
1210.4666056904
 31
0.0
  0
LINE
  5
430
330
1F
100
AcDbEntity
  8
0
  6
Continuous
 62
     7
370
    15
100
AcDbLine
 10
944.2694152661
 20
1210.4666056904
 30
0.0
 11
941.2233794995
 21
1035.9593900713
 31
0.0
  0
ELLIPSE
  5
431
330
1F
100
AcDbEntity
  8
0
  6
Continuous
 62
     7
370
    15
100
AcDbEllipse
 10
939.2056067467
 20
1034.9589283809
 30
0.0
 11
2.017756166500476
 21
1.000523592119634
 31
0.0
210
0.0
220
0.0
230
1.0
 40
0.0068802904
 41
6.267586292055056
 42
6.279622733767393
  0
ELLIPSE
  5
432
330
1F
100
AcDbEntity
  8
0
  6
Continuous
 62
     7
370
    15
100
AcDbEllipse
 10
939.2307304726
 20
1036.3982656691
 30
0.0
 11
1.992632582808028
 21
-0.4388800973865729
 31
0.0
210
0.0
220
0.0
230
1.0
 40
0.0167066037
 41
4.716068616471179
 42
6.274523915068799
  0
LINE
  5
433
330
1F
100
AcDbEntity
  8
0
  6
Continuous
 62
     7
370
    15
100
AcDbLine
 10
939.23073662
 20
1036.3633605513
 30
0.0
 11
942.2697092362
 21
1210.4666056904
 31
0.0
  0
LINE
  5
434
330
1F
100
AcDbEntity
  8
0
  6
Continuous
 62
     7
370
    15
100
AcDbLine
 10
653.2397533723
 20
1032.4317040714
 30
0.0
 11
935.2990652391
 21
1032.4317040714
 31
0.0
  0
LINE
  5
435
330
1F
100
AcDbEntity
  8
0
  6
Continuous
 62
     7
370
    15
100
AcDbLine
 10
649.3080819913
 20
1036.3633605513
 30
0.0
 11
653.2397533723
 21
1032.4317040714
 31
0.0
  0
LINE
  5
436
330
1F
100
AcDbEntity
  8
0
  6
Continuous
 62
     7
370
    15
100
AcDbLine
 10
646.2691093751
 20
1210.4666056904
 30
0.0
 11
942.2697092362
 21
1210.4666056904
 31
0.0
  0
LINE
  5
437
330
1F
100
AcDbEntity
  8
0
  6
Continuous
 62
     7
370
    15
100
AcDbLine
 10
935.2990652391
 20
1032.4317040714
 30
0.0
 11
939.23073662
 21
1036.3633605513
 31
0.0
  0
LINE
  5
438
330
1F
100
AcDbEntity
  8
0
  6
Continuous
 62
     7
370
    15
100
AcDbLine
 10
940.9305567809
 20
1035.2696749243
 30
0.0
 11
936.4203925201
 21
1030.7594957623
 31
0.0
  0
ELLIPSE
  5
439
330
1F
100
AcDbEntity
  8
0
  6
Continuous
 62
     7
370
    15
100
AcDbEllipse
 10
934.2990704938
 20
1031.4666056904
 30
0.0
 11
2.121335422290258
 21
-0.7070830857537658
 31
0.0
210
0.0
220
0.0
230
1.0
 40
0.0049366318
 41
6.275604656764534
 42
6.280716921089137
  0
ELLIPSE
  5
43A
330
1F
100
AcDbEntity
  8
0
  6
Continuous
 62
     7
370
    15
100
AcDbEllipse
 10
935.2990704938
 20
1032.4666056904
 30
0.0
 11
-1.12130439833436
 21
1.70711738507407
 31
0.0
210
0.0
220
0.0
230
1.0
 40
0.0093832496
 41
1.585080778907658
 42
3.138423813187328
  0
ELLIPSE
  5
43B
330
1F
100
AcDbEntity
  8
0
  6
Continuous
 62
     7
370
    15
100
AcDbEllipse
 10
939.2307304726
 20
1036.3982656691
 30
0.0
 11
1.69988286576347
 21
-1.128532536315106
 31
0.0
210
0.0
220
0.0
230
1.0
 40
0.0142527211
 41
4.721850914376568
 42
6.280306212980691
  0
ELLIPSE
  5
43C
330
1F
100
AcDbEntity
  8
0
  6
Continuous
 62
     7
370
    15
100
AcDbEllipse
 10
649.3080881388
 20
1036.3982656691
 30
0.0
 11
1.699882865763016
 21
1.128532536315106
 31
0.0
210
0.0
220
0.0
230
1.0
 40
0.0142527211
 41
3.144471747782019
 42
4.70292704639289
  0
ELLIPSE
  5
43D
330
1F
100
AcDbEntity
  8
0
  6
Continuous
 62
     7
370
    15
100
AcDbEllipse
 10
653.2397481175
 20
1032.4666056904
 30
0.0
 11
1.121304398334587
 21
1.707117385074298
 31
0.0
210
0.0
220
0.0
230
1.0
 40
0.0093832496
 41
3.144761493992185
 42
4.698104528271932
  0
ELLIPSE
  5
43E
330
1F
100
AcDbEntity
  8
0
  6
Continuous
 62
     7
370
    15
100
AcDbEllipse
 10
654.2397481175
 20
1031.4666056904
 30
0.0
 11
2.121335422290827
 21
0.7070830857542206
 31
0.0
210
0.0
220
0.0
230
1.0
 40
0.0049366318
 41
3.144061039663076
 42
3.149173303984444
  0
LINE
  5
43F
330
1F
100
AcDbEntity
  8
0
  6
Continuous
 62
     7
370
    15
100
AcDbLine
 10
652.1184260913
 20
1030.7594957623
 30
0.0
 11
647.6082618304
 21
1035.2696749243
 31
0.0
  0
ARC
  5
440
330
1F
100
AcDbEntity
  8
0
  6
Continuous
 62
     7
370
    15
100
AcDbCircle
 10
648.3152085627
 20
1035.9766219634
 30
0.0
 40
0.9997738736534465
100
AcDbArc
 50
181.0038147184
 51
225.0000124322
  0
ARC
  5
441
330
1F
100
AcDbEntity
  8
0
  6
Continuous
 62
     7
370
    15
100
AcDbCircle
 10
940.2236100486
 20
1035.9766219634
 30
0.0
 40
0.9997738736549738
100
AcDbArc
 50
314.9999875678
 51
358.9961852815
  0
ARC
  5
442
330
1F
100
AcDbEntity
  8
0
  6
Continuous
 62
     7
370
    15
100
AcDbCircle
 10
935.713235627
 20
1031.4666019246
 30
0.0
 40
1.000003387420159
100
AcDbArc
 50
270.0021308103
 51
314.9978293618
  0
ELLIPSE
  5
443
330
1F
100
AcDbEntity
  8
0
  6
Continuous
 62
     7
370
    15
100
AcDbEllipse
 10
935.2990704938
 20
1032.4666056904
 30
0.0
 11
-0.4142001652490989
 21
1.999999484680529
 31
0.0
210
0.0
220
0.0
230
1.0
 40
0.0034662345
 41
1.587531761807114
 42
3.140874796086207
  0
LINE
  5
444
330
1F
100
AcDbEntity
  8
0
  6
Continuous
 62
     7
370
    15
100
AcDbLine
 10
935.7132728168
 20
1030.4665985378
 30
0.0
 11
652.8255457946
 21
1030.4665985378
 31
0.0
  0
ELLIPSE
  5
445
330
1F
100
AcDbEntity
  8
0
  6
Continuous
 62
     7
370
    15
100
AcDbEllipse
 10
653.2397481175
 20
1032.4666056904
 30
0.0
 11
0.4142001652490989
 21
1.999999484680529
 31
0.0
210
0.0
220
0.0
230
1.0
 40
0.0034662345
 41
3.142310511097419
 42
4.695653545372736
  0
ARC
  5
446
330
1F
100
AcDbEntity
  8
0
  6
Continuous
 62
     7
370
    15
100
AcDbCircle
 10
652.8255829844
 20
1031.4666019246
 30
0.0
 40
1.000003387419754
100
AcDbArc
 50
225.0021706382
 51
269.9978691897
  0
LINE
  5
447
330
1F
100
AcDbEntity
  8
0
  6
Continuous
 62
     7
370
    15
100
AcDbLine
 10
647.6082618304
 20
1035.2696749243
 30
0.0
 11
647.6081873246
 21
1035.2697345289
 31
0.0
  0
ARC
  5
448
330
1F
100
AcDbEntity
  8
0
  6
Continuous
 62
     7
370
    15
100
AcDbCircle
 10
648.3152916735
 20
1035.976848572
 30
0.0
 40
0.999999999999896
100
AcDbArc
 50
181.0
 51
225.0
  0
ARC
  5
449
330
1F
100
AcDbEntity
  8
0
  6
Continuous
 62
     7
370
    15
100
AcDbCircle
 10
940.2235269378
 20
1035.976848572
 30
0.0
 40
0.999999999999896
100
AcDbArc
 50
315.0
 51
359.0
  0
ARC
  5
44A
330
1F
100
AcDbEntity
  8
0
  6
Continuous
 62
     7
370
    15
100
AcDbCircle
 10
935.7132840562
 20
1031.4666056904
 30
0.0
 40
1.0
100
AcDbArc
 50
270.0
 51
315.0
  0
LINE
  5
44B
330
1F
100
AcDbEntity
  8
0
  6
Continuous
 62
     7
370
    15
100
AcDbLine
 10
935.7132877179
 20
1030.4665985378
 30
0.0
 11
935.7132728168
 21
1030.4665985378
 31
0.0
  0
LINE
  5
44C
330
1F
100
AcDbEntity
  8
0
  6
Continuous
 62
     7
370
    15
100
AcDbLine
 10
652.8255457946
 20
1030.4665985378
 30
0.0
 11
652.8255308934
 21
1030.4665985378
 31
0.0
  0
ARC
  5
44D
330
1F
100
AcDbEntity
  8
0
  6
Continuous
 62
     7
370
    15
100
AcDbCircle
 10
652.8255345551
 20
1031.4666056904
 30
0.0
 40
1.000000000000008
100
AcDbArc
 50
225.0
 51
270.0
  0
LINE
  5
44E
330
1F
100
AcDbEntity
  8
0
  6
Continuous
 62
     7
370
    15
100
AcDbLine
 10
794.2694093057
 20
1230.4666052434
 30
0.0
 11
794.2694093057
 21
1210.4666056904
 31
0.0
  0
LINE
  5
44F
330
1F
100
AcDbEntity
  8
0
  6
Continuous
 62
     7
370
    15
100
AcDbLine
 10
686.8526305028
 20
1230.4666052434
 30
0.0
 11
686.8489722677
 21
1210.4666056905
 31
0.0
  0
LINE
  5
450
330
1F
100
AcDbEntity
  8
0
  6
Continuous
 62
     7
370
    15
100
AcDbLine
 10
686.8526305028
 20
1230.4666052434
 30
0.0
 11
794.2694093057
 21
1230.4666052434
 31
0.0
  0
LINE
  5
451
330
1F
100
AcDbEntity
  8
0
  6
Continuous
 62
     7
370
    15
100
AcDbLine
 10
794.2694093057
 20
1230.4666052434
 30
0.0
 11
901.6861881085
 21
1230.4666052434
 31
0.0
  0
LINE
  5
452
330
1F
100
AcDbEntity
  8
0
  6
Continuous
 62
     7
370
    15
100
AcDbLine
 10
901.6898463436
 20
1210.4666056905
 30
0.0
 11
901.6861881085
 21
1230.4666052434
 31
0.0
  0
SPLINE
  5
453
330
1F
100
AcDbEntity
  8
0
  6
Continuous
 62
     7
370
    15
100
AcDbSpline
210
0.0
220
0.0
230
1.0
 70
     8
 71
     3
 72
    18
 73
    14
 74
     0
 42
0.000000001
 43
0.00000001
 40
0.0
 40
0.0
 40
0.0
 40
0.0
 40
0.2500000000000013
 40
0.2500000000000013
 40
0.375000000000002
 40
0.375000000000002
 40
0.5000000000000027
 40
0.5000000000000027
 40
0.750000000000004
 40
0.750000000000004
 40
0.875000000000002
 40
0.875000000000002
 40
1.0
 40
1.0
 40
1.0
 40
1.0
 10
908.4118109564749
 20
1210.466606012628
 30
0.0
 10
907.9655250596891
 20
1210.469317697517
 30
0.0
 10
907.4845047394866
 20
1210.471079888533
 30
0.0
 10
906.7130319620111
 20
1210.472840652083
 30
0.0
 10
906.447493778706
 20
1210.473272305516
 30
0.0
 10
905.8993442187085
 20
1210.473848651101
 30
0.0
 10
905.6152091746404
 20
1210.473992472253
 30
0.0
 10
904.7519604329651
 20
1210.47399161274
 30
0.0
 10
904.1601807420454
 20
1210.473436897866
 30
0.0
 10
903.2485970678387
 20
1210.471680057069
 30
0.0
 10
902.9407241746721
 20
1210.470937467694
 30
0.0
 10
902.3167175332329
 20
1210.469069762261
 30
0.0
 10
902.002233085648
 20
1210.467948405793
 30
0.0
 10
901.6899940675708
 20
1210.466606012647
 30
0.0
  0
SPLINE
  5
454
330
1F
100
AcDbEntity
  8
0
  6
Continuous
 62
     7
370
    15
100
AcDbSpline
210
0.0
220
0.0
230
1.0
 70
     8
 71
     3
 72
    18
 73
    14
 74
     0
 42
0.000000001
 43
0.00000001
 40
0.0
 40
0.0
 40
0.0
 40
0.0
 40
0.2499999999999968
 40
0.2499999999999968
 40
0.3749999999999991
 40
0.3749999999999991
 40
0.5000000000000014
 40
0.5000000000000014
 40
0.7500000000000061
 40
0.7500000000000061
 40
0.875000000000003
 40
0.875000000000003
 40
1.0
 40
1.0
 40
1.0
 40
1.0
 10
686.8488245437725
 20
1210.466606012636
 30
0.0
 10
686.2180899274302
 20
1210.469317697523
 30
0.0
 10
685.599497442375
 20
1210.471079888538
 30
0.0
 10
684.6890684008997
 20
1210.472840652087
 30
0.0
 10
684.3885218648584
 20
1210.473272305519
 30
0.0
 10
683.793397573596
 20
1210.473848651103
 30
0.0
 10
683.4973552818119
 20
1210.473992472255
 30
0.0
 10
682.6341773310448
 20
1210.47399161274
 30
0.0
 10
682.0891348056965
 20
1210.473436897867
 30
0.0
 10
681.3162392189254
 20
1210.471680057068
 30
0.0
 10
681.0661005880974
 20
1210.470937467692
 30
0.0
 10
680.5812536501898
 20
1210.469069762259
 30
0.0
 10
680.3479371338975
 20
1210.46794840579
 30
0.0
 10
680.1270076548684
 20
1210.466606012644
 30
0.0
  0
LINE
  5
455
330
1F
100
AcDbEntity
  8
0
  6
Continuous
 62
     7
370
    15
100
AcDbLine
 10
680.126901991
 20
1210.4666056904
 30
0.0
 11
680.2009533115
 21
1230.4666052434
 31
0.0
  0
LINE
  5
456
330
1F
100
AcDbEntity
  8
0
  6
Continuous
 62
     7
370
    15
100
AcDbLine
 10
680.2009533115
 20
1230.4666052434
 30
0.0
 11
686.8526305028
 21
1230.4666052434
 31
0.0
  0
LINE
  5
457
330
1F
100
AcDbEntity
  8
0
  6
Continuous
 62
     7
370
    15
100
AcDbLine
 10
908.3378652998
 20
1230.4666052434
 30
0.0
 11
908.4119166204
 21
1210.4666056904
 31
0.0
  0
LINE
  5
458
330
1F
100
AcDbEntity
  8
0
  6
Continuous
 62
     7
370
    15
100
AcDbLine
 10
901.6861881085
 20
1230.4666052434
 30
0.0
 11
908.3378652998
 21
1230.4666052434
 31
0.0
  0
LINE
  5
459
330
1F
100
AcDbEntity
  8
0
  6
Continuous
 62
     7
370
    15
100
AcDbLine
 10
923.8404746123
 20
1210.4666056904
 30
0.0
 11
923.7664307424
 21
1230.4666052434
 31
0.0
  0
LINE
  5
45A
330
1F
100
AcDbEntity
  8
0
  6
Continuous
 62
     7
370
    15
100
AcDbLine
 10
908.3378652998
 20
1230.4666052434
 30
0.0
 11
923.7664307424
 21
1230.4666052434
 31
0.0
  0
LINE
  5
45B
330
1F
100
AcDbEntity
  8
0
  6
Continuous
 62
     7
370
    15
100
AcDbLine
 10
664.772387869
 20
1230.4666052434
 30
0.0
 11
664.698343999
 21
1210.4666056904
 31
0.0
  0
LINE
  5
45C
330
1F
100
AcDbEntity
  8
0
  6
Continuous
 62
     7
370
    15
100
AcDbLine
 10
664.772387869
 20
1230.4666052434
 30
0.0
 11
680.2009533115
 21
1230.4666052434
 31
0.0
  0
SPLINE
  5
45D
330
1F
100
AcDbEntity
  8
0
  6
Continuous
 62
     7
370
    15
100
AcDbSpline
210
0.0
220
0.0
230
1.0
 70
     8
 71
     3
 72
    18
 73
    14
 74
     0
 42
0.000000001
 43
0.00000001
 40
0.0
 40
0.0
 40
0.0
 40
0.0
 40
0.2500000000000041
 40
0.2500000000000041
 40
0.3750000000000016
 40
0.3750000000000016
 40
0.4999999999999992
 40
0.4999999999999992
 40
0.7499999999999986
 40
0.7499999999999986
 40
0.8749999999999993
 40
0.8749999999999993
 40
1.0
 40
1.0
 40
1.0
 40
1.0
 10
664.6982299721527
 20
1210.466606046714
 30
0.0
 10
664.2311762277154
 20
1210.469590417423
 30
0.0
 10
663.8177444399196
 20
1210.471505166464
 30
0.0
 10
663.2747452990026
 20
1210.473421442998
 30
0.0
 10
663.1066991793327
 20
1210.473890712943
 30
0.0
 10
662.7971051564001
 20
1210.474517064735
 30
0.0
 10
662.6553326232839
 20
1210.474672328949
 30
0.0
 10
662.2792947355501
 20
1210.474670686442
 30
0.0
 10
662.0903320412023
 20
1210.474072456154
 30
0.0
 10
661.8986472450496
 20
1210.472157447991
 30
0.0
 10
661.8500498025213
 20
1210.471342619113
 30
0.0
 10
661.785347226784
 20
1210.469297764208
 30
0.0
 10
661.7694221677076
 20
1210.468079533731
 30
0.0
 10
661.769409308781
 20
1210.466606046695
 30
0.0
  0
SPLINE
  5
45E
330
1F
100
AcDbEntity
  8
0
  6
Continuous
 62
     7
370
    15
100
AcDbSpline
210
0.0
220
0.0
230
1.0
 70
     8
 71
     3
 72
    16
 73
    12
 74
     0
 42
0.000000001
 43
0.00000001
 40
0.0
 40
0.0
 40
0.0
 40
0.0
 40
0.2500000000000078
 40
0.2500000000000078
 40
0.3750000000000065
 40
0.3750000000000065
 40
0.5000000000000052
 40
0.5000000000000052
 40
0.7500000000000026
 40
0.7500000000000026
 40
1.0
 40
1.0
 40
1.0
 40
1.0
 10
926.7694093025625
 20
1210.466606046689
 30
0.0
 10
926.7693832814406
 20
1210.469587771933
 30
0.0
 10
926.7046727091083
 20
1210.47150168805
 30
0.0
 10
926.514544529079
 20
1210.473418083774
 30
0.0
 10
926.4355430472444
 20
1210.473887651497
 30
0.0
 10
926.2455790836169
 20
1210.474515122471
 30
0.0
 10
926.1340726646453
 20
1210.474671233605
 30
0.0
 10
925.7583534311718
 20
1210.474672877108
 30
0.0
 10
925.4517971202521
 20
1210.474077768888
 30
0.0
 10
924.7275694497316
 20
1210.47153413995
 30
0.0
 10
924.3072283108122
 20
1210.469587771581
 30
0.0
 10
923.8405886391909
 20
1210.466606046705
 30
0.0
  0
LINE
  5
45F
330
1F
100
AcDbEntity
  8
0
  6
Continuous
 62
     7
370
    15
100
AcDbLine
 10
926.6646916934
 20
1230.4666052434
 30
0.0
 11
926.7694021531
 21
1210.4666056904
 31
0.0
  0
LINE
  5
460
330
1F
100
AcDbEntity
  8
0
  6
Continuous
 62
     7
370
    15
100
AcDbLine
 10
923.7664307424
 20
1230.4666052434
 30
0.0
 11
926.6646916934
 21
1230.4666052434
 31
0.0
  0
LINE
  5
461
330
1F
100
AcDbEntity
  8
0
  6
Continuous
 62
     7
370
    15
100
AcDbLine
 10
661.7694164582
 20
1210.4666056904
 30
0.0
 11
661.8741269179
 21
1230.4666052434
 31
0.0
  0
LINE
  5
462
330
1F
100
AcDbEntity
  8
0
  6
Continuous
 62
     7
370
    15
100
AcDbLine
 10
661.8741269179
 20
1230.4666052434
 30
0.0
 11
664.772387869
 21
1230.4666052434
 31
0.0
  0
LINE
  5
463
330
1F
100
AcDbEntity
  8
0
  6
CENTERX2
 62
     7
370
     0
100
AcDbLine
 10
698.1081791209
 20
1034.2166056904
 30
0.0
 11
698.2578535168
 21
1197.8343074193
 31
0.0
  0
LINE
  5
464
330
1F
100
AcDbEntity
  8
0
  6
CENTERX2
 62
     7
370
     0
100
AcDbLine
 10
890.2809650945
 20
1197.8343074193
 30
0.0
 11
698.2578535168
 21
1197.8343074193
 31
0.0
  0
LINE
  5
465
330
1F
100
AcDbEntity
  8
0
  6
CENTERX2
 62
     7
370
     0
100
AcDbLine
 10
890.2809650945
 20
1197.8343074193
 30
0.0
 11
890.4306394904
 21
1034.2166056904
 31
0.0
  0
LINE
  5
466
330
1F
100
AcDbEntity
  8
0
  6
Continuous
 62
     7
370
     0
100
AcDbLine
 10
698.1081791209
 20
1034.2166056904
 30
0.0
 11
890.4306394904
 21
1034.2166056904
 31
0.0
  0
CIRCLE
  5
467
330
1F
100
AcDbEntity
  8
0
  6
CENTERX2
 62
     7
370
     0
100
AcDbCircle
 10
709.2694093057
 20
1185.467798104
 30
0.0
 40
3.913668104250522
  0
CIRCLE
  5
468
330
1F
100
AcDbEntity
  8
0
  6
CENTERX2
 62
     7
370
     0
100
AcDbCircle
 10
709.2694093057
 20
1050.4677855721
 30
0.0
 40
3.872536396059814
  0
CIRCLE
  5
469
330
1F
100
AcDbEntity
  8
0
  6
CENTERX2
 62
     7
370
     0
100
AcDbCircle
 10
879.2694093057
 20
1185.467798104
 30
0.0
 40
3.913668104250631
  0
CIRCLE
  5
46A
330
1F
100
AcDbEntity
  8
0
  6
CENTERX2
 62
     7
370
     0
100
AcDbCircle
 10
879.2694093057
 20
1050.4677855721
 30
0.0
 40
3.872536396059814
  0
ELLIPSE
  5
46B
330
1F
100
AcDbEntity
  8
0
  6
Continuous
 62
     7
370
    15
100
AcDbEllipse
 10
939.2056067467
 20
478.1820014227
 30
0.0
 11
2.01775616650059
 21
-1.000523592119578
 31
0.0
210
0.0
220
0.0
230
1.0
 40
0.0068802904
 41
0.0035625734207243
 42
0.0155990151198954
  0
LINE
  5
46C
330
1F
100
AcDbEntity
  8
0
  6
Continuous
 62
     7
370
    15
100
AcDbLine
 10
941.2233794995
 20
477.1815397323
 30
0.0
 11
944.2694152661
 21
302.6743241132
 31
0.0
  0
LINE
  5
46D
330
1F
100
AcDbEntity
  8
0
  6
Continuous
 62
     7
370
    15
100
AcDbLine
 10
944.2694152661
 20
302.6743241132
 30
0.0
 11
942.2697092362
 21
302.6743241132
 31
0.0
  0
LINE
  5
46E
330
1F
100
AcDbEntity
  8
0
  6
Continuous
 62
     7
370
    15
100
AcDbLine
 10
942.2697092362
 20
302.6743241132
 30
0.0
 11
939.23073662
 21
476.7775692523
 31
0.0
  0
ELLIPSE
  5
46F
330
1F
100
AcDbEntity
  8
0
  6
Continuous
 62
     7
370
    15
100
AcDbEllipse
 10
939.2307304726
 20
476.7426641345
 30
0.0
 11
1.992632582808255
 21
0.4388800973866864
 31
0.0
210
0.0
220
0.0
230
1.0
 40
0.0167066037
 41
0.0086613921114348
 42
1.567116690708408
  0
LINE
  5
470
330
1F
100
AcDbEntity
  8
0
  6
Continuous
 62
     7
370
    15
100
AcDbLine
 10
649.3080819913
 20
476.7775692523
 30
0.0
 11
646.2691093751
 21
302.6743241132
 31
0.0
  0
LINE
  5
471
330
1F
100
AcDbEntity
  8
0
  6
Continuous
 62
     7
370
    15
100
AcDbLine
 10
653.2397533723
 20
480.7092257322
 30
0.0
 11
649.3080819913
 21
476.7775692523
 31
0.0
  0
LINE
  5
472
330
1F
100
AcDbEntity
  8
0
  6
Continuous
 62
     7
370
    15
100
AcDbLine
 10
935.2990652391
 20
480.7092257322
 30
0.0
 11
653.2397533723
 21
480.7092257322
 31
0.0
  0
LINE
  5
473
330
1F
100
AcDbEntity
  8
0
  6
Continuous
 62
     7
370
    15
100
AcDbLine
 10
939.23073662
 20
476.7775692523
 30
0.0
 11
935.2990652391
 21
480.7092257322
 31
0.0
  0
LINE
  5
474
330
1F
100
AcDbEntity
  8
0
  6
Continuous
 62
     7
370
    15
100
AcDbLine
 10
942.2697092362
 20
302.6743241132
 30
0.0
 11
646.2691093751
 21
302.6743241132
 31
0.0
  0
ELLIPSE
  5
475
330
1F
100
AcDbEntity
  8
0
  6
Continuous
 62
     7
370
    15
100
AcDbEllipse
 10
649.3080881388
 20
476.7426641345
 30
0.0
 11
1.992632582808028
 21
-0.4388800973866296
 31
0.0
210
0.0
220
0.0
230
1.0
 40
0.0167066037
 41
1.574475962881379
 42
3.132931261479768
  0
LINE
  5
476
330
1F
100
AcDbEntity
  8
0
  6
Continuous
 62
     7
370
    15
100
AcDbLine
 10
646.2691093751
 20
302.6743241132
 30
0.0
 11
644.2694033452
 21
302.6743241132
 31
0.0
  0
LINE
  5
477
330
1F
100
AcDbEntity
  8
0
  6
Continuous
 62
     7
370
    15
100
AcDbLine
 10
644.2694033452
 20
302.6743241132
 30
0.0
 11
647.3154391118
 21
477.1815397323
 31
0.0
  0
ELLIPSE
  5
478
330
1F
100
AcDbEntity
  8
0
  6
Continuous
 62
     7
370
    15
100
AcDbEllipse
 10
649.3332118646
 20
478.1820014227
 30
0.0
 11
2.017756166500703
 21
1.000523592119634
 31
0.0
210
0.0
220
0.0
230
1.0
 40
0.0068802904
 41
3.125993638469885
 42
3.138030080172296
  0
ELLIPSE
  5
479
330
1F
100
AcDbEntity
  8
0
  6
Continuous
 62
     7
370
    15
100
AcDbEllipse
 10
934.2990704938
 20
481.6743241132
 30
0.0
 11
2.121335422290258
 21
0.7070830857538795
 31
0.0
210
0.0
220
0.0
230
1.0
 40
0.0049366318
 41
0.0024683860883745
 42
0.0075806504179412
  0
LINE
  5
47A
330
1F
100
AcDbEntity
  8
0
  6
Continuous
 62
     7
370
    15
100
AcDbLine
 10
936.4203925201
 20
482.3814340413
 30
0.0
 11
940.9305567809
 21
477.8712548793
 31
0.0
  0
ELLIPSE
  5
47B
330
1F
100
AcDbEntity
  8
0
  6
Continuous
 62
     7
370
    15
100
AcDbEllipse
 10
939.2307304726
 20
476.7426641345
 30
0.0
 11
1.69988286576347
 21
1.128532536315106
 31
0.0
210
0.0
220
0.0
230
1.0
 40
0.0142527211
 41
0.0028790942031402
 42
1.56133439280307
  0
ELLIPSE
  5
47C
330
1F
100
AcDbEntity
  8
0
  6
Continuous
 62
     7
370
    15
100
AcDbEllipse
 10
935.2990704938
 20
480.6743241132
 30
0.0
 11
1.121304398334473
 21
1.707117385074071
 31
0.0
210
0.0
220
0.0
230
1.0
 40
0.0093832496
 41
0.0031688404123133
 42
1.556511874682137
  0
ELLIPSE
  5
47D
330
1F
100
AcDbEntity
  8
0
  6
Continuous
 62
     7
370
    15
100
AcDbEllipse
 10
653.2397481175
 20
480.6743241132
 30
0.0
 11
-1.121304398334587
 21
1.707117385074411
 31
0.0
210
0.0
220
0.0
230
1.0
 40
0.0093832496
 41
4.726673432497448
 42
6.28001646677848
  0
ELLIPSE
  5
47E
330
1F
100
AcDbEntity
  8
0
  6
Continuous
 62
     7
370
    15
100
AcDbEllipse
 10
649.3080881388
 20
476.7426641345
 30
0.0
 11
1.699882865763016
 21
-1.128532536314936
 31
0.0
210
0.0
220
0.0
230
1.0
 40
0.0142527211
 41
1.580258260786752
 42
3.138713559392052
  0
LINE
  5
47F
330
1F
100
AcDbEntity
  8
0
  6
Continuous
 62
     7
370
    15
100
AcDbLine
 10
647.6082618304
 20
477.8712548793
 30
0.0
 11
652.1184260913
 21
482.3814340413
 31
0.0
  0
ELLIPSE
  5
480
330
1F
100
AcDbEntity
  8
0
  6
Continuous
 62
     7
370
    15
100
AcDbEllipse
 10
654.2397481175
 20
481.6743241132
 30
0.0
 11
2.121335422290827
 21
-0.7070830857540499
 31
0.0
210
0.0
220
0.0
230
1.0
 40
0.0049366318
 41
3.134012003173468
 42
3.139124267499806
  0
ARC
  5
481
330
1F
100
AcDbEntity
  8
0
  6
Continuous
 62
     7
370
    15
100
AcDbCircle
 10
648.3152085627
 20
477.1643078402
 30
0.0
 40
0.9997738736540166
100
AcDbArc
 50
134.9999875678
 51
178.9961852815
  0
ARC
  5
482
330
1F
100
AcDbEntity
  8
0
  6
Continuous
 62
     7
370
    15
100
AcDbCircle
 10
940.2236100486
 20
477.1643078402
 30
0.0
 40
0.9997738736553916
100
AcDbArc
 50
1.0038147185
 51
45.0000124322
  0
LINE
  5
483
330
1F
100
AcDbEntity
  8
0
  6
Continuous
 62
     7
370
    15
100
AcDbLine
 10
652.8255457946
 20
482.6743312658
 30
0.0
 11
935.7132728168
 21
482.6743312658
 31
0.0
  0
ELLIPSE
  5
484
330
1F
100
AcDbEntity
  8
0
  6
Continuous
 62
     7
370
    15
100
AcDbEllipse
 10
935.2990704938
 20
480.6743241132
 30
0.0
 11
0.4142001652490989
 21
1.999999484680529
 31
0.0
210
0.0
220
0.0
230
1.0
 40
0.0034662345
 41
0.000717857505277
 42
1.554060891782652
  0
ELLIPSE
  5
485
330
1F
100
AcDbEntity
  8
0
  6
Continuous
 62
     7
370
    15
100
AcDbEllipse
 10
653.2397481175
 20
480.6743241132
 30
0.0
 11
-0.4142001652490989
 21
1.999999484680529
 31
0.0
210
0.0
220
0.0
230
1.0
 40
0.0034662345
 41
4.729124415396672
 42
6.282467449678389
  0
ARC
  5
486
330
1F
100
AcDbEntity
  8
0
  6
Continuous
 62
     7
370
    15
100
AcDbCircle
 10
935.713235627
 20
481.674327879
 30
0.0
 40
1.000003387420356
100
AcDbArc
 50
45.0021706382
 51
89.9978691896
  0
ARC
  5
487
330
1F
100
AcDbEntity
  8
0
  6
Continuous
 62
     7
370
    15
100
AcDbCircle
 10
652.8255829844
 20
481.674327879
 30
0.0
 40
1.000003387419834
100
AcDbArc
 50
90.0021308103
 51
134.9978293618
  0
LINE
  5
488
330
1F
100
AcDbEntity
  8
0
  6
Continuous
 62
     7
370
    15
100
AcDbLine
 10
647.6081873246
 20
477.8711952747
 30
0.0
 11
647.6082618304
 21
477.8712548793
 31
0.0
  0
ARC
  5
489
330
1F
100
AcDbEntity
  8
0
  6
Continuous
 62
     7
370
    15
100
AcDbCircle
 10
648.3152916735
 20
477.1640812316
 30
0.0
 40
1.000000000000129
100
AcDbArc
 50
135.0
 51
179.0
  0
ARC
  5
48A
330
1F
100
AcDbEntity
  8
0
  6
Continuous
 62
     7
370
    15
100
AcDbCircle
 10
940.2235269378
 20
477.1640812316
 30
0.0
 40
1.000000000000014
100
AcDbArc
 50
1.0
 51
45.0
  0
ARC
  5
48B
330
1F
100
AcDbEntity
  8
0
  6
Continuous
 62
     7
370
    15
100
AcDbCircle
 10
935.7132840562
 20
481.6743241132
 30
0.0
 40
1.0
100
AcDbArc
 50
45.0
 51
90.0
  0
LINE
  5
48C
330
1F
100
AcDbEntity
  8
0
  6
Continuous
 62
     7
370
    15
100
AcDbLine
 10
652.8255308934
 20
482.6743312658
 30
0.0
 11
652.8255457946
 21
482.6743312658
 31
0.0
  0
ARC
  5
48D
330
1F
100
AcDbEntity
  8
0
  6
Continuous
 62
     7
370
    15
100
AcDbCircle
 10
652.8255345551
 20
481.6743241132
 30
0.0
 40
1.000000000000048
100
AcDbArc
 50
90.0
 51
135.0
  0
LINE
  5
48E
330
1F
100
AcDbEntity
  8
0
  6
Continuous
 62
     7
370
    15
100
AcDbLine
 10
794.2694093057
 20
282.6743245602
 30
0.0
 11
794.2694093057
 21
302.6743241132
 31
0.0
  0
LINE
  5
48F
330
1F
100
AcDbEntity
  8
0
  6
Continuous
 62
     7
370
    15
100
AcDbLine
 10
794.2694093057
 20
282.6743245602
 30
0.0
 11
686.8526305028
 21
282.6743245602
 31
0.0
  0
LINE
  5
490
330
1F
100
AcDbEntity
  8
0
  6
Continuous
 62
     7
370
    15
100
AcDbLine
 10
686.8489722677
 20
302.6743241132
 30
0.0
 11
686.8526305028
 21
282.6743245602
 31
0.0
  0
LINE
  5
491
330
1F
100
AcDbEntity
  8
0
  6
Continuous
 62
     7
370
    15
100
AcDbLine
 10
901.6861881085
 20
282.6743245602
 30
0.0
 11
901.6898463436
 21
302.6743241132
 31
0.0
  0
LINE
  5
492
330
1F
100
AcDbEntity
  8
0
  6
Continuous
 62
     7
370
    15
100
AcDbLine
 10
901.6861881085
 20
282.6743245602
 30
0.0
 11
794.2694093057
 21
282.6743245602
 31
0.0
  0
SPLINE
  5
493
330
1F
100
AcDbEntity
  8
0
  6
Continuous
 62
     7
370
    15
100
AcDbSpline
210
0.0
220
0.0
230
1.0
 70
     8
 71
     3
 72
    18
 73
    14
 74
     0
 42
0.000000001
 43
0.00000001
 40
0.0
 40
0.0
 40
0.0
 40
0.0
 40
0.2499999999999968
 40
0.2499999999999968
 40
0.3749999999999984
 40
0.3749999999999984
 40
0.5
 40
0.5
 40
0.7499999999999987
 40
0.7499999999999987
 40
0.8749999999999993
 40
0.8749999999999993
 40
1.0
 40
1.0
 40
1.0
 40
1.0
 10
680.1270076548684
 20
302.6743237909758
 30
0.0
 10
680.5732935516543
 20
302.6716121060891
 30
0.0
 10
681.0543138718565
 20
302.6698499150744
 30
0.0
 10
681.8257866493323
 20
302.6680891515268
 30
0.0
 10
682.0913248326373
 20
302.6676574980943
 30
0.0
 10
682.6394743926346
 20
302.6670811525109
 30
0.0
 10
682.9236094367028
 20
302.6669373313591
 30
0.0
 10
683.7868581783782
 20
302.6669381908752
 30
0.0
 10
684.3786378692977
 20
302.6674929057495
 30
0.0
 10
685.2902215435046
 20
302.6692497465498
 30
0.0
 10
685.598094436671
 20
302.6699923359269
 30
0.0
 10
686.2221010781103
 20
302.6718600413621
 30
0.0
 10
686.5365855256953
 20
302.672981397832
 30
0.0
 10
686.8488245437724
 20
302.6743237909791
 30
0.0
  0
SPLINE
  5
494
330
1F
100
AcDbEntity
  8
0
  6
Continuous
 62
     7
370
    15
100
AcDbSpline
210
0.0
220
0.0
230
1.0
 70
     8
 71
     3
 72
    18
 73
    14
 74
     0
 42
0.000000001
 43
0.00000001
 40
0.0
 40
0.0
 40
0.0
 40
0.0
 40
0.2499999999999945
 40
0.2499999999999945
 40
0.3749999999999957
 40
0.3749999999999957
 40
0.4999999999999969
 40
0.4999999999999969
 40
0.7499999999999992
 40
0.7499999999999992
 40
0.8749999999999997
 40
0.8749999999999997
 40
1.0
 40
1.0
 40
1.0
 40
1.0
 10
901.689994067571
 20
302.6743237909812
 30
0.0
 10
902.3207286839133
 20
302.6716121060929
 30
0.0
 10
902.9393211689684
 20
302.6698499150774
 30
0.0
 10
903.8497502104436
 20
302.6680891515279
 30
0.0
 10
904.1502967464851
 20
302.6676574980949
 30
0.0
 10
904.7454210377474
 20
302.6670811525104
 30
0.0
 10
905.0414633295314
 20
302.6669373313576
 30
0.0
 10
905.9046412802985
 20
302.6669381908721
 30
0.0
 10
906.4496838056469
 20
302.6674929057457
 30
0.0
 10
907.222579392418
 20
302.6692497465442
 30
0.0
 10
907.4727180232461
 20
302.6699923359202
 30
0.0
 10
907.9575649611536
 20
302.671860041354
 30
0.0
 10
908.190881477446
 20
302.672981397823
 30
0.0
 10
908.411810956475
 20
302.6743237909692
 30
0.0
  0
LINE
  5
495
330
1F
100
AcDbEntity
  8
0
  6
Continuous
 62
     7
370
    15
100
AcDbLine
 10
680.2009533115
 20
282.6743245602
 30
0.0
 11
680.126901991
 21
302.6743241132
 31
0.0
  0
LINE
  5
496
330
1F
100
AcDbEntity
  8
0
  6
Continuous
 62
     7
370
    15
100
AcDbLine
 10
686.8526305028
 20
282.6743245602
 30
0.0
 11
680.2009533115
 21
282.6743245602
 31
0.0
  0
LINE
  5
497
330
1F
100
AcDbEntity
  8
0
  6
Continuous
 62
     7
370
    15
100
AcDbLine
 10
908.4119166204
 20
302.6743241132
 30
0.0
 11
908.3378652998
 21
282.6743245602
 31
0.0
  0
LINE
  5
498
330
1F
100
AcDbEntity
  8
0
  6
Continuous
 62
     7
370
    15
100
AcDbLine
 10
908.3378652998
 20
282.6743245602
 30
0.0
 11
901.6861881085
 21
282.6743245602
 31
0.0
  0
LINE
  5
499
330
1F
100
AcDbEntity
  8
0
  6
Continuous
 62
     7
370
    15
100
AcDbLine
 10
664.698343999
 20
302.6743241132
 30
0.0
 11
664.772387869
 21
282.6743245602
 31
0.0
  0
LINE
  5
49A
330
1F
100
AcDbEntity
  8
0
  6
Continuous
 62
     7
370
    15
100
AcDbLine
 10
680.2009533115
 20
282.6743245602
 30
0.0
 11
664.772387869
 21
282.6743245602
 31
0.0
  0
LINE
  5
49B
330
1F
100
AcDbEntity
  8
0
  6
Continuous
 62
     7
370
    15
100
AcDbLine
 10
923.7664307424
 20
282.6743245602
 30
0.0
 11
923.8404746123
 21
302.6743241132
 31
0.0
  0
LINE
  5
49C
330
1F
100
AcDbEntity
  8
0
  6
Continuous
 62
     7
370
    15
100
AcDbLine
 10
923.7664307424
 20
282.6743245602
 30
0.0
 11
908.3378652998
 21
282.6743245602
 31
0.0
  0
SPLINE
  5
49D
330
1F
100
AcDbEntity
  8
0
  6
Continuous
 62
     7
370
    15
100
AcDbSpline
210
0.0
220
0.0
230
1.0
 70
     8
 71
     3
 72
    18
 73
    14
 74
     0
 42
0.000000001
 43
0.00000001
 40
0.0
 40
0.0
 40
0.0
 40
0.0
 40
0.2499999999999959
 40
0.2499999999999959
 40
0.3749999999999938
 40
0.3749999999999938
 40
0.4999999999999918
 40
0.4999999999999918
 40
0.7499999999999974
 40
0.7499999999999974
 40
0.8749999999999987
 40
0.8749999999999987
 40
1.0
 40
1.0
 40
1.0
 40
1.0
 10
661.7694093087808
 20
302.674323756913
 30
0.0
 10
661.7694353529896
 20
302.6713393862013
 30
0.0
 10
661.834259686246
 20
302.669424637158
 30
0.0
 10
662.0247234729809
 20
302.6675083606211
 30
0.0
 10
662.1038647094928
 20
302.6670390906745
 30
0.0
 10
662.2941679343727
 20
302.666412738881
 30
0.0
 10
662.4058682120011
 20
302.6662574746668
 30
0.0
 10
662.782222434569
 20
302.6662591171713
 30
0.0
 10
663.0892940174081
 20
302.6668573474584
 30
0.0
 10
663.6333950127828
 20
302.6687723556195
 30
0.0
 10
663.8294986258743
 20
302.6695871844962
 30
0.0
 10
664.2476259504491
 20
302.6716320393994
 30
0.0
 10
664.4676293854857
 20
302.6728502698762
 30
0.0
 10
664.6982299721525
 20
302.6743237569107
 30
0.0
  0
SPLINE
  5
49E
330
1F
100
AcDbEntity
  8
0
  6
Continuous
 62
     7
370
    15
100
AcDbSpline
210
0.0
220
0.0
230
1.0
 70
     8
 71
     3
 72
    18
 73
    14
 74
     0
 42
0.000000001
 43
0.00000001
 40
0.0
 40
0.0
 40
0.0
 40
0.0
 40
0.2499999999999884
 40
0.2499999999999884
 40
0.37499999999999
 40
0.37499999999999
 40
0.4999999999999916
 40
0.4999999999999916
 40
0.7499999999999947
 40
0.7499999999999947
 40
0.8749999999999973
 40
0.8749999999999973
 40
1.0
 40
1.0
 40
1.0
 40
1.0
 10
923.8405886391909
 20
302.6743237568982
 30
0.0
 10
924.307642383628
 20
302.6713393861882
 30
0.0
 10
924.721074171424
 20
302.6694246371463
 30
0.0
 10
925.2640733123409
 20
302.667508360611
 30
0.0
 10
925.4321194320107
 20
302.6670390906647
 30
0.0
 10
925.7417134549435
 20
302.6664127388722
 30
0.0
 10
925.8834859880595
 20
302.666257474658
 30
0.0
 10
926.2595238757933
 20
302.6662591171637
 30
0.0
 10
926.4484865701412
 20
302.6668573474515
 30
0.0
 10
926.6401713662939
 20
302.6687723556139
 30
0.0
 10
926.6887688088221
 20
302.6695871844914
 30
0.0
 10
926.7534713845594
 20
302.6716320393954
 30
0.0
 10
926.7693964436359
 20
302.6728502698728
 30
0.0
 10
926.7694093025625
 20
302.6743237569078
 30
0.0
  0
LINE
  5
49F
330
1F
100
AcDbEntity
  8
0
  6
Continuous
 62
     7
370
    15
100
AcDbLine
 10
661.8741269179
 20
282.6743245602
 30
0.0
 11
661.7694164582
 21
302.6743241132
 31
0.0
  0
LINE
  5
4A0
330
1F
100
AcDbEntity
  8
0
  6
Continuous
 62
     7
370
    15
100
AcDbLine
 10
664.772387869
 20
282.6743245602
 30
0.0
 11
661.8741269179
 21
282.6743245602
 31
0.0
  0
LINE
  5
4A1
330
1F
100
AcDbEntity
  8
0
  6
Continuous
 62
     7
370
    15
100
AcDbLine
 10
926.7694021531
 20
302.6743241132
 30
0.0
 11
926.6646916934
 21
282.6743245602
 31
0.0
  0
LINE
  5
4A2
330
1F
100
AcDbEntity
  8
0
  6
Continuous
 62
     7
370
    15
100
AcDbLine
 10
926.6646916934
 20
282.6743245602
 30
0.0
 11
923.7664307424
 21
282.6743245602
 31
0.0
  0
LINE
  5
4A3
330
1F
100
AcDbEntity
  8
0
  6
CENTERX2
 62
     7
370
     0
100
AcDbLine
 10
698.2578535168
 20
315.3066223843
 30
0.0
 11
698.1081791209
 21
478.9243241132
 31
0.0
  0
LINE
  5
4A4
330
1F
100
AcDbEntity
  8
0
  6
CENTERX2
 62
     7
370
     0
100
AcDbLine
 10
890.4306394904
 20
478.9243241132
 30
0.0
 11
698.1081791209
 21
478.9243241132
 31
0.0
  0
LINE
  5
4A5
330
1F
100
AcDbEntity
  8
0
  6
CENTERX2
 62
     7
370
     0
100
AcDbLine
 10
890.4306394904
 20
478.9243241132
 30
0.0
 11
890.2809650945
 21
315.3066223843
 31
0.0
  0
LINE
  5
4A6
330
1F
100
AcDbEntity
  8
0
  6
CENTERX2
 62
     7
370
     0
100
AcDbLine
 10
890.2809650945
 20
315.3066223843
 30
0.0
 11
698.2578535168
 21
315.3066223843
 31
0.0
  0
LINE
  5
4A7
330
1F
100
AcDbEntity
  8
0
  6
Continuous
 62
     7
370
     0
100
AcDbLine
 10
935.2990704938
 20
480.7092289261
 30
0.0
 11
653.2397481175
 21
480.7092289261
 31
0.0
  0
LINE
  5
4A8
330
1F
100
AcDbEntity
  8
0
  6
Continuous
 62
     7
370
     0
100
AcDbLine
 10
653.2397481175
 20
480.7092289261
 30
0.0
 11
649.3080881388
 21
476.7775689474
 31
0.0
  0
LINE
  5
4A9
330
1F
100
AcDbEntity
  8
0
  6
Continuous
 62
     7
370
     0
100
AcDbLine
 10
649.3080881388
 20
476.7775689474
 30
0.0
 11
646.269104696
 21
302.6743241132
 31
0.0
  0
LINE
  5
4AA
330
1F
100
AcDbEntity
  8
0
  6
Continuous
 62
     7
370
     0
100
AcDbLine
 10
646.269104696
 20
302.6743241132
 30
0.0
 11
942.2697139154
 21
302.6743241132
 31
0.0
  0
LINE
  5
4AB
330
1F
100
AcDbEntity
  8
0
  6
Continuous
 62
     7
370
     0
100
AcDbLine
 10
942.2697139154
 20
302.6743241132
 30
0.0
 11
939.2307304726
 21
476.7775689474
 31
0.0
  0
LINE
  5
4AC
330
1F
100
AcDbEntity
  8
0
  6
Continuous
 62
     7
370
     0
100
AcDbLine
 10
939.2307304726
 20
476.7775689474
 30
0.0
 11
935.2990704938
 21
480.7092289261
 31
0.0
  0
CIRCLE
  5
4AD
330
1F
100
AcDbEntity
  8
0
  6
Continuous
 62
     7
370
     0
100
AcDbCircle
 10
709.2694093057
 20
462.6731442315
 30
0.0
 40
3.872536396059897
  0
CIRCLE
  5
4AE
330
1F
100
AcDbEntity
  8
0
  6
Continuous
 62
     7
370
     0
100
AcDbCircle
 10
709.2694093057
 20
327.6731316996
 30
0.0
 40
3.913668104250522
  0
CIRCLE
  5
4AF
330
1F
100
AcDbEntity
  8
0
  6
Continuous
 62
     7
370
     0
100
AcDbCircle
 10
879.2694093057
 20
327.6731316996
 30
0.0
 40
3.913668104250631
  0
CIRCLE
  5
4B0
330
1F
100
AcDbEntity
  8
0
  6
Continuous
 62
     7
370
     0
100
AcDbCircle
 10
879.2694093057
 20
462.6731442315
 30
0.0
 40
3.872536396059897
  0
LINE
  5
4B1
330
1F
100
AcDbEntity
  8
0
  6
Continuous
 62
     7
370
    15
100
AcDbLine
 10
1258.0702446126
 20
557.1241727013
 30
0.0
 11
1258.0702446126
 21
555.1244815726
 31
0.0
  0
LINE
  5
4B2
330
1F
100
AcDbEntity
  8
0
  6
Continuous
 62
     7
370
    15
100
AcDbLine
 10
1258.0702446126
 20
555.1244815726
 30
0.0
 11
1083.9669994734
 21
558.1634690899
 31
0.0
  0
ELLIPSE
  5
4B3
330
1F
100
AcDbEntity
  8
0
  6
Continuous
 62
     7
370
    15
100
AcDbEllipse
 10
1084.0019045913
 20
560.1631633859
 30
0.0
 11
0.03490481287462899
 21
1.999695390312695
 31
0.0
210
0.0
220
0.0
230
1.0
 40
0.2194107328
 41
1.583137354990793
 42
3.141592653589866
  0
ELLIPSE
  5
4B4
330
1F
100
AcDbEntity
  8
0
  6
Continuous
 62
     7
370
    15
100
AcDbEllipse
 10
1082.5625673031
 20
560.1882871117
 30
0.0
 11
0.01121229774457788
 21
2.000073810199069
 31
0.0
210
0.0
220
0.0
230
1.0
 40
0.5002600786
 41
4.694120958393357
 42
4.706157400094035
  0
LINE
  5
4B5
330
1F
100
AcDbEntity
  8
0
  6
Continuous
 62
     7
370
    15
100
AcDbLine
 10
1083.5630289935
 20
560.1702084679
 30
0.0
 11
1258.0702446126
 21
557.1241727013
 31
0.0
  0
ELLIPSE
  5
4B6
330
1F
100
AcDbEntity
  8
0
  6
Continuous
 62
     7
370
    15
100
AcDbEllipse
 10
1084.0019045913
 20
950.0858057197
 30
0.0
 11
-0.03490481287462899
 21
1.999695390312809
 31
0.0
210
0.0
220
0.0
230
1.0
 40
0.2194107328
 41
0.0
 42
1.558455298599007
  0
LINE
  5
4B7
330
1F
100
AcDbEntity
  8
0
  6
Continuous
 62
     7
370
    15
100
AcDbLine
 10
1083.9669994734
 20
952.0855000157
 30
0.0
 11
1258.0702446126
 21
955.124487533
 31
0.0
  0
LINE
  5
4B8
330
1F
100
AcDbEntity
  8
0
  6
Continuous
 62
     7
370
    15
100
AcDbLine
 10
1258.0702446126
 20
955.124487533
 30
0.0
 11
1258.0702446126
 21
953.1247964043
 31
0.0
  0
LINE
  5
4B9
330
1F
100
AcDbEntity
  8
0
  6
Continuous
 62
     7
370
    15
100
AcDbLine
 10
1258.0702446126
 20
953.1247964043
 30
0.0
 11
1083.5630289935
 21
950.0787606377
 31
0.0
  0
ELLIPSE
  5
4BA
330
1F
100
AcDbEntity
  8
0
  6
Continuous
 62
     7
370
    15
100
AcDbEllipse
 10
1082.5625673031
 20
950.0606819939
 30
0.0
 11
-0.01121229774457789
 21
2.000073810198842
 31
0.0
210
0.0
220
0.0
230
1.0
 40
0.5002600786
 41
4.7186205606753
 42
4.730657002376091
  0
LINE
  5
4BB
330
1F
100
AcDbEntity
  8
0
  6
Continuous
 62
     7
370
    15
100
AcDbLine
 10
1258.0702446126
 20
953.1247964043
 30
0.0
 11
1258.0702446126
 21
557.1241727013
 31
0.0
  0
LINE
  5
4BC
330
1F
100
AcDbEntity
  8
0
  6
Continuous
 62
     7
370
    15
100
AcDbLine
 10
1083.5630289935
 20
950.0787606377
 30
0.0
 11
1083.5630289935
 21
560.1702084679
 31
0.0
  0
ELLIPSE
  5
4BD
330
1F
100
AcDbEntity
  8
0
  6
Continuous
 62
     7
370
    15
100
AcDbEllipse
 10
1081.8554605219
 20
950.0606819939
 30
0.0
 11
0.9405245924610882
 21
0.3992290035258748
 31
0.0
210
0.0
220
0.0
230
1.0
 40
0.9751955544
 41
5.890714665351998
 42
5.902751107052695
  0
ARC
  5
4BE
330
1F
100
AcDbEntity
  8
0
  6
Continuous
 62
     7
370
    15
100
AcDbCircle
 10
1084.2698603468
 20
889.8677945794
 30
0.0
 40
60.23918178964989
100
AcDbArc
 50
90.6725789487
 51
91.3284275685
  0
LINE
  5
4BF
330
1F
100
AcDbEntity
  8
0
  6
Continuous
 62
     7
370
    15
100
AcDbLine
 10
1083.5630289935
 20
950.0787606377
 30
0.0
 11
1082.8733734511
 21
950.0787606377
 31
0.0
  0
ARC
  5
4C0
330
1F
100
AcDbEntity
  8
0
  6
Continuous
 62
     7
370
    15
100
AcDbCircle
 10
1084.2698603468
 20
620.3811745261
 30
0.0
 40
60.23918178965012
100
AcDbArc
 50
268.6715724315
 51
269.3274210513
  0
ELLIPSE
  5
4C1
330
1F
100
AcDbEntity
  8
0
  6
Continuous
 62
     7
370
    15
100
AcDbEllipse
 10
1081.8554605219
 20
560.1882871117
 30
0.0
 11
0.9405245924610879
 21
-0.399229003525761
 31
0.0
210
0.0
220
0.0
230
1.0
 40
0.9751955544
 41
0.3804342001269
 42
0.3924706418275971
  0
LINE
  5
4C2
330
1F
100
AcDbEntity
  8
0
  6
Continuous
 62
     7
370
    15
100
AcDbLine
 10
1082.8733734511
 20
560.1702084679
 30
0.0
 11
1083.5630289935
 21
560.1702084679
 31
0.0
  0
LINE
  5
4C3
330
1F
100
AcDbEntity
  8
0
  6
Continuous
 62
     7
370
    15
100
AcDbLine
 10
1082.8733734511
 20
560.1702084679
 30
0.0
 11
1082.8733734511
 21
950.0787606377
 31
0.0
  0
ELLIPSE
  5
4C4
330
1F
100
AcDbEntity
  8
0
  6
Continuous
 62
     7
370
    15
100
AcDbEllipse
 10
1084.0019045913
 20
950.0858057197
 30
0.0
 11
-0.03490481287462899
 21
1.999695390312809
 31
0.0
210
0.0
220
0.0
230
1.0
 40
0.5642123218
 41
0.0
 42
1.558455298598962
  0
ELLIPSE
  5
4C5
330
1F
100
AcDbEntity
  8
0
  6
Continuous
 62
     7
370
    15
100
AcDbEllipse
 10
1084.0019045913
 20
560.1631633859
 30
0.0
 11
0.03490481287462899
 21
1.999695390312695
 31
0.0
210
0.0
220
0.0
230
1.0
 40
0.5642123218
 41
1.583137354990833
 42
3.141592653589821
  0
LINE
  5
4C6
330
1F
100
AcDbEntity
  8
0
  6
Continuous
 62
     7
370
    15
100
AcDbLine
 10
1082.8733138465
 20
950.0907858748
 30
0.0
 11
1078.3631346844
 21
950.0120630402
 31
0.0
  0
LINE
  5
4C7
330
1F
100
AcDbEntity
  8
0
  6
Continuous
 62
     7
370
    15
100
AcDbLine
 10
1078.3631346844
 20
560.2369060654
 30
0.0
 11
1082.8733138465
 21
560.1581832308
 31
0.0
  0
LINE
  5
4C8
330
1F
100
AcDbEntity
  8
0
  6
Continuous
 62
     7
370
    15
100
AcDbLine
 10
1078.3631346844
 20
950.0120630402
 30
0.0
 11
1078.3631346844
 21
560.2369060654
 31
0.0
  0
ELLIPSE
  5
4C9
330
1F
100
AcDbEntity
  8
0
  6
Continuous
 62
     7
370
    15
100
AcDbEllipse
 10
1080.0702446126
 20
560.2317907661
 30
0.0
 11
0.03490481287462899
 21
1.999695390312695
 31
0.0
210
0.0
220
0.0
230
1.0
 40
0.8535264636
 41
1.588249619314912
 42
3.141592653589944
  0
ELLIPSE
  5
4CA
330
1F
100
AcDbEntity
  8
0
  6
Continuous
 62
     7
370
    15
100
AcDbEllipse
 10
1079.0702446126
 20
560.249245831
 30
0.0
 11
0.01495979449214247
 21
2.000031099145304
 31
0.0
210
0.0
220
0.0
230
1.0
 40
0.3534956924
 41
1.579611610002942
 42
1.584723874327034
  0
LINE
  5
4CB
330
1F
100
AcDbEntity
  8
0
  6
Continuous
 62
     7
370
    15
100
AcDbLine
 10
1083.9669994734
 20
558.1634690899
 30
0.0
 11
1080.0353429936
 21
558.2320889372
 31
0.0
  0
ELLIPSE
  5
4CC
330
1F
100
AcDbEntity
  8
0
  6
Continuous
 62
     7
370
    15
100
AcDbEllipse
 10
1080.0702446126
 20
950.0171783395
 30
0.0
 11
-0.03490481287440162
 21
1.999695390312809
 31
0.0
210
0.0
220
0.0
230
1.0
 40
0.8535264636
 41
0.0
 42
1.553343034275037
  0
ELLIPSE
  5
4CD
330
1F
100
AcDbEntity
  8
0
  6
Continuous
 62
     7
370
    15
100
AcDbEllipse
 10
1079.0702446126
 20
949.9997232745
 30
0.0
 11
-0.01495979449191509
 21
2.00003109914519
 31
0.0
210
0.0
220
0.0
230
1.0
 40
0.3534956924
 41
1.556868779262851
 42
1.561981043587001
  0
LINE
  5
4CE
330
1F
100
AcDbEntity
  8
0
  6
Continuous
 62
     7
370
    15
100
AcDbLine
 10
1080.0353429936
 20
952.0168801684
 30
0.0
 11
1083.9669994734
 21
952.0855000157
 31
0.0
  0
LINE
  5
4CF
330
1F
100
AcDbEntity
  8
0
  6
Continuous
 62
     7
370
    15
100
AcDbLine
 10
1078.07023746
 20
950.0120630402
 30
0.0
 11
1078.07023746
 21
950.0171741385
 31
0.0
  0
ARC
  5
4D0
330
1F
100
AcDbEntity
  8
0
  6
Continuous
 62
     7
370
    15
100
AcDbCircle
 10
1078.3204371331
 20
944.0739098111
 30
0.0
 40
5.94852845179419
100
AcDbArc
 50
89.5890239202
 51
92.4106155994
  0
LINE
  5
4D1
330
1F
100
AcDbEntity
  8
0
  6
Continuous
 62
     7
370
    15
100
AcDbLine
 10
1078.3631346844
 20
950.0120630402
 30
0.0
 11
1078.07023746
 21
950.0120630402
 31
0.0
  0
ARC
  5
4D2
330
1F
100
AcDbEntity
  8
0
  6
Continuous
 62
     7
370
    15
100
AcDbCircle
 10
1078.3204371331
 20
566.1750592945
 30
0.0
 40
5.948528451794304
100
AcDbArc
 50
267.5893844006
 51
270.4109760798
  0
LINE
  5
4D3
330
1F
100
AcDbEntity
  8
0
  6
Continuous
 62
     7
370
    15
100
AcDbLine
 10
1078.07023746
 20
560.2317949671
 30
0.0
 11
1078.07023746
 21
560.2369060654
 31
0.0
  0
LINE
  5
4D4
330
1F
100
AcDbEntity
  8
0
  6
Continuous
 62
     7
370
    15
100
AcDbLine
 10
1078.07023746
 20
560.2369060654
 30
0.0
 11
1078.3631346844
 21
560.2369060654
 31
0.0
  0
LINE
  5
4D5
330
1F
100
AcDbEntity
  8
0
  6
Continuous
 62
     7
370
    15
100
AcDbLine
 10
1078.07023746
 20
560.2369060654
 30
0.0
 11
1078.07023746
 21
950.0120630402
 31
0.0
  0
ARC
  5
4D6
330
1F
100
AcDbEntity
  8
0
  6
Continuous
 62
     7
370
    15
100
AcDbCircle
 10
1080.0702446126
 20
950.0171783395
 30
0.0
 40
2.000000000000023
100
AcDbArc
 50
91.0
 51
180.0
  0
ARC
  5
4D7
330
1F
100
AcDbEntity
  8
0
  6
Continuous
 62
     7
370
    15
100
AcDbCircle
 10
1080.0702446126
 20
560.2317907661
 30
0.0
 40
2.000000000000023
100
AcDbArc
 50
180.0
 51
269.0
  0
SPLINE
  5
4D8
330
1F
100
AcDbEntity
  8
0
  6
Continuous
 62
     7
370
    15
100
AcDbSpline
210
0.0
220
0.0
230
1.0
 70
     8
 71
     3
 72
    18
 73
    14
 74
     0
 42
0.000000001
 43
0.00000001
 40
0.0
 40
0.0
 40
0.0
 40
0.0
 40
0.2500000000000041
 40
0.2500000000000041
 40
0.3750000000000016
 40
0.3750000000000016
 40
0.4999999999999992
 40
0.4999999999999992
 40
0.7499999999999986
 40
0.7499999999999986
 40
0.8749999999999993
 40
0.8749999999999993
 40
1.0
 40
1.0
 40
1.0
 40
1.0
 10
1258.07024496888
 20
590.8672367659525
 30
0.0
 10
1258.073229339589
 20
591.3343273424628
 30
0.0
 10
1258.075144088629
 20
591.8394345815218
 30
0.0
 10
1258.077060365163
 20
592.65179019278
 30
0.0
 10
1258.077529635109
 20
592.9317589224679
 30
0.0
 10
1258.078155986901
 20
593.5104823469894
 30
0.0
 10
1258.078311251115
 20
593.8102229276483
 30
0.0
 10
1258.078309608608
 20
594.7185060611939
 30
0.0
 10
1258.07771137832
 20
595.3417335526121
 30
0.0
 10
1258.075796370157
 20
596.3028933557244
 30
0.0
 10
1258.074981541279
 20
596.628823187517
 30
0.0
 10
1258.072936686374
 20
597.2848470964668
 30
0.0
 10
1258.071718455896
 20
597.6119039971408
 30
0.0
 10
1258.070244968861
 20
597.9380353332227
 30
0.0
  0
SPLINE
  5
4D9
330
1F
100
AcDbEntity
  8
0
  6
Continuous
 62
     7
370
    15
100
AcDbSpline
210
0.0
220
0.0
230
1.0
 70
     8
 71
     3
 72
    18
 73
    14
 74
     0
 42
0.000000001
 43
0.00000001
 40
0.0
 40
0.0
 40
0.0
 40
0.0
 40
0.2499999999999959
 40
0.2499999999999959
 40
0.3749999999999938
 40
0.3749999999999938
 40
0.4999999999999918
 40
0.4999999999999918
 40
0.7499999999999974
 40
0.7499999999999974
 40
0.8749999999999987
 40
0.8749999999999987
 40
1.0
 40
1.0
 40
1.0
 40
1.0
 10
1258.070244968852
 20
912.310933772342
 30
0.0
 10
1258.073229339564
 20
912.9714735562909
 30
0.0
 10
1258.075144088608
 20
913.6209787309646
 30
0.0
 10
1258.077060365144
 20
914.5793592671408
 30
0.0
 10
1258.077529635091
 20
914.8961536051941
 30
0.0
 10
1258.078155986884
 20
915.5242888961351
 30
0.0
 10
1258.078311251099
 20
915.8364858128684
 30
0.0
 10
1258.078309608594
 20
916.7446379162354
 30
0.0
 10
1258.077711378307
 20
917.3189431042038
 30
0.0
 10
1258.075796370146
 20
918.1341273379984
 30
0.0
 10
1258.074981541269
 20
918.39895811341
 30
0.0
 10
1258.072936686366
 20
918.908588698113
 30
0.0
 10
1258.071718455889
 20
919.1511135676772
 30
0.0
 10
1258.070244968855
 20
919.3817323396122
 30
0.0
  0
LINE
  5
4DA
330
1F
100
AcDbEntity
  8
0
  6
Continuous
 62
     7
370
    15
100
AcDbLine
 10
1278.0702441655
 20
919.3077882666
 30
0.0
 11
1278.0702441655
 21
912.3107692141
 31
0.0
  0
LINE
  5
4DB
330
1F
100
AcDbEntity
  8
0
  6
Continuous
 62
     7
370
    15
100
AcDbLine
 10
1278.0702441655
 20
912.3107692141
 30
0.0
 11
1258.0702446126
 21
912.3107692141
 31
0.0
  0
LINE
  5
4DC
330
1F
100
AcDbEntity
  8
0
  6
Continuous
 62
     7
370
    15
100
AcDbLine
 10
1258.0702446126
 20
919.3818470377
 30
0.0
 11
1278.0702441655
 21
919.3077882666
 31
0.0
  0
LINE
  5
4DD
330
1F
100
AcDbEntity
  8
0
  6
Continuous
 62
     7
370
    15
100
AcDbLine
 10
1278.0702441655
 20
597.9381998915
 30
0.0
 11
1278.0702441655
 21
590.941180839
 31
0.0
  0
LINE
  5
4DE
330
1F
100
AcDbEntity
  8
0
  6
Continuous
 62
     7
370
    15
100
AcDbLine
 10
1278.0702441655
 20
590.941180839
 30
0.0
 11
1258.0702446126
 21
590.8671220679
 31
0.0
  0
LINE
  5
4DF
330
1F
100
AcDbEntity
  8
0
  6
Continuous
 62
     7
370
    15
100
AcDbLine
 10
1258.0702446126
 20
597.9381998915
 30
0.0
 11
1278.0702441655
 21
597.9381998915
 31
0.0
  0
LINE
  5
4E0
330
1F
100
AcDbEntity
  8
0
  6
Continuous
 62
     7
370
    15
100
AcDbLine
 10
1278.0702441655
 20
912.3107692141
 30
0.0
 11
1278.0702441655
 21
597.9381998915
 31
0.0
  0
LINE
  5
4E1
330
1F
100
AcDbEntity
  8
0
  6
Continuous
 62
     7
370
    15
100
AcDbLine
 10
1278.0702441655
 20
934.7363611597
 30
0.0
 11
1258.0702446126
 21
934.8104050297
 31
0.0
  0
LINE
  5
4E2
330
1F
100
AcDbEntity
  8
0
  6
Continuous
 62
     7
370
    15
100
AcDbLine
 10
1278.0702441655
 20
934.7363611597
 30
0.0
 11
1278.0702441655
 21
919.3077882666
 31
0.0
  0
LINE
  5
4E3
330
1F
100
AcDbEntity
  8
0
  6
Continuous
 62
     7
370
    15
100
AcDbLine
 10
1258.0702446126
 20
575.4385640759
 30
0.0
 11
1278.0702441655
 21
575.5126079458
 31
0.0
  0
LINE
  5
4E4
330
1F
100
AcDbEntity
  8
0
  6
Continuous
 62
     7
370
    15
100
AcDbLine
 10
1278.0702441655
 20
590.941180839
 30
0.0
 11
1278.0702441655
 21
575.5126079458
 31
0.0
  0
SPLINE
  5
4E5
330
1F
100
AcDbEntity
  8
0
  6
Continuous
 62
     7
370
    15
100
AcDbSpline
210
0.0
220
0.0
230
1.0
 70
     8
 71
     3
 72
    18
 73
    14
 74
     0
 42
0.000000001
 43
0.00000001
 40
0.0
 40
0.0
 40
0.0
 40
0.0
 40
0.2499999999999968
 40
0.2499999999999968
 40
0.3749999999999991
 40
0.3749999999999991
 40
0.5000000000000014
 40
0.5000000000000014
 40
0.7500000000000061
 40
0.7500000000000061
 40
0.875000000000003
 40
0.875000000000003
 40
1.0
 40
1.0
 40
1.0
 40
1.0
 10
1258.070244934801
 20
572.5157299172994
 30
0.0
 10
1258.072956619689
 20
572.5377793343873
 30
0.0
 10
1258.074718810704
 20
572.618644803061
 30
0.0
 10
1258.076479574252
 20
572.82451190116
 30
0.0
 10
1258.076911227685
 20
572.9073253722182
 30
0.0
 10
1258.077487573269
 20
573.1018629386626
 30
0.0
 10
1258.077631394421
 20
573.214304683854
 30
0.0
 10
1258.077630534906
 20
573.5897219329939
 30
0.0
 10
1258.077075820033
 20
573.8906181778348
 30
0.0
 10
1258.075318979234
 20
574.4163147739938
 30
0.0
 10
1258.074576389858
 20
574.6040197884751
 30
0.0
 10
1258.072708684424
 20
575.0051141211565
 30
0.0
 10
1258.071587327956
 20
575.2175461711402
 30
0.0
 10
1258.070244934809
 20
575.4384590828164
 30
0.0
  0
SPLINE
  5
4E6
330
1F
100
AcDbEntity
  8
0
  6
Continuous
 62
     7
370
    15
100
AcDbSpline
210
0.0
220
0.0
230
1.0
 70
     8
 71
     3
 72
    18
 73
    14
 74
     0
 42
0.000000001
 43
0.00000001
 40
0.0
 40
0.0
 40
0.0
 40
0.0
 40
0.2499999999999968
 40
0.2499999999999968
 40
0.3749999999999984
 40
0.3749999999999984
 40
0.5
 40
0.5
 40
0.7499999999999987
 40
0.7499999999999987
 40
0.8749999999999993
 40
0.8749999999999993
 40
1.0
 40
1.0
 40
1.0
 40
1.0
 10
1258.07024493479
 20
934.8105100227485
 30
0.0
 10
1258.072956619676
 20
935.2567624528556
 30
0.0
 10
1258.074718810691
 20
935.6540222395731
 30
0.0
 10
1258.076479574239
 20
936.1794668658235
 30
0.0
 10
1258.076911227671
 20
936.3427940360133
 30
0.0
 10
1258.077487573255
 20
936.6453660880658
 30
0.0
 10
1258.077631394406
 20
936.7851926281747
 30
0.0
 10
1258.07763053489
 20
937.1604470693719
 30
0.0
 10
1258.077075820016
 20
937.353855192295
 30
0.0
 10
1258.075318979216
 20
937.5605910241741
 30
0.0
 10
1258.074576389839
 20
937.6155163256964
 30
0.0
 10
1258.072708684404
 20
937.6965652513348
 30
0.0
 10
1258.071587327933
 20
937.7223238394605
 30
0.0
 10
1258.070244934786
 20
937.7332391882653
 30
0.0
  0
LINE
  5
4E7
330
1F
100
AcDbEntity
  8
0
  6
Continuous
 62
     7
370
    15
100
AcDbLine
 10
1258.0702446126
 20
937.7332379955
 30
0.0
 11
1278.0702441655
 21
937.6285871405
 31
0.0
  0
LINE
  5
4E8
330
1F
100
AcDbEntity
  8
0
  6
Continuous
 62
     7
370
    15
100
AcDbLine
 10
1278.0702441655
 20
937.6285871405
 30
0.0
 11
1278.0702441655
 21
934.7363611597
 31
0.0
  0
LINE
  5
4E9
330
1F
100
AcDbEntity
  8
0
  6
Continuous
 62
     7
370
    15
100
AcDbLine
 10
1278.0702441655
 20
572.6203819651
 30
0.0
 11
1258.0702446126
 21
572.51573111
 31
0.0
  0
LINE
  5
4EA
330
1F
100
AcDbEntity
  8
0
  6
Continuous
 62
     7
370
    15
100
AcDbLine
 10
1278.0702441655
 20
575.5126079458
 30
0.0
 11
1278.0702441655
 21
572.6203819651
 31
0.0
  0
LINE
  5
4EB
330
1F
100
AcDbEntity
  8
0
  6
Continuous
 62
     7
370
    15
100
AcDbLine
 10
1278.0702441655
 20
941.379671349
 30
0.0
 11
1258.0702446126
 21
941.4844414133
 31
0.0
  0
LINE
  5
4EC
330
1F
100
AcDbEntity
  8
0
  6
Continuous
 62
     7
370
    15
100
AcDbLine
 10
1278.0702441655
 20
941.379671349
 30
0.0
 11
1278.0702441655
 21
937.6285871405
 31
0.0
  0
LINE
  5
4ED
330
1F
100
AcDbEntity
  8
0
  6
Continuous
 62
     7
370
    15
100
AcDbLine
 10
1278.0702441655
 20
568.8692977566
 30
0.0
 11
1258.0702446126
 21
568.7645276922
 31
0.0
  0
LINE
  5
4EE
330
1F
100
AcDbEntity
  8
0
  6
Continuous
 62
     7
370
    15
100
AcDbLine
 10
1278.0702441655
 20
572.6203819651
 30
0.0
 11
1278.0702441655
 21
568.8692977566
 31
0.0
  0
LINE
  5
4EF
330
1F
100
AcDbEntity
  8
0
  6
CENTERX2
 62
     7
370
     0
100
AcDbLine
 10
1083.8199400029
 20
880.2838854538
 30
0.0
 11
1245.5702446126
 21
880.1359193177
 31
0.0
  0
LINE
  5
4F0
330
1F
100
AcDbEntity
  8
0
  6
CENTERX2
 62
     7
370
     0
100
AcDbLine
 10
1083.8199400029
 20
629.9650836518
 30
0.0
 11
1083.8199400029
 21
880.2838854538
 31
0.0
  0
LINE
  5
4F1
330
1F
100
AcDbEntity
  8
0
  6
CENTERX2
 62
     7
370
     0
100
AcDbLine
 10
1245.5702446126
 20
629.293375019
 30
0.0
 11
1245.5702446126
 21
880.9555940866
 31
0.0
  0
LINE
  5
4F2
330
1F
100
AcDbEntity
  8
0
  6
CENTERX2
 62
     7
370
     0
100
AcDbLine
 10
1245.5702446126
 20
630.1130497879
 30
0.0
 11
1083.8199400029
 21
629.9650836518
 31
0.0
  0
CIRCLE
  5
4F3
330
1F
100
AcDbEntity
  8
0
  6
Continuous
 62
     7
370
     0
100
AcDbCircle
 10
1098.0715031883
 20
870.1244845528
 30
0.0
 40
4.130821361799363
  0
CIRCLE
  5
4F4
330
1F
100
AcDbEntity
  8
0
  6
Continuous
 62
     7
370
     0
100
AcDbCircle
 10
1098.0715031883
 20
640.1244845528
 30
0.0
 40
4.130821361799397
  0
CIRCLE
  5
4F5
330
1F
100
AcDbEntity
  8
0
  6
Continuous
 62
     7
370
     0
100
AcDbCircle
 10
1233.0715157203
 20
640.1244845528
 30
0.0
 40
4.171953069990506
  0
CIRCLE
  5
4F6
330
1F
100
AcDbEntity
  8
0
  6
Continuous
 62
     7
370
     0
100
AcDbCircle
 10
1233.0715157203
 20
870.1244845528
 30
0.0
 40
4.171953069990473
  0
LINE
  5
4F7
330
1F
100
AcDbEntity
  8
0
  6
Continuous
 62
     7
370
    15
100
AcDbLine
 10
1712.1146426653
 20
950.0171741385
 30
0.0
 11
1429.2269156431
 21
950.0171741385
 31
0.0
  0
ELLIPSE
  5
4F8
330
1F
100
AcDbEntity
  8
0
  6
Continuous
 62
     7
370
    15
100
AcDbEllipse
 10
1429.641117966
 20
950.0171783395
 30
0.0
 11
0.007553772103619849
 21
1.999999388205083
 31
0.0
210
0.0
220
0.0
230
1.0
 40
0.2070947135
 41
0.0182354657349206
 42
1.571578500009557
  0
LINE
  5
4F9
330
1F
100
AcDbEntity
  8
0
  6
Continuous
 62
     7
370
    15
100
AcDbLine
 10
1429.6411232208
 20
952.0168801684
 30
0.0
 11
1711.7004350876
 21
952.0168801684
 31
0.0
  0
ELLIPSE
  5
4FA
330
1F
100
AcDbEntity
  8
0
  6
Continuous
 62
     7
370
    15
100
AcDbEllipse
 10
1711.7004403424
 20
950.0171783395
 30
0.0
 11
-0.007553772103392475
 21
1.999999388205083
 31
0.0
210
0.0
220
0.0
230
1.0
 40
0.2070947135
 41
4.711606807170055
 42
6.264949841445283
  0
ELLIPSE
  5
4FB
330
1F
100
AcDbEntity
  8
0
  6
Continuous
 62
     7
370
    15
100
AcDbEllipse
 10
1429.641117966
 20
950.0171783395
 30
0.0
 11
0.02436273458351933
 21
1.999870667104118
 31
0.0
210
0.0
220
0.0
230
1.0
 40
0.560613321
 41
0.0217266299335188
 42
1.575069664208516
  0
LWPOLYLINE
  5
4FC
330
1F
100
AcDbEntity
  8
0
  6
Continuous
 62
     7
370
    15
100
AcDbPolyline
 90
        9
 70
   128
 43
0.0
 10
1429.2269156431
 20
950.0171741385
 10
1429.128910706
 20
950.0178893942
 10
1429.0318445419
 20
950.0185897488
 10
1428.9366708254
 20
950.0192752022
 10
1428.8442687248
 20
950.0199457545
 10
1428.7555621122
 20
950.0205865044
 10
1428.6714003538
 20
950.021197452
 10
1428.5925732111
 20
950.0217636961
 10
1428.5198704456
 20
950.0222852368
  0
LINE
  5
4FD
330
1F
100
AcDbEntity
  8
0
  6
Continuous
 62
     7
370
    15
100
AcDbLine
 10
1429.226900742
 20
950.0120630402
 30
0.0
 11
1428.5197959398
 21
950.0120630402
 31
0.0
  0
ELLIPSE
  5
4FE
330
1F
100
AcDbEntity
  8
0
  6
Continuous
 62
     7
370
    15
100
AcDbEllipse
 10
1430.641117966
 20
949.9997232745
 30
0.0
 11
2.121051110241979
 21
-0.03702308484537298
 31
0.0
210
0.0
220
0.0
230
1.0
 40
0.9427851034
 41
3.148821417461678
 42
3.153933681785711
  0
ELLIPSE
  5
4FF
330
1F
100
AcDbEntity
  8
0
  6
Continuous
 62
     7
370
    15
100
AcDbEllipse
 10
1430.641117966
 20
949.9997232745
 30
0.0
 11
-1.414105870686626
 21
0.02468330978820177
 31
0.0
210
0.0
220
0.0
230
1.0
 40
0.7070529271
 41
0.0072287638718515
 42
0.0123410281958906
  0
ELLIPSE
  5
500
330
1F
100
AcDbEntity
  8
0
  6
Continuous
 62
     7
370
    15
100
AcDbEllipse
 10
1430.641117966
 20
560.249245831
 30
0.0
 11
2.121051110241979
 21
0.03702308484537298
 31
0.0
210
0.0
220
0.0
230
1.0
 40
0.9427851034
 41
3.129251625393888
 42
3.134363889717978
  0
LINE
  5
501
330
1F
100
AcDbEntity
  8
0
  6
Continuous
 62
     7
370
    15
100
AcDbLine
 10
1428.5197959398
 20
560.2369060654
 30
0.0
 11
1429.226900742
 21
560.2369060654
 31
0.0
  0
ELLIPSE
  5
502
330
1F
100
AcDbEntity
  8
0
  6
Continuous
 62
     7
370
    15
100
AcDbEllipse
 10
1430.641117966
 20
560.249245831
 30
0.0
 11
1.414105870686172
 21
0.02468330978820177
 31
0.0
210
0.0
220
0.0
230
1.0
 40
0.7070529271
 41
3.129251625393897
 42
3.134363889717935
  0
LWPOLYLINE
  5
503
330
1F
100
AcDbEntity
  8
0
  6
Continuous
 62
     7
370
    15
100
AcDbPolyline
 90
        9
 70
   128
 43
0.0
 10
1429.2269156431
 20
560.2317949671
 10
1429.128910706
 20
560.2310797114
 10
1429.0318445419
 20
560.2303793568
 10
1428.9366708254
 20
560.2296939034
 10
1428.8442687248
 20
560.2290233511
 10
1428.7555621122
 20
560.2283826012
 10
1428.6714003538
 20
560.2277716536
 10
1428.5925732111
 20
560.2272054094
 10
1428.5198704456
 20
560.2266838688
  0
LINE
  5
504
330
1F
100
AcDbEntity
  8
0
  6
Continuous
 62
     7
370
    15
100
AcDbLine
 10
1711.7004350876
 20
558.2320889372
 30
0.0
 11
1429.6411232208
 21
558.2320889372
 31
0.0
  0
ELLIPSE
  5
505
330
1F
100
AcDbEntity
  8
0
  6
Continuous
 62
     7
370
    15
100
AcDbEllipse
 10
1429.641117966
 20
560.2317907661
 30
0.0
 11
-0.007553772103392475
 21
1.999999388205083
 31
0.0
210
0.0
220
0.0
230
1.0
 40
0.2070947135
 41
1.570014153580259
 42
3.123357187855422
  0
LINE
  5
506
330
1F
100
AcDbEntity
  8
0
  6
Continuous
 62
     7
370
    15
100
AcDbLine
 10
1429.2269156431
 20
560.2317949671
 30
0.0
 11
1712.1146426653
 21
560.2317949671
 31
0.0
  0
ELLIPSE
  5
507
330
1F
100
AcDbEntity
  8
0
  6
Continuous
 62
     7
370
    15
100
AcDbEllipse
 10
1711.7004403424
 20
560.2317907661
 30
0.0
 11
0.007553772103619849
 21
1.999999388205083
 31
0.0
210
0.0
220
0.0
230
1.0
 40
0.2070947135
 41
3.15982811932478
 42
4.713171153599353
  0
LINE
  5
508
330
1F
100
AcDbEntity
  8
0
  6
Continuous
 62
     7
370
    15
100
AcDbLine
 10
1429.226900742
 20
950.0120630402
 30
0.0
 11
1429.226900742
 21
560.2369060654
 31
0.0
  0
LINE
  5
509
330
1F
100
AcDbEntity
  8
0
  6
Continuous
 62
     7
370
    15
100
AcDbLine
 10
1428.5197959398
 20
560.2369060654
 30
0.0
 11
1428.5197959398
 21
950.0120630402
 31
0.0
  0
ELLIPSE
  5
50A
330
1F
100
AcDbEntity
  8
0
  6
Continuous
 62
     7
370
    15
100
AcDbEllipse
 10
1429.641117966
 20
560.2317907661
 30
0.0
 11
-0.02436273458374671
 21
1.999870667104118
 31
0.0
210
0.0
220
0.0
230
1.0
 40
0.560613321
 41
1.566522989381271
 42
3.119866023656072
  0
ELLIPSE
  5
50B
330
1F
100
AcDbEntity
  8
0
  6
Continuous
 62
     7
370
    15
100
AcDbEllipse
 10
1710.7004403424
 20
949.9997232745
 30
0.0
 11
-1.414105870686626
 21
-0.02468330978820177
 31
0.0
210
0.0
220
0.0
230
1.0
 40
0.7070529271
 41
3.129251625393905
 42
3.134363889717947
  0
LINE
  5
50C
330
1F
100
AcDbEntity
  8
0
  6
Continuous
 62
     7
370
    15
100
AcDbLine
 10
1712.1146575665
 20
560.2369060654
 30
0.0
 11
1712.1146575665
 21
950.0120630402
 31
0.0
  0
ELLIPSE
  5
50D
330
1F
100
AcDbEntity
  8
0
  6
Continuous
 62
     7
370
    15
100
AcDbEllipse
 10
1710.7004403424
 20
560.249245831
 30
0.0
 11
1.414105870686172
 21
-0.02468330978820177
 31
0.0
210
0.0
220
0.0
230
1.0
 40
0.7070529271
 41
0.0072287638718524
 42
0.0123410281958921
  0
CIRCLE
  5
50E
330
1F
100
AcDbEntity
  8
0
  6
Continuous
 62
     7
370
    15
100
AcDbCircle
 10
1700.6707791542
 20
575.1244845528
 30
0.0
 40
4.000000000000227
  0
CIRCLE
  5
50F
330
1F
100
AcDbEntity
  8
0
  6
Continuous
 62
     7
370
    15
100
AcDbCircle
 10
1440.6707791542
 20
575.1244845528
 30
0.0
 40
4.0
  0
CIRCLE
  5
510
330
1F
100
AcDbEntity
  8
0
  6
Continuous
 62
     7
370
    15
100
AcDbCircle
 10
1440.6707791542
 20
935.1244845528
 30
0.0
 40
4.0
  0
CIRCLE
  5
511
330
1F
100
AcDbEntity
  8
0
  6
Continuous
 62
     7
370
    15
100
AcDbCircle
 10
1700.6707791542
 20
935.1244845528
 30
0.0
 40
4.000000000000227
  0
LWPOLYLINE
  5
512
330
1F
100
AcDbEntity
  8
0
  6
Continuous
 62
     7
370
    15
100
AcDbPolyline
 90
        9
 70
   128
 43
0.0
 10
1712.8216878628
 20
560.2266838688
 10
1712.7489850973
 20
560.2272054094
 10
1712.6701579546
 20
560.2277716536
 10
1712.5859961962
 20
560.2283826012
 10
1712.4972895836
 20
560.2290233511
 10
1712.404887483
 20
560.2296939034
 10
1712.3097137665
 20
560.2303793568
 10
1712.2126476025
 20
560.2310797114
 10
1712.1146426653
 20
560.2317949671
  0
ELLIPSE
  5
513
330
1F
100
AcDbEntity
  8
0
  6
Continuous
 62
     7
370
    15
100
AcDbEllipse
 10
1711.7004403424
 20
560.2317907661
 30
0.0
 11
0.02436273458374671
 21
1.999870667104118
 31
0.0
210
0.0
220
0.0
230
1.0
 40
0.560613321
 41
3.163319283523543
 42
4.716662317798323
  0
ELLIPSE
  5
514
330
1F
100
AcDbEntity
  8
0
  6
Continuous
 62
     7
370
    15
100
AcDbEllipse
 10
1711.7004403424
 20
950.0171783395
 30
0.0
 11
-0.02436273458351933
 21
1.999870667104118
 31
0.0
210
0.0
220
0.0
230
1.0
 40
0.560613321
 41
4.708115642971079
 42
6.261458677246089
  0
LWPOLYLINE
  5
515
330
1F
100
AcDbEntity
  8
0
  6
Continuous
 62
     7
370
    15
100
AcDbPolyline
 90
        9
 70
   128
 43
0.0
 10
1712.1146426653
 20
950.0171741385
 10
1712.2126476025
 20
950.0178893942
 10
1712.3097137665
 20
950.0185897488
 10
1712.404887483
 20
950.0192752022
 10
1712.4972895836
 20
950.0199457545
 10
1712.5859961962
 20
950.0205865044
 10
1712.6701579546
 20
950.021197452
 10
1712.7489850973
 20
950.0217636961
 10
1712.8216878628
 20
950.0222852368
  0
ELLIPSE
  5
516
330
1F
100
AcDbEntity
  8
0
  6
Continuous
 62
     7
370
    15
100
AcDbEllipse
 10
1710.7004403424
 20
949.9997232745
 30
0.0
 11
2.121051110241979
 21
0.0370230848451456
 31
0.0
210
0.0
220
0.0
230
1.0
 40
0.9427851034
 41
6.270844278983697
 42
6.275956543307845
  0
LINE
  5
517
330
1F
100
AcDbEntity
  8
0
  6
Continuous
 62
     7
370
    15
100
AcDbLine
 10
1712.8217623686
 20
950.0120630402
 30
0.0
 11
1712.1146575665
 21
950.0120630402
 31
0.0
  0
LINE
  5
518
330
1F
100
AcDbEntity
  8
0
  6
Continuous
 62
     7
370
    15
100
AcDbLine
 10
1712.8217623686
 20
950.0120630402
 30
0.0
 11
1712.8217623686
 21
560.2369060654
 31
0.0
  0
LINE
  5
519
330
1F
100
AcDbEntity
  8
0
  6
Continuous
 62
     7
370
    15
100
AcDbLine
 10
1712.1146575665
 20
560.2369060654
 30
0.0
 11
1712.8217623686
 21
560.2369060654
 31
0.0
  0
ELLIPSE
  5
51A
330
1F
100
AcDbEntity
  8
0
  6
Continuous
 62
     7
370
    15
100
AcDbEllipse
 10
1710.7004403424
 20
560.249245831
 30
0.0
 11
2.121051110241979
 21
-0.03702308484525929
 31
0.0
210
0.0
220
0.0
230
1.0
 40
0.9427851034
 41
0.0072287638717565
 42
0.0123410281958473
  0
LINE
  5
51B
330
1F
100
AcDbEntity
  8
0
  6
Continuous
 62
     7
370
    15
100
AcDbLine
 10
1428.5197959398
 20
950.0120630402
 30
0.0
 11
1424.009631679
 21
950.0907858748
 31
0.0
  0
ELLIPSE
  5
51C
330
1F
100
AcDbEntity
  8
0
  6
Continuous
 62
     7
370
    15
100
AcDbEllipse
 10
1425.7094579873
 20
950.0858057197
 30
0.0
 11
0.06027831885967318
 21
1.999136181388736
 31
0.0
210
0.0
220
0.0
230
1.0
 40
0.8498120072
 41
0.0354661252759804
 42
1.59392142387497
  0
LINE
  5
51D
330
1F
100
AcDbEntity
  8
0
  6
Continuous
 62
     7
370
    15
100
AcDbLine
 10
1425.7094518398
 20
952.0855000157
 30
0.0
 11
1429.6411232208
 21
952.0168801684
 31
0.0
  0
LINE
  5
51E
330
1F
100
AcDbEntity
  8
0
  6
Continuous
 62
     7
370
    15
100
AcDbLine
 10
1424.009631679
 20
560.1581832308
 30
0.0
 11
1428.5197959398
 21
560.2369060654
 31
0.0
  0
LINE
  5
51F
330
1F
100
AcDbEntity
  8
0
  6
Continuous
 62
     7
370
    15
100
AcDbLine
 10
1429.6411232208
 20
558.2320889372
 30
0.0
 11
1425.7094518398
 21
558.1634690899
 31
0.0
  0
ELLIPSE
  5
520
330
1F
100
AcDbEntity
  8
0
  6
Continuous
 62
     7
370
    15
100
AcDbEllipse
 10
1425.7094579873
 20
560.1631633859
 30
0.0
 11
-0.06027831885967317
 21
1.999136181388621
 31
0.0
210
0.0
220
0.0
230
1.0
 40
0.8498120072
 41
1.54767122971482
 42
3.106126528313813
  0
ELLIPSE
  5
521
330
1F
100
AcDbEntity
  8
0
  6
Continuous
 62
     7
370
    15
100
AcDbEllipse
 10
1715.6321003211
 20
560.1631633859
 30
0.0
 11
0.06027831886012792
 21
1.999136181388622
 31
0.0
210
0.0
220
0.0
230
1.0
 40
0.8498120072
 41
3.177058778866058
 42
4.735514077464972
  0
LINE
  5
522
330
1F
100
AcDbEntity
  8
0
  6
Continuous
 62
     7
370
    15
100
AcDbLine
 10
1715.6321064686
 20
558.1634690899
 30
0.0
 11
1711.7004350876
 21
558.2320889372
 31
0.0
  0
LINE
  5
523
330
1F
100
AcDbEntity
  8
0
  6
Continuous
 62
     7
370
    15
100
AcDbLine
 10
1712.8217623686
 20
560.2369060654
 30
0.0
 11
1717.3319266295
 21
560.1581832308
 31
0.0
  0
LINE
  5
524
330
1F
100
AcDbEntity
  8
0
  6
Continuous
 62
     7
370
    15
100
AcDbLine
 10
1711.7004350876
 20
952.0168801684
 30
0.0
 11
1715.6321064686
 21
952.0855000157
 31
0.0
  0
ELLIPSE
  5
525
330
1F
100
AcDbEntity
  8
0
  6
Continuous
 62
     7
370
    15
100
AcDbEllipse
 10
1715.6321003211
 20
950.0858057197
 30
0.0
 11
-0.06027831885967318
 21
1.999136181388736
 31
0.0
210
0.0
220
0.0
230
1.0
 40
0.8498120072
 41
4.689263883304627
 42
6.247719181903622
  0
LINE
  5
526
330
1F
100
AcDbEntity
  8
0
  6
Continuous
 62
     7
370
    15
100
AcDbLine
 10
1717.3319266295
 20
950.0907858748
 30
0.0
 11
1712.8217623686
 21
950.0120630402
 31
0.0
  0
ELLIPSE
  5
527
330
1F
100
AcDbEntity
  8
0
  6
Continuous
 62
     7
370
    15
100
AcDbEllipse
 10
1425.027474932
 20
950.0606819939
 30
0.0
 11
0.9405245924613155
 21
-0.3992290035256474
 31
0.0
210
0.0
220
0.0
230
1.0
 40
0.9751955544
 41
3.52202685371645
 42
3.534063295417151
  0
ELLIPSE
  5
528
330
1F
100
AcDbEntity
  8
0
  6
Continuous
 62
     7
370
    15
100
AcDbEllipse
 10
1425.027474932
 20
560.1882871117
 30
0.0
 11
0.9405245924613156
 21
0.3992290035257611
 31
0.0
210
0.0
220
0.0
230
1.0
 40
0.9751955544
 41
2.749122011762191
 42
2.761158453462893
  0
LINE
  5
529
330
1F
100
AcDbEntity
  8
0
  6
Continuous
 62
     7
370
    15
100
AcDbLine
 10
1424.0095571732
 20
950.0787606377
 30
0.0
 11
1424.0095571732
 21
560.1702084679
 31
0.0
  0
ELLIPSE
  5
52A
330
1F
100
AcDbEntity
  8
0
  6
Continuous
 62
     7
370
    15
100
AcDbEllipse
 10
1716.3140833765
 20
950.0606819939
 30
0.0
 11
0.9405245924610881
 21
0.3992290035255338
 31
0.0
210
0.0
220
0.0
230
1.0
 40
0.9751955544
 41
5.890714665352321
 42
5.902751107053016
  0
LINE
  5
52B
330
1F
100
AcDbEntity
  8
0
  6
Continuous
 62
     7
370
    15
100
AcDbLine
 10
1717.3320011353
 20
560.1702084679
 30
0.0
 11
1717.3320011353
 21
950.0787606377
 31
0.0
  0
ELLIPSE
  5
52C
330
1F
100
AcDbEntity
  8
0
  6
Continuous
 62
     7
370
    15
100
AcDbEllipse
 10
1716.3140833765
 20
560.1882871117
 30
0.0
 11
0.9405245924610881
 21
-0.3992290035255338
 31
0.0
210
0.0
220
0.0
230
1.0
 40
0.9751955544
 41
0.3804342001266626
 42
0.3924706418273561
  0
LINE
  5
52D
330
1F
100
AcDbEntity
  8
0
  6
Continuous
 62
     7
370
    15
100
AcDbLine
 10
1718.6710790848
 20
555.1244815726
 30
0.0
 11
1715.6321064686
 21
558.1634690899
 31
0.0
  0
LINE
  5
52E
330
1F
100
AcDbEntity
  8
0
  6
Continuous
 62
     7
370
    15
100
AcDbLine
 10
1718.6710790848
 20
555.1244815726
 30
0.0
 11
1422.6704792236
 21
555.1244815726
 31
0.0
  0
LINE
  5
52F
330
1F
100
AcDbEntity
  8
0
  6
Continuous
 62
     7
370
    15
100
AcDbLine
 10
1425.7094518398
 20
558.1634690899
 30
0.0
 11
1422.6704792236
 21
555.1244815726
 31
0.0
  0
LINE
  5
530
330
1F
100
AcDbEntity
  8
0
  6
Continuous
 62
     7
370
    15
100
AcDbLine
 10
1715.6321064686
 20
952.0855000157
 30
0.0
 11
1718.6710790848
 21
955.124487533
 31
0.0
  0
LINE
  5
531
330
1F
100
AcDbEntity
  8
0
  6
Continuous
 62
     7
370
    15
100
AcDbLine
 10
1422.6704792236
 20
955.124487533
 30
0.0
 11
1425.7094518398
 21
952.0855000157
 31
0.0
  0
LINE
  5
532
330
1F
100
AcDbEntity
  8
0
  6
Continuous
 62
     7
370
    15
100
AcDbLine
 10
1422.6704792236
 20
955.124487533
 30
0.0
 11
1718.6710790848
 21
955.124487533
 31
0.0
  0
ARC
  5
533
330
1F
100
AcDbEntity
  8
0
  6
Continuous
 62
     7
370
    15
100
AcDbCircle
 10
1424.0219013357
 20
556.2967294148
 30
0.0
 40
3.86147330917546
100
AcDbArc
 50
90.1820550534
 51
94.5294056906
  0
ELLIPSE
  5
534
330
1F
100
AcDbEntity
  8
0
  6
Continuous
 62
     7
370
    15
100
AcDbEllipse
 10
1425.7094579873
 20
560.1631633859
 30
0.0
 11
-0.8022395409882394
 21
1.833556394695165
 31
0.0
210
0.0
220
0.0
230
1.0
 40
0.9947991319
 41
1.168781786972142
 42
2.727237085571156
  0
ARC
  5
535
330
1F
100
AcDbEntity
  8
0
  6
Continuous
 62
     7
370
    15
100
AcDbCircle
 10
1424.0219013357
 20
953.9522396908
 30
0.0
 40
3.861473309175574
100
AcDbArc
 50
265.4705943094
 51
269.8179449466
  0
ELLIPSE
  5
536
330
1F
100
AcDbEntity
  8
0
  6
Continuous
 62
     7
370
    15
100
AcDbEllipse
 10
1425.7094579873
 20
950.0858057197
 30
0.0
 11
0.8022395409880119
 21
1.833556394695279
 31
0.0
210
0.0
220
0.0
230
1.0
 40
0.9947991319
 41
0.4143555680185042
 42
1.972810866617531
  0
ELLIPSE
  5
537
330
1F
100
AcDbEntity
  8
0
  6
Continuous
 62
     7
370
    15
100
AcDbEllipse
 10
1715.6321003211
 20
950.0858057197
 30
0.0
 11
-0.8022395409889214
 21
1.833556394694824
 31
0.0
210
0.0
220
0.0
230
1.0
 40
0.9947991319
 41
4.3103744405616
 42
5.868829739160549
  0
ARC
  5
538
330
1F
100
AcDbEntity
  8
0
  6
Continuous
 62
     7
370
    15
100
AcDbCircle
 10
1717.3196569727
 20
953.9522396907
 30
0.0
 40
3.861473309168178
100
AcDbArc
 50
270.1820550534
 51
274.5294056906
  0
ARC
  5
539
330
1F
100
AcDbEntity
  8
0
  6
Continuous
 62
     7
370
    15
100
AcDbCircle
 10
1717.3196569727
 20
556.2967294148
 30
0.0
 40
3.861473309168065
100
AcDbArc
 50
85.4705943094
 51
89.8179449466
  0
ELLIPSE
  5
53A
330
1F
100
AcDbEntity
  8
0
  6
Continuous
 62
     7
370
    15
100
AcDbEllipse
 10
1715.6321003211
 20
560.1631633859
 30
0.0
 11
0.8022395409893761
 21
1.83355639469471
 31
0.0
210
0.0
220
0.0
230
1.0
 40
0.9947991319
 41
3.555948221609114
 42
5.114403520208015
  0
ELLIPSE
  5
53B
330
1F
100
AcDbEntity
  8
0
  6
Continuous
 62
     7
370
    15
100
AcDbEllipse
 10
1425.7345817131
 20
560.1882871117
 30
0.0
 11
1.865818583231885
 21
0.7778541211027915
 31
0.0
210
0.0
220
0.0
230
1.0
 40
0.9875696233
 41
2.751179221628526
 42
2.763215663329208
  0
LINE
  5
53C
330
1F
100
AcDbEntity
  8
0
  6
Continuous
 62
     7
370
    15
100
AcDbLine
 10
1423.7168089604
 20
560.1702084679
 30
0.0
 11
1424.0095571732
 21
560.1702084679
 31
0.0
  0
LINE
  5
53D
330
1F
100
AcDbEntity
  8
0
  6
Continuous
 62
     7
370
    15
100
AcDbLine
 10
1424.0095571732
 20
950.0787606377
 30
0.0
 11
1423.7168089604
 21
950.0787606377
 31
0.0
  0
ELLIPSE
  5
53E
330
1F
100
AcDbEntity
  8
0
  6
Continuous
 62
     7
370
    15
100
AcDbEllipse
 10
1425.7345817131
 20
950.0606819939
 30
0.0
 11
1.865818583231885
 21
-0.7778541211026778
 31
0.0
210
0.0
220
0.0
230
1.0
 40
0.9875696233
 41
3.519969643850245
 42
3.532006085551041
  0
LINE
  5
53F
330
1F
100
AcDbEntity
  8
0
  6
Continuous
 62
     7
370
    15
100
AcDbLine
 10
1717.3320011353
 20
560.1702084679
 30
0.0
 11
1717.6247493481
 21
560.1702084679
 31
0.0
  0
ELLIPSE
  5
540
330
1F
100
AcDbEntity
  8
0
  6
Continuous
 62
     7
370
    15
100
AcDbEllipse
 10
1715.6069765953
 20
560.1882871117
 30
0.0
 11
1.86581858323143
 21
-0.7778541211029052
 31
0.0
210
0.0
220
0.0
230
1.0
 40
0.9875696233
 41
0.3783769902606724
 42
0.3904134319613513
  0
ELLIPSE
  5
541
330
1F
100
AcDbEntity
  8
0
  6
Continuous
 62
     7
370
    15
100
AcDbEllipse
 10
1715.6069765953
 20
950.0606819939
 30
0.0
 11
1.86581858323143
 21
0.7778541211029052
 31
0.0
210
0.0
220
0.0
230
1.0
 40
0.9875696233
 41
5.892771875218192
 42
5.904808316918984
  0
LINE
  5
542
330
1F
100
AcDbEntity
  8
0
  6
Continuous
 62
     7
370
    15
100
AcDbLine
 10
1717.6247493481
 20
950.0787606377
 30
0.0
 11
1717.3320011353
 21
950.0787606377
 31
0.0
  0
LINE
  5
543
330
1F
100
AcDbEntity
  8
0
  6
Continuous
 62
     7
370
    15
100
AcDbLine
 10
1423.7168089604
 20
560.1702084679
 30
0.0
 11
1423.7168089604
 21
950.0787606377
 31
0.0
  0
LINE
  5
544
330
1F
100
AcDbEntity
  8
0
  6
Continuous
 62
     7
370
    15
100
AcDbLine
 10
1717.6247493481
 20
950.0787606377
 30
0.0
 11
1717.6247493481
 21
560.1702084679
 31
0.0
  0
ELLIPSE
  5
545
330
1F
100
AcDbEntity
  8
0
  6
Continuous
 62
     7
370
    15
100
AcDbEllipse
 10
1422.6710838103
 20
557.1247892089
 30
0.0
 11
-1.414644378339062
 21
-1.414644378339062
 31
0.0
210
0.0
220
0.0
230
1.0
 40
0.9996954599
 41
5.497939437029768
 42
7.068431177329419
  0
LINE
  5
546
330
1F
100
AcDbEntity
  8
0
  6
Continuous
 62
     7
370
    15
100
AcDbLine
 10
1420.6707731938
 20
557.1241727013
 30
0.0
 11
1423.7168089604
 21
560.1702084679
 31
0.0
  0
LINE
  5
547
330
1F
100
AcDbEntity
  8
0
  6
Continuous
 62
     7
370
    15
100
AcDbLine
 10
1423.7168089604
 20
950.0787606377
 30
0.0
 11
1420.6707731938
 21
953.1247964043
 31
0.0
  0
ELLIPSE
  5
548
330
1F
100
AcDbEntity
  8
0
  6
Continuous
 62
     7
370
    15
100
AcDbEllipse
 10
1422.6710838103
 20
953.1241798967
 30
0.0
 11
-1.414644378339062
 21
1.414644378339176
 31
0.0
210
0.0
220
0.0
230
1.0
 40
0.9996954599
 41
5.497939437029727
 42
7.068431177329483
  0
ELLIPSE
  5
549
330
1F
100
AcDbEntity
  8
0
  6
Continuous
 62
     7
370
    15
100
AcDbEllipse
 10
1718.6704744981
 20
953.1241798967
 30
0.0
 11
1.41464437833929
 21
1.414644378339176
 31
0.0
210
0.0
220
0.0
230
1.0
 40
0.9996954599
 41
5.497939437029723
 42
7.068431177329714
  0
LINE
  5
54A
330
1F
100
AcDbEntity
  8
0
  6
Continuous
 62
     7
370
    15
100
AcDbLine
 10
1720.6707851147
 20
953.1247964043
 30
0.0
 11
1717.6247493481
 21
950.0787606377
 31
0.0
  0
ELLIPSE
  5
54B
330
1F
100
AcDbEntity
  8
0
  6
Continuous
 62
     7
370
    15
100
AcDbEllipse
 10
1718.6704744981
 20
557.1247892089
 30
0.0
 11
1.41464437833929
 21
-1.414644378339063
 31
0.0
210
0.0
220
0.0
230
1.0
 40
0.9996954599
 41
5.497939437029492
 42
7.068431177329419
  0
LINE
  5
54C
330
1F
100
AcDbEntity
  8
0
  6
Continuous
 62
     7
370
    15
100
AcDbLine
 10
1717.6247493481
 20
560.1702084679
 30
0.0
 11
1720.6707851147
 21
557.1241727013
 31
0.0
  0
LINE
  5
54D
330
1F
100
AcDbEntity
  8
0
  6
Continuous
 62
     7
370
    15
100
AcDbLine
 10
1420.6707731938
 20
557.1241727013
 30
0.0
 11
1420.6707731938
 21
953.1247964043
 31
0.0
  0
LINE
  5
54E
330
1F
100
AcDbEntity
  8
0
  6
Continuous
 62
     7
370
    15
100
AcDbLine
 10
1720.6707851147
 20
953.1247964043
 30
0.0
 11
1720.6707851147
 21
557.1241727013
 31
0.0
  0
ENDSEC
  0
SECTION
  2
OBJECTS
  0
DICTIONARY
  5
C
330
0
100
AcDbDictionary
281
     1
  3
ACAD_GROUP
350
D
  3
ACAD_LAYOUT
350
1A
  3
ACAD_MLINESTYLE
350
17
  3
ACAD_PLOTSETTINGS
350
19
  3
ACAD_PLOTSTYLENAME
350
E
  3
ACAD_SCALELIST
350
47
  0
DICTIONARY
  5
D
102
{ACAD_REACTORS
330
C
102
}
330
C
100
AcDbDictionary
281
     1
  0
DICTIONARY
  5
1A
102
{ACAD_REACTORS
330
C
102
}
330
C
100
AcDbDictionary
281
     1
  3
Layout1
350
1E
  3
Layout2
350
26
  3
Model
350
22
  0
DICTIONARY
  5
17
102
{ACAD_REACTORS
330
C
102
}
330
C
100
AcDbDictionary
281
     1
  3
Standard
350
18
  0
DICTIONARY
  5
19
102
{ACAD_REACTORS
330
C
102
}
330
C
100
AcDbDictionary
281
     1
  0
ACDBDICTIONARYWDFLT
  5
E
102
{ACAD_REACTORS
330
C
102
}
330
C
100
AcDbDictionary
281
     1
  3
Normal
350
F
100
AcDbDictionaryWithDefault
340
F
  0
DICTIONARY
  5
47
102
{ACAD_REACTORS
330
C
102
}
330
C
100
AcDbDictionary
281
     1
  3
A0
350
48
  3
A1
350
49
  3
A2
350
4A
  3
A3
350
4B
  3
A4
350
4C
  3
A5
350
4D
  3
A6
350
4E
  3
A7
350
4F
  3
A8
350
50
  3
A9
350
51
  3
B0
350
52
  3
B1
350
53
  3
B2
350
54
  3
B3
350
55
  3
B4
350
56
  3
B5
350
57
  3
B6
350
58
  3
B7
350
59
  3
B8
350
5A
  3
B9
350
5B
  3
C0
350
5C
  3
C1
350
5D
  3
C2
350
5E
  3
C3
350
5F
  3
C4
350
60
  3
C5
350
61
  3
C6
350
62
  3
C7
350
63
  3
C8
350
64
  3
C9
350
65
  3
D0
350
66
  3
D1
350
67
  3
D2
350
68
  0
LAYOUT
  5
1E
102
{ACAD_REACTORS
330
1A
102
}
330
1A
100
AcDbPlotSettings
  1

  2
none_device
  4

  6

 40
0.0
 41
0.0
 42
0.0
 43
0.0
 44
0.0
 45
0.0
 46
0.0
 47
0.0
 48
0.0
 49
0.0
140
0.0
141
0.0
142
1.0
143
1.0
 70
   688
 72
     1
 73
     0
 74
     5
  7

 75
    16
147
1.0
148
0.0
149
0.0
100
AcDbLayout
  1
Layout1
 70
     1
 71
     1
 10
0.0
 20
0.0
 11
420.0
 21
297.0
 12
0.0
 22
0.0
 32
0.0
 14
1.0000000000E+20
 24
1.0000000000E+20
 34
1.0000000000E+20
 15
-1.0000000000E+20
 25
-1.0000000000E+20
 35
-1.0000000000E+20
146
0.0
 13
0.0
 23
0.0
 33
0.0
 16
1.0
 26
0.0
 36
0.0
 17
0.0
 27
1.0
 37
0.0
 76
     0
330
1B
  0
LAYOUT
  5
26
102
{ACAD_REACTORS
330
1A
102
}
330
1A
100
AcDbPlotSettings
  1

  2
none_device
  4

  6

 40
0.0
 41
0.0
 42
0.0
 43
0.0
 44
0.0
 45
0.0
 46
0.0
 47
0.0
 48
0.0
 49
0.0
140
0.0
141
0.0
142
1.0
143
1.0
 70
   688
 72
     1
 73
     0
 74
     5
  7

 75
    16
147
1.0
148
0.0
149
0.0
100
AcDbLayout
  1
Layout2
 70
     1
 71
     2
 10
0.0
 20
0.0
 11
0.0
 21
0.0
 12
0.0
 22
0.0
 32
0.0
 14
0.0
 24
0.0
 34
0.0
 15
0.0
 25
0.0
 35
0.0
146
0.0
 13
0.0
 23
0.0
 33
0.0
 16
1.0
 26
0.0
 36
0.0
 17
0.0
 27
1.0
 37
0.0
 76
     0
330
23
  0
LAYOUT
  5
22
102
{ACAD_REACTORS
330
1A
102
}
330
1A
100
AcDbPlotSettings
  1

  2
none_device
  4
Letter_(8.50_x_11.00_Inches)
  6

 40
6.35
 41
6.35
 42
6.35000508
 43
6.35000508
 44
215.9
 45
279.4
 46
0.0
 47
0.0
 48
0.0
 49
0.0
140
0.0
141
0.0
142
1.0
143
1.0
 70
  1712
 72
     1
 73
     0
 74
     0
  7

 75
     0
147
1.0
148
0.0
149
0.0
100
AcDbLayout
  1
Model
 70
     1
 71
     0
 10
0.0
 20
0.0
 11
2100.0
 21
1485.0
 12
0.0
 22
0.0
 32
0.0
 14
0.0
 24
0.0
 34
0.0
 15
2100.0
 25
1485.0
 35
0.0
146
0.0
 13
0.0
 23
0.0
 33
0.0
 16
1.0
 26
0.0
 36
0.0
 17
0.0
 27
1.0
 37
0.0
 76
     0
330
1F
331
29
  0
MLINESTYLE
  5
18
102
{ACAD_REACTORS
330
17
102
}
330
17
100
AcDbMlineStyle
  2
Standard
 70
     0
  3

 62
   256
 51
90.0
 52
90.0
 71
     2
 49
0.5
 62
   256
  6
BYLAYER
 49
-0.5
 62
   256
  6
BYLAYER
  0
ACDBPLACEHOLDER
  5
F
102
{ACAD_REACTORS
330
E
102
}
330
E
  0
SCALE
  5
48
102
{ACAD_REACTORS
330
47
102
}
330
47
100
AcDbScale
 70
     0
300
1:1
140
1.0
141
1.0
290
     1
  0
SCALE
  5
49
102
{ACAD_REACTORS
330
47
102
}
330
47
100
AcDbScale
 70
     0
300
1:2
140
1.0
141
2.0
290
     0
  0
SCALE
  5
4A
102
{ACAD_REACTORS
330
47
102
}
330
47
100
AcDbScale
 70
     0
300
1:4
140
1.0
141
4.0
290
     0
  0
SCALE
  5
4B
102
{ACAD_REACTORS
330
47
102
}
330
47
100
AcDbScale
 70
     0
300
1:5
140
1.0
141
5.0
290
     0
  0
SCALE
  5
4C
102
{ACAD_REACTORS
330
47
102
}
330
47
100
AcDbScale
 70
     0
300
1:8
140
1.0
141
8.0
290
     0
  0
SCALE
  5
4D
102
{ACAD_REACTORS
330
47
102
}
330
47
100
AcDbScale
 70
     0
300
1:10
140
1.0
141
10.0
290
     0
  0
SCALE
  5
4E
102
{ACAD_REACTORS
330
47
102
}
330
47
100
AcDbScale
 70
     0
300
1:16
140
1.0
141
16.0
290
     0
  0
SCALE
  5
4F
102
{ACAD_REACTORS
330
47
102
}
330
47
100
AcDbScale
 70
     0
300
1:20
140
1.0
141
20.0
290
     0
  0
SCALE
  5
50
102
{ACAD_REACTORS
330
47
102
}
330
47
100
AcDbScale
 70
     0
300
1:30
140
1.0
141
30.0
290
     0
  0
SCALE
  5
51
102
{ACAD_REACTORS
330
47
102
}
330
47
100
AcDbScale
 70
     0
300
1:40
140
1.0
141
40.0
290
     0
  0
SCALE
  5
52
102
{ACAD_REACTORS
330
47
102
}
330
47
100
AcDbScale
 70
     0
300
1:50
140
1.0
141
50.0
290
     0
  0
SCALE
  5
53
102
{ACAD_REACTORS
330
47
102
}
330
47
100
AcDbScale
 70
     0
300
1:100
140
1.0
141
100.0
290
     0
  0
SCALE
  5
54
102
{ACAD_REACTORS
330
47
102
}
330
47
100
AcDbScale
 70
     0
300
2:1
140
2.0
141
1.0
290
     0
  0
SCALE
  5
55
102
{ACAD_REACTORS
330
47
102
}
330
47
100
AcDbScale
 70
     0
300
4:1
140
4.0
141
1.0
290
     0
  0
SCALE
  5
56
102
{ACAD_REACTORS
330
47
102
}
330
47
100
AcDbScale
 70
     0
300
8:1
140
8.0
141
1.0
290
     0
  0
SCALE
  5
57
102
{ACAD_REACTORS
330
47
102
}
330
47
100
AcDbScale
 70
     0
300
10:1
140
10.0
141
1.0
290
     0
  0
SCALE
  5
58
102
{ACAD_REACTORS
330
47
102
}
330
47
100
AcDbScale
 70
     0
300
100:1
140
100.0
141
1.0
290
     0
  0
SCALE
  5
59
102
{ACAD_REACTORS
330
47
102
}
330
47
100
AcDbScale
 70
     0
300
1/128" = 1'-0"
140
0.0078125
141
12.0
290
     0
  0
SCALE
  5
5A
102
{ACAD_REACTORS
330
47
102
}
330
47
100
AcDbScale
 70
     0
300
1/64" = 1'-0"
140
0.015625
141
12.0
290
     0
  0
SCALE
  5
5B
102
{ACAD_REACTORS
330
47
102
}
330
47
100
AcDbScale
 70
     0
300
1/32" = 1'-0"
140
0.03125
141
12.0
290
     0
  0
SCALE
  5
5C
102
{ACAD_REACTORS
330
47
102
}
330
47
100
AcDbScale
 70
     0
300
1/16" = 1'-0"
140
0.0625
141
12.0
290
     0
  0
SCALE
  5
5D
102
{ACAD_REACTORS
330
47
102
}
330
47
100
AcDbScale
 70
     0
300
3/32" = 1'-0"
140
0.09375
141
12.0
290
     0
  0
SCALE
  5
5E
102
{ACAD_REACTORS
330
47
102
}
330
47
100
AcDbScale
 70
     0
300
1/8" = 1'-0"
140
0.125
141
12.0
290
     0
  0
SCALE
  5
5F
102
{ACAD_REACTORS
330
47
102
}
330
47
100
AcDbScale
 70
     0
300
3/16" = 1'-0"
140
0.1875
141
12.0
290
     0
  0
SCALE
  5
60
102
{ACAD_REACTORS
330
47
102
}
330
47
100
AcDbScale
 70
     0
300
1/4" = 1'-0"
140
0.25
141
12.0
290
     0
  0
SCALE
  5
61
102
{ACAD_REACTORS
330
47
102
}
330
47
100
AcDbScale
 70
     0
300
3/8" = 1'-0"
140
0.375
141
12.0
290
     0
  0
SCALE
  5
62
102
{ACAD_REACTORS
330
47
102
}
330
47
100
AcDbScale
 70
     0
300
1/2" = 1'-0"
140
0.5
141
12.0
290
     0
  0
SCALE
  5
63
102
{ACAD_REACTORS
330
47
102
}
330
47
100
AcDbScale
 70
     0
300
3/4" = 1'-0"
140
0.75
141
12.0
290
     0
  0
SCALE
  5
64
102
{ACAD_REACTORS
330
47
102
}
330
47
100
AcDbScale
 70
     0
300
1" = 1'-0"
140
1.0
141
12.0
290
     0
  0
SCALE
  5
65
102
{ACAD_REACTORS
330
47
102
}
330
47
100
AcDbScale
 70
     0
300
1-1/2" = 1'-0"
140
1.5
141
12.0
290
     0
  0
SCALE
  5
66
102
{ACAD_REACTORS
330
47
102
}
330
47
100
AcDbScale
 70
     0
300
3" = 1'-0"
140
3.0
141
12.0
290
     0
  0
SCALE
  5
67
102
{ACAD_REACTORS
330
47
102
}
330
47
100
AcDbScale
 70
     0
300
6" = 1'-0"
140
6.0
141
12.0
290
     0
  0
SCALE
  5
68
102
{ACAD_REACTORS
330
47
102
}
330
47
100
AcDbScale
 70
     0
300
1'-0" = 1'-0"
140
12.0
141
12.0
290
     0
  0
ENDSEC
  0
EOF
