  0
SECTION
  2
HEADER
  9
$ACADVER
  1
AC1014
  9
$ACADMAINTVER
 70
     9
  9
$DWGCODEPAGE
  3
ANSI_1252
  9
$INSBASE
 10
0.0
 20
0.0
 30
0.0
  9
$EXTMIN
 10
0.0
 20
0.0
 30
0.0
  9
$EXTMAX
 10
2100.0
 20
1485.0
 30
0.0
  9
$LIMMIN
 10
0.0
 20
0.0
  9
$LIMMAX
 10
2100.0
 20
1485.0
  9
$ORTHOMODE
 70
     0
  9
$REGENMODE
 70
     1
  9
$FILLMODE
 70
     1
  9
$QTEXTMODE
 70
     0
  9
$MIRRTEXT
 70
     1
  9
$DRAGMODE
 70
     2
  9
$LTSCALE
 40
5.0
  9
$OSMODE
 70
    37
  9
$ATTMODE
 70
     1
  9
$TEXTSIZE
 40
17.5
  9
$TRACEWID
 40
1.0
  9
$TEXTSTYLE
  7
STANDARD
  9
$CLAYER
  8
0
  9
$CELTYPE
  6
BYLAYER
  9
$CECOLOR
 62
   256
  9
$CELTSCALE
 40
1.0
  9
$DELOBJ
 70
     1
  9
$DISPSILH
 70
     0
  9
$DIMSCALE
 40
1.0
  9
$DIMASZ
 40
30.0
  9
$DIMEXO
 40
5.0
  9
$DIMDLI
 40
3.75
  9
$DIMRND
 40
0.0
  9
$DIMDLE
 40
0.0
  9
$DIMEXE
 40
5.0
  9
$DIMTP
 40
0.0
  9
$DIMTM
 40
0.0
  9
$DIMTXT
 40
17.5
  9
$DIMCEN
 40
2.5
  9
$DIMTSZ
 40
0.0
  9
$DIMTOL
 70
     0
  9
$DIMLIM
 70
     0
  9
$DIMTIH
 70
     1
  9
$DIMTOH
 70
     1
  9
$DIMSE1
 70
     0
  9
$DIMSE2
 70
     0
  9
$DIMTAD
 70
     1
  9
$DIMZIN
 70
     0
  9
$DIMBLK
  1

  9
$DIMASO
 70
     1
  9
$DIMSHO
 70
     1
  9
$DIMPOST
  1

  9
$DIMAPOST
  1

  9
$DIMALT
 70
     0
  9
$DIMALTD
 70
     3
  9
$DIMALTF
 40
0.0393700787
  9
$DIMLFAC
 40
1.0
  9
$DIMTOFL
 70
     1
  9
$DIMTVP
 40
0.0
  9
$DIMTIX
 70
     0
  9
$DIMSOXD
 70
     0
  9
$DIMSAH
 70
     0
  9
$DIMBLK1
  1

  9
$DIMBLK2
  1

  9
$DIMSTYLE
  2
ISO-25
  9
$DIMCLRD
 70
     0
  9
$DIMCLRE
 70
     0
  9
$DIMCLRT
 70
     0
  9
$DIMTFAC
 40
1.0
  9
$DIMGAP
 40
7.62
  9
$DIMJUST
 70
     0
  9
$DIMSD1
 70
     0
  9
$DIMSD2
 70
     0
  9
$DIMTOLJ
 70
     0
  9
$DIMTZIN
 70
     0
  9
$DIMALTZ
 70
     0
  9
$DIMALTTZ
 70
     0
  9
$DIMFIT
 70
     3
  9
$DIMUPT
 70
     0
  9
$DIMUNIT
 70
     2
  9
$DIMDEC
 70
     2
  9
$DIMTDEC
 70
     2
  9
$DIMALTU
 70
     2
  9
$DIMALTTD
 70
     3
  9
$DIMTXSTY
  7
STANDARD
  9
$DIMAUNIT
 70
     0
  9
$LUNITS
 70
     2
  9
$LUPREC
 70
     2
  9
$SKETCHINC
 40
1.0
  9
$FILLETRAD
 40
10.0
  9
$AUNITS
 70
     0
  9
$AUPREC
 70
     2
  9
$MENU
  1
.
  9
$ELEVATION
 40
0.0
  9
$PELEVATION
 40
0.0
  9
$THICKNESS
 40
0.0
  9
$LIMCHECK
 70
     0
  9
$CHAMFERA
 40
10.0
  9
$CHAMFERB
 40
10.0
  9
$CHAMFERC
 40
20.0
  9
$CHAMFERD
 40
0.0
  9
$SKPOLY
 70
     0
  9
$TDCREATE
 40
2456498.51607419
  9
$TDUPDATE
 40
2456498.516075081
  9
$TDINDWG
 40
0.0000000116
  9
$TDUSRTIMER
 40
0.0000000116
  9
$USRTIMER
 70
     1
  9
$ANGBASE
 50
0.0
  9
$ANGDIR
 70
     0
  9
$PDMODE
 70
     0
  9
$PDSIZE
 40
-1.0
  9
$PLINEWID
 40
0.0
  9
$COORDS
 70
     1
  9
$SPLFRAME
 70
     0
  9
$SPLINETYPE
 70
     6
  9
$SPLINESEGS
 70
     8
  9
$ATTDIA
 70
     0
  9
$ATTREQ
 70
     1
  9
$HANDLING
 70
     1
  9
$HANDSEED
  5
5B6
  9
$SURFTAB1
 70
     6
  9
$SURFTAB2
 70
     6
  9
$SURFTYPE
 70
     6
  9
$SURFU
 70
     6
  9
$SURFV
 70
     6
  9
$UCSNAME
  2

  9
$UCSORG
 10
0.0
 20
0.0
 30
0.0
  9
$UCSXDIR
 10
1.0
 20
0.0
 30
0.0
  9
$UCSYDIR
 10
0.0
 20
1.0
 30
0.0
  9
$PUCSNAME
  2

  9
$PUCSORG
 10
0.0
 20
0.0
 30
0.0
  9
$PUCSXDIR
 10
1.0
 20
0.0
 30
0.0
  9
$PUCSYDIR
 10
0.0
 20
1.0
 30
0.0
  9
$USERI1
 70
     0
  9
$USERI2
 70
     0
  9
$USERI3
 70
     0
  9
$USERI4
 70
     0
  9
$USERI5
 70
     0
  9
$USERR1
 40
0.0
  9
$USERR2
 40
0.0
  9
$USERR3
 40
0.0
  9
$USERR4
 40
0.0
  9
$USERR5
 40
0.0
  9
$WORLDVIEW
 70
     1
  9
$SHADEDGE
 70
     3
  9
$SHADEDIF
 70
    70
  9
$TILEMODE
 70
     1
  9
$MAXACTVP
 70
    64
  9
$PINSBASE
 10
0.0
 20
0.0
 30
0.0
  9
$PLIMCHECK
 70
     0
  9
$PEXTMIN
 10
1.0000000000E+20
 20
1.0000000000E+20
 30
1.0000000000E+20
  9
$PEXTMAX
 10
-1.0000000000E+20
 20
-1.0000000000E+20
 30
-1.0000000000E+20
  9
$PLIMMIN
 10
0.0
 20
0.0
  9
$PLIMMAX
 10
420.0
 20
297.0
  9
$UNITMODE
 70
     0
  9
$VISRETAIN
 70
     1
  9
$PLINEGEN
 70
     0
  9
$PSLTSCALE
 70
     1
  9
$TREEDEPTH
 70
  3020
  9
$PICKSTYLE
 70
     1
  9
$CMLSTYLE
  2
STANDARD
  9
$CMLJUST
 70
     0
  9
$CMLSCALE
 40
20.0
  9
$PROXYGRAPHICS
 70
     1
  9
$MEASUREMENT
 70
     1
  0
ENDSEC
  0
SECTION
  2
CLASSES
  0
CLASS
  1
ACDBDICTIONARYWDFLT
  2
AcDbDictionaryWithDefault
  3
ObjectDBX Classes
 90
        0
280
     0
281
     0
  0
CLASS
  1
VISUALSTYLE
  2
AcDbVisualStyle
  3
ObjectDBX Classes
 90
     4095
280
     0
281
     0
  0
CLASS
  1
MATERIAL
  2
AcDbMaterial
  3
ObjectDBX Classes
 90
     1153
280
     0
281
     0
  0
CLASS
  1
XRECORD
  2
AcDbXrecord
  3
AutoCAD 2000
 90
        0
280
     0
281
     0
  0
CLASS
  1
LWPOLYLINE
  2
AcDbPolyline
  3
AutoCAD 2000
 90
        0
280
     0
281
     1
  0
CLASS
  1
HATCH
  2
AcDbHatch
  3
AutoCAD 2000
 90
        0
280
     0
281
     1
  0
ENDSEC
  0
SECTION
  2
TABLES
  0
TABLE
  2
VPORT
  5
8
330
0
100
AcDbSymbolTable
 70
     1
  0
VPORT
  5
29
330
8
100
AcDbSymbolTableRecord
100
AcDbViewportTableRecord
  2
*ACTIVE
 70
     0
 10
0.0
 20
0.0
 11
1.0
 21
1.0
 12
1050.0
 22
742.5
 13
0.0
 23
0.0
 14
10.0
 24
10.0
 15
10.0
 25
10.0
 16
0.0
 26
0.0
 36
1.0
 17
0.0
 27
0.0
 37
0.0
 40
1485.0
 41
1.4141414141
 42
50.0
 43
0.0
 44
0.0
 50
0.0
 51
0.0
 71
     0
 72
  2000
 73
     1
 74
     3
 75
     0
 76
     0
 77
     0
 78
     0
  0
ENDTAB
  0
TABLE
  2
LTYPE
  5
5
330
0
100
AcDbSymbolTable
 70
     6
  0
LTYPE
  5
14
330
5
100
AcDbSymbolTableRecord
100
AcDbLinetypeTableRecord
  2
BYBLOCK
 70
     0
  3

 72
    65
 73
     0
 40
0.0
  0
LTYPE
  5
15
330
5
100
AcDbSymbolTableRecord
100
AcDbLinetypeTableRecord
  2
BYLAYER
 70
     0
  3

 72
    65
 73
     0
 40
0.0
  0
LTYPE
  5
16
330
5
100
AcDbSymbolTableRecord
100
AcDbLinetypeTableRecord
  2
CONTINUOUS
 70
     0
  3
Solid line
 72
    65
 73
     0
 40
0.0
  0
LTYPE
  5
3F
330
5
100
AcDbSymbolTableRecord
100
AcDbLinetypeTableRecord
  2
HIDDEN
 70
     0
  3
Hidden __ __ __ __ __ __ __ __ __ __ __ __ __ __
 72
    65
 73
     2
 40
1.905
 49
1.27
 74
     0
 49
-0.635
 74
     0
  0
LTYPE
  5
40
330
5
100
AcDbSymbolTableRecord
100
AcDbLinetypeTableRecord
  2
PHANTOM
 70
     0
  3
Phantom ______  __  __  ______  __  __  ______
 72
    65
 73
     6
 40
12.7
 49
6.35
 74
     0
 49
-1.27
 74
     0
 49
1.27
 74
     0
 49
-1.27
 74
     0
 49
1.27
 74
     0
 49
-1.27
 74
     0
  0
LTYPE
  5
41
330
5
100
AcDbSymbolTableRecord
100
AcDbLinetypeTableRecord
  2
CENTER
 70
     0
  3
Center ____ _ ____ _ ____ _ ____ _ ____ _ ____
 72
    65
 73
     4
 40
10.16
 49
6.35
 74
     0
 49
-1.27
 74
     0
 49
1.27
 74
     0
 49
-1.27
 74
     0
  0
LTYPE
  5
42
330
5
100
AcDbSymbolTableRecord
100
AcDbLinetypeTableRecord
  2
CENTERX2
 70
     0
  3
Center (2x) ________  __  ________  __  _____
 72
    65
 73
     4
 40
20.32
 49
12.7
 74
     0
 49
-2.54
 74
     0
 49
2.54
 74
     0
 49
-2.54
 74
     0
  0
LTYPE
  5
43
330
5
100
AcDbSymbolTableRecord
100
AcDbLinetypeTableRecord
  2
DOT2
 70
     0
  3
Dot (.5x) ........................................
 72
    65
 73
     2
 40
0.635
 49
0.0
 74
     0
 49
-0.635
 74
     0
  0
ENDTAB
  0
TABLE
  2
LAYER
  5
2
330
0
100
AcDbSymbolTable
 70
     1
  0
LAYER
  5
10
330
2
100
AcDbSymbolTableRecord
100
AcDbLayerTableRecord
  2
0
 70
     0
 62
     7
  6
CONTINUOUS
  0
ENDTAB
  0
TABLE
  2
STYLE
  5
3
330
0
100
AcDbSymbolTable
 70
     1
  0
STYLE
  5
11
330
3
100
AcDbSymbolTableRecord
100
AcDbTextStyleTableRecord
  2
STANDARD
 70
     0
 40
0.0
 41
1.0
 50
0.0
 71
     0
 42
17.5
  3
txt
  4

  0
ENDTAB
  0
TABLE
  2
VIEW
  5
6
330
0
100
AcDbSymbolTable
 70
     0
  0
ENDTAB
  0
TABLE
  2
UCS
  5
7
330
0
100
AcDbSymbolTable
 70
     0
  0
ENDTAB
  0
TABLE
  2
APPID
  5
9
330
0
100
AcDbSymbolTable
 70
     1
  0
APPID
  5
12
330
9
100
AcDbSymbolTableRecord
100
AcDbRegAppTableRecord
  2
ACAD
 70
     0
  0
ENDTAB
  0
TABLE
  2
DIMSTYLE
  5
A
330
0
100
AcDbSymbolTable
 70
     1
  0
DIMSTYLE
105
27
330
A
100
AcDbSymbolTableRecord
100
AcDbDimStyleTableRecord
  2
ISO-25
 70
     0
  3

  4

  5

  6

  7

 40
1.0
 41
2.5
 42
0.625
 43
3.75
 44
1.25
 45
0.0
 46
0.0
 47
0.0
 48
0.0
140
2.5
141
2.5
142
0.0
143
0.0393700787
144
1.0
145
0.0
146
1.0
147
0.625
 71
     0
 72
     0
 73
     0
 74
     0
 75
     0
 76
     0
 77
     1
 78
     8
170
     0
171
     3
172
     1
173
     0
174
     0
175
     0
176
     0
177
     0
178
     0
270
     2
271
     2
272
     2
273
     2
274
     3
340
11
275
     0
280
     0
281
     0
282
     0
283
     0
284
     8
285
     0
286
     0
287
     3
288
     0
  0
ENDTAB
  0
TABLE
  2
BLOCK_RECORD
  5
1
330
0
100
AcDbSymbolTable
 70
     1
  0
BLOCK_RECORD
  5
1F
330
1
100
AcDbSymbolTableRecord
100
AcDbBlockTableRecord
  2
*MODEL_SPACE
  0
BLOCK_RECORD
  5
1B
330
1
100
AcDbSymbolTableRecord
100
AcDbBlockTableRecord
  2
*PAPER_SPACE
  0
BLOCK_RECORD
  5
23
330
1
100
AcDbSymbolTableRecord
100
AcDbBlockTableRecord
  2
*PAPER_SPACE0
  0
ENDTAB
  0
ENDSEC
  0
SECTION
  2
BLOCKS
  0
BLOCK
  5
20
330
1F
100
AcDbEntity
  8
0
100
AcDbBlockBegin
  2
*MODEL_SPACE
 70
     0
 10
0.0
 20
0.0
 30
0.0
  3
*MODEL_SPACE
  1

  0
ENDBLK
  5
21
330
1F
100
AcDbEntity
  8
0
100
AcDbBlockEnd
  0
BLOCK
  5
1C
330
1B
100
AcDbEntity
 67
     1
  8
0
100
AcDbBlockBegin
  2
*PAPER_SPACE
 70
     0
 10
0.0
 20
0.0
 30
0.0
  3
*PAPER_SPACE
  1

  0
ENDBLK
  5
1D
330
1B
100
AcDbEntity
 67
     1
  8
0
100
AcDbBlockEnd
  0
BLOCK
  5
24
330
23
100
AcDbEntity
  8
0
100
AcDbBlockBegin
  2
*PAPER_SPACE0
 70
     0
 10
0.0
 20
0.0
 30
0.0
  3
*PAPER_SPACE0
  1

  0
ENDBLK
  5
25
330
23
100
AcDbEntity
  8
0
100
AcDbBlockEnd
  0
ENDSEC
  0
SECTION
  2
ENTITIES
  0
CIRCLE
  5
44
330
1F
100
AcDbEntity
  8
0
  6
CONTINUOUS
 62
     7
100
AcDbCircle
 10
1038.4809947273
 20
878.2013194827
 30
0.0
 40
3.100000000000048
  0
CIRCLE
  5
45
330
1F
100
AcDbEntity
  8
0
  6
CONTINUOUS
 62
     7
100
AcDbCircle
 10
928.4809947273
 20
878.2013194827
 30
0.0
 40
3.100000000000048
  0
CIRCLE
  5
46
330
1F
100
AcDbEntity
  8
0
  6
CONTINUOUS
 62
     7
100
AcDbCircle
 10
928.4809947273
 20
668.2013194827
 30
0.0
 40
3.100000000000115
  0
CIRCLE
  5
47
330
1F
100
AcDbEntity
  8
0
  6
CONTINUOUS
 62
     7
100
AcDbCircle
 10
1038.4809947273
 20
668.2013194827
 30
0.0
 40
3.100000000000115
  0
LINE
  5
48
330
1F
100
AcDbEntity
  8
0
  6
CONTINUOUS
 62
     7
100
AcDbLine
 10
1078.3945593497
 20
892.2013222245
 30
0.0
 11
1078.3956769368
 21
892.2013222245
 31
0.0
  0
LINE
  5
49
330
1F
100
AcDbEntity
  8
0
  6
CONTINUOUS
 62
     7
100
AcDbLine
 10
1078.3956769368
 20
654.2013167409
 30
0.0
 11
1078.3956769368
 21
892.2013222245
 31
0.0
  0
LINE
  5
4A
330
1F
100
AcDbEntity
  8
0
  6
CONTINUOUS
 62
     7
100
AcDbLine
 10
1078.3945593497
 20
654.2013167409
 30
0.0
 11
1078.3956769368
 21
654.2013167409
 31
0.0
  0
LINE
  5
4B
330
1F
100
AcDbEntity
  8
0
  6
CONTINUOUS
 62
     7
100
AcDbLine
 10
1052.4809929988
 20
654.2013167409
 30
0.0
 11
1078.3945593497
 21
654.2013167409
 31
0.0
  0
LINE
  5
4C
330
1F
100
AcDbEntity
  8
0
  6
CONTINUOUS
 62
     7
100
AcDbLine
 10
1052.4809929988
 20
654.2013167409
 30
0.0
 11
1052.4809929988
 21
892.2013222245
 31
0.0
  0
LINE
  5
4D
330
1F
100
AcDbEntity
  8
0
  6
CONTINUOUS
 62
     7
100
AcDbLine
 10
1052.4809929988
 20
892.2013222245
 30
0.0
 11
1078.3945593497
 21
892.2013222245
 31
0.0
  0
LINE
  5
4E
330
1F
100
AcDbEntity
  8
0
  6
CONTINUOUS
 62
     7
100
AcDbLine
 10
914.4809964559
 20
628.2877503899
 30
0.0
 11
914.4809964559
 21
628.2866328029
 31
0.0
  0
LINE
  5
4F
330
1F
100
AcDbEntity
  8
0
  6
CONTINUOUS
 62
     7
100
AcDbLine
 10
914.4809964559
 20
654.2013167409
 30
0.0
 11
914.4809964559
 21
628.2877503899
 31
0.0
  0
LINE
  5
50
330
1F
100
AcDbEntity
  8
0
  6
CONTINUOUS
 62
     7
100
AcDbLine
 10
1052.4809929988
 20
654.2013167409
 30
0.0
 11
914.4809964559
 21
654.2013167409
 31
0.0
  0
LINE
  5
51
330
1F
100
AcDbEntity
  8
0
  6
CONTINUOUS
 62
     7
100
AcDbLine
 10
1052.4809929988
 20
654.2013092903
 30
0.0
 11
1052.4809929988
 21
628.2877503899
 31
0.0
  0
LINE
  5
52
330
1F
100
AcDbEntity
  8
0
  6
CONTINUOUS
 62
     7
100
AcDbLine
 10
1052.4809929988
 20
628.2866328029
 30
0.0
 11
1052.4809929988
 21
628.2877503899
 31
0.0
  0
LINE
  5
53
330
1F
100
AcDbEntity
  8
0
  6
CONTINUOUS
 62
     7
100
AcDbLine
 10
914.4809964559
 20
628.2866328029
 30
0.0
 11
1052.4809929988
 21
628.2866328029
 31
0.0
  0
LINE
  5
54
330
1F
100
AcDbEntity
  8
0
  6
CONTINUOUS
 62
     7
100
AcDbLine
 10
914.4809964559
 20
654.2013167409
 30
0.0
 11
914.4809964559
 21
892.2013222245
 31
0.0
  0
LINE
  5
55
330
1F
100
AcDbEntity
  8
0
  6
CONTINUOUS
 62
     7
100
AcDbLine
 10
1052.4809929988
 20
892.2013222245
 30
0.0
 11
914.4809964559
 21
892.2013222245
 31
0.0
  0
LINE
  5
56
330
1F
100
AcDbEntity
  8
0
  6
CONTINUOUS
 62
     7
100
AcDbLine
 10
1042.5309959313
 20
778.2570092013
 30
0.0
 11
1042.5309959313
 21
768.1456297641
 31
0.0
  0
ARC
  5
57
330
1F
100
AcDbEntity
  8
0
  6
CONTINUOUS
 62
     7
100
AcDbCircle
 10
1032.4809947273
 20
773.2013194827
 30
0.0
 40
11.25000000000008
100
AcDbArc
 50
26.7048522476
 51
63.2951477524
  0
LINE
  5
58
330
1F
100
AcDbEntity
  8
0
  6
CONTINUOUS
 62
     7
100
AcDbLine
 10
1027.4253051242
 20
783.2513191742
 30
0.0
 11
1037.5366854927
 21
783.2513191742
 31
0.0
  0
ARC
  5
59
330
1F
100
AcDbEntity
  8
0
  6
CONTINUOUS
 62
     7
100
AcDbCircle
 10
1032.4809947273
 20
773.2013194827
 30
0.0
 40
11.25000000000008
100
AcDbArc
 50
116.7048522476
 51
153.2951477524
  0
LINE
  5
5A
330
1F
100
AcDbEntity
  8
0
  6
CONTINUOUS
 62
     7
100
AcDbLine
 10
1022.4309946856
 20
778.2570092013
 30
0.0
 11
1022.4309946856
 21
768.1456297641
 31
0.0
  0
ARC
  5
5B
330
1F
100
AcDbEntity
  8
0
  6
CONTINUOUS
 62
     7
100
AcDbCircle
 10
1032.4809947273
 20
773.2013194827
 30
0.0
 40
11.25000000000008
100
AcDbArc
 50
206.7048522476
 51
243.2951477524
  0
LINE
  5
5C
330
1F
100
AcDbEntity
  8
0
  6
CONTINUOUS
 62
     7
100
AcDbLine
 10
1027.4253051242
 20
763.1513197912
 30
0.0
 11
1037.5366854927
 21
763.1513197912
 31
0.0
  0
ARC
  5
5D
330
1F
100
AcDbEntity
  8
0
  6
CONTINUOUS
 62
     7
100
AcDbCircle
 10
1032.4809947273
 20
773.2013194827
 30
0.0
 40
11.25000000000008
100
AcDbArc
 50
296.7048522476
 51
333.2951477524
  0
LWPOLYLINE
  5
5E
330
1F
100
AcDbEntity
  8
0
  6
CONTINUOUS
 62
     7
100
AcDbPolyline
 90
        4
 70
   128
 43
0.0
 10
1078.5648721716
 20
628.1174450187
 10
1078.5388547441
 20
632.1043699054
 10
1078.4868049881
 20
640.0782047776
 10
1078.3945593497
 20
654.2013167409
  0
LWPOLYLINE
  5
5F
330
1F
100
AcDbEntity
  8
0
  6
CONTINUOUS
 62
     7
100
AcDbPolyline
 90
        4
 70
   128
 43
0.0
 10
1052.4809929988
 20
628.2877503899
 10
1056.4678955337
 20
628.2617031602
 10
1064.4417006037
 20
628.2096236018
 10
1078.5648721716
 20
628.1174450187
  0
LWPOLYLINE
  5
60
330
1F
100
AcDbEntity
  8
0
  6
CONTINUOUS
 62
     7
100
AcDbPolyline
 90
        4
 70
   128
 43
0.0
 10
888.5674301049
 20
654.2013167409
 10
888.5413828751
 20
650.2144216565
 10
888.4893033168
 20
642.2406165866
 10
888.397117283
 20
628.1174450187
  0
LINE
  5
61
330
1F
100
AcDbEntity
  8
0
  6
CONTINUOUS
 62
     7
100
AcDbLine
 10
914.4809964559
 20
654.2013167409
 30
0.0
 11
888.5674301049
 21
654.2013167409
 31
0.0
  0
LWPOLYLINE
  5
62
330
1F
100
AcDbEntity
  8
0
  6
CONTINUOUS
 62
     7
100
AcDbPolyline
 90
        4
 70
   128
 43
0.0
 10
888.397117283
 20
628.1174450187
 10
892.3840421698
 20
628.1434624461
 10
900.357877042
 20
628.1955122022
 10
914.4809964559
 20
628.2877503899
  0
LINE
  5
63
330
1F
100
AcDbEntity
  8
0
  6
CONTINUOUS
 62
     7
100
AcDbLine
 10
914.4809964559
 20
892.2013222245
 30
0.0
 11
914.4809964559
 21
918.1148885755
 31
0.0
  0
LINE
  5
64
330
1F
100
AcDbEntity
  8
0
  6
CONTINUOUS
 62
     7
100
AcDbLine
 10
914.4809964559
 20
892.2013222245
 30
0.0
 11
888.5674301049
 21
892.2013222245
 31
0.0
  0
LWPOLYLINE
  5
65
330
1F
100
AcDbEntity
  8
0
  6
CONTINUOUS
 62
     7
100
AcDbPolyline
 90
        4
 70
   128
 43
0.0
 10
888.397117283
 20
918.2851939467
 10
888.4231347105
 20
914.29826906
 10
888.4751844665
 20
906.3244341878
 10
888.5674301049
 20
892.2013222245
  0
LWPOLYLINE
  5
66
330
1F
100
AcDbEntity
  8
0
  6
CONTINUOUS
 62
     7
100
AcDbPolyline
 90
        4
 70
   128
 43
0.0
 10
914.4809964559
 20
918.1148885755
 10
910.4940939209
 20
918.1409358052
 10
902.520288851
 20
918.1930153636
 10
888.397117283
 20
918.2851939467
  0
LINE
  5
67
330
1F
100
AcDbEntity
  8
0
  6
CONTINUOUS
 62
     7
100
AcDbLine
 10
1052.4809929988
 20
918.1148885755
 30
0.0
 11
1052.4809929988
 21
918.1160061625
 31
0.0
  0
LINE
  5
68
330
1F
100
AcDbEntity
  8
0
  6
CONTINUOUS
 62
     7
100
AcDbLine
 10
1052.4809929988
 20
892.2013222245
 30
0.0
 11
1052.4809929988
 21
918.1148885755
 31
0.0
  0
LINE
  5
69
330
1F
100
AcDbEntity
  8
0
  6
CONTINUOUS
 62
     7
100
AcDbLine
 10
914.4809964559
 20
918.1160061625
 30
0.0
 11
914.4809964559
 21
918.1148885755
 31
0.0
  0
LINE
  5
6A
330
1F
100
AcDbEntity
  8
0
  6
CONTINUOUS
 62
     7
100
AcDbLine
 10
1052.4809929988
 20
918.1160061625
 30
0.0
 11
914.4809964559
 21
918.1160061625
 31
0.0
  0
LINE
  5
6B
330
1F
100
AcDbEntity
  8
0
  6
CONTINUOUS
 62
     7
100
AcDbLine
 10
888.5674301049
 20
892.2013222245
 30
0.0
 11
888.5663125178
 21
892.2013222245
 31
0.0
  0
LINE
  5
6C
330
1F
100
AcDbEntity
  8
0
  6
CONTINUOUS
 62
     7
100
AcDbLine
 10
888.5674301049
 20
654.2013167409
 30
0.0
 11
888.5663125178
 21
654.2013167409
 31
0.0
  0
LINE
  5
6D
330
1F
100
AcDbEntity
  8
0
  6
CONTINUOUS
 62
     7
100
AcDbLine
 10
888.5663125178
 20
892.2013222245
 30
0.0
 11
888.5663125178
 21
654.2013167409
 31
0.0
  0
LWPOLYLINE
  5
6E
330
1F
100
AcDbEntity
  8
0
  6
CONTINUOUS
 62
     7
100
AcDbPolyline
 90
        4
 70
   128
 43
0.0
 10
1078.3945593497
 20
892.2013222245
 10
1078.4206065795
 20
896.1882173089
 10
1078.4726861379
 20
904.1620223788
 10
1078.5648721716
 20
918.2851939467
  0
LWPOLYLINE
  5
6F
330
1F
100
AcDbEntity
  8
0
  6
CONTINUOUS
 62
     7
100
AcDbPolyline
 90
        4
 70
   128
 43
0.0
 10
1078.5648721716
 20
918.2851939467
 10
1074.5779472849
 20
918.2591765193
 10
1066.6041124126
 20
918.2071267632
 10
1052.4809929988
 20
918.1148885755
  0
ARC
  5
70
330
1F
100
AcDbEntity
  8
0
  6
CONTINUOUS
 62
     7
100
AcDbCircle
 10
1032.4809947273
 20
773.2013194827
 30
0.0
 40
11.171452207823
100
AcDbArc
 50
296.8003140005
 51
333.1996859995
  0
LINE
  5
71
330
1F
100
AcDbEntity
  8
0
  6
CONTINUOUS
 62
     7
100
AcDbLine
 10
1042.4524481854
 20
768.164307904
 30
0.0
 11
1042.5309959313
 21
768.1456297641
 31
0.0
  0
LINE
  5
72
330
1F
100
AcDbEntity
  8
0
  6
CONTINUOUS
 62
     7
100
AcDbLine
 10
1037.5180068871
 20
763.2298675371
 30
0.0
 11
1037.5366854927
 21
763.1513197912
 31
0.0
  0
ARC
  5
73
330
1F
100
AcDbEntity
  8
0
  6
CONTINUOUS
 62
     7
100
AcDbCircle
 10
1032.4809947273
 20
773.2013194827
 30
0.0
 40
11.171452207823
100
AcDbArc
 50
116.8003140005
 51
153.1996859995
  0
LINE
  5
74
330
1F
100
AcDbEntity
  8
0
  6
CONTINUOUS
 62
     7
100
AcDbLine
 10
1022.5095424315
 20
778.2383310614
 30
0.0
 11
1022.4309946856
 21
778.2570092013
 31
0.0
  0
LINE
  5
75
330
1F
100
AcDbEntity
  8
0
  6
CONTINUOUS
 62
     7
100
AcDbLine
 10
1027.4439837298
 20
783.1727714283
 30
0.0
 11
1027.4253051242
 21
783.2513191742
 31
0.0
  0
LINE
  5
76
330
1F
100
AcDbEntity
  8
0
  6
CONTINUOUS
 62
     7
100
AcDbLine
 10
1022.5095424315
 20
778.2383310614
 30
0.0
 11
1022.5095424315
 21
768.164307904
 31
0.0
  0
LINE
  5
77
330
1F
100
AcDbEntity
  8
0
  6
CONTINUOUS
 62
     7
100
AcDbLine
 10
1022.5095424315
 20
768.164307904
 30
0.0
 11
1022.4309946856
 21
768.1456297641
 31
0.0
  0
ARC
  5
78
330
1F
100
AcDbEntity
  8
0
  6
CONTINUOUS
 62
     7
100
AcDbCircle
 10
1032.4809947273
 20
773.2013194827
 30
0.0
 40
11.17145220782295
100
AcDbArc
 50
206.8003140005
 51
243.1996859995
  0
LINE
  5
79
330
1F
100
AcDbEntity
  8
0
  6
CONTINUOUS
 62
     7
100
AcDbLine
 10
1027.4439837298
 20
763.2298675371
 30
0.0
 11
1027.4253051242
 21
763.1513197912
 31
0.0
  0
ARC
  5
7A
330
1F
100
AcDbEntity
  8
0
  6
CONTINUOUS
 62
     7
100
AcDbCircle
 10
1032.4809947273
 20
773.2013194827
 30
0.0
 40
11.1714522078231
100
AcDbArc
 50
26.8003140005
 51
63.1996859995
  0
LINE
  5
7B
330
1F
100
AcDbEntity
  8
0
  6
CONTINUOUS
 62
     7
100
AcDbLine
 10
1037.5180068871
 20
783.1727714283
 30
0.0
 11
1037.5366854927
 21
783.2513191742
 31
0.0
  0
LINE
  5
7C
330
1F
100
AcDbEntity
  8
0
  6
CONTINUOUS
 62
     7
100
AcDbLine
 10
1042.4524481854
 20
778.2383310614
 30
0.0
 11
1042.5309959313
 21
778.2570092013
 31
0.0
  0
LINE
  5
7D
330
1F
100
AcDbEntity
  8
0
  6
CONTINUOUS
 62
     7
100
AcDbLine
 10
1042.4524481854
 20
778.2383310614
 30
0.0
 11
1042.4524481854
 21
768.164307904
 31
0.0
  0
LINE
  5
7E
330
1F
100
AcDbEntity
  8
0
  6
CONTINUOUS
 62
     7
100
AcDbLine
 10
1027.4439837298
 20
763.2298675371
 30
0.0
 11
1037.5180068871
 21
763.2298675371
 31
0.0
  0
LINE
  5
7F
330
1F
100
AcDbEntity
  8
0
  6
CONTINUOUS
 62
     7
100
AcDbLine
 10
1027.4439837298
 20
783.1727714283
 30
0.0
 11
1037.5180068871
 21
783.1727714283
 31
0.0
  0
ARC
  5
80
330
1F
100
AcDbEntity
  8
0
  6
CONTINUOUS
 62
     7
100
AcDbCircle
 10
895.314588259
 20
918.6066038146
 30
0.0
 40
6.924933862930826
100
AcDbArc
 50
167.3927923719
 51
182.6602488164
  0
LWPOLYLINE
  5
81
330
1F
100
AcDbEntity
  8
0
  6
CONTINUOUS
 62
     7
100
AcDbPolyline
 90
        5
 70
   128
 43
0.0
 10
888.5566193125
 20
920.1180814771
 10
896.0647258422
 20
920.0649886397
 10
903.5728249213
 20
920.0118510989
 10
911.0808941981
 20
919.9587135581
 10
914.5608741304
 20
919.9340819386
  0
SPLINE
  5
82
330
1F
100
AcDbEntity
  8
0
  6
CONTINUOUS
 62
     7
100
AcDbSpline
210
0.0
220
0.0
230
1.0
 70
     8
 71
     3
 72
    16
 73
    12
 74
     0
 42
0.00000001
 43
0.00000001
 12
1.0
 22
0.0
 32
0.0
 13
1.0
 23
0.0
 33
0.0
 40
0.0
 40
0.0
 40
0.0
 40
0.0
 40
0.249999999999997
 40
0.249999999999997
 40
0.499999999999994
 40
0.499999999999994
 40
0.749999999999991
 40
0.749999999999991
 40
0.8749999999999954
 40
0.8749999999999954
 40
1.0
 40
1.0
 40
1.0
 40
1.0
 10
914.4809986819347
 20
918.11600074286
 30
0.0
 10
914.4826547637516
 20
918.3502822338847
 30
0.0
 10
914.4858881255516
 20
918.5750572614921
 30
0.0
 10
914.4954111220546
 20
919.0003220647734
 30
0.0
 10
914.5015054356713
 20
919.1914929947303
 30
0.0
 10
914.5160627512596
 20
919.5223996453375
 30
0.0
 10
914.5242988570154
 20
919.6565712883973
 30
0.0
 10
914.5376543546583
 20
919.8043446049381
 30
0.0
 10
914.542188824042
 20
919.8437593164119
 30
0.0
 10
914.5514178125217
 20
919.9035248060317
 30
0.0
 10
914.5561742343657
 20
919.9239834409452
 30
0.0
 10
914.5608713976552
 20
919.9340786535481
 30
0.0
  0
SPLINE
  5
83
330
1F
100
AcDbEntity
  8
0
  6
CONTINUOUS
 62
     7
100
AcDbSpline
210
0.0
220
0.0
230
1.0
 70
     8
 71
     3
 72
    16
 73
    12
 74
     0
 42
0.00000001
 43
0.00000001
 12
1.0
 22
0.0
 32
0.0
 13
1.0
 23
0.0
 33
0.0
 40
0.0
 40
0.0
 40
0.0
 40
0.0
 40
0.250000000000001
 40
0.250000000000001
 40
0.500000000000002
 40
0.500000000000002
 40
0.750000000000003
 40
0.750000000000003
 40
0.8750000000000014
 40
0.8750000000000014
 40
1.0
 40
1.0
 40
1.0
 40
1.0
 10
1052.480990772696
 20
918.11600074286
 30
0.0
 10
1052.479334690879
 20
918.3502822338846
 30
0.0
 10
1052.476101329079
 20
918.575057261492
 30
0.0
 10
1052.466578332576
 20
919.0003220647733
 30
0.0
 10
1052.46048401896
 20
919.1914929947302
 30
0.0
 10
1052.445926703371
 20
919.5223996453373
 30
0.0
 10
1052.437690597613
 20
919.6565712883972
 30
0.0
 10
1052.424335099969
 20
919.8043446049378
 30
0.0
 10
1052.419800630592
 20
919.8437593164117
 30
0.0
 10
1052.410571642114
 20
919.9035248060317
 30
0.0
 10
1052.405815220321
 20
919.9239834409453
 30
0.0
 10
1052.401118056976
 20
919.9340786535481
 30
0.0
  0
LWPOLYLINE
  5
84
330
1F
100
AcDbEntity
  8
0
  6
CONTINUOUS
 62
     7
100
AcDbPolyline
 90
        5
 70
   128
 43
0.0
 10
1052.4011153242
 20
919.9340819386
 10
1055.8810952565
 20
919.9587135581
 10
1063.3891645333
 20
920.0118510989
 10
1070.8972636125
 20
920.0649886397
 10
1078.4053701422
 20
920.1180814771
  0
ARC
  5
85
330
1F
100
AcDbEntity
  8
0
  6
CONTINUOUS
 62
     7
100
AcDbCircle
 10
1071.6474011957
 20
918.6066038146
 30
0.0
 40
6.92493386292283
100
AcDbArc
 50
357.3397511836
 51
12.6072076281
  0
ARC
  5
86
330
1F
100
AcDbEntity
  8
0
  6
CONTINUOUS
 62
     7
100
AcDbCircle
 10
1071.6474011957
 20
627.7960351508
 30
0.0
 40
6.924933862923052
100
AcDbArc
 50
347.3927923719
 51
2.6602488164
  0
LWPOLYLINE
  5
87
330
1F
100
AcDbEntity
  8
0
  6
CONTINUOUS
 62
     7
100
AcDbPolyline
 90
        5
 70
   128
 43
0.0
 10
1078.4053701422
 20
626.2845574883
 10
1070.8972636125
 20
626.3376503257
 10
1063.3891645333
 20
626.3907878665
 10
1055.8810952565
 20
626.4439254073
 10
1052.4011153242
 20
626.4685570268
  0
SPLINE
  5
88
330
1F
100
AcDbEntity
  8
0
  6
CONTINUOUS
 62
     7
100
AcDbSpline
210
0.0
220
0.0
230
1.0
 70
     8
 71
     3
 72
    16
 73
    12
 74
     0
 42
0.00000001
 43
0.00000001
 12
1.0
 22
0.0
 32
0.0
 13
1.0
 23
0.0
 33
0.0
 40
0.0
 40
0.0
 40
0.0
 40
0.0
 40
0.2500000000000031
 40
0.2500000000000031
 40
0.5000000000000062
 40
0.5000000000000062
 40
0.7500000000000093
 40
0.7500000000000093
 40
0.8750000000000047
 40
0.8750000000000047
 40
1.0
 40
1.0
 40
1.0
 40
1.0
 10
1052.480990772696
 20
628.2866382225398
 30
0.0
 10
1052.479334690879
 20
628.0523567315147
 30
0.0
 10
1052.476101329079
 20
627.8275817039071
 30
0.0
 10
1052.466578332576
 20
627.4023169006255
 30
0.0
 10
1052.460484018959
 20
627.2111459706682
 30
0.0
 10
1052.44592670337
 20
626.880239320061
 30
0.0
 10
1052.437690597613
 20
626.7460676770011
 30
0.0
 10
1052.424335099969
 20
626.5982943604608
 30
0.0
 10
1052.419800630593
 20
626.5588796489874
 30
0.0
 10
1052.410571642114
 20
626.4991141593681
 30
0.0
 10
1052.405815220346
 20
626.4786555244544
 30
0.0
 10
1052.401118056976
 20
626.4685603118517
 30
0.0
  0
LINE
  5
89
330
1F
100
AcDbEntity
  8
0
  6
CONTINUOUS
 62
     7
100
AcDbLine
 10
914.5608741304
 20
919.9340819386
 30
0.0
 11
1052.4011153242
 21
919.9340819386
 31
0.0
  0
SPLINE
  5
8A
330
1F
100
AcDbEntity
  8
0
  6
CONTINUOUS
 62
     7
100
AcDbSpline
210
0.0
220
0.0
230
1.0
 70
     8
 71
     3
 72
    16
 73
    12
 74
     0
 42
0.00000001
 43
0.00000001
 12
1.0
 22
0.0
 32
0.0
 13
1.0
 23
0.0
 33
0.0
 40
0.0
 40
0.0
 40
0.0
 40
0.0
 40
0.249999999999996
 40
0.249999999999996
 40
0.499999999999992
 40
0.499999999999992
 40
0.749999999999988
 40
0.749999999999988
 40
0.874999999999994
 40
0.874999999999994
 40
1.0
 40
1.0
 40
1.0
 40
1.0
 10
914.4809986819348
 20
628.2866382225398
 30
0.0
 10
914.4826547637517
 20
628.0523567315148
 30
0.0
 10
914.4858881255516
 20
627.827581703907
 30
0.0
 10
914.4954111220547
 20
627.4023169006255
 30
0.0
 10
914.5015054356711
 20
627.2111459706683
 30
0.0
 10
914.5160627512597
 20
626.880239320061
 30
0.0
 10
914.5242988570167
 20
626.7460676770011
 30
0.0
 10
914.5376543546604
 20
626.5982943604608
 30
0.0
 10
914.5421888240418
 20
626.5588796489874
 30
0.0
 10
914.5514178125215
 20
626.4991141593681
 30
0.0
 10
914.5561742344539
 20
626.478655524455
 30
0.0
 10
914.5608713976554
 20
626.4685603118517
 30
0.0
  0
LWPOLYLINE
  5
8B
330
1F
100
AcDbEntity
  8
0
  6
CONTINUOUS
 62
     7
100
AcDbPolyline
 90
        5
 70
   128
 43
0.0
 10
914.5608741304
 20
626.4685570268
 10
911.0808941981
 20
626.4439254073
 10
903.5728249213
 20
626.3907878665
 10
896.0647258422
 20
626.3376503257
 10
888.5566193125
 20
626.2845574883
  0
ARC
  5
8C
330
1F
100
AcDbEntity
  8
0
  6
CONTINUOUS
 62
     7
100
AcDbCircle
 10
895.314588259
 20
627.7960351508
 30
0.0
 40
6.924933862931288
100
AcDbArc
 50
177.3397511836
 51
192.6072076281
  0
LINE
  5
8D
330
1F
100
AcDbEntity
  8
0
  6
CONTINUOUS
 62
     7
100
AcDbLine
 10
1052.4011153242
 20
626.4685570268
 30
0.0
 11
914.5608741304
 21
626.4685570268
 31
0.0
  0
ARC
  5
8E
330
1F
100
AcDbEntity
  8
0
  6
CONTINUOUS
 62
     7
100
AcDbCircle
 10
888.0756604422
 20
635.0343762137
 30
0.0
 40
6.924396844339238
100
AcDbArc
 50
257.3921968128
 51
272.6608443754
  0
LWPOLYLINE
  5
8F
330
1F
100
AcDbEntity
  8
0
  6
CONTINUOUS
 62
     7
100
AcDbPolyline
 90
        5
 70
   128
 43
0.0
 10
886.5642297527
 20
628.2769470481
 10
886.6173300406
 20
635.7850461272
 10
886.6704526803
 20
643.2931452063
 10
886.7235976717
 20
650.8012219337
 10
886.7482367417
 20
654.2811944155
  0
SPLINE
  5
90
330
1F
100
AcDbEntity
  8
0
  6
CONTINUOUS
 62
     7
100
AcDbSpline
210
0.0
220
0.0
230
1.0
 70
     8
 71
     3
 72
    16
 73
    12
 74
     0
 42
0.00000001
 43
0.00000001
 12
1.0
 22
0.0
 32
0.0
 13
1.0
 23
0.0
 33
0.0
 40
0.0
 40
0.0
 40
0.0
 40
0.0
 40
0.2500000000000006
 40
0.2500000000000006
 40
0.5000000000000011
 40
0.5000000000000011
 40
0.7500000000000017
 40
0.7500000000000017
 40
0.8750000000000008
 40
0.8750000000000008
 40
1.0
 40
1.0
 40
1.0
 40
1.0
 10
888.5663134671554
 20
654.2013234373193
 30
0.0
 10
888.3320319761301
 20
654.2029795191361
 30
0.0
 10
888.1072569485224
 20
654.206212880936
 30
0.0
 10
887.6819921452404
 20
654.2157358774392
 30
0.0
 10
887.4908212152832
 20
654.2218301910564
 30
0.0
 10
887.1599145646759
 20
654.2363875066449
 30
0.0
 10
887.0257429216159
 20
654.244623612402
 30
0.0
 10
886.877969605076
 20
654.2579791100464
 30
0.0
 10
886.8385548936026
 20
654.2625135794236
 30
0.0
 10
886.7787894039833
 20
654.2717425679025
 30
0.0
 10
886.7583307690699
 20
654.2764989896963
 30
0.0
 10
886.7482355564671
 20
654.2811961530398
 30
0.0
  0
LINE
  5
91
330
1F
100
AcDbEntity
  8
0
  6
CONTINUOUS
 62
     7
100
AcDbLine
 10
886.7482367417
 20
654.2811944155
 30
0.0
 11
886.7482367417
 21
892.1214445499
 31
0.0
  0
SPLINE
  5
92
330
1F
100
AcDbEntity
  8
0
  6
CONTINUOUS
 62
     7
100
AcDbSpline
210
0.0
220
0.0
230
1.0
 70
     8
 71
     3
 72
    16
 73
    12
 74
     0
 42
0.00000001
 43
0.00000001
 12
1.0
 22
0.0
 32
0.0
 13
1.0
 23
0.0
 33
0.0
 40
0.0
 40
0.0
 40
0.0
 40
0.0
 40
0.2499999999999999
 40
0.2499999999999999
 40
0.4999999999999998
 40
0.4999999999999998
 40
0.7499999999999997
 40
0.7499999999999997
 40
0.8749999999999998
 40
0.8749999999999998
 40
1.0
 40
1.0
 40
1.0
 40
1.0
 10
888.5663134671554
 20
892.2013155280806
 30
0.0
 10
888.3320319761302
 20
892.1996594462636
 30
0.0
 10
888.1072569485224
 20
892.196426084464
 30
0.0
 10
887.6819921452404
 20
892.1869030879606
 30
0.0
 10
887.4908212152832
 20
892.1808087743434
 30
0.0
 10
887.1599145646761
 20
892.1662514587549
 30
0.0
 10
887.025742921616
 20
892.1580153529982
 30
0.0
 10
886.877969605076
 20
892.144659855354
 30
0.0
 10
886.8385548936026
 20
892.1401253859764
 30
0.0
 10
886.7787894039834
 20
892.1308963974975
 30
0.0
 10
886.7583307690697
 20
892.1261399757408
 30
0.0
 10
886.7482355564671
 20
892.1214428123601
 30
0.0
  0
LWPOLYLINE
  5
93
330
1F
100
AcDbEntity
  8
0
  6
CONTINUOUS
 62
     7
100
AcDbPolyline
 90
        5
 70
   128
 43
0.0
 10
886.7482367417
 20
892.1214445499
 10
886.7235976717
 20
895.6014170317
 10
886.6704526803
 20
903.1094937591
 10
886.6173300406
 20
910.6175928382
 10
886.5642297527
 20
918.1256919173
  0
ARC
  5
94
330
1F
100
AcDbEntity
  8
0
  6
CONTINUOUS
 62
     7
100
AcDbCircle
 10
888.0756604422
 20
911.3682627517
 30
0.0
 40
6.924396844347243
100
AcDbArc
 50
87.3391556246
 51
102.6078031871
  0
ARC
  5
95
330
1F
100
AcDbEntity
  8
0
  6
CONTINUOUS
 62
     7
100
AcDbCircle
 10
1078.8863290124
 20
911.3682627517
 30
0.0
 40
6.92439684434918
100
AcDbArc
 50
77.3921968129
 51
92.6608443754
  0
LWPOLYLINE
  5
96
330
1F
100
AcDbEntity
  8
0
  6
CONTINUOUS
 62
     7
100
AcDbPolyline
 90
        5
 70
   128
 43
0.0
 10
1080.3977597019
 20
918.1256919173
 10
1080.344659414
 20
910.6175928382
 10
1080.2915367743
 20
903.1094937591
 10
1080.2383917829
 20
895.6014170317
 10
1080.2137527129
 20
892.1214445499
  0
SPLINE
  5
97
330
1F
100
AcDbEntity
  8
0
  6
CONTINUOUS
 62
     7
100
AcDbSpline
210
0.0
220
0.0
230
1.0
 70
     8
 71
     3
 72
    16
 73
    12
 74
     0
 42
0.00000001
 43
0.00000001
 12
1.0
 22
0.0
 32
0.0
 13
1.0
 23
0.0
 33
0.0
 40
0.0
 40
0.0
 40
0.0
 40
0.0
 40
0.250000000000001
 40
0.250000000000001
 40
0.500000000000002
 40
0.500000000000002
 40
0.750000000000003
 40
0.750000000000003
 40
0.8750000000000014
 40
0.8750000000000014
 40
1.0
 40
1.0
 40
1.0
 40
1.0
 10
1078.395675987475
 20
892.2013155280806
 30
0.0
 10
1078.629957478501
 20
892.1996594462636
 30
0.0
 10
1078.854732506109
 20
892.1964260844638
 30
0.0
 10
1079.279997309391
 20
892.1869030879606
 30
0.0
 10
1079.471168239348
 20
892.1808087743436
 30
0.0
 10
1079.802074889955
 20
892.1662514587553
 30
0.0
 10
1079.936246533015
 20
892.1580153529982
 30
0.0
 10
1080.084019849555
 20
892.1446598553541
 30
0.0
 10
1080.123434561028
 20
892.1401253859754
 30
0.0
 10
1080.183200050648
 20
892.1308963974963
 30
0.0
 10
1080.203658685561
 20
892.1261399757498
 30
0.0
 10
1080.213753898164
 20
892.1214428123601
 30
0.0
  0
SPLINE
  5
98
330
1F
100
AcDbEntity
  8
0
  6
CONTINUOUS
 62
     7
100
AcDbSpline
210
0.0
220
0.0
230
1.0
 70
     8
 71
     3
 72
    16
 73
    12
 74
     0
 42
0.00000001
 43
0.00000001
 12
1.0
 22
0.0
 32
0.0
 13
1.0
 23
0.0
 33
0.0
 40
0.0
 40
0.0
 40
0.0
 40
0.0
 40
0.2499999999999993
 40
0.2499999999999993
 40
0.4999999999999987
 40
0.4999999999999987
 40
0.749999999999998
 40
0.749999999999998
 40
0.874999999999999
 40
0.874999999999999
 40
1.0
 40
1.0
 40
1.0
 40
1.0
 10
1078.395675987475
 20
654.2013234373193
 30
0.0
 10
1078.629957478501
 20
654.2029795191362
 30
0.0
 10
1078.854732506109
 20
654.2062128809357
 30
0.0
 10
1079.279997309391
 20
654.2157358774389
 30
0.0
 10
1079.471168239348
 20
654.221830191056
 30
0.0
 10
1079.802074889955
 20
654.2363875066445
 30
0.0
 10
1079.936246533015
 20
654.2446236124015
 30
0.0
 10
1080.084019849555
 20
654.2579791100455
 30
0.0
 10
1080.123434561028
 20
654.2625135794244
 30
0.0
 10
1080.183200050648
 20
654.2717425679036
 30
0.0
 10
1080.203658685561
 20
654.2764989896855
 30
0.0
 10
1080.213753898164
 20
654.2811961530397
 30
0.0
  0
LWPOLYLINE
  5
99
330
1F
100
AcDbEntity
  8
0
  6
CONTINUOUS
 62
     7
100
AcDbPolyline
 90
        5
 70
   128
 43
0.0
 10
1080.2137527129
 20
654.2811944155
 10
1080.2383917829
 20
650.8012219337
 10
1080.2915367743
 20
643.2931452063
 10
1080.344659414
 20
635.7850461272
 10
1080.3977597019
 20
628.2769470481
  0
ARC
  5
9A
330
1F
100
AcDbEntity
  8
0
  6
CONTINUOUS
 62
     7
100
AcDbCircle
 10
1078.8863290124
 20
635.0343762137
 30
0.0
 40
6.924396844341169
100
AcDbArc
 50
267.3391556246
 51
282.6078031872
  0
LINE
  5
9B
330
1F
100
AcDbEntity
  8
0
  6
CONTINUOUS
 62
     7
100
AcDbLine
 10
1080.2137527129
 20
892.1214445499
 30
0.0
 11
1080.2137527129
 21
654.2811944155
 31
0.0
  0
LINE
  5
9C
330
1F
100
AcDbEntity
  8
0
  6
CONTINUOUS
 62
     7
100
AcDbLine
 10
884.4809952638
 20
626.1937051085
 30
0.0
 11
886.5642297527
 21
628.2769470481
 31
0.0
  0
LINE
  5
9D
330
1F
100
AcDbEntity
  8
0
  6
CONTINUOUS
 62
     7
100
AcDbLine
 10
884.4809952638
 20
626.1937051085
 30
0.0
 11
884.4809952638
 21
682.2013213304
 31
0.0
  0
LINE
  5
9E
330
1F
100
AcDbEntity
  8
0
  6
CONTINUOUS
 62
     7
100
AcDbLine
 10
885.705833461
 20
682.2013213304
 30
0.0
 11
884.4809952638
 21
682.2013213304
 31
0.0
  0
LINE
  5
9F
330
1F
100
AcDbEntity
  8
0
  6
CONTINUOUS
 62
     7
100
AcDbLine
 10
885.705833461
 20
682.2013213304
 30
0.0
 11
885.705833461
 21
734.201318678
 31
0.0
  0
LINE
  5
A0
330
1F
100
AcDbEntity
  8
0
  6
CONTINUOUS
 62
     7
100
AcDbLine
 10
884.4809952638
 20
734.201318678
 30
0.0
 11
885.705833461
 21
734.201318678
 31
0.0
  0
LINE
  5
A1
330
1F
100
AcDbEntity
  8
0
  6
CONTINUOUS
 62
     7
100
AcDbLine
 10
884.4809952638
 20
734.201318678
 30
0.0
 11
884.4809952638
 21
812.2013202874
 31
0.0
  0
LINE
  5
A2
330
1F
100
AcDbEntity
  8
0
  6
CONTINUOUS
 62
     7
100
AcDbLine
 10
885.705833461
 20
812.2013202874
 30
0.0
 11
884.4809952638
 21
812.2013202874
 31
0.0
  0
LINE
  5
A3
330
1F
100
AcDbEntity
  8
0
  6
CONTINUOUS
 62
     7
100
AcDbLine
 10
885.705833461
 20
812.2013202874
 30
0.0
 11
885.705833461
 21
864.201317635
 31
0.0
  0
LINE
  5
A4
330
1F
100
AcDbEntity
  8
0
  6
CONTINUOUS
 62
     7
100
AcDbLine
 10
884.4809952638
 20
864.201317635
 30
0.0
 11
885.705833461
 21
864.201317635
 31
0.0
  0
LINE
  5
A5
330
1F
100
AcDbEntity
  8
0
  6
CONTINUOUS
 62
     7
100
AcDbLine
 10
884.4809952638
 20
864.201317635
 30
0.0
 11
884.4809952638
 21
920.2089338569
 31
0.0
  0
LINE
  5
A6
330
1F
100
AcDbEntity
  8
0
  6
CONTINUOUS
 62
     7
100
AcDbLine
 10
886.5642297527
 20
918.1256919173
 30
0.0
 11
884.4809952638
 21
920.2089338569
 31
0.0
  0
LINE
  5
A7
330
1F
100
AcDbEntity
  8
0
  6
CONTINUOUS
 62
     7
100
AcDbLine
 10
886.4733848235
 20
922.2013234166
 30
0.0
 11
888.5566193125
 21
920.1180814771
 31
0.0
  0
LINE
  5
A8
330
1F
100
AcDbEntity
  8
0
  6
CONTINUOUS
 62
     7
100
AcDbLine
 10
886.4733848235
 20
922.2013234166
 30
0.0
 11
1080.4886046311
 21
922.2013234166
 31
0.0
  0
LINE
  5
A9
330
1F
100
AcDbEntity
  8
0
  6
CONTINUOUS
 62
     7
100
AcDbLine
 10
1078.4053701422
 20
920.1180814771
 30
0.0
 11
1080.4886046311
 21
922.2013234166
 31
0.0
  0
LINE
  5
AA
330
1F
100
AcDbEntity
  8
0
  6
CONTINUOUS
 62
     7
100
AcDbLine
 10
1080.4886046311
 20
624.2013155488
 30
0.0
 11
1078.4053701422
 21
626.2845574883
 31
0.0
  0
LINE
  5
AB
330
1F
100
AcDbEntity
  8
0
  6
CONTINUOUS
 62
     7
100
AcDbLine
 10
886.4733848235
 20
624.2013155488
 30
0.0
 11
1080.4886046311
 21
624.2013155488
 31
0.0
  0
LINE
  5
AC
330
1F
100
AcDbEntity
  8
0
  6
CONTINUOUS
 62
     7
100
AcDbLine
 10
888.5566193125
 20
626.2845574883
 30
0.0
 11
886.4733848235
 21
624.2013155488
 31
0.0
  0
LINE
  5
AD
330
1F
100
AcDbEntity
  8
0
  6
CONTINUOUS
 62
     7
100
AcDbLine
 10
1082.4809941909
 20
920.2089338569
 30
0.0
 11
1080.3977597019
 21
918.1256919173
 31
0.0
  0
LINE
  5
AE
330
1F
100
AcDbEntity
  8
0
  6
CONTINUOUS
 62
     7
100
AcDbLine
 10
1082.4809941909
 20
626.1937051085
 30
0.0
 11
1082.4809941909
 21
920.2089338569
 31
0.0
  0
LINE
  5
AF
330
1F
100
AcDbEntity
  8
0
  6
CONTINUOUS
 62
     7
100
AcDbLine
 10
1080.3977597019
 20
628.2769470481
 30
0.0
 11
1082.4809941909
 21
626.1937051085
 31
0.0
  0
ARC
  5
B0
330
1F
100
AcDbEntity
  8
0
  6
CONTINUOUS
 62
     7
100
AcDbCircle
 10
888.5744254183
 20
628.2947531539
 30
0.0
 40
2.010274526362707
100
AcDbArc
 50
180.5075068313
 51
269.4924931687
  0
ARC
  5
B1
330
1F
100
AcDbEntity
  8
0
  6
CONTINUOUS
 62
     7
100
AcDbCircle
 10
1078.3875640363
 20
628.2947531539
 30
0.0
 40
2.010274526362704
100
AcDbArc
 50
270.5075068313
 51
359.4924931687
  0
ARC
  5
B2
330
1F
100
AcDbEntity
  8
0
  6
CONTINUOUS
 62
     7
100
AcDbCircle
 10
888.5744254183
 20
918.1078858115
 30
0.0
 40
2.010274526362479
100
AcDbArc
 50
90.5075068313
 51
179.4924931687
  0
ARC
  5
B3
330
1F
100
AcDbEntity
  8
0
  6
CONTINUOUS
 62
     7
100
AcDbCircle
 10
1078.3875640363
 20
918.1078858115
 30
0.0
 40
2.010274526362592
100
AcDbArc
 50
0.5075068313
 51
89.4924931687
  0
ELLIPSE
  5
B4
330
1F
100
AcDbEntity
  8
0
  6
CONTINUOUS
 62
     7
100
AcDbEllipse
 10
1080.4733550522
 20
626.2089591578
 30
0.0
 11
-1.424997215780422
 21
1.424997215780536
 31
0.0
210
0.0
220
0.0
230
1.0
 40
0.9924325091
 41
2.359992588465614
 42
3.923192718714009
  0
ELLIPSE
  5
B5
330
1F
100
AcDbEntity
  8
0
  6
CONTINUOUS
 62
     7
100
AcDbEllipse
 10
886.4886344024
 20
626.2089591578
 30
0.0
 11
-1.424997215780536
 21
-1.424997215780536
 31
0.0
210
0.0
220
0.0
230
1.0
 40
0.9924325091
 41
5.501585242055397
 42
7.064785372303788
  0
ELLIPSE
  5
B6
330
1F
100
AcDbEntity
  8
0
  6
CONTINUOUS
 62
     7
100
AcDbEllipse
 10
1080.4733550522
 20
920.1936798076
 30
0.0
 11
-1.424997215780422
 21
-1.424997215780422
 31
0.0
210
0.0
220
0.0
230
1.0
 40
0.9924325091
 41
2.359992588465651
 42
3.923192718713893
  0
ELLIPSE
  5
B7
330
1F
100
AcDbEntity
  8
0
  6
CONTINUOUS
 62
     7
100
AcDbEllipse
 10
886.4886344024
 20
920.1936798076
 30
0.0
 11
-1.424997215780536
 21
1.424997215780536
 31
0.0
210
0.0
220
0.0
230
1.0
 40
0.9924325091
 41
5.501585242055418
 42
7.064785372303769
  0
LINE
  5
B8
330
1F
100
AcDbEntity
  8
0
  6
CONTINUOUS
 62
     7
100
AcDbLine
 10
747.6074367758
 20
920.2089338569
 30
0.0
 11
723.7959753718
 21
918.1256919173
 31
0.0
  0
ARC
  5
B9
330
1F
100
AcDbEntity
  8
0
  6
CONTINUOUS
 62
     7
100
AcDbCircle
 10
729.5615846603
 20
919.1218866972
 30
0.0
 40
5.851038754529578
100
AcDbArc
 50
170.1970942475
 51
189.8029057526
  0
LINE
  5
BA
330
1F
100
AcDbEntity
  8
0
  6
CONTINUOUS
 62
     7
100
AcDbLine
 10
723.7959753718
 20
920.1180814771
 30
0.0
 11
747.6074367758
 21
922.2013234166
 31
0.0
  0
LINE
  5
BB
330
1F
100
AcDbEntity
  8
0
  6
CONTINUOUS
 62
     7
100
AcDbLine
 10
747.6074367758
 20
922.2013234166
 30
0.0
 11
747.6074367758
 21
920.2089338569
 31
0.0
  0
LINE
  5
BC
330
1F
100
AcDbEntity
  8
0
  6
CONTINUOUS
 62
     7
100
AcDbLine
 10
747.6074367758
 20
624.2013155488
 30
0.0
 11
723.7959753718
 21
626.2845574883
 31
0.0
  0
ARC
  5
BD
330
1F
100
AcDbEntity
  8
0
  6
CONTINUOUS
 62
     7
100
AcDbCircle
 10
729.5615846603
 20
627.2807522682
 30
0.0
 40
5.851038754529578
100
AcDbArc
 50
170.1970942475
 51
189.8029057526
  0
LINE
  5
BE
330
1F
100
AcDbEntity
  8
0
  6
CONTINUOUS
 62
     7
100
AcDbLine
 10
723.7959753718
 20
628.2769470481
 30
0.0
 11
747.6074367758
 21
626.1937051085
 31
0.0
  0
LINE
  5
BF
330
1F
100
AcDbEntity
  8
0
  6
CONTINUOUS
 62
     7
100
AcDbLine
 10
747.6074367758
 20
626.1937051085
 30
0.0
 11
747.6074367758
 21
624.2013155488
 31
0.0
  0
LWPOLYLINE
  5
C0
330
1F
100
AcDbEntity
  8
0
  6
CONTINUOUS
 62
     7
100
AcDbPolyline
 90
        5
 70
   128
 43
0.0
 10
723.7959753718
 20
918.1256919173
 10
723.1889840212
 20
910.6175928382
 10
722.581780329
 20
903.1094937591
 10
721.9743642953
 20
895.6014170317
 10
721.6927547004
 20
892.1214445499
  0
LWPOLYLINE
  5
C1
330
1F
100
AcDbEntity
  8
0
  6
CONTINUOUS
 62
     7
100
AcDbPolyline
 90
        5
 70
   128
 43
0.0
 10
721.6927547004
 20
654.2811944155
 10
721.9743642953
 20
650.8012219337
 10
722.581780329
 20
643.2931452063
 10
723.1889840212
 20
635.7850461272
 10
723.7959753718
 20
628.2769470481
  0
LINE
  5
C2
330
1F
100
AcDbEntity
  8
0
  6
CONTINUOUS
 62
     7
100
AcDbLine
 10
721.6927547004
 20
892.1214445499
 30
0.0
 11
721.6927547004
 21
654.2811944155
 31
0.0
  0
LINE
  5
C3
330
1F
100
AcDbEntity
  8
0
  6
CONTINUOUS
 62
     7
100
AcDbLine
 10
747.6074367758
 20
626.1937051085
 30
0.0
 11
747.6074367758
 21
920.2089338569
 31
0.0
  0
LINE
  5
C4
330
1F
100
AcDbEntity
  8
0
  6
CONTINUOUS
 62
     7
100
AcDbLine
 10
719.8745802041
 20
892.2013222245
 30
0.0
 11
719.8746770617
 21
892.2013222245
 31
0.0
  0
LWPOLYLINE
  5
C5
330
1F
100
AcDbEntity
  8
0
  6
CONTINUOUS
 62
     7
100
AcDbPolyline
 90
        4
 70
   128
 43
0.0
 10
719.8745802041
 20
892.2013222245
 10
720.197017118
 20
896.1882173089
 10
720.841721445
 20
904.1620223788
 10
721.9830479469
 20
918.2851939467
  0
ARC
  5
C6
330
1F
100
AcDbEntity
  8
0
  6
CONTINUOUS
 62
     7
100
AcDbCircle
 10
729.5368429132
 20
993.7601501435
 30
0.0
 40
75.85201929608797
100
AcDbArc
 50
264.2846721861
 51
265.6594125628
  0
SPLINE
  5
C7
330
1F
100
AcDbEntity
  8
0
  6
CONTINUOUS
 62
     7
100
AcDbSpline
210
0.0
220
0.0
230
1.0
 70
     8
 71
     3
 72
    16
 73
    12
 74
     0
 42
0.00000001
 43
0.00000001
 12
1.0
 22
0.0
 32
0.0
 13
1.0
 23
0.0
 33
0.0
 40
0.0
 40
0.0
 40
0.0
 40
0.0
 40
0.250000000000001
 40
0.250000000000001
 40
0.500000000000002
 40
0.500000000000002
 40
0.750000000000003
 40
0.750000000000003
 40
0.8750000000000014
 40
0.8750000000000014
 40
1.0
 40
1.0
 40
1.0
 40
1.0
 10
719.8746776049635
 20
892.2013155280806
 30
0.0
 10
719.895174579502
 20
892.1996594462636
 30
0.0
 10
719.9555465843277
 20
892.1964260844638
 30
0.0
 10
720.1540690701368
 20
892.1869030879606
 30
0.0
 10
720.2881999488478
 20
892.1808087743436
 30
0.0
 10
720.6195954703607
 20
892.1662514587553
 30
0.0
 10
720.8117304096829
 20
892.1580153529982
 30
0.0
 10
721.1293990666647
 20
892.1446598553541
 30
0.0
 10
721.2381953716935
 20
892.1401253859754
 30
0.0
 10
721.4614177489049
 20
892.1308963974963
 30
0.0
 10
721.577366707597
 20
892.1261399757498
 30
0.0
 10
721.6927555156523
 20
892.1214428123601
 30
0.0
  0
ARC
  5
C8
330
1F
100
AcDbEntity
  8
0
  6
CONTINUOUS
 62
     7
100
AcDbCircle
 10
723.9724235704
 20
918.1305186881
 30
0.0
 40
1.995379614709887
100
AcDbArc
 50
95.0731997223
 51
175.5541598048
  0
ARC
  5
C9
330
1F
100
AcDbEntity
  8
0
  6
CONTINUOUS
 62
     7
100
AcDbCircle
 10
729.5368429133
 20
552.6424888207
 30
0.0
 40
75.85201929734438
100
AcDbArc
 50
94.3405874372
 51
95.7153278139
  0
ARC
  5
CA
330
1F
100
AcDbEntity
  8
0
  6
CONTINUOUS
 62
     7
100
AcDbCircle
 10
723.9724235704
 20
628.2721202773
 30
0.0
 40
1.995379614709887
100
AcDbArc
 50
184.4458401952
 51
264.9268002777
  0
LWPOLYLINE
  5
CB
330
1F
100
AcDbEntity
  8
0
  6
CONTINUOUS
 62
     7
100
AcDbPolyline
 90
        4
 70
   128
 43
0.0
 10
721.9830479469
 20
628.1174450187
 10
721.6609276828
 20
632.1043699054
 10
721.0165176537
 20
640.0782047776
 10
719.8745802041
 20
654.2013167409
  0
LINE
  5
CC
330
1F
100
AcDbEntity
  8
0
  6
CONTINUOUS
 62
     7
100
AcDbLine
 10
719.8745802041
 20
654.2013167409
 30
0.0
 11
719.8746770617
 21
654.2013167409
 31
0.0
  0
SPLINE
  5
CD
330
1F
100
AcDbEntity
  8
0
  6
CONTINUOUS
 62
     7
100
AcDbSpline
210
0.0
220
0.0
230
1.0
 70
     8
 71
     3
 72
    16
 73
    12
 74
     0
 42
0.00000001
 43
0.00000001
 12
1.0
 22
0.0
 32
0.0
 13
1.0
 23
0.0
 33
0.0
 40
0.0
 40
0.0
 40
0.0
 40
0.0
 40
0.2499999999999993
 40
0.2499999999999993
 40
0.4999999999999987
 40
0.4999999999999987
 40
0.749999999999998
 40
0.749999999999998
 40
0.874999999999999
 40
0.874999999999999
 40
1.0
 40
1.0
 40
1.0
 40
1.0
 10
719.8746776049635
 20
654.2013234373193
 30
0.0
 10
719.895174579502
 20
654.2029795191362
 30
0.0
 10
719.9555465843277
 20
654.2062128809357
 30
0.0
 10
720.1540690701368
 20
654.2157358774389
 30
0.0
 10
720.2881999488478
 20
654.221830191056
 30
0.0
 10
720.6195954703607
 20
654.2363875066445
 30
0.0
 10
720.8117304096829
 20
654.2446236124015
 30
0.0
 10
721.1293990666647
 20
654.2579791100455
 30
0.0
 10
721.2381953716935
 20
654.2625135794244
 30
0.0
 10
721.4614177489049
 20
654.2717425679036
 30
0.0
 10
721.5773667075956
 20
654.2764989896855
 30
0.0
 10
721.6927555156523
 20
654.2811961530397
 30
0.0
  0
LINE
  5
CE
330
1F
100
AcDbEntity
  8
0
  6
CONTINUOUS
 62
     7
100
AcDbLine
 10
719.8746770617
 20
654.2013167409
 30
0.0
 11
719.8746770617
 21
892.2013222245
 31
0.0
  0
LWPOLYLINE
  5
CF
330
1F
100
AcDbEntity
  8
0
  6
CONTINUOUS
 62
     7
100
AcDbPolyline
 90
        4
 70
   128
 43
0.0
 10
721.9830479469
 20
918.2851939467
 10
721.6609276828
 20
918.2591765193
 10
721.0165176537
 20
918.2071267632
 10
719.8745802041
 20
918.1148885755
  0
LINE
  5
D0
330
1F
100
AcDbEntity
  8
0
  6
CONTINUOUS
 62
     7
100
AcDbLine
 10
719.8745802041
 20
918.1148885755
 30
0.0
 11
719.8746770617
 21
918.1160061625
 31
0.0
  0
SPLINE
  5
D1
330
1F
100
AcDbEntity
  8
0
  6
CONTINUOUS
 62
     7
100
AcDbSpline
210
0.0
220
0.0
230
1.0
 70
     8
 71
     3
 72
    16
 73
    12
 74
     0
 42
0.00000001
 43
0.00000001
 12
1.0
 22
0.0
 32
0.0
 13
1.0
 23
0.0
 33
0.0
 40
0.0
 40
0.0
 40
0.0
 40
0.0
 40
0.250000000000001
 40
0.250000000000001
 40
0.500000000000002
 40
0.500000000000002
 40
0.750000000000003
 40
0.750000000000003
 40
0.8750000000000014
 40
0.8750000000000014
 40
1.0
 40
1.0
 40
1.0
 40
1.0
 10
719.8746776049635
 20
918.11600074286
 30
0.0
 10
719.895174579502
 20
918.3502822338846
 30
0.0
 10
719.9555465843274
 20
918.575057261492
 30
0.0
 10
720.1540690701358
 20
919.0003220647733
 30
0.0
 10
720.2881999488462
 20
919.1914929947302
 30
0.0
 10
720.6195954703579
 20
919.5223996453373
 30
0.0
 10
720.8117304096791
 20
919.6565712883972
 30
0.0
 10
721.1293990666605
 20
919.8043446049378
 30
0.0
 10
721.2381953716897
 20
919.8437593164117
 30
0.0
 10
721.4614177489029
 20
919.9035248060317
 30
0.0
 10
721.5773667075933
 20
919.9239834409453
 30
0.0
 10
721.6927555156502
 20
919.9340786535481
 30
0.0
  0
LWPOLYLINE
  5
D2
330
1F
100
AcDbEntity
  8
0
  6
CONTINUOUS
 62
     7
100
AcDbPolyline
 90
        5
 70
   128
 43
0.0
 10
721.6927547004
 20
919.9340819386
 10
721.9743642953
 20
919.9587135581
 10
722.581780329
 20
920.0118510989
 10
723.1889840212
 20
920.0649886397
 10
723.7959753718
 20
920.1180814771
  0
LINE
  5
D3
330
1F
100
AcDbEntity
  8
0
  6
CONTINUOUS
 62
     7
100
AcDbLine
 10
717.6074374464
 20
892.2013222245
 30
0.0
 11
719.8745802041
 21
892.2013222245
 31
0.0
  0
LINE
  5
D4
330
1F
100
AcDbEntity
  8
0
  6
CONTINUOUS
 62
     7
100
AcDbLine
 10
717.6074374464
 20
892.2013222245
 30
0.0
 11
719.8745802041
 21
918.1148885755
 31
0.0
  0
LINE
  5
D5
330
1F
100
AcDbEntity
  8
0
  6
CONTINUOUS
 62
     7
100
AcDbLine
 10
719.8746770617
 20
628.2866328029
 30
0.0
 11
719.8745802041
 21
628.2877503899
 31
0.0
  0
LWPOLYLINE
  5
D6
330
1F
100
AcDbEntity
  8
0
  6
CONTINUOUS
 62
     7
100
AcDbPolyline
 90
        4
 70
   128
 43
0.0
 10
719.8745802041
 20
628.2877503899
 10
720.197017118
 20
628.2617031602
 10
720.841721445
 20
628.2096236018
 10
721.9830479469
 20
628.1174450187
  0
SPLINE
  5
D7
330
1F
100
AcDbEntity
  8
0
  6
CONTINUOUS
 62
     7
100
AcDbSpline
210
0.0
220
0.0
230
1.0
 70
     8
 71
     3
 72
    16
 73
    12
 74
     0
 42
0.00000001
 43
0.00000001
 12
1.0
 22
0.0
 32
0.0
 13
1.0
 23
0.0
 33
0.0
 40
0.0
 40
0.0
 40
0.0
 40
0.0
 40
0.2500000000000031
 40
0.2500000000000031
 40
0.5000000000000062
 40
0.5000000000000062
 40
0.7500000000000093
 40
0.7500000000000093
 40
0.8750000000000047
 40
0.8750000000000047
 40
1.0
 40
1.0
 40
1.0
 40
1.0
 10
719.8746776049635
 20
628.2866382225398
 30
0.0
 10
719.895174579502
 20
628.0523567315147
 30
0.0
 10
719.9555465843275
 20
627.8275817039071
 30
0.0
 10
720.1540690701365
 20
627.4023169006255
 30
0.0
 10
720.2881999488473
 20
627.2111459706682
 30
0.0
 10
720.6195954703596
 20
626.880239320061
 30
0.0
 10
720.8117304096817
 20
626.7460676770011
 30
0.0
 10
721.1293990666632
 20
626.5982943604608
 30
0.0
 10
721.2381953716917
 20
626.5588796489874
 30
0.0
 10
721.461417748903
 20
626.4991141593681
 30
0.0
 10
721.5773667075943
 20
626.4786555244544
 30
0.0
 10
721.6927555156503
 20
626.4685603118517
 30
0.0
  0
LWPOLYLINE
  5
D8
330
1F
100
AcDbEntity
  8
0
  6
CONTINUOUS
 62
     7
100
AcDbPolyline
 90
        5
 70
   128
 43
0.0
 10
723.7959753718
 20
626.2845574883
 10
723.1889840212
 20
626.3376503257
 10
722.581780329
 20
626.3907878665
 10
721.9743642953
 20
626.4439254073
 10
721.6927547004
 20
626.4685570268
  0
LINE
  5
D9
330
1F
100
AcDbEntity
  8
0
  6
CONTINUOUS
 62
     7
100
AcDbLine
 10
717.6074374464
 20
654.2013092903
 30
0.0
 11
719.8745802041
 21
628.2877503899
 31
0.0
  0
LINE
  5
DA
330
1F
100
AcDbEntity
  8
0
  6
CONTINUOUS
 62
     7
100
AcDbLine
 10
717.6074374464
 20
654.2013167409
 30
0.0
 11
719.8745802041
 21
654.2013167409
 31
0.0
  0
LINE
  5
DB
330
1F
100
AcDbEntity
  8
0
  6
CONTINUOUS
 62
     7
100
AcDbLine
 10
717.6074374464
 20
654.2013167409
 30
0.0
 11
717.6074374464
 21
892.2013222245
 31
0.0
  0
LINE
  5
DC
330
1F
100
AcDbEntity
  8
0
  6
CONTINUOUS
 62
     7
100
AcDbLine
 10
1082.4809941909
 20
993.2856274145
 30
0.0
 11
1080.4886046311
 21
993.2856274145
 31
0.0
  0
LINE
  5
DD
330
1F
100
AcDbEntity
  8
0
  6
CONTINUOUS
 62
     7
100
AcDbLine
 10
1080.4886046311
 20
993.2856274145
 30
0.0
 11
1078.4053701422
 21
1017.0970888185
 31
0.0
  0
ARC
  5
DE
330
1F
100
AcDbEntity
  8
0
  6
CONTINUOUS
 62
     7
100
AcDbCircle
 10
1079.401564922
 20
1011.3314511426
 30
0.0
 40
5.851066727469472
100
AcDbArc
 50
80.1971415762
 51
99.8028584238
  0
LINE
  5
DF
330
1F
100
AcDbEntity
  8
0
  6
CONTINUOUS
 62
     7
100
AcDbLine
 10
1080.3977597019
 20
1017.0970888185
 30
0.0
 11
1082.4809941909
 21
993.2856274145
 31
0.0
  0
LWPOLYLINE
  5
E0
330
1F
100
AcDbEntity
  8
0
  6
CONTINUOUS
 62
     7
100
AcDbPolyline
 90
        5
 70
   128
 43
0.0
 10
1078.4053701422
 20
1017.0970888185
 10
1070.8972636125
 20
1017.7040801691
 10
1063.3891645333
 20
1018.3112838613
 10
1055.8810952565
 20
1018.9186998951
 10
1052.4011153242
 20
1019.2003094899
  0
LINE
  5
E1
330
1F
100
AcDbEntity
  8
0
  6
CONTINUOUS
 62
     7
100
AcDbLine
 10
886.4733848235
 20
993.2856274145
 30
0.0
 11
1080.4886046311
 21
993.2856274145
 31
0.0
  0
LINE
  5
E2
330
1F
100
AcDbEntity
  8
0
  6
CONTINUOUS
 62
     7
100
AcDbLine
 10
888.5566193125
 20
1017.0970888185
 30
0.0
 11
886.4733848235
 21
993.2856274145
 31
0.0
  0
LWPOLYLINE
  5
E3
330
1F
100
AcDbEntity
  8
0
  6
CONTINUOUS
 62
     7
100
AcDbPolyline
 90
        5
 70
   128
 43
0.0
 10
914.5608741304
 20
1019.2003094899
 10
911.0808941981
 20
1018.9186998951
 10
903.5728249213
 20
1018.3112838613
 10
896.0647258422
 20
1017.7040801691
 10
888.5566193125
 20
1017.0970888185
  0
LINE
  5
E4
330
1F
100
AcDbEntity
  8
0
  6
CONTINUOUS
 62
     7
100
AcDbLine
 10
1052.4011153242
 20
1019.2003094899
 30
0.0
 11
914.5608741304
 21
1019.2003094899
 31
0.0
  0
LINE
  5
E5
330
1F
100
AcDbEntity
  8
0
  6
CONTINUOUS
 62
     7
100
AcDbLine
 10
884.4809952638
 20
993.2856274145
 30
0.0
 11
886.5642297527
 21
1017.0970888185
 31
0.0
  0
ARC
  5
E6
330
1F
100
AcDbEntity
  8
0
  6
CONTINUOUS
 62
     7
100
AcDbCircle
 10
887.5604245326
 20
1011.3314511426
 30
0.0
 40
5.851066727469452
100
AcDbArc
 50
80.1971415762
 51
99.8028584238
  0
LINE
  5
E7
330
1F
100
AcDbEntity
  8
0
  6
CONTINUOUS
 62
     7
100
AcDbLine
 10
886.4733848235
 20
993.2856274145
 30
0.0
 11
884.4809952638
 21
993.2856274145
 31
0.0
  0
ARC
  5
E8
330
1F
100
AcDbEntity
  8
0
  6
CONTINUOUS
 62
     7
100
AcDbCircle
 10
813.0392757565
 20
1011.3665250694
 30
0.0
 40
75.73446070736092
100
AcDbArc
 50
4.3395204176
 51
5.7163948335
  0
ARC
  5
E9
330
1F
100
AcDbEntity
  8
0
  6
CONTINUOUS
 62
     7
100
AcDbCircle
 10
888.5517928871
 20
1016.9206402707
 30
0.0
 40
1.995379989714519
100
AcDbArc
 50
94.4458493079
 51
174.926791165
  0
LINE
  5
EA
330
1F
100
AcDbEntity
  8
0
  6
CONTINUOUS
 62
     7
100
AcDbLine
 10
1052.4809929988
 20
1021.0183871287
 30
0.0
 11
1052.4809929988
 21
1021.0184839862
 31
0.0
  0
LWPOLYLINE
  5
EB
330
1F
100
AcDbEntity
  8
0
  6
CONTINUOUS
 62
     7
100
AcDbPolyline
 90
        4
 70
   128
 43
0.0
 10
1052.4809929988
 20
1021.0184839862
 10
1056.4678955337
 20
1020.6960470724
 10
1064.4417006037
 20
1020.0513427454
 10
1078.5648721716
 20
1018.9100162434
  0
ARC
  5
EC
330
1F
100
AcDbEntity
  8
0
  6
CONTINUOUS
 62
     7
100
AcDbCircle
 10
1153.9227136994
 20
1011.3665250693
 30
0.0
 40
75.73446070861483
100
AcDbArc
 50
174.2836051665
 51
175.6604795824
  0
SPLINE
  5
ED
330
1F
100
AcDbEntity
  8
0
  6
CONTINUOUS
 62
     7
100
AcDbSpline
210
0.0
220
0.0
230
1.0
 70
     8
 71
     3
 72
    16
 73
    12
 74
     0
 42
0.00000001
 43
0.00000001
 12
1.0
 22
0.0
 32
0.0
 13
1.0
 23
0.0
 33
0.0
 40
0.0
 40
0.0
 40
0.0
 40
0.0
 40
0.2500000000000031
 40
0.2500000000000031
 40
0.5000000000000062
 40
0.5000000000000062
 40
0.7500000000000093
 40
0.7500000000000093
 40
0.8750000000000047
 40
0.8750000000000047
 40
1.0
 40
1.0
 40
1.0
 40
1.0
 10
1052.480990772696
 20
1021.018386585378
 30
0.0
 10
1052.479334690879
 20
1020.997889610839
 30
0.0
 10
1052.476101329079
 20
1020.937517606014
 30
0.0
 10
1052.466578332576
 20
1020.738995120205
 30
0.0
 10
1052.460484018959
 20
1020.604864241494
 30
0.0
 10
1052.44592670337
 20
1020.273468719982
 30
0.0
 10
1052.437690597613
 20
1020.08133378066
 30
0.0
 10
1052.424335099969
 20
1019.763665123678
 30
0.0
 10
1052.419800630593
 20
1019.654868818649
 30
0.0
 10
1052.410571642114
 20
1019.431646441438
 30
0.0
 10
1052.405815220346
 20
1019.315697482747
 30
0.0
 10
1052.401118056976
 20
1019.200308674691
 30
0.0
  0
ARC
  5
EE
330
1F
100
AcDbEntity
  8
0
  6
CONTINUOUS
 62
     7
100
AcDbCircle
 10
1078.4101965675
 20
1016.9206402707
 30
0.0
 40
1.9953799897149
100
AcDbArc
 50
5.073208835
 51
85.5541506921
  0
LWPOLYLINE
  5
EF
330
1F
100
AcDbEntity
  8
0
  6
CONTINUOUS
 62
     7
100
AcDbPolyline
 90
        4
 70
   128
 43
0.0
 10
888.397117283
 20
1018.9100162434
 10
892.3840421698
 20
1019.2321365076
 10
900.357877042
 20
1019.8765465366
 10
914.4809964559
 20
1021.0184839862
  0
LINE
  5
F0
330
1F
100
AcDbEntity
  8
0
  6
CONTINUOUS
 62
     7
100
AcDbLine
 10
914.4809964559
 20
1021.0184839862
 30
0.0
 11
914.4809964559
 21
1021.0183871287
 31
0.0
  0
SPLINE
  5
F1
330
1F
100
AcDbEntity
  8
0
  6
CONTINUOUS
 62
     7
100
AcDbSpline
210
0.0
220
0.0
230
1.0
 70
     8
 71
     3
 72
    16
 73
    12
 74
     0
 42
0.00000001
 43
0.00000001
 12
1.0
 22
0.0
 32
0.0
 13
1.0
 23
0.0
 33
0.0
 40
0.0
 40
0.0
 40
0.0
 40
0.0
 40
0.249999999999996
 40
0.249999999999996
 40
0.499999999999992
 40
0.499999999999992
 40
0.749999999999988
 40
0.749999999999988
 40
0.874999999999994
 40
0.874999999999994
 40
1.0
 40
1.0
 40
1.0
 40
1.0
 10
914.4809986819348
 20
1021.018386585378
 30
0.0
 10
914.4826547637517
 20
1020.997889610839
 30
0.0
 10
914.4858881255516
 20
1020.937517606014
 30
0.0
 10
914.4954111220547
 20
1020.738995120205
 30
0.0
 10
914.5015054356711
 20
1020.604864241494
 30
0.0
 10
914.5160627512597
 20
1020.273468719982
 30
0.0
 10
914.5242988570167
 20
1020.081333780659
 30
0.0
 10
914.5376543546604
 20
1019.763665123678
 30
0.0
 10
914.5421888240418
 20
1019.654868818649
 30
0.0
 10
914.5514178125215
 20
1019.431646441438
 30
0.0
 10
914.5561742344539
 20
1019.315697482754
 30
0.0
 10
914.5608713976554
 20
1019.200308674691
 30
0.0
  0
LINE
  5
F2
330
1F
100
AcDbEntity
  8
0
  6
CONTINUOUS
 62
     7
100
AcDbLine
 10
914.4809964559
 20
1021.0183871287
 30
0.0
 11
1052.4809929988
 21
1021.0183871287
 31
0.0
  0
LINE
  5
F3
330
1F
100
AcDbEntity
  8
0
  6
CONTINUOUS
 62
     7
100
AcDbLine
 10
1052.4809929988
 20
1023.285626744
 30
0.0
 11
1052.4809929988
 21
1021.0184839862
 31
0.0
  0
LINE
  5
F4
330
1F
100
AcDbEntity
  8
0
  6
CONTINUOUS
 62
     7
100
AcDbLine
 10
1052.4809929988
 20
1023.285626744
 30
0.0
 11
1078.3945593497
 21
1021.0184839862
 31
0.0
  0
LWPOLYLINE
  5
F5
330
1F
100
AcDbEntity
  8
0
  6
CONTINUOUS
 62
     7
100
AcDbPolyline
 90
        4
 70
   128
 43
0.0
 10
1078.5648721716
 20
1018.9100162434
 10
1078.5388547441
 20
1019.2321365076
 10
1078.4868049881
 20
1019.8765465366
 10
1078.3945593497
 20
1021.0184839862
  0
LWPOLYLINE
  5
F6
330
1F
100
AcDbEntity
  8
0
  6
CONTINUOUS
 62
     7
100
AcDbPolyline
 90
        4
 70
   128
 43
0.0
 10
888.5674301049
 20
1021.0184839862
 10
888.5413828751
 20
1020.6960470724
 10
888.4893033168
 20
1020.0513427454
 10
888.397117283
 20
1018.9100162434
  0
LINE
  5
F7
330
1F
100
AcDbEntity
  8
0
  6
CONTINUOUS
 62
     7
100
AcDbLine
 10
914.4809964559
 20
1023.285626744
 30
0.0
 11
888.5674301049
 21
1021.0184839862
 31
0.0
  0
LINE
  5
F8
330
1F
100
AcDbEntity
  8
0
  6
CONTINUOUS
 62
     7
100
AcDbLine
 10
914.4809964559
 20
1023.285626744
 30
0.0
 11
914.4809964559
 21
1021.0184839862
 31
0.0
  0
LINE
  5
F9
330
1F
100
AcDbEntity
  8
0
  6
CONTINUOUS
 62
     7
100
AcDbLine
 10
1078.3945593497
 20
1021.0184839862
 30
0.0
 11
1078.3956769368
 21
1021.0183871287
 31
0.0
  0
SPLINE
  5
FA
330
1F
100
AcDbEntity
  8
0
  6
CONTINUOUS
 62
     7
100
AcDbSpline
210
0.0
220
0.0
230
1.0
 70
     8
 71
     3
 72
    16
 73
    12
 74
     0
 42
0.00000001
 43
0.00000001
 12
1.0
 22
0.0
 32
0.0
 13
1.0
 23
0.0
 33
0.0
 40
0.0
 40
0.0
 40
0.0
 40
0.0
 40
0.2499999999999993
 40
0.2499999999999993
 40
0.4999999999999987
 40
0.4999999999999987
 40
0.749999999999998
 40
0.749999999999998
 40
0.874999999999999
 40
0.874999999999999
 40
1.0
 40
1.0
 40
1.0
 40
1.0
 10
1078.395675987475
 20
1021.018386585378
 30
0.0
 10
1078.629957478501
 20
1020.997889610839
 30
0.0
 10
1078.854732506109
 20
1020.937517606014
 30
0.0
 10
1079.279997309391
 20
1020.738995120205
 30
0.0
 10
1079.471168239348
 20
1020.604864241493
 30
0.0
 10
1079.802074889955
 20
1020.273468719981
 30
0.0
 10
1079.936246533015
 20
1020.081333780658
 30
0.0
 10
1080.084019849555
 20
1019.763665123676
 30
0.0
 10
1080.123434561028
 20
1019.654868818648
 30
0.0
 10
1080.183200050648
 20
1019.431646441436
 30
0.0
 10
1080.203658685561
 20
1019.315697482746
 30
0.0
 10
1080.213753898164
 20
1019.200308674689
 30
0.0
  0
LWPOLYLINE
  5
FB
330
1F
100
AcDbEntity
  8
0
  6
CONTINUOUS
 62
     7
100
AcDbPolyline
 90
        5
 70
   128
 43
0.0
 10
1080.2137527129
 20
1019.2003094899
 10
1080.2383917829
 20
1018.9186998951
 10
1080.2915367743
 20
1018.3112838613
 10
1080.344659414
 20
1017.7040801691
 10
1080.3977597019
 20
1017.0970888185
  0
LINE
  5
FC
330
1F
100
AcDbEntity
  8
0
  6
CONTINUOUS
 62
     7
100
AcDbLine
 10
888.5674301049
 20
1021.0184839862
 30
0.0
 11
888.5663125178
 21
1021.0183871287
 31
0.0
  0
SPLINE
  5
FD
330
1F
100
AcDbEntity
  8
0
  6
CONTINUOUS
 62
     7
100
AcDbSpline
210
0.0
220
0.0
230
1.0
 70
     8
 71
     3
 72
    16
 73
    12
 74
     0
 42
0.00000001
 43
0.00000001
 12
1.0
 22
0.0
 32
0.0
 13
1.0
 23
0.0
 33
0.0
 40
0.0
 40
0.0
 40
0.0
 40
0.0
 40
0.2500000000000006
 40
0.2500000000000006
 40
0.5000000000000011
 40
0.5000000000000011
 40
0.7500000000000017
 40
0.7500000000000017
 40
0.8750000000000008
 40
0.8750000000000008
 40
1.0
 40
1.0
 40
1.0
 40
1.0
 10
888.5663134671554
 20
1021.018386585378
 30
0.0
 10
888.3320319761301
 20
1020.997889610839
 30
0.0
 10
888.1072569485224
 20
1020.937517606014
 30
0.0
 10
887.6819921452404
 20
1020.738995120205
 30
0.0
 10
887.4908212152832
 20
1020.604864241494
 30
0.0
 10
887.1599145646759
 20
1020.273468719981
 30
0.0
 10
887.0257429216159
 20
1020.081333780658
 30
0.0
 10
886.877969605076
 20
1019.763665123677
 30
0.0
 10
886.8385548936026
 20
1019.654868818648
 30
0.0
 10
886.7787894039833
 20
1019.431646441437
 30
0.0
 10
886.7583307690699
 20
1019.315697482746
 30
0.0
 10
886.7482355564671
 20
1019.200308674689
 30
0.0
  0
LWPOLYLINE
  5
FE
330
1F
100
AcDbEntity
  8
0
  6
CONTINUOUS
 62
     7
100
AcDbPolyline
 90
        5
 70
   128
 43
0.0
 10
886.5642297527
 20
1017.0970888185
 10
886.6173300406
 20
1017.7040801691
 10
886.6704526803
 20
1018.3112838613
 10
886.7235976717
 20
1018.9186998951
 10
886.7482367417
 20
1019.2003094899
  0
LINE
  5
FF
330
1F
100
AcDbEntity
  8
0
  6
CONTINUOUS
 62
     7
100
AcDbLine
 10
1052.4809929988
 20
1023.285626744
 30
0.0
 11
914.4809964559
 21
1023.285626744
 31
0.0
  0
LWPOLYLINE
  5
100
330
1F
100
AcDbEntity
  8
0
  6
CONTINUOUS
 62
     7
100
AcDbPolyline
 90
        5
 70
   128
 43
0.0
 10
888.5566193125
 20
502.9901334474
 10
896.0647258422
 20
502.3831420968
 10
903.5728249213
 20
501.7759384046
 10
911.0808941981
 20
501.1685223709
 10
914.5608741304
 20
500.886912776
  0
LINE
  5
101
330
1F
100
AcDbEntity
  8
0
  6
CONTINUOUS
 62
     7
100
AcDbLine
 10
886.4733848235
 20
526.8015948514
 30
0.0
 11
888.5566193125
 21
502.9901334474
 31
0.0
  0
LINE
  5
102
330
1F
100
AcDbEntity
  8
0
  6
CONTINUOUS
 62
     7
100
AcDbLine
 10
886.4733848235
 20
526.8015948514
 30
0.0
 11
1080.4886046311
 21
526.8015948514
 31
0.0
  0
LINE
  5
103
330
1F
100
AcDbEntity
  8
0
  6
CONTINUOUS
 62
     7
100
AcDbLine
 10
1078.4053701422
 20
502.9901334474
 30
0.0
 11
1080.4886046311
 21
526.8015948514
 31
0.0
  0
LWPOLYLINE
  5
104
330
1F
100
AcDbEntity
  8
0
  6
CONTINUOUS
 62
     7
100
AcDbPolyline
 90
        5
 70
   128
 43
0.0
 10
1052.4011153242
 20
500.886912776
 10
1055.8810952565
 20
501.1685223709
 10
1063.3891645333
 20
501.7759384046
 10
1070.8972636125
 20
502.3831420968
 10
1078.4053701422
 20
502.9901334474
  0
LINE
  5
105
330
1F
100
AcDbEntity
  8
0
  6
CONTINUOUS
 62
     7
100
AcDbLine
 10
914.5608741304
 20
500.886912776
 30
0.0
 11
1052.4011153242
 21
500.886912776
 31
0.0
  0
LINE
  5
106
330
1F
100
AcDbEntity
  8
0
  6
CONTINUOUS
 62
     7
100
AcDbLine
 10
1080.4886046311
 20
526.8015948514
 30
0.0
 11
1082.4809941909
 21
526.8015948514
 31
0.0
  0
LINE
  5
107
330
1F
100
AcDbEntity
  8
0
  6
CONTINUOUS
 62
     7
100
AcDbLine
 10
1082.4809941909
 20
526.8015948514
 30
0.0
 11
1080.3977597019
 21
502.9901334474
 31
0.0
  0
ARC
  5
108
330
1F
100
AcDbEntity
  8
0
  6
CONTINUOUS
 62
     7
100
AcDbCircle
 10
1079.401564922
 20
508.7557711234
 30
0.0
 40
5.851066727473617
100
AcDbArc
 50
260.1971415762
 51
279.8028584238
  0
ARC
  5
109
330
1F
100
AcDbEntity
  8
0
  6
CONTINUOUS
 62
     7
100
AcDbCircle
 10
887.5604245326
 20
508.7557711234
 30
0.0
 40
5.851066727473429
100
AcDbArc
 50
260.1971415762
 51
279.8028584238
  0
LINE
  5
10A
330
1F
100
AcDbEntity
  8
0
  6
CONTINUOUS
 62
     7
100
AcDbLine
 10
886.5642297527
 20
502.9901334474
 30
0.0
 11
884.4809952638
 21
526.8015948514
 31
0.0
  0
LINE
  5
10B
330
1F
100
AcDbEntity
  8
0
  6
CONTINUOUS
 62
     7
100
AcDbLine
 10
884.4809952638
 20
526.8015948514
 30
0.0
 11
886.4733848235
 21
526.8015948514
 31
0.0
  0
ARC
  5
10C
330
1F
100
AcDbEntity
  8
0
  6
CONTINUOUS
 62
     7
100
AcDbCircle
 10
813.0392757565
 20
508.7206971965
 30
0.0
 40
75.73446070734862
100
AcDbArc
 50
354.2836051665
 51
355.6604795824
  0
ARC
  5
10D
330
1F
100
AcDbEntity
  8
0
  6
CONTINUOUS
 62
     7
100
AcDbCircle
 10
888.5517928871
 20
503.1665819953
 30
0.0
 40
1.995379989714462
100
AcDbArc
 50
185.073208835
 51
265.5541506921
  0
LINE
  5
10E
330
1F
100
AcDbEntity
  8
0
  6
CONTINUOUS
 62
     7
100
AcDbLine
 10
914.4809964559
 20
499.0688351373
 30
0.0
 11
914.4809964559
 21
499.0687382797
 31
0.0
  0
LWPOLYLINE
  5
10F
330
1F
100
AcDbEntity
  8
0
  6
CONTINUOUS
 62
     7
100
AcDbPolyline
 90
        4
 70
   128
 43
0.0
 10
914.4809964559
 20
499.0687382797
 10
910.4940939209
 20
499.3911751936
 10
902.520288851
 20
500.0358795206
 10
888.397117283
 20
501.1772060225
  0
SPLINE
  5
110
330
1F
100
AcDbEntity
  8
0
  6
CONTINUOUS
 62
     7
100
AcDbSpline
210
0.0
220
0.0
230
1.0
 70
     8
 71
     3
 72
    16
 73
    12
 74
     0
 42
0.00000001
 43
0.00000001
 12
1.0
 22
0.0
 32
0.0
 13
1.0
 23
0.0
 33
0.0
 40
0.0
 40
0.0
 40
0.0
 40
0.0
 40
0.249999999999997
 40
0.249999999999997
 40
0.499999999999994
 40
0.499999999999994
 40
0.749999999999991
 40
0.749999999999991
 40
0.8749999999999954
 40
0.8749999999999954
 40
1.0
 40
1.0
 40
1.0
 40
1.0
 10
914.4809986819347
 20
499.0688356805649
 30
0.0
 10
914.4826547637516
 20
499.0893326551035
 30
0.0
 10
914.4858881255516
 20
499.1497046599289
 30
0.0
 10
914.4954111220546
 20
499.3482271457373
 30
0.0
 10
914.5015054356713
 20
499.4823580244478
 30
0.0
 10
914.5160627512596
 20
499.8137535459596
 30
0.0
 10
914.5242988570154
 20
500.0058884852809
 30
0.0
 10
914.5376543546583
 20
500.3235571422625
 30
0.0
 10
914.542188824042
 20
500.4323534472913
 30
0.0
 10
914.5514178125217
 20
500.6555758245045
 30
0.0
 10
914.5561742343657
 20
500.771524783193
 30
0.0
 10
914.5608713976552
 20
500.8869135912522
 30
0.0
  0
ARC
  5
111
330
1F
100
AcDbEntity
  8
0
  6
CONTINUOUS
 62
     7
100
AcDbCircle
 10
1078.4101965675
 20
503.1665819953
 30
0.0
 40
1.995379989714746
100
AcDbArc
 50
274.4458493079
 51
354.926791165
  0
ARC
  5
112
330
1F
100
AcDbEntity
  8
0
  6
CONTINUOUS
 62
     7
100
AcDbCircle
 10
1153.9227136994
 20
508.7206971966
 30
0.0
 40
75.73446070860253
100
AcDbArc
 50
184.3395204176
 51
185.7163948335
  0
LWPOLYLINE
  5
113
330
1F
100
AcDbEntity
  8
0
  6
CONTINUOUS
 62
     7
100
AcDbPolyline
 90
        4
 70
   128
 43
0.0
 10
1078.5648721716
 20
501.1772060225
 10
1074.5779472849
 20
500.8550857584
 10
1066.6041124126
 20
500.2106757293
 10
1052.4809929988
 20
499.0687382797
  0
LINE
  5
114
330
1F
100
AcDbEntity
  8
0
  6
CONTINUOUS
 62
     7
100
AcDbLine
 10
1052.4809929988
 20
499.0687382797
 30
0.0
 11
1052.4809929988
 21
499.0688351373
 31
0.0
  0
SPLINE
  5
115
330
1F
100
AcDbEntity
  8
0
  6
CONTINUOUS
 62
     7
100
AcDbSpline
210
0.0
220
0.0
230
1.0
 70
     8
 71
     3
 72
    16
 73
    12
 74
     0
 42
0.00000001
 43
0.00000001
 12
1.0
 22
0.0
 32
0.0
 13
1.0
 23
0.0
 33
0.0
 40
0.0
 40
0.0
 40
0.0
 40
0.0
 40
0.250000000000001
 40
0.250000000000001
 40
0.500000000000002
 40
0.500000000000002
 40
0.750000000000003
 40
0.750000000000003
 40
0.8750000000000014
 40
0.8750000000000014
 40
1.0
 40
1.0
 40
1.0
 40
1.0
 10
1052.480990772696
 20
499.0688356805649
 30
0.0
 10
1052.479334690879
 20
499.0893326551035
 30
0.0
 10
1052.476101329079
 20
499.1497046599288
 30
0.0
 10
1052.466578332576
 20
499.3482271457372
 30
0.0
 10
1052.46048401896
 20
499.4823580244476
 30
0.0
 10
1052.445926703371
 20
499.8137535459594
 30
0.0
 10
1052.437690597613
 20
500.0058884852805
 30
0.0
 10
1052.424335099969
 20
500.323557142262
 30
0.0
 10
1052.419800630592
 20
500.4323534472911
 30
0.0
 10
1052.410571642114
 20
500.6555758245042
 30
0.0
 10
1052.405815220321
 20
500.7715247831948
 30
0.0
 10
1052.401118056976
 20
500.8869135912517
 30
0.0
  0
LINE
  5
116
330
1F
100
AcDbEntity
  8
0
  6
CONTINUOUS
 62
     7
100
AcDbLine
 10
1052.4809929988
 20
499.0688351373
 30
0.0
 11
914.4809964559
 21
499.0688351373
 31
0.0
  0
LINE
  5
117
330
1F
100
AcDbEntity
  8
0
  6
CONTINUOUS
 62
     7
100
AcDbLine
 10
914.4809964559
 20
496.801595522
 30
0.0
 11
914.4809964559
 21
499.0687382797
 31
0.0
  0
LINE
  5
118
330
1F
100
AcDbEntity
  8
0
  6
CONTINUOUS
 62
     7
100
AcDbLine
 10
914.4809964559
 20
496.801595522
 30
0.0
 11
888.5674301049
 21
499.0687382797
 31
0.0
  0
LWPOLYLINE
  5
119
330
1F
100
AcDbEntity
  8
0
  6
CONTINUOUS
 62
     7
100
AcDbPolyline
 90
        4
 70
   128
 43
0.0
 10
888.397117283
 20
501.1772060225
 10
888.4231347105
 20
500.8550857584
 10
888.4751844665
 20
500.2106757293
 10
888.5674301049
 20
499.0687382797
  0
LWPOLYLINE
  5
11A
330
1F
100
AcDbEntity
  8
0
  6
CONTINUOUS
 62
     7
100
AcDbPolyline
 90
        4
 70
   128
 43
0.0
 10
1078.3945593497
 20
499.0687382797
 10
1078.4206065795
 20
499.3911751936
 10
1078.4726861379
 20
500.0358795206
 10
1078.5648721716
 20
501.1772060225
  0
LINE
  5
11B
330
1F
100
AcDbEntity
  8
0
  6
CONTINUOUS
 62
     7
100
AcDbLine
 10
1052.4809929988
 20
496.801595522
 30
0.0
 11
1078.3945593497
 21
499.0687382797
 31
0.0
  0
LINE
  5
11C
330
1F
100
AcDbEntity
  8
0
  6
CONTINUOUS
 62
     7
100
AcDbLine
 10
1052.4809929988
 20
496.801595522
 30
0.0
 11
1052.4809929988
 21
499.0687382797
 31
0.0
  0
LINE
  5
11D
330
1F
100
AcDbEntity
  8
0
  6
CONTINUOUS
 62
     7
100
AcDbLine
 10
888.5674301049
 20
499.0687382797
 30
0.0
 11
888.5663125178
 21
499.0688351373
 31
0.0
  0
SPLINE
  5
11E
330
1F
100
AcDbEntity
  8
0
  6
CONTINUOUS
 62
     7
100
AcDbSpline
210
0.0
220
0.0
230
1.0
 70
     8
 71
     3
 72
    16
 73
    12
 74
     0
 42
0.00000001
 43
0.00000001
 12
1.0
 22
0.0
 32
0.0
 13
1.0
 23
0.0
 33
0.0
 40
0.0
 40
0.0
 40
0.0
 40
0.0
 40
0.2499999999999999
 40
0.2499999999999999
 40
0.4999999999999998
 40
0.4999999999999998
 40
0.7499999999999997
 40
0.7499999999999997
 40
0.8749999999999998
 40
0.8749999999999998
 40
1.0
 40
1.0
 40
1.0
 40
1.0
 10
888.5663134671554
 20
499.0688356805649
 30
0.0
 10
888.3320319761302
 20
499.0893326551035
 30
0.0
 10
888.1072569485224
 20
499.1497046599291
 30
0.0
 10
887.6819921452404
 20
499.3482271457382
 30
0.0
 10
887.4908212152832
 20
499.4823580244491
 30
0.0
 10
887.1599145646761
 20
499.8137535459618
 30
0.0
 10
887.025742921616
 20
500.0058884852841
 30
0.0
 10
886.877969605076
 20
500.3235571422658
 30
0.0
 10
886.8385548936026
 20
500.4323534472945
 30
0.0
 10
886.7787894039834
 20
500.6555758245058
 30
0.0
 10
886.7583307690697
 20
500.7715247831976
 30
0.0
 10
886.7482355564671
 20
500.8869135912532
 30
0.0
  0
LWPOLYLINE
  5
11F
330
1F
100
AcDbEntity
  8
0
  6
CONTINUOUS
 62
     7
100
AcDbPolyline
 90
        5
 70
   128
 43
0.0
 10
886.7482367417
 20
500.886912776
 10
886.7235976717
 20
501.1685223709
 10
886.6704526803
 20
501.7759384046
 10
886.6173300406
 20
502.3831420968
 10
886.5642297527
 20
502.9901334474
  0
LINE
  5
120
330
1F
100
AcDbEntity
  8
0
  6
CONTINUOUS
 62
     7
100
AcDbLine
 10
1078.3945593497
 20
499.0687382797
 30
0.0
 11
1078.3956769368
 21
499.0688351373
 31
0.0
  0
SPLINE
  5
121
330
1F
100
AcDbEntity
  8
0
  6
CONTINUOUS
 62
     7
100
AcDbSpline
210
0.0
220
0.0
230
1.0
 70
     8
 71
     3
 72
    16
 73
    12
 74
     0
 42
0.00000001
 43
0.00000001
 12
1.0
 22
0.0
 32
0.0
 13
1.0
 23
0.0
 33
0.0
 40
0.0
 40
0.0
 40
0.0
 40
0.0
 40
0.250000000000001
 40
0.250000000000001
 40
0.500000000000002
 40
0.500000000000002
 40
0.750000000000003
 40
0.750000000000003
 40
0.8750000000000014
 40
0.8750000000000014
 40
1.0
 40
1.0
 40
1.0
 40
1.0
 10
1078.395675987475
 20
499.0688356805649
 30
0.0
 10
1078.629957478501
 20
499.0893326551036
 30
0.0
 10
1078.854732506109
 20
499.1497046599291
 30
0.0
 10
1079.279997309391
 20
499.3482271457383
 30
0.0
 10
1079.471168239348
 20
499.4823580244492
 30
0.0
 10
1079.802074889955
 20
499.8137535459621
 30
0.0
 10
1079.936246533015
 20
500.0058884852844
 30
0.0
 10
1080.084019849555
 20
500.3235571422662
 30
0.0
 10
1080.123434561028
 20
500.4323534472949
 30
0.0
 10
1080.183200050648
 20
500.6555758245063
 30
0.0
 10
1080.203658685561
 20
500.7715247831984
 30
0.0
 10
1080.213753898164
 20
500.8869135912538
 30
0.0
  0
LWPOLYLINE
  5
122
330
1F
100
AcDbEntity
  8
0
  6
CONTINUOUS
 62
     7
100
AcDbPolyline
 90
        5
 70
   128
 43
0.0
 10
1080.3977597019
 20
502.9901334474
 10
1080.344659414
 20
502.3831420968
 10
1080.2915367743
 20
501.7759384046
 10
1080.2383917829
 20
501.1685223709
 10
1080.2137527129
 20
500.886912776
  0
LINE
  5
123
330
1F
100
AcDbEntity
  8
0
  6
CONTINUOUS
 62
     7
100
AcDbLine
 10
1052.4809929988
 20
496.801595522
 30
0.0
 11
914.4809964559
 21
496.801595522
 31
0.0
  0
LINE
  5
124
330
1F
100
AcDbEntity
  8
0
  6
CONTINUOUS
 62
     7
100
AcDbLine
 10
1207.0740248857
 20
624.2013155488
 30
0.0
 11
1207.0740248857
 21
626.1937051085
 31
0.0
  0
LINE
  5
125
330
1F
100
AcDbEntity
  8
0
  6
CONTINUOUS
 62
     7
100
AcDbLine
 10
1207.0740248857
 20
626.1937051085
 30
0.0
 11
1230.8854862897
 21
628.2769470481
 31
0.0
  0
ARC
  5
126
330
1F
100
AcDbEntity
  8
0
  6
CONTINUOUS
 62
     7
100
AcDbCircle
 10
1225.1198770012
 20
627.2807522682
 30
0.0
 40
5.851038754521512
100
AcDbArc
 50
350.1970942474
 51
9.8029057526
  0
LINE
  5
127
330
1F
100
AcDbEntity
  8
0
  6
CONTINUOUS
 62
     7
100
AcDbLine
 10
1230.8854862897
 20
626.2845574883
 30
0.0
 11
1207.0740248857
 21
624.2013155488
 31
0.0
  0
LINE
  5
128
330
1F
100
AcDbEntity
  8
0
  6
CONTINUOUS
 62
     7
100
AcDbLine
 10
1207.0740248857
 20
920.2089338569
 30
0.0
 11
1207.0740248857
 21
922.2013234166
 31
0.0
  0
LINE
  5
129
330
1F
100
AcDbEntity
  8
0
  6
CONTINUOUS
 62
     7
100
AcDbLine
 10
1207.0740248857
 20
922.2013234166
 30
0.0
 11
1230.8854862897
 21
920.1180814771
 31
0.0
  0
ARC
  5
12A
330
1F
100
AcDbEntity
  8
0
  6
CONTINUOUS
 62
     7
100
AcDbCircle
 10
1225.1198770012
 20
919.1218866972
 30
0.0
 40
5.851038754521512
100
AcDbArc
 50
350.1970942474
 51
9.8029057526
  0
LINE
  5
12B
330
1F
100
AcDbEntity
  8
0
  6
CONTINUOUS
 62
     7
100
AcDbLine
 10
1230.8854862897
 20
918.1256919173
 30
0.0
 11
1207.0740248857
 21
920.2089338569
 31
0.0
  0
LWPOLYLINE
  5
12C
330
1F
100
AcDbEntity
  8
0
  6
CONTINUOUS
 62
     7
100
AcDbPolyline
 90
        5
 70
   128
 43
0.0
 10
1230.8854862897
 20
628.2769470481
 10
1231.4924776404
 20
635.7850461272
 10
1232.0996813326
 20
643.2931452063
 10
1232.7070973663
 20
650.8012219337
 10
1232.9887069611
 20
654.2811944155
  0
LINE
  5
12D
330
1F
100
AcDbEntity
  8
0
  6
CONTINUOUS
 62
     7
100
AcDbLine
 10
1221.0740253179
 20
682.2013213304
 30
0.0
 11
1207.0740248857
 21
682.2013213304
 31
0.0
  0
LINE
  5
12E
330
1F
100
AcDbEntity
  8
0
  6
CONTINUOUS
 62
     7
100
AcDbLine
 10
1221.0740253179
 20
682.2013213304
 30
0.0
 11
1221.0740253179
 21
734.201318678
 31
0.0
  0
LINE
  5
12F
330
1F
100
AcDbEntity
  8
0
  6
CONTINUOUS
 62
     7
100
AcDbLine
 10
1207.0740248857
 20
734.201318678
 30
0.0
 11
1221.0740253179
 21
734.201318678
 31
0.0
  0
LINE
  5
130
330
1F
100
AcDbEntity
  8
0
  6
CONTINUOUS
 62
     7
100
AcDbLine
 10
1221.0740253179
 20
812.2013202874
 30
0.0
 11
1221.0740253179
 21
864.201317635
 31
0.0
  0
LWPOLYLINE
  5
131
330
1F
100
AcDbEntity
  8
0
  6
CONTINUOUS
 62
     7
100
AcDbPolyline
 90
        5
 70
   128
 43
0.0
 10
1232.9887069611
 20
892.1214445499
 10
1232.7070973663
 20
895.6014170317
 10
1232.0996813326
 20
903.1094937591
 10
1231.4924776404
 20
910.6175928382
 10
1230.8854862897
 20
918.1256919173
  0
LINE
  5
132
330
1F
100
AcDbEntity
  8
0
  6
CONTINUOUS
 62
     7
100
AcDbLine
 10
1232.9887069611
 20
654.2811944155
 30
0.0
 11
1232.9887069611
 21
892.1214445499
 31
0.0
  0
LINE
  5
133
330
1F
100
AcDbEntity
  8
0
  6
CONTINUOUS
 62
     7
100
AcDbLine
 10
1221.0740253179
 20
812.2013202874
 30
0.0
 11
1207.0740248857
 21
812.2013202874
 31
0.0
  0
LINE
  5
134
330
1F
100
AcDbEntity
  8
0
  6
CONTINUOUS
 62
     7
100
AcDbLine
 10
1207.0740248857
 20
864.201317635
 30
0.0
 11
1221.0740253179
 21
864.201317635
 31
0.0
  0
LINE
  5
135
330
1F
100
AcDbEntity
  8
0
  6
CONTINUOUS
 62
     7
100
AcDbLine
 10
1207.0740248857
 20
734.201318678
 30
0.0
 11
1207.0740248857
 21
812.2013202874
 31
0.0
  0
LINE
  5
136
330
1F
100
AcDbEntity
  8
0
  6
CONTINUOUS
 62
     7
100
AcDbLine
 10
1207.0740248857
 20
626.1937051085
 30
0.0
 11
1207.0740248857
 21
682.2013213304
 31
0.0
  0
LINE
  5
137
330
1F
100
AcDbEntity
  8
0
  6
CONTINUOUS
 62
     7
100
AcDbLine
 10
1207.0740248857
 20
864.201317635
 30
0.0
 11
1207.0740248857
 21
920.2089338569
 31
0.0
  0
LINE
  5
138
330
1F
100
AcDbEntity
  8
0
  6
CONTINUOUS
 62
     7
100
AcDbLine
 10
1234.8068814574
 20
654.2013167409
 30
0.0
 11
1234.8067845999
 21
654.2013167409
 31
0.0
  0
LWPOLYLINE
  5
139
330
1F
100
AcDbEntity
  8
0
  6
CONTINUOUS
 62
     7
100
AcDbPolyline
 90
        4
 70
   128
 43
0.0
 10
1234.8068814574
 20
654.2013167409
 10
1234.4844445436
 20
650.2144216565
 10
1233.8397402166
 20
642.2406165866
 10
1232.6984137146
 20
628.1174450187
  0
ARC
  5
13A
330
1F
100
AcDbEntity
  8
0
  6
CONTINUOUS
 62
     7
100
AcDbCircle
 10
1225.1446187483
 20
552.6424888207
 30
0.0
 40
75.85201929727185
100
AcDbArc
 50
84.2846721861
 51
85.6594125628
  0
SPLINE
  5
13B
330
1F
100
AcDbEntity
  8
0
  6
CONTINUOUS
 62
     7
100
AcDbSpline
210
0.0
220
0.0
230
1.0
 70
     8
 71
     3
 72
    16
 73
    12
 74
     0
 42
0.00000001
 43
0.00000001
 12
1.0
 22
0.0
 32
0.0
 13
1.0
 23
0.0
 33
0.0
 40
0.0
 40
0.0
 40
0.0
 40
0.0
 40
0.2500000000000006
 40
0.2500000000000006
 40
0.5000000000000011
 40
0.5000000000000011
 40
0.7500000000000017
 40
0.7500000000000017
 40
0.8750000000000008
 40
0.8750000000000008
 40
1.0
 40
1.0
 40
1.0
 40
1.0
 10
1234.806784056588
 20
654.2013234373193
 30
0.0
 10
1234.786287082049
 20
654.2029795191361
 30
0.0
 10
1234.725915077223
 20
654.206212880936
 30
0.0
 10
1234.527392591414
 20
654.2157358774392
 30
0.0
 10
1234.393261712703
 20
654.2218301910564
 30
0.0
 10
1234.061866191191
 20
654.2363875066449
 30
0.0
 10
1233.869731251868
 20
654.244623612402
 30
0.0
 10
1233.552062594886
 20
654.2579791100464
 30
0.0
 10
1233.443266289858
 20
654.2625135794236
 30
0.0
 10
1233.220043912646
 20
654.2717425679025
 30
0.0
 10
1233.104094953956
 20
654.2764989896963
 30
0.0
 10
1232.988706145899
 20
654.2811961530398
 30
0.0
  0
LWPOLYLINE
  5
13C
330
1F
100
AcDbEntity
  8
0
  6
CONTINUOUS
 62
     7
100
AcDbPolyline
 90
        4
 70
   128
 43
0.0
 10
1232.6984137146
 20
918.2851939467
 10
1233.0205339788
 20
914.29826906
 10
1233.6649440078
 20
906.3244341878
 10
1234.8068814574
 20
892.2013222245
  0
LINE
  5
13D
330
1F
100
AcDbEntity
  8
0
  6
CONTINUOUS
 62
     7
100
AcDbLine
 10
1234.8068814574
 20
892.2013222245
 30
0.0
 11
1234.8067845999
 21
892.2013222245
 31
0.0
  0
SPLINE
  5
13E
330
1F
100
AcDbEntity
  8
0
  6
CONTINUOUS
 62
     7
100
AcDbSpline
210
0.0
220
0.0
230
1.0
 70
     8
 71
     3
 72
    16
 73
    12
 74
     0
 42
0.00000001
 43
0.00000001
 12
1.0
 22
0.0
 32
0.0
 13
1.0
 23
0.0
 33
0.0
 40
0.0
 40
0.0
 40
0.0
 40
0.0
 40
0.2499999999999999
 40
0.2499999999999999
 40
0.4999999999999998
 40
0.4999999999999998
 40
0.7499999999999997
 40
0.7499999999999997
 40
0.8749999999999998
 40
0.8749999999999998
 40
1.0
 40
1.0
 40
1.0
 40
1.0
 10
1234.806784056588
 20
892.2013155280806
 30
0.0
 10
1234.786287082049
 20
892.1996594462636
 30
0.0
 10
1234.725915077223
 20
892.196426084464
 30
0.0
 10
1234.527392591414
 20
892.1869030879606
 30
0.0
 10
1234.393261712703
 20
892.1808087743434
 30
0.0
 10
1234.061866191191
 20
892.1662514587549
 30
0.0
 10
1233.869731251868
 20
892.1580153529982
 30
0.0
 10
1233.552062594887
 20
892.144659855354
 30
0.0
 10
1233.443266289858
 20
892.1401253859764
 30
0.0
 10
1233.220043912647
 20
892.1308963974975
 30
0.0
 10
1233.104094953955
 20
892.1261399757408
 30
0.0
 10
1232.988706145899
 20
892.1214428123601
 30
0.0
  0
ARC
  5
13F
330
1F
100
AcDbEntity
  8
0
  6
CONTINUOUS
 62
     7
100
AcDbCircle
 10
1225.1446187484
 20
993.7601501434
 30
0.0
 40
75.85201929601568
100
AcDbArc
 50
274.3405874372
 51
275.7153278139
  0
ARC
  5
140
330
1F
100
AcDbEntity
  8
0
  6
CONTINUOUS
 62
     7
100
AcDbCircle
 10
1230.7090380912
 20
628.2721202773
 30
0.0
 40
1.995379614709867
100
AcDbArc
 50
275.0731997223
 51
355.5541598048
  0
ARC
  5
141
330
1F
100
AcDbEntity
  8
0
  6
CONTINUOUS
 62
     7
100
AcDbCircle
 10
1230.7090380912
 20
918.1305186881
 30
0.0
 40
1.995379614710068
100
AcDbArc
 50
4.4458401952
 51
84.9268002777
  0
LINE
  5
142
330
1F
100
AcDbEntity
  8
0
  6
CONTINUOUS
 62
     7
100
AcDbLine
 10
1234.8067845999
 20
892.2013222245
 30
0.0
 11
1234.8067845999
 21
654.2013167409
 31
0.0
  0
LINE
  5
143
330
1F
100
AcDbEntity
  8
0
  6
CONTINUOUS
 62
     7
100
AcDbLine
 10
1234.8067845999
 20
918.1160061625
 30
0.0
 11
1234.8068814574
 21
918.1148885755
 31
0.0
  0
LWPOLYLINE
  5
144
330
1F
100
AcDbEntity
  8
0
  6
CONTINUOUS
 62
     7
100
AcDbPolyline
 90
        4
 70
   128
 43
0.0
 10
1234.8068814574
 20
918.1148885755
 10
1234.4844445436
 20
918.1409358052
 10
1233.8397402166
 20
918.1930153636
 10
1232.6984137146
 20
918.2851939467
  0
SPLINE
  5
145
330
1F
100
AcDbEntity
  8
0
  6
CONTINUOUS
 62
     7
100
AcDbSpline
210
0.0
220
0.0
230
1.0
 70
     8
 71
     3
 72
    16
 73
    12
 74
     0
 42
0.00000001
 43
0.00000001
 12
1.0
 22
0.0
 32
0.0
 13
1.0
 23
0.0
 33
0.0
 40
0.0
 40
0.0
 40
0.0
 40
0.0
 40
0.249999999999997
 40
0.249999999999997
 40
0.499999999999994
 40
0.499999999999994
 40
0.749999999999991
 40
0.749999999999991
 40
0.8749999999999954
 40
0.8749999999999954
 40
1.0
 40
1.0
 40
1.0
 40
1.0
 10
1234.806784056588
 20
918.11600074286
 30
0.0
 10
1234.786287082049
 20
918.3502822338847
 30
0.0
 10
1234.725915077224
 20
918.5750572614921
 30
0.0
 10
1234.527392591415
 20
919.0003220647734
 30
0.0
 10
1234.393261712705
 20
919.1914929947303
 30
0.0
 10
1234.061866191193
 20
919.5223996453375
 30
0.0
 10
1233.869731251872
 20
919.6565712883973
 30
0.0
 10
1233.55206259489
 20
919.8043446049381
 30
0.0
 10
1233.443266289861
 20
919.8437593164119
 30
0.0
 10
1233.220043912648
 20
919.9035248060317
 30
0.0
 10
1233.104094953959
 20
919.9239834409452
 30
0.0
 10
1232.9887061459
 20
919.9340786535481
 30
0.0
  0
LWPOLYLINE
  5
146
330
1F
100
AcDbEntity
  8
0
  6
CONTINUOUS
 62
     7
100
AcDbPolyline
 90
        5
 70
   128
 43
0.0
 10
1230.8854862897
 20
920.1180814771
 10
1231.4924776404
 20
920.0649886397
 10
1232.0996813326
 20
920.0118510989
 10
1232.7070973663
 20
919.9587135581
 10
1232.9887069611
 20
919.9340819386
  0
LINE
  5
147
330
1F
100
AcDbEntity
  8
0
  6
CONTINUOUS
 62
     7
100
AcDbLine
 10
1237.0740242152
 20
892.2013222245
 30
0.0
 11
1234.8068814574
 21
918.1148885755
 31
0.0
  0
LINE
  5
148
330
1F
100
AcDbEntity
  8
0
  6
CONTINUOUS
 62
     7
100
AcDbLine
 10
1237.0740242152
 20
892.2013222245
 30
0.0
 11
1234.8068814574
 21
892.2013222245
 31
0.0
  0
LWPOLYLINE
  5
149
330
1F
100
AcDbEntity
  8
0
  6
CONTINUOUS
 62
     7
100
AcDbPolyline
 90
        4
 70
   128
 43
0.0
 10
1232.6984137146
 20
628.1174450187
 10
1233.0205339788
 20
628.1434624461
 10
1233.6649440078
 20
628.1955122022
 10
1234.8068814574
 20
628.2877503899
  0
LINE
  5
14A
330
1F
100
AcDbEntity
  8
0
  6
CONTINUOUS
 62
     7
100
AcDbLine
 10
1234.8068814574
 20
628.2877503899
 30
0.0
 11
1234.8067845999
 21
628.2866328029
 31
0.0
  0
SPLINE
  5
14B
330
1F
100
AcDbEntity
  8
0
  6
CONTINUOUS
 62
     7
100
AcDbSpline
210
0.0
220
0.0
230
1.0
 70
     8
 71
     3
 72
    16
 73
    12
 74
     0
 42
0.00000001
 43
0.00000001
 12
1.0
 22
0.0
 32
0.0
 13
1.0
 23
0.0
 33
0.0
 40
0.0
 40
0.0
 40
0.0
 40
0.0
 40
0.249999999999996
 40
0.249999999999996
 40
0.499999999999992
 40
0.499999999999992
 40
0.749999999999988
 40
0.749999999999988
 40
0.874999999999994
 40
0.874999999999994
 40
1.0
 40
1.0
 40
1.0
 40
1.0
 10
1234.806784056588
 20
628.2866382225398
 30
0.0
 10
1234.786287082049
 20
628.0523567315148
 30
0.0
 10
1234.725915077223
 20
627.827581703907
 30
0.0
 10
1234.527392591415
 20
627.4023169006255
 30
0.0
 10
1234.393261712704
 20
627.2111459706683
 30
0.0
 10
1234.061866191191
 20
626.880239320061
 30
0.0
 10
1233.869731251869
 20
626.7460676770011
 30
0.0
 10
1233.552062594888
 20
626.5982943604608
 30
0.0
 10
1233.443266289859
 20
626.5588796489874
 30
0.0
 10
1233.220043912648
 20
626.4991141593681
 30
0.0
 10
1233.104094953964
 20
626.478655524455
 30
0.0
 10
1232.988706145901
 20
626.4685603118517
 30
0.0
  0
LWPOLYLINE
  5
14C
330
1F
100
AcDbEntity
  8
0
  6
CONTINUOUS
 62
     7
100
AcDbPolyline
 90
        5
 70
   128
 43
0.0
 10
1232.9887069611
 20
626.4685570268
 10
1232.7070973663
 20
626.4439254073
 10
1232.0996813326
 20
626.3907878665
 10
1231.4924776404
 20
626.3376503257
 10
1230.8854862897
 20
626.2845574883
  0
LINE
  5
14D
330
1F
100
AcDbEntity
  8
0
  6
CONTINUOUS
 62
     7
100
AcDbLine
 10
1237.0740242152
 20
654.2013167409
 30
0.0
 11
1234.8068814574
 21
654.2013167409
 31
0.0
  0
LINE
  5
14E
330
1F
100
AcDbEntity
  8
0
  6
CONTINUOUS
 62
     7
100
AcDbLine
 10
1237.0740242152
 20
654.2013167409
 30
0.0
 11
1234.8068814574
 21
628.2877503899
 31
0.0
  0
LINE
  5
14F
330
1F
100
AcDbEntity
  8
0
  6
CONTINUOUS
 62
     7
100
AcDbLine
 10
1237.0740242152
 20
654.2013167409
 30
0.0
 11
1237.0740242152
 21
892.2013222245
 31
0.0
  0
LINE
  5
150
330
1F
100
AcDbEntity
  8
0
  6
CONTINUOUS
 62
     7
100
AcDbLine
 10
1207.0740248857
 20
682.2013213304
 30
0.0
 11
1207.0740248857
 21
734.201318678
 31
0.0
  0
LINE
  5
151
330
1F
100
AcDbEntity
  8
0
  6
CONTINUOUS
 62
     7
100
AcDbLine
 10
1207.0740248857
 20
812.2013202874
 30
0.0
 11
1207.0740248857
 21
864.201317635
 31
0.0
  0
CIRCLE
  5
152
330
1F
100
AcDbEntity
  8
0
  6
CONTINUOUS
 62
     7
100
AcDbCircle
 10
1388.1236064112
 20
878.2013194827
 30
0.0
 40
3.100000000000048
  0
CIRCLE
  5
153
330
1F
100
AcDbEntity
  8
0
  6
CONTINUOUS
 62
     7
100
AcDbCircle
 10
1498.1236064112
 20
878.2013194827
 30
0.0
 40
3.100000000000266
  0
CIRCLE
  5
154
330
1F
100
AcDbEntity
  8
0
  6
CONTINUOUS
 62
     7
100
AcDbCircle
 10
1498.1236064112
 20
668.2013194827
 30
0.0
 40
3.100000000000115
  0
CIRCLE
  5
155
330
1F
100
AcDbEntity
  8
0
  6
CONTINUOUS
 62
     7
100
AcDbCircle
 10
1388.1236064112
 20
668.2013194827
 30
0.0
 40
3.099999999999898
  0
LINE
  5
156
330
1F
100
AcDbEntity
  8
0
  6
CONTINUOUS
 62
     7
100
AcDbLine
 10
1530.1236039078
 20
864.201317635
 30
0.0
 11
1530.1236039078
 21
867.201316264
 31
0.0
  0
LINE
  5
157
330
1F
100
AcDbEntity
  8
0
  6
CONTINUOUS
 62
     7
100
AcDbLine
 10
1536.1236086165
 20
867.201316264
 30
0.0
 11
1536.1236086165
 21
864.201317635
 31
0.0
  0
LINE
  5
158
330
1F
100
AcDbEntity
  8
0
  6
CONTINUOUS
 62
     7
100
AcDbLine
 10
1530.1236039078
 20
867.201316264
 30
0.0
 11
1536.1236086165
 21
867.201316264
 31
0.0
  0
LINE
  5
159
330
1F
100
AcDbEntity
  8
0
  6
CONTINUOUS
 62
     7
100
AcDbLine
 10
1536.1236086165
 20
864.201317635
 30
0.0
 11
1530.1236039078
 21
864.201317635
 31
0.0
  0
LINE
  5
15A
330
1F
100
AcDbEntity
  8
0
  6
CONTINUOUS
 62
     7
100
AcDbLine
 10
1530.1236039078
 20
809.201317933
 30
0.0
 11
1530.1236039078
 21
812.2013202874
 31
0.0
  0
LINE
  5
15B
330
1F
100
AcDbEntity
  8
0
  6
CONTINUOUS
 62
     7
100
AcDbLine
 10
1536.1236086165
 20
812.2013202874
 30
0.0
 11
1536.1236086165
 21
809.201317933
 31
0.0
  0
LINE
  5
15C
330
1F
100
AcDbEntity
  8
0
  6
CONTINUOUS
 62
     7
100
AcDbLine
 10
1536.1236086165
 20
809.201317933
 30
0.0
 11
1530.1236039078
 21
809.201317933
 31
0.0
  0
LINE
  5
15D
330
1F
100
AcDbEntity
  8
0
  6
CONTINUOUS
 62
     7
100
AcDbLine
 10
1530.1236039078
 20
812.2013202874
 30
0.0
 11
1536.1236086165
 21
812.2013202874
 31
0.0
  0
LINE
  5
15E
330
1F
100
AcDbEntity
  8
0
  6
CONTINUOUS
 62
     7
100
AcDbLine
 10
1539.8143431222
 20
897.2013174561
 30
0.0
 11
1539.8143431222
 21
867.201316264
 31
0.0
  0
LINE
  5
15F
330
1F
100
AcDbEntity
  8
0
  6
CONTINUOUS
 62
     7
100
AcDbLine
 10
1538.1083240783
 20
897.2013174561
 30
0.0
 11
1539.8143431222
 21
897.2013174561
 31
0.0
  0
LINE
  5
160
330
1F
100
AcDbEntity
  8
0
  6
CONTINUOUS
 62
     7
100
AcDbLine
 10
1538.1083240783
 20
897.2013174561
 30
0.0
 11
1538.1083240783
 21
918.1860416202
 31
0.0
  0
LINE
  5
161
330
1F
100
AcDbEntity
  8
0
  6
CONTINUOUS
 62
     7
100
AcDbLine
 10
1538.1083240783
 20
918.1860416202
 30
0.0
 11
1348.1388887441
 21
918.1860416202
 31
0.0
  0
LINE
  5
162
330
1F
100
AcDbEntity
  8
0
  6
CONTINUOUS
 62
     7
100
AcDbLine
 10
1348.1388887441
 20
628.2165973452
 30
0.0
 11
1348.1388887441
 21
918.1860416202
 31
0.0
  0
LINE
  5
163
330
1F
100
AcDbEntity
  8
0
  6
CONTINUOUS
 62
     7
100
AcDbLine
 10
1538.1083240783
 20
628.2165973452
 30
0.0
 11
1348.1388887441
 21
628.2165973452
 31
0.0
  0
LINE
  5
164
330
1F
100
AcDbEntity
  8
0
  6
CONTINUOUS
 62
     7
100
AcDbLine
 10
1538.1083240783
 20
628.2165973452
 30
0.0
 11
1538.1083240783
 21
649.2013215093
 31
0.0
  0
LINE
  5
165
330
1F
100
AcDbEntity
  8
0
  6
CONTINUOUS
 62
     7
100
AcDbLine
 10
1539.8143431222
 20
649.2013215093
 30
0.0
 11
1538.1083240783
 21
649.2013215093
 31
0.0
  0
LINE
  5
166
330
1F
100
AcDbEntity
  8
0
  6
CONTINUOUS
 62
     7
100
AcDbLine
 10
1539.8143431222
 20
649.2013215093
 30
0.0
 11
1539.8143431222
 21
679.2013227014
 31
0.0
  0
LINE
  5
167
330
1F
100
AcDbEntity
  8
0
  6
CONTINUOUS
 62
     7
100
AcDbLine
 10
1536.1236086165
 20
679.2013227014
 30
0.0
 11
1539.8143431222
 21
679.2013227014
 31
0.0
  0
LINE
  5
168
330
1F
100
AcDbEntity
  8
0
  6
CONTINUOUS
 62
     7
100
AcDbLine
 10
1536.1236086165
 20
682.2013213304
 30
0.0
 11
1536.1236086165
 21
679.2013227014
 31
0.0
  0
LINE
  5
169
330
1F
100
AcDbEntity
  8
0
  6
CONTINUOUS
 62
     7
100
AcDbLine
 10
1542.1236058747
 20
682.2013213304
 30
0.0
 11
1536.1236086165
 21
682.2013213304
 31
0.0
  0
LINE
  5
16A
330
1F
100
AcDbEntity
  8
0
  6
CONTINUOUS
 62
     7
100
AcDbLine
 10
1542.1236058747
 20
626.1937051085
 30
0.0
 11
1542.1236058747
 21
682.2013213304
 31
0.0
  0
ELLIPSE
  5
16B
330
1F
100
AcDbEntity
  8
0
  6
CONTINUOUS
 62
     7
100
AcDbEllipse
 10
1540.1159667361
 20
626.2089591578
 30
0.0
 11
1.42499721578065
 21
-1.424997215780536
 31
0.0
210
0.0
220
0.0
230
1.0
 40
0.9924325091
 41
5.501585242055455
 42
7.064785372303708
  0
LINE
  5
16C
330
1F
100
AcDbEntity
  8
0
  6
CONTINUOUS
 62
     7
100
AcDbLine
 10
1540.131216315
 20
624.2013155488
 30
0.0
 11
1346.1159965074
 21
624.2013155488
 31
0.0
  0
ELLIPSE
  5
16D
330
1F
100
AcDbEntity
  8
0
  6
CONTINUOUS
 62
     7
100
AcDbEllipse
 10
1346.1312460863
 20
626.2089591578
 30
0.0
 11
1.424997215780422
 21
1.424997215780536
 31
0.0
210
0.0
220
0.0
230
1.0
 40
0.9924325091
 41
2.359992588465591
 42
3.923192718713873
  0
LINE
  5
16E
330
1F
100
AcDbEntity
  8
0
  6
CONTINUOUS
 62
     7
100
AcDbLine
 10
1344.1236069476
 20
626.1937051085
 30
0.0
 11
1344.1236069476
 21
920.2089338569
 31
0.0
  0
ELLIPSE
  5
16F
330
1F
100
AcDbEntity
  8
0
  6
CONTINUOUS
 62
     7
100
AcDbEllipse
 10
1346.1312460863
 20
920.1936798076
 30
0.0
 11
1.424997215780422
 21
-1.424997215780422
 31
0.0
210
0.0
220
0.0
230
1.0
 40
0.9924325091
 41
2.359992588465667
 42
3.923192718713989
  0
LINE
  5
170
330
1F
100
AcDbEntity
  8
0
  6
CONTINUOUS
 62
     7
100
AcDbLine
 10
1540.131216315
 20
922.2013234166
 30
0.0
 11
1346.1159965074
 21
922.2013234166
 31
0.0
  0
ELLIPSE
  5
171
330
1F
100
AcDbEntity
  8
0
  6
CONTINUOUS
 62
     7
100
AcDbEllipse
 10
1540.1159667361
 20
920.1936798076
 30
0.0
 11
1.42499721578065
 21
1.424997215780536
 31
0.0
210
0.0
220
0.0
230
1.0
 40
0.9924325091
 41
5.501585242055437
 42
7.064785372303771
  0
LINE
  5
172
330
1F
100
AcDbEntity
  8
0
  6
CONTINUOUS
 62
     7
100
AcDbLine
 10
1542.1236058747
 20
864.201317635
 30
0.0
 11
1542.1236058747
 21
920.2089338569
 31
0.0
  0
LINE
  5
173
330
1F
100
AcDbEntity
  8
0
  6
CONTINUOUS
 62
     7
100
AcDbLine
 10
1536.1236086165
 20
867.201316264
 30
0.0
 11
1539.8143431222
 21
867.201316264
 31
0.0
  0
LINE
  5
174
330
1F
100
AcDbEntity
  8
0
  6
CONTINUOUS
 62
     7
100
AcDbLine
 10
1542.1236058747
 20
864.201317635
 30
0.0
 11
1536.1236086165
 21
864.201317635
 31
0.0
  0
LINE
  5
175
330
1F
100
AcDbEntity
  8
0
  6
CONTINUOUS
 62
     7
100
AcDbLine
 10
1538.1083240783
 20
628.2165973452
 30
0.0
 11
1536.2349426424
 21
630.0899862317
 31
0.0
  0
LINE
  5
176
330
1F
100
AcDbEntity
  8
0
  6
CONTINUOUS
 62
     7
100
AcDbLine
 10
1348.1388887441
 20
628.2165973452
 30
0.0
 11
1350.0122701799
 21
630.0899862317
 31
0.0
  0
LWPOLYLINE
  5
177
330
1F
100
AcDbEntity
  8
0
  6
CONTINUOUS
 62
     7
100
AcDbPolyline
 90
        4
 70
   128
 43
0.0
 10
1350.0122701799
 20
630.0899862317
 10
1357.5252642905
 20
630.1434217957
 10
1365.0382509505
 20
630.1968722609
 10
1374.3043070709
 20
630.2628248004
  0
LINE
  5
178
330
1F
100
AcDbEntity
  8
0
  6
CONTINUOUS
 62
     7
100
AcDbLine
 10
1374.3043070709
 20
630.2628248004
 30
0.0
 11
1511.9429057514
 21
630.2628248004
 31
0.0
  0
LWPOLYLINE
  5
179
330
1F
100
AcDbEntity
  8
0
  6
CONTINUOUS
 62
     7
100
AcDbPolyline
 90
        4
 70
   128
 43
0.0
 10
1511.9429057514
 20
630.2628248004
 10
1519.4558700597
 20
630.2093445329
 10
1526.9688492691
 20
630.1558940677
 10
1536.2349426424
 20
630.0899862317
  0
LWPOLYLINE
  5
17A
330
1F
100
AcDbEntity
  8
0
  6
CONTINUOUS
 62
     7
100
AcDbPolyline
 90
        4
 70
   128
 43
0.0
 10
1350.0122701799
 20
916.3126527337
 10
1357.5252642905
 20
916.2592171697
 10
1365.0382509505
 20
916.2057667045
 10
1374.3043070709
 20
916.139814165
  0
LINE
  5
17B
330
1F
100
AcDbEntity
  8
0
  6
CONTINUOUS
 62
     7
100
AcDbLine
 10
1348.1388887441
 20
918.1860416202
 30
0.0
 11
1350.0122701799
 21
916.3126527337
 31
0.0
  0
LINE
  5
17C
330
1F
100
AcDbEntity
  8
0
  6
CONTINUOUS
 62
     7
100
AcDbLine
 10
1538.1083240783
 20
918.1860416202
 30
0.0
 11
1536.2349426424
 21
916.3126527337
 31
0.0
  0
LWPOLYLINE
  5
17D
330
1F
100
AcDbEntity
  8
0
  6
CONTINUOUS
 62
     7
100
AcDbPolyline
 90
        4
 70
   128
 43
0.0
 10
1536.2349426424
 20
916.3126527337
 10
1528.7219485318
 20
916.2592171697
 10
1521.2089618718
 20
916.2057667045
 10
1511.9429057514
 20
916.139814165
  0
LINE
  5
17E
330
1F
100
AcDbEntity
  8
0
  6
CONTINUOUS
 62
     7
100
AcDbLine
 10
1374.3043070709
 20
916.139814165
 30
0.0
 11
1511.9429057514
 21
916.139814165
 31
0.0
  0
LWPOLYLINE
  5
17F
330
1F
100
AcDbEntity
  8
0
  6
CONTINUOUS
 62
     7
100
AcDbPolyline
 90
        4
 70
   128
 43
0.0
 10
1350.0122701799
 20
916.3126527337
 10
1350.065705744
 20
908.7996511725
 10
1350.1191562092
 20
901.2866794137
 10
1350.1851087486
 20
892.0206158427
  0
LINE
  5
180
330
1F
100
AcDbEntity
  8
0
  6
CONTINUOUS
 62
     7
100
AcDbLine
 10
1350.1851087486
 20
892.0206158427
 30
0.0
 11
1350.1851087486
 21
654.3820231227
 31
0.0
  0
LWPOLYLINE
  5
181
330
1F
100
AcDbEntity
  8
0
  6
CONTINUOUS
 62
     7
100
AcDbPolyline
 90
        4
 70
   128
 43
0.0
 10
1350.1851087486
 20
654.3820231227
 10
1350.1316359317
 20
646.8690513638
 10
1350.0781780159
 20
639.356079605
 10
1350.0122701799
 20
630.0899862317
  0
LINE
  5
182
330
1F
100
AcDbEntity
  8
0
  6
CONTINUOUS
 62
     7
100
AcDbLine
 10
1530.1236039078
 20
679.2013227014
 30
0.0
 11
1530.1236039078
 21
682.2013213304
 31
0.0
  0
LINE
  5
183
330
1F
100
AcDbEntity
  8
0
  6
CONTINUOUS
 62
     7
100
AcDbLine
 10
1530.1236039078
 20
682.2013213304
 30
0.0
 11
1536.1236086165
 21
682.2013213304
 31
0.0
  0
LINE
  5
184
330
1F
100
AcDbEntity
  8
0
  6
CONTINUOUS
 62
     7
100
AcDbLine
 10
1536.1236086165
 20
679.2013227014
 30
0.0
 11
1530.1236039078
 21
679.2013227014
 31
0.0
  0
LINE
  5
185
330
1F
100
AcDbEntity
  8
0
  6
CONTINUOUS
 62
     7
100
AcDbLine
 10
1536.1236086165
 20
737.2013210324
 30
0.0
 11
1536.1236086165
 21
734.201318678
 31
0.0
  0
LINE
  5
186
330
1F
100
AcDbEntity
  8
0
  6
CONTINUOUS
 62
     7
100
AcDbLine
 10
1530.1236039078
 20
734.201318678
 30
0.0
 11
1530.1236039078
 21
737.2013210324
 31
0.0
  0
LINE
  5
187
330
1F
100
AcDbEntity
  8
0
  6
CONTINUOUS
 62
     7
100
AcDbLine
 10
1530.1236039078
 20
737.2013210324
 30
0.0
 11
1536.1236086165
 21
737.2013210324
 31
0.0
  0
LINE
  5
188
330
1F
100
AcDbEntity
  8
0
  6
CONTINUOUS
 62
     7
100
AcDbLine
 10
1536.1236086165
 20
734.201318678
 30
0.0
 11
1530.1236039078
 21
734.201318678
 31
0.0
  0
LWPOLYLINE
  5
189
330
1F
100
AcDbEntity
  8
0
  6
CONTINUOUS
 62
     7
100
AcDbPolyline
 90
        4
 70
   128
 43
0.0
 10
1536.2349426424
 20
916.3126527337
 10
1536.1815070784
 20
908.7996511725
 10
1536.1280566132
 20
901.2866794137
 10
1536.0621040737
 20
892.0206158427
  0
LINE
  5
18A
330
1F
100
AcDbEntity
  8
0
  6
CONTINUOUS
 62
     7
100
AcDbLine
 10
1538.1083240783
 20
897.2013174561
 30
0.0
 11
1537.41461542
 21
897.2013174561
 31
0.0
  0
LINE
  5
18B
330
1F
100
AcDbEntity
  8
0
  6
CONTINUOUS
 62
     7
100
AcDbLine
 10
1537.41461542
 20
867.201316264
 30
0.0
 11
1537.41461542
 21
897.2013174561
 31
0.0
  0
LINE
  5
18C
330
1F
100
AcDbEntity
  8
0
  6
CONTINUOUS
 62
     7
100
AcDbLine
 10
1536.0621040737
 20
892.0206158427
 30
0.0
 11
1536.0621040737
 21
867.201316264
 31
0.0
  0
LINE
  5
18D
330
1F
100
AcDbEntity
  8
0
  6
CONTINUOUS
 62
     7
100
AcDbLine
 10
1537.41461542
 20
679.2013227014
 30
0.0
 11
1537.41461542
 21
649.2013215093
 31
0.0
  0
LINE
  5
18E
330
1F
100
AcDbEntity
  8
0
  6
CONTINUOUS
 62
     7
100
AcDbLine
 10
1537.41461542
 20
649.2013215093
 30
0.0
 11
1538.1083240783
 21
649.2013215093
 31
0.0
  0
LWPOLYLINE
  5
18F
330
1F
100
AcDbEntity
  8
0
  6
CONTINUOUS
 62
     7
100
AcDbPolyline
 90
        4
 70
   128
 43
0.0
 10
1536.2349426424
 20
630.0899862317
 10
1536.1815070784
 20
637.6029877929
 10
1536.1280566132
 20
645.1159595517
 10
1536.0621040737
 20
654.3820231227
  0
LINE
  5
190
330
1F
100
AcDbEntity
  8
0
  6
CONTINUOUS
 62
     7
100
AcDbLine
 10
1536.0621040737
 20
679.2013227014
 30
0.0
 11
1536.0621040737
 21
654.3820231227
 31
0.0
  0
LINE
  5
191
330
1F
100
AcDbEntity
  8
0
  6
CONTINUOUS
 62
     7
100
AcDbLine
 10
1542.1236058747
 20
734.201318678
 30
0.0
 11
1542.1236058747
 21
812.2013202874
 31
0.0
  0
LINE
  5
192
330
1F
100
AcDbEntity
  8
0
  6
CONTINUOUS
 62
     7
100
AcDbLine
 10
1539.8143431222
 20
737.2013210324
 30
0.0
 11
1539.8143431222
 21
809.201317933
 31
0.0
  0
LINE
  5
193
330
1F
100
AcDbEntity
  8
0
  6
CONTINUOUS
 62
     7
100
AcDbLine
 10
1539.8143431222
 20
737.2013210324
 30
0.0
 11
1536.1236086165
 21
737.2013210324
 31
0.0
  0
LINE
  5
194
330
1F
100
AcDbEntity
  8
0
  6
CONTINUOUS
 62
     7
100
AcDbLine
 10
1536.1236086165
 20
734.201318678
 30
0.0
 11
1542.1236058747
 21
734.201318678
 31
0.0
  0
LINE
  5
195
330
1F
100
AcDbEntity
  8
0
  6
CONTINUOUS
 62
     7
100
AcDbLine
 10
1539.8143431222
 20
809.201317933
 30
0.0
 11
1536.1236086165
 21
809.201317933
 31
0.0
  0
LINE
  5
196
330
1F
100
AcDbEntity
  8
0
  6
CONTINUOUS
 62
     7
100
AcDbLine
 10
1536.1236086165
 20
812.2013202874
 30
0.0
 11
1542.1236058747
 21
812.2013202874
 31
0.0
  0
LINE
  5
197
330
1F
100
AcDbEntity
  8
0
  6
CONTINUOUS
 62
     7
100
AcDbLine
 10
1539.3140962398
 20
649.2013215093
 30
0.0
 11
1539.3140962398
 21
679.2013227014
 31
0.0
  0
LINE
  5
198
330
1F
100
AcDbEntity
  8
0
  6
CONTINUOUS
 62
     7
100
AcDbLine
 10
1539.3140962398
 20
897.2013174561
 30
0.0
 11
1539.3140962398
 21
867.201316264
 31
0.0
  0
LINE
  5
199
330
1F
100
AcDbEntity
  8
0
  6
CONTINUOUS
 62
     7
100
AcDbLine
 10
1539.3140962398
 20
809.201317933
 30
0.0
 11
1539.3140962398
 21
737.2013210324
 31
0.0
  0
LINE
  5
19A
330
1F
100
AcDbEntity
  8
0
  6
CONTINUOUS
 62
     7
100
AcDbLine
 10
1537.41461542
 20
809.201317933
 30
0.0
 11
1537.41461542
 21
737.2013210324
 31
0.0
  0
LINE
  5
19B
330
1F
100
AcDbEntity
  8
0
  6
CONTINUOUS
 62
     7
100
AcDbLine
 10
1536.0621040737
 20
809.201317933
 30
0.0
 11
1536.0621040737
 21
737.2013210324
 31
0.0
  0
LINE
  5
19C
330
1F
100
AcDbEntity
  8
0
  6
CONTINUOUS
 62
     7
100
AcDbLine
 10
1536.7870977199
 20
864.201317635
 30
0.0
 11
1536.7870977199
 21
812.2013202874
 31
0.0
  0
LINE
  5
19D
330
1F
100
AcDbEntity
  8
0
  6
CONTINUOUS
 62
     7
100
AcDbLine
 10
1540.8987676775
 20
812.2013202874
 30
0.0
 11
1540.8987676775
 21
864.201317635
 31
0.0
  0
LINE
  5
19E
330
1F
100
AcDbEntity
  8
0
  6
CONTINUOUS
 62
     7
100
AcDbLine
 10
1536.7870977199
 20
682.2013213304
 30
0.0
 11
1536.7870977199
 21
734.201318678
 31
0.0
  0
LINE
  5
19F
330
1F
100
AcDbEntity
  8
0
  6
CONTINUOUS
 62
     7
100
AcDbLine
 10
1540.8987676775
 20
682.2013213304
 30
0.0
 11
1540.8987676775
 21
734.201318678
 31
0.0
  0
LINE
  5
1A0
330
1F
100
AcDbEntity
  8
0
  6
CONTINUOUS
 62
     7
100
AcDbLine
 10
1469.633779866
 20
900.2719103364
 30
0.0
 11
1467.6816029524
 21
900.3400831489
 31
0.0
  0
LINE
  5
1A1
330
1F
100
AcDbEntity
  8
0
  6
CONTINUOUS
 62
     7
100
AcDbLine
 10
1460.9512122398
 20
893.6096905736
 30
0.0
 11
1467.6816029524
 21
900.3400831489
 31
0.0
  0
LINE
  5
1A2
330
1F
100
AcDbEntity
  8
0
  6
CONTINUOUS
 62
     7
100
AcDbLine
 10
1476.2960014915
 20
893.6096905736
 30
0.0
 11
1460.9512122398
 21
893.6096905736
 31
0.0
  0
LINE
  5
1A3
330
1F
100
AcDbEntity
  8
0
  6
CONTINUOUS
 62
     7
100
AcDbLine
 10
1469.633779866
 20
900.2719103364
 30
0.0
 11
1476.2960014915
 21
893.6096905736
 31
0.0
  0
LINE
  5
1A4
330
1F
100
AcDbEntity
  8
0
  6
CONTINUOUS
 62
     7
100
AcDbLine
 10
1477.1236082589
 20
894.6205555467
 30
0.0
 11
1471.538781566
 21
900.2053766517
 31
0.0
  0
LINE
  5
1A5
330
1F
100
AcDbEntity
  8
0
  6
CONTINUOUS
 62
     7
100
AcDbLine
 10
1477.1236082589
 20
894.6205555467
 30
0.0
 11
1482.3315380191
 21
899.8284964827
 31
0.0
  0
LINE
  5
1A6
330
1F
100
AcDbEntity
  8
0
  6
CONTINUOUS
 62
     7
100
AcDbLine
 10
1482.3315380191
 20
899.8284964827
 30
0.0
 11
1471.538781566
 21
900.2053766517
 31
0.0
  0
LINE
  5
1A7
330
1F
100
AcDbEntity
  8
0
  6
CONTINUOUS
 62
     7
100
AcDbLine
 10
1392.1236073648
 20
894.6205555467
 30
0.0
 11
1397.0932973599
 21
899.5902418164
 31
0.0
  0
LINE
  5
1A8
330
1F
100
AcDbEntity
  8
0
  6
CONTINUOUS
 62
     7
100
AcDbLine
 10
1397.0932973599
 20
899.5902418164
 30
0.0
 11
1387.4892940795
 21
899.2548762826
 31
0.0
  0
LINE
  5
1A9
330
1F
100
AcDbEntity
  8
0
  6
CONTINUOUS
 62
     7
100
AcDbLine
 10
1392.1236073648
 20
894.6205555467
 30
0.0
 11
1387.4892940795
 21
899.2548762826
 31
0.0
  0
LINE
  5
1AA
330
1F
100
AcDbEntity
  8
0
  6
CONTINUOUS
 62
     7
100
AcDbLine
 10
1408.2960015213
 20
893.6096905736
 30
0.0
 11
1392.9512141323
 21
893.6096905736
 31
0.0
  0
LINE
  5
1AB
330
1F
100
AcDbEntity
  8
0
  6
CONTINUOUS
 62
     7
100
AcDbLine
 10
1402.1392291462
 20
899.7664629487
 30
0.0
 11
1408.2960015213
 21
893.6096905736
 31
0.0
  0
LINE
  5
1AC
330
1F
100
AcDbEntity
  8
0
  6
CONTINUOUS
 62
     7
100
AcDbLine
 10
1402.1392291462
 20
899.7664629487
 30
0.0
 11
1398.9982990598
 21
899.6567755011
 31
0.0
  0
LINE
  5
1AD
330
1F
100
AcDbEntity
  8
0
  6
CONTINUOUS
 62
     7
100
AcDbLine
 10
1392.9512141323
 20
893.6096905736
 30
0.0
 11
1398.9982990598
 21
899.6567755011
 31
0.0
  0
ARC
  5
1AE
330
1F
100
AcDbEntity
  8
0
  6
CONTINUOUS
 62
     7
100
AcDbCircle
 10
1386.7925217699
 20
895.2280992177
 30
0.0
 40
4.00000000000001
100
AcDbArc
 50
104.3353410179
 51
135.0
  0
LINE
  5
1AF
330
1F
100
AcDbEntity
  8
0
  6
CONTINUOUS
 62
     7
100
AcDbLine
 10
1383.9640928482
 20
898.0565248994
 30
0.0
 11
1368.7951764142
 21
882.8876121906
 31
0.0
  0
ARC
  5
1B0
330
1F
100
AcDbEntity
  8
0
  6
CONTINUOUS
 62
     7
100
AcDbCircle
 10
1371.6236064112
 20
880.059183859
 30
0.0
 40
4.000000000000113
100
AcDbArc
 50
135.0
 51
180.0
  0
LINE
  5
1B1
330
1F
100
AcDbEntity
  8
0
  6
CONTINUOUS
 62
     7
100
AcDbLine
 10
1367.6236098682
 20
880.0591855315
 30
0.0
 11
1367.6236098682
 21
871.6205610899
 31
0.0
  0
LINE
  5
1B2
330
1F
100
AcDbEntity
  8
0
  6
CONTINUOUS
 62
     7
100
AcDbLine
 10
1367.6236098682
 20
871.6205610899
 30
0.0
 11
1376.7152404463
 21
880.7121916679
 31
0.0
  0
LINE
  5
1B3
330
1F
100
AcDbEntity
  8
0
  6
CONTINUOUS
 62
     7
100
AcDbLine
 10
1376.7152404463
 20
882.7846824197
 30
0.0
 11
1376.7152404463
 21
880.7121916679
 31
0.0
  0
LINE
  5
1B4
330
1F
100
AcDbEntity
  8
0
  6
CONTINUOUS
 62
     7
100
AcDbLine
 10
1387.5402411496
 20
893.6096905736
 30
0.0
 11
1376.7152404463
 21
882.7846824197
 31
0.0
  0
LINE
  5
1B5
330
1F
100
AcDbEntity
  8
0
  6
CONTINUOUS
 62
     7
100
AcDbLine
 10
1391.2960005974
 20
893.6096905736
 30
0.0
 11
1387.5402411496
 21
893.6096905736
 31
0.0
  0
LINE
  5
1B6
330
1F
100
AcDbEntity
  8
0
  6
CONTINUOUS
 62
     7
100
AcDbLine
 10
1385.8021361803
 20
899.1035549907
 30
0.0
 11
1391.2960005974
 21
893.6096905736
 31
0.0
  0
LINE
  5
1B7
330
1F
100
AcDbEntity
  8
0
  6
CONTINUOUS
 62
     7
100
AcDbLine
 10
1426.1236054873
 20
894.6205555467
 30
0.0
 11
1432.3235642215
 21
900.8205114869
 31
0.0
  0
LINE
  5
1B8
330
1F
100
AcDbEntity
  8
0
  6
CONTINUOUS
 62
     7
100
AcDbLine
 10
1432.3235642215
 20
900.8205114869
 30
0.0
 11
1420.3420518016
 21
900.4021166829
 31
0.0
  0
LINE
  5
1B9
330
1F
100
AcDbEntity
  8
0
  6
CONTINUOUS
 62
     7
100
AcDbLine
 10
1426.1236054873
 20
894.6205555467
 30
0.0
 11
1420.3420518016
 21
900.4021166829
 31
0.0
  0
LINE
  5
1BA
330
1F
100
AcDbEntity
  8
0
  6
CONTINUOUS
 62
     7
100
AcDbLine
 10
1434.9919868683
 20
900.913703349
 30
0.0
 11
1442.295999702
 21
893.6096905736
 31
0.0
  0
LINE
  5
1BB
330
1F
100
AcDbEntity
  8
0
  6
CONTINUOUS
 62
     7
100
AcDbLine
 10
1434.9919868683
 20
900.913703349
 30
0.0
 11
1434.2285659214
 21
900.8870451716
 31
0.0
  0
LINE
  5
1BC
330
1F
100
AcDbEntity
  8
0
  6
CONTINUOUS
 62
     7
100
AcDbLine
 10
1426.9512122547
 20
893.6096905736
 30
0.0
 11
1434.2285659214
 21
900.8870451716
 31
0.0
  0
LINE
  5
1BD
330
1F
100
AcDbEntity
  8
0
  6
CONTINUOUS
 62
     7
100
AcDbLine
 10
1442.295999702
 20
893.6096905736
 30
0.0
 11
1426.9512122547
 21
893.6096905736
 31
0.0
  0
LINE
  5
1BE
330
1F
100
AcDbEntity
  8
0
  6
CONTINUOUS
 62
     7
100
AcDbLine
 10
1489.1539154624
 20
646.812397149
 30
0.0
 11
1494.1236054575
 21
651.7820834187
 31
0.0
  0
LINE
  5
1BF
330
1F
100
AcDbEntity
  8
0
  6
CONTINUOUS
 62
     7
100
AcDbLine
 10
1489.1539154624
 20
646.812397149
 30
0.0
 11
1498.7579187428
 21
647.1477626828
 31
0.0
  0
LINE
  5
1C0
330
1F
100
AcDbEntity
  8
0
  6
CONTINUOUS
 62
     7
100
AcDbLine
 10
1494.1236054575
 20
651.7820834187
 30
0.0
 11
1498.7579187428
 21
647.1477626828
 31
0.0
  0
LINE
  5
1C1
330
1F
100
AcDbEntity
  8
0
  6
CONTINUOUS
 62
     7
100
AcDbLine
 10
1477.951211301
 20
652.7929483918
 30
0.0
 11
1493.2959986901
 21
652.7929483918
 31
0.0
  0
LINE
  5
1C2
330
1F
100
AcDbEntity
  8
0
  6
CONTINUOUS
 62
     7
100
AcDbLine
 10
1477.951211301
 20
652.7929483918
 30
0.0
 11
1484.1079836761
 21
646.6361760167
 31
0.0
  0
LINE
  5
1C3
330
1F
100
AcDbEntity
  8
0
  6
CONTINUOUS
 62
     7
100
AcDbLine
 10
1484.1079836761
 20
646.6361760167
 30
0.0
 11
1487.2489137625
 21
646.7458634643
 31
0.0
  0
LINE
  5
1C4
330
1F
100
AcDbEntity
  8
0
  6
CONTINUOUS
 62
     7
100
AcDbLine
 10
1493.2959986901
 20
652.7929483918
 30
0.0
 11
1487.2489137625
 21
646.7458634643
 31
0.0
  0
ARC
  5
1C5
330
1F
100
AcDbEntity
  8
0
  6
CONTINUOUS
 62
     7
100
AcDbCircle
 10
1499.4546910524
 20
651.1745397477
 30
0.0
 40
4.000000000000032
100
AcDbArc
 50
284.3353410179
 51
315.0
  0
LINE
  5
1C6
330
1F
100
AcDbEntity
  8
0
  6
CONTINUOUS
 62
     7
100
AcDbLine
 10
1502.2831199741
 20
648.346114066
 30
0.0
 11
1517.4520364081
 21
663.5150267748
 31
0.0
  0
ARC
  5
1C7
330
1F
100
AcDbEntity
  8
0
  6
CONTINUOUS
 62
     7
100
AcDbCircle
 10
1514.6236064112
 20
666.3434551064
 30
0.0
 40
4.0
100
AcDbArc
 50
315.0
 51
0.0
  0
LINE
  5
1C8
330
1F
100
AcDbEntity
  8
0
  6
CONTINUOUS
 62
     7
100
AcDbLine
 10
1518.6236029541
 20
666.3434534339
 30
0.0
 11
1518.6236029541
 21
674.7820778755
 31
0.0
  0
LINE
  5
1C9
330
1F
100
AcDbEntity
  8
0
  6
CONTINUOUS
 62
     7
100
AcDbLine
 10
1518.6236029541
 20
674.7820778755
 30
0.0
 11
1509.5319723761
 21
665.6904472975
 31
0.0
  0
LINE
  5
1CA
330
1F
100
AcDbEntity
  8
0
  6
CONTINUOUS
 62
     7
100
AcDbLine
 10
1509.5319723761
 20
663.6179565457
 30
0.0
 11
1509.5319723761
 21
665.6904472975
 31
0.0
  0
LINE
  5
1CB
330
1F
100
AcDbEntity
  8
0
  6
CONTINUOUS
 62
     7
100
AcDbLine
 10
1498.7069716727
 20
652.7929483918
 30
0.0
 11
1509.5319723761
 21
663.6179565457
 31
0.0
  0
LINE
  5
1CC
330
1F
100
AcDbEntity
  8
0
  6
CONTINUOUS
 62
     7
100
AcDbLine
 10
1494.9512122249
 20
652.7929483918
 30
0.0
 11
1498.7069716727
 21
652.7929483918
 31
0.0
  0
LINE
  5
1CD
330
1F
100
AcDbEntity
  8
0
  6
CONTINUOUS
 62
     7
100
AcDbLine
 10
1494.9512122249
 20
652.7929483918
 30
0.0
 11
1500.445076642
 21
647.2990839747
 31
0.0
  0
LINE
  5
1CE
330
1F
100
AcDbEntity
  8
0
  6
CONTINUOUS
 62
     7
100
AcDbLine
 10
1443.9512131204
 20
652.7929483918
 30
0.0
 11
1459.2960005676
 21
652.7929483918
 31
0.0
  0
LINE
  5
1CF
330
1F
100
AcDbEntity
  8
0
  6
CONTINUOUS
 62
     7
100
AcDbLine
 10
1443.9512131204
 20
652.7929483918
 30
0.0
 11
1451.255225954
 21
645.4889356164
 31
0.0
  0
LINE
  5
1D0
330
1F
100
AcDbEntity
  8
0
  6
CONTINUOUS
 62
     7
100
AcDbLine
 10
1451.255225954
 20
645.4889356164
 30
0.0
 11
1452.0186469009
 21
645.5155937938
 31
0.0
  0
LINE
  5
1D1
330
1F
100
AcDbEntity
  8
0
  6
CONTINUOUS
 62
     7
100
AcDbLine
 10
1459.2960005676
 20
652.7929483918
 30
0.0
 11
1452.0186469009
 21
645.5155937938
 31
0.0
  0
LINE
  5
1D2
330
1F
100
AcDbEntity
  8
0
  6
CONTINUOUS
 62
     7
100
AcDbLine
 10
1453.9236486008
 20
645.5821274785
 30
0.0
 11
1460.123607335
 21
651.7820834187
 31
0.0
  0
LINE
  5
1D3
330
1F
100
AcDbEntity
  8
0
  6
CONTINUOUS
 62
     7
100
AcDbLine
 10
1453.9236486008
 20
645.5821274785
 30
0.0
 11
1465.9051610207
 21
646.0005222825
 31
0.0
  0
LINE
  5
1D4
330
1F
100
AcDbEntity
  8
0
  6
CONTINUOUS
 62
     7
100
AcDbLine
 10
1460.123607335
 20
651.7820834187
 30
0.0
 11
1465.9051610207
 21
646.0005222825
 31
0.0
  0
LINE
  5
1D5
330
1F
100
AcDbEntity
  8
0
  6
CONTINUOUS
 62
     7
100
AcDbLine
 10
1416.6134329563
 20
646.130728629
 30
0.0
 11
1418.5656098699
 21
646.0625558165
 31
0.0
  0
LINE
  5
1D6
330
1F
100
AcDbEntity
  8
0
  6
CONTINUOUS
 62
     7
100
AcDbLine
 10
1425.2960005825
 20
652.7929483918
 30
0.0
 11
1418.5656098699
 21
646.0625558165
 31
0.0
  0
LINE
  5
1D7
330
1F
100
AcDbEntity
  8
0
  6
CONTINUOUS
 62
     7
100
AcDbLine
 10
1409.9512113308
 20
652.7929483918
 30
0.0
 11
1425.2960005825
 21
652.7929483918
 31
0.0
  0
LINE
  5
1D8
330
1F
100
AcDbEntity
  8
0
  6
CONTINUOUS
 62
     7
100
AcDbLine
 10
1409.9512113308
 20
652.7929483918
 30
0.0
 11
1416.6134329563
 21
646.130728629
 31
0.0
  0
LINE
  5
1D9
330
1F
100
AcDbEntity
  8
0
  6
CONTINUOUS
 62
     7
100
AcDbLine
 10
1409.1236045634
 20
651.7820834187
 30
0.0
 11
1414.7084312564
 21
646.1972623137
 31
0.0
  0
LINE
  5
1DA
330
1F
100
AcDbEntity
  8
0
  6
CONTINUOUS
 62
     7
100
AcDbLine
 10
1403.9156748032
 20
646.5741424827
 30
0.0
 11
1409.1236045634
 21
651.7820834187
 31
0.0
  0
LINE
  5
1DB
330
1F
100
AcDbEntity
  8
0
  6
CONTINUOUS
 62
     7
100
AcDbLine
 10
1403.9156748032
 20
646.5741424827
 30
0.0
 11
1414.7084312564
 21
646.1972623137
 31
0.0
  0
LINE
  5
1DC
330
1F
100
AcDbEntity
  8
0
  6
CONTINUOUS
 62
     7
100
AcDbLine
 10
1436.768430197
 20
645.4269020823
 30
0.0
 11
1443.1236064112
 21
651.7820834187
 31
0.0
  0
LINE
  5
1DD
330
1F
100
AcDbEntity
  8
0
  6
CONTINUOUS
 62
     7
100
AcDbLine
 10
1436.768430197
 20
645.4269020823
 30
0.0
 11
1443.1236064112
 21
645.2049790887
 31
0.0
  0
LINE
  5
1DE
330
1F
100
AcDbEntity
  8
0
  6
CONTINUOUS
 62
     7
100
AcDbLine
 10
1443.1236064112
 20
645.2049790887
 30
0.0
 11
1449.4787826253
 21
645.4269020823
 31
0.0
  0
LINE
  5
1DF
330
1F
100
AcDbEntity
  8
0
  6
CONTINUOUS
 62
     7
100
AcDbLine
 10
1443.1236064112
 20
651.7820834187
 30
0.0
 11
1449.4787826253
 21
645.4269020823
 31
0.0
  0
LINE
  5
1E0
330
1F
100
AcDbEntity
  8
0
  6
CONTINUOUS
 62
     7
100
AcDbLine
 10
1367.6236098682
 20
694.2820801405
 30
0.0
 11
1376.4543658173
 21
685.4513167409
 31
0.0
  0
LINE
  5
1E1
330
1F
100
AcDbEntity
  8
0
  6
CONTINUOUS
 62
     7
100
AcDbLine
 10
1367.6236098682
 20
694.2820801405
 30
0.0
 11
1367.6236098682
 21
676.6205607919
 31
0.0
  0
LINE
  5
1E2
330
1F
100
AcDbEntity
  8
0
  6
CONTINUOUS
 62
     7
100
AcDbLine
 10
1367.6236098682
 20
676.6205607919
 30
0.0
 11
1376.4543658173
 21
685.4513167409
 31
0.0
  0
LINE
  5
1E3
330
1F
100
AcDbEntity
  8
0
  6
CONTINUOUS
 62
     7
100
AcDbLine
 10
1368.5428476011
 20
675.701323059
 30
0.0
 11
1376.7152404463
 21
667.5289227632
 31
0.0
  0
LINE
  5
1E4
330
1F
100
AcDbEntity
  8
0
  6
CONTINUOUS
 62
     7
100
AcDbLine
 10
1376.7152404463
 20
683.8737159041
 30
0.0
 11
1376.7152404463
 21
667.5289227632
 31
0.0
  0
LINE
  5
1E5
330
1F
100
AcDbEntity
  8
0
  6
CONTINUOUS
 62
     7
100
AcDbLine
 10
1368.5428476011
 20
675.701323059
 30
0.0
 11
1376.7152404463
 21
683.8737159041
 31
0.0
  0
LINE
  5
1E6
330
1F
100
AcDbEntity
  8
0
  6
CONTINUOUS
 62
     7
100
AcDbLine
 10
1367.6236098682
 20
733.2820809452
 30
0.0
 11
1376.4543658173
 21
724.4513212708
 31
0.0
  0
LINE
  5
1E7
330
1F
100
AcDbEntity
  8
0
  6
CONTINUOUS
 62
     7
100
AcDbLine
 10
1367.6236098682
 20
733.2820809452
 30
0.0
 11
1367.6236098682
 21
715.6205578712
 31
0.0
  0
LINE
  5
1E8
330
1F
100
AcDbEntity
  8
0
  6
CONTINUOUS
 62
     7
100
AcDbLine
 10
1367.6236098682
 20
715.6205578712
 30
0.0
 11
1376.4543658173
 21
724.4513212708
 31
0.0
  0
LINE
  5
1E9
330
1F
100
AcDbEntity
  8
0
  6
CONTINUOUS
 62
     7
100
AcDbLine
 10
1368.5428476011
 20
714.7013201384
 30
0.0
 11
1376.7152404463
 21
706.5289272932
 31
0.0
  0
LINE
  5
1EA
330
1F
100
AcDbEntity
  8
0
  6
CONTINUOUS
 62
     7
100
AcDbLine
 10
1376.7152404463
 20
722.8737129835
 30
0.0
 11
1376.7152404463
 21
706.5289272932
 31
0.0
  0
LINE
  5
1EB
330
1F
100
AcDbEntity
  8
0
  6
CONTINUOUS
 62
     7
100
AcDbLine
 10
1368.5428476011
 20
714.7013201384
 30
0.0
 11
1376.7152404463
 21
722.8737129835
 31
0.0
  0
LINE
  5
1EC
330
1F
100
AcDbEntity
  8
0
  6
CONTINUOUS
 62
     7
100
AcDbLine
 10
1367.6236098682
 20
772.2820806439
 30
0.0
 11
1376.4543658173
 21
763.4513192815
 31
0.0
  0
LINE
  5
1ED
330
1F
100
AcDbEntity
  8
0
  6
CONTINUOUS
 62
     7
100
AcDbLine
 10
1367.6236098682
 20
772.2820806439
 30
0.0
 11
1367.6236098682
 21
754.6205586759
 31
0.0
  0
LINE
  5
1EE
330
1F
100
AcDbEntity
  8
0
  6
CONTINUOUS
 62
     7
100
AcDbLine
 10
1367.6236098682
 20
754.6205586759
 30
0.0
 11
1376.4543658173
 21
763.4513192815
 31
0.0
  0
LINE
  5
1EF
330
1F
100
AcDbEntity
  8
0
  6
CONTINUOUS
 62
     7
100
AcDbLine
 10
1368.5428476011
 20
753.7013190804
 30
0.0
 11
1376.7152404463
 21
745.5289262352
 31
0.0
  0
LINE
  5
1F0
330
1F
100
AcDbEntity
  8
0
  6
CONTINUOUS
 62
     7
100
AcDbLine
 10
1376.7152404463
 20
761.8737128568
 30
0.0
 11
1376.7152404463
 21
745.5289262352
 31
0.0
  0
LINE
  5
1F1
330
1F
100
AcDbEntity
  8
0
  6
CONTINUOUS
 62
     7
100
AcDbLine
 10
1368.5428476011
 20
753.7013190804
 30
0.0
 11
1376.7152404463
 21
761.8737128568
 31
0.0
  0
LINE
  5
1F2
330
1F
100
AcDbEntity
  8
0
  6
CONTINUOUS
 62
     7
100
AcDbLine
 10
1376.7152404463
 20
765.0289266375
 30
0.0
 11
1368.5428476011
 21
773.2013194827
 31
0.0
  0
LINE
  5
1F3
330
1F
100
AcDbEntity
  8
0
  6
CONTINUOUS
 62
     7
100
AcDbLine
 10
1376.7152404463
 20
781.3737123279
 30
0.0
 11
1376.7152404463
 21
765.0289266375
 31
0.0
  0
LINE
  5
1F4
330
1F
100
AcDbEntity
  8
0
  6
CONTINUOUS
 62
     7
100
AcDbLine
 10
1368.5428476011
 20
773.2013194827
 30
0.0
 11
1376.7152404463
 21
781.3737123279
 31
0.0
  0
LINE
  5
1F5
330
1F
100
AcDbEntity
  8
0
  6
CONTINUOUS
 62
     7
100
AcDbLine
 10
1368.5428476011
 20
734.201318678
 30
0.0
 11
1376.7152404463
 21
726.0289258329
 31
0.0
  0
LINE
  5
1F6
330
1F
100
AcDbEntity
  8
0
  6
CONTINUOUS
 62
     7
100
AcDbLine
 10
1376.7152404463
 20
742.3737133858
 30
0.0
 11
1376.7152404463
 21
726.0289258329
 31
0.0
  0
LINE
  5
1F7
330
1F
100
AcDbEntity
  8
0
  6
CONTINUOUS
 62
     7
100
AcDbLine
 10
1368.5428476011
 20
734.201318678
 30
0.0
 11
1376.7152404463
 21
742.3737133858
 31
0.0
  0
LINE
  5
1F8
330
1F
100
AcDbEntity
  8
0
  6
CONTINUOUS
 62
     7
100
AcDbLine
 10
1367.6236098682
 20
752.7820813475
 30
0.0
 11
1376.4543658173
 21
743.9513198105
 31
0.0
  0
LINE
  5
1F9
330
1F
100
AcDbEntity
  8
0
  6
CONTINUOUS
 62
     7
100
AcDbLine
 10
1367.6236098682
 20
752.7820813475
 30
0.0
 11
1367.6236098682
 21
735.1205601362
 31
0.0
  0
LINE
  5
1FA
330
1F
100
AcDbEntity
  8
0
  6
CONTINUOUS
 62
     7
100
AcDbLine
 10
1367.6236098682
 20
735.1205601362
 30
0.0
 11
1376.4543658173
 21
743.9513198105
 31
0.0
  0
LINE
  5
1FB
330
1F
100
AcDbEntity
  8
0
  6
CONTINUOUS
 62
     7
100
AcDbLine
 10
1368.5428476011
 20
695.2013178734
 30
0.0
 11
1376.7152404463
 21
687.0289250282
 31
0.0
  0
LINE
  5
1FC
330
1F
100
AcDbEntity
  8
0
  6
CONTINUOUS
 62
     7
100
AcDbLine
 10
1376.7152404463
 20
703.3737107185
 30
0.0
 11
1376.7152404463
 21
687.0289250282
 31
0.0
  0
LINE
  5
1FD
330
1F
100
AcDbEntity
  8
0
  6
CONTINUOUS
 62
     7
100
AcDbLine
 10
1368.5428476011
 20
695.2013178734
 30
0.0
 11
1376.7152404463
 21
703.3737107185
 31
0.0
  0
LINE
  5
1FE
330
1F
100
AcDbEntity
  8
0
  6
CONTINUOUS
 62
     7
100
AcDbLine
 10
1367.6236098682
 20
713.7820824055
 30
0.0
 11
1376.4543658173
 21
704.9513190059
 31
0.0
  0
LINE
  5
1FF
330
1F
100
AcDbEntity
  8
0
  6
CONTINUOUS
 62
     7
100
AcDbLine
 10
1367.6236098682
 20
713.7820824055
 30
0.0
 11
1367.6236098682
 21
696.1205556063
 31
0.0
  0
LINE
  5
200
330
1F
100
AcDbEntity
  8
0
  6
CONTINUOUS
 62
     7
100
AcDbLine
 10
1367.6236098682
 20
696.1205556063
 30
0.0
 11
1376.4543658173
 21
704.9513190059
 31
0.0
  0
LINE
  5
201
330
1F
100
AcDbEntity
  8
0
  6
CONTINUOUS
 62
     7
100
AcDbLine
 10
1367.6236098682
 20
791.7820802895
 30
0.0
 11
1367.6236098682
 21
774.1205583215
 31
0.0
  0
LINE
  5
202
330
1F
100
AcDbEntity
  8
0
  6
CONTINUOUS
 62
     7
100
AcDbLine
 10
1367.6236098682
 20
774.1205583215
 30
0.0
 11
1376.4543658173
 21
782.9513196839
 31
0.0
  0
LINE
  5
203
330
1F
100
AcDbEntity
  8
0
  6
CONTINUOUS
 62
     7
100
AcDbLine
 10
1367.6236098682
 20
791.7820802895
 30
0.0
 11
1376.4543658173
 21
782.9513196839
 31
0.0
  0
LINE
  5
204
330
1F
100
AcDbEntity
  8
0
  6
CONTINUOUS
 62
     7
100
AcDbLine
 10
1368.5428476011
 20
792.701319885
 30
0.0
 11
1376.7152404463
 21
784.5289261086
 31
0.0
  0
LINE
  5
205
330
1F
100
AcDbEntity
  8
0
  6
CONTINUOUS
 62
     7
100
AcDbLine
 10
1376.7152404463
 20
800.8737127302
 30
0.0
 11
1376.7152404463
 21
784.5289261086
 31
0.0
  0
LINE
  5
206
330
1F
100
AcDbEntity
  8
0
  6
CONTINUOUS
 62
     7
100
AcDbLine
 10
1368.5428476011
 20
792.701319885
 30
0.0
 11
1376.7152404463
 21
800.8737127302
 31
0.0
  0
LINE
  5
207
330
1F
100
AcDbEntity
  8
0
  6
CONTINUOUS
 62
     7
100
AcDbLine
 10
1367.6236098682
 20
811.2820788292
 30
0.0
 11
1367.6236098682
 21
793.6205576179
 31
0.0
  0
LINE
  5
208
330
1F
100
AcDbEntity
  8
0
  6
CONTINUOUS
 62
     7
100
AcDbLine
 10
1367.6236098682
 20
793.6205576179
 30
0.0
 11
1376.4543658173
 21
802.4513191549
 31
0.0
  0
LINE
  5
209
330
1F
100
AcDbEntity
  8
0
  6
CONTINUOUS
 62
     7
100
AcDbLine
 10
1367.6236098682
 20
811.2820788292
 30
0.0
 11
1376.4543658173
 21
802.4513191549
 31
0.0
  0
LINE
  5
20A
330
1F
100
AcDbEntity
  8
0
  6
CONTINUOUS
 62
     7
100
AcDbLine
 10
1517.7043652212
 20
675.701323059
 30
0.0
 11
1509.5319723761
 21
683.8737159041
 31
0.0
  0
LINE
  5
20B
330
1F
100
AcDbEntity
  8
0
  6
CONTINUOUS
 62
     7
100
AcDbLine
 10
1509.5319723761
 20
667.5289227632
 30
0.0
 11
1509.5319723761
 21
683.8737159041
 31
0.0
  0
LINE
  5
20C
330
1F
100
AcDbEntity
  8
0
  6
CONTINUOUS
 62
     7
100
AcDbLine
 10
1517.7043652212
 20
675.701323059
 30
0.0
 11
1509.5319723761
 21
667.5289227632
 31
0.0
  0
LINE
  5
20D
330
1F
100
AcDbEntity
  8
0
  6
CONTINUOUS
 62
     7
100
AcDbLine
 10
1368.5428476011
 20
812.2013202874
 30
0.0
 11
1376.7152404463
 21
804.0289255796
 31
0.0
  0
LINE
  5
20E
330
1F
100
AcDbEntity
  8
0
  6
CONTINUOUS
 62
     7
100
AcDbLine
 10
1376.7152404463
 20
820.3737131325
 30
0.0
 11
1376.7152404463
 21
804.0289255796
 31
0.0
  0
LINE
  5
20F
330
1F
100
AcDbEntity
  8
0
  6
CONTINUOUS
 62
     7
100
AcDbLine
 10
1368.5428476011
 20
812.2013202874
 30
0.0
 11
1376.7152404463
 21
820.3737131325
 31
0.0
  0
LINE
  5
210
330
1F
100
AcDbEntity
  8
0
  6
CONTINUOUS
 62
     7
100
AcDbLine
 10
1367.6236098682
 20
830.7820810942
 30
0.0
 11
1367.6236098682
 21
813.1205580202
 31
0.0
  0
LINE
  5
211
330
1F
100
AcDbEntity
  8
0
  6
CONTINUOUS
 62
     7
100
AcDbLine
 10
1367.6236098682
 20
813.1205580202
 30
0.0
 11
1376.4543658173
 21
821.9513176946
 31
0.0
  0
LINE
  5
212
330
1F
100
AcDbEntity
  8
0
  6
CONTINUOUS
 62
     7
100
AcDbLine
 10
1367.6236098682
 20
830.7820810942
 30
0.0
 11
1376.4543658173
 21
821.9513176946
 31
0.0
  0
LINE
  5
213
330
1F
100
AcDbEntity
  8
0
  6
CONTINUOUS
 62
     7
100
AcDbLine
 10
1517.7043652212
 20
695.2013178734
 30
0.0
 11
1509.5319723761
 21
703.3737107185
 31
0.0
  0
LINE
  5
214
330
1F
100
AcDbEntity
  8
0
  6
CONTINUOUS
 62
     7
100
AcDbLine
 10
1509.5319723761
 20
687.0289250282
 30
0.0
 11
1509.5319723761
 21
703.3737107185
 31
0.0
  0
LINE
  5
215
330
1F
100
AcDbEntity
  8
0
  6
CONTINUOUS
 62
     7
100
AcDbLine
 10
1517.7043652212
 20
695.2013178734
 30
0.0
 11
1509.5319723761
 21
687.0289250282
 31
0.0
  0
LINE
  5
216
330
1F
100
AcDbEntity
  8
0
  6
CONTINUOUS
 62
     7
100
AcDbLine
 10
1518.6236029541
 20
676.6205607919
 30
0.0
 11
1509.7928470051
 21
685.4513167409
 31
0.0
  0
LINE
  5
217
330
1F
100
AcDbEntity
  8
0
  6
CONTINUOUS
 62
     7
100
AcDbLine
 10
1518.6236029541
 20
676.6205607919
 30
0.0
 11
1518.6236029541
 21
694.2820801405
 31
0.0
  0
LINE
  5
218
330
1F
100
AcDbEntity
  8
0
  6
CONTINUOUS
 62
     7
100
AcDbLine
 10
1518.6236029541
 20
694.2820801405
 30
0.0
 11
1509.7928470051
 21
685.4513167409
 31
0.0
  0
LINE
  5
219
330
1F
100
AcDbEntity
  8
0
  6
CONTINUOUS
 62
     7
100
AcDbLine
 10
1368.5428476011
 20
831.701318827
 30
0.0
 11
1376.7152404463
 21
823.5289259819
 31
0.0
  0
LINE
  5
21A
330
1F
100
AcDbEntity
  8
0
  6
CONTINUOUS
 62
     7
100
AcDbLine
 10
1376.7152404463
 20
839.8737116722
 30
0.0
 11
1376.7152404463
 21
823.5289259819
 31
0.0
  0
LINE
  5
21B
330
1F
100
AcDbEntity
  8
0
  6
CONTINUOUS
 62
     7
100
AcDbLine
 10
1368.5428476011
 20
831.701318827
 30
0.0
 11
1376.7152404463
 21
839.8737116722
 31
0.0
  0
LINE
  5
21C
330
1F
100
AcDbEntity
  8
0
  6
CONTINUOUS
 62
     7
100
AcDbLine
 10
1367.6236098682
 20
850.2820833591
 30
0.0
 11
1367.6236098682
 21
832.6205565599
 31
0.0
  0
LINE
  5
21D
330
1F
100
AcDbEntity
  8
0
  6
CONTINUOUS
 62
     7
100
AcDbLine
 10
1367.6236098682
 20
832.6205565599
 30
0.0
 11
1376.4543658173
 21
841.4513199595
 31
0.0
  0
LINE
  5
21E
330
1F
100
AcDbEntity
  8
0
  6
CONTINUOUS
 62
     7
100
AcDbLine
 10
1367.6236098682
 20
850.2820833591
 30
0.0
 11
1376.4543658173
 21
841.4513199595
 31
0.0
  0
LINE
  5
21F
330
1F
100
AcDbEntity
  8
0
  6
CONTINUOUS
 62
     7
100
AcDbLine
 10
1517.7043652212
 20
714.7013201384
 30
0.0
 11
1509.5319723761
 21
722.8737129835
 31
0.0
  0
LINE
  5
220
330
1F
100
AcDbEntity
  8
0
  6
CONTINUOUS
 62
     7
100
AcDbLine
 10
1509.5319723761
 20
706.5289272932
 30
0.0
 11
1509.5319723761
 21
722.8737129835
 31
0.0
  0
LINE
  5
221
330
1F
100
AcDbEntity
  8
0
  6
CONTINUOUS
 62
     7
100
AcDbLine
 10
1517.7043652212
 20
714.7013201384
 30
0.0
 11
1509.5319723761
 21
706.5289272932
 31
0.0
  0
LINE
  5
222
330
1F
100
AcDbEntity
  8
0
  6
CONTINUOUS
 62
     7
100
AcDbLine
 10
1518.6236029541
 20
696.1205556063
 30
0.0
 11
1509.7928470051
 21
704.9513190059
 31
0.0
  0
LINE
  5
223
330
1F
100
AcDbEntity
  8
0
  6
CONTINUOUS
 62
     7
100
AcDbLine
 10
1518.6236029541
 20
696.1205556063
 30
0.0
 11
1518.6236029541
 21
713.7820824055
 31
0.0
  0
LINE
  5
224
330
1F
100
AcDbEntity
  8
0
  6
CONTINUOUS
 62
     7
100
AcDbLine
 10
1518.6236029541
 20
713.7820824055
 30
0.0
 11
1509.7928470051
 21
704.9513190059
 31
0.0
  0
LINE
  5
225
330
1F
100
AcDbEntity
  8
0
  6
CONTINUOUS
 62
     7
100
AcDbLine
 10
1368.5428476011
 20
851.201321092
 30
0.0
 11
1376.7152404463
 21
843.0289282469
 31
0.0
  0
LINE
  5
226
330
1F
100
AcDbEntity
  8
0
  6
CONTINUOUS
 62
     7
100
AcDbLine
 10
1376.7152404463
 20
859.3737139372
 30
0.0
 11
1376.7152404463
 21
843.0289282469
 31
0.0
  0
LINE
  5
227
330
1F
100
AcDbEntity
  8
0
  6
CONTINUOUS
 62
     7
100
AcDbLine
 10
1368.5428476011
 20
851.201321092
 30
0.0
 11
1376.7152404463
 21
859.3737139372
 31
0.0
  0
LINE
  5
228
330
1F
100
AcDbEntity
  8
0
  6
CONTINUOUS
 62
     7
100
AcDbLine
 10
1518.6236029541
 20
793.6205576179
 30
0.0
 11
1509.7928470051
 21
802.4513191549
 31
0.0
  0
LINE
  5
229
330
1F
100
AcDbEntity
  8
0
  6
CONTINUOUS
 62
     7
100
AcDbLine
 10
1518.6236029541
 20
793.6205576179
 30
0.0
 11
1518.6236029541
 21
811.2820788292
 31
0.0
  0
LINE
  5
22A
330
1F
100
AcDbEntity
  8
0
  6
CONTINUOUS
 62
     7
100
AcDbLine
 10
1509.7928470051
 20
802.4513191549
 30
0.0
 11
1518.6236029541
 21
811.2820788292
 31
0.0
  0
LINE
  5
22B
330
1F
100
AcDbEntity
  8
0
  6
CONTINUOUS
 62
     7
100
AcDbLine
 10
1517.7043652212
 20
753.7013190804
 30
0.0
 11
1509.5319723761
 21
761.8737128568
 31
0.0
  0
LINE
  5
22C
330
1F
100
AcDbEntity
  8
0
  6
CONTINUOUS
 62
     7
100
AcDbLine
 10
1509.5319723761
 20
745.5289262352
 30
0.0
 11
1509.5319723761
 21
761.8737128568
 31
0.0
  0
LINE
  5
22D
330
1F
100
AcDbEntity
  8
0
  6
CONTINUOUS
 62
     7
100
AcDbLine
 10
1517.7043652212
 20
753.7013190804
 30
0.0
 11
1509.5319723761
 21
745.5289262352
 31
0.0
  0
LINE
  5
22E
330
1F
100
AcDbEntity
  8
0
  6
CONTINUOUS
 62
     7
100
AcDbLine
 10
1509.7928470051
 20
763.4513192815
 30
0.0
 11
1518.6236029541
 21
772.2820806439
 31
0.0
  0
LINE
  5
22F
330
1F
100
AcDbEntity
  8
0
  6
CONTINUOUS
 62
     7
100
AcDbLine
 10
1518.6236029541
 20
754.6205586759
 30
0.0
 11
1509.7928470051
 21
763.4513192815
 31
0.0
  0
LINE
  5
230
330
1F
100
AcDbEntity
  8
0
  6
CONTINUOUS
 62
     7
100
AcDbLine
 10
1518.6236029541
 20
754.6205586759
 30
0.0
 11
1518.6236029541
 21
772.2820806439
 31
0.0
  0
LINE
  5
231
330
1F
100
AcDbEntity
  8
0
  6
CONTINUOUS
 62
     7
100
AcDbLine
 10
1517.7043652212
 20
773.2013194827
 30
0.0
 11
1509.5319723761
 21
781.3737123279
 31
0.0
  0
LINE
  5
232
330
1F
100
AcDbEntity
  8
0
  6
CONTINUOUS
 62
     7
100
AcDbLine
 10
1509.5319723761
 20
765.0289266375
 30
0.0
 11
1509.5319723761
 21
781.3737123279
 31
0.0
  0
LINE
  5
233
330
1F
100
AcDbEntity
  8
0
  6
CONTINUOUS
 62
     7
100
AcDbLine
 10
1517.7043652212
 20
773.2013194827
 30
0.0
 11
1509.5319723761
 21
765.0289266375
 31
0.0
  0
LINE
  5
234
330
1F
100
AcDbEntity
  8
0
  6
CONTINUOUS
 62
     7
100
AcDbLine
 10
1518.6236029541
 20
752.7820813475
 30
0.0
 11
1509.7928470051
 21
743.9513198105
 31
0.0
  0
LINE
  5
235
330
1F
100
AcDbEntity
  8
0
  6
CONTINUOUS
 62
     7
100
AcDbLine
 10
1518.6236029541
 20
735.1205601362
 30
0.0
 11
1509.7928470051
 21
743.9513198105
 31
0.0
  0
LINE
  5
236
330
1F
100
AcDbEntity
  8
0
  6
CONTINUOUS
 62
     7
100
AcDbLine
 10
1518.6236029541
 20
735.1205601362
 30
0.0
 11
1518.6236029541
 21
752.7820813475
 31
0.0
  0
LINE
  5
237
330
1F
100
AcDbEntity
  8
0
  6
CONTINUOUS
 62
     7
100
AcDbLine
 10
1517.7043652212
 20
792.701319885
 30
0.0
 11
1509.5319723761
 21
800.8737127302
 31
0.0
  0
LINE
  5
238
330
1F
100
AcDbEntity
  8
0
  6
CONTINUOUS
 62
     7
100
AcDbLine
 10
1509.5319723761
 20
784.5289261086
 30
0.0
 11
1509.5319723761
 21
800.8737127302
 31
0.0
  0
LINE
  5
239
330
1F
100
AcDbEntity
  8
0
  6
CONTINUOUS
 62
     7
100
AcDbLine
 10
1517.7043652212
 20
792.701319885
 30
0.0
 11
1509.5319723761
 21
784.5289261086
 31
0.0
  0
LINE
  5
23A
330
1F
100
AcDbEntity
  8
0
  6
CONTINUOUS
 62
     7
100
AcDbLine
 10
1518.6236029541
 20
774.1205583215
 30
0.0
 11
1509.7928470051
 21
782.9513196839
 31
0.0
  0
LINE
  5
23B
330
1F
100
AcDbEntity
  8
0
  6
CONTINUOUS
 62
     7
100
AcDbLine
 10
1518.6236029541
 20
774.1205583215
 30
0.0
 11
1518.6236029541
 21
791.7820802895
 31
0.0
  0
LINE
  5
23C
330
1F
100
AcDbEntity
  8
0
  6
CONTINUOUS
 62
     7
100
AcDbLine
 10
1509.7928470051
 20
782.9513196839
 30
0.0
 11
1518.6236029541
 21
791.7820802895
 31
0.0
  0
LINE
  5
23D
330
1F
100
AcDbEntity
  8
0
  6
CONTINUOUS
 62
     7
100
AcDbLine
 10
1518.6236029541
 20
832.6205565599
 30
0.0
 11
1509.7928470051
 21
841.4513199595
 31
0.0
  0
LINE
  5
23E
330
1F
100
AcDbEntity
  8
0
  6
CONTINUOUS
 62
     7
100
AcDbLine
 10
1518.6236029541
 20
832.6205565599
 30
0.0
 11
1518.6236029541
 21
850.2820833591
 31
0.0
  0
LINE
  5
23F
330
1F
100
AcDbEntity
  8
0
  6
CONTINUOUS
 62
     7
100
AcDbLine
 10
1509.7928470051
 20
841.4513199595
 30
0.0
 11
1518.6236029541
 21
850.2820833591
 31
0.0
  0
LINE
  5
240
330
1F
100
AcDbEntity
  8
0
  6
CONTINUOUS
 62
     7
100
AcDbLine
 10
1517.7043652212
 20
831.701318827
 30
0.0
 11
1509.5319723761
 21
823.5289259819
 31
0.0
  0
LINE
  5
241
330
1F
100
AcDbEntity
  8
0
  6
CONTINUOUS
 62
     7
100
AcDbLine
 10
1517.7043652212
 20
831.701318827
 30
0.0
 11
1509.5319723761
 21
839.8737116722
 31
0.0
  0
LINE
  5
242
330
1F
100
AcDbEntity
  8
0
  6
CONTINUOUS
 62
     7
100
AcDbLine
 10
1509.5319723761
 20
823.5289259819
 30
0.0
 11
1509.5319723761
 21
839.8737116722
 31
0.0
  0
LINE
  5
243
330
1F
100
AcDbEntity
  8
0
  6
CONTINUOUS
 62
     7
100
AcDbLine
 10
1517.7043652212
 20
870.7013159064
 30
0.0
 11
1509.5319723761
 21
862.5289230613
 31
0.0
  0
LINE
  5
244
330
1F
100
AcDbEntity
  8
0
  6
CONTINUOUS
 62
     7
100
AcDbLine
 10
1517.7043652212
 20
870.7013159064
 30
0.0
 11
1509.5319723761
 21
878.8737162022
 31
0.0
  0
LINE
  5
245
330
1F
100
AcDbEntity
  8
0
  6
CONTINUOUS
 62
     7
100
AcDbLine
 10
1509.5319723761
 20
862.5289230613
 30
0.0
 11
1509.5319723761
 21
878.8737162022
 31
0.0
  0
LINE
  5
246
330
1F
100
AcDbEntity
  8
0
  6
CONTINUOUS
 62
     7
100
AcDbLine
 10
1517.7043652212
 20
851.201321092
 30
0.0
 11
1509.5319723761
 21
843.0289282469
 31
0.0
  0
LINE
  5
247
330
1F
100
AcDbEntity
  8
0
  6
CONTINUOUS
 62
     7
100
AcDbLine
 10
1517.7043652212
 20
851.201321092
 30
0.0
 11
1509.5319723761
 21
859.3737139372
 31
0.0
  0
LINE
  5
248
330
1F
100
AcDbEntity
  8
0
  6
CONTINUOUS
 62
     7
100
AcDbLine
 10
1509.5319723761
 20
843.0289282469
 30
0.0
 11
1509.5319723761
 21
859.3737139372
 31
0.0
  0
LINE
  5
249
330
1F
100
AcDbEntity
  8
0
  6
CONTINUOUS
 62
     7
100
AcDbLine
 10
1518.6236029541
 20
852.1205588249
 30
0.0
 11
1509.7928470051
 21
860.9513222245
 31
0.0
  0
LINE
  5
24A
330
1F
100
AcDbEntity
  8
0
  6
CONTINUOUS
 62
     7
100
AcDbLine
 10
1518.6236029541
 20
852.1205588249
 30
0.0
 11
1518.6236029541
 21
869.7820781735
 31
0.0
  0
LINE
  5
24B
330
1F
100
AcDbEntity
  8
0
  6
CONTINUOUS
 62
     7
100
AcDbLine
 10
1509.7928470051
 20
860.9513222245
 30
0.0
 11
1518.6236029541
 21
869.7820781735
 31
0.0
  0
LINE
  5
24C
330
1F
100
AcDbEntity
  8
0
  6
CONTINUOUS
 62
     7
100
AcDbLine
 10
1517.7043652212
 20
812.2013202874
 30
0.0
 11
1509.5319723761
 21
804.0289255796
 31
0.0
  0
LINE
  5
24D
330
1F
100
AcDbEntity
  8
0
  6
CONTINUOUS
 62
     7
100
AcDbLine
 10
1517.7043652212
 20
812.2013202874
 30
0.0
 11
1509.5319723761
 21
820.3737131325
 31
0.0
  0
LINE
  5
24E
330
1F
100
AcDbEntity
  8
0
  6
CONTINUOUS
 62
     7
100
AcDbLine
 10
1509.5319723761
 20
804.0289255796
 30
0.0
 11
1509.5319723761
 21
820.3737131325
 31
0.0
  0
LINE
  5
24F
330
1F
100
AcDbEntity
  8
0
  6
CONTINUOUS
 62
     7
100
AcDbLine
 10
1518.6236029541
 20
813.1205580202
 30
0.0
 11
1509.7928470051
 21
821.9513176946
 31
0.0
  0
LINE
  5
250
330
1F
100
AcDbEntity
  8
0
  6
CONTINUOUS
 62
     7
100
AcDbLine
 10
1518.6236029541
 20
813.1205580202
 30
0.0
 11
1518.6236029541
 21
830.7820810942
 31
0.0
  0
LINE
  5
251
330
1F
100
AcDbEntity
  8
0
  6
CONTINUOUS
 62
     7
100
AcDbLine
 10
1509.7928470051
 20
821.9513176946
 30
0.0
 11
1518.6236029541
 21
830.7820810942
 31
0.0
  0
LINE
  5
252
330
1F
100
AcDbEntity
  8
0
  6
CONTINUOUS
 62
     7
100
AcDbLine
 10
1367.6236098682
 20
869.7820781735
 30
0.0
 11
1367.6236098682
 21
852.1205588249
 31
0.0
  0
LINE
  5
253
330
1F
100
AcDbEntity
  8
0
  6
CONTINUOUS
 62
     7
100
AcDbLine
 10
1367.6236098682
 20
852.1205588249
 30
0.0
 11
1376.4543658173
 21
860.9513222245
 31
0.0
  0
LINE
  5
254
330
1F
100
AcDbEntity
  8
0
  6
CONTINUOUS
 62
     7
100
AcDbLine
 10
1367.6236098682
 20
869.7820781735
 30
0.0
 11
1376.4543658173
 21
860.9513222245
 31
0.0
  0
LINE
  5
255
330
1F
100
AcDbEntity
  8
0
  6
CONTINUOUS
 62
     7
100
AcDbLine
 10
1498.161563096
 20
892.2929494647
 30
0.0
 11
1388.0856497263
 21
892.2929494647
 31
0.0
  0
LINE
  5
256
330
1F
100
AcDbEntity
  8
0
  6
CONTINUOUS
 62
     7
100
AcDbLine
 10
1388.0856497263
 20
892.2929494647
 30
0.0
 11
1378.0319741046
 21
882.2392775682
 31
0.0
  0
LINE
  5
257
330
1F
100
AcDbEntity
  8
0
  6
CONTINUOUS
 62
     7
100
AcDbLine
 10
1378.0319741046
 20
882.2392775682
 30
0.0
 11
1378.0319741046
 21
664.1633613972
 31
0.0
  0
LINE
  5
258
330
1F
100
AcDbEntity
  8
0
  6
CONTINUOUS
 62
     7
100
AcDbLine
 10
1378.0319741046
 20
664.1633613972
 30
0.0
 11
1388.0856497263
 21
654.1096895007
 31
0.0
  0
LINE
  5
259
330
1F
100
AcDbEntity
  8
0
  6
CONTINUOUS
 62
     7
100
AcDbLine
 10
1388.0856497263
 20
654.1096895007
 30
0.0
 11
1498.161563096
 21
654.1096895007
 31
0.0
  0
LINE
  5
25A
330
1F
100
AcDbEntity
  8
0
  6
CONTINUOUS
 62
     7
100
AcDbLine
 10
1498.161563096
 20
654.1096895007
 30
0.0
 11
1508.2152387177
 21
664.1633613972
 31
0.0
  0
LINE
  5
25B
330
1F
100
AcDbEntity
  8
0
  6
CONTINUOUS
 62
     7
100
AcDbLine
 10
1508.2152387177
 20
664.1633613972
 30
0.0
 11
1508.2152387177
 21
882.2392775682
 31
0.0
  0
LINE
  5
25C
330
1F
100
AcDbEntity
  8
0
  6
CONTINUOUS
 62
     7
100
AcDbLine
 10
1508.2152387177
 20
882.2392775682
 30
0.0
 11
1498.161563096
 21
892.2929494647
 31
0.0
  0
LINE
  5
25D
330
1F
100
AcDbEntity
  8
0
  6
CONTINUOUS
 62
     7
100
AcDbLine
 10
1517.7043652212
 20
734.201318678
 30
0.0
 11
1509.5319723761
 21
742.3737133858
 31
0.0
  0
LINE
  5
25E
330
1F
100
AcDbEntity
  8
0
  6
CONTINUOUS
 62
     7
100
AcDbLine
 10
1509.5319723761
 20
726.0289258329
 30
0.0
 11
1509.5319723761
 21
742.3737133858
 31
0.0
  0
LINE
  5
25F
330
1F
100
AcDbEntity
  8
0
  6
CONTINUOUS
 62
     7
100
AcDbLine
 10
1517.7043652212
 20
734.201318678
 30
0.0
 11
1509.5319723761
 21
726.0289258329
 31
0.0
  0
LINE
  5
260
330
1F
100
AcDbEntity
  8
0
  6
CONTINUOUS
 62
     7
100
AcDbLine
 10
1518.6236029541
 20
715.6205578712
 30
0.0
 11
1509.7928470051
 21
724.4513212708
 31
0.0
  0
LINE
  5
261
330
1F
100
AcDbEntity
  8
0
  6
CONTINUOUS
 62
     7
100
AcDbLine
 10
1518.6236029541
 20
715.6205578712
 30
0.0
 11
1518.6236029541
 21
733.2820809452
 31
0.0
  0
LINE
  5
262
330
1F
100
AcDbEntity
  8
0
  6
CONTINUOUS
 62
     7
100
AcDbLine
 10
1518.6236029541
 20
733.2820809452
 30
0.0
 11
1509.7928470051
 21
724.4513212708
 31
0.0
  0
LINE
  5
263
330
1F
100
AcDbEntity
  8
0
  6
CONTINUOUS
 62
     7
100
AcDbLine
 10
1368.5428476011
 20
870.7013159064
 30
0.0
 11
1376.7152404463
 21
862.5289230613
 31
0.0
  0
LINE
  5
264
330
1F
100
AcDbEntity
  8
0
  6
CONTINUOUS
 62
     7
100
AcDbLine
 10
1376.7152404463
 20
878.8737162022
 30
0.0
 11
1376.7152404463
 21
862.5289230613
 31
0.0
  0
LINE
  5
265
330
1F
100
AcDbEntity
  8
0
  6
CONTINUOUS
 62
     7
100
AcDbLine
 10
1368.5428476011
 20
870.7013159064
 30
0.0
 11
1376.7152404463
 21
878.8737162022
 31
0.0
  0
LINE
  5
266
330
1F
100
AcDbEntity
  8
0
  6
CONTINUOUS
 62
     7
100
AcDbLine
 10
1426.1236054873
 20
651.7820834187
 30
0.0
 11
1432.3235642215
 21
645.5821274785
 31
0.0
  0
LINE
  5
267
330
1F
100
AcDbEntity
  8
0
  6
CONTINUOUS
 62
     7
100
AcDbLine
 10
1420.3420518016
 20
646.0005222825
 30
0.0
 11
1426.1236054873
 21
651.7820834187
 31
0.0
  0
LINE
  5
268
330
1F
100
AcDbEntity
  8
0
  6
CONTINUOUS
 62
     7
100
AcDbLine
 10
1420.3420518016
 20
646.0005222825
 30
0.0
 11
1432.3235642215
 21
645.5821274785
 31
0.0
  0
LINE
  5
269
330
1F
100
AcDbEntity
  8
0
  6
CONTINUOUS
 62
     7
100
AcDbLine
 10
1434.2285659214
 20
645.5155937938
 30
0.0
 11
1434.9919868683
 21
645.4889356164
 31
0.0
  0
LINE
  5
26A
330
1F
100
AcDbEntity
  8
0
  6
CONTINUOUS
 62
     7
100
AcDbLine
 10
1442.295999702
 20
652.7929483918
 30
0.0
 11
1434.9919868683
 21
645.4889356164
 31
0.0
  0
LINE
  5
26B
330
1F
100
AcDbEntity
  8
0
  6
CONTINUOUS
 62
     7
100
AcDbLine
 10
1426.9512122547
 20
652.7929483918
 30
0.0
 11
1442.295999702
 21
652.7929483918
 31
0.0
  0
LINE
  5
26C
330
1F
100
AcDbEntity
  8
0
  6
CONTINUOUS
 62
     7
100
AcDbLine
 10
1426.9512122547
 20
652.7929483918
 30
0.0
 11
1434.2285659214
 21
645.5155937938
 31
0.0
  0
LINE
  5
26D
330
1F
100
AcDbEntity
  8
0
  6
CONTINUOUS
 62
     7
100
AcDbLine
 10
1376.7152404463
 20
663.6179565457
 30
0.0
 11
1387.5402411496
 21
652.7929483918
 31
0.0
  0
LINE
  5
26E
330
1F
100
AcDbEntity
  8
0
  6
CONTINUOUS
 62
     7
100
AcDbLine
 10
1376.7152404463
 20
665.6904472975
 30
0.0
 11
1376.7152404463
 21
663.6179565457
 31
0.0
  0
LINE
  5
26F
330
1F
100
AcDbEntity
  8
0
  6
CONTINUOUS
 62
     7
100
AcDbLine
 10
1367.6236098682
 20
674.7820778755
 30
0.0
 11
1376.7152404463
 21
665.6904472975
 31
0.0
  0
LINE
  5
270
330
1F
100
AcDbEntity
  8
0
  6
CONTINUOUS
 62
     7
100
AcDbLine
 10
1367.6236098682
 20
674.7820778755
 30
0.0
 11
1367.6236098682
 21
666.3434534339
 31
0.0
  0
ARC
  5
271
330
1F
100
AcDbEntity
  8
0
  6
CONTINUOUS
 62
     7
100
AcDbCircle
 10
1371.6236064112
 20
666.3434551064
 30
0.0
 40
3.999999999999952
100
AcDbArc
 50
180.0
 51
225.0
  0
LINE
  5
272
330
1F
100
AcDbEntity
  8
0
  6
CONTINUOUS
 62
     7
100
AcDbLine
 10
1368.7951764142
 20
663.5150267748
 30
0.0
 11
1383.9640928482
 21
648.346114066
 31
0.0
  0
ARC
  5
273
330
1F
100
AcDbEntity
  8
0
  6
CONTINUOUS
 62
     7
100
AcDbCircle
 10
1386.7925217699
 20
651.1745397477
 30
0.0
 40
4.000000000000193
100
AcDbArc
 50
225.0
 51
255.6646589821
  0
LINE
  5
274
330
1F
100
AcDbEntity
  8
0
  6
CONTINUOUS
 62
     7
100
AcDbLine
 10
1391.2960005974
 20
652.7929483918
 30
0.0
 11
1385.8021361803
 21
647.2990839747
 31
0.0
  0
LINE
  5
275
330
1F
100
AcDbEntity
  8
0
  6
CONTINUOUS
 62
     7
100
AcDbLine
 10
1387.5402411496
 20
652.7929483918
 30
0.0
 11
1391.2960005974
 21
652.7929483918
 31
0.0
  0
LINE
  5
276
330
1F
100
AcDbEntity
  8
0
  6
CONTINUOUS
 62
     7
100
AcDbLine
 10
1392.1236073648
 20
651.7820834187
 30
0.0
 11
1387.4892940795
 21
647.1477626828
 31
0.0
  0
LINE
  5
277
330
1F
100
AcDbEntity
  8
0
  6
CONTINUOUS
 62
     7
100
AcDbLine
 10
1387.4892940795
 20
647.1477626828
 30
0.0
 11
1397.0932973599
 21
646.812397149
 31
0.0
  0
LINE
  5
278
330
1F
100
AcDbEntity
  8
0
  6
CONTINUOUS
 62
     7
100
AcDbLine
 10
1392.1236073648
 20
651.7820834187
 30
0.0
 11
1397.0932973599
 21
646.812397149
 31
0.0
  0
LINE
  5
279
330
1F
100
AcDbEntity
  8
0
  6
CONTINUOUS
 62
     7
100
AcDbLine
 10
1398.9982990598
 20
646.7458634643
 30
0.0
 11
1402.1392291462
 21
646.6361760167
 31
0.0
  0
LINE
  5
27A
330
1F
100
AcDbEntity
  8
0
  6
CONTINUOUS
 62
     7
100
AcDbLine
 10
1408.2960015213
 20
652.7929483918
 30
0.0
 11
1402.1392291462
 21
646.6361760167
 31
0.0
  0
LINE
  5
27B
330
1F
100
AcDbEntity
  8
0
  6
CONTINUOUS
 62
     7
100
AcDbLine
 10
1392.9512141323
 20
652.7929483918
 30
0.0
 11
1408.2960015213
 21
652.7929483918
 31
0.0
  0
LINE
  5
27C
330
1F
100
AcDbEntity
  8
0
  6
CONTINUOUS
 62
     7
100
AcDbLine
 10
1392.9512141323
 20
652.7929483918
 30
0.0
 11
1398.9982990598
 21
646.7458634643
 31
0.0
  0
LINE
  5
27D
330
1F
100
AcDbEntity
  8
0
  6
CONTINUOUS
 62
     7
100
AcDbLine
 10
1471.538781566
 20
646.1972623137
 30
0.0
 11
1477.1236082589
 21
651.7820834187
 31
0.0
  0
LINE
  5
27E
330
1F
100
AcDbEntity
  8
0
  6
CONTINUOUS
 62
     7
100
AcDbLine
 10
1471.538781566
 20
646.1972623137
 30
0.0
 11
1482.3315380191
 21
646.5741424827
 31
0.0
  0
LINE
  5
27F
330
1F
100
AcDbEntity
  8
0
  6
CONTINUOUS
 62
     7
100
AcDbLine
 10
1477.1236082589
 20
651.7820834187
 30
0.0
 11
1482.3315380191
 21
646.5741424827
 31
0.0
  0
LINE
  5
280
330
1F
100
AcDbEntity
  8
0
  6
CONTINUOUS
 62
     7
100
AcDbLine
 10
1460.9512122398
 20
652.7929483918
 30
0.0
 11
1476.2960014915
 21
652.7929483918
 31
0.0
  0
LINE
  5
281
330
1F
100
AcDbEntity
  8
0
  6
CONTINUOUS
 62
     7
100
AcDbLine
 10
1460.9512122398
 20
652.7929483918
 30
0.0
 11
1467.6816029524
 21
646.0625558165
 31
0.0
  0
LINE
  5
282
330
1F
100
AcDbEntity
  8
0
  6
CONTINUOUS
 62
     7
100
AcDbLine
 10
1467.6816029524
 20
646.0625558165
 30
0.0
 11
1469.633779866
 21
646.130728629
 31
0.0
  0
LINE
  5
283
330
1F
100
AcDbEntity
  8
0
  6
CONTINUOUS
 62
     7
100
AcDbLine
 10
1476.2960014915
 20
652.7929483918
 30
0.0
 11
1469.633779866
 21
646.130728629
 31
0.0
  0
LINE
  5
284
330
1F
100
AcDbEntity
  8
0
  6
CONTINUOUS
 62
     7
100
AcDbLine
 10
1443.1236064112
 20
894.6205555467
 30
0.0
 11
1449.4787826253
 21
900.9757368831
 31
0.0
  0
LINE
  5
285
330
1F
100
AcDbEntity
  8
0
  6
CONTINUOUS
 62
     7
100
AcDbLine
 10
1449.4787826253
 20
900.9757368831
 30
0.0
 11
1443.1236064112
 21
901.1976598767
 31
0.0
  0
LINE
  5
286
330
1F
100
AcDbEntity
  8
0
  6
CONTINUOUS
 62
     7
100
AcDbLine
 10
1443.1236064112
 20
901.1976598767
 30
0.0
 11
1436.768430197
 21
900.9757368831
 31
0.0
  0
LINE
  5
287
330
1F
100
AcDbEntity
  8
0
  6
CONTINUOUS
 62
     7
100
AcDbLine
 10
1443.1236064112
 20
894.6205555467
 30
0.0
 11
1436.768430197
 21
900.9757368831
 31
0.0
  0
LINE
  5
288
330
1F
100
AcDbEntity
  8
0
  6
CONTINUOUS
 62
     7
100
AcDbLine
 10
1418.5656098699
 20
900.3400831489
 30
0.0
 11
1425.2960005825
 21
893.6096905736
 31
0.0
  0
LINE
  5
289
330
1F
100
AcDbEntity
  8
0
  6
CONTINUOUS
 62
     7
100
AcDbLine
 10
1418.5656098699
 20
900.3400831489
 30
0.0
 11
1416.6134329563
 21
900.2719103364
 31
0.0
  0
LINE
  5
28A
330
1F
100
AcDbEntity
  8
0
  6
CONTINUOUS
 62
     7
100
AcDbLine
 10
1409.9512113308
 20
893.6096905736
 30
0.0
 11
1416.6134329563
 21
900.2719103364
 31
0.0
  0
LINE
  5
28B
330
1F
100
AcDbEntity
  8
0
  6
CONTINUOUS
 62
     7
100
AcDbLine
 10
1425.2960005825
 20
893.6096905736
 30
0.0
 11
1409.9512113308
 21
893.6096905736
 31
0.0
  0
LINE
  5
28C
330
1F
100
AcDbEntity
  8
0
  6
CONTINUOUS
 62
     7
100
AcDbLine
 10
1409.1236045634
 20
894.6205555467
 30
0.0
 11
1414.7084312564
 21
900.2053766517
 31
0.0
  0
LINE
  5
28D
330
1F
100
AcDbEntity
  8
0
  6
CONTINUOUS
 62
     7
100
AcDbLine
 10
1414.7084312564
 20
900.2053766517
 30
0.0
 11
1403.9156748032
 21
899.8284964827
 31
0.0
  0
LINE
  5
28E
330
1F
100
AcDbEntity
  8
0
  6
CONTINUOUS
 62
     7
100
AcDbLine
 10
1409.1236045634
 20
894.6205555467
 30
0.0
 11
1403.9156748032
 21
899.8284964827
 31
0.0
  0
LINE
  5
28F
330
1F
100
AcDbEntity
  8
0
  6
CONTINUOUS
 62
     7
100
AcDbLine
 10
1460.123607335
 20
894.6205555467
 30
0.0
 11
1453.9236486008
 21
900.8205114869
 31
0.0
  0
LINE
  5
290
330
1F
100
AcDbEntity
  8
0
  6
CONTINUOUS
 62
     7
100
AcDbLine
 10
1460.123607335
 20
894.6205555467
 30
0.0
 11
1465.9051610207
 21
900.4021166829
 31
0.0
  0
LINE
  5
291
330
1F
100
AcDbEntity
  8
0
  6
CONTINUOUS
 62
     7
100
AcDbLine
 10
1465.9051610207
 20
900.4021166829
 30
0.0
 11
1453.9236486008
 21
900.8205114869
 31
0.0
  0
LINE
  5
292
330
1F
100
AcDbEntity
  8
0
  6
CONTINUOUS
 62
     7
100
AcDbLine
 10
1452.0186469009
 20
900.8870451716
 30
0.0
 11
1451.255225954
 21
900.913703349
 31
0.0
  0
LINE
  5
293
330
1F
100
AcDbEntity
  8
0
  6
CONTINUOUS
 62
     7
100
AcDbLine
 10
1443.9512131204
 20
893.6096905736
 30
0.0
 11
1451.255225954
 21
900.913703349
 31
0.0
  0
LINE
  5
294
330
1F
100
AcDbEntity
  8
0
  6
CONTINUOUS
 62
     7
100
AcDbLine
 10
1459.2960005676
 20
893.6096905736
 30
0.0
 11
1443.9512131204
 21
893.6096905736
 31
0.0
  0
LINE
  5
295
330
1F
100
AcDbEntity
  8
0
  6
CONTINUOUS
 62
     7
100
AcDbLine
 10
1452.0186469009
 20
900.8870451716
 30
0.0
 11
1459.2960005676
 21
893.6096905736
 31
0.0
  0
ARC
  5
296
330
1F
100
AcDbEntity
  8
0
  6
CONTINUOUS
 62
     7
100
AcDbCircle
 10
1499.4546910524
 20
895.2280992177
 30
0.0
 40
16.00000000000021
100
AcDbArc
 50
45.0
 51
88.0
  0
LINE
  5
297
330
1F
100
AcDbEntity
  8
0
  6
CONTINUOUS
 62
     7
100
AcDbLine
 10
1525.9373163855
 20
891.3728921679
 30
0.0
 11
1510.7683962261
 21
906.5418123273
 31
0.0
  0
ARC
  5
298
330
1F
100
AcDbEntity
  8
0
  6
CONTINUOUS
 62
     7
100
AcDbCircle
 10
1514.6236064112
 20
880.059183859
 30
0.0
 40
16.00000000000013
100
AcDbArc
 50
0.0
 51
45.0
  0
LINE
  5
299
330
1F
100
AcDbEntity
  8
0
  6
CONTINUOUS
 62
     7
100
AcDbLine
 10
1530.623604921
 20
867.201316264
 30
0.0
 11
1530.623604921
 21
880.0591855315
 31
0.0
  0
LINE
  5
29A
330
1F
100
AcDbEntity
  8
0
  6
CONTINUOUS
 62
     7
100
AcDbLine
 10
1530.623604921
 20
812.2013202874
 30
0.0
 11
1530.623604921
 21
864.201317635
 31
0.0
  0
LINE
  5
29B
330
1F
100
AcDbEntity
  8
0
  6
CONTINUOUS
 62
     7
100
AcDbLine
 10
1530.623604921
 20
737.2013210324
 30
0.0
 11
1530.623604921
 21
809.201317933
 31
0.0
  0
LINE
  5
29C
330
1F
100
AcDbEntity
  8
0
  6
CONTINUOUS
 62
     7
100
AcDbLine
 10
1530.623604921
 20
682.2013213304
 30
0.0
 11
1530.623604921
 21
734.201318678
 31
0.0
  0
LINE
  5
29D
330
1F
100
AcDbEntity
  8
0
  6
CONTINUOUS
 62
     7
100
AcDbLine
 10
1530.623604921
 20
666.3434534339
 30
0.0
 11
1530.623604921
 21
679.2013227014
 31
0.0
  0
ARC
  5
29E
330
1F
100
AcDbEntity
  8
0
  6
CONTINUOUS
 62
     7
100
AcDbCircle
 10
1514.6236064112
 20
666.3434551064
 30
0.0
 40
16.0
100
AcDbArc
 50
315.0
 51
0.0
  0
LINE
  5
29F
330
1F
100
AcDbEntity
  8
0
  6
CONTINUOUS
 62
     7
100
AcDbLine
 10
1510.7683962261
 20
639.8608266381
 30
0.0
 11
1525.9373163855
 21
655.0297467975
 31
0.0
  0
ARC
  5
2A0
330
1F
100
AcDbEntity
  8
0
  6
CONTINUOUS
 62
     7
100
AcDbCircle
 10
1499.4546910524
 20
651.1745397477
 30
0.0
 40
16.00000000000029
100
AcDbArc
 50
272.0
 51
315.0
  0
LINE
  5
2A1
330
1F
100
AcDbEntity
  8
0
  6
CONTINUOUS
 62
     7
100
AcDbLine
 10
1443.1236064112
 20
633.1976681022
 30
0.0
 11
1500.0130845284
 21
635.1842909125
 31
0.0
  0
LINE
  5
2A2
330
1F
100
AcDbEntity
  8
0
  6
CONTINUOUS
 62
     7
100
AcDbLine
 10
1386.2341282939
 20
635.1842909125
 30
0.0
 11
1443.1236064112
 21
633.1976681022
 31
0.0
  0
ARC
  5
2A3
330
1F
100
AcDbEntity
  8
0
  6
CONTINUOUS
 62
     7
100
AcDbCircle
 10
1386.7925217699
 20
651.1745397477
 30
0.0
 40
16.00000000000013
100
AcDbArc
 50
225.0
 51
268.0
  0
LINE
  5
2A4
330
1F
100
AcDbEntity
  8
0
  6
CONTINUOUS
 62
     7
100
AcDbLine
 10
1360.3098964369
 20
655.0297467975
 30
0.0
 11
1375.4788165962
 21
639.8608266381
 31
0.0
  0
ARC
  5
2A5
330
1F
100
AcDbEntity
  8
0
  6
CONTINUOUS
 62
     7
100
AcDbCircle
 10
1371.6236064112
 20
666.3434551064
 30
0.0
 40
16.0
100
AcDbArc
 50
180.0
 51
225.0
  0
LINE
  5
2A6
330
1F
100
AcDbEntity
  8
0
  6
CONTINUOUS
 62
     7
100
AcDbLine
 10
1355.6236079013
 20
880.0591855315
 30
0.0
 11
1355.6236079013
 21
666.3434534339
 31
0.0
  0
ARC
  5
2A7
330
1F
100
AcDbEntity
  8
0
  6
CONTINUOUS
 62
     7
100
AcDbCircle
 10
1371.6236064112
 20
880.059183859
 30
0.0
 40
16.00000000000013
100
AcDbArc
 50
135.0
 51
180.0
  0
LINE
  5
2A8
330
1F
100
AcDbEntity
  8
0
  6
CONTINUOUS
 62
     7
100
AcDbLine
 10
1375.4788165962
 20
906.5418123273
 30
0.0
 11
1360.3098964369
 21
891.3728921679
 31
0.0
  0
ARC
  5
2A9
330
1F
100
AcDbEntity
  8
0
  6
CONTINUOUS
 62
     7
100
AcDbCircle
 10
1386.7925217699
 20
895.2280992177
 30
0.0
 40
16.00000000000006
100
AcDbArc
 50
92.0
 51
135.0
  0
LINE
  5
2AA
330
1F
100
AcDbEntity
  8
0
  6
CONTINUOUS
 62
     7
100
AcDbLine
 10
1443.1236064112
 20
913.2049708632
 30
0.0
 11
1386.2341282939
 21
911.2183480529
 31
0.0
  0
LINE
  5
2AB
330
1F
100
AcDbEntity
  8
0
  6
CONTINUOUS
 62
     7
100
AcDbLine
 10
1500.0130845284
 20
911.2183480529
 30
0.0
 11
1443.1236064112
 21
913.2049708632
 31
0.0
  0
LINE
  5
2AC
330
1F
100
AcDbEntity
  8
0
  6
CONTINUOUS
 62
     7
100
AcDbLine
 10
1509.5319723761
 20
882.7846824197
 30
0.0
 11
1498.7069716727
 21
893.6096905736
 31
0.0
  0
LINE
  5
2AD
330
1F
100
AcDbEntity
  8
0
  6
CONTINUOUS
 62
     7
100
AcDbLine
 10
1509.5319723761
 20
880.7121916679
 30
0.0
 11
1509.5319723761
 21
882.7846824197
 31
0.0
  0
LINE
  5
2AE
330
1F
100
AcDbEntity
  8
0
  6
CONTINUOUS
 62
     7
100
AcDbLine
 10
1518.6236029541
 20
871.6205610899
 30
0.0
 11
1509.5319723761
 21
880.7121916679
 31
0.0
  0
LINE
  5
2AF
330
1F
100
AcDbEntity
  8
0
  6
CONTINUOUS
 62
     7
100
AcDbLine
 10
1518.6236029541
 20
871.6205610899
 30
0.0
 11
1518.6236029541
 21
880.0591855315
 31
0.0
  0
ARC
  5
2B0
330
1F
100
AcDbEntity
  8
0
  6
CONTINUOUS
 62
     7
100
AcDbCircle
 10
1514.6236064112
 20
880.059183859
 30
0.0
 40
4.000000000000113
100
AcDbArc
 50
0.0
 51
45.0
  0
LINE
  5
2B1
330
1F
100
AcDbEntity
  8
0
  6
CONTINUOUS
 62
     7
100
AcDbLine
 10
1517.4520364081
 20
882.8876121906
 30
0.0
 11
1502.2831199741
 21
898.0565248994
 31
0.0
  0
ARC
  5
2B2
330
1F
100
AcDbEntity
  8
0
  6
CONTINUOUS
 62
     7
100
AcDbCircle
 10
1499.4546910524
 20
895.2280992177
 30
0.0
 40
4.00000000000001
100
AcDbArc
 50
45.0
 51
75.6646589821
  0
LINE
  5
2B3
330
1F
100
AcDbEntity
  8
0
  6
CONTINUOUS
 62
     7
100
AcDbLine
 10
1494.9512122249
 20
893.6096905736
 30
0.0
 11
1500.445076642
 21
899.1035549907
 31
0.0
  0
LINE
  5
2B4
330
1F
100
AcDbEntity
  8
0
  6
CONTINUOUS
 62
     7
100
AcDbLine
 10
1498.7069716727
 20
893.6096905736
 30
0.0
 11
1494.9512122249
 21
893.6096905736
 31
0.0
  0
LINE
  5
2B5
330
1F
100
AcDbEntity
  8
0
  6
CONTINUOUS
 62
     7
100
AcDbLine
 10
1494.1236054575
 20
894.6205555467
 30
0.0
 11
1498.7579187428
 21
899.2548762826
 31
0.0
  0
LINE
  5
2B6
330
1F
100
AcDbEntity
  8
0
  6
CONTINUOUS
 62
     7
100
AcDbLine
 10
1498.7579187428
 20
899.2548762826
 30
0.0
 11
1489.1539154624
 21
899.5902418164
 31
0.0
  0
LINE
  5
2B7
330
1F
100
AcDbEntity
  8
0
  6
CONTINUOUS
 62
     7
100
AcDbLine
 10
1494.1236054575
 20
894.6205555467
 30
0.0
 11
1489.1539154624
 21
899.5902418164
 31
0.0
  0
LINE
  5
2B8
330
1F
100
AcDbEntity
  8
0
  6
CONTINUOUS
 62
     7
100
AcDbLine
 10
1487.2489137625
 20
899.6567755011
 30
0.0
 11
1484.1079836761
 21
899.7664629487
 31
0.0
  0
LINE
  5
2B9
330
1F
100
AcDbEntity
  8
0
  6
CONTINUOUS
 62
     7
100
AcDbLine
 10
1477.951211301
 20
893.6096905736
 30
0.0
 11
1484.1079836761
 21
899.7664629487
 31
0.0
  0
LINE
  5
2BA
330
1F
100
AcDbEntity
  8
0
  6
CONTINUOUS
 62
     7
100
AcDbLine
 10
1493.2959986901
 20
893.6096905736
 30
0.0
 11
1477.951211301
 21
893.6096905736
 31
0.0
  0
LINE
  5
2BB
330
1F
100
AcDbEntity
  8
0
  6
CONTINUOUS
 62
     7
100
AcDbLine
 10
1493.2959986901
 20
893.6096905736
 30
0.0
 11
1487.2489137625
 21
899.6567755011
 31
0.0
  0
LINE
  5
2BC
330
1F
100
AcDbEntity
  8
0
  6
CONTINUOUS
 62
     7
100
AcDbLine
 10
1360.2526983296
 20
891.4300902752
 30
0.0
 11
1360.3098964369
 21
891.3728921679
 31
0.0
  0
LINE
  5
2BD
330
1F
100
AcDbEntity
  8
0
  6
CONTINUOUS
 62
     7
100
AcDbLine
 10
1355.5463081276
 20
880.0591855315
 30
0.0
 11
1355.6236079013
 21
880.0591855315
 31
0.0
  0
ARC
  5
2BE
330
1F
100
AcDbEntity
  8
0
  6
CONTINUOUS
 62
     7
100
AcDbCircle
 10
1371.6358908398
 20
880.059183859
 30
0.0
 40
16.08958272751192
100
AcDbArc
 50
135.0309327049
 51
180.0
  0
LINE
  5
2BF
330
1F
100
AcDbEntity
  8
0
  6
CONTINUOUS
 62
     7
100
AcDbLine
 10
1355.5463081276
 20
666.3434534339
 30
0.0
 11
1355.6236079013
 21
666.3434534339
 31
0.0
  0
LINE
  5
2C0
330
1F
100
AcDbEntity
  8
0
  6
CONTINUOUS
 62
     7
100
AcDbLine
 10
1360.2526983296
 20
654.9725486902
 30
0.0
 11
1360.3098964369
 21
655.0297467975
 31
0.0
  0
ARC
  5
2C1
330
1F
100
AcDbEntity
  8
0
  6
CONTINUOUS
 62
     7
100
AcDbCircle
 10
1371.6358908398
 20
666.3434551064
 30
0.0
 40
16.08958272751192
100
AcDbArc
 50
180.0
 51
224.9690672951
  0
LINE
  5
2C2
330
1F
100
AcDbEntity
  8
0
  6
CONTINUOUS
 62
     7
100
AcDbLine
 10
1355.5463081276
 20
666.3434534339
 30
0.0
 11
1355.5463081276
 21
880.0591855315
 31
0.0
  0
LINE
  5
2C3
330
1F
100
AcDbEntity
  8
0
  6
CONTINUOUS
 62
     7
100
AcDbLine
 10
1375.421901611
 20
639.8039191035
 30
0.0
 11
1374.3108859336
 21
640.9137277869
 31
0.0
  0
SPLINE
  5
2C4
330
1F
100
AcDbEntity
  8
0
  6
CONTINUOUS
 62
     7
100
AcDbSpline
210
0.0
220
0.0
230
1.0
 70
     8
 71
     3
 72
     8
 73
     4
 74
     0
 42
0.00000001
 43
0.00000001
 12
1.0
 22
0.0
 32
0.0
 13
1.0
 23
0.0
 33
0.0
 40
0.0
 40
0.0
 40
0.0
 40
0.0
 40
1.0
 40
1.0
 40
1.0
 40
1.0
 10
1374.310888633152
 20
640.9137279970262
 30
0.0
 10
1369.819160581831
 20
645.4052490841459
 30
0.0
 10
1365.32753601261
 20
649.8968736533664
 30
0.0
 10
1360.836014925491
 20
654.3886017046875
 30
0.0
  0
LINE
  5
2C5
330
1F
100
AcDbEntity
  8
0
  6
CONTINUOUS
 62
     7
100
AcDbLine
 10
1360.8360117351
 20
654.3886019854
 30
0.0
 11
1360.2526983296
 21
654.9725486902
 31
0.0
  0
LINE
  5
2C6
330
1F
100
AcDbEntity
  8
0
  6
CONTINUOUS
 62
     7
100
AcDbLine
 10
1375.421901611
 20
639.8039191035
 30
0.0
 11
1375.4788165962
 21
639.8608266381
 31
0.0
  0
LINE
  5
2C7
330
1F
100
AcDbEntity
  8
0
  6
CONTINUOUS
 62
     7
100
AcDbLine
 10
1360.2526983296
 20
891.4300902752
 30
0.0
 11
1360.8360117351
 21
892.01403698
 31
0.0
  0
SPLINE
  5
2C8
330
1F
100
AcDbEntity
  8
0
  6
CONTINUOUS
 62
     7
100
AcDbSpline
210
0.0
220
0.0
230
1.0
 70
     8
 71
     3
 72
     8
 73
     4
 74
     0
 42
0.00000001
 43
0.00000001
 12
1.0
 22
0.0
 32
0.0
 13
1.0
 23
0.0
 33
0.0
 40
0.0
 40
0.0
 40
0.0
 40
0.0
 40
1.0
 40
1.0
 40
1.0
 40
1.0
 10
1360.836014925491
 20
892.0140372607123
 30
0.0
 10
1365.32753601261
 20
896.5057653120334
 30
0.0
 10
1369.819160581831
 20
900.997389881254
 30
0.0
 10
1374.310888633152
 20
905.4889109683736
 30
0.0
  0
LINE
  5
2C9
330
1F
100
AcDbEntity
  8
0
  6
CONTINUOUS
 62
     7
100
AcDbLine
 10
1374.3108859336
 20
905.4889111785
 30
0.0
 11
1375.421901611
 21
906.5987198619
 31
0.0
  0
LINE
  5
2CA
330
1F
100
AcDbEntity
  8
0
  6
CONTINUOUS
 62
     7
100
AcDbLine
 10
1375.421901611
 20
906.5987198619
 30
0.0
 11
1375.4788165962
 21
906.5418123273
 31
0.0
  0
LINE
  5
2CB
330
1F
100
AcDbEntity
  8
0
  6
CONTINUOUS
 62
     7
100
AcDbLine
 10
1367.7101930654
 20
752.573044133
 30
0.0
 11
1374.32007995
 21
745.9560195921
 31
0.0
  0
LINE
  5
2CC
330
1F
100
AcDbEntity
  8
0
  6
CONTINUOUS
 62
     7
100
AcDbLine
 10
1367.7101930654
 20
752.573044133
 30
0.0
 11
1367.6236098682
 21
752.7820813475
 31
0.0
  0
LINE
  5
2CD
330
1F
100
AcDbEntity
  8
0
  6
CONTINUOUS
 62
     7
100
AcDbLine
 10
1376.3247778689
 20
743.9513198105
 30
0.0
 11
1376.4543658173
 21
743.9513198105
 31
0.0
  0
LINE
  5
2CE
330
1F
100
AcDbEntity
  8
0
  6
CONTINUOUS
 62
     7
100
AcDbLine
 10
1376.3247778689
 20
743.9513198105
 30
0.0
 11
1374.32007995
 21
745.9560195921
 31
0.0
  0
LINE
  5
2CF
330
1F
100
AcDbEntity
  8
0
  6
CONTINUOUS
 62
     7
100
AcDbLine
 10
1368.8570236837
 20
882.8257649211
 30
0.0
 11
1368.7951764142
 21
882.8876121906
 31
0.0
  0
ARC
  5
2D0
330
1F
100
AcDbEntity
  8
0
  6
CONTINUOUS
 62
     7
100
AcDbCircle
 10
1371.6206207909
 20
880.059183859
 30
0.0
 40
3.91042893120084
100
AcDbArc
 50
134.9690672951
 51
180.0
  0
LINE
  5
2D1
330
1F
100
AcDbEntity
  8
0
  6
CONTINUOUS
 62
     7
100
AcDbLine
 10
1367.7101930654
 20
880.0591855315
 30
0.0
 11
1367.6236098682
 21
880.0591855315
 31
0.0
  0
LINE
  5
2D2
330
1F
100
AcDbEntity
  8
0
  6
CONTINUOUS
 62
     7
100
AcDbLine
 10
1367.7101930654
 20
666.3434534339
 30
0.0
 11
1367.6236098682
 21
666.3434534339
 31
0.0
  0
LINE
  5
2D3
330
1F
100
AcDbEntity
  8
0
  6
CONTINUOUS
 62
     7
100
AcDbLine
 10
1367.7101930654
 20
674.5730443863
 30
0.0
 11
1367.6236098682
 21
674.7820778755
 31
0.0
  0
LINE
  5
2D4
330
1F
100
AcDbEntity
  8
0
  6
CONTINUOUS
 62
     7
100
AcDbLine
 10
1367.7101930654
 20
666.3434534339
 30
0.0
 11
1367.7101930654
 21
674.5730443863
 31
0.0
  0
LINE
  5
2D5
330
1F
100
AcDbEntity
  8
0
  6
CONTINUOUS
 62
     7
100
AcDbLine
 10
1367.6236098682
 20
735.1205601362
 30
0.0
 11
1367.7101930654
 21
735.3295936254
 31
0.0
  0
LINE
  5
2D6
330
1F
100
AcDbEntity
  8
0
  6
CONTINUOUS
 62
     7
100
AcDbLine
 10
1374.32007995
 20
741.9466181663
 30
0.0
 11
1367.7101930654
 21
735.3295936254
 31
0.0
  0
LINE
  5
2D7
330
1F
100
AcDbEntity
  8
0
  6
CONTINUOUS
 62
     7
100
AcDbLine
 10
1376.3247778689
 20
743.9513198105
 30
0.0
 11
1374.32007995
 21
741.9466181663
 31
0.0
  0
LINE
  5
2D8
330
1F
100
AcDbEntity
  8
0
  6
CONTINUOUS
 62
     7
100
AcDbLine
 10
1367.6236098682
 20
813.1205580202
 30
0.0
 11
1367.7101930654
 21
813.3295952348
 31
0.0
  0
LINE
  5
2D9
330
1F
100
AcDbEntity
  8
0
  6
CONTINUOUS
 62
     7
100
AcDbLine
 10
1374.32007995
 20
819.9466197757
 30
0.0
 11
1367.7101930654
 21
813.3295952348
 31
0.0
  0
LINE
  5
2DA
330
1F
100
AcDbEntity
  8
0
  6
CONTINUOUS
 62
     7
100
AcDbLine
 10
1376.3247778689
 20
821.9513176946
 30
0.0
 11
1374.32007995
 21
819.9466197757
 31
0.0
  0
LINE
  5
2DB
330
1F
100
AcDbEntity
  8
0
  6
CONTINUOUS
 62
     7
100
AcDbLine
 10
1376.4543658173
 20
821.9513176946
 30
0.0
 11
1376.3247778689
 21
821.9513176946
 31
0.0
  0
LINE
  5
2DC
330
1F
100
AcDbEntity
  8
0
  6
CONTINUOUS
 62
     7
100
AcDbLine
 10
1367.6236098682
 20
832.6205565599
 30
0.0
 11
1367.7101930654
 21
832.8295937745
 31
0.0
  0
LINE
  5
2DD
330
1F
100
AcDbEntity
  8
0
  6
CONTINUOUS
 62
     7
100
AcDbLine
 10
1374.32007995
 20
839.4466220406
 30
0.0
 11
1367.7101930654
 21
832.8295937745
 31
0.0
  0
LINE
  5
2DE
330
1F
100
AcDbEntity
  8
0
  6
CONTINUOUS
 62
     7
100
AcDbLine
 10
1376.3247778689
 20
841.4513199595
 30
0.0
 11
1374.32007995
 21
839.4466220406
 31
0.0
  0
LINE
  5
2DF
330
1F
100
AcDbEntity
  8
0
  6
CONTINUOUS
 62
     7
100
AcDbLine
 10
1376.4543658173
 20
841.4513199595
 30
0.0
 11
1376.3247778689
 21
841.4513199595
 31
0.0
  0
LINE
  5
2E0
330
1F
100
AcDbEntity
  8
0
  6
CONTINUOUS
 62
     7
100
AcDbLine
 10
1367.7101930654
 20
713.5730451909
 30
0.0
 11
1367.6236098682
 21
713.7820824055
 31
0.0
  0
LINE
  5
2E1
330
1F
100
AcDbEntity
  8
0
  6
CONTINUOUS
 62
     7
100
AcDbLine
 10
1367.7101930654
 20
696.3295965461
 30
0.0
 11
1367.7101930654
 21
713.5730451909
 31
0.0
  0
LINE
  5
2E2
330
1F
100
AcDbEntity
  8
0
  6
CONTINUOUS
 62
     7
100
AcDbLine
 10
1367.6236098682
 20
696.1205556063
 30
0.0
 11
1367.7101930654
 21
696.3295965461
 31
0.0
  0
LINE
  5
2E3
330
1F
100
AcDbEntity
  8
0
  6
CONTINUOUS
 62
     7
100
AcDbLine
 10
1367.6236098682
 20
715.6205578712
 30
0.0
 11
1367.7101930654
 21
715.8295950858
 31
0.0
  0
LINE
  5
2E4
330
1F
100
AcDbEntity
  8
0
  6
CONTINUOUS
 62
     7
100
AcDbLine
 10
1374.32007995
 20
722.4466196267
 30
0.0
 11
1367.7101930654
 21
715.8295950858
 31
0.0
  0
LINE
  5
2E5
330
1F
100
AcDbEntity
  8
0
  6
CONTINUOUS
 62
     7
100
AcDbLine
 10
1376.3247778689
 20
724.4513212708
 30
0.0
 11
1374.32007995
 21
722.4466196267
 31
0.0
  0
LINE
  5
2E6
330
1F
100
AcDbEntity
  8
0
  6
CONTINUOUS
 62
     7
100
AcDbLine
 10
1376.3247778689
 20
724.4513212708
 30
0.0
 11
1376.4543658173
 21
724.4513212708
 31
0.0
  0
LINE
  5
2E7
330
1F
100
AcDbEntity
  8
0
  6
CONTINUOUS
 62
     7
100
AcDbLine
 10
1367.7101930654
 20
830.5730438796
 30
0.0
 11
1367.6236098682
 21
830.7820810942
 31
0.0
  0
LINE
  5
2E8
330
1F
100
AcDbEntity
  8
0
  6
CONTINUOUS
 62
     7
100
AcDbLine
 10
1367.7101930654
 20
813.3295952348
 30
0.0
 11
1367.7101930654
 21
830.5730438796
 31
0.0
  0
LINE
  5
2E9
330
1F
100
AcDbEntity
  8
0
  6
CONTINUOUS
 62
     7
100
AcDbLine
 10
1367.7101930654
 20
772.0730448845
 30
0.0
 11
1374.32007995
 21
765.4560190631
 31
0.0
  0
LINE
  5
2EA
330
1F
100
AcDbEntity
  8
0
  6
CONTINUOUS
 62
     7
100
AcDbLine
 10
1367.7101930654
 20
772.0730448845
 30
0.0
 11
1367.6236098682
 21
772.2820806439
 31
0.0
  0
LINE
  5
2EB
330
1F
100
AcDbEntity
  8
0
  6
CONTINUOUS
 62
     7
100
AcDbLine
 10
1376.3247778689
 20
763.4513192815
 30
0.0
 11
1376.4543658173
 21
763.4513192815
 31
0.0
  0
LINE
  5
2EC
330
1F
100
AcDbEntity
  8
0
  6
CONTINUOUS
 62
     7
100
AcDbLine
 10
1376.3247778689
 20
763.4513192815
 30
0.0
 11
1374.32007995
 21
765.4560190631
 31
0.0
  0
LINE
  5
2ED
330
1F
100
AcDbEntity
  8
0
  6
CONTINUOUS
 62
     7
100
AcDbLine
 10
1367.6236098682
 20
774.1205583215
 30
0.0
 11
1367.7101930654
 21
774.3295940809
 31
0.0
  0
LINE
  5
2EE
330
1F
100
AcDbEntity
  8
0
  6
CONTINUOUS
 62
     7
100
AcDbLine
 10
1374.32007995
 20
780.9466199023
 30
0.0
 11
1367.7101930654
 21
774.3295940809
 31
0.0
  0
LINE
  5
2EF
330
1F
100
AcDbEntity
  8
0
  6
CONTINUOUS
 62
     7
100
AcDbLine
 10
1376.3247778689
 20
782.9513196839
 30
0.0
 11
1374.32007995
 21
780.9466199023
 31
0.0
  0
LINE
  5
2F0
330
1F
100
AcDbEntity
  8
0
  6
CONTINUOUS
 62
     7
100
AcDbLine
 10
1376.4543658173
 20
782.9513196839
 30
0.0
 11
1376.3247778689
 21
782.9513196839
 31
0.0
  0
LINE
  5
2F1
330
1F
100
AcDbEntity
  8
0
  6
CONTINUOUS
 62
     7
100
AcDbLine
 10
1367.7101930654
 20
850.0730424193
 30
0.0
 11
1374.32007995
 21
843.4560178784
 31
0.0
  0
LINE
  5
2F2
330
1F
100
AcDbEntity
  8
0
  6
CONTINUOUS
 62
     7
100
AcDbLine
 10
1367.7101930654
 20
850.0730424193
 30
0.0
 11
1367.6236098682
 21
850.2820833591
 31
0.0
  0
LINE
  5
2F3
330
1F
100
AcDbEntity
  8
0
  6
CONTINUOUS
 62
     7
100
AcDbLine
 10
1376.3247778689
 20
841.4513199595
 30
0.0
 11
1374.32007995
 21
843.4560178784
 31
0.0
  0
LINE
  5
2F4
330
1F
100
AcDbEntity
  8
0
  6
CONTINUOUS
 62
     7
100
AcDbLine
 10
1367.6236098682
 20
871.6205610899
 30
0.0
 11
1367.7101930654
 21
871.8295945791
 31
0.0
  0
LINE
  5
2F5
330
1F
100
AcDbEntity
  8
0
  6
CONTINUOUS
 62
     7
100
AcDbLine
 10
1374.32007995
 20
878.44661912
 30
0.0
 11
1367.7101930654
 21
871.8295945791
 31
0.0
  0
LINE
  5
2F6
330
1F
100
AcDbEntity
  8
0
  6
CONTINUOUS
 62
     7
100
AcDbLine
 10
1376.6236057555
 20
880.7501449255
 30
0.0
 11
1374.32007995
 21
878.44661912
 31
0.0
  0
LINE
  5
2F7
330
1F
100
AcDbEntity
  8
0
  6
CONTINUOUS
 62
     7
100
AcDbLine
 10
1376.6236057555
 20
880.7501449255
 30
0.0
 11
1376.7152404463
 21
880.7121916679
 31
0.0
  0
LINE
  5
2F8
330
1F
100
AcDbEntity
  8
0
  6
CONTINUOUS
 62
     7
100
AcDbLine
 10
1367.7101930654
 20
811.07304534
 30
0.0
 11
1374.32007995
 21
804.4560207991
 31
0.0
  0
LINE
  5
2F9
330
1F
100
AcDbEntity
  8
0
  6
CONTINUOUS
 62
     7
100
AcDbLine
 10
1367.7101930654
 20
811.07304534
 30
0.0
 11
1367.6236098682
 21
811.2820788292
 31
0.0
  0
LINE
  5
2FA
330
1F
100
AcDbEntity
  8
0
  6
CONTINUOUS
 62
     7
100
AcDbLine
 10
1376.4543658173
 20
802.4513191549
 30
0.0
 11
1376.3247778689
 21
802.4513191549
 31
0.0
  0
LINE
  5
2FB
330
1F
100
AcDbEntity
  8
0
  6
CONTINUOUS
 62
     7
100
AcDbLine
 10
1376.3247778689
 20
802.4513191549
 30
0.0
 11
1374.32007995
 21
804.4560207991
 31
0.0
  0
LINE
  5
2FC
330
1F
100
AcDbEntity
  8
0
  6
CONTINUOUS
 62
     7
100
AcDbLine
 10
1367.7101930654
 20
735.3295936254
 30
0.0
 11
1367.7101930654
 21
752.573044133
 31
0.0
  0
LINE
  5
2FD
330
1F
100
AcDbEntity
  8
0
  6
CONTINUOUS
 62
     7
100
AcDbLine
 10
1367.6236098682
 20
676.6205607919
 30
0.0
 11
1367.7101930654
 21
676.8295942811
 31
0.0
  0
LINE
  5
2FE
330
1F
100
AcDbEntity
  8
0
  6
CONTINUOUS
 62
     7
100
AcDbLine
 10
1374.32007995
 20
683.446618822
 30
0.0
 11
1367.7101930654
 21
676.8295942811
 31
0.0
  0
LINE
  5
2FF
330
1F
100
AcDbEntity
  8
0
  6
CONTINUOUS
 62
     7
100
AcDbLine
 10
1376.3247778689
 20
685.4513167409
 30
0.0
 11
1374.32007995
 21
683.446618822
 31
0.0
  0
LINE
  5
300
330
1F
100
AcDbEntity
  8
0
  6
CONTINUOUS
 62
     7
100
AcDbLine
 10
1376.3247778689
 20
685.4513167409
 30
0.0
 11
1376.4543658173
 21
685.4513167409
 31
0.0
  0
LINE
  5
301
330
1F
100
AcDbEntity
  8
0
  6
CONTINUOUS
 62
     7
100
AcDbLine
 10
1367.7101930654
 20
733.0730437306
 30
0.0
 11
1374.32007995
 21
726.4560191897
 31
0.0
  0
LINE
  5
302
330
1F
100
AcDbEntity
  8
0
  6
CONTINUOUS
 62
     7
100
AcDbLine
 10
1367.7101930654
 20
733.0730437306
 30
0.0
 11
1367.6236098682
 21
733.2820809452
 31
0.0
  0
LINE
  5
303
330
1F
100
AcDbEntity
  8
0
  6
CONTINUOUS
 62
     7
100
AcDbLine
 10
1376.3247778689
 20
724.4513212708
 30
0.0
 11
1374.32007995
 21
726.4560191897
 31
0.0
  0
LINE
  5
304
330
1F
100
AcDbEntity
  8
0
  6
CONTINUOUS
 62
     7
100
AcDbLine
 10
1367.7101930654
 20
832.8295937745
 30
0.0
 11
1367.7101930654
 21
850.0730424193
 31
0.0
  0
LINE
  5
305
330
1F
100
AcDbEntity
  8
0
  6
CONTINUOUS
 62
     7
100
AcDbLine
 10
1367.7101930654
 20
791.5730449376
 30
0.0
 11
1374.32007995
 21
784.9560194654
 31
0.0
  0
LINE
  5
306
330
1F
100
AcDbEntity
  8
0
  6
CONTINUOUS
 62
     7
100
AcDbLine
 10
1367.7101930654
 20
791.5730449376
 30
0.0
 11
1367.6236098682
 21
791.7820802895
 31
0.0
  0
LINE
  5
307
330
1F
100
AcDbEntity
  8
0
  6
CONTINUOUS
 62
     7
100
AcDbLine
 10
1376.3247778689
 20
782.9513196839
 30
0.0
 11
1374.32007995
 21
784.9560194654
 31
0.0
  0
LINE
  5
308
330
1F
100
AcDbEntity
  8
0
  6
CONTINUOUS
 62
     7
100
AcDbLine
 10
1367.6236098682
 20
793.6205576179
 30
0.0
 11
1367.7101930654
 21
793.8295948324
 31
0.0
  0
LINE
  5
309
330
1F
100
AcDbEntity
  8
0
  6
CONTINUOUS
 62
     7
100
AcDbLine
 10
1374.32007995
 20
800.4466193733
 30
0.0
 11
1367.7101930654
 21
793.8295948324
 31
0.0
  0
LINE
  5
30A
330
1F
100
AcDbEntity
  8
0
  6
CONTINUOUS
 62
     7
100
AcDbLine
 10
1376.3247778689
 20
802.4513191549
 30
0.0
 11
1374.32007995
 21
800.4466193733
 31
0.0
  0
LINE
  5
30B
330
1F
100
AcDbEntity
  8
0
  6
CONTINUOUS
 62
     7
100
AcDbLine
 10
1367.7101930654
 20
713.5730451909
 30
0.0
 11
1374.32007995
 21
706.9560169248
 31
0.0
  0
LINE
  5
30C
330
1F
100
AcDbEntity
  8
0
  6
CONTINUOUS
 62
     7
100
AcDbLine
 10
1376.3247778689
 20
704.9513190059
 30
0.0
 11
1376.4543658173
 21
704.9513190059
 31
0.0
  0
LINE
  5
30D
330
1F
100
AcDbEntity
  8
0
  6
CONTINUOUS
 62
     7
100
AcDbLine
 10
1376.3247778689
 20
704.9513190059
 30
0.0
 11
1374.32007995
 21
706.9560169248
 31
0.0
  0
ARC
  5
30E
330
1F
100
AcDbEntity
  8
0
  6
CONTINUOUS
 62
     7
100
AcDbCircle
 10
1371.6206207909
 20
666.3434551064
 30
0.0
 40
3.91042893120084
100
AcDbArc
 50
180.0
 51
225.0309327049
  0
LINE
  5
30F
330
1F
100
AcDbEntity
  8
0
  6
CONTINUOUS
 62
     7
100
AcDbLine
 10
1368.8570236837
 20
663.5768740443
 30
0.0
 11
1368.7951764142
 21
663.5150267748
 31
0.0
  0
LINE
  5
310
330
1F
100
AcDbEntity
  8
0
  6
CONTINUOUS
 62
     7
100
AcDbLine
 10
1367.7101930654
 20
774.3295940809
 30
0.0
 11
1367.7101930654
 21
791.5730449376
 31
0.0
  0
LINE
  5
311
330
1F
100
AcDbEntity
  8
0
  6
CONTINUOUS
 62
     7
100
AcDbLine
 10
1367.6236098682
 20
852.1205588249
 30
0.0
 11
1367.7101930654
 21
852.3295923141
 31
0.0
  0
LINE
  5
312
330
1F
100
AcDbEntity
  8
0
  6
CONTINUOUS
 62
     7
100
AcDbLine
 10
1374.32007995
 20
858.946616855
 30
0.0
 11
1367.7101930654
 21
852.3295923141
 31
0.0
  0
LINE
  5
313
330
1F
100
AcDbEntity
  8
0
  6
CONTINUOUS
 62
     7
100
AcDbLine
 10
1376.3247778689
 20
860.9513222245
 30
0.0
 11
1374.32007995
 21
858.946616855
 31
0.0
  0
LINE
  5
314
330
1F
100
AcDbEntity
  8
0
  6
CONTINUOUS
 62
     7
100
AcDbLine
 10
1376.4543658173
 20
860.9513222245
 30
0.0
 11
1376.3247778689
 21
860.9513222245
 31
0.0
  0
LINE
  5
315
330
1F
100
AcDbEntity
  8
0
  6
CONTINUOUS
 62
     7
100
AcDbLine
 10
1367.7101930654
 20
694.0730466513
 30
0.0
 11
1374.32007995
 21
687.4560221104
 31
0.0
  0
LINE
  5
316
330
1F
100
AcDbEntity
  8
0
  6
CONTINUOUS
 62
     7
100
AcDbLine
 10
1367.7101930654
 20
694.0730466513
 30
0.0
 11
1367.6236098682
 21
694.2820801405
 31
0.0
  0
LINE
  5
317
330
1F
100
AcDbEntity
  8
0
  6
CONTINUOUS
 62
     7
100
AcDbLine
 10
1376.3247778689
 20
685.4513167409
 30
0.0
 11
1374.32007995
 21
687.4560221104
 31
0.0
  0
LINE
  5
318
330
1F
100
AcDbEntity
  8
0
  6
CONTINUOUS
 62
     7
100
AcDbLine
 10
1367.7101930654
 20
869.5730446843
 30
0.0
 11
1367.6236098682
 21
869.7820781735
 31
0.0
  0
LINE
  5
319
330
1F
100
AcDbEntity
  8
0
  6
CONTINUOUS
 62
     7
100
AcDbLine
 10
1367.7101930654
 20
852.3295923141
 30
0.0
 11
1367.7101930654
 21
869.5730446843
 31
0.0
  0
LINE
  5
31A
330
1F
100
AcDbEntity
  8
0
  6
CONTINUOUS
 62
     7
100
AcDbLine
 10
1367.7101930654
 20
754.8295940278
 30
0.0
 11
1367.7101930654
 21
772.0730448845
 31
0.0
  0
LINE
  5
31B
330
1F
100
AcDbEntity
  8
0
  6
CONTINUOUS
 62
     7
100
AcDbLine
 10
1367.6236098682
 20
754.6205586759
 30
0.0
 11
1367.7101930654
 21
754.8295940278
 31
0.0
  0
LINE
  5
31C
330
1F
100
AcDbEntity
  8
0
  6
CONTINUOUS
 62
     7
100
AcDbLine
 10
1374.32007995
 20
761.4466195
 30
0.0
 11
1367.7101930654
 21
754.8295940278
 31
0.0
  0
LINE
  5
31D
330
1F
100
AcDbEntity
  8
0
  6
CONTINUOUS
 62
     7
100
AcDbLine
 10
1376.3247778689
 20
763.4513192815
 30
0.0
 11
1374.32007995
 21
761.4466195
 31
0.0
  0
LINE
  5
31E
330
1F
100
AcDbEntity
  8
0
  6
CONTINUOUS
 62
     7
100
AcDbLine
 10
1367.7101930654
 20
715.8295950858
 30
0.0
 11
1367.7101930654
 21
733.0730437306
 31
0.0
  0
LINE
  5
31F
330
1F
100
AcDbEntity
  8
0
  6
CONTINUOUS
 62
     7
100
AcDbLine
 10
1374.32007995
 20
702.946621087
 30
0.0
 11
1367.7101930654
 21
696.3295965461
 31
0.0
  0
LINE
  5
320
330
1F
100
AcDbEntity
  8
0
  6
CONTINUOUS
 62
     7
100
AcDbLine
 10
1376.3247778689
 20
704.9513190059
 30
0.0
 11
1374.32007995
 21
702.946621087
 31
0.0
  0
LINE
  5
321
330
1F
100
AcDbEntity
  8
0
  6
CONTINUOUS
 62
     7
100
AcDbLine
 10
1367.7101930654
 20
676.8295942811
 30
0.0
 11
1367.7101930654
 21
694.0730466513
 31
0.0
  0
LINE
  5
322
330
1F
100
AcDbEntity
  8
0
  6
CONTINUOUS
 62
     7
100
AcDbLine
 10
1367.7101930654
 20
793.8295948324
 30
0.0
 11
1367.7101930654
 21
811.07304534
 31
0.0
  0
LINE
  5
323
330
1F
100
AcDbEntity
  8
0
  6
CONTINUOUS
 62
     7
100
AcDbLine
 10
1367.7101930654
 20
871.8295945791
 30
0.0
 11
1367.7101930654
 21
880.0591855315
 31
0.0
  0
LINE
  5
324
330
1F
100
AcDbEntity
  8
0
  6
CONTINUOUS
 62
     7
100
AcDbLine
 10
1367.7101930654
 20
869.5730446843
 30
0.0
 11
1374.32007995
 21
862.9560201434
 31
0.0
  0
LINE
  5
325
330
1F
100
AcDbEntity
  8
0
  6
CONTINUOUS
 62
     7
100
AcDbLine
 10
1376.3247778689
 20
860.9513222245
 30
0.0
 11
1374.32007995
 21
862.9560201434
 31
0.0
  0
LINE
  5
326
330
1F
100
AcDbEntity
  8
0
  6
CONTINUOUS
 62
     7
100
AcDbLine
 10
1367.7101930654
 20
674.5730443863
 30
0.0
 11
1374.32007995
 21
667.9560198454
 31
0.0
  0
LINE
  5
327
330
1F
100
AcDbEntity
  8
0
  6
CONTINUOUS
 62
     7
100
AcDbLine
 10
1376.6236057555
 20
665.6524940399
 30
0.0
 11
1376.7152404463
 21
665.6904472975
 31
0.0
  0
LINE
  5
328
330
1F
100
AcDbEntity
  8
0
  6
CONTINUOUS
 62
     7
100
AcDbLine
 10
1376.6236057555
 20
665.6524940399
 30
0.0
 11
1374.32007995
 21
667.9560198454
 31
0.0
  0
LINE
  5
329
330
1F
100
AcDbEntity
  8
0
  6
CONTINUOUS
 62
     7
100
AcDbLine
 10
1367.7101930654
 20
830.5730438796
 30
0.0
 11
1374.32007995
 21
823.9560193387
 31
0.0
  0
LINE
  5
32A
330
1F
100
AcDbEntity
  8
0
  6
CONTINUOUS
 62
     7
100
AcDbLine
 10
1376.3247778689
 20
821.9513176946
 30
0.0
 11
1374.32007995
 21
823.9560193387
 31
0.0
  0
LINE
  5
32B
330
1F
100
AcDbEntity
  8
0
  6
CONTINUOUS
 62
     7
100
AcDbLine
 10
1374.32007995
 20
876.3489677576
 30
0.0
 11
1368.6663260734
 21
870.7013159064
 31
0.0
  0
LINE
  5
32C
330
1F
100
AcDbEntity
  8
0
  6
CONTINUOUS
 62
     7
100
AcDbLine
 10
1368.5428476011
 20
870.7013159064
 30
0.0
 11
1368.6663260734
 21
870.7013159064
 31
0.0
  0
LINE
  5
32D
330
1F
100
AcDbEntity
  8
0
  6
CONTINUOUS
 62
     7
100
AcDbLine
 10
1376.6236057555
 20
878.6524935631
 30
0.0
 11
1376.7152404463
 21
878.8737162022
 31
0.0
  0
LINE
  5
32E
330
1F
100
AcDbEntity
  8
0
  6
CONTINUOUS
 62
     7
100
AcDbLine
 10
1376.6236057555
 20
878.6524935631
 30
0.0
 11
1374.32007995
 21
876.3489677576
 31
0.0
  0
LINE
  5
32F
330
1F
100
AcDbEntity
  8
0
  6
CONTINUOUS
 62
     7
100
AcDbLine
 10
1368.5428476011
 20
675.701323059
 30
0.0
 11
1368.6663260734
 21
675.701323059
 31
0.0
  0
LINE
  5
330
330
1F
100
AcDbEntity
  8
0
  6
CONTINUOUS
 62
     7
100
AcDbLine
 10
1368.6663260734
 20
675.701323059
 30
0.0
 11
1374.32007995
 21
670.0536712078
 31
0.0
  0
LINE
  5
331
330
1F
100
AcDbEntity
  8
0
  6
CONTINUOUS
 62
     7
100
AcDbLine
 10
1374.32007995
 20
670.0536712078
 30
0.0
 11
1376.6236057555
 21
667.7501454023
 31
0.0
  0
LINE
  5
332
330
1F
100
AcDbEntity
  8
0
  6
CONTINUOUS
 62
     7
100
AcDbLine
 10
1376.6236057555
 20
667.7501454023
 30
0.0
 11
1376.7152404463
 21
667.5289227632
 31
0.0
  0
LINE
  5
333
330
1F
100
AcDbEntity
  8
0
  6
CONTINUOUS
 62
     7
100
AcDbLine
 10
1368.5428476011
 20
773.2013194827
 30
0.0
 11
1368.6663260734
 21
773.2013194827
 31
0.0
  0
LINE
  5
334
330
1F
100
AcDbEntity
  8
0
  6
CONTINUOUS
 62
     7
100
AcDbLine
 10
1368.6663260734
 20
773.2013194827
 30
0.0
 11
1374.32007995
 21
767.5536713568
 31
0.0
  0
LINE
  5
335
330
1F
100
AcDbEntity
  8
0
  6
CONTINUOUS
 62
     7
100
AcDbLine
 10
1374.32007995
 20
767.5536713568
 30
0.0
 11
1376.6236057555
 21
765.2501455513
 31
0.0
  0
LINE
  5
336
330
1F
100
AcDbEntity
  8
0
  6
CONTINUOUS
 62
     7
100
AcDbLine
 10
1376.6236057555
 20
765.2501455513
 30
0.0
 11
1376.7152404463
 21
765.0289266375
 31
0.0
  0
LINE
  5
337
330
1F
100
AcDbEntity
  8
0
  6
CONTINUOUS
 62
     7
100
AcDbLine
 10
1374.32007995
 20
798.3489680109
 30
0.0
 11
1368.6663260734
 21
792.701319885
 31
0.0
  0
LINE
  5
338
330
1F
100
AcDbEntity
  8
0
  6
CONTINUOUS
 62
     7
100
AcDbLine
 10
1368.5428476011
 20
792.701319885
 30
0.0
 11
1368.6663260734
 21
792.701319885
 31
0.0
  0
LINE
  5
339
330
1F
100
AcDbEntity
  8
0
  6
CONTINUOUS
 62
     7
100
AcDbLine
 10
1376.6236057555
 20
800.6524938164
 30
0.0
 11
1376.7152404463
 21
800.8737127302
 31
0.0
  0
LINE
  5
33A
330
1F
100
AcDbEntity
  8
0
  6
CONTINUOUS
 62
     7
100
AcDbLine
 10
1376.6236057555
 20
800.6524938164
 30
0.0
 11
1374.32007995
 21
798.3489680109
 31
0.0
  0
LINE
  5
33B
330
1F
100
AcDbEntity
  8
0
  6
CONTINUOUS
 62
     7
100
AcDbLine
 10
1374.32007995
 20
681.3489674596
 30
0.0
 11
1368.6663260734
 21
675.701323059
 31
0.0
  0
LINE
  5
33C
330
1F
100
AcDbEntity
  8
0
  6
CONTINUOUS
 62
     7
100
AcDbLine
 10
1376.6236057555
 20
683.652493265
 30
0.0
 11
1376.7152404463
 21
683.8737159041
 31
0.0
  0
LINE
  5
33D
330
1F
100
AcDbEntity
  8
0
  6
CONTINUOUS
 62
     7
100
AcDbLine
 10
1376.6236057555
 20
683.652493265
 30
0.0
 11
1374.32007995
 21
681.3489674596
 31
0.0
  0
LINE
  5
33E
330
1F
100
AcDbEntity
  8
0
  6
CONTINUOUS
 62
     7
100
AcDbLine
 10
1368.5428476011
 20
714.7013201384
 30
0.0
 11
1368.6663260734
 21
714.7013201384
 31
0.0
  0
LINE
  5
33F
330
1F
100
AcDbEntity
  8
0
  6
CONTINUOUS
 62
     7
100
AcDbLine
 10
1368.6663260734
 20
714.7013201384
 30
0.0
 11
1374.32007995
 21
709.0536682872
 31
0.0
  0
LINE
  5
340
330
1F
100
AcDbEntity
  8
0
  6
CONTINUOUS
 62
     7
100
AcDbLine
 10
1374.32007995
 20
709.0536682872
 30
0.0
 11
1376.6236057555
 21
706.7501424817
 31
0.0
  0
LINE
  5
341
330
1F
100
AcDbEntity
  8
0
  6
CONTINUOUS
 62
     7
100
AcDbLine
 10
1376.6236057555
 20
706.7501424817
 30
0.0
 11
1376.7152404463
 21
706.5289272932
 31
0.0
  0
LINE
  5
342
330
1F
100
AcDbEntity
  8
0
  6
CONTINUOUS
 62
     7
100
AcDbLine
 10
1374.32007995
 20
739.8489668039
 30
0.0
 11
1368.6663260734
 21
734.201318678
 31
0.0
  0
LINE
  5
343
330
1F
100
AcDbEntity
  8
0
  6
CONTINUOUS
 62
     7
100
AcDbLine
 10
1368.5428476011
 20
734.201318678
 30
0.0
 11
1368.6663260734
 21
734.201318678
 31
0.0
  0
LINE
  5
344
330
1F
100
AcDbEntity
  8
0
  6
CONTINUOUS
 62
     7
100
AcDbLine
 10
1376.6236057555
 20
742.1524926094
 30
0.0
 11
1376.7152404463
 21
742.3737133858
 31
0.0
  0
LINE
  5
345
330
1F
100
AcDbEntity
  8
0
  6
CONTINUOUS
 62
     7
100
AcDbLine
 10
1376.6236057555
 20
742.1524926094
 30
0.0
 11
1374.32007995
 21
739.8489668039
 31
0.0
  0
LINE
  5
346
330
1F
100
AcDbEntity
  8
0
  6
CONTINUOUS
 62
     7
100
AcDbLine
 10
1368.5428476011
 20
695.2013178734
 30
0.0
 11
1368.6663260734
 21
695.2013178734
 31
0.0
  0
LINE
  5
347
330
1F
100
AcDbEntity
  8
0
  6
CONTINUOUS
 62
     7
100
AcDbLine
 10
1368.6663260734
 20
695.2013178734
 30
0.0
 11
1374.32007995
 21
689.5536734728
 31
0.0
  0
LINE
  5
348
330
1F
100
AcDbEntity
  8
0
  6
CONTINUOUS
 62
     7
100
AcDbLine
 10
1374.32007995
 20
689.5536734728
 30
0.0
 11
1376.6236057555
 21
687.2501476673
 31
0.0
  0
LINE
  5
349
330
1F
100
AcDbEntity
  8
0
  6
CONTINUOUS
 62
     7
100
AcDbLine
 10
1376.6236057555
 20
687.2501476673
 30
0.0
 11
1376.7152404463
 21
687.0289250282
 31
0.0
  0
LINE
  5
34A
330
1F
100
AcDbEntity
  8
0
  6
CONTINUOUS
 62
     7
100
AcDbLine
 10
1374.32007995
 20
837.3489706782
 30
0.0
 11
1368.6663260734
 21
831.701318827
 31
0.0
  0
LINE
  5
34B
330
1F
100
AcDbEntity
  8
0
  6
CONTINUOUS
 62
     7
100
AcDbLine
 10
1368.5428476011
 20
831.701318827
 30
0.0
 11
1368.6663260734
 21
831.701318827
 31
0.0
  0
LINE
  5
34C
330
1F
100
AcDbEntity
  8
0
  6
CONTINUOUS
 62
     7
100
AcDbLine
 10
1376.6236057555
 20
839.6524964837
 30
0.0
 11
1376.7152404463
 21
839.8737116722
 31
0.0
  0
LINE
  5
34D
330
1F
100
AcDbEntity
  8
0
  6
CONTINUOUS
 62
     7
100
AcDbLine
 10
1376.6236057555
 20
839.6524964837
 30
0.0
 11
1374.32007995
 21
837.3489706782
 31
0.0
  0
LINE
  5
34E
330
1F
100
AcDbEntity
  8
0
  6
CONTINUOUS
 62
     7
100
AcDbLine
 10
1368.6663260734
 20
734.201318678
 30
0.0
 11
1374.32007995
 21
728.5536705522
 31
0.0
  0
LINE
  5
34F
330
1F
100
AcDbEntity
  8
0
  6
CONTINUOUS
 62
     7
100
AcDbLine
 10
1374.32007995
 20
728.5536705522
 30
0.0
 11
1376.6236057555
 21
726.2501447467
 31
0.0
  0
LINE
  5
350
330
1F
100
AcDbEntity
  8
0
  6
CONTINUOUS
 62
     7
100
AcDbLine
 10
1376.6236057555
 20
726.2501447467
 30
0.0
 11
1376.7152404463
 21
726.0289258329
 31
0.0
  0
LINE
  5
351
330
1F
100
AcDbEntity
  8
0
  6
CONTINUOUS
 62
     7
100
AcDbLine
 10
1368.5428476011
 20
851.201321092
 30
0.0
 11
1368.6663260734
 21
851.201321092
 31
0.0
  0
LINE
  5
352
330
1F
100
AcDbEntity
  8
0
  6
CONTINUOUS
 62
     7
100
AcDbLine
 10
1368.6663260734
 20
851.201321092
 30
0.0
 11
1374.32007995
 21
845.5536692408
 31
0.0
  0
LINE
  5
353
330
1F
100
AcDbEntity
  8
0
  6
CONTINUOUS
 62
     7
100
AcDbLine
 10
1374.32007995
 20
845.5536692408
 30
0.0
 11
1376.6236057555
 21
843.2501434354
 31
0.0
  0
LINE
  5
354
330
1F
100
AcDbEntity
  8
0
  6
CONTINUOUS
 62
     7
100
AcDbLine
 10
1376.6236057555
 20
843.2501434354
 30
0.0
 11
1376.7152404463
 21
843.0289282469
 31
0.0
  0
LINE
  5
355
330
1F
100
AcDbEntity
  8
0
  6
CONTINUOUS
 62
     7
100
AcDbLine
 10
1374.32007995
 20
817.8489684132
 30
0.0
 11
1368.6663260734
 21
812.2013202874
 31
0.0
  0
LINE
  5
356
330
1F
100
AcDbEntity
  8
0
  6
CONTINUOUS
 62
     7
100
AcDbLine
 10
1368.5428476011
 20
812.2013202874
 30
0.0
 11
1368.6663260734
 21
812.2013202874
 31
0.0
  0
LINE
  5
357
330
1F
100
AcDbEntity
  8
0
  6
CONTINUOUS
 62
     7
100
AcDbLine
 10
1376.6236057555
 20
820.1524942187
 30
0.0
 11
1376.7152404463
 21
820.3737131325
 31
0.0
  0
LINE
  5
358
330
1F
100
AcDbEntity
  8
0
  6
CONTINUOUS
 62
     7
100
AcDbLine
 10
1376.6236057555
 20
820.1524942187
 30
0.0
 11
1374.32007995
 21
817.8489684132
 31
0.0
  0
LINE
  5
359
330
1F
100
AcDbEntity
  8
0
  6
CONTINUOUS
 62
     7
100
AcDbLine
 10
1368.5428476011
 20
753.7013190804
 30
0.0
 11
1368.6663260734
 21
753.7013190804
 31
0.0
  0
LINE
  5
35A
330
1F
100
AcDbEntity
  8
0
  6
CONTINUOUS
 62
     7
100
AcDbLine
 10
1368.6663260734
 20
753.7013190804
 30
0.0
 11
1374.32007995
 21
748.0536709545
 31
0.0
  0
LINE
  5
35B
330
1F
100
AcDbEntity
  8
0
  6
CONTINUOUS
 62
     7
100
AcDbLine
 10
1374.32007995
 20
748.0536709545
 30
0.0
 11
1376.6236057555
 21
745.750145149
 31
0.0
  0
LINE
  5
35C
330
1F
100
AcDbEntity
  8
0
  6
CONTINUOUS
 62
     7
100
AcDbLine
 10
1376.6236057555
 20
745.750145149
 30
0.0
 11
1376.7152404463
 21
745.5289262352
 31
0.0
  0
LINE
  5
35D
330
1F
100
AcDbEntity
  8
0
  6
CONTINUOUS
 62
     7
100
AcDbLine
 10
1374.32007995
 20
856.8489654926
 30
0.0
 11
1368.6663260734
 21
851.201321092
 31
0.0
  0
LINE
  5
35E
330
1F
100
AcDbEntity
  8
0
  6
CONTINUOUS
 62
     7
100
AcDbLine
 10
1376.6236057555
 20
859.1524912981
 30
0.0
 11
1376.7152404463
 21
859.3737139372
 31
0.0
  0
LINE
  5
35F
330
1F
100
AcDbEntity
  8
0
  6
CONTINUOUS
 62
     7
100
AcDbLine
 10
1376.6236057555
 20
859.1524912981
 30
0.0
 11
1374.32007995
 21
856.8489654926
 31
0.0
  0
LINE
  5
360
330
1F
100
AcDbEntity
  8
0
  6
CONTINUOUS
 62
     7
100
AcDbLine
 10
1374.32007995
 20
700.8489697246
 30
0.0
 11
1368.6663260734
 21
695.2013178734
 31
0.0
  0
LINE
  5
361
330
1F
100
AcDbEntity
  8
0
  6
CONTINUOUS
 62
     7
100
AcDbLine
 10
1376.6236057555
 20
703.15249553
 30
0.0
 11
1376.7152404463
 21
703.3737107185
 31
0.0
  0
LINE
  5
362
330
1F
100
AcDbEntity
  8
0
  6
CONTINUOUS
 62
     7
100
AcDbLine
 10
1376.6236057555
 20
703.15249553
 30
0.0
 11
1374.32007995
 21
700.8489697246
 31
0.0
  0
LINE
  5
363
330
1F
100
AcDbEntity
  8
0
  6
CONTINUOUS
 62
     7
100
AcDbLine
 10
1374.32007995
 20
778.8489676086
 30
0.0
 11
1368.6663260734
 21
773.2013194827
 31
0.0
  0
LINE
  5
364
330
1F
100
AcDbEntity
  8
0
  6
CONTINUOUS
 62
     7
100
AcDbLine
 10
1376.6236057555
 20
781.1524934141
 30
0.0
 11
1376.7152404463
 21
781.3737123279
 31
0.0
  0
LINE
  5
365
330
1F
100
AcDbEntity
  8
0
  6
CONTINUOUS
 62
     7
100
AcDbLine
 10
1376.6236057555
 20
781.1524934141
 30
0.0
 11
1374.32007995
 21
778.8489676086
 31
0.0
  0
LINE
  5
366
330
1F
100
AcDbEntity
  8
0
  6
CONTINUOUS
 62
     7
100
AcDbLine
 10
1368.6663260734
 20
812.2013202874
 30
0.0
 11
1374.32007995
 21
806.5536721615
 31
0.0
  0
LINE
  5
367
330
1F
100
AcDbEntity
  8
0
  6
CONTINUOUS
 62
     7
100
AcDbLine
 10
1374.32007995
 20
806.5536721615
 30
0.0
 11
1376.6236057555
 21
804.250146356
 31
0.0
  0
LINE
  5
368
330
1F
100
AcDbEntity
  8
0
  6
CONTINUOUS
 62
     7
100
AcDbLine
 10
1376.6236057555
 20
804.250146356
 30
0.0
 11
1376.7152404463
 21
804.0289255796
 31
0.0
  0
LINE
  5
369
330
1F
100
AcDbEntity
  8
0
  6
CONTINUOUS
 62
     7
100
AcDbLine
 10
1368.6663260734
 20
831.701318827
 30
0.0
 11
1374.32007995
 21
826.0536707012
 31
0.0
  0
LINE
  5
36A
330
1F
100
AcDbEntity
  8
0
  6
CONTINUOUS
 62
     7
100
AcDbLine
 10
1374.32007995
 20
826.0536707012
 30
0.0
 11
1376.6236057555
 21
823.7501448957
 31
0.0
  0
LINE
  5
36B
330
1F
100
AcDbEntity
  8
0
  6
CONTINUOUS
 62
     7
100
AcDbLine
 10
1376.6236057555
 20
823.7501448957
 30
0.0
 11
1376.7152404463
 21
823.5289259819
 31
0.0
  0
LINE
  5
36C
330
1F
100
AcDbEntity
  8
0
  6
CONTINUOUS
 62
     7
100
AcDbLine
 10
1374.32007995
 20
720.3489682642
 30
0.0
 11
1368.6663260734
 21
714.7013201384
 31
0.0
  0
LINE
  5
36D
330
1F
100
AcDbEntity
  8
0
  6
CONTINUOUS
 62
     7
100
AcDbLine
 10
1376.6236057555
 20
722.6524940697
 30
0.0
 11
1376.7152404463
 21
722.8737129835
 31
0.0
  0
LINE
  5
36E
330
1F
100
AcDbEntity
  8
0
  6
CONTINUOUS
 62
     7
100
AcDbLine
 10
1376.6236057555
 20
722.6524940697
 30
0.0
 11
1374.32007995
 21
720.3489682642
 31
0.0
  0
LINE
  5
36F
330
1F
100
AcDbEntity
  8
0
  6
CONTINUOUS
 62
     7
100
AcDbLine
 10
1368.6663260734
 20
792.701319885
 30
0.0
 11
1374.32007995
 21
787.0536717591
 31
0.0
  0
LINE
  5
370
330
1F
100
AcDbEntity
  8
0
  6
CONTINUOUS
 62
     7
100
AcDbLine
 10
1374.32007995
 20
787.0536717591
 30
0.0
 11
1376.6236057555
 21
784.7501459537
 31
0.0
  0
LINE
  5
371
330
1F
100
AcDbEntity
  8
0
  6
CONTINUOUS
 62
     7
100
AcDbLine
 10
1376.6236057555
 20
784.7501459537
 30
0.0
 11
1376.7152404463
 21
784.5289261086
 31
0.0
  0
LINE
  5
372
330
1F
100
AcDbEntity
  8
0
  6
CONTINUOUS
 62
     7
100
AcDbLine
 10
1368.6663260734
 20
870.7013159064
 30
0.0
 11
1374.32007995
 21
865.0536715058
 31
0.0
  0
LINE
  5
373
330
1F
100
AcDbEntity
  8
0
  6
CONTINUOUS
 62
     7
100
AcDbLine
 10
1374.32007995
 20
865.0536715058
 30
0.0
 11
1376.6236057555
 21
862.7501457004
 31
0.0
  0
LINE
  5
374
330
1F
100
AcDbEntity
  8
0
  6
CONTINUOUS
 62
     7
100
AcDbLine
 10
1376.6236057555
 20
862.7501457004
 30
0.0
 11
1376.7152404463
 21
862.5289230613
 31
0.0
  0
LINE
  5
375
330
1F
100
AcDbEntity
  8
0
  6
CONTINUOUS
 62
     7
100
AcDbLine
 10
1374.32007995
 20
759.3489672063
 30
0.0
 11
1368.6663260734
 21
753.7013190804
 31
0.0
  0
LINE
  5
376
330
1F
100
AcDbEntity
  8
0
  6
CONTINUOUS
 62
     7
100
AcDbLine
 10
1376.6236057555
 20
761.6524930117
 30
0.0
 11
1376.7152404463
 21
761.8737128568
 31
0.0
  0
LINE
  5
377
330
1F
100
AcDbEntity
  8
0
  6
CONTINUOUS
 62
     7
100
AcDbLine
 10
1376.6236057555
 20
761.6524930117
 30
0.0
 11
1374.32007995
 21
759.3489672063
 31
0.0
  0
LINE
  5
378
330
1F
100
AcDbEntity
  8
0
  6
CONTINUOUS
 62
     7
100
AcDbLine
 10
1378.0420025861
 20
654.3977960018
 30
0.0
 11
1374.32007995
 21
658.1197111873
 31
0.0
  0
LINE
  5
379
330
1F
100
AcDbEntity
  8
0
  6
CONTINUOUS
 62
     7
100
AcDbLine
 10
1384.0256532704
 20
648.4076707629
 30
0.0
 11
1378.0420025861
 21
654.3977960018
 31
0.0
  0
LINE
  5
37A
330
1F
100
AcDbEntity
  8
0
  6
CONTINUOUS
 62
     7
100
AcDbLine
 10
1384.0256532704
 20
648.4076707629
 30
0.0
 11
1383.9640928482
 21
648.346114066
 31
0.0
  0
LINE
  5
37B
330
1F
100
AcDbEntity
  8
0
  6
CONTINUOUS
 62
     7
100
AcDbLine
 10
1374.32007995
 20
658.1197111873
 30
0.0
 11
1368.8570236837
 21
663.5768740443
 31
0.0
  0
LINE
  5
37C
330
1F
100
AcDbEntity
  8
0
  6
CONTINUOUS
 62
     7
100
AcDbLine
 10
1384.0256532704
 20
897.9949682025
 30
0.0
 11
1383.9640928482
 21
898.0565248994
 31
0.0
  0
LINE
  5
37D
330
1F
100
AcDbEntity
  8
0
  6
CONTINUOUS
 62
     7
100
AcDbLine
 10
1378.0420025861
 20
892.0048429636
 30
0.0
 11
1384.0256532704
 21
897.9949682025
 31
0.0
  0
LINE
  5
37E
330
1F
100
AcDbEntity
  8
0
  6
CONTINUOUS
 62
     7
100
AcDbLine
 10
1374.32007995
 20
888.2829277781
 30
0.0
 11
1378.0420025861
 21
892.0048429636
 31
0.0
  0
LINE
  5
37F
330
1F
100
AcDbEntity
  8
0
  6
CONTINUOUS
 62
     7
100
AcDbLine
 10
1368.8570236837
 20
882.8257649211
 30
0.0
 11
1374.32007995
 21
888.2829277781
 31
0.0
  0
ARC
  5
380
330
1F
100
AcDbEntity
  8
0
  6
CONTINUOUS
 62
     7
100
AcDbCircle
 10
1386.7925217699
 20
651.1868238692
 30
0.0
 40
16.08918052419332
100
AcDbArc
 50
225.0309327049
 51
268.0015266939
  0
LINE
  5
381
330
1F
100
AcDbEntity
  8
0
  6
CONTINUOUS
 62
     7
100
AcDbLine
 10
1386.2314460849
 20
635.1074307231
 30
0.0
 11
1386.2341282939
 21
635.1842909125
 31
0.0
  0
ARC
  5
382
330
1F
100
AcDbEntity
  8
0
  6
CONTINUOUS
 62
     7
100
AcDbCircle
 10
1386.7925217699
 20
895.2158150962
 30
0.0
 40
16.08918052419321
100
AcDbArc
 50
91.9984733061
 51
134.9690672951
  0
LINE
  5
383
330
1F
100
AcDbEntity
  8
0
  6
CONTINUOUS
 62
     7
100
AcDbLine
 10
1386.2314460849
 20
911.2952082423
 30
0.0
 11
1386.2341282939
 21
911.2183480529
 31
0.0
  0
LINE
  5
384
330
1F
100
AcDbEntity
  8
0
  6
CONTINUOUS
 62
     7
100
AcDbLine
 10
1376.6236057555
 20
722.6524940697
 30
0.0
 11
1376.6236057555
 21
706.7501424817
 31
0.0
  0
LINE
  5
385
330
1F
100
AcDbEntity
  8
0
  6
CONTINUOUS
 62
     7
100
AcDbLine
 10
1376.6236057555
 20
683.652493265
 30
0.0
 11
1376.6236057555
 21
667.7501454023
 31
0.0
  0
LINE
  5
386
330
1F
100
AcDbEntity
  8
0
  6
CONTINUOUS
 62
     7
100
AcDbLine
 10
1376.6236057555
 20
882.8226431278
 30
0.0
 11
1385.8058130419
 21
892.0048429636
 31
0.0
  0
LINE
  5
387
330
1F
100
AcDbEntity
  8
0
  6
CONTINUOUS
 62
     7
100
AcDbLine
 10
1385.8058130419
 20
892.0048429636
 30
0.0
 11
1387.5028206086
 21
893.7000288633
 31
0.0
  0
LINE
  5
388
330
1F
100
AcDbEntity
  8
0
  6
CONTINUOUS
 62
     7
100
AcDbLine
 10
1387.5402411496
 20
893.6096905736
 30
0.0
 11
1387.5028206086
 21
893.7000288633
 31
0.0
  0
LINE
  5
389
330
1F
100
AcDbEntity
  8
0
  6
CONTINUOUS
 62
     7
100
AcDbLine
 10
1376.7152404463
 20
882.7846824197
 30
0.0
 11
1376.6236057555
 21
882.8226431278
 31
0.0
  0
LINE
  5
38A
330
1F
100
AcDbEntity
  8
0
  6
CONTINUOUS
 62
     7
100
AcDbLine
 10
1376.6236057555
 20
761.6524930117
 30
0.0
 11
1376.6236057555
 21
745.750145149
 31
0.0
  0
LINE
  5
38B
330
1F
100
AcDbEntity
  8
0
  6
CONTINUOUS
 62
     7
100
AcDbLine
 10
1376.7152404463
 20
663.6179565457
 30
0.0
 11
1376.6236057555
 21
663.5799958376
 31
0.0
  0
LINE
  5
38C
330
1F
100
AcDbEntity
  8
0
  6
CONTINUOUS
 62
     7
100
AcDbLine
 10
1376.6236057555
 20
665.6524940399
 30
0.0
 11
1376.6236057555
 21
663.5799958376
 31
0.0
  0
LINE
  5
38D
330
1F
100
AcDbEntity
  8
0
  6
CONTINUOUS
 62
     7
100
AcDbLine
 10
1376.6236057555
 20
742.1524926094
 30
0.0
 11
1376.6236057555
 21
726.2501447467
 31
0.0
  0
LINE
  5
38E
330
1F
100
AcDbEntity
  8
0
  6
CONTINUOUS
 62
     7
100
AcDbLine
 10
1376.6236057555
 20
859.1524912981
 30
0.0
 11
1376.6236057555
 21
843.2501434354
 31
0.0
  0
LINE
  5
38F
330
1F
100
AcDbEntity
  8
0
  6
CONTINUOUS
 62
     7
100
AcDbLine
 10
1376.6236057555
 20
800.6524938164
 30
0.0
 11
1376.6236057555
 21
784.7501459537
 31
0.0
  0
LINE
  5
390
330
1F
100
AcDbEntity
  8
0
  6
CONTINUOUS
 62
     7
100
AcDbLine
 10
1376.6236057555
 20
820.1524942187
 30
0.0
 11
1376.6236057555
 21
804.250146356
 31
0.0
  0
LINE
  5
391
330
1F
100
AcDbEntity
  8
0
  6
CONTINUOUS
 62
     7
100
AcDbLine
 10
1376.6236057555
 20
703.15249553
 30
0.0
 11
1376.6236057555
 21
687.2501476673
 31
0.0
  0
LINE
  5
392
330
1F
100
AcDbEntity
  8
0
  6
CONTINUOUS
 62
     7
100
AcDbLine
 10
1376.6236057555
 20
882.8226431278
 30
0.0
 11
1376.6236057555
 21
880.7501449255
 31
0.0
  0
LINE
  5
393
330
1F
100
AcDbEntity
  8
0
  6
CONTINUOUS
 62
     7
100
AcDbLine
 10
1376.6236057555
 20
839.6524964837
 30
0.0
 11
1376.6236057555
 21
823.7501448957
 31
0.0
  0
LINE
  5
394
330
1F
100
AcDbEntity
  8
0
  6
CONTINUOUS
 62
     7
100
AcDbLine
 10
1376.6236057555
 20
878.6524935631
 30
0.0
 11
1376.6236057555
 21
862.7501457004
 31
0.0
  0
LINE
  5
395
330
1F
100
AcDbEntity
  8
0
  6
CONTINUOUS
 62
     7
100
AcDbLine
 10
1376.6236057555
 20
781.1524934141
 30
0.0
 11
1376.6236057555
 21
765.2501455513
 31
0.0
  0
LINE
  5
396
330
1F
100
AcDbEntity
  8
0
  6
CONTINUOUS
 62
     7
100
AcDbLine
 10
1387.5028206086
 20
652.7026101021
 30
0.0
 11
1385.8058130419
 21
654.3977960018
 31
0.0
  0
LINE
  5
397
330
1F
100
AcDbEntity
  8
0
  6
CONTINUOUS
 62
     7
100
AcDbLine
 10
1376.6236057555
 20
663.5799958376
 30
0.0
 11
1385.8058130419
 21
654.3977960018
 31
0.0
  0
LINE
  5
398
330
1F
100
AcDbEntity
  8
0
  6
CONTINUOUS
 62
     7
100
AcDbLine
 10
1387.5402411496
 20
652.7929483918
 30
0.0
 11
1387.5028206086
 21
652.7026101021
 31
0.0
  0
LINE
  5
399
330
1F
100
AcDbEntity
  8
0
  6
CONTINUOUS
 62
     7
100
AcDbLine
 10
1388.1235433793
 20
654.2011677293
 30
0.0
 11
1387.9271311736
 21
654.3977960018
 31
0.0
  0
LINE
  5
39A
330
1F
100
AcDbEntity
  8
0
  6
CONTINUOUS
 62
     7
100
AcDbLine
 10
1388.0856497263
 20
654.1096895007
 30
0.0
 11
1388.1235433793
 21
654.2011677293
 31
0.0
  0
LINE
  5
39B
330
1F
100
AcDbEntity
  8
0
  6
CONTINUOUS
 62
     7
100
AcDbLine
 10
1378.0319741046
 20
664.1633613972
 30
0.0
 11
1378.1236087954
 21
664.2013221053
 31
0.0
  0
LINE
  5
39C
330
1F
100
AcDbEntity
  8
0
  6
CONTINUOUS
 62
     7
100
AcDbLine
 10
1378.1236087954
 20
664.2013221053
 30
0.0
 11
1387.9271311736
 21
654.3977960018
 31
0.0
  0
LINE
  5
39D
330
1F
100
AcDbEntity
  8
0
  6
CONTINUOUS
 62
     7
100
AcDbLine
 10
1378.0319741046
 20
882.2392775682
 30
0.0
 11
1378.1236087954
 21
882.2013168601
 31
0.0
  0
LINE
  5
39E
330
1F
100
AcDbEntity
  8
0
  6
CONTINUOUS
 62
     7
100
AcDbLine
 10
1378.1236087954
 20
882.2013168601
 30
0.0
 11
1378.1236087954
 21
664.2013221053
 31
0.0
  0
LINE
  5
39F
330
1F
100
AcDbEntity
  8
0
  6
CONTINUOUS
 62
     7
100
AcDbLine
 10
1388.0856497263
 20
892.2929494647
 30
0.0
 11
1388.1235433793
 21
892.2014712361
 31
0.0
  0
LINE
  5
3A0
330
1F
100
AcDbEntity
  8
0
  6
CONTINUOUS
 62
     7
100
AcDbLine
 10
1387.9271311736
 20
892.0048429636
 30
0.0
 11
1388.1235433793
 21
892.2014712361
 31
0.0
  0
LINE
  5
3A1
330
1F
100
AcDbEntity
  8
0
  6
CONTINUOUS
 62
     7
100
AcDbLine
 10
1378.1236087954
 20
882.2013168601
 30
0.0
 11
1387.9271311736
 21
892.0048429636
 31
0.0
  0
CIRCLE
  5
3A2
330
1F
100
AcDbEntity
  8
0
  6
CONTINUOUS
 62
     7
100
AcDbCircle
 10
1388.1236064112
 20
668.2013194827
 30
0.0
 40
5.366668079663214
  0
CIRCLE
  5
3A3
330
1F
100
AcDbEntity
  8
0
  6
CONTINUOUS
 62
     7
100
AcDbCircle
 10
1388.1236064112
 20
668.2013194827
 30
0.0
 40
5.0
  0
CIRCLE
  5
3A4
330
1F
100
AcDbEntity
  8
0
  6
CONTINUOUS
 62
     7
100
AcDbCircle
 10
1388.1236064112
 20
878.2013194827
 30
0.0
 40
5.366668079663327
  0
CIRCLE
  5
3A5
330
1F
100
AcDbEntity
  8
0
  6
CONTINUOUS
 62
     7
100
AcDbCircle
 10
1388.1236064112
 20
878.2013194827
 30
0.0
 40
5.0
  0
CIRCLE
  5
3A6
330
1F
100
AcDbEntity
  8
0
  6
CONTINUOUS
 62
     7
100
AcDbCircle
 10
1388.1236064112
 20
878.2013194827
 30
0.0
 40
2.600000000000023
  0
CIRCLE
  5
3A7
330
1F
100
AcDbEntity
  8
0
  6
CONTINUOUS
 62
     7
100
AcDbCircle
 10
1388.1236064112
 20
668.2013194827
 30
0.0
 40
2.599999999999909
  0
LWPOLYLINE
  5
3A8
330
1F
100
AcDbEntity
  8
0
  6
CONTINUOUS
 62
     7
100
AcDbPolyline
 90
        3
 70
   128
 43
0.0
 10
1385.7761299288
 20
899.0075319079
 10
1385.7962576723
 20
899.0820526151
 10
1385.8021361803
 20
899.1035549907
  0
ARC
  5
3A9
330
1F
100
AcDbEntity
  8
0
  6
CONTINUOUS
 62
     7
100
AcDbCircle
 10
1386.7925217699
 20
895.2310851451
 30
0.0
 40
3.910831051824857
100
AcDbArc
 50
105.0636322267
 51
135.0309327049
  0
ARC
  5
3AA
330
1F
100
AcDbEntity
  8
0
  6
CONTINUOUS
 62
     7
100
AcDbCircle
 10
1386.7925217699
 20
651.1715538203
 30
0.0
 40
3.910831051824916
100
AcDbArc
 50
224.9690672951
 51
254.9363677733
  0
LWPOLYLINE
  5
3AB
330
1F
100
AcDbEntity
  8
0
  6
CONTINUOUS
 62
     7
100
AcDbPolyline
 90
        3
 70
   128
 43
0.0
 10
1385.7761299288
 20
647.3951070575
 10
1385.7962576723
 20
647.3205863503
 10
1385.8021361803
 20
647.2990839747
  0
CIRCLE
  5
3AC
330
1F
100
AcDbEntity
  8
0
  6
CONTINUOUS
 62
     7
100
AcDbCircle
 10
1388.1236064112
 20
878.2013194827
 30
0.0
 40
2.49964102040633
  0
CIRCLE
  5
3AD
330
1F
100
AcDbEntity
  8
0
  6
CONTINUOUS
 62
     7
100
AcDbCircle
 10
1388.1236064112
 20
668.2013194827
 30
0.0
 40
2.499641020406102
  0
LINE
  5
3AE
330
1F
100
AcDbEntity
  8
0
  6
CONTINUOUS
 62
     7
100
AcDbLine
 10
1391.0779034769
 20
652.7026101021
 30
0.0
 11
1391.2960005974
 21
652.7929483918
 31
0.0
  0
LINE
  5
3AF
330
1F
100
AcDbEntity
  8
0
  6
CONTINUOUS
 62
     7
100
AcDbLine
 10
1385.7761299288
 20
647.3951070575
 30
0.0
 11
1391.0779034769
 21
652.7026101021
 31
0.0
  0
LINE
  5
3B0
330
1F
100
AcDbEntity
  8
0
  6
CONTINUOUS
 62
     7
100
AcDbLine
 10
1391.0779034769
 20
893.7000288633
 30
0.0
 11
1391.2960005974
 21
893.6096905736
 31
0.0
  0
LINE
  5
3B1
330
1F
100
AcDbEntity
  8
0
  6
CONTINUOUS
 62
     7
100
AcDbLine
 10
1385.7761299288
 20
899.0075319079
 30
0.0
 11
1391.0779034769
 21
893.7000288633
 31
0.0
  0
LINE
  5
3B2
330
1F
100
AcDbEntity
  8
0
  6
CONTINUOUS
 62
     7
100
AcDbLine
 10
1386.2314460849
 20
911.2952082423
 30
0.0
 11
1443.1236064112
 21
913.2804154424
 31
0.0
  0
LINE
  5
3B3
330
1F
100
AcDbEntity
  8
0
  6
CONTINUOUS
 62
     7
100
AcDbLine
 10
1443.1236064112
 20
913.2804154424
 30
0.0
 11
1443.1236064112
 21
913.2049708632
 31
0.0
  0
LINE
  5
3B4
330
1F
100
AcDbEntity
  8
0
  6
CONTINUOUS
 62
     7
100
AcDbLine
 10
1443.1236064112
 20
633.122223523
 30
0.0
 11
1386.2314460849
 21
635.1074307231
 31
0.0
  0
LINE
  5
3B5
330
1F
100
AcDbEntity
  8
0
  6
CONTINUOUS
 62
     7
100
AcDbLine
 10
1443.1236064112
 20
633.122223523
 30
0.0
 11
1443.1236064112
 21
633.1976681022
 31
0.0
  0
LINE
  5
3B6
330
1F
100
AcDbEntity
  8
0
  6
CONTINUOUS
 62
     7
100
AcDbLine
 10
1396.8783257579
 20
899.4967817334
 30
0.0
 11
1397.0932973599
 21
899.5902418164
 31
0.0
  0
LINE
  5
3B7
330
1F
100
AcDbEntity
  8
0
  6
CONTINUOUS
 62
     7
100
AcDbLine
 10
1387.6903293704
 20
899.1756766108
 30
0.0
 11
1396.8783257579
 21
899.4967817334
 31
0.0
  0
LINE
  5
3B8
330
1F
100
AcDbEntity
  8
0
  6
CONTINUOUS
 62
     7
100
AcDbLine
 10
1387.6903293704
 20
899.1756766108
 30
0.0
 11
1387.4892940795
 21
899.2548762826
 31
0.0
  0
LINE
  5
3B9
330
1F
100
AcDbEntity
  8
0
  6
CONTINUOUS
 62
     7
100
AcDbLine
 10
1387.5028206086
 20
893.7000288633
 30
0.0
 11
1391.0779034769
 21
893.7000288633
 31
0.0
  0
LINE
  5
3BA
330
1F
100
AcDbEntity
  8
0
  6
CONTINUOUS
 62
     7
100
AcDbLine
 10
1396.8783257579
 20
646.905857232
 30
0.0
 11
1397.0932973599
 21
646.812397149
 31
0.0
  0
LINE
  5
3BB
330
1F
100
AcDbEntity
  8
0
  6
CONTINUOUS
 62
     7
100
AcDbLine
 10
1387.6903293704
 20
647.2269623546
 30
0.0
 11
1387.4892940795
 21
647.1477626828
 31
0.0
  0
LINE
  5
3BC
330
1F
100
AcDbEntity
  8
0
  6
CONTINUOUS
 62
     7
100
AcDbLine
 10
1396.8783257579
 20
646.905857232
 30
0.0
 11
1387.6903293704
 21
647.2269623546
 31
0.0
  0
LINE
  5
3BD
330
1F
100
AcDbEntity
  8
0
  6
CONTINUOUS
 62
     7
100
AcDbLine
 10
1391.0779034769
 20
652.7026101021
 30
0.0
 11
1387.5028206086
 21
652.7026101021
 31
0.0
  0
LINE
  5
3BE
330
1F
100
AcDbEntity
  8
0
  6
CONTINUOUS
 62
     7
100
AcDbLine
 10
1392.1236073648
 20
651.7820834187
 30
0.0
 11
1392.1236073648
 21
651.6554533509
 31
0.0
  0
LINE
  5
3BF
330
1F
100
AcDbEntity
  8
0
  6
CONTINUOUS
 62
     7
100
AcDbLine
 10
1392.1236073648
 20
651.6554533509
 30
0.0
 11
1387.6903293704
 21
647.2269623546
 31
0.0
  0
LINE
  5
3C0
330
1F
100
AcDbEntity
  8
0
  6
CONTINUOUS
 62
     7
100
AcDbLine
 10
1392.1236073648
 20
894.6205555467
 30
0.0
 11
1392.1236073648
 21
894.7471856145
 31
0.0
  0
LINE
  5
3C1
330
1F
100
AcDbEntity
  8
0
  6
CONTINUOUS
 62
     7
100
AcDbLine
 10
1387.6903293704
 20
899.1756766108
 30
0.0
 11
1392.1236073648
 21
894.7471856145
 31
0.0
  0
LINE
  5
3C2
330
1F
100
AcDbEntity
  8
0
  6
CONTINUOUS
 62
     7
100
AcDbLine
 10
1498.161563096
 20
654.1096895007
 30
0.0
 11
1498.1236694431
 21
654.2011677293
 31
0.0
  0
LINE
  5
3C3
330
1F
100
AcDbEntity
  8
0
  6
CONTINUOUS
 62
     7
100
AcDbLine
 10
1498.1236694431
 20
654.2011677293
 30
0.0
 11
1388.1235433793
 21
654.2011677293
 31
0.0
  0
LINE
  5
3C4
330
1F
100
AcDbEntity
  8
0
  6
CONTINUOUS
 62
     7
100
AcDbLine
 10
1498.161563096
 20
892.2929494647
 30
0.0
 11
1498.1236694431
 21
892.2014712361
 31
0.0
  0
LINE
  5
3C5
330
1F
100
AcDbEntity
  8
0
  6
CONTINUOUS
 62
     7
100
AcDbLine
 10
1388.1235433793
 20
892.2014712361
 30
0.0
 11
1498.1236694431
 21
892.2014712361
 31
0.0
  0
LINE
  5
3C6
330
1F
100
AcDbEntity
  8
0
  6
CONTINUOUS
 62
     7
100
AcDbLine
 10
1396.8783257579
 20
899.4967817334
 30
0.0
 11
1392.1236073648
 21
894.7471856145
 31
0.0
  0
LINE
  5
3C7
330
1F
100
AcDbEntity
  8
0
  6
CONTINUOUS
 62
     7
100
AcDbLine
 10
1396.8783257579
 20
646.905857232
 30
0.0
 11
1392.1236073648
 21
651.6554533509
 31
0.0
  0
LINE
  5
3C8
330
1F
100
AcDbEntity
  8
0
  6
CONTINUOUS
 62
     7
100
AcDbLine
 10
1393.1693075275
 20
893.7000288633
 30
0.0
 11
1408.0779044008
 21
893.7000288633
 31
0.0
  0
LINE
  5
3C9
330
1F
100
AcDbEntity
  8
0
  6
CONTINUOUS
 62
     7
100
AcDbLine
 10
1408.0779044008
 20
893.7000288633
 30
0.0
 11
1408.2960015213
 21
893.6096905736
 31
0.0
  0
LINE
  5
3CA
330
1F
100
AcDbEntity
  8
0
  6
CONTINUOUS
 62
     7
100
AcDbLine
 10
1392.9512141323
 20
893.6096905736
 30
0.0
 11
1393.1693075275
 21
893.7000288633
 31
0.0
  0
LINE
  5
3CB
330
1F
100
AcDbEntity
  8
0
  6
CONTINUOUS
 62
     7
100
AcDbLine
 10
1392.9512141323
 20
652.7929483918
 30
0.0
 11
1393.1693075275
 21
652.7026101021
 31
0.0
  0
LINE
  5
3CC
330
1F
100
AcDbEntity
  8
0
  6
CONTINUOUS
 62
     7
100
AcDbLine
 10
1399.0350937521
 20
646.8304871587
 30
0.0
 11
1393.1693075275
 21
652.7026101021
 31
0.0
  0
LINE
  5
3CD
330
1F
100
AcDbEntity
  8
0
  6
CONTINUOUS
 62
     7
100
AcDbLine
 10
1399.0350937521
 20
646.8304871587
 30
0.0
 11
1398.9982990598
 21
646.7458634643
 31
0.0
  0
LINE
  5
3CE
330
1F
100
AcDbEntity
  8
0
  6
CONTINUOUS
 62
     7
100
AcDbLine
 10
1408.0779044008
 20
652.7026101021
 30
0.0
 11
1408.2960015213
 21
652.7929483918
 31
0.0
  0
LINE
  5
3CF
330
1F
100
AcDbEntity
  8
0
  6
CONTINUOUS
 62
     7
100
AcDbLine
 10
1408.0779044008
 20
652.7026101021
 30
0.0
 11
1393.1693075275
 21
652.7026101021
 31
0.0
  0
LINE
  5
3D0
330
1F
100
AcDbEntity
  8
0
  6
CONTINUOUS
 62
     7
100
AcDbLine
 10
1399.0350937521
 20
899.5721518067
 30
0.0
 11
1398.9982990598
 21
899.6567755011
 31
0.0
  0
LINE
  5
3D1
330
1F
100
AcDbEntity
  8
0
  6
CONTINUOUS
 62
     7
100
AcDbLine
 10
1399.0350937521
 20
899.5721518067
 30
0.0
 11
1393.1693075275
 21
893.7000288633
 31
0.0
  0
LINE
  5
3D2
330
1F
100
AcDbEntity
  8
0
  6
CONTINUOUS
 62
     7
100
AcDbLine
 10
1402.1049527502
 20
899.6794401673
 30
0.0
 11
1402.1392291462
 21
899.7664629487
 31
0.0
  0
LINE
  5
3D3
330
1F
100
AcDbEntity
  8
0
  6
CONTINUOUS
 62
     7
100
AcDbLine
 10
1399.0350937521
 20
899.5721518067
 30
0.0
 11
1402.1049527502
 21
899.6794401673
 31
0.0
  0
LINE
  5
3D4
330
1F
100
AcDbEntity
  8
0
  6
CONTINUOUS
 62
     7
100
AcDbLine
 10
1402.1049527502
 20
646.7231987981
 30
0.0
 11
1402.1392291462
 21
646.6361760167
 31
0.0
  0
LINE
  5
3D5
330
1F
100
AcDbEntity
  8
0
  6
CONTINUOUS
 62
     7
100
AcDbLine
 10
1402.1049527502
 20
646.7231987981
 30
0.0
 11
1399.0350937521
 21
646.8304871587
 31
0.0
  0
LINE
  5
3D6
330
1F
100
AcDbEntity
  8
0
  6
CONTINUOUS
 62
     7
100
AcDbLine
 10
1402.1049527502
 20
646.7231987981
 30
0.0
 11
1408.0779044008
 21
652.7026101021
 31
0.0
  0
LINE
  5
3D7
330
1F
100
AcDbEntity
  8
0
  6
CONTINUOUS
 62
     7
100
AcDbLine
 10
1402.1049527502
 20
899.6794401673
 30
0.0
 11
1408.0779044008
 21
893.7000288633
 31
0.0
  0
LINE
  5
3D8
330
1F
100
AcDbEntity
  8
0
  6
CONTINUOUS
 62
     7
100
AcDbLine
 10
1414.4946368461
 20
646.2902157573
 30
0.0
 11
1414.7084312564
 21
646.1972623137
 31
0.0
  0
LINE
  5
3D9
330
1F
100
AcDbEntity
  8
0
  6
CONTINUOUS
 62
     7
100
AcDbLine
 10
1404.1156856393
 20
646.652939823
 30
0.0
 11
1403.9156748032
 21
646.5741424827
 31
0.0
  0
LINE
  5
3DA
330
1F
100
AcDbEntity
  8
0
  6
CONTINUOUS
 62
     7
100
AcDbLine
 10
1414.4946368461
 20
646.2902157573
 30
0.0
 11
1404.1156856393
 21
646.652939823
 31
0.0
  0
LINE
  5
3DB
330
1F
100
AcDbEntity
  8
0
  6
CONTINUOUS
 62
     7
100
AcDbLine
 10
1409.1236045634
 20
894.6205555467
 30
0.0
 11
1409.1236045634
 21
894.7471856145
 31
0.0
  0
LINE
  5
3DC
330
1F
100
AcDbEntity
  8
0
  6
CONTINUOUS
 62
     7
100
AcDbLine
 10
1404.1156856393
 20
899.7496991424
 30
0.0
 11
1403.9156748032
 21
899.8284964827
 31
0.0
  0
LINE
  5
3DD
330
1F
100
AcDbEntity
  8
0
  6
CONTINUOUS
 62
     7
100
AcDbLine
 10
1404.1156856393
 20
899.7496991424
 30
0.0
 11
1409.1236045634
 21
894.7471856145
 31
0.0
  0
LINE
  5
3DE
330
1F
100
AcDbEntity
  8
0
  6
CONTINUOUS
 62
     7
100
AcDbLine
 10
1409.1236045634
 20
651.7820834187
 30
0.0
 11
1409.1236045634
 21
651.6554533509
 31
0.0
  0
LINE
  5
3DF
330
1F
100
AcDbEntity
  8
0
  6
CONTINUOUS
 62
     7
100
AcDbLine
 10
1409.1236045634
 20
651.6554533509
 30
0.0
 11
1404.1156856393
 21
646.652939823
 31
0.0
  0
LINE
  5
3E0
330
1F
100
AcDbEntity
  8
0
  6
CONTINUOUS
 62
     7
100
AcDbLine
 10
1414.4946368461
 20
900.1124232081
 30
0.0
 11
1414.7084312564
 21
900.2053766517
 31
0.0
  0
LINE
  5
3E1
330
1F
100
AcDbEntity
  8
0
  6
CONTINUOUS
 62
     7
100
AcDbLine
 10
1404.1156856393
 20
899.7496991424
 30
0.0
 11
1414.4946368461
 21
900.1124232081
 31
0.0
  0
LINE
  5
3E2
330
1F
100
AcDbEntity
  8
0
  6
CONTINUOUS
 62
     7
100
AcDbLine
 10
1414.4946368461
 20
646.2902157573
 30
0.0
 11
1409.1236045634
 21
651.6554533509
 31
0.0
  0
LINE
  5
3E3
330
1F
100
AcDbEntity
  8
0
  6
CONTINUOUS
 62
     7
100
AcDbLine
 10
1414.4946368461
 20
900.1124232081
 30
0.0
 11
1409.1236045634
 21
894.7471856145
 31
0.0
  0
LINE
  5
3E4
330
1F
100
AcDbEntity
  8
0
  6
CONTINUOUS
 62
     7
100
AcDbLine
 10
1416.6500246202
 20
900.187748578
 30
0.0
 11
1416.6134329563
 21
900.2719103364
 31
0.0
  0
LINE
  5
3E5
330
1F
100
AcDbEntity
  8
0
  6
CONTINUOUS
 62
     7
100
AcDbLine
 10
1416.6500246202
 20
900.187748578
 30
0.0
 11
1410.1693084514
 21
893.7000288633
 31
0.0
  0
LINE
  5
3E6
330
1F
100
AcDbEntity
  8
0
  6
CONTINUOUS
 62
     7
100
AcDbLine
 10
1409.9512113308
 20
893.6096905736
 30
0.0
 11
1410.1693084514
 21
893.7000288633
 31
0.0
  0
LINE
  5
3E7
330
1F
100
AcDbEntity
  8
0
  6
CONTINUOUS
 62
     7
100
AcDbLine
 10
1409.9512113308
 20
652.7929483918
 30
0.0
 11
1410.1693084514
 21
652.7026101021
 31
0.0
  0
LINE
  5
3E8
330
1F
100
AcDbEntity
  8
0
  6
CONTINUOUS
 62
     7
100
AcDbLine
 10
1416.6500246202
 20
646.2148903874
 30
0.0
 11
1410.1693084514
 21
652.7026101021
 31
0.0
  0
LINE
  5
3E9
330
1F
100
AcDbEntity
  8
0
  6
CONTINUOUS
 62
     7
100
AcDbLine
 10
1416.6500246202
 20
646.2148903874
 30
0.0
 11
1416.6134329563
 21
646.130728629
 31
0.0
  0
LINE
  5
3EA
330
1F
100
AcDbEntity
  8
0
  6
CONTINUOUS
 62
     7
100
AcDbLine
 10
1425.0779053246
 20
652.7026101021
 30
0.0
 11
1425.2960005825
 21
652.7929483918
 31
0.0
  0
LINE
  5
3EB
330
1F
100
AcDbEntity
  8
0
  6
CONTINUOUS
 62
     7
100
AcDbLine
 10
1425.0779053246
 20
652.7026101021
 30
0.0
 11
1410.1693084514
 21
652.7026101021
 31
0.0
  0
LINE
  5
3EC
330
1F
100
AcDbEntity
  8
0
  6
CONTINUOUS
 62
     7
100
AcDbLine
 10
1410.1693084514
 20
893.7000288633
 30
0.0
 11
1425.0779053246
 21
893.7000288633
 31
0.0
  0
LINE
  5
3ED
330
1F
100
AcDbEntity
  8
0
  6
CONTINUOUS
 62
     7
100
AcDbLine
 10
1425.0779053246
 20
893.7000288633
 30
0.0
 11
1425.2960005825
 21
893.6096905736
 31
0.0
  0
LINE
  5
3EE
330
1F
100
AcDbEntity
  8
0
  6
CONTINUOUS
 62
     7
100
AcDbLine
 10
1418.5315048372
 20
646.1491315631
 30
0.0
 11
1418.5656098699
 21
646.0625558165
 31
0.0
  0
LINE
  5
3EF
330
1F
100
AcDbEntity
  8
0
  6
CONTINUOUS
 62
     7
100
AcDbLine
 10
1418.5315048372
 20
646.1491315631
 30
0.0
 11
1416.6500246202
 21
646.2148903874
 31
0.0
  0
LINE
  5
3F0
330
1F
100
AcDbEntity
  8
0
  6
CONTINUOUS
 62
     7
100
AcDbLine
 10
1418.5315048372
 20
900.2535074023
 30
0.0
 11
1418.5656098699
 21
900.3400831489
 31
0.0
  0
LINE
  5
3F1
330
1F
100
AcDbEntity
  8
0
  6
CONTINUOUS
 62
     7
100
AcDbLine
 10
1416.6500246202
 20
900.187748578
 30
0.0
 11
1418.5315048372
 21
900.2535074023
 31
0.0
  0
LINE
  5
3F2
330
1F
100
AcDbEntity
  8
0
  6
CONTINUOUS
 62
     7
100
AcDbLine
 10
1418.5315048372
 20
646.1491315631
 30
0.0
 11
1425.0779053246
 21
652.7026101021
 31
0.0
  0
LINE
  5
3F3
330
1F
100
AcDbEntity
  8
0
  6
CONTINUOUS
 62
     7
100
AcDbLine
 10
1418.5315048372
 20
900.2535074023
 30
0.0
 11
1425.0779053246
 21
893.7000288633
 31
0.0
  0
LINE
  5
3F4
330
1F
100
AcDbEntity
  8
0
  6
CONTINUOUS
 62
     7
100
AcDbLine
 10
1432.1109479343
 20
645.6745742825
 30
0.0
 11
1432.3235642215
 21
645.5821274785
 31
0.0
  0
LINE
  5
3F5
330
1F
100
AcDbEntity
  8
0
  6
CONTINUOUS
 62
     7
100
AcDbLine
 10
1420.5410400456
 20
646.0789172915
 30
0.0
 11
1420.3420518016
 21
646.0005222825
 31
0.0
  0
LINE
  5
3F6
330
1F
100
AcDbEntity
  8
0
  6
CONTINUOUS
 62
     7
100
AcDbLine
 10
1432.1109479343
 20
645.6745742825
 30
0.0
 11
1420.5410400456
 21
646.0789172915
 31
0.0
  0
LINE
  5
3F7
330
1F
100
AcDbEntity
  8
0
  6
CONTINUOUS
 62
     7
100
AcDbLine
 10
1426.1236054873
 20
894.6205555467
 30
0.0
 11
1426.1236054873
 21
894.7471856145
 31
0.0
  0
LINE
  5
3F8
330
1F
100
AcDbEntity
  8
0
  6
CONTINUOUS
 62
     7
100
AcDbLine
 10
1420.5410400456
 20
900.3237216739
 30
0.0
 11
1420.3420518016
 21
900.4021166829
 31
0.0
  0
LINE
  5
3F9
330
1F
100
AcDbEntity
  8
0
  6
CONTINUOUS
 62
     7
100
AcDbLine
 10
1420.5410400456
 20
900.3237216739
 30
0.0
 11
1426.1236054873
 21
894.7471856145
 31
0.0
  0
LINE
  5
3FA
330
1F
100
AcDbEntity
  8
0
  6
CONTINUOUS
 62
     7
100
AcDbLine
 10
1426.1236054873
 20
651.7820834187
 30
0.0
 11
1426.1236054873
 21
651.6554533509
 31
0.0
  0
LINE
  5
3FB
330
1F
100
AcDbEntity
  8
0
  6
CONTINUOUS
 62
     7
100
AcDbLine
 10
1426.1236054873
 20
651.6554533509
 30
0.0
 11
1420.5410400456
 21
646.0789172915
 31
0.0
  0
LINE
  5
3FC
330
1F
100
AcDbEntity
  8
0
  6
CONTINUOUS
 62
     7
100
AcDbLine
 10
1432.1109479343
 20
900.7280646829
 30
0.0
 11
1432.3235642215
 21
900.8205114869
 31
0.0
  0
LINE
  5
3FD
330
1F
100
AcDbEntity
  8
0
  6
CONTINUOUS
 62
     7
100
AcDbLine
 10
1420.5410400456
 20
900.3237216739
 30
0.0
 11
1432.1109479343
 21
900.7280646829
 31
0.0
  0
LINE
  5
3FE
330
1F
100
AcDbEntity
  8
0
  6
CONTINUOUS
 62
     7
100
AcDbLine
 10
1432.1109479343
 20
900.7280646829
 30
0.0
 11
1426.1236054873
 21
894.7471856145
 31
0.0
  0
LINE
  5
3FF
330
1F
100
AcDbEntity
  8
0
  6
CONTINUOUS
 62
     7
100
AcDbLine
 10
1432.1109479343
 20
645.6745742825
 30
0.0
 11
1426.1236054873
 21
651.6554533509
 31
0.0
  0
LINE
  5
400
330
1F
100
AcDbEntity
  8
0
  6
CONTINUOUS
 62
     7
100
AcDbLine
 10
1442.0779048515
 20
652.7026101021
 30
0.0
 11
1442.295999702
 21
652.7929483918
 31
0.0
  0
LINE
  5
401
330
1F
100
AcDbEntity
  8
0
  6
CONTINUOUS
 62
     7
100
AcDbLine
 10
1442.0779048515
 20
652.7026101021
 30
0.0
 11
1427.1693075126
 21
652.7026101021
 31
0.0
  0
LINE
  5
402
330
1F
100
AcDbEntity
  8
0
  6
CONTINUOUS
 62
     7
100
AcDbLine
 10
1426.9512122547
 20
652.7929483918
 30
0.0
 11
1427.1693075126
 21
652.7026101021
 31
0.0
  0
LINE
  5
403
330
1F
100
AcDbEntity
  8
0
  6
CONTINUOUS
 62
     7
100
AcDbLine
 10
1434.2649582824
 20
645.5992936162
 30
0.0
 11
1427.1693075126
 21
652.7026101021
 31
0.0
  0
LINE
  5
404
330
1F
100
AcDbEntity
  8
0
  6
CONTINUOUS
 62
     7
100
AcDbLine
 10
1434.2649582824
 20
645.5992936162
 30
0.0
 11
1434.2285659214
 21
645.5155937938
 31
0.0
  0
LINE
  5
405
330
1F
100
AcDbEntity
  8
0
  6
CONTINUOUS
 62
     7
100
AcDbLine
 10
1427.1693075126
 20
893.7000288633
 30
0.0
 11
1442.0779048515
 21
893.7000288633
 31
0.0
  0
LINE
  5
406
330
1F
100
AcDbEntity
  8
0
  6
CONTINUOUS
 62
     7
100
AcDbLine
 10
1442.0779048515
 20
893.7000288633
 30
0.0
 11
1442.295999702
 21
893.6096905736
 31
0.0
  0
LINE
  5
407
330
1F
100
AcDbEntity
  8
0
  6
CONTINUOUS
 62
     7
100
AcDbLine
 10
1426.9512122547
 20
893.6096905736
 30
0.0
 11
1427.1693075126
 21
893.7000288633
 31
0.0
  0
LINE
  5
408
330
1F
100
AcDbEntity
  8
0
  6
CONTINUOUS
 62
     7
100
AcDbLine
 10
1434.2649582824
 20
900.8033453492
 30
0.0
 11
1434.2285659214
 21
900.8870451716
 31
0.0
  0
LINE
  5
409
330
1F
100
AcDbEntity
  8
0
  6
CONTINUOUS
 62
     7
100
AcDbLine
 10
1434.2649582824
 20
900.8033453492
 30
0.0
 11
1427.1693075126
 21
893.7000288633
 31
0.0
  0
LINE
  5
40A
330
1F
100
AcDbEntity
  8
0
  6
CONTINUOUS
 62
     7
100
AcDbLine
 10
1434.9580587869
 20
900.8275746373
 30
0.0
 11
1434.9919868683
 21
900.913703349
 31
0.0
  0
LINE
  5
40B
330
1F
100
AcDbEntity
  8
0
  6
CONTINUOUS
 62
     7
100
AcDbLine
 10
1434.2649582824
 20
900.8033453492
 30
0.0
 11
1434.9580587869
 21
900.8275746373
 31
0.0
  0
LINE
  5
40C
330
1F
100
AcDbEntity
  8
0
  6
CONTINUOUS
 62
     7
100
AcDbLine
 10
1434.9580587869
 20
645.5750643281
 30
0.0
 11
1434.9919868683
 21
645.4889356164
 31
0.0
  0
LINE
  5
40D
330
1F
100
AcDbEntity
  8
0
  6
CONTINUOUS
 62
     7
100
AcDbLine
 10
1434.9580587869
 20
645.5750643281
 30
0.0
 11
1434.2649582824
 21
645.5992936162
 31
0.0
  0
LINE
  5
40E
330
1F
100
AcDbEntity
  8
0
  6
CONTINUOUS
 62
     7
100
AcDbLine
 10
1434.9580587869
 20
645.5750643281
 30
0.0
 11
1442.0779048515
 21
652.7026101021
 31
0.0
  0
LINE
  5
40F
330
1F
100
AcDbEntity
  8
0
  6
CONTINUOUS
 62
     7
100
AcDbLine
 10
1442.0779048515
 20
893.7000288633
 30
0.0
 11
1434.9580587869
 21
900.8275746373
 31
0.0
  0
LINE
  5
410
330
1F
100
AcDbEntity
  8
0
  6
CONTINUOUS
 62
     7
100
AcDbLine
 10
1443.1236064112
 20
901.1129318742
 30
0.0
 11
1443.1236064112
 21
901.1976598767
 31
0.0
  0
LINE
  5
411
330
1F
100
AcDbEntity
  8
0
  6
CONTINUOUS
 62
     7
100
AcDbLine
 10
1436.9663963144
 20
900.8977591065
 30
0.0
 11
1443.1236064112
 21
901.1129318742
 31
0.0
  0
LINE
  5
412
330
1F
100
AcDbEntity
  8
0
  6
CONTINUOUS
 62
     7
100
AcDbLine
 10
1436.9663963144
 20
900.8977591065
 30
0.0
 11
1436.768430197
 21
900.9757368831
 31
0.0
  0
LINE
  5
413
330
1F
100
AcDbEntity
  8
0
  6
CONTINUOUS
 62
     7
100
AcDbLine
 10
1443.1236064112
 20
651.7820834187
 30
0.0
 11
1443.1236064112
 21
651.6554533509
 31
0.0
  0
LINE
  5
414
330
1F
100
AcDbEntity
  8
0
  6
CONTINUOUS
 62
     7
100
AcDbLine
 10
1443.1236064112
 20
651.6554533509
 30
0.0
 11
1436.9663963144
 21
645.5048798589
 31
0.0
  0
LINE
  5
415
330
1F
100
AcDbEntity
  8
0
  6
CONTINUOUS
 62
     7
100
AcDbLine
 10
1436.9663963144
 20
645.5048798589
 30
0.0
 11
1436.768430197
 21
645.4269020823
 31
0.0
  0
LINE
  5
416
330
1F
100
AcDbEntity
  8
0
  6
CONTINUOUS
 62
     7
100
AcDbLine
 10
1443.1236064112
 20
645.2897070912
 30
0.0
 11
1443.1236064112
 21
645.2049790887
 31
0.0
  0
LINE
  5
417
330
1F
100
AcDbEntity
  8
0
  6
CONTINUOUS
 62
     7
100
AcDbLine
 10
1443.1236064112
 20
645.2897070912
 30
0.0
 11
1436.9663963144
 21
645.5048798589
 31
0.0
  0
LINE
  5
418
330
1F
100
AcDbEntity
  8
0
  6
CONTINUOUS
 62
     7
100
AcDbLine
 10
1443.1236064112
 20
894.6205555467
 30
0.0
 11
1443.1236064112
 21
894.7471856145
 31
0.0
  0
LINE
  5
419
330
1F
100
AcDbEntity
  8
0
  6
CONTINUOUS
 62
     7
100
AcDbLine
 10
1436.9663963144
 20
900.8977591065
 30
0.0
 11
1443.1236064112
 21
894.7471856145
 31
0.0
  0
LINE
  5
41A
330
1F
100
AcDbEntity
  8
0
  6
CONTINUOUS
 62
     7
100
AcDbLine
 10
1443.1236064112
 20
913.2804154424
 30
0.0
 11
1500.0157667374
 21
911.2952082423
 31
0.0
  0
LINE
  5
41B
330
1F
100
AcDbEntity
  8
0
  6
CONTINUOUS
 62
     7
100
AcDbLine
 10
1500.0157667374
 20
911.2952082423
 30
0.0
 11
1500.0130845284
 21
911.2183480529
 31
0.0
  0
LINE
  5
41C
330
1F
100
AcDbEntity
  8
0
  6
CONTINUOUS
 62
     7
100
AcDbLine
 10
1500.0157667374
 20
635.1074307231
 30
0.0
 11
1443.1236064112
 21
633.122223523
 31
0.0
  0
LINE
  5
41D
330
1F
100
AcDbEntity
  8
0
  6
CONTINUOUS
 62
     7
100
AcDbLine
 10
1500.0157667374
 20
635.1074307231
 30
0.0
 11
1500.0130845284
 21
635.1842909125
 31
0.0
  0
LINE
  5
41E
330
1F
100
AcDbEntity
  8
0
  6
CONTINUOUS
 62
     7
100
AcDbLine
 10
1449.2808165079
 20
645.5048798589
 30
0.0
 11
1443.1236064112
 21
645.2897070912
 31
0.0
  0
LINE
  5
41F
330
1F
100
AcDbEntity
  8
0
  6
CONTINUOUS
 62
     7
100
AcDbLine
 10
1449.2808165079
 20
645.5048798589
 30
0.0
 11
1449.4787826253
 21
645.4269020823
 31
0.0
  0
LINE
  5
420
330
1F
100
AcDbEntity
  8
0
  6
CONTINUOUS
 62
     7
100
AcDbLine
 10
1449.2808165079
 20
900.8977591065
 30
0.0
 11
1443.1236064112
 21
894.7471856145
 31
0.0
  0
LINE
  5
421
330
1F
100
AcDbEntity
  8
0
  6
CONTINUOUS
 62
     7
100
AcDbLine
 10
1449.2808165079
 20
900.8977591065
 30
0.0
 11
1449.4787826253
 21
900.9757368831
 31
0.0
  0
LINE
  5
422
330
1F
100
AcDbEntity
  8
0
  6
CONTINUOUS
 62
     7
100
AcDbLine
 10
1443.1236064112
 20
901.1129318742
 30
0.0
 11
1449.2808165079
 21
900.8977591065
 31
0.0
  0
LINE
  5
423
330
1F
100
AcDbEntity
  8
0
  6
CONTINUOUS
 62
     7
100
AcDbLine
 10
1449.2808165079
 20
645.5048798589
 30
0.0
 11
1443.1236064112
 21
651.6554533509
 31
0.0
  0
LINE
  5
424
330
1F
100
AcDbEntity
  8
0
  6
CONTINUOUS
 62
     7
100
AcDbLine
 10
1443.9512131204
 20
893.6096905736
 30
0.0
 11
1444.1693079708
 21
893.7000288633
 31
0.0
  0
LINE
  5
425
330
1F
100
AcDbEntity
  8
0
  6
CONTINUOUS
 62
     7
100
AcDbLine
 10
1444.1693079708
 20
893.7000288633
 30
0.0
 11
1459.0779053097
 21
893.7000288633
 31
0.0
  0
LINE
  5
426
330
1F
100
AcDbEntity
  8
0
  6
CONTINUOUS
 62
     7
100
AcDbLine
 10
1459.0779053097
 20
893.7000288633
 30
0.0
 11
1459.2960005676
 21
893.6096905736
 31
0.0
  0
LINE
  5
427
330
1F
100
AcDbEntity
  8
0
  6
CONTINUOUS
 62
     7
100
AcDbLine
 10
1443.9512131204
 20
652.7929483918
 30
0.0
 11
1444.1693079708
 21
652.7026101021
 31
0.0
  0
LINE
  5
428
330
1F
100
AcDbEntity
  8
0
  6
CONTINUOUS
 62
     7
100
AcDbLine
 10
1451.2891540354
 20
645.5750643281
 30
0.0
 11
1444.1693079708
 21
652.7026101021
 31
0.0
  0
LINE
  5
429
330
1F
100
AcDbEntity
  8
0
  6
CONTINUOUS
 62
     7
100
AcDbLine
 10
1451.2891540354
 20
645.5750643281
 30
0.0
 11
1451.255225954
 21
645.4889356164
 31
0.0
  0
LINE
  5
42A
330
1F
100
AcDbEntity
  8
0
  6
CONTINUOUS
 62
     7
100
AcDbLine
 10
1451.2891540354
 20
900.8275746373
 30
0.0
 11
1451.255225954
 21
900.913703349
 31
0.0
  0
LINE
  5
42B
330
1F
100
AcDbEntity
  8
0
  6
CONTINUOUS
 62
     7
100
AcDbLine
 10
1451.2891540354
 20
900.8275746373
 30
0.0
 11
1444.1693079708
 21
893.7000288633
 31
0.0
  0
LINE
  5
42C
330
1F
100
AcDbEntity
  8
0
  6
CONTINUOUS
 62
     7
100
AcDbLine
 10
1459.0779053097
 20
652.7026101021
 30
0.0
 11
1459.2960005676
 21
652.7929483918
 31
0.0
  0
LINE
  5
42D
330
1F
100
AcDbEntity
  8
0
  6
CONTINUOUS
 62
     7
100
AcDbLine
 10
1459.0779053097
 20
652.7026101021
 30
0.0
 11
1444.1693079708
 21
652.7026101021
 31
0.0
  0
LINE
  5
42E
330
1F
100
AcDbEntity
  8
0
  6
CONTINUOUS
 62
     7
100
AcDbLine
 10
1451.98225454
 20
645.5992936162
 30
0.0
 11
1451.2891540354
 21
645.5750643281
 31
0.0
  0
LINE
  5
42F
330
1F
100
AcDbEntity
  8
0
  6
CONTINUOUS
 62
     7
100
AcDbLine
 10
1451.98225454
 20
645.5992936162
 30
0.0
 11
1452.0186469009
 21
645.5155937938
 31
0.0
  0
LINE
  5
430
330
1F
100
AcDbEntity
  8
0
  6
CONTINUOUS
 62
     7
100
AcDbLine
 10
1451.98225454
 20
900.8033453492
 30
0.0
 11
1452.0186469009
 21
900.8870451716
 31
0.0
  0
LINE
  5
431
330
1F
100
AcDbEntity
  8
0
  6
CONTINUOUS
 62
     7
100
AcDbLine
 10
1451.2891540354
 20
900.8275746373
 30
0.0
 11
1451.98225454
 21
900.8033453492
 31
0.0
  0
LINE
  5
432
330
1F
100
AcDbEntity
  8
0
  6
CONTINUOUS
 62
     7
100
AcDbLine
 10
1451.98225454
 20
645.5992936162
 30
0.0
 11
1459.0779053097
 21
652.7026101021
 31
0.0
  0
LINE
  5
433
330
1F
100
AcDbEntity
  8
0
  6
CONTINUOUS
 62
     7
100
AcDbLine
 10
1459.0779053097
 20
893.7000288633
 30
0.0
 11
1451.98225454
 21
900.8033453492
 31
0.0
  0
LINE
  5
434
330
1F
100
AcDbEntity
  8
0
  6
CONTINUOUS
 62
     7
100
AcDbLine
 10
1465.7061727768
 20
646.0789172915
 30
0.0
 11
1465.9051610207
 21
646.0005222825
 31
0.0
  0
LINE
  5
435
330
1F
100
AcDbEntity
  8
0
  6
CONTINUOUS
 62
     7
100
AcDbLine
 10
1454.136264888
 20
645.6745742825
 30
0.0
 11
1453.9236486008
 21
645.5821274785
 31
0.0
  0
LINE
  5
436
330
1F
100
AcDbEntity
  8
0
  6
CONTINUOUS
 62
     7
100
AcDbLine
 10
1465.7061727768
 20
646.0789172915
 30
0.0
 11
1454.136264888
 21
645.6745742825
 31
0.0
  0
LINE
  5
437
330
1F
100
AcDbEntity
  8
0
  6
CONTINUOUS
 62
     7
100
AcDbLine
 10
1465.7061727768
 20
900.3237216739
 30
0.0
 11
1465.9051610207
 21
900.4021166829
 31
0.0
  0
LINE
  5
438
330
1F
100
AcDbEntity
  8
0
  6
CONTINUOUS
 62
     7
100
AcDbLine
 10
1454.136264888
 20
900.7280646829
 30
0.0
 11
1465.7061727768
 21
900.3237216739
 31
0.0
  0
LINE
  5
439
330
1F
100
AcDbEntity
  8
0
  6
CONTINUOUS
 62
     7
100
AcDbLine
 10
1454.136264888
 20
900.7280646829
 30
0.0
 11
1453.9236486008
 21
900.8205114869
 31
0.0
  0
LINE
  5
43A
330
1F
100
AcDbEntity
  8
0
  6
CONTINUOUS
 62
     7
100
AcDbLine
 10
1460.123607335
 20
651.7820834187
 30
0.0
 11
1460.123607335
 21
651.6554533509
 31
0.0
  0
LINE
  5
43B
330
1F
100
AcDbEntity
  8
0
  6
CONTINUOUS
 62
     7
100
AcDbLine
 10
1460.123607335
 20
651.6554533509
 30
0.0
 11
1454.136264888
 21
645.6745742825
 31
0.0
  0
LINE
  5
43C
330
1F
100
AcDbEntity
  8
0
  6
CONTINUOUS
 62
     7
100
AcDbLine
 10
1460.123607335
 20
894.6205555467
 30
0.0
 11
1460.123607335
 21
894.7471856145
 31
0.0
  0
LINE
  5
43D
330
1F
100
AcDbEntity
  8
0
  6
CONTINUOUS
 62
     7
100
AcDbLine
 10
1454.136264888
 20
900.7280646829
 30
0.0
 11
1460.123607335
 21
894.7471856145
 31
0.0
  0
LINE
  5
43E
330
1F
100
AcDbEntity
  8
0
  6
CONTINUOUS
 62
     7
100
AcDbLine
 10
1465.7061727768
 20
900.3237216739
 30
0.0
 11
1460.123607335
 21
894.7471856145
 31
0.0
  0
LINE
  5
43F
330
1F
100
AcDbEntity
  8
0
  6
CONTINUOUS
 62
     7
100
AcDbLine
 10
1465.7061727768
 20
646.0789172915
 30
0.0
 11
1460.123607335
 21
651.6554533509
 31
0.0
  0
LINE
  5
440
330
1F
100
AcDbEntity
  8
0
  6
CONTINUOUS
 62
     7
100
AcDbLine
 10
1460.9512122398
 20
893.6096905736
 30
0.0
 11
1461.1693074977
 21
893.7000288633
 31
0.0
  0
LINE
  5
441
330
1F
100
AcDbEntity
  8
0
  6
CONTINUOUS
 62
     7
100
AcDbLine
 10
1467.7157079851
 20
900.2535074023
 30
0.0
 11
1467.6816029524
 21
900.3400831489
 31
0.0
  0
LINE
  5
442
330
1F
100
AcDbEntity
  8
0
  6
CONTINUOUS
 62
     7
100
AcDbLine
 10
1467.7157079851
 20
900.2535074023
 30
0.0
 11
1461.1693074977
 21
893.7000288633
 31
0.0
  0
LINE
  5
443
330
1F
100
AcDbEntity
  8
0
  6
CONTINUOUS
 62
     7
100
AcDbLine
 10
1460.9512122398
 20
652.7929483918
 30
0.0
 11
1461.1693074977
 21
652.7026101021
 31
0.0
  0
LINE
  5
444
330
1F
100
AcDbEntity
  8
0
  6
CONTINUOUS
 62
     7
100
AcDbLine
 10
1467.7157079851
 20
646.1491315631
 30
0.0
 11
1461.1693074977
 21
652.7026101021
 31
0.0
  0
LINE
  5
445
330
1F
100
AcDbEntity
  8
0
  6
CONTINUOUS
 62
     7
100
AcDbLine
 10
1467.7157079851
 20
646.1491315631
 30
0.0
 11
1467.6816029524
 21
646.0625558165
 31
0.0
  0
LINE
  5
446
330
1F
100
AcDbEntity
  8
0
  6
CONTINUOUS
 62
     7
100
AcDbLine
 10
1461.1693074977
 20
893.7000288633
 30
0.0
 11
1476.077904371
 21
893.7000288633
 31
0.0
  0
LINE
  5
447
330
1F
100
AcDbEntity
  8
0
  6
CONTINUOUS
 62
     7
100
AcDbLine
 10
1476.077904371
 20
893.7000288633
 30
0.0
 11
1476.2960014915
 21
893.6096905736
 31
0.0
  0
LINE
  5
448
330
1F
100
AcDbEntity
  8
0
  6
CONTINUOUS
 62
     7
100
AcDbLine
 10
1476.077904371
 20
652.7026101021
 30
0.0
 11
1476.2960014915
 21
652.7929483918
 31
0.0
  0
LINE
  5
449
330
1F
100
AcDbEntity
  8
0
  6
CONTINUOUS
 62
     7
100
AcDbLine
 10
1476.077904371
 20
652.7026101021
 30
0.0
 11
1461.1693074977
 21
652.7026101021
 31
0.0
  0
LINE
  5
44A
330
1F
100
AcDbEntity
  8
0
  6
CONTINUOUS
 62
     7
100
AcDbLine
 10
1469.5971882021
 20
646.2148903874
 30
0.0
 11
1467.7157079851
 21
646.1491315631
 31
0.0
  0
LINE
  5
44B
330
1F
100
AcDbEntity
  8
0
  6
CONTINUOUS
 62
     7
100
AcDbLine
 10
1469.5971882021
 20
646.2148903874
 30
0.0
 11
1469.633779866
 21
646.130728629
 31
0.0
  0
LINE
  5
44C
330
1F
100
AcDbEntity
  8
0
  6
CONTINUOUS
 62
     7
100
AcDbLine
 10
1469.5971882021
 20
900.187748578
 30
0.0
 11
1469.633779866
 21
900.2719103364
 31
0.0
  0
LINE
  5
44D
330
1F
100
AcDbEntity
  8
0
  6
CONTINUOUS
 62
     7
100
AcDbLine
 10
1467.7157079851
 20
900.2535074023
 30
0.0
 11
1469.5971882021
 21
900.187748578
 31
0.0
  0
LINE
  5
44E
330
1F
100
AcDbEntity
  8
0
  6
CONTINUOUS
 62
     7
100
AcDbLine
 10
1469.5971882021
 20
646.2148903874
 30
0.0
 11
1476.077904371
 21
652.7026101021
 31
0.0
  0
LINE
  5
44F
330
1F
100
AcDbEntity
  8
0
  6
CONTINUOUS
 62
     7
100
AcDbLine
 10
1476.077904371
 20
893.7000288633
 30
0.0
 11
1469.5971882021
 21
900.187748578
 31
0.0
  0
LINE
  5
450
330
1F
100
AcDbEntity
  8
0
  6
CONTINUOUS
 62
     7
100
AcDbLine
 10
1482.131527183
 20
646.652939823
 30
0.0
 11
1482.3315380191
 21
646.5741424827
 31
0.0
  0
LINE
  5
451
330
1F
100
AcDbEntity
  8
0
  6
CONTINUOUS
 62
     7
100
AcDbLine
 10
1471.7525759762
 20
646.2902157573
 30
0.0
 11
1471.538781566
 21
646.1972623137
 31
0.0
  0
LINE
  5
452
330
1F
100
AcDbEntity
  8
0
  6
CONTINUOUS
 62
     7
100
AcDbLine
 10
1482.131527183
 20
646.652939823
 30
0.0
 11
1471.7525759762
 21
646.2902157573
 31
0.0
  0
LINE
  5
453
330
1F
100
AcDbEntity
  8
0
  6
CONTINUOUS
 62
     7
100
AcDbLine
 10
1477.1236082589
 20
651.7820834187
 30
0.0
 11
1477.1236082589
 21
651.6554533509
 31
0.0
  0
LINE
  5
454
330
1F
100
AcDbEntity
  8
0
  6
CONTINUOUS
 62
     7
100
AcDbLine
 10
1477.1236082589
 20
651.6554533509
 30
0.0
 11
1471.7525759762
 21
646.2902157573
 31
0.0
  0
LINE
  5
455
330
1F
100
AcDbEntity
  8
0
  6
CONTINUOUS
 62
     7
100
AcDbLine
 10
1477.1236082589
 20
894.6205555467
 30
0.0
 11
1477.1236082589
 21
894.7471856145
 31
0.0
  0
LINE
  5
456
330
1F
100
AcDbEntity
  8
0
  6
CONTINUOUS
 62
     7
100
AcDbLine
 10
1471.7525759762
 20
900.1124232081
 30
0.0
 11
1471.538781566
 21
900.2053766517
 31
0.0
  0
LINE
  5
457
330
1F
100
AcDbEntity
  8
0
  6
CONTINUOUS
 62
     7
100
AcDbLine
 10
1471.7525759762
 20
900.1124232081
 30
0.0
 11
1477.1236082589
 21
894.7471856145
 31
0.0
  0
LINE
  5
458
330
1F
100
AcDbEntity
  8
0
  6
CONTINUOUS
 62
     7
100
AcDbLine
 10
1482.131527183
 20
899.7496991424
 30
0.0
 11
1482.3315380191
 21
899.8284964827
 31
0.0
  0
LINE
  5
459
330
1F
100
AcDbEntity
  8
0
  6
CONTINUOUS
 62
     7
100
AcDbLine
 10
1471.7525759762
 20
900.1124232081
 30
0.0
 11
1482.131527183
 21
899.7496991424
 31
0.0
  0
LINE
  5
45A
330
1F
100
AcDbEntity
  8
0
  6
CONTINUOUS
 62
     7
100
AcDbLine
 10
1482.131527183
 20
899.7496991424
 30
0.0
 11
1477.1236082589
 21
894.7471856145
 31
0.0
  0
LINE
  5
45B
330
1F
100
AcDbEntity
  8
0
  6
CONTINUOUS
 62
     7
100
AcDbLine
 10
1482.131527183
 20
646.652939823
 30
0.0
 11
1477.1236082589
 21
651.6554533509
 31
0.0
  0
LINE
  5
45C
330
1F
100
AcDbEntity
  8
0
  6
CONTINUOUS
 62
     7
100
AcDbLine
 10
1477.951211301
 20
652.7929483918
 30
0.0
 11
1478.1693084216
 21
652.7026101021
 31
0.0
  0
LINE
  5
45D
330
1F
100
AcDbEntity
  8
0
  6
CONTINUOUS
 62
     7
100
AcDbLine
 10
1493.0779052948
 20
652.7026101021
 30
0.0
 11
1493.2959986901
 21
652.7929483918
 31
0.0
  0
LINE
  5
45E
330
1F
100
AcDbEntity
  8
0
  6
CONTINUOUS
 62
     7
100
AcDbLine
 10
1493.0779052948
 20
652.7026101021
 30
0.0
 11
1478.1693084216
 21
652.7026101021
 31
0.0
  0
LINE
  5
45F
330
1F
100
AcDbEntity
  8
0
  6
CONTINUOUS
 62
     7
100
AcDbLine
 10
1477.951211301
 20
893.6096905736
 30
0.0
 11
1478.1693084216
 21
893.7000288633
 31
0.0
  0
LINE
  5
460
330
1F
100
AcDbEntity
  8
0
  6
CONTINUOUS
 62
     7
100
AcDbLine
 10
1478.1693084216
 20
893.7000288633
 30
0.0
 11
1493.0779052948
 21
893.7000288633
 31
0.0
  0
LINE
  5
461
330
1F
100
AcDbEntity
  8
0
  6
CONTINUOUS
 62
     7
100
AcDbLine
 10
1493.0779052948
 20
893.7000288633
 30
0.0
 11
1493.2959986901
 21
893.6096905736
 31
0.0
  0
LINE
  5
462
330
1F
100
AcDbEntity
  8
0
  6
CONTINUOUS
 62
     7
100
AcDbLine
 10
1484.1422600722
 20
646.7231987981
 30
0.0
 11
1478.1693084216
 21
652.7026101021
 31
0.0
  0
LINE
  5
463
330
1F
100
AcDbEntity
  8
0
  6
CONTINUOUS
 62
     7
100
AcDbLine
 10
1484.1422600722
 20
646.7231987981
 30
0.0
 11
1484.1079836761
 21
646.6361760167
 31
0.0
  0
LINE
  5
464
330
1F
100
AcDbEntity
  8
0
  6
CONTINUOUS
 62
     7
100
AcDbLine
 10
1484.1422600722
 20
899.6794401673
 30
0.0
 11
1484.1079836761
 21
899.7664629487
 31
0.0
  0
LINE
  5
465
330
1F
100
AcDbEntity
  8
0
  6
CONTINUOUS
 62
     7
100
AcDbLine
 10
1484.1422600722
 20
899.6794401673
 30
0.0
 11
1478.1693084216
 21
893.7000288633
 31
0.0
  0
LINE
  5
466
330
1F
100
AcDbEntity
  8
0
  6
CONTINUOUS
 62
     7
100
AcDbLine
 10
1487.2121190702
 20
899.5721518067
 30
0.0
 11
1487.2489137625
 21
899.6567755011
 31
0.0
  0
LINE
  5
467
330
1F
100
AcDbEntity
  8
0
  6
CONTINUOUS
 62
     7
100
AcDbLine
 10
1484.1422600722
 20
899.6794401673
 30
0.0
 11
1487.2121190702
 21
899.5721518067
 31
0.0
  0
LINE
  5
468
330
1F
100
AcDbEntity
  8
0
  6
CONTINUOUS
 62
     7
100
AcDbLine
 10
1487.2121190702
 20
646.8304871587
 30
0.0
 11
1484.1422600722
 21
646.7231987981
 31
0.0
  0
LINE
  5
469
330
1F
100
AcDbEntity
  8
0
  6
CONTINUOUS
 62
     7
100
AcDbLine
 10
1487.2121190702
 20
646.8304871587
 30
0.0
 11
1487.2489137625
 21
646.7458634643
 31
0.0
  0
LINE
  5
46A
330
1F
100
AcDbEntity
  8
0
  6
CONTINUOUS
 62
     7
100
AcDbLine
 10
1487.2121190702
 20
646.8304871587
 30
0.0
 11
1493.0779052948
 21
652.7026101021
 31
0.0
  0
LINE
  5
46B
330
1F
100
AcDbEntity
  8
0
  6
CONTINUOUS
 62
     7
100
AcDbLine
 10
1493.0779052948
 20
893.7000288633
 30
0.0
 11
1487.2121190702
 21
899.5721518067
 31
0.0
  0
LINE
  5
46C
330
1F
100
AcDbEntity
  8
0
  6
CONTINUOUS
 62
     7
100
AcDbLine
 10
1494.1236054575
 20
894.6205555467
 30
0.0
 11
1494.1236054575
 21
894.7471856145
 31
0.0
  0
LINE
  5
46D
330
1F
100
AcDbEntity
  8
0
  6
CONTINUOUS
 62
     7
100
AcDbLine
 10
1489.3688870644
 20
899.4967817334
 30
0.0
 11
1489.1539154624
 21
899.5902418164
 31
0.0
  0
LINE
  5
46E
330
1F
100
AcDbEntity
  8
0
  6
CONTINUOUS
 62
     7
100
AcDbLine
 10
1489.3688870644
 20
899.4967817334
 30
0.0
 11
1494.1236054575
 21
894.7471856145
 31
0.0
  0
LINE
  5
46F
330
1F
100
AcDbEntity
  8
0
  6
CONTINUOUS
 62
     7
100
AcDbLine
 10
1494.1236054575
 20
651.7820834187
 30
0.0
 11
1494.1236054575
 21
651.6554533509
 31
0.0
  0
LINE
  5
470
330
1F
100
AcDbEntity
  8
0
  6
CONTINUOUS
 62
     7
100
AcDbLine
 10
1494.1236054575
 20
651.6554533509
 30
0.0
 11
1489.3688870644
 21
646.905857232
 31
0.0
  0
LINE
  5
471
330
1F
100
AcDbEntity
  8
0
  6
CONTINUOUS
 62
     7
100
AcDbLine
 10
1489.3688870644
 20
646.905857232
 30
0.0
 11
1489.1539154624
 21
646.812397149
 31
0.0
  0
LINE
  5
472
330
1F
100
AcDbEntity
  8
0
  6
CONTINUOUS
 62
     7
100
AcDbLine
 10
1498.5568834519
 20
647.2269623546
 30
0.0
 11
1498.7579187428
 21
647.1477626828
 31
0.0
  0
LINE
  5
473
330
1F
100
AcDbEntity
  8
0
  6
CONTINUOUS
 62
     7
100
AcDbLine
 10
1498.5568834519
 20
647.2269623546
 30
0.0
 11
1489.3688870644
 21
646.905857232
 31
0.0
  0
LINE
  5
474
330
1F
100
AcDbEntity
  8
0
  6
CONTINUOUS
 62
     7
100
AcDbLine
 10
1498.5568834519
 20
899.1756766108
 30
0.0
 11
1498.7579187428
 21
899.2548762826
 31
0.0
  0
LINE
  5
475
330
1F
100
AcDbEntity
  8
0
  6
CONTINUOUS
 62
     7
100
AcDbLine
 10
1489.3688870644
 20
899.4967817334
 30
0.0
 11
1498.5568834519
 21
899.1756766108
 31
0.0
  0
CIRCLE
  5
476
330
1F
100
AcDbEntity
  8
0
  6
CONTINUOUS
 62
     7
100
AcDbCircle
 10
1498.1236064112
 20
878.2013194827
 30
0.0
 40
5.366668079663327
  0
CIRCLE
  5
477
330
1F
100
AcDbEntity
  8
0
  6
CONTINUOUS
 62
     7
100
AcDbCircle
 10
1498.1236064112
 20
878.2013194827
 30
0.0
 40
5.0
  0
CIRCLE
  5
478
330
1F
100
AcDbEntity
  8
0
  6
CONTINUOUS
 62
     7
100
AcDbCircle
 10
1498.1236064112
 20
668.2013194827
 30
0.0
 40
5.366668079663214
  0
CIRCLE
  5
479
330
1F
100
AcDbEntity
  8
0
  6
CONTINUOUS
 62
     7
100
AcDbCircle
 10
1498.1236064112
 20
668.2013194827
 30
0.0
 40
5.0
  0
CIRCLE
  5
47A
330
1F
100
AcDbEntity
  8
0
  6
CONTINUOUS
 62
     7
100
AcDbCircle
 10
1498.1236064112
 20
878.2013194827
 30
0.0
 40
2.600000000000023
  0
CIRCLE
  5
47B
330
1F
100
AcDbEntity
  8
0
  6
CONTINUOUS
 62
     7
100
AcDbCircle
 10
1498.1236064112
 20
668.2013194827
 30
0.0
 40
2.599999999999909
  0
LINE
  5
47C
330
1F
100
AcDbEntity
  8
0
  6
CONTINUOUS
 62
     7
100
AcDbLine
 10
1498.5568834519
 20
899.1756766108
 30
0.0
 11
1494.1236054575
 21
894.7471856145
 31
0.0
  0
LINE
  5
47D
330
1F
100
AcDbEntity
  8
0
  6
CONTINUOUS
 62
     7
100
AcDbLine
 10
1498.5568834519
 20
647.2269623546
 30
0.0
 11
1494.1236054575
 21
651.6554533509
 31
0.0
  0
LINE
  5
47E
330
1F
100
AcDbEntity
  8
0
  6
CONTINUOUS
 62
     7
100
AcDbLine
 10
1498.7069716727
 20
652.7929483918
 30
0.0
 11
1498.7443922138
 21
652.7026101021
 31
0.0
  0
LINE
  5
47F
330
1F
100
AcDbEntity
  8
0
  6
CONTINUOUS
 62
     7
100
AcDbLine
 10
1498.7443922138
 20
652.7026101021
 30
0.0
 11
1495.1693093454
 21
652.7026101021
 31
0.0
  0
LINE
  5
480
330
1F
100
AcDbEntity
  8
0
  6
CONTINUOUS
 62
     7
100
AcDbLine
 10
1494.9512122249
 20
652.7929483918
 30
0.0
 11
1495.1693093454
 21
652.7026101021
 31
0.0
  0
LINE
  5
481
330
1F
100
AcDbEntity
  8
0
  6
CONTINUOUS
 62
     7
100
AcDbLine
 10
1495.1693093454
 20
893.7000288633
 30
0.0
 11
1498.7443922138
 21
893.7000288633
 31
0.0
  0
LINE
  5
482
330
1F
100
AcDbEntity
  8
0
  6
CONTINUOUS
 62
     7
100
AcDbLine
 10
1498.7069716727
 20
893.6096905736
 30
0.0
 11
1498.7443922138
 21
893.7000288633
 31
0.0
  0
LINE
  5
483
330
1F
100
AcDbEntity
  8
0
  6
CONTINUOUS
 62
     7
100
AcDbLine
 10
1494.9512122249
 20
893.6096905736
 30
0.0
 11
1495.1693093454
 21
893.7000288633
 31
0.0
  0
LINE
  5
484
330
1F
100
AcDbEntity
  8
0
  6
CONTINUOUS
 62
     7
100
AcDbLine
 10
1500.4710828936
 20
647.3951070575
 30
0.0
 11
1495.1693093454
 21
652.7026101021
 31
0.0
  0
LWPOLYLINE
  5
485
330
1F
100
AcDbEntity
  8
0
  6
CONTINUOUS
 62
     7
100
AcDbPolyline
 90
        3
 70
   128
 43
0.0
 10
1500.4710828936
 20
647.3951070575
 10
1500.4509551501
 20
647.3205863503
 10
1500.445076642
 20
647.2990839747
  0
LWPOLYLINE
  5
486
330
1F
100
AcDbEntity
  8
0
  6
CONTINUOUS
 62
     7
100
AcDbPolyline
 90
        3
 70
   128
 43
0.0
 10
1500.4710828936
 20
899.0075319079
 10
1500.4509551501
 20
899.0820526151
 10
1500.445076642
 20
899.1035549907
  0
LINE
  5
487
330
1F
100
AcDbEntity
  8
0
  6
CONTINUOUS
 62
     7
100
AcDbLine
 10
1500.4710828936
 20
899.0075319079
 30
0.0
 11
1495.1693093454
 21
893.7000288633
 31
0.0
  0
CIRCLE
  5
488
330
1F
100
AcDbEntity
  8
0
  6
CONTINUOUS
 62
     7
100
AcDbCircle
 10
1498.1236064112
 20
668.2013194827
 30
0.0
 40
2.499641020406102
  0
CIRCLE
  5
489
330
1F
100
AcDbEntity
  8
0
  6
CONTINUOUS
 62
     7
100
AcDbCircle
 10
1498.1236064112
 20
878.2013194827
 30
0.0
 40
2.49964102040633
  0
LINE
  5
48A
330
1F
100
AcDbEntity
  8
0
  6
CONTINUOUS
 62
     7
100
AcDbLine
 10
1508.2152387177
 20
882.2392775682
 30
0.0
 11
1508.123604027
 21
882.2013168601
 31
0.0
  0
LINE
  5
48B
330
1F
100
AcDbEntity
  8
0
  6
CONTINUOUS
 62
     7
100
AcDbLine
 10
1508.123604027
 20
882.2013168601
 30
0.0
 11
1498.3200816488
 21
892.0048429636
 31
0.0
  0
LINE
  5
48C
330
1F
100
AcDbEntity
  8
0
  6
CONTINUOUS
 62
     7
100
AcDbLine
 10
1498.1236694431
 20
892.2014712361
 30
0.0
 11
1498.3200816488
 21
892.0048429636
 31
0.0
  0
LINE
  5
48D
330
1F
100
AcDbEntity
  8
0
  6
CONTINUOUS
 62
     7
100
AcDbLine
 10
1508.2152387177
 20
664.1633613972
 30
0.0
 11
1508.123604027
 21
664.2013221053
 31
0.0
  0
LINE
  5
48E
330
1F
100
AcDbEntity
  8
0
  6
CONTINUOUS
 62
     7
100
AcDbLine
 10
1498.3200816488
 20
654.3977960018
 30
0.0
 11
1498.1236694431
 21
654.2011677293
 31
0.0
  0
LINE
  5
48F
330
1F
100
AcDbEntity
  8
0
  6
CONTINUOUS
 62
     7
100
AcDbLine
 10
1508.123604027
 20
664.2013221053
 30
0.0
 11
1498.3200816488
 21
654.3977960018
 31
0.0
  0
LINE
  5
490
330
1F
100
AcDbEntity
  8
0
  6
CONTINUOUS
 62
     7
100
AcDbLine
 10
1498.7443922138
 20
893.7000288633
 30
0.0
 11
1500.4413997805
 21
892.0048429636
 31
0.0
  0
LINE
  5
491
330
1F
100
AcDbEntity
  8
0
  6
CONTINUOUS
 62
     7
100
AcDbLine
 10
1509.6236070668
 20
882.8226431278
 30
0.0
 11
1500.4413997805
 21
892.0048429636
 31
0.0
  0
LINE
  5
492
330
1F
100
AcDbEntity
  8
0
  6
CONTINUOUS
 62
     7
100
AcDbLine
 10
1509.5319723761
 20
882.7846824197
 30
0.0
 11
1509.6236070668
 21
882.8226431278
 31
0.0
  0
LINE
  5
493
330
1F
100
AcDbEntity
  8
0
  6
CONTINUOUS
 62
     7
100
AcDbLine
 10
1509.6236070668
 20
663.5799958376
 30
0.0
 11
1500.4413997805
 21
654.3977960018
 31
0.0
  0
LINE
  5
494
330
1F
100
AcDbEntity
  8
0
  6
CONTINUOUS
 62
     7
100
AcDbLine
 10
1500.4413997805
 20
654.3977960018
 30
0.0
 11
1498.7443922138
 21
652.7026101021
 31
0.0
  0
LINE
  5
495
330
1F
100
AcDbEntity
  8
0
  6
CONTINUOUS
 62
     7
100
AcDbLine
 10
1509.5319723761
 20
663.6179565457
 30
0.0
 11
1509.6236070668
 21
663.5799958376
 31
0.0
  0
ARC
  5
496
330
1F
100
AcDbEntity
  8
0
  6
CONTINUOUS
 62
     7
100
AcDbCircle
 10
1499.4546910524
 20
651.1868238692
 30
0.0
 40
16.08918052419332
100
AcDbArc
 50
271.9984733061
 51
314.9690672951
  0
LINE
  5
497
330
1F
100
AcDbEntity
  8
0
  6
CONTINUOUS
 62
     7
100
AcDbLine
 10
1510.8253112113
 20
639.8039191035
 30
0.0
 11
1510.7683962261
 21
639.8608266381
 31
0.0
  0
ARC
  5
498
330
1F
100
AcDbEntity
  8
0
  6
CONTINUOUS
 62
     7
100
AcDbCircle
 10
1499.4546910524
 20
895.2158150962
 30
0.0
 40
16.0891805241932
100
AcDbArc
 50
45.0309327049
 51
88.0015266939
  0
LINE
  5
499
330
1F
100
AcDbEntity
  8
0
  6
CONTINUOUS
 62
     7
100
AcDbLine
 10
1510.8253112113
 20
906.5987198619
 30
0.0
 11
1510.7683962261
 21
906.5418123273
 31
0.0
  0
LINE
  5
49A
330
1F
100
AcDbEntity
  8
0
  6
CONTINUOUS
 62
     7
100
AcDbLine
 10
1517.3901891386
 20
663.5768740443
 30
0.0
 11
1517.4520364081
 21
663.5150267748
 31
0.0
  0
LINE
  5
49B
330
1F
100
AcDbEntity
  8
0
  6
CONTINUOUS
 62
     7
100
AcDbLine
 10
1502.2215595519
 20
648.4076707629
 30
0.0
 11
1502.2831199741
 21
648.346114066
 31
0.0
  0
LINE
  5
49C
330
1F
100
AcDbEntity
  8
0
  6
CONTINUOUS
 62
     7
100
AcDbLine
 10
1508.2052102363
 20
654.3977960018
 30
0.0
 11
1502.2215595519
 21
648.4076707629
 31
0.0
  0
LINE
  5
49D
330
1F
100
AcDbEntity
  8
0
  6
CONTINUOUS
 62
     7
100
AcDbLine
 10
1511.9271328723
 20
658.1197111873
 30
0.0
 11
1508.2052102363
 21
654.3977960018
 31
0.0
  0
LINE
  5
49E
330
1F
100
AcDbEntity
  8
0
  6
CONTINUOUS
 62
     7
100
AcDbLine
 10
1517.3901891386
 20
663.5768740443
 30
0.0
 11
1511.9271328723
 21
658.1197111873
 31
0.0
  0
LINE
  5
49F
330
1F
100
AcDbEntity
  8
0
  6
CONTINUOUS
 62
     7
100
AcDbLine
 10
1502.2215595519
 20
897.9949682025
 30
0.0
 11
1502.2831199741
 21
898.0565248994
 31
0.0
  0
ARC
  5
4A0
330
1F
100
AcDbEntity
  8
0
  6
CONTINUOUS
 62
     7
100
AcDbCircle
 10
1499.4546910524
 20
895.2310851451
 30
0.0
 40
3.910831051824857
100
AcDbArc
 50
44.9690672951
 51
74.9363677733
  0
ARC
  5
4A1
330
1F
100
AcDbEntity
  8
0
  6
CONTINUOUS
 62
     7
100
AcDbCircle
 10
1499.4546910524
 20
651.1715538203
 30
0.0
 40
3.910831051824857
100
AcDbArc
 50
285.0636322267
 51
315.0309327049
  0
LINE
  5
4A2
330
1F
100
AcDbEntity
  8
0
  6
CONTINUOUS
 62
     7
100
AcDbLine
 10
1508.2052102363
 20
892.0048429636
 30
0.0
 11
1511.9271328723
 21
888.2829277781
 31
0.0
  0
LINE
  5
4A3
330
1F
100
AcDbEntity
  8
0
  6
CONTINUOUS
 62
     7
100
AcDbLine
 10
1502.2215595519
 20
897.9949682025
 30
0.0
 11
1508.2052102363
 21
892.0048429636
 31
0.0
  0
LINE
  5
4A4
330
1F
100
AcDbEntity
  8
0
  6
CONTINUOUS
 62
     7
100
AcDbLine
 10
1517.3901891386
 20
882.8257649211
 30
0.0
 11
1517.4520364081
 21
882.8876121906
 31
0.0
  0
LINE
  5
4A5
330
1F
100
AcDbEntity
  8
0
  6
CONTINUOUS
 62
     7
100
AcDbLine
 10
1511.9271328723
 20
888.2829277781
 30
0.0
 11
1517.3901891386
 21
882.8257649211
 31
0.0
  0
LINE
  5
4A6
330
1F
100
AcDbEntity
  8
0
  6
CONTINUOUS
 62
     7
100
AcDbLine
 10
1508.123604027
 20
664.2013221053
 30
0.0
 11
1508.123604027
 21
882.2013168601
 31
0.0
  0
LINE
  5
4A7
330
1F
100
AcDbEntity
  8
0
  6
CONTINUOUS
 62
     7
100
AcDbLine
 10
1525.9945144927
 20
654.9725486902
 30
0.0
 11
1525.4112010872
 21
654.3886019854
 31
0.0
  0
SPLINE
  5
4A8
330
1F
100
AcDbEntity
  8
0
  6
CONTINUOUS
 62
     7
100
AcDbSpline
210
0.0
220
0.0
230
1.0
 70
     8
 71
     3
 72
     8
 73
     4
 74
     0
 42
0.00000001
 43
0.00000001
 12
1.0
 22
0.0
 32
0.0
 13
1.0
 23
0.0
 33
0.0
 40
0.0
 40
0.0
 40
0.0
 40
0.0
 40
1.0
 40
1.0
 40
1.0
 40
1.0
 10
1525.411197896841
 20
654.38860170469
 30
0.0
 10
1520.91967680972
 20
649.8968736533681
 30
0.0
 10
1516.428052240499
 20
645.4052490841467
 30
0.0
 10
1511.936324189177
 20
640.9137279970262
 30
0.0
  0
LINE
  5
4A9
330
1F
100
AcDbEntity
  8
0
  6
CONTINUOUS
 62
     7
100
AcDbLine
 10
1511.9363268887
 20
640.9137277869
 30
0.0
 11
1510.8253112113
 21
639.8039191035
 31
0.0
  0
LINE
  5
4AA
330
1F
100
AcDbEntity
  8
0
  6
CONTINUOUS
 62
     7
100
AcDbLine
 10
1525.9945144927
 20
654.9725486902
 30
0.0
 11
1525.9373163855
 21
655.0297467975
 31
0.0
  0
LINE
  5
4AB
330
1F
100
AcDbEntity
  8
0
  6
CONTINUOUS
 62
     7
100
AcDbLine
 10
1509.6236070668
 20
878.6524935631
 30
0.0
 11
1509.5319723761
 21
878.8737162022
 31
0.0
  0
LINE
  5
4AC
330
1F
100
AcDbEntity
  8
0
  6
CONTINUOUS
 62
     7
100
AcDbLine
 10
1517.7043652212
 20
870.7013159064
 30
0.0
 11
1517.580886749
 21
870.7013159064
 31
0.0
  0
LINE
  5
4AD
330
1F
100
AcDbEntity
  8
0
  6
CONTINUOUS
 62
     7
100
AcDbLine
 10
1511.9271328723
 20
876.3489677576
 30
0.0
 11
1517.580886749
 21
870.7013159064
 31
0.0
  0
LINE
  5
4AE
330
1F
100
AcDbEntity
  8
0
  6
CONTINUOUS
 62
     7
100
AcDbLine
 10
1509.6236070668
 20
878.6524935631
 30
0.0
 11
1511.9271328723
 21
876.3489677576
 31
0.0
  0
LINE
  5
4AF
330
1F
100
AcDbEntity
  8
0
  6
CONTINUOUS
 62
     7
100
AcDbLine
 10
1509.6236070668
 20
859.1524912981
 30
0.0
 11
1509.5319723761
 21
859.3737139372
 31
0.0
  0
LINE
  5
4B0
330
1F
100
AcDbEntity
  8
0
  6
CONTINUOUS
 62
     7
100
AcDbLine
 10
1517.7043652212
 20
851.201321092
 30
0.0
 11
1517.580886749
 21
851.201321092
 31
0.0
  0
LINE
  5
4B1
330
1F
100
AcDbEntity
  8
0
  6
CONTINUOUS
 62
     7
100
AcDbLine
 10
1511.9271328723
 20
856.8489654926
 30
0.0
 11
1517.580886749
 21
851.201321092
 31
0.0
  0
LINE
  5
4B2
330
1F
100
AcDbEntity
  8
0
  6
CONTINUOUS
 62
     7
100
AcDbLine
 10
1509.6236070668
 20
859.1524912981
 30
0.0
 11
1511.9271328723
 21
856.8489654926
 31
0.0
  0
LINE
  5
4B3
330
1F
100
AcDbEntity
  8
0
  6
CONTINUOUS
 62
     7
100
AcDbLine
 10
1517.580886749
 20
753.7013190804
 30
0.0
 11
1511.9271328723
 21
748.0536709545
 31
0.0
  0
LINE
  5
4B4
330
1F
100
AcDbEntity
  8
0
  6
CONTINUOUS
 62
     7
100
AcDbLine
 10
1517.7043652212
 20
753.7013190804
 30
0.0
 11
1517.580886749
 21
753.7013190804
 31
0.0
  0
LINE
  5
4B5
330
1F
100
AcDbEntity
  8
0
  6
CONTINUOUS
 62
     7
100
AcDbLine
 10
1509.6236070668
 20
745.750145149
 30
0.0
 11
1509.5319723761
 21
745.5289262352
 31
0.0
  0
LINE
  5
4B6
330
1F
100
AcDbEntity
  8
0
  6
CONTINUOUS
 62
     7
100
AcDbLine
 10
1509.6236070668
 20
745.750145149
 30
0.0
 11
1511.9271328723
 21
748.0536709545
 31
0.0
  0
LINE
  5
4B7
330
1F
100
AcDbEntity
  8
0
  6
CONTINUOUS
 62
     7
100
AcDbLine
 10
1517.580886749
 20
773.2013194827
 30
0.0
 11
1511.9271328723
 21
767.5536713568
 31
0.0
  0
LINE
  5
4B8
330
1F
100
AcDbEntity
  8
0
  6
CONTINUOUS
 62
     7
100
AcDbLine
 10
1517.7043652212
 20
773.2013194827
 30
0.0
 11
1517.580886749
 21
773.2013194827
 31
0.0
  0
LINE
  5
4B9
330
1F
100
AcDbEntity
  8
0
  6
CONTINUOUS
 62
     7
100
AcDbLine
 10
1509.6236070668
 20
765.2501455513
 30
0.0
 11
1509.5319723761
 21
765.0289266375
 31
0.0
  0
LINE
  5
4BA
330
1F
100
AcDbEntity
  8
0
  6
CONTINUOUS
 62
     7
100
AcDbLine
 10
1509.6236070668
 20
765.2501455513
 30
0.0
 11
1511.9271328723
 21
767.5536713568
 31
0.0
  0
LINE
  5
4BB
330
1F
100
AcDbEntity
  8
0
  6
CONTINUOUS
 62
     7
100
AcDbLine
 10
1509.6236070668
 20
800.6524938164
 30
0.0
 11
1509.5319723761
 21
800.8737127302
 31
0.0
  0
LINE
  5
4BC
330
1F
100
AcDbEntity
  8
0
  6
CONTINUOUS
 62
     7
100
AcDbLine
 10
1509.6236070668
 20
784.7501459537
 30
0.0
 11
1509.6236070668
 21
800.6524938164
 31
0.0
  0
LINE
  5
4BD
330
1F
100
AcDbEntity
  8
0
  6
CONTINUOUS
 62
     7
100
AcDbLine
 10
1509.6236070668
 20
784.7501459537
 30
0.0
 11
1509.5319723761
 21
784.5289261086
 31
0.0
  0
LINE
  5
4BE
330
1F
100
AcDbEntity
  8
0
  6
CONTINUOUS
 62
     7
100
AcDbLine
 10
1518.537019757
 20
674.5730443863
 30
0.0
 11
1518.6236029541
 21
674.7820778755
 31
0.0
  0
LINE
  5
4BF
330
1F
100
AcDbEntity
  8
0
  6
CONTINUOUS
 62
     7
100
AcDbLine
 10
1518.537019757
 20
674.5730443863
 30
0.0
 11
1511.9271328723
 21
667.9560198454
 31
0.0
  0
LINE
  5
4C0
330
1F
100
AcDbEntity
  8
0
  6
CONTINUOUS
 62
     7
100
AcDbLine
 10
1509.6236070668
 20
665.6524940399
 30
0.0
 11
1511.9271328723
 21
667.9560198454
 31
0.0
  0
LINE
  5
4C1
330
1F
100
AcDbEntity
  8
0
  6
CONTINUOUS
 62
     7
100
AcDbLine
 10
1509.6236070668
 20
665.6524940399
 30
0.0
 11
1509.5319723761
 21
665.6904472975
 31
0.0
  0
LINE
  5
4C2
330
1F
100
AcDbEntity
  8
0
  6
CONTINUOUS
 62
     7
100
AcDbLine
 10
1509.6236070668
 20
820.1524942187
 30
0.0
 11
1509.5319723761
 21
820.3737131325
 31
0.0
  0
LINE
  5
4C3
330
1F
100
AcDbEntity
  8
0
  6
CONTINUOUS
 62
     7
100
AcDbLine
 10
1517.7043652212
 20
812.2013202874
 30
0.0
 11
1517.580886749
 21
812.2013202874
 31
0.0
  0
LINE
  5
4C4
330
1F
100
AcDbEntity
  8
0
  6
CONTINUOUS
 62
     7
100
AcDbLine
 10
1511.9271328723
 20
817.8489684132
 30
0.0
 11
1517.580886749
 21
812.2013202874
 31
0.0
  0
LINE
  5
4C5
330
1F
100
AcDbEntity
  8
0
  6
CONTINUOUS
 62
     7
100
AcDbLine
 10
1509.6236070668
 20
820.1524942187
 30
0.0
 11
1511.9271328723
 21
817.8489684132
 31
0.0
  0
LINE
  5
4C6
330
1F
100
AcDbEntity
  8
0
  6
CONTINUOUS
 62
     7
100
AcDbLine
 10
1517.580886749
 20
851.201321092
 30
0.0
 11
1511.9271328723
 21
845.5536692408
 31
0.0
  0
LINE
  5
4C7
330
1F
100
AcDbEntity
  8
0
  6
CONTINUOUS
 62
     7
100
AcDbLine
 10
1509.6236070668
 20
843.2501434354
 30
0.0
 11
1509.5319723761
 21
843.0289282469
 31
0.0
  0
LINE
  5
4C8
330
1F
100
AcDbEntity
  8
0
  6
CONTINUOUS
 62
     7
100
AcDbLine
 10
1509.6236070668
 20
843.2501434354
 30
0.0
 11
1511.9271328723
 21
845.5536692408
 31
0.0
  0
LINE
  5
4C9
330
1F
100
AcDbEntity
  8
0
  6
CONTINUOUS
 62
     7
100
AcDbLine
 10
1509.6236070668
 20
726.2501447467
 30
0.0
 11
1509.6236070668
 21
742.1524926094
 31
0.0
  0
LINE
  5
4CA
330
1F
100
AcDbEntity
  8
0
  6
CONTINUOUS
 62
     7
100
AcDbLine
 10
1509.6236070668
 20
726.2501447467
 30
0.0
 11
1509.5319723761
 21
726.0289258329
 31
0.0
  0
LINE
  5
4CB
330
1F
100
AcDbEntity
  8
0
  6
CONTINUOUS
 62
     7
100
AcDbLine
 10
1509.6236070668
 20
742.1524926094
 30
0.0
 11
1509.5319723761
 21
742.3737133858
 31
0.0
  0
LINE
  5
4CC
330
1F
100
AcDbEntity
  8
0
  6
CONTINUOUS
 62
     7
100
AcDbLine
 10
1517.580886749
 20
831.701318827
 30
0.0
 11
1511.9271328723
 21
826.0536707012
 31
0.0
  0
LINE
  5
4CD
330
1F
100
AcDbEntity
  8
0
  6
CONTINUOUS
 62
     7
100
AcDbLine
 10
1517.7043652212
 20
831.701318827
 30
0.0
 11
1517.580886749
 21
831.701318827
 31
0.0
  0
LINE
  5
4CE
330
1F
100
AcDbEntity
  8
0
  6
CONTINUOUS
 62
     7
100
AcDbLine
 10
1509.6236070668
 20
823.7501448957
 30
0.0
 11
1509.5319723761
 21
823.5289259819
 31
0.0
  0
LINE
  5
4CF
330
1F
100
AcDbEntity
  8
0
  6
CONTINUOUS
 62
     7
100
AcDbLine
 10
1509.6236070668
 20
823.7501448957
 30
0.0
 11
1511.9271328723
 21
826.0536707012
 31
0.0
  0
LINE
  5
4D0
330
1F
100
AcDbEntity
  8
0
  6
CONTINUOUS
 62
     7
100
AcDbLine
 10
1517.7043652212
 20
714.7013201384
 30
0.0
 11
1517.580886749
 21
714.7013201384
 31
0.0
  0
LINE
  5
4D1
330
1F
100
AcDbEntity
  8
0
  6
CONTINUOUS
 62
     7
100
AcDbLine
 10
1509.6236070668
 20
706.7501424817
 30
0.0
 11
1509.5319723761
 21
706.5289272932
 31
0.0
  0
LINE
  5
4D2
330
1F
100
AcDbEntity
  8
0
  6
CONTINUOUS
 62
     7
100
AcDbLine
 10
1509.6236070668
 20
706.7501424817
 30
0.0
 11
1511.9271328723
 21
709.0536682872
 31
0.0
  0
LINE
  5
4D3
330
1F
100
AcDbEntity
  8
0
  6
CONTINUOUS
 62
     7
100
AcDbLine
 10
1517.580886749
 20
714.7013201384
 30
0.0
 11
1511.9271328723
 21
709.0536682872
 31
0.0
  0
LINE
  5
4D4
330
1F
100
AcDbEntity
  8
0
  6
CONTINUOUS
 62
     7
100
AcDbLine
 10
1517.7043652212
 20
695.2013178734
 30
0.0
 11
1517.580886749
 21
695.2013178734
 31
0.0
  0
LINE
  5
4D5
330
1F
100
AcDbEntity
  8
0
  6
CONTINUOUS
 62
     7
100
AcDbLine
 10
1509.6236070668
 20
687.2501476673
 30
0.0
 11
1509.5319723761
 21
687.0289250282
 31
0.0
  0
LINE
  5
4D6
330
1F
100
AcDbEntity
  8
0
  6
CONTINUOUS
 62
     7
100
AcDbLine
 10
1509.6236070668
 20
687.2501476673
 30
0.0
 11
1511.9271328723
 21
689.5536734728
 31
0.0
  0
LINE
  5
4D7
330
1F
100
AcDbEntity
  8
0
  6
CONTINUOUS
 62
     7
100
AcDbLine
 10
1517.580886749
 20
695.2013178734
 30
0.0
 11
1511.9271328723
 21
689.5536734728
 31
0.0
  0
LINE
  5
4D8
330
1F
100
AcDbEntity
  8
0
  6
CONTINUOUS
 62
     7
100
AcDbLine
 10
1517.7043652212
 20
675.701323059
 30
0.0
 11
1517.580886749
 21
675.701323059
 31
0.0
  0
LINE
  5
4D9
330
1F
100
AcDbEntity
  8
0
  6
CONTINUOUS
 62
     7
100
AcDbLine
 10
1509.6236070668
 20
667.7501454023
 30
0.0
 11
1509.5319723761
 21
667.5289227632
 31
0.0
  0
LINE
  5
4DA
330
1F
100
AcDbEntity
  8
0
  6
CONTINUOUS
 62
     7
100
AcDbLine
 10
1509.6236070668
 20
667.7501454023
 30
0.0
 11
1511.9271328723
 21
670.0536712078
 31
0.0
  0
LINE
  5
4DB
330
1F
100
AcDbEntity
  8
0
  6
CONTINUOUS
 62
     7
100
AcDbLine
 10
1517.580886749
 20
675.701323059
 30
0.0
 11
1511.9271328723
 21
670.0536712078
 31
0.0
  0
LINE
  5
4DC
330
1F
100
AcDbEntity
  8
0
  6
CONTINUOUS
 62
     7
100
AcDbLine
 10
1509.6236070668
 20
880.7501449255
 30
0.0
 11
1511.9271328723
 21
878.44661912
 31
0.0
  0
LINE
  5
4DD
330
1F
100
AcDbEntity
  8
0
  6
CONTINUOUS
 62
     7
100
AcDbLine
 10
1511.9271328723
 20
878.44661912
 30
0.0
 11
1518.537019757
 21
871.8295945791
 31
0.0
  0
LINE
  5
4DE
330
1F
100
AcDbEntity
  8
0
  6
CONTINUOUS
 62
     7
100
AcDbLine
 10
1518.6236029541
 20
871.6205610899
 30
0.0
 11
1518.537019757
 21
871.8295945791
 31
0.0
  0
LINE
  5
4DF
330
1F
100
AcDbEntity
  8
0
  6
CONTINUOUS
 62
     7
100
AcDbLine
 10
1509.6236070668
 20
880.7501449255
 30
0.0
 11
1509.5319723761
 21
880.7121916679
 31
0.0
  0
LINE
  5
4E0
330
1F
100
AcDbEntity
  8
0
  6
CONTINUOUS
 62
     7
100
AcDbLine
 10
1517.580886749
 20
812.2013202874
 30
0.0
 11
1511.9271328723
 21
806.5536721615
 31
0.0
  0
LINE
  5
4E1
330
1F
100
AcDbEntity
  8
0
  6
CONTINUOUS
 62
     7
100
AcDbLine
 10
1509.6236070668
 20
804.250146356
 30
0.0
 11
1509.5319723761
 21
804.0289255796
 31
0.0
  0
LINE
  5
4E2
330
1F
100
AcDbEntity
  8
0
  6
CONTINUOUS
 62
     7
100
AcDbLine
 10
1509.6236070668
 20
804.250146356
 30
0.0
 11
1511.9271328723
 21
806.5536721615
 31
0.0
  0
LINE
  5
4E3
330
1F
100
AcDbEntity
  8
0
  6
CONTINUOUS
 62
     7
100
AcDbLine
 10
1509.6236070668
 20
781.1524934141
 30
0.0
 11
1509.5319723761
 21
781.3737123279
 31
0.0
  0
LINE
  5
4E4
330
1F
100
AcDbEntity
  8
0
  6
CONTINUOUS
 62
     7
100
AcDbLine
 10
1509.6236070668
 20
765.2501455513
 30
0.0
 11
1509.6236070668
 21
781.1524934141
 31
0.0
  0
LINE
  5
4E5
330
1F
100
AcDbEntity
  8
0
  6
CONTINUOUS
 62
     7
100
AcDbLine
 10
1511.9271328723
 20
720.3489682642
 30
0.0
 11
1517.580886749
 21
714.7013201384
 31
0.0
  0
LINE
  5
4E6
330
1F
100
AcDbEntity
  8
0
  6
CONTINUOUS
 62
     7
100
AcDbLine
 10
1509.6236070668
 20
722.6524940697
 30
0.0
 11
1511.9271328723
 21
720.3489682642
 31
0.0
  0
LINE
  5
4E7
330
1F
100
AcDbEntity
  8
0
  6
CONTINUOUS
 62
     7
100
AcDbLine
 10
1509.6236070668
 20
722.6524940697
 30
0.0
 11
1509.5319723761
 21
722.8737129835
 31
0.0
  0
LINE
  5
4E8
330
1F
100
AcDbEntity
  8
0
  6
CONTINUOUS
 62
     7
100
AcDbLine
 10
1517.580886749
 20
792.701319885
 30
0.0
 11
1511.9271328723
 21
787.0536717591
 31
0.0
  0
LINE
  5
4E9
330
1F
100
AcDbEntity
  8
0
  6
CONTINUOUS
 62
     7
100
AcDbLine
 10
1517.7043652212
 20
792.701319885
 30
0.0
 11
1517.580886749
 21
792.701319885
 31
0.0
  0
LINE
  5
4EA
330
1F
100
AcDbEntity
  8
0
  6
CONTINUOUS
 62
     7
100
AcDbLine
 10
1509.6236070668
 20
784.7501459537
 30
0.0
 11
1511.9271328723
 21
787.0536717591
 31
0.0
  0
LINE
  5
4EB
330
1F
100
AcDbEntity
  8
0
  6
CONTINUOUS
 62
     7
100
AcDbLine
 10
1509.6236070668
 20
862.7501457004
 30
0.0
 11
1509.6236070668
 21
878.6524935631
 31
0.0
  0
LINE
  5
4EC
330
1F
100
AcDbEntity
  8
0
  6
CONTINUOUS
 62
     7
100
AcDbLine
 10
1509.6236070668
 20
862.7501457004
 30
0.0
 11
1509.5319723761
 21
862.5289230613
 31
0.0
  0
LINE
  5
4ED
330
1F
100
AcDbEntity
  8
0
  6
CONTINUOUS
 62
     7
100
AcDbLine
 10
1517.7043652212
 20
734.201318678
 30
0.0
 11
1517.580886749
 21
734.201318678
 31
0.0
  0
LINE
  5
4EE
330
1F
100
AcDbEntity
  8
0
  6
CONTINUOUS
 62
     7
100
AcDbLine
 10
1509.6236070668
 20
726.2501447467
 30
0.0
 11
1511.9271328723
 21
728.5536705522
 31
0.0
  0
LINE
  5
4EF
330
1F
100
AcDbEntity
  8
0
  6
CONTINUOUS
 62
     7
100
AcDbLine
 10
1517.580886749
 20
734.201318678
 30
0.0
 11
1511.9271328723
 21
728.5536705522
 31
0.0
  0
LINE
  5
4F0
330
1F
100
AcDbEntity
  8
0
  6
CONTINUOUS
 62
     7
100
AcDbLine
 10
1511.9271328723
 20
681.3489674596
 30
0.0
 11
1517.580886749
 21
675.701323059
 31
0.0
  0
LINE
  5
4F1
330
1F
100
AcDbEntity
  8
0
  6
CONTINUOUS
 62
     7
100
AcDbLine
 10
1509.6236070668
 20
683.652493265
 30
0.0
 11
1511.9271328723
 21
681.3489674596
 31
0.0
  0
LINE
  5
4F2
330
1F
100
AcDbEntity
  8
0
  6
CONTINUOUS
 62
     7
100
AcDbLine
 10
1509.6236070668
 20
683.652493265
 30
0.0
 11
1509.5319723761
 21
683.8737159041
 31
0.0
  0
LINE
  5
4F3
330
1F
100
AcDbEntity
  8
0
  6
CONTINUOUS
 62
     7
100
AcDbLine
 10
1511.9271328723
 20
739.8489668039
 30
0.0
 11
1517.580886749
 21
734.201318678
 31
0.0
  0
LINE
  5
4F4
330
1F
100
AcDbEntity
  8
0
  6
CONTINUOUS
 62
     7
100
AcDbLine
 10
1509.6236070668
 20
742.1524926094
 30
0.0
 11
1511.9271328723
 21
739.8489668039
 31
0.0
  0
LINE
  5
4F5
330
1F
100
AcDbEntity
  8
0
  6
CONTINUOUS
 62
     7
100
AcDbLine
 10
1509.6236070668
 20
804.250146356
 30
0.0
 11
1509.6236070668
 21
820.1524942187
 31
0.0
  0
LINE
  5
4F6
330
1F
100
AcDbEntity
  8
0
  6
CONTINUOUS
 62
     7
100
AcDbLine
 10
1509.6236070668
 20
761.6524930117
 30
0.0
 11
1509.5319723761
 21
761.8737128568
 31
0.0
  0
LINE
  5
4F7
330
1F
100
AcDbEntity
  8
0
  6
CONTINUOUS
 62
     7
100
AcDbLine
 10
1509.6236070668
 20
745.750145149
 30
0.0
 11
1509.6236070668
 21
761.6524930117
 31
0.0
  0
LINE
  5
4F8
330
1F
100
AcDbEntity
  8
0
  6
CONTINUOUS
 62
     7
100
AcDbLine
 10
1509.6236070668
 20
823.7501448957
 30
0.0
 11
1509.6236070668
 21
839.6524964837
 31
0.0
  0
LINE
  5
4F9
330
1F
100
AcDbEntity
  8
0
  6
CONTINUOUS
 62
     7
100
AcDbLine
 10
1509.6236070668
 20
839.6524964837
 30
0.0
 11
1509.5319723761
 21
839.8737116722
 31
0.0
  0
LINE
  5
4FA
330
1F
100
AcDbEntity
  8
0
  6
CONTINUOUS
 62
     7
100
AcDbLine
 10
1509.6236070668
 20
706.7501424817
 30
0.0
 11
1509.6236070668
 21
722.6524940697
 31
0.0
  0
LINE
  5
4FB
330
1F
100
AcDbEntity
  8
0
  6
CONTINUOUS
 62
     7
100
AcDbLine
 10
1509.6236070668
 20
687.2501476673
 30
0.0
 11
1509.6236070668
 21
703.15249553
 31
0.0
  0
LINE
  5
4FC
330
1F
100
AcDbEntity
  8
0
  6
CONTINUOUS
 62
     7
100
AcDbLine
 10
1509.6236070668
 20
703.15249553
 30
0.0
 11
1509.5319723761
 21
703.3737107185
 31
0.0
  0
LINE
  5
4FD
330
1F
100
AcDbEntity
  8
0
  6
CONTINUOUS
 62
     7
100
AcDbLine
 10
1511.9271328723
 20
778.8489676086
 30
0.0
 11
1517.580886749
 21
773.2013194827
 31
0.0
  0
LINE
  5
4FE
330
1F
100
AcDbEntity
  8
0
  6
CONTINUOUS
 62
     7
100
AcDbLine
 10
1509.6236070668
 20
781.1524934141
 30
0.0
 11
1511.9271328723
 21
778.8489676086
 31
0.0
  0
LINE
  5
4FF
330
1F
100
AcDbEntity
  8
0
  6
CONTINUOUS
 62
     7
100
AcDbLine
 10
1509.6236070668
 20
663.5799958376
 30
0.0
 11
1509.6236070668
 21
665.6524940399
 31
0.0
  0
LINE
  5
500
330
1F
100
AcDbEntity
  8
0
  6
CONTINUOUS
 62
     7
100
AcDbLine
 10
1511.9271328723
 20
798.3489680109
 30
0.0
 11
1517.580886749
 21
792.701319885
 31
0.0
  0
LINE
  5
501
330
1F
100
AcDbEntity
  8
0
  6
CONTINUOUS
 62
     7
100
AcDbLine
 10
1509.6236070668
 20
800.6524938164
 30
0.0
 11
1511.9271328723
 21
798.3489680109
 31
0.0
  0
LINE
  5
502
330
1F
100
AcDbEntity
  8
0
  6
CONTINUOUS
 62
     7
100
AcDbLine
 10
1509.6236070668
 20
843.2501434354
 30
0.0
 11
1509.6236070668
 21
859.1524912981
 31
0.0
  0
LINE
  5
503
330
1F
100
AcDbEntity
  8
0
  6
CONTINUOUS
 62
     7
100
AcDbLine
 10
1511.9271328723
 20
700.8489697246
 30
0.0
 11
1517.580886749
 21
695.2013178734
 31
0.0
  0
LINE
  5
504
330
1F
100
AcDbEntity
  8
0
  6
CONTINUOUS
 62
     7
100
AcDbLine
 10
1509.6236070668
 20
703.15249553
 30
0.0
 11
1511.9271328723
 21
700.8489697246
 31
0.0
  0
LINE
  5
505
330
1F
100
AcDbEntity
  8
0
  6
CONTINUOUS
 62
     7
100
AcDbLine
 10
1511.9271328723
 20
759.3489672063
 30
0.0
 11
1517.580886749
 21
753.7013190804
 31
0.0
  0
LINE
  5
506
330
1F
100
AcDbEntity
  8
0
  6
CONTINUOUS
 62
     7
100
AcDbLine
 10
1509.6236070668
 20
761.6524930117
 30
0.0
 11
1511.9271328723
 21
759.3489672063
 31
0.0
  0
LINE
  5
507
330
1F
100
AcDbEntity
  8
0
  6
CONTINUOUS
 62
     7
100
AcDbLine
 10
1509.6236070668
 20
880.7501449255
 30
0.0
 11
1509.6236070668
 21
882.8226431278
 31
0.0
  0
LINE
  5
508
330
1F
100
AcDbEntity
  8
0
  6
CONTINUOUS
 62
     7
100
AcDbLine
 10
1511.9271328723
 20
837.3489706782
 30
0.0
 11
1517.580886749
 21
831.701318827
 31
0.0
  0
LINE
  5
509
330
1F
100
AcDbEntity
  8
0
  6
CONTINUOUS
 62
     7
100
AcDbLine
 10
1509.6236070668
 20
839.6524964837
 30
0.0
 11
1511.9271328723
 21
837.3489706782
 31
0.0
  0
LINE
  5
50A
330
1F
100
AcDbEntity
  8
0
  6
CONTINUOUS
 62
     7
100
AcDbLine
 10
1517.580886749
 20
870.7013159064
 30
0.0
 11
1511.9271328723
 21
865.0536715058
 31
0.0
  0
LINE
  5
50B
330
1F
100
AcDbEntity
  8
0
  6
CONTINUOUS
 62
     7
100
AcDbLine
 10
1509.6236070668
 20
862.7501457004
 30
0.0
 11
1511.9271328723
 21
865.0536715058
 31
0.0
  0
LINE
  5
50C
330
1F
100
AcDbEntity
  8
0
  6
CONTINUOUS
 62
     7
100
AcDbLine
 10
1509.6236070668
 20
667.7501454023
 30
0.0
 11
1509.6236070668
 21
683.652493265
 31
0.0
  0
LINE
  5
50D
330
1F
100
AcDbEntity
  8
0
  6
CONTINUOUS
 62
     7
100
AcDbLine
 10
1518.537019757
 20
791.5730449376
 30
0.0
 11
1518.6236029541
 21
791.7820802895
 31
0.0
  0
LINE
  5
50E
330
1F
100
AcDbEntity
  8
0
  6
CONTINUOUS
 62
     7
100
AcDbLine
 10
1518.537019757
 20
791.5730449376
 30
0.0
 11
1511.9271328723
 21
784.9560194654
 31
0.0
  0
LINE
  5
50F
330
1F
100
AcDbEntity
  8
0
  6
CONTINUOUS
 62
     7
100
AcDbLine
 10
1511.9271328723
 20
784.9560194654
 30
0.0
 11
1509.9224349534
 21
782.9513196839
 31
0.0
  0
LINE
  5
510
330
1F
100
AcDbEntity
  8
0
  6
CONTINUOUS
 62
     7
100
AcDbLine
 10
1509.9224349534
 20
782.9513196839
 30
0.0
 11
1509.7928470051
 21
782.9513196839
 31
0.0
  0
LINE
  5
511
330
1F
100
AcDbEntity
  8
0
  6
CONTINUOUS
 62
     7
100
AcDbLine
 10
1518.537019757
 20
869.5730446843
 30
0.0
 11
1518.6236029541
 21
869.7820781735
 31
0.0
  0
LINE
  5
512
330
1F
100
AcDbEntity
  8
0
  6
CONTINUOUS
 62
     7
100
AcDbLine
 10
1518.537019757
 20
869.5730446843
 30
0.0
 11
1511.9271328723
 21
862.9560201434
 31
0.0
  0
LINE
  5
513
330
1F
100
AcDbEntity
  8
0
  6
CONTINUOUS
 62
     7
100
AcDbLine
 10
1511.9271328723
 20
862.9560201434
 30
0.0
 11
1509.9224349534
 21
860.9513222245
 31
0.0
  0
LINE
  5
514
330
1F
100
AcDbEntity
  8
0
  6
CONTINUOUS
 62
     7
100
AcDbLine
 10
1509.9224349534
 20
860.9513222245
 30
0.0
 11
1509.7928470051
 21
860.9513222245
 31
0.0
  0
LINE
  5
515
330
1F
100
AcDbEntity
  8
0
  6
CONTINUOUS
 62
     7
100
AcDbLine
 10
1518.537019757
 20
811.07304534
 30
0.0
 11
1518.6236029541
 21
811.2820788292
 31
0.0
  0
LINE
  5
516
330
1F
100
AcDbEntity
  8
0
  6
CONTINUOUS
 62
     7
100
AcDbLine
 10
1518.537019757
 20
811.07304534
 30
0.0
 11
1511.9271328723
 21
804.4560207991
 31
0.0
  0
LINE
  5
517
330
1F
100
AcDbEntity
  8
0
  6
CONTINUOUS
 62
     7
100
AcDbLine
 10
1511.9271328723
 20
804.4560207991
 30
0.0
 11
1509.9224349534
 21
802.4513191549
 31
0.0
  0
LINE
  5
518
330
1F
100
AcDbEntity
  8
0
  6
CONTINUOUS
 62
     7
100
AcDbLine
 10
1509.9224349534
 20
802.4513191549
 30
0.0
 11
1509.7928470051
 21
802.4513191549
 31
0.0
  0
LINE
  5
519
330
1F
100
AcDbEntity
  8
0
  6
CONTINUOUS
 62
     7
100
AcDbLine
 10
1518.537019757
 20
830.5730438796
 30
0.0
 11
1518.6236029541
 21
830.7820810942
 31
0.0
  0
LINE
  5
51A
330
1F
100
AcDbEntity
  8
0
  6
CONTINUOUS
 62
     7
100
AcDbLine
 10
1518.537019757
 20
830.5730438796
 30
0.0
 11
1511.9271328723
 21
823.9560193387
 31
0.0
  0
LINE
  5
51B
330
1F
100
AcDbEntity
  8
0
  6
CONTINUOUS
 62
     7
100
AcDbLine
 10
1511.9271328723
 20
823.9560193387
 30
0.0
 11
1509.9224349534
 21
821.9513176946
 31
0.0
  0
LINE
  5
51C
330
1F
100
AcDbEntity
  8
0
  6
CONTINUOUS
 62
     7
100
AcDbLine
 10
1509.9224349534
 20
821.9513176946
 30
0.0
 11
1509.7928470051
 21
821.9513176946
 31
0.0
  0
LINE
  5
51D
330
1F
100
AcDbEntity
  8
0
  6
CONTINUOUS
 62
     7
100
AcDbLine
 10
1518.537019757
 20
752.573044133
 30
0.0
 11
1518.6236029541
 21
752.7820813475
 31
0.0
  0
LINE
  5
51E
330
1F
100
AcDbEntity
  8
0
  6
CONTINUOUS
 62
     7
100
AcDbLine
 10
1518.537019757
 20
752.573044133
 30
0.0
 11
1511.9271328723
 21
745.9560195921
 31
0.0
  0
LINE
  5
51F
330
1F
100
AcDbEntity
  8
0
  6
CONTINUOUS
 62
     7
100
AcDbLine
 10
1509.9224349534
 20
743.9513198105
 30
0.0
 11
1511.9271328723
 21
745.9560195921
 31
0.0
  0
LINE
  5
520
330
1F
100
AcDbEntity
  8
0
  6
CONTINUOUS
 62
     7
100
AcDbLine
 10
1509.9224349534
 20
743.9513198105
 30
0.0
 11
1509.7928470051
 21
743.9513198105
 31
0.0
  0
LINE
  5
521
330
1F
100
AcDbEntity
  8
0
  6
CONTINUOUS
 62
     7
100
AcDbLine
 10
1509.9224349534
 20
743.9513198105
 30
0.0
 11
1511.9271328723
 21
741.9466181663
 31
0.0
  0
LINE
  5
522
330
1F
100
AcDbEntity
  8
0
  6
CONTINUOUS
 62
     7
100
AcDbLine
 10
1511.9271328723
 20
741.9466181663
 30
0.0
 11
1518.537019757
 21
735.3295936254
 31
0.0
  0
LINE
  5
523
330
1F
100
AcDbEntity
  8
0
  6
CONTINUOUS
 62
     7
100
AcDbLine
 10
1518.6236029541
 20
735.1205601362
 30
0.0
 11
1518.537019757
 21
735.3295936254
 31
0.0
  0
LINE
  5
524
330
1F
100
AcDbEntity
  8
0
  6
CONTINUOUS
 62
     7
100
AcDbLine
 10
1509.7928470051
 20
763.4513192815
 30
0.0
 11
1509.9224349534
 21
763.4513192815
 31
0.0
  0
LINE
  5
525
330
1F
100
AcDbEntity
  8
0
  6
CONTINUOUS
 62
     7
100
AcDbLine
 10
1509.9224349534
 20
763.4513192815
 30
0.0
 11
1511.9271328723
 21
761.4466195
 31
0.0
  0
LINE
  5
526
330
1F
100
AcDbEntity
  8
0
  6
CONTINUOUS
 62
     7
100
AcDbLine
 10
1511.9271328723
 20
761.4466195
 30
0.0
 11
1518.537019757
 21
754.8295940278
 31
0.0
  0
LINE
  5
527
330
1F
100
AcDbEntity
  8
0
  6
CONTINUOUS
 62
     7
100
AcDbLine
 10
1518.6236029541
 20
754.6205586759
 30
0.0
 11
1518.537019757
 21
754.8295940278
 31
0.0
  0
LINE
  5
528
330
1F
100
AcDbEntity
  8
0
  6
CONTINUOUS
 62
     7
100
AcDbLine
 10
1509.9224349534
 20
841.4513199595
 30
0.0
 11
1511.9271328723
 21
839.4466220406
 31
0.0
  0
LINE
  5
529
330
1F
100
AcDbEntity
  8
0
  6
CONTINUOUS
 62
     7
100
AcDbLine
 10
1511.9271328723
 20
839.4466220406
 30
0.0
 11
1518.537019757
 21
832.8295937745
 31
0.0
  0
LINE
  5
52A
330
1F
100
AcDbEntity
  8
0
  6
CONTINUOUS
 62
     7
100
AcDbLine
 10
1518.6236029541
 20
832.6205565599
 30
0.0
 11
1518.537019757
 21
832.8295937745
 31
0.0
  0
LINE
  5
52B
330
1F
100
AcDbEntity
  8
0
  6
CONTINUOUS
 62
     7
100
AcDbLine
 10
1509.9224349534
 20
841.4513199595
 30
0.0
 11
1509.7928470051
 21
841.4513199595
 31
0.0
  0
LINE
  5
52C
330
1F
100
AcDbEntity
  8
0
  6
CONTINUOUS
 62
     7
100
AcDbLine
 10
1511.9271328723
 20
780.9466199023
 30
0.0
 11
1518.537019757
 21
774.3295940809
 31
0.0
  0
LINE
  5
52D
330
1F
100
AcDbEntity
  8
0
  6
CONTINUOUS
 62
     7
100
AcDbLine
 10
1518.6236029541
 20
774.1205583215
 30
0.0
 11
1518.537019757
 21
774.3295940809
 31
0.0
  0
LINE
  5
52E
330
1F
100
AcDbEntity
  8
0
  6
CONTINUOUS
 62
     7
100
AcDbLine
 10
1509.9224349534
 20
782.9513196839
 30
0.0
 11
1511.9271328723
 21
780.9466199023
 31
0.0
  0
LINE
  5
52F
330
1F
100
AcDbEntity
  8
0
  6
CONTINUOUS
 62
     7
100
AcDbLine
 10
1509.9224349534
 20
685.4513167409
 30
0.0
 11
1509.7928470051
 21
685.4513167409
 31
0.0
  0
LINE
  5
530
330
1F
100
AcDbEntity
  8
0
  6
CONTINUOUS
 62
     7
100
AcDbLine
 10
1509.9224349534
 20
685.4513167409
 30
0.0
 11
1511.9271328723
 21
683.446618822
 31
0.0
  0
LINE
  5
531
330
1F
100
AcDbEntity
  8
0
  6
CONTINUOUS
 62
     7
100
AcDbLine
 10
1511.9271328723
 20
683.446618822
 30
0.0
 11
1518.537019757
 21
676.8295942811
 31
0.0
  0
LINE
  5
532
330
1F
100
AcDbEntity
  8
0
  6
CONTINUOUS
 62
     7
100
AcDbLine
 10
1518.6236029541
 20
676.6205607919
 30
0.0
 11
1518.537019757
 21
676.8295942811
 31
0.0
  0
LINE
  5
533
330
1F
100
AcDbEntity
  8
0
  6
CONTINUOUS
 62
     7
100
AcDbLine
 10
1509.9224349534
 20
724.4513212708
 30
0.0
 11
1509.7928470051
 21
724.4513212708
 31
0.0
  0
LINE
  5
534
330
1F
100
AcDbEntity
  8
0
  6
CONTINUOUS
 62
     7
100
AcDbLine
 10
1509.9224349534
 20
724.4513212708
 30
0.0
 11
1511.9271328723
 21
722.4466196267
 31
0.0
  0
LINE
  5
535
330
1F
100
AcDbEntity
  8
0
  6
CONTINUOUS
 62
     7
100
AcDbLine
 10
1511.9271328723
 20
722.4466196267
 30
0.0
 11
1518.537019757
 21
715.8295950858
 31
0.0
  0
LINE
  5
536
330
1F
100
AcDbEntity
  8
0
  6
CONTINUOUS
 62
     7
100
AcDbLine
 10
1518.6236029541
 20
715.6205578712
 30
0.0
 11
1518.537019757
 21
715.8295950858
 31
0.0
  0
LINE
  5
537
330
1F
100
AcDbEntity
  8
0
  6
CONTINUOUS
 62
     7
100
AcDbLine
 10
1518.537019757
 20
850.0730424193
 30
0.0
 11
1518.6236029541
 21
850.2820833591
 31
0.0
  0
LINE
  5
538
330
1F
100
AcDbEntity
  8
0
  6
CONTINUOUS
 62
     7
100
AcDbLine
 10
1518.537019757
 20
850.0730424193
 30
0.0
 11
1511.9271328723
 21
843.4560178784
 31
0.0
  0
LINE
  5
539
330
1F
100
AcDbEntity
  8
0
  6
CONTINUOUS
 62
     7
100
AcDbLine
 10
1511.9271328723
 20
843.4560178784
 30
0.0
 11
1509.9224349534
 21
841.4513199595
 31
0.0
  0
LINE
  5
53A
330
1F
100
AcDbEntity
  8
0
  6
CONTINUOUS
 62
     7
100
AcDbLine
 10
1509.9224349534
 20
821.9513176946
 30
0.0
 11
1511.9271328723
 21
819.9466197757
 31
0.0
  0
LINE
  5
53B
330
1F
100
AcDbEntity
  8
0
  6
CONTINUOUS
 62
     7
100
AcDbLine
 10
1511.9271328723
 20
819.9466197757
 30
0.0
 11
1518.537019757
 21
813.3295952348
 31
0.0
  0
LINE
  5
53C
330
1F
100
AcDbEntity
  8
0
  6
CONTINUOUS
 62
     7
100
AcDbLine
 10
1518.6236029541
 20
813.1205580202
 30
0.0
 11
1518.537019757
 21
813.3295952348
 31
0.0
  0
LINE
  5
53D
330
1F
100
AcDbEntity
  8
0
  6
CONTINUOUS
 62
     7
100
AcDbLine
 10
1518.537019757
 20
733.0730437306
 30
0.0
 11
1518.6236029541
 21
733.2820809452
 31
0.0
  0
LINE
  5
53E
330
1F
100
AcDbEntity
  8
0
  6
CONTINUOUS
 62
     7
100
AcDbLine
 10
1518.537019757
 20
733.0730437306
 30
0.0
 11
1511.9271328723
 21
726.4560191897
 31
0.0
  0
LINE
  5
53F
330
1F
100
AcDbEntity
  8
0
  6
CONTINUOUS
 62
     7
100
AcDbLine
 10
1509.9224349534
 20
724.4513212708
 30
0.0
 11
1511.9271328723
 21
726.4560191897
 31
0.0
  0
LINE
  5
540
330
1F
100
AcDbEntity
  8
0
  6
CONTINUOUS
 62
     7
100
AcDbLine
 10
1509.9224349534
 20
860.9513222245
 30
0.0
 11
1511.9271328723
 21
858.946616855
 31
0.0
  0
LINE
  5
541
330
1F
100
AcDbEntity
  8
0
  6
CONTINUOUS
 62
     7
100
AcDbLine
 10
1511.9271328723
 20
858.946616855
 30
0.0
 11
1518.537019757
 21
852.3295923141
 31
0.0
  0
LINE
  5
542
330
1F
100
AcDbEntity
  8
0
  6
CONTINUOUS
 62
     7
100
AcDbLine
 10
1518.6236029541
 20
852.1205588249
 30
0.0
 11
1518.537019757
 21
852.3295923141
 31
0.0
  0
LINE
  5
543
330
1F
100
AcDbEntity
  8
0
  6
CONTINUOUS
 62
     7
100
AcDbLine
 10
1518.537019757
 20
694.0730466513
 30
0.0
 11
1518.6236029541
 21
694.2820801405
 31
0.0
  0
LINE
  5
544
330
1F
100
AcDbEntity
  8
0
  6
CONTINUOUS
 62
     7
100
AcDbLine
 10
1518.537019757
 20
694.0730466513
 30
0.0
 11
1511.9271328723
 21
687.4560221104
 31
0.0
  0
LINE
  5
545
330
1F
100
AcDbEntity
  8
0
  6
CONTINUOUS
 62
     7
100
AcDbLine
 10
1509.9224349534
 20
685.4513167409
 30
0.0
 11
1511.9271328723
 21
687.4560221104
 31
0.0
  0
LINE
  5
546
330
1F
100
AcDbEntity
  8
0
  6
CONTINUOUS
 62
     7
100
AcDbLine
 10
1518.537019757
 20
713.5730451909
 30
0.0
 11
1518.6236029541
 21
713.7820824055
 31
0.0
  0
LINE
  5
547
330
1F
100
AcDbEntity
  8
0
  6
CONTINUOUS
 62
     7
100
AcDbLine
 10
1518.537019757
 20
713.5730451909
 30
0.0
 11
1511.9271328723
 21
706.9560169248
 31
0.0
  0
LINE
  5
548
330
1F
100
AcDbEntity
  8
0
  6
CONTINUOUS
 62
     7
100
AcDbLine
 10
1509.9224349534
 20
704.9513190059
 30
0.0
 11
1511.9271328723
 21
706.9560169248
 31
0.0
  0
LINE
  5
549
330
1F
100
AcDbEntity
  8
0
  6
CONTINUOUS
 62
     7
100
AcDbLine
 10
1509.9224349534
 20
704.9513190059
 30
0.0
 11
1509.7928470051
 21
704.9513190059
 31
0.0
  0
LINE
  5
54A
330
1F
100
AcDbEntity
  8
0
  6
CONTINUOUS
 62
     7
100
AcDbLine
 10
1509.9224349534
 20
704.9513190059
 30
0.0
 11
1511.9271328723
 21
702.946621087
 31
0.0
  0
LINE
  5
54B
330
1F
100
AcDbEntity
  8
0
  6
CONTINUOUS
 62
     7
100
AcDbLine
 10
1511.9271328723
 20
702.946621087
 30
0.0
 11
1518.537019757
 21
696.3295965461
 31
0.0
  0
LINE
  5
54C
330
1F
100
AcDbEntity
  8
0
  6
CONTINUOUS
 62
     7
100
AcDbLine
 10
1518.6236029541
 20
696.1205556063
 30
0.0
 11
1518.537019757
 21
696.3295965461
 31
0.0
  0
LINE
  5
54D
330
1F
100
AcDbEntity
  8
0
  6
CONTINUOUS
 62
     7
100
AcDbLine
 10
1511.9271328723
 20
800.4466193733
 30
0.0
 11
1518.537019757
 21
793.8295948324
 31
0.0
  0
LINE
  5
54E
330
1F
100
AcDbEntity
  8
0
  6
CONTINUOUS
 62
     7
100
AcDbLine
 10
1518.6236029541
 20
793.6205576179
 30
0.0
 11
1518.537019757
 21
793.8295948324
 31
0.0
  0
LINE
  5
54F
330
1F
100
AcDbEntity
  8
0
  6
CONTINUOUS
 62
     7
100
AcDbLine
 10
1509.9224349534
 20
802.4513191549
 30
0.0
 11
1511.9271328723
 21
800.4466193733
 31
0.0
  0
LINE
  5
550
330
1F
100
AcDbEntity
  8
0
  6
CONTINUOUS
 62
     7
100
AcDbLine
 10
1518.537019757
 20
772.0730448845
 30
0.0
 11
1518.6236029541
 21
772.2820806439
 31
0.0
  0
LINE
  5
551
330
1F
100
AcDbEntity
  8
0
  6
CONTINUOUS
 62
     7
100
AcDbLine
 10
1518.537019757
 20
772.0730448845
 30
0.0
 11
1511.9271328723
 21
765.4560190631
 31
0.0
  0
LINE
  5
552
330
1F
100
AcDbEntity
  8
0
  6
CONTINUOUS
 62
     7
100
AcDbLine
 10
1511.9271328723
 20
765.4560190631
 30
0.0
 11
1509.9224349534
 21
763.4513192815
 31
0.0
  0
LINE
  5
553
330
1F
100
AcDbEntity
  8
0
  6
CONTINUOUS
 62
     7
100
AcDbLine
 10
1510.8253112113
 20
906.5987198619
 30
0.0
 11
1511.9363268887
 21
905.4889111785
 31
0.0
  0
SPLINE
  5
554
330
1F
100
AcDbEntity
  8
0
  6
CONTINUOUS
 62
     7
100
AcDbSpline
210
0.0
220
0.0
230
1.0
 70
     8
 71
     3
 72
     8
 73
     4
 74
     0
 42
0.00000001
 43
0.00000001
 12
1.0
 22
0.0
 32
0.0
 13
1.0
 23
0.0
 33
0.0
 40
0.0
 40
0.0
 40
0.0
 40
0.0
 40
1.0
 40
1.0
 40
1.0
 40
1.0
 10
1511.936324189177
 20
905.4889109683736
 30
0.0
 10
1516.428052240498
 20
900.9973898812539
 30
0.0
 10
1520.919676809718
 20
896.5057653120334
 30
0.0
 10
1525.411197896838
 20
892.0140372607123
 30
0.0
  0
LINE
  5
555
330
1F
100
AcDbEntity
  8
0
  6
CONTINUOUS
 62
     7
100
AcDbLine
 10
1525.4112010872
 20
892.01403698
 30
0.0
 11
1525.9945144927
 21
891.4300902752
 31
0.0
  0
LINE
  5
556
330
1F
100
AcDbEntity
  8
0
  6
CONTINUOUS
 62
     7
100
AcDbLine
 10
1525.9945144927
 20
891.4300902752
 30
0.0
 11
1525.9373163855
 21
891.3728921679
 31
0.0
  0
ARC
  5
557
330
1F
100
AcDbEntity
  8
0
  6
CONTINUOUS
 62
     7
100
AcDbCircle
 10
1514.6265920315
 20
666.3434551064
 30
0.0
 40
3.91042893120084
100
AcDbArc
 50
314.9690672951
 51
0.0
  0
LINE
  5
558
330
1F
100
AcDbEntity
  8
0
  6
CONTINUOUS
 62
     7
100
AcDbLine
 10
1518.537019757
 20
666.3434534339
 30
0.0
 11
1518.6236029541
 21
666.3434534339
 31
0.0
  0
LINE
  5
559
330
1F
100
AcDbEntity
  8
0
  6
CONTINUOUS
 62
     7
100
AcDbLine
 10
1518.537019757
 20
880.0591855315
 30
0.0
 11
1518.6236029541
 21
880.0591855315
 31
0.0
  0
ARC
  5
55A
330
1F
100
AcDbEntity
  8
0
  6
CONTINUOUS
 62
     7
100
AcDbCircle
 10
1514.6265920315
 20
880.059183859
 30
0.0
 40
3.91042893120084
100
AcDbArc
 50
0.0
 51
45.0309327049
  0
LINE
  5
55B
330
1F
100
AcDbEntity
  8
0
  6
CONTINUOUS
 62
     7
100
AcDbLine
 10
1518.537019757
 20
674.5730443863
 30
0.0
 11
1518.537019757
 21
666.3434534339
 31
0.0
  0
LINE
  5
55C
330
1F
100
AcDbEntity
  8
0
  6
CONTINUOUS
 62
     7
100
AcDbLine
 10
1518.537019757
 20
830.5730438796
 30
0.0
 11
1518.537019757
 21
813.3295952348
 31
0.0
  0
LINE
  5
55D
330
1F
100
AcDbEntity
  8
0
  6
CONTINUOUS
 62
     7
100
AcDbLine
 10
1518.537019757
 20
694.0730466513
 30
0.0
 11
1518.537019757
 21
676.8295942811
 31
0.0
  0
LINE
  5
55E
330
1F
100
AcDbEntity
  8
0
  6
CONTINUOUS
 62
     7
100
AcDbLine
 10
1518.537019757
 20
713.5730451909
 30
0.0
 11
1518.537019757
 21
696.3295965461
 31
0.0
  0
LINE
  5
55F
330
1F
100
AcDbEntity
  8
0
  6
CONTINUOUS
 62
     7
100
AcDbLine
 10
1518.537019757
 20
733.0730437306
 30
0.0
 11
1518.537019757
 21
715.8295950858
 31
0.0
  0
LINE
  5
560
330
1F
100
AcDbEntity
  8
0
  6
CONTINUOUS
 62
     7
100
AcDbLine
 10
1518.537019757
 20
791.5730449376
 30
0.0
 11
1518.537019757
 21
774.3295940809
 31
0.0
  0
LINE
  5
561
330
1F
100
AcDbEntity
  8
0
  6
CONTINUOUS
 62
     7
100
AcDbLine
 10
1518.537019757
 20
772.0730448845
 30
0.0
 11
1518.537019757
 21
754.8295940278
 31
0.0
  0
LINE
  5
562
330
1F
100
AcDbEntity
  8
0
  6
CONTINUOUS
 62
     7
100
AcDbLine
 10
1518.537019757
 20
850.0730424193
 30
0.0
 11
1518.537019757
 21
832.8295937745
 31
0.0
  0
LINE
  5
563
330
1F
100
AcDbEntity
  8
0
  6
CONTINUOUS
 62
     7
100
AcDbLine
 10
1518.537019757
 20
880.0591855315
 30
0.0
 11
1518.537019757
 21
871.8295945791
 31
0.0
  0
LINE
  5
564
330
1F
100
AcDbEntity
  8
0
  6
CONTINUOUS
 62
     7
100
AcDbLine
 10
1518.537019757
 20
869.5730446843
 30
0.0
 11
1518.537019757
 21
852.3295923141
 31
0.0
  0
LINE
  5
565
330
1F
100
AcDbEntity
  8
0
  6
CONTINUOUS
 62
     7
100
AcDbLine
 10
1518.537019757
 20
752.573044133
 30
0.0
 11
1518.537019757
 21
735.3295936254
 31
0.0
  0
LINE
  5
566
330
1F
100
AcDbEntity
  8
0
  6
CONTINUOUS
 62
     7
100
AcDbLine
 10
1518.537019757
 20
811.07304534
 30
0.0
 11
1518.537019757
 21
793.8295948324
 31
0.0
  0
LINE
  5
567
330
1F
100
AcDbEntity
  8
0
  6
CONTINUOUS
 62
     7
100
AcDbLine
 10
1530.7009046947
 20
666.3434534339
 30
0.0
 11
1530.623604921
 21
666.3434534339
 31
0.0
  0
ARC
  5
568
330
1F
100
AcDbEntity
  8
0
  6
CONTINUOUS
 62
     7
100
AcDbCircle
 10
1514.6113219826
 20
666.3434551064
 30
0.0
 40
16.0895827275117
100
AcDbArc
 50
315.0309327049
 51
0.0
  0
LINE
  5
569
330
1F
100
AcDbEntity
  8
0
  6
CONTINUOUS
 62
     7
100
AcDbLine
 10
1530.7009046947
 20
880.0591855315
 30
0.0
 11
1530.623604921
 21
880.0591855315
 31
0.0
  0
ARC
  5
56A
330
1F
100
AcDbEntity
  8
0
  6
CONTINUOUS
 62
     7
100
AcDbCircle
 10
1514.6113219826
 20
880.059183859
 30
0.0
 40
16.08958272751192
100
AcDbArc
 50
0.0
 51
44.9690672951
  0
LINE
  5
56B
330
1F
100
AcDbEntity
  8
0
  6
CONTINUOUS
 62
     7
100
AcDbLine
 10
1530.7009046947
 20
864.201317635
 30
0.0
 11
1530.7009046947
 21
812.2013202874
 31
0.0
  0
LINE
  5
56C
330
1F
100
AcDbEntity
  8
0
  6
CONTINUOUS
 62
     7
100
AcDbLine
 10
1530.7009046947
 20
880.0591855315
 30
0.0
 11
1530.7009046947
 21
867.201316264
 31
0.0
  0
LINE
  5
56D
330
1F
100
AcDbEntity
  8
0
  6
CONTINUOUS
 62
     7
100
AcDbLine
 10
1530.7009046947
 20
734.201318678
 30
0.0
 11
1530.7009046947
 21
682.2013213304
 31
0.0
  0
LINE
  5
56E
330
1F
100
AcDbEntity
  8
0
  6
CONTINUOUS
 62
     7
100
AcDbLine
 10
1530.7009046947
 20
679.2013227014
 30
0.0
 11
1530.7009046947
 21
666.3434534339
 31
0.0
  0
LINE
  5
56F
330
1F
100
AcDbEntity
  8
0
  6
CONTINUOUS
 62
     7
100
AcDbLine
 10
1530.7009046947
 20
809.201317933
 30
0.0
 11
1530.7009046947
 21
737.2013210324
 31
0.0
  0
LINE
  5
570
330
1F
100
AcDbEntity
  8
0
  6
CONTINUOUS
 62
     7
100
AcDbLine
 10
1536.0621040737
 20
864.201317635
 30
0.0
 11
1536.0621040737
 21
812.2013202874
 31
0.0
  0
LINE
  5
571
330
1F
100
AcDbEntity
  8
0
  6
CONTINUOUS
 62
     7
100
AcDbLine
 10
1536.0621040737
 20
734.201318678
 30
0.0
 11
1536.0621040737
 21
682.2013213304
 31
0.0
  0
LWPOLYLINE
  5
572
330
1F
100
AcDbEntity
  8
0
  6
CONTINUOUS
 62
     7
100
AcDbPolyline
 90
        3
 70
   128
 43
0.0
 10
1360.8360117351
 20
892.01403698
 10
1354.0496205961
 20
892.0182316569
 10
1350.1851087486
 20
892.0206158427
  0
LWPOLYLINE
  5
573
330
1F
100
AcDbEntity
  8
0
  6
CONTINUOUS
 62
     7
100
AcDbPolyline
 90
        3
 70
   128
 43
0.0
 10
1374.3108859336
 20
905.4889111785
 10
1374.3065422451
 20
912.5208436517
 10
1374.3043070709
 20
916.139814165
  0
LWPOLYLINE
  5
574
330
1F
100
AcDbEntity
  8
0
  6
CONTINUOUS
 62
     7
100
AcDbPolyline
 90
        3
 70
   128
 43
0.0
 10
1360.8360117351
 20
654.3886019854
 10
1354.0496205961
 20
654.3844073085
 10
1350.1851087486
 20
654.3820231227
  0
LWPOLYLINE
  5
575
330
1F
100
AcDbEntity
  8
0
  6
CONTINUOUS
 62
     7
100
AcDbPolyline
 90
        3
 70
   128
 43
0.0
 10
1374.3108859336
 20
640.9137277869
 10
1374.3065422451
 20
633.8817804126
 10
1374.3043070709
 20
630.2628248004
  0
LWPOLYLINE
  5
576
330
1F
100
AcDbEntity
  8
0
  6
CONTINUOUS
 62
     7
100
AcDbPolyline
 90
        3
 70
   128
 43
0.0
 10
1525.4112010872
 20
654.3886019854
 10
1532.1975922262
 20
654.3844073085
 10
1536.0621040737
 20
654.3820231227
  0
LWPOLYLINE
  5
577
330
1F
100
AcDbEntity
  8
0
  6
CONTINUOUS
 62
     7
100
AcDbPolyline
 90
        3
 70
   128
 43
0.0
 10
1511.9363268887
 20
640.9137277869
 10
1511.9406705772
 20
633.8817953137
 10
1511.9429057514
 20
630.2628248004
  0
LWPOLYLINE
  5
578
330
1F
100
AcDbEntity
  8
0
  6
CONTINUOUS
 62
     7
100
AcDbPolyline
 90
        3
 70
   128
 43
0.0
 10
1525.4112010872
 20
892.01403698
 10
1532.1975922262
 20
892.0182316569
 10
1536.0621040737
 20
892.0206158427
  0
LWPOLYLINE
  5
579
330
1F
100
AcDbEntity
  8
0
  6
CONTINUOUS
 62
     7
100
AcDbPolyline
 90
        3
 70
   128
 43
0.0
 10
1511.9363268887
 20
905.4889111785
 10
1511.9408195888
 20
912.7662508754
 10
1511.9429057514
 20
916.139814165
  0
LINE
  5
57A
330
1F
100
AcDbEntity
  8
0
  6
CONTINUOUS
 62
     7
100
AcDbLine
 10
1378.0420025861
 20
654.3977960018
 30
0.0
 11
1385.8058130419
 21
654.3977960018
 31
0.0
  0
LINE
  5
57B
330
1F
100
AcDbEntity
  8
0
  6
CONTINUOUS
 62
     7
100
AcDbLine
 10
1378.0420025861
 20
892.0048429636
 30
0.0
 11
1385.8058130419
 21
892.0048429636
 31
0.0
  0
LINE
  5
57C
330
1F
100
AcDbEntity
  8
0
  6
CONTINUOUS
 62
     7
100
AcDbLine
 10
1500.4413997805
 20
892.0048429636
 30
0.0
 11
1508.2052102363
 21
892.0048429636
 31
0.0
  0
LINE
  5
57D
330
1F
100
AcDbEntity
  8
0
  6
CONTINUOUS
 62
     7
100
AcDbLine
 10
1500.4413997805
 20
654.3977960018
 30
0.0
 11
1508.2052102363
 21
654.3977960018
 31
0.0
  0
LINE
  5
57E
330
1F
100
AcDbEntity
  8
0
  6
CONTINUOUS
 62
     7
100
AcDbLine
 10
1374.32007995
 20
741.9466181663
 30
0.0
 11
1374.32007995
 21
745.9560195921
 31
0.0
  0
LINE
  5
57F
330
1F
100
AcDbEntity
  8
0
  6
CONTINUOUS
 62
     7
100
AcDbLine
 10
1374.32007995
 20
702.946621087
 30
0.0
 11
1374.32007995
 21
706.9560169248
 31
0.0
  0
LINE
  5
580
330
1F
100
AcDbEntity
  8
0
  6
CONTINUOUS
 62
     7
100
AcDbLine
 10
1374.32007995
 20
839.4466220406
 30
0.0
 11
1374.32007995
 21
843.4560178784
 31
0.0
  0
LINE
  5
581
330
1F
100
AcDbEntity
  8
0
  6
CONTINUOUS
 62
     7
100
AcDbLine
 10
1374.32007995
 20
858.946616855
 30
0.0
 11
1374.32007995
 21
862.9560201434
 31
0.0
  0
LINE
  5
582
330
1F
100
AcDbEntity
  8
0
  6
CONTINUOUS
 62
     7
100
AcDbLine
 10
1374.32007995
 20
819.9466197757
 30
0.0
 11
1374.32007995
 21
823.9560193387
 31
0.0
  0
LINE
  5
583
330
1F
100
AcDbEntity
  8
0
  6
CONTINUOUS
 62
     7
100
AcDbLine
 10
1374.32007995
 20
683.446618822
 30
0.0
 11
1374.32007995
 21
687.4560221104
 31
0.0
  0
LINE
  5
584
330
1F
100
AcDbEntity
  8
0
  6
CONTINUOUS
 62
     7
100
AcDbLine
 10
1374.32007995
 20
761.4466195
 30
0.0
 11
1374.32007995
 21
765.4560190631
 31
0.0
  0
LINE
  5
585
330
1F
100
AcDbEntity
  8
0
  6
CONTINUOUS
 62
     7
100
AcDbLine
 10
1374.32007995
 20
878.44661912
 30
0.0
 11
1374.32007995
 21
888.2829277781
 31
0.0
  0
LINE
  5
586
330
1F
100
AcDbEntity
  8
0
  6
CONTINUOUS
 62
     7
100
AcDbLine
 10
1374.32007995
 20
658.1197111873
 30
0.0
 11
1374.32007995
 21
667.9560198454
 31
0.0
  0
LINE
  5
587
330
1F
100
AcDbEntity
  8
0
  6
CONTINUOUS
 62
     7
100
AcDbLine
 10
1374.32007995
 20
780.9466199023
 30
0.0
 11
1374.32007995
 21
784.9560194654
 31
0.0
  0
LINE
  5
588
330
1F
100
AcDbEntity
  8
0
  6
CONTINUOUS
 62
     7
100
AcDbLine
 10
1374.32007995
 20
722.4466196267
 30
0.0
 11
1374.32007995
 21
726.4560191897
 31
0.0
  0
LINE
  5
589
330
1F
100
AcDbEntity
  8
0
  6
CONTINUOUS
 62
     7
100
AcDbLine
 10
1374.32007995
 20
800.4466193733
 30
0.0
 11
1374.32007995
 21
804.4560207991
 31
0.0
  0
LINE
  5
58A
330
1F
100
AcDbEntity
  8
0
  6
CONTINUOUS
 62
     7
100
AcDbLine
 10
1511.9271328723
 20
839.4466220406
 30
0.0
 11
1511.9271328723
 21
843.4560178784
 31
0.0
  0
LINE
  5
58B
330
1F
100
AcDbEntity
  8
0
  6
CONTINUOUS
 62
     7
100
AcDbLine
 10
1511.9271328723
 20
819.9466197757
 30
0.0
 11
1511.9271328723
 21
823.9560193387
 31
0.0
  0
LINE
  5
58C
330
1F
100
AcDbEntity
  8
0
  6
CONTINUOUS
 62
     7
100
AcDbLine
 10
1511.9271328723
 20
741.9466181663
 30
0.0
 11
1511.9271328723
 21
745.9560195921
 31
0.0
  0
LINE
  5
58D
330
1F
100
AcDbEntity
  8
0
  6
CONTINUOUS
 62
     7
100
AcDbLine
 10
1511.9271328723
 20
858.946616855
 30
0.0
 11
1511.9271328723
 21
862.9560201434
 31
0.0
  0
LINE
  5
58E
330
1F
100
AcDbEntity
  8
0
  6
CONTINUOUS
 62
     7
100
AcDbLine
 10
1511.9271328723
 20
702.946621087
 30
0.0
 11
1511.9271328723
 21
706.9560169248
 31
0.0
  0
LINE
  5
58F
330
1F
100
AcDbEntity
  8
0
  6
CONTINUOUS
 62
     7
100
AcDbLine
 10
1511.9271328723
 20
761.4466195
 30
0.0
 11
1511.9271328723
 21
765.4560190631
 31
0.0
  0
LINE
  5
590
330
1F
100
AcDbEntity
  8
0
  6
CONTINUOUS
 62
     7
100
AcDbLine
 10
1511.9271328723
 20
800.4466193733
 30
0.0
 11
1511.9271328723
 21
804.4560207991
 31
0.0
  0
LINE
  5
591
330
1F
100
AcDbEntity
  8
0
  6
CONTINUOUS
 62
     7
100
AcDbLine
 10
1511.9271328723
 20
683.446618822
 30
0.0
 11
1511.9271328723
 21
687.4560221104
 31
0.0
  0
LINE
  5
592
330
1F
100
AcDbEntity
  8
0
  6
CONTINUOUS
 62
     7
100
AcDbLine
 10
1511.9271328723
 20
780.9466199023
 30
0.0
 11
1511.9271328723
 21
784.9560194654
 31
0.0
  0
LINE
  5
593
330
1F
100
AcDbEntity
  8
0
  6
CONTINUOUS
 62
     7
100
AcDbLine
 10
1511.9271328723
 20
658.1197111873
 30
0.0
 11
1511.9271328723
 21
667.9560198454
 31
0.0
  0
LINE
  5
594
330
1F
100
AcDbEntity
  8
0
  6
CONTINUOUS
 62
     7
100
AcDbLine
 10
1511.9271328723
 20
722.4466196267
 30
0.0
 11
1511.9271328723
 21
726.4560191897
 31
0.0
  0
LINE
  5
595
330
1F
100
AcDbEntity
  8
0
  6
CONTINUOUS
 62
     7
100
AcDbLine
 10
1511.9271328723
 20
878.44661912
 30
0.0
 11
1511.9271328723
 21
888.2829277781
 31
0.0
  0
LINE
  5
596
330
1F
100
AcDbEntity
  8
0
  6
CONTINUOUS
 62
     7
100
AcDbLine
 10
1374.32007995
 20
865.0536715058
 30
0.0
 11
1374.32007995
 21
876.3489677576
 31
0.0
  0
LINE
  5
597
330
1F
100
AcDbEntity
  8
0
  6
CONTINUOUS
 62
     7
100
AcDbLine
 10
1374.32007995
 20
748.0536709545
 30
0.0
 11
1374.32007995
 21
759.3489672063
 31
0.0
  0
LINE
  5
598
330
1F
100
AcDbEntity
  8
0
  6
CONTINUOUS
 62
     7
100
AcDbLine
 10
1374.32007995
 20
787.0536717591
 30
0.0
 11
1374.32007995
 21
798.3489680109
 31
0.0
  0
LINE
  5
599
330
1F
100
AcDbEntity
  8
0
  6
CONTINUOUS
 62
     7
100
AcDbLine
 10
1374.32007995
 20
826.0536707012
 30
0.0
 11
1374.32007995
 21
837.3489706782
 31
0.0
  0
LINE
  5
59A
330
1F
100
AcDbEntity
  8
0
  6
CONTINUOUS
 62
     7
100
AcDbLine
 10
1374.32007995
 20
689.5536734728
 30
0.0
 11
1374.32007995
 21
700.8489697246
 31
0.0
  0
LINE
  5
59B
330
1F
100
AcDbEntity
  8
0
  6
CONTINUOUS
 62
     7
100
AcDbLine
 10
1374.32007995
 20
845.5536692408
 30
0.0
 11
1374.32007995
 21
856.8489654926
 31
0.0
  0
LINE
  5
59C
330
1F
100
AcDbEntity
  8
0
  6
CONTINUOUS
 62
     7
100
AcDbLine
 10
1374.32007995
 20
709.0536682872
 30
0.0
 11
1374.32007995
 21
720.3489682642
 31
0.0
  0
LINE
  5
59D
330
1F
100
AcDbEntity
  8
0
  6
CONTINUOUS
 62
     7
100
AcDbLine
 10
1374.32007995
 20
806.5536721615
 30
0.0
 11
1374.32007995
 21
817.8489684132
 31
0.0
  0
LINE
  5
59E
330
1F
100
AcDbEntity
  8
0
  6
CONTINUOUS
 62
     7
100
AcDbLine
 10
1374.32007995
 20
767.5536713568
 30
0.0
 11
1374.32007995
 21
778.8489676086
 31
0.0
  0
LINE
  5
59F
330
1F
100
AcDbEntity
  8
0
  6
CONTINUOUS
 62
     7
100
AcDbLine
 10
1374.32007995
 20
728.5536705522
 30
0.0
 11
1374.32007995
 21
739.8489668039
 31
0.0
  0
LINE
  5
5A0
330
1F
100
AcDbEntity
  8
0
  6
CONTINUOUS
 62
     7
100
AcDbLine
 10
1374.32007995
 20
670.0536712078
 30
0.0
 11
1374.32007995
 21
681.3489674596
 31
0.0
  0
LINE
  5
5A1
330
1F
100
AcDbEntity
  8
0
  6
CONTINUOUS
 62
     7
100
AcDbLine
 10
1511.9271328723
 20
865.0536715058
 30
0.0
 11
1511.9271328723
 21
876.3489677576
 31
0.0
  0
LINE
  5
5A2
330
1F
100
AcDbEntity
  8
0
  6
CONTINUOUS
 62
     7
100
AcDbLine
 10
1511.9271328723
 20
748.0536709545
 30
0.0
 11
1511.9271328723
 21
759.3489672063
 31
0.0
  0
LINE
  5
5A3
330
1F
100
AcDbEntity
  8
0
  6
CONTINUOUS
 62
     7
100
AcDbLine
 10
1511.9271328723
 20
689.5536734728
 30
0.0
 11
1511.9271328723
 21
700.8489697246
 31
0.0
  0
LINE
  5
5A4
330
1F
100
AcDbEntity
  8
0
  6
CONTINUOUS
 62
     7
100
AcDbLine
 10
1511.9271328723
 20
709.0536682872
 30
0.0
 11
1511.9271328723
 21
720.3489682642
 31
0.0
  0
LINE
  5
5A5
330
1F
100
AcDbEntity
  8
0
  6
CONTINUOUS
 62
     7
100
AcDbLine
 10
1511.9271328723
 20
767.5536713568
 30
0.0
 11
1511.9271328723
 21
778.8489676086
 31
0.0
  0
LINE
  5
5A6
330
1F
100
AcDbEntity
  8
0
  6
CONTINUOUS
 62
     7
100
AcDbLine
 10
1511.9271328723
 20
826.0536707012
 30
0.0
 11
1511.9271328723
 21
837.3489706782
 31
0.0
  0
LINE
  5
5A7
330
1F
100
AcDbEntity
  8
0
  6
CONTINUOUS
 62
     7
100
AcDbLine
 10
1511.9271328723
 20
845.5536692408
 30
0.0
 11
1511.9271328723
 21
856.8489654926
 31
0.0
  0
LINE
  5
5A8
330
1F
100
AcDbEntity
  8
0
  6
CONTINUOUS
 62
     7
100
AcDbLine
 10
1511.9271328723
 20
728.5536705522
 30
0.0
 11
1511.9271328723
 21
739.8489668039
 31
0.0
  0
LINE
  5
5A9
330
1F
100
AcDbEntity
  8
0
  6
CONTINUOUS
 62
     7
100
AcDbLine
 10
1511.9271328723
 20
806.5536721615
 30
0.0
 11
1511.9271328723
 21
817.8489684132
 31
0.0
  0
LINE
  5
5AA
330
1F
100
AcDbEntity
  8
0
  6
CONTINUOUS
 62
     7
100
AcDbLine
 10
1511.9271328723
 20
787.0536717591
 30
0.0
 11
1511.9271328723
 21
798.3489680109
 31
0.0
  0
LINE
  5
5AB
330
1F
100
AcDbEntity
  8
0
  6
CONTINUOUS
 62
     7
100
AcDbLine
 10
1511.9271328723
 20
670.0536712078
 30
0.0
 11
1511.9271328723
 21
681.3489674596
 31
0.0
  0
LINE
  5
5AC
330
1F
100
AcDbEntity
  8
0
  6
CONTINUOUS
 62
     7
100
AcDbLine
 10
1387.9271311736
 20
892.0048429636
 30
0.0
 11
1498.3200816488
 21
892.0048429636
 31
0.0
  0
LINE
  5
5AD
330
1F
100
AcDbEntity
  8
0
  6
CONTINUOUS
 62
     7
100
AcDbLine
 10
1387.9271311736
 20
654.3977960018
 30
0.0
 11
1498.3200816488
 21
654.3977960018
 31
0.0
  0
ARC
  5
5AE
330
1F
100
AcDbEntity
  8
0
  6
CONTINUOUS
 62
     7
100
AcDbCircle
 10
1394.1236064112
 20
773.2013194827
 30
0.0
 40
11.171452207823
100
AcDbArc
 50
296.8003140005
 51
333.1996859995
  0
LINE
  5
5AF
330
1F
100
AcDbEntity
  8
0
  6
CONTINUOUS
 62
     7
100
AcDbLine
 10
1404.0950587069
 20
778.2383310614
 30
0.0
 11
1404.0950587069
 21
768.164307904
 31
0.0
  0
ARC
  5
5B0
330
1F
100
AcDbEntity
  8
0
  6
CONTINUOUS
 62
     7
100
AcDbCircle
 10
1394.1236064112
 20
773.2013194827
 30
0.0
 40
11.1714522078231
100
AcDbArc
 50
26.8003140005
 51
63.1996859995
  0
LINE
  5
5B1
330
1F
100
AcDbEntity
  8
0
  6
CONTINUOUS
 62
     7
100
AcDbLine
 10
1399.1606174087
 20
783.1727714283
 30
0.0
 11
1389.0865942513
 21
783.1727714283
 31
0.0
  0
ARC
  5
5B2
330
1F
100
AcDbEntity
  8
0
  6
CONTINUOUS
 62
     7
100
AcDbCircle
 10
1394.1236064112
 20
773.2013194827
 30
0.0
 40
11.17145220782315
100
AcDbArc
 50
116.8003140005
 51
153.1996859995
  0
LINE
  5
5B3
330
1F
100
AcDbEntity
  8
0
  6
CONTINUOUS
 62
     7
100
AcDbLine
 10
1384.1521529531
 20
778.2383310614
 30
0.0
 11
1384.1521529531
 21
768.164307904
 31
0.0
  0
ARC
  5
5B4
330
1F
100
AcDbEntity
  8
0
  6
CONTINUOUS
 62
     7
100
AcDbCircle
 10
1394.1236064112
 20
773.2013194827
 30
0.0
 40
11.17145220782315
100
AcDbArc
 50
206.8003140005
 51
243.1996859995
  0
LINE
  5
5B5
330
1F
100
AcDbEntity
  8
0
  6
CONTINUOUS
 62
     7
100
AcDbLine
 10
1399.1606174087
 20
763.2298675371
 30
0.0
 11
1389.0865942513
 21
763.2298675371
 31
0.0
  0
ENDSEC
  0
SECTION
  2
OBJECTS
  0
DICTIONARY
  5
C
330
0
100
AcDbDictionary
  3
ACAD_GROUP
350
D
  3
ACAD_MLINESTYLE
350
17
  0
DICTIONARY
  5
D
102
{ACAD_REACTORS
330
C
102
}
330
C
100
AcDbDictionary
  0
DICTIONARY
  5
17
102
{ACAD_REACTORS
330
C
102
}
330
C
100
AcDbDictionary
  3
STANDARD
350
18
  0
MLINESTYLE
  5
18
102
{ACAD_REACTORS
330
17
102
}
330
17
100
AcDbMlineStyle
  2
Standard
 70
     0
  3

 62
   256
 51
90.0
 52
90.0
 71
     2
 49
0.5
 62
   256
  6
BYLAYER
 49
-0.5
 62
   256
  6
BYLAYER
  0
ENDSEC
  0
EOF
