  0
SECTION
  2
HEADER
  9
$ACADVER
  1
AC1014
  9
$ACADMAINTVER
 70
     9
  9
$DWGCODEPAGE
  3
ANSI_1252
  9
$INSBASE
 10
0.0
 20
0.0
 30
0.0
  9
$EXTMIN
 10
0.0
 20
0.0
 30
0.0
  9
$EXTMAX
 10
2100.0
 20
1485.0
 30
0.0
  9
$LIMMIN
 10
0.0
 20
0.0
  9
$LIMMAX
 10
2100.0
 20
1485.0
  9
$ORTHOMODE
 70
     0
  9
$REGENMODE
 70
     1
  9
$FILLMODE
 70
     1
  9
$QTEXTMODE
 70
     0
  9
$MIRRTEXT
 70
     1
  9
$DRAGMODE
 70
     2
  9
$LTSCALE
 40
5.0
  9
$OSMODE
 70
    37
  9
$ATTMODE
 70
     1
  9
$TEXTSIZE
 40
17.5
  9
$TRACEWID
 40
1.0
  9
$TEXTSTYLE
  7
STANDARD
  9
$CLAYER
  8
0
  9
$CELTYPE
  6
BYLAYER
  9
$CECOLOR
 62
   256
  9
$CELTSCALE
 40
1.0
  9
$DELOBJ
 70
     1
  9
$DISPSILH
 70
     0
  9
$DIMSCALE
 40
1.0
  9
$DIMASZ
 40
30.0
  9
$DIMEXO
 40
5.0
  9
$DIMDLI
 40
3.75
  9
$DIMRND
 40
0.0
  9
$DIMDLE
 40
0.0
  9
$DIMEXE
 40
5.0
  9
$DIMTP
 40
0.0
  9
$DIMTM
 40
0.0
  9
$DIMTXT
 40
17.5
  9
$DIMCEN
 40
2.5
  9
$DIMTSZ
 40
0.0
  9
$DIMTOL
 70
     0
  9
$DIMLIM
 70
     0
  9
$DIMTIH
 70
     1
  9
$DIMTOH
 70
     1
  9
$DIMSE1
 70
     0
  9
$DIMSE2
 70
     0
  9
$DIMTAD
 70
     1
  9
$DIMZIN
 70
     0
  9
$DIMBLK
  1

  9
$DIMASO
 70
     1
  9
$DIMSHO
 70
     1
  9
$DIMPOST
  1

  9
$DIMAPOST
  1

  9
$DIMALT
 70
     0
  9
$DIMALTD
 70
     3
  9
$DIMALTF
 40
0.0393700787
  9
$DIMLFAC
 40
1.0
  9
$DIMTOFL
 70
     1
  9
$DIMTVP
 40
0.0
  9
$DIMTIX
 70
     0
  9
$DIMSOXD
 70
     0
  9
$DIMSAH
 70
     0
  9
$DIMBLK1
  1

  9
$DIMBLK2
  1

  9
$DIMSTYLE
  2
ISO-25
  9
$DIMCLRD
 70
     0
  9
$DIMCLRE
 70
     0
  9
$DIMCLRT
 70
     0
  9
$DIMTFAC
 40
1.0
  9
$DIMGAP
 40
7.62
  9
$DIMJUST
 70
     0
  9
$DIMSD1
 70
     0
  9
$DIMSD2
 70
     0
  9
$DIMTOLJ
 70
     0
  9
$DIMTZIN
 70
     0
  9
$DIMALTZ
 70
     0
  9
$DIMALTTZ
 70
     0
  9
$DIMFIT
 70
     3
  9
$DIMUPT
 70
     0
  9
$DIMUNIT
 70
     2
  9
$DIMDEC
 70
     2
  9
$DIMTDEC
 70
     2
  9
$DIMALTU
 70
     2
  9
$DIMALTTD
 70
     3
  9
$DIMTXSTY
  7
STANDARD
  9
$DIMAUNIT
 70
     0
  9
$LUNITS
 70
     2
  9
$LUPREC
 70
     2
  9
$SKETCHINC
 40
1.0
  9
$FILLETRAD
 40
10.0
  9
$AUNITS
 70
     0
  9
$AUPREC
 70
     2
  9
$MENU
  1
.
  9
$ELEVATION
 40
0.0
  9
$PELEVATION
 40
0.0
  9
$THICKNESS
 40
0.0
  9
$LIMCHECK
 70
     0
  9
$CHAMFERA
 40
10.0
  9
$CHAMFERB
 40
10.0
  9
$CHAMFERC
 40
20.0
  9
$CHAMFERD
 40
0.0
  9
$SKPOLY
 70
     0
  9
$TDCREATE
 40
2456498.54101515
  9
$TDUPDATE
 40
2456498.541016053
  9
$TDINDWG
 40
0.0000000116
  9
$TDUSRTIMER
 40
0.0000000116
  9
$USRTIMER
 70
     1
  9
$ANGBASE
 50
0.0
  9
$ANGDIR
 70
     0
  9
$PDMODE
 70
     0
  9
$PDSIZE
 40
-1.0
  9
$PLINEWID
 40
0.0
  9
$COORDS
 70
     1
  9
$SPLFRAME
 70
     0
  9
$SPLINETYPE
 70
     6
  9
$SPLINESEGS
 70
     8
  9
$ATTDIA
 70
     0
  9
$ATTREQ
 70
     1
  9
$HANDLING
 70
     1
  9
$HANDSEED
  5
5DA
  9
$SURFTAB1
 70
     6
  9
$SURFTAB2
 70
     6
  9
$SURFTYPE
 70
     6
  9
$SURFU
 70
     6
  9
$SURFV
 70
     6
  9
$UCSNAME
  2

  9
$UCSORG
 10
0.0
 20
0.0
 30
0.0
  9
$UCSXDIR
 10
1.0
 20
0.0
 30
0.0
  9
$UCSYDIR
 10
0.0
 20
1.0
 30
0.0
  9
$PUCSNAME
  2

  9
$PUCSORG
 10
0.0
 20
0.0
 30
0.0
  9
$PUCSXDIR
 10
1.0
 20
0.0
 30
0.0
  9
$PUCSYDIR
 10
0.0
 20
1.0
 30
0.0
  9
$USERI1
 70
     0
  9
$USERI2
 70
     0
  9
$USERI3
 70
     0
  9
$USERI4
 70
     0
  9
$USERI5
 70
     0
  9
$USERR1
 40
0.0
  9
$USERR2
 40
0.0
  9
$USERR3
 40
0.0
  9
$USERR4
 40
0.0
  9
$USERR5
 40
0.0
  9
$WORLDVIEW
 70
     1
  9
$SHADEDGE
 70
     3
  9
$SHADEDIF
 70
    70
  9
$TILEMODE
 70
     1
  9
$MAXACTVP
 70
    64
  9
$PINSBASE
 10
0.0
 20
0.0
 30
0.0
  9
$PLIMCHECK
 70
     0
  9
$PEXTMIN
 10
1.0000000000E+20
 20
1.0000000000E+20
 30
1.0000000000E+20
  9
$PEXTMAX
 10
-1.0000000000E+20
 20
-1.0000000000E+20
 30
-1.0000000000E+20
  9
$PLIMMIN
 10
0.0
 20
0.0
  9
$PLIMMAX
 10
420.0
 20
297.0
  9
$UNITMODE
 70
     0
  9
$VISRETAIN
 70
     1
  9
$PLINEGEN
 70
     0
  9
$PSLTSCALE
 70
     1
  9
$TREEDEPTH
 70
  3020
  9
$PICKSTYLE
 70
     1
  9
$CMLSTYLE
  2
STANDARD
  9
$CMLJUST
 70
     0
  9
$CMLSCALE
 40
20.0
  9
$PROXYGRAPHICS
 70
     1
  9
$MEASUREMENT
 70
     1
  0
ENDSEC
  0
SECTION
  2
CLASSES
  0
CLASS
  1
ACDBDICTIONARYWDFLT
  2
AcDbDictionaryWithDefault
  3
ObjectDBX Classes
 90
        0
280
     0
281
     0
  0
CLASS
  1
VISUALSTYLE
  2
AcDbVisualStyle
  3
ObjectDBX Classes
 90
     4095
280
     0
281
     0
  0
CLASS
  1
MATERIAL
  2
AcDbMaterial
  3
ObjectDBX Classes
 90
     1153
280
     0
281
     0
  0
CLASS
  1
XRECORD
  2
AcDbXrecord
  3
AutoCAD 2000
 90
        0
280
     0
281
     0
  0
CLASS
  1
LWPOLYLINE
  2
AcDbPolyline
  3
AutoCAD 2000
 90
        0
280
     0
281
     1
  0
CLASS
  1
HATCH
  2
AcDbHatch
  3
AutoCAD 2000
 90
        0
280
     0
281
     1
  0
ENDSEC
  0
SECTION
  2
TABLES
  0
TABLE
  2
VPORT
  5
8
330
0
100
AcDbSymbolTable
 70
     1
  0
VPORT
  5
29
330
8
100
AcDbSymbolTableRecord
100
AcDbViewportTableRecord
  2
*ACTIVE
 70
     0
 10
0.0
 20
0.0
 11
1.0
 21
1.0
 12
1050.0
 22
742.5
 13
0.0
 23
0.0
 14
10.0
 24
10.0
 15
10.0
 25
10.0
 16
0.0
 26
0.0
 36
1.0
 17
0.0
 27
0.0
 37
0.0
 40
1485.0
 41
1.4141414141
 42
50.0
 43
0.0
 44
0.0
 50
0.0
 51
0.0
 71
     0
 72
  2000
 73
     1
 74
     3
 75
     0
 76
     0
 77
     0
 78
     0
  0
ENDTAB
  0
TABLE
  2
LTYPE
  5
5
330
0
100
AcDbSymbolTable
 70
     6
  0
LTYPE
  5
14
330
5
100
AcDbSymbolTableRecord
100
AcDbLinetypeTableRecord
  2
BYBLOCK
 70
     0
  3

 72
    65
 73
     0
 40
0.0
  0
LTYPE
  5
15
330
5
100
AcDbSymbolTableRecord
100
AcDbLinetypeTableRecord
  2
BYLAYER
 70
     0
  3

 72
    65
 73
     0
 40
0.0
  0
LTYPE
  5
16
330
5
100
AcDbSymbolTableRecord
100
AcDbLinetypeTableRecord
  2
CONTINUOUS
 70
     0
  3
Solid line
 72
    65
 73
     0
 40
0.0
  0
LTYPE
  5
3F
330
5
100
AcDbSymbolTableRecord
100
AcDbLinetypeTableRecord
  2
HIDDEN
 70
     0
  3
Hidden __ __ __ __ __ __ __ __ __ __ __ __ __ __
 72
    65
 73
     2
 40
1.905
 49
1.27
 74
     0
 49
-0.635
 74
     0
  0
LTYPE
  5
40
330
5
100
AcDbSymbolTableRecord
100
AcDbLinetypeTableRecord
  2
PHANTOM
 70
     0
  3
Phantom ______  __  __  ______  __  __  ______
 72
    65
 73
     6
 40
12.7
 49
6.35
 74
     0
 49
-1.27
 74
     0
 49
1.27
 74
     0
 49
-1.27
 74
     0
 49
1.27
 74
     0
 49
-1.27
 74
     0
  0
LTYPE
  5
41
330
5
100
AcDbSymbolTableRecord
100
AcDbLinetypeTableRecord
  2
CENTER
 70
     0
  3
Center ____ _ ____ _ ____ _ ____ _ ____ _ ____
 72
    65
 73
     4
 40
10.16
 49
6.35
 74
     0
 49
-1.27
 74
     0
 49
1.27
 74
     0
 49
-1.27
 74
     0
  0
LTYPE
  5
42
330
5
100
AcDbSymbolTableRecord
100
AcDbLinetypeTableRecord
  2
CENTERX2
 70
     0
  3
Center (2x) ________  __  ________  __  _____
 72
    65
 73
     4
 40
20.32
 49
12.7
 74
     0
 49
-2.54
 74
     0
 49
2.54
 74
     0
 49
-2.54
 74
     0
  0
LTYPE
  5
43
330
5
100
AcDbSymbolTableRecord
100
AcDbLinetypeTableRecord
  2
DOT2
 70
     0
  3
Dot (.5x) ........................................
 72
    65
 73
     2
 40
0.635
 49
0.0
 74
     0
 49
-0.635
 74
     0
  0
ENDTAB
  0
TABLE
  2
LAYER
  5
2
330
0
100
AcDbSymbolTable
 70
     1
  0
LAYER
  5
10
330
2
100
AcDbSymbolTableRecord
100
AcDbLayerTableRecord
  2
0
 70
     0
 62
     7
  6
CONTINUOUS
  0
ENDTAB
  0
TABLE
  2
STYLE
  5
3
330
0
100
AcDbSymbolTable
 70
     1
  0
STYLE
  5
11
330
3
100
AcDbSymbolTableRecord
100
AcDbTextStyleTableRecord
  2
STANDARD
 70
     0
 40
0.0
 41
1.0
 50
0.0
 71
     0
 42
17.5
  3
txt
  4

  0
ENDTAB
  0
TABLE
  2
VIEW
  5
6
330
0
100
AcDbSymbolTable
 70
     0
  0
ENDTAB
  0
TABLE
  2
UCS
  5
7
330
0
100
AcDbSymbolTable
 70
     0
  0
ENDTAB
  0
TABLE
  2
APPID
  5
9
330
0
100
AcDbSymbolTable
 70
     1
  0
APPID
  5
12
330
9
100
AcDbSymbolTableRecord
100
AcDbRegAppTableRecord
  2
ACAD
 70
     0
  0
ENDTAB
  0
TABLE
  2
DIMSTYLE
  5
A
330
0
100
AcDbSymbolTable
 70
     1
  0
DIMSTYLE
105
27
330
A
100
AcDbSymbolTableRecord
100
AcDbDimStyleTableRecord
  2
ISO-25
 70
     0
  3

  4

  5

  6

  7

 40
1.0
 41
2.5
 42
0.625
 43
3.75
 44
1.25
 45
0.0
 46
0.0
 47
0.0
 48
0.0
140
2.5
141
2.5
142
0.0
143
0.0393700787
144
1.0
145
0.0
146
1.0
147
0.625
 71
     0
 72
     0
 73
     0
 74
     0
 75
     0
 76
     0
 77
     1
 78
     8
170
     0
171
     3
172
     1
173
     0
174
     0
175
     0
176
     0
177
     0
178
     0
270
     2
271
     2
272
     2
273
     2
274
     3
340
11
275
     0
280
     0
281
     0
282
     0
283
     0
284
     8
285
     0
286
     0
287
     3
288
     0
  0
ENDTAB
  0
TABLE
  2
BLOCK_RECORD
  5
1
330
0
100
AcDbSymbolTable
 70
     1
  0
BLOCK_RECORD
  5
1F
330
1
100
AcDbSymbolTableRecord
100
AcDbBlockTableRecord
  2
*MODEL_SPACE
  0
BLOCK_RECORD
  5
1B
330
1
100
AcDbSymbolTableRecord
100
AcDbBlockTableRecord
  2
*PAPER_SPACE
  0
BLOCK_RECORD
  5
23
330
1
100
AcDbSymbolTableRecord
100
AcDbBlockTableRecord
  2
*PAPER_SPACE0
  0
ENDTAB
  0
ENDSEC
  0
SECTION
  2
BLOCKS
  0
BLOCK
  5
20
330
1F
100
AcDbEntity
  8
0
100
AcDbBlockBegin
  2
*MODEL_SPACE
 70
     0
 10
0.0
 20
0.0
 30
0.0
  3
*MODEL_SPACE
  1

  0
ENDBLK
  5
21
330
1F
100
AcDbEntity
  8
0
100
AcDbBlockEnd
  0
BLOCK
  5
1C
330
1B
100
AcDbEntity
 67
     1
  8
0
100
AcDbBlockBegin
  2
*PAPER_SPACE
 70
     0
 10
0.0
 20
0.0
 30
0.0
  3
*PAPER_SPACE
  1

  0
ENDBLK
  5
1D
330
1B
100
AcDbEntity
 67
     1
  8
0
100
AcDbBlockEnd
  0
BLOCK
  5
24
330
23
100
AcDbEntity
  8
0
100
AcDbBlockBegin
  2
*PAPER_SPACE0
 70
     0
 10
0.0
 20
0.0
 30
0.0
  3
*PAPER_SPACE0
  1

  0
ENDBLK
  5
25
330
23
100
AcDbEntity
  8
0
100
AcDbBlockEnd
  0
ENDSEC
  0
SECTION
  2
ENTITIES
  0
LINE
  5
44
330
1F
100
AcDbEntity
  8
0
  6
CONTINUOUS
 62
     7
100
AcDbLine
 10
979.8515818044
 20
1031.8799224043
 30
0.0
 11
977.8591922446
 21
1031.8799224043
 31
0.0
  0
LINE
  5
45
330
1F
100
AcDbEntity
  8
0
  6
CONTINUOUS
 62
     7
100
AcDbLine
 10
977.8591922446
 20
1031.8799224043
 30
0.0
 11
975.7759503051
 21
1055.6913838082
 31
0.0
  0
ARC
  5
46
330
1F
100
AcDbEntity
  8
0
  6
CONTINUOUS
 62
     7
100
AcDbCircle
 10
976.772145085
 20
1049.9257745198
 30
0.0
 40
5.851038754499799
100
AcDbArc
 50
80.1970942474
 51
99.8029057526
  0
LINE
  5
47
330
1F
100
AcDbEntity
  8
0
  6
CONTINUOUS
 62
     7
100
AcDbLine
 10
977.7683398648
 20
1055.6913838082
 30
0.0
 11
979.8515818044
 21
1031.8799224043
 31
0.0
  0
LINE
  5
48
330
1F
100
AcDbEntity
  8
0
  6
CONTINUOUS
 62
     7
100
AcDbLine
 10
681.8515739366
 20
1031.8799224043
 30
0.0
 11
683.9348158761
 21
1055.6913838082
 31
0.0
  0
ARC
  5
49
330
1F
100
AcDbEntity
  8
0
  6
CONTINUOUS
 62
     7
100
AcDbCircle
 10
684.931010656
 20
1049.9257745198
 30
0.0
 40
5.851038754498883
100
AcDbArc
 50
80.1970942474
 51
99.8029057526
  0
LINE
  5
4A
330
1F
100
AcDbEntity
  8
0
  6
CONTINUOUS
 62
     7
100
AcDbLine
 10
685.9272054358
 20
1055.6913838082
 30
0.0
 11
683.8439634963
 21
1031.8799224043
 31
0.0
  0
LINE
  5
4B
330
1F
100
AcDbEntity
  8
0
  6
CONTINUOUS
 62
     7
100
AcDbLine
 10
683.8439634963
 20
1031.8799224043
 30
0.0
 11
681.8515739366
 21
1031.8799224043
 31
0.0
  0
LWPOLYLINE
  5
4C
330
1F
100
AcDbEntity
  8
0
  6
CONTINUOUS
 62
     7
100
AcDbPolyline
 90
        5
 70
   128
 43
0.0
 10
975.7759503051
 20
1055.6913838082
 10
968.2678512259
 20
1056.2983751589
 10
960.7597521468
 20
1056.9055788511
 10
953.2516754194
 20
1057.5129948848
 10
949.7717029377
 20
1057.7946044796
  0
LWPOLYLINE
  5
4D
330
1F
100
AcDbEntity
  8
0
  6
CONTINUOUS
 62
     7
100
AcDbPolyline
 90
        5
 70
   128
 43
0.0
 10
711.9314528032
 20
1057.7946044796
 10
708.4514803215
 20
1057.5129948848
 10
700.9434035941
 20
1056.9055788511
 10
693.435304515
 20
1056.2983751589
 10
685.9272054358
 20
1055.6913838082
  0
LINE
  5
4E
330
1F
100
AcDbEntity
  8
0
  6
CONTINUOUS
 62
     7
100
AcDbLine
 10
949.7717029377
 20
1057.7946044796
 30
0.0
 11
711.9314528032
 21
1057.7946044796
 31
0.0
  0
LINE
  5
4F
330
1F
100
AcDbEntity
  8
0
  6
CONTINUOUS
 62
     7
100
AcDbLine
 10
683.8439634963
 20
1031.8799224043
 30
0.0
 11
977.8591922446
 21
1031.8799224043
 31
0.0
  0
ARC
  5
50
330
1F
100
AcDbEntity
  8
0
  6
CONTINUOUS
 62
     7
100
AcDbCircle
 10
1051.4104085315
 20
1049.9505162669
 30
0.0
 40
75.85201929629555
100
AcDbArc
 50
174.2846721861
 51
175.6594125628
  0
ARC
  5
51
330
1F
100
AcDbEntity
  8
0
  6
CONTINUOUS
 62
     7
100
AcDbCircle
 10
975.7807770759
 20
1055.5149356097
 30
0.0
 40
1.99537961471032
100
AcDbArc
 50
5.0731997223
 51
85.5541598048
  0
LINE
  5
52
330
1F
100
AcDbEntity
  8
0
  6
CONTINUOUS
 62
     7
100
AcDbLine
 10
949.8515806123
 20
1059.6127789759
 30
0.0
 11
949.8515806123
 21
1059.6126821184
 31
0.0
  0
LWPOLYLINE
  5
53
330
1F
100
AcDbEntity
  8
0
  6
CONTINUOUS
 62
     7
100
AcDbPolyline
 90
        4
 70
   128
 43
0.0
 10
949.8515806123
 20
1059.6127789759
 10
953.8384756967
 20
1059.2903420621
 10
961.8122807666
 20
1058.6456377351
 10
975.9354523345
 20
1057.5043112331
  0
SPLINE
  5
54
330
1F
100
AcDbEntity
  8
0
  6
CONTINUOUS
 62
     7
100
AcDbSpline
210
0.0
220
0.0
230
1.0
 70
     8
 71
     3
 72
    16
 73
    12
 74
     0
 42
0.00000001
 43
0.00000001
 12
1.0
 22
0.0
 32
0.0
 13
1.0
 23
0.0
 33
0.0
 40
0.0
 40
0.0
 40
0.0
 40
0.0
 40
0.250000000000001
 40
0.250000000000001
 40
0.500000000000002
 40
0.500000000000002
 40
0.750000000000003
 40
0.750000000000003
 40
0.8750000000000014
 40
0.8750000000000014
 40
1.0
 40
1.0
 40
1.0
 40
1.0
 10
949.8515739158458
 20
1059.612681575117
 30
0.0
 10
949.8499178340289
 20
1059.592184600578
 30
0.0
 10
949.8466844722291
 20
1059.531812595753
 30
0.0
 10
949.8371614757259
 20
1059.333290109944
 30
0.0
 10
949.8310671621091
 20
1059.199159231233
 30
0.0
 10
949.8165098465206
 20
1058.86776370972
 30
0.0
 10
949.8082737407633
 20
1058.675628770397
 30
0.0
 10
949.7949182431192
 20
1058.357960113416
 30
0.0
 10
949.7903837737412
 20
1058.249163808387
 30
0.0
 10
949.7811547852625
 20
1058.025941431175
 30
0.0
 10
949.7763983635149
 20
1057.909992472484
 30
0.0
 10
949.7717012001252
 20
1057.794603664428
 30
0.0
  0
ARC
  5
55
330
1F
100
AcDbEntity
  8
0
  6
CONTINUOUS
 62
     7
100
AcDbCircle
 10
610.2927472098
 20
1049.9505162669
 30
0.0
 40
75.85201929591676
100
AcDbArc
 50
4.3405874372
 51
5.7153278139
  0
ARC
  5
56
330
1F
100
AcDbEntity
  8
0
  6
CONTINUOUS
 62
     7
100
AcDbCircle
 10
685.9223786651
 20
1055.5149356097
 30
0.0
 40
1.995379614710094
100
AcDbArc
 50
94.4458401952
 51
174.9268002777
  0
LWPOLYLINE
  5
57
330
1F
100
AcDbEntity
  8
0
  6
CONTINUOUS
 62
     7
100
AcDbPolyline
 90
        4
 70
   128
 43
0.0
 10
685.7677034064
 20
1057.5043112331
 10
689.7546282931
 20
1057.8264314973
 10
697.7284631654
 20
1058.4708415264
 10
711.8515751287
 20
1059.6127789759
  0
LINE
  5
58
330
1F
100
AcDbEntity
  8
0
  6
CONTINUOUS
 62
     7
100
AcDbLine
 10
711.8515751287
 20
1059.6127789759
 30
0.0
 11
711.8515751287
 21
1059.6126821184
 31
0.0
  0
SPLINE
  5
59
330
1F
100
AcDbEntity
  8
0
  6
CONTINUOUS
 62
     7
100
AcDbSpline
210
0.0
220
0.0
230
1.0
 70
     8
 71
     3
 72
    16
 73
    12
 74
     0
 42
0.00000001
 43
0.00000001
 12
1.0
 22
0.0
 32
0.0
 13
1.0
 23
0.0
 33
0.0
 40
0.0
 40
0.0
 40
0.0
 40
0.0
 40
0.2500000000000008
 40
0.2500000000000008
 40
0.5000000000000017
 40
0.5000000000000017
 40
0.7500000000000024
 40
0.7500000000000024
 40
0.8750000000000012
 40
0.8750000000000012
 40
1.0
 40
1.0
 40
1.0
 40
1.0
 10
711.8515818250844
 20
1059.612681575117
 30
0.0
 10
711.8532379069013
 20
1059.592184600578
 30
0.0
 10
711.8564712687012
 20
1059.531812595753
 30
0.0
 10
711.8659942652043
 20
1059.333290109944
 30
0.0
 10
711.872088578821
 20
1059.199159231232
 30
0.0
 10
711.8866458944095
 20
1058.86776370972
 30
0.0
 10
711.8948820001668
 20
1058.675628770397
 30
0.0
 10
711.9082374978109
 20
1058.357960113416
 30
0.0
 10
711.9127719671895
 20
1058.249163808387
 30
0.0
 10
711.9220009556688
 20
1058.025941431175
 30
0.0
 10
711.9267573774504
 20
1057.909992472485
 30
0.0
 10
711.9314545408048
 20
1057.794603664428
 30
0.0
  0
LINE
  5
5A
330
1F
100
AcDbEntity
  8
0
  6
CONTINUOUS
 62
     7
100
AcDbLine
 10
711.8515751287
 20
1059.6126821184
 30
0.0
 11
949.8515806123
 21
1059.6126821184
 31
0.0
  0
LWPOLYLINE
  5
5B
330
1F
100
AcDbEntity
  8
0
  6
CONTINUOUS
 62
     7
100
AcDbPolyline
 90
        4
 70
   128
 43
0.0
 10
975.9354523345
 20
1057.5043112331
 10
975.9094349071
 20
1057.8264314973
 10
975.857385151
 20
1058.4708415264
 10
975.7651469632
 20
1059.6127789759
  0
LINE
  5
5C
330
1F
100
AcDbEntity
  8
0
  6
CONTINUOUS
 62
     7
100
AcDbLine
 10
975.7651469632
 20
1059.6127789759
 30
0.0
 11
975.7662645503
 21
1059.6126821184
 31
0.0
  0
SPLINE
  5
5D
330
1F
100
AcDbEntity
  8
0
  6
CONTINUOUS
 62
     7
100
AcDbSpline
210
0.0
220
0.0
230
1.0
 70
     8
 71
     3
 72
    16
 73
    12
 74
     0
 42
0.00000001
 43
0.00000001
 12
1.0
 22
0.0
 32
0.0
 13
1.0
 23
0.0
 33
0.0
 40
0.0
 40
0.0
 40
0.0
 40
0.0
 40
0.250000000000001
 40
0.250000000000001
 40
0.500000000000002
 40
0.500000000000002
 40
0.750000000000003
 40
0.750000000000003
 40
0.8750000000000014
 40
0.8750000000000014
 40
1.0
 40
1.0
 40
1.0
 40
1.0
 10
975.7662591306251
 20
1059.612681575117
 30
0.0
 10
976.0005406216499
 20
1059.592184600578
 30
0.0
 10
976.2253156492571
 20
1059.531812595753
 30
0.0
 10
976.6505804525384
 20
1059.333290109945
 30
0.0
 10
976.8417513824953
 20
1059.199159231234
 30
0.0
 10
977.1726580331024
 20
1058.867763709722
 30
0.0
 10
977.3068296761622
 20
1058.675628770401
 30
0.0
 10
977.4546029927029
 20
1058.35796011342
 30
0.0
 10
977.4940177041768
 20
1058.249163808391
 30
0.0
 10
977.5537831937968
 20
1058.025941431177
 30
0.0
 10
977.5742418287105
 20
1057.909992472487
 30
0.0
 10
977.5843370413132
 20
1057.79460366443
 30
0.0
  0
LWPOLYLINE
  5
5E
330
1F
100
AcDbEntity
  8
0
  6
CONTINUOUS
 62
     7
100
AcDbPolyline
 90
        5
 70
   128
 43
0.0
 10
977.5843403264
 20
1057.7946044796
 10
977.6089719459
 20
1057.5129948848
 10
977.6621094867
 20
1056.9055788511
 10
977.7152470275
 20
1056.2983751589
 10
977.7683398648
 20
1055.6913838082
  0
LINE
  5
5F
330
1F
100
AcDbEntity
  8
0
  6
CONTINUOUS
 62
     7
100
AcDbLine
 10
949.8515806123
 20
1061.8646722579
 30
0.0
 11
949.8515806123
 21
1059.6127789759
 31
0.0
  0
SPLINE
  5
60
330
1F
100
AcDbEntity
  8
0
  6
CONTINUOUS
 62
     7
100
AcDbSpline
210
0.0
220
0.0
230
1.0
 70
     8
 71
     3
 72
    10
 73
     6
 74
     0
 42
0.00000001
 43
0.00000001
 12
1.0
 22
0.0
 32
0.0
 13
1.0
 23
0.0
 33
0.0
 40
0.0
 40
0.0
 40
0.0
 40
0.0
 40
0.5
 40
0.5
 40
1.0
 40
1.0
 40
1.0
 40
1.0
 10
950.0258893559604
 20
1061.864672125365
 30
0.0
 10
949.978667182501
 20
1061.86880353021
 30
0.0
 10
949.9285505619048
 20
1061.872287699155
 30
0.0
 10
949.8619093502382
 20
1061.872291266667
 30
0.0
 10
949.851577870465
 20
1061.868803350275
 30
0.0
 10
949.851577870465
 20
1061.864672125365
 30
0.0
  0
LINE
  5
61
330
1F
100
AcDbEntity
  8
0
  6
CONTINUOUS
 62
     7
100
AcDbLine
 10
950.0258869453
 20
1061.8646722579
 30
0.0
 11
975.7651469632
 21
1059.6127789759
 31
0.0
  0
LINE
  5
62
330
1F
100
AcDbEntity
  8
0
  6
CONTINUOUS
 62
     7
100
AcDbLine
 10
685.9368911906
 20
1059.6126821184
 30
0.0
 11
685.9380087777
 21
1059.6127789759
 31
0.0
  0
LWPOLYLINE
  5
63
330
1F
100
AcDbEntity
  8
0
  6
CONTINUOUS
 62
     7
100
AcDbPolyline
 90
        4
 70
   128
 43
0.0
 10
685.9380087777
 20
1059.6127789759
 10
685.9119615479
 20
1059.2903420621
 10
685.8598819896
 20
1058.6456377351
 10
685.7677034064
 20
1057.5043112331
  0
SPLINE
  5
64
330
1F
100
AcDbEntity
  8
0
  6
CONTINUOUS
 62
     7
100
AcDbSpline
210
0.0
220
0.0
230
1.0
 70
     8
 71
     3
 72
    16
 73
    12
 74
     0
 42
0.00000001
 43
0.00000001
 12
1.0
 22
0.0
 32
0.0
 13
1.0
 23
0.0
 33
0.0
 40
0.0
 40
0.0
 40
0.0
 40
0.0
 40
0.2500000000000031
 40
0.2500000000000031
 40
0.5000000000000062
 40
0.5000000000000062
 40
0.7500000000000093
 40
0.7500000000000093
 40
0.8750000000000047
 40
0.8750000000000047
 40
1.0
 40
1.0
 40
1.0
 40
1.0
 10
685.936896610305
 20
1059.612681575117
 30
0.0
 10
685.7026151192799
 20
1059.592184600578
 30
0.0
 10
685.4778400916722
 20
1059.531812595753
 30
0.0
 10
685.0525752883906
 20
1059.333290109944
 30
0.0
 10
684.8614043584333
 20
1059.199159231233
 30
0.0
 10
684.5304977078262
 20
1058.867763709721
 30
0.0
 10
684.3963260647662
 20
1058.675628770399
 30
0.0
 10
684.2485527482262
 20
1058.357960113417
 30
0.0
 10
684.2091380367525
 20
1058.249163808388
 30
0.0
 10
684.1493725471333
 20
1058.025941431177
 30
0.0
 10
684.1289139122196
 20
1057.909992472486
 30
0.0
 10
684.1188186996169
 20
1057.79460366443
 30
0.0
  0
LWPOLYLINE
  5
65
330
1F
100
AcDbEntity
  8
0
  6
CONTINUOUS
 62
     7
100
AcDbPolyline
 90
        5
 70
   128
 43
0.0
 10
683.9348158761
 20
1055.6913838082
 10
683.9879087134
 20
1056.2983751589
 10
684.0410462543
 20
1056.9055788511
 10
684.0941837951
 20
1057.5129948848
 10
684.1188154145
 20
1057.7946044796
  0
LINE
  5
66
330
1F
100
AcDbEntity
  8
0
  6
CONTINUOUS
 62
     7
100
AcDbLine
 10
711.6772687956
 20
1061.8646722579
 30
0.0
 11
685.9380087777
 21
1059.6127789759
 31
0.0
  0
SPLINE
  5
67
330
1F
100
AcDbEntity
  8
0
  6
CONTINUOUS
 62
     7
100
AcDbSpline
210
0.0
220
0.0
230
1.0
 70
     8
 71
     3
 72
    10
 73
     6
 74
     0
 42
0.00000001
 43
0.00000001
 12
1.0
 22
0.0
 32
0.0
 13
1.0
 23
0.0
 33
0.0
 40
0.0
 40
0.0
 40
0.0
 40
0.0
 40
0.5
 40
0.5
 40
1.0
 40
1.0
 40
1.0
 40
1.0
 10
711.8515778704651
 20
1061.864672125365
 30
0.0
 10
711.8515778704651
 20
1061.86880353021
 30
0.0
 10
711.8412794598106
 20
1061.872287699155
 30
0.0
 10
711.7746790193477
 20
1061.872291266667
 30
0.0
 10
711.7244865017657
 20
1061.868803350275
 30
0.0
 10
711.6772663849699
 20
1061.864672125365
 30
0.0
  0
LINE
  5
68
330
1F
100
AcDbEntity
  8
0
  6
CONTINUOUS
 62
     7
100
AcDbLine
 10
711.8515751287
 20
1061.8646722579
 30
0.0
 11
711.8515751287
 21
1059.6127789759
 31
0.0
  0
LINE
  5
69
330
1F
100
AcDbEntity
  8
0
  6
CONTINUOUS
 62
     7
100
AcDbLine
 10
949.8515806123
 20
1061.8646722579
 30
0.0
 11
949.7642523571
 21
1061.8723109656
 31
0.0
  0
LINE
  5
6A
330
1F
100
AcDbEntity
  8
0
  6
CONTINUOUS
 62
     7
100
AcDbLine
 10
711.9389033838
 20
1061.8723109656
 30
0.0
 11
711.8515751287
 21
1061.8646722579
 31
0.0
  0
LINE
  5
6B
330
1F
100
AcDbEntity
  8
0
  6
CONTINUOUS
 62
     7
100
AcDbLine
 10
949.7642523571
 20
1061.8723109656
 30
0.0
 11
711.9389033838
 21
1061.8723109656
 31
0.0
  0
LINE
  5
6C
330
1F
100
AcDbEntity
  8
0
  6
CONTINUOUS
 62
     7
100
AcDbLine
 10
711.6772687956
 20
1061.8646722579
 30
0.0
 11
711.7645896002
 21
1061.8723109656
 31
0.0
  0
ARC
  5
6D
330
1F
100
AcDbEntity
  8
0
  6
CONTINUOUS
 62
     7
100
AcDbCircle
 10
711.851746492
 20
1060.873354613
 30
0.0
 40
1.002751274400024
100
AcDbArc
 50
85.0136875089
 51
94.9863124911
  0
ARC
  5
6E
330
1F
100
AcDbEntity
  8
0
  6
CONTINUOUS
 62
     7
100
AcDbCircle
 10
949.8514092489
 20
1060.873354613
 30
0.0
 40
1.002751274399108
100
AcDbArc
 50
85.0136875089
 51
94.9863124911
  0
LINE
  5
6F
330
1F
100
AcDbEntity
  8
0
  6
CONTINUOUS
 62
     7
100
AcDbLine
 10
949.9385661407
 20
1061.8723109656
 30
0.0
 11
950.0258869453
 21
1061.8646722579
 31
0.0
  0
LINE
  5
70
330
1F
100
AcDbEntity
  8
0
  6
CONTINUOUS
 62
     7
100
AcDbLine
 10
711.9389033838
 20
1061.8723109656
 30
0.0
 11
711.9389033838
 21
1061.8799217337
 31
0.0
  0
LINE
  5
71
330
1F
100
AcDbEntity
  8
0
  6
CONTINUOUS
 62
     7
100
AcDbLine
 10
711.9389033838
 20
1061.8799217337
 30
0.0
 11
949.7642523571
 21
1061.8799217337
 31
0.0
  0
LINE
  5
72
330
1F
100
AcDbEntity
  8
0
  6
CONTINUOUS
 62
     7
100
AcDbLine
 10
949.7642523571
 20
1061.8723109656
 30
0.0
 11
949.7642523571
 21
1061.8799217337
 31
0.0
  0
ARC
  5
73
330
1F
100
AcDbEntity
  8
0
  6
CONTINUOUS
 62
     7
100
AcDbCircle
 10
711.9388997563
 20
1059.8799224043
 30
0.0
 40
1.999999999999897
100
AcDbArc
 50
90.0
 51
95.0
  0
ARC
  5
74
330
1F
100
AcDbEntity
  8
0
  6
CONTINUOUS
 62
     7
100
AcDbCircle
 10
949.7642559846
 20
1059.8799224043
 30
0.0
 40
1.999999999999897
100
AcDbArc
 50
85.0
 51
90.0
  0
LWPOLYLINE
  5
75
330
1F
100
AcDbEntity
  8
0
  6
CONTINUOUS
 62
     7
100
AcDbPolyline
 90
        4
 70
   128
 43
0.0
 10
711.8515751287
 20
933.0262452971
 10
707.8646800443
 20
933.0522925269
 10
699.8908749743
 20
933.1043720852
 10
685.7677034064
 20
933.196558119
  0
LINE
  5
76
330
1F
100
AcDbEntity
  8
0
  6
CONTINUOUS
 62
     7
100
AcDbLine
 10
711.8515751287
 20
907.2869927298
 30
0.0
 11
711.8515751287
 21
933.0262452971
 31
0.0
  0
SPLINE
  5
77
330
1F
100
AcDbEntity
  8
0
  6
CONTINUOUS
 62
     7
100
AcDbSpline
210
0.0
220
0.0
230
1.0
 70
     8
 71
     3
 72
    10
 73
     6
 74
     0
 42
0.00000001
 43
0.00000001
 12
1.0
 22
0.0
 32
0.0
 13
1.0
 23
0.0
 33
0.0
 40
0.0
 40
0.0
 40
0.0
 40
0.0
 40
0.5
 40
0.5
 40
1.0
 40
1.0
 40
1.0
 40
1.0
 10
711.6772663849698
 20
907.1126806746937
 30
0.0
 10
711.7244885584292
 20
907.1126806746937
 30
0.0
 10
711.7746051790253
 20
907.1229790853484
 30
0.0
 10
711.8412463906918
 20
907.1895795258113
 30
0.0
 10
711.8515778704651
 20
907.2397720433934
 30
0.0
 10
711.8515778704651
 20
907.2869921601892
 30
0.0
  0
LINE
  5
78
330
1F
100
AcDbEntity
  8
0
  6
CONTINUOUS
 62
     7
100
AcDbLine
 10
711.6772687956
 20
907.1126789462
 30
0.0
 11
685.9380087777
 21
907.1126789462
 31
0.0
  0
LWPOLYLINE
  5
79
330
1F
100
AcDbEntity
  8
0
  6
CONTINUOUS
 62
     7
100
AcDbPolyline
 90
        4
 70
   128
 43
0.0
 10
685.7677034064
 20
933.196558119
 10
685.7937208339
 20
929.2096332323
 10
685.8457705899
 20
921.23579836
 10
685.9380087777
 20
907.1126789462
  0
LINE
  5
7A
330
1F
100
AcDbEntity
  8
0
  6
CONTINUOUS
 62
     7
100
AcDbLine
 10
950.0258869453
 20
907.1126789462
 30
0.0
 11
975.7651469632
 21
907.1126789462
 31
0.0
  0
SPLINE
  5
7B
330
1F
100
AcDbEntity
  8
0
  6
CONTINUOUS
 62
     7
100
AcDbSpline
210
0.0
220
0.0
230
1.0
 70
     8
 71
     3
 72
    10
 73
     6
 74
     0
 42
0.00000001
 43
0.00000001
 12
1.0
 22
0.0
 32
0.0
 13
1.0
 23
0.0
 33
0.0
 40
0.0
 40
0.0
 40
0.0
 40
0.0
 40
0.5
 40
0.5
 40
1.0
 40
1.0
 40
1.0
 40
1.0
 10
949.851577870465
 20
907.286992160189
 30
0.0
 10
949.851577870465
 20
907.2397699867296
 30
0.0
 10
949.8618762811195
 20
907.1896533661336
 30
0.0
 10
949.9284767215825
 20
907.123012154467
 30
0.0
 10
949.9786692391646
 20
907.1126806746937
 30
0.0
 10
950.0258893559603
 20
907.1126806746937
 30
0.0
  0
LINE
  5
7C
330
1F
100
AcDbEntity
  8
0
  6
CONTINUOUS
 62
     7
100
AcDbLine
 10
949.8515806123
 20
907.2869927298
 30
0.0
 11
949.8515806123
 21
933.0262452971
 31
0.0
  0
LWPOLYLINE
  5
7D
330
1F
100
AcDbEntity
  8
0
  6
CONTINUOUS
 62
     7
100
AcDbPolyline
 90
        4
 70
   128
 43
0.0
 10
975.9354523345
 20
933.196558119
 10
971.9485274478
 20
933.1705406915
 10
963.9746925756
 20
933.1184909355
 10
949.8515806123
 20
933.0262452971
  0
LWPOLYLINE
  5
7E
330
1F
100
AcDbEntity
  8
0
  6
CONTINUOUS
 62
     7
100
AcDbPolyline
 90
        4
 70
   128
 43
0.0
 10
975.7651469632
 20
907.1126789462
 10
975.791194193
 20
911.0995814811
 10
975.8432737514
 20
919.073386551
 10
975.9354523345
 20
933.196558119
  0
LINE
  5
7F
330
1F
100
AcDbEntity
  8
0
  6
CONTINUOUS
 62
     7
100
AcDbLine
 10
711.8515751287
 20
907.2869927298
 30
0.0
 11
711.9389033838
 21
907.1996719252
 31
0.0
  0
ARC
  5
80
330
1F
100
AcDbEntity
  8
0
  6
CONTINUOUS
 62
     7
100
AcDbCircle
 10
734.6199413397
 20
884.3443201857
 30
0.0
 40
32.199325860828
100
AcDbArc
 50
134.7806722185
 51
135.2193277815
  0
LINE
  5
81
330
1F
100
AcDbEntity
  8
0
  6
CONTINUOUS
 62
     7
100
AcDbLine
 10
711.7645896002
 20
907.0253581416
 30
0.0
 11
711.6772687956
 21
907.1126789462
 31
0.0
  0
LINE
  5
82
330
1F
100
AcDbEntity
  8
0
  6
CONTINUOUS
 62
     7
100
AcDbLine
 10
949.7642523571
 20
907.1996719252
 30
0.0
 11
949.8515806123
 21
907.2869927298
 31
0.0
  0
LINE
  5
83
330
1F
100
AcDbEntity
  8
0
  6
CONTINUOUS
 62
     7
100
AcDbLine
 10
950.0258869453
 20
907.1126789462
 30
0.0
 11
949.9385661407
 21
907.0253581416
 31
0.0
  0
ARC
  5
84
330
1F
100
AcDbEntity
  8
0
  6
CONTINUOUS
 62
     7
100
AcDbCircle
 10
927.0832144034
 20
884.3443201878
 30
0.0
 40
32.19932585779411
100
AcDbArc
 50
44.7806722185
 51
45.2193277815
  0
LINE
  5
85
330
1F
100
AcDbEntity
  8
0
  6
CONTINUOUS
 62
     7
100
AcDbLine
 10
711.6772687956
 20
769.1126824032
 30
0.0
 11
711.7645896002
 21
769.2000032078
 31
0.0
  0
ARC
  5
86
330
1F
100
AcDbEntity
  8
0
  6
CONTINUOUS
 62
     7
100
AcDbCircle
 10
734.6199413376
 20
791.8810411616
 30
0.0
 40
32.19932585783092
100
AcDbArc
 50
224.7806722185
 51
225.2193277815
  0
LINE
  5
87
330
1F
100
AcDbEntity
  8
0
  6
CONTINUOUS
 62
     7
100
AcDbLine
 10
711.9389033838
 20
769.0256894242
 30
0.0
 11
711.8515751287
 21
768.9383686196
 31
0.0
  0
SPLINE
  5
88
330
1F
100
AcDbEntity
  8
0
  6
CONTINUOUS
 62
     7
100
AcDbSpline
210
0.0
220
0.0
230
1.0
 70
     8
 71
     3
 72
    10
 73
     6
 74
     0
 42
0.00000001
 43
0.00000001
 12
1.0
 22
0.0
 32
0.0
 13
1.0
 23
0.0
 33
0.0
 40
0.0
 40
0.0
 40
0.0
 40
0.0
 40
0.5
 40
0.5
 40
1.0
 40
1.0
 40
1.0
 40
1.0
 10
711.8515778704651
 20
768.9383691891985
 30
0.0
 10
711.8515778704651
 20
768.9855913626578
 30
0.0
 10
711.8412794598106
 20
769.0357079832542
 30
0.0
 10
711.7746790193477
 20
769.1023491949206
 30
0.0
 10
711.7244865017657
 20
769.1126806746938
 30
0.0
 10
711.6772663849699
 20
769.1126806746938
 30
0.0
  0
LINE
  5
89
330
1F
100
AcDbEntity
  8
0
  6
CONTINUOUS
 62
     7
100
AcDbLine
 10
711.6772687956
 20
769.1126824032
 30
0.0
 11
685.9380087777
 21
769.1126824032
 31
0.0
  0
LINE
  5
8A
330
1F
100
AcDbEntity
  8
0
  6
CONTINUOUS
 62
     7
100
AcDbLine
 10
711.8515751287
 20
768.9383686196
 30
0.0
 11
711.8515751287
 21
743.1991160523
 31
0.0
  0
LWPOLYLINE
  5
8B
330
1F
100
AcDbEntity
  8
0
  6
CONTINUOUS
 62
     7
100
AcDbPolyline
 90
        4
 70
   128
 43
0.0
 10
685.7677034064
 20
743.0288032304
 10
689.7546282931
 20
743.0548206579
 10
697.7284631654
 20
743.1068704139
 10
711.8515751287
 20
743.1991160523
  0
LWPOLYLINE
  5
8C
330
1F
100
AcDbEntity
  8
0
  6
CONTINUOUS
 62
     7
100
AcDbPolyline
 90
        4
 70
   128
 43
0.0
 10
685.9380087777
 20
769.1126824032
 10
685.9119615479
 20
765.1257798683
 10
685.8598819896
 20
757.1519747983
 10
685.7677034064
 20
743.0288032304
  0
LWPOLYLINE
  5
8D
330
1F
100
AcDbEntity
  8
0
  6
CONTINUOUS
 62
     7
100
AcDbPolyline
 90
        4
 70
   128
 43
0.0
 10
949.8515806123
 20
743.1991160523
 10
953.8384756967
 20
743.1730688225
 10
961.8122807666
 20
743.1209892642
 10
975.9354523345
 20
743.0288032304
  0
LINE
  5
8E
330
1F
100
AcDbEntity
  8
0
  6
CONTINUOUS
 62
     7
100
AcDbLine
 10
949.8515806123
 20
768.9383686196
 30
0.0
 11
949.8515806123
 21
743.1991160523
 31
0.0
  0
SPLINE
  5
8F
330
1F
100
AcDbEntity
  8
0
  6
CONTINUOUS
 62
     7
100
AcDbSpline
210
0.0
220
0.0
230
1.0
 70
     8
 71
     3
 72
    10
 73
     6
 74
     0
 42
0.00000001
 43
0.00000001
 12
1.0
 22
0.0
 32
0.0
 13
1.0
 23
0.0
 33
0.0
 40
0.0
 40
0.0
 40
0.0
 40
0.0
 40
0.5
 40
0.5
 40
1.0
 40
1.0
 40
1.0
 40
1.0
 10
950.0258893559604
 20
769.1126806746938
 30
0.0
 10
949.978667182501
 20
769.1126806746939
 30
0.0
 10
949.9285505619048
 20
769.1023822640393
 30
0.0
 10
949.8619093502382
 20
769.0357818235765
 30
0.0
 10
949.851577870465
 20
768.9855893059944
 30
0.0
 10
949.851577870465
 20
768.9383691891985
 30
0.0
  0
LINE
  5
90
330
1F
100
AcDbEntity
  8
0
  6
CONTINUOUS
 62
     7
100
AcDbLine
 10
950.0258869453
 20
769.1126824032
 30
0.0
 11
975.7651469632
 21
769.1126824032
 31
0.0
  0
LWPOLYLINE
  5
91
330
1F
100
AcDbEntity
  8
0
  6
CONTINUOUS
 62
     7
100
AcDbPolyline
 90
        4
 70
   128
 43
0.0
 10
975.9354523345
 20
743.0288032304
 10
975.9094349071
 20
747.0157281171
 10
975.857385151
 20
754.9895629894
 10
975.7651469632
 20
769.1126824032
  0
LINE
  5
92
330
1F
100
AcDbEntity
  8
0
  6
CONTINUOUS
 62
     7
100
AcDbLine
 10
949.8515806123
 20
768.9383686196
 30
0.0
 11
949.7642523571
 21
769.0256894242
 31
0.0
  0
ARC
  5
93
330
1F
100
AcDbEntity
  8
0
  6
CONTINUOUS
 62
     7
100
AcDbCircle
 10
927.0832144055
 20
791.8810411594
 30
0.0
 40
32.19932585479688
100
AcDbArc
 50
314.7806722185
 51
315.2193277816
  0
LINE
  5
94
330
1F
100
AcDbEntity
  8
0
  6
CONTINUOUS
 62
     7
100
AcDbLine
 10
949.9385661407
 20
769.2000032078
 30
0.0
 11
950.0258869453
 21
769.1126824032
 31
0.0
  0
LINE
  5
95
330
1F
100
AcDbEntity
  8
0
  6
CONTINUOUS
 62
     7
100
AcDbLine
 10
949.7642523571
 20
907.0253581416
 30
0.0
 11
949.7642523571
 21
907.1996719252
 31
0.0
  0
LINE
  5
96
330
1F
100
AcDbEntity
  8
0
  6
CONTINUOUS
 62
     7
100
AcDbLine
 10
949.9385661407
 20
907.0253581416
 30
0.0
 11
949.7642523571
 21
907.0253581416
 31
0.0
  0
LINE
  5
97
330
1F
100
AcDbEntity
  8
0
  6
CONTINUOUS
 62
     7
100
AcDbLine
 10
711.9389033838
 20
907.0253581416
 30
0.0
 11
711.9389033838
 21
907.1996719252
 31
0.0
  0
LINE
  5
98
330
1F
100
AcDbEntity
  8
0
  6
CONTINUOUS
 62
     7
100
AcDbLine
 10
711.9389033838
 20
907.0253581416
 30
0.0
 11
711.7645896002
 21
907.0253581416
 31
0.0
  0
LINE
  5
99
330
1F
100
AcDbEntity
  8
0
  6
CONTINUOUS
 62
     7
100
AcDbLine
 10
949.7642523571
 20
907.0253581416
 30
0.0
 11
711.9389033838
 21
907.0253581416
 31
0.0
  0
LINE
  5
9A
330
1F
100
AcDbEntity
  8
0
  6
CONTINUOUS
 62
     7
100
AcDbLine
 10
711.9389033838
 20
907.1996719252
 30
0.0
 11
949.7642523571
 21
907.1996719252
 31
0.0
  0
LINE
  5
9B
330
1F
100
AcDbEntity
  8
0
  6
CONTINUOUS
 62
     7
100
AcDbLine
 10
949.7642523571
 20
769.2000032078
 30
0.0
 11
949.7642523571
 21
907.0253581416
 31
0.0
  0
LINE
  5
9C
330
1F
100
AcDbEntity
  8
0
  6
CONTINUOUS
 62
     7
100
AcDbLine
 10
949.9385661407
 20
907.0253581416
 30
0.0
 11
949.9385661407
 21
769.2000032078
 31
0.0
  0
LINE
  5
9D
330
1F
100
AcDbEntity
  8
0
  6
CONTINUOUS
 62
     7
100
AcDbLine
 10
949.7642523571
 20
769.2000032078
 30
0.0
 11
949.9385661407
 21
769.2000032078
 31
0.0
  0
LINE
  5
9E
330
1F
100
AcDbEntity
  8
0
  6
CONTINUOUS
 62
     7
100
AcDbLine
 10
711.9389033838
 20
907.0253581416
 30
0.0
 11
711.9389033838
 21
769.2000032078
 31
0.0
  0
LINE
  5
9F
330
1F
100
AcDbEntity
  8
0
  6
CONTINUOUS
 62
     7
100
AcDbLine
 10
711.7645896002
 20
769.2000032078
 30
0.0
 11
711.9389033838
 21
769.2000032078
 31
0.0
  0
LINE
  5
A0
330
1F
100
AcDbEntity
  8
0
  6
CONTINUOUS
 62
     7
100
AcDbLine
 10
711.7645896002
 20
769.2000032078
 30
0.0
 11
711.7645896002
 21
907.0253581416
 31
0.0
  0
LINE
  5
A1
330
1F
100
AcDbEntity
  8
0
  6
CONTINUOUS
 62
     7
100
AcDbLine
 10
711.9389033838
 20
769.2000032078
 30
0.0
 11
949.7642523571
 21
769.2000032078
 31
0.0
  0
LINE
  5
A2
330
1F
100
AcDbEntity
  8
0
  6
CONTINUOUS
 62
     7
100
AcDbLine
 10
949.7642523571
 20
769.0256894242
 30
0.0
 11
949.7642523571
 21
769.2000032078
 31
0.0
  0
LINE
  5
A3
330
1F
100
AcDbEntity
  8
0
  6
CONTINUOUS
 62
     7
100
AcDbLine
 10
711.9389033838
 20
769.0256894242
 30
0.0
 11
711.9389033838
 21
769.2000032078
 31
0.0
  0
LINE
  5
A4
330
1F
100
AcDbEntity
  8
0
  6
CONTINUOUS
 62
     7
100
AcDbLine
 10
949.7642523571
 20
769.0256894242
 30
0.0
 11
711.9389033838
 21
769.0256894242
 31
0.0
  0
LINE
  5
A5
330
1F
100
AcDbEntity
  8
0
  6
CONTINUOUS
 62
     7
100
AcDbLine
 10
975.7651469632
 20
769.1126824032
 30
0.0
 11
975.7662645503
 21
769.1126824032
 31
0.0
  0
LINE
  5
A6
330
1F
100
AcDbEntity
  8
0
  6
CONTINUOUS
 62
     7
100
AcDbLine
 10
975.7662645503
 20
907.1126789462
 30
0.0
 11
975.7651469632
 21
907.1126789462
 31
0.0
  0
LINE
  5
A7
330
1F
100
AcDbEntity
  8
0
  6
CONTINUOUS
 62
     7
100
AcDbLine
 10
975.7662645503
 20
769.1126824032
 30
0.0
 11
975.7662645503
 21
907.1126789462
 31
0.0
  0
LINE
  5
A8
330
1F
100
AcDbEntity
  8
0
  6
CONTINUOUS
 62
     7
100
AcDbLine
 10
685.9380087777
 20
907.1126789462
 30
0.0
 11
685.9368911906
 21
907.1126789462
 31
0.0
  0
LINE
  5
A9
330
1F
100
AcDbEntity
  8
0
  6
CONTINUOUS
 62
     7
100
AcDbLine
 10
685.9368911906
 20
769.1126824032
 30
0.0
 11
685.9380087777
 21
769.1126824032
 31
0.0
  0
LINE
  5
AA
330
1F
100
AcDbEntity
  8
0
  6
CONTINUOUS
 62
     7
100
AcDbLine
 10
685.9368911906
 20
907.1126789462
 30
0.0
 11
685.9368911906
 21
769.1126824032
 31
0.0
  0
LINE
  5
AB
330
1F
100
AcDbEntity
  8
0
  6
CONTINUOUS
 62
     7
100
AcDbLine
 10
949.8515806123
 20
933.0262452971
 30
0.0
 11
949.8515806123
 21
933.0273628842
 31
0.0
  0
LINE
  5
AC
330
1F
100
AcDbEntity
  8
0
  6
CONTINUOUS
 62
     7
100
AcDbLine
 10
711.8515751287
 20
933.0262452971
 30
0.0
 11
711.8515751287
 21
933.0273628842
 31
0.0
  0
LINE
  5
AD
330
1F
100
AcDbEntity
  8
0
  6
CONTINUOUS
 62
     7
100
AcDbLine
 10
949.8515806123
 20
933.0273628842
 30
0.0
 11
711.8515751287
 21
933.0273628842
 31
0.0
  0
LINE
  5
AE
330
1F
100
AcDbEntity
  8
0
  6
CONTINUOUS
 62
     7
100
AcDbLine
 10
949.8515806123
 20
743.1991160523
 30
0.0
 11
949.8515806123
 21
743.1979984652
 31
0.0
  0
LINE
  5
AF
330
1F
100
AcDbEntity
  8
0
  6
CONTINUOUS
 62
     7
100
AcDbLine
 10
711.8515751287
 20
743.1979984652
 30
0.0
 11
949.8515806123
 21
743.1979984652
 31
0.0
  0
LINE
  5
B0
330
1F
100
AcDbEntity
  8
0
  6
CONTINUOUS
 62
     7
100
AcDbLine
 10
711.8515751287
 20
743.1991160523
 30
0.0
 11
711.8515751287
 21
743.1979984652
 31
0.0
  0
ARC
  5
B1
330
1F
100
AcDbEntity
  8
0
  6
CONTINUOUS
 62
     7
100
AcDbCircle
 10
976.2568622024
 20
926.279087143
 30
0.0
 40
6.924933862919636
100
AcDbArc
 50
77.3927923719
 51
92.6602488164
  0
LWPOLYLINE
  5
B2
330
1F
100
AcDbEntity
  8
0
  6
CONTINUOUS
 62
     7
100
AcDbPolyline
 90
        5
 70
   128
 43
0.0
 10
977.7683398648
 20
933.0370560895
 10
977.7152470275
 20
925.5289495598
 10
977.6621094867
 20
918.0208504807
 10
977.6089719459
 20
910.5127812039
 10
977.5843403264
 20
907.0328012716
  0
SPLINE
  5
B3
330
1F
100
AcDbEntity
  8
0
  6
CONTINUOUS
 62
     7
100
AcDbSpline
210
0.0
220
0.0
230
1.0
 70
     8
 71
     3
 72
    16
 73
    12
 74
     0
 42
0.00000001
 43
0.00000001
 12
1.0
 22
0.0
 32
0.0
 13
1.0
 23
0.0
 33
0.0
 40
0.0
 40
0.0
 40
0.0
 40
0.0
 40
0.249999999999997
 40
0.249999999999997
 40
0.499999999999994
 40
0.499999999999994
 40
0.749999999999991
 40
0.749999999999991
 40
0.8749999999999954
 40
0.8749999999999954
 40
1.0
 40
1.0
 40
1.0
 40
1.0
 10
975.7662591306251
 20
907.1126767200744
 30
0.0
 10
976.0005406216499
 20
907.1110206382575
 30
0.0
 10
976.2253156492573
 20
907.1077872764577
 30
0.0
 10
976.6505804525385
 20
907.0982642799545
 30
0.0
 10
976.8417513824954
 20
907.0921699663378
 30
0.0
 10
977.1726580331026
 20
907.0776126507496
 30
0.0
 10
977.3068296761625
 20
907.0693765449938
 30
0.0
 10
977.4546029927033
 20
907.0560210473508
 30
0.0
 10
977.4940177041768
 20
907.0514865779672
 30
0.0
 10
977.5537831937968
 20
907.0422575894875
 30
0.0
 10
977.5742418287103
 20
907.0375011676437
 30
0.0
 10
977.5843370413132
 20
907.0328040043539
 30
0.0
  0
SPLINE
  5
B4
330
1F
100
AcDbEntity
  8
0
  6
CONTINUOUS
 62
     7
100
AcDbSpline
210
0.0
220
0.0
230
1.0
 70
     8
 71
     3
 72
    16
 73
    12
 74
     0
 42
0.00000001
 43
0.00000001
 12
1.0
 22
0.0
 32
0.0
 13
1.0
 23
0.0
 33
0.0
 40
0.0
 40
0.0
 40
0.0
 40
0.0
 40
0.2499999999999978
 40
0.2499999999999978
 40
0.4999999999999957
 40
0.4999999999999957
 40
0.7499999999999936
 40
0.7499999999999936
 40
0.8749999999999968
 40
0.8749999999999968
 40
1.0
 40
1.0
 40
1.0
 40
1.0
 10
685.936896610305
 20
907.1126767200743
 30
0.0
 10
685.7026151192799
 20
907.1110206382574
 30
0.0
 10
685.4778400916722
 20
907.1077872764577
 30
0.0
 10
685.0525752883906
 20
907.0982642799545
 30
0.0
 10
684.8614043584333
 20
907.092169966338
 30
0.0
 10
684.5304977078262
 20
907.0776126507494
 30
0.0
 10
684.3963260647662
 20
907.0693765449919
 30
0.0
 10
684.2485527482261
 20
907.056021047348
 30
0.0
 10
684.2091380367525
 20
907.0514865779694
 30
0.0
 10
684.1493725471333
 20
907.0422575894903
 30
0.0
 10
684.1289139122201
 20
907.0375011675552
 30
0.0
 10
684.1188186996168
 20
907.0328040043539
 30
0.0
  0
LWPOLYLINE
  5
B5
330
1F
100
AcDbEntity
  8
0
  6
CONTINUOUS
 62
     7
100
AcDbPolyline
 90
        5
 70
   128
 43
0.0
 10
684.1188154145
 20
907.0328012716
 10
684.0941837951
 20
910.5127812039
 10
684.0410462543
 20
918.0208504807
 10
683.9879087134
 20
925.5289495598
 10
683.9348158761
 20
933.0370560895
  0
ARC
  5
B6
330
1F
100
AcDbEntity
  8
0
  6
CONTINUOUS
 62
     7
100
AcDbCircle
 10
685.4462935385
 20
926.279087143
 30
0.0
 40
6.924933862918972
100
AcDbArc
 50
87.3397511836
 51
102.6072076281
  0
LINE
  5
B7
330
1F
100
AcDbEntity
  8
0
  6
CONTINUOUS
 62
     7
100
AcDbLine
 10
977.5843403264
 20
907.0328012716
 30
0.0
 11
977.5843403264
 21
769.1925600778
 31
0.0
  0
SPLINE
  5
B8
330
1F
100
AcDbEntity
  8
0
  6
CONTINUOUS
 62
     7
100
AcDbSpline
210
0.0
220
0.0
230
1.0
 70
     8
 71
     3
 72
    16
 73
    12
 74
     0
 42
0.00000001
 43
0.00000001
 12
1.0
 22
0.0
 32
0.0
 13
1.0
 23
0.0
 33
0.0
 40
0.0
 40
0.0
 40
0.0
 40
0.0
 40
0.250000000000001
 40
0.250000000000001
 40
0.500000000000002
 40
0.500000000000002
 40
0.750000000000003
 40
0.750000000000003
 40
0.8750000000000014
 40
0.8750000000000014
 40
1.0
 40
1.0
 40
1.0
 40
1.0
 10
975.7662591306251
 20
769.1126846293133
 30
0.0
 10
976.0005406216499
 20
769.1143407111304
 30
0.0
 10
976.2253156492571
 20
769.1175740729306
 30
0.0
 10
976.6505804525384
 20
769.1270970694337
 30
0.0
 10
976.8417513824953
 20
769.1331913830496
 30
0.0
 10
977.1726580331024
 20
769.1477486986381
 30
0.0
 10
977.3068296761622
 20
769.1559848043962
 30
0.0
 10
977.4546029927029
 20
769.1693403020405
 30
0.0
 10
977.4940177041768
 20
769.1738747714169
 30
0.0
 10
977.5537831937968
 20
769.1831037598954
 30
0.0
 10
977.5742418287105
 20
769.1878601816879
 30
0.0
 10
977.5843370413132
 20
769.1925573450338
 30
0.0
  0
SPLINE
  5
B9
330
1F
100
AcDbEntity
  8
0
  6
CONTINUOUS
 62
     7
100
AcDbSpline
210
0.0
220
0.0
230
1.0
 70
     8
 71
     3
 72
    16
 73
    12
 74
     0
 42
0.00000001
 43
0.00000001
 12
1.0
 22
0.0
 32
0.0
 13
1.0
 23
0.0
 33
0.0
 40
0.0
 40
0.0
 40
0.0
 40
0.0
 40
0.2500000000000031
 40
0.2500000000000031
 40
0.5000000000000062
 40
0.5000000000000062
 40
0.7500000000000093
 40
0.7500000000000093
 40
0.8750000000000047
 40
0.8750000000000047
 40
1.0
 40
1.0
 40
1.0
 40
1.0
 10
685.936896610305
 20
769.1126846293132
 30
0.0
 10
685.7026151192799
 20
769.11434071113
 30
0.0
 10
685.4778400916722
 20
769.1175740729299
 30
0.0
 10
685.0525752883906
 20
769.127097069433
 30
0.0
 10
684.8614043584333
 20
769.1331913830503
 30
0.0
 10
684.5304977078262
 20
769.1477486986389
 30
0.0
 10
684.3963260647662
 20
769.1559848043958
 30
0.0
 10
684.2485527482262
 20
769.1693403020402
 30
0.0
 10
684.2091380367525
 20
769.1738747714166
 30
0.0
 10
684.1493725471333
 20
769.1831037598951
 30
0.0
 10
684.1289139122196
 20
769.187860181663
 30
0.0
 10
684.1188186996169
 20
769.1925573450337
 30
0.0
  0
LINE
  5
BA
330
1F
100
AcDbEntity
  8
0
  6
CONTINUOUS
 62
     7
100
AcDbLine
 10
684.1188154145
 20
769.1925600778
 30
0.0
 11
684.1188154145
 21
907.0328012716
 31
0.0
  0
LWPOLYLINE
  5
BB
330
1F
100
AcDbEntity
  8
0
  6
CONTINUOUS
 62
     7
100
AcDbPolyline
 90
        5
 70
   128
 43
0.0
 10
977.5843403264
 20
769.1925600778
 10
977.6089719459
 20
765.7125801455
 10
977.6621094867
 20
758.2045108687
 10
977.7152470275
 20
750.6964117896
 10
977.7683398648
 20
743.1883052598
  0
ARC
  5
BC
330
1F
100
AcDbEntity
  8
0
  6
CONTINUOUS
 62
     7
100
AcDbCircle
 10
976.2568622024
 20
749.9462742063
 30
0.0
 40
6.924933862926012
100
AcDbArc
 50
267.3397511836
 51
282.6072076281
  0
ARC
  5
BD
330
1F
100
AcDbEntity
  8
0
  6
CONTINUOUS
 62
     7
100
AcDbCircle
 10
685.4462935385
 20
749.9462742063
 30
0.0
 40
6.924933862925407
100
AcDbArc
 50
257.3927923719
 51
272.6602488164
  0
LWPOLYLINE
  5
BE
330
1F
100
AcDbEntity
  8
0
  6
CONTINUOUS
 62
     7
100
AcDbPolyline
 90
        5
 70
   128
 43
0.0
 10
683.9348158761
 20
743.1883052598
 10
683.9879087134
 20
750.6964117896
 10
684.0410462543
 20
758.2045108687
 10
684.0941837951
 20
765.7125801455
 10
684.1188154145
 20
769.1925600778
  0
ARC
  5
BF
330
1F
100
AcDbEntity
  8
0
  6
CONTINUOUS
 62
     7
100
AcDbCircle
 10
692.6846346015
 20
933.5180149598
 30
0.0
 40
6.924396844344793
100
AcDbArc
 50
167.3921968129
 51
182.6608443754
  0
LWPOLYLINE
  5
C0
330
1F
100
AcDbEntity
  8
0
  6
CONTINUOUS
 62
     7
100
AcDbPolyline
 90
        5
 70
   128
 43
0.0
 10
685.9272054358
 20
935.0294456493
 10
693.435304515
 20
934.9763453614
 10
700.9434035941
 20
934.9232227217
 10
708.4514803215
 20
934.8700777303
 10
711.9314528032
 20
934.8454386603
  0
SPLINE
  5
C1
330
1F
100
AcDbEntity
  8
0
  6
CONTINUOUS
 62
     7
100
AcDbSpline
210
0.0
220
0.0
230
1.0
 70
     8
 71
     3
 72
    16
 73
    12
 74
     0
 42
0.00000001
 43
0.00000001
 12
1.0
 22
0.0
 32
0.0
 13
1.0
 23
0.0
 33
0.0
 40
0.0
 40
0.0
 40
0.0
 40
0.0
 40
0.2500000000000017
 40
0.2500000000000017
 40
0.5000000000000034
 40
0.5000000000000034
 40
0.7500000000000051
 40
0.7500000000000051
 40
0.8750000000000026
 40
0.8750000000000026
 40
1.0
 40
1.0
 40
1.0
 40
1.0
 10
711.8515818250843
 20
933.027361934854
 30
0.0
 10
711.8532379069012
 20
933.261643425879
 30
0.0
 10
711.8564712687013
 20
933.4864184534869
 30
0.0
 10
711.8659942652043
 20
933.9116832567688
 30
0.0
 10
711.8720885788216
 20
934.102854186726
 30
0.0
 10
711.8866458944101
 20
934.4337608373332
 30
0.0
 10
711.8948820001672
 20
934.5679324803932
 30
0.0
 10
711.9082374978115
 20
934.7157057969332
 30
0.0
 10
711.9127719671905
 20
934.7551205084068
 30
0.0
 10
711.9220009556693
 20
934.8148859980257
 30
0.0
 10
711.9267573774614
 20
934.8353446329393
 30
0.0
 10
711.9314545408049
 20
934.845439845542
 30
0.0
  0
SPLINE
  5
C2
330
1F
100
AcDbEntity
  8
0
  6
CONTINUOUS
 62
     7
100
AcDbSpline
210
0.0
220
0.0
230
1.0
 70
     8
 71
     3
 72
    16
 73
    12
 74
     0
 42
0.00000001
 43
0.00000001
 12
1.0
 22
0.0
 32
0.0
 13
1.0
 23
0.0
 33
0.0
 40
0.0
 40
0.0
 40
0.0
 40
0.0
 40
0.2500000000000001
 40
0.2500000000000001
 40
0.5000000000000002
 40
0.5000000000000002
 40
0.7500000000000003
 40
0.7500000000000003
 40
0.8750000000000001
 40
0.8750000000000001
 40
1.0
 40
1.0
 40
1.0
 40
1.0
 10
949.8515739158457
 20
933.027361934854
 30
0.0
 10
949.8499178340287
 20
933.261643425879
 30
0.0
 10
949.846684472229
 20
933.4864184534869
 30
0.0
 10
949.8371614757259
 20
933.9116832567687
 30
0.0
 10
949.8310671621086
 20
934.102854186726
 30
0.0
 10
949.8165098465201
 20
934.4337608373332
 30
0.0
 10
949.8082737407633
 20
934.5679324803932
 30
0.0
 10
949.7949182431191
 20
934.7157057969332
 30
0.0
 10
949.7903837737392
 20
934.7551205084067
 30
0.0
 10
949.78115478526
 20
934.8148859980257
 30
0.0
 10
949.7763983635059
 20
934.8353446329394
 30
0.0
 10
949.7717012001252
 20
934.845439845542
 30
0.0
  0
LWPOLYLINE
  5
C3
330
1F
100
AcDbEntity
  8
0
  6
CONTINUOUS
 62
     7
100
AcDbPolyline
 90
        5
 70
   128
 43
0.0
 10
949.7717029377
 20
934.8454386603
 10
953.2516754194
 20
934.8700777303
 10
960.7597521468
 20
934.9232227217
 10
968.2678512259
 20
934.9763453614
 10
975.7759503051
 20
935.0294456493
  0
ARC
  5
C4
330
1F
100
AcDbEntity
  8
0
  6
CONTINUOUS
 62
     7
100
AcDbCircle
 10
969.0185211394
 20
933.5180149598
 30
0.0
 40
6.924396844339796
100
AcDbArc
 50
357.3391556246
 51
12.6078031872
  0
LINE
  5
C5
330
1F
100
AcDbEntity
  8
0
  6
CONTINUOUS
 62
     7
100
AcDbLine
 10
711.9314528032
 20
934.8454386603
 30
0.0
 11
949.7717029377
 21
934.8454386603
 31
0.0
  0
ARC
  5
C6
330
1F
100
AcDbEntity
  8
0
  6
CONTINUOUS
 62
     7
100
AcDbCircle
 10
969.0185211394
 20
742.7073463896
 30
0.0
 40
6.924396844339796
100
AcDbArc
 50
347.3921968128
 51
2.6608443754
  0
LWPOLYLINE
  5
C7
330
1F
100
AcDbEntity
  8
0
  6
CONTINUOUS
 62
     7
100
AcDbPolyline
 90
        5
 70
   128
 43
0.0
 10
975.7759503051
 20
741.1959157001
 10
968.2678512259
 20
741.249015988
 10
960.7597521468
 20
741.3021386277
 10
953.2516754194
 20
741.3552836191
 10
949.7717029377
 20
741.3799226891
  0
SPLINE
  5
C8
330
1F
100
AcDbEntity
  8
0
  6
CONTINUOUS
 62
     7
100
AcDbSpline
210
0.0
220
0.0
230
1.0
 70
     8
 71
     3
 72
    16
 73
    12
 74
     0
 42
0.00000001
 43
0.00000001
 12
1.0
 22
0.0
 32
0.0
 13
1.0
 23
0.0
 33
0.0
 40
0.0
 40
0.0
 40
0.0
 40
0.0
 40
0.250000000000001
 40
0.250000000000001
 40
0.500000000000002
 40
0.500000000000002
 40
0.750000000000003
 40
0.750000000000003
 40
0.8750000000000014
 40
0.8750000000000014
 40
1.0
 40
1.0
 40
1.0
 40
1.0
 10
949.8515739158458
 20
743.1979994145337
 30
0.0
 10
949.8499178340289
 20
742.9637179235085
 30
0.0
 10
949.8466844722291
 20
742.7389428959005
 30
0.0
 10
949.8371614757259
 20
742.3136780926187
 30
0.0
 10
949.8310671621091
 20
742.1225071626613
 30
0.0
 10
949.8165098465206
 20
741.7916005120542
 30
0.0
 10
949.8082737407633
 20
741.6574288689942
 30
0.0
 10
949.7949182431192
 20
741.5096555524542
 30
0.0
 10
949.7903837737412
 20
741.4702408409809
 30
0.0
 10
949.7811547852625
 20
741.4104753513616
 30
0.0
 10
949.7763983635149
 20
741.390016716448
 30
0.0
 10
949.7717012001252
 20
741.3799215038454
 30
0.0
  0
LINE
  5
C9
330
1F
100
AcDbEntity
  8
0
  6
CONTINUOUS
 62
     7
100
AcDbLine
 10
949.7717029377
 20
741.3799226891
 30
0.0
 11
711.9314528032
 21
741.3799226891
 31
0.0
  0
SPLINE
  5
CA
330
1F
100
AcDbEntity
  8
0
  6
CONTINUOUS
 62
     7
100
AcDbSpline
210
0.0
220
0.0
230
1.0
 70
     8
 71
     3
 72
    16
 73
    12
 74
     0
 42
0.00000001
 43
0.00000001
 12
1.0
 22
0.0
 32
0.0
 13
1.0
 23
0.0
 33
0.0
 40
0.0
 40
0.0
 40
0.0
 40
0.0
 40
0.2500000000000008
 40
0.2500000000000008
 40
0.5000000000000017
 40
0.5000000000000017
 40
0.7500000000000024
 40
0.7500000000000024
 40
0.8750000000000012
 40
0.8750000000000012
 40
1.0
 40
1.0
 40
1.0
 40
1.0
 10
711.8515818250844
 20
743.1979994145337
 30
0.0
 10
711.8532379069013
 20
742.9637179235085
 30
0.0
 10
711.8564712687012
 20
742.7389428959005
 30
0.0
 10
711.8659942652043
 20
742.3136780926186
 30
0.0
 10
711.872088578821
 20
742.1225071626615
 30
0.0
 10
711.8866458944095
 20
741.7916005120542
 30
0.0
 10
711.8948820001668
 20
741.6574288689942
 30
0.0
 10
711.9082374978109
 20
741.5096555524542
 30
0.0
 10
711.9127719671895
 20
741.4702408409806
 30
0.0
 10
711.9220009556688
 20
741.4104753513617
 30
0.0
 10
711.9267573774504
 20
741.390016716448
 30
0.0
 10
711.9314545408048
 20
741.3799215038454
 30
0.0
  0
LWPOLYLINE
  5
CB
330
1F
100
AcDbEntity
  8
0
  6
CONTINUOUS
 62
     7
100
AcDbPolyline
 90
        5
 70
   128
 43
0.0
 10
711.9314528032
 20
741.3799226891
 10
708.4514803215
 20
741.3552836191
 10
700.9434035941
 20
741.3021386277
 10
693.435304515
 20
741.249015988
 10
685.9272054358
 20
741.1959157001
  0
ARC
  5
CC
330
1F
100
AcDbEntity
  8
0
  6
CONTINUOUS
 62
     7
100
AcDbCircle
 10
692.6846346015
 20
742.7073463896
 30
0.0
 40
6.924396844344793
100
AcDbArc
 50
177.3391556246
 51
192.6078031871
  0
LINE
  5
CD
330
1F
100
AcDbEntity
  8
0
  6
CONTINUOUS
 62
     7
100
AcDbLine
 10
683.8439634963
 20
937.1126801383
 30
0.0
 11
685.9272054358
 21
935.0294456493
 31
0.0
  0
LINE
  5
CE
330
1F
100
AcDbEntity
  8
0
  6
CONTINUOUS
 62
     7
100
AcDbLine
 10
683.8439634963
 20
937.1126801383
 30
0.0
 11
977.8591922446
 21
937.1126801383
 31
0.0
  0
LINE
  5
CF
330
1F
100
AcDbEntity
  8
0
  6
CONTINUOUS
 62
     7
100
AcDbLine
 10
975.7759503051
 20
935.0294456493
 30
0.0
 11
977.8591922446
 21
937.1126801383
 31
0.0
  0
LINE
  5
D0
330
1F
100
AcDbEntity
  8
0
  6
CONTINUOUS
 62
     7
100
AcDbLine
 10
979.8515818044
 20
935.1202905785
 30
0.0
 11
977.7683398648
 21
933.0370560895
 31
0.0
  0
LINE
  5
D1
330
1F
100
AcDbEntity
  8
0
  6
CONTINUOUS
 62
     7
100
AcDbLine
 10
979.8515818044
 20
935.1202905785
 30
0.0
 11
979.8515818044
 21
741.1050707709
 31
0.0
  0
LINE
  5
D2
330
1F
100
AcDbEntity
  8
0
  6
CONTINUOUS
 62
     7
100
AcDbLine
 10
977.7683398648
 20
743.1883052598
 30
0.0
 11
979.8515818044
 21
741.1050707709
 31
0.0
  0
LINE
  5
D3
330
1F
100
AcDbEntity
  8
0
  6
CONTINUOUS
 62
     7
100
AcDbLine
 10
681.8515739366
 20
741.1050707709
 30
0.0
 11
683.9348158761
 21
743.1883052598
 31
0.0
  0
LINE
  5
D4
330
1F
100
AcDbEntity
  8
0
  6
CONTINUOUS
 62
     7
100
AcDbLine
 10
681.8515739366
 20
762.1126831185
 30
0.0
 11
681.8515739366
 21
741.1050707709
 31
0.0
  0
LINE
  5
D5
330
1F
100
AcDbEntity
  8
0
  6
CONTINUOUS
 62
     7
100
AcDbLine
 10
681.8515739366
 20
762.1126831185
 30
0.0
 11
683.0764195844
 21
762.1126831185
 31
0.0
  0
LINE
  5
D6
330
1F
100
AcDbEntity
  8
0
  6
CONTINUOUS
 62
     7
100
AcDbLine
 10
683.0764195844
 20
762.1126831185
 30
0.0
 11
683.0764195844
 21
814.1126804661
 31
0.0
  0
LINE
  5
D7
330
1F
100
AcDbEntity
  8
0
  6
CONTINUOUS
 62
     7
100
AcDbLine
 10
683.0764195844
 20
814.1126804661
 30
0.0
 11
681.8515739366
 21
814.1126804661
 31
0.0
  0
LINE
  5
D8
330
1F
100
AcDbEntity
  8
0
  6
CONTINUOUS
 62
     7
100
AcDbLine
 10
681.8515739366
 20
862.1126808833
 30
0.0
 11
681.8515739366
 21
814.1126804661
 31
0.0
  0
LINE
  5
D9
330
1F
100
AcDbEntity
  8
0
  6
CONTINUOUS
 62
     7
100
AcDbLine
 10
681.8515739366
 20
862.1126808833
 30
0.0
 11
683.0764195844
 21
862.1126808833
 31
0.0
  0
LINE
  5
DA
330
1F
100
AcDbEntity
  8
0
  6
CONTINUOUS
 62
     7
100
AcDbLine
 10
683.0764195844
 20
862.1126808833
 30
0.0
 11
683.0764195844
 21
914.1126782309
 31
0.0
  0
LINE
  5
DB
330
1F
100
AcDbEntity
  8
0
  6
CONTINUOUS
 62
     7
100
AcDbLine
 10
683.0764195844
 20
914.1126782309
 30
0.0
 11
681.8515739366
 21
914.1126782309
 31
0.0
  0
LINE
  5
DC
330
1F
100
AcDbEntity
  8
0
  6
CONTINUOUS
 62
     7
100
AcDbLine
 10
681.8515739366
 20
935.1202905785
 30
0.0
 11
681.8515739366
 21
914.1126782309
 31
0.0
  0
LINE
  5
DD
330
1F
100
AcDbEntity
  8
0
  6
CONTINUOUS
 62
     7
100
AcDbLine
 10
683.9348158761
 20
933.0370560895
 30
0.0
 11
681.8515739366
 21
935.1202905785
 31
0.0
  0
LINE
  5
DE
330
1F
100
AcDbEntity
  8
0
  6
CONTINUOUS
 62
     7
100
AcDbLine
 10
977.8591922446
 20
739.1126812111
 30
0.0
 11
975.7759503051
 21
741.1959157001
 31
0.0
  0
LINE
  5
DF
330
1F
100
AcDbEntity
  8
0
  6
CONTINUOUS
 62
     7
100
AcDbLine
 10
683.8439634963
 20
739.1126812111
 30
0.0
 11
977.8591922446
 21
739.1126812111
 31
0.0
  0
LINE
  5
E0
330
1F
100
AcDbEntity
  8
0
  6
CONTINUOUS
 62
     7
100
AcDbLine
 10
685.9272054358
 20
741.1959157001
 30
0.0
 11
683.8439634963
 21
739.1126812111
 31
0.0
  0
ARC
  5
E1
330
1F
100
AcDbEntity
  8
0
  6
CONTINUOUS
 62
     7
100
AcDbCircle
 10
685.9450115417
 20
933.0192499837
 30
0.0
 40
2.010274526362592
100
AcDbArc
 50
90.5075068313
 51
179.4924931687
  0
ARC
  5
E2
330
1F
100
AcDbEntity
  8
0
  6
CONTINUOUS
 62
     7
100
AcDbCircle
 10
975.7581441992
 20
933.0192499837
 30
0.0
 40
2.01027452636282
100
AcDbArc
 50
0.5075068313
 51
89.4924931687
  0
ARC
  5
E3
330
1F
100
AcDbEntity
  8
0
  6
CONTINUOUS
 62
     7
100
AcDbCircle
 10
685.9450115417
 20
743.2061113657
 30
0.0
 40
2.010274526362819
100
AcDbArc
 50
180.5075068313
 51
269.4924931687
  0
ARC
  5
E4
330
1F
100
AcDbEntity
  8
0
  6
CONTINUOUS
 62
     7
100
AcDbCircle
 10
975.7581441992
 20
743.2061113657
 30
0.0
 40
2.010274526362822
100
AcDbArc
 50
270.5075068313
 51
359.4924931687
  0
ELLIPSE
  5
E5
330
1F
100
AcDbEntity
  8
0
  6
CONTINUOUS
 62
     7
100
AcDbEllipse
 10
683.8592175456
 20
935.1050409996
 30
0.0
 11
-1.424997215780536
 21
1.424997215780536
 31
0.0
210
0.0
220
0.0
230
1.0
 40
0.9924325091
 41
5.501585242055418
 42
7.064785372303769
  0
ELLIPSE
  5
E6
330
1F
100
AcDbEntity
  8
0
  6
CONTINUOUS
 62
     7
100
AcDbEllipse
 10
977.8439381954
 20
935.1050409996
 30
0.0
 11
1.424997215780422
 21
1.424997215780536
 31
0.0
210
0.0
220
0.0
230
1.0
 40
0.9924325091
 41
5.501585242055357
 42
7.064785372303805
  0
ELLIPSE
  5
E7
330
1F
100
AcDbEntity
  8
0
  6
CONTINUOUS
 62
     7
100
AcDbEllipse
 10
683.8592175456
 20
741.1203203498
 30
0.0
 11
1.424997215780536
 21
1.424997215780536
 31
0.0
210
0.0
220
0.0
230
1.0
 40
0.9924325091
 41
2.359992588465591
 42
3.923192718714009
  0
ELLIPSE
  5
E8
330
1F
100
AcDbEntity
  8
0
  6
CONTINUOUS
 62
     7
100
AcDbEllipse
 10
977.8439381954
 20
741.1203203498
 30
0.0
 11
-1.424997215780536
 21
1.424997215780536
 31
0.0
210
0.0
220
0.0
230
1.0
 40
0.9924325091
 41
2.359992588465534
 42
3.923192718714009
  0
LWPOLYLINE
  5
E9
330
1F
100
AcDbEntity
  8
0
  6
CONTINUOUS
 62
     7
100
AcDbPolyline
 90
        5
 70
   128
 43
0.0
 10
558.8876802247
 20
933.0370560895
 10
558.2806888741
 20
925.5289495598
 10
557.6734851819
 20
918.0208504807
 10
557.0660691481
 20
910.5127812039
 10
556.7844595533
 20
907.0328012716
  0
LINE
  5
EA
330
1F
100
AcDbEntity
  8
0
  6
CONTINUOUS
 62
     7
100
AcDbLine
 10
582.6991416287
 20
935.1202905785
 30
0.0
 11
558.8876802247
 21
933.0370560895
 31
0.0
  0
LINE
  5
EB
330
1F
100
AcDbEntity
  8
0
  6
CONTINUOUS
 62
     7
100
AcDbLine
 10
582.6991416287
 20
935.1202905785
 30
0.0
 11
582.6991416287
 21
741.1050707709
 31
0.0
  0
LINE
  5
EC
330
1F
100
AcDbEntity
  8
0
  6
CONTINUOUS
 62
     7
100
AcDbLine
 10
558.8876802247
 20
743.1883052598
 30
0.0
 11
582.6991416287
 21
741.1050707709
 31
0.0
  0
LWPOLYLINE
  5
ED
330
1F
100
AcDbEntity
  8
0
  6
CONTINUOUS
 62
     7
100
AcDbPolyline
 90
        5
 70
   128
 43
0.0
 10
556.7844595533
 20
769.1925600778
 10
557.0660691481
 20
765.7125801455
 10
557.6734851819
 20
758.2045108687
 10
558.2806888741
 20
750.6964117896
 10
558.8876802247
 20
743.1883052598
  0
LINE
  5
EE
330
1F
100
AcDbEntity
  8
0
  6
CONTINUOUS
 62
     7
100
AcDbLine
 10
556.7844595533
 20
907.0328012716
 30
0.0
 11
556.7844595533
 21
769.1925600778
 31
0.0
  0
LINE
  5
EF
330
1F
100
AcDbEntity
  8
0
  6
CONTINUOUS
 62
     7
100
AcDbLine
 10
582.6991416287
 20
741.1050707709
 30
0.0
 11
582.6991416287
 21
739.1126812111
 31
0.0
  0
LINE
  5
F0
330
1F
100
AcDbEntity
  8
0
  6
CONTINUOUS
 62
     7
100
AcDbLine
 10
582.6991416287
 20
739.1126812111
 30
0.0
 11
558.8876802247
 21
741.1959157001
 31
0.0
  0
ARC
  5
F1
330
1F
100
AcDbEntity
  8
0
  6
CONTINUOUS
 62
     7
100
AcDbCircle
 10
564.6533179006
 20
742.19211048
 30
0.0
 40
5.851066727469452
100
AcDbArc
 50
170.1971415762
 51
189.8028584238
  0
LINE
  5
F2
330
1F
100
AcDbEntity
  8
0
  6
CONTINUOUS
 62
     7
100
AcDbLine
 10
582.6991416287
 20
937.1126801383
 30
0.0
 11
582.6991416287
 21
935.1202905785
 31
0.0
  0
ARC
  5
F3
330
1F
100
AcDbEntity
  8
0
  6
CONTINUOUS
 62
     7
100
AcDbCircle
 10
564.6533179006
 20
934.0332508694
 30
0.0
 40
5.851066727469676
100
AcDbArc
 50
170.1971415762
 51
189.8028584238
  0
LINE
  5
F4
330
1F
100
AcDbEntity
  8
0
  6
CONTINUOUS
 62
     7
100
AcDbLine
 10
558.8876802247
 20
935.0294456493
 30
0.0
 11
582.6991416287
 21
937.1126801383
 31
0.0
  0
ARC
  5
F5
330
1F
100
AcDbEntity
  8
0
  6
CONTINUOUS
 62
     7
100
AcDbCircle
 10
564.6182439739
 20
1008.5543996466
 30
0.0
 40
75.73446070841
100
AcDbArc
 50
264.2836051665
 51
265.6604795824
  0
ARC
  5
F6
330
1F
100
AcDbEntity
  8
0
  6
CONTINUOUS
 62
     7
100
AcDbCircle
 10
559.0641287725
 20
933.0418825149
 30
0.0
 40
1.9953799897149
100
AcDbArc
 50
95.073208835
 51
175.5541506921
  0
LINE
  5
F7
330
1F
100
AcDbEntity
  8
0
  6
CONTINUOUS
 62
     7
100
AcDbLine
 10
554.9663819146
 20
907.1126789462
 30
0.0
 11
554.966285057
 21
907.1126789462
 31
0.0
  0
LWPOLYLINE
  5
F8
330
1F
100
AcDbEntity
  8
0
  6
CONTINUOUS
 62
     7
100
AcDbPolyline
 90
        4
 70
   128
 43
0.0
 10
554.966285057
 20
907.1126789462
 10
555.2887219709
 20
911.0995814811
 10
555.9334262978
 20
919.073386551
 10
557.0747527998
 20
933.196558119
  0
SPLINE
  5
F9
330
1F
100
AcDbEntity
  8
0
  6
CONTINUOUS
 62
     7
100
AcDbSpline
210
0.0
220
0.0
230
1.0
 70
     8
 71
     3
 72
    16
 73
    12
 74
     0
 42
0.00000001
 43
0.00000001
 12
1.0
 22
0.0
 32
0.0
 13
1.0
 23
0.0
 33
0.0
 40
0.0
 40
0.0
 40
0.0
 40
0.0
 40
0.249999999999997
 40
0.249999999999997
 40
0.499999999999994
 40
0.499999999999994
 40
0.749999999999991
 40
0.749999999999991
 40
0.8749999999999954
 40
0.8749999999999954
 40
1.0
 40
1.0
 40
1.0
 40
1.0
 10
554.9663824578307
 20
907.1126767200744
 30
0.0
 10
554.9868794323694
 20
907.1110206382575
 30
0.0
 10
555.0472514371947
 20
907.1077872764577
 30
0.0
 10
555.2457739230032
 20
907.0982642799545
 30
0.0
 10
555.3799048017137
 20
907.0921699663378
 30
0.0
 10
555.7113003232255
 20
907.0776126507496
 30
0.0
 10
555.9034352625467
 20
907.0693765449938
 30
0.0
 10
556.2211039195283
 20
907.0560210473508
 30
0.0
 10
556.3299002245572
 20
907.0514865779672
 30
0.0
 10
556.5531226017704
 20
907.0422575894875
 30
0.0
 10
556.6690715604589
 20
907.0375011676437
 30
0.0
 10
556.784460368518
 20
907.0328040043539
 30
0.0
  0
ARC
  5
FA
330
1F
100
AcDbEntity
  8
0
  6
CONTINUOUS
 62
     7
100
AcDbCircle
 10
559.0641287725
 20
743.1834788345
 30
0.0
 40
1.9953799897149
100
AcDbArc
 50
184.4458493079
 51
264.926791165
  0
ARC
  5
FB
330
1F
100
AcDbEntity
  8
0
  6
CONTINUOUS
 62
     7
100
AcDbCircle
 10
564.6182439739
 20
667.6709617026
 30
0.0
 40
75.73446070861493
100
AcDbArc
 50
94.3395204176
 51
95.7163948335
  0
LWPOLYLINE
  5
FC
330
1F
100
AcDbEntity
  8
0
  6
CONTINUOUS
 62
     7
100
AcDbPolyline
 90
        4
 70
   128
 43
0.0
 10
557.0747527998
 20
743.0288032304
 10
556.7526325356
 20
747.0157281171
 10
556.1082225066
 20
754.9895629894
 10
554.966285057
 20
769.1126824032
  0
LINE
  5
FD
330
1F
100
AcDbEntity
  8
0
  6
CONTINUOUS
 62
     7
100
AcDbLine
 10
554.966285057
 20
769.1126824032
 30
0.0
 11
554.9663819146
 21
769.1126824032
 31
0.0
  0
SPLINE
  5
FE
330
1F
100
AcDbEntity
  8
0
  6
CONTINUOUS
 62
     7
100
AcDbSpline
210
0.0
220
0.0
230
1.0
 70
     8
 71
     3
 72
    16
 73
    12
 74
     0
 42
0.00000001
 43
0.00000001
 12
1.0
 22
0.0
 32
0.0
 13
1.0
 23
0.0
 33
0.0
 40
0.0
 40
0.0
 40
0.0
 40
0.0
 40
0.250000000000001
 40
0.250000000000001
 40
0.500000000000002
 40
0.500000000000002
 40
0.750000000000003
 40
0.750000000000003
 40
0.8750000000000014
 40
0.8750000000000014
 40
1.0
 40
1.0
 40
1.0
 40
1.0
 10
554.9663824578307
 20
769.1126846293133
 30
0.0
 10
554.9868794323694
 20
769.1143407111304
 30
0.0
 10
555.0472514371946
 20
769.1175740729306
 30
0.0
 10
555.2457739230031
 20
769.1270970694337
 30
0.0
 10
555.3799048017135
 20
769.1331913830496
 30
0.0
 10
555.7113003232253
 20
769.1477486986381
 30
0.0
 10
555.9034352625464
 20
769.1559848043962
 30
0.0
 10
556.2211039195279
 20
769.1693403020405
 30
0.0
 10
556.3299002245569
 20
769.1738747714169
 30
0.0
 10
556.5531226017702
 20
769.1831037598954
 30
0.0
 10
556.6690715604607
 20
769.1878601816879
 30
0.0
 10
556.7844603685176
 20
769.1925573450338
 30
0.0
  0
LINE
  5
FF
330
1F
100
AcDbEntity
  8
0
  6
CONTINUOUS
 62
     7
100
AcDbLine
 10
554.9663819146
 20
769.1126824032
 30
0.0
 11
554.9663819146
 21
907.1126789462
 31
0.0
  0
LINE
  5
100
330
1F
100
AcDbEntity
  8
0
  6
CONTINUOUS
 62
     7
100
AcDbLine
 10
552.7143917751
 20
907.1126789462
 30
0.0
 11
554.966285057
 21
907.1126789462
 31
0.0
  0
SPLINE
  5
101
330
1F
100
AcDbEntity
  8
0
  6
CONTINUOUS
 62
     7
100
AcDbSpline
210
0.0
220
0.0
230
1.0
 70
     8
 71
     3
 72
    10
 73
     6
 74
     0
 42
0.00000001
 43
0.00000001
 12
1.0
 22
0.0
 32
0.0
 13
1.0
 23
0.0
 33
0.0
 40
0.0
 40
0.0
 40
0.0
 40
0.0
 40
0.5
 40
0.5
 40
1.0
 40
1.0
 40
1.0
 40
1.0
 10
552.7143919075822
 20
907.286992160189
 30
0.0
 10
552.7102605027375
 20
907.2397699867296
 30
0.0
 10
552.7067763337923
 20
907.1896533661336
 30
0.0
 10
552.7067727662804
 20
907.123012154467
 30
0.0
 10
552.7102606826722
 20
907.1126806746937
 30
0.0
 10
552.7143919075822
 20
907.1126806746937
 30
0.0
  0
LINE
  5
102
330
1F
100
AcDbEntity
  8
0
  6
CONTINUOUS
 62
     7
100
AcDbLine
 10
552.7143917751
 20
907.2869927298
 30
0.0
 11
554.966285057
 21
933.0262452971
 31
0.0
  0
LWPOLYLINE
  5
103
330
1F
100
AcDbEntity
  8
0
  6
CONTINUOUS
 62
     7
100
AcDbPolyline
 90
        4
 70
   128
 43
0.0
 10
557.0747527998
 20
933.196558119
 10
556.7526325356
 20
933.1705406915
 10
556.1082225066
 20
933.1184909355
 10
554.966285057
 20
933.0262452971
  0
LWPOLYLINE
  5
104
330
1F
100
AcDbEntity
  8
0
  6
CONTINUOUS
 62
     7
100
AcDbPolyline
 90
        4
 70
   128
 43
0.0
 10
554.966285057
 20
743.1991160523
 10
555.2887219709
 20
743.1730688225
 10
555.9334262978
 20
743.1209892642
 10
557.0747527998
 20
743.0288032304
  0
LINE
  5
105
330
1F
100
AcDbEntity
  8
0
  6
CONTINUOUS
 62
     7
100
AcDbLine
 10
552.7143917751
 20
768.9383686196
 30
0.0
 11
554.966285057
 21
743.1991160523
 31
0.0
  0
SPLINE
  5
106
330
1F
100
AcDbEntity
  8
0
  6
CONTINUOUS
 62
     7
100
AcDbSpline
210
0.0
220
0.0
230
1.0
 70
     8
 71
     3
 72
    10
 73
     6
 74
     0
 42
0.00000001
 43
0.00000001
 12
1.0
 22
0.0
 32
0.0
 13
1.0
 23
0.0
 33
0.0
 40
0.0
 40
0.0
 40
0.0
 40
0.0
 40
0.5
 40
0.5
 40
1.0
 40
1.0
 40
1.0
 40
1.0
 10
552.7143919075822
 20
769.1126806746938
 30
0.0
 10
552.7102605027375
 20
769.1126806746939
 30
0.0
 10
552.7067763337923
 20
769.1023822640393
 30
0.0
 10
552.7067727662803
 20
769.0357818235765
 30
0.0
 10
552.7102606826722
 20
768.9855893059944
 30
0.0
 10
552.7143919075822
 20
768.9383691891985
 30
0.0
  0
LINE
  5
107
330
1F
100
AcDbEntity
  8
0
  6
CONTINUOUS
 62
     7
100
AcDbLine
 10
552.7143917751
 20
769.1126824032
 30
0.0
 11
554.966285057
 21
769.1126824032
 31
0.0
  0
LINE
  5
108
330
1F
100
AcDbEntity
  8
0
  6
CONTINUOUS
 62
     7
100
AcDbLine
 10
554.966285057
 20
933.0262452971
 30
0.0
 11
554.9663819146
 21
933.0273628842
 31
0.0
  0
SPLINE
  5
109
330
1F
100
AcDbEntity
  8
0
  6
CONTINUOUS
 62
     7
100
AcDbSpline
210
0.0
220
0.0
230
1.0
 70
     8
 71
     3
 72
    16
 73
    12
 74
     0
 42
0.00000001
 43
0.00000001
 12
1.0
 22
0.0
 32
0.0
 13
1.0
 23
0.0
 33
0.0
 40
0.0
 40
0.0
 40
0.0
 40
0.0
 40
0.2500000000000001
 40
0.2500000000000001
 40
0.5000000000000002
 40
0.5000000000000002
 40
0.7500000000000003
 40
0.7500000000000003
 40
0.8750000000000001
 40
0.8750000000000001
 40
1.0
 40
1.0
 40
1.0
 40
1.0
 10
554.9663824578307
 20
933.027361934854
 30
0.0
 10
554.9868794323694
 20
933.261643425879
 30
0.0
 10
555.047251437195
 20
933.4864184534869
 30
0.0
 10
555.245773923004
 20
933.9116832567687
 30
0.0
 10
555.3799048017149
 20
934.102854186726
 30
0.0
 10
555.7113003232278
 20
934.4337608373332
 30
0.0
 10
555.90343526255
 20
934.5679324803932
 30
0.0
 10
556.2211039195316
 20
934.7157057969332
 30
0.0
 10
556.3299002245602
 20
934.7551205084067
 30
0.0
 10
556.5531226017716
 20
934.8148859980257
 30
0.0
 10
556.6690715604634
 20
934.8353446329394
 30
0.0
 10
556.7844603685191
 20
934.845439845542
 30
0.0
  0
LWPOLYLINE
  5
10A
330
1F
100
AcDbEntity
  8
0
  6
CONTINUOUS
 62
     7
100
AcDbPolyline
 90
        5
 70
   128
 43
0.0
 10
556.7844595533
 20
934.8454386603
 10
557.0660691481
 20
934.8700777303
 10
557.6734851819
 20
934.9232227217
 10
558.2806888741
 20
934.9763453614
 10
558.8876802247
 20
935.0294456493
  0
LINE
  5
10B
330
1F
100
AcDbEntity
  8
0
  6
CONTINUOUS
 62
     7
100
AcDbLine
 10
554.966285057
 20
743.1991160523
 30
0.0
 11
554.9663819146
 21
743.1979984652
 31
0.0
  0
SPLINE
  5
10C
330
1F
100
AcDbEntity
  8
0
  6
CONTINUOUS
 62
     7
100
AcDbSpline
210
0.0
220
0.0
230
1.0
 70
     8
 71
     3
 72
    16
 73
    12
 74
     0
 42
0.00000001
 43
0.00000001
 12
1.0
 22
0.0
 32
0.0
 13
1.0
 23
0.0
 33
0.0
 40
0.0
 40
0.0
 40
0.0
 40
0.0
 40
0.250000000000001
 40
0.250000000000001
 40
0.500000000000002
 40
0.500000000000002
 40
0.750000000000003
 40
0.750000000000003
 40
0.8750000000000014
 40
0.8750000000000014
 40
1.0
 40
1.0
 40
1.0
 40
1.0
 10
554.9663824578307
 20
743.1979994145337
 30
0.0
 10
554.9868794323694
 20
742.9637179235085
 30
0.0
 10
555.047251437195
 20
742.7389428959005
 30
0.0
 10
555.2457739230041
 20
742.3136780926187
 30
0.0
 10
555.379904801715
 20
742.1225071626613
 30
0.0
 10
555.711300323228
 20
741.7916005120542
 30
0.0
 10
555.9034352625503
 20
741.6574288689942
 30
0.0
 10
556.221103919532
 20
741.5096555524542
 30
0.0
 10
556.3299002245607
 20
741.4702408409809
 30
0.0
 10
556.5531226017722
 20
741.4104753513616
 30
0.0
 10
556.6690715604643
 20
741.390016716448
 30
0.0
 10
556.7844603685196
 20
741.3799215038454
 30
0.0
  0
LWPOLYLINE
  5
10D
330
1F
100
AcDbEntity
  8
0
  6
CONTINUOUS
 62
     7
100
AcDbPolyline
 90
        5
 70
   128
 43
0.0
 10
558.8876802247
 20
741.1959157001
 10
558.2806888741
 20
741.249015988
 10
557.6734851819
 20
741.3021386277
 10
557.0660691481
 20
741.3552836191
 10
556.7844595533
 20
741.3799226891
  0
LINE
  5
10E
330
1F
100
AcDbEntity
  8
0
  6
CONTINUOUS
 62
     7
100
AcDbLine
 10
552.7067530673
 20
769.2000032078
 30
0.0
 11
552.7143917751
 21
769.1126824032
 31
0.0
  0
LINE
  5
10F
330
1F
100
AcDbEntity
  8
0
  6
CONTINUOUS
 62
     7
100
AcDbLine
 10
552.7067530673
 20
907.0253581416
 30
0.0
 11
552.7067530673
 21
769.2000032078
 31
0.0
  0
LINE
  5
110
330
1F
100
AcDbEntity
  8
0
  6
CONTINUOUS
 62
     7
100
AcDbLine
 10
552.7143917751
 20
907.1126789462
 30
0.0
 11
552.7067530673
 21
907.0253581416
 31
0.0
  0
LINE
  5
111
330
1F
100
AcDbEntity
  8
0
  6
CONTINUOUS
 62
     7
100
AcDbLine
 10
552.7143917751
 20
768.9383686196
 30
0.0
 11
552.7067530673
 21
769.0256894242
 31
0.0
  0
ARC
  5
112
330
1F
100
AcDbEntity
  8
0
  6
CONTINUOUS
 62
     7
100
AcDbCircle
 10
553.7057476831
 20
769.112846316
 30
0.0
 40
1.002789392691574
100
AcDbArc
 50
175.0138775299
 51
184.9861224701
  0
LINE
  5
113
330
1F
100
AcDbEntity
  8
0
  6
CONTINUOUS
 62
     7
100
AcDbLine
 10
552.7067530673
 20
907.1996719252
 30
0.0
 11
552.7143917751
 21
907.2869927298
 31
0.0
  0
ARC
  5
114
330
1F
100
AcDbEntity
  8
0
  6
CONTINUOUS
 62
     7
100
AcDbCircle
 10
553.7057476831
 20
907.1125150334
 30
0.0
 40
1.002789392690195
100
AcDbArc
 50
175.0138775299
 51
184.9861224701
  0
LINE
  5
115
330
1F
100
AcDbEntity
  8
0
  6
CONTINUOUS
 62
     7
100
AcDbLine
 10
552.6991422992
 20
769.2000032078
 30
0.0
 11
552.6991422992
 21
907.0253581416
 31
0.0
  0
LINE
  5
116
330
1F
100
AcDbEntity
  8
0
  6
CONTINUOUS
 62
     7
100
AcDbLine
 10
552.7067530673
 20
907.0253581416
 30
0.0
 11
552.6991422992
 21
907.0253581416
 31
0.0
  0
LINE
  5
117
330
1F
100
AcDbEntity
  8
0
  6
CONTINUOUS
 62
     7
100
AcDbLine
 10
552.6991422992
 20
769.2000032078
 30
0.0
 11
552.7067530673
 21
769.2000032078
 31
0.0
  0
ARC
  5
118
330
1F
100
AcDbEntity
  8
0
  6
CONTINUOUS
 62
     7
100
AcDbCircle
 10
554.6991416287
 20
769.2000025605
 30
0.0
 40
2.00000000000002
100
AcDbArc
 50
180.0
 51
185.0
  0
ARC
  5
119
330
1F
100
AcDbEntity
  8
0
  6
CONTINUOUS
 62
     7
100
AcDbCircle
 10
554.6991416287
 20
907.0253587889
 30
0.0
 40
2.00000000000002
100
AcDbArc
 50
175.0
 51
180.0
  0
LINE
  5
11A
330
1F
100
AcDbEntity
  8
0
  6
CONTINUOUS
 62
     7
100
AcDbLine
 10
1079.0040141123
 20
739.1126812111
 30
0.0
 11
1079.0040141123
 21
741.1050707709
 31
0.0
  0
LINE
  5
11B
330
1F
100
AcDbEntity
  8
0
  6
CONTINUOUS
 62
     7
100
AcDbLine
 10
1079.0040141123
 20
741.1050707709
 30
0.0
 11
1102.8154755162
 21
743.1883052598
 31
0.0
  0
ARC
  5
11C
330
1F
100
AcDbEntity
  8
0
  6
CONTINUOUS
 62
     7
100
AcDbCircle
 10
1097.0498378403
 20
742.19211048
 30
0.0
 40
5.85106672746329
100
AcDbArc
 50
350.1971415762
 51
9.8028584238
  0
LINE
  5
11D
330
1F
100
AcDbEntity
  8
0
  6
CONTINUOUS
 62
     7
100
AcDbLine
 10
1102.8154755162
 20
741.1959157001
 30
0.0
 11
1079.0040141123
 21
739.1126812111
 31
0.0
  0
LWPOLYLINE
  5
11E
330
1F
100
AcDbEntity
  8
0
  6
CONTINUOUS
 62
     7
100
AcDbPolyline
 90
        5
 70
   128
 43
0.0
 10
1102.8154755162
 20
743.1883052598
 10
1103.4224668669
 20
750.6964117896
 10
1104.0296705591
 20
758.2045108687
 10
1104.6370865928
 20
765.7125801455
 10
1104.9186961876
 20
769.1925600778
  0
LINE
  5
11F
330
1F
100
AcDbEntity
  8
0
  6
CONTINUOUS
 62
     7
100
AcDbLine
 10
1079.0040141123
 20
762.1126831185
 30
0.0
 11
1079.0040141123
 21
741.1050707709
 31
0.0
  0
LINE
  5
120
330
1F
100
AcDbEntity
  8
0
  6
CONTINUOUS
 62
     7
100
AcDbLine
 10
1079.0040141123
 20
762.1126831185
 30
0.0
 11
1093.0040145444
 21
762.1126831185
 31
0.0
  0
LINE
  5
121
330
1F
100
AcDbEntity
  8
0
  6
CONTINUOUS
 62
     7
100
AcDbLine
 10
1093.0040145444
 20
762.1126831185
 30
0.0
 11
1093.0040145444
 21
814.1126804661
 31
0.0
  0
LINE
  5
122
330
1F
100
AcDbEntity
  8
0
  6
CONTINUOUS
 62
     7
100
AcDbLine
 10
1093.0040145444
 20
814.1126804661
 30
0.0
 11
1079.0040141123
 21
814.1126804661
 31
0.0
  0
LINE
  5
123
330
1F
100
AcDbEntity
  8
0
  6
CONTINUOUS
 62
     7
100
AcDbLine
 10
1079.0040141123
 20
862.1126808833
 30
0.0
 11
1079.0040141123
 21
814.1126804661
 31
0.0
  0
LINE
  5
124
330
1F
100
AcDbEntity
  8
0
  6
CONTINUOUS
 62
     7
100
AcDbLine
 10
1079.0040141123
 20
862.1126808833
 30
0.0
 11
1093.0040145444
 21
862.1126808833
 31
0.0
  0
LINE
  5
125
330
1F
100
AcDbEntity
  8
0
  6
CONTINUOUS
 62
     7
100
AcDbLine
 10
1093.0040145444
 20
862.1126808833
 30
0.0
 11
1093.0040145444
 21
914.1126782309
 31
0.0
  0
LINE
  5
126
330
1F
100
AcDbEntity
  8
0
  6
CONTINUOUS
 62
     7
100
AcDbLine
 10
1093.0040145444
 20
914.1126782309
 30
0.0
 11
1079.0040141123
 21
914.1126782309
 31
0.0
  0
LINE
  5
127
330
1F
100
AcDbEntity
  8
0
  6
CONTINUOUS
 62
     7
100
AcDbLine
 10
1079.0040141123
 20
935.1202905785
 30
0.0
 11
1079.0040141123
 21
914.1126782309
 31
0.0
  0
LINE
  5
128
330
1F
100
AcDbEntity
  8
0
  6
CONTINUOUS
 62
     7
100
AcDbLine
 10
1102.8154755162
 20
933.0370560895
 30
0.0
 11
1079.0040141123
 21
935.1202905785
 31
0.0
  0
LWPOLYLINE
  5
129
330
1F
100
AcDbEntity
  8
0
  6
CONTINUOUS
 62
     7
100
AcDbPolyline
 90
        5
 70
   128
 43
0.0
 10
1104.9186961876
 20
907.0328012716
 10
1104.6370865928
 20
910.5127812039
 10
1104.0296705591
 20
918.0208504807
 10
1103.4224668669
 20
925.5289495598
 10
1102.8154755162
 20
933.0370560895
  0
LINE
  5
12A
330
1F
100
AcDbEntity
  8
0
  6
CONTINUOUS
 62
     7
100
AcDbLine
 10
1104.9186961876
 20
769.1925600778
 30
0.0
 11
1104.9186961876
 21
907.0328012716
 31
0.0
  0
LINE
  5
12B
330
1F
100
AcDbEntity
  8
0
  6
CONTINUOUS
 62
     7
100
AcDbLine
 10
1079.0040141123
 20
937.1126801383
 30
0.0
 11
1102.8154755162
 21
935.0294456493
 31
0.0
  0
ARC
  5
12C
330
1F
100
AcDbEntity
  8
0
  6
CONTINUOUS
 62
     7
100
AcDbCircle
 10
1097.0498378403
 20
934.0332508694
 30
0.0
 40
5.851066727463515
100
AcDbArc
 50
350.1971415762
 51
9.8028584238
  0
LINE
  5
12D
330
1F
100
AcDbEntity
  8
0
  6
CONTINUOUS
 62
     7
100
AcDbLine
 10
1079.0040141123
 20
935.1202905785
 30
0.0
 11
1079.0040141123
 21
937.1126801383
 31
0.0
  0
ARC
  5
12E
330
1F
100
AcDbEntity
  8
0
  6
CONTINUOUS
 62
     7
100
AcDbCircle
 10
1097.0849117671
 20
1008.5543996466
 30
0.0
 40
75.73446070840998
100
AcDbArc
 50
274.3395204176
 51
275.7163948335
  0
ARC
  5
12F
330
1F
100
AcDbEntity
  8
0
  6
CONTINUOUS
 62
     7
100
AcDbCircle
 10
1102.6390269684
 20
933.0418825149
 30
0.0
 40
1.9953799897149
100
AcDbArc
 50
4.4458493079
 51
84.926791165
  0
ARC
  5
130
330
1F
100
AcDbEntity
  8
0
  6
CONTINUOUS
 62
     7
100
AcDbCircle
 10
1102.6390269684
 20
743.1834788345
 30
0.0
 40
1.9953799897149
100
AcDbArc
 50
275.073208835
 51
355.5541506921
  0
ARC
  5
131
330
1F
100
AcDbEntity
  8
0
  6
CONTINUOUS
 62
     7
100
AcDbCircle
 10
1097.0849117671
 20
667.6709617026
 30
0.0
 40
75.73446070861495
100
AcDbArc
 50
84.2836051665
 51
85.6604795824
  0
LINE
  5
132
330
1F
100
AcDbEntity
  8
0
  6
CONTINUOUS
 62
     7
100
AcDbLine
 10
1106.7367738264
 20
769.1126824032
 30
0.0
 11
1106.7368706839
 21
769.1126824032
 31
0.0
  0
LWPOLYLINE
  5
133
330
1F
100
AcDbEntity
  8
0
  6
CONTINUOUS
 62
     7
100
AcDbPolyline
 90
        4
 70
   128
 43
0.0
 10
1106.7368706839
 20
769.1126824032
 10
1106.4144337701
 20
765.1257798683
 10
1105.7697294431
 20
757.1519747983
 10
1104.6284029411
 20
743.0288032304
  0
SPLINE
  5
134
330
1F
100
AcDbEntity
  8
0
  6
CONTINUOUS
 62
     7
100
AcDbSpline
210
0.0
220
0.0
230
1.0
 70
     8
 71
     3
 72
    16
 73
    12
 74
     0
 42
0.00000001
 43
0.00000001
 12
1.0
 22
0.0
 32
0.0
 13
1.0
 23
0.0
 33
0.0
 40
0.0
 40
0.0
 40
0.0
 40
0.0
 40
0.2500000000000031
 40
0.2500000000000031
 40
0.5000000000000062
 40
0.5000000000000062
 40
0.7500000000000093
 40
0.7500000000000093
 40
0.8750000000000047
 40
0.8750000000000047
 40
1.0
 40
1.0
 40
1.0
 40
1.0
 10
1106.736773283099
 20
769.1126846293132
 30
0.0
 10
1106.71627630856
 20
769.11434071113
 30
0.0
 10
1106.655904303735
 20
769.1175740729299
 30
0.0
 10
1106.457381817926
 20
769.127097069433
 30
0.0
 10
1106.323250939215
 20
769.1331913830503
 30
0.0
 10
1105.991855417703
 20
769.1477486986389
 30
0.0
 10
1105.799720478381
 20
769.1559848043958
 30
0.0
 10
1105.482051821399
 20
769.1693403020402
 30
0.0
 10
1105.373255516371
 20
769.1738747714166
 30
0.0
 10
1105.150033139159
 20
769.1831037598951
 30
0.0
 10
1105.034084180468
 20
769.187860181663
 30
0.0
 10
1104.918695372412
 20
769.1925573450337
 30
0.0
  0
LWPOLYLINE
  5
135
330
1F
100
AcDbEntity
  8
0
  6
CONTINUOUS
 62
     7
100
AcDbPolyline
 90
        4
 70
   128
 43
0.0
 10
1104.6284029411
 20
933.196558119
 10
1104.9505232053
 20
929.2096332323
 10
1105.5949332344
 20
921.23579836
 10
1106.7368706839
 20
907.1126789462
  0
LINE
  5
136
330
1F
100
AcDbEntity
  8
0
  6
CONTINUOUS
 62
     7
100
AcDbLine
 10
1106.7368706839
 20
907.1126789462
 30
0.0
 11
1106.7367738264
 21
907.1126789462
 31
0.0
  0
SPLINE
  5
137
330
1F
100
AcDbEntity
  8
0
  6
CONTINUOUS
 62
     7
100
AcDbSpline
210
0.0
220
0.0
230
1.0
 70
     8
 71
     3
 72
    16
 73
    12
 74
     0
 42
0.00000001
 43
0.00000001
 12
1.0
 22
0.0
 32
0.0
 13
1.0
 23
0.0
 33
0.0
 40
0.0
 40
0.0
 40
0.0
 40
0.0
 40
0.2499999999999978
 40
0.2499999999999978
 40
0.4999999999999957
 40
0.4999999999999957
 40
0.7499999999999936
 40
0.7499999999999936
 40
0.8749999999999968
 40
0.8749999999999968
 40
1.0
 40
1.0
 40
1.0
 40
1.0
 10
1106.736773283099
 20
907.1126767200743
 30
0.0
 10
1106.71627630856
 20
907.1110206382574
 30
0.0
 10
1106.655904303735
 20
907.1077872764577
 30
0.0
 10
1106.457381817926
 20
907.0982642799545
 30
0.0
 10
1106.323250939215
 20
907.092169966338
 30
0.0
 10
1105.991855417703
 20
907.0776126507494
 30
0.0
 10
1105.799720478381
 20
907.0693765449919
 30
0.0
 10
1105.482051821399
 20
907.056021047348
 30
0.0
 10
1105.373255516371
 20
907.0514865779694
 30
0.0
 10
1105.150033139159
 20
907.0422575894903
 30
0.0
 10
1105.034084180475
 20
907.0375011675552
 30
0.0
 10
1104.918695372412
 20
907.0328040043539
 30
0.0
  0
LINE
  5
138
330
1F
100
AcDbEntity
  8
0
  6
CONTINUOUS
 62
     7
100
AcDbLine
 10
1106.7367738264
 20
907.1126789462
 30
0.0
 11
1106.7367738264
 21
769.1126824032
 31
0.0
  0
LINE
  5
139
330
1F
100
AcDbEntity
  8
0
  6
CONTINUOUS
 62
     7
100
AcDbLine
 10
1108.9887639659
 20
769.1126824032
 30
0.0
 11
1106.7368706839
 21
769.1126824032
 31
0.0
  0
SPLINE
  5
13A
330
1F
100
AcDbEntity
  8
0
  6
CONTINUOUS
 62
     7
100
AcDbSpline
210
0.0
220
0.0
230
1.0
 70
     8
 71
     3
 72
    10
 73
     6
 74
     0
 42
0.00000001
 43
0.00000001
 12
1.0
 22
0.0
 32
0.0
 13
1.0
 23
0.0
 33
0.0
 40
0.0
 40
0.0
 40
0.0
 40
0.0
 40
0.5
 40
0.5
 40
1.0
 40
1.0
 40
1.0
 40
1.0
 10
1108.988763833348
 20
768.9383691891985
 30
0.0
 10
1108.992895238192
 20
768.9855913626578
 30
0.0
 10
1108.996379407137
 20
769.0357079832542
 30
0.0
 10
1108.996382974649
 20
769.1023491949206
 30
0.0
 10
1108.992895058258
 20
769.1126806746938
 30
0.0
 10
1108.988763833348
 20
769.1126806746938
 30
0.0
  0
LINE
  5
13B
330
1F
100
AcDbEntity
  8
0
  6
CONTINUOUS
 62
     7
100
AcDbLine
 10
1108.9887639659
 20
768.9383686196
 30
0.0
 11
1106.7368706839
 21
743.1991160523
 31
0.0
  0
LWPOLYLINE
  5
13C
330
1F
100
AcDbEntity
  8
0
  6
CONTINUOUS
 62
     7
100
AcDbPolyline
 90
        4
 70
   128
 43
0.0
 10
1104.6284029411
 20
743.0288032304
 10
1104.9505232053
 20
743.0548206579
 10
1105.5949332344
 20
743.1068704139
 10
1106.7368706839
 20
743.1991160523
  0
LWPOLYLINE
  5
13D
330
1F
100
AcDbEntity
  8
0
  6
CONTINUOUS
 62
     7
100
AcDbPolyline
 90
        4
 70
   128
 43
0.0
 10
1106.7368706839
 20
933.0262452971
 10
1106.4144337701
 20
933.0522925269
 10
1105.7697294431
 20
933.1043720852
 10
1104.6284029411
 20
933.196558119
  0
LINE
  5
13E
330
1F
100
AcDbEntity
  8
0
  6
CONTINUOUS
 62
     7
100
AcDbLine
 10
1108.9887639659
 20
907.2869927298
 30
0.0
 11
1106.7368706839
 21
933.0262452971
 31
0.0
  0
SPLINE
  5
13F
330
1F
100
AcDbEntity
  8
0
  6
CONTINUOUS
 62
     7
100
AcDbSpline
210
0.0
220
0.0
230
1.0
 70
     8
 71
     3
 72
    10
 73
     6
 74
     0
 42
0.00000001
 43
0.00000001
 12
1.0
 22
0.0
 32
0.0
 13
1.0
 23
0.0
 33
0.0
 40
0.0
 40
0.0
 40
0.0
 40
0.0
 40
0.5
 40
0.5
 40
1.0
 40
1.0
 40
1.0
 40
1.0
 10
1108.988763833348
 20
907.1126806746937
 30
0.0
 10
1108.992895238192
 20
907.1126806746937
 30
0.0
 10
1108.996379407137
 20
907.1229790853484
 30
0.0
 10
1108.996382974649
 20
907.1895795258113
 30
0.0
 10
1108.992895058258
 20
907.2397720433934
 30
0.0
 10
1108.988763833348
 20
907.2869921601892
 30
0.0
  0
LINE
  5
140
330
1F
100
AcDbEntity
  8
0
  6
CONTINUOUS
 62
     7
100
AcDbLine
 10
1108.9887639659
 20
907.1126789462
 30
0.0
 11
1106.7368706839
 21
907.1126789462
 31
0.0
  0
LINE
  5
141
330
1F
100
AcDbEntity
  8
0
  6
CONTINUOUS
 62
     7
100
AcDbLine
 10
1106.7368706839
 20
743.1991160523
 30
0.0
 11
1106.7367738264
 21
743.1979984652
 31
0.0
  0
SPLINE
  5
142
330
1F
100
AcDbEntity
  8
0
  6
CONTINUOUS
 62
     7
100
AcDbSpline
210
0.0
220
0.0
230
1.0
 70
     8
 71
     3
 72
    16
 73
    12
 74
     0
 42
0.00000001
 43
0.00000001
 12
1.0
 22
0.0
 32
0.0
 13
1.0
 23
0.0
 33
0.0
 40
0.0
 40
0.0
 40
0.0
 40
0.0
 40
0.2500000000000008
 40
0.2500000000000008
 40
0.5000000000000017
 40
0.5000000000000017
 40
0.7500000000000024
 40
0.7500000000000024
 40
0.8750000000000012
 40
0.8750000000000012
 40
1.0
 40
1.0
 40
1.0
 40
1.0
 10
1106.736773283099
 20
743.1979994145337
 30
0.0
 10
1106.71627630856
 20
742.9637179235085
 30
0.0
 10
1106.655904303735
 20
742.7389428959005
 30
0.0
 10
1106.457381817926
 20
742.3136780926186
 30
0.0
 10
1106.323250939215
 20
742.1225071626615
 30
0.0
 10
1105.991855417702
 20
741.7916005120542
 30
0.0
 10
1105.799720478379
 20
741.6574288689942
 30
0.0
 10
1105.482051821398
 20
741.5096555524542
 30
0.0
 10
1105.373255516369
 20
741.4702408409806
 30
0.0
 10
1105.150033139158
 20
741.4104753513617
 30
0.0
 10
1105.034084180467
 20
741.390016716448
 30
0.0
 10
1104.91869537241
 20
741.3799215038454
 30
0.0
  0
LWPOLYLINE
  5
143
330
1F
100
AcDbEntity
  8
0
  6
CONTINUOUS
 62
     7
100
AcDbPolyline
 90
        5
 70
   128
 43
0.0
 10
1104.9186961876
 20
741.3799226891
 10
1104.6370865928
 20
741.3552836191
 10
1104.0296705591
 20
741.3021386277
 10
1103.4224668669
 20
741.249015988
 10
1102.8154755162
 20
741.1959157001
  0
LINE
  5
144
330
1F
100
AcDbEntity
  8
0
  6
CONTINUOUS
 62
     7
100
AcDbLine
 10
1106.7368706839
 20
933.0262452971
 30
0.0
 11
1106.7367738264
 21
933.0273628842
 31
0.0
  0
SPLINE
  5
145
330
1F
100
AcDbEntity
  8
0
  6
CONTINUOUS
 62
     7
100
AcDbSpline
210
0.0
220
0.0
230
1.0
 70
     8
 71
     3
 72
    16
 73
    12
 74
     0
 42
0.00000001
 43
0.00000001
 12
1.0
 22
0.0
 32
0.0
 13
1.0
 23
0.0
 33
0.0
 40
0.0
 40
0.0
 40
0.0
 40
0.0
 40
0.2500000000000017
 40
0.2500000000000017
 40
0.5000000000000034
 40
0.5000000000000034
 40
0.7500000000000051
 40
0.7500000000000051
 40
0.8750000000000026
 40
0.8750000000000026
 40
1.0
 40
1.0
 40
1.0
 40
1.0
 10
1106.736773283099
 20
933.027361934854
 30
0.0
 10
1106.71627630856
 20
933.261643425879
 30
0.0
 10
1106.655904303735
 20
933.4864184534869
 30
0.0
 10
1106.457381817926
 20
933.9116832567688
 30
0.0
 10
1106.323250939215
 20
934.102854186726
 30
0.0
 10
1105.991855417702
 20
934.4337608373332
 30
0.0
 10
1105.79972047838
 20
934.5679324803932
 30
0.0
 10
1105.482051821398
 20
934.7157057969332
 30
0.0
 10
1105.373255516369
 20
934.7551205084068
 30
0.0
 10
1105.150033139158
 20
934.8148859980257
 30
0.0
 10
1105.034084180468
 20
934.8353446329393
 30
0.0
 10
1104.91869537241
 20
934.845439845542
 30
0.0
  0
LWPOLYLINE
  5
146
330
1F
100
AcDbEntity
  8
0
  6
CONTINUOUS
 62
     7
100
AcDbPolyline
 90
        5
 70
   128
 43
0.0
 10
1102.8154755162
 20
935.0294456493
 10
1103.4224668669
 20
934.9763453614
 10
1104.0296705591
 20
934.9232227217
 10
1104.6370865928
 20
934.8700777303
 10
1104.9186961876
 20
934.8454386603
  0
LINE
  5
147
330
1F
100
AcDbEntity
  8
0
  6
CONTINUOUS
 62
     7
100
AcDbLine
 10
1108.9964026736
 20
907.0253581416
 30
0.0
 11
1108.9887639659
 21
907.1126789462
 31
0.0
  0
LINE
  5
148
330
1F
100
AcDbEntity
  8
0
  6
CONTINUOUS
 62
     7
100
AcDbLine
 10
1108.9964026736
 20
769.2000032078
 30
0.0
 11
1108.9964026736
 21
907.0253581416
 31
0.0
  0
LINE
  5
149
330
1F
100
AcDbEntity
  8
0
  6
CONTINUOUS
 62
     7
100
AcDbLine
 10
1108.9887639659
 20
769.1126824032
 30
0.0
 11
1108.9964026736
 21
769.2000032078
 31
0.0
  0
ARC
  5
14A
330
1F
100
AcDbEntity
  8
0
  6
CONTINUOUS
 62
     7
100
AcDbCircle
 10
1107.9974080579
 20
769.112846316
 30
0.0
 40
1.002789392691574
100
AcDbArc
 50
355.0138775299
 51
4.9861224701
  0
LINE
  5
14B
330
1F
100
AcDbEntity
  8
0
  6
CONTINUOUS
 62
     7
100
AcDbLine
 10
1108.9964026736
 20
769.0256894242
 30
0.0
 11
1108.9887639659
 21
768.9383686196
 31
0.0
  0
LINE
  5
14C
330
1F
100
AcDbEntity
  8
0
  6
CONTINUOUS
 62
     7
100
AcDbLine
 10
1108.9887639659
 20
907.2869927298
 30
0.0
 11
1108.9964026736
 21
907.1996719252
 31
0.0
  0
ARC
  5
14D
330
1F
100
AcDbEntity
  8
0
  6
CONTINUOUS
 62
     7
100
AcDbCircle
 10
1107.9974080579
 20
907.1125150334
 30
0.0
 40
1.002789392689968
100
AcDbArc
 50
355.0138775299
 51
4.9861224701
  0
LINE
  5
14E
330
1F
100
AcDbEntity
  8
0
  6
CONTINUOUS
 62
     7
100
AcDbLine
 10
1108.9964026736
 20
769.2000032078
 30
0.0
 11
1109.0040134417
 21
769.2000032078
 31
0.0
  0
ARC
  5
14F
330
1F
100
AcDbEntity
  8
0
  6
CONTINUOUS
 62
     7
100
AcDbCircle
 10
1107.0040141123
 20
769.2000025605
 30
0.0
 40
2.000000000000133
100
AcDbArc
 50
355.0
 51
0.0
  0
ARC
  5
150
330
1F
100
AcDbEntity
  8
0
  6
CONTINUOUS
 62
     7
100
AcDbCircle
 10
1107.0040141123
 20
907.0253587889
 30
0.0
 40
2.000000000000133
100
AcDbArc
 50
0.0
 51
5.0
  0
LINE
  5
151
330
1F
100
AcDbEntity
  8
0
  6
CONTINUOUS
 62
     7
100
AcDbLine
 10
1109.0040134417
 20
907.0253581416
 30
0.0
 11
1108.9964026736
 21
907.0253581416
 31
0.0
  0
LINE
  5
152
330
1F
100
AcDbEntity
  8
0
  6
CONTINUOUS
 62
     7
100
AcDbLine
 10
1109.0040134417
 20
907.0253581416
 30
0.0
 11
1109.0040134417
 21
769.2000032078
 31
0.0
  0
LINE
  5
153
330
1F
100
AcDbEntity
  8
0
  6
CONTINUOUS
 62
     7
100
AcDbLine
 10
1079.0040141123
 20
914.1126782309
 30
0.0
 11
1079.0040141123
 21
862.1126808833
 31
0.0
  0
LINE
  5
154
330
1F
100
AcDbEntity
  8
0
  6
CONTINUOUS
 62
     7
100
AcDbLine
 10
1079.0040141123
 20
814.1126804661
 30
0.0
 11
1079.0040141123
 21
762.1126831185
 31
0.0
  0
LINE
  5
155
330
1F
100
AcDbEntity
  8
0
  6
CONTINUOUS
 62
     7
100
AcDbLine
 10
977.8591922446
 20
646.0998000584
 30
0.0
 11
979.8515818044
 21
646.0998000584
 31
0.0
  0
LINE
  5
156
330
1F
100
AcDbEntity
  8
0
  6
CONTINUOUS
 62
     7
100
AcDbLine
 10
979.8515818044
 20
646.0998000584
 30
0.0
 11
977.7683398648
 21
622.2883386545
 31
0.0
  0
ARC
  5
157
330
1F
100
AcDbEntity
  8
0
  6
CONTINUOUS
 62
     7
100
AcDbCircle
 10
976.772145085
 20
628.0539479429
 30
0.0
 40
5.85103875452254
100
AcDbArc
 50
260.1970942474
 51
279.8029057526
  0
LINE
  5
158
330
1F
100
AcDbEntity
  8
0
  6
CONTINUOUS
 62
     7
100
AcDbLine
 10
975.7759503051
 20
622.2883386545
 30
0.0
 11
977.8591922446
 21
646.0998000584
 31
0.0
  0
LINE
  5
159
330
1F
100
AcDbEntity
  8
0
  6
CONTINUOUS
 62
     7
100
AcDbLine
 10
683.8439634963
 20
646.0998000584
 30
0.0
 11
685.9272054358
 21
622.2883386545
 31
0.0
  0
ARC
  5
15A
330
1F
100
AcDbEntity
  8
0
  6
CONTINUOUS
 62
     7
100
AcDbCircle
 10
684.931010656
 20
628.0539479429
 30
0.0
 40
5.851038754521849
100
AcDbArc
 50
260.1970942474
 51
279.8029057526
  0
LINE
  5
15B
330
1F
100
AcDbEntity
  8
0
  6
CONTINUOUS
 62
     7
100
AcDbLine
 10
683.9348158761
 20
622.2883386545
 30
0.0
 11
681.8515739366
 21
646.0998000584
 31
0.0
  0
LINE
  5
15C
330
1F
100
AcDbEntity
  8
0
  6
CONTINUOUS
 62
     7
100
AcDbLine
 10
681.8515739366
 20
646.0998000584
 30
0.0
 11
683.8439634963
 21
646.0998000584
 31
0.0
  0
LWPOLYLINE
  5
15D
330
1F
100
AcDbEntity
  8
0
  6
CONTINUOUS
 62
     7
100
AcDbPolyline
 90
        5
 70
   128
 43
0.0
 10
685.9272054358
 20
622.2883386545
 10
693.435304515
 20
621.6813473038
 10
700.9434035941
 20
621.0741436116
 10
708.4514803215
 20
620.4667275779
 10
711.9314528032
 20
620.185117983
  0
LWPOLYLINE
  5
15E
330
1F
100
AcDbEntity
  8
0
  6
CONTINUOUS
 62
     7
100
AcDbPolyline
 90
        5
 70
   128
 43
0.0
 10
949.7717029377
 20
620.185117983
 10
953.2516754194
 20
620.4667275779
 10
960.7597521468
 20
621.0741436116
 10
968.2678512259
 20
621.6813473038
 10
975.7759503051
 20
622.2883386545
  0
LINE
  5
15F
330
1F
100
AcDbEntity
  8
0
  6
CONTINUOUS
 62
     7
100
AcDbLine
 10
711.9314528032
 20
620.185117983
 30
0.0
 11
949.7717029377
 21
620.185117983
 31
0.0
  0
LINE
  5
160
330
1F
100
AcDbEntity
  8
0
  6
CONTINUOUS
 62
     7
100
AcDbLine
 10
683.8439634963
 20
646.0998000584
 30
0.0
 11
977.8591922446
 21
646.0998000584
 31
0.0
  0
ARC
  5
161
330
1F
100
AcDbEntity
  8
0
  6
CONTINUOUS
 62
     7
100
AcDbCircle
 10
975.7807770759
 20
622.464786853
 30
0.0
 40
1.995379614710361
100
AcDbArc
 50
274.4458401952
 51
354.9268002777
  0
ARC
  5
162
330
1F
100
AcDbEntity
  8
0
  6
CONTINUOUS
 62
     7
100
AcDbCircle
 10
1051.4104085316
 20
628.0292061958
 30
0.0
 40
75.8520192964595
100
AcDbArc
 50
184.3405874372
 51
185.7153278139
  0
ARC
  5
163
330
1F
100
AcDbEntity
  8
0
  6
CONTINUOUS
 62
     7
100
AcDbCircle
 10
685.9223786651
 20
622.464786853
 30
0.0
 40
1.995379614710303
100
AcDbArc
 50
185.0731997223
 51
265.5541598048
  0
ARC
  5
164
330
1F
100
AcDbEntity
  8
0
  6
CONTINUOUS
 62
     7
100
AcDbCircle
 10
610.2927472097
 20
628.0292061958
 30
0.0
 40
75.85201929608063
100
AcDbArc
 50
354.2846721861
 51
355.6594125628
  0
LINE
  5
165
330
1F
100
AcDbEntity
  8
0
  6
CONTINUOUS
 62
     7
100
AcDbLine
 10
711.8515751287
 20
618.3669434867
 30
0.0
 11
711.8515751287
 21
618.3670403443
 31
0.0
  0
LWPOLYLINE
  5
166
330
1F
100
AcDbEntity
  8
0
  6
CONTINUOUS
 62
     7
100
AcDbPolyline
 90
        4
 70
   128
 43
0.0
 10
711.8515751287
 20
618.3669434867
 10
707.8646800443
 20
618.6893804006
 10
699.8908749743
 20
619.3340847276
 10
685.7677034064
 20
620.4754112295
  0
SPLINE
  5
167
330
1F
100
AcDbEntity
  8
0
  6
CONTINUOUS
 62
     7
100
AcDbSpline
210
0.0
220
0.0
230
1.0
 70
     8
 71
     3
 72
    16
 73
    12
 74
     0
 42
0.00000001
 43
0.00000001
 12
1.0
 22
0.0
 32
0.0
 13
1.0
 23
0.0
 33
0.0
 40
0.0
 40
0.0
 40
0.0
 40
0.0
 40
0.2500000000000017
 40
0.2500000000000017
 40
0.5000000000000034
 40
0.5000000000000034
 40
0.7500000000000051
 40
0.7500000000000051
 40
0.8750000000000026
 40
0.8750000000000026
 40
1.0
 40
1.0
 40
1.0
 40
1.0
 10
711.8515818250843
 20
618.3670408875679
 30
0.0
 10
711.8532379069012
 20
618.3875378621066
 30
0.0
 10
711.8564712687013
 20
618.4479098669322
 30
0.0
 10
711.8659942652043
 20
618.6464323527413
 30
0.0
 10
711.8720885788216
 20
618.7805632314522
 30
0.0
 10
711.8866458944101
 20
619.1119587529649
 30
0.0
 10
711.8948820001672
 20
619.3040936922872
 30
0.0
 10
711.9082374978115
 20
619.621762349269
 30
0.0
 10
711.9127719671905
 20
619.7305586542975
 30
0.0
 10
711.9220009556693
 20
619.9537810315089
 30
0.0
 10
711.9267573774614
 20
620.0697299901993
 30
0.0
 10
711.9314545408049
 20
620.1851187982564
 30
0.0
  0
LWPOLYLINE
  5
168
330
1F
100
AcDbEntity
  8
0
  6
CONTINUOUS
 62
     7
100
AcDbPolyline
 90
        4
 70
   128
 43
0.0
 10
975.9354523345
 20
620.4754112295
 10
971.9485274478
 20
620.1532909654
 10
963.9746925756
 20
619.5088809363
 10
949.8515806123
 20
618.3669434867
  0
LINE
  5
169
330
1F
100
AcDbEntity
  8
0
  6
CONTINUOUS
 62
     7
100
AcDbLine
 10
949.8515806123
 20
618.3669434867
 30
0.0
 11
949.8515806123
 21
618.3670403443
 31
0.0
  0
SPLINE
  5
16A
330
1F
100
AcDbEntity
  8
0
  6
CONTINUOUS
 62
     7
100
AcDbSpline
210
0.0
220
0.0
230
1.0
 70
     8
 71
     3
 72
    16
 73
    12
 74
     0
 42
0.00000001
 43
0.00000001
 12
1.0
 22
0.0
 32
0.0
 13
1.0
 23
0.0
 33
0.0
 40
0.0
 40
0.0
 40
0.0
 40
0.0
 40
0.2500000000000001
 40
0.2500000000000001
 40
0.5000000000000002
 40
0.5000000000000002
 40
0.7500000000000003
 40
0.7500000000000003
 40
0.8750000000000001
 40
0.8750000000000001
 40
1.0
 40
1.0
 40
1.0
 40
1.0
 10
949.8515739158457
 20
618.3670408875679
 30
0.0
 10
949.8499178340287
 20
618.3875378621066
 30
0.0
 10
949.846684472229
 20
618.4479098669322
 30
0.0
 10
949.8371614757259
 20
618.6464323527412
 30
0.0
 10
949.8310671621086
 20
618.7805632314521
 30
0.0
 10
949.8165098465201
 20
619.1119587529649
 30
0.0
 10
949.8082737407633
 20
619.3040936922872
 30
0.0
 10
949.7949182431191
 20
619.6217623492688
 30
0.0
 10
949.7903837737392
 20
619.7305586542974
 30
0.0
 10
949.78115478526
 20
619.9537810315088
 30
0.0
 10
949.7763983635059
 20
620.0697299902006
 30
0.0
 10
949.7717012001252
 20
620.1851187982563
 30
0.0
  0
LINE
  5
16B
330
1F
100
AcDbEntity
  8
0
  6
CONTINUOUS
 62
     7
100
AcDbLine
 10
949.8515806123
 20
618.3670403443
 30
0.0
 11
711.8515751287
 21
618.3670403443
 31
0.0
  0
LINE
  5
16C
330
1F
100
AcDbEntity
  8
0
  6
CONTINUOUS
 62
     7
100
AcDbLine
 10
975.7662645503
 20
618.3670403443
 30
0.0
 11
975.7651469632
 21
618.3669434867
 31
0.0
  0
LWPOLYLINE
  5
16D
330
1F
100
AcDbEntity
  8
0
  6
CONTINUOUS
 62
     7
100
AcDbPolyline
 90
        4
 70
   128
 43
0.0
 10
975.7651469632
 20
618.3669434867
 10
975.791194193
 20
618.6893804006
 10
975.8432737514
 20
619.3340847276
 10
975.9354523345
 20
620.4754112295
  0
SPLINE
  5
16E
330
1F
100
AcDbEntity
  8
0
  6
CONTINUOUS
 62
     7
100
AcDbSpline
210
0.0
220
0.0
230
1.0
 70
     8
 71
     3
 72
    16
 73
    12
 74
     0
 42
0.00000001
 43
0.00000001
 12
1.0
 22
0.0
 32
0.0
 13
1.0
 23
0.0
 33
0.0
 40
0.0
 40
0.0
 40
0.0
 40
0.0
 40
0.249999999999997
 40
0.249999999999997
 40
0.499999999999994
 40
0.499999999999994
 40
0.749999999999991
 40
0.749999999999991
 40
0.8749999999999954
 40
0.8749999999999954
 40
1.0
 40
1.0
 40
1.0
 40
1.0
 10
975.7662591306251
 20
618.3670408875679
 30
0.0
 10
976.0005406216499
 20
618.3875378621066
 30
0.0
 10
976.2253156492573
 20
618.4479098669319
 30
0.0
 10
976.6505804525385
 20
618.6464323527404
 30
0.0
 10
976.8417513824954
 20
618.7805632314509
 30
0.0
 10
977.1726580331026
 20
619.1119587529627
 30
0.0
 10
977.3068296761625
 20
619.3040936922839
 30
0.0
 10
977.4546029927033
 20
619.6217623492655
 30
0.0
 10
977.4940177041768
 20
619.7305586542943
 30
0.0
 10
977.5537831937968
 20
619.9537810315076
 30
0.0
 10
977.5742418287103
 20
620.069729990196
 30
0.0
 10
977.5843370413132
 20
620.1851187982552
 30
0.0
  0
LWPOLYLINE
  5
16F
330
1F
100
AcDbEntity
  8
0
  6
CONTINUOUS
 62
     7
100
AcDbPolyline
 90
        5
 70
   128
 43
0.0
 10
977.7683398648
 20
622.2883386545
 10
977.7152470275
 20
621.6813473038
 10
977.6621094867
 20
621.0741436116
 10
977.6089719459
 20
620.4667275779
 10
977.5843403264
 20
620.185117983
  0
LINE
  5
170
330
1F
100
AcDbEntity
  8
0
  6
CONTINUOUS
 62
     7
100
AcDbLine
 10
950.0258869453
 20
616.1150502048
 30
0.0
 11
975.7651469632
 21
618.3669434867
 31
0.0
  0
SPLINE
  5
171
330
1F
100
AcDbEntity
  8
0
  6
CONTINUOUS
 62
     7
100
AcDbSpline
210
0.0
220
0.0
230
1.0
 70
     8
 71
     3
 72
    10
 73
     6
 74
     0
 42
0.00000001
 43
0.00000001
 12
1.0
 22
0.0
 32
0.0
 13
1.0
 23
0.0
 33
0.0
 40
0.0
 40
0.0
 40
0.0
 40
0.0
 40
0.5
 40
0.5
 40
1.0
 40
1.0
 40
1.0
 40
1.0
 10
949.851577870465
 20
616.1150503373194
 30
0.0
 10
949.851577870465
 20
616.1109189324746
 30
0.0
 10
949.8618762811195
 20
616.1074347635296
 30
0.0
 10
949.9284767215825
 20
616.1074311960176
 30
0.0
 10
949.9786692391646
 20
616.1109191124094
 30
0.0
 10
950.0258893559603
 20
616.1150503373194
 30
0.0
  0
LINE
  5
172
330
1F
100
AcDbEntity
  8
0
  6
CONTINUOUS
 62
     7
100
AcDbLine
 10
949.8515806123
 20
616.1150502048
 30
0.0
 11
949.8515806123
 21
618.3669434867
 31
0.0
  0
LWPOLYLINE
  5
173
330
1F
100
AcDbEntity
  8
0
  6
CONTINUOUS
 62
     7
100
AcDbPolyline
 90
        4
 70
   128
 43
0.0
 10
685.7677034064
 20
620.4754112295
 10
685.7937208339
 20
620.1532909654
 10
685.8457705899
 20
619.5088809363
 10
685.9380087777
 20
618.3669434867
  0
LINE
  5
174
330
1F
100
AcDbEntity
  8
0
  6
CONTINUOUS
 62
     7
100
AcDbLine
 10
685.9380087777
 20
618.3669434867
 30
0.0
 11
685.9368911906
 21
618.3670403443
 31
0.0
  0
SPLINE
  5
175
330
1F
100
AcDbEntity
  8
0
  6
CONTINUOUS
 62
     7
100
AcDbSpline
210
0.0
220
0.0
230
1.0
 70
     8
 71
     3
 72
    16
 73
    12
 74
     0
 42
0.00000001
 43
0.00000001
 12
1.0
 22
0.0
 32
0.0
 13
1.0
 23
0.0
 33
0.0
 40
0.0
 40
0.0
 40
0.0
 40
0.0
 40
0.2499999999999978
 40
0.2499999999999978
 40
0.4999999999999957
 40
0.4999999999999957
 40
0.7499999999999936
 40
0.7499999999999936
 40
0.8749999999999968
 40
0.8749999999999968
 40
1.0
 40
1.0
 40
1.0
 40
1.0
 10
685.936896610305
 20
618.3670408875679
 30
0.0
 10
685.7026151192799
 20
618.3875378621066
 30
0.0
 10
685.4778400916722
 20
618.447909866932
 30
0.0
 10
685.0525752883906
 20
618.6464323527409
 30
0.0
 10
684.8614043584333
 20
618.7805632314518
 30
0.0
 10
684.5304977078262
 20
619.1119587529643
 30
0.0
 10
684.3963260647662
 20
619.3040936922863
 30
0.0
 10
684.2485527482261
 20
619.6217623492677
 30
0.0
 10
684.2091380367525
 20
619.7305586542963
 30
0.0
 10
684.1493725471333
 20
619.9537810315074
 30
0.0
 10
684.1289139122201
 20
620.0697299901918
 30
0.0
 10
684.1188186996168
 20
620.1851187982547
 30
0.0
  0
LWPOLYLINE
  5
176
330
1F
100
AcDbEntity
  8
0
  6
CONTINUOUS
 62
     7
100
AcDbPolyline
 90
        5
 70
   128
 43
0.0
 10
684.1188154145
 20
620.185117983
 10
684.0941837951
 20
620.4667275779
 10
684.0410462543
 20
621.0741436116
 10
683.9879087134
 20
621.6813473038
 10
683.9348158761
 20
622.2883386545
  0
LINE
  5
177
330
1F
100
AcDbEntity
  8
0
  6
CONTINUOUS
 62
     7
100
AcDbLine
 10
711.8515751287
 20
616.1150502048
 30
0.0
 11
711.8515751287
 21
618.3669434867
 31
0.0
  0
SPLINE
  5
178
330
1F
100
AcDbEntity
  8
0
  6
CONTINUOUS
 62
     7
100
AcDbSpline
210
0.0
220
0.0
230
1.0
 70
     8
 71
     3
 72
    10
 73
     6
 74
     0
 42
0.00000001
 43
0.00000001
 12
1.0
 22
0.0
 32
0.0
 13
1.0
 23
0.0
 33
0.0
 40
0.0
 40
0.0
 40
0.0
 40
0.0
 40
0.5
 40
0.5
 40
1.0
 40
1.0
 40
1.0
 40
1.0
 10
711.6772663849698
 20
616.1150503373194
 30
0.0
 10
711.7244885584292
 20
616.1109189324746
 30
0.0
 10
711.7746051790253
 20
616.1074347635295
 30
0.0
 10
711.8412463906918
 20
616.1074311960175
 30
0.0
 10
711.8515778704651
 20
616.1109191124094
 30
0.0
 10
711.8515778704651
 20
616.1150503373194
 30
0.0
  0
LINE
  5
179
330
1F
100
AcDbEntity
  8
0
  6
CONTINUOUS
 62
     7
100
AcDbLine
 10
711.6772687956
 20
616.1150502048
 30
0.0
 11
685.9380087777
 21
618.3669434867
 31
0.0
  0
LINE
  5
17A
330
1F
100
AcDbEntity
  8
0
  6
CONTINUOUS
 62
     7
100
AcDbLine
 10
949.7642523571
 20
616.107411497
 30
0.0
 11
949.8515806123
 21
616.1150502048
 31
0.0
  0
LINE
  5
17B
330
1F
100
AcDbEntity
  8
0
  6
CONTINUOUS
 62
     7
100
AcDbLine
 10
711.9389033838
 20
616.107411497
 30
0.0
 11
949.7642523571
 21
616.107411497
 31
0.0
  0
LINE
  5
17C
330
1F
100
AcDbEntity
  8
0
  6
CONTINUOUS
 62
     7
100
AcDbLine
 10
711.8515751287
 20
616.1150502048
 30
0.0
 11
711.9389033838
 21
616.107411497
 31
0.0
  0
ARC
  5
17D
330
1F
100
AcDbEntity
  8
0
  6
CONTINUOUS
 62
     7
100
AcDbCircle
 10
711.851746492
 20
617.1063678498
 30
0.0
 40
1.002751274473301
100
AcDbArc
 50
265.0136875093
 51
274.9863124907
  0
LINE
  5
17E
330
1F
100
AcDbEntity
  8
0
  6
CONTINUOUS
 62
     7
100
AcDbLine
 10
711.7645896002
 20
616.107411497
 30
0.0
 11
711.6772687956
 21
616.1150502048
 31
0.0
  0
LINE
  5
17F
330
1F
100
AcDbEntity
  8
0
  6
CONTINUOUS
 62
     7
100
AcDbLine
 10
950.0258869453
 20
616.1150502048
 30
0.0
 11
949.9385661407
 21
616.107411497
 31
0.0
  0
ARC
  5
180
330
1F
100
AcDbEntity
  8
0
  6
CONTINUOUS
 62
     7
100
AcDbCircle
 10
949.8514092489
 20
617.1063678498
 30
0.0
 40
1.002751274472385
100
AcDbArc
 50
265.0136875093
 51
274.9863124907
  0
LINE
  5
181
330
1F
100
AcDbEntity
  8
0
  6
CONTINUOUS
 62
     7
100
AcDbLine
 10
711.9389033838
 20
616.099800729
 30
0.0
 11
711.9389033838
 21
616.107411497
 31
0.0
  0
ARC
  5
182
330
1F
100
AcDbEntity
  8
0
  6
CONTINUOUS
 62
     7
100
AcDbCircle
 10
711.9388997563
 20
618.0998000584
 30
0.0
 40
2.00000000000001
100
AcDbArc
 50
265.0
 51
270.0
  0
LINE
  5
183
330
1F
100
AcDbEntity
  8
0
  6
CONTINUOUS
 62
     7
100
AcDbLine
 10
949.7642523571
 20
616.099800729
 30
0.0
 11
949.7642523571
 21
616.107411497
 31
0.0
  0
ARC
  5
184
330
1F
100
AcDbEntity
  8
0
  6
CONTINUOUS
 62
     7
100
AcDbCircle
 10
949.7642559846
 20
618.0998000584
 30
0.0
 40
2.00000000000001
100
AcDbArc
 50
270.0
 51
275.0
  0
LINE
  5
185
330
1F
100
AcDbEntity
  8
0
  6
CONTINUOUS
 62
     7
100
AcDbLine
 10
949.7642523571
 20
616.099800729
 30
0.0
 11
711.9389033838
 21
616.099800729
 31
0.0
  0
LINE
  5
186
330
1F
100
AcDbEntity
  8
0
  6
CONTINUOUS
 62
     7
100
AcDbLine
 10
1504.9596475654
 20
759.1126770388
 30
0.0
 11
1504.9596475654
 21
755.6126773964
 31
0.0
  0
LINE
  5
187
330
1F
100
AcDbEntity
  8
0
  6
CONTINUOUS
 62
     7
100
AcDbLine
 10
1504.9596475654
 20
755.6126773964
 30
0.0
 11
1505.3724842363
 21
755.6126773964
 31
0.0
  0
LINE
  5
188
330
1F
100
AcDbEntity
  8
0
  6
CONTINUOUS
 62
     7
100
AcDbLine
 10
1505.3724842363
 20
755.6126773964
 30
0.0
 11
1505.3724842363
 21
759.1126770388
 31
0.0
  0
LINE
  5
189
330
1F
100
AcDbEntity
  8
0
  6
CONTINUOUS
 62
     7
100
AcDbLine
 10
1505.6533562237
 20
759.1126770388
 30
0.0
 11
1505.6533562237
 21
743.1279630076
 31
0.0
  0
LINE
  5
18A
330
1F
100
AcDbEntity
  8
0
  6
CONTINUOUS
 62
     7
100
AcDbLine
 10
1505.6533562237
 20
743.1279630076
 30
0.0
 11
1503.7799673372
 21
745.0013444435
 31
0.0
  0
LWPOLYLINE
  5
18B
330
1F
100
AcDbEntity
  8
0
  6
CONTINUOUS
 62
     7
100
AcDbPolyline
 90
        3
 70
   128
 43
0.0
 10
1503.7799673372
 20
745.0013444435
 10
1503.7265317732
 20
752.514338554
 10
1503.6795931154
 20
759.1126770388
  0
LINE
  5
18C
330
1F
100
AcDbEntity
  8
0
  6
CONTINUOUS
 62
     7
100
AcDbLine
 10
1505.6533562237
 20
933.0973983418
 30
0.0
 11
1505.6533562237
 21
917.1126843106
 31
0.0
  0
LINE
  5
18D
330
1F
100
AcDbEntity
  8
0
  6
CONTINUOUS
 62
     7
100
AcDbLine
 10
1505.3724842363
 20
920.6126839529
 30
0.0
 11
1505.3724842363
 21
917.1126843106
 31
0.0
  0
LINE
  5
18E
330
1F
100
AcDbEntity
  8
0
  6
CONTINUOUS
 62
     7
100
AcDbLine
 10
1505.3724842363
 20
920.6126839529
 30
0.0
 11
1504.9596475654
 21
920.6126839529
 31
0.0
  0
LINE
  5
18F
330
1F
100
AcDbEntity
  8
0
  6
CONTINUOUS
 62
     7
100
AcDbLine
 10
1504.9596475654
 20
917.1126843106
 30
0.0
 11
1504.9596475654
 21
920.6126839529
 31
0.0
  0
LWPOLYLINE
  5
190
330
1F
100
AcDbEntity
  8
0
  6
CONTINUOUS
 62
     7
100
AcDbPolyline
 90
        3
 70
   128
 43
0.0
 10
1503.6795931154
 20
917.1126843106
 10
1503.7140595012
 20
921.9579235326
 10
1503.7799673372
 20
931.2240169059
  0
LINE
  5
191
330
1F
100
AcDbEntity
  8
0
  6
CONTINUOUS
 62
     7
100
AcDbLine
 10
1505.6533562237
 20
933.0973983418
 30
0.0
 11
1503.7799673372
 21
931.2240169059
 31
0.0
  0
LINE
  5
192
330
1F
100
AcDbEntity
  8
0
  6
CONTINUOUS
 62
     7
100
AcDbLine
 10
1509.6686380201
 20
762.1126831185
 30
0.0
 11
1509.6686380201
 21
741.1050707709
 31
0.0
  0
ELLIPSE
  5
193
330
1F
100
AcDbEntity
  8
0
  6
CONTINUOUS
 62
     7
100
AcDbEllipse
 10
1507.6609944111
 20
741.1203203498
 30
0.0
 11
-1.42499721578065
 21
1.424997215780536
 31
0.0
210
0.0
220
0.0
230
1.0
 40
0.9924325091
 41
2.359992588465475
 42
3.92319271871399
  0
LINE
  5
194
330
1F
100
AcDbEntity
  8
0
  6
CONTINUOUS
 62
     7
100
AcDbLine
 10
1507.6762484604
 20
739.1126812111
 30
0.0
 11
1213.661019712
 21
739.1126812111
 31
0.0
  0
LINE
  5
195
330
1F
100
AcDbEntity
  8
0
  6
CONTINUOUS
 62
     7
100
AcDbLine
 10
1211.6686301523
 20
935.1202905785
 30
0.0
 11
1211.6686301523
 21
741.1050707709
 31
0.0
  0
ELLIPSE
  5
196
330
1F
100
AcDbEntity
  8
0
  6
CONTINUOUS
 62
     7
100
AcDbEllipse
 10
1213.6762737613
 20
935.1050409996
 30
0.0
 11
-1.424997215780422
 21
1.424997215780536
 31
0.0
210
0.0
220
0.0
230
1.0
 40
0.9924325091
 41
5.501585242055515
 42
7.064785372303809
  0
LINE
  5
197
330
1F
100
AcDbEntity
  8
0
  6
CONTINUOUS
 62
     7
100
AcDbLine
 10
1507.6762484604
 20
937.1126801383
 30
0.0
 11
1213.661019712
 21
937.1126801383
 31
0.0
  0
ELLIPSE
  5
198
330
1F
100
AcDbEntity
  8
0
  6
CONTINUOUS
 62
     7
100
AcDbEllipse
 10
1507.6609944111
 20
935.1050409996
 30
0.0
 11
1.424997215780422
 21
1.424997215780536
 31
0.0
210
0.0
220
0.0
230
1.0
 40
0.9924325091
 41
5.501585242055397
 42
7.064785372303765
  0
LINE
  5
199
330
1F
100
AcDbEntity
  8
0
  6
CONTINUOUS
 62
     7
100
AcDbLine
 10
1509.6686380201
 20
935.1202905785
 30
0.0
 11
1509.6686380201
 21
914.1126782309
 31
0.0
  0
LINE
  5
19A
330
1F
100
AcDbEntity
  8
0
  6
CONTINUOUS
 62
     7
100
AcDbLine
 10
1501.9135521942
 20
914.1126782309
 30
0.0
 11
1509.6686380201
 21
914.1126782309
 31
0.0
  0
LINE
  5
19B
330
1F
100
AcDbEntity
  8
0
  6
CONTINUOUS
 62
     7
100
AcDbLine
 10
1501.9135521942
 20
917.1126843106
 30
0.0
 11
1501.9135521942
 21
914.1126782309
 31
0.0
  0
LINE
  5
19C
330
1F
100
AcDbEntity
  8
0
  6
CONTINUOUS
 62
     7
100
AcDbLine
 10
1505.6533562237
 20
933.0973983418
 30
0.0
 11
1215.6839119487
 21
933.0973983418
 31
0.0
  0
LINE
  5
19D
330
1F
100
AcDbEntity
  8
0
  6
CONTINUOUS
 62
     7
100
AcDbLine
 10
1215.6839119487
 20
933.0973983418
 30
0.0
 11
1215.6839119487
 21
743.1279630076
 31
0.0
  0
LINE
  5
19E
330
1F
100
AcDbEntity
  8
0
  6
CONTINUOUS
 62
     7
100
AcDbLine
 10
1505.6533562237
 20
743.1279630076
 30
0.0
 11
1215.6839119487
 21
743.1279630076
 31
0.0
  0
LINE
  5
19F
330
1F
100
AcDbEntity
  8
0
  6
CONTINUOUS
 62
     7
100
AcDbLine
 10
1501.9135521942
 20
762.1126831185
 30
0.0
 11
1501.9135521942
 21
759.1126770388
 31
0.0
  0
LINE
  5
1A0
330
1F
100
AcDbEntity
  8
0
  6
CONTINUOUS
 62
     7
100
AcDbLine
 10
1501.9135521942
 20
762.1126831185
 30
0.0
 11
1509.6686380201
 21
762.1126831185
 31
0.0
  0
ELLIPSE
  5
1A1
330
1F
100
AcDbEntity
  8
0
  6
CONTINUOUS
 62
     7
100
AcDbEllipse
 10
1213.6762737613
 20
741.1203203498
 30
0.0
 11
1.42499721578065
 21
1.424997215780536
 31
0.0
210
0.0
220
0.0
230
1.0
 40
0.9924325091
 41
2.359992588465631
 42
3.923192718713992
  0
LINE
  5
1A2
330
1F
100
AcDbEntity
  8
0
  6
CONTINUOUS
 62
     7
100
AcDbLine
 10
1505.6533562237
 20
917.1126843106
 30
0.0
 11
1501.9135521942
 21
917.1126843106
 31
0.0
  0
LINE
  5
1A3
330
1F
100
AcDbEntity
  8
0
  6
CONTINUOUS
 62
     7
100
AcDbLine
 10
1505.6533562237
 20
759.1126770388
 30
0.0
 11
1501.9135521942
 21
759.1126770388
 31
0.0
  0
LINE
  5
1A4
330
1F
100
AcDbEntity
  8
0
  6
CONTINUOUS
 62
     7
100
AcDbLine
 10
1215.6839119487
 20
743.1279630076
 30
0.0
 11
1217.5573008352
 21
745.0013444435
 31
0.0
  0
LWPOLYLINE
  5
1A5
330
1F
100
AcDbEntity
  8
0
  6
CONTINUOUS
 62
     7
100
AcDbPolyline
 90
        4
 70
   128
 43
0.0
 10
1217.5573008352
 20
745.0013444435
 10
1225.0703023964
 20
745.0547800075
 10
1232.5832741552
 20
745.1082304727
 10
1241.8493377262
 20
745.1741830121
  0
LINE
  5
1A6
330
1F
100
AcDbEntity
  8
0
  6
CONTINUOUS
 62
     7
100
AcDbLine
 10
1241.8493377262
 20
745.1741830121
 30
0.0
 11
1479.4879304462
 21
745.1741830121
 31
0.0
  0
LWPOLYLINE
  5
1A7
330
1F
100
AcDbEntity
  8
0
  6
CONTINUOUS
 62
     7
100
AcDbPolyline
 90
        4
 70
   128
 43
0.0
 10
1479.4879304462
 20
745.1741830121
 10
1487.0009022051
 20
745.1207101952
 10
1494.5138739639
 20
745.0672522794
 10
1503.7799673372
 20
745.0013444435
  0
LWPOLYLINE
  5
1A8
330
1F
100
AcDbEntity
  8
0
  6
CONTINUOUS
 62
     7
100
AcDbPolyline
 90
        4
 70
   128
 43
0.0
 10
1217.5573008352
 20
745.0013444435
 10
1217.6107363992
 20
752.514338554
 10
1217.6641868644
 20
760.0273252141
 10
1217.7301394039
 20
769.2933813344
  0
LINE
  5
1A9
330
1F
100
AcDbEntity
  8
0
  6
CONTINUOUS
 62
     7
100
AcDbLine
 10
1215.6839119487
 20
933.0973983418
 30
0.0
 11
1217.5573008352
 21
931.2240169059
 31
0.0
  0
LWPOLYLINE
  5
1AA
330
1F
100
AcDbEntity
  8
0
  6
CONTINUOUS
 62
     7
100
AcDbPolyline
 90
        4
 70
   128
 43
0.0
 10
1217.5573008352
 20
931.2240169059
 10
1217.6107363992
 20
923.7110227953
 10
1217.6641868644
 20
916.1980361353
 10
1217.7301394039
 20
906.9319800149
  0
LINE
  5
1AB
330
1F
100
AcDbEntity
  8
0
  6
CONTINUOUS
 62
     7
100
AcDbLine
 10
1217.7301394039
 20
769.2933813344
 30
0.0
 11
1217.7301394039
 21
906.9319800149
 31
0.0
  0
LWPOLYLINE
  5
1AC
330
1F
100
AcDbEntity
  8
0
  6
CONTINUOUS
 62
     7
100
AcDbPolyline
 90
        4
 70
   128
 43
0.0
 10
1217.5573008352
 20
931.2240169059
 10
1225.0703023964
 20
931.1705813419
 10
1232.5832741552
 20
931.1171308767
 10
1241.8493377262
 20
931.0511783372
  0
LWPOLYLINE
  5
1AD
330
1F
100
AcDbEntity
  8
0
  6
CONTINUOUS
 62
     7
100
AcDbPolyline
 90
        4
 70
   128
 43
0.0
 10
1503.7799673372
 20
931.2240169059
 10
1496.266965776
 20
931.1705813419
 10
1488.7539940172
 20
931.1171308767
 10
1479.4879304462
 20
931.0511783372
  0
LINE
  5
1AE
330
1F
100
AcDbEntity
  8
0
  6
CONTINUOUS
 62
     7
100
AcDbLine
 10
1241.8493377262
 20
931.0511783372
 30
0.0
 11
1479.4879304462
 21
931.0511783372
 31
0.0
  0
LINE
  5
1AF
330
1F
100
AcDbEntity
  8
0
  6
CONTINUOUS
 62
     7
100
AcDbLine
 10
1497.913544088
 20
759.1126770388
 30
0.0
 11
1497.913544088
 21
762.1126831185
 31
0.0
  0
LINE
  5
1B0
330
1F
100
AcDbEntity
  8
0
  6
CONTINUOUS
 62
     7
100
AcDbLine
 10
1497.913544088
 20
762.1126831185
 30
0.0
 11
1501.9135521942
 21
762.1126831185
 31
0.0
  0
LINE
  5
1B1
330
1F
100
AcDbEntity
  8
0
  6
CONTINUOUS
 62
     7
100
AcDbLine
 10
1501.9135521942
 20
759.1126770388
 30
0.0
 11
1497.913544088
 21
759.1126770388
 31
0.0
  0
LINE
  5
1B2
330
1F
100
AcDbEntity
  8
0
  6
CONTINUOUS
 62
     7
100
AcDbLine
 10
1499.8341994577
 20
814.1126804661
 30
0.0
 11
1499.8341994577
 21
817.1126809578
 31
0.0
  0
LINE
  5
1B3
330
1F
100
AcDbEntity
  8
0
  6
CONTINUOUS
 62
     7
100
AcDbLine
 10
1499.8341994577
 20
817.1126809578
 30
0.0
 11
1503.8341926628
 21
817.1126809578
 31
0.0
  0
LINE
  5
1B4
330
1F
100
AcDbEntity
  8
0
  6
CONTINUOUS
 62
     7
100
AcDbLine
 10
1503.8341926628
 20
817.1126809578
 30
0.0
 11
1503.8341926628
 21
814.1126804661
 31
0.0
  0
LINE
  5
1B5
330
1F
100
AcDbEntity
  8
0
  6
CONTINUOUS
 62
     7
100
AcDbLine
 10
1503.8341926628
 20
814.1126804661
 30
0.0
 11
1499.8341994577
 21
814.1126804661
 31
0.0
  0
LINE
  5
1B6
330
1F
100
AcDbEntity
  8
0
  6
CONTINUOUS
 62
     7
100
AcDbLine
 10
1505.6533562237
 20
859.1126803916
 30
0.0
 11
1505.6533562237
 21
817.1126809578
 31
0.0
  0
LINE
  5
1B7
330
1F
100
AcDbEntity
  8
0
  6
CONTINUOUS
 62
     7
100
AcDbLine
 10
1503.8341926628
 20
859.1126803916
 30
0.0
 11
1505.6533562237
 21
859.1126803916
 31
0.0
  0
LINE
  5
1B8
330
1F
100
AcDbEntity
  8
0
  6
CONTINUOUS
 62
     7
100
AcDbLine
 10
1503.8341926628
 20
862.1126808833
 30
0.0
 11
1503.8341926628
 21
859.1126803916
 31
0.0
  0
LINE
  5
1B9
330
1F
100
AcDbEntity
  8
0
  6
CONTINUOUS
 62
     7
100
AcDbLine
 10
1509.6686380201
 20
862.1126808833
 30
0.0
 11
1503.8341926628
 21
862.1126808833
 31
0.0
  0
LINE
  5
1BA
330
1F
100
AcDbEntity
  8
0
  6
CONTINUOUS
 62
     7
100
AcDbLine
 10
1503.8341926628
 20
817.1126809578
 30
0.0
 11
1505.6533562237
 21
817.1126809578
 31
0.0
  0
LINE
  5
1BB
330
1F
100
AcDbEntity
  8
0
  6
CONTINUOUS
 62
     7
100
AcDbLine
 10
1509.6686380201
 20
814.1126804661
 30
0.0
 11
1503.8341926628
 21
814.1126804661
 31
0.0
  0
LINE
  5
1BC
330
1F
100
AcDbEntity
  8
0
  6
CONTINUOUS
 62
     7
100
AcDbLine
 10
1509.6686380201
 20
862.1126808833
 30
0.0
 11
1509.6686380201
 21
814.1126804661
 31
0.0
  0
LINE
  5
1BD
330
1F
100
AcDbEntity
  8
0
  6
CONTINUOUS
 62
     7
100
AcDbLine
 10
1504.9596475654
 20
855.6126807492
 30
0.0
 11
1504.9596475654
 21
859.1126803916
 31
0.0
  0
LINE
  5
1BE
330
1F
100
AcDbEntity
  8
0
  6
CONTINUOUS
 62
     7
100
AcDbLine
 10
1505.3724842363
 20
855.6126807492
 30
0.0
 11
1504.9596475654
 21
855.6126807492
 31
0.0
  0
LINE
  5
1BF
330
1F
100
AcDbEntity
  8
0
  6
CONTINUOUS
 62
     7
100
AcDbLine
 10
1505.3724842363
 20
859.1126803916
 30
0.0
 11
1505.3724842363
 21
855.6126807492
 31
0.0
  0
LINE
  5
1C0
330
1F
100
AcDbEntity
  8
0
  6
CONTINUOUS
 62
     7
100
AcDbLine
 10
1505.3724842363
 20
817.1126809578
 30
0.0
 11
1505.3724842363
 21
820.6126806002
 31
0.0
  0
LINE
  5
1C1
330
1F
100
AcDbEntity
  8
0
  6
CONTINUOUS
 62
     7
100
AcDbLine
 10
1504.9596475654
 20
820.6126806002
 30
0.0
 11
1505.3724842363
 21
820.6126806002
 31
0.0
  0
LINE
  5
1C2
330
1F
100
AcDbEntity
  8
0
  6
CONTINUOUS
 62
     7
100
AcDbLine
 10
1504.9596475654
 20
820.6126806002
 30
0.0
 11
1504.9596475654
 21
817.1126809578
 31
0.0
  0
LINE
  5
1C3
330
1F
100
AcDbEntity
  8
0
  6
CONTINUOUS
 62
     7
100
AcDbLine
 10
1503.6071287685
 20
817.1126809578
 30
0.0
 11
1503.6071287685
 21
859.1126803916
 31
0.0
  0
LINE
  5
1C4
330
1F
100
AcDbEntity
  8
0
  6
CONTINUOUS
 62
     7
100
AcDbLine
 10
1503.8341926628
 20
859.1126803916
 30
0.0
 11
1499.8341994577
 21
859.1126803916
 31
0.0
  0
LINE
  5
1C5
330
1F
100
AcDbEntity
  8
0
  6
CONTINUOUS
 62
     7
100
AcDbLine
 10
1499.8341994577
 20
859.1126803916
 30
0.0
 11
1499.8341994577
 21
862.1126808833
 31
0.0
  0
LINE
  5
1C6
330
1F
100
AcDbEntity
  8
0
  6
CONTINUOUS
 62
     7
100
AcDbLine
 10
1499.8341994577
 20
862.1126808833
 30
0.0
 11
1503.8341926628
 21
862.1126808833
 31
0.0
  0
LINE
  5
1C7
330
1F
100
AcDbEntity
  8
0
  6
CONTINUOUS
 62
     7
100
AcDbLine
 10
1501.9135521942
 20
914.1126782309
 30
0.0
 11
1497.913544088
 21
914.1126782309
 31
0.0
  0
LINE
  5
1C8
330
1F
100
AcDbEntity
  8
0
  6
CONTINUOUS
 62
     7
100
AcDbLine
 10
1497.913544088
 20
914.1126782309
 30
0.0
 11
1497.913544088
 21
917.1126843106
 31
0.0
  0
LINE
  5
1C9
330
1F
100
AcDbEntity
  8
0
  6
CONTINUOUS
 62
     7
100
AcDbLine
 10
1497.913544088
 20
917.1126843106
 30
0.0
 11
1501.9135521942
 21
917.1126843106
 31
0.0
  0
LINE
  5
1CA
330
1F
100
AcDbEntity
  8
0
  6
CONTINUOUS
 62
     7
100
AcDbLine
 10
1504.3321298652
 20
814.1126804661
 30
0.0
 11
1504.3321298652
 21
762.1126831185
 31
0.0
  0
LINE
  5
1CB
330
1F
100
AcDbEntity
  8
0
  6
CONTINUOUS
 62
     7
100
AcDbLine
 10
1508.4437923723
 20
762.1126831185
 30
0.0
 11
1508.4437923723
 21
814.1126804661
 31
0.0
  0
LINE
  5
1CC
330
1F
100
AcDbEntity
  8
0
  6
CONTINUOUS
 62
     7
100
AcDbLine
 10
1504.3321298652
 20
862.1126808833
 30
0.0
 11
1504.3321298652
 21
914.1126782309
 31
0.0
  0
LINE
  5
1CD
330
1F
100
AcDbEntity
  8
0
  6
CONTINUOUS
 62
     7
100
AcDbLine
 10
1508.4437923723
 20
862.1126808833
 30
0.0
 11
1508.4437923723
 21
914.1126782309
 31
0.0
  0
LINE
  5
1CE
330
1F
100
AcDbEntity
  8
0
  6
CONTINUOUS
 62
     7
100
AcDbLine
 10
1233.5980432325
 20
864.6228541296
 30
0.0
 11
1233.52987042
 21
862.670677216
 31
0.0
  0
LINE
  5
1CF
330
1F
100
AcDbEntity
  8
0
  6
CONTINUOUS
 62
     7
100
AcDbLine
 10
1240.2602629953
 20
855.9402865033
 30
0.0
 11
1233.52987042
 21
862.670677216
 31
0.0
  0
LINE
  5
1D0
330
1F
100
AcDbEntity
  8
0
  6
CONTINUOUS
 62
     7
100
AcDbLine
 10
1240.2602629953
 20
871.285075755
 30
0.0
 11
1240.2602629953
 21
855.9402865033
 31
0.0
  0
LINE
  5
1D1
330
1F
100
AcDbEntity
  8
0
  6
CONTINUOUS
 62
     7
100
AcDbLine
 10
1233.5980432325
 20
864.6228541296
 30
0.0
 11
1240.2602629953
 21
871.285075755
 31
0.0
  0
LINE
  5
1D2
330
1F
100
AcDbEntity
  8
0
  6
CONTINUOUS
 62
     7
100
AcDbLine
 10
1239.2493980222
 20
872.1126825224
 30
0.0
 11
1233.6645769172
 21
866.5278558295
 31
0.0
  0
LINE
  5
1D3
330
1F
100
AcDbEntity
  8
0
  6
CONTINUOUS
 62
     7
100
AcDbLine
 10
1239.2493980222
 20
872.1126825224
 30
0.0
 11
1234.0414570862
 21
877.3206122827
 31
0.0
  0
LINE
  5
1D4
330
1F
100
AcDbEntity
  8
0
  6
CONTINUOUS
 62
     7
100
AcDbLine
 10
1234.0414570862
 20
877.3206122827
 30
0.0
 11
1233.6645769172
 21
866.5278558295
 31
0.0
  0
LINE
  5
1D5
330
1F
100
AcDbEntity
  8
0
  6
CONTINUOUS
 62
     7
100
AcDbLine
 10
1239.2493980222
 20
787.1126816284
 30
0.0
 11
1234.2797117525
 21
792.0823716234
 31
0.0
  0
LINE
  5
1D6
330
1F
100
AcDbEntity
  8
0
  6
CONTINUOUS
 62
     7
100
AcDbLine
 10
1234.2797117525
 20
792.0823716234
 30
0.0
 11
1234.6150772863
 21
782.478368343
 31
0.0
  0
LINE
  5
1D7
330
1F
100
AcDbEntity
  8
0
  6
CONTINUOUS
 62
     7
100
AcDbLine
 10
1239.2493980222
 20
787.1126816284
 30
0.0
 11
1234.6150772863
 21
782.478368343
 31
0.0
  0
LINE
  5
1D8
330
1F
100
AcDbEntity
  8
0
  6
CONTINUOUS
 62
     7
100
AcDbLine
 10
1240.2602629953
 20
803.2850757848
 30
0.0
 11
1240.2602629953
 21
787.9402883958
 31
0.0
  0
LINE
  5
1D9
330
1F
100
AcDbEntity
  8
0
  6
CONTINUOUS
 62
     7
100
AcDbLine
 10
1234.1034906202
 20
797.1283034097
 30
0.0
 11
1240.2602629953
 21
803.2850757848
 31
0.0
  0
LINE
  5
1DA
330
1F
100
AcDbEntity
  8
0
  6
CONTINUOUS
 62
     7
100
AcDbLine
 10
1234.1034906202
 20
797.1283034097
 30
0.0
 11
1234.2131780678
 21
793.9873733233
 31
0.0
  0
LINE
  5
1DB
330
1F
100
AcDbEntity
  8
0
  6
CONTINUOUS
 62
     7
100
AcDbLine
 10
1240.2602629953
 20
787.9402883958
 30
0.0
 11
1234.2131780678
 21
793.9873733233
 31
0.0
  0
ARC
  5
1DC
330
1F
100
AcDbEntity
  8
0
  6
CONTINUOUS
 62
     7
100
AcDbCircle
 10
1238.6418543512
 20
781.7815960335
 30
0.0
 40
4.000000000000091
100
AcDbArc
 50
194.3353410179
 51
225.0
  0
LINE
  5
1DD
330
1F
100
AcDbEntity
  8
0
  6
CONTINUOUS
 62
     7
100
AcDbLine
 10
1235.8134286695
 20
778.9531671118
 30
0.0
 11
1250.9823413783
 21
763.7842506777
 31
0.0
  0
ARC
  5
1DE
330
1F
100
AcDbEntity
  8
0
  6
CONTINUOUS
 62
     7
100
AcDbCircle
 10
1253.8107697099
 20
766.6126806747
 30
0.0
 40
4.000000000000113
100
AcDbArc
 50
225.0
 51
270.0
  0
LINE
  5
1DF
330
1F
100
AcDbEntity
  8
0
  6
CONTINUOUS
 62
     7
100
AcDbLine
 10
1253.8107680374
 20
762.6126841318
 30
0.0
 11
1262.3359831267
 21
762.6126841318
 31
0.0
  0
LINE
  5
1E0
330
1F
100
AcDbEntity
  8
0
  6
CONTINUOUS
 62
     7
100
AcDbLine
 10
1262.3359831267
 20
762.6126841318
 30
0.0
 11
1253.2443450981
 21
771.7043147098
 31
0.0
  0
LINE
  5
1E1
330
1F
100
AcDbEntity
  8
0
  6
CONTINUOUS
 62
     7
100
AcDbLine
 10
1251.0852711492
 20
771.7043147098
 30
0.0
 11
1253.2443450981
 21
771.7043147098
 31
0.0
  0
LINE
  5
1E2
330
1F
100
AcDbEntity
  8
0
  6
CONTINUOUS
 62
     7
100
AcDbLine
 10
1240.2602629953
 20
782.5293154131
 30
0.0
 11
1251.0852711492
 21
771.7043147098
 31
0.0
  0
LINE
  5
1E3
330
1F
100
AcDbEntity
  8
0
  6
CONTINUOUS
 62
     7
100
AcDbLine
 10
1240.2602629953
 20
786.285074861
 30
0.0
 11
1240.2602629953
 21
782.5293154131
 31
0.0
  0
LINE
  5
1E4
330
1F
100
AcDbEntity
  8
0
  6
CONTINUOUS
 62
     7
100
AcDbLine
 10
1234.7663985782
 20
780.7912104439
 30
0.0
 11
1240.2602629953
 21
786.285074861
 31
0.0
  0
LINE
  5
1E5
330
1F
100
AcDbEntity
  8
0
  6
CONTINUOUS
 62
     7
100
AcDbLine
 10
1239.2493980222
 20
821.1126797508
 30
0.0
 11
1233.049442082
 21
827.312638485
 31
0.0
  0
LINE
  5
1E6
330
1F
100
AcDbEntity
  8
0
  6
CONTINUOUS
 62
     7
100
AcDbLine
 10
1233.049442082
 20
827.312638485
 30
0.0
 11
1233.467836886
 21
815.3311260652
 31
0.0
  0
LINE
  5
1E7
330
1F
100
AcDbEntity
  8
0
  6
CONTINUOUS
 62
     7
100
AcDbLine
 10
1239.2493980222
 20
821.1126797508
 30
0.0
 11
1233.467836886
 21
815.3311260652
 31
0.0
  0
LINE
  5
1E8
330
1F
100
AcDbEntity
  8
0
  6
CONTINUOUS
 62
     7
100
AcDbLine
 10
1232.9562502199
 20
829.9810611319
 30
0.0
 11
1240.2602629953
 21
837.2850739655
 31
0.0
  0
LINE
  5
1E9
330
1F
100
AcDbEntity
  8
0
  6
CONTINUOUS
 62
     7
100
AcDbLine
 10
1232.9562502199
 20
829.9810611319
 30
0.0
 11
1232.9829083973
 21
829.217640185
 31
0.0
  0
LINE
  5
1EA
330
1F
100
AcDbEntity
  8
0
  6
CONTINUOUS
 62
     7
100
AcDbLine
 10
1240.2602629953
 20
821.9402865182
 30
0.0
 11
1232.9829083973
 21
829.217640185
 31
0.0
  0
LINE
  5
1EB
330
1F
100
AcDbEntity
  8
0
  6
CONTINUOUS
 62
     7
100
AcDbLine
 10
1240.2602629953
 20
837.2850739655
 30
0.0
 11
1240.2602629953
 21
821.9402865182
 31
0.0
  0
LINE
  5
1EC
330
1F
100
AcDbEntity
  8
0
  6
CONTINUOUS
 62
     7
100
AcDbLine
 10
1487.0575564199
 20
884.142989726
 30
0.0
 11
1482.0878701502
 21
889.112679721
 31
0.0
  0
LINE
  5
1ED
330
1F
100
AcDbEntity
  8
0
  6
CONTINUOUS
 62
     7
100
AcDbLine
 10
1487.0575564199
 20
884.142989726
 30
0.0
 11
1486.7221908861
 21
893.7469930064
 31
0.0
  0
LINE
  5
1EE
330
1F
100
AcDbEntity
  8
0
  6
CONTINUOUS
 62
     7
100
AcDbLine
 10
1482.0878701502
 20
889.112679721
 30
0.0
 11
1486.7221908861
 21
893.7469930064
 31
0.0
  0
LINE
  5
1EF
330
1F
100
AcDbEntity
  8
0
  6
CONTINUOUS
 62
     7
100
AcDbLine
 10
1481.0770051771
 20
872.9402855646
 30
0.0
 11
1481.0770051771
 21
888.2850729536
 31
0.0
  0
LINE
  5
1F0
330
1F
100
AcDbEntity
  8
0
  6
CONTINUOUS
 62
     7
100
AcDbLine
 10
1481.0770051771
 20
872.9402855646
 30
0.0
 11
1487.2337775522
 21
879.0970579397
 31
0.0
  0
LINE
  5
1F1
330
1F
100
AcDbEntity
  8
0
  6
CONTINUOUS
 62
     7
100
AcDbLine
 10
1487.2337775522
 20
879.0970579397
 30
0.0
 11
1487.1240901046
 21
882.237988026
 31
0.0
  0
LINE
  5
1F2
330
1F
100
AcDbEntity
  8
0
  6
CONTINUOUS
 62
     7
100
AcDbLine
 10
1481.0770051771
 20
888.2850729536
 30
0.0
 11
1487.1240901046
 21
882.237988026
 31
0.0
  0
ARC
  5
1F3
330
1F
100
AcDbEntity
  8
0
  6
CONTINUOUS
 62
     7
100
AcDbCircle
 10
1482.6954138212
 20
894.4437653159
 30
0.0
 40
4.000000000000113
100
AcDbArc
 50
14.3353410179
 51
45.0
  0
LINE
  5
1F4
330
1F
100
AcDbEntity
  8
0
  6
CONTINUOUS
 62
     7
100
AcDbLine
 10
1485.5238395029
 20
897.2721942376
 30
0.0
 11
1470.3549267941
 21
912.4411106717
 31
0.0
  0
ARC
  5
1F5
330
1F
100
AcDbEntity
  8
0
  6
CONTINUOUS
 62
     7
100
AcDbCircle
 10
1467.5264984625
 20
909.6126806747
 30
0.0
 40
4.000000000000032
100
AcDbArc
 50
45.0
 51
90.0
  0
LINE
  5
1F6
330
1F
100
AcDbEntity
  8
0
  6
CONTINUOUS
 62
     7
100
AcDbLine
 10
1467.526500135
 20
913.6126772176
 30
0.0
 11
1459.0012850457
 21
913.6126772176
 31
0.0
  0
LINE
  5
1F7
330
1F
100
AcDbEntity
  8
0
  6
CONTINUOUS
 62
     7
100
AcDbLine
 10
1459.0012850457
 20
913.6126772176
 30
0.0
 11
1468.0929230743
 21
904.5210466396
 31
0.0
  0
LINE
  5
1F8
330
1F
100
AcDbEntity
  8
0
  6
CONTINUOUS
 62
     7
100
AcDbLine
 10
1470.2519970232
 20
904.5210466396
 30
0.0
 11
1468.0929230743
 21
904.5210466396
 31
0.0
  0
LINE
  5
1F9
330
1F
100
AcDbEntity
  8
0
  6
CONTINUOUS
 62
     7
100
AcDbLine
 10
1481.0770051771
 20
893.6960459362
 30
0.0
 11
1470.2519970232
 21
904.5210466396
 31
0.0
  0
LINE
  5
1FA
330
1F
100
AcDbEntity
  8
0
  6
CONTINUOUS
 62
     7
100
AcDbLine
 10
1481.0770051771
 20
889.9402864884
 30
0.0
 11
1481.0770051771
 21
893.6960459362
 31
0.0
  0
LINE
  5
1FB
330
1F
100
AcDbEntity
  8
0
  6
CONTINUOUS
 62
     7
100
AcDbLine
 10
1481.0770051771
 20
889.9402864884
 30
0.0
 11
1486.5708695942
 21
895.4341509055
 31
0.0
  0
LINE
  5
1FC
330
1F
100
AcDbEntity
  8
0
  6
CONTINUOUS
 62
     7
100
AcDbLine
 10
1481.0770051771
 20
838.9402873839
 30
0.0
 11
1481.0770051771
 21
854.2850748311
 31
0.0
  0
LINE
  5
1FD
330
1F
100
AcDbEntity
  8
0
  6
CONTINUOUS
 62
     7
100
AcDbLine
 10
1481.0770051771
 20
838.9402873839
 30
0.0
 11
1488.3810179525
 21
846.2443002175
 31
0.0
  0
LINE
  5
1FE
330
1F
100
AcDbEntity
  8
0
  6
CONTINUOUS
 62
     7
100
AcDbLine
 10
1488.3810179525
 20
846.2443002175
 30
0.0
 11
1488.3543597751
 21
847.0077211644
 31
0.0
  0
LINE
  5
1FF
330
1F
100
AcDbEntity
  8
0
  6
CONTINUOUS
 62
     7
100
AcDbLine
 10
1481.0770051771
 20
854.2850748311
 30
0.0
 11
1488.3543597751
 21
847.0077211644
 31
0.0
  0
LINE
  5
200
330
1F
100
AcDbEntity
  8
0
  6
CONTINUOUS
 62
     7
100
AcDbLine
 10
1488.2878260904
 20
848.9127228644
 30
0.0
 11
1482.0878701502
 21
855.1126815986
 31
0.0
  0
LINE
  5
201
330
1F
100
AcDbEntity
  8
0
  6
CONTINUOUS
 62
     7
100
AcDbLine
 10
1488.2878260904
 20
848.9127228644
 30
0.0
 11
1487.8694312864
 21
860.8942352842
 31
0.0
  0
LINE
  5
202
330
1F
100
AcDbEntity
  8
0
  6
CONTINUOUS
 62
     7
100
AcDbLine
 10
1482.0878701502
 20
855.1126815986
 30
0.0
 11
1487.8694312864
 21
860.8942352842
 31
0.0
  0
LINE
  5
203
330
1F
100
AcDbEntity
  8
0
  6
CONTINUOUS
 62
     7
100
AcDbLine
 10
1487.7392249399
 20
811.6025072198
 30
0.0
 11
1487.8073977524
 21
813.5546841334
 31
0.0
  0
LINE
  5
204
330
1F
100
AcDbEntity
  8
0
  6
CONTINUOUS
 62
     7
100
AcDbLine
 10
1481.0770051771
 20
820.2850748461
 30
0.0
 11
1487.8073977524
 21
813.5546841334
 31
0.0
  0
LINE
  5
205
330
1F
100
AcDbEntity
  8
0
  6
CONTINUOUS
 62
     7
100
AcDbLine
 10
1481.0770051771
 20
804.9402855944
 30
0.0
 11
1481.0770051771
 21
820.2850748461
 31
0.0
  0
LINE
  5
206
330
1F
100
AcDbEntity
  8
0
  6
CONTINUOUS
 62
     7
100
AcDbLine
 10
1481.0770051771
 20
804.9402855944
 30
0.0
 11
1487.7392249399
 21
811.6025072198
 31
0.0
  0
LINE
  5
207
330
1F
100
AcDbEntity
  8
0
  6
CONTINUOUS
 62
     7
100
AcDbLine
 10
1482.0878701502
 20
804.1126788269
 30
0.0
 11
1487.6726912552
 21
809.6975055199
 31
0.0
  0
LINE
  5
208
330
1F
100
AcDbEntity
  8
0
  6
CONTINUOUS
 62
     7
100
AcDbLine
 10
1487.2958110862
 20
798.9047490667
 30
0.0
 11
1482.0878701502
 21
804.1126788269
 31
0.0
  0
LINE
  5
209
330
1F
100
AcDbEntity
  8
0
  6
CONTINUOUS
 62
     7
100
AcDbLine
 10
1487.2958110862
 20
798.9047490667
 30
0.0
 11
1487.6726912552
 21
809.6975055199
 31
0.0
  0
LINE
  5
20A
330
1F
100
AcDbEntity
  8
0
  6
CONTINUOUS
 62
     7
100
AcDbLine
 10
1488.4430514866
 20
831.7575044606
 30
0.0
 11
1482.0878701502
 21
838.1126806747
 31
0.0
  0
LINE
  5
20B
330
1F
100
AcDbEntity
  8
0
  6
CONTINUOUS
 62
     7
100
AcDbLine
 10
1488.4430514866
 20
831.7575044606
 30
0.0
 11
1488.6649744802
 21
838.1126806747
 31
0.0
  0
LINE
  5
20C
330
1F
100
AcDbEntity
  8
0
  6
CONTINUOUS
 62
     7
100
AcDbLine
 10
1488.6649744802
 20
838.1126806747
 30
0.0
 11
1488.4430514866
 21
844.4678568888
 31
0.0
  0
LINE
  5
20D
330
1F
100
AcDbEntity
  8
0
  6
CONTINUOUS
 62
     7
100
AcDbLine
 10
1482.0878701502
 20
838.1126806747
 30
0.0
 11
1488.4430514866
 21
844.4678568888
 31
0.0
  0
LINE
  5
20E
330
1F
100
AcDbEntity
  8
0
  6
CONTINUOUS
 62
     7
100
AcDbLine
 10
1439.5012902313
 20
762.6126841318
 30
0.0
 11
1448.418636828
 21
771.5300307285
 31
0.0
  0
LINE
  5
20F
330
1F
100
AcDbEntity
  8
0
  6
CONTINUOUS
 62
     7
100
AcDbLine
 10
1439.5012902313
 20
762.6126841318
 30
0.0
 11
1457.3359834247
 21
762.6126841318
 31
0.0
  0
LINE
  5
210
330
1F
100
AcDbEntity
  8
0
  6
CONTINUOUS
 62
     7
100
AcDbLine
 10
1457.3359834247
 20
762.6126841318
 30
0.0
 11
1448.418636828
 21
771.5300307285
 31
0.0
  0
LINE
  5
211
330
1F
100
AcDbEntity
  8
0
  6
CONTINUOUS
 62
     7
100
AcDbLine
 10
1458.1686305099
 20
763.6185050618
 30
0.0
 11
1466.254440158
 21
771.7043147098
 31
0.0
  0
LINE
  5
212
330
1F
100
AcDbEntity
  8
0
  6
CONTINUOUS
 62
     7
100
AcDbLine
 10
1450.0828283125
 20
771.7043147098
 30
0.0
 11
1466.254440158
 21
771.7043147098
 31
0.0
  0
LINE
  5
213
330
1F
100
AcDbEntity
  8
0
  6
CONTINUOUS
 62
     7
100
AcDbLine
 10
1458.1686305099
 20
763.6185050618
 30
0.0
 11
1450.0828283125
 21
771.7043147098
 31
0.0
  0
LINE
  5
214
330
1F
100
AcDbEntity
  8
0
  6
CONTINUOUS
 62
     7
100
AcDbLine
 10
1400.5012857013
 20
762.6126841318
 30
0.0
 11
1409.4186322981
 21
771.5300307285
 31
0.0
  0
LINE
  5
215
330
1F
100
AcDbEntity
  8
0
  6
CONTINUOUS
 62
     7
100
AcDbLine
 10
1400.5012857013
 20
762.6126841318
 30
0.0
 11
1418.3359788948
 21
762.6126841318
 31
0.0
  0
LINE
  5
216
330
1F
100
AcDbEntity
  8
0
  6
CONTINUOUS
 62
     7
100
AcDbLine
 10
1418.3359788948
 20
762.6126841318
 30
0.0
 11
1409.4186322981
 21
771.5300307285
 31
0.0
  0
LINE
  5
217
330
1F
100
AcDbEntity
  8
0
  6
CONTINUOUS
 62
     7
100
AcDbLine
 10
1419.1686334305
 20
763.6185050618
 30
0.0
 11
1427.2544430786
 21
771.7043147098
 31
0.0
  0
LINE
  5
218
330
1F
100
AcDbEntity
  8
0
  6
CONTINUOUS
 62
     7
100
AcDbLine
 10
1411.0828275078
 20
771.7043147098
 30
0.0
 11
1427.2544430786
 21
771.7043147098
 31
0.0
  0
LINE
  5
219
330
1F
100
AcDbEntity
  8
0
  6
CONTINUOUS
 62
     7
100
AcDbLine
 10
1419.1686334305
 20
763.6185050618
 30
0.0
 11
1411.0828275078
 21
771.7043147098
 31
0.0
  0
LINE
  5
21A
330
1F
100
AcDbEntity
  8
0
  6
CONTINUOUS
 62
     7
100
AcDbLine
 10
1361.5012874578
 20
762.6126841318
 30
0.0
 11
1370.4186342874
 21
771.5300307285
 31
0.0
  0
LINE
  5
21B
330
1F
100
AcDbEntity
  8
0
  6
CONTINUOUS
 62
     7
100
AcDbLine
 10
1361.5012874578
 20
762.6126841318
 30
0.0
 11
1379.3359799528
 21
762.6126841318
 31
0.0
  0
LINE
  5
21C
330
1F
100
AcDbEntity
  8
0
  6
CONTINUOUS
 62
     7
100
AcDbLine
 10
1379.3359799528
 20
762.6126841318
 30
0.0
 11
1370.4186342874
 21
771.5300307285
 31
0.0
  0
LINE
  5
21D
330
1F
100
AcDbEntity
  8
0
  6
CONTINUOUS
 62
     7
100
AcDbLine
 10
1380.1686344885
 20
763.6185050618
 30
0.0
 11
1388.2544422739
 21
771.7043147098
 31
0.0
  0
LINE
  5
21E
330
1F
100
AcDbEntity
  8
0
  6
CONTINUOUS
 62
     7
100
AcDbLine
 10
1372.0828267031
 20
771.7043147098
 30
0.0
 11
1388.2544422739
 21
771.7043147098
 31
0.0
  0
LINE
  5
21F
330
1F
100
AcDbEntity
  8
0
  6
CONTINUOUS
 62
     7
100
AcDbLine
 10
1380.1686344885
 20
763.6185050618
 30
0.0
 11
1372.0828267031
 21
771.7043147098
 31
0.0
  0
LINE
  5
220
330
1F
100
AcDbEntity
  8
0
  6
CONTINUOUS
 62
     7
100
AcDbLine
 10
1368.7544418716
 20
771.7043147098
 30
0.0
 11
1360.6686340862
 21
763.6185050618
 31
0.0
  0
LINE
  5
221
330
1F
100
AcDbEntity
  8
0
  6
CONTINUOUS
 62
     7
100
AcDbLine
 10
1352.5828263008
 20
771.7043147098
 30
0.0
 11
1368.7544418716
 21
771.7043147098
 31
0.0
  0
LINE
  5
222
330
1F
100
AcDbEntity
  8
0
  6
CONTINUOUS
 62
     7
100
AcDbLine
 10
1360.6686340862
 20
763.6185050618
 30
0.0
 11
1352.5828263008
 21
771.7043147098
 31
0.0
  0
LINE
  5
223
330
1F
100
AcDbEntity
  8
0
  6
CONTINUOUS
 62
     7
100
AcDbLine
 10
1399.6686348909
 20
763.6185050618
 30
0.0
 11
1407.7544408136
 21
771.7043147098
 31
0.0
  0
LINE
  5
224
330
1F
100
AcDbEntity
  8
0
  6
CONTINUOUS
 62
     7
100
AcDbLine
 10
1391.5828271055
 20
771.7043147098
 30
0.0
 11
1407.7544408136
 21
771.7043147098
 31
0.0
  0
LINE
  5
225
330
1F
100
AcDbEntity
  8
0
  6
CONTINUOUS
 62
     7
100
AcDbLine
 10
1399.6686348909
 20
763.6185050618
 30
0.0
 11
1391.5828271055
 21
771.7043147098
 31
0.0
  0
LINE
  5
226
330
1F
100
AcDbEntity
  8
0
  6
CONTINUOUS
 62
     7
100
AcDbLine
 10
1381.0012871617
 20
762.6126841318
 30
0.0
 11
1389.9186337584
 21
771.5300307285
 31
0.0
  0
LINE
  5
227
330
1F
100
AcDbEntity
  8
0
  6
CONTINUOUS
 62
     7
100
AcDbLine
 10
1381.0012871617
 20
762.6126841318
 30
0.0
 11
1398.8359803551
 21
762.6126841318
 31
0.0
  0
LINE
  5
228
330
1F
100
AcDbEntity
  8
0
  6
CONTINUOUS
 62
     7
100
AcDbLine
 10
1398.8359803551
 20
762.6126841318
 30
0.0
 11
1389.9186337584
 21
771.5300307285
 31
0.0
  0
LINE
  5
229
330
1F
100
AcDbEntity
  8
0
  6
CONTINUOUS
 62
     7
100
AcDbLine
 10
1438.6686356955
 20
763.6185050618
 30
0.0
 11
1446.7544453436
 21
771.7043147098
 31
0.0
  0
LINE
  5
22A
330
1F
100
AcDbEntity
  8
0
  6
CONTINUOUS
 62
     7
100
AcDbLine
 10
1430.5828260475
 20
771.7043147098
 30
0.0
 11
1446.7544453436
 21
771.7043147098
 31
0.0
  0
LINE
  5
22B
330
1F
100
AcDbEntity
  8
0
  6
CONTINUOUS
 62
     7
100
AcDbLine
 10
1438.6686356955
 20
763.6185050618
 30
0.0
 11
1430.5828260475
 21
771.7043147098
 31
0.0
  0
LINE
  5
22C
330
1F
100
AcDbEntity
  8
0
  6
CONTINUOUS
 62
     7
100
AcDbLine
 10
1420.0012879663
 20
762.6126841318
 30
0.0
 11
1428.918634563
 21
771.5300307285
 31
0.0
  0
LINE
  5
22D
330
1F
100
AcDbEntity
  8
0
  6
CONTINUOUS
 62
     7
100
AcDbLine
 10
1420.0012879663
 20
762.6126841318
 30
0.0
 11
1437.8359811598
 21
762.6126841318
 31
0.0
  0
LINE
  5
22E
330
1F
100
AcDbEntity
  8
0
  6
CONTINUOUS
 62
     7
100
AcDbLine
 10
1437.8359811598
 20
762.6126841318
 30
0.0
 11
1428.918634563
 21
771.5300307285
 31
0.0
  0
LINE
  5
22F
330
1F
100
AcDbEntity
  8
0
  6
CONTINUOUS
 62
     7
100
AcDbLine
 10
1342.0012882196
 20
762.6126841318
 30
0.0
 11
1359.8359807146
 21
762.6126841318
 31
0.0
  0
LINE
  5
230
330
1F
100
AcDbEntity
  8
0
  6
CONTINUOUS
 62
     7
100
AcDbLine
 10
1359.8359807146
 20
762.6126841318
 30
0.0
 11
1350.918633885
 21
771.5300307285
 31
0.0
  0
LINE
  5
231
330
1F
100
AcDbEntity
  8
0
  6
CONTINUOUS
 62
     7
100
AcDbLine
 10
1342.0012882196
 20
762.6126841318
 30
0.0
 11
1350.918633885
 21
771.5300307285
 31
0.0
  0
LINE
  5
232
330
1F
100
AcDbEntity
  8
0
  6
CONTINUOUS
 62
     7
100
AcDbLine
 10
1341.1686336839
 20
763.6185050618
 30
0.0
 11
1349.2544414693
 21
771.7043147098
 31
0.0
  0
LINE
  5
233
330
1F
100
AcDbEntity
  8
0
  6
CONTINUOUS
 62
     7
100
AcDbLine
 10
1333.0828258985
 20
771.7043147098
 30
0.0
 11
1349.2544414693
 21
771.7043147098
 31
0.0
  0
LINE
  5
234
330
1F
100
AcDbEntity
  8
0
  6
CONTINUOUS
 62
     7
100
AcDbLine
 10
1341.1686336839
 20
763.6185050618
 30
0.0
 11
1333.0828258985
 21
771.7043147098
 31
0.0
  0
LINE
  5
235
330
1F
100
AcDbEntity
  8
0
  6
CONTINUOUS
 62
     7
100
AcDbLine
 10
1322.5012878173
 20
762.6126841318
 30
0.0
 11
1340.3359810107
 21
762.6126841318
 31
0.0
  0
LINE
  5
236
330
1F
100
AcDbEntity
  8
0
  6
CONTINUOUS
 62
     7
100
AcDbLine
 10
1340.3359810107
 20
762.6126841318
 30
0.0
 11
1331.418634414
 21
771.5300307285
 31
0.0
  0
LINE
  5
237
330
1F
100
AcDbEntity
  8
0
  6
CONTINUOUS
 62
     7
100
AcDbLine
 10
1322.5012878173
 20
762.6126841318
 30
0.0
 11
1331.418634414
 21
771.5300307285
 31
0.0
  0
LINE
  5
238
330
1F
100
AcDbEntity
  8
0
  6
CONTINUOUS
 62
     7
100
AcDbLine
 10
1458.1686305099
 20
912.6068562876
 30
0.0
 11
1450.0828283125
 21
904.5210466396
 31
0.0
  0
LINE
  5
239
330
1F
100
AcDbEntity
  8
0
  6
CONTINUOUS
 62
     7
100
AcDbLine
 10
1466.254440158
 20
904.5210466396
 30
0.0
 11
1450.0828283125
 21
904.5210466396
 31
0.0
  0
LINE
  5
23A
330
1F
100
AcDbEntity
  8
0
  6
CONTINUOUS
 62
     7
100
AcDbLine
 10
1458.1686305099
 20
912.6068562876
 30
0.0
 11
1466.254440158
 21
904.5210466396
 31
0.0
  0
LINE
  5
23B
330
1F
100
AcDbEntity
  8
0
  6
CONTINUOUS
 62
     7
100
AcDbLine
 10
1321.6686332815
 20
763.6185050618
 30
0.0
 11
1329.7544410669
 21
771.7043147098
 31
0.0
  0
LINE
  5
23C
330
1F
100
AcDbEntity
  8
0
  6
CONTINUOUS
 62
     7
100
AcDbLine
 10
1313.5828273588
 20
771.7043147098
 30
0.0
 11
1329.7544410669
 21
771.7043147098
 31
0.0
  0
LINE
  5
23D
330
1F
100
AcDbEntity
  8
0
  6
CONTINUOUS
 62
     7
100
AcDbLine
 10
1321.6686332815
 20
763.6185050618
 30
0.0
 11
1313.5828273588
 21
771.7043147098
 31
0.0
  0
LINE
  5
23E
330
1F
100
AcDbEntity
  8
0
  6
CONTINUOUS
 62
     7
100
AcDbLine
 10
1303.0012892776
 20
762.6126841318
 30
0.0
 11
1320.8359824711
 21
762.6126841318
 31
0.0
  0
LINE
  5
23F
330
1F
100
AcDbEntity
  8
0
  6
CONTINUOUS
 62
     7
100
AcDbLine
 10
1320.8359824711
 20
762.6126841318
 30
0.0
 11
1311.9186358743
 21
771.5300307285
 31
0.0
  0
LINE
  5
240
330
1F
100
AcDbEntity
  8
0
  6
CONTINUOUS
 62
     7
100
AcDbLine
 10
1303.0012892776
 20
762.6126841318
 30
0.0
 11
1311.9186358743
 21
771.5300307285
 31
0.0
  0
LINE
  5
241
330
1F
100
AcDbEntity
  8
0
  6
CONTINUOUS
 62
     7
100
AcDbLine
 10
1438.6686356955
 20
912.6068562876
 30
0.0
 11
1430.5828260475
 21
904.5210466396
 31
0.0
  0
LINE
  5
242
330
1F
100
AcDbEntity
  8
0
  6
CONTINUOUS
 62
     7
100
AcDbLine
 10
1446.7544453436
 20
904.5210466396
 30
0.0
 11
1430.5828260475
 21
904.5210466396
 31
0.0
  0
LINE
  5
243
330
1F
100
AcDbEntity
  8
0
  6
CONTINUOUS
 62
     7
100
AcDbLine
 10
1438.6686356955
 20
912.6068562876
 30
0.0
 11
1446.7544453436
 21
904.5210466396
 31
0.0
  0
LINE
  5
244
330
1F
100
AcDbEntity
  8
0
  6
CONTINUOUS
 62
     7
100
AcDbLine
 10
1457.3359834247
 20
913.6126772176
 30
0.0
 11
1448.418636828
 21
904.6953306209
 31
0.0
  0
LINE
  5
245
330
1F
100
AcDbEntity
  8
0
  6
CONTINUOUS
 62
     7
100
AcDbLine
 10
1457.3359834247
 20
913.6126772176
 30
0.0
 11
1439.5012902313
 21
913.6126772176
 31
0.0
  0
LINE
  5
246
330
1F
100
AcDbEntity
  8
0
  6
CONTINUOUS
 62
     7
100
AcDbLine
 10
1439.5012902313
 20
913.6126772176
 30
0.0
 11
1448.418636828
 21
904.6953306209
 31
0.0
  0
LINE
  5
247
330
1F
100
AcDbEntity
  8
0
  6
CONTINUOUS
 62
     7
100
AcDbLine
 10
1302.1686347419
 20
763.6185050618
 30
0.0
 11
1310.2544406646
 21
771.7043147098
 31
0.0
  0
LINE
  5
248
330
1F
100
AcDbEntity
  8
0
  6
CONTINUOUS
 62
     7
100
AcDbLine
 10
1294.0828250938
 20
771.7043147098
 30
0.0
 11
1310.2544406646
 21
771.7043147098
 31
0.0
  0
LINE
  5
249
330
1F
100
AcDbEntity
  8
0
  6
CONTINUOUS
 62
     7
100
AcDbLine
 10
1302.1686347419
 20
763.6185050618
 30
0.0
 11
1294.0828250938
 21
771.7043147098
 31
0.0
  0
LINE
  5
24A
330
1F
100
AcDbEntity
  8
0
  6
CONTINUOUS
 62
     7
100
AcDbLine
 10
1283.5012870126
 20
762.6126841318
 30
0.0
 11
1301.3359802061
 21
762.6126841318
 31
0.0
  0
LINE
  5
24B
330
1F
100
AcDbEntity
  8
0
  6
CONTINUOUS
 62
     7
100
AcDbLine
 10
1301.3359802061
 20
762.6126841318
 30
0.0
 11
1292.4186336094
 21
771.5300307285
 31
0.0
  0
LINE
  5
24C
330
1F
100
AcDbEntity
  8
0
  6
CONTINUOUS
 62
     7
100
AcDbLine
 10
1283.5012870126
 20
762.6126841318
 30
0.0
 11
1292.4186336094
 21
771.5300307285
 31
0.0
  0
LINE
  5
24D
330
1F
100
AcDbEntity
  8
0
  6
CONTINUOUS
 62
     7
100
AcDbLine
 10
1419.1686334305
 20
912.6068562876
 30
0.0
 11
1411.0828275078
 21
904.5210466396
 31
0.0
  0
LINE
  5
24E
330
1F
100
AcDbEntity
  8
0
  6
CONTINUOUS
 62
     7
100
AcDbLine
 10
1427.2544430786
 20
904.5210466396
 30
0.0
 11
1411.0828275078
 21
904.5210466396
 31
0.0
  0
LINE
  5
24F
330
1F
100
AcDbEntity
  8
0
  6
CONTINUOUS
 62
     7
100
AcDbLine
 10
1419.1686334305
 20
912.6068562876
 30
0.0
 11
1427.2544430786
 21
904.5210466396
 31
0.0
  0
LINE
  5
250
330
1F
100
AcDbEntity
  8
0
  6
CONTINUOUS
 62
     7
100
AcDbLine
 10
1437.8359811598
 20
913.6126772176
 30
0.0
 11
1428.918634563
 21
904.6953306209
 31
0.0
  0
LINE
  5
251
330
1F
100
AcDbEntity
  8
0
  6
CONTINUOUS
 62
     7
100
AcDbLine
 10
1437.8359811598
 20
913.6126772176
 30
0.0
 11
1420.0012879663
 21
913.6126772176
 31
0.0
  0
LINE
  5
252
330
1F
100
AcDbEntity
  8
0
  6
CONTINUOUS
 62
     7
100
AcDbLine
 10
1420.0012879663
 20
913.6126772176
 30
0.0
 11
1428.918634563
 21
904.6953306209
 31
0.0
  0
LINE
  5
253
330
1F
100
AcDbEntity
  8
0
  6
CONTINUOUS
 62
     7
100
AcDbLine
 10
1282.6686324769
 20
763.6185050618
 30
0.0
 11
1290.7544421249
 21
771.7043147098
 31
0.0
  0
LINE
  5
254
330
1F
100
AcDbEntity
  8
0
  6
CONTINUOUS
 62
     7
100
AcDbLine
 10
1274.5828228288
 20
771.7043147098
 30
0.0
 11
1290.7544421249
 21
771.7043147098
 31
0.0
  0
LINE
  5
255
330
1F
100
AcDbEntity
  8
0
  6
CONTINUOUS
 62
     7
100
AcDbLine
 10
1282.6686324769
 20
763.6185050618
 30
0.0
 11
1274.5828228288
 21
771.7043147098
 31
0.0
  0
LINE
  5
256
330
1F
100
AcDbEntity
  8
0
  6
CONTINUOUS
 62
     7
100
AcDbLine
 10
1340.3359810107
 20
913.6126772176
 30
0.0
 11
1331.418634414
 21
904.6953306209
 31
0.0
  0
LINE
  5
257
330
1F
100
AcDbEntity
  8
0
  6
CONTINUOUS
 62
     7
100
AcDbLine
 10
1340.3359810107
 20
913.6126772176
 30
0.0
 11
1322.5012878173
 21
913.6126772176
 31
0.0
  0
LINE
  5
258
330
1F
100
AcDbEntity
  8
0
  6
CONTINUOUS
 62
     7
100
AcDbLine
 10
1331.418634414
 20
904.6953306209
 30
0.0
 11
1322.5012878173
 21
913.6126772176
 31
0.0
  0
LINE
  5
259
330
1F
100
AcDbEntity
  8
0
  6
CONTINUOUS
 62
     7
100
AcDbLine
 10
1380.1686344885
 20
912.6068562876
 30
0.0
 11
1372.0828267031
 21
904.5210466396
 31
0.0
  0
LINE
  5
25A
330
1F
100
AcDbEntity
  8
0
  6
CONTINUOUS
 62
     7
100
AcDbLine
 10
1388.2544422739
 20
904.5210466396
 30
0.0
 11
1372.0828267031
 21
904.5210466396
 31
0.0
  0
LINE
  5
25B
330
1F
100
AcDbEntity
  8
0
  6
CONTINUOUS
 62
     7
100
AcDbLine
 10
1380.1686344885
 20
912.6068562876
 30
0.0
 11
1388.2544422739
 21
904.5210466396
 31
0.0
  0
LINE
  5
25C
330
1F
100
AcDbEntity
  8
0
  6
CONTINUOUS
 62
     7
100
AcDbLine
 10
1370.4186342874
 20
904.6953306209
 30
0.0
 11
1361.5012874578
 21
913.6126772176
 31
0.0
  0
LINE
  5
25D
330
1F
100
AcDbEntity
  8
0
  6
CONTINUOUS
 62
     7
100
AcDbLine
 10
1379.3359799528
 20
913.6126772176
 30
0.0
 11
1370.4186342874
 21
904.6953306209
 31
0.0
  0
LINE
  5
25E
330
1F
100
AcDbEntity
  8
0
  6
CONTINUOUS
 62
     7
100
AcDbLine
 10
1379.3359799528
 20
913.6126772176
 30
0.0
 11
1361.5012874578
 21
913.6126772176
 31
0.0
  0
LINE
  5
25F
330
1F
100
AcDbEntity
  8
0
  6
CONTINUOUS
 62
     7
100
AcDbLine
 10
1360.6686340862
 20
912.6068562876
 30
0.0
 11
1352.5828263008
 21
904.5210466396
 31
0.0
  0
LINE
  5
260
330
1F
100
AcDbEntity
  8
0
  6
CONTINUOUS
 62
     7
100
AcDbLine
 10
1368.7544418716
 20
904.5210466396
 30
0.0
 11
1352.5828263008
 21
904.5210466396
 31
0.0
  0
LINE
  5
261
330
1F
100
AcDbEntity
  8
0
  6
CONTINUOUS
 62
     7
100
AcDbLine
 10
1360.6686340862
 20
912.6068562876
 30
0.0
 11
1368.7544418716
 21
904.5210466396
 31
0.0
  0
LINE
  5
262
330
1F
100
AcDbEntity
  8
0
  6
CONTINUOUS
 62
     7
100
AcDbLine
 10
1381.0012871617
 20
913.6126772176
 30
0.0
 11
1389.9186337584
 21
904.6953306209
 31
0.0
  0
LINE
  5
263
330
1F
100
AcDbEntity
  8
0
  6
CONTINUOUS
 62
     7
100
AcDbLine
 10
1398.8359803551
 20
913.6126772176
 30
0.0
 11
1389.9186337584
 21
904.6953306209
 31
0.0
  0
LINE
  5
264
330
1F
100
AcDbEntity
  8
0
  6
CONTINUOUS
 62
     7
100
AcDbLine
 10
1398.8359803551
 20
913.6126772176
 30
0.0
 11
1381.0012871617
 21
913.6126772176
 31
0.0
  0
LINE
  5
265
330
1F
100
AcDbEntity
  8
0
  6
CONTINUOUS
 62
     7
100
AcDbLine
 10
1341.1686336839
 20
912.6068562876
 30
0.0
 11
1333.0828258985
 21
904.5210466396
 31
0.0
  0
LINE
  5
266
330
1F
100
AcDbEntity
  8
0
  6
CONTINUOUS
 62
     7
100
AcDbLine
 10
1349.2544414693
 20
904.5210466396
 30
0.0
 11
1333.0828258985
 21
904.5210466396
 31
0.0
  0
LINE
  5
267
330
1F
100
AcDbEntity
  8
0
  6
CONTINUOUS
 62
     7
100
AcDbLine
 10
1341.1686336839
 20
912.6068562876
 30
0.0
 11
1349.2544414693
 21
904.5210466396
 31
0.0
  0
LINE
  5
268
330
1F
100
AcDbEntity
  8
0
  6
CONTINUOUS
 62
     7
100
AcDbLine
 10
1359.8359807146
 20
913.6126772176
 30
0.0
 11
1350.918633885
 21
904.6953306209
 31
0.0
  0
LINE
  5
269
330
1F
100
AcDbEntity
  8
0
  6
CONTINUOUS
 62
     7
100
AcDbLine
 10
1359.8359807146
 20
913.6126772176
 30
0.0
 11
1342.0012882196
 21
913.6126772176
 31
0.0
  0
LINE
  5
26A
330
1F
100
AcDbEntity
  8
0
  6
CONTINUOUS
 62
     7
100
AcDbLine
 10
1350.918633885
 20
904.6953306209
 30
0.0
 11
1342.0012882196
 21
913.6126772176
 31
0.0
  0
LINE
  5
26B
330
1F
100
AcDbEntity
  8
0
  6
CONTINUOUS
 62
     7
100
AcDbLine
 10
1301.3359802061
 20
913.6126772176
 30
0.0
 11
1292.4186336094
 21
904.6953306209
 31
0.0
  0
LINE
  5
26C
330
1F
100
AcDbEntity
  8
0
  6
CONTINUOUS
 62
     7
100
AcDbLine
 10
1301.3359802061
 20
913.6126772176
 30
0.0
 11
1283.5012870126
 21
913.6126772176
 31
0.0
  0
LINE
  5
26D
330
1F
100
AcDbEntity
  8
0
  6
CONTINUOUS
 62
     7
100
AcDbLine
 10
1292.4186336094
 20
904.6953306209
 30
0.0
 11
1283.5012870126
 21
913.6126772176
 31
0.0
  0
LINE
  5
26E
330
1F
100
AcDbEntity
  8
0
  6
CONTINUOUS
 62
     7
100
AcDbLine
 10
1302.1686347419
 20
912.6068562876
 30
0.0
 11
1310.2544406646
 21
904.5210466396
 31
0.0
  0
LINE
  5
26F
330
1F
100
AcDbEntity
  8
0
  6
CONTINUOUS
 62
     7
100
AcDbLine
 10
1302.1686347419
 20
912.6068562876
 30
0.0
 11
1294.0828250938
 21
904.5210466396
 31
0.0
  0
LINE
  5
270
330
1F
100
AcDbEntity
  8
0
  6
CONTINUOUS
 62
     7
100
AcDbLine
 10
1310.2544406646
 20
904.5210466396
 30
0.0
 11
1294.0828250938
 21
904.5210466396
 31
0.0
  0
LINE
  5
271
330
1F
100
AcDbEntity
  8
0
  6
CONTINUOUS
 62
     7
100
AcDbLine
 10
1263.1686376625
 20
912.6068562876
 30
0.0
 11
1271.2544398599
 21
904.5210466396
 31
0.0
  0
LINE
  5
272
330
1F
100
AcDbEntity
  8
0
  6
CONTINUOUS
 62
     7
100
AcDbLine
 10
1263.1686376625
 20
912.6068562876
 30
0.0
 11
1255.0828280144
 21
904.5210466396
 31
0.0
  0
LINE
  5
273
330
1F
100
AcDbEntity
  8
0
  6
CONTINUOUS
 62
     7
100
AcDbLine
 10
1271.2544398599
 20
904.5210466396
 30
0.0
 11
1255.0828280144
 21
904.5210466396
 31
0.0
  0
LINE
  5
274
330
1F
100
AcDbEntity
  8
0
  6
CONTINUOUS
 62
     7
100
AcDbLine
 10
1282.6686324769
 20
912.6068562876
 30
0.0
 11
1290.7544421249
 21
904.5210466396
 31
0.0
  0
LINE
  5
275
330
1F
100
AcDbEntity
  8
0
  6
CONTINUOUS
 62
     7
100
AcDbLine
 10
1282.6686324769
 20
912.6068562876
 30
0.0
 11
1274.5828228288
 21
904.5210466396
 31
0.0
  0
LINE
  5
276
330
1F
100
AcDbEntity
  8
0
  6
CONTINUOUS
 62
     7
100
AcDbLine
 10
1290.7544421249
 20
904.5210466396
 30
0.0
 11
1274.5828228288
 21
904.5210466396
 31
0.0
  0
LINE
  5
277
330
1F
100
AcDbEntity
  8
0
  6
CONTINUOUS
 62
     7
100
AcDbLine
 10
1281.8359779411
 20
913.6126772176
 30
0.0
 11
1272.9186313444
 21
904.6953306209
 31
0.0
  0
LINE
  5
278
330
1F
100
AcDbEntity
  8
0
  6
CONTINUOUS
 62
     7
100
AcDbLine
 10
1281.8359779411
 20
913.6126772176
 30
0.0
 11
1264.0012847477
 21
913.6126772176
 31
0.0
  0
LINE
  5
279
330
1F
100
AcDbEntity
  8
0
  6
CONTINUOUS
 62
     7
100
AcDbLine
 10
1272.9186313444
 20
904.6953306209
 30
0.0
 11
1264.0012847477
 21
913.6126772176
 31
0.0
  0
LINE
  5
27A
330
1F
100
AcDbEntity
  8
0
  6
CONTINUOUS
 62
     7
100
AcDbLine
 10
1321.6686332815
 20
912.6068562876
 30
0.0
 11
1329.7544410669
 21
904.5210466396
 31
0.0
  0
LINE
  5
27B
330
1F
100
AcDbEntity
  8
0
  6
CONTINUOUS
 62
     7
100
AcDbLine
 10
1321.6686332815
 20
912.6068562876
 30
0.0
 11
1313.5828273588
 21
904.5210466396
 31
0.0
  0
LINE
  5
27C
330
1F
100
AcDbEntity
  8
0
  6
CONTINUOUS
 62
     7
100
AcDbLine
 10
1329.7544410669
 20
904.5210466396
 30
0.0
 11
1313.5828273588
 21
904.5210466396
 31
0.0
  0
LINE
  5
27D
330
1F
100
AcDbEntity
  8
0
  6
CONTINUOUS
 62
     7
100
AcDbLine
 10
1320.8359824711
 20
913.6126772176
 30
0.0
 11
1311.9186358743
 21
904.6953306209
 31
0.0
  0
LINE
  5
27E
330
1F
100
AcDbEntity
  8
0
  6
CONTINUOUS
 62
     7
100
AcDbLine
 10
1320.8359824711
 20
913.6126772176
 30
0.0
 11
1303.0012892776
 21
913.6126772176
 31
0.0
  0
LINE
  5
27F
330
1F
100
AcDbEntity
  8
0
  6
CONTINUOUS
 62
     7
100
AcDbLine
 10
1311.9186358743
 20
904.6953306209
 30
0.0
 11
1303.0012892776
 21
913.6126772176
 31
0.0
  0
LINE
  5
280
330
1F
100
AcDbEntity
  8
0
  6
CONTINUOUS
 62
     7
100
AcDbLine
 10
1264.0012847477
 20
762.6126841318
 30
0.0
 11
1281.8359779411
 21
762.6126841318
 31
0.0
  0
LINE
  5
281
330
1F
100
AcDbEntity
  8
0
  6
CONTINUOUS
 62
     7
100
AcDbLine
 10
1281.8359779411
 20
762.6126841318
 30
0.0
 11
1272.9186313444
 21
771.5300307285
 31
0.0
  0
LINE
  5
282
330
1F
100
AcDbEntity
  8
0
  6
CONTINUOUS
 62
     7
100
AcDbLine
 10
1264.0012847477
 20
762.6126841318
 30
0.0
 11
1272.9186313444
 21
771.5300307285
 31
0.0
  0
LINE
  5
283
330
1F
100
AcDbEntity
  8
0
  6
CONTINUOUS
 62
     7
100
AcDbLine
 10
1241.5770041042
 20
893.1506373595
 30
0.0
 11
1241.5770041042
 21
783.0747239899
 31
0.0
  0
LINE
  5
284
330
1F
100
AcDbEntity
  8
0
  6
CONTINUOUS
 62
     7
100
AcDbLine
 10
1241.5770041042
 20
783.0747239899
 30
0.0
 11
1251.6306760007
 21
773.0210483681
 31
0.0
  0
LINE
  5
285
330
1F
100
AcDbEntity
  8
0
  6
CONTINUOUS
 62
     7
100
AcDbLine
 10
1251.6306760007
 20
773.0210483681
 30
0.0
 11
1469.7065921717
 21
773.0210483681
 31
0.0
  0
LINE
  5
286
330
1F
100
AcDbEntity
  8
0
  6
CONTINUOUS
 62
     7
100
AcDbLine
 10
1469.7065921717
 20
773.0210483681
 30
0.0
 11
1479.7602640682
 21
783.0747239899
 31
0.0
  0
LINE
  5
287
330
1F
100
AcDbEntity
  8
0
  6
CONTINUOUS
 62
     7
100
AcDbLine
 10
1479.7602640682
 20
783.0747239899
 30
0.0
 11
1479.7602640682
 21
893.1506373595
 31
0.0
  0
LINE
  5
288
330
1F
100
AcDbEntity
  8
0
  6
CONTINUOUS
 62
     7
100
AcDbLine
 10
1479.7602640682
 20
893.1506373595
 30
0.0
 11
1469.7065921717
 21
903.2043129813
 31
0.0
  0
LINE
  5
289
330
1F
100
AcDbEntity
  8
0
  6
CONTINUOUS
 62
     7
100
AcDbLine
 10
1469.7065921717
 20
903.2043129813
 30
0.0
 11
1251.6306760007
 21
903.2043129813
 31
0.0
  0
LINE
  5
28A
330
1F
100
AcDbEntity
  8
0
  6
CONTINUOUS
 62
     7
100
AcDbLine
 10
1251.6306760007
 20
903.2043129813
 30
0.0
 11
1241.5770041042
 21
893.1506373595
 31
0.0
  0
LINE
  5
28B
330
1F
100
AcDbEntity
  8
0
  6
CONTINUOUS
 62
     7
100
AcDbLine
 10
1399.6686348909
 20
912.6068562876
 30
0.0
 11
1391.5828271055
 21
904.5210466396
 31
0.0
  0
LINE
  5
28C
330
1F
100
AcDbEntity
  8
0
  6
CONTINUOUS
 62
     7
100
AcDbLine
 10
1407.7544408136
 20
904.5210466396
 30
0.0
 11
1391.5828271055
 21
904.5210466396
 31
0.0
  0
LINE
  5
28D
330
1F
100
AcDbEntity
  8
0
  6
CONTINUOUS
 62
     7
100
AcDbLine
 10
1399.6686348909
 20
912.6068562876
 30
0.0
 11
1407.7544408136
 21
904.5210466396
 31
0.0
  0
LINE
  5
28E
330
1F
100
AcDbEntity
  8
0
  6
CONTINUOUS
 62
     7
100
AcDbLine
 10
1418.3359788948
 20
913.6126772176
 30
0.0
 11
1409.4186322981
 21
904.6953306209
 31
0.0
  0
LINE
  5
28F
330
1F
100
AcDbEntity
  8
0
  6
CONTINUOUS
 62
     7
100
AcDbLine
 10
1418.3359788948
 20
913.6126772176
 30
0.0
 11
1400.5012857013
 21
913.6126772176
 31
0.0
  0
LINE
  5
290
330
1F
100
AcDbEntity
  8
0
  6
CONTINUOUS
 62
     7
100
AcDbLine
 10
1400.5012857013
 20
913.6126772176
 30
0.0
 11
1409.4186322981
 21
904.6953306209
 31
0.0
  0
LINE
  5
291
330
1F
100
AcDbEntity
  8
0
  6
CONTINUOUS
 62
     7
100
AcDbLine
 10
1263.1686376625
 20
763.6185050618
 30
0.0
 11
1271.2544398599
 21
771.7043147098
 31
0.0
  0
LINE
  5
292
330
1F
100
AcDbEntity
  8
0
  6
CONTINUOUS
 62
     7
100
AcDbLine
 10
1255.0828280144
 20
771.7043147098
 30
0.0
 11
1271.2544398599
 21
771.7043147098
 31
0.0
  0
LINE
  5
293
330
1F
100
AcDbEntity
  8
0
  6
CONTINUOUS
 62
     7
100
AcDbLine
 10
1263.1686376625
 20
763.6185050618
 30
0.0
 11
1255.0828280144
 21
771.7043147098
 31
0.0
  0
LINE
  5
294
330
1F
100
AcDbEntity
  8
0
  6
CONTINUOUS
 62
     7
100
AcDbLine
 10
1482.0878701502
 20
821.1126797508
 30
0.0
 11
1488.2878260904
 21
827.312638485
 31
0.0
  0
LINE
  5
295
330
1F
100
AcDbEntity
  8
0
  6
CONTINUOUS
 62
     7
100
AcDbLine
 10
1487.8694312864
 20
815.3311260652
 30
0.0
 11
1482.0878701502
 21
821.1126797508
 31
0.0
  0
LINE
  5
296
330
1F
100
AcDbEntity
  8
0
  6
CONTINUOUS
 62
     7
100
AcDbLine
 10
1487.8694312864
 20
815.3311260652
 30
0.0
 11
1488.2878260904
 21
827.312638485
 31
0.0
  0
LINE
  5
297
330
1F
100
AcDbEntity
  8
0
  6
CONTINUOUS
 62
     7
100
AcDbLine
 10
1488.3543597751
 20
829.217640185
 30
0.0
 11
1488.3810179525
 21
829.9810611319
 31
0.0
  0
LINE
  5
298
330
1F
100
AcDbEntity
  8
0
  6
CONTINUOUS
 62
     7
100
AcDbLine
 10
1481.0770051771
 20
837.2850739655
 30
0.0
 11
1488.3810179525
 21
829.9810611319
 31
0.0
  0
LINE
  5
299
330
1F
100
AcDbEntity
  8
0
  6
CONTINUOUS
 62
     7
100
AcDbLine
 10
1481.0770051771
 20
821.9402865182
 30
0.0
 11
1481.0770051771
 21
837.2850739655
 31
0.0
  0
LINE
  5
29A
330
1F
100
AcDbEntity
  8
0
  6
CONTINUOUS
 62
     7
100
AcDbLine
 10
1481.0770051771
 20
821.9402865182
 30
0.0
 11
1488.3543597751
 21
829.217640185
 31
0.0
  0
LINE
  5
29B
330
1F
100
AcDbEntity
  8
0
  6
CONTINUOUS
 62
     7
100
AcDbLine
 10
1470.2519970232
 20
771.7043147098
 30
0.0
 11
1481.0770051771
 21
782.5293154131
 31
0.0
  0
LINE
  5
29C
330
1F
100
AcDbEntity
  8
0
  6
CONTINUOUS
 62
     7
100
AcDbLine
 10
1468.0929230743
 20
771.7043147098
 30
0.0
 11
1470.2519970232
 21
771.7043147098
 31
0.0
  0
LINE
  5
29D
330
1F
100
AcDbEntity
  8
0
  6
CONTINUOUS
 62
     7
100
AcDbLine
 10
1459.0012850457
 20
762.6126841318
 30
0.0
 11
1468.0929230743
 21
771.7043147098
 31
0.0
  0
LINE
  5
29E
330
1F
100
AcDbEntity
  8
0
  6
CONTINUOUS
 62
     7
100
AcDbLine
 10
1459.0012850457
 20
762.6126841318
 30
0.0
 11
1467.526500135
 21
762.6126841318
 31
0.0
  0
ARC
  5
29F
330
1F
100
AcDbEntity
  8
0
  6
CONTINUOUS
 62
     7
100
AcDbCircle
 10
1467.5264984625
 20
766.6126806747
 30
0.0
 40
4.000000000000032
100
AcDbArc
 50
270.0
 51
315.0
  0
LINE
  5
2A0
330
1F
100
AcDbEntity
  8
0
  6
CONTINUOUS
 62
     7
100
AcDbLine
 10
1470.3549267941
 20
763.7842506777
 30
0.0
 11
1485.5238395029
 21
778.9531671118
 31
0.0
  0
ARC
  5
2A1
330
1F
100
AcDbEntity
  8
0
  6
CONTINUOUS
 62
     7
100
AcDbCircle
 10
1482.6954138212
 20
781.7815960335
 30
0.0
 40
3.999999999999952
100
AcDbArc
 50
315.0
 51
345.6646589821
  0
LINE
  5
2A2
330
1F
100
AcDbEntity
  8
0
  6
CONTINUOUS
 62
     7
100
AcDbLine
 10
1481.0770051771
 20
786.285074861
 30
0.0
 11
1486.5708695942
 21
780.7912104439
 31
0.0
  0
LINE
  5
2A3
330
1F
100
AcDbEntity
  8
0
  6
CONTINUOUS
 62
     7
100
AcDbLine
 10
1481.0770051771
 20
782.5293154131
 30
0.0
 11
1481.0770051771
 21
786.285074861
 31
0.0
  0
LINE
  5
2A4
330
1F
100
AcDbEntity
  8
0
  6
CONTINUOUS
 62
     7
100
AcDbLine
 10
1482.0878701502
 20
787.1126816284
 30
0.0
 11
1486.7221908861
 21
782.478368343
 31
0.0
  0
LINE
  5
2A5
330
1F
100
AcDbEntity
  8
0
  6
CONTINUOUS
 62
     7
100
AcDbLine
 10
1486.7221908861
 20
782.478368343
 30
0.0
 11
1487.0575564199
 21
792.0823716234
 31
0.0
  0
LINE
  5
2A6
330
1F
100
AcDbEntity
  8
0
  6
CONTINUOUS
 62
     7
100
AcDbLine
 10
1482.0878701502
 20
787.1126816284
 30
0.0
 11
1487.0575564199
 21
792.0823716234
 31
0.0
  0
LINE
  5
2A7
330
1F
100
AcDbEntity
  8
0
  6
CONTINUOUS
 62
     7
100
AcDbLine
 10
1487.1240901046
 20
793.9873733233
 30
0.0
 11
1487.2337775522
 21
797.1283034097
 31
0.0
  0
LINE
  5
2A8
330
1F
100
AcDbEntity
  8
0
  6
CONTINUOUS
 62
     7
100
AcDbLine
 10
1481.0770051771
 20
803.2850757848
 30
0.0
 11
1487.2337775522
 21
797.1283034097
 31
0.0
  0
LINE
  5
2A9
330
1F
100
AcDbEntity
  8
0
  6
CONTINUOUS
 62
     7
100
AcDbLine
 10
1481.0770051771
 20
787.9402883958
 30
0.0
 11
1481.0770051771
 21
803.2850757848
 31
0.0
  0
LINE
  5
2AA
330
1F
100
AcDbEntity
  8
0
  6
CONTINUOUS
 62
     7
100
AcDbLine
 10
1481.0770051771
 20
787.9402883958
 30
0.0
 11
1487.1240901046
 21
793.9873733233
 31
0.0
  0
LINE
  5
2AB
330
1F
100
AcDbEntity
  8
0
  6
CONTINUOUS
 62
     7
100
AcDbLine
 10
1487.6726912552
 20
866.5278558295
 30
0.0
 11
1482.0878701502
 21
872.1126825224
 31
0.0
  0
LINE
  5
2AC
330
1F
100
AcDbEntity
  8
0
  6
CONTINUOUS
 62
     7
100
AcDbLine
 10
1487.6726912552
 20
866.5278558295
 30
0.0
 11
1487.2958110862
 21
877.3206122827
 31
0.0
  0
LINE
  5
2AD
330
1F
100
AcDbEntity
  8
0
  6
CONTINUOUS
 62
     7
100
AcDbLine
 10
1482.0878701502
 20
872.1126825224
 30
0.0
 11
1487.2958110862
 21
877.3206122827
 31
0.0
  0
LINE
  5
2AE
330
1F
100
AcDbEntity
  8
0
  6
CONTINUOUS
 62
     7
100
AcDbLine
 10
1481.0770051771
 20
855.9402865033
 30
0.0
 11
1481.0770051771
 21
871.285075755
 31
0.0
  0
LINE
  5
2AF
330
1F
100
AcDbEntity
  8
0
  6
CONTINUOUS
 62
     7
100
AcDbLine
 10
1481.0770051771
 20
855.9402865033
 30
0.0
 11
1487.8073977524
 21
862.670677216
 31
0.0
  0
LINE
  5
2B0
330
1F
100
AcDbEntity
  8
0
  6
CONTINUOUS
 62
     7
100
AcDbLine
 10
1487.8073977524
 20
862.670677216
 30
0.0
 11
1487.7392249399
 21
864.6228541296
 31
0.0
  0
LINE
  5
2B1
330
1F
100
AcDbEntity
  8
0
  6
CONTINUOUS
 62
     7
100
AcDbLine
 10
1481.0770051771
 20
871.285075755
 30
0.0
 11
1487.7392249399
 21
864.6228541296
 31
0.0
  0
LINE
  5
2B2
330
1F
100
AcDbEntity
  8
0
  6
CONTINUOUS
 62
     7
100
AcDbLine
 10
1239.2493980222
 20
838.1126806747
 30
0.0
 11
1232.8942166858
 21
844.4678568888
 31
0.0
  0
LINE
  5
2B3
330
1F
100
AcDbEntity
  8
0
  6
CONTINUOUS
 62
     7
100
AcDbLine
 10
1232.8942166858
 20
844.4678568888
 30
0.0
 11
1232.6722936922
 21
838.1126806747
 31
0.0
  0
LINE
  5
2B4
330
1F
100
AcDbEntity
  8
0
  6
CONTINUOUS
 62
     7
100
AcDbLine
 10
1232.6722936922
 20
838.1126806747
 30
0.0
 11
1232.8942166858
 21
831.7575044606
 31
0.0
  0
LINE
  5
2B5
330
1F
100
AcDbEntity
  8
0
  6
CONTINUOUS
 62
     7
100
AcDbLine
 10
1239.2493980222
 20
838.1126806747
 30
0.0
 11
1232.8942166858
 21
831.7575044606
 31
0.0
  0
LINE
  5
2B6
330
1F
100
AcDbEntity
  8
0
  6
CONTINUOUS
 62
     7
100
AcDbLine
 10
1233.52987042
 20
813.5546841334
 30
0.0
 11
1240.2602629953
 21
820.2850748461
 31
0.0
  0
LINE
  5
2B7
330
1F
100
AcDbEntity
  8
0
  6
CONTINUOUS
 62
     7
100
AcDbLine
 10
1233.52987042
 20
813.5546841334
 30
0.0
 11
1233.5980432325
 21
811.6025072198
 31
0.0
  0
LINE
  5
2B8
330
1F
100
AcDbEntity
  8
0
  6
CONTINUOUS
 62
     7
100
AcDbLine
 10
1240.2602629953
 20
804.9402855944
 30
0.0
 11
1233.5980432325
 21
811.6025072198
 31
0.0
  0
LINE
  5
2B9
330
1F
100
AcDbEntity
  8
0
  6
CONTINUOUS
 62
     7
100
AcDbLine
 10
1240.2602629953
 20
820.2850748461
 30
0.0
 11
1240.2602629953
 21
804.9402855944
 31
0.0
  0
LINE
  5
2BA
330
1F
100
AcDbEntity
  8
0
  6
CONTINUOUS
 62
     7
100
AcDbLine
 10
1239.2493980222
 20
804.1126788269
 30
0.0
 11
1233.6645769172
 21
809.6975055199
 31
0.0
  0
LINE
  5
2BB
330
1F
100
AcDbEntity
  8
0
  6
CONTINUOUS
 62
     7
100
AcDbLine
 10
1233.6645769172
 20
809.6975055199
 30
0.0
 11
1234.0414570862
 21
798.9047490667
 31
0.0
  0
LINE
  5
2BC
330
1F
100
AcDbEntity
  8
0
  6
CONTINUOUS
 62
     7
100
AcDbLine
 10
1239.2493980222
 20
804.1126788269
 30
0.0
 11
1234.0414570862
 21
798.9047490667
 31
0.0
  0
LINE
  5
2BD
330
1F
100
AcDbEntity
  8
0
  6
CONTINUOUS
 62
     7
100
AcDbLine
 10
1239.2493980222
 20
855.1126815986
 30
0.0
 11
1233.049442082
 21
848.9127228644
 31
0.0
  0
LINE
  5
2BE
330
1F
100
AcDbEntity
  8
0
  6
CONTINUOUS
 62
     7
100
AcDbLine
 10
1239.2493980222
 20
855.1126815986
 30
0.0
 11
1233.467836886
 21
860.8942352842
 31
0.0
  0
LINE
  5
2BF
330
1F
100
AcDbEntity
  8
0
  6
CONTINUOUS
 62
     7
100
AcDbLine
 10
1233.467836886
 20
860.8942352842
 30
0.0
 11
1233.049442082
 21
848.9127228644
 31
0.0
  0
LINE
  5
2C0
330
1F
100
AcDbEntity
  8
0
  6
CONTINUOUS
 62
     7
100
AcDbLine
 10
1232.9829083973
 20
847.0077211644
 30
0.0
 11
1232.9562502199
 21
846.2443002175
 31
0.0
  0
LINE
  5
2C1
330
1F
100
AcDbEntity
  8
0
  6
CONTINUOUS
 62
     7
100
AcDbLine
 10
1240.2602629953
 20
838.9402873839
 30
0.0
 11
1232.9562502199
 21
846.2443002175
 31
0.0
  0
LINE
  5
2C2
330
1F
100
AcDbEntity
  8
0
  6
CONTINUOUS
 62
     7
100
AcDbLine
 10
1240.2602629953
 20
854.2850748311
 30
0.0
 11
1240.2602629953
 21
838.9402873839
 31
0.0
  0
LINE
  5
2C3
330
1F
100
AcDbEntity
  8
0
  6
CONTINUOUS
 62
     7
100
AcDbLine
 10
1232.9829083973
 20
847.0077211644
 30
0.0
 11
1240.2602629953
 21
854.2850748311
 31
0.0
  0
ARC
  5
2C4
330
1F
100
AcDbEntity
  8
0
  6
CONTINUOUS
 62
     7
100
AcDbCircle
 10
1238.6418543512
 20
894.4437653159
 30
0.0
 40
16.00000000000004
100
AcDbArc
 50
135.0
 51
178.0
  0
LINE
  5
2C5
330
1F
100
AcDbEntity
  8
0
  6
CONTINUOUS
 62
     7
100
AcDbLine
 10
1242.497061401
 20
920.926390649
 30
0.0
 11
1227.3281412416
 21
905.7574704896
 31
0.0
  0
ARC
  5
2C6
330
1F
100
AcDbEntity
  8
0
  6
CONTINUOUS
 62
     7
100
AcDbCircle
 10
1253.8107697099
 20
909.6126806747
 30
0.0
 40
16.00000000000013
100
AcDbArc
 50
90.0
 51
135.0
  0
LINE
  5
2C7
330
1F
100
AcDbEntity
  8
0
  6
CONTINUOUS
 62
     7
100
AcDbLine
 10
1467.526500135
 20
925.6126791846
 30
0.0
 11
1253.8107680374
 21
925.6126791846
 31
0.0
  0
ARC
  5
2C8
330
1F
100
AcDbEntity
  8
0
  6
CONTINUOUS
 62
     7
100
AcDbCircle
 10
1467.5264984625
 20
909.6126806747
 30
0.0
 40
16.00000000000013
100
AcDbArc
 50
45.0
 51
90.0
  0
LINE
  5
2C9
330
1F
100
AcDbEntity
  8
0
  6
CONTINUOUS
 62
     7
100
AcDbLine
 10
1494.0091269308
 20
905.7574704896
 30
0.0
 11
1478.8402067714
 21
920.926390649
 31
0.0
  0
ARC
  5
2CA
330
1F
100
AcDbEntity
  8
0
  6
CONTINUOUS
 62
     7
100
AcDbCircle
 10
1482.6954138212
 20
894.4437653159
 30
0.0
 40
16.00000000000005
100
AcDbArc
 50
2.0
 51
45.0
  0
LINE
  5
2CB
330
1F
100
AcDbEntity
  8
0
  6
CONTINUOUS
 62
     7
100
AcDbLine
 10
1499.8341994577
 20
862.1126808833
 30
0.0
 11
1498.6856626564
 21
895.0021587919
 31
0.0
  0
LINE
  5
2CC
330
1F
100
AcDbEntity
  8
0
  6
CONTINUOUS
 62
     7
100
AcDbLine
 10
1500.6722854667
 20
838.1126806747
 30
0.0
 11
1499.9389546209
 21
859.1126803916
 31
0.0
  0
LINE
  5
2CD
330
1F
100
AcDbEntity
  8
0
  6
CONTINUOUS
 62
     7
100
AcDbLine
 10
1499.9389546209
 20
817.1126809578
 30
0.0
 11
1500.6722854667
 21
838.1126806747
 31
0.0
  0
LINE
  5
2CE
330
1F
100
AcDbEntity
  8
0
  6
CONTINUOUS
 62
     7
100
AcDbLine
 10
1498.6856626564
 20
781.2232025575
 30
0.0
 11
1499.8341994577
 21
814.1126804661
 31
0.0
  0
ARC
  5
2CF
330
1F
100
AcDbEntity
  8
0
  6
CONTINUOUS
 62
     7
100
AcDbCircle
 10
1482.6954138212
 20
781.7815960335
 30
0.0
 40
16.00000000000005
100
AcDbArc
 50
315.0
 51
358.0
  0
LINE
  5
2D0
330
1F
100
AcDbEntity
  8
0
  6
CONTINUOUS
 62
     7
100
AcDbLine
 10
1478.8402067714
 20
755.2989707004
 30
0.0
 11
1494.0091269308
 21
770.4678908597
 31
0.0
  0
ARC
  5
2D1
330
1F
100
AcDbEntity
  8
0
  6
CONTINUOUS
 62
     7
100
AcDbCircle
 10
1467.5264984625
 20
766.6126806747
 30
0.0
 40
16.00000000000005
100
AcDbArc
 50
270.0
 51
315.0
  0
LINE
  5
2D2
330
1F
100
AcDbEntity
  8
0
  6
CONTINUOUS
 62
     7
100
AcDbLine
 10
1253.8107680374
 20
750.6126821648
 30
0.0
 11
1467.526500135
 21
750.6126821648
 31
0.0
  0
ARC
  5
2D3
330
1F
100
AcDbEntity
  8
0
  6
CONTINUOUS
 62
     7
100
AcDbCircle
 10
1253.8107697099
 20
766.6126806747
 30
0.0
 40
16.00000000000005
100
AcDbArc
 50
225.0
 51
270.0
  0
LINE
  5
2D4
330
1F
100
AcDbEntity
  8
0
  6
CONTINUOUS
 62
     7
100
AcDbLine
 10
1227.3281412416
 20
770.4678908597
 30
0.0
 11
1242.497061401
 21
755.2989707004
 31
0.0
  0
ARC
  5
2D5
330
1F
100
AcDbEntity
  8
0
  6
CONTINUOUS
 62
     7
100
AcDbCircle
 10
1238.6418543512
 20
781.7815960335
 30
0.0
 40
16.00000000000005
100
AcDbArc
 50
182.0
 51
225.0
  0
LINE
  5
2D6
330
1F
100
AcDbEntity
  8
0
  6
CONTINUOUS
 62
     7
100
AcDbLine
 10
1220.6649827057
 20
838.1126806747
 30
0.0
 11
1222.651605516
 21
781.2232025575
 31
0.0
  0
LINE
  5
2D7
330
1F
100
AcDbEntity
  8
0
  6
CONTINUOUS
 62
     7
100
AcDbLine
 10
1222.651605516
 20
895.0021587919
 30
0.0
 11
1220.6649827057
 21
838.1126806747
 31
0.0
  0
LINE
  5
2D8
330
1F
100
AcDbEntity
  8
0
  6
CONTINUOUS
 62
     7
100
AcDbLine
 10
1251.0852711492
 20
904.5210466396
 30
0.0
 11
1240.2602629953
 21
893.6960459362
 31
0.0
  0
LINE
  5
2D9
330
1F
100
AcDbEntity
  8
0
  6
CONTINUOUS
 62
     7
100
AcDbLine
 10
1253.2443450981
 20
904.5210466396
 30
0.0
 11
1251.0852711492
 21
904.5210466396
 31
0.0
  0
LINE
  5
2DA
330
1F
100
AcDbEntity
  8
0
  6
CONTINUOUS
 62
     7
100
AcDbLine
 10
1262.3359831267
 20
913.6126772176
 30
0.0
 11
1253.2443450981
 21
904.5210466396
 31
0.0
  0
LINE
  5
2DB
330
1F
100
AcDbEntity
  8
0
  6
CONTINUOUS
 62
     7
100
AcDbLine
 10
1262.3359831267
 20
913.6126772176
 30
0.0
 11
1253.8107680374
 21
913.6126772176
 31
0.0
  0
ARC
  5
2DC
330
1F
100
AcDbEntity
  8
0
  6
CONTINUOUS
 62
     7
100
AcDbCircle
 10
1253.8107697099
 20
909.6126806747
 30
0.0
 40
4.000000000000193
100
AcDbArc
 50
90.0
 51
135.0
  0
LINE
  5
2DD
330
1F
100
AcDbEntity
  8
0
  6
CONTINUOUS
 62
     7
100
AcDbLine
 10
1250.9823413783
 20
912.4411106717
 30
0.0
 11
1235.8134286695
 21
897.2721942376
 31
0.0
  0
ARC
  5
2DE
330
1F
100
AcDbEntity
  8
0
  6
CONTINUOUS
 62
     7
100
AcDbCircle
 10
1238.6418543512
 20
894.4437653159
 30
0.0
 40
4.00000000000012
100
AcDbArc
 50
135.0
 51
165.6646589821
  0
LINE
  5
2DF
330
1F
100
AcDbEntity
  8
0
  6
CONTINUOUS
 62
     7
100
AcDbLine
 10
1240.2602629953
 20
889.9402864884
 30
0.0
 11
1234.7663985782
 21
895.4341509055
 31
0.0
  0
LINE
  5
2E0
330
1F
100
AcDbEntity
  8
0
  6
CONTINUOUS
 62
     7
100
AcDbLine
 10
1240.2602629953
 20
893.6960459362
 30
0.0
 11
1240.2602629953
 21
889.9402864884
 31
0.0
  0
LINE
  5
2E1
330
1F
100
AcDbEntity
  8
0
  6
CONTINUOUS
 62
     7
100
AcDbLine
 10
1239.2493980222
 20
889.112679721
 30
0.0
 11
1234.6150772863
 21
893.7469930064
 31
0.0
  0
LINE
  5
2E2
330
1F
100
AcDbEntity
  8
0
  6
CONTINUOUS
 62
     7
100
AcDbLine
 10
1234.6150772863
 20
893.7469930064
 30
0.0
 11
1234.2797117525
 21
884.142989726
 31
0.0
  0
LINE
  5
2E3
330
1F
100
AcDbEntity
  8
0
  6
CONTINUOUS
 62
     7
100
AcDbLine
 10
1239.2493980222
 20
889.112679721
 30
0.0
 11
1234.2797117525
 21
884.142989726
 31
0.0
  0
LINE
  5
2E4
330
1F
100
AcDbEntity
  8
0
  6
CONTINUOUS
 62
     7
100
AcDbLine
 10
1234.2131780678
 20
882.237988026
 30
0.0
 11
1234.1034906202
 21
879.0970579397
 31
0.0
  0
LINE
  5
2E5
330
1F
100
AcDbEntity
  8
0
  6
CONTINUOUS
 62
     7
100
AcDbLine
 10
1240.2602629953
 20
872.9402855646
 30
0.0
 11
1234.1034906202
 21
879.0970579397
 31
0.0
  0
LINE
  5
2E6
330
1F
100
AcDbEntity
  8
0
  6
CONTINUOUS
 62
     7
100
AcDbLine
 10
1240.2602629953
 20
888.2850729536
 30
0.0
 11
1240.2602629953
 21
872.9402855646
 31
0.0
  0
LINE
  5
2E7
330
1F
100
AcDbEntity
  8
0
  6
CONTINUOUS
 62
     7
100
AcDbLine
 10
1240.2602629953
 20
888.2850729536
 30
0.0
 11
1234.2131780678
 21
882.237988026
 31
0.0
  0
LINE
  5
2E8
330
1F
100
AcDbEntity
  8
0
  6
CONTINUOUS
 62
     7
100
AcDbLine
 10
1242.4398632937
 20
755.2417725932
 30
0.0
 11
1241.8559165889
 21
755.8250859987
 31
0.0
  0
SPLINE
  5
2E9
330
1F
100
AcDbEntity
  8
0
  6
CONTINUOUS
 62
     7
100
AcDbSpline
210
0.0
220
0.0
230
1.0
 70
     8
 71
     3
 72
     8
 73
     4
 74
     0
 42
0.00000001
 43
0.00000001
 12
1.0
 22
0.0
 32
0.0
 13
1.0
 23
0.0
 33
0.0
 40
0.0
 40
0.0
 40
0.0
 40
0.0
 40
1.0
 40
1.0
 40
1.0
 40
1.0
 10
1241.855916308187
 20
755.8250891890202
 30
0.0
 10
1237.364188256865
 20
760.31661027614
 30
0.0
 10
1232.872563687645
 20
764.8082348453604
 30
0.0
 10
1228.381042600525
 20
769.2999628966816
 30
0.0
  0
LINE
  5
2EA
330
1F
100
AcDbEntity
  8
0
  6
CONTINUOUS
 62
     7
100
AcDbLine
 10
1228.3810423904
 20
769.2999601971
 30
0.0
 11
1227.271233707
 21
770.4109758746
 31
0.0
  0
LINE
  5
2EB
330
1F
100
AcDbEntity
  8
0
  6
CONTINUOUS
 62
     7
100
AcDbLine
 10
1227.271233707
 20
770.4109758746
 30
0.0
 11
1227.3281412416
 21
770.4678908597
 31
0.0
  0
LINE
  5
2EC
330
1F
100
AcDbEntity
  8
0
  6
CONTINUOUS
 62
     7
100
AcDbLine
 10
1242.4398632937
 20
755.2417725932
 30
0.0
 11
1242.497061401
 21
755.2989707004
 31
0.0
  0
ARC
  5
2ED
330
1F
100
AcDbEntity
  8
0
  6
CONTINUOUS
 62
     7
100
AcDbCircle
 10
1238.6541384727
 20
781.7815960335
 30
0.0
 40
16.08918052419321
100
AcDbArc
 50
181.9984733061
 51
224.9690672951
  0
LINE
  5
2EE
330
1F
100
AcDbEntity
  8
0
  6
CONTINUOUS
 62
     7
100
AcDbLine
 10
1222.5747453266
 20
781.2205203485
 30
0.0
 11
1222.651605516
 21
781.2232025575
 31
0.0
  0
LINE
  5
2EF
330
1F
100
AcDbEntity
  8
0
  6
CONTINUOUS
 62
     7
100
AcDbLine
 10
1222.5747453266
 20
781.2205203485
 30
0.0
 11
1220.5895381265
 21
838.1126806747
 31
0.0
  0
LINE
  5
2F0
330
1F
100
AcDbEntity
  8
0
  6
CONTINUOUS
 62
     7
100
AcDbLine
 10
1220.5895381265
 20
838.1126806747
 30
0.0
 11
1220.6649827057
 21
838.1126806747
 31
0.0
  0
LINE
  5
2F1
330
1F
100
AcDbEntity
  8
0
  6
CONTINUOUS
 62
     7
100
AcDbLine
 10
1251.0441886478
 20
763.8460979473
 30
0.0
 11
1250.9823413783
 21
763.7842506777
 31
0.0
  0
LINE
  5
2F2
330
1F
100
AcDbEntity
  8
0
  6
CONTINUOUS
 62
     7
100
AcDbLine
 10
1235.8749853664
 20
779.014727534
 30
0.0
 11
1235.8134286695
 21
778.9531671118
 31
0.0
  0
LINE
  5
2F3
330
1F
100
AcDbEntity
  8
0
  6
CONTINUOUS
 62
     7
100
AcDbLine
 10
1241.8651106053
 20
773.0310768496
 30
0.0
 11
1235.8749853664
 21
779.014727534
 31
0.0
  0
LINE
  5
2F4
330
1F
100
AcDbEntity
  8
0
  6
CONTINUOUS
 62
     7
100
AcDbLine
 10
1245.5870257908
 20
769.3091542136
 30
0.0
 11
1241.8651106053
 21
773.0310768496
 31
0.0
  0
LINE
  5
2F5
330
1F
100
AcDbEntity
  8
0
  6
CONTINUOUS
 62
     7
100
AcDbLine
 10
1251.0441886478
 20
763.8460979473
 30
0.0
 11
1245.5870257908
 21
769.3091542136
 31
0.0
  0
LINE
  5
2F6
330
1F
100
AcDbEntity
  8
0
  6
CONTINUOUS
 62
     7
100
AcDbLine
 10
1253.8107680374
 20
750.5353823911
 30
0.0
 11
1253.8107680374
 21
750.6126821648
 31
0.0
  0
ARC
  5
2F7
330
1F
100
AcDbEntity
  8
0
  6
CONTINUOUS
 62
     7
100
AcDbCircle
 10
1253.8107697099
 20
766.6249651033
 30
0.0
 40
16.08958272751181
100
AcDbArc
 50
225.0309327049
 51
270.0
  0
LWPOLYLINE
  5
2F8
330
1F
100
AcDbEntity
  8
0
  6
CONTINUOUS
 62
     7
100
AcDbPolyline
 90
        3
 70
   128
 43
0.0
 10
1234.862421661
 20
780.7652041923
 10
1234.7879009538
 20
780.7853319358
 10
1234.7663985782
 20
780.7912104439
  0
ARC
  5
2F9
330
1F
100
AcDbEntity
  8
0
  6
CONTINUOUS
 62
     7
100
AcDbCircle
 10
1238.6388684238
 20
781.7815960335
 30
0.0
 40
3.910831051825106
100
AcDbArc
 50
195.0636322267
 51
225.0309327049
  0
LINE
  5
2FA
330
1F
100
AcDbEntity
  8
0
  6
CONTINUOUS
 62
     7
100
AcDbLine
 10
1240.1699247056
 20
786.0669777404
 30
0.0
 11
1240.2602629953
 21
786.285074861
 31
0.0
  0
LINE
  5
2FB
330
1F
100
AcDbEntity
  8
0
  6
CONTINUOUS
 62
     7
100
AcDbLine
 10
1234.862421661
 20
780.7652041923
 30
0.0
 11
1240.1699247056
 21
786.0669777404
 31
0.0
  0
LINE
  5
2FC
330
1F
100
AcDbEntity
  8
0
  6
CONTINUOUS
 62
     7
100
AcDbLine
 10
1234.3731718355
 20
791.8674000215
 30
0.0
 11
1234.2797117525
 21
792.0823716234
 31
0.0
  0
LINE
  5
2FD
330
1F
100
AcDbEntity
  8
0
  6
CONTINUOUS
 62
     7
100
AcDbLine
 10
1234.6942769581
 20
782.679403634
 30
0.0
 11
1234.3731718355
 21
791.8674000215
 31
0.0
  0
LINE
  5
2FE
330
1F
100
AcDbEntity
  8
0
  6
CONTINUOUS
 62
     7
100
AcDbLine
 10
1234.6942769581
 20
782.679403634
 30
0.0
 11
1234.6150772863
 21
782.478368343
 31
0.0
  0
LINE
  5
2FF
330
1F
100
AcDbEntity
  8
0
  6
CONTINUOUS
 62
     7
100
AcDbLine
 10
1239.2493980222
 20
787.1126816284
 30
0.0
 11
1239.1227679544
 21
787.1126816284
 31
0.0
  0
LINE
  5
300
330
1F
100
AcDbEntity
  8
0
  6
CONTINUOUS
 62
     7
100
AcDbLine
 10
1234.6942769581
 20
782.679403634
 30
0.0
 11
1239.1227679544
 21
787.1126816284
 31
0.0
  0
LINE
  5
301
330
1F
100
AcDbEntity
  8
0
  6
CONTINUOUS
 62
     7
100
AcDbLine
 10
1251.0473104411
 20
771.612680019
 30
0.0
 11
1241.8651106053
 21
780.7948873054
 31
0.0
  0
LINE
  5
302
330
1F
100
AcDbEntity
  8
0
  6
CONTINUOUS
 62
     7
100
AcDbLine
 10
1241.8651106053
 20
780.7948873054
 30
0.0
 11
1240.1699247056
 21
782.4918948721
 31
0.0
  0
LINE
  5
303
330
1F
100
AcDbEntity
  8
0
  6
CONTINUOUS
 62
     7
100
AcDbLine
 10
1240.2602629953
 20
782.5293154131
 30
0.0
 11
1240.1699247056
 21
782.4918948721
 31
0.0
  0
LINE
  5
304
330
1F
100
AcDbEntity
  8
0
  6
CONTINUOUS
 62
     7
100
AcDbLine
 10
1251.0852711492
 20
771.7043147098
 30
0.0
 11
1251.0473104411
 21
771.612680019
 31
0.0
  0
LINE
  5
305
330
1F
100
AcDbEntity
  8
0
  6
CONTINUOUS
 62
     7
100
AcDbLine
 10
1234.3731718355
 20
791.8674000215
 30
0.0
 11
1239.1227679544
 21
787.1126816284
 31
0.0
  0
LINE
  5
306
330
1F
100
AcDbEntity
  8
0
  6
CONTINUOUS
 62
     7
100
AcDbLine
 10
1251.6306760007
 20
773.0210483681
 30
0.0
 11
1251.6686367088
 21
773.1126830589
 31
0.0
  0
LINE
  5
307
330
1F
100
AcDbEntity
  8
0
  6
CONTINUOUS
 62
     7
100
AcDbLine
 10
1241.5770041042
 20
783.0747239899
 30
0.0
 11
1241.6684823328
 21
783.1126176428
 31
0.0
  0
LINE
  5
308
330
1F
100
AcDbEntity
  8
0
  6
CONTINUOUS
 62
     7
100
AcDbLine
 10
1241.8651106053
 20
782.9162054371
 30
0.0
 11
1241.6684823328
 21
783.1126176428
 31
0.0
  0
LINE
  5
309
330
1F
100
AcDbEntity
  8
0
  6
CONTINUOUS
 62
     7
100
AcDbLine
 10
1251.6686367088
 20
773.1126830589
 30
0.0
 11
1241.8651106053
 21
782.9162054371
 31
0.0
  0
LINE
  5
30A
330
1F
100
AcDbEntity
  8
0
  6
CONTINUOUS
 62
     7
100
AcDbLine
 10
1234.2978017622
 20
794.0241680156
 30
0.0
 11
1234.2131780678
 21
793.9873733233
 31
0.0
  0
LINE
  5
30B
330
1F
100
AcDbEntity
  8
0
  6
CONTINUOUS
 62
     7
100
AcDbLine
 10
1234.2978017622
 20
794.0241680156
 30
0.0
 11
1240.1699247056
 21
788.158381791
 31
0.0
  0
LINE
  5
30C
330
1F
100
AcDbEntity
  8
0
  6
CONTINUOUS
 62
     7
100
AcDbLine
 10
1240.2602629953
 20
787.9402883958
 30
0.0
 11
1240.1699247056
 21
788.158381791
 31
0.0
  0
LINE
  5
30D
330
1F
100
AcDbEntity
  8
0
  6
CONTINUOUS
 62
     7
100
AcDbLine
 10
1467.526500135
 20
750.5353823911
 30
0.0
 11
1253.8107680374
 21
750.5353823911
 31
0.0
  0
LINE
  5
30E
330
1F
100
AcDbEntity
  8
0
  6
CONTINUOUS
 62
     7
100
AcDbLine
 10
1467.526500135
 20
750.5353823911
 30
0.0
 11
1467.526500135
 21
750.6126821648
 31
0.0
  0
LINE
  5
30F
330
1F
100
AcDbEntity
  8
0
  6
CONTINUOUS
 62
     7
100
AcDbLine
 10
1234.1905134016
 20
797.0940270137
 30
0.0
 11
1234.1034906202
 21
797.1283034097
 31
0.0
  0
LINE
  5
310
330
1F
100
AcDbEntity
  8
0
  6
CONTINUOUS
 62
     7
100
AcDbLine
 10
1234.2978017622
 20
794.0241680156
 30
0.0
 11
1234.1905134016
 21
797.0940270137
 31
0.0
  0
LINE
  5
311
330
1F
100
AcDbEntity
  8
0
  6
CONTINUOUS
 62
     7
100
AcDbLine
 10
1240.1699247056
 20
782.4918948721
 30
0.0
 11
1240.1699247056
 21
786.0669777404
 31
0.0
  0
ARC
  5
312
330
1F
100
AcDbEntity
  8
0
  6
CONTINUOUS
 62
     7
100
AcDbCircle
 10
1253.8107697099
 20
766.6096950544
 30
0.0
 40
3.910428931201182
100
AcDbArc
 50
224.9690672951
 51
270.0
  0
LINE
  5
313
330
1F
100
AcDbEntity
  8
0
  6
CONTINUOUS
 62
     7
100
AcDbLine
 10
1253.8107680374
 20
762.6992673289
 30
0.0
 11
1253.8107680374
 21
762.6126841318
 31
0.0
  0
LINE
  5
314
330
1F
100
AcDbEntity
  8
0
  6
CONTINUOUS
 62
     7
100
AcDbLine
 10
1240.1699247056
 20
803.0669786643
 30
0.0
 11
1240.2602629953
 21
803.2850757848
 31
0.0
  0
LINE
  5
315
330
1F
100
AcDbEntity
  8
0
  6
CONTINUOUS
 62
     7
100
AcDbLine
 10
1234.1905134016
 20
797.0940270137
 30
0.0
 11
1240.1699247056
 21
803.0669786643
 31
0.0
  0
LINE
  5
316
330
1F
100
AcDbEntity
  8
0
  6
CONTINUOUS
 62
     7
100
AcDbLine
 10
1233.7575303608
 20
809.4837111097
 30
0.0
 11
1233.6645769172
 21
809.6975055199
 31
0.0
  0
LINE
  5
317
330
1F
100
AcDbEntity
  8
0
  6
CONTINUOUS
 62
     7
100
AcDbLine
 10
1234.1202544265
 20
799.1047599029
 30
0.0
 11
1233.7575303608
 21
809.4837111097
 31
0.0
  0
LINE
  5
318
330
1F
100
AcDbEntity
  8
0
  6
CONTINUOUS
 62
     7
100
AcDbLine
 10
1234.1202544265
 20
799.1047599029
 30
0.0
 11
1234.0414570862
 21
798.9047490667
 31
0.0
  0
LINE
  5
319
330
1F
100
AcDbEntity
  8
0
  6
CONTINUOUS
 62
     7
100
AcDbLine
 10
1241.5770041042
 20
893.1506373595
 30
0.0
 11
1241.6684823328
 21
893.1127437066
 31
0.0
  0
LINE
  5
31A
330
1F
100
AcDbEntity
  8
0
  6
CONTINUOUS
 62
     7
100
AcDbLine
 10
1241.6684823328
 20
783.1126176428
 30
0.0
 11
1241.6684823328
 21
893.1127437066
 31
0.0
  0
LINE
  5
31B
330
1F
100
AcDbEntity
  8
0
  6
CONTINUOUS
 62
     7
100
AcDbLine
 10
1239.2493980222
 20
804.1126788269
 30
0.0
 11
1239.1227679544
 21
804.1126788269
 31
0.0
  0
LINE
  5
31C
330
1F
100
AcDbEntity
  8
0
  6
CONTINUOUS
 62
     7
100
AcDbLine
 10
1234.1202544265
 20
799.1047599029
 30
0.0
 11
1239.1227679544
 21
804.1126788269
 31
0.0
  0
LINE
  5
31D
330
1F
100
AcDbEntity
  8
0
  6
CONTINUOUS
 62
     7
100
AcDbLine
 10
1240.1699247056
 20
788.158381791
 30
0.0
 11
1240.1699247056
 21
803.0669786643
 31
0.0
  0
LINE
  5
31E
330
1F
100
AcDbEntity
  8
0
  6
CONTINUOUS
 62
     7
100
AcDbLine
 10
1262.3359831267
 20
762.6126841318
 30
0.0
 11
1262.1269421869
 21
762.6992673289
 31
0.0
  0
LINE
  5
31F
330
1F
100
AcDbEntity
  8
0
  6
CONTINUOUS
 62
     7
100
AcDbLine
 10
1255.509917646
 20
769.3091542136
 30
0.0
 11
1262.1269421869
 21
762.6992673289
 31
0.0
  0
LINE
  5
320
330
1F
100
AcDbEntity
  8
0
  6
CONTINUOUS
 62
     7
100
AcDbLine
 10
1253.2063918405
 20
771.612680019
 30
0.0
 11
1255.509917646
 21
769.3091542136
 31
0.0
  0
LINE
  5
321
330
1F
100
AcDbEntity
  8
0
  6
CONTINUOUS
 62
     7
100
AcDbLine
 10
1253.2063918405
 20
771.612680019
 30
0.0
 11
1253.2443450981
 21
771.7043147098
 31
0.0
  0
LINE
  5
322
330
1F
100
AcDbEntity
  8
0
  6
CONTINUOUS
 62
     7
100
AcDbLine
 10
1262.1269421869
 20
762.6992673289
 30
0.0
 11
1253.8107680374
 21
762.6992673289
 31
0.0
  0
LINE
  5
323
330
1F
100
AcDbEntity
  8
0
  6
CONTINUOUS
 62
     7
100
AcDbLine
 10
1233.6822049909
 20
811.6390988838
 30
0.0
 11
1233.5980432325
 21
811.6025072198
 31
0.0
  0
LINE
  5
324
330
1F
100
AcDbEntity
  8
0
  6
CONTINUOUS
 62
     7
100
AcDbLine
 10
1233.6822049909
 20
811.6390988838
 30
0.0
 11
1240.1699247056
 21
805.1583827149
 31
0.0
  0
LINE
  5
325
330
1F
100
AcDbEntity
  8
0
  6
CONTINUOUS
 62
     7
100
AcDbLine
 10
1240.2602629953
 20
804.9402855944
 30
0.0
 11
1240.1699247056
 21
805.1583827149
 31
0.0
  0
LINE
  5
326
330
1F
100
AcDbEntity
  8
0
  6
CONTINUOUS
 62
     7
100
AcDbLine
 10
1233.7575303608
 20
809.4837111097
 30
0.0
 11
1239.1227679544
 21
804.1126788269
 31
0.0
  0
LINE
  5
327
330
1F
100
AcDbEntity
  8
0
  6
CONTINUOUS
 62
     7
100
AcDbLine
 10
1251.0473104411
 20
771.612680019
 30
0.0
 11
1253.2063918405
 21
771.612680019
 31
0.0
  0
LINE
  5
328
330
1F
100
AcDbEntity
  8
0
  6
CONTINUOUS
 62
     7
100
AcDbLine
 10
1257.6075690084
 20
769.3091542136
 30
0.0
 11
1263.1686376625
 21
763.7420803915
 31
0.0
  0
LINE
  5
329
330
1F
100
AcDbEntity
  8
0
  6
CONTINUOUS
 62
     7
100
AcDbLine
 10
1263.1686376625
 20
763.6185050618
 30
0.0
 11
1263.1686376625
 21
763.7420803915
 31
0.0
  0
LINE
  5
32A
330
1F
100
AcDbEntity
  8
0
  6
CONTINUOUS
 62
     7
100
AcDbLine
 10
1255.3040432029
 20
771.612680019
 30
0.0
 11
1255.0828280144
 21
771.7043147098
 31
0.0
  0
LINE
  5
32B
330
1F
100
AcDbEntity
  8
0
  6
CONTINUOUS
 62
     7
100
AcDbLine
 10
1255.3040432029
 20
771.612680019
 30
0.0
 11
1257.6075690084
 21
769.3091542136
 31
0.0
  0
LINE
  5
32C
330
1F
100
AcDbEntity
  8
0
  6
CONTINUOUS
 62
     7
100
AcDbLine
 10
1251.6686367088
 20
773.1126830589
 30
0.0
 11
1469.6686314636
 21
773.1126830589
 31
0.0
  0
LINE
  5
32D
330
1F
100
AcDbEntity
  8
0
  6
CONTINUOUS
 62
     7
100
AcDbLine
 10
1469.7065921717
 20
773.0210483681
 30
0.0
 11
1469.6686314636
 21
773.1126830589
 31
0.0
  0
CIRCLE
  5
32E
330
1F
100
AcDbEntity
  8
0
  6
CONTINUOUS
 62
     7
100
AcDbCircle
 10
1255.6686340862
 20
783.1126806747
 30
0.0
 40
5.366668079663441
  0
CIRCLE
  5
32F
330
1F
100
AcDbEntity
  8
0
  6
CONTINUOUS
 62
     7
100
AcDbCircle
 10
1255.6686340862
 20
783.1126806747
 30
0.0
 40
5.0
  0
LINE
  5
330
330
1F
100
AcDbEntity
  8
0
  6
CONTINUOUS
 62
     7
100
AcDbLine
 10
1233.6164461666
 20
813.5205791007
 30
0.0
 11
1233.52987042
 21
813.5546841334
 31
0.0
  0
LINE
  5
331
330
1F
100
AcDbEntity
  8
0
  6
CONTINUOUS
 62
     7
100
AcDbLine
 10
1233.6822049909
 20
811.6390988838
 30
0.0
 11
1233.6164461666
 21
813.5205791007
 31
0.0
  0
LINE
  5
332
330
1F
100
AcDbEntity
  8
0
  6
CONTINUOUS
 62
     7
100
AcDbLine
 10
1220.5895381265
 20
838.1126806747
 30
0.0
 11
1222.5747453266
 21
895.0048410009
 31
0.0
  0
LINE
  5
333
330
1F
100
AcDbEntity
  8
0
  6
CONTINUOUS
 62
     7
100
AcDbLine
 10
1222.5747453266
 20
895.0048410009
 30
0.0
 11
1222.651605516
 21
895.0021587919
 31
0.0
  0
CIRCLE
  5
334
330
1F
100
AcDbEntity
  8
0
  6
CONTINUOUS
 62
     7
100
AcDbCircle
 10
1255.6686340862
 20
783.1126806747
 30
0.0
 40
2.599999999999909
  0
LINE
  5
335
330
1F
100
AcDbEntity
  8
0
  6
CONTINUOUS
 62
     7
100
AcDbLine
 10
1240.1699247056
 20
820.0669795882
 30
0.0
 11
1240.2602629953
 21
820.2850748461
 31
0.0
  0
LINE
  5
336
330
1F
100
AcDbEntity
  8
0
  6
CONTINUOUS
 62
     7
100
AcDbLine
 10
1233.6164461666
 20
813.5205791007
 30
0.0
 11
1240.1699247056
 21
820.0669795882
 31
0.0
  0
LINE
  5
337
330
1F
100
AcDbEntity
  8
0
  6
CONTINUOUS
 62
     7
100
AcDbLine
 10
1233.141888886
 20
827.1000221979
 30
0.0
 11
1233.049442082
 21
827.312638485
 31
0.0
  0
LINE
  5
338
330
1F
100
AcDbEntity
  8
0
  6
CONTINUOUS
 62
     7
100
AcDbLine
 10
1233.546231895
 20
815.5301143091
 30
0.0
 11
1233.141888886
 21
827.1000221979
 31
0.0
  0
LINE
  5
339
330
1F
100
AcDbEntity
  8
0
  6
CONTINUOUS
 62
     7
100
AcDbLine
 10
1233.546231895
 20
815.5301143091
 30
0.0
 11
1233.467836886
 21
815.3311260652
 31
0.0
  0
LINE
  5
33A
330
1F
100
AcDbEntity
  8
0
  6
CONTINUOUS
 62
     7
100
AcDbLine
 10
1271.0332246714
 20
771.612680019
 30
0.0
 11
1271.2544398599
 21
771.7043147098
 31
0.0
  0
LINE
  5
33B
330
1F
100
AcDbEntity
  8
0
  6
CONTINUOUS
 62
     7
100
AcDbLine
 10
1255.3040432029
 20
771.612680019
 30
0.0
 11
1271.0332246714
 21
771.612680019
 31
0.0
  0
LINE
  5
33C
330
1F
100
AcDbEntity
  8
0
  6
CONTINUOUS
 62
     7
100
AcDbLine
 10
1239.2493980222
 20
821.1126797508
 30
0.0
 11
1239.1227679544
 21
821.1126797508
 31
0.0
  0
LINE
  5
33D
330
1F
100
AcDbEntity
  8
0
  6
CONTINUOUS
 62
     7
100
AcDbLine
 10
1233.546231895
 20
815.5301143091
 30
0.0
 11
1239.1227679544
 21
821.1126797508
 31
0.0
  0
LINE
  5
33E
330
1F
100
AcDbEntity
  8
0
  6
CONTINUOUS
 62
     7
100
AcDbLine
 10
1240.1699247056
 20
805.1583827149
 30
0.0
 11
1240.1699247056
 21
820.0669795882
 31
0.0
  0
CIRCLE
  5
33F
330
1F
100
AcDbEntity
  8
0
  6
CONTINUOUS
 62
     7
100
AcDbCircle
 10
1255.6686340862
 20
783.1126806747
 30
0.0
 40
2.499641020405988
  0
LINE
  5
340
330
1F
100
AcDbEntity
  8
0
  6
CONTINUOUS
 62
     7
100
AcDbLine
 10
1233.141888886
 20
827.1000221979
 30
0.0
 11
1239.1227679544
 21
821.1126797508
 31
0.0
  0
LINE
  5
341
330
1F
100
AcDbEntity
  8
0
  6
CONTINUOUS
 62
     7
100
AcDbLine
 10
1233.0666082197
 20
829.2540325459
 30
0.0
 11
1232.9829083973
 21
829.217640185
 31
0.0
  0
LINE
  5
342
330
1F
100
AcDbEntity
  8
0
  6
CONTINUOUS
 62
     7
100
AcDbLine
 10
1233.0666082197
 20
829.2540325459
 30
0.0
 11
1240.1699247056
 21
822.1583817761
 31
0.0
  0
LINE
  5
343
330
1F
100
AcDbEntity
  8
0
  6
CONTINUOUS
 62
     7
100
AcDbLine
 10
1240.2602629953
 20
821.9402865182
 30
0.0
 11
1240.1699247056
 21
822.1583817761
 31
0.0
  0
LINE
  5
344
330
1F
100
AcDbEntity
  8
0
  6
CONTINUOUS
 62
     7
100
AcDbLine
 10
1263.1686376625
 20
763.7420803915
 30
0.0
 11
1268.729698866
 21
769.3091542136
 31
0.0
  0
LINE
  5
345
330
1F
100
AcDbEntity
  8
0
  6
CONTINUOUS
 62
     7
100
AcDbLine
 10
1268.729698866
 20
769.3091542136
 30
0.0
 11
1271.0332246714
 21
771.612680019
 31
0.0
  0
LINE
  5
346
330
1F
100
AcDbEntity
  8
0
  6
CONTINUOUS
 62
     7
100
AcDbLine
 10
1264.2103256875
 20
762.6992673289
 30
0.0
 11
1270.8273502284
 21
769.3091542136
 31
0.0
  0
LINE
  5
347
330
1F
100
AcDbEntity
  8
0
  6
CONTINUOUS
 62
     7
100
AcDbLine
 10
1264.2103256875
 20
762.6992673289
 30
0.0
 11
1264.0012847477
 21
762.6126841318
 31
0.0
  0
LINE
  5
348
330
1F
100
AcDbEntity
  8
0
  6
CONTINUOUS
 62
     7
100
AcDbLine
 10
1272.9186313444
 20
771.5300307285
 30
0.0
 11
1272.9186313444
 21
771.4004427802
 31
0.0
  0
LINE
  5
349
330
1F
100
AcDbEntity
  8
0
  6
CONTINUOUS
 62
     7
100
AcDbLine
 10
1272.9186313444
 20
771.4004427802
 30
0.0
 11
1270.8273502284
 21
769.3091542136
 31
0.0
  0
LINE
  5
34A
330
1F
100
AcDbEntity
  8
0
  6
CONTINUOUS
 62
     7
100
AcDbLine
 10
1281.8359779411
 20
762.6126841318
 30
0.0
 11
1281.6269444519
 21
762.6992673289
 31
0.0
  0
LINE
  5
34B
330
1F
100
AcDbEntity
  8
0
  6
CONTINUOUS
 62
     7
100
AcDbLine
 10
1281.6269444519
 20
762.6992673289
 30
0.0
 11
1264.2103256875
 21
762.6992673289
 31
0.0
  0
LINE
  5
34C
330
1F
100
AcDbEntity
  8
0
  6
CONTINUOUS
 62
     7
100
AcDbLine
 10
1233.0423789316
 20
829.9471330505
 30
0.0
 11
1232.9562502199
 21
829.9810611319
 31
0.0
  0
LINE
  5
34D
330
1F
100
AcDbEntity
  8
0
  6
CONTINUOUS
 62
     7
100
AcDbLine
 10
1233.0666082197
 20
829.2540325459
 30
0.0
 11
1233.0423789316
 21
829.9471330505
 31
0.0
  0
LINE
  5
34E
330
1F
100
AcDbEntity
  8
0
  6
CONTINUOUS
 62
     7
100
AcDbLine
 10
1240.1699247056
 20
837.0669791151
 30
0.0
 11
1240.2602629953
 21
837.2850739655
 31
0.0
  0
LINE
  5
34F
330
1F
100
AcDbEntity
  8
0
  6
CONTINUOUS
 62
     7
100
AcDbLine
 10
1240.1699247056
 20
837.0669791151
 30
0.0
 11
1233.0423789316
 21
829.9471330505
 31
0.0
  0
LINE
  5
350
330
1F
100
AcDbEntity
  8
0
  6
CONTINUOUS
 62
     7
100
AcDbLine
 10
1232.7570216947
 20
838.1126806747
 30
0.0
 11
1232.6722936922
 21
838.1126806747
 31
0.0
  0
LINE
  5
351
330
1F
100
AcDbEntity
  8
0
  6
CONTINUOUS
 62
     7
100
AcDbLine
 10
1232.9721944624
 20
831.955470578
 30
0.0
 11
1232.7570216947
 21
838.1126806747
 31
0.0
  0
LINE
  5
352
330
1F
100
AcDbEntity
  8
0
  6
CONTINUOUS
 62
     7
100
AcDbLine
 10
1232.9721944624
 20
831.955470578
 30
0.0
 11
1232.8942166858
 21
831.7575044606
 31
0.0
  0
LINE
  5
353
330
1F
100
AcDbEntity
  8
0
  6
CONTINUOUS
 62
     7
100
AcDbLine
 10
1239.2493980222
 20
838.1126806747
 30
0.0
 11
1239.1227679544
 21
838.1126806747
 31
0.0
  0
LINE
  5
354
330
1F
100
AcDbEntity
  8
0
  6
CONTINUOUS
 62
     7
100
AcDbLine
 10
1232.9721944624
 20
831.955470578
 30
0.0
 11
1239.1227679544
 21
838.1126806747
 31
0.0
  0
LINE
  5
355
330
1F
100
AcDbEntity
  8
0
  6
CONTINUOUS
 62
     7
100
AcDbLine
 10
1240.1699247056
 20
822.1583817761
 30
0.0
 11
1240.1699247056
 21
837.0669791151
 31
0.0
  0
LINE
  5
356
330
1F
100
AcDbEntity
  8
0
  6
CONTINUOUS
 62
     7
100
AcDbLine
 10
1232.9721944624
 20
844.2698907714
 30
0.0
 11
1232.8942166858
 21
844.4678568888
 31
0.0
  0
LINE
  5
357
330
1F
100
AcDbEntity
  8
0
  6
CONTINUOUS
 62
     7
100
AcDbLine
 10
1232.7570216947
 20
838.1126806747
 30
0.0
 11
1232.9721944624
 21
844.2698907714
 31
0.0
  0
LINE
  5
358
330
1F
100
AcDbEntity
  8
0
  6
CONTINUOUS
 62
     7
100
AcDbLine
 10
1232.9721944624
 20
844.2698907714
 30
0.0
 11
1239.1227679544
 21
838.1126806747
 31
0.0
  0
LINE
  5
359
330
1F
100
AcDbEntity
  8
0
  6
CONTINUOUS
 62
     7
100
AcDbLine
 10
1233.0423789316
 20
846.2782282989
 30
0.0
 11
1232.9562502199
 21
846.2443002175
 31
0.0
  0
LINE
  5
35A
330
1F
100
AcDbEntity
  8
0
  6
CONTINUOUS
 62
     7
100
AcDbLine
 10
1233.0423789316
 20
846.2782282989
 30
0.0
 11
1240.1699247056
 21
839.1583822343
 31
0.0
  0
LINE
  5
35B
330
1F
100
AcDbEntity
  8
0
  6
CONTINUOUS
 62
     7
100
AcDbLine
 10
1240.2602629953
 20
838.9402873839
 30
0.0
 11
1240.1699247056
 21
839.1583822343
 31
0.0
  0
LINE
  5
35C
330
1F
100
AcDbEntity
  8
0
  6
CONTINUOUS
 62
     7
100
AcDbLine
 10
1275.009919911
 20
769.3091542136
 30
0.0
 11
1281.6269444519
 21
762.6992673289
 31
0.0
  0
LINE
  5
35D
330
1F
100
AcDbEntity
  8
0
  6
CONTINUOUS
 62
     7
100
AcDbLine
 10
1272.9186313444
 20
771.4004427802
 30
0.0
 11
1275.009919911
 21
769.3091542136
 31
0.0
  0
LINE
  5
35E
330
1F
100
AcDbEntity
  8
0
  6
CONTINUOUS
 62
     7
100
AcDbLine
 10
1233.0666082197
 20
846.9713288035
 30
0.0
 11
1232.9829083973
 21
847.0077211644
 31
0.0
  0
LINE
  5
35F
330
1F
100
AcDbEntity
  8
0
  6
CONTINUOUS
 62
     7
100
AcDbLine
 10
1233.0423789316
 20
846.2782282989
 30
0.0
 11
1233.0666082197
 21
846.9713288035
 31
0.0
  0
LINE
  5
360
330
1F
100
AcDbEntity
  8
0
  6
CONTINUOUS
 62
     7
100
AcDbLine
 10
1277.1075712734
 20
769.3091542136
 30
0.0
 11
1282.6686324769
 21
763.7420803915
 31
0.0
  0
LINE
  5
361
330
1F
100
AcDbEntity
  8
0
  6
CONTINUOUS
 62
     7
100
AcDbLine
 10
1282.6686324769
 20
763.6185050618
 30
0.0
 11
1282.6686324769
 21
763.7420803915
 31
0.0
  0
LINE
  5
362
330
1F
100
AcDbEntity
  8
0
  6
CONTINUOUS
 62
     7
100
AcDbLine
 10
1274.8040454679
 20
771.612680019
 30
0.0
 11
1274.5828228288
 21
771.7043147098
 31
0.0
  0
LINE
  5
363
330
1F
100
AcDbEntity
  8
0
  6
CONTINUOUS
 62
     7
100
AcDbLine
 10
1274.8040454679
 20
771.612680019
 30
0.0
 11
1277.1075712734
 21
769.3091542136
 31
0.0
  0
LINE
  5
364
330
1F
100
AcDbEntity
  8
0
  6
CONTINUOUS
 62
     7
100
AcDbLine
 10
1240.1699247056
 20
854.0669795733
 30
0.0
 11
1240.2602629953
 21
854.2850748311
 31
0.0
  0
LINE
  5
365
330
1F
100
AcDbEntity
  8
0
  6
CONTINUOUS
 62
     7
100
AcDbLine
 10
1240.1699247056
 20
854.0669795733
 30
0.0
 11
1233.0666082197
 21
846.9713288035
 31
0.0
  0
LINE
  5
366
330
1F
100
AcDbEntity
  8
0
  6
CONTINUOUS
 62
     7
100
AcDbLine
 10
1239.2493980222
 20
855.1126815986
 30
0.0
 11
1239.1227679544
 21
855.1126815986
 31
0.0
  0
LINE
  5
367
330
1F
100
AcDbEntity
  8
0
  6
CONTINUOUS
 62
     7
100
AcDbLine
 10
1233.141888886
 20
849.1253391515
 30
0.0
 11
1233.049442082
 21
848.9127228644
 31
0.0
  0
LINE
  5
368
330
1F
100
AcDbEntity
  8
0
  6
CONTINUOUS
 62
     7
100
AcDbLine
 10
1233.141888886
 20
849.1253391515
 30
0.0
 11
1239.1227679544
 21
855.1126815986
 31
0.0
  0
LINE
  5
369
330
1F
100
AcDbEntity
  8
0
  6
CONTINUOUS
 62
     7
100
AcDbLine
 10
1233.546231895
 20
860.6952470403
 30
0.0
 11
1233.467836886
 21
860.8942352842
 31
0.0
  0
LINE
  5
36A
330
1F
100
AcDbEntity
  8
0
  6
CONTINUOUS
 62
     7
100
AcDbLine
 10
1233.141888886
 20
849.1253391515
 30
0.0
 11
1233.546231895
 21
860.6952470403
 31
0.0
  0
LINE
  5
36B
330
1F
100
AcDbEntity
  8
0
  6
CONTINUOUS
 62
     7
100
AcDbLine
 10
1240.1699247056
 20
839.1583822343
 30
0.0
 11
1240.1699247056
 21
854.0669795733
 31
0.0
  0
LINE
  5
36C
330
1F
100
AcDbEntity
  8
0
  6
CONTINUOUS
 62
     7
100
AcDbLine
 10
1290.5332194858
 20
771.612680019
 30
0.0
 11
1290.7544421249
 21
771.7043147098
 31
0.0
  0
LINE
  5
36D
330
1F
100
AcDbEntity
  8
0
  6
CONTINUOUS
 62
     7
100
AcDbLine
 10
1274.8040454679
 20
771.612680019
 30
0.0
 11
1290.5332194858
 21
771.612680019
 31
0.0
  0
LINE
  5
36E
330
1F
100
AcDbEntity
  8
0
  6
CONTINUOUS
 62
     7
100
AcDbLine
 10
1233.546231895
 20
860.6952470403
 30
0.0
 11
1239.1227679544
 21
855.1126815986
 31
0.0
  0
LINE
  5
36F
330
1F
100
AcDbEntity
  8
0
  6
CONTINUOUS
 62
     7
100
AcDbLine
 10
1240.2602629953
 20
855.9402865033
 30
0.0
 11
1240.1699247056
 21
856.1583817612
 31
0.0
  0
LINE
  5
370
330
1F
100
AcDbEntity
  8
0
  6
CONTINUOUS
 62
     7
100
AcDbLine
 10
1233.6164461666
 20
862.7047822486
 30
0.0
 11
1233.52987042
 21
862.670677216
 31
0.0
  0
LINE
  5
371
330
1F
100
AcDbEntity
  8
0
  6
CONTINUOUS
 62
     7
100
AcDbLine
 10
1233.6164461666
 20
862.7047822486
 30
0.0
 11
1240.1699247056
 21
856.1583817612
 31
0.0
  0
LINE
  5
372
330
1F
100
AcDbEntity
  8
0
  6
CONTINUOUS
 62
     7
100
AcDbLine
 10
1282.6686324769
 20
763.7420803915
 30
0.0
 11
1288.2296936804
 21
769.3091542136
 31
0.0
  0
LINE
  5
373
330
1F
100
AcDbEntity
  8
0
  6
CONTINUOUS
 62
     7
100
AcDbLine
 10
1288.2296936804
 20
769.3091542136
 30
0.0
 11
1290.5332194858
 21
771.612680019
 31
0.0
  0
LINE
  5
374
330
1F
100
AcDbEntity
  8
0
  6
CONTINUOUS
 62
     7
100
AcDbLine
 10
1301.3359802061
 20
762.6126841318
 30
0.0
 11
1301.1269467169
 21
762.6992673289
 31
0.0
  0
LINE
  5
375
330
1F
100
AcDbEntity
  8
0
  6
CONTINUOUS
 62
     7
100
AcDbLine
 10
1283.7103205019
 20
762.6992673289
 30
0.0
 11
1283.5012870126
 21
762.6126841318
 31
0.0
  0
LINE
  5
376
330
1F
100
AcDbEntity
  8
0
  6
CONTINUOUS
 62
     7
100
AcDbLine
 10
1301.1269467169
 20
762.6992673289
 30
0.0
 11
1283.7103205019
 21
762.6992673289
 31
0.0
  0
LINE
  5
377
330
1F
100
AcDbEntity
  8
0
  6
CONTINUOUS
 62
     7
100
AcDbLine
 10
1283.7103205019
 20
762.6992673289
 30
0.0
 11
1290.3273524934
 21
769.3091542136
 31
0.0
  0
LINE
  5
378
330
1F
100
AcDbEntity
  8
0
  6
CONTINUOUS
 62
     7
100
AcDbLine
 10
1292.4186336094
 20
771.5300307285
 30
0.0
 11
1292.4186336094
 21
771.4004427802
 31
0.0
  0
LINE
  5
379
330
1F
100
AcDbEntity
  8
0
  6
CONTINUOUS
 62
     7
100
AcDbLine
 10
1292.4186336094
 20
771.4004427802
 30
0.0
 11
1290.3273524934
 21
769.3091542136
 31
0.0
  0
LINE
  5
37A
330
1F
100
AcDbEntity
  8
0
  6
CONTINUOUS
 62
     7
100
AcDbLine
 10
1233.6822049909
 20
864.5862624656
 30
0.0
 11
1233.5980432325
 21
864.6228541296
 31
0.0
  0
LINE
  5
37B
330
1F
100
AcDbEntity
  8
0
  6
CONTINUOUS
 62
     7
100
AcDbLine
 10
1233.6164461666
 20
862.7047822486
 30
0.0
 11
1233.6822049909
 21
864.5862624656
 31
0.0
  0
LINE
  5
37C
330
1F
100
AcDbEntity
  8
0
  6
CONTINUOUS
 62
     7
100
AcDbLine
 10
1240.1699247056
 20
871.0669786345
 30
0.0
 11
1240.2602629953
 21
871.285075755
 31
0.0
  0
LINE
  5
37D
330
1F
100
AcDbEntity
  8
0
  6
CONTINUOUS
 62
     7
100
AcDbLine
 10
1240.1699247056
 20
871.0669786345
 30
0.0
 11
1233.6822049909
 21
864.5862624656
 31
0.0
  0
LINE
  5
37E
330
1F
100
AcDbEntity
  8
0
  6
CONTINUOUS
 62
     7
100
AcDbLine
 10
1239.2493980222
 20
872.1126825224
 30
0.0
 11
1239.1227679544
 21
872.1126825224
 31
0.0
  0
LINE
  5
37F
330
1F
100
AcDbEntity
  8
0
  6
CONTINUOUS
 62
     7
100
AcDbLine
 10
1233.7575303608
 20
866.7416502397
 30
0.0
 11
1233.6645769172
 21
866.5278558295
 31
0.0
  0
LINE
  5
380
330
1F
100
AcDbEntity
  8
0
  6
CONTINUOUS
 62
     7
100
AcDbLine
 10
1233.7575303608
 20
866.7416502397
 30
0.0
 11
1239.1227679544
 21
872.1126825224
 31
0.0
  0
LINE
  5
381
330
1F
100
AcDbEntity
  8
0
  6
CONTINUOUS
 62
     7
100
AcDbLine
 10
1234.1202544265
 20
877.1206014465
 30
0.0
 11
1234.0414570862
 21
877.3206122827
 31
0.0
  0
LINE
  5
382
330
1F
100
AcDbEntity
  8
0
  6
CONTINUOUS
 62
     7
100
AcDbLine
 10
1233.7575303608
 20
866.7416502397
 30
0.0
 11
1234.1202544265
 21
877.1206014465
 31
0.0
  0
LINE
  5
383
330
1F
100
AcDbEntity
  8
0
  6
CONTINUOUS
 62
     7
100
AcDbLine
 10
1240.1699247056
 20
856.1583817612
 30
0.0
 11
1240.1699247056
 21
871.0669786345
 31
0.0
  0
LINE
  5
384
330
1F
100
AcDbEntity
  8
0
  6
CONTINUOUS
 62
     7
100
AcDbLine
 10
1234.1202544265
 20
877.1206014465
 30
0.0
 11
1239.1227679544
 21
872.1126825224
 31
0.0
  0
ARC
  5
385
330
1F
100
AcDbEntity
  8
0
  6
CONTINUOUS
 62
     7
100
AcDbCircle
 10
1238.6541384727
 20
894.4437653159
 30
0.0
 40
16.0891805241932
100
AcDbArc
 50
135.0309327049
 51
178.0015266939
  0
LINE
  5
386
330
1F
100
AcDbEntity
  8
0
  6
CONTINUOUS
 62
     7
100
AcDbLine
 10
1227.271233707
 20
905.8143854748
 30
0.0
 11
1227.3281412416
 21
905.7574704896
 31
0.0
  0
LINE
  5
387
330
1F
100
AcDbEntity
  8
0
  6
CONTINUOUS
 62
     7
100
AcDbLine
 10
1240.2602629953
 20
872.9402855646
 30
0.0
 11
1240.1699247056
 21
873.1583826851
 31
0.0
  0
LINE
  5
388
330
1F
100
AcDbEntity
  8
0
  6
CONTINUOUS
 62
     7
100
AcDbLine
 10
1234.1905134016
 20
879.1313343357
 30
0.0
 11
1234.1034906202
 21
879.0970579397
 31
0.0
  0
LINE
  5
389
330
1F
100
AcDbEntity
  8
0
  6
CONTINUOUS
 62
     7
100
AcDbLine
 10
1234.1905134016
 20
879.1313343357
 30
0.0
 11
1240.1699247056
 21
873.1583826851
 31
0.0
  0
LINE
  5
38A
330
1F
100
AcDbEntity
  8
0
  6
CONTINUOUS
 62
     7
100
AcDbLine
 10
1234.2978017622
 20
882.2011933338
 30
0.0
 11
1234.2131780678
 21
882.237988026
 31
0.0
  0
LINE
  5
38B
330
1F
100
AcDbEntity
  8
0
  6
CONTINUOUS
 62
     7
100
AcDbLine
 10
1234.1905134016
 20
879.1313343357
 30
0.0
 11
1234.2978017622
 21
882.2011933338
 31
0.0
  0
LINE
  5
38C
330
1F
100
AcDbEntity
  8
0
  6
CONTINUOUS
 62
     7
100
AcDbLine
 10
1294.509922176
 20
769.3091542136
 30
0.0
 11
1301.1269467169
 21
762.6992673289
 31
0.0
  0
LINE
  5
38D
330
1F
100
AcDbEntity
  8
0
  6
CONTINUOUS
 62
     7
100
AcDbLine
 10
1292.4186336094
 20
771.4004427802
 30
0.0
 11
1294.509922176
 21
769.3091542136
 31
0.0
  0
LINE
  5
38E
330
1F
100
AcDbEntity
  8
0
  6
CONTINUOUS
 62
     7
100
AcDbLine
 10
1240.1699247056
 20
888.0669795584
 30
0.0
 11
1240.2602629953
 21
888.2850729536
 31
0.0
  0
LINE
  5
38F
330
1F
100
AcDbEntity
  8
0
  6
CONTINUOUS
 62
     7
100
AcDbLine
 10
1240.1699247056
 20
888.0669795584
 30
0.0
 11
1234.2978017622
 21
882.2011933338
 31
0.0
  0
LINE
  5
390
330
1F
100
AcDbEntity
  8
0
  6
CONTINUOUS
 62
     7
100
AcDbLine
 10
1296.6075735384
 20
769.3091542136
 30
0.0
 11
1302.1686347419
 21
763.7420803915
 31
0.0
  0
LINE
  5
391
330
1F
100
AcDbEntity
  8
0
  6
CONTINUOUS
 62
     7
100
AcDbLine
 10
1302.1686347419
 20
763.6185050618
 30
0.0
 11
1302.1686347419
 21
763.7420803915
 31
0.0
  0
LINE
  5
392
330
1F
100
AcDbEntity
  8
0
  6
CONTINUOUS
 62
     7
100
AcDbLine
 10
1294.3040477329
 20
771.612680019
 30
0.0
 11
1294.0828250938
 21
771.7043147098
 31
0.0
  0
LINE
  5
393
330
1F
100
AcDbEntity
  8
0
  6
CONTINUOUS
 62
     7
100
AcDbLine
 10
1294.3040477329
 20
771.612680019
 30
0.0
 11
1296.6075735384
 21
769.3091542136
 31
0.0
  0
LINE
  5
394
330
1F
100
AcDbEntity
  8
0
  6
CONTINUOUS
 62
     7
100
AcDbLine
 10
1239.2493980222
 20
889.112679721
 30
0.0
 11
1239.1227679544
 21
889.112679721
 31
0.0
  0
LINE
  5
395
330
1F
100
AcDbEntity
  8
0
  6
CONTINUOUS
 62
     7
100
AcDbLine
 10
1234.3731718355
 20
884.3579613279
 30
0.0
 11
1234.2797117525
 21
884.142989726
 31
0.0
  0
LINE
  5
396
330
1F
100
AcDbEntity
  8
0
  6
CONTINUOUS
 62
     7
100
AcDbLine
 10
1234.3731718355
 20
884.3579613279
 30
0.0
 11
1239.1227679544
 21
889.112679721
 31
0.0
  0
LINE
  5
397
330
1F
100
AcDbEntity
  8
0
  6
CONTINUOUS
 62
     7
100
AcDbLine
 10
1234.6942769581
 20
893.5459577154
 30
0.0
 11
1234.6150772863
 21
893.7469930064
 31
0.0
  0
LINE
  5
398
330
1F
100
AcDbEntity
  8
0
  6
CONTINUOUS
 62
     7
100
AcDbLine
 10
1234.3731718355
 20
884.3579613279
 30
0.0
 11
1234.6942769581
 21
893.5459577154
 31
0.0
  0
LINE
  5
399
330
1F
100
AcDbEntity
  8
0
  6
CONTINUOUS
 62
     7
100
AcDbLine
 10
1240.1699247056
 20
873.1583826851
 30
0.0
 11
1240.1699247056
 21
888.0669795584
 31
0.0
  0
LINE
  5
39A
330
1F
100
AcDbEntity
  8
0
  6
CONTINUOUS
 62
     7
100
AcDbLine
 10
1234.6942769581
 20
893.5459577154
 30
0.0
 11
1239.1227679544
 21
889.112679721
 31
0.0
  0
LINE
  5
39B
330
1F
100
AcDbEntity
  8
0
  6
CONTINUOUS
 62
     7
100
AcDbLine
 10
1240.2602629953
 20
889.9402864884
 30
0.0
 11
1240.1699247056
 21
890.158383609
 31
0.0
  0
LWPOLYLINE
  5
39C
330
1F
100
AcDbEntity
  8
0
  6
CONTINUOUS
 62
     7
100
AcDbPolyline
 90
        3
 70
   128
 43
0.0
 10
1234.862421661
 20
895.4601571571
 10
1234.7879009538
 20
895.4400294136
 10
1234.7663985782
 20
895.4341509055
  0
LINE
  5
39D
330
1F
100
AcDbEntity
  8
0
  6
CONTINUOUS
 62
     7
100
AcDbLine
 10
1234.862421661
 20
895.4601571571
 30
0.0
 11
1240.1699247056
 21
890.158383609
 31
0.0
  0
LINE
  5
39E
330
1F
100
AcDbEntity
  8
0
  6
CONTINUOUS
 62
     7
100
AcDbLine
 10
1310.0332217508
 20
771.612680019
 30
0.0
 11
1310.2544406646
 21
771.7043147098
 31
0.0
  0
LINE
  5
39F
330
1F
100
AcDbEntity
  8
0
  6
CONTINUOUS
 62
     7
100
AcDbLine
 10
1294.3040477329
 20
771.612680019
 30
0.0
 11
1310.0332217508
 21
771.612680019
 31
0.0
  0
LINE
  5
3A0
330
1F
100
AcDbEntity
  8
0
  6
CONTINUOUS
 62
     7
100
AcDbLine
 10
1227.271233707
 20
905.8143854748
 30
0.0
 11
1228.3810423904
 21
906.9254011523
 31
0.0
  0
SPLINE
  5
3A1
330
1F
100
AcDbEntity
  8
0
  6
CONTINUOUS
 62
     7
100
AcDbSpline
210
0.0
220
0.0
230
1.0
 70
     8
 71
     3
 72
     8
 73
     4
 74
     0
 42
0.00000001
 43
0.00000001
 12
1.0
 22
0.0
 32
0.0
 13
1.0
 23
0.0
 33
0.0
 40
0.0
 40
0.0
 40
0.0
 40
0.0
 40
1.0
 40
1.0
 40
1.0
 40
1.0
 10
1228.381042600525
 20
906.9253984527062
 30
0.0
 10
1232.872563687645
 20
911.4171265040271
 30
0.0
 10
1237.364188256866
 20
915.9087510732476
 30
0.0
 10
1241.855916308187
 20
920.4002721603674
 30
0.0
  0
LINE
  5
3A2
330
1F
100
AcDbEntity
  8
0
  6
CONTINUOUS
 62
     7
100
AcDbLine
 10
1241.8559165889
 20
920.4002753507
 30
0.0
 11
1242.4398632937
 21
920.9835887562
 31
0.0
  0
LINE
  5
3A3
330
1F
100
AcDbEntity
  8
0
  6
CONTINUOUS
 62
     7
100
AcDbLine
 10
1242.4398632937
 20
920.9835887562
 30
0.0
 11
1242.497061401
 21
920.926390649
 31
0.0
  0
LINE
  5
3A4
330
1F
100
AcDbEntity
  8
0
  6
CONTINUOUS
 62
     7
100
AcDbLine
 10
1235.8749853664
 20
897.2106338154
 30
0.0
 11
1235.8134286695
 21
897.2721942376
 31
0.0
  0
ARC
  5
3A5
330
1F
100
AcDbEntity
  8
0
  6
CONTINUOUS
 62
     7
100
AcDbCircle
 10
1238.6388684238
 20
894.4437653159
 30
0.0
 40
3.910831051825106
100
AcDbArc
 50
134.9690672951
 51
164.9363677733
  0
LINE
  5
3A6
330
1F
100
AcDbEntity
  8
0
  6
CONTINUOUS
 62
     7
100
AcDbLine
 10
1302.1686347419
 20
763.7420803915
 30
0.0
 11
1307.7296959453
 21
769.3091542136
 31
0.0
  0
LINE
  5
3A7
330
1F
100
AcDbEntity
  8
0
  6
CONTINUOUS
 62
     7
100
AcDbLine
 10
1307.7296959453
 20
769.3091542136
 30
0.0
 11
1310.0332217508
 21
771.612680019
 31
0.0
  0
LINE
  5
3A8
330
1F
100
AcDbEntity
  8
0
  6
CONTINUOUS
 62
     7
100
AcDbLine
 10
1241.8651106053
 20
903.1942844998
 30
0.0
 11
1245.5870257908
 21
906.9162071358
 31
0.0
  0
LINE
  5
3A9
330
1F
100
AcDbEntity
  8
0
  6
CONTINUOUS
 62
     7
100
AcDbLine
 10
1235.8749853664
 20
897.2106338154
 30
0.0
 11
1241.8651106053
 21
903.1942844998
 31
0.0
  0
LINE
  5
3AA
330
1F
100
AcDbEntity
  8
0
  6
CONTINUOUS
 62
     7
100
AcDbLine
 10
1251.0441886478
 20
912.3792634021
 30
0.0
 11
1250.9823413783
 21
912.4411106717
 31
0.0
  0
LINE
  5
3AB
330
1F
100
AcDbEntity
  8
0
  6
CONTINUOUS
 62
     7
100
AcDbLine
 10
1245.5870257908
 20
906.9162071358
 30
0.0
 11
1251.0441886478
 21
912.3792634021
 31
0.0
  0
LINE
  5
3AC
330
1F
100
AcDbEntity
  8
0
  6
CONTINUOUS
 62
     7
100
AcDbLine
 10
1320.8359824711
 20
762.6126841318
 30
0.0
 11
1320.6269452565
 21
762.6992673289
 31
0.0
  0
LINE
  5
3AD
330
1F
100
AcDbEntity
  8
0
  6
CONTINUOUS
 62
     7
100
AcDbLine
 10
1303.2103227668
 20
762.6992673289
 30
0.0
 11
1303.0012892776
 21
762.6126841318
 31
0.0
  0
LINE
  5
3AE
330
1F
100
AcDbEntity
  8
0
  6
CONTINUOUS
 62
     7
100
AcDbLine
 10
1320.6269452565
 20
762.6992673289
 30
0.0
 11
1303.2103227668
 21
762.6992673289
 31
0.0
  0
LINE
  5
3AF
330
1F
100
AcDbEntity
  8
0
  6
CONTINUOUS
 62
     7
100
AcDbLine
 10
1303.2103227668
 20
762.6992673289
 30
0.0
 11
1309.8273473077
 21
769.3091542136
 31
0.0
  0
LINE
  5
3B0
330
1F
100
AcDbEntity
  8
0
  6
CONTINUOUS
 62
     7
100
AcDbLine
 10
1311.9186358743
 20
771.5300307285
 30
0.0
 11
1311.9186358743
 21
771.4004427802
 31
0.0
  0
LINE
  5
3B1
330
1F
100
AcDbEntity
  8
0
  6
CONTINUOUS
 62
     7
100
AcDbLine
 10
1311.9186358743
 20
771.4004427802
 30
0.0
 11
1309.8273473077
 21
769.3091542136
 31
0.0
  0
LINE
  5
3B2
330
1F
100
AcDbEntity
  8
0
  6
CONTINUOUS
 62
     7
100
AcDbLine
 10
1240.1699247056
 20
890.158383609
 30
0.0
 11
1240.1699247056
 21
893.7334664773
 31
0.0
  0
LINE
  5
3B3
330
1F
100
AcDbEntity
  8
0
  6
CONTINUOUS
 62
     7
100
AcDbLine
 10
1240.2602629953
 20
893.6960459362
 30
0.0
 11
1240.1699247056
 21
893.7334664773
 31
0.0
  0
LINE
  5
3B4
330
1F
100
AcDbEntity
  8
0
  6
CONTINUOUS
 62
     7
100
AcDbLine
 10
1240.1699247056
 20
893.7334664773
 30
0.0
 11
1241.8651106053
 21
895.430474044
 31
0.0
  0
LINE
  5
3B5
330
1F
100
AcDbEntity
  8
0
  6
CONTINUOUS
 62
     7
100
AcDbLine
 10
1251.0473104411
 20
904.6126813303
 30
0.0
 11
1241.8651106053
 21
895.430474044
 31
0.0
  0
LINE
  5
3B6
330
1F
100
AcDbEntity
  8
0
  6
CONTINUOUS
 62
     7
100
AcDbLine
 10
1251.0852711492
 20
904.5210466396
 30
0.0
 11
1251.0473104411
 21
904.6126813303
 31
0.0
  0
LINE
  5
3B7
330
1F
100
AcDbEntity
  8
0
  6
CONTINUOUS
 62
     7
100
AcDbLine
 10
1251.6306760007
 20
903.2043129813
 30
0.0
 11
1251.6686367088
 21
903.1126782905
 31
0.0
  0
LINE
  5
3B8
330
1F
100
AcDbEntity
  8
0
  6
CONTINUOUS
 62
     7
100
AcDbLine
 10
1251.6686367088
 20
903.1126782905
 30
0.0
 11
1241.8651106053
 21
893.3091559123
 31
0.0
  0
LINE
  5
3B9
330
1F
100
AcDbEntity
  8
0
  6
CONTINUOUS
 62
     7
100
AcDbLine
 10
1241.6684823328
 20
893.1127437066
 30
0.0
 11
1241.8651106053
 21
893.3091559123
 31
0.0
  0
LINE
  5
3BA
330
1F
100
AcDbEntity
  8
0
  6
CONTINUOUS
 62
     7
100
AcDbLine
 10
1314.0099207156
 20
769.3091542136
 30
0.0
 11
1320.6269452565
 21
762.6992673289
 31
0.0
  0
LINE
  5
3BB
330
1F
100
AcDbEntity
  8
0
  6
CONTINUOUS
 62
     7
100
AcDbLine
 10
1311.9186358743
 20
771.4004427802
 30
0.0
 11
1314.0099207156
 21
769.3091542136
 31
0.0
  0
CIRCLE
  5
3BC
330
1F
100
AcDbEntity
  8
0
  6
CONTINUOUS
 62
     7
100
AcDbCircle
 10
1255.6686340862
 20
893.1126806747
 30
0.0
 40
5.366668079663441
  0
CIRCLE
  5
3BD
330
1F
100
AcDbEntity
  8
0
  6
CONTINUOUS
 62
     7
100
AcDbCircle
 10
1255.6686340862
 20
893.1126806747
 30
0.0
 40
5.0
  0
CIRCLE
  5
3BE
330
1F
100
AcDbEntity
  8
0
  6
CONTINUOUS
 62
     7
100
AcDbCircle
 10
1255.6686340862
 20
893.1126806747
 30
0.0
 40
2.599999999999909
  0
LINE
  5
3BF
330
1F
100
AcDbEntity
  8
0
  6
CONTINUOUS
 62
     7
100
AcDbLine
 10
1316.1075720781
 20
769.3091542136
 30
0.0
 11
1321.6686332815
 21
763.7420803915
 31
0.0
  0
LINE
  5
3C0
330
1F
100
AcDbEntity
  8
0
  6
CONTINUOUS
 62
     7
100
AcDbLine
 10
1321.6686332815
 20
763.6185050618
 30
0.0
 11
1321.6686332815
 21
763.7420803915
 31
0.0
  0
LINE
  5
3C1
330
1F
100
AcDbEntity
  8
0
  6
CONTINUOUS
 62
     7
100
AcDbLine
 10
1313.8040462726
 20
771.612680019
 30
0.0
 11
1313.5828273588
 21
771.7043147098
 31
0.0
  0
LINE
  5
3C2
330
1F
100
AcDbEntity
  8
0
  6
CONTINUOUS
 62
     7
100
AcDbLine
 10
1313.8040462726
 20
771.612680019
 30
0.0
 11
1316.1075720781
 21
769.3091542136
 31
0.0
  0
CIRCLE
  5
3C3
330
1F
100
AcDbEntity
  8
0
  6
CONTINUOUS
 62
     7
100
AcDbCircle
 10
1255.6686340862
 20
893.1126806747
 30
0.0
 40
2.499641020405988
  0
LINE
  5
3C4
330
1F
100
AcDbEntity
  8
0
  6
CONTINUOUS
 62
     7
100
AcDbLine
 10
1329.5332221531
 20
771.612680019
 30
0.0
 11
1329.7544410669
 21
771.7043147098
 31
0.0
  0
LINE
  5
3C5
330
1F
100
AcDbEntity
  8
0
  6
CONTINUOUS
 62
     7
100
AcDbLine
 10
1313.8040462726
 20
771.612680019
 30
0.0
 11
1329.5332221531
 21
771.612680019
 31
0.0
  0
LINE
  5
3C6
330
1F
100
AcDbEntity
  8
0
  6
CONTINUOUS
 62
     7
100
AcDbLine
 10
1469.7065921717
 20
903.2043129813
 30
0.0
 11
1469.6686314636
 21
903.1126782905
 31
0.0
  0
LINE
  5
3C7
330
1F
100
AcDbEntity
  8
0
  6
CONTINUOUS
 62
     7
100
AcDbLine
 10
1469.6686314636
 20
903.1126782905
 30
0.0
 11
1251.6686367088
 21
903.1126782905
 31
0.0
  0
LINE
  5
3C8
330
1F
100
AcDbEntity
  8
0
  6
CONTINUOUS
 62
     7
100
AcDbLine
 10
1253.8107680374
 20
925.6899789583
 30
0.0
 11
1253.8107680374
 21
925.6126791846
 31
0.0
  0
ARC
  5
3C9
330
1F
100
AcDbEntity
  8
0
  6
CONTINUOUS
 62
     7
100
AcDbCircle
 10
1253.8107697099
 20
909.6003962461
 30
0.0
 40
16.0895827275117
100
AcDbArc
 50
90.0
 51
134.9690672951
  0
LINE
  5
3CA
330
1F
100
AcDbEntity
  8
0
  6
CONTINUOUS
 62
     7
100
AcDbLine
 10
1321.6686332815
 20
763.7420803915
 30
0.0
 11
1327.2296982103
 21
769.3091542136
 31
0.0
  0
LINE
  5
3CB
330
1F
100
AcDbEntity
  8
0
  6
CONTINUOUS
 62
     7
100
AcDbLine
 10
1327.2296982103
 20
769.3091542136
 30
0.0
 11
1329.5332221531
 21
771.612680019
 31
0.0
  0
LINE
  5
3CC
330
1F
100
AcDbEntity
  8
0
  6
CONTINUOUS
 62
     7
100
AcDbLine
 10
1253.2063918405
 20
904.6126813303
 30
0.0
 11
1251.0473104411
 21
904.6126813303
 31
0.0
  0
LINE
  5
3CD
330
1F
100
AcDbEntity
  8
0
  6
CONTINUOUS
 62
     7
100
AcDbLine
 10
1253.2063918405
 20
904.6126813303
 30
0.0
 11
1253.2443450981
 21
904.5210466396
 31
0.0
  0
LINE
  5
3CE
330
1F
100
AcDbEntity
  8
0
  6
CONTINUOUS
 62
     7
100
AcDbLine
 10
1340.3359810107
 20
762.6126841318
 30
0.0
 11
1340.1269456589
 21
762.6992673289
 31
0.0
  0
LINE
  5
3CF
330
1F
100
AcDbEntity
  8
0
  6
CONTINUOUS
 62
     7
100
AcDbLine
 10
1322.7103250318
 20
762.6992673289
 30
0.0
 11
1322.5012878173
 21
762.6126841318
 31
0.0
  0
LINE
  5
3D0
330
1F
100
AcDbEntity
  8
0
  6
CONTINUOUS
 62
     7
100
AcDbLine
 10
1340.1269456589
 20
762.6992673289
 30
0.0
 11
1322.7103250318
 21
762.6992673289
 31
0.0
  0
LINE
  5
3D1
330
1F
100
AcDbEntity
  8
0
  6
CONTINUOUS
 62
     7
100
AcDbLine
 10
1322.7103250318
 20
762.6992673289
 30
0.0
 11
1329.3273495727
 21
769.3091542136
 31
0.0
  0
LINE
  5
3D2
330
1F
100
AcDbEntity
  8
0
  6
CONTINUOUS
 62
     7
100
AcDbLine
 10
1331.418634414
 20
771.5300307285
 30
0.0
 11
1331.418634414
 21
771.4004427802
 31
0.0
  0
LINE
  5
3D3
330
1F
100
AcDbEntity
  8
0
  6
CONTINUOUS
 62
     7
100
AcDbLine
 10
1331.418634414
 20
771.4004427802
 30
0.0
 11
1329.3273495727
 21
769.3091542136
 31
0.0
  0
LINE
  5
3D4
330
1F
100
AcDbEntity
  8
0
  6
CONTINUOUS
 62
     7
100
AcDbLine
 10
1253.2063918405
 20
904.6126813303
 30
0.0
 11
1255.509917646
 21
906.9162071358
 31
0.0
  0
LINE
  5
3D5
330
1F
100
AcDbEntity
  8
0
  6
CONTINUOUS
 62
     7
100
AcDbLine
 10
1255.509917646
 20
906.9162071358
 30
0.0
 11
1262.1269421869
 21
913.5260940205
 31
0.0
  0
LINE
  5
3D6
330
1F
100
AcDbEntity
  8
0
  6
CONTINUOUS
 62
     7
100
AcDbLine
 10
1262.3359831267
 20
913.6126772176
 30
0.0
 11
1262.1269421869
 21
913.5260940205
 31
0.0
  0
LINE
  5
3D7
330
1F
100
AcDbEntity
  8
0
  6
CONTINUOUS
 62
     7
100
AcDbLine
 10
1253.8107680374
 20
913.5260940205
 30
0.0
 11
1253.8107680374
 21
913.6126772176
 31
0.0
  0
ARC
  5
3D8
330
1F
100
AcDbEntity
  8
0
  6
CONTINUOUS
 62
     7
100
AcDbCircle
 10
1253.8107697099
 20
909.615666295
 30
0.0
 40
3.910428931200954
100
AcDbArc
 50
90.0
 51
135.0309327049
  0
LINE
  5
3D9
330
1F
100
AcDbEntity
  8
0
  6
CONTINUOUS
 62
     7
100
AcDbLine
 10
1271.0332246714
 20
904.6126813303
 30
0.0
 11
1255.3040432029
 21
904.6126813303
 31
0.0
  0
LINE
  5
3DA
330
1F
100
AcDbEntity
  8
0
  6
CONTINUOUS
 62
     7
100
AcDbLine
 10
1271.0332246714
 20
904.6126813303
 30
0.0
 11
1271.2544398599
 21
904.5210466396
 31
0.0
  0
LINE
  5
3DB
330
1F
100
AcDbEntity
  8
0
  6
CONTINUOUS
 62
     7
100
AcDbLine
 10
1255.3040432029
 20
904.6126813303
 30
0.0
 11
1255.0828280144
 21
904.5210466396
 31
0.0
  0
LINE
  5
3DC
330
1F
100
AcDbEntity
  8
0
  6
CONTINUOUS
 62
     7
100
AcDbLine
 10
1263.1686376625
 20
912.6068562876
 30
0.0
 11
1263.1686376625
 21
912.4832809578
 31
0.0
  0
LINE
  5
3DD
330
1F
100
AcDbEntity
  8
0
  6
CONTINUOUS
 62
     7
100
AcDbLine
 10
1257.6075690084
 20
906.9162071358
 30
0.0
 11
1263.1686376625
 21
912.4832809578
 31
0.0
  0
LINE
  5
3DE
330
1F
100
AcDbEntity
  8
0
  6
CONTINUOUS
 62
     7
100
AcDbLine
 10
1255.3040432029
 20
904.6126813303
 30
0.0
 11
1257.6075690084
 21
906.9162071358
 31
0.0
  0
LINE
  5
3DF
330
1F
100
AcDbEntity
  8
0
  6
CONTINUOUS
 62
     7
100
AcDbLine
 10
1253.8107680374
 20
913.5260940205
 30
0.0
 11
1262.1269421869
 21
913.5260940205
 31
0.0
  0
LINE
  5
3E0
330
1F
100
AcDbEntity
  8
0
  6
CONTINUOUS
 62
     7
100
AcDbLine
 10
1333.5099192553
 20
769.3091542136
 30
0.0
 11
1340.1269456589
 21
762.6992673289
 31
0.0
  0
LINE
  5
3E1
330
1F
100
AcDbEntity
  8
0
  6
CONTINUOUS
 62
     7
100
AcDbLine
 10
1331.418634414
 20
771.4004427802
 30
0.0
 11
1333.5099192553
 21
769.3091542136
 31
0.0
  0
LINE
  5
3E2
330
1F
100
AcDbEntity
  8
0
  6
CONTINUOUS
 62
     7
100
AcDbLine
 10
1335.6075706177
 20
769.3091542136
 30
0.0
 11
1341.1686336839
 21
763.7420803915
 31
0.0
  0
LINE
  5
3E3
330
1F
100
AcDbEntity
  8
0
  6
CONTINUOUS
 62
     7
100
AcDbLine
 10
1341.1686336839
 20
763.6185050618
 30
0.0
 11
1341.1686336839
 21
763.7420803915
 31
0.0
  0
LINE
  5
3E4
330
1F
100
AcDbEntity
  8
0
  6
CONTINUOUS
 62
     7
100
AcDbLine
 10
1333.3040448123
 20
771.612680019
 30
0.0
 11
1333.0828258985
 21
771.7043147098
 31
0.0
  0
LINE
  5
3E5
330
1F
100
AcDbEntity
  8
0
  6
CONTINUOUS
 62
     7
100
AcDbLine
 10
1333.3040448123
 20
771.612680019
 30
0.0
 11
1335.6075706177
 21
769.3091542136
 31
0.0
  0
LINE
  5
3E6
330
1F
100
AcDbEntity
  8
0
  6
CONTINUOUS
 62
     7
100
AcDbLine
 10
1263.1686376625
 20
912.4832809578
 30
0.0
 11
1268.729698866
 21
906.9162071358
 31
0.0
  0
LINE
  5
3E7
330
1F
100
AcDbEntity
  8
0
  6
CONTINUOUS
 62
     7
100
AcDbLine
 10
1271.0332246714
 20
904.6126813303
 30
0.0
 11
1268.729698866
 21
906.9162071358
 31
0.0
  0
LINE
  5
3E8
330
1F
100
AcDbEntity
  8
0
  6
CONTINUOUS
 62
     7
100
AcDbLine
 10
1264.2103256875
 20
913.5260940205
 30
0.0
 11
1264.0012847477
 21
913.6126772176
 31
0.0
  0
LINE
  5
3E9
330
1F
100
AcDbEntity
  8
0
  6
CONTINUOUS
 62
     7
100
AcDbLine
 10
1264.2103256875
 20
913.5260940205
 30
0.0
 11
1270.8273502284
 21
906.9162071358
 31
0.0
  0
LINE
  5
3EA
330
1F
100
AcDbEntity
  8
0
  6
CONTINUOUS
 62
     7
100
AcDbLine
 10
1270.8273502284
 20
906.9162071358
 30
0.0
 11
1272.9186313444
 21
904.8249185692
 31
0.0
  0
LINE
  5
3EB
330
1F
100
AcDbEntity
  8
0
  6
CONTINUOUS
 62
     7
100
AcDbLine
 10
1272.9186313444
 20
904.8249185692
 30
0.0
 11
1272.9186313444
 21
904.6953306209
 31
0.0
  0
LINE
  5
3EC
330
1F
100
AcDbEntity
  8
0
  6
CONTINUOUS
 62
     7
100
AcDbLine
 10
1253.8107680374
 20
925.6899789583
 30
0.0
 11
1467.526500135
 21
925.6899789583
 31
0.0
  0
LINE
  5
3ED
330
1F
100
AcDbEntity
  8
0
  6
CONTINUOUS
 62
     7
100
AcDbLine
 10
1467.526500135
 20
925.6899789583
 30
0.0
 11
1467.526500135
 21
925.6126791846
 31
0.0
  0
LINE
  5
3EE
330
1F
100
AcDbEntity
  8
0
  6
CONTINUOUS
 62
     7
100
AcDbLine
 10
1349.0332225555
 20
771.612680019
 30
0.0
 11
1349.2544414693
 21
771.7043147098
 31
0.0
  0
LINE
  5
3EF
330
1F
100
AcDbEntity
  8
0
  6
CONTINUOUS
 62
     7
100
AcDbLine
 10
1333.3040448123
 20
771.612680019
 30
0.0
 11
1349.0332225555
 21
771.612680019
 31
0.0
  0
LINE
  5
3F0
330
1F
100
AcDbEntity
  8
0
  6
CONTINUOUS
 62
     7
100
AcDbLine
 10
1281.8359779411
 20
913.6126772176
 30
0.0
 11
1281.6269444519
 21
913.5260940205
 31
0.0
  0
LINE
  5
3F1
330
1F
100
AcDbEntity
  8
0
  6
CONTINUOUS
 62
     7
100
AcDbLine
 10
1264.2103256875
 20
913.5260940205
 30
0.0
 11
1281.6269444519
 21
913.5260940205
 31
0.0
  0
LINE
  5
3F2
330
1F
100
AcDbEntity
  8
0
  6
CONTINUOUS
 62
     7
100
AcDbLine
 10
1341.1686336839
 20
763.7420803915
 30
0.0
 11
1346.72969675
 21
769.3091542136
 31
0.0
  0
LINE
  5
3F3
330
1F
100
AcDbEntity
  8
0
  6
CONTINUOUS
 62
     7
100
AcDbLine
 10
1346.72969675
 20
769.3091542136
 30
0.0
 11
1349.0332225555
 21
771.612680019
 31
0.0
  0
LINE
  5
3F4
330
1F
100
AcDbEntity
  8
0
  6
CONTINUOUS
 62
     7
100
AcDbLine
 10
1342.2103235715
 20
762.6992673289
 30
0.0
 11
1348.8273490437
 21
769.3091542136
 31
0.0
  0
LINE
  5
3F5
330
1F
100
AcDbEntity
  8
0
  6
CONTINUOUS
 62
     7
100
AcDbLine
 10
1342.2103235715
 20
762.6992673289
 30
0.0
 11
1342.0012882196
 21
762.6126841318
 31
0.0
  0
LINE
  5
3F6
330
1F
100
AcDbEntity
  8
0
  6
CONTINUOUS
 62
     7
100
AcDbLine
 10
1350.918633885
 20
771.5300307285
 30
0.0
 11
1350.918633885
 21
771.4004427802
 31
0.0
  0
LINE
  5
3F7
330
1F
100
AcDbEntity
  8
0
  6
CONTINUOUS
 62
     7
100
AcDbLine
 10
1350.918633885
 20
771.4004427802
 30
0.0
 11
1348.8273490437
 21
769.3091542136
 31
0.0
  0
LINE
  5
3F8
330
1F
100
AcDbEntity
  8
0
  6
CONTINUOUS
 62
     7
100
AcDbLine
 10
1359.8359807146
 20
762.6126841318
 30
0.0
 11
1359.626944897
 21
762.6992673289
 31
0.0
  0
LINE
  5
3F9
330
1F
100
AcDbEntity
  8
0
  6
CONTINUOUS
 62
     7
100
AcDbLine
 10
1359.626944897
 20
762.6992673289
 30
0.0
 11
1342.2103235715
 21
762.6992673289
 31
0.0
  0
LINE
  5
3FA
330
1F
100
AcDbEntity
  8
0
  6
CONTINUOUS
 62
     7
100
AcDbLine
 10
1272.9186313444
 20
904.8249185692
 30
0.0
 11
1275.009919911
 21
906.9162071358
 31
0.0
  0
LINE
  5
3FB
330
1F
100
AcDbEntity
  8
0
  6
CONTINUOUS
 62
     7
100
AcDbLine
 10
1275.009919911
 20
906.9162071358
 30
0.0
 11
1281.6269444519
 21
913.5260940205
 31
0.0
  0
LINE
  5
3FC
330
1F
100
AcDbEntity
  8
0
  6
CONTINUOUS
 62
     7
100
AcDbLine
 10
1274.8040454679
 20
904.6126813303
 30
0.0
 11
1274.5828228288
 21
904.5210466396
 31
0.0
  0
LINE
  5
3FD
330
1F
100
AcDbEntity
  8
0
  6
CONTINUOUS
 62
     7
100
AcDbLine
 10
1282.6686324769
 20
912.6068562876
 30
0.0
 11
1282.6686324769
 21
912.4832809578
 31
0.0
  0
LINE
  5
3FE
330
1F
100
AcDbEntity
  8
0
  6
CONTINUOUS
 62
     7
100
AcDbLine
 10
1277.1075712734
 20
906.9162071358
 30
0.0
 11
1282.6686324769
 21
912.4832809578
 31
0.0
  0
LINE
  5
3FF
330
1F
100
AcDbEntity
  8
0
  6
CONTINUOUS
 62
     7
100
AcDbLine
 10
1274.8040454679
 20
904.6126813303
 30
0.0
 11
1277.1075712734
 21
906.9162071358
 31
0.0
  0
LINE
  5
400
330
1F
100
AcDbEntity
  8
0
  6
CONTINUOUS
 62
     7
100
AcDbLine
 10
1290.5332194858
 20
904.6126813303
 30
0.0
 11
1274.8040454679
 21
904.6126813303
 31
0.0
  0
LINE
  5
401
330
1F
100
AcDbEntity
  8
0
  6
CONTINUOUS
 62
     7
100
AcDbLine
 10
1290.5332194858
 20
904.6126813303
 30
0.0
 11
1290.7544421249
 21
904.5210466396
 31
0.0
  0
LINE
  5
402
330
1F
100
AcDbEntity
  8
0
  6
CONTINUOUS
 62
     7
100
AcDbLine
 10
1353.009919192
 20
769.3091542136
 30
0.0
 11
1359.626944897
 21
762.6992673289
 31
0.0
  0
LINE
  5
403
330
1F
100
AcDbEntity
  8
0
  6
CONTINUOUS
 62
     7
100
AcDbLine
 10
1350.918633885
 20
771.4004427802
 30
0.0
 11
1353.009919192
 21
769.3091542136
 31
0.0
  0
LINE
  5
404
330
1F
100
AcDbEntity
  8
0
  6
CONTINUOUS
 62
     7
100
AcDbLine
 10
1355.1075714857
 20
769.3091542136
 30
0.0
 11
1360.6686340862
 21
763.7420803915
 31
0.0
  0
LINE
  5
405
330
1F
100
AcDbEntity
  8
0
  6
CONTINUOUS
 62
     7
100
AcDbLine
 10
1360.6686340862
 20
763.6185050618
 30
0.0
 11
1360.6686340862
 21
763.7420803915
 31
0.0
  0
LINE
  5
406
330
1F
100
AcDbEntity
  8
0
  6
CONTINUOUS
 62
     7
100
AcDbLine
 10
1352.8040461459
 20
771.612680019
 30
0.0
 11
1352.5828263008
 21
771.7043147098
 31
0.0
  0
LINE
  5
407
330
1F
100
AcDbEntity
  8
0
  6
CONTINUOUS
 62
     7
100
AcDbLine
 10
1352.8040461459
 20
771.612680019
 30
0.0
 11
1355.1075714857
 21
769.3091542136
 31
0.0
  0
LINE
  5
408
330
1F
100
AcDbEntity
  8
0
  6
CONTINUOUS
 62
     7
100
AcDbLine
 10
1282.6686324769
 20
912.4832809578
 30
0.0
 11
1288.2296936804
 21
906.9162071358
 31
0.0
  0
LINE
  5
409
330
1F
100
AcDbEntity
  8
0
  6
CONTINUOUS
 62
     7
100
AcDbLine
 10
1290.5332194858
 20
904.6126813303
 30
0.0
 11
1288.2296936804
 21
906.9162071358
 31
0.0
  0
LINE
  5
40A
330
1F
100
AcDbEntity
  8
0
  6
CONTINUOUS
 62
     7
100
AcDbLine
 10
1283.7103205019
 20
913.5260940205
 30
0.0
 11
1283.5012870126
 21
913.6126772176
 31
0.0
  0
LINE
  5
40B
330
1F
100
AcDbEntity
  8
0
  6
CONTINUOUS
 62
     7
100
AcDbLine
 10
1283.7103205019
 20
913.5260940205
 30
0.0
 11
1290.3273524934
 21
906.9162071358
 31
0.0
  0
LINE
  5
40C
330
1F
100
AcDbEntity
  8
0
  6
CONTINUOUS
 62
     7
100
AcDbLine
 10
1290.3273524934
 20
906.9162071358
 30
0.0
 11
1292.4186336094
 21
904.8249185692
 31
0.0
  0
LINE
  5
40D
330
1F
100
AcDbEntity
  8
0
  6
CONTINUOUS
 62
     7
100
AcDbLine
 10
1292.4186336094
 20
904.8249185692
 30
0.0
 11
1292.4186336094
 21
904.6953306209
 31
0.0
  0
LINE
  5
40E
330
1F
100
AcDbEntity
  8
0
  6
CONTINUOUS
 62
     7
100
AcDbLine
 10
1368.5332220265
 20
771.612680019
 30
0.0
 11
1368.7544418716
 21
771.7043147098
 31
0.0
  0
LINE
  5
40F
330
1F
100
AcDbEntity
  8
0
  6
CONTINUOUS
 62
     7
100
AcDbLine
 10
1352.8040461459
 20
771.612680019
 30
0.0
 11
1368.5332220265
 21
771.612680019
 31
0.0
  0
LINE
  5
410
330
1F
100
AcDbEntity
  8
0
  6
CONTINUOUS
 62
     7
100
AcDbLine
 10
1301.3359802061
 20
913.6126772176
 30
0.0
 11
1301.1269467169
 21
913.5260940205
 31
0.0
  0
LINE
  5
411
330
1F
100
AcDbEntity
  8
0
  6
CONTINUOUS
 62
     7
100
AcDbLine
 10
1283.7103205019
 20
913.5260940205
 30
0.0
 11
1301.1269467169
 21
913.5260940205
 31
0.0
  0
LINE
  5
412
330
1F
100
AcDbEntity
  8
0
  6
CONTINUOUS
 62
     7
100
AcDbLine
 10
1360.6686340862
 20
763.7420803915
 30
0.0
 11
1366.2296966867
 21
769.3091542136
 31
0.0
  0
LINE
  5
413
330
1F
100
AcDbEntity
  8
0
  6
CONTINUOUS
 62
     7
100
AcDbLine
 10
1366.2296966867
 20
769.3091542136
 30
0.0
 11
1368.5332220265
 21
771.612680019
 31
0.0
  0
LINE
  5
414
330
1F
100
AcDbEntity
  8
0
  6
CONTINUOUS
 62
     7
100
AcDbLine
 10
1361.7103232753
 20
762.6992673289
 30
0.0
 11
1361.5012874578
 21
762.6126841318
 31
0.0
  0
LINE
  5
415
330
1F
100
AcDbEntity
  8
0
  6
CONTINUOUS
 62
     7
100
AcDbLine
 10
1379.1269446009
 20
762.6992673289
 30
0.0
 11
1361.7103232753
 21
762.6992673289
 31
0.0
  0
LINE
  5
416
330
1F
100
AcDbEntity
  8
0
  6
CONTINUOUS
 62
     7
100
AcDbLine
 10
1379.3359799528
 20
762.6126841318
 30
0.0
 11
1379.1269446009
 21
762.6992673289
 31
0.0
  0
LINE
  5
417
330
1F
100
AcDbEntity
  8
0
  6
CONTINUOUS
 62
     7
100
AcDbLine
 10
1361.7103232753
 20
762.6992673289
 30
0.0
 11
1368.3273489804
 21
769.3091542136
 31
0.0
  0
LINE
  5
418
330
1F
100
AcDbEntity
  8
0
  6
CONTINUOUS
 62
     7
100
AcDbLine
 10
1370.4186342874
 20
771.4004427802
 30
0.0
 11
1370.4186342874
 21
771.5300307285
 31
0.0
  0
LINE
  5
419
330
1F
100
AcDbEntity
  8
0
  6
CONTINUOUS
 62
     7
100
AcDbLine
 10
1370.4186342874
 20
771.4004427802
 30
0.0
 11
1368.3273489804
 21
769.3091542136
 31
0.0
  0
LINE
  5
41A
330
1F
100
AcDbEntity
  8
0
  6
CONTINUOUS
 62
     7
100
AcDbLine
 10
1292.4186336094
 20
904.8249185692
 30
0.0
 11
1294.509922176
 21
906.9162071358
 31
0.0
  0
LINE
  5
41B
330
1F
100
AcDbEntity
  8
0
  6
CONTINUOUS
 62
     7
100
AcDbLine
 10
1294.509922176
 20
906.9162071358
 30
0.0
 11
1301.1269467169
 21
913.5260940205
 31
0.0
  0
LINE
  5
41C
330
1F
100
AcDbEntity
  8
0
  6
CONTINUOUS
 62
     7
100
AcDbLine
 10
1294.3040477329
 20
904.6126813303
 30
0.0
 11
1294.0828250938
 21
904.5210466396
 31
0.0
  0
LINE
  5
41D
330
1F
100
AcDbEntity
  8
0
  6
CONTINUOUS
 62
     7
100
AcDbLine
 10
1302.1686347419
 20
912.6068562876
 30
0.0
 11
1302.1686347419
 21
912.4832809578
 31
0.0
  0
LINE
  5
41E
330
1F
100
AcDbEntity
  8
0
  6
CONTINUOUS
 62
     7
100
AcDbLine
 10
1296.6075735384
 20
906.9162071358
 30
0.0
 11
1302.1686347419
 21
912.4832809578
 31
0.0
  0
LINE
  5
41F
330
1F
100
AcDbEntity
  8
0
  6
CONTINUOUS
 62
     7
100
AcDbLine
 10
1294.3040477329
 20
904.6126813303
 30
0.0
 11
1296.6075735384
 21
906.9162071358
 31
0.0
  0
LINE
  5
420
330
1F
100
AcDbEntity
  8
0
  6
CONTINUOUS
 62
     7
100
AcDbLine
 10
1310.0332217508
 20
904.6126813303
 30
0.0
 11
1294.3040477329
 21
904.6126813303
 31
0.0
  0
LINE
  5
421
330
1F
100
AcDbEntity
  8
0
  6
CONTINUOUS
 62
     7
100
AcDbLine
 10
1310.0332217508
 20
904.6126813303
 30
0.0
 11
1310.2544406646
 21
904.5210466396
 31
0.0
  0
LINE
  5
422
330
1F
100
AcDbEntity
  8
0
  6
CONTINUOUS
 62
     7
100
AcDbLine
 10
1372.5099191287
 20
769.3091542136
 30
0.0
 11
1379.1269446009
 21
762.6992673289
 31
0.0
  0
LINE
  5
423
330
1F
100
AcDbEntity
  8
0
  6
CONTINUOUS
 62
     7
100
AcDbLine
 10
1370.4186342874
 20
771.4004427802
 30
0.0
 11
1372.5099191287
 21
769.3091542136
 31
0.0
  0
LINE
  5
424
330
1F
100
AcDbEntity
  8
0
  6
CONTINUOUS
 62
     7
100
AcDbLine
 10
1374.6075714224
 20
769.3091542136
 30
0.0
 11
1380.1686344885
 21
763.7420803915
 31
0.0
  0
LINE
  5
425
330
1F
100
AcDbEntity
  8
0
  6
CONTINUOUS
 62
     7
100
AcDbLine
 10
1380.1686344885
 20
763.6185050618
 30
0.0
 11
1380.1686344885
 21
763.7420803915
 31
0.0
  0
LINE
  5
426
330
1F
100
AcDbEntity
  8
0
  6
CONTINUOUS
 62
     7
100
AcDbLine
 10
1372.3040456169
 20
771.612680019
 30
0.0
 11
1372.0828267031
 21
771.7043147098
 31
0.0
  0
LINE
  5
427
330
1F
100
AcDbEntity
  8
0
  6
CONTINUOUS
 62
     7
100
AcDbLine
 10
1372.3040456169
 20
771.612680019
 30
0.0
 11
1374.6075714224
 21
769.3091542136
 31
0.0
  0
LINE
  5
428
330
1F
100
AcDbEntity
  8
0
  6
CONTINUOUS
 62
     7
100
AcDbLine
 10
1302.1686347419
 20
912.4832809578
 30
0.0
 11
1307.7296959453
 21
906.9162071358
 31
0.0
  0
LINE
  5
429
330
1F
100
AcDbEntity
  8
0
  6
CONTINUOUS
 62
     7
100
AcDbLine
 10
1310.0332217508
 20
904.6126813303
 30
0.0
 11
1307.7296959453
 21
906.9162071358
 31
0.0
  0
LINE
  5
42A
330
1F
100
AcDbEntity
  8
0
  6
CONTINUOUS
 62
     7
100
AcDbLine
 10
1303.2103227668
 20
913.5260940205
 30
0.0
 11
1303.0012892776
 21
913.6126772176
 31
0.0
  0
LINE
  5
42B
330
1F
100
AcDbEntity
  8
0
  6
CONTINUOUS
 62
     7
100
AcDbLine
 10
1303.2103227668
 20
913.5260940205
 30
0.0
 11
1309.8273473077
 21
906.9162071358
 31
0.0
  0
LINE
  5
42C
330
1F
100
AcDbEntity
  8
0
  6
CONTINUOUS
 62
     7
100
AcDbLine
 10
1309.8273473077
 20
906.9162071358
 30
0.0
 11
1311.9186358743
 21
904.8249185692
 31
0.0
  0
LINE
  5
42D
330
1F
100
AcDbEntity
  8
0
  6
CONTINUOUS
 62
     7
100
AcDbLine
 10
1311.9186358743
 20
904.8249185692
 30
0.0
 11
1311.9186358743
 21
904.6953306209
 31
0.0
  0
LINE
  5
42E
330
1F
100
AcDbEntity
  8
0
  6
CONTINUOUS
 62
     7
100
AcDbLine
 10
1388.0332233601
 20
771.612680019
 30
0.0
 11
1388.2544422739
 21
771.7043147098
 31
0.0
  0
LINE
  5
42F
330
1F
100
AcDbEntity
  8
0
  6
CONTINUOUS
 62
     7
100
AcDbLine
 10
1372.3040456169
 20
771.612680019
 30
0.0
 11
1388.0332233601
 21
771.612680019
 31
0.0
  0
LINE
  5
430
330
1F
100
AcDbEntity
  8
0
  6
CONTINUOUS
 62
     7
100
AcDbLine
 10
1320.8359824711
 20
913.6126772176
 30
0.0
 11
1320.6269452565
 21
913.5260940205
 31
0.0
  0
LINE
  5
431
330
1F
100
AcDbEntity
  8
0
  6
CONTINUOUS
 62
     7
100
AcDbLine
 10
1303.2103227668
 20
913.5260940205
 30
0.0
 11
1320.6269452565
 21
913.5260940205
 31
0.0
  0
LINE
  5
432
330
1F
100
AcDbEntity
  8
0
  6
CONTINUOUS
 62
     7
100
AcDbLine
 10
1380.1686344885
 20
763.7420803915
 30
0.0
 11
1385.7296975547
 21
769.3091542136
 31
0.0
  0
LINE
  5
433
330
1F
100
AcDbEntity
  8
0
  6
CONTINUOUS
 62
     7
100
AcDbLine
 10
1385.7296975547
 20
769.3091542136
 30
0.0
 11
1388.0332233601
 21
771.612680019
 31
0.0
  0
LINE
  5
434
330
1F
100
AcDbEntity
  8
0
  6
CONTINUOUS
 62
     7
100
AcDbLine
 10
1381.2103225135
 20
762.6992673289
 30
0.0
 11
1381.0012871617
 21
762.6126841318
 31
0.0
  0
LINE
  5
435
330
1F
100
AcDbEntity
  8
0
  6
CONTINUOUS
 62
     7
100
AcDbLine
 10
1398.6269431406
 20
762.6992673289
 30
0.0
 11
1381.2103225135
 21
762.6992673289
 31
0.0
  0
LINE
  5
436
330
1F
100
AcDbEntity
  8
0
  6
CONTINUOUS
 62
     7
100
AcDbLine
 10
1398.8359803551
 20
762.6126841318
 30
0.0
 11
1398.6269431406
 21
762.6992673289
 31
0.0
  0
LINE
  5
437
330
1F
100
AcDbEntity
  8
0
  6
CONTINUOUS
 62
     7
100
AcDbLine
 10
1381.2103225135
 20
762.6992673289
 30
0.0
 11
1387.8273489171
 21
769.3091542136
 31
0.0
  0
LINE
  5
438
330
1F
100
AcDbEntity
  8
0
  6
CONTINUOUS
 62
     7
100
AcDbLine
 10
1389.9186337584
 20
771.4004427802
 30
0.0
 11
1389.9186337584
 21
771.5300307285
 31
0.0
  0
LINE
  5
439
330
1F
100
AcDbEntity
  8
0
  6
CONTINUOUS
 62
     7
100
AcDbLine
 10
1389.9186337584
 20
771.4004427802
 30
0.0
 11
1387.8273489171
 21
769.3091542136
 31
0.0
  0
LINE
  5
43A
330
1F
100
AcDbEntity
  8
0
  6
CONTINUOUS
 62
     7
100
AcDbLine
 10
1311.9186358743
 20
904.8249185692
 30
0.0
 11
1314.0099207156
 21
906.9162071358
 31
0.0
  0
LINE
  5
43B
330
1F
100
AcDbEntity
  8
0
  6
CONTINUOUS
 62
     7
100
AcDbLine
 10
1314.0099207156
 20
906.9162071358
 30
0.0
 11
1320.6269452565
 21
913.5260940205
 31
0.0
  0
LINE
  5
43C
330
1F
100
AcDbEntity
  8
0
  6
CONTINUOUS
 62
     7
100
AcDbLine
 10
1329.5332221531
 20
904.6126813303
 30
0.0
 11
1313.8040462726
 21
904.6126813303
 31
0.0
  0
LINE
  5
43D
330
1F
100
AcDbEntity
  8
0
  6
CONTINUOUS
 62
     7
100
AcDbLine
 10
1329.5332221531
 20
904.6126813303
 30
0.0
 11
1329.7544410669
 21
904.5210466396
 31
0.0
  0
LINE
  5
43E
330
1F
100
AcDbEntity
  8
0
  6
CONTINUOUS
 62
     7
100
AcDbLine
 10
1313.8040462726
 20
904.6126813303
 30
0.0
 11
1313.5828273588
 21
904.5210466396
 31
0.0
  0
LINE
  5
43F
330
1F
100
AcDbEntity
  8
0
  6
CONTINUOUS
 62
     7
100
AcDbLine
 10
1321.6686332815
 20
912.6068562876
 30
0.0
 11
1321.6686332815
 21
912.4832809578
 31
0.0
  0
LINE
  5
440
330
1F
100
AcDbEntity
  8
0
  6
CONTINUOUS
 62
     7
100
AcDbLine
 10
1316.1075720781
 20
906.9162071358
 30
0.0
 11
1321.6686332815
 21
912.4832809578
 31
0.0
  0
LINE
  5
441
330
1F
100
AcDbEntity
  8
0
  6
CONTINUOUS
 62
     7
100
AcDbLine
 10
1313.8040462726
 20
904.6126813303
 30
0.0
 11
1316.1075720781
 21
906.9162071358
 31
0.0
  0
LINE
  5
442
330
1F
100
AcDbEntity
  8
0
  6
CONTINUOUS
 62
     7
100
AcDbLine
 10
1392.0099185997
 20
769.3091542136
 30
0.0
 11
1398.6269431406
 21
762.6992673289
 31
0.0
  0
LINE
  5
443
330
1F
100
AcDbEntity
  8
0
  6
CONTINUOUS
 62
     7
100
AcDbLine
 10
1389.9186337584
 20
771.4004427802
 30
0.0
 11
1392.0099185997
 21
769.3091542136
 31
0.0
  0
LINE
  5
444
330
1F
100
AcDbEntity
  8
0
  6
CONTINUOUS
 62
     7
100
AcDbLine
 10
1394.1075699621
 20
769.3091542136
 30
0.0
 11
1399.6686348909
 21
763.7420803915
 31
0.0
  0
LINE
  5
445
330
1F
100
AcDbEntity
  8
0
  6
CONTINUOUS
 62
     7
100
AcDbLine
 10
1399.6686348909
 20
763.6185050618
 30
0.0
 11
1399.6686348909
 21
763.7420803915
 31
0.0
  0
LINE
  5
446
330
1F
100
AcDbEntity
  8
0
  6
CONTINUOUS
 62
     7
100
AcDbLine
 10
1391.8040460193
 20
771.612680019
 30
0.0
 11
1391.5828271055
 21
771.7043147098
 31
0.0
  0
LINE
  5
447
330
1F
100
AcDbEntity
  8
0
  6
CONTINUOUS
 62
     7
100
AcDbLine
 10
1391.8040460193
 20
771.612680019
 30
0.0
 11
1394.1075699621
 21
769.3091542136
 31
0.0
  0
LINE
  5
448
330
1F
100
AcDbEntity
  8
0
  6
CONTINUOUS
 62
     7
100
AcDbLine
 10
1321.6686332815
 20
912.4832809578
 30
0.0
 11
1327.2296982103
 21
906.9162071358
 31
0.0
  0
LINE
  5
449
330
1F
100
AcDbEntity
  8
0
  6
CONTINUOUS
 62
     7
100
AcDbLine
 10
1329.5332221531
 20
904.6126813303
 30
0.0
 11
1327.2296982103
 21
906.9162071358
 31
0.0
  0
LINE
  5
44A
330
1F
100
AcDbEntity
  8
0
  6
CONTINUOUS
 62
     7
100
AcDbLine
 10
1322.7103250318
 20
913.5260940205
 30
0.0
 11
1322.5012878173
 21
913.6126772176
 31
0.0
  0
LINE
  5
44B
330
1F
100
AcDbEntity
  8
0
  6
CONTINUOUS
 62
     7
100
AcDbLine
 10
1322.7103250318
 20
913.5260940205
 30
0.0
 11
1329.3273495727
 21
906.9162071358
 31
0.0
  0
LINE
  5
44C
330
1F
100
AcDbEntity
  8
0
  6
CONTINUOUS
 62
     7
100
AcDbLine
 10
1329.3273495727
 20
906.9162071358
 30
0.0
 11
1331.418634414
 21
904.8249185692
 31
0.0
  0
LINE
  5
44D
330
1F
100
AcDbEntity
  8
0
  6
CONTINUOUS
 62
     7
100
AcDbLine
 10
1331.418634414
 20
904.8249185692
 30
0.0
 11
1331.418634414
 21
904.6953306209
 31
0.0
  0
LINE
  5
44E
330
1F
100
AcDbEntity
  8
0
  6
CONTINUOUS
 62
     7
100
AcDbLine
 10
1407.5332218998
 20
771.612680019
 30
0.0
 11
1407.7544408136
 21
771.7043147098
 31
0.0
  0
LINE
  5
44F
330
1F
100
AcDbEntity
  8
0
  6
CONTINUOUS
 62
     7
100
AcDbLine
 10
1391.8040460193
 20
771.612680019
 30
0.0
 11
1407.5332218998
 21
771.612680019
 31
0.0
  0
LINE
  5
450
330
1F
100
AcDbEntity
  8
0
  6
CONTINUOUS
 62
     7
100
AcDbLine
 10
1340.3359810107
 20
913.6126772176
 30
0.0
 11
1340.1269456589
 21
913.5260940205
 31
0.0
  0
LINE
  5
451
330
1F
100
AcDbEntity
  8
0
  6
CONTINUOUS
 62
     7
100
AcDbLine
 10
1322.7103250318
 20
913.5260940205
 30
0.0
 11
1340.1269456589
 21
913.5260940205
 31
0.0
  0
LINE
  5
452
330
1F
100
AcDbEntity
  8
0
  6
CONTINUOUS
 62
     7
100
AcDbLine
 10
1399.6686348909
 20
763.7420803915
 30
0.0
 11
1405.2296960943
 21
769.3091542136
 31
0.0
  0
LINE
  5
453
330
1F
100
AcDbEntity
  8
0
  6
CONTINUOUS
 62
     7
100
AcDbLine
 10
1405.2296960943
 20
769.3091542136
 30
0.0
 11
1407.5332218998
 21
771.612680019
 31
0.0
  0
LINE
  5
454
330
1F
100
AcDbEntity
  8
0
  6
CONTINUOUS
 62
     7
100
AcDbLine
 10
1400.7103229159
 20
762.6992673289
 30
0.0
 11
1407.3273474568
 21
769.3091542136
 31
0.0
  0
LINE
  5
455
330
1F
100
AcDbEntity
  8
0
  6
CONTINUOUS
 62
     7
100
AcDbLine
 10
1400.7103229159
 20
762.6992673289
 30
0.0
 11
1400.5012857013
 21
762.6126841318
 31
0.0
  0
LINE
  5
456
330
1F
100
AcDbEntity
  8
0
  6
CONTINUOUS
 62
     7
100
AcDbLine
 10
1409.4186322981
 20
771.4004427802
 30
0.0
 11
1409.4186322981
 21
771.5300307285
 31
0.0
  0
LINE
  5
457
330
1F
100
AcDbEntity
  8
0
  6
CONTINUOUS
 62
     7
100
AcDbLine
 10
1409.4186322981
 20
771.4004427802
 30
0.0
 11
1407.3273474568
 21
769.3091542136
 31
0.0
  0
LINE
  5
458
330
1F
100
AcDbEntity
  8
0
  6
CONTINUOUS
 62
     7
100
AcDbLine
 10
1418.1269454056
 20
762.6992673289
 30
0.0
 11
1400.7103229159
 21
762.6992673289
 31
0.0
  0
LINE
  5
459
330
1F
100
AcDbEntity
  8
0
  6
CONTINUOUS
 62
     7
100
AcDbLine
 10
1418.3359788948
 20
762.6126841318
 30
0.0
 11
1418.1269454056
 21
762.6992673289
 31
0.0
  0
LINE
  5
45A
330
1F
100
AcDbEntity
  8
0
  6
CONTINUOUS
 62
     7
100
AcDbLine
 10
1333.5099192553
 20
906.9162071358
 30
0.0
 11
1340.1269456589
 21
913.5260940205
 31
0.0
  0
LINE
  5
45B
330
1F
100
AcDbEntity
  8
0
  6
CONTINUOUS
 62
     7
100
AcDbLine
 10
1331.418634414
 20
904.8249185692
 30
0.0
 11
1333.5099192553
 21
906.9162071358
 31
0.0
  0
LINE
  5
45C
330
1F
100
AcDbEntity
  8
0
  6
CONTINUOUS
 62
     7
100
AcDbLine
 10
1333.3040448123
 20
904.6126813303
 30
0.0
 11
1333.0828258985
 21
904.5210466396
 31
0.0
  0
LINE
  5
45D
330
1F
100
AcDbEntity
  8
0
  6
CONTINUOUS
 62
     7
100
AcDbLine
 10
1349.0332225555
 20
904.6126813303
 30
0.0
 11
1333.3040448123
 21
904.6126813303
 31
0.0
  0
LINE
  5
45E
330
1F
100
AcDbEntity
  8
0
  6
CONTINUOUS
 62
     7
100
AcDbLine
 10
1349.0332225555
 20
904.6126813303
 30
0.0
 11
1349.2544414693
 21
904.5210466396
 31
0.0
  0
LINE
  5
45F
330
1F
100
AcDbEntity
  8
0
  6
CONTINUOUS
 62
     7
100
AcDbLine
 10
1341.1686336839
 20
912.6068562876
 30
0.0
 11
1341.1686336839
 21
912.4832809578
 31
0.0
  0
LINE
  5
460
330
1F
100
AcDbEntity
  8
0
  6
CONTINUOUS
 62
     7
100
AcDbLine
 10
1335.6075706177
 20
906.9162071358
 30
0.0
 11
1341.1686336839
 21
912.4832809578
 31
0.0
  0
LINE
  5
461
330
1F
100
AcDbEntity
  8
0
  6
CONTINUOUS
 62
     7
100
AcDbLine
 10
1333.3040448123
 20
904.6126813303
 30
0.0
 11
1335.6075706177
 21
906.9162071358
 31
0.0
  0
LINE
  5
462
330
1F
100
AcDbEntity
  8
0
  6
CONTINUOUS
 62
     7
100
AcDbLine
 10
1411.5099208646
 20
769.3091542136
 30
0.0
 11
1418.1269454056
 21
762.6992673289
 31
0.0
  0
LINE
  5
463
330
1F
100
AcDbEntity
  8
0
  6
CONTINUOUS
 62
     7
100
AcDbLine
 10
1409.4186322981
 20
771.4004427802
 30
0.0
 11
1411.5099208646
 21
769.3091542136
 31
0.0
  0
LINE
  5
464
330
1F
100
AcDbEntity
  8
0
  6
CONTINUOUS
 62
     7
100
AcDbLine
 10
1413.6075722271
 20
769.3091542136
 30
0.0
 11
1419.1686334305
 21
763.7420803915
 31
0.0
  0
LINE
  5
465
330
1F
100
AcDbEntity
  8
0
  6
CONTINUOUS
 62
     7
100
AcDbLine
 10
1419.1686334305
 20
763.6185050618
 30
0.0
 11
1419.1686334305
 21
763.7420803915
 31
0.0
  0
LINE
  5
466
330
1F
100
AcDbEntity
  8
0
  6
CONTINUOUS
 62
     7
100
AcDbLine
 10
1411.3040464216
 20
771.612680019
 30
0.0
 11
1411.0828275078
 21
771.7043147098
 31
0.0
  0
LINE
  5
467
330
1F
100
AcDbEntity
  8
0
  6
CONTINUOUS
 62
     7
100
AcDbLine
 10
1411.3040464216
 20
771.612680019
 30
0.0
 11
1413.6075722271
 21
769.3091542136
 31
0.0
  0
LINE
  5
468
330
1F
100
AcDbEntity
  8
0
  6
CONTINUOUS
 62
     7
100
AcDbLine
 10
1341.1686336839
 20
912.4832809578
 30
0.0
 11
1346.72969675
 21
906.9162071358
 31
0.0
  0
LINE
  5
469
330
1F
100
AcDbEntity
  8
0
  6
CONTINUOUS
 62
     7
100
AcDbLine
 10
1349.0332225555
 20
904.6126813303
 30
0.0
 11
1346.72969675
 21
906.9162071358
 31
0.0
  0
LINE
  5
46A
330
1F
100
AcDbEntity
  8
0
  6
CONTINUOUS
 62
     7
100
AcDbLine
 10
1342.2103235715
 20
913.5260940205
 30
0.0
 11
1342.0012882196
 21
913.6126772176
 31
0.0
  0
LINE
  5
46B
330
1F
100
AcDbEntity
  8
0
  6
CONTINUOUS
 62
     7
100
AcDbLine
 10
1342.2103235715
 20
913.5260940205
 30
0.0
 11
1348.8273490437
 21
906.9162071358
 31
0.0
  0
LINE
  5
46C
330
1F
100
AcDbEntity
  8
0
  6
CONTINUOUS
 62
     7
100
AcDbLine
 10
1348.8273490437
 20
906.9162071358
 30
0.0
 11
1350.918633885
 21
904.8249185692
 31
0.0
  0
LINE
  5
46D
330
1F
100
AcDbEntity
  8
0
  6
CONTINUOUS
 62
     7
100
AcDbLine
 10
1350.918633885
 20
904.8249185692
 30
0.0
 11
1350.918633885
 21
904.6953306209
 31
0.0
  0
LINE
  5
46E
330
1F
100
AcDbEntity
  8
0
  6
CONTINUOUS
 62
     7
100
AcDbLine
 10
1427.0332204395
 20
771.612680019
 30
0.0
 11
1427.2544430786
 21
771.7043147098
 31
0.0
  0
LINE
  5
46F
330
1F
100
AcDbEntity
  8
0
  6
CONTINUOUS
 62
     7
100
AcDbLine
 10
1411.3040464216
 20
771.612680019
 30
0.0
 11
1427.0332204395
 21
771.612680019
 31
0.0
  0
LINE
  5
470
330
1F
100
AcDbEntity
  8
0
  6
CONTINUOUS
 62
     7
100
AcDbLine
 10
1359.8359807146
 20
913.6126772176
 30
0.0
 11
1359.626944897
 21
913.5260940205
 31
0.0
  0
LINE
  5
471
330
1F
100
AcDbEntity
  8
0
  6
CONTINUOUS
 62
     7
100
AcDbLine
 10
1342.2103235715
 20
913.5260940205
 30
0.0
 11
1359.626944897
 21
913.5260940205
 31
0.0
  0
LINE
  5
472
330
1F
100
AcDbEntity
  8
0
  6
CONTINUOUS
 62
     7
100
AcDbLine
 10
1419.1686334305
 20
763.7420803915
 30
0.0
 11
1424.729694634
 21
769.3091542136
 31
0.0
  0
LINE
  5
473
330
1F
100
AcDbEntity
  8
0
  6
CONTINUOUS
 62
     7
100
AcDbLine
 10
1424.729694634
 20
769.3091542136
 30
0.0
 11
1427.0332204395
 21
771.612680019
 31
0.0
  0
LINE
  5
474
330
1F
100
AcDbEntity
  8
0
  6
CONTINUOUS
 62
     7
100
AcDbLine
 10
1420.2103214555
 20
762.6992673289
 30
0.0
 11
1426.8273459964
 21
769.3091542136
 31
0.0
  0
LINE
  5
475
330
1F
100
AcDbEntity
  8
0
  6
CONTINUOUS
 62
     7
100
AcDbLine
 10
1420.2103214555
 20
762.6992673289
 30
0.0
 11
1420.0012879663
 21
762.6126841318
 31
0.0
  0
LINE
  5
476
330
1F
100
AcDbEntity
  8
0
  6
CONTINUOUS
 62
     7
100
AcDbLine
 10
1428.918634563
 20
771.4004427802
 30
0.0
 11
1428.918634563
 21
771.5300307285
 31
0.0
  0
LINE
  5
477
330
1F
100
AcDbEntity
  8
0
  6
CONTINUOUS
 62
     7
100
AcDbLine
 10
1428.918634563
 20
771.4004427802
 30
0.0
 11
1426.8273459964
 21
769.3091542136
 31
0.0
  0
LINE
  5
478
330
1F
100
AcDbEntity
  8
0
  6
CONTINUOUS
 62
     7
100
AcDbLine
 10
1437.6269476705
 20
762.6992673289
 30
0.0
 11
1420.2103214555
 21
762.6992673289
 31
0.0
  0
LINE
  5
479
330
1F
100
AcDbEntity
  8
0
  6
CONTINUOUS
 62
     7
100
AcDbLine
 10
1437.8359811598
 20
762.6126841318
 30
0.0
 11
1437.6269476705
 21
762.6992673289
 31
0.0
  0
LINE
  5
47A
330
1F
100
AcDbEntity
  8
0
  6
CONTINUOUS
 62
     7
100
AcDbLine
 10
1353.009919192
 20
906.9162071358
 30
0.0
 11
1359.626944897
 21
913.5260940205
 31
0.0
  0
LINE
  5
47B
330
1F
100
AcDbEntity
  8
0
  6
CONTINUOUS
 62
     7
100
AcDbLine
 10
1350.918633885
 20
904.8249185692
 30
0.0
 11
1353.009919192
 21
906.9162071358
 31
0.0
  0
LINE
  5
47C
330
1F
100
AcDbEntity
  8
0
  6
CONTINUOUS
 62
     7
100
AcDbLine
 10
1360.6686340862
 20
912.6068562876
 30
0.0
 11
1360.6686340862
 21
912.4832809578
 31
0.0
  0
LINE
  5
47D
330
1F
100
AcDbEntity
  8
0
  6
CONTINUOUS
 62
     7
100
AcDbLine
 10
1355.1075714857
 20
906.9162071358
 30
0.0
 11
1360.6686340862
 21
912.4832809578
 31
0.0
  0
LINE
  5
47E
330
1F
100
AcDbEntity
  8
0
  6
CONTINUOUS
 62
     7
100
AcDbLine
 10
1352.8040461459
 20
904.6126813303
 30
0.0
 11
1355.1075714857
 21
906.9162071358
 31
0.0
  0
LINE
  5
47F
330
1F
100
AcDbEntity
  8
0
  6
CONTINUOUS
 62
     7
100
AcDbLine
 10
1352.8040461459
 20
904.6126813303
 30
0.0
 11
1352.5828263008
 21
904.5210466396
 31
0.0
  0
LINE
  5
480
330
1F
100
AcDbEntity
  8
0
  6
CONTINUOUS
 62
     7
100
AcDbLine
 10
1368.5332220265
 20
904.6126813303
 30
0.0
 11
1352.8040461459
 21
904.6126813303
 31
0.0
  0
LINE
  5
481
330
1F
100
AcDbEntity
  8
0
  6
CONTINUOUS
 62
     7
100
AcDbLine
 10
1368.5332220265
 20
904.6126813303
 30
0.0
 11
1368.7544418716
 21
904.5210466396
 31
0.0
  0
LINE
  5
482
330
1F
100
AcDbEntity
  8
0
  6
CONTINUOUS
 62
     7
100
AcDbLine
 10
1431.009915679
 20
769.3091542136
 30
0.0
 11
1437.6269476705
 21
762.6992673289
 31
0.0
  0
LINE
  5
483
330
1F
100
AcDbEntity
  8
0
  6
CONTINUOUS
 62
     7
100
AcDbLine
 10
1428.918634563
 20
771.4004427802
 30
0.0
 11
1431.009915679
 21
769.3091542136
 31
0.0
  0
LINE
  5
484
330
1F
100
AcDbEntity
  8
0
  6
CONTINUOUS
 62
     7
100
AcDbLine
 10
1433.107574492
 20
769.3091542136
 30
0.0
 11
1438.6686356955
 21
763.7420803915
 31
0.0
  0
LINE
  5
485
330
1F
100
AcDbEntity
  8
0
  6
CONTINUOUS
 62
     7
100
AcDbLine
 10
1438.6686356955
 20
763.6185050618
 30
0.0
 11
1438.6686356955
 21
763.7420803915
 31
0.0
  0
LINE
  5
486
330
1F
100
AcDbEntity
  8
0
  6
CONTINUOUS
 62
     7
100
AcDbLine
 10
1430.8040486866
 20
771.612680019
 30
0.0
 11
1430.5828260475
 21
771.7043147098
 31
0.0
  0
LINE
  5
487
330
1F
100
AcDbEntity
  8
0
  6
CONTINUOUS
 62
     7
100
AcDbLine
 10
1430.8040486866
 20
771.612680019
 30
0.0
 11
1433.107574492
 21
769.3091542136
 31
0.0
  0
LINE
  5
488
330
1F
100
AcDbEntity
  8
0
  6
CONTINUOUS
 62
     7
100
AcDbLine
 10
1360.6686340862
 20
912.4832809578
 30
0.0
 11
1366.2296966867
 21
906.9162071358
 31
0.0
  0
LINE
  5
489
330
1F
100
AcDbEntity
  8
0
  6
CONTINUOUS
 62
     7
100
AcDbLine
 10
1368.5332220265
 20
904.6126813303
 30
0.0
 11
1366.2296966867
 21
906.9162071358
 31
0.0
  0
LINE
  5
48A
330
1F
100
AcDbEntity
  8
0
  6
CONTINUOUS
 62
     7
100
AcDbLine
 10
1361.7103232753
 20
913.5260940205
 30
0.0
 11
1361.5012874578
 21
913.6126772176
 31
0.0
  0
LINE
  5
48B
330
1F
100
AcDbEntity
  8
0
  6
CONTINUOUS
 62
     7
100
AcDbLine
 10
1361.7103232753
 20
913.5260940205
 30
0.0
 11
1368.3273489804
 21
906.9162071358
 31
0.0
  0
LINE
  5
48C
330
1F
100
AcDbEntity
  8
0
  6
CONTINUOUS
 62
     7
100
AcDbLine
 10
1368.3273489804
 20
906.9162071358
 30
0.0
 11
1370.4186342874
 21
904.8249185692
 31
0.0
  0
LINE
  5
48D
330
1F
100
AcDbEntity
  8
0
  6
CONTINUOUS
 62
     7
100
AcDbLine
 10
1370.4186342874
 20
904.6953306209
 30
0.0
 11
1370.4186342874
 21
904.8249185692
 31
0.0
  0
LINE
  5
48E
330
1F
100
AcDbEntity
  8
0
  6
CONTINUOUS
 62
     7
100
AcDbLine
 10
1446.5332227045
 20
771.612680019
 30
0.0
 11
1446.7544453436
 21
771.7043147098
 31
0.0
  0
LINE
  5
48F
330
1F
100
AcDbEntity
  8
0
  6
CONTINUOUS
 62
     7
100
AcDbLine
 10
1430.8040486866
 20
771.612680019
 30
0.0
 11
1446.5332227045
 21
771.612680019
 31
0.0
  0
LINE
  5
490
330
1F
100
AcDbEntity
  8
0
  6
CONTINUOUS
 62
     7
100
AcDbLine
 10
1361.7103232753
 20
913.5260940205
 30
0.0
 11
1379.1269446009
 21
913.5260940205
 31
0.0
  0
LINE
  5
491
330
1F
100
AcDbEntity
  8
0
  6
CONTINUOUS
 62
     7
100
AcDbLine
 10
1379.3359799528
 20
913.6126772176
 30
0.0
 11
1379.1269446009
 21
913.5260940205
 31
0.0
  0
LINE
  5
492
330
1F
100
AcDbEntity
  8
0
  6
CONTINUOUS
 62
     7
100
AcDbLine
 10
1438.6686356955
 20
763.7420803915
 30
0.0
 11
1444.229696899
 21
769.3091542136
 31
0.0
  0
LINE
  5
493
330
1F
100
AcDbEntity
  8
0
  6
CONTINUOUS
 62
     7
100
AcDbLine
 10
1444.229696899
 20
769.3091542136
 30
0.0
 11
1446.5332227045
 21
771.612680019
 31
0.0
  0
LINE
  5
494
330
1F
100
AcDbEntity
  8
0
  6
CONTINUOUS
 62
     7
100
AcDbLine
 10
1439.7103237205
 20
762.6992673289
 30
0.0
 11
1439.5012902313
 21
762.6126841318
 31
0.0
  0
LINE
  5
495
330
1F
100
AcDbEntity
  8
0
  6
CONTINUOUS
 62
     7
100
AcDbLine
 10
1457.1269424849
 20
762.6992673289
 30
0.0
 11
1439.7103237205
 21
762.6992673289
 31
0.0
  0
LINE
  5
496
330
1F
100
AcDbEntity
  8
0
  6
CONTINUOUS
 62
     7
100
AcDbLine
 10
1457.3359834247
 20
762.6126841318
 30
0.0
 11
1457.1269424849
 21
762.6992673289
 31
0.0
  0
LINE
  5
497
330
1F
100
AcDbEntity
  8
0
  6
CONTINUOUS
 62
     7
100
AcDbLine
 10
1439.7103237205
 20
762.6992673289
 30
0.0
 11
1446.3273482614
 21
769.3091542136
 31
0.0
  0
LINE
  5
498
330
1F
100
AcDbEntity
  8
0
  6
CONTINUOUS
 62
     7
100
AcDbLine
 10
1448.418636828
 20
771.4004427802
 30
0.0
 11
1448.418636828
 21
771.5300307285
 31
0.0
  0
LINE
  5
499
330
1F
100
AcDbEntity
  8
0
  6
CONTINUOUS
 62
     7
100
AcDbLine
 10
1448.418636828
 20
771.4004427802
 30
0.0
 11
1446.3273482614
 21
769.3091542136
 31
0.0
  0
LINE
  5
49A
330
1F
100
AcDbEntity
  8
0
  6
CONTINUOUS
 62
     7
100
AcDbLine
 10
1370.4186342874
 20
904.8249185692
 30
0.0
 11
1372.5099191287
 21
906.9162071358
 31
0.0
  0
LINE
  5
49B
330
1F
100
AcDbEntity
  8
0
  6
CONTINUOUS
 62
     7
100
AcDbLine
 10
1372.5099191287
 20
906.9162071358
 30
0.0
 11
1379.1269446009
 21
913.5260940205
 31
0.0
  0
LINE
  5
49C
330
1F
100
AcDbEntity
  8
0
  6
CONTINUOUS
 62
     7
100
AcDbLine
 10
1372.3040456169
 20
904.6126813303
 30
0.0
 11
1372.0828267031
 21
904.5210466396
 31
0.0
  0
LINE
  5
49D
330
1F
100
AcDbEntity
  8
0
  6
CONTINUOUS
 62
     7
100
AcDbLine
 10
1388.0332233601
 20
904.6126813303
 30
0.0
 11
1372.3040456169
 21
904.6126813303
 31
0.0
  0
LINE
  5
49E
330
1F
100
AcDbEntity
  8
0
  6
CONTINUOUS
 62
     7
100
AcDbLine
 10
1388.0332233601
 20
904.6126813303
 30
0.0
 11
1388.2544422739
 21
904.5210466396
 31
0.0
  0
LINE
  5
49F
330
1F
100
AcDbEntity
  8
0
  6
CONTINUOUS
 62
     7
100
AcDbLine
 10
1380.1686344885
 20
912.6068562876
 30
0.0
 11
1380.1686344885
 21
912.4832809578
 31
0.0
  0
LINE
  5
4A0
330
1F
100
AcDbEntity
  8
0
  6
CONTINUOUS
 62
     7
100
AcDbLine
 10
1374.6075714224
 20
906.9162071358
 30
0.0
 11
1380.1686344885
 21
912.4832809578
 31
0.0
  0
LINE
  5
4A1
330
1F
100
AcDbEntity
  8
0
  6
CONTINUOUS
 62
     7
100
AcDbLine
 10
1372.3040456169
 20
904.6126813303
 30
0.0
 11
1374.6075714224
 21
906.9162071358
 31
0.0
  0
LINE
  5
4A2
330
1F
100
AcDbEntity
  8
0
  6
CONTINUOUS
 62
     7
100
AcDbLine
 10
1450.509917944
 20
769.3091542136
 30
0.0
 11
1457.1269424849
 21
762.6992673289
 31
0.0
  0
LINE
  5
4A3
330
1F
100
AcDbEntity
  8
0
  6
CONTINUOUS
 62
     7
100
AcDbLine
 10
1448.418636828
 20
771.4004427802
 30
0.0
 11
1450.509917944
 21
769.3091542136
 31
0.0
  0
LINE
  5
4A4
330
1F
100
AcDbEntity
  8
0
  6
CONTINUOUS
 62
     7
100
AcDbLine
 10
1452.6075693064
 20
769.3091542136
 30
0.0
 11
1458.1686305099
 21
763.7420803915
 31
0.0
  0
LINE
  5
4A5
330
1F
100
AcDbEntity
  8
0
  6
CONTINUOUS
 62
     7
100
AcDbLine
 10
1458.1686305099
 20
763.6185050618
 30
0.0
 11
1458.1686305099
 21
763.7420803915
 31
0.0
  0
LINE
  5
4A6
330
1F
100
AcDbEntity
  8
0
  6
CONTINUOUS
 62
     7
100
AcDbLine
 10
1450.304043501
 20
771.612680019
 30
0.0
 11
1450.0828283125
 21
771.7043147098
 31
0.0
  0
LINE
  5
4A7
330
1F
100
AcDbEntity
  8
0
  6
CONTINUOUS
 62
     7
100
AcDbLine
 10
1450.304043501
 20
771.612680019
 30
0.0
 11
1452.6075693064
 21
769.3091542136
 31
0.0
  0
LINE
  5
4A8
330
1F
100
AcDbEntity
  8
0
  6
CONTINUOUS
 62
     7
100
AcDbLine
 10
1380.1686344885
 20
912.4832809578
 30
0.0
 11
1385.7296975547
 21
906.9162071358
 31
0.0
  0
LINE
  5
4A9
330
1F
100
AcDbEntity
  8
0
  6
CONTINUOUS
 62
     7
100
AcDbLine
 10
1388.0332233601
 20
904.6126813303
 30
0.0
 11
1385.7296975547
 21
906.9162071358
 31
0.0
  0
LINE
  5
4AA
330
1F
100
AcDbEntity
  8
0
  6
CONTINUOUS
 62
     7
100
AcDbLine
 10
1381.2103225135
 20
913.5260940205
 30
0.0
 11
1381.0012871617
 21
913.6126772176
 31
0.0
  0
LINE
  5
4AB
330
1F
100
AcDbEntity
  8
0
  6
CONTINUOUS
 62
     7
100
AcDbLine
 10
1381.2103225135
 20
913.5260940205
 30
0.0
 11
1387.8273489171
 21
906.9162071358
 31
0.0
  0
LINE
  5
4AC
330
1F
100
AcDbEntity
  8
0
  6
CONTINUOUS
 62
     7
100
AcDbLine
 10
1389.9186337584
 20
904.8249185692
 30
0.0
 11
1387.8273489171
 21
906.9162071358
 31
0.0
  0
LINE
  5
4AD
330
1F
100
AcDbEntity
  8
0
  6
CONTINUOUS
 62
     7
100
AcDbLine
 10
1389.9186337584
 20
904.8249185692
 30
0.0
 11
1389.9186337584
 21
904.6953306209
 31
0.0
  0
LINE
  5
4AE
330
1F
100
AcDbEntity
  8
0
  6
CONTINUOUS
 62
     7
100
AcDbLine
 10
1466.0332249695
 20
771.612680019
 30
0.0
 11
1466.254440158
 21
771.7043147098
 31
0.0
  0
LINE
  5
4AF
330
1F
100
AcDbEntity
  8
0
  6
CONTINUOUS
 62
     7
100
AcDbLine
 10
1450.304043501
 20
771.612680019
 30
0.0
 11
1466.0332249695
 21
771.612680019
 31
0.0
  0
LINE
  5
4B0
330
1F
100
AcDbEntity
  8
0
  6
CONTINUOUS
 62
     7
100
AcDbLine
 10
1381.2103225135
 20
913.5260940205
 30
0.0
 11
1398.6269431406
 21
913.5260940205
 31
0.0
  0
LINE
  5
4B1
330
1F
100
AcDbEntity
  8
0
  6
CONTINUOUS
 62
     7
100
AcDbLine
 10
1398.8359803551
 20
913.6126772176
 30
0.0
 11
1398.6269431406
 21
913.5260940205
 31
0.0
  0
LINE
  5
4B2
330
1F
100
AcDbEntity
  8
0
  6
CONTINUOUS
 62
     7
100
AcDbLine
 10
1458.1686305099
 20
763.7420803915
 30
0.0
 11
1463.729699164
 21
769.3091542136
 31
0.0
  0
LINE
  5
4B3
330
1F
100
AcDbEntity
  8
0
  6
CONTINUOUS
 62
     7
100
AcDbLine
 10
1463.729699164
 20
769.3091542136
 30
0.0
 11
1466.0332249695
 21
771.612680019
 31
0.0
  0
LINE
  5
4B4
330
1F
100
AcDbEntity
  8
0
  6
CONTINUOUS
 62
     7
100
AcDbLine
 10
1459.2103259855
 20
762.6992673289
 30
0.0
 11
1465.8273505264
 21
769.3091542136
 31
0.0
  0
LINE
  5
4B5
330
1F
100
AcDbEntity
  8
0
  6
CONTINUOUS
 62
     7
100
AcDbLine
 10
1459.2103259855
 20
762.6992673289
 30
0.0
 11
1459.0012850457
 21
762.6126841318
 31
0.0
  0
LINE
  5
4B6
330
1F
100
AcDbEntity
  8
0
  6
CONTINUOUS
 62
     7
100
AcDbLine
 10
1468.1308763319
 20
771.612680019
 30
0.0
 11
1468.0929230743
 21
771.7043147098
 31
0.0
  0
LINE
  5
4B7
330
1F
100
AcDbEntity
  8
0
  6
CONTINUOUS
 62
     7
100
AcDbLine
 10
1468.1308763319
 20
771.612680019
 30
0.0
 11
1465.8273505264
 21
769.3091542136
 31
0.0
  0
LINE
  5
4B8
330
1F
100
AcDbEntity
  8
0
  6
CONTINUOUS
 62
     7
100
AcDbLine
 10
1467.526500135
 20
762.6992673289
 30
0.0
 11
1467.526500135
 21
762.6126841318
 31
0.0
  0
LINE
  5
4B9
330
1F
100
AcDbEntity
  8
0
  6
CONTINUOUS
 62
     7
100
AcDbLine
 10
1467.526500135
 20
762.6992673289
 30
0.0
 11
1459.2103259855
 21
762.6992673289
 31
0.0
  0
LINE
  5
4BA
330
1F
100
AcDbEntity
  8
0
  6
CONTINUOUS
 62
     7
100
AcDbLine
 10
1389.9186337584
 20
904.8249185692
 30
0.0
 11
1392.0099185997
 21
906.9162071358
 31
0.0
  0
LINE
  5
4BB
330
1F
100
AcDbEntity
  8
0
  6
CONTINUOUS
 62
     7
100
AcDbLine
 10
1392.0099185997
 20
906.9162071358
 30
0.0
 11
1398.6269431406
 21
913.5260940205
 31
0.0
  0
LINE
  5
4BC
330
1F
100
AcDbEntity
  8
0
  6
CONTINUOUS
 62
     7
100
AcDbLine
 10
1478.8974048787
 20
755.2417725932
 30
0.0
 11
1478.8402067714
 21
755.2989707004
 31
0.0
  0
ARC
  5
4BD
330
1F
100
AcDbEntity
  8
0
  6
CONTINUOUS
 62
     7
100
AcDbCircle
 10
1467.5264984625
 20
766.6249651033
 30
0.0
 40
16.08958272751181
100
AcDbArc
 50
270.0
 51
314.9690672951
  0
LINE
  5
4BE
330
1F
100
AcDbEntity
  8
0
  6
CONTINUOUS
 62
     7
100
AcDbLine
 10
1399.6686348909
 20
912.6068562876
 30
0.0
 11
1399.6686348909
 21
912.4832809578
 31
0.0
  0
LINE
  5
4BF
330
1F
100
AcDbEntity
  8
0
  6
CONTINUOUS
 62
     7
100
AcDbLine
 10
1394.1075699621
 20
906.9162071358
 30
0.0
 11
1399.6686348909
 21
912.4832809578
 31
0.0
  0
LINE
  5
4C0
330
1F
100
AcDbEntity
  8
0
  6
CONTINUOUS
 62
     7
100
AcDbLine
 10
1391.8040460193
 20
904.6126813303
 30
0.0
 11
1394.1075699621
 21
906.9162071358
 31
0.0
  0
LINE
  5
4C1
330
1F
100
AcDbEntity
  8
0
  6
CONTINUOUS
 62
     7
100
AcDbLine
 10
1391.8040460193
 20
904.6126813303
 30
0.0
 11
1391.5828271055
 21
904.5210466396
 31
0.0
  0
LINE
  5
4C2
330
1F
100
AcDbEntity
  8
0
  6
CONTINUOUS
 62
     7
100
AcDbLine
 10
1407.5332218998
 20
904.6126813303
 30
0.0
 11
1391.8040460193
 21
904.6126813303
 31
0.0
  0
LINE
  5
4C3
330
1F
100
AcDbEntity
  8
0
  6
CONTINUOUS
 62
     7
100
AcDbLine
 10
1407.5332218998
 20
904.6126813303
 30
0.0
 11
1407.7544408136
 21
904.5210466396
 31
0.0
  0
ARC
  5
4C4
330
1F
100
AcDbEntity
  8
0
  6
CONTINUOUS
 62
     7
100
AcDbCircle
 10
1467.5264984625
 20
766.6096950544
 30
0.0
 40
3.910428931201182
100
AcDbArc
 50
270.0
 51
315.0309327049
  0
LINE
  5
4C5
330
1F
100
AcDbEntity
  8
0
  6
CONTINUOUS
 62
     7
100
AcDbLine
 10
1470.2930795246
 20
763.8460979473
 30
0.0
 11
1470.3549267941
 21
763.7842506777
 31
0.0
  0
CIRCLE
  5
4C6
330
1F
100
AcDbEntity
  8
0
  6
CONTINUOUS
 62
     7
100
AcDbCircle
 10
1465.6686340862
 20
783.1126806747
 30
0.0
 40
5.366668079663214
  0
CIRCLE
  5
4C7
330
1F
100
AcDbEntity
  8
0
  6
CONTINUOUS
 62
     7
100
AcDbCircle
 10
1465.6686340862
 20
783.1126806747
 30
0.0
 40
5.0
  0
CIRCLE
  5
4C8
330
1F
100
AcDbEntity
  8
0
  6
CONTINUOUS
 62
     7
100
AcDbCircle
 10
1465.6686340862
 20
783.1126806747
 30
0.0
 40
2.600000000000136
  0
LINE
  5
4C9
330
1F
100
AcDbEntity
  8
0
  6
CONTINUOUS
 62
     7
100
AcDbLine
 10
1479.4721575671
 20
773.0310768496
 30
0.0
 11
1475.7502423816
 21
769.3091542136
 31
0.0
  0
LINE
  5
4CA
330
1F
100
AcDbEntity
  8
0
  6
CONTINUOUS
 62
     7
100
AcDbLine
 10
1485.462282806
 20
779.014727534
 30
0.0
 11
1479.4721575671
 21
773.0310768496
 31
0.0
  0
LINE
  5
4CB
330
1F
100
AcDbEntity
  8
0
  6
CONTINUOUS
 62
     7
100
AcDbLine
 10
1485.462282806
 20
779.014727534
 30
0.0
 11
1485.5238395029
 21
778.9531671118
 31
0.0
  0
LINE
  5
4CC
330
1F
100
AcDbEntity
  8
0
  6
CONTINUOUS
 62
     7
100
AcDbLine
 10
1475.7502423816
 20
769.3091542136
 30
0.0
 11
1470.2930795246
 21
763.8460979473
 31
0.0
  0
LINE
  5
4CD
330
1F
100
AcDbEntity
  8
0
  6
CONTINUOUS
 62
     7
100
AcDbLine
 10
1407.5332218998
 20
904.6126813303
 30
0.0
 11
1405.2296960943
 21
906.9162071358
 31
0.0
  0
LINE
  5
4CE
330
1F
100
AcDbEntity
  8
0
  6
CONTINUOUS
 62
     7
100
AcDbLine
 10
1399.6686348909
 20
912.4832809578
 30
0.0
 11
1405.2296960943
 21
906.9162071358
 31
0.0
  0
LINE
  5
4CF
330
1F
100
AcDbEntity
  8
0
  6
CONTINUOUS
 62
     7
100
AcDbLine
 10
1400.7103229159
 20
913.5260940205
 30
0.0
 11
1400.5012857013
 21
913.6126772176
 31
0.0
  0
LINE
  5
4D0
330
1F
100
AcDbEntity
  8
0
  6
CONTINUOUS
 62
     7
100
AcDbLine
 10
1400.7103229159
 20
913.5260940205
 30
0.0
 11
1407.3273474568
 21
906.9162071358
 31
0.0
  0
LINE
  5
4D1
330
1F
100
AcDbEntity
  8
0
  6
CONTINUOUS
 62
     7
100
AcDbLine
 10
1409.4186322981
 20
904.8249185692
 30
0.0
 11
1407.3273474568
 21
906.9162071358
 31
0.0
  0
LINE
  5
4D2
330
1F
100
AcDbEntity
  8
0
  6
CONTINUOUS
 62
     7
100
AcDbLine
 10
1409.4186322981
 20
904.8249185692
 30
0.0
 11
1409.4186322981
 21
904.6953306209
 31
0.0
  0
CIRCLE
  5
4D3
330
1F
100
AcDbEntity
  8
0
  6
CONTINUOUS
 62
     7
100
AcDbCircle
 10
1465.6686340862
 20
783.1126806747
 30
0.0
 40
2.499641020406216
  0
LINE
  5
4D4
330
1F
100
AcDbEntity
  8
0
  6
CONTINUOUS
 62
     7
100
AcDbLine
 10
1470.2519970232
 20
771.7043147098
 30
0.0
 11
1470.2899577313
 21
771.612680019
 31
0.0
  0
LINE
  5
4D5
330
1F
100
AcDbEntity
  8
0
  6
CONTINUOUS
 62
     7
100
AcDbLine
 10
1468.1308763319
 20
771.612680019
 30
0.0
 11
1470.2899577313
 21
771.612680019
 31
0.0
  0
LINE
  5
4D6
330
1F
100
AcDbEntity
  8
0
  6
CONTINUOUS
 62
     7
100
AcDbLine
 10
1494.0660344654
 20
770.4109758746
 30
0.0
 11
1492.956225782
 21
769.2999601971
 31
0.0
  0
SPLINE
  5
4D7
330
1F
100
AcDbEntity
  8
0
  6
CONTINUOUS
 62
     7
100
AcDbSpline
210
0.0
220
0.0
230
1.0
 70
     8
 71
     3
 72
     8
 73
     4
 74
     0
 42
0.00000001
 43
0.00000001
 12
1.0
 22
0.0
 32
0.0
 13
1.0
 23
0.0
 33
0.0
 40
0.0
 40
0.0
 40
0.0
 40
0.0
 40
1.0
 40
1.0
 40
1.0
 40
1.0
 10
1492.956225571873
 20
769.2999628966816
 30
0.0
 10
1488.464704484753
 20
764.8082348453604
 30
0.0
 10
1483.973079915533
 20
760.31661027614
 30
0.0
 10
1479.481351864211
 20
755.8250891890203
 30
0.0
  0
LINE
  5
4D8
330
1F
100
AcDbEntity
  8
0
  6
CONTINUOUS
 62
     7
100
AcDbLine
 10
1479.4813515835
 20
755.8250859987
 30
0.0
 11
1478.8974048787
 21
755.2417725932
 31
0.0
  0
LINE
  5
4D9
330
1F
100
AcDbEntity
  8
0
  6
CONTINUOUS
 62
     7
100
AcDbLine
 10
1494.0660344654
 20
770.4109758746
 30
0.0
 11
1494.0091269308
 21
770.4678908597
 31
0.0
  0
LINE
  5
4DA
330
1F
100
AcDbEntity
  8
0
  6
CONTINUOUS
 62
     7
100
AcDbLine
 10
1481.1673434668
 20
782.4918948721
 30
0.0
 11
1479.4721575671
 21
780.7948873054
 31
0.0
  0
LINE
  5
4DB
330
1F
100
AcDbEntity
  8
0
  6
CONTINUOUS
 62
     7
100
AcDbLine
 10
1470.2899577313
 20
771.612680019
 30
0.0
 11
1479.4721575671
 21
780.7948873054
 31
0.0
  0
LINE
  5
4DC
330
1F
100
AcDbEntity
  8
0
  6
CONTINUOUS
 62
     7
100
AcDbLine
 10
1481.0770051771
 20
782.5293154131
 30
0.0
 11
1481.1673434668
 21
782.4918948721
 31
0.0
  0
LINE
  5
4DD
330
1F
100
AcDbEntity
  8
0
  6
CONTINUOUS
 62
     7
100
AcDbLine
 10
1479.7602640682
 20
783.0747239899
 30
0.0
 11
1479.6687858396
 21
783.1126176428
 31
0.0
  0
LINE
  5
4DE
330
1F
100
AcDbEntity
  8
0
  6
CONTINUOUS
 62
     7
100
AcDbLine
 10
1469.6686314636
 20
773.1126830589
 30
0.0
 11
1479.4721575671
 21
782.9162054371
 31
0.0
  0
LINE
  5
4DF
330
1F
100
AcDbEntity
  8
0
  6
CONTINUOUS
 62
     7
100
AcDbLine
 10
1479.6687858396
 20
783.1126176428
 30
0.0
 11
1479.4721575671
 21
782.9162054371
 31
0.0
  0
LINE
  5
4E0
330
1F
100
AcDbEntity
  8
0
  6
CONTINUOUS
 62
     7
100
AcDbLine
 10
1418.3359788948
 20
913.6126772176
 30
0.0
 11
1418.1269454056
 21
913.5260940205
 31
0.0
  0
LINE
  5
4E1
330
1F
100
AcDbEntity
  8
0
  6
CONTINUOUS
 62
     7
100
AcDbLine
 10
1400.7103229159
 20
913.5260940205
 30
0.0
 11
1418.1269454056
 21
913.5260940205
 31
0.0
  0
LINE
  5
4E2
330
1F
100
AcDbEntity
  8
0
  6
CONTINUOUS
 62
     7
100
AcDbLine
 10
1409.4186322981
 20
904.8249185692
 30
0.0
 11
1411.5099208646
 21
906.9162071358
 31
0.0
  0
LINE
  5
4E3
330
1F
100
AcDbEntity
  8
0
  6
CONTINUOUS
 62
     7
100
AcDbLine
 10
1411.5099208646
 20
906.9162071358
 30
0.0
 11
1418.1269454056
 21
913.5260940205
 31
0.0
  0
LINE
  5
4E4
330
1F
100
AcDbEntity
  8
0
  6
CONTINUOUS
 62
     7
100
AcDbLine
 10
1427.0332204395
 20
904.6126813303
 30
0.0
 11
1411.3040464216
 21
904.6126813303
 31
0.0
  0
LINE
  5
4E5
330
1F
100
AcDbEntity
  8
0
  6
CONTINUOUS
 62
     7
100
AcDbLine
 10
1427.0332204395
 20
904.6126813303
 30
0.0
 11
1427.2544430786
 21
904.5210466396
 31
0.0
  0
LINE
  5
4E6
330
1F
100
AcDbEntity
  8
0
  6
CONTINUOUS
 62
     7
100
AcDbLine
 10
1411.3040464216
 20
904.6126813303
 30
0.0
 11
1411.0828275078
 21
904.5210466396
 31
0.0
  0
LINE
  5
4E7
330
1F
100
AcDbEntity
  8
0
  6
CONTINUOUS
 62
     7
100
AcDbLine
 10
1419.1686334305
 20
912.6068562876
 30
0.0
 11
1419.1686334305
 21
912.4832809578
 31
0.0
  0
LINE
  5
4E8
330
1F
100
AcDbEntity
  8
0
  6
CONTINUOUS
 62
     7
100
AcDbLine
 10
1413.6075722271
 20
906.9162071358
 30
0.0
 11
1419.1686334305
 21
912.4832809578
 31
0.0
  0
LINE
  5
4E9
330
1F
100
AcDbEntity
  8
0
  6
CONTINUOUS
 62
     7
100
AcDbLine
 10
1411.3040464216
 20
904.6126813303
 30
0.0
 11
1413.6075722271
 21
906.9162071358
 31
0.0
  0
LINE
  5
4EA
330
1F
100
AcDbEntity
  8
0
  6
CONTINUOUS
 62
     7
100
AcDbLine
 10
1479.7602640682
 20
893.1506373595
 30
0.0
 11
1479.6687858396
 21
893.1127437066
 31
0.0
  0
LINE
  5
4EB
330
1F
100
AcDbEntity
  8
0
  6
CONTINUOUS
 62
     7
100
AcDbLine
 10
1479.6687858396
 20
893.1127437066
 30
0.0
 11
1479.6687858396
 21
783.1126176428
 31
0.0
  0
LINE
  5
4EC
330
1F
100
AcDbEntity
  8
0
  6
CONTINUOUS
 62
     7
100
AcDbLine
 10
1427.0332204395
 20
904.6126813303
 30
0.0
 11
1424.729694634
 21
906.9162071358
 31
0.0
  0
LINE
  5
4ED
330
1F
100
AcDbEntity
  8
0
  6
CONTINUOUS
 62
     7
100
AcDbLine
 10
1419.1686334305
 20
912.4832809578
 30
0.0
 11
1424.729694634
 21
906.9162071358
 31
0.0
  0
LINE
  5
4EE
330
1F
100
AcDbEntity
  8
0
  6
CONTINUOUS
 62
     7
100
AcDbLine
 10
1481.1673434668
 20
786.0669777404
 30
0.0
 11
1481.0770051771
 21
786.285074861
 31
0.0
  0
LWPOLYLINE
  5
4EF
330
1F
100
AcDbEntity
  8
0
  6
CONTINUOUS
 62
     7
100
AcDbPolyline
 90
        3
 70
   128
 43
0.0
 10
1486.4748465114
 20
780.7652041923
 10
1486.5493672186
 20
780.7853319358
 10
1486.5708695942
 20
780.7912104439
  0
LINE
  5
4F0
330
1F
100
AcDbEntity
  8
0
  6
CONTINUOUS
 62
     7
100
AcDbLine
 10
1486.4748465114
 20
780.7652041923
 30
0.0
 11
1481.1673434668
 21
786.0669777404
 31
0.0
  0
LINE
  5
4F1
330
1F
100
AcDbEntity
  8
0
  6
CONTINUOUS
 62
     7
100
AcDbLine
 10
1481.1673434668
 20
786.0669777404
 30
0.0
 11
1481.1673434668
 21
782.4918948721
 31
0.0
  0
LINE
  5
4F2
330
1F
100
AcDbEntity
  8
0
  6
CONTINUOUS
 62
     7
100
AcDbLine
 10
1420.2103214555
 20
913.5260940205
 30
0.0
 11
1420.0012879663
 21
913.6126772176
 31
0.0
  0
LINE
  5
4F3
330
1F
100
AcDbEntity
  8
0
  6
CONTINUOUS
 62
     7
100
AcDbLine
 10
1420.2103214555
 20
913.5260940205
 30
0.0
 11
1426.8273459964
 21
906.9162071358
 31
0.0
  0
LINE
  5
4F4
330
1F
100
AcDbEntity
  8
0
  6
CONTINUOUS
 62
     7
100
AcDbLine
 10
1428.918634563
 20
904.8249185692
 30
0.0
 11
1426.8273459964
 21
906.9162071358
 31
0.0
  0
LINE
  5
4F5
330
1F
100
AcDbEntity
  8
0
  6
CONTINUOUS
 62
     7
100
AcDbLine
 10
1428.918634563
 20
904.8249185692
 30
0.0
 11
1428.918634563
 21
904.6953306209
 31
0.0
  0
ARC
  5
4F6
330
1F
100
AcDbEntity
  8
0
  6
CONTINUOUS
 62
     7
100
AcDbCircle
 10
1482.6983997486
 20
781.7815960335
 30
0.0
 40
3.910831051825106
100
AcDbArc
 50
314.9690672951
 51
344.9363677733
  0
LINE
  5
4F7
330
1F
100
AcDbEntity
  8
0
  6
CONTINUOUS
 62
     7
100
AcDbLine
 10
1482.0878701502
 20
787.1126816284
 30
0.0
 11
1482.214500218
 21
787.1126816284
 31
0.0
  0
LINE
  5
4F8
330
1F
100
AcDbEntity
  8
0
  6
CONTINUOUS
 62
     7
100
AcDbLine
 10
1482.214500218
 20
787.1126816284
 30
0.0
 11
1486.6429912143
 21
782.679403634
 31
0.0
  0
LINE
  5
4F9
330
1F
100
AcDbEntity
  8
0
  6
CONTINUOUS
 62
     7
100
AcDbLine
 10
1486.6429912143
 20
782.679403634
 30
0.0
 11
1486.7221908861
 21
782.478368343
 31
0.0
  0
LINE
  5
4FA
330
1F
100
AcDbEntity
  8
0
  6
CONTINUOUS
 62
     7
100
AcDbLine
 10
1481.0770051771
 20
787.9402883958
 30
0.0
 11
1481.1673434668
 21
788.158381791
 31
0.0
  0
LINE
  5
4FB
330
1F
100
AcDbEntity
  8
0
  6
CONTINUOUS
 62
     7
100
AcDbLine
 10
1487.0394664102
 20
794.0241680156
 30
0.0
 11
1481.1673434668
 21
788.158381791
 31
0.0
  0
LINE
  5
4FC
330
1F
100
AcDbEntity
  8
0
  6
CONTINUOUS
 62
     7
100
AcDbLine
 10
1487.0394664102
 20
794.0241680156
 30
0.0
 11
1487.1240901046
 21
793.9873733233
 31
0.0
  0
LINE
  5
4FD
330
1F
100
AcDbEntity
  8
0
  6
CONTINUOUS
 62
     7
100
AcDbLine
 10
1481.1673434668
 20
803.0669786643
 30
0.0
 11
1481.0770051771
 21
803.2850757848
 31
0.0
  0
LINE
  5
4FE
330
1F
100
AcDbEntity
  8
0
  6
CONTINUOUS
 62
     7
100
AcDbLine
 10
1481.1673434668
 20
803.0669786643
 30
0.0
 11
1481.1673434668
 21
788.158381791
 31
0.0
  0
LINE
  5
4FF
330
1F
100
AcDbEntity
  8
0
  6
CONTINUOUS
 62
     7
100
AcDbLine
 10
1486.9640963369
 20
791.8674000215
 30
0.0
 11
1487.0575564199
 21
792.0823716234
 31
0.0
  0
LINE
  5
500
330
1F
100
AcDbEntity
  8
0
  6
CONTINUOUS
 62
     7
100
AcDbLine
 10
1486.9640963369
 20
791.8674000215
 30
0.0
 11
1482.214500218
 21
787.1126816284
 31
0.0
  0
LINE
  5
501
330
1F
100
AcDbEntity
  8
0
  6
CONTINUOUS
 62
     7
100
AcDbLine
 10
1437.8359811598
 20
913.6126772176
 30
0.0
 11
1437.6269476705
 21
913.5260940205
 31
0.0
  0
LINE
  5
502
330
1F
100
AcDbEntity
  8
0
  6
CONTINUOUS
 62
     7
100
AcDbLine
 10
1420.2103214555
 20
913.5260940205
 30
0.0
 11
1437.6269476705
 21
913.5260940205
 31
0.0
  0
ARC
  5
503
330
1F
100
AcDbEntity
  8
0
  6
CONTINUOUS
 62
     7
100
AcDbCircle
 10
1482.6831296997
 20
781.7815960335
 30
0.0
 40
16.08918052419343
100
AcDbArc
 50
315.0309327049
 51
358.0015266939
  0
LINE
  5
504
330
1F
100
AcDbEntity
  8
0
  6
CONTINUOUS
 62
     7
100
AcDbLine
 10
1498.7625228458
 20
781.2205203485
 30
0.0
 11
1498.6856626564
 21
781.2232025575
 31
0.0
  0
LINE
  5
505
330
1F
100
AcDbEntity
  8
0
  6
CONTINUOUS
 62
     7
100
AcDbLine
 10
1486.9640963369
 20
791.8674000215
 30
0.0
 11
1486.6429912143
 21
782.679403634
 31
0.0
  0
LINE
  5
506
330
1F
100
AcDbEntity
  8
0
  6
CONTINUOUS
 62
     7
100
AcDbLine
 10
1487.1467547708
 20
797.0940270137
 30
0.0
 11
1487.2337775522
 21
797.1283034097
 31
0.0
  0
LINE
  5
507
330
1F
100
AcDbEntity
  8
0
  6
CONTINUOUS
 62
     7
100
AcDbLine
 10
1487.1467547708
 20
797.0940270137
 30
0.0
 11
1481.1673434668
 21
803.0669786643
 31
0.0
  0
LINE
  5
508
330
1F
100
AcDbEntity
  8
0
  6
CONTINUOUS
 62
     7
100
AcDbLine
 10
1428.918634563
 20
904.8249185692
 30
0.0
 11
1431.009915679
 21
906.9162071358
 31
0.0
  0
LINE
  5
509
330
1F
100
AcDbEntity
  8
0
  6
CONTINUOUS
 62
     7
100
AcDbLine
 10
1431.009915679
 20
906.9162071358
 30
0.0
 11
1437.6269476705
 21
913.5260940205
 31
0.0
  0
LINE
  5
50A
330
1F
100
AcDbEntity
  8
0
  6
CONTINUOUS
 62
     7
100
AcDbLine
 10
1482.0878701502
 20
804.1126788269
 30
0.0
 11
1482.214500218
 21
804.1126788269
 31
0.0
  0
LINE
  5
50B
330
1F
100
AcDbEntity
  8
0
  6
CONTINUOUS
 62
     7
100
AcDbLine
 10
1482.214500218
 20
804.1126788269
 30
0.0
 11
1487.2170137459
 21
799.1047599029
 31
0.0
  0
LINE
  5
50C
330
1F
100
AcDbEntity
  8
0
  6
CONTINUOUS
 62
     7
100
AcDbLine
 10
1487.2170137459
 20
799.1047599029
 30
0.0
 11
1487.2958110862
 21
798.9047490667
 31
0.0
  0
LINE
  5
50D
330
1F
100
AcDbEntity
  8
0
  6
CONTINUOUS
 62
     7
100
AcDbLine
 10
1438.6686356955
 20
912.6068562876
 30
0.0
 11
1438.6686356955
 21
912.4832809578
 31
0.0
  0
LINE
  5
50E
330
1F
100
AcDbEntity
  8
0
  6
CONTINUOUS
 62
     7
100
AcDbLine
 10
1433.107574492
 20
906.9162071358
 30
0.0
 11
1438.6686356955
 21
912.4832809578
 31
0.0
  0
LINE
  5
50F
330
1F
100
AcDbEntity
  8
0
  6
CONTINUOUS
 62
     7
100
AcDbLine
 10
1430.8040486866
 20
904.6126813303
 30
0.0
 11
1433.107574492
 21
906.9162071358
 31
0.0
  0
LINE
  5
510
330
1F
100
AcDbEntity
  8
0
  6
CONTINUOUS
 62
     7
100
AcDbLine
 10
1430.8040486866
 20
904.6126813303
 30
0.0
 11
1430.5828260475
 21
904.5210466396
 31
0.0
  0
LINE
  5
511
330
1F
100
AcDbEntity
  8
0
  6
CONTINUOUS
 62
     7
100
AcDbLine
 10
1446.5332227045
 20
904.6126813303
 30
0.0
 11
1430.8040486866
 21
904.6126813303
 31
0.0
  0
LINE
  5
512
330
1F
100
AcDbEntity
  8
0
  6
CONTINUOUS
 62
     7
100
AcDbLine
 10
1446.5332227045
 20
904.6126813303
 30
0.0
 11
1446.7544453436
 21
904.5210466396
 31
0.0
  0
LINE
  5
513
330
1F
100
AcDbEntity
  8
0
  6
CONTINUOUS
 62
     7
100
AcDbLine
 10
1481.0770051771
 20
804.9402855944
 30
0.0
 11
1481.1673434668
 21
805.1583827149
 31
0.0
  0
LINE
  5
514
330
1F
100
AcDbEntity
  8
0
  6
CONTINUOUS
 62
     7
100
AcDbLine
 10
1487.6550631815
 20
811.6390988838
 30
0.0
 11
1481.1673434668
 21
805.1583827149
 31
0.0
  0
LINE
  5
515
330
1F
100
AcDbEntity
  8
0
  6
CONTINUOUS
 62
     7
100
AcDbLine
 10
1487.6550631815
 20
811.6390988838
 30
0.0
 11
1487.7392249399
 21
811.6025072198
 31
0.0
  0
LINE
  5
516
330
1F
100
AcDbEntity
  8
0
  6
CONTINUOUS
 62
     7
100
AcDbLine
 10
1481.1673434668
 20
820.0669795882
 30
0.0
 11
1481.0770051771
 21
820.2850748461
 31
0.0
  0
LINE
  5
517
330
1F
100
AcDbEntity
  8
0
  6
CONTINUOUS
 62
     7
100
AcDbLine
 10
1481.1673434668
 20
820.0669795882
 30
0.0
 11
1481.1673434668
 21
805.1583827149
 31
0.0
  0
LINE
  5
518
330
1F
100
AcDbEntity
  8
0
  6
CONTINUOUS
 62
     7
100
AcDbLine
 10
1487.1467547708
 20
797.0940270137
 30
0.0
 11
1487.0394664102
 21
794.0241680156
 31
0.0
  0
LINE
  5
519
330
1F
100
AcDbEntity
  8
0
  6
CONTINUOUS
 62
     7
100
AcDbLine
 10
1487.5797378116
 20
809.4837111097
 30
0.0
 11
1487.6726912552
 21
809.6975055199
 31
0.0
  0
LINE
  5
51A
330
1F
100
AcDbEntity
  8
0
  6
CONTINUOUS
 62
     7
100
AcDbLine
 10
1487.5797378116
 20
809.4837111097
 30
0.0
 11
1482.214500218
 21
804.1126788269
 31
0.0
  0
LINE
  5
51B
330
1F
100
AcDbEntity
  8
0
  6
CONTINUOUS
 62
     7
100
AcDbLine
 10
1487.5797378116
 20
809.4837111097
 30
0.0
 11
1487.2170137459
 21
799.1047599029
 31
0.0
  0
LINE
  5
51C
330
1F
100
AcDbEntity
  8
0
  6
CONTINUOUS
 62
     7
100
AcDbLine
 10
1487.7208220058
 20
813.5205791007
 30
0.0
 11
1487.8073977524
 21
813.5546841334
 31
0.0
  0
LINE
  5
51D
330
1F
100
AcDbEntity
  8
0
  6
CONTINUOUS
 62
     7
100
AcDbLine
 10
1487.7208220058
 20
813.5205791007
 30
0.0
 11
1481.1673434668
 21
820.0669795882
 31
0.0
  0
LINE
  5
51E
330
1F
100
AcDbEntity
  8
0
  6
CONTINUOUS
 62
     7
100
AcDbLine
 10
1499.9102698856
 20
814.1126804661
 30
0.0
 11
1498.7625228458
 21
781.2205203485
 31
0.0
  0
LINE
  5
51F
330
1F
100
AcDbEntity
  8
0
  6
CONTINUOUS
 62
     7
100
AcDbLine
 10
1482.0878701502
 20
821.1126797508
 30
0.0
 11
1482.214500218
 21
821.1126797508
 31
0.0
  0
LINE
  5
520
330
1F
100
AcDbEntity
  8
0
  6
CONTINUOUS
 62
     7
100
AcDbLine
 10
1482.214500218
 20
821.1126797508
 30
0.0
 11
1487.7910362774
 21
815.5301143091
 31
0.0
  0
LINE
  5
521
330
1F
100
AcDbEntity
  8
0
  6
CONTINUOUS
 62
     7
100
AcDbLine
 10
1487.7910362774
 20
815.5301143091
 30
0.0
 11
1487.8694312864
 21
815.3311260652
 31
0.0
  0
LINE
  5
522
330
1F
100
AcDbEntity
  8
0
  6
CONTINUOUS
 62
     7
100
AcDbLine
 10
1446.5332227045
 20
904.6126813303
 30
0.0
 11
1444.229696899
 21
906.9162071358
 31
0.0
  0
LINE
  5
523
330
1F
100
AcDbEntity
  8
0
  6
CONTINUOUS
 62
     7
100
AcDbLine
 10
1438.6686356955
 20
912.4832809578
 30
0.0
 11
1444.229696899
 21
906.9162071358
 31
0.0
  0
LINE
  5
524
330
1F
100
AcDbEntity
  8
0
  6
CONTINUOUS
 62
     7
100
AcDbLine
 10
1439.7103237205
 20
913.5260940205
 30
0.0
 11
1439.5012902313
 21
913.6126772176
 31
0.0
  0
LINE
  5
525
330
1F
100
AcDbEntity
  8
0
  6
CONTINUOUS
 62
     7
100
AcDbLine
 10
1439.7103237205
 20
913.5260940205
 30
0.0
 11
1446.3273482614
 21
906.9162071358
 31
0.0
  0
LINE
  5
526
330
1F
100
AcDbEntity
  8
0
  6
CONTINUOUS
 62
     7
100
AcDbLine
 10
1448.418636828
 20
904.8249185692
 30
0.0
 11
1446.3273482614
 21
906.9162071358
 31
0.0
  0
LINE
  5
527
330
1F
100
AcDbEntity
  8
0
  6
CONTINUOUS
 62
     7
100
AcDbLine
 10
1448.418636828
 20
904.8249185692
 30
0.0
 11
1448.418636828
 21
904.6953306209
 31
0.0
  0
LINE
  5
528
330
1F
100
AcDbEntity
  8
0
  6
CONTINUOUS
 62
     7
100
AcDbLine
 10
1481.1673434668
 20
837.0669791151
 30
0.0
 11
1481.0770051771
 21
837.2850739655
 31
0.0
  0
LINE
  5
529
330
1F
100
AcDbEntity
  8
0
  6
CONTINUOUS
 62
     7
100
AcDbLine
 10
1481.1673434668
 20
837.0669791151
 30
0.0
 11
1481.1673434668
 21
822.1583817761
 31
0.0
  0
LINE
  5
52A
330
1F
100
AcDbEntity
  8
0
  6
CONTINUOUS
 62
     7
100
AcDbLine
 10
1481.0770051771
 20
821.9402865182
 30
0.0
 11
1481.1673434668
 21
822.1583817761
 31
0.0
  0
LINE
  5
52B
330
1F
100
AcDbEntity
  8
0
  6
CONTINUOUS
 62
     7
100
AcDbLine
 10
1488.2706599527
 20
829.2540325459
 30
0.0
 11
1481.1673434668
 21
822.1583817761
 31
0.0
  0
LINE
  5
52C
330
1F
100
AcDbEntity
  8
0
  6
CONTINUOUS
 62
     7
100
AcDbLine
 10
1488.2706599527
 20
829.2540325459
 30
0.0
 11
1488.3543597751
 21
829.217640185
 31
0.0
  0
LINE
  5
52D
330
1F
100
AcDbEntity
  8
0
  6
CONTINUOUS
 62
     7
100
AcDbLine
 10
1488.1953792864
 20
827.1000221979
 30
0.0
 11
1488.2878260904
 21
827.312638485
 31
0.0
  0
LINE
  5
52E
330
1F
100
AcDbEntity
  8
0
  6
CONTINUOUS
 62
     7
100
AcDbLine
 10
1488.1953792864
 20
827.1000221979
 30
0.0
 11
1482.214500218
 21
821.1126797508
 31
0.0
  0
LINE
  5
52F
330
1F
100
AcDbEntity
  8
0
  6
CONTINUOUS
 62
     7
100
AcDbLine
 10
1487.7208220058
 20
813.5205791007
 30
0.0
 11
1487.6550631815
 21
811.6390988838
 31
0.0
  0
LINE
  5
530
330
1F
100
AcDbEntity
  8
0
  6
CONTINUOUS
 62
     7
100
AcDbLine
 10
1488.1953792864
 20
827.1000221979
 30
0.0
 11
1487.7910362774
 21
815.5301143091
 31
0.0
  0
LINE
  5
531
330
1F
100
AcDbEntity
  8
0
  6
CONTINUOUS
 62
     7
100
AcDbLine
 10
1488.2948892408
 20
829.9471330505
 30
0.0
 11
1488.3810179525
 21
829.9810611319
 31
0.0
  0
LINE
  5
532
330
1F
100
AcDbEntity
  8
0
  6
CONTINUOUS
 62
     7
100
AcDbLine
 10
1488.2948892408
 20
829.9471330505
 30
0.0
 11
1481.1673434668
 21
837.0669791151
 31
0.0
  0
LINE
  5
533
330
1F
100
AcDbEntity
  8
0
  6
CONTINUOUS
 62
     7
100
AcDbLine
 10
1457.3359834247
 20
913.6126772176
 30
0.0
 11
1457.1269424849
 21
913.5260940205
 31
0.0
  0
LINE
  5
534
330
1F
100
AcDbEntity
  8
0
  6
CONTINUOUS
 62
     7
100
AcDbLine
 10
1439.7103237205
 20
913.5260940205
 30
0.0
 11
1457.1269424849
 21
913.5260940205
 31
0.0
  0
LINE
  5
535
330
1F
100
AcDbEntity
  8
0
  6
CONTINUOUS
 62
     7
100
AcDbLine
 10
1482.0878701502
 20
838.1126806747
 30
0.0
 11
1482.214500218
 21
838.1126806747
 31
0.0
  0
LINE
  5
536
330
1F
100
AcDbEntity
  8
0
  6
CONTINUOUS
 62
     7
100
AcDbLine
 10
1482.214500218
 20
838.1126806747
 30
0.0
 11
1488.36507371
 21
831.955470578
 31
0.0
  0
LINE
  5
537
330
1F
100
AcDbEntity
  8
0
  6
CONTINUOUS
 62
     7
100
AcDbLine
 10
1488.36507371
 20
831.955470578
 30
0.0
 11
1488.4430514866
 21
831.7575044606
 31
0.0
  0
LINE
  5
538
330
1F
100
AcDbEntity
  8
0
  6
CONTINUOUS
 62
     7
100
AcDbLine
 10
1481.0770051771
 20
838.9402873839
 30
0.0
 11
1481.1673434668
 21
839.1583822343
 31
0.0
  0
LINE
  5
539
330
1F
100
AcDbEntity
  8
0
  6
CONTINUOUS
 62
     7
100
AcDbLine
 10
1488.2948892408
 20
846.2782282989
 30
0.0
 11
1481.1673434668
 21
839.1583822343
 31
0.0
  0
LINE
  5
53A
330
1F
100
AcDbEntity
  8
0
  6
CONTINUOUS
 62
     7
100
AcDbLine
 10
1488.2948892408
 20
846.2782282989
 30
0.0
 11
1488.3810179525
 21
846.2443002175
 31
0.0
  0
LINE
  5
53B
330
1F
100
AcDbEntity
  8
0
  6
CONTINUOUS
 62
     7
100
AcDbLine
 10
1481.1673434668
 20
854.0669795733
 30
0.0
 11
1481.0770051771
 21
854.2850748311
 31
0.0
  0
LINE
  5
53C
330
1F
100
AcDbEntity
  8
0
  6
CONTINUOUS
 62
     7
100
AcDbLine
 10
1481.1673434668
 20
854.0669795733
 30
0.0
 11
1481.1673434668
 21
839.1583822343
 31
0.0
  0
LINE
  5
53D
330
1F
100
AcDbEntity
  8
0
  6
CONTINUOUS
 62
     7
100
AcDbLine
 10
1448.418636828
 20
904.8249185692
 30
0.0
 11
1450.509917944
 21
906.9162071358
 31
0.0
  0
LINE
  5
53E
330
1F
100
AcDbEntity
  8
0
  6
CONTINUOUS
 62
     7
100
AcDbLine
 10
1450.509917944
 20
906.9162071358
 30
0.0
 11
1457.1269424849
 21
913.5260940205
 31
0.0
  0
LINE
  5
53F
330
1F
100
AcDbEntity
  8
0
  6
CONTINUOUS
 62
     7
100
AcDbLine
 10
1488.36507371
 20
844.2698907714
 30
0.0
 11
1488.4430514866
 21
844.4678568888
 31
0.0
  0
LINE
  5
540
330
1F
100
AcDbEntity
  8
0
  6
CONTINUOUS
 62
     7
100
AcDbLine
 10
1488.36507371
 20
844.2698907714
 30
0.0
 11
1482.214500218
 21
838.1126806747
 31
0.0
  0
LINE
  5
541
330
1F
100
AcDbEntity
  8
0
  6
CONTINUOUS
 62
     7
100
AcDbLine
 10
1458.1686305099
 20
912.6068562876
 30
0.0
 11
1458.1686305099
 21
912.4832809578
 31
0.0
  0
LINE
  5
542
330
1F
100
AcDbEntity
  8
0
  6
CONTINUOUS
 62
     7
100
AcDbLine
 10
1452.6075693064
 20
906.9162071358
 30
0.0
 11
1458.1686305099
 21
912.4832809578
 31
0.0
  0
LINE
  5
543
330
1F
100
AcDbEntity
  8
0
  6
CONTINUOUS
 62
     7
100
AcDbLine
 10
1450.304043501
 20
904.6126813303
 30
0.0
 11
1452.6075693064
 21
906.9162071358
 31
0.0
  0
LINE
  5
544
330
1F
100
AcDbEntity
  8
0
  6
CONTINUOUS
 62
     7
100
AcDbLine
 10
1450.304043501
 20
904.6126813303
 30
0.0
 11
1450.0828283125
 21
904.5210466396
 31
0.0
  0
LINE
  5
545
330
1F
100
AcDbEntity
  8
0
  6
CONTINUOUS
 62
     7
100
AcDbLine
 10
1466.0332249695
 20
904.6126813303
 30
0.0
 11
1450.304043501
 21
904.6126813303
 31
0.0
  0
LINE
  5
546
330
1F
100
AcDbEntity
  8
0
  6
CONTINUOUS
 62
     7
100
AcDbLine
 10
1466.0332249695
 20
904.6126813303
 30
0.0
 11
1466.254440158
 21
904.5210466396
 31
0.0
  0
LINE
  5
547
330
1F
100
AcDbEntity
  8
0
  6
CONTINUOUS
 62
     7
100
AcDbLine
 10
1488.2948892408
 20
829.9471330505
 30
0.0
 11
1488.2706599527
 21
829.2540325459
 31
0.0
  0
LINE
  5
548
330
1F
100
AcDbEntity
  8
0
  6
CONTINUOUS
 62
     7
100
AcDbLine
 10
1488.5802464777
 20
838.1126806747
 30
0.0
 11
1488.6649744802
 21
838.1126806747
 31
0.0
  0
LINE
  5
549
330
1F
100
AcDbEntity
  8
0
  6
CONTINUOUS
 62
     7
100
AcDbLine
 10
1488.5802464777
 20
838.1126806747
 30
0.0
 11
1488.36507371
 21
831.955470578
 31
0.0
  0
CIRCLE
  5
54A
330
1F
100
AcDbEntity
  8
0
  6
CONTINUOUS
 62
     7
100
AcDbCircle
 10
1465.6686340862
 20
893.1126806747
 30
0.0
 40
5.366668079663214
  0
CIRCLE
  5
54B
330
1F
100
AcDbEntity
  8
0
  6
CONTINUOUS
 62
     7
100
AcDbCircle
 10
1465.6686340862
 20
893.1126806747
 30
0.0
 40
5.0
  0
LINE
  5
54C
330
1F
100
AcDbEntity
  8
0
  6
CONTINUOUS
 62
     7
100
AcDbLine
 10
1488.2706599527
 20
846.9713288035
 30
0.0
 11
1488.3543597751
 21
847.0077211644
 31
0.0
  0
LINE
  5
54D
330
1F
100
AcDbEntity
  8
0
  6
CONTINUOUS
 62
     7
100
AcDbLine
 10
1488.2706599527
 20
846.9713288035
 30
0.0
 11
1481.1673434668
 21
854.0669795733
 31
0.0
  0
CIRCLE
  5
54E
330
1F
100
AcDbEntity
  8
0
  6
CONTINUOUS
 62
     7
100
AcDbCircle
 10
1465.6686340862
 20
893.1126806747
 30
0.0
 40
2.600000000000136
  0
LINE
  5
54F
330
1F
100
AcDbEntity
  8
0
  6
CONTINUOUS
 62
     7
100
AcDbLine
 10
1482.0878701502
 20
855.1126815986
 30
0.0
 11
1482.214500218
 21
855.1126815986
 31
0.0
  0
LINE
  5
550
330
1F
100
AcDbEntity
  8
0
  6
CONTINUOUS
 62
     7
100
AcDbLine
 10
1482.214500218
 20
855.1126815986
 30
0.0
 11
1488.1953792864
 21
849.1253391515
 31
0.0
  0
LINE
  5
551
330
1F
100
AcDbEntity
  8
0
  6
CONTINUOUS
 62
     7
100
AcDbLine
 10
1488.1953792864
 20
849.1253391515
 30
0.0
 11
1488.2878260904
 21
848.9127228644
 31
0.0
  0
LINE
  5
552
330
1F
100
AcDbEntity
  8
0
  6
CONTINUOUS
 62
     7
100
AcDbLine
 10
1488.36507371
 20
844.2698907714
 30
0.0
 11
1488.5802464777
 21
838.1126806747
 31
0.0
  0
CIRCLE
  5
553
330
1F
100
AcDbEntity
  8
0
  6
CONTINUOUS
 62
     7
100
AcDbCircle
 10
1465.6686340862
 20
893.1126806747
 30
0.0
 40
2.499641020406216
  0
LINE
  5
554
330
1F
100
AcDbEntity
  8
0
  6
CONTINUOUS
 62
     7
100
AcDbLine
 10
1500.7477300459
 20
838.1126806747
 30
0.0
 11
1500.014950543
 21
817.1126809578
 31
0.0
  0
LINE
  5
555
330
1F
100
AcDbEntity
  8
0
  6
CONTINUOUS
 62
     7
100
AcDbLine
 10
1500.7477300459
 20
838.1126806747
 30
0.0
 11
1500.6722854667
 21
838.1126806747
 31
0.0
  0
LINE
  5
556
330
1F
100
AcDbEntity
  8
0
  6
CONTINUOUS
 62
     7
100
AcDbLine
 10
1481.0770051771
 20
855.9402865033
 30
0.0
 11
1481.1673434668
 21
856.1583817612
 31
0.0
  0
LINE
  5
557
330
1F
100
AcDbEntity
  8
0
  6
CONTINUOUS
 62
     7
100
AcDbLine
 10
1487.7208220058
 20
862.7047822486
 30
0.0
 11
1481.1673434668
 21
856.1583817612
 31
0.0
  0
LINE
  5
558
330
1F
100
AcDbEntity
  8
0
  6
CONTINUOUS
 62
     7
100
AcDbLine
 10
1487.7208220058
 20
862.7047822486
 30
0.0
 11
1487.8073977524
 21
862.670677216
 31
0.0
  0
LINE
  5
559
330
1F
100
AcDbEntity
  8
0
  6
CONTINUOUS
 62
     7
100
AcDbLine
 10
1481.1673434668
 20
871.0669786345
 30
0.0
 11
1481.0770051771
 21
871.285075755
 31
0.0
  0
LINE
  5
55A
330
1F
100
AcDbEntity
  8
0
  6
CONTINUOUS
 62
     7
100
AcDbLine
 10
1481.1673434668
 20
871.0669786345
 30
0.0
 11
1481.1673434668
 21
856.1583817612
 31
0.0
  0
LINE
  5
55B
330
1F
100
AcDbEntity
  8
0
  6
CONTINUOUS
 62
     7
100
AcDbLine
 10
1487.7910362774
 20
860.6952470403
 30
0.0
 11
1487.8694312864
 21
860.8942352842
 31
0.0
  0
LINE
  5
55C
330
1F
100
AcDbEntity
  8
0
  6
CONTINUOUS
 62
     7
100
AcDbLine
 10
1487.7910362774
 20
860.6952470403
 30
0.0
 11
1482.214500218
 21
855.1126815986
 31
0.0
  0
LINE
  5
55D
330
1F
100
AcDbEntity
  8
0
  6
CONTINUOUS
 62
     7
100
AcDbLine
 10
1466.0332249695
 20
904.6126813303
 30
0.0
 11
1463.729699164
 21
906.9162071358
 31
0.0
  0
LINE
  5
55E
330
1F
100
AcDbEntity
  8
0
  6
CONTINUOUS
 62
     7
100
AcDbLine
 10
1458.1686305099
 20
912.4832809578
 30
0.0
 11
1463.729699164
 21
906.9162071358
 31
0.0
  0
LINE
  5
55F
330
1F
100
AcDbEntity
  8
0
  6
CONTINUOUS
 62
     7
100
AcDbLine
 10
1488.2706599527
 20
846.9713288035
 30
0.0
 11
1488.2948892408
 21
846.2782282989
 31
0.0
  0
LINE
  5
560
330
1F
100
AcDbEntity
  8
0
  6
CONTINUOUS
 62
     7
100
AcDbLine
 10
1459.2103259855
 20
913.5260940205
 30
0.0
 11
1459.0012850457
 21
913.6126772176
 31
0.0
  0
LINE
  5
561
330
1F
100
AcDbEntity
  8
0
  6
CONTINUOUS
 62
     7
100
AcDbLine
 10
1459.2103259855
 20
913.5260940205
 30
0.0
 11
1465.8273505264
 21
906.9162071358
 31
0.0
  0
LINE
  5
562
330
1F
100
AcDbEntity
  8
0
  6
CONTINUOUS
 62
     7
100
AcDbLine
 10
1468.1308763319
 20
904.6126813303
 30
0.0
 11
1465.8273505264
 21
906.9162071358
 31
0.0
  0
LINE
  5
563
330
1F
100
AcDbEntity
  8
0
  6
CONTINUOUS
 62
     7
100
AcDbLine
 10
1468.1308763319
 20
904.6126813303
 30
0.0
 11
1468.0929230743
 21
904.5210466396
 31
0.0
  0
LINE
  5
564
330
1F
100
AcDbEntity
  8
0
  6
CONTINUOUS
 62
     7
100
AcDbLine
 10
1487.7910362774
 20
860.6952470403
 30
0.0
 11
1488.1953792864
 21
849.1253391515
 31
0.0
  0
LINE
  5
565
330
1F
100
AcDbEntity
  8
0
  6
CONTINUOUS
 62
     7
100
AcDbLine
 10
1487.6550631815
 20
864.5862624656
 30
0.0
 11
1487.7392249399
 21
864.6228541296
 31
0.0
  0
LINE
  5
566
330
1F
100
AcDbEntity
  8
0
  6
CONTINUOUS
 62
     7
100
AcDbLine
 10
1487.6550631815
 20
864.5862624656
 30
0.0
 11
1481.1673434668
 21
871.0669786345
 31
0.0
  0
LINE
  5
567
330
1F
100
AcDbEntity
  8
0
  6
CONTINUOUS
 62
     7
100
AcDbLine
 10
1482.0878701502
 20
872.1126825224
 30
0.0
 11
1482.214500218
 21
872.1126825224
 31
0.0
  0
LINE
  5
568
330
1F
100
AcDbEntity
  8
0
  6
CONTINUOUS
 62
     7
100
AcDbLine
 10
1482.214500218
 20
872.1126825224
 30
0.0
 11
1487.5797378116
 21
866.7416502397
 31
0.0
  0
LINE
  5
569
330
1F
100
AcDbEntity
  8
0
  6
CONTINUOUS
 62
     7
100
AcDbLine
 10
1487.5797378116
 20
866.7416502397
 30
0.0
 11
1487.6726912552
 21
866.5278558295
 31
0.0
  0
LINE
  5
56A
330
1F
100
AcDbEntity
  8
0
  6
CONTINUOUS
 62
     7
100
AcDbLine
 10
1467.526500135
 20
913.5260940205
 30
0.0
 11
1467.526500135
 21
913.6126772176
 31
0.0
  0
LINE
  5
56B
330
1F
100
AcDbEntity
  8
0
  6
CONTINUOUS
 62
     7
100
AcDbLine
 10
1459.2103259855
 20
913.5260940205
 30
0.0
 11
1467.526500135
 21
913.5260940205
 31
0.0
  0
LINE
  5
56C
330
1F
100
AcDbEntity
  8
0
  6
CONTINUOUS
 62
     7
100
AcDbLine
 10
1479.4721575671
 20
893.3091559123
 30
0.0
 11
1479.6687858396
 21
893.1127437066
 31
0.0
  0
LINE
  5
56D
330
1F
100
AcDbEntity
  8
0
  6
CONTINUOUS
 62
     7
100
AcDbLine
 10
1469.6686314636
 20
903.1126782905
 30
0.0
 11
1479.4721575671
 21
893.3091559123
 31
0.0
  0
LINE
  5
56E
330
1F
100
AcDbEntity
  8
0
  6
CONTINUOUS
 62
     7
100
AcDbLine
 10
1470.2899577313
 20
904.6126813303
 30
0.0
 11
1479.4721575671
 21
895.430474044
 31
0.0
  0
LINE
  5
56F
330
1F
100
AcDbEntity
  8
0
  6
CONTINUOUS
 62
     7
100
AcDbLine
 10
1479.4721575671
 20
895.430474044
 30
0.0
 11
1481.1673434668
 21
893.7334664773
 31
0.0
  0
LINE
  5
570
330
1F
100
AcDbEntity
  8
0
  6
CONTINUOUS
 62
     7
100
AcDbLine
 10
1481.0770051771
 20
893.6960459362
 30
0.0
 11
1481.1673434668
 21
893.7334664773
 31
0.0
  0
LINE
  5
571
330
1F
100
AcDbEntity
  8
0
  6
CONTINUOUS
 62
     7
100
AcDbLine
 10
1470.2519970232
 20
904.5210466396
 30
0.0
 11
1470.2899577313
 21
904.6126813303
 31
0.0
  0
LINE
  5
572
330
1F
100
AcDbEntity
  8
0
  6
CONTINUOUS
 62
     7
100
AcDbLine
 10
1481.0770051771
 20
872.9402855646
 30
0.0
 11
1481.1673434668
 21
873.1583826851
 31
0.0
  0
LINE
  5
573
330
1F
100
AcDbEntity
  8
0
  6
CONTINUOUS
 62
     7
100
AcDbLine
 10
1487.1467547708
 20
879.1313343357
 30
0.0
 11
1481.1673434668
 21
873.1583826851
 31
0.0
  0
LINE
  5
574
330
1F
100
AcDbEntity
  8
0
  6
CONTINUOUS
 62
     7
100
AcDbLine
 10
1487.1467547708
 20
879.1313343357
 30
0.0
 11
1487.2337775522
 21
879.0970579397
 31
0.0
  0
LINE
  5
575
330
1F
100
AcDbEntity
  8
0
  6
CONTINUOUS
 62
     7
100
AcDbLine
 10
1481.1673434668
 20
888.0669795584
 30
0.0
 11
1481.0770051771
 21
888.2850729536
 31
0.0
  0
LINE
  5
576
330
1F
100
AcDbEntity
  8
0
  6
CONTINUOUS
 62
     7
100
AcDbLine
 10
1481.1673434668
 20
888.0669795584
 30
0.0
 11
1481.1673434668
 21
873.1583826851
 31
0.0
  0
LINE
  5
577
330
1F
100
AcDbEntity
  8
0
  6
CONTINUOUS
 62
     7
100
AcDbLine
 10
1487.2170137459
 20
877.1206014465
 30
0.0
 11
1487.2958110862
 21
877.3206122827
 31
0.0
  0
LINE
  5
578
330
1F
100
AcDbEntity
  8
0
  6
CONTINUOUS
 62
     7
100
AcDbLine
 10
1487.2170137459
 20
877.1206014465
 30
0.0
 11
1482.214500218
 21
872.1126825224
 31
0.0
  0
LINE
  5
579
330
1F
100
AcDbEntity
  8
0
  6
CONTINUOUS
 62
     7
100
AcDbLine
 10
1470.2930795246
 20
912.3792634021
 30
0.0
 11
1470.3549267941
 21
912.4411106717
 31
0.0
  0
LINE
  5
57A
330
1F
100
AcDbEntity
  8
0
  6
CONTINUOUS
 62
     7
100
AcDbLine
 10
1485.462282806
 20
897.2106338154
 30
0.0
 11
1485.5238395029
 21
897.2721942376
 31
0.0
  0
LINE
  5
57B
330
1F
100
AcDbEntity
  8
0
  6
CONTINUOUS
 62
     7
100
AcDbLine
 10
1479.4721575671
 20
903.1942844998
 30
0.0
 11
1485.462282806
 21
897.2106338154
 31
0.0
  0
LINE
  5
57C
330
1F
100
AcDbEntity
  8
0
  6
CONTINUOUS
 62
     7
100
AcDbLine
 10
1475.7502423816
 20
906.9162071358
 30
0.0
 11
1479.4721575671
 21
903.1942844998
 31
0.0
  0
LINE
  5
57D
330
1F
100
AcDbEntity
  8
0
  6
CONTINUOUS
 62
     7
100
AcDbLine
 10
1470.2930795246
 20
912.3792634021
 30
0.0
 11
1475.7502423816
 21
906.9162071358
 31
0.0
  0
LINE
  5
57E
330
1F
100
AcDbEntity
  8
0
  6
CONTINUOUS
 62
     7
100
AcDbLine
 10
1487.6550631815
 20
864.5862624656
 30
0.0
 11
1487.7208220058
 21
862.7047822486
 31
0.0
  0
LINE
  5
57F
330
1F
100
AcDbEntity
  8
0
  6
CONTINUOUS
 62
     7
100
AcDbLine
 10
1500.014950543
 20
859.1126803916
 30
0.0
 11
1500.7477300459
 21
838.1126806747
 31
0.0
  0
LINE
  5
580
330
1F
100
AcDbEntity
  8
0
  6
CONTINUOUS
 62
     7
100
AcDbLine
 10
1487.2170137459
 20
877.1206014465
 30
0.0
 11
1487.5797378116
 21
866.7416502397
 31
0.0
  0
LINE
  5
581
330
1F
100
AcDbEntity
  8
0
  6
CONTINUOUS
 62
     7
100
AcDbLine
 10
1470.2899577313
 20
904.6126813303
 30
0.0
 11
1468.1308763319
 21
904.6126813303
 31
0.0
  0
LINE
  5
582
330
1F
100
AcDbEntity
  8
0
  6
CONTINUOUS
 62
     7
100
AcDbLine
 10
1487.0394664102
 20
882.2011933338
 30
0.0
 11
1487.1240901046
 21
882.237988026
 31
0.0
  0
LINE
  5
583
330
1F
100
AcDbEntity
  8
0
  6
CONTINUOUS
 62
     7
100
AcDbLine
 10
1487.0394664102
 20
882.2011933338
 30
0.0
 11
1481.1673434668
 21
888.0669795584
 31
0.0
  0
ARC
  5
584
330
1F
100
AcDbEntity
  8
0
  6
CONTINUOUS
 62
     7
100
AcDbCircle
 10
1467.5264984625
 20
909.615666295
 30
0.0
 40
3.910428931200954
100
AcDbArc
 50
44.9690672951
 51
90.0
  0
LINE
  5
585
330
1F
100
AcDbEntity
  8
0
  6
CONTINUOUS
 62
     7
100
AcDbLine
 10
1482.0878701502
 20
889.112679721
 30
0.0
 11
1482.214500218
 21
889.112679721
 31
0.0
  0
LINE
  5
586
330
1F
100
AcDbEntity
  8
0
  6
CONTINUOUS
 62
     7
100
AcDbLine
 10
1482.214500218
 20
889.112679721
 30
0.0
 11
1486.9640963369
 21
884.3579613279
 31
0.0
  0
LINE
  5
587
330
1F
100
AcDbEntity
  8
0
  6
CONTINUOUS
 62
     7
100
AcDbLine
 10
1486.9640963369
 20
884.3579613279
 30
0.0
 11
1487.0575564199
 21
884.142989726
 31
0.0
  0
LINE
  5
588
330
1F
100
AcDbEntity
  8
0
  6
CONTINUOUS
 62
     7
100
AcDbLine
 10
1481.0770051771
 20
889.9402864884
 30
0.0
 11
1481.1673434668
 21
890.158383609
 31
0.0
  0
LINE
  5
589
330
1F
100
AcDbEntity
  8
0
  6
CONTINUOUS
 62
     7
100
AcDbLine
 10
1486.4748465114
 20
895.4601571571
 30
0.0
 11
1481.1673434668
 21
890.158383609
 31
0.0
  0
LWPOLYLINE
  5
58A
330
1F
100
AcDbEntity
  8
0
  6
CONTINUOUS
 62
     7
100
AcDbPolyline
 90
        3
 70
   128
 43
0.0
 10
1486.4748465114
 20
895.4601571571
 10
1486.5493672186
 20
895.4400294136
 10
1486.5708695942
 20
895.4341509055
  0
LINE
  5
58B
330
1F
100
AcDbEntity
  8
0
  6
CONTINUOUS
 62
     7
100
AcDbLine
 10
1481.1673434668
 20
893.7334664773
 30
0.0
 11
1481.1673434668
 21
890.158383609
 31
0.0
  0
LINE
  5
58C
330
1F
100
AcDbEntity
  8
0
  6
CONTINUOUS
 62
     7
100
AcDbLine
 10
1487.0394664102
 20
882.2011933338
 30
0.0
 11
1487.1467547708
 21
879.1313343357
 31
0.0
  0
LINE
  5
58D
330
1F
100
AcDbEntity
  8
0
  6
CONTINUOUS
 62
     7
100
AcDbLine
 10
1486.6429912143
 20
893.5459577154
 30
0.0
 11
1486.7221908861
 21
893.7469930064
 31
0.0
  0
LINE
  5
58E
330
1F
100
AcDbEntity
  8
0
  6
CONTINUOUS
 62
     7
100
AcDbLine
 10
1486.6429912143
 20
893.5459577154
 30
0.0
 11
1482.214500218
 21
889.112679721
 31
0.0
  0
LINE
  5
58F
330
1F
100
AcDbEntity
  8
0
  6
CONTINUOUS
 62
     7
100
AcDbLine
 10
1478.8974048787
 20
920.9835887562
 30
0.0
 11
1478.8402067714
 21
920.926390649
 31
0.0
  0
ARC
  5
590
330
1F
100
AcDbEntity
  8
0
  6
CONTINUOUS
 62
     7
100
AcDbCircle
 10
1467.5264984625
 20
909.6003962461
 30
0.0
 40
16.08958272751192
100
AcDbArc
 50
45.0309327049
 51
90.0
  0
LINE
  5
591
330
1F
100
AcDbEntity
  8
0
  6
CONTINUOUS
 62
     7
100
AcDbLine
 10
1486.6429912143
 20
893.5459577154
 30
0.0
 11
1486.9640963369
 21
884.3579613279
 31
0.0
  0
LINE
  5
592
330
1F
100
AcDbEntity
  8
0
  6
CONTINUOUS
 62
     7
100
AcDbLine
 10
1498.7625228458
 20
895.0048410009
 30
0.0
 11
1499.9102698856
 21
862.1126808833
 31
0.0
  0
LINE
  5
593
330
1F
100
AcDbEntity
  8
0
  6
CONTINUOUS
 62
     7
100
AcDbLine
 10
1498.7625228458
 20
895.0048410009
 30
0.0
 11
1498.6856626564
 21
895.0021587919
 31
0.0
  0
LINE
  5
594
330
1F
100
AcDbEntity
  8
0
  6
CONTINUOUS
 62
     7
100
AcDbLine
 10
1478.8974048787
 20
920.9835887562
 30
0.0
 11
1479.4813515835
 21
920.4002753507
 31
0.0
  0
SPLINE
  5
595
330
1F
100
AcDbEntity
  8
0
  6
CONTINUOUS
 62
     7
100
AcDbSpline
210
0.0
220
0.0
230
1.0
 70
     8
 71
     3
 72
     8
 73
     4
 74
     0
 42
0.00000001
 43
0.00000001
 12
1.0
 22
0.0
 32
0.0
 13
1.0
 23
0.0
 33
0.0
 40
0.0
 40
0.0
 40
0.0
 40
0.0
 40
1.0
 40
1.0
 40
1.0
 40
1.0
 10
1479.481351864209
 20
920.4002721603698
 30
0.0
 10
1483.973079915531
 20
915.9087510732493
 30
0.0
 10
1488.464704484752
 20
911.417126504028
 30
0.0
 10
1492.956225571873
 20
906.9253984527062
 30
0.0
  0
LINE
  5
596
330
1F
100
AcDbEntity
  8
0
  6
CONTINUOUS
 62
     7
100
AcDbLine
 10
1492.956225782
 20
906.9254011523
 30
0.0
 11
1494.0660344654
 21
905.8143854748
 31
0.0
  0
LINE
  5
597
330
1F
100
AcDbEntity
  8
0
  6
CONTINUOUS
 62
     7
100
AcDbLine
 10
1494.0660344654
 20
905.8143854748
 30
0.0
 11
1494.0091269308
 21
905.7574704896
 31
0.0
  0
ARC
  5
598
330
1F
100
AcDbEntity
  8
0
  6
CONTINUOUS
 62
     7
100
AcDbCircle
 10
1482.6983997486
 20
894.4437653159
 30
0.0
 40
3.910831051825106
100
AcDbArc
 50
15.0636322267
 51
45.0309327049
  0
ARC
  5
599
330
1F
100
AcDbEntity
  8
0
  6
CONTINUOUS
 62
     7
100
AcDbCircle
 10
1482.6831296997
 20
894.4437653159
 30
0.0
 40
16.08918052419344
100
AcDbArc
 50
1.9984733061
 51
44.9690672951
  0
LINE
  5
59A
330
1F
100
AcDbEntity
  8
0
  6
CONTINUOUS
 62
     7
100
AcDbLine
 10
1503.6582397514
 20
762.1126831185
 30
0.0
 11
1503.6071287685
 21
769.2933813344
 31
0.0
  0
LINE
  5
59B
330
1F
100
AcDbEntity
  8
0
  6
CONTINUOUS
 62
     7
100
AcDbLine
 10
1503.6071287685
 20
769.2933813344
 30
0.0
 11
1503.6071287685
 21
814.1126804661
 31
0.0
  0
LINE
  5
59C
330
1F
100
AcDbEntity
  8
0
  6
CONTINUOUS
 62
     7
100
AcDbLine
 10
1503.6071287685
 20
862.1126808833
 30
0.0
 11
1503.6071287685
 21
906.9319800149
 31
0.0
  0
LINE
  5
59D
330
1F
100
AcDbEntity
  8
0
  6
CONTINUOUS
 62
     7
100
AcDbLine
 10
1503.6071287685
 20
906.9319800149
 30
0.0
 11
1503.6582397514
 21
914.1126782309
 31
0.0
  0
LWPOLYLINE
  5
59E
330
1F
100
AcDbEntity
  8
0
  6
CONTINUOUS
 62
     7
100
AcDbPolyline
 90
        3
 70
   128
 43
0.0
 10
1479.4813515835
 20
755.8250859987
 10
1479.4827969962
 20
753.4865946185
 10
1479.4879304462
 20
745.1741830121
  0
LWPOLYLINE
  5
59F
330
1F
100
AcDbEntity
  8
0
  6
CONTINUOUS
 62
     7
100
AcDbPolyline
 90
        3
 70
   128
 43
0.0
 10
1492.956225782
 20
769.2999601971
 10
1495.2947246128
 20
769.2985147845
 10
1503.6071287685
 20
769.2933813344
  0
LWPOLYLINE
  5
5A0
330
1F
100
AcDbEntity
  8
0
  6
CONTINUOUS
 62
     7
100
AcDbPolyline
 90
        3
 70
   128
 43
0.0
 10
1479.4813515835
 20
920.4002753507
 10
1479.4827969962
 20
922.7387667309
 10
1479.4879304462
 20
931.0511783372
  0
LWPOLYLINE
  5
5A1
330
1F
100
AcDbEntity
  8
0
  6
CONTINUOUS
 62
     7
100
AcDbPolyline
 90
        3
 70
   128
 43
0.0
 10
1492.956225782
 20
906.9254011523
 10
1495.2947246128
 20
906.9268465649
 10
1503.6071287685
 20
906.9319800149
  0
LWPOLYLINE
  5
5A2
330
1F
100
AcDbEntity
  8
0
  6
CONTINUOUS
 62
     7
100
AcDbPolyline
 90
        3
 70
   128
 43
0.0
 10
1241.8559165889
 20
755.8250859987
 10
1241.8544711762
 20
753.4865946185
 10
1241.8493377262
 20
745.1741830121
  0
LWPOLYLINE
  5
5A3
330
1F
100
AcDbEntity
  8
0
  6
CONTINUOUS
 62
     7
100
AcDbPolyline
 90
        3
 70
   128
 43
0.0
 10
1228.3810423904
 20
769.2999601971
 10
1226.0425435596
 20
769.2985147845
 10
1217.7301394039
 20
769.2933813344
  0
LWPOLYLINE
  5
5A4
330
1F
100
AcDbEntity
  8
0
  6
CONTINUOUS
 62
     7
100
AcDbPolyline
 90
        3
 70
   128
 43
0.0
 10
1241.8559165889
 20
920.4002753507
 10
1241.8544711762
 20
922.7387667309
 10
1241.8493377262
 20
931.0511783372
  0
LWPOLYLINE
  5
5A5
330
1F
100
AcDbEntity
  8
0
  6
CONTINUOUS
 62
     7
100
AcDbPolyline
 90
        3
 70
   128
 43
0.0
 10
1228.3810423904
 20
906.9254011523
 10
1226.0425435596
 20
906.9268465649
 10
1217.7301394039
 20
906.9319800149
  0
LINE
  5
5A6
330
1F
100
AcDbEntity
  8
0
  6
CONTINUOUS
 62
     7
100
AcDbLine
 10
1241.8651106053
 20
780.7948873054
 30
0.0
 11
1241.8651106053
 21
773.0310768496
 31
0.0
  0
LINE
  5
5A7
330
1F
100
AcDbEntity
  8
0
  6
CONTINUOUS
 62
     7
100
AcDbLine
 10
1241.8651106053
 20
903.1942844998
 30
0.0
 11
1241.8651106053
 21
895.430474044
 31
0.0
  0
LINE
  5
5A8
330
1F
100
AcDbEntity
  8
0
  6
CONTINUOUS
 62
     7
100
AcDbLine
 10
1479.4721575671
 20
780.7948873054
 30
0.0
 11
1479.4721575671
 21
773.0310768496
 31
0.0
  0
LINE
  5
5A9
330
1F
100
AcDbEntity
  8
0
  6
CONTINUOUS
 62
     7
100
AcDbLine
 10
1479.4721575671
 20
903.1942844998
 30
0.0
 11
1479.4721575671
 21
895.430474044
 31
0.0
  0
LINE
  5
5AA
330
1F
100
AcDbEntity
  8
0
  6
CONTINUOUS
 62
     7
100
AcDbLine
 10
1255.509917646
 20
769.3091542136
 30
0.0
 11
1245.5870257908
 21
769.3091542136
 31
0.0
  0
LINE
  5
5AB
330
1F
100
AcDbEntity
  8
0
  6
CONTINUOUS
 62
     7
100
AcDbLine
 10
1275.009919911
 20
769.3091542136
 30
0.0
 11
1270.8273502284
 21
769.3091542136
 31
0.0
  0
LINE
  5
5AC
330
1F
100
AcDbEntity
  8
0
  6
CONTINUOUS
 62
     7
100
AcDbLine
 10
1294.509922176
 20
769.3091542136
 30
0.0
 11
1290.3273524934
 21
769.3091542136
 31
0.0
  0
LINE
  5
5AD
330
1F
100
AcDbEntity
  8
0
  6
CONTINUOUS
 62
     7
100
AcDbLine
 10
1314.0099207156
 20
769.3091542136
 30
0.0
 11
1309.8273473077
 21
769.3091542136
 31
0.0
  0
LINE
  5
5AE
330
1F
100
AcDbEntity
  8
0
  6
CONTINUOUS
 62
     7
100
AcDbLine
 10
1245.5870257908
 20
906.9162071358
 30
0.0
 11
1255.509917646
 21
906.9162071358
 31
0.0
  0
LINE
  5
5AF
330
1F
100
AcDbEntity
  8
0
  6
CONTINUOUS
 62
     7
100
AcDbLine
 10
1333.5099192553
 20
769.3091542136
 30
0.0
 11
1329.3273495727
 21
769.3091542136
 31
0.0
  0
LINE
  5
5B0
330
1F
100
AcDbEntity
  8
0
  6
CONTINUOUS
 62
     7
100
AcDbLine
 10
1270.8273502284
 20
906.9162071358
 30
0.0
 11
1275.009919911
 21
906.9162071358
 31
0.0
  0
LINE
  5
5B1
330
1F
100
AcDbEntity
  8
0
  6
CONTINUOUS
 62
     7
100
AcDbLine
 10
1353.009919192
 20
769.3091542136
 30
0.0
 11
1348.8273490437
 21
769.3091542136
 31
0.0
  0
LINE
  5
5B2
330
1F
100
AcDbEntity
  8
0
  6
CONTINUOUS
 62
     7
100
AcDbLine
 10
1290.3273524934
 20
906.9162071358
 30
0.0
 11
1294.509922176
 21
906.9162071358
 31
0.0
  0
LINE
  5
5B3
330
1F
100
AcDbEntity
  8
0
  6
CONTINUOUS
 62
     7
100
AcDbLine
 10
1372.5099191287
 20
769.3091542136
 30
0.0
 11
1368.3273489804
 21
769.3091542136
 31
0.0
  0
LINE
  5
5B4
330
1F
100
AcDbEntity
  8
0
  6
CONTINUOUS
 62
     7
100
AcDbLine
 10
1309.8273473077
 20
906.9162071358
 30
0.0
 11
1314.0099207156
 21
906.9162071358
 31
0.0
  0
LINE
  5
5B5
330
1F
100
AcDbEntity
  8
0
  6
CONTINUOUS
 62
     7
100
AcDbLine
 10
1392.0099185997
 20
769.3091542136
 30
0.0
 11
1387.8273489171
 21
769.3091542136
 31
0.0
  0
LINE
  5
5B6
330
1F
100
AcDbEntity
  8
0
  6
CONTINUOUS
 62
     7
100
AcDbLine
 10
1329.3273495727
 20
906.9162071358
 30
0.0
 11
1333.5099192553
 21
906.9162071358
 31
0.0
  0
LINE
  5
5B7
330
1F
100
AcDbEntity
  8
0
  6
CONTINUOUS
 62
     7
100
AcDbLine
 10
1411.5099208646
 20
769.3091542136
 30
0.0
 11
1407.3273474568
 21
769.3091542136
 31
0.0
  0
LINE
  5
5B8
330
1F
100
AcDbEntity
  8
0
  6
CONTINUOUS
 62
     7
100
AcDbLine
 10
1348.8273490437
 20
906.9162071358
 30
0.0
 11
1353.009919192
 21
906.9162071358
 31
0.0
  0
LINE
  5
5B9
330
1F
100
AcDbEntity
  8
0
  6
CONTINUOUS
 62
     7
100
AcDbLine
 10
1431.009915679
 20
769.3091542136
 30
0.0
 11
1426.8273459964
 21
769.3091542136
 31
0.0
  0
LINE
  5
5BA
330
1F
100
AcDbEntity
  8
0
  6
CONTINUOUS
 62
     7
100
AcDbLine
 10
1368.3273489804
 20
906.9162071358
 30
0.0
 11
1372.5099191287
 21
906.9162071358
 31
0.0
  0
LINE
  5
5BB
330
1F
100
AcDbEntity
  8
0
  6
CONTINUOUS
 62
     7
100
AcDbLine
 10
1450.509917944
 20
769.3091542136
 30
0.0
 11
1446.3273482614
 21
769.3091542136
 31
0.0
  0
LINE
  5
5BC
330
1F
100
AcDbEntity
  8
0
  6
CONTINUOUS
 62
     7
100
AcDbLine
 10
1387.8273489171
 20
906.9162071358
 30
0.0
 11
1392.0099185997
 21
906.9162071358
 31
0.0
  0
LINE
  5
5BD
330
1F
100
AcDbEntity
  8
0
  6
CONTINUOUS
 62
     7
100
AcDbLine
 10
1475.7502423816
 20
769.3091542136
 30
0.0
 11
1465.8273505264
 21
769.3091542136
 31
0.0
  0
LINE
  5
5BE
330
1F
100
AcDbEntity
  8
0
  6
CONTINUOUS
 62
     7
100
AcDbLine
 10
1407.3273474568
 20
906.9162071358
 30
0.0
 11
1411.5099208646
 21
906.9162071358
 31
0.0
  0
LINE
  5
5BF
330
1F
100
AcDbEntity
  8
0
  6
CONTINUOUS
 62
     7
100
AcDbLine
 10
1426.8273459964
 20
906.9162071358
 30
0.0
 11
1431.009915679
 21
906.9162071358
 31
0.0
  0
LINE
  5
5C0
330
1F
100
AcDbEntity
  8
0
  6
CONTINUOUS
 62
     7
100
AcDbLine
 10
1446.3273482614
 20
906.9162071358
 30
0.0
 11
1450.509917944
 21
906.9162071358
 31
0.0
  0
LINE
  5
5C1
330
1F
100
AcDbEntity
  8
0
  6
CONTINUOUS
 62
     7
100
AcDbLine
 10
1465.8273505264
 20
906.9162071358
 30
0.0
 11
1475.7502423816
 21
906.9162071358
 31
0.0
  0
LINE
  5
5C2
330
1F
100
AcDbEntity
  8
0
  6
CONTINUOUS
 62
     7
100
AcDbLine
 10
1268.729698866
 20
769.3091542136
 30
0.0
 11
1257.6075690084
 21
769.3091542136
 31
0.0
  0
LINE
  5
5C3
330
1F
100
AcDbEntity
  8
0
  6
CONTINUOUS
 62
     7
100
AcDbLine
 10
1288.2296936804
 20
769.3091542136
 30
0.0
 11
1277.1075712734
 21
769.3091542136
 31
0.0
  0
LINE
  5
5C4
330
1F
100
AcDbEntity
  8
0
  6
CONTINUOUS
 62
     7
100
AcDbLine
 10
1307.7296959453
 20
769.3091542136
 30
0.0
 11
1296.6075735384
 21
769.3091542136
 31
0.0
  0
LINE
  5
5C5
330
1F
100
AcDbEntity
  8
0
  6
CONTINUOUS
 62
     7
100
AcDbLine
 10
1327.2296982103
 20
769.3091542136
 30
0.0
 11
1316.1075720781
 21
769.3091542136
 31
0.0
  0
LINE
  5
5C6
330
1F
100
AcDbEntity
  8
0
  6
CONTINUOUS
 62
     7
100
AcDbLine
 10
1257.6075690084
 20
906.9162071358
 30
0.0
 11
1268.729698866
 21
906.9162071358
 31
0.0
  0
LINE
  5
5C7
330
1F
100
AcDbEntity
  8
0
  6
CONTINUOUS
 62
     7
100
AcDbLine
 10
1346.72969675
 20
769.3091542136
 30
0.0
 11
1335.6075706177
 21
769.3091542136
 31
0.0
  0
LINE
  5
5C8
330
1F
100
AcDbEntity
  8
0
  6
CONTINUOUS
 62
     7
100
AcDbLine
 10
1277.1075712734
 20
906.9162071358
 30
0.0
 11
1288.2296936804
 21
906.9162071358
 31
0.0
  0
LINE
  5
5C9
330
1F
100
AcDbEntity
  8
0
  6
CONTINUOUS
 62
     7
100
AcDbLine
 10
1366.2296966867
 20
769.3091542136
 30
0.0
 11
1355.1075714857
 21
769.3091542136
 31
0.0
  0
LINE
  5
5CA
330
1F
100
AcDbEntity
  8
0
  6
CONTINUOUS
 62
     7
100
AcDbLine
 10
1296.6075735384
 20
906.9162071358
 30
0.0
 11
1307.7296959453
 21
906.9162071358
 31
0.0
  0
LINE
  5
5CB
330
1F
100
AcDbEntity
  8
0
  6
CONTINUOUS
 62
     7
100
AcDbLine
 10
1385.7296975547
 20
769.3091542136
 30
0.0
 11
1374.6075714224
 21
769.3091542136
 31
0.0
  0
LINE
  5
5CC
330
1F
100
AcDbEntity
  8
0
  6
CONTINUOUS
 62
     7
100
AcDbLine
 10
1316.1075720781
 20
906.9162071358
 30
0.0
 11
1327.2296982103
 21
906.9162071358
 31
0.0
  0
LINE
  5
5CD
330
1F
100
AcDbEntity
  8
0
  6
CONTINUOUS
 62
     7
100
AcDbLine
 10
1405.2296960943
 20
769.3091542136
 30
0.0
 11
1394.1075699621
 21
769.3091542136
 31
0.0
  0
LINE
  5
5CE
330
1F
100
AcDbEntity
  8
0
  6
CONTINUOUS
 62
     7
100
AcDbLine
 10
1335.6075706177
 20
906.9162071358
 30
0.0
 11
1346.72969675
 21
906.9162071358
 31
0.0
  0
LINE
  5
5CF
330
1F
100
AcDbEntity
  8
0
  6
CONTINUOUS
 62
     7
100
AcDbLine
 10
1424.729694634
 20
769.3091542136
 30
0.0
 11
1413.6075722271
 21
769.3091542136
 31
0.0
  0
LINE
  5
5D0
330
1F
100
AcDbEntity
  8
0
  6
CONTINUOUS
 62
     7
100
AcDbLine
 10
1355.1075714857
 20
906.9162071358
 30
0.0
 11
1366.2296966867
 21
906.9162071358
 31
0.0
  0
LINE
  5
5D1
330
1F
100
AcDbEntity
  8
0
  6
CONTINUOUS
 62
     7
100
AcDbLine
 10
1444.229696899
 20
769.3091542136
 30
0.0
 11
1433.107574492
 21
769.3091542136
 31
0.0
  0
LINE
  5
5D2
330
1F
100
AcDbEntity
  8
0
  6
CONTINUOUS
 62
     7
100
AcDbLine
 10
1374.6075714224
 20
906.9162071358
 30
0.0
 11
1385.7296975547
 21
906.9162071358
 31
0.0
  0
LINE
  5
5D3
330
1F
100
AcDbEntity
  8
0
  6
CONTINUOUS
 62
     7
100
AcDbLine
 10
1463.729699164
 20
769.3091542136
 30
0.0
 11
1452.6075693064
 21
769.3091542136
 31
0.0
  0
LINE
  5
5D4
330
1F
100
AcDbEntity
  8
0
  6
CONTINUOUS
 62
     7
100
AcDbLine
 10
1394.1075699621
 20
906.9162071358
 30
0.0
 11
1405.2296960943
 21
906.9162071358
 31
0.0
  0
LINE
  5
5D5
330
1F
100
AcDbEntity
  8
0
  6
CONTINUOUS
 62
     7
100
AcDbLine
 10
1413.6075722271
 20
906.9162071358
 30
0.0
 11
1424.729694634
 21
906.9162071358
 31
0.0
  0
LINE
  5
5D6
330
1F
100
AcDbEntity
  8
0
  6
CONTINUOUS
 62
     7
100
AcDbLine
 10
1433.107574492
 20
906.9162071358
 30
0.0
 11
1444.229696899
 21
906.9162071358
 31
0.0
  0
LINE
  5
5D7
330
1F
100
AcDbEntity
  8
0
  6
CONTINUOUS
 62
     7
100
AcDbLine
 10
1452.6075693064
 20
906.9162071358
 30
0.0
 11
1463.729699164
 21
906.9162071358
 31
0.0
  0
LINE
  5
5D8
330
1F
100
AcDbEntity
  8
0
  6
CONTINUOUS
 62
     7
100
AcDbLine
 10
1241.8651106053
 20
893.3091559123
 30
0.0
 11
1241.8651106053
 21
782.9162054371
 31
0.0
  0
LINE
  5
5D9
330
1F
100
AcDbEntity
  8
0
  6
CONTINUOUS
 62
     7
100
AcDbLine
 10
1479.4721575671
 20
893.3091559123
 30
0.0
 11
1479.4721575671
 21
782.9162054371
 31
0.0
  0
ENDSEC
  0
SECTION
  2
OBJECTS
  0
DICTIONARY
  5
C
330
0
100
AcDbDictionary
  3
ACAD_GROUP
350
D
  3
ACAD_MLINESTYLE
350
17
  0
DICTIONARY
  5
D
102
{ACAD_REACTORS
330
C
102
}
330
C
100
AcDbDictionary
  0
DICTIONARY
  5
17
102
{ACAD_REACTORS
330
C
102
}
330
C
100
AcDbDictionary
  3
STANDARD
350
18
  0
MLINESTYLE
  5
18
102
{ACAD_REACTORS
330
17
102
}
330
17
100
AcDbMlineStyle
  2
Standard
 70
     0
  3

 62
   256
 51
90.0
 52
90.0
 71
     2
 49
0.5
 62
   256
  6
BYLAYER
 49
-0.5
 62
   256
  6
BYLAYER
  0
ENDSEC
  0
EOF
