  0
SECTION
  2
HEADER
  9
$ACADVER
  1
AC1009
  9
$INSBASE
 10
0.0
 20
0.0
 30
0.0
  9
$EXTMIN
 10
-499.74201081735231
 20
62.911797736575068
 30
-0.0000000349181948
  9
$EXTMAX
 10
-8.2109300518491182
 20
303.54953681377179
 30
0.0000000814935746
  9
$LIMMIN
 10
0.0
 20
0.0
  9
$LIMMAX
 10
420.0
 20
297.0
  9
$ORTHOMODE
 70
     1
  9
$REGENMODE
 70
     1
  9
$FILLMODE
 70
     1
  9
$QTEXTMODE
 70
     0
  9
$MIRRTEXT
 70
     1
  9
$DRAGMODE
 70
     2
  9
$LTSCALE
 40
10.0
  9
$OSMODE
 70
    55
  9
$ATTMODE
 70
     1
  9
$TEXTSIZE
 40
10.0
  9
$TRACEWID
 40
1.0
  9
$TEXTSTYLE
  7
STANDARD
  9
$CLAYER
  8
L11
  9
$CELTYPE
  6
BYLAYER
  9
$CECOLOR
 62
   256
  9
$DIMSCALE
 40
1.0
  9
$DIMASZ
 40
3.5
  9
$DIMEXO
 40
0.1
  9
$DIMDLI
 40
0.38
  9
$DIMRND
 40
0.0
  9
$DIMDLE
 40
0.0
  9
$DIMEXE
 40
0.18
  9
$DIMTP
 40
0.0
  9
$DIMTM
 40
0.0
  9
$DIMTXT
 40
3.5
  9
$DIMCEN
 40
1.0
  9
$DIMTSZ
 40
0.0
  9
$DIMTOL
 70
     0
  9
$DIMLIM
 70
     0
  9
$DIMTIH
 70
     0
  9
$DIMTOH
 70
     0
  9
$DIMSE1
 70
     0
  9
$DIMSE2
 70
     0
  9
$DIMTAD
 70
     1
  9
$DIMZIN
 70
     8
  9
$DIMBLK
  1

  9
$DIMASO
 70
     1
  9
$DIMSHO
 70
     1
  9
$DIMPOST
  1

  9
$DIMAPOST
  1

  9
$DIMALT
 70
     0
  9
$DIMALTD
 70
     2
  9
$DIMALTF
 40
25.399999999999999
  9
$DIMLFAC
 40
1.0
  9
$DIMTOFL
 70
     1
  9
$DIMTVP
 40
0.0
  9
$DIMTIX
 70
     0
  9
$DIMSOXD
 70
     0
  9
$DIMSAH
 70
     0
  9
$DIMBLK1
  1

  9
$DIMBLK2
  1

  9
$DIMSTYLE
  2
FIBOX
  9
$DIMCLRD
 70
     1
  9
$DIMCLRE
 70
     1
  9
$DIMCLRT
 70
     3
  9
$DIMTFAC
 40
1.0
  9
$DIMGAP
 40
1.0
  9
$LUNITS
 70
     2
  9
$LUPREC
 70
     4
  9
$SKETCHINC
 40
1.0
  9
$FILLETRAD
 40
0.0
  9
$AUNITS
 70
     0
  9
$AUPREC
 70
     0
  9
$MENU
  1
.
  9
$ELEVATION
 40
0.0
  9
$PELEVATION
 40
0.0
  9
$THICKNESS
 40
0.0
  9
$LIMCHECK
 70
     0
  9
$BLIPMODE
 70
     0
  9
$CHAMFERA
 40
10.0
  9
$CHAMFERB
 40
10.0
  9
$SKPOLY
 70
     0
  9
$TDCREATE
 40
2452432.68209633
  9
$TDUPDATE
 40
2453482.4521185989
  9
$TDINDWG
 40
0.0014450116
  9
$TDUSRTIMER
 40
0.0014450116
  9
$USRTIMER
 70
     1
  9
$ANGBASE
 50
0.0
  9
$ANGDIR
 70
     0
  9
$PDMODE
 70
     0
  9
$PDSIZE
 40
0.0
  9
$PLINEWID
 40
0.0
  9
$COORDS
 70
     2
  9
$SPLFRAME
 70
     0
  9
$SPLINETYPE
 70
     6
  9
$SPLINESEGS
 70
     8
  9
$ATTDIA
 70
     0
  9
$ATTREQ
 70
     1
  9
$HANDLING
 70
-16383
  9
$HANDSEED
  5
B32
  9
$SURFTAB1
 70
     6
  9
$SURFTAB2
 70
     6
  9
$SURFTYPE
 70
     6
  9
$SURFU
 70
     6
  9
$SURFV
 70
     6
  9
$UCSNAME
  2

  9
$UCSORG
 10
0.0
 20
0.0
 30
0.0
  9
$UCSXDIR
 10
1.0
 20
0.0
 30
0.0
  9
$UCSYDIR
 10
0.0
 20
1.0
 30
0.0
  9
$PUCSNAME
  2

  9
$PUCSORG
 10
0.0
 20
0.0
 30
0.0
  9
$PUCSXDIR
 10
1.0
 20
0.0
 30
0.0
  9
$PUCSYDIR
 10
0.0
 20
1.0
 30
0.0
  9
$USERI1
 70
     0
  9
$USERI2
 70
     0
  9
$USERI3
 70
     0
  9
$USERI4
 70
     0
  9
$USERI5
 70
     0
  9
$USERR1
 40
0.0
  9
$USERR2
 40
0.0
  9
$USERR3
 40
0.0
  9
$USERR4
 40
0.0
  9
$USERR5
 40
0.0
  9
$WORLDVIEW
 70
     1
  9
$SHADEDGE
 70
     3
  9
$SHADEDIF
 70
    70
  9
$TILEMODE
 70
     1
  9
$MAXACTVP
 70
    16
  9
$PLIMCHECK
 70
     0
  9
$PEXTMIN
 10
-835.0574358990483
 20
-5.0271839699360044
 30
-0.0000000000000002
  9
$PEXTMAX
 10
5.5349875107563093
 20
589.02719503463925
 30
0.000000000000015
  9
$PLIMMIN
 10
-850.27887526428253
 20
-23.325007749546
  9
$PLIMMAX
 10
48.781977966679392
 20
612.70863956213793
  9
$UNITMODE
 70
     0
  9
$VISRETAIN
 70
     0
  9
$PLINEGEN
 70
     0
  9
$PSLTSCALE
 70
     1
  0
ENDSEC
  0
SECTION
  2
TABLES
  0
TABLE
  2
VPORT
 70
     4
  0
VPORT
  2
*ACTIVE
 70
     0
 10
0.0
 20
0.0
 11
1.0
 21
1.0
 12
-253.97647043460071
 22
183.2306672751734
 13
0.0
 23
0.0
 14
10.0
 24
10.0
 15
10.0
 25
10.0
 16
0.0
 26
0.0
 36
1.0
 17
0.0
 27
0.0
 37
0.0
 40
317.27525371522808
 41
1.5552208835341359
 42
50.0
 43
0.0
 44
0.0
 50
0.0
 51
0.0
 71
     0
 72
  1000
 73
     1
 74
     1
 75
     0
 76
     0
 77
     0
 78
     0
  0
ENDTAB
  0
TABLE
  2
LTYPE
 70
     1
  0
LTYPE
  2
CONTINUOUS
 70
     0
  3
Solid line
 72
    65
 73
     0
 40
0.0
  0
ENDTAB
  0
TABLE
  2
LAYER
 70
     3
  0
LAYER
  2
0
 70
     0
 62
     7
  6
CONTINUOUS
  0
LAYER
  2
AM_VIS
 70
     0
 62
     2
  6
CONTINUOUS
  0
LAYER
  2
L11
 70
     0
 62
     3
  6
CONTINUOUS
  0
ENDTAB
  0
TABLE
  2
STYLE
 70
     1
  0
STYLE
  2
STANDARD
 70
     0
 40
0.0
 41
1.0
 50
0.0
 71
     0
 42
10.0
  3
isocp.shx
  4

  0
ENDTAB
  0
TABLE
  2
VIEW
 70
     0
  0
ENDTAB
  0
TABLE
  2
UCS
 70
     0
  0
ENDTAB
  0
TABLE
  2
APPID
 70
     1
  0
APPID
  2
ACAD
 70
     0
  0
ENDTAB
  0
TABLE
  2
DIMSTYLE
 70
     1
  0
DIMSTYLE
  2
FIBOX
 70
     0
  3

  4

  5

  6

  7

 40
1.0
 41
3.5
 42
0.1
 43
0.38
 44
0.18
 45
0.0
 46
0.0
 47
0.0
 48
0.0
140
3.5
141
1.0
142
0.0
143
25.399999999999999
144
1.0
145
0.0
146
1.0
147
1.0
 71
     0
 72
     0
 73
     0
 74
     0
 75
     0
 76
     0
 77
     1
 78
     8
170
     0
171
     2
172
     1
173
     0
174
     0
175
     0
176
     1
177
     1
178
     3
  0
ENDTAB
  0
ENDSEC
  0
SECTION
  2
BLOCKS
  0
BLOCK
  8
0
  2
$MODEL_SPACE
 70
     0
 10
0.0
 20
0.0
 30
0.0
  3
$MODEL_SPACE
  1

  0
ENDBLK
  5
3D1
  8
0
  0
BLOCK
 67
     1
  8
0
  2
$PAPER_SPACE
 70
     0
 10
0.0
 20
0.0
 30
0.0
  3
$PAPER_SPACE
  1

  0
ENDBLK
  5
3CF
 67
     1
  8
0
  0
ENDSEC
  0
SECTION
  2
ENTITIES
  0
LINE
  5
27
  8
AM_VIS
 10
-291.64068162018231
 20
96.040375953958346
 30
0.0
 11
-279.10281190449211
 21
96.040375953958403
 31
0.0
  0
POLYLINE
  5
29
  8
AM_VIS
 66
     1
 10
0.0
 20
0.0
 30
0.0
 70
   128
  0
VERTEX
  5
982
  8
AM_VIS
 10
-276.00662141892178
 20
98.075906267749033
 30
0.0
  0
VERTEX
  5
983
  8
AM_VIS
 10
-277.43124293718301
 20
98.075906267748977
 30
0.0
  0
VERTEX
  5
984
  8
AM_VIS
 10
-278.7101296861286
 20
98.075906267748962
 30
0.0
  0
VERTEX
  5
985
  8
AM_VIS
 10
-279.86641466658591
 20
98.07590626774892
 30
0.0
  0
VERTEX
  5
986
  8
AM_VIS
 10
-280.92323087938229
 20
98.075906267748906
 30
0.0
  0
VERTEX
  5
987
  8
AM_VIS
 10
-282.83098900530081
 20
98.075906267748891
 30
0.0
  0
VERTEX
  5
988
  8
AM_VIS
 10
-284.61714486551142
 20
98.075906267748891
 30
0.0
  0
VERTEX
  5
989
  8
AM_VIS
 10
-291.72789676936651
 20
98.075906267748962
 30
0.0
  0
SEQEND
  5
98A
  8
AM_VIS
  0
LINE
  5
2A
  8
AM_VIS
 10
-440.41146720301617
 20
103.5403759539583
 30
0.0
 11
-277.41101028848527
 21
103.5403759539583
 31
0.0
  0
LINE
  5
2B
  8
AM_VIS
 10
-437.81872690163118
 20
108.8403759539584
 30
0.0
 11
-280.00375058987032
 21
108.8403759539584
 31
0.0
  0
LINE
  5
2C
  8
AM_VIS
 10
-437.81872690163118
 20
287.89876046389992
 30
0.0
 11
-280.00375058987032
 21
287.89876046389992
 31
0.0
  0
LINE
  5
2D
  8
AM_VIS
 10
-440.41146720301617
 20
293.19876046389999
 30
0.0
 11
-277.41101028848527
 21
293.19876046389999
 31
0.0
  0
POLYLINE
  5
2E
  8
AM_VIS
 66
     1
 10
0.0
 20
0.0
 30
0.0
 70
   128
  0
VERTEX
  5
98B
  8
AM_VIS
 10
-276.00662141892178
 20
298.66323015010931
 30
0.0
  0
VERTEX
  5
98C
  8
AM_VIS
 10
-277.43124293718301
 20
298.66323015010943
 30
0.0
  0
VERTEX
  5
98D
  8
AM_VIS
 10
-278.7101296861286
 20
298.66323015010943
 30
0.0
  0
VERTEX
  5
98E
  8
AM_VIS
 10
-279.86641466658591
 20
298.66323015010943
 30
0.0
  0
VERTEX
  5
98F
  8
AM_VIS
 10
-280.92323087938229
 20
298.66323015010943
 30
0.0
  0
VERTEX
  5
990
  8
AM_VIS
 10
-282.83098900530081
 20
298.66323015010943
 30
0.0
  0
VERTEX
  5
991
  8
AM_VIS
 10
-284.61714486551142
 20
298.66323015010943
 30
0.0
  0
VERTEX
  5
992
  8
AM_VIS
 10
-291.72789676936651
 20
298.66323015010943
 30
0.0
  0
SEQEND
  5
993
  8
AM_VIS
  0
LINE
  5
2F
  8
AM_VIS
 10
-291.64068162018231
 20
300.69876046389999
 30
0.0
 11
-279.10281190449211
 21
300.69876046389987
 31
0.0
  0
LINE
  5
30
  8
AM_VIS
 10
-279.10281190449211
 20
248.60440032652519
 30
0.0
 11
-291.64068162018219
 21
248.60440032652519
 31
0.0
  0
LINE
  5
31
  8
AM_VIS
 10
-291.72789676936651
 20
250.6399306403157
 30
0.0
 11
-277.50639296165639
 21
250.6399306403157
 31
0.0
  0
LINE
  5
32
  8
AM_VIS
 10
-277.41101028848527
 20
250.73531331348681
 30
0.0
 11
-440.41146720301617
 21
250.73531331348681
 31
0.0
  0
LINE
  5
33
  8
AM_VIS
 10
-291.64068162018231
 20
146.8662263004484
 30
0.0
 11
-279.10281190449211
 21
146.8662263004484
 31
0.0
  0
LINE
  5
34
  8
AM_VIS
 10
-277.50639296165639
 20
144.8306959866579
 30
0.0
 11
-291.72789676936651
 21
144.8306959866579
 31
0.0
  0
LINE
  5
35
  8
AM_VIS
 10
-440.41146720301617
 20
144.73531331348681
 30
0.0
 11
-277.41101028848527
 21
144.73531331348681
 31
0.0
  0
POLYLINE
  5
36
  8
AM_VIS
 66
     1
 10
0.0
 20
0.0
 30
0.0
 70
   128
210
0.0
220
0.0
230
-1.0
  0
VERTEX
  5
994
  8
AM_VIS
 10
291.72789676936662
 20
98.075906267748962
 30
0.0
  0
VERTEX
  5
995
  8
AM_VIS
 10
308.50310666195941
 20
96.899353464843571
 30
0.0
  0
VERTEX
  5
996
  8
AM_VIS
 10
316.89425578104101
 20
96.382763987771995
 30
0.0
  0
VERTEX
  5
997
  8
AM_VIS
 10
325.28964414912969
 20
95.95197137449469
 30
0.0
  0
VERTEX
  5
998
  8
AM_VIS
 10
333.690173683936
 20
95.628639411087605
 30
0.0
  0
VERTEX
  5
999
  8
AM_VIS
 10
342.09487963450363
 20
95.409168854998526
 30
0.0
  0
VERTEX
  5
99A
  8
AM_VIS
 10
350.50236641518302
 20
95.284129654291362
 30
0.0
  0
VERTEX
  5
99B
  8
AM_VIS
 10
358.91123844025373
 20
95.244092227735194
 30
0.0
  0
VERTEX
  5
99C
  8
AM_VIS
 10
367.32009957147358
 20
95.283273596184927
 30
0.0
  0
VERTEX
  5
99D
  8
AM_VIS
 10
375.72755178574567
 20
95.408330690496314
 30
0.0
  0
VERTEX
  5
99E
  8
AM_VIS
 10
384.1321966583983
 20
95.628570808198177
 30
0.0
  0
VERTEX
  5
99F
  8
AM_VIS
 10
392.53263577348042
 20
95.95330112923871
 30
0.0
  0
VERTEX
  5
9A0
  8
AM_VIS
 10
400.92797142508869
 20
96.385078070697432
 30
0.0
  0
VERTEX
  5
9A1
  8
AM_VIS
 10
409.31915519198441
 20
96.901525292035473
 30
0.0
  0
VERTEX
  5
9A2
  8
AM_VIS
 10
426.09458072213488
 20
98.075906267748962
 30
0.0
  0
SEQEND
  5
9A3
  8
AM_VIS
  0
POLYLINE
  5
37
  8
AM_VIS
 66
     1
 10
0.0
 20
0.0
 30
0.0
 70
   128
  0
VERTEX
  5
9A4
  8
AM_VIS
 10
-426.1803257587984
 20
96.040375953959355
 30
0.0
  0
VERTEX
  5
9A5
  8
AM_VIS
 10
-409.38342273988428
 20
94.866035297216499
 30
0.0
  0
VERTEX
  5
9A6
  8
AM_VIS
 10
-400.98151077832279
 20
94.349526050829851
 30
0.0
  0
VERTEX
  5
9A7
  8
AM_VIS
 10
-392.57545953468173
 20
93.91758901786261
 30
0.0
  0
VERTEX
  5
9A8
  8
AM_VIS
 10
-384.16431385879292
 20
93.592668362864273
 30
0.0
  0
VERTEX
  5
9A9
  8
AM_VIS
 10
-375.74896354642891
 20
93.372315556860187
 30
0.0
  0
VERTEX
  5
9AA
  8
AM_VIS
 10
-367.33080593595838
 20
93.247234118304831
 30
0.0
  0
VERTEX
  5
9AB
  8
AM_VIS
 10
-358.91123838078261
 20
93.208127362827227
 30
0.0
  0
VERTEX
  5
9AC
  8
AM_VIS
 10
-350.491657769097
 20
93.248261147770094
 30
0.0
  0
VERTEX
  5
9AD
  8
AM_VIS
 10
-342.07345873438629
 20
93.373321182489917
 30
0.0
  0
VERTEX
  5
9AE
  8
AM_VIS
 10
-333.6580352279924
 20
93.592750693994944
 30
0.0
  0
VERTEX
  5
9AF
  8
AM_VIS
 10
-325.24678120110968
 20
93.915993722358195
 30
0.0
  0
VERTEX
  5
9B0
  8
AM_VIS
 10
-316.84066678566552
 20
94.346749820418495
 30
0.0
  0
VERTEX
  5
9B1
  8
AM_VIS
 10
-308.43879634260708
 20
94.863429701133555
 30
0.0
  0
VERTEX
  5
9B2
  8
AM_VIS
 10
-291.64215173271401
 20
96.040375953958403
 30
0.0
  0
SEQEND
  5
9B3
  8
AM_VIS
  0
LINE
  5
38
  8
AM_VIS
 10
-426.18179587131931
 20
96.040375953958403
 30
0.0
 11
-426.09458072213488
 21
98.075906267748906
 31
0.0
  0
LINE
  5
39
  8
AM_VIS
 10
-439.78032575878922
 20
96.040375953958403
 30
0.0
 11
-441.76388905546793
 21
98.023939250637056
 31
0.0
  0
LINE
  5
3A
  8
AM_VIS
 10
-438.71966558700939
 20
96.040375953958403
 30
0.0
 11
-426.18179587131931
 21
96.040375953958403
 31
0.0
  0
POLYLINE
  5
3B
  8
AM_VIS
 66
     1
 10
0.0
 20
0.0
 30
0.0
 70
   128
  0
VERTEX
  5
9B4
  8
AM_VIS
 10
-438.71966558700939
 20
96.040375953958403
 30
0.0
  0
VERTEX
  5
9B5
  8
AM_VIS
 10
-439.15361538737909
 20
96.040375953958403
 30
0.0
  0
VERTEX
  5
9B6
  8
AM_VIS
 10
-439.49541561553582
 20
96.040375953958403
 30
0.0
  0
VERTEX
  5
9B7
  8
AM_VIS
 10
-439.6840466078603
 20
96.040375953958403
 30
0.0
  0
VERTEX
  5
9B8
  8
AM_VIS
 10
-439.78032575878922
 20
96.040375953958403
 30
0.0
  0
SEQEND
  5
9B9
  8
AM_VIS
  0
LINE
  5
3C
  8
AM_VIS
 10
-426.18179587131931
 20
96.040375953958403
 30
0.0
 11
-426.18032575878709
 21
96.040375953958403
 31
0.0
  0
LINE
  5
3D
  8
AM_VIS
 10
-428.5299331872626
 20
110.3403759539584
 30
0.0
 11
-428.50375058987032
 21
108.8403759539584
 31
0.0
  0
LINE
  5
3E
  8
AM_VIS
 10
-434.31872690163118
 20
108.8403759539584
 30
0.0
 11
-434.29254430423879
 21
110.3403759539584
 31
0.0
  0
LINE
  5
3F
  8
AM_VIS
 10
-426.09458072213488
 20
98.075906267748906
 30
0.0
 11
-441.81585607257972
 21
98.075906267748906
 31
0.0
  0
LINE
  5
40
  8
AM_VIS
 10
-441.81585607257972
 20
98.075906267748906
 30
0.0
 11
-441.91123874575078
 21
103.5403759539583
 31
0.0
  0
POLYLINE
  5
41
  8
AM_VIS
 66
     1
 10
0.0
 20
0.0
 30
0.0
 70
   128
  0
VERTEX
  5
9BA
  8
AM_VIS
 10
-441.91123874575078
 20
103.5403759539583
 30
0.0
  0
VERTEX
  5
9BB
  8
AM_VIS
 10
-441.74953512583301
 20
103.5403759539583
 30
0.0
  0
VERTEX
  5
9BC
  8
AM_VIS
 10
-441.47128643065798
 20
103.5403759539583
 30
0.0
  0
VERTEX
  5
9BD
  8
AM_VIS
 10
-440.99955568966158
 20
103.5403759539583
 30
0.0
  0
VERTEX
  5
9BE
  8
AM_VIS
 10
-440.41146720301612
 20
103.5403759539583
 30
0.0
  0
SEQEND
  5
9BF
  8
AM_VIS
  0
LINE
  5
45
  8
AM_VIS
 10
-437.81872690163118
 20
108.8403759539584
 30
0.0
 11
-437.91123874575078
 21
103.5403759539583
 31
0.0
  0
LINE
  5
46
  8
AM_VIS
 10
-428.5299331872626
 20
110.3403759539584
 30
0.0
 11
-434.29254430423879
 21
110.3403759539584
 31
0.0
  0
LINE
  5
47
  8
AM_VIS
 10
-291.64068162018242
 20
96.04037595395846
 30
0.0
 11
-291.72789676936668
 21
98.075906267748962
 31
0.0
  0
LINE
  5
48
  8
AM_VIS
 10
-291.64215173271441
 20
96.040375953958403
 30
0.0
 11
-291.64068162018231
 21
96.04037595395846
 31
0.0
  0
LINE
  5
49
  8
AM_VIS
 10
-283.5299331872626
 20
110.3403759539584
 30
0.0
 11
-283.50375058987032
 21
108.8403759539584
 31
0.0
  0
LINE
  5
4A
  8
AM_VIS
 10
-289.31872690163118
 20
108.8403759539584
 30
0.0
 11
-289.29254430423879
 21
110.3403759539584
 31
0.0
  0
LINE
  5
4B
  8
AM_VIS
 10
-283.5299331872626
 20
110.3403759539584
 30
0.0
 11
-289.29254430423879
 21
110.3403759539584
 31
0.0
  0
LINE
  5
4C
  8
AM_VIS
 10
-496.85265780832731
 20
147.92688647222869
 30
0.0
 11
-496.85265780832731
 21
247.54374015474519
 31
0.0
  0
LINE
  5
4D
  8
AM_VIS
 10
-494.81712749453669
 20
250.6399306403157
 30
0.0
 11
-494.81712749453669
 21
144.8306959866579
 31
0.0
  0
LINE
  5
4E
  8
AM_VIS
 10
-489.35265780832731
 20
146.23508485622139
 30
0.0
 11
-489.35265780832731
 21
249.23554177075221
 31
0.0
  0
LINE
  5
4F
  8
AM_VIS
 10
-484.0526578083273
 20
148.8278251576063
 30
0.0
 11
-484.0526578083273
 21
246.64280146936721
 31
0.0
  0
LINE
  5
50
  8
AM_VIS
 10
-292.81690474304122
 20
150.7855688549395
 30
0.0
 11
-292.81690474304122
 21
244.68505777203401
 31
0.0
  0
LINE
  5
51
  8
AM_VIS
 10
-292.91123874575061
 20
151.0706608475237
 30
0.0
 11
-292.91123874575061
 21
244.3999657794499
 31
0.0
  0
LINE
  5
52
  8
AM_VIS
 10
-424.91123874575061
 20
244.3999657794499
 30
0.0
 11
-424.91123874575061
 21
151.0706608475237
 31
0.0
  0
LINE
  5
53
  8
AM_VIS
 10
-425.00557274846022
 20
150.7855688549395
 30
0.0
 11
-425.00557274846022
 21
244.68505777203401
 31
0.0
  0
LINE
  5
54
  8
AM_VIS
 10
-441.91123874575078
 20
249.23554177075221
 30
0.0
 11
-441.91123874575078
 21
146.23508485622139
 31
0.0
  0
LINE
  5
55
  8
AM_VIS
 10
-439.78032575878922
 20
247.5437401547448
 30
0.0
 11
-439.78032575878922
 21
147.9268864722282
 31
0.0
  0
LINE
  5
56
  8
AM_VIS
 10
-441.81585607257972
 20
146.33046752939251
 30
0.0
 11
-441.81585607257972
 21
249.14015909758109
 31
0.0
  0
LINE
  5
57
  8
AM_VIS
 10
-424.91123874575061
 20
151.0706608475237
 30
0.0
 11
-292.91123874575061
 21
151.0706608475237
 31
0.0
  0
POLYLINE
  5
58
  8
AM_VIS
 66
     1
 10
0.0
 20
0.0
 30
0.0
 70
   128
210
0.0
220
0.0
230
-1.0
  0
VERTEX
  5
9C0
  8
AM_VIS
 10
291.6421517327143
 20
150.7855688549395
 30
0.0
  0
VERTEX
  5
9C1
  8
AM_VIS
 10
325.2766872596186
 20
150.47713941977901
 30
0.0
  0
VERTEX
  5
9C2
  8
AM_VIS
 10
342.09396200523543
 20
150.3755258487769
 30
0.0
  0
VERTEX
  5
9C3
  8
AM_VIS
 10
358.91123874575641
 20
150.33698680849781
 30
0.0
  0
VERTEX
  5
9C4
  8
AM_VIS
 10
375.72851548627739
 20
150.37552584877699
 30
0.0
  0
VERTEX
  5
9C5
  8
AM_VIS
 10
392.5457902318941
 20
150.47713941977909
 30
0.0
  0
VERTEX
  5
9C6
  8
AM_VIS
 10
426.18032575879829
 20
150.7855688549397
 30
0.0
  0
SEQEND
  5
9C7
  8
AM_VIS
  0
POLYLINE
  5
59
  8
AM_VIS
 66
     1
 10
0.0
 20
0.0
 30
0.0
 70
   128
  0
VERTEX
  5
9C8
  8
AM_VIS
 10
-291.72789676936662
 20
144.8306959866579
 30
0.0
  0
VERTEX
  5
9C9
  8
AM_VIS
 10
-325.28964414912969
 20
144.867769408123
 30
0.0
  0
VERTEX
  5
9CA
  8
AM_VIS
 10
-358.91123844025373
 20
144.88012548459099
 30
0.0
  0
VERTEX
  5
9CB
  8
AM_VIS
 10
-392.53263577348042
 20
144.86774619716761
 30
0.0
  0
VERTEX
  5
9CC
  8
AM_VIS
 10
-426.09458072213488
 20
144.8306959866579
 30
0.0
  0
SEQEND
  5
9CD
  8
AM_VIS
  0
POLYLINE
  5
5A
  8
AM_VIS
 66
     1
 10
0.0
 20
0.0
 30
0.0
 70
   128
210
0.0
220
0.0
230
-1.0
  0
VERTEX
  5
9CE
  8
AM_VIS
 10
426.1803257587984
 20
146.86610487161391
 30
0.0
  0
VERTEX
  5
9CF
  8
AM_VIS
 10
392.57545953468173
 20
146.903566516951
 30
0.0
  0
VERTEX
  5
9D0
  8
AM_VIS
 10
358.91123838078261
 20
146.9160871742161
 30
0.0
  0
VERTEX
  5
9D1
  8
AM_VIS
 10
325.24678120110968
 20
146.9035946726392
 30
0.0
  0
VERTEX
  5
9D2
  8
AM_VIS
 10
291.64215173271401
 20
146.86610487161411
 30
0.0
  0
SEQEND
  5
9D3
  8
AM_VIS
  0
LINE
  5
5C
  8
AM_VIS
 10
-499.68588107184507
 20
150.33683037403279
 30
0.0
 11
-499.68588107184507
 21
146.91610437663661
 31
0.0
  0
LINE
  5
5D
  8
AM_VIS
 10
-494.81712749453669
 20
144.8306959866579
 30
0.0
 11
-489.35265780832731
 21
144.7353133134869
 31
0.0
  0
LINE
  5
61
  8
AM_VIS
 10
-499.6858810717514
 20
146.91610437668649
 30
0.0
 11
-497.64992385032031
 21
144.8801426309924
 31
0.0
  0
POLYLINE
  5
62
  8
AM_VIS
 66
     1
 10
0.0
 20
0.0
 30
0.0
 70
   128
  0
VERTEX
  5
9D4
  8
AM_VIS
 10
-499.68588107184598
 20
146.91610437653881
 30
0.0
  0
VERTEX
  5
9D5
  8
AM_VIS
 10
-499.64379736957221
 20
146.91536165323751
 30
0.0
  0
VERTEX
  5
9D6
  8
AM_VIS
 10
-499.51840388231881
 20
146.91314864575551
 30
0.0
  0
VERTEX
  5
9D7
  8
AM_VIS
 10
-499.29954540054359
 20
146.90928619597341
 30
0.0
  0
VERTEX
  5
9D8
  8
AM_VIS
 10
-498.97702672527151
 20
146.90359444014021
 30
0.0
  0
VERTEX
  5
9D9
  8
AM_VIS
 10
-498.54655111120968
 20
146.89599759540539
 30
0.0
  0
VERTEX
  5
9DA
  8
AM_VIS
 10
-498.02978867219599
 20
146.88687807596801
 30
0.0
  0
VERTEX
  5
9DB
  8
AM_VIS
 10
-496.85265780832731
 20
146.866104871614
 30
0.0
  0
SEQEND
  5
9DC
  8
AM_VIS
  0
LINE
  5
63
  8
AM_VIS
 10
-496.85265780832731
 20
146.86610487161391
 30
0.0
 11
-496.85265780832731
 21
146.8662263004484
 31
0.0
  0
POLYLINE
  5
64
  8
AM_VIS
 66
     1
 10
0.0
 20
0.0
 30
0.0
 70
   128
  0
VERTEX
  5
9DD
  8
AM_VIS
 10
-496.85265780832731
 20
147.92688647222829
 30
0.0
  0
VERTEX
  5
9DE
  8
AM_VIS
 10
-496.85265780832731
 20
147.5090759913916
 30
0.0
  0
VERTEX
  5
9DF
  8
AM_VIS
 10
-496.85265780832731
 20
147.150296799242
 30
0.0
  0
VERTEX
  5
9E0
  8
AM_VIS
 10
-496.85265780832742
 20
146.93090677968351
 30
0.0
  0
VERTEX
  5
9E1
  8
AM_VIS
 10
-496.85265780832731
 20
146.8662263004484
 30
0.0
  0
SEQEND
  5
9E2
  8
AM_VIS
  0
LINE
  5
65
  8
AM_VIS
 10
-496.85265780832708
 20
146.86622630044829
 30
0.0
 11
-494.86909451164883
 21
144.88266300376969
 31
0.0
  0
LINE
  5
66
  8
AM_VIS
 10
-496.85265780832731
 20
146.8662263004484
 30
0.0
 11
-494.8690945116486
 21
144.88266300376969
 31
0.0
  0
POLYLINE
  5
67
  8
AM_VIS
 66
     1
 10
0.0
 20
0.0
 30
0.0
 70
   128
  0
VERTEX
  5
9E3
  8
AM_VIS
 10
-494.81712749453669
 20
144.8306959866579
 30
0.0
  0
VERTEX
  5
9E4
  8
AM_VIS
 10
-495.99381795387768
 20
144.85123519502611
 30
0.0
  0
VERTEX
  5
9E5
  8
AM_VIS
 10
-496.51047535447151
 20
144.86025348349909
 30
0.0
  0
VERTEX
  5
9E6
  8
AM_VIS
 10
-496.94105484095257
 20
144.86776927639229
 30
0.0
  0
VERTEX
  5
9E7
  8
AM_VIS
 10
-497.263829589301
 20
144.87340333058191
 30
0.0
  0
VERTEX
  5
9E8
  8
AM_VIS
 10
-497.48287967793732
 20
144.8772268641014
 30
0.0
  0
VERTEX
  5
9E9
  8
AM_VIS
 10
-497.60824149364572
 20
144.8794150627341
 30
0.0
  0
VERTEX
  5
9EA
  8
AM_VIS
 10
-497.64992385058162
 20
144.880142630981
 30
0.0
  0
SEQEND
  5
9EB
  8
AM_VIS
  0
POLYLINE
  5
68
  8
AM_VIS
 66
     1
 10
0.0
 20
0.0
 30
0.0
 70
   128
  0
VERTEX
  5
9EC
  8
AM_VIS
 10
-489.35265780832731
 20
144.73531331348681
 30
0.0
  0
VERTEX
  5
9ED
  8
AM_VIS
 10
-489.35265780832731
 20
144.89701693340459
 30
0.0
  0
VERTEX
  5
9EE
  8
AM_VIS
 10
-489.35265780832731
 20
145.17526562857961
 30
0.0
  0
VERTEX
  5
9EF
  8
AM_VIS
 10
-489.35265780832731
 20
145.64699636957599
 30
0.0
  0
VERTEX
  5
9F0
  8
AM_VIS
 10
-489.35265780832731
 20
146.23508485622139
 30
0.0
  0
SEQEND
  5
9F1
  8
AM_VIS
  0
LINE
  5
69
  8
AM_VIS
 10
-484.0526578083273
 20
148.8278251576063
 30
0.0
 11
-489.35265780832731
 21
148.73531331348681
 31
0.0
  0
POLYLINE
  5
6A
  8
AM_VIS
 66
     1
 10
0.0
 20
0.0
 30
0.0
 70
   128
  0
VERTEX
  5
9F2
  8
AM_VIS
 10
-496.85265780832731
 20
150.7855688549395
 30
0.0
  0
VERTEX
  5
9F3
  8
AM_VIS
 10
-498.04718991303918
 20
150.5963735560851
 30
0.0
  0
VERTEX
  5
9F4
  8
AM_VIS
 10
-498.56140140665372
 20
150.51493045646049
 30
0.0
  0
VERTEX
  5
9F5
  8
AM_VIS
 10
-498.9762431920426
 20
150.44922597245841
 30
0.0
  0
VERTEX
  5
9F6
  8
AM_VIS
 10
-499.26971256860418
 20
150.4027449894993
 30
0.0
  0
VERTEX
  5
9F7
  8
AM_VIS
 10
-499.46380775525358
 20
150.3720033319922
 30
0.0
  0
VERTEX
  5
9F8
  8
AM_VIS
 10
-499.68588107184507
 20
150.33683037403279
 30
0.0
  0
SEQEND
  5
9F9
  8
AM_VIS
  0
LINE
  5
6B
  8
AM_VIS
 10
-482.5526578083273
 20
158.11661887197491
 30
0.0
 11
-484.0526578083273
 21
158.14280146936721
 31
0.0
  0
LINE
  5
6C
  8
AM_VIS
 10
-484.0526578083273
 20
152.32782515760641
 30
0.0
 11
-482.5526578083273
 21
152.3540077549988
 31
0.0
  0
LINE
  5
6D
  8
AM_VIS
 10
-482.5526578083273
 20
158.11661887197491
 30
0.0
 11
-482.5526578083273
 21
152.35400775499861
 31
0.0
  0
LINE
  5
6E
  8
AM_VIS
 10
-426.18032575878709
 20
146.86610487161391
 30
0.0
 11
-426.18032575878709
 21
150.7855688549395
 31
0.0
  0
LINE
  5
6F
  8
AM_VIS
 10
-426.09458072213488
 20
144.8306959866579
 30
0.0
 11
-440.31608452984511
 21
144.8306959866579
 31
0.0
  0
LINE
  5
70
  8
AM_VIS
 10
-438.71966558700939
 20
146.8662263004484
 30
0.0
 11
-426.18179587131931
 21
146.8662263004484
 31
0.0
  0
POLYLINE
  5
71
  8
AM_VIS
 66
     1
 10
0.0
 20
0.0
 30
0.0
 70
   128
  0
VERTEX
  5
9FA
  8
AM_VIS
 10
-441.91123874575078
 20
146.23508485622139
 30
0.0
  0
VERTEX
  5
9FB
  8
AM_VIS
 10
-441.74953512583301
 20
145.64699636957599
 30
0.0
  0
VERTEX
  5
9FC
  8
AM_VIS
 10
-441.63219468066819
 20
145.3893588047556
 30
0.0
  0
VERTEX
  5
9FD
  8
AM_VIS
 10
-441.47128643065798
 20
145.1752656285795
 30
0.0
  0
VERTEX
  5
9FE
  8
AM_VIS
 10
-441.25719325448199
 20
145.01435737856929
 30
0.0
  0
VERTEX
  5
9FF
  8
AM_VIS
 10
-440.99955568966158
 20
144.8970169334045
 30
0.0
  0
VERTEX
  5
A00
  8
AM_VIS
 10
-440.41146720301612
 20
144.73531331348681
 30
0.0
  0
SEQEND
  5
A01
  8
AM_VIS
  0
POLYLINE
  5
72
  8
AM_VIS
 66
     1
 10
0.0
 20
0.0
 30
0.0
 70
   128
  0
VERTEX
  5
A02
  8
AM_VIS
 10
-441.76388905546793
 20
145.94332317554961
 30
0.0
  0
VERTEX
  5
A03
  8
AM_VIS
 10
-441.5948933929302
 20
145.5820615494228
 30
0.0
  0
VERTEX
  5
A04
  8
AM_VIS
 10
-441.37323261167933
 20
145.27331944755829
 30
0.0
  0
VERTEX
  5
A05
  8
AM_VIS
 10
-441.06449050981468
 20
145.05165866630739
 30
0.0
  0
VERTEX
  5
A06
  8
AM_VIS
 10
-440.70322888368798
 20
144.88266300376969
 30
0.0
  0
SEQEND
  5
A07
  8
AM_VIS
  0
POLYLINE
  5
73
  8
AM_VIS
 66
     1
 10
0.0
 20
0.0
 30
0.0
 70
   128
210
0.0
220
0.0
230
-1.0
  0
VERTEX
  5
A08
  8
AM_VIS
 10
438.71966558700939
 20
146.8662263004484
 30
0.0
  0
VERTEX
  5
A09
  8
AM_VIS
 10
439.15361538737909
 20
146.96250545137721
 30
0.0
  0
VERTEX
  5
A0A
  8
AM_VIS
 10
439.49541561553582
 20
147.1511364437018
 30
0.0
  0
VERTEX
  5
A0B
  8
AM_VIS
 10
439.6840466078603
 20
147.49293667185839
 30
0.0
  0
VERTEX
  5
A0C
  8
AM_VIS
 10
439.78032575878922
 20
147.9268864722282
 30
0.0
  0
SEQEND
  5
A0D
  8
AM_VIS
  0
LINE
  5
74
  8
AM_VIS
 10
-440.31608452984511
 20
144.83069598665779
 30
0.0
 11
-440.70322888368798
 21
144.88266300376981
 31
0.0
  0
LINE
  5
75
  8
AM_VIS
 10
-441.76388905546793
 20
145.94332317554961
 30
0.0
 11
-441.81585607257961
 21
146.33046752939251
 31
0.0
  0
LINE
  5
76
  8
AM_VIS
 10
-426.18179587131931
 20
146.8662263004484
 30
0.0
 11
-426.09458072213488
 21
144.8306959866579
 31
0.0
  0
LINE
  5
77
  8
AM_VIS
 10
-426.18179587131931
 20
146.8662263004484
 30
0.0
 11
-426.18032575878709
 21
146.86610487161391
 31
0.0
  0
CIRCLE
  5
78
  8
AM_VIS
 10
-431.41123874575072
 20
155.23531331348681
 30
0.0
 40
4.092904415646041
  0
CIRCLE
  5
79
  8
AM_VIS
 10
-431.41123874575072
 20
155.23531331348681
 30
0.0
 40
4.25
  0
LINE
  5
7A
  8
AM_VIS
 10
-424.91123874575061
 20
151.0706608475237
 30
0.0
 11
-425.00557274846022
 21
150.7855688549395
 31
0.0
  0
LINE
  5
7B
  8
AM_VIS
 10
-426.18032575878709
 20
150.7855688549395
 30
0.0
 11
-425.00557274846022
 21
150.7855688549395
 31
0.0
  0
CIRCLE
  5
7C
  8
AM_VIS
 10
-431.41123874575072
 20
155.23531331348681
 30
0.0
 40
1.433670753272773
  0
LINE
  5
7D
  8
AM_VIS
 10
-291.64215173271441
 20
150.7855688549395
 30
0.0
 11
-291.64215173271441
 21
146.8661048716138
 31
0.0
  0
LINE
  5
7E
  8
AM_VIS
 10
-291.64215173271441
 20
146.8661048716138
 30
0.0
 11
-291.64068162018231
 21
146.8662263004484
 31
0.0
  0
LINE
  5
7F
  8
AM_VIS
 10
-291.64068162018242
 20
146.86622630044829
 30
0.0
 11
-291.72789676936668
 21
144.83069598665779
 31
0.0
  0
CIRCLE
  5
80
  8
AM_VIS
 10
-286.41123874575072
 20
155.23531331348681
 30
0.0
 40
1.433670753272773
  0
LINE
  5
81
  8
AM_VIS
 10
-292.81690474304122
 20
150.7855688549395
 30
0.0
 11
-292.91123874575061
 21
151.0706608475237
 31
0.0
  0
LINE
  5
82
  8
AM_VIS
 10
-292.81690474304122
 20
150.7855688549395
 30
0.0
 11
-291.64215173271441
 21
150.7855688549395
 31
0.0
  0
CIRCLE
  5
83
  8
AM_VIS
 10
-286.41123874575072
 20
155.23531331348681
 30
0.0
 40
4.092904415646041
  0
CIRCLE
  5
84
  8
AM_VIS
 10
-286.41123874575072
 20
155.23531331348681
 30
0.0
 40
4.25
  0
POLYLINE
  5
85
  8
AM_VIS
 66
     1
 10
0.0
 20
0.0
 30
0.0
 70
   128
210
0.0
220
0.0
230
-1.0
  0
VERTEX
  5
A0E
  8
AM_VIS
 10
426.1803257587984
 20
300.69876046389902
 30
0.0
  0
VERTEX
  5
A0F
  8
AM_VIS
 10
409.38342273988428
 20
301.87310112064182
 30
0.0
  0
VERTEX
  5
A10
  8
AM_VIS
 10
400.98151077832279
 20
302.38961036702852
 30
0.0
  0
VERTEX
  5
A11
  8
AM_VIS
 10
392.57545953468173
 20
302.82154739999572
 30
0.0
  0
VERTEX
  5
A12
  8
AM_VIS
 10
384.16431385879292
 20
303.1464680549941
 30
0.0
  0
VERTEX
  5
A13
  8
AM_VIS
 10
375.74896354642891
 20
303.36682086099808
 30
0.0
  0
VERTEX
  5
A14
  8
AM_VIS
 10
367.33080593595838
 20
303.49190229955349
 30
0.0
  0
VERTEX
  5
A15
  8
AM_VIS
 10
358.91123838078261
 20
303.53100905503112
 30
0.0
  0
VERTEX
  5
A16
  8
AM_VIS
 10
350.491657769097
 20
303.49087527008822
 30
0.0
  0
VERTEX
  5
A17
  8
AM_VIS
 10
342.07345873438629
 20
303.36581523536842
 30
0.0
  0
VERTEX
  5
A18
  8
AM_VIS
 10
333.6580352279924
 20
303.14638572386338
 30
0.0
  0
VERTEX
  5
A19
  8
AM_VIS
 10
325.24678120110968
 20
302.82314269550011
 30
0.0
  0
VERTEX
  5
A1A
  8
AM_VIS
 10
316.84066678566552
 20
302.3923865974399
 30
0.0
  0
VERTEX
  5
A1B
  8
AM_VIS
 10
308.43879634260708
 20
301.87570671672478
 30
0.0
  0
VERTEX
  5
A1C
  8
AM_VIS
 10
291.64215173271401
 20
300.69876046389987
 30
0.0
  0
SEQEND
  5
A1D
  8
AM_VIS
  0
POLYLINE
  5
86
  8
AM_VIS
 66
     1
 10
0.0
 20
0.0
 30
0.0
 70
   128
  0
VERTEX
  5
A1E
  8
AM_VIS
 10
-291.72789676936662
 20
298.66323015010943
 30
0.0
  0
VERTEX
  5
A1F
  8
AM_VIS
 10
-308.50310666195941
 20
299.83978295301478
 30
0.0
  0
VERTEX
  5
A20
  8
AM_VIS
 10
-316.89425578104101
 20
300.35637243008642
 30
0.0
  0
VERTEX
  5
A21
  8
AM_VIS
 10
-325.28964414912969
 20
300.78716504336359
 30
0.0
  0
VERTEX
  5
A22
  8
AM_VIS
 10
-333.690173683936
 20
301.11049700677069
 30
0.0
  0
VERTEX
  5
A23
  8
AM_VIS
 10
-342.09487963450363
 20
301.32996756285979
 30
0.0
  0
VERTEX
  5
A24
  8
AM_VIS
 10
-350.50236641518302
 20
301.45500676356693
 30
0.0
  0
VERTEX
  5
A25
  8
AM_VIS
 10
-358.91123844025373
 20
301.49504419012322
 30
0.0
  0
VERTEX
  5
A26
  8
AM_VIS
 10
-367.32009957147358
 20
301.45586282167341
 30
0.0
  0
VERTEX
  5
A27
  8
AM_VIS
 10
-375.72755178574567
 20
301.33080572736202
 30
0.0
  0
VERTEX
  5
A28
  8
AM_VIS
 10
-384.1321966583983
 20
301.11056560966011
 30
0.0
  0
VERTEX
  5
A29
  8
AM_VIS
 10
-392.53263577348042
 20
300.78583528861958
 30
0.0
  0
VERTEX
  5
A2A
  8
AM_VIS
 10
-400.92797142508869
 20
300.3540583471609
 30
0.0
  0
VERTEX
  5
A2B
  8
AM_VIS
 10
-409.31915519198441
 20
299.83761112582289
 30
0.0
  0
VERTEX
  5
A2C
  8
AM_VIS
 10
-426.09458072213488
 20
298.66323015010943
 30
0.0
  0
SEQEND
  5
A2D
  8
AM_VIS
  0
LINE
  5
87
  8
AM_VIS
 10
-292.91123874575061
 20
244.39996577944979
 30
0.0
 11
-424.91123874575061
 21
244.3999657794499
 31
0.0
  0
POLYLINE
  5
88
  8
AM_VIS
 66
     1
 10
0.0
 20
0.0
 30
0.0
 70
   128
210
0.0
220
0.0
230
-1.0
  0
VERTEX
  5
A2E
  8
AM_VIS
 10
426.18032575878721
 20
244.68505777203401
 30
0.0
  0
VERTEX
  5
A2F
  8
AM_VIS
 10
392.5457902318829
 20
244.99348720719451
 30
0.0
  0
VERTEX
  5
A30
  8
AM_VIS
 10
375.72851548626608
 20
245.09510077819661
 30
0.0
  0
VERTEX
  5
A31
  8
AM_VIS
 10
358.9112387457451
 20
245.1336398184757
 30
0.0
  0
VERTEX
  5
A32
  8
AM_VIS
 10
342.09396200522411
 20
245.09510077819661
 30
0.0
  0
VERTEX
  5
A33
  8
AM_VIS
 10
325.27668725960729
 20
244.99348720719439
 30
0.0
  0
VERTEX
  5
A34
  8
AM_VIS
 10
291.64215173270321
 20
244.6850577720339
 30
0.0
  0
SEQEND
  5
A35
  8
AM_VIS
  0
POLYLINE
  5
89
  8
AM_VIS
 66
     1
 10
0.0
 20
0.0
 30
0.0
 70
   128
  0
VERTEX
  5
A36
  8
AM_VIS
 10
-426.09458072213488
 20
250.6399306403157
 30
0.0
  0
VERTEX
  5
A37
  8
AM_VIS
 10
-392.53283334237182
 20
250.6028572188506
 30
0.0
  0
VERTEX
  5
A38
  8
AM_VIS
 10
-358.91123905124778
 20
250.59050114238261
 30
0.0
  0
VERTEX
  5
A39
  8
AM_VIS
 10
-325.28984171802108
 20
250.60288042980599
 30
0.0
  0
VERTEX
  5
A3A
  8
AM_VIS
 10
-291.72789676936651
 20
250.6399306403157
 30
0.0
  0
SEQEND
  5
A3B
  8
AM_VIS
  0
POLYLINE
  5
8A
  8
AM_VIS
 66
     1
 10
0.0
 20
0.0
 30
0.0
 70
   128
210
0.0
220
0.0
230
-1.0
  0
VERTEX
  5
A3C
  8
AM_VIS
 10
291.64215173270321
 20
248.6045217553596
 30
0.0
  0
VERTEX
  5
A3D
  8
AM_VIS
 10
325.24701795682319
 20
248.56706011002251
 30
0.0
  0
VERTEX
  5
A3E
  8
AM_VIS
 10
358.91123911072549
 20
248.55453945275761
 30
0.0
  0
VERTEX
  5
A3F
  8
AM_VIS
 10
392.57569629040171
 20
248.5670319543344
 30
0.0
  0
VERTEX
  5
A40
  8
AM_VIS
 10
426.18032575880051
 20
248.6045217553596
 30
0.0
  0
SEQEND
  5
A41
  8
AM_VIS
  0
LINE
  5
8B
  8
AM_VIS
 10
-489.35265780832731
 20
250.73531331348681
 30
0.0
 11
-494.81712749453669
 21
250.6399306403157
 31
0.0
  0
POLYLINE
  5
8C
  8
AM_VIS
 66
     1
 10
0.0
 20
0.0
 30
0.0
 70
   128
  0
VERTEX
  5
A42
  8
AM_VIS
 10
-489.35265780832731
 20
249.23554177075221
 30
0.0
  0
VERTEX
  5
A43
  8
AM_VIS
 10
-489.35265780832731
 20
249.8236302573975
 30
0.0
  0
VERTEX
  5
A44
  8
AM_VIS
 10
-489.35265780832731
 20
250.2953609983941
 30
0.0
  0
VERTEX
  5
A45
  8
AM_VIS
 10
-489.35265780832731
 20
250.57360969356901
 30
0.0
  0
VERTEX
  5
A46
  8
AM_VIS
 10
-489.35265780832731
 20
250.73531331348681
 30
0.0
  0
SEQEND
  5
A47
  8
AM_VIS
  0
LINE
  5
8D
  8
AM_VIS
 10
-482.5526578083273
 20
243.11661887197491
 30
0.0
 11
-482.5526578083273
 21
237.35400775499869
 31
0.0
  0
LINE
  5
8E
  8
AM_VIS
 10
-484.0526578083273
 20
237.3278251576063
 30
0.0
 11
-482.5526578083273
 21
237.35400775499869
 31
0.0
  0
LINE
  5
8F
  8
AM_VIS
 10
-484.0526578083273
 20
246.6428014693673
 30
0.0
 11
-489.35265780832731
 21
246.73531331348681
 31
0.0
  0
LINE
  5
93
  8
AM_VIS
 10
-497.64992385054131
 20
250.59048399576011
 30
0.0
 11
-499.68588107206227
 21
248.55452224997609
 31
0.0
  0
POLYLINE
  5
94
  8
AM_VIS
 66
     1
 10
0.0
 20
0.0
 30
0.0
 70
   128
  0
VERTEX
  5
A48
  8
AM_VIS
 10
-496.85265780832628
 20
248.60452175535951
 30
0.0
  0
VERTEX
  5
A49
  8
AM_VIS
 10
-498.04720785484437
 20
248.58344111560081
 30
0.0
  0
VERTEX
  5
A4A
  8
AM_VIS
 10
-498.56142185065619
 20
248.5743665756525
 30
0.0
  0
VERTEX
  5
A4B
  8
AM_VIS
 10
-498.9762620351172
 20
248.56704568772159
 30
0.0
  0
VERTEX
  5
A4C
  8
AM_VIS
 10
-499.26972828364438
 20
248.5618666885311
 30
0.0
  0
VERTEX
  5
A4D
  8
AM_VIS
 10
-499.46382028705978
 20
248.55844134901261
 30
0.0
  0
VERTEX
  5
A4E
  8
AM_VIS
 10
-499.6858810718461
 20
248.5545222504347
 30
0.0
  0
SEQEND
  5
A4F
  8
AM_VIS
  0
LINE
  5
95
  8
AM_VIS
 10
-496.85265780832731
 20
248.60440032652519
 30
0.0
 11
-496.85265780832731
 21
248.6045217553596
 31
0.0
  0
POLYLINE
  5
96
  8
AM_VIS
 66
     1
 10
0.0
 20
0.0
 30
0.0
 70
   128
  0
VERTEX
  5
A50
  8
AM_VIS
 10
-499.68588107184507
 20
245.13379625294081
 30
0.0
  0
VERTEX
  5
A51
  8
AM_VIS
 10
-499.46380775525358
 20
245.09862329498131
 30
0.0
  0
VERTEX
  5
A52
  8
AM_VIS
 10
-499.26971256860412
 20
245.06788163747419
 30
0.0
  0
VERTEX
  5
A53
  8
AM_VIS
 10
-498.97624319204238
 20
245.02140065451511
 30
0.0
  0
VERTEX
  5
A54
  8
AM_VIS
 10
-498.5614014066532
 20
244.95569617051299
 30
0.0
  0
VERTEX
  5
A55
  8
AM_VIS
 10
-498.04718991303861
 20
244.8742530708885
 30
0.0
  0
VERTEX
  5
A56
  8
AM_VIS
 10
-496.85265780832628
 20
244.68505777203379
 30
0.0
  0
SEQEND
  5
A57
  8
AM_VIS
  0
LINE
  5
97
  8
AM_VIS
 10
-499.68588107184507
 20
248.5545222503371
 30
0.0
 11
-499.68588107184507
 21
245.13379625294081
 31
0.0
  0
POLYLINE
  5
98
  8
AM_VIS
 66
     1
 10
0.0
 20
0.0
 30
0.0
 70
   128
  0
VERTEX
  5
A58
  8
AM_VIS
 10
-496.85265780832731
 20
248.60440032652519
 30
0.0
  0
VERTEX
  5
A59
  8
AM_VIS
 10
-496.85265780832731
 20
248.5081211755963
 30
0.0
  0
VERTEX
  5
A5A
  8
AM_VIS
 10
-496.85265780832731
 20
248.31949018327171
 30
0.0
  0
VERTEX
  5
A5B
  8
AM_VIS
 10
-496.85265780832731
 20
247.9776899551151
 30
0.0
  0
VERTEX
  5
A5C
  8
AM_VIS
 10
-496.85265780832731
 20
247.54374015474531
 30
0.0
  0
SEQEND
  5
A5D
  8
AM_VIS
  0
LINE
  5
99
  8
AM_VIS
 10
-494.86909451164848
 20
250.5879636232039
 30
0.0
 11
-496.85265780832731
 21
248.60440032652519
 31
0.0
  0
POLYLINE
  5
9A
  8
AM_VIS
 66
     1
 10
0.0
 20
0.0
 30
0.0
 70
   128
  0
VERTEX
  5
A5E
  8
AM_VIS
 10
-497.64992385058179
 20
250.5904839959926
 30
0.0
  0
VERTEX
  5
A5F
  8
AM_VIS
 10
-497.42789612680781
 20
250.59435950432689
 30
0.0
  0
VERTEX
  5
A60
  8
AM_VIS
 10
-497.23383322795991
 20
250.59774688482639
 30
0.0
  0
VERTEX
  5
A61
  8
AM_VIS
 10
-496.94041117319949
 20
250.60286858584359
 30
0.0
  0
VERTEX
  5
A62
  8
AM_VIS
 10
-496.52563358940739
 20
250.61010855549949
 30
0.0
  0
VERTEX
  5
A63
  8
AM_VIS
 10
-496.01149722539918
 20
250.61908283911521
 30
0.0
  0
VERTEX
  5
A64
  8
AM_VIS
 10
-494.81712749453681
 20
250.6399306403157
 30
0.0
  0
SEQEND
  5
A65
  8
AM_VIS
  0
LINE
  5
9B
  8
AM_VIS
 10
-482.5526578083273
 20
243.11661887197491
 30
0.0
 11
-484.0526578083273
 21
243.14280146936721
 31
0.0
  0
POLYLINE
  5
9C
  8
AM_VIS
 66
     1
 10
0.0
 20
0.0
 30
0.0
 70
   128
  0
VERTEX
  5
A66
  8
AM_VIS
 10
-440.41146720301617
 20
250.7353133134867
 30
0.0
  0
VERTEX
  5
A67
  8
AM_VIS
 10
-440.99955568966152
 20
250.57360969356901
 30
0.0
  0
VERTEX
  5
A68
  8
AM_VIS
 10
-441.25719325448188
 20
250.4562692484042
 30
0.0
  0
VERTEX
  5
A69
  8
AM_VIS
 10
-441.4712864306581
 20
250.2953609983941
 30
0.0
  0
VERTEX
  5
A6A
  8
AM_VIS
 10
-441.63219468066819
 20
250.081267822218
 30
0.0
  0
VERTEX
  5
A6B
  8
AM_VIS
 10
-441.74953512583301
 20
249.8236302573975
 30
0.0
  0
VERTEX
  5
A6C
  8
AM_VIS
 10
-441.91123874575078
 20
249.23554177075221
 30
0.0
  0
SEQEND
  5
A6D
  8
AM_VIS
  0
CIRCLE
  5
9D
  8
AM_VIS
 10
-431.41123874575072
 20
240.23531331348681
 30
0.0
 40
4.092904415646041
  0
CIRCLE
  5
9E
  8
AM_VIS
 10
-431.41123874575072
 20
240.23531331348681
 30
0.0
 40
4.25
  0
LINE
  5
9F
  8
AM_VIS
 10
-440.31608452984511
 20
250.6399306403157
 30
0.0
 11
-426.09458072213488
 21
250.63993064031581
 31
0.0
  0
LINE
  5
A0
  8
AM_VIS
 10
-426.18179587131931
 20
248.60440032652519
 30
0.0
 11
-438.71966558701058
 21
248.60440032652519
 31
0.0
  0
POLYLINE
  5
A1
  8
AM_VIS
 66
     1
 10
0.0
 20
0.0
 30
0.0
 70
   128
210
0.0
220
0.0
230
-1.0
  0
VERTEX
  5
A6E
  8
AM_VIS
 10
439.78032575878922
 20
247.54374015474539
 30
0.0
  0
VERTEX
  5
A6F
  8
AM_VIS
 10
439.71342531988103
 20
247.96155063558211
 30
0.0
  0
VERTEX
  5
A70
  8
AM_VIS
 10
439.49455508848177
 20
248.3203298277316
 30
0.0
  0
VERTEX
  5
A71
  8
AM_VIS
 10
439.13555010208518
 20
248.53971984729009
 30
0.0
  0
VERTEX
  5
A72
  8
AM_VIS
 10
438.71966558700927
 20
248.60440032652531
 30
0.0
  0
SEQEND
  5
A73
  8
AM_VIS
  0
POLYLINE
  5
A2
  8
AM_VIS
 66
     1
 10
0.0
 20
0.0
 30
0.0
 70
   128
  0
VERTEX
  5
A74
  8
AM_VIS
 10
-440.70322888368798
 20
250.5879636232039
 30
0.0
  0
VERTEX
  5
A75
  8
AM_VIS
 10
-441.05931841646361
 20
250.43219957279041
 30
0.0
  0
VERTEX
  5
A76
  8
AM_VIS
 10
-441.37553143701751
 20
250.19944841020089
 30
0.0
  0
VERTEX
  5
A77
  8
AM_VIS
 10
-441.6103096763706
 20
249.8833624230347
 30
0.0
  0
VERTEX
  5
A78
  8
AM_VIS
 10
-441.76388905546793
 20
249.5273034514239
 30
0.0
  0
SEQEND
  5
A79
  8
AM_VIS
  0
LINE
  5
A3
  8
AM_VIS
 10
-441.81585607257978
 20
249.14015909758109
 30
0.0
 11
-441.76388905546793
 21
249.52730345142399
 31
0.0
  0
LINE
  5
A4
  8
AM_VIS
 10
-440.70322945552238
 20
250.58796466733509
 30
0.0
 11
-440.31608452984511
 21
250.6399306403157
 31
0.0
  0
LINE
  5
A5
  8
AM_VIS
 10
-426.18179587131908
 20
248.60440032652519
 30
0.0
 11
-426.09458072213471
 21
250.63993064031581
 31
0.0
  0
LINE
  5
A6
  8
AM_VIS
 10
-426.18032575878709
 20
248.6045217553596
 30
0.0
 11
-426.18179587131931
 21
248.60440032652519
 31
0.0
  0
LINE
  5
A7
  8
AM_VIS
 10
-425.00557274846022
 20
244.68505777203401
 30
0.0
 11
-424.91123874575061
 21
244.3999657794499
 31
0.0
  0
LINE
  5
A8
  8
AM_VIS
 10
-425.00557274846022
 20
244.68505777203401
 30
0.0
 11
-426.18032575878709
 21
244.68505777203401
 31
0.0
  0
LINE
  5
A9
  8
AM_VIS
 10
-426.18032575878709
 20
244.68505777203401
 30
0.0
 11
-426.18032575878709
 21
248.6045217553596
 31
0.0
  0
CIRCLE
  5
AA
  8
AM_VIS
 10
-431.41123874575072
 20
240.23531331348681
 30
0.0
 40
1.433670753272773
  0
LINE
  5
AB
  8
AM_VIS
 10
-437.81872690163118
 20
287.89876046389992
 30
0.0
 11
-437.91123874575078
 21
293.19876046389999
 31
0.0
  0
LINE
  5
AC
  8
AM_VIS
 10
-428.5299331872626
 20
286.39876046389992
 30
0.0
 11
-434.29254430423879
 21
286.39876046389992
 31
0.0
  0
LINE
  5
AD
  8
AM_VIS
 10
-434.31872690163118
 20
287.89876046389992
 30
0.0
 11
-434.29254430423879
 21
286.39876046389992
 31
0.0
  0
LINE
  5
AE
  8
AM_VIS
 10
-428.5299331872626
 20
286.39876046389992
 30
0.0
 11
-428.50375058987032
 21
287.89876046389992
 31
0.0
  0
LINE
  5
AF
  8
AM_VIS
 10
-438.71966558700939
 20
300.69876046389987
 30
0.0
 11
-426.18179587131931
 21
300.69876046389987
 31
0.0
  0
LINE
  5
B0
  8
AM_VIS
 10
-426.09458072213488
 20
298.66323015010943
 30
0.0
 11
-441.81585607257972
 21
298.66323015010943
 31
0.0
  0
POLYLINE
  5
B3
  8
AM_VIS
 66
     1
 10
0.0
 20
0.0
 30
0.0
 70
   128
  0
VERTEX
  5
A7A
  8
AM_VIS
 10
-438.71966558700939
 20
300.69876046389987
 30
0.0
  0
VERTEX
  5
A7B
  8
AM_VIS
 10
-439.15361538737909
 20
300.69876046389987
 30
0.0
  0
VERTEX
  5
A7C
  8
AM_VIS
 10
-439.49541561553582
 20
300.69876046389987
 30
0.0
  0
VERTEX
  5
A7D
  8
AM_VIS
 10
-439.6840466078603
 20
300.69876046389987
 30
0.0
  0
VERTEX
  5
A7E
  8
AM_VIS
 10
-439.78032575878922
 20
300.69876046389987
 30
0.0
  0
SEQEND
  5
A7F
  8
AM_VIS
  0
LINE
  5
B5
  8
AM_VIS
 10
-439.78032575878922
 20
300.69876046389987
 30
0.0
 11
-441.76388905546793
 21
298.71519716722128
 31
0.0
  0
POLYLINE
  5
B6
  8
AM_VIS
 66
     1
 10
0.0
 20
0.0
 30
0.0
 70
   128
  0
VERTEX
  5
A80
  8
AM_VIS
 10
-441.91123874575078
 20
293.19876046389999
 30
0.0
  0
VERTEX
  5
A81
  8
AM_VIS
 10
-441.74953512583301
 20
293.19876046389999
 30
0.0
  0
VERTEX
  5
A82
  8
AM_VIS
 10
-441.47128643065798
 20
293.19876046389999
 30
0.0
  0
VERTEX
  5
A83
  8
AM_VIS
 10
-440.99955568966158
 20
293.19876046389999
 30
0.0
  0
VERTEX
  5
A84
  8
AM_VIS
 10
-440.41146720301612
 20
293.19876046389999
 30
0.0
  0
SEQEND
  5
A85
  8
AM_VIS
  0
LINE
  5
B7
  8
AM_VIS
 10
-441.81585607257972
 20
298.66323015010943
 30
0.0
 11
-441.91123874575078
 21
293.19876046389999
 31
0.0
  0
LINE
  5
B8
  8
AM_VIS
 10
-426.18179587131931
 20
300.69876046389987
 30
0.0
 11
-426.18032575878709
 21
300.69876046389987
 31
0.0
  0
LINE
  5
B9
  8
AM_VIS
 10
-426.18179587131931
 20
300.69876046389987
 30
0.0
 11
-426.09458072213488
 21
298.66323015010943
 31
0.0
  0
CIRCLE
  5
BA
  8
AM_VIS
 10
-286.41123874575072
 20
240.2353133134867
 30
0.0
 40
4.092904415646041
  0
CIRCLE
  5
BB
  8
AM_VIS
 10
-286.41123874575072
 20
240.2353133134867
 30
0.0
 40
4.25
  0
LINE
  5
BC
  8
AM_VIS
 10
-291.64068162018219
 20
248.60440032652511
 30
0.0
 11
-291.64215173271441
 21
248.6045217553596
 31
0.0
  0
LINE
  5
BD
  8
AM_VIS
 10
-291.64068162018219
 20
248.60440032652511
 30
0.0
 11
-291.72789676936651
 21
250.6399306403157
 31
0.0
  0
LINE
  5
BE
  8
AM_VIS
 10
-292.91123874575061
 20
244.39996577944979
 30
0.0
 11
-292.81690474304122
 21
244.68505777203401
 31
0.0
  0
LINE
  5
BF
  8
AM_VIS
 10
-291.64215173271441
 20
244.68505777203401
 30
0.0
 11
-292.81690474304122
 21
244.68505777203401
 31
0.0
  0
LINE
  5
C0
  8
AM_VIS
 10
-291.64215173271441
 20
248.6045217553596
 30
0.0
 11
-291.64215173271441
 21
244.68505777203401
 31
0.0
  0
CIRCLE
  5
C1
  8
AM_VIS
 10
-286.41123874575072
 20
240.2353133134867
 30
0.0
 40
1.433670753272773
  0
LINE
  5
C2
  8
AM_VIS
 10
-283.5299331872626
 20
286.39876046389992
 30
0.0
 11
-289.29254430423879
 21
286.39876046389992
 31
0.0
  0
LINE
  5
C3
  8
AM_VIS
 10
-289.31872690163118
 20
287.89876046389992
 30
0.0
 11
-289.29254430423879
 21
286.39876046389992
 31
0.0
  0
LINE
  5
C4
  8
AM_VIS
 10
-283.5299331872626
 20
286.39876046389992
 30
0.0
 11
-283.50375058987032
 21
287.89876046389992
 31
0.0
  0
LINE
  5
C5
  8
AM_VIS
 10
-291.64068162018242
 20
300.69876046389987
 30
0.0
 11
-291.72789676936668
 21
298.66323015010943
 31
0.0
  0
LINE
  5
C6
  8
AM_VIS
 10
-291.64215173271441
 20
300.69876046389987
 30
0.0
 11
-291.64068162018231
 21
300.69876046389987
 31
0.0
  0
TEXT
  5
C7
  8
L11
 10
-202.43342894238231
 20
62.420753909214909
 30
0.0
 40
10.0
  1
166 x 106 x 17 mm
  0
TEXT
  5
C8
  8
L11
 10
-202.43342894238231
 20
81.408460015554496
 30
0.0
 40
10.0
  1
FC PC 17/16
  0
TEXT
  5
C9
  8
L11
 10
-202.43342894238231
 20
100.4084600155545
 30
0.0
 40
10.0
  1
CARDMASTER 3
  0
LINE
  5
CA
  8
AM_VIS
 10
-276.05858843603357
 20
98.023939250637
 30
0.0
 11
-278.04215173271263
 21
96.040375953958119
 31
0.0
  0
LINE
  5
CB
  8
AM_VIS
 10
-276.05858843603357
 20
98.023939250637056
 30
0.0
 11
-278.04215173271268
 21
96.040375953958133
 31
0.0
  0
POLYLINE
  5
CC
  8
AM_VIS
 66
     1
 10
0.0
 20
0.0
 30
0.0
 70
   128
  0
VERTEX
  5
A86
  8
AM_VIS
 10
-278.0421517327124
 20
96.040375953958346
 30
0.0
  0
VERTEX
  5
A87
  8
AM_VIS
 10
-278.10905217162059
 20
96.040375953958375
 30
0.0
  0
VERTEX
  5
A88
  8
AM_VIS
 10
-278.32792240301961
 20
96.040375953958403
 30
0.0
  0
VERTEX
  5
A89
  8
AM_VIS
 10
-278.68692738941638
 20
96.040375953958275
 30
0.0
  0
VERTEX
  5
A8A
  8
AM_VIS
 10
-279.10281190449211
 20
96.040375953958346
 30
0.0
  0
SEQEND
  5
A8B
  8
AM_VIS
  0
LINE
  5
CD
  8
AM_VIS
 10
-275.91123874575072
 20
103.5403759539583
 30
0.0
 11
-276.00662141892178
 21
98.075906267749033
 31
0.0
  0
POLYLINE
  5
CE
  8
AM_VIS
 66
     1
 10
0.0
 20
0.0
 30
0.0
 70
   128
  0
VERTEX
  5
A8C
  8
AM_VIS
 10
-277.41101028848527
 20
103.5403759539583
 30
0.0
  0
VERTEX
  5
A8D
  8
AM_VIS
 10
-276.82292180183998
 20
103.5403759539583
 30
0.0
  0
VERTEX
  5
A8E
  8
AM_VIS
 10
-276.35119106084341
 20
103.5403759539583
 30
0.0
  0
VERTEX
  5
A8F
  8
AM_VIS
 10
-276.0729423656685
 20
103.5403759539583
 30
0.0
  0
VERTEX
  5
A90
  8
AM_VIS
 10
-275.91123874575078
 20
103.5403759539583
 30
0.0
  0
SEQEND
  5
A91
  8
AM_VIS
  0
LINE
  5
D2
  8
AM_VIS
 10
-280.00375058987032
 20
108.8403759539584
 30
0.0
 11
-279.91123874575078
 21
103.5403759539583
 31
0.0
  0
LINE
  5
D3
  8
AM_VIS
 10
-13.444829296953881
 20
149.9353133134868
 30
0.0
 11
-169.04482929695379
 21
149.9353133134868
 31
0.0
  0
LINE
  5
D4
  8
AM_VIS
 10
-169.04482929695391
 20
245.53531331348671
 30
0.0
 11
-13.444829296953881
 21
245.53531331348671
 31
0.0
  0
LINE
  5
D5
  8
AM_VIS
 10
-172.7450577542192
 20
250.73531331348681
 30
0.0
 11
-9.7446008396885002
 21
250.73531331348681
 31
0.0
  0
LINE
  5
D6
  8
AM_VIS
 10
-9.7446008396885002
 20
144.73531331348681
 30
0.0
 11
-172.7450577542192
 21
144.73531331348681
 31
0.0
  0
LINE
  5
D7
  8
AM_VIS
 10
-172.95693776540861
 20
249.44742178194161
 30
0.0
 11
-9.5327208284991514
 21
249.44742178194161
 31
0.0
  0
LINE
  5
D8
  8
AM_VIS
 10
-9.5327208284990945
 20
146.02320484503201
 30
0.0
 11
-172.95693776540861
 21
146.02320484503201
 31
0.0
  0
LINE
  5
D9
  8
AM_VIS
 10
-170.1523174528343
 20
246.6428014693673
 30
0.0
 11
-12.337341141073431
 21
246.6428014693673
 31
0.0
  0
LINE
  5
DA
  8
AM_VIS
 10
-12.337341141073431
 20
148.8278251576063
 30
0.0
 11
-170.1523174528343
 21
148.8278251576063
 31
0.0
  0
LINE
  5
DB
  8
AM_VIS
 10
-21.182977591534009
 20
150.02782515760629
 30
0.0
 11
-161.30668100237369
 21
150.02782515760629
 31
0.0
  0
LINE
  5
DC
  8
AM_VIS
 10
-24.022947611318749
 20
151.0254599628218
 30
0.0
 11
-158.46671098258889
 21
151.0254599628218
 31
0.0
  0
LINE
  5
DD
  8
AM_VIS
 10
-158.41958230728281
 20
151.07258863812791
 30
0.0
 11
-24.070076286624982
 21
151.07258863812791
 31
0.0
  0
LINE
  5
DE
  8
AM_VIS
 10
-161.30668100237361
 20
245.4428014693672
 30
0.0
 11
-21.182977591534009
 21
245.4428014693672
 31
0.0
  0
LINE
  5
DF
  8
AM_VIS
 10
-158.46671098258889
 20
243.2824419887929
 30
0.0
 11
-24.022947611318749
 21
243.2824419887929
 31
0.0
  0
LINE
  5
E0
  8
AM_VIS
 10
-24.070076286624921
 20
243.23531331348681
 30
0.0
 11
-158.41958230728281
 21
243.23531331348681
 31
0.0
  0
CIRCLE
  5
E1
  8
AM_VIS
 10
-163.7448292969539
 20
222.73531331348681
 30
0.0
 40
2.900506129909159
  0
CIRCLE
  5
E2
  8
AM_VIS
 10
-163.7448292969539
 20
222.73531331348681
 30
0.0
 40
3.0
  0
LINE
  5
E3
  8
AM_VIS
 10
-168.85282358274341
 20
234.385819443396
 30
0.0
 11
-168.85282358274341
 21
161.0848071835776
 31
0.0
  0
LINE
  5
E4
  8
AM_VIS
 10
-169.04482929695391
 20
149.93531331348669
 30
0.0
 11
-169.04482929695391
 21
245.53531331348691
 31
0.0
  0
LINE
  5
E5
  8
AM_VIS
 10
-174.2448292969539
 20
146.23508485622139
 30
0.0
 11
-174.2448292969539
 21
249.23554177075221
 31
0.0
  0
LINE
  5
E6
  8
AM_VIS
 10
-172.95693776540861
 20
146.0232048450319
 30
0.0
 11
-172.95693776540861
 21
249.44742178194161
 31
0.0
  0
LINE
  5
E7
  8
AM_VIS
 10
-170.1523174528343
 20
148.8278251576063
 30
0.0
 11
-170.1523174528343
 21
246.6428014693673
 31
0.0
  0
LINE
  5
E8
  8
AM_VIS
 10
-158.46671098258889
 20
157.51653383320109
 30
0.0
 11
-158.46671098258889
 21
237.95409279377239
 31
0.0
  0
LINE
  5
E9
  8
AM_VIS
 10
-159.5349759462888
 20
159.15189789266981
 30
0.0
 11
-159.5349759462888
 21
236.31872873430379
 31
0.0
  0
LINE
  5
EA
  8
AM_VIS
 10
-158.41958230728281
 20
243.23531331348681
 30
0.0
 11
-158.41958230728281
 21
151.07258863812791
 31
0.0
  0
LINE
  5
EB
  8
AM_VIS
 10
-159.63446981637961
 20
159.3972267528419
 30
0.0
 11
-159.63446981637961
 21
236.07339987413181
 31
0.0
  0
LINE
  5
EC
  8
AM_VIS
 10
-235.54268043998559
 20
148.8278251576063
 30
0.0
 11
-235.54268043998559
 21
246.64280146936721
 31
0.0
  0
LINE
  5
ED
  8
AM_VIS
 10
-230.24268043998569
 20
146.23508485622139
 30
0.0
 11
-230.24268043998569
 21
249.23554177075221
 31
0.0
  0
LINE
  5
EE
  8
AM_VIS
 10
-224.77821075377631
 20
250.6399306403157
 30
0.0
 11
-224.7262437366644
 21
144.88266300376969
 31
0.0
  0
LINE
  5
EF
  8
AM_VIS
 10
-222.74268043998569
 20
147.92688647222869
 30
0.0
 11
-222.74268043998569
 21
247.54374015474519
 31
0.0
  0
LINE
  5
F0
  8
AM_VIS
 10
-278.0421517327124
 20
147.92688647222869
 30
0.0
 11
-278.0421517327124
 21
247.54374015474519
 31
0.0
  0
LINE
  5
F1
  8
AM_VIS
 10
-276.00662141892178
 20
249.1401590975812
 30
0.0
 11
-276.00662141892178
 21
146.33046752939239
 31
0.0
  0
LINE
  5
F2
  8
AM_VIS
 10
-275.91123874575072
 20
146.23508485622139
 30
0.0
 11
-275.91123874575072
 21
249.23554177075221
 31
0.0
  0
LINE
  5
F3
  8
AM_VIS
 10
-224.77821075377631
 20
144.8306959866579
 30
0.0
 11
-230.24268043998569
 21
144.7353133134869
 31
0.0
  0
LINE
  5
F4
  8
AM_VIS
 10
-276.00662141892178
 20
146.33046752939251
 30
0.0
 11
-276.05858843603357
 21
145.94332317554961
 31
0.0
  0
POLYLINE
  5
F5
  8
AM_VIS
 66
     1
 10
0.0
 20
0.0
 30
0.0
 70
   128
  0
VERTEX
  5
A92
  8
AM_VIS
 10
-277.11924860781352
 20
144.88266300376969
 30
0.0
  0
VERTEX
  5
A93
  8
AM_VIS
 10
-276.76283128365429
 20
145.0338856308037
 30
0.0
  0
VERTEX
  5
A94
  8
AM_VIS
 10
-276.44761193217352
 20
145.2732245468942
 30
0.0
  0
VERTEX
  5
A95
  8
AM_VIS
 10
-276.21132728532763
 20
145.5865311045219
 30
0.0
  0
VERTEX
  5
A96
  8
AM_VIS
 10
-276.05858843603357
 20
145.94332317554949
 30
0.0
  0
SEQEND
  5
A97
  8
AM_VIS
  0
POLYLINE
  5
F6
  8
AM_VIS
 66
     1
 10
0.0
 20
0.0
 30
0.0
 70
   128
  0
VERTEX
  5
A98
  8
AM_VIS
 10
-277.41101028848527
 20
144.7353133134869
 30
0.0
  0
VERTEX
  5
A99
  8
AM_VIS
 10
-276.82292180183998
 20
144.89701693340459
 30
0.0
  0
VERTEX
  5
A9A
  8
AM_VIS
 10
-276.56528423701951
 20
145.0143573785694
 30
0.0
  0
VERTEX
  5
A9B
  8
AM_VIS
 10
-276.35119106084341
 20
145.1752656285795
 30
0.0
  0
VERTEX
  5
A9C
  8
AM_VIS
 10
-276.19028281083331
 20
145.3893588047556
 30
0.0
  0
VERTEX
  5
A9D
  8
AM_VIS
 10
-276.0729423656685
 20
145.64699636957599
 30
0.0
  0
VERTEX
  5
A9E
  8
AM_VIS
 10
-275.91123874575078
 20
146.23508485622139
 30
0.0
  0
SEQEND
  5
A9F
  8
AM_VIS
  0
LINE
  5
F7
  8
AM_VIS
 10
-277.1192486078134
 20
144.88266300376969
 30
0.0
 11
-277.5063929616565
 21
144.83069598665779
 31
0.0
  0
POLYLINE
  5
F8
  8
AM_VIS
 66
     1
 10
0.0
 20
0.0
 30
0.0
 70
   128
210
0.0
220
0.0
230
-1.0
  0
VERTEX
  5
AA0
  8
AM_VIS
 10
278.0421517327124
 20
147.92688647222829
 30
0.0
  0
VERTEX
  5
AA1
  8
AM_VIS
 10
278.10905217162059
 20
147.5090759913916
 30
0.0
  0
VERTEX
  5
AA2
  8
AM_VIS
 10
278.32792240301961
 20
147.150296799242
 30
0.0
  0
VERTEX
  5
AA3
  8
AM_VIS
 10
278.68692738941638
 20
146.9309067796836
 30
0.0
  0
VERTEX
  5
AA4
  8
AM_VIS
 10
279.10281190449211
 20
146.8662263004484
 30
0.0
  0
SEQEND
  5
AA5
  8
AM_VIS
  0
POLYLINE
  5
F9
  8
AM_VIS
 66
     1
 10
0.0
 20
0.0
 30
0.0
 70
   128
  0
VERTEX
  5
AA6
  8
AM_VIS
 10
-230.24268043998569
 20
144.73531331348681
 30
0.0
  0
VERTEX
  5
AA7
  8
AM_VIS
 10
-230.24268043998569
 20
144.89701693340459
 30
0.0
  0
VERTEX
  5
AA8
  8
AM_VIS
 10
-230.24268043998569
 20
145.17526562857961
 30
0.0
  0
VERTEX
  5
AA9
  8
AM_VIS
 10
-230.24268043998569
 20
145.64699636957599
 30
0.0
  0
VERTEX
  5
AAA
  8
AM_VIS
 10
-230.24268043998569
 20
146.23508485622139
 30
0.0
  0
SEQEND
  5
AAB
  8
AM_VIS
  0
LINE
  5
FA
  8
AM_VIS
 10
-237.0426804399857
 20
158.11661887197491
 30
0.0
 11
-237.0426804399857
 21
152.35400775499861
 31
0.0
  0
LINE
  5
FB
  8
AM_VIS
 10
-235.54268043998559
 20
152.32782515760641
 30
0.0
 11
-237.0426804399857
 21
152.3540077549988
 31
0.0
  0
LINE
  5
FC
  8
AM_VIS
 10
-237.0426804399857
 20
158.11661887197491
 30
0.0
 11
-235.54268043998559
 21
158.14280146936721
 31
0.0
  0
LINE
  5
FD
  8
AM_VIS
 10
-235.54268043998559
 20
148.8278251576063
 30
0.0
 11
-230.24268043998569
 21
148.73531331348681
 31
0.0
  0
LINE
  5
FE
  8
AM_VIS
 10
-219.9094571764679
 20
150.33683037403279
 30
0.0
 11
-219.9094571764679
 21
146.91610437663661
 31
0.0
  0
POLYLINE
  5
100
  8
AM_VIS
 66
     1
 10
0.0
 20
0.0
 30
0.0
 70
   128
  0
VERTEX
  5
AAC
  8
AM_VIS
 10
-224.77821075377631
 20
144.8306959866579
 30
0.0
  0
VERTEX
  5
AAD
  8
AM_VIS
 10
-223.60152029443529
 20
144.85123519502611
 30
0.0
  0
VERTEX
  5
AAE
  8
AM_VIS
 10
-223.08486289384149
 20
144.86025348349909
 30
0.0
  0
VERTEX
  5
AAF
  8
AM_VIS
 10
-222.65428340736031
 20
144.86776927639229
 30
0.0
  0
VERTEX
  5
AB0
  8
AM_VIS
 10
-222.331508659012
 20
144.87340333058191
 30
0.0
  0
VERTEX
  5
AB1
  8
AM_VIS
 10
-222.11245857037571
 20
144.8772268641014
 30
0.0
  0
VERTEX
  5
AB2
  8
AM_VIS
 10
-221.98709675466719
 20
144.8794150627341
 30
0.0
  0
VERTEX
  5
AB3
  8
AM_VIS
 10
-221.9454143977313
 20
144.880142630981
 30
0.0
  0
SEQEND
  5
AB4
  8
AM_VIS
  0
LINE
  5
101
  8
AM_VIS
 10
-222.74268043998569
 20
146.8662263004484
 30
0.0
 11
-224.7262437366644
 21
144.88266300376969
 31
0.0
  0
LINE
  5
102
  8
AM_VIS
 10
-222.7426804399858
 20
146.86622630044829
 30
0.0
 11
-224.7262437366642
 21
144.88266300376969
 31
0.0
  0
POLYLINE
  5
103
  8
AM_VIS
 66
     1
 10
0.0
 20
0.0
 30
0.0
 70
   128
  0
VERTEX
  5
AB5
  8
AM_VIS
 10
-222.74268043998569
 20
147.92688647222829
 30
0.0
  0
VERTEX
  5
AB6
  8
AM_VIS
 10
-222.74268043998569
 20
147.5090759913916
 30
0.0
  0
VERTEX
  5
AB7
  8
AM_VIS
 10
-222.74268043998569
 20
147.150296799242
 30
0.0
  0
VERTEX
  5
AB8
  8
AM_VIS
 10
-222.74268043998549
 20
146.93090677968351
 30
0.0
  0
VERTEX
  5
AB9
  8
AM_VIS
 10
-222.74268043998569
 20
146.8662263004484
 30
0.0
  0
SEQEND
  5
ABA
  8
AM_VIS
  0
LINE
  5
104
  8
AM_VIS
 10
-222.74268043998569
 20
146.86610487161391
 30
0.0
 11
-222.74268043998569
 21
146.8662263004484
 31
0.0
  0
POLYLINE
  5
105
  8
AM_VIS
 66
     1
 10
0.0
 20
0.0
 30
0.0
 70
   128
210
0.0
220
0.0
230
-1.0
  0
VERTEX
  5
ABB
  8
AM_VIS
 10
219.9094571764669
 20
146.91610437653881
 30
0.0
  0
VERTEX
  5
ABC
  8
AM_VIS
 10
219.9515408787409
 20
146.91536165323751
 30
0.0
  0
VERTEX
  5
ABD
  8
AM_VIS
 10
220.07693436599419
 20
146.91314864575551
 30
0.0
  0
VERTEX
  5
ABE
  8
AM_VIS
 10
220.29579284776941
 20
146.90928619597341
 30
0.0
  0
VERTEX
  5
ABF
  8
AM_VIS
 10
220.61831152304151
 20
146.90359444014021
 30
0.0
  0
VERTEX
  5
AC0
  8
AM_VIS
 10
221.04878713710329
 20
146.89599759540539
 30
0.0
  0
VERTEX
  5
AC1
  8
AM_VIS
 10
221.56554957611701
 20
146.88687807596801
 30
0.0
  0
VERTEX
  5
AC2
  8
AM_VIS
 10
222.74268043998569
 20
146.866104871614
 30
0.0
  0
SEQEND
  5
AC3
  8
AM_VIS
  0
LINE
  5
106
  8
AM_VIS
 10
-219.9094571765616
 20
146.91610437668649
 30
0.0
 11
-221.94541439799269
 21
144.8801426309924
 31
0.0
  0
POLYLINE
  5
10A
  8
AM_VIS
 66
     1
 10
0.0
 20
0.0
 30
0.0
 70
   128
210
0.0
220
0.0
230
-1.0
  0
VERTEX
  5
AC4
  8
AM_VIS
 10
172.7450577542192
 20
144.7353133134869
 30
0.0
  0
VERTEX
  5
AC5
  8
AM_VIS
 10
173.33314624086469
 20
144.89701693340459
 30
0.0
  0
VERTEX
  5
AC6
  8
AM_VIS
 10
173.59078380568511
 20
145.0143573785694
 30
0.0
  0
VERTEX
  5
AC7
  8
AM_VIS
 10
173.80487698186121
 20
145.1752656285795
 30
0.0
  0
VERTEX
  5
AC8
  8
AM_VIS
 10
173.96578523187139
 20
145.3893588047556
 30
0.0
  0
VERTEX
  5
AC9
  8
AM_VIS
 10
174.08312567703609
 20
145.64699636957599
 30
0.0
  0
VERTEX
  5
ACA
  8
AM_VIS
 10
174.2448292969539
 20
146.23508485622139
 30
0.0
  0
SEQEND
  5
ACB
  8
AM_VIS
  0
POLYLINE
  5
10C
  8
AM_VIS
 66
     1
 10
0.0
 20
0.0
 30
0.0
 70
   128
  0
VERTEX
  5
ACC
  8
AM_VIS
 10
-222.74268043998569
 20
150.7855688549395
 30
0.0
  0
VERTEX
  5
ACD
  8
AM_VIS
 10
-221.54814833527359
 20
150.5963735560851
 30
0.0
  0
VERTEX
  5
ACE
  8
AM_VIS
 10
-221.03393684165931
 20
150.51493045646049
 30
0.0
  0
VERTEX
  5
ACF
  8
AM_VIS
 10
-220.61909505627031
 20
150.44922597245841
 30
0.0
  0
VERTEX
  5
AD0
  8
AM_VIS
 10
-220.32562567970879
 20
150.4027449894993
 30
0.0
  0
VERTEX
  5
AD1
  8
AM_VIS
 10
-220.1315304930593
 20
150.3720033319922
 30
0.0
  0
VERTEX
  5
AD2
  8
AM_VIS
 10
-219.9094571764679
 20
150.33683037403279
 30
0.0
  0
SEQEND
  5
AD3
  8
AM_VIS
  0
CIRCLE
  5
10D
  8
AM_VIS
 10
-163.24482929695381
 20
172.73531331348681
 30
0.0
 40
2.900506129909159
  0
CIRCLE
  5
10E
  8
AM_VIS
 10
-163.24482929695381
 20
172.73531331348681
 30
0.0
 40
3.0
  0
CIRCLE
  5
10F
  8
AM_VIS
 10
-163.24482929695381
 20
172.73531331348681
 30
0.0
 40
1.6000000000000001
  0
ARC
  5
110
  8
AM_VIS
 10
-163.7448292969539
 20
155.23531331348681
 30
0.0
 40
5.75
 50
90.000000000000313
 51
154.910985312338
  0
ARC
  5
111
  8
AM_VIS
 10
-163.7448292969539
 20
155.23531331348681
 30
0.0
 40
5.8494938700908401
 50
45.357070667646312
 51
90.000000000000313
  0
ARC
  5
112
  8
AM_VIS
 10
-163.7448292969539
 20
155.23531331348681
 30
0.0
 40
5.6801797402871292
 50
23.519420175169021
 51
158.29095568312761
  0
ARC
  5
113
  8
AM_VIS
 10
-163.7448292969539
 20
155.23531331348681
 30
0.0
 40
5.75
 50
23.37416338012148
 51
42.933193588558431
  0
ARC
  5
114
  8
AM_VIS
 10
-163.7448292969539
 20
155.23531331348681
 30
0.0
 40
5.6801797402871292
 50
291.70904431687069
 51
336.48057982483101
  0
ARC
  5
115
  8
AM_VIS
 10
-163.7448292969539
 20
155.23531331348681
 30
0.0
 40
5.75
 50
295.08901468765998
 51
336.6258366198785
  0
LINE
  5
116
  8
AM_VIS
 10
-163.7448292969539
 20
160.98531331348681
 30
0.0
 11
-168.95231745283431
 21
160.98531331348681
 31
0.0
  0
LINE
  5
117
  8
AM_VIS
 10
-168.85282358274341
 20
161.08480718357771
 30
0.0
 11
-163.7448292969539
 21
161.08480718357771
 31
0.0
  0
LINE
  5
118
  8
AM_VIS
 10
-168.95231745283431
 20
160.98531331348681
 30
0.0
 11
-168.85282358274341
 21
161.08480718357771
 31
0.0
  0
LINE
  5
119
  8
AM_VIS
 10
-169.02213771254719
 20
157.33637441889911
 30
0.0
 11
-168.95231745283431
 21
157.67346160806721
 31
0.0
  0
LINE
  5
11A
  8
AM_VIS
 10
-168.95231745283431
 20
157.67346160806721
 30
0.0
 11
-168.95231745283431
 21
160.9853133134869
 31
0.0
  0
LINE
  5
11B
  8
AM_VIS
 10
-159.5349759462888
 20
159.15189789266989
 30
0.0
 11
-159.58210462159499
 21
159.26996622981261
 31
0.0
  0
LINE
  5
11C
  8
AM_VIS
 10
-159.58210462159491
 20
159.2699662298125
 30
0.0
 11
-159.63446981637961
 21
159.3972267528419
 31
0.0
  0
LINE
  5
11D
  8
AM_VIS
 10
-161.64376819154171
 20
149.9580048978934
 30
0.0
 11
-169.02213771254719
 21
149.9580048978934
 31
0.0
  0
LINE
  5
11E
  8
AM_VIS
 10
-169.04482929695391
 20
149.93531331348669
 30
0.0
 11
-169.02213771254719
 21
149.9580048978934
 31
0.0
  0
LINE
  5
120
  8
AM_VIS
 10
-161.30668100237369
 20
150.02782515760629
 30
0.0
 11
-161.64376819154171
 21
149.9580048978934
 31
0.0
  0
CIRCLE
  5
121
  8
AM_VIS
 10
-163.7448292969539
 20
155.23531331348681
 30
0.0
 40
1.526182597392326
  0
CIRCLE
  5
122
  8
AM_VIS
 10
-163.7448292969539
 20
155.23531331348681
 30
0.0
 40
1.433670753272773
  0
LINE
  5
123
  8
AM_VIS
 10
-169.02213771254719
 20
149.9580048978934
 30
0.0
 11
-169.02213771254719
 21
157.33637441889911
 31
0.0
  0
CIRCLE
  5
124
  8
AM_VIS
 10
-163.7448292969539
 20
155.23531331348681
 30
0.0
 40
2.8813055584881191
  0
CIRCLE
  5
125
  8
AM_VIS
 10
-163.7448292969539
 20
155.23531331348681
 30
0.0
 40
2.9301797402871288
  0
CIRCLE
  5
126
  8
AM_VIS
 10
-151.2448292969539
 20
157.73531331348681
 30
0.0
 40
1.1999999999999991
  0
CIRCLE
  5
127
  8
AM_VIS
 10
-151.2448292969539
 20
157.73531331348681
 30
0.0
 40
1.6000000000000001
  0
LINE
  5
128
  8
AM_VIS
 10
-158.53653124230181
 20
157.50204515820869
 30
0.0
 11
-158.46671098258901
 21
157.51653383320121
 31
0.0
  0
LINE
  5
129
  8
AM_VIS
 10
-158.46671098258889
 20
151.02545996282171
 30
0.0
 11
-158.46671098258889
 21
152.9540927937725
 31
0.0
  0
LINE
  5
12A
  8
AM_VIS
 10
-158.46671098258889
 20
151.02545996282171
 30
0.0
 11
-158.4195823072827
 21
151.07258863812791
 31
0.0
  0
LINE
  5
12B
  8
AM_VIS
 10
-158.46671098258901
 20
152.95409279377239
 30
0.0
 11
-158.53653124230181
 21
152.968581468765
 31
0.0
  0
LINE
  5
12C
  8
AM_VIS
 10
-158.53653124230181
 20
152.968581468765
 30
0.0
 11
-158.53653124230181
 21
157.50204515820869
 31
0.0
  0
CIRCLE
  5
12D
  8
AM_VIS
 10
-151.2448292969539
 20
157.73531331348681
 30
0.0
 40
3.0
  0
CIRCLE
  5
12E
  8
AM_VIS
 10
-151.2448292969539
 20
157.73531331348681
 30
0.0
 40
2.9345484915693079
  0
CIRCLE
  5
12F
  8
AM_VIS
 10
-163.24482929695381
 20
172.73531331348681
 30
0.0
 40
1.1999999999999991
  0
CIRCLE
  5
130
  8
AM_VIS
 10
-163.7448292969539
 20
197.73531331348681
 30
0.0
 40
2.900506129909159
  0
CIRCLE
  5
131
  8
AM_VIS
 10
-163.7448292969539
 20
197.73531331348681
 30
0.0
 40
3.0
  0
CIRCLE
  5
132
  8
AM_VIS
 10
-163.7448292969539
 20
197.73531331348681
 30
0.0
 40
1.6000000000000001
  0
CIRCLE
  5
133
  8
AM_VIS
 10
-163.7448292969539
 20
197.73531331348681
 30
0.0
 40
1.1999999999999991
  0
CIRCLE
  5
134
  8
AM_VIS
 10
-163.7448292969539
 20
222.73531331348681
 30
0.0
 40
1.6000000000000001
  0
CIRCLE
  5
135
  8
AM_VIS
 10
-163.7448292969539
 20
222.73531331348681
 30
0.0
 40
1.1999999999999991
  0
LINE
  5
136
  8
AM_VIS
 10
-230.24268043998569
 20
250.73531331348681
 30
0.0
 11
-224.77821075377631
 21
250.6399306403157
 31
0.0
  0
POLYLINE
  5
137
  8
AM_VIS
 66
     1
 10
0.0
 20
0.0
 30
0.0
 70
   128
  0
VERTEX
  5
AD4
  8
AM_VIS
 10
-230.24268043998569
 20
249.23554177075221
 30
0.0
  0
VERTEX
  5
AD5
  8
AM_VIS
 10
-230.24268043998569
 20
249.8236302573975
 30
0.0
  0
VERTEX
  5
AD6
  8
AM_VIS
 10
-230.24268043998569
 20
250.2953609983941
 30
0.0
  0
VERTEX
  5
AD7
  8
AM_VIS
 10
-230.24268043998569
 20
250.57360969356901
 30
0.0
  0
VERTEX
  5
AD8
  8
AM_VIS
 10
-230.24268043998569
 20
250.73531331348681
 30
0.0
  0
SEQEND
  5
AD9
  8
AM_VIS
  0
POLYLINE
  5
138
  8
AM_VIS
 66
     1
 10
0.0
 20
0.0
 30
0.0
 70
   128
  0
VERTEX
  5
ADA
  8
AM_VIS
 10
-275.91123874575078
 20
249.23554177075221
 30
0.0
  0
VERTEX
  5
ADB
  8
AM_VIS
 10
-276.0729423656685
 20
249.82363025739761
 30
0.0
  0
VERTEX
  5
ADC
  8
AM_VIS
 10
-276.19028281083331
 20
250.081267822218
 30
0.0
  0
VERTEX
  5
ADD
  8
AM_VIS
 10
-276.35119106084352
 20
250.2953609983941
 30
0.0
  0
VERTEX
  5
ADE
  8
AM_VIS
 10
-276.56528423701963
 20
250.4562692484042
 30
0.0
  0
VERTEX
  5
ADF
  8
AM_VIS
 10
-276.82292180183998
 20
250.57360969356901
 30
0.0
  0
VERTEX
  5
AE0
  8
AM_VIS
 10
-277.41101028848539
 20
250.73531331348681
 30
0.0
  0
SEQEND
  5
AE1
  8
AM_VIS
  0
POLYLINE
  5
139
  8
AM_VIS
 66
     1
 10
0.0
 20
0.0
 30
0.0
 70
   128
  0
VERTEX
  5
AE2
  8
AM_VIS
 10
-276.05858843603357
 20
249.52730345142399
 30
0.0
  0
VERTEX
  5
AE3
  8
AM_VIS
 10
-276.22758409857119
 20
249.88856507755079
 30
0.0
  0
VERTEX
  5
AE4
  8
AM_VIS
 10
-276.44924487982212
 20
250.1973071794153
 30
0.0
  0
VERTEX
  5
AE5
  8
AM_VIS
 10
-276.75798698168671
 20
250.41896796066621
 30
0.0
  0
VERTEX
  5
AE6
  8
AM_VIS
 10
-277.11924860781352
 20
250.5879636232039
 30
0.0
  0
SEQEND
  5
AE7
  8
AM_VIS
  0
LINE
  5
13A
  8
AM_VIS
 10
-277.50639296165639
 20
250.63993064031581
 30
0.0
 11
-277.11924860781352
 21
250.58796362320379
 31
0.0
  0
LINE
  5
13B
  8
AM_VIS
 10
-276.05858843603357
 20
249.52730345142399
 30
0.0
 11
-276.0066214189219
 21
249.14015909758109
 31
0.0
  0
POLYLINE
  5
13C
  8
AM_VIS
 66
     1
 10
0.0
 20
0.0
 30
0.0
 70
   128
210
0.0
220
0.0
230
-1.0
  0
VERTEX
  5
AE8
  8
AM_VIS
 10
279.10281190449223
 20
248.60440032652511
 30
0.0
  0
VERTEX
  5
AE9
  8
AM_VIS
 10
278.66886210412241
 20
248.5081211755963
 30
0.0
  0
VERTEX
  5
AEA
  8
AM_VIS
 10
278.3270618759658
 20
248.31949018327171
 30
0.0
  0
VERTEX
  5
AEB
  8
AM_VIS
 10
278.13843088364109
 20
247.9776899551151
 30
0.0
  0
VERTEX
  5
AEC
  8
AM_VIS
 10
278.04215173271223
 20
247.54374015474531
 30
0.0
  0
SEQEND
  5
AED
  8
AM_VIS
  0
LINE
  5
13D
  8
AM_VIS
 10
-237.0426804399857
 20
243.11661887197491
 30
0.0
 11
-237.0426804399857
 21
237.35400775499869
 31
0.0
  0
LINE
  5
13E
  8
AM_VIS
 10
-235.54268043998559
 20
237.3278251576063
 30
0.0
 11
-237.0426804399857
 21
237.35400775499869
 31
0.0
  0
LINE
  5
13F
  8
AM_VIS
 10
-237.0426804399857
 20
243.11661887197491
 30
0.0
 11
-235.54268043998559
 21
243.14280146936721
 31
0.0
  0
LINE
  5
140
  8
AM_VIS
 10
-235.54268043998559
 20
246.6428014693673
 30
0.0
 11
-230.24268043998569
 21
246.73531331348681
 31
0.0
  0
POLYLINE
  5
141
  8
AM_VIS
 66
     1
 10
0.0
 20
0.0
 30
0.0
 70
   128
210
0.0
220
0.0
230
-1.0
  0
VERTEX
  5
AEE
  8
AM_VIS
 10
174.2448292969539
 20
249.23554177075221
 30
0.0
  0
VERTEX
  5
AEF
  8
AM_VIS
 10
174.08312567703609
 20
249.8236302573975
 30
0.0
  0
VERTEX
  5
AF0
  8
AM_VIS
 10
173.96578523187131
 20
250.081267822218
 30
0.0
  0
VERTEX
  5
AF1
  8
AM_VIS
 10
173.80487698186121
 20
250.29536099839399
 30
0.0
  0
VERTEX
  5
AF2
  8
AM_VIS
 10
173.59078380568511
 20
250.4562692484042
 30
0.0
  0
VERTEX
  5
AF3
  8
AM_VIS
 10
173.33314624086461
 20
250.57360969356901
 30
0.0
  0
VERTEX
  5
AF4
  8
AM_VIS
 10
172.7450577542192
 20
250.73531331348681
 30
0.0
  0
SEQEND
  5
AF5
  8
AM_VIS
  0
POLYLINE
  5
142
  8
AM_VIS
 66
     1
 10
0.0
 20
0.0
 30
0.0
 70
   128
  0
VERTEX
  5
AF6
  8
AM_VIS
 10
-221.94541439773121
 20
250.5904839959926
 30
0.0
  0
VERTEX
  5
AF7
  8
AM_VIS
 10
-222.16744212150519
 20
250.59435950432689
 30
0.0
  0
VERTEX
  5
AF8
  8
AM_VIS
 10
-222.36150502035301
 20
250.59774688482639
 30
0.0
  0
VERTEX
  5
AF9
  8
AM_VIS
 10
-222.65492707511351
 20
250.60286858584359
 30
0.0
  0
VERTEX
  5
AFA
  8
AM_VIS
 10
-223.06970465890549
 20
250.61010855549949
 30
0.0
  0
VERTEX
  5
AFB
  8
AM_VIS
 10
-223.5838410229137
 20
250.61908283911521
 30
0.0
  0
VERTEX
  5
AFC
  8
AM_VIS
 10
-224.77821075377619
 20
250.6399306403157
 30
0.0
  0
SEQEND
  5
AFD
  8
AM_VIS
  0
LINE
  5
143
  8
AM_VIS
 10
-224.72624373666449
 20
250.5879636232039
 30
0.0
 11
-222.74268043998569
 21
248.60440032652519
 31
0.0
  0
POLYLINE
  5
144
  8
AM_VIS
 66
     1
 10
0.0
 20
0.0
 30
0.0
 70
   128
  0
VERTEX
  5
AFE
  8
AM_VIS
 10
-222.74268043998569
 20
248.60440032652519
 30
0.0
  0
VERTEX
  5
AFF
  8
AM_VIS
 10
-222.74268043998569
 20
248.5081211755963
 30
0.0
  0
VERTEX
  5
B00
  8
AM_VIS
 10
-222.74268043998569
 20
248.31949018327171
 30
0.0
  0
VERTEX
  5
B01
  8
AM_VIS
 10
-222.74268043998569
 20
247.9776899551151
 30
0.0
  0
VERTEX
  5
B02
  8
AM_VIS
 10
-222.74268043998569
 20
247.54374015474531
 30
0.0
  0
SEQEND
  5
B03
  8
AM_VIS
  0
LINE
  5
145
  8
AM_VIS
 10
-219.9094571764679
 20
248.5545222503371
 30
0.0
 11
-219.9094571764679
 21
245.13379625294081
 31
0.0
  0
POLYLINE
  5
146
  8
AM_VIS
 66
     1
 10
0.0
 20
0.0
 30
0.0
 70
   128
  0
VERTEX
  5
B04
  8
AM_VIS
 10
-219.9094571764679
 20
245.13379625294081
 30
0.0
  0
VERTEX
  5
B05
  8
AM_VIS
 10
-220.13153049305939
 20
245.09862329498131
 30
0.0
  0
VERTEX
  5
B06
  8
AM_VIS
 10
-220.32562567970891
 20
245.06788163747419
 30
0.0
  0
VERTEX
  5
B07
  8
AM_VIS
 10
-220.6190950562706
 20
245.02140065451511
 30
0.0
  0
VERTEX
  5
B08
  8
AM_VIS
 10
-221.03393684165979
 20
244.95569617051299
 30
0.0
  0
VERTEX
  5
B09
  8
AM_VIS
 10
-221.54814833527439
 20
244.8742530708885
 30
0.0
  0
VERTEX
  5
B0A
  8
AM_VIS
 10
-222.74268043998671
 20
244.68505777203379
 30
0.0
  0
SEQEND
  5
B0B
  8
AM_VIS
  0
LINE
  5
147
  8
AM_VIS
 10
-222.74268043998569
 20
248.60440032652519
 30
0.0
 11
-222.74268043998569
 21
248.6045217553596
 31
0.0
  0
POLYLINE
  5
148
  8
AM_VIS
 66
     1
 10
0.0
 20
0.0
 30
0.0
 70
   128
210
0.0
220
0.0
230
-1.0
  0
VERTEX
  5
B0C
  8
AM_VIS
 10
222.7426804399866
 20
248.60452175535951
 30
0.0
  0
VERTEX
  5
B0D
  8
AM_VIS
 10
221.54813039346851
 20
248.58344111560081
 30
0.0
  0
VERTEX
  5
B0E
  8
AM_VIS
 10
221.03391639765681
 20
248.5743665756525
 30
0.0
  0
VERTEX
  5
B0F
  8
AM_VIS
 10
220.6190762131958
 20
248.56704568772159
 30
0.0
  0
VERTEX
  5
B10
  8
AM_VIS
 10
220.3256099646685
 20
248.5618666885311
 30
0.0
  0
VERTEX
  5
B11
  8
AM_VIS
 10
220.13151796125311
 20
248.55844134901261
 30
0.0
  0
VERTEX
  5
B12
  8
AM_VIS
 10
219.9094571764669
 20
248.5545222504347
 30
0.0
  0
SEQEND
  5
B13
  8
AM_VIS
  0
LINE
  5
149
  8
AM_VIS
 10
-221.94541439777171
 20
250.59048399576011
 30
0.0
 11
-219.9094571762507
 21
248.55452224997609
 31
0.0
  0
LINE
  5
14E
  8
AM_VIS
 10
-280.00375058987032
 20
287.89876046389992
 30
0.0
 11
-279.91123874575078
 21
293.19876046389999
 31
0.0
  0
POLYLINE
  5
14F
  8
AM_VIS
 66
     1
 10
0.0
 20
0.0
 30
0.0
 70
   128
  0
VERTEX
  5
B14
  8
AM_VIS
 10
-278.0421517327124
 20
300.69876046389999
 30
0.0
  0
VERTEX
  5
B15
  8
AM_VIS
 10
-278.10905217162059
 20
300.69876046389999
 30
0.0
  0
VERTEX
  5
B16
  8
AM_VIS
 10
-278.32792240301961
 20
300.69876046389987
 30
0.0
  0
VERTEX
  5
B17
  8
AM_VIS
 10
-278.68692738941638
 20
300.69876046389999
 30
0.0
  0
VERTEX
  5
B18
  8
AM_VIS
 10
-279.10281190449211
 20
300.69876046389999
 30
0.0
  0
SEQEND
  5
B19
  8
AM_VIS
  0
LINE
  5
153
  8
AM_VIS
 10
-276.05858843603357
 20
298.71519716722128
 30
0.0
 11
-278.04215173271268
 21
300.69876046390033
 31
0.0
  0
LINE
  5
154
  8
AM_VIS
 10
-276.05858843603357
 20
298.71519716722139
 30
0.0
 11
-278.04215173271263
 21
300.69876046390021
 31
0.0
  0
POLYLINE
  5
155
  8
AM_VIS
 66
     1
 10
0.0
 20
0.0
 30
0.0
 70
   128
  0
VERTEX
  5
B1A
  8
AM_VIS
 10
-277.41101028848527
 20
293.19876046389999
 30
0.0
  0
VERTEX
  5
B1B
  8
AM_VIS
 10
-276.82292180183998
 20
293.19876046389999
 30
0.0
  0
VERTEX
  5
B1C
  8
AM_VIS
 10
-276.35119106084341
 20
293.19876046389999
 30
0.0
  0
VERTEX
  5
B1D
  8
AM_VIS
 10
-276.0729423656685
 20
293.19876046389999
 30
0.0
  0
VERTEX
  5
B1E
  8
AM_VIS
 10
-275.91123874575078
 20
293.19876046389999
 30
0.0
  0
SEQEND
  5
B1F
  8
AM_VIS
  0
LINE
  5
156
  8
AM_VIS
 10
-275.91123874575072
 20
293.19876046389999
 30
0.0
 11
-276.00662141892178
 21
298.66323015010931
 31
0.0
  0
CIRCLE
  5
157
  8
AM_VIS
 10
-151.2448292969539
 20
237.73531331348681
 30
0.0
 40
1.6000000000000001
  0
CIRCLE
  5
158
  8
AM_VIS
 10
-151.2448292969539
 20
237.73531331348681
 30
0.0
 40
1.1999999999999991
  0
CIRCLE
  5
159
  8
AM_VIS
 10
-151.2448292969539
 20
237.73531331348681
 30
0.0
 40
3.0
  0
CIRCLE
  5
15A
  8
AM_VIS
 10
-163.7448292969539
 20
240.23531331348681
 30
0.0
 40
2.8813055584881191
  0
CIRCLE
  5
15B
  8
AM_VIS
 10
-163.7448292969539
 20
240.23531331348681
 30
0.0
 40
2.9301797402871288
  0
LINE
  5
15C
  8
AM_VIS
 10
-168.95231745283431
 20
237.7971650189065
 30
0.0
 11
-169.02213771254719
 21
238.1342522080744
 31
0.0
  0
ARC
  5
15D
  8
AM_VIS
 10
-163.7448292969539
 20
240.23531331348681
 30
0.0
 40
5.6801797402871292
 50
201.70904431687231
 51
336.48057982483101
  0
ARC
  5
15E
  8
AM_VIS
 10
-163.7448292969539
 20
240.23531331348681
 30
0.0
 40
5.75
 50
317.06680641144158
 51
336.6258366198785
  0
LINE
  5
15F
  8
AM_VIS
 10
-168.95231745283431
 20
234.48531331348681
 30
0.0
 11
-163.7448292969539
 21
234.48531331348681
 31
0.0
  0
LINE
  5
160
  8
AM_VIS
 10
-163.7448292969539
 20
234.385819443396
 30
0.0
 11
-168.85282358274341
 21
234.385819443396
 31
0.0
  0
ARC
  5
161
  8
AM_VIS
 10
-163.7448292969539
 20
240.23531331348681
 30
0.0
 40
5.75
 50
205.08901468766189
 51
269.99999999999972
  0
LINE
  5
162
  8
AM_VIS
 10
-168.85282358274341
 20
234.38581944339589
 30
0.0
 11
-168.95231745283431
 21
234.48531331348681
 31
0.0
  0
LINE
  5
163
  8
AM_VIS
 10
-168.95231745283431
 20
234.48531331348681
 30
0.0
 11
-168.95231745283431
 21
237.7971650189065
 31
0.0
  0
LINE
  5
164
  8
AM_VIS
 10
-159.58210462159499
 20
236.20066039716099
 30
0.0
 11
-159.5349759462888
 21
236.31872873430379
 31
0.0
  0
LINE
  5
165
  8
AM_VIS
 10
-159.58210462159491
 20
236.2006603971611
 30
0.0
 11
-159.63446981637961
 21
236.07339987413181
 31
0.0
  0
ARC
  5
166
  8
AM_VIS
 10
-163.7448292969539
 20
240.23531331348681
 30
0.0
 40
5.8494938700908401
 50
269.99999999999972
 51
314.64292933235402
  0
ARC
  5
167
  8
AM_VIS
 10
-163.7448292969539
 20
240.23531331348681
 30
0.0
 40
5.6801797402871292
 50
23.519420175169021
 51
68.290955683128615
  0
ARC
  5
168
  8
AM_VIS
 10
-163.7448292969539
 20
240.23531331348681
 30
0.0
 40
5.75
 50
23.37416338012148
 51
64.91098531233898
  0
LINE
  5
169
  8
AM_VIS
 10
-169.02213771254719
 20
245.51262172908011
 30
0.0
 11
-161.6437681915416
 21
245.51262172908011
 31
0.0
  0
LINE
  5
16A
  8
AM_VIS
 10
-169.04482929695391
 20
245.53531331348691
 30
0.0
 11
-169.02213771254719
 21
245.51262172908011
 31
0.0
  0
LINE
  5
16C
  8
AM_VIS
 10
-161.6437681915416
 20
245.51262172908011
 30
0.0
 11
-161.30668100237361
 21
245.4428014693672
 31
0.0
  0
CIRCLE
  5
16D
  8
AM_VIS
 10
-163.7448292969539
 20
240.23531331348681
 30
0.0
 40
1.526182597392326
  0
CIRCLE
  5
16E
  8
AM_VIS
 10
-163.7448292969539
 20
240.23531331348681
 30
0.0
 40
1.433670753272773
  0
LINE
  5
16F
  8
AM_VIS
 10
-169.02213771254719
 20
238.1342522080744
 30
0.0
 11
-169.02213771254719
 21
245.51262172908011
 31
0.0
  0
LINE
  5
170
  8
AM_VIS
 10
-158.53653124230181
 20
237.96858146876491
 30
0.0
 11
-158.53653124230181
 21
242.50204515820849
 31
0.0
  0
LINE
  5
171
  8
AM_VIS
 10
-158.46671098258901
 20
237.95409279377239
 30
0.0
 11
-158.53653124230181
 21
237.96858146876491
 31
0.0
  0
LINE
  5
172
  8
AM_VIS
 10
-158.53653124230181
 20
242.50204515820869
 30
0.0
 11
-158.46671098258901
 21
242.51653383320109
 31
0.0
  0
LINE
  5
173
  8
AM_VIS
 10
-158.46671098258889
 20
242.51653383320109
 30
0.0
 11
-158.46671098258889
 21
243.28244198879301
 31
0.0
  0
LINE
  5
174
  8
AM_VIS
 10
-158.46671098258901
 20
243.28244198879301
 30
0.0
 11
-158.41958230728281
 21
243.23531331348681
 31
0.0
  0
CIRCLE
  5
175
  8
AM_VIS
 10
-18.744829296953888
 20
222.73531331348681
 30
0.0
 40
2.900506129909159
  0
CIRCLE
  5
176
  8
AM_VIS
 10
-18.744829296953888
 20
222.73531331348681
 30
0.0
 40
3.0
  0
LINE
  5
177
  8
AM_VIS
 10
-24.022947611318749
 20
237.9540927937723
 30
0.0
 11
-24.022947611318749
 21
157.51653383320129
 31
0.0
  0
LINE
  5
178
  8
AM_VIS
 10
-22.954682647618959
 20
236.31872873430379
 30
0.0
 11
-22.954682647618959
 21
159.15189789266989
 31
0.0
  0
LINE
  5
179
  8
AM_VIS
 10
-24.070076286624921
 20
151.07258863812791
 30
0.0
 11
-24.070076286624921
 21
243.23531331348681
 31
0.0
  0
LINE
  5
17A
  8
AM_VIS
 10
-22.85518877752812
 20
236.07339987413181
 30
0.0
 11
-22.85518877752812
 21
159.3972267528419
 31
0.0
  0
LINE
  5
17B
  8
AM_VIS
 10
-13.636835011164321
 20
161.08480718357771
 30
0.0
 11
-13.636835011164321
 21
234.38581944339589
 31
0.0
  0
LINE
  5
17C
  8
AM_VIS
 10
-13.444829296953881
 20
245.53531331348691
 30
0.0
 11
-13.444829296953881
 21
149.9353133134868
 31
0.0
  0
LINE
  5
17D
  8
AM_VIS
 10
-8.2448292969538954
 20
249.23554177075221
 30
0.0
 11
-8.2448292969538954
 21
146.23508485622139
 31
0.0
  0
LINE
  5
17E
  8
AM_VIS
 10
-9.5327208284990945
 20
249.44742178194161
 30
0.0
 11
-9.5327208284990945
 21
146.02320484503201
 31
0.0
  0
LINE
  5
17F
  8
AM_VIS
 10
-12.337341141073431
 20
246.6428014693673
 30
0.0
 11
-12.337341141073431
 21
148.8278251576063
 31
0.0
  0
CIRCLE
  5
180
  8
AM_VIS
 10
-19.244829296953888
 20
172.73531331348681
 30
0.0
 40
1.6000000000000001
  0
CIRCLE
  5
181
  8
AM_VIS
 10
-19.244829296953888
 20
172.73531331348681
 30
0.0
 40
2.900506129909159
  0
CIRCLE
  5
182
  8
AM_VIS
 10
-19.244829296953888
 20
172.73531331348681
 30
0.0
 40
3.0
  0
POLYLINE
  5
183
  8
AM_VIS
 66
     1
 10
0.0
 20
0.0
 30
0.0
 70
   128
210
0.0
220
0.0
230
-1.0
  0
VERTEX
  5
B20
  8
AM_VIS
 10
8.2448292969539523
 20
146.23508485622139
 30
0.0
  0
VERTEX
  5
B21
  8
AM_VIS
 10
8.4065329168716811
 20
145.64699636957599
 30
0.0
  0
VERTEX
  5
B22
  8
AM_VIS
 10
8.5238733620364702
 20
145.3893588047556
 30
0.0
  0
VERTEX
  5
B23
  8
AM_VIS
 10
8.6847816120466437
 20
145.1752656285795
 30
0.0
  0
VERTEX
  5
B24
  8
AM_VIS
 10
8.8988747882227415
 20
145.0143573785694
 30
0.0
  0
VERTEX
  5
B25
  8
AM_VIS
 10
9.1565123530431727
 20
144.89701693340459
 30
0.0
  0
VERTEX
  5
B26
  8
AM_VIS
 10
9.7446008396885002
 20
144.73531331348681
 30
0.0
  0
SEQEND
  5
B27
  8
AM_VIS
  0
ARC
  5
185
  8
AM_VIS
 10
-18.744829296953888
 20
155.2353133134869
 30
0.0
 40
5.75
 50
25.089014687662541
 51
90.0
  0
ARC
  5
186
  8
AM_VIS
 10
-18.744829296953888
 20
155.2353133134869
 30
0.0
 40
5.8494938700908401
 50
90.0
 51
134.6429293323533
  0
ARC
  5
187
  8
AM_VIS
 10
-18.744829296953888
 20
155.2353133134869
 30
0.0
 40
5.6801797402871292
 50
21.709044316872351
 51
156.4805798248303
  0
ARC
  5
188
  8
AM_VIS
 10
-18.744829296953888
 20
155.2353133134869
 30
0.0
 40
5.75
 50
203.37416338012301
 51
244.91098531234019
  0
ARC
  5
189
  8
AM_VIS
 10
-18.744829296953888
 20
155.2353133134869
 30
0.0
 40
5.6801797402871292
 50
203.51942017516961
 51
248.29095568312951
  0
CIRCLE
  5
18A
  8
AM_VIS
 10
-18.744829296953888
 20
155.2353133134869
 30
0.0
 40
2.88130555848812
  0
CIRCLE
  5
18B
  8
AM_VIS
 10
-18.744829296953888
 20
155.2353133134869
 30
0.0
 40
2.9301797402871301
  0
CIRCLE
  5
18C
  8
AM_VIS
 10
-31.244829296953888
 20
157.73531331348681
 30
0.0
 40
1.1999999999999991
  0
CIRCLE
  5
18D
  8
AM_VIS
 10
-31.244829296953888
 20
157.73531331348681
 30
0.0
 40
1.6000000000000001
  0
ARC
  5
18E
  8
AM_VIS
 10
-18.744829296953888
 20
155.2353133134869
 30
0.0
 40
5.75
 50
137.06680641144149
 51
156.62583661987691
  0
LINE
  5
18F
  8
AM_VIS
 10
-24.022947611318688
 20
157.51653383320141
 30
0.0
 11
-23.95312735160584
 21
157.50204515820889
 31
0.0
  0
LINE
  5
190
  8
AM_VIS
 10
-22.90755397231279
 20
159.26996622981261
 30
0.0
 11
-22.95468264761902
 21
159.15189789266981
 31
0.0
  0
LINE
  5
191
  8
AM_VIS
 10
-22.90755397231279
 20
159.26996622981261
 30
0.0
 11
-22.85518877752812
 21
159.3972267528419
 31
0.0
  0
LINE
  5
192
  8
AM_VIS
 10
-24.022947611318749
 20
152.95409279377239
 30
0.0
 11
-24.022947611318749
 21
151.0254599628218
 31
0.0
  0
LINE
  5
193
  8
AM_VIS
 10
-24.022947611318749
 20
151.02545996282171
 30
0.0
 11
-24.070076286624921
 21
151.07258863812791
 31
0.0
  0
LINE
  5
194
  8
AM_VIS
 10
-23.95312735160584
 20
152.96858146876471
 30
0.0
 11
-24.022947611318688
 21
152.9540927937723
 31
0.0
  0
LINE
  5
195
  8
AM_VIS
 10
-23.95312735160584
 20
157.5020451582088
 30
0.0
 11
-23.95312735160584
 21
152.96858146876491
 31
0.0
  0
CIRCLE
  5
196
  8
AM_VIS
 10
-31.244829296953888
 20
157.73531331348681
 30
0.0
 40
3.0
  0
LINE
  5
197
  8
AM_VIS
 10
-13.53734114107348
 20
160.9853133134869
 30
0.0
 11
-18.744829296953888
 21
160.9853133134869
 31
0.0
  0
LINE
  5
198
  8
AM_VIS
 10
-18.744829296953888
 20
161.08480718357771
 30
0.0
 11
-13.636835011164321
 21
161.08480718357771
 31
0.0
  0
LINE
  5
199
  8
AM_VIS
 10
-13.636835011164321
 20
161.08480718357771
 30
0.0
 11
-13.537341141073419
 21
160.98531331348681
 31
0.0
  0
LINE
  5
19A
  8
AM_VIS
 10
-13.53734114107348
 20
157.67346160806721
 30
0.0
 11
-13.467520881360571
 21
157.33637441889911
 31
0.0
  0
LINE
  5
19B
  8
AM_VIS
 10
-13.53734114107348
 20
160.9853133134869
 30
0.0
 11
-13.53734114107348
 21
157.6734616080673
 31
0.0
  0
LINE
  5
19C
  8
AM_VIS
 10
-13.46752088136062
 20
149.9580048978934
 30
0.0
 11
-20.845890402365988
 21
149.9580048978934
 31
0.0
  0
LINE
  5
19D
  8
AM_VIS
 10
-20.845890402365988
 20
149.9580048978934
 30
0.0
 11
-21.182977591533952
 21
150.02782515760629
 31
0.0
  0
LINE
  5
19E
  8
AM_VIS
 10
-13.444829296953939
 20
149.9353133134868
 30
0.0
 11
-13.46752088136062
 21
149.95800489789349
 31
0.0
  0
CIRCLE
  5
1A0
  8
AM_VIS
 10
-18.744829296953888
 20
155.2353133134869
 30
0.0
 40
1.526182597392326
  0
CIRCLE
  5
1A1
  8
AM_VIS
 10
-18.744829296953888
 20
155.2353133134869
 30
0.0
 40
1.433670753272773
  0
LINE
  5
1A2
  8
AM_VIS
 10
-13.467520881360571
 20
157.33637441889911
 30
0.0
 11
-13.467520881360571
 21
149.9580048978934
 31
0.0
  0
CIRCLE
  5
1A3
  8
AM_VIS
 10
-19.244829296953888
 20
172.73531331348681
 30
0.0
 40
1.1999999999999991
  0
CIRCLE
  5
1A4
  8
AM_VIS
 10
-18.744829296953888
 20
197.73531331348681
 30
0.0
 40
2.900506129909159
  0
CIRCLE
  5
1A5
  8
AM_VIS
 10
-18.744829296953888
 20
197.73531331348681
 30
0.0
 40
3.0
  0
CIRCLE
  5
1A6
  8
AM_VIS
 10
-18.744829296953888
 20
197.73531331348681
 30
0.0
 40
1.1999999999999991
  0
CIRCLE
  5
1A7
  8
AM_VIS
 10
-18.744829296953888
 20
197.73531331348681
 30
0.0
 40
1.6000000000000001
  0
CIRCLE
  5
1A8
  8
AM_VIS
 10
-18.744829296953888
 20
222.73531331348681
 30
0.0
 40
1.1999999999999991
  0
CIRCLE
  5
1A9
  8
AM_VIS
 10
-18.744829296953888
 20
222.73531331348681
 30
0.0
 40
1.6000000000000001
  0
POLYLINE
  5
1AA
  8
AM_VIS
 66
     1
 10
0.0
 20
0.0
 30
0.0
 70
   128
210
0.0
220
0.0
230
-1.0
  0
VERTEX
  5
B28
  8
AM_VIS
 10
9.7446008396885002
 20
250.73531331348681
 30
0.0
  0
VERTEX
  5
B29
  8
AM_VIS
 10
9.1565123530431265
 20
250.57360969356901
 30
0.0
  0
VERTEX
  5
B2A
  8
AM_VIS
 10
8.8988747882226846
 20
250.4562692484042
 30
0.0
  0
VERTEX
  5
B2B
  8
AM_VIS
 10
8.6847816120465833
 20
250.29536099839399
 30
0.0
  0
VERTEX
  5
B2C
  8
AM_VIS
 10
8.5238733620364222
 20
250.081267822218
 30
0.0
  0
VERTEX
  5
B2D
  8
AM_VIS
 10
8.4065329168716563
 20
249.8236302573975
 30
0.0
  0
VERTEX
  5
B2E
  8
AM_VIS
 10
8.2448292969539541
 20
249.23554177075221
 30
0.0
  0
SEQEND
  5
B2F
  8
AM_VIS
  0
LINE
  5
1AB
  8
AM_VIS
 10
-13.46752088136062
 20
238.1342522080744
 30
0.0
 11
-13.53734114107354
 21
237.7971650189063
 31
0.0
  0
CIRCLE
  5
1AC
  8
AM_VIS
 10
-31.244829296953888
 20
237.73531331348681
 30
0.0
 40
1.1999999999999991
  0
CIRCLE
  5
1AD
  8
AM_VIS
 10
-31.244829296953888
 20
237.73531331348681
 30
0.0
 40
1.6000000000000001
  0
CIRCLE
  5
1AE
  8
AM_VIS
 10
-31.244829296953888
 20
237.73531331348681
 30
0.0
 40
3.0
  0
ARC
  5
1AF
  8
AM_VIS
 10
-18.744829296953888
 20
240.23531331348681
 30
0.0
 40
5.75
 50
203.37416338012321
 51
222.9331935885584
  0
ARC
  5
1B0
  8
AM_VIS
 10
-18.744829296953888
 20
240.23531331348681
 30
0.0
 40
5.6801797402871292
 50
203.51942017516961
 51
338.29095568312761
  0
CIRCLE
  5
1B1
  8
AM_VIS
 10
-18.744829296953888
 20
240.23531331348681
 30
0.0
 40
2.88130555848812
  0
CIRCLE
  5
1B2
  8
AM_VIS
 10
-18.744829296953888
 20
240.23531331348681
 30
0.0
 40
2.9301797402871301
  0
ARC
  5
1B3
  8
AM_VIS
 10
-18.744829296953888
 20
240.23531331348681
 30
0.0
 40
5.8494938700908401
 50
225.3570706676465
 51
270.0
  0
LINE
  5
1B4
  8
AM_VIS
 10
-22.95468264761902
 20
236.3187287343039
 30
0.0
 11
-22.90755397231279
 21
236.20066039716099
 31
0.0
  0
LINE
  5
1B5
  8
AM_VIS
 10
-22.90755397231279
 20
236.20066039716099
 30
0.0
 11
-22.85518877752812
 21
236.07339987413181
 31
0.0
  0
ARC
  5
1B6
  8
AM_VIS
 10
-18.744829296953888
 20
240.23531331348681
 30
0.0
 40
5.75
 50
270.0
 51
334.91098531233712
  0
LINE
  5
1B7
  8
AM_VIS
 10
-13.53734114107348
 20
234.48531331348681
 30
0.0
 11
-18.744829296953888
 21
234.48531331348681
 31
0.0
  0
LINE
  5
1B8
  8
AM_VIS
 10
-13.636835011164321
 20
234.38581944339589
 30
0.0
 11
-18.744829296953888
 21
234.38581944339589
 31
0.0
  0
LINE
  5
1B9
  8
AM_VIS
 10
-13.537341141073419
 20
234.48531331348681
 30
0.0
 11
-13.636835011164321
 21
234.38581944339589
 31
0.0
  0
LINE
  5
1BA
  8
AM_VIS
 10
-13.53734114107348
 20
237.7971650189063
 30
0.0
 11
-13.53734114107348
 21
234.48531331348681
 31
0.0
  0
ARC
  5
1BB
  8
AM_VIS
 10
-18.744829296953888
 20
240.23531331348681
 30
0.0
 40
5.6801797402871292
 50
111.709044316871
 51
156.4805798248303
  0
ARC
  5
1BC
  8
AM_VIS
 10
-18.744829296953888
 20
240.23531331348681
 30
0.0
 40
5.75
 50
115.0890146876597
 51
156.62583661987659
  0
LINE
  5
1BD
  8
AM_VIS
 10
-23.95312735160584
 20
242.50204515820869
 30
0.0
 11
-23.95312735160584
 21
237.96858146876471
 31
0.0
  0
LINE
  5
1BE
  8
AM_VIS
 10
-23.95312735160584
 20
237.96858146876471
 30
0.0
 11
-24.022947611318749
 21
237.9540927937723
 31
0.0
  0
LINE
  5
1BF
  8
AM_VIS
 10
-24.022947611318749
 20
242.51653383320121
 30
0.0
 11
-23.95312735160584
 21
242.5020451582088
 31
0.0
  0
LINE
  5
1C0
  8
AM_VIS
 10
-24.022947611318749
 20
243.2824419887929
 30
0.0
 11
-24.022947611318749
 21
242.51653383320121
 31
0.0
  0
LINE
  5
1C1
  8
AM_VIS
 10
-24.022947611318688
 20
243.2824419887929
 30
0.0
 11
-24.070076286624921
 21
243.23531331348681
 31
0.0
  0
LINE
  5
1C2
  8
AM_VIS
 10
-20.845890402366049
 20
245.51262172908011
 30
0.0
 11
-13.467520881360571
 21
245.51262172908011
 31
0.0
  0
LINE
  5
1C3
  8
AM_VIS
 10
-21.182977591534009
 20
245.44280146936731
 30
0.0
 11
-20.845890402366049
 21
245.51262172908011
 31
0.0
  0
LINE
  5
1C5
  8
AM_VIS
 10
-13.444829296953881
 20
245.53531331348691
 30
0.0
 11
-13.467520881360571
 21
245.51262172908011
 31
0.0
  0
CIRCLE
  5
1C7
  8
AM_VIS
 10
-18.744829296953888
 20
240.23531331348681
 30
0.0
 40
1.526182597392326
  0
CIRCLE
  5
1C8
  8
AM_VIS
 10
-18.744829296953888
 20
240.23531331348681
 30
0.0
 40
1.433670753272773
  0
LINE
  5
1C9
  8
AM_VIS
 10
-13.467520881360571
 20
245.51262172908019
 30
0.0
 11
-13.467520881360571
 21
238.1342522080746
 31
0.0
  0
ENDSEC
  0
EOF
