  0
SECTION
  2
HEADER
  9
$ACADVER
  1
AC1009
  9
$INSBASE
 10
0.0
 20
0.0
 30
0.0
  9
$EXTMIN
 10
-754.730064
 20
5.605557
 30
0.0
  9
$EXTMAX
 10
695.426183
 20
625.854571
 30
0.0
  9
$LIMMIN
 10
0.0
 20
0.0
  9
$LIMMAX
 10
420.0
 20
297.0
  9
$ORTHOMODE
 70
     1
  9
$REGENMODE
 70
     1
  9
$FILLMODE
 70
     1
  9
$QTEXTMODE
 70
     0
  9
$MIRRTEXT
 70
     1
  9
$DRAGMODE
 70
     2
  9
$LTSCALE
 40
7.0
  9
$OSMODE
 70
    21
  9
$ATTMODE
 70
     1
  9
$TEXTSIZE
 40
3.5
  9
$TRACEWID
 40
0.05
  9
$TEXTSTYLE
  7
STANDARD
  9
$CLAYER
  8
12
  9
$CELTYPE
  6
BYLAYER
  9
$CECOLOR
 62
   256
  9
$DIMSCALE
 40
1.0
  9
$DIMASZ
 40
0.18
  9
$DIMEXO
 40
0.0625
  9
$DIMDLI
 40
0.38
  9
$DIMRND
 40
0.0
  9
$DIMDLE
 40
0.0
  9
$DIMEXE
 40
0.18
  9
$DIMTP
 40
0.0
  9
$DIMTM
 40
0.0
  9
$DIMTXT
 40
0.18
  9
$DIMCEN
 40
0.09
  9
$DIMTSZ
 40
0.0
  9
$DIMTOL
 70
     0
  9
$DIMLIM
 70
     0
  9
$DIMTIH
 70
     1
  9
$DIMTOH
 70
     1
  9
$DIMSE1
 70
     0
  9
$DIMSE2
 70
     0
  9
$DIMTAD
 70
     0
  9
$DIMZIN
 70
     0
  9
$DIMBLK
  1

  9
$DIMASO
 70
     1
  9
$DIMSHO
 70
     1
  9
$DIMPOST
  1

  9
$DIMAPOST
  1

  9
$DIMALT
 70
     0
  9
$DIMALTD
 70
     2
  9
$DIMALTF
 40
25.4
  9
$DIMLFAC
 40
1.0
  9
$DIMTOFL
 70
     0
  9
$DIMTVP
 40
0.0
  9
$DIMTIX
 70
     0
  9
$DIMSOXD
 70
     0
  9
$DIMSAH
 70
     0
  9
$DIMBLK1
  1

  9
$DIMBLK2
  1

  9
$DIMSTYLE
  2
ACADUS
  9
$DIMCLRD
 70
     0
  9
$DIMCLRE
 70
     0
  9
$DIMCLRT
 70
     0
  9
$DIMTFAC
 40
1.0
  9
$DIMGAP
 40
0.09
  9
$LUNITS
 70
     2
  9
$LUPREC
 70
     1
  9
$SKETCHINC
 40
1.0
  9
$FILLETRAD
 40
0.0
  9
$AUNITS
 70
     0
  9
$AUPREC
 70
     2
  9
$MENU
  1
CAESAR
  9
$ELEVATION
 40
0.0
  9
$PELEVATION
 40
0.0
  9
$THICKNESS
 40
0.0
  9
$LIMCHECK
 70
     0
  9
$BLIPMODE
 70
     0
  9
$CHAMFERA
 40
5.0
  9
$CHAMFERB
 40
5.0
  9
$SKPOLY
 70
     0
  9
$TDCREATE
 40
2449496.451814
  9
$TDUPDATE
 40
2453059.656704
  9
$TDINDWG
 40
0.004299
  9
$TDUSRTIMER
 40
0.004299
  9
$USRTIMER
 70
     1
  9
$ANGBASE
 50
0.0
  9
$ANGDIR
 70
     0
  9
$PDMODE
 70
     0
  9
$PDSIZE
 40
0.0
  9
$PLINEWID
 40
0.0
  9
$COORDS
 70
     2
  9
$SPLFRAME
 70
     0
  9
$SPLINETYPE
 70
     6
  9
$SPLINESEGS
 70
     8
  9
$ATTDIA
 70
     0
  9
$ATTREQ
 70
     1
  9
$HANDLING
 70
     1
  9
$HANDSEED
  5
7F97
  9
$SURFTAB1
 70
     6
  9
$SURFTAB2
 70
     6
  9
$SURFTYPE
 70
     6
  9
$SURFU
 70
     6
  9
$SURFV
 70
     6
  9
$UCSNAME
  2

  9
$UCSORG
 10
315.338632
 20
44.601356
 30
0.0
  9
$UCSXDIR
 10
1.0
 20
0.0
 30
0.0
  9
$UCSYDIR
 10
0.0
 20
1.0
 30
0.0
  9
$PUCSNAME
  2

  9
$PUCSORG
 10
0.0
 20
0.0
 30
0.0
  9
$PUCSXDIR
 10
1.0
 20
0.0
 30
0.0
  9
$PUCSYDIR
 10
0.0
 20
1.0
 30
0.0
  9
$USERI1
 70
     0
  9
$USERI2
 70
     0
  9
$USERI3
 70
     0
  9
$USERI4
 70
     0
  9
$USERI5
 70
     0
  9
$USERR1
 40
1.0
  9
$USERR2
 40
0.0
  9
$USERR3
 40
3.5
  9
$USERR4
 40
0.0
  9
$USERR5
 40
0.0
  9
$WORLDVIEW
 70
     1
  9
$SHADEDGE
 70
     3
  9
$SHADEDIF
 70
    70
  9
$TILEMODE
 70
     1
  9
$MAXACTVP
 70
    16
  9
$PLIMCHECK
 70
     0
  9
$PEXTMIN
 10
1.000000E+020
 20
1.000000E+020
 30
1.000000E+020
  9
$PEXTMAX
 10
-1.000000E+020
 20
-1.000000E+020
 30
-1.000000E+020
  9
$PLIMMIN
 10
0.0
 20
0.0
  9
$PLIMMAX
 10
420.0
 20
297.0
  9
$UNITMODE
 70
     0
  9
$VISRETAIN
 70
     0
  9
$PLINEGEN
 70
     0
  9
$PSLTSCALE
 70
     0
  0
ENDSEC
  0
SECTION
  2
TABLES
  0
TABLE
  2
VPORT
 70
     2
  0
VPORT
  2
*ACTIVE
 70
     0
 10
0.0
 20
0.0
 11
1.0
 21
1.0
 12
-29.651934
 22
315.730234
 13
0.0
 23
0.0
 14
1.0
 24
1.0
 15
10.0
 25
10.0
 16
0.0
 26
0.0
 36
1.0
 17
0.0
 27
0.0
 37
0.0
 40
902.72778
 41
1.616838
 42
50.0
 43
0.0
 44
0.0
 50
0.0
 51
0.0
 71
     0
 72
   100
 73
     1
 74
     1
 75
     0
 76
     0
 77
     0
 78
     0
  0
ENDTAB
  0
TABLE
  2
LTYPE
 70
     4
  0
LTYPE
  2
CONTINUOUS
 70
     0
  3
Solid line
 72
    65
 73
     0
 40
0.0
  0
LTYPE
  2
CENTER
 70
     0
  3
____ _ ____ _ ____ _ ____ _ ____ _ ____ _ ____ 
 72
    65
 73
     4
 40
2.0
 49
1.25
 49
-0.25
 49
0.25
 49
-0.25
  0
LTYPE
  2
DASHDOT
 70
     0
  3
__ . __ . __ . __ . __ . __ . __ . __ . __ . __
 72
    65
 73
     4
 40
1.0
 49
0.5
 49
-0.25
 49
0.0
 49
-0.25
  0
LTYPE
  2
DASHED
 70
     0
  3
__ __ __ __ __ __ __ __ __ __ __ __ __ __ __ __
 72
    65
 73
     2
 40
0.75
 49
0.5
 49
-0.25
  0
ENDTAB
  0
TABLE
  2
LAYER
 70
    24
  0
LAYER
  2
0
 70
     0
 62
     7
  6
CONTINUOUS
  0
LAYER
  2
L20
 70
     0
 62
     3
  6
CONTINUOUS
  0
LAYER
  2
11
 70
     0
 62
     7
  6
CONTINUOUS
  0
LAYER
  2
63
 70
     0
 62
     1
  6
CENTER
  0
LAYER
  2
DEFPOINTS
 70
     0
 62
     7
  6
CONTINUOUS
  0
LAYER
  2
12
 70
     0
 62
     1
  6
CONTINUOUS
  0
LAYER
  2
13
 70
     0
 62
     1
  6
CENTER
  0
LAYER
  2
14
 70
     0
 62
     1
  6
DASHED
  0
LAYER
  2
21
 70
     0
 62
     7
  6
CONTINUOUS
  0
LAYER
  2
22
 70
     0
 62
     1
  6
CONTINUOUS
  0
LAYER
  2
23
 70
     0
 62
     1
  6
CENTER
  0
LAYER
  2
24
 70
     0
 62
     1
  6
DASHED
  0
LAYER
  2
31
 70
     0
 62
     7
  6
CONTINUOUS
  0
LAYER
  2
32
 70
     0
 62
     1
  6
CONTINUOUS
  0
LAYER
  2
33
 70
     0
 62
     1
  6
CENTER
  0
LAYER
  2
34
 70
     0
 62
     1
  6
DASHED
  0
LAYER
  2
41
 70
     0
 62
     7
  6
CONTINUOUS
  0
LAYER
  2
42
 70
     0
 62
     1
  6
CONTINUOUS
  0
LAYER
  2
43
 70
     0
 62
     1
  6
CENTER
  0
LAYER
  2
44
 70
     0
 62
     1
  6
DASHED
  0
LAYER
  2
51
 70
     0
 62
     7
  6
CONTINUOUS
  0
LAYER
  2
52
 70
     0
 62
     1
  6
CONTINUOUS
  0
LAYER
  2
53
 70
     0
 62
     1
  6
CENTER
  0
LAYER
  2
61
 70
     0
 62
     7
  6
CONTINUOUS
  0
ENDTAB
  0
TABLE
  2
STYLE
 70
     1
  0
STYLE
  2
STANDARD
 70
     0
 40
0.0
 41
1.0
 50
0.0
 71
     0
 42
3.5
  3
CAEISO
  4

  0
ENDTAB
  0
TABLE
  2
VIEW
 70
     0
  0
ENDTAB
  0
TABLE
  2
UCS
 70
     0
  0
ENDTAB
  0
TABLE
  2
APPID
 70
     1
  0
APPID
  2
ACAD
 70
     0
  0
ENDTAB
  0
TABLE
  2
DIMSTYLE
 70
     1
  0
DIMSTYLE
  2
ACADUS
 70
     0
  3

  4

  5

  6

  7

 40
1.0
 41
0.18
 42
0.0625
 43
0.38
 44
0.18
 45
0.0
 46
0.0
 47
0.0
 48
0.0
140
0.18
141
0.09
142
0.0
143
25.4
144
1.0
145
0.0
146
1.0
147
0.09
 71
     0
 72
     0
 73
     1
 74
     1
 75
     0
 76
     0
 77
     0
 78
     0
170
     0
171
     2
172
     0
173
     0
174
     0
175
     0
176
     0
177
     0
178
     0
  0
ENDTAB
  0
ENDSEC
  0
SECTION
  2
BLOCKS
  0
BLOCK
  8
0
  2
$MODEL_SPACE
 70
     0
 10
0.0
 20
0.0
 30
0.0
  3
$MODEL_SPACE
  1

  0
ENDBLK
  5
7ED8
  8
0
  0
BLOCK
 67
     1
  8
0
  2
$PAPER_SPACE
 70
     0
 10
0.0
 20
0.0
 30
0.0
  3
$PAPER_SPACE
  1

  0
ENDBLK
  5
7ED6
 67
     1
  8
0
  0
ENDSEC
  0
SECTION
  2
ENTITIES
  0
TEXT
  5
76D4
  8
0
  6
CONTINUOUS
 10
380.035074
 20
372.358918
 30
0.0
 40
2.5
  1
  
 50
21.66214
  0
LINE
  5
76D5
  8
63
  6
DASHDOT
 10
315.338632
 20
523.068695
 30
0.0
 11
315.338632
 21
107.068695
 31
0.0
  0
CIRCLE
  5
76D6
  8
61
 10
582.838632
 20
492.730064
 30
0.0
 40
8.2
  0
ARC
  5
76D7
  8
61
 10
582.838632
 20
492.730064
 30
0.0
 40
12.0
 50
174.892469
 51
274.783425
  0
ARC
  5
76D8
  8
61
 10
582.838632
 20
492.730064
 30
0.0
 40
10.8
 50
293.810147
 51
155.803248
  0
ARC
  5
76D9
  8
61
 10
315.338632
 20
492.730064
 30
0.0
 40
10.8
 50
24.196752
 51
155.7951
  0
ARC
  5
76DA
  8
61
 10
315.338632
 20
492.730064
 30
0.0
 40
12.0
 50
174.885648
 51
5.107531
  0
CIRCLE
  5
76DB
  8
61
 10
315.338632
 20
492.730064
 30
0.0
 40
8.2
  0
ARC
  5
76DC
  8
61
 10
47.838632
 20
492.730064
 30
0.0
 40
10.8
 50
24.2049
 51
245.825653
  0
ARC
  5
76DD
  8
61
 10
47.838632
 20
492.730064
 30
0.0
 40
12.0
 50
264.91123
 51
5.114352
  0
CIRCLE
  5
76DE
  8
61
 10
47.838632
 20
492.730064
 30
0.0
 40
8.2
  0
ARC
  5
76DF
  8
61
 10
582.838632
 20
138.730064
 30
0.0
 40
10.8
 50
204.066667
 51
66.189853
  0
ARC
  5
76E0
  8
61
 10
582.838632
 20
138.730064
 30
0.0
 40
12.0
 50
85.216575
 51
184.998567
  0
CIRCLE
  5
76E1
  8
61
 10
582.838632
 20
138.730064
 30
0.0
 40
8.2
  0
CIRCLE
  5
76E2
  8
61
 10
315.338632
 20
138.730064
 30
0.0
 40
8.2
  0
ARC
  5
76E3
  8
61
 10
315.338632
 20
138.730064
 30
0.0
 40
12.0
 50
355.001433
 51
185.097198
  0
ARC
  5
76E4
  8
61
 10
315.338632
 20
138.730064
 30
0.0
 40
10.8
 50
204.184411
 51
335.933333
  0
CIRCLE
  5
76E5
  8
61
 10
47.838632
 20
138.730064
 30
0.0
 40
8.2
  0
ARC
  5
76E6
  8
61
 10
47.838632
 20
138.730064
 30
0.0
 40
12.0
 50
354.902802
 51
95.08877
  0
ARC
  5
76E7
  8
61
 10
47.838632
 20
138.730064
 30
0.0
 40
10.8
 50
114.174347
 51
335.815589
  0
LINE
  5
76E8
  8
61
 10
593.638632
 20
492.730064
 30
0.0
 11
593.638632
 21
207.874977
 31
0.0
  0
LINE
  5
76E9
  8
61
 10
582.838632
 20
127.930064
 30
0.0
 11
315.338632
 21
127.930064
 31
0.0
  0
LINE
  5
76EA
  8
61
 10
315.338632
 20
127.930064
 30
0.0
 11
47.838632
 21
127.930064
 31
0.0
  0
LINE
  5
76EB
  8
61
 10
582.838632
 20
503.530064
 30
0.0
 11
315.338632
 21
503.530064
 31
0.0
  0
LINE
  5
76EC
  8
61
 10
315.338632
 20
503.530064
 30
0.0
 11
47.838632
 21
503.530064
 31
0.0
  0
LINE
  5
76ED
  8
61
 10
37.038632
 20
492.730064
 30
0.0
 11
37.038632
 21
207.774744
 31
0.0
  0
LINE
  5
76EE
  8
61
 10
582.14628
 20
500.700048
 30
0.0
 11
590.808616
 21
492.037712
 31
0.0
  0
LINE
  5
76EF
  8
61
 10
574.909754
 20
493.794439
 30
0.0
 11
583.903007
 21
484.801186
 31
0.0
  0
ARC
  5
76F0
  8
61
 10
582.838632
 20
492.730064
 30
0.0
 40
8.0
 50
94.964813
 51
172.354304
  0
ARC
  5
76F1
  8
61
 10
582.838632
 20
492.730064
 30
0.0
 40
8.0
 50
277.645696
 51
355.035187
  0
LINE
  5
76F2
  8
61
 10
309.213435
 20
497.876127
 30
0.0
 11
321.463828
 21
497.876127
 31
0.0
  0
LINE
  5
76F3
  8
61
 10
308.979441
 20
487.876127
 30
0.0
 11
321.697822
 21
487.876127
 31
0.0
  0
ARC
  5
76F4
  8
61
 10
315.338632
 20
492.730064
 30
0.0
 40
8.0
 50
322.645696
 51
40.035187
  0
ARC
  5
76F5
  8
61
 10
315.338632
 20
492.730064
 30
0.0
 40
8.0
 50
139.964813
 51
217.354304
  0
LINE
  5
76F6
  8
61
 10
39.868647
 20
492.037712
 30
0.0
 11
48.530983
 21
500.700048
 31
0.0
  0
LINE
  5
76F7
  8
61
 10
46.774256
 20
484.801186
 30
0.0
 11
55.767509
 21
493.794439
 31
0.0
  0
ARC
  5
76F8
  8
61
 10
47.838632
 20
492.730064
 30
0.0
 40
8.0
 50
184.964813
 51
262.354304
  0
ARC
  5
76F9
  8
61
 10
47.838632
 20
492.730064
 30
0.0
 40
8.0
 50
7.645696
 51
85.035187
  0
ARC
  5
76FA
  8
61
 10
315.338632
 20
138.730064
 30
0.0
 40
8.0
 50
322.645696
 51
40.035187
  0
LINE
  5
76FB
  8
61
 10
309.213435
 20
143.876127
 30
0.0
 11
321.463828
 21
143.876127
 31
0.0
  0
LINE
  5
76FC
  8
61
 10
308.979441
 20
133.876127
 30
0.0
 11
321.697822
 21
133.876127
 31
0.0
  0
ARC
  5
76FD
  8
61
 10
315.338632
 20
138.730064
 30
0.0
 40
8.0
 50
139.964813
 51
217.354304
  0
LINE
  5
76FE
  8
61
 10
574.868647
 20
138.037712
 30
0.0
 11
583.530983
 21
146.700048
 31
0.0
  0
ARC
  5
76FF
  8
61
 10
582.838632
 20
138.730064
 30
0.0
 40
8.0
 50
7.645696
 51
85.035187
  0
LINE
  5
7700
  8
61
 10
581.774256
 20
130.801186
 30
0.0
 11
590.767509
 21
139.794439
 31
0.0
  0
ARC
  5
7701
  8
61
 10
582.838632
 20
138.730064
 30
0.0
 40
8.0
 50
184.964813
 51
262.354304
  0
ARC
  5
7702
  8
61
 10
47.838632
 20
138.730064
 30
0.0
 40
8.0
 50
97.645696
 51
175.035187
  0
LINE
  5
7703
  8
61
 10
55.767509
 20
137.665689
 30
0.0
 11
46.774256
 21
146.658942
 31
0.0
  0
ARC
  5
7704
  8
61
 10
47.838632
 20
138.730064
 30
0.0
 40
8.0
 50
274.964813
 51
352.354304
  0
LINE
  5
7705
  8
61
 10
48.530983
 20
130.760079
 30
0.0
 11
39.868647
 21
139.422415
 31
0.0
  0
LINE
  5
7706
  8
61
 10
593.638632
 20
207.774744
 30
0.0
 11
593.638632
 21
138.730064
 31
0.0
  0
LINE
  5
7707
  8
61
 10
37.038632
 20
207.774744
 30
0.0
 11
37.038632
 21
138.589105
 31
0.0
  0
LINE
  5
7708
  8
61
 10
586.006085
 20
481.019495
 30
0.0
 11
586.006085
 21
207.82752
 31
0.0
  0
LINE
  5
7709
  8
61
 10
571.151315
 20
135.510232
 30
0.0
 11
327.025948
 21
135.510232
 31
0.0
  0
LINE
  5
770A
  8
61
 10
303.662067
 20
135.486226
 30
0.0
 11
59.515196
 21
135.486226
 31
0.0
  0
LINE
  5
770B
  8
61
 10
571.163197
 20
495.976417
 30
0.0
 11
327.014066
 21
495.976417
 31
0.0
  0
LINE
  5
770C
  8
61
 10
303.663943
 20
495.978077
 30
0.0
 11
59.51332
 21
495.978077
 31
0.0
  0
LINE
  5
770D
  8
61
 10
44.596845
 20
481.052578
 30
0.0
 11
44.596845
 21
207.700795
 31
0.0
  0
ARC
  5
770E
  8
61
 10
61.783267
 20
137.486226
 30
0.0
 40
2.0
 50
174.902802
 51
270.0
  0
ARC
  5
770F
  8
61
 10
46.596845
 20
152.674882
 30
0.0
 40
2.0
 50
180.0
 51
275.08877
  0
ARC
  5
7710
  8
61
 10
59.515196
 20
133.486226
 30
0.0
 40
2.0
 50
90.0
 51
155.815589
  0
ARC
  5
7711
  8
61
 10
42.596845
 20
150.407549
 30
0.0
 40
2.0
 50
294.174347
 51
0.0
  0
ARC
  5
7712
  8
61
 10
61.782894
 20
493.978077
 30
0.0
 40
2.0
 50
90.0
 51
185.114352
  0
ARC
  5
7713
  8
61
 10
46.596845
 20
478.785245
 30
0.0
 40
2.0
 50
84.91123
 51
180.0
  0
ARC
  5
7714
  8
61
 10
42.596845
 20
481.052578
 30
0.0
 40
2.0
 50
0.0
 51
65.825653
  0
ARC
  5
7715
  8
61
 10
59.51332
 20
497.978077
 30
0.0
 40
2.0
 50
204.2049
 51
270.0
  0
ARC
  5
7716
  8
61
 10
584.006085
 20
478.778825
 30
0.0
 40
2.0
 50
0.0
 51
94.783425
  0
ARC
  5
7717
  8
61
 10
568.89422
 20
493.976417
 30
0.0
 40
2.0
 50
354.892469
 51
90.0
  0
ARC
  5
7718
  8
61
 10
571.163197
 20
497.976417
 30
0.0
 40
2.0
 50
270.0
 51
335.803248
  0
ARC
  5
7719
  8
61
 10
588.006085
 20
481.019495
 30
0.0
 40
2.0
 50
113.810147
 51
180.0
  0
ARC
  5
771A
  8
61
 10
568.891875
 20
137.510232
 30
0.0
 40
2.0
 50
270.0
 51
4.998567
  0
ARC
  5
771B
  8
61
 10
584.006085
 20
152.681302
 30
0.0
 40
2.0
 50
265.216575
 51
0.0
  0
ARC
  5
771C
  8
61
 10
588.006085
 20
150.440633
 30
0.0
 40
2.0
 50
180.0
 51
246.189853
  0
ARC
  5
771D
  8
61
 10
571.151315
 20
133.510232
 30
0.0
 40
2.0
 50
24.066667
 51
90.0
  0
ARC
  5
771E
  8
61
 10
301.394369
 20
493.978077
 30
0.0
 40
2.0
 50
354.885648
 51
90.0
  0
ARC
  5
771F
  8
61
 10
329.283043
 20
493.976417
 30
0.0
 40
2.0
 50
90.0
 51
185.107531
  0
ARC
  5
7720
  8
61
 10
327.014066
 20
497.976417
 30
0.0
 40
2.0
 50
204.196752
 51
270.0
  0
ARC
  5
7721
  8
61
 10
303.663943
 20
497.978077
 30
0.0
 40
2.0
 50
270.0
 51
335.7951
  0
ARC
  5
7722
  8
61
 10
301.393996
 20
137.486226
 30
0.0
 40
2.0
 50
270.0
 51
5.097198
  0
ARC
  5
7723
  8
61
 10
329.285388
 20
137.510232
 30
0.0
 40
2.0
 50
175.001433
 51
270.0
  0
ARC
  5
7724
  8
61
 10
327.025948
 20
133.510232
 30
0.0
 40
2.0
 50
90.0
 51
155.933333
  0
ARC
  5
7725
  8
61
 10
303.662067
 20
133.486226
 30
0.0
 40
2.0
 50
24.184411
 51
90.0
  0
LINE
  5
7726
  8
52
 10
-195.192352
 20
500.700048
 30
0.0
 11
-186.530016
 21
492.037712
 31
0.0
  0
ARC
  5
7727
  8
52
 10
-194.5
 20
492.730064
 30
0.0
 40
8.0
 50
277.645696
 51
355.035187
  0
ARC
  5
7728
  8
52
 10
-194.5
 20
492.730064
 30
0.0
 40
8.0
 50
94.964813
 51
172.354304
  0
LINE
  5
7729
  8
52
 10
-202.428878
 20
493.794439
 30
0.0
 11
-193.435625
 21
484.801186
 31
0.0
  0
LINE
  5
772A
  8
51
 10
-194.5
 20
503.530064
 30
0.0
 11
-462.0
 21
503.530064
 31
0.0
  0
LINE
  5
772B
  8
51
 10
-183.7
 20
492.730064
 30
0.0
 11
-183.7
 21
207.774744
 31
0.0
  0
ARC
  5
772C
  8
51
 10
-194.5
 20
492.730064
 30
0.0
 40
10.8
 50
293.289549
 51
156.710451
  0
LINE
  5
772D
  8
51
 10
-183.7
 20
207.774744
 30
0.0
 11
-183.7
 21
138.730064
 31
0.0
  0
ARC
  5
772E
  8
51
 10
-194.5
 20
138.730064
 30
0.0
 40
10.8
 50
203.289549
 51
66.710451
  0
LINE
  5
772F
  8
52
 10
-195.564375
 20
130.801186
 30
0.0
 11
-186.571122
 21
139.794439
 31
0.0
  0
LINE
  5
7730
  8
52
 10
-202.469984
 20
138.037712
 30
0.0
 11
-193.807648
 21
146.700048
 31
0.0
  0
ARC
  5
7731
  8
52
 10
-194.5
 20
138.730064
 30
0.0
 40
8.0
 50
184.964813
 51
262.354304
  0
ARC
  5
7732
  8
52
 10
-194.5
 20
138.730064
 30
0.0
 40
8.0
 50
7.645696
 51
85.035187
  0
LINE
  5
7733
  8
51
 10
-194.5
 20
127.930064
 30
0.0
 11
-462.0
 21
127.930064
 31
0.0
  0
ARC
  5
7734
  8
52
 10
-462.0
 20
492.730064
 30
0.0
 40
10.8
 50
22.588165
 51
90.0
  0
ARC
  5
7735
  8
52
 10
-462.0
 20
492.730064
 30
0.0
 40
8.0
 50
322.645696
 51
40.035187
  0
LINE
  5
7736
  8
52
 10
-462.0
 20
487.876127
 30
0.0
 11
-455.64081
 21
487.876127
 31
0.0
  0
LINE
  5
7737
  8
52
 10
-462.0
 20
497.876127
 30
0.0
 11
-455.874804
 21
497.876127
 31
0.0
  0
ARC
  5
7738
  8
52
 10
-462.0
 20
138.730064
 30
0.0
 40
8.0
 50
322.645696
 51
40.035187
  0
LINE
  5
7739
  8
52
 10
-462.0
 20
143.876127
 30
0.0
 11
-455.874804
 21
143.876127
 31
0.0
  0
LINE
  5
773A
  8
52
 10
-462.0
 20
133.876127
 30
0.0
 11
-455.64081
 21
133.876127
 31
0.0
  0
ARC
  5
773B
  8
52
 10
-462.0
 20
138.730064
 30
0.0
 40
10.8
 50
270.0
 51
337.415426
  0
LINE
  5
773C
  8
51
 10
-191.7
 20
475.430064
 30
0.0
 11
-191.7
 21
207.774744
 31
0.0
  0
LINE
  5
773D
  8
51
 10
-191.7
 20
207.774744
 30
0.0
 11
-191.7
 21
156.030064
 31
0.0
  0
LINE
  5
773E
  8
51
 10
-211.8
 20
495.530064
 30
0.0
 11
-444.7
 21
495.530064
 31
0.0
  0
ARC
  5
773F
  8
52
 10
-462.0
 20
492.730064
 30
0.0
 40
9.0
 50
270.0
 51
0.654823
  0
ARC
  5
7740
  8
52
 10
-462.0
 20
138.730064
 30
0.0
 40
9.0
 50
360.0
 51
90.0
  0
LINE
  5
7741
  8
52
 10
-212.0
 20
497.030064
 30
0.0
 11
-444.3
 21
497.030064
 31
0.0
  0
LINE
  5
7742
  8
52
 10
-190.2
 20
475.230064
 30
0.0
 11
-190.2
 21
207.774744
 31
0.0
  0
LINE
  5
7743
  8
52
 10
-190.2
 20
207.774744
 30
0.0
 11
-190.2
 21
156.230064
 31
0.0
  0
LINE
  5
7744
  8
52
 10
-212.0
 20
501.430064
 30
0.0
 11
-444.501143
 21
501.430064
 31
0.0
  0
LINE
  5
7745
  8
52
 10
-185.8
 20
475.230064
 30
0.0
 11
-185.8
 21
207.774744
 31
0.0
  0
LINE
  5
7746
  8
52
 10
-185.8
 20
207.774744
 30
0.0
 11
-185.8
 21
156.030064
 31
0.0
  0
ARC
  5
7747
  8
51
 10
-194.5
 20
492.730064
 30
0.0
 40
14.5
 50
180.0
 51
270.0
  0
ARC
  5
7748
  8
52
 10
-194.5
 20
492.730064
 30
0.0
 40
13.2
 50
180.0
 51
270.0
  0
ARC
  5
7749
  8
52
 10
-194.5
 20
492.730064
 30
0.0
 40
8.8
 50
180.0
 51
270.0
  0
ARC
  5
774A
  8
51
 10
-211.8
 20
492.730064
 30
0.0
 40
2.8
 50
360.0
 51
90.0
  0
ARC
  5
774B
  8
51
 10
-194.5
 20
475.430064
 30
0.0
 40
2.8
 50
0.0
 51
90.0
  0
ARC
  5
774C
  8
52
 10
-194.5
 20
475.230064
 30
0.0
 40
4.3
 50
0.0
 51
90.0
  0
ARC
  5
774D
  8
52
 10
-212.0
 20
492.730064
 30
0.0
 40
4.3
 50
360.0
 51
90.0
  0
ARC
  5
774E
  8
52
 10
-194.5
 20
475.230064
 30
0.0
 40
8.7
 50
0.0
 51
90.0
  0
ARC
  5
774F
  8
52
 10
-212.0
 20
492.730064
 30
0.0
 40
8.7
 50
360.0
 51
90.0
  0
ARC
  5
7750
  8
52
 10
-444.501143
 20
492.930064
 30
0.0
 40
8.5
 50
90.0
 51
180.654823
  0
ARC
  5
7751
  8
51
 10
-462.0
 20
492.730064
 30
0.0
 40
14.5
 50
270.0
 51
0.0
  0
ARC
  5
7752
  8
52
 10
-462.0
 20
492.730064
 30
0.0
 40
13.4
 50
270.0
 51
0.0
  0
ARC
  5
7753
  8
51
 10
-444.7
 20
492.730064
 30
0.0
 40
2.8
 50
90.0
 51
180.0
  0
ARC
  5
7754
  8
52
 10
-444.3
 20
492.730064
 30
0.0
 40
4.3
 50
90.0
 51
180.0
  0
ARC
  5
7755
  8
51
 10
-461.999412
 20
138.730064
 30
0.0
 40
14.5
 50
360.0
 51
90.002323
  0
ARC
  5
7756
  8
52
 10
-461.999412
 20
138.730064
 30
0.0
 40
13.4
 50
360.0
 51
90.002513
  0
ARC
  5
7757
  8
52
 10
-444.299412
 20
138.730064
 30
0.0
 40
4.3
 50
180.0
 51
270.0
  0
ARC
  5
7758
  8
51
 10
-444.699412
 20
138.730064
 30
0.0
 40
2.8
 50
180.0
 51
270.0
  0
ARC
  5
7759
  8
52
 10
-444.500555
 20
138.530064
 30
0.0
 40
8.5
 50
178.65174
 51
270.0
  0
LINE
  5
775A
  8
52
 10
-211.999992
 20
134.430064
 30
0.0
 11
-444.29942
 21
134.430064
 31
0.0
  0
LINE
  5
775B
  8
51
 10
-211.8
 20
135.930064
 30
0.0
 11
-444.699412
 21
135.930064
 31
0.0
  0
ARC
  5
775C
  8
52
 10
-194.5
 20
156.230064
 30
0.0
 40
8.7
 50
270.0
 51
0.0
  0
ARC
  5
775D
  8
52
 10
-194.5
 20
156.230064
 30
0.0
 40
4.3
 50
270.0
 51
0.0
  0
ARC
  5
775E
  8
51
 10
-194.5
 20
138.730064
 30
0.0
 40
14.5
 50
90.0
 51
180.0
  0
ARC
  5
775F
  8
52
 10
-194.5
 20
138.730064
 30
0.0
 40
13.2
 50
90.0
 51
180.0
  0
ARC
  5
7760
  8
52
 10
-194.5
 20
138.730064
 30
0.0
 40
8.8
 50
90.0
 51
180.0
  0
ARC
  5
7761
  8
52
 10
-212.0
 20
138.730064
 30
0.0
 40
8.7
 50
270.0
 51
0.0
  0
ARC
  5
7762
  8
52
 10
-212.0
 20
138.730064
 30
0.0
 40
4.3
 50
270.0
 51
0.0
  0
ARC
  5
7763
  8
51
 10
-211.8
 20
138.730064
 30
0.0
 40
2.8
 50
270.0
 51
0.0
  0
ARC
  5
7764
  8
51
 10
-194.5
 20
156.030064
 30
0.0
 40
2.8
 50
270.0
 51
0.0
  0
LINE
  5
7765
  8
52
 10
-211.8
 20
130.030064
 30
0.0
 11
-445.499438
 21
130.030064
 31
0.0
  0
LINE
  5
7766
  8
11
 10
593.647359
 20
45.101356
 30
0.0
 11
572.807865
 21
45.101356
 31
0.0
  0
LINE
  5
7767
  8
11
 10
580.759737
 20
15.101356
 30
0.0
 11
315.35299
 21
15.101356
 31
0.0
  0
LINE
  5
7768
  8
11
 10
593.638632
 20
44.601356
 30
0.0
 11
45.038632
 21
44.601356
 31
0.0
  0
LINE
  5
7769
  8
11
 10
57.869398
 20
45.101356
 30
0.0
 11
37.029904
 21
45.101356
 31
0.0
  0
LINE
  5
776A
  8
11
 10
593.21971
 20
20.601356
 30
0.0
 11
37.457553
 21
20.601356
 31
0.0
  0
LINE
  5
776B
  8
14
 10
315.35299
 20
18.601356
 30
0.0
 11
65.418084
 21
18.601356
 31
0.0
  0
LINE
  5
776C
  8
11
 10
593.647359
 20
45.101356
 30
0.0
 11
593.21971
 21
20.601356
 31
0.0
  0
LINE
  5
776D
  8
11
 10
37.029904
 20
45.101356
 30
0.0
 11
37.131561
 21
39.277408
 31
0.0
  0
LINE
  5
776E
  8
13
 10
315.338632
 20
29.527061
 30
0.0
 11
315.338632
 21
5.605557
 31
0.0
  0
LINE
  5
776F
  8
13
  6
DASHDOT
 10
315.338632
 20
29.167725
 30
0.0
 11
315.338632
 21
50.856213
 31
0.0
  0
LINE
  5
7770
  8
11
 10
44.01366
 20
20.601356
 30
0.0
 11
37.457553
 21
20.601356
 31
0.0
  0
ARC
  5
7771
  8
11
 10
49.917534
 20
21.101356
 30
0.0
 40
6.0
 50
185.0
 51
270.0
  0
LINE
  5
7772
  8
11
 10
57.869398
 20
45.101356
 30
0.0
 11
57.869398
 21
44.601356
 31
0.0
  0
LINE
  5
7773
  8
11
 10
37.131561
 20
39.277403
 30
0.0
 11
37.457553
 21
20.601356
 31
0.0
  0
LINE
  5
7774
  8
61
 10
586.006085
 20
207.660702
 30
0.0
 11
586.006085
 21
150.440633
 31
0.0
  0
LINE
  5
7775
  8
61
 10
44.596845
 20
207.634209
 30
0.0
 11
44.596845
 21
150.407549
 31
0.0
  0
LINE
  5
7776
  8
11
 10
586.738904
 20
20.601356
 30
0.0
 11
586.736897
 21
20.578421
 31
0.0
  0
ARC
  5
7777
  8
11
 10
580.759729
 20
21.101356
 30
0.0
 40
6.0
 50
270.0
 51
355.0
  0
LINE
  5
7778
  8
11
 10
572.807865
 20
45.101356
 30
0.0
 11
572.807865
 21
44.601356
 31
0.0
  0
LINE
  5
7779
  8
11
 10
570.804117
 20
20.601356
 30
0.0
 11
570.802111
 21
20.578421
 31
0.0
  0
ARC
  5
777A
  8
11
 10
564.824943
 20
21.101356
 30
0.0
 40
6.0
 50
270.0
 51
355.0
  0
LINE
  5
777B
  8
11
 10
582.838632
 20
38.101356
 30
0.0
 11
315.338632
 21
38.101356
 31
0.0
  0
LINE
  5
777C
  8
11
 10
570.804117
 20
20.601356
 30
0.0
 11
570.677976
 21
35.055747
 31
0.0
  0
ARC
  5
777D
  8
11
 10
581.946571
 20
15.862583
 30
0.0
 40
22.256656
 50
92.297066
 51
120.417837
  0
LINE
  5
777E
  8
11
 10
43.521775
 20
44.601356
 30
0.0
 11
39.132729
 21
44.601356
 31
0.0
  0
LINE
  5
777F
  8
11
 10
45.038632
 20
44.601356
 30
0.0
 11
43.521775
 21
44.601356
 31
0.0
  0
LINE
  5
7780
  8
11
 10
39.132729
 20
44.601356
 30
0.0
 11
37.038632
 21
44.601356
 31
0.0
  0
LINE
  5
7781
  8
11
 10
315.35299
 20
15.101356
 30
0.0
 11
49.917534
 21
15.101356
 31
0.0
  0
LINE
  5
7782
  8
14
 10
62.56325
 20
44.601356
 30
0.0
 11
62.56325
 21
21.60135
 31
0.0
  0
ARC
  5
7783
  8
14
 10
65.563248
 20
21.597841
 30
0.0
 40
3.0
 50
179.932998
 51
272.773515
  0
TEXT
  5
7784
  8
0
  6
CONTINUOUS
 10
421.447819
 20
990.602016
 30
0.0
 40
2.5
  1
  
 50
21.66214
  0
TEXT
  5
7785
  8
0
  6
CONTINUOUS
 10
422.178455
 20
1595.311933
 30
0.0
 40
2.5
  1
  
 50
21.66214
  0
LINE
  5
7786
  8
53
  6
DASHDOT
 10
-462.0
 20
525.116222
 30
0.0
 11
-462.0
 21
113.06792
 31
0.0
  0
LINE
  5
7789
  8
52
 10
-712.2
 20
130.030064
 30
0.0
 11
-478.500562
 21
130.030064
 31
0.0
  0
ARC
  5
778A
  8
51
 10
-729.5
 20
156.030064
 30
0.0
 40
2.8
 50
180.0
 51
270.0
  0
ARC
  5
778B
  8
51
 10
-712.2
 20
138.730064
 30
0.0
 40
2.8
 50
180.0
 51
270.0
  0
ARC
  5
778C
  8
52
 10
-712.0
 20
138.730064
 30
0.0
 40
4.3
 50
180.0
 51
270.0
  0
ARC
  5
778D
  8
52
 10
-712.0
 20
138.730064
 30
0.0
 40
8.7
 50
180.0
 51
270.0
  0
ARC
  5
778E
  8
52
 10
-729.5
 20
138.730064
 30
0.0
 40
8.8
 50
360.0
 51
90.0
  0
ARC
  5
778F
  8
52
 10
-729.5
 20
138.730064
 30
0.0
 40
13.2
 50
360.0
 51
90.0
  0
ARC
  5
7790
  8
51
 10
-729.5
 20
138.730064
 30
0.0
 40
14.5
 50
360.0
 51
90.0
  0
ARC
  5
7791
  8
52
 10
-729.5
 20
156.230064
 30
0.0
 40
4.3
 50
180.0
 51
270.0
  0
ARC
  5
7792
  8
52
 10
-729.5
 20
156.230064
 30
0.0
 40
8.7
 50
180.0
 51
270.0
  0
LINE
  5
7793
  8
51
 10
-712.2
 20
135.930064
 30
0.0
 11
-479.300588
 21
135.930064
 31
0.0
  0
LINE
  5
7794
  8
52
 10
-712.000008
 20
134.430064
 30
0.0
 11
-479.70058
 21
134.430064
 31
0.0
  0
ARC
  5
7795
  8
52
 10
-479.499445
 20
138.530064
 30
0.0
 40
8.5
 50
270.0
 51
1.34826
  0
ARC
  5
7796
  8
51
 10
-479.300588
 20
138.730064
 30
0.0
 40
2.8
 50
270.0
 51
0.0
  0
ARC
  5
7797
  8
52
 10
-479.700588
 20
138.730064
 30
0.0
 40
4.3
 50
270.0
 51
0.0
  0
ARC
  5
7798
  8
52
 10
-462.000588
 20
138.730064
 30
0.0
 40
13.4
 50
89.997487
 51
180.0
  0
ARC
  5
7799
  8
51
 10
-462.000588
 20
138.730064
 30
0.0
 40
14.5
 50
89.997677
 51
180.0
  0
ARC
  5
779A
  8
52
 10
-479.7
 20
492.730064
 30
0.0
 40
4.3
 50
360.0
 51
90.0
  0
ARC
  5
779B
  8
51
 10
-479.3
 20
492.730064
 30
0.0
 40
2.8
 50
360.0
 51
90.0
  0
ARC
  5
779C
  8
52
 10
-462.0
 20
492.730064
 30
0.0
 40
13.4
 50
180.0
 51
270.0
  0
ARC
  5
779D
  8
51
 10
-462.0
 20
492.730064
 30
0.0
 40
14.5
 50
180.0
 51
270.0
  0
ARC
  5
779E
  8
52
 10
-479.498857
 20
492.930064
 30
0.0
 40
8.5
 50
359.345177
 51
90.0
  0
ARC
  5
779F
  8
52
 10
-712.0
 20
492.730064
 30
0.0
 40
8.7
 50
90.0
 51
180.0
  0
ARC
  5
77A0
  8
52
 10
-729.5
 20
475.230064
 30
0.0
 40
8.7
 50
90.0
 51
180.0
  0
ARC
  5
77A1
  8
52
 10
-712.0
 20
492.730064
 30
0.0
 40
4.3
 50
90.0
 51
180.0
  0
ARC
  5
77A2
  8
52
 10
-729.5
 20
475.230064
 30
0.0
 40
4.3
 50
90.0
 51
180.0
  0
ARC
  5
77A3
  8
51
 10
-729.5
 20
475.430064
 30
0.0
 40
2.8
 50
90.0
 51
180.0
  0
ARC
  5
77A4
  8
51
 10
-712.2
 20
492.730064
 30
0.0
 40
2.8
 50
90.0
 51
180.0
  0
ARC
  5
77A5
  8
52
 10
-729.5
 20
492.730064
 30
0.0
 40
8.8
 50
270.0
 51
0.0
  0
ARC
  5
77A6
  8
52
 10
-729.5
 20
492.730064
 30
0.0
 40
13.2
 50
270.0
 51
0.0
  0
ARC
  5
77A7
  8
51
 10
-729.5
 20
492.730064
 30
0.0
 40
14.5
 50
270.0
 51
0.0
  0
LINE
  5
77A8
  8
52
 10
-738.2
 20
207.774744
 30
0.0
 11
-738.2
 21
156.030064
 31
0.0
  0
LINE
  5
77A9
  8
52
 10
-738.2
 20
475.230064
 30
0.0
 11
-738.2
 21
207.774744
 31
0.0
  0
LINE
  5
77AA
  8
52
 10
-712.0
 20
501.430064
 30
0.0
 11
-479.498857
 21
501.430064
 31
0.0
  0
LINE
  5
77AB
  8
52
 10
-733.8
 20
207.774744
 30
0.0
 11
-733.8
 21
156.230064
 31
0.0
  0
LINE
  5
77AC
  8
52
 10
-733.8
 20
475.230064
 30
0.0
 11
-733.8
 21
207.774744
 31
0.0
  0
LINE
  5
77AD
  8
52
 10
-712.0
 20
497.030064
 30
0.0
 11
-479.7
 21
497.030064
 31
0.0
  0
ARC
  5
77AE
  8
52
 10
-462.0
 20
138.730064
 30
0.0
 40
9.0
 50
90.0
 51
180.0
  0
ARC
  5
77AF
  8
52
 10
-462.0
 20
492.730064
 30
0.0
 40
9.0
 50
179.345177
 51
270.0
  0
LINE
  5
77B0
  8
51
 10
-712.2
 20
495.530064
 30
0.0
 11
-479.3
 21
495.530064
 31
0.0
  0
LINE
  5
77B1
  8
51
 10
-732.3
 20
207.774744
 30
0.0
 11
-732.3
 21
156.030064
 31
0.0
  0
LINE
  5
77B2
  8
51
 10
-732.3
 20
475.430064
 30
0.0
 11
-732.3
 21
207.774744
 31
0.0
  0
ARC
  5
77B3
  8
52
 10
-462.0
 20
138.730064
 30
0.0
 40
10.8
 50
202.584574
 51
270.0
  0
LINE
  5
77B4
  8
52
 10
-462.0
 20
133.876127
 30
0.0
 11
-468.35919
 21
133.876127
 31
0.0
  0
LINE
  5
77B5
  8
52
 10
-462.0
 20
143.876127
 30
0.0
 11
-468.125196
 21
143.876127
 31
0.0
  0
ARC
  5
77B6
  8
52
 10
-462.0
 20
138.730064
 30
0.0
 40
8.0
 50
139.964813
 51
217.354304
  0
LINE
  5
77B7
  8
52
 10
-462.0
 20
497.876127
 30
0.0
 11
-468.125196
 21
497.876127
 31
0.0
  0
LINE
  5
77B8
  8
52
 10
-462.0
 20
487.876127
 30
0.0
 11
-468.35919
 21
487.876127
 31
0.0
  0
ARC
  5
77B9
  8
52
 10
-462.0
 20
492.730064
 30
0.0
 40
8.0
 50
139.964813
 51
217.354304
  0
ARC
  5
77BA
  8
52
 10
-462.0
 20
492.730064
 30
0.0
 40
10.8
 50
90.0
 51
157.411835
  0
LINE
  5
77BB
  8
51
 10
-729.5
 20
127.930064
 30
0.0
 11
-462.0
 21
127.930064
 31
0.0
  0
ARC
  5
77BC
  8
52
 10
-729.5
 20
138.730064
 30
0.0
 40
8.0
 50
94.964813
 51
172.354304
  0
ARC
  5
77BD
  8
52
 10
-729.5
 20
138.730064
 30
0.0
 40
8.0
 50
277.645696
 51
355.035187
  0
LINE
  5
77BE
  8
52
 10
-721.530016
 20
138.037712
 30
0.0
 11
-730.192352
 21
146.700048
 31
0.0
  0
LINE
  5
77BF
  8
52
 10
-728.435625
 20
130.801186
 30
0.0
 11
-737.428878
 21
139.794439
 31
0.0
  0
ARC
  5
77C0
  8
51
 10
-729.5
 20
138.730064
 30
0.0
 40
10.8
 50
113.289549
 51
336.710451
  0
LINE
  5
77C1
  8
51
 10
-740.3
 20
207.774744
 30
0.0
 11
-740.3
 21
138.730064
 31
0.0
  0
ARC
  5
77C2
  8
51
 10
-729.5
 20
492.730064
 30
0.0
 40
10.8
 50
23.289549
 51
246.710451
  0
LINE
  5
77C3
  8
51
 10
-740.3
 20
492.730064
 30
0.0
 11
-740.3
 21
207.774744
 31
0.0
  0
LINE
  5
77C4
  8
51
 10
-729.5
 20
503.530064
 30
0.0
 11
-462.0
 21
503.530064
 31
0.0
  0
LINE
  5
77C5
  8
52
 10
-721.571122
 20
493.794439
 30
0.0
 11
-730.564375
 21
484.801186
 31
0.0
  0
ARC
  5
77C6
  8
52
 10
-729.5
 20
492.730064
 30
0.0
 40
8.0
 50
7.645696
 51
85.035187
  0
ARC
  5
77C7
  8
52
 10
-729.5
 20
492.730064
 30
0.0
 40
8.0
 50
184.964813
 51
262.354304
  0
LINE
  5
77C8
  8
52
 10
-728.807648
 20
500.700048
 30
0.0
 11
-737.469984
 21
492.037712
 31
0.0
  0
LINE
  5
77C9
  8
11
 10
47.838632
 20
38.101356
 30
0.0
 11
315.338632
 21
38.101356
 31
0.0
  0
ARC
  5
77CA
  8
11
 10
48.730692
 20
15.862583
 30
0.0
 40
22.256656
 50
59.582163
 51
87.702934
  0
LINE
  5
77CB
  8
11
 10
59.873146
 20
20.601356
 30
0.0
 11
59.999287
 21
35.055747
 31
0.0
  0
ARC
  5
77CC
  8
11
 10
65.85232
 20
21.101356
 30
0.0
 40
6.0
 50
185.0
 51
270.0
  0
ARC
  5
77CD
  8
14
 10
565.114015
 20
21.597841
 30
0.0
 40
3.0
 50
267.226485
 51
0.067002
  0
LINE
  5
77CE
  8
14
 10
568.114013
 20
44.601356
 30
0.0
 11
568.114013
 21
21.60135
 31
0.0
  0
LINE
  5
77CF
  8
14
 10
315.324274
 20
18.601356
 30
0.0
 11
565.259179
 21
18.601356
 31
0.0
  0
LINE
  5
77D0
  8
34
 10
686.338632
 20
315.715706
 30
0.0
 11
686.338632
 21
475.350611
 31
0.0
  0
LINE
  5
77D1
  8
34
 10
660.338632
 20
478.205445
 30
0.0
 11
683.338637
 21
478.205445
 31
0.0
  0
ARC
  5
77D2
  8
34
 10
683.342146
 20
475.205447
 30
0.0
 40
3.0
 50
357.226485
 51
90.067002
  0
ARC
  5
77D3
  8
31
 10
683.838632
 20
156.543753
 30
0.0
 40
6.0
 50
275.0
 51
0.0
  0
LINE
  5
77D4
  8
31
 10
684.338632
 20
150.564578
 30
0.0
 11
669.88424
 21
150.690719
 31
0.0
  0
ARC
  5
77D5
  8
31
 10
689.077404
 20
139.422124
 30
0.0
 40
22.256656
 50
149.582163
 51
177.702934
  0
LINE
  5
77D6
  8
31
 10
666.838632
 20
138.530064
 30
0.0
 11
666.838632
 21
315.730064
 31
0.0
  0
ARC
  5
77D7
  8
34
 10
683.342146
 20
156.254681
 30
0.0
 40
3.0
 50
269.932998
 51
2.773515
  0
LINE
  5
77D8
  8
34
 10
660.338632
 20
153.254683
 30
0.0
 11
683.338637
 21
153.254683
 31
0.0
  0
LINE
  5
77D9
  8
31
 10
689.838632
 20
315.744422
 30
0.0
 11
689.838632
 21
140.608966
 31
0.0
  0
LINE
  5
77DA
  8
31
 10
660.338632
 20
129.824162
 30
0.0
 11
660.338632
 21
127.730064
 31
0.0
  0
LINE
  5
77DB
  8
31
 10
660.338632
 20
135.730064
 30
0.0
 11
660.338632
 21
134.213207
 31
0.0
  0
LINE
  5
77DC
  8
31
 10
660.338632
 20
134.213207
 30
0.0
 11
660.338632
 21
129.824162
 31
0.0
  0
ARC
  5
77DD
  8
31
 10
689.077404
 20
492.038003
 30
0.0
 40
22.256656
 50
182.297066
 51
210.417837
  0
LINE
  5
77DE
  8
31
 10
684.338632
 20
480.89555
 30
0.0
 11
669.88424
 21
480.769408
 31
0.0
  0
LINE
  5
77DF
  8
31
 10
666.838632
 20
492.930064
 30
0.0
 11
666.838632
 21
315.730064
 31
0.0
  0
ARC
  5
77E0
  8
31
 10
683.838632
 20
474.916375
 30
0.0
 40
6.0
 50
0.0
 51
85.0
  0
LINE
  5
77E1
  8
31
 10
684.338632
 20
480.89555
 30
0.0
 11
684.361566
 21
480.893543
 31
0.0
  0
LINE
  5
77E2
  8
31
 10
659.838632
 20
482.899298
 30
0.0
 11
660.338632
 21
482.899298
 31
0.0
  0
ARC
  5
77E3
  8
31
 10
683.838632
 20
490.851161
 30
0.0
 40
6.0
 50
0.0
 51
85.0
  0
LINE
  5
77E4
  8
31
 10
684.338632
 20
496.830336
 30
0.0
 11
684.361566
 21
496.828329
 31
0.0
  0
LINE
  5
77E5
  8
31
 10
665.662584
 20
127.822994
 30
0.0
 11
684.338632
 21
128.148985
 31
0.0
  0
LINE
  5
77E6
  8
31
 10
659.838632
 20
148.56083
 30
0.0
 11
660.338632
 21
148.56083
 31
0.0
  0
ARC
  5
77E7
  8
31
 10
683.838632
 20
140.608966
 30
0.0
 40
6.0
 50
275.0
 51
0.0
  0
LINE
  5
77E8
  8
31
 10
684.338632
 20
134.705092
 30
0.0
 11
684.338632
 21
128.148985
 31
0.0
  0
LINE
  5
77E9
  8
33
  6
DASHDOT
 10
695.426183
 20
315.730064
 30
0.0
 11
654.083774
 21
315.730064
 31
0.0
  0
LINE
  5
77EB
  8
31
 10
659.838632
 20
127.721336
 30
0.0
 11
665.662579
 21
127.822994
 31
0.0
  0
LINE
  5
77EC
  8
31
 10
659.838632
 20
503.738791
 30
0.0
 11
684.338632
 21
503.311142
 31
0.0
  0
LINE
  5
77ED
  8
34
 10
686.338632
 20
315.744422
 30
0.0
 11
686.338632
 21
156.109516
 31
0.0
  0
LINE
  5
77EE
  8
31
 10
684.338632
 20
503.311142
 30
0.0
 11
684.338632
 21
128.148985
 31
0.0
  0
LINE
  5
77EF
  8
31
 10
659.838632
 20
148.56083
 30
0.0
 11
659.838632
 21
127.721336
 31
0.0
  0
LINE
  5
77F0
  8
31
 10
660.338632
 20
503.730064
 30
0.0
 11
660.338632
 21
135.730064
 31
0.0
  0
LINE
  5
77F1
  8
31
 10
689.838632
 20
490.851169
 30
0.0
 11
689.838632
 21
315.744422
 31
0.0
  0
LINE
  5
77F2
  8
31
 10
659.838632
 20
503.738791
 30
0.0
 11
659.838632
 21
482.899298
 31
0.0
  0
LINE
  5
77F3
  8
53
  6
DASHDOT
 10
-754.730064
 20
315.730064
 30
0.0
 11
-177.730064
 21
315.730064
 31
0.0
  0
LINE
  5
77F4
  8
63
 10
29.608568
 20
315.730064
 30
0.0
 11
604.608568
 21
315.730064
 31
0.0
  0
LINE
  5
77F5
  8
41
 10
-64.161368
 20
503.738791
 30
0.0
 11
-64.161368
 21
482.899298
 31
0.0
  0
LINE
  5
77F6
  8
41
 10
-94.161368
 20
490.851169
 30
0.0
 11
-94.161368
 21
315.744422
 31
0.0
  0
LINE
  5
77F7
  8
41
 10
-64.661368
 20
503.730064
 30
0.0
 11
-64.661368
 21
135.730064
 31
0.0
  0
LINE
  5
77F8
  8
41
 10
-64.161368
 20
148.56083
 30
0.0
 11
-64.161368
 21
127.721336
 31
0.0
  0
LINE
  5
77F9
  8
41
 10
-88.661368
 20
503.311142
 30
0.0
 11
-88.661368
 21
128.148985
 31
0.0
  0
LINE
  5
77FA
  8
44
 10
-90.661368
 20
315.744422
 30
0.0
 11
-90.661368
 21
156.109516
 31
0.0
  0
LINE
  5
77FB
  8
41
 10
-64.161368
 20
503.738791
 30
0.0
 11
-88.661368
 21
503.311142
 31
0.0
  0
LINE
  5
77FC
  8
41
 10
-64.161368
 20
127.721336
 30
0.0
 11
-69.985316
 21
127.822994
 31
0.0
  0
LINE
  5
77FE
  8
43
  6
DASHDOT
 10
-98.49927
 20
315.730064
 30
0.0
 11
-58.406511
 21
315.730064
 31
0.0
  0
LINE
  5
77FF
  8
41
 10
-88.661368
 20
134.705092
 30
0.0
 11
-88.661368
 21
128.148985
 31
0.0
  0
ARC
  5
7800
  8
41
 10
-88.161368
 20
140.608966
 30
0.0
 40
6.0
 50
180.0
 51
265.0
  0
LINE
  5
7801
  8
41
 10
-64.161368
 20
148.56083
 30
0.0
 11
-64.661368
 21
148.56083
 31
0.0
  0
LINE
  5
7802
  8
41
 10
-69.985321
 20
127.822994
 30
0.0
 11
-88.661368
 21
128.148985
 31
0.0
  0
LINE
  5
7803
  8
41
 10
-88.661368
 20
496.830336
 30
0.0
 11
-88.684303
 21
496.828329
 31
0.0
  0
ARC
  5
7804
  8
41
 10
-88.161368
 20
490.851161
 30
0.0
 40
6.0
 50
95.0
 51
180.0
  0
LINE
  5
7805
  8
41
 10
-64.161368
 20
482.899298
 30
0.0
 11
-64.661368
 21
482.899298
 31
0.0
  0
LINE
  5
7806
  8
41
 10
-88.661368
 20
480.89555
 30
0.0
 11
-88.684303
 21
480.893543
 31
0.0
  0
ARC
  5
7807
  8
41
 10
-88.161368
 20
474.916375
 30
0.0
 40
6.0
 50
95.0
 51
180.0
  0
LINE
  5
7808
  8
41
 10
-71.161368
 20
492.930064
 30
0.0
 11
-71.161368
 21
315.730064
 31
0.0
  0
LINE
  5
7809
  8
41
 10
-88.661368
 20
480.89555
 30
0.0
 11
-74.206977
 21
480.769408
 31
0.0
  0
ARC
  5
780A
  8
41
 10
-93.400141
 20
492.038003
 30
0.0
 40
22.256656
 50
329.582163
 51
357.702934
  0
LINE
  5
780B
  8
41
 10
-64.661368
 20
134.213207
 30
0.0
 11
-64.661368
 21
129.824162
 31
0.0
  0
LINE
  5
780C
  8
41
 10
-64.661368
 20
135.730064
 30
0.0
 11
-64.661368
 21
134.213207
 31
0.0
  0
LINE
  5
780D
  8
41
 10
-64.661368
 20
129.824162
 30
0.0
 11
-64.661368
 21
127.730064
 31
0.0
  0
LINE
  5
780E
  8
41
 10
-94.161368
 20
315.744422
 30
0.0
 11
-94.161368
 21
140.608966
 31
0.0
  0
LINE
  5
780F
  8
44
 10
-64.661368
 20
153.254683
 30
0.0
 11
-87.661374
 21
153.254683
 31
0.0
  0
ARC
  5
7810
  8
44
 10
-87.664883
 20
156.254681
 30
0.0
 40
3.0
 50
177.226485
 51
270.067002
  0
LINE
  5
7811
  8
41
 10
-71.161368
 20
138.530064
 30
0.0
 11
-71.161368
 21
315.730064
 31
0.0
  0
ARC
  5
7812
  8
41
 10
-93.400141
 20
139.422124
 30
0.0
 40
22.256656
 50
2.297066
 51
30.417837
  0
LINE
  5
7813
  8
41
 10
-88.661368
 20
150.564578
 30
0.0
 11
-74.206977
 21
150.690719
 31
0.0
  0
ARC
  5
7814
  8
41
 10
-88.161368
 20
156.543753
 30
0.0
 40
6.0
 50
180.0
 51
265.0
  0
ARC
  5
7815
  8
44
 10
-87.664883
 20
475.205447
 30
0.0
 40
3.0
 50
89.932998
 51
182.773515
  0
LINE
  5
7816
  8
44
 10
-64.661368
 20
478.205445
 30
0.0
 11
-87.661374
 21
478.205445
 31
0.0
  0
LINE
  5
7817
  8
44
 10
-90.661368
 20
315.715706
 30
0.0
 11
-90.661368
 21
475.350611
 31
0.0
  0
LINE
  5
7818
  8
24
 10
315.324274
 20
612.858772
 30
0.0
 11
565.259179
 21
612.858772
 31
0.0
  0
LINE
  5
7819
  8
24
 10
568.114013
 20
586.858772
 30
0.0
 11
568.114013
 21
609.858778
 31
0.0
  0
ARC
  5
781A
  8
24
 10
565.114015
 20
609.862286
 30
0.0
 40
3.0
 50
359.932998
 51
92.773515
  0
ARC
  5
781B
  8
21
 10
65.85232
 20
610.358772
 30
0.0
 40
6.0
 50
90.0
 51
175.0
  0
LINE
  5
781C
  8
21
 10
59.873146
 20
610.858772
 30
0.0
 11
59.999287
 21
596.404381
 31
0.0
  0
ARC
  5
781D
  8
21
 10
48.730692
 20
615.597544
 30
0.0
 40
22.256656
 50
272.297066
 51
300.417837
  0
LINE
  5
781E
  8
21
 10
47.838632
 20
593.358772
 30
0.0
 11
315.338632
 21
593.358772
 31
0.0
  0
ARC
  5
781F
  8
24
 10
65.563248
 20
609.862286
 30
0.0
 40
3.0
 50
87.226485
 51
180.067002
  0
LINE
  5
7820
  8
24
 10
62.56325
 20
586.858772
 30
0.0
 11
62.56325
 21
609.858778
 31
0.0
  0
LINE
  5
7821
  8
21
 10
315.35299
 20
616.358772
 30
0.0
 11
49.917534
 21
616.358772
 31
0.0
  0
LINE
  5
7822
  8
21
 10
39.132729
 20
586.858772
 30
0.0
 11
37.038632
 21
586.858772
 31
0.0
  0
LINE
  5
7823
  8
21
 10
45.038632
 20
586.858772
 30
0.0
 11
43.521775
 21
586.858772
 31
0.0
  0
LINE
  5
7824
  8
21
 10
43.521775
 20
586.858772
 30
0.0
 11
39.132729
 21
586.858772
 31
0.0
  0
ARC
  5
7825
  8
21
 10
581.946571
 20
615.597544
 30
0.0
 40
22.256656
 50
239.582163
 51
267.702934
  0
LINE
  5
7826
  8
21
 10
570.804117
 20
610.858772
 30
0.0
 11
570.677976
 21
596.404381
 31
0.0
  0
LINE
  5
7827
  8
21
 10
582.838632
 20
593.358772
 30
0.0
 11
315.338632
 21
593.358772
 31
0.0
  0
ARC
  5
7828
  8
21
 10
564.824943
 20
610.358772
 30
0.0
 40
6.0
 50
5.0
 51
90.0
  0
LINE
  5
7829
  8
21
 10
570.804117
 20
610.858772
 30
0.0
 11
570.802111
 21
610.881706
 31
0.0
  0
LINE
  5
782A
  8
21
 10
572.807865
 20
586.358772
 30
0.0
 11
572.807865
 21
586.858772
 31
0.0
  0
ARC
  5
782B
  8
21
 10
580.759729
 20
610.358772
 30
0.0
 40
6.0
 50
5.0
 51
90.0
  0
LINE
  5
782C
  8
21
 10
586.738904
 20
610.858772
 30
0.0
 11
586.736897
 21
610.881706
 31
0.0
  0
LINE
  5
782D
  8
21
 10
37.131561
 20
592.182724
 30
0.0
 11
37.457553
 21
610.858772
 31
0.0
  0
LINE
  5
782E
  8
21
 10
57.869398
 20
586.358772
 30
0.0
 11
57.869398
 21
586.858772
 31
0.0
  0
ARC
  5
782F
  8
21
 10
49.917534
 20
610.358772
 30
0.0
 40
6.0
 50
90.0
 51
175.0
  0
LINE
  5
7830
  8
21
 10
44.01366
 20
610.858772
 30
0.0
 11
37.457553
 21
610.858772
 31
0.0
  0
LINE
  5
7831
  8
23
  6
DASHDOT
 10
315.338632
 20
602.292402
 30
0.0
 11
315.338632
 21
580.603914
 31
0.0
  0
LINE
  5
7832
  8
23
 10
315.338632
 20
601.933067
 30
0.0
 11
315.338632
 21
625.854571
 31
0.0
  0
LINE
  5
7833
  8
21
 10
37.029904
 20
586.358772
 30
0.0
 11
37.131561
 21
592.182719
 31
0.0
  0
LINE
  5
7834
  8
21
 10
593.647359
 20
586.358772
 30
0.0
 11
593.21971
 21
610.858772
 31
0.0
  0
LINE
  5
7835
  8
24
 10
315.35299
 20
612.858772
 30
0.0
 11
65.418084
 21
612.858772
 31
0.0
  0
LINE
  5
7836
  8
21
 10
593.21971
 20
610.858772
 30
0.0
 11
37.457553
 21
610.858772
 31
0.0
  0
LINE
  5
7837
  8
21
 10
57.869398
 20
586.358772
 30
0.0
 11
37.029904
 21
586.358772
 31
0.0
  0
LINE
  5
7838
  8
21
 10
593.638632
 20
586.858772
 30
0.0
 11
45.038632
 21
586.858772
 31
0.0
  0
LINE
  5
7839
  8
21
 10
580.759737
 20
616.358772
 30
0.0
 11
315.35299
 21
616.358772
 31
0.0
  0
LINE
  5
783A
  8
21
 10
593.647359
 20
586.358772
 30
0.0
 11
572.807865
 21
586.358772
 31
0.0
  0
TEXT
  5
783B
  8
L20
 10
-572.0
 20
568.0
 30
0.0
 40
15.0
  1
FIBOX EK-U 30 COVER
  0
LINE
  5
7842
  8
42
 10
-74.206977
 20
150.690719
 30
0.0
 11
-74.206977
 21
480.769408
 31
0.0
  0
LINE
  5
7843
  8
12
 10
570.677976
 20
35.055747
 30
0.0
 11
59.999287
 21
35.055747
 31
0.0
  0
LINE
  5
7844
  8
32
 10
669.88424
 20
150.690719
 30
0.0
 11
669.88424
 21
480.769408
 31
0.0
  0
LINE
  5
7845
  8
22
 10
59.999287
 20
596.404381
 30
0.0
 11
570.677976
 21
596.404381
 31
0.0
  0
ARC
  5
79FA
  8
14
 10
333.038629
 20
21.597841
 30
0.0
 40
3.0
 50
179.932998
 51
272.773515
  0
LINE
  5
79FB
  8
14
 10
330.038632
 20
44.601356
 30
0.0
 11
330.038632
 21
21.60135
 31
0.0
  0
ARC
  5
79FC
  8
14
 10
565.114015
 20
21.597841
 30
0.0
 40
3.0
 50
267.226485
 51
0.067002
  0
LINE
  5
79FD
  8
14
 10
568.114013
 20
44.601356
 30
0.0
 11
568.114013
 21
21.60135
 31
0.0
  0
ARC
  5
79FE
  8
14
 10
297.638634
 20
21.597841
 30
0.0
 40
3.0
 50
267.226485
 51
0.067002
  0
LINE
  5
79FF
  8
14
 10
300.638632
 20
44.601356
 30
0.0
 11
300.638632
 21
21.60135
 31
0.0
  0
ARC
  5
7A08
  8
24
 10
297.638634
 20
609.862286
 30
0.0
 40
3.0
 50
359.932998
 51
92.773515
  0
ARC
  5
7A09
  8
24
 10
333.038629
 20
609.862286
 30
0.0
 40
3.0
 50
87.226485
 51
180.067002
  0
LINE
  5
7A0A
  8
24
 10
330.038632
 20
586.858772
 30
0.0
 11
330.038632
 21
609.858778
 31
0.0
  0
LINE
  5
7A0B
  8
24
 10
300.638632
 20
586.858772
 30
0.0
 11
300.638632
 21
609.858778
 31
0.0
  0
VIEWPORT
  5
1
 67
     1
  8
0
 10
210.0
 20
152.094241
 30
0.0
 40
420.0
 41
304.188482
 68
    -1
 69
     1
1001
ACAD
1000
MVIEW
1002
{
1070
    16
1010
0.0
1020
0.0
1030
0.0
1010
0.0
1020
0.0
1030
1.0
1040
0.0
1040
304.188482
1040
210.0
1040
152.094241
1040
50.0
1040
0.0
1040
0.0
1070
     0
1070
   100
1070
     1
1070
     1
1070
     1
1070
     0
1070
     0
1070
     0
1040
0.0
1040
0.0
1040
0.0
1040
1.0
1040
1.0
1040
0.0
1040
0.0
1070
     0
1002
{
1002
}
1002
}
  0
ENDSEC
  0
EOF
